  0
SECTION
  2
HEADER
  9
$ACADVER
  1
AC1015
  9
$ACADMAINTVER
 70
    20
  9
$DWGCODEPAGE
  3
ANSI_932
  9
$INSBASE
 10
0.0
 20
0.0
 30
0.0
  9
$EXTMIN
 10
-1800.109854899474
 20
-2684.440801444515
 30
-0.0044065396662347
  9
$EXTMAX
 10
1800.109871663281
 20
2666.829907303347
 30
0.0000001008615413
  9
$LIMMIN
 10
0.0
 20
0.0
  9
$LIMMAX
 10
0.0
 20
0.0
  9
$ORTHOMODE
 70
     0
  9
$REGENMODE
 70
     1
  9
$FILLMODE
 70
     1
  9
$QTEXTMODE
 70
     0
  9
$MIRRTEXT
 70
     1
  9
$LTSCALE
 40
101.6
  9
$ATTMODE
 70
     1
  9
$TEXTSIZE
 40
0.0
  9
$TRACEWID
 40
1.0
  9
$TEXTSTYLE
  7
STANDARD
  9
$CLAYER
  8
DATA
  9
$CELTYPE
  6
ByLayer
  9
$CECOLOR
 62
   256
  9
$CELTSCALE
 40
1.0
  9
$DISPSILH
 70
     0
  9
$DIMSCALE
 40
1.0
  9
$DIMASZ
 40
0.18
  9
$DIMEXO
 40
0.0625
  9
$DIMDLI
 40
0.38
  9
$DIMRND
 40
0.0
  9
$DIMDLE
 40
0.0
  9
$DIMEXE
 40
0.18
  9
$DIMTP
 40
0.0
  9
$DIMTM
 40
0.0
  9
$DIMTXT
 40
0.18
  9
$DIMCEN
 40
0.09
  9
$DIMTSZ
 40
0.0
  9
$DIMTOL
 70
     0
  9
$DIMLIM
 70
     0
  9
$DIMTIH
 70
     1
  9
$DIMTOH
 70
     1
  9
$DIMSE1
 70
     0
  9
$DIMSE2
 70
     0
  9
$DIMTAD
 70
     0
  9
$DIMZIN
 70
     0
  9
$DIMBLK
  1

  9
$DIMASO
 70
     1
  9
$DIMSHO
 70
     1
  9
$DIMPOST
  1

  9
$DIMAPOST
  1

  9
$DIMALT
 70
     0
  9
$DIMALTD
 70
     2
  9
$DIMALTF
 40
25.4
  9
$DIMLFAC
 40
1.0
  9
$DIMTOFL
 70
     0
  9
$DIMTVP
 40
0.0
  9
$DIMTIX
 70
     0
  9
$DIMSOXD
 70
     0
  9
$DIMSAH
 70
     0
  9
$DIMBLK1
  1

  9
$DIMBLK2
  1

  9
$DIMSTYLE
  2
STANDARD
  9
$DIMCLRD
 70
     0
  9
$DIMCLRE
 70
     0
  9
$DIMCLRT
 70
     0
  9
$DIMTFAC
 40
1.0
  9
$DIMGAP
 40
0.09
  9
$DIMJUST
 70
     0
  9
$DIMSD1
 70
     0
  9
$DIMSD2
 70
     0
  9
$DIMTOLJ
 70
     1
  9
$DIMTZIN
 70
     0
  9
$DIMALTZ
 70
     0
  9
$DIMALTTZ
 70
     0
  9
$DIMUPT
 70
     0
  9
$DIMDEC
 70
     4
  9
$DIMTDEC
 70
     4
  9
$DIMALTU
 70
     2
  9
$DIMALTTD
 70
     2
  9
$DIMTXSTY
  7
STANDARD
  9
$DIMAUNIT
 70
     0
  9
$DIMADEC
 70
     0
  9
$DIMALTRND
 40
0.0
  9
$DIMAZIN
 70
     0
  9
$DIMDSEP
 70
    46
  9
$DIMATFIT
 70
     3
  9
$DIMFRAC
 70
     0
  9
$DIMLDRBLK
  1

  9
$DIMLUNIT
 70
     2
  9
$DIMLWD
 70
    -2
  9
$DIMLWE
 70
    -2
  9
$DIMTMOVE
 70
     0
  9
$LUNITS
 70
     2
  9
$LUPREC
 70
     2
  9
$SKETCHINC
 40
0.1
  9
$FILLETRAD
 40
0.0
  9
$AUNITS
 70
     0
  9
$AUPREC
 70
     0
  9
$MENU
  1
acad
  9
$ELEVATION
 40
0.0
  9
$PELEVATION
 40
0.0
  9
$THICKNESS
 40
0.0
  9
$LIMCHECK
 70
     0
  9
$CHAMFERA
 40
0.0
  9
$CHAMFERB
 40
0.0
  9
$CHAMFERC
 40
0.0
  9
$CHAMFERD
 40
0.0
  9
$SKPOLY
 70
     0
  9
$TDCREATE
 40
2458816.438761574
  9
$TDUCREATE
 40
2458816.063761574
  9
$TDUPDATE
 40
2458816.462939815
  9
$TDUUPDATE
 40
2458816.087939815
  9
$TDINDWG
 40
0.0005902778
  9
$TDUSRTIMER
 40
0.0005902778
  9
$USRTIMER
 70
     1
  9
$ANGBASE
 50
0.0
  9
$ANGDIR
 70
     0
  9
$PDMODE
 70
     1
  9
$PDSIZE
 40
-2.0
  9
$PLINEWID
 40
0.0
  9
$SPLFRAME
 70
     0
  9
$SPLINETYPE
 70
     6
  9
$SPLINESEGS
 70
     8
  9
$HANDSEED
  5
4E1
  9
$SURFTAB1
 70
     6
  9
$SURFTAB2
 70
     6
  9
$SURFTYPE
 70
     6
  9
$SURFU
 70
     6
  9
$SURFV
 70
     6
  9
$UCSBASE
  2

  9
$UCSNAME
  2

  9
$UCSORG
 10
0.0
 20
0.0
 30
0.0
  9
$UCSXDIR
 10
1.0
 20
0.0
 30
0.0
  9
$UCSYDIR
 10
0.0
 20
1.0
 30
0.0
  9
$UCSORTHOREF
  2

  9
$UCSORTHOVIEW
 70
     0
  9
$UCSORGTOP
 10
0.0
 20
0.0
 30
0.0
  9
$UCSORGBOTTOM
 10
0.0
 20
0.0
 30
0.0
  9
$UCSORGLEFT
 10
0.0
 20
0.0
 30
0.0
  9
$UCSORGRIGHT
 10
0.0
 20
0.0
 30
0.0
  9
$UCSORGFRONT
 10
0.0
 20
0.0
 30
0.0
  9
$UCSORGBACK
 10
0.0
 20
0.0
 30
0.0
  9
$PUCSBASE
  2

  9
$PUCSNAME
  2

  9
$PUCSORG
 10
0.0
 20
0.0
 30
0.0
  9
$PUCSXDIR
 10
1.0
 20
0.0
 30
0.0
  9
$PUCSYDIR
 10
0.0
 20
1.0
 30
0.0
  9
$PUCSORTHOREF
  2

  9
$PUCSORTHOVIEW
 70
     0
  9
$PUCSORGTOP
 10
0.0
 20
0.0
 30
0.0
  9
$PUCSORGBOTTOM
 10
0.0
 20
0.0
 30
0.0
  9
$PUCSORGLEFT
 10
0.0
 20
0.0
 30
0.0
  9
$PUCSORGRIGHT
 10
0.0
 20
0.0
 30
0.0
  9
$PUCSORGFRONT
 10
0.0
 20
0.0
 30
0.0
  9
$PUCSORGBACK
 10
0.0
 20
0.0
 30
0.0
  9
$USERI1
 70
     0
  9
$USERI2
 70
     0
  9
$USERI3
 70
     0
  9
$USERI4
 70
     0
  9
$USERI5
 70
     0
  9
$USERR1
 40
0.0
  9
$USERR2
 40
0.0
  9
$USERR3
 40
0.0
  9
$USERR4
 40
0.0
  9
$USERR5
 40
0.0
  9
$WORLDVIEW
 70
     1
  9
$SHADEDGE
 70
     3
  9
$SHADEDIF
 70
    70
  9
$TILEMODE
 70
     1
  9
$MAXACTVP
 70
    64
  9
$PINSBASE
 10
0.0
 20
0.0
 30
0.0
  9
$PLIMCHECK
 70
     0
  9
$PEXTMIN
 10
1.000000000000000E+20
 20
1.000000000000000E+20
 30
1.000000000000000E+20
  9
$PEXTMAX
 10
-1.000000000000000E+20
 20
-1.000000000000000E+20
 30
-1.000000000000000E+20
  9
$PLIMMIN
 10
0.0
 20
0.0
  9
$PLIMMAX
 10
12.0
 20
9.0
  9
$UNITMODE
 70
     0
  9
$VISRETAIN
 70
     0
  9
$PLINEGEN
 70
     1
  9
$PSLTSCALE
 70
     0
  9
$TREEDEPTH
 70
  3020
  9
$CMLSTYLE
  2
Standard
  9
$CMLJUST
 70
     0
  9
$CMLSCALE
 40
1.0
  9
$PROXYGRAPHICS
 70
     1
  9
$MEASUREMENT
 70
     0
  9
$CELWEIGHT
370
    -1
  9
$ENDCAPS
280
     0
  9
$JOINSTYLE
280
     0
  9
$LWDISPLAY
290
     0
  9
$INSUNITS
 70
     4
  9
$HYPERLINKBASE
  1

  9
$STYLESHEET
  1

  9
$XEDIT
290
     1
  9
$CEPSNTYPE
380
     0
  9
$PSTYLEMODE
290
     1
  9
$FINGERPRINTGUID
  2
{2AF017AF-0222-0E46-B34A-28252D019E4A}
  9
$VERSIONGUID
  2
{5C05E8FE-9CC2-6441-9583-E6420305F13D}
  9
$EXTNAMES
290
     1
  9
$PSVPSCALE
 40
0.0
  9
$OLESTARTUP
290
     0
  0
ENDSEC
  0
SECTION
  2
CLASSES
  0
CLASS
  1
ACDBDICTIONARYWDFLT
  2
AcDbDictionaryWithDefault
  3
ObjectDBX Classes
 90
        0
280
     0
281
     0
  0
CLASS
  1
MATERIAL
  2
AcDbMaterial
  3
ObjectDBX Classes
 90
     1153
280
     0
281
     0
  0
CLASS
  1
VISUALSTYLE
  2
AcDbVisualStyle
  3
ObjectDBX Classes
 90
     4095
280
     0
281
     0
  0
CLASS
  1
SCALE
  2
AcDbScale
  3
ObjectDBX Classes
 90
     1153
280
     0
281
     0
  0
CLASS
  1
TABLESTYLE
  2
AcDbTableStyle
  3
ObjectDBX Classes
 90
     4095
280
     0
281
     0
  0
CLASS
  1
MLEADERSTYLE
  2
AcDbMLeaderStyle
  3
ACDB_MLEADERSTYLE_CLASS
 90
     4095
280
     0
281
     0
  0
CLASS
  1
ACDBSECTIONVIEWSTYLE
  2
AcDbSectionViewStyle
  3
ObjectDBX Classes
 90
     1025
280
     0
281
     0
  0
CLASS
  1
ACDBDETAILVIEWSTYLE
  2
AcDbDetailViewStyle
  3
ObjectDBX Classes
 90
     1025
280
     0
281
     0
  0
CLASS
  1
DICTIONARYVAR
  2
AcDbDictionaryVar
  3
ObjectDBX Classes
 90
        0
280
     0
281
     0
  0
CLASS
  1
CELLSTYLEMAP
  2
AcDbCellStyleMap
  3
ObjectDBX Classes
 90
     1152
280
     0
281
     0
  0
CLASS
  1
ACDBPLACEHOLDER
  2
AcDbPlaceHolder
  3
ObjectDBX Classes
 90
        0
280
     0
281
     0
  0
CLASS
  1
LAYOUT
  2
AcDbLayout
  3
ObjectDBX Classes
 90
        0
280
     0
281
     0
  0
ENDSEC
  0
SECTION
  2
TABLES
  0
TABLE
  2
VPORT
  5
40A
330
0
100
AcDbSymbolTable
 70
     1
  0
VPORT
  5
476
330
40A
100
AcDbSymbolTableRecord
100
AcDbViewportTableRecord
  2
*ACTIVE
 70
     0
 10
0.0
 20
0.0
 11
1.0
 21
1.0
 12
0.000008381902262
 22
-8.805447070583795
 13
0.0
 23
0.0
 14
1.0
 24
1.0
 15
0.0
 25
0.0
 16
0.0
 26
0.0
 36
1.0
 17
0.0
 27
0.0
 37
0.0
 40
5398.697037038093
 41
2.809171597633135
 42
50.0
 43
0.0
 44
0.0
 50
0.0
 51
0.0
 71
     0
 72
  2000
 73
     1
 74
     1
 75
     0
 76
     0
 77
     0
 78
     0
281
     0
 65
     1
110
0.0
120
0.0
130
0.0
111
1.0
121
0.0
131
0.0
112
0.0
122
1.0
132
0.0
 79
     0
146
0.0
1001
ACAD_NAV_VCDISPLAY
1070
     3
  0
ENDTAB
  0
TABLE
  2
LTYPE
  5
407
330
0
100
AcDbSymbolTable
 70
    11
  0
LTYPE
  5
45C
330
407
100
AcDbSymbolTableRecord
100
AcDbLinetypeTableRecord
  2
ByBlock
 70
     0
  3

 72
    65
 73
     0
 40
0.0
  0
LTYPE
  5
45D
330
407
100
AcDbSymbolTableRecord
100
AcDbLinetypeTableRecord
  2
ByLayer
 70
     0
  3

 72
    65
 73
     0
 40
0.0
  0
LTYPE
  5
45E
330
407
100
AcDbSymbolTableRecord
100
AcDbLinetypeTableRecord
  2
CONTINUOUS
 70
     0
  3
Solid line
 72
    65
 73
     0
 40
0.0
  0
ENDTAB
  0
TABLE
  2
LAYER
  5
404
330
0
100
AcDbSymbolTable
 70
     5
  0
LAYER
  5
456
102
{ACAD_XDICTIONARY
360
48B
102
}
330
404
100
AcDbSymbolTableRecord
100
AcDbLayerTableRecord
  2
0
 70
     0
 62
     7
  6
CONTINUOUS
370
    -3
390
411
  0
LAYER
  5
475
102
{ACAD_XDICTIONARY
360
48D
102
}
330
404
100
AcDbSymbolTableRecord
100
AcDbLayerTableRecord
  2
DATA
 70
     0
 62
     7
  6
CONTINUOUS
370
    -3
390
411
  0
LAYER
  5
481
102
{ACAD_XDICTIONARY
360
48F
102
}
330
404
100
AcDbSymbolTableRecord
100
AcDbLayerTableRecord
  2
HIBINO-BASE
 70
     0
 62
     7
  6
CONTINUOUS
370
    -3
390
411
  0
LAYER
  5
482
102
{ACAD_XDICTIONARY
360
491
102
}
330
404
100
AcDbSymbolTableRecord
100
AcDbLayerTableRecord
  2
SPEC
 70
     0
 62
     7
  6
CONTINUOUS
370
    -3
390
411
  0
LAYER
  5
483
102
{ACAD_XDICTIONARY
360
493
102
}
330
404
100
AcDbSymbolTableRecord
100
AcDbLayerTableRecord
  2
DIMNSIONS
 70
     0
 62
     7
  6
CONTINUOUS
370
    -3
390
411
  0
ENDTAB
  0
TABLE
  2
STYLE
  5
405
330
0
100
AcDbSymbolTable
 70
     3
  0
STYLE
  5
457
330
405
100
AcDbSymbolTableRecord
100
AcDbTextStyleTableRecord
  2
STANDARD
 70
     0
 40
0.0
 41
1.0
 50
0.0
 71
     0
 42
0.0
  3
txt
  4
BIGFONT.SHX
  0
ENDTAB
  0
TABLE
  2
VIEW
  5
408
330
0
100
AcDbSymbolTable
 70
     0
  0
ENDTAB
  0
TABLE
  2
UCS
  5
409
330
0
100
AcDbSymbolTable
 70
     0
  0
ENDTAB
  0
TABLE
  2
APPID
  5
40B
330
0
100
AcDbSymbolTable
 70
     4
  0
APPID
  5
458
330
40B
100
AcDbSymbolTableRecord
100
AcDbRegAppTableRecord
  2
ACAD
 70
     0
  0
APPID
  5
45F
330
40B
100
AcDbSymbolTableRecord
100
AcDbRegAppTableRecord
  2
AcadAnnotative
 70
     0
  0
APPID
  5
49F
330
40B
100
AcDbSymbolTableRecord
100
AcDbRegAppTableRecord
  2
ACAD_NAV_VCDISPLAY
 70
     0
  0
APPID
  5
4D8
330
40B
100
AcDbSymbolTableRecord
100
AcDbRegAppTableRecord
  2
ACAD_MLEADERVER
 70
     0
  0
ENDTAB
  0
TABLE
  2
DIMSTYLE
  5
40C
330
0
100
AcDbSymbolTable
 70
     2
100
AcDbDimStyleTable
 71
     0
  0
DIMSTYLE
105
459
330
40C
100
AcDbSymbolTableRecord
100
AcDbDimStyleTableRecord
  2
STANDARD
 70
     0
279
     2
340
457
  0
ENDTAB
  0
TABLE
  2
BLOCK_RECORD
  5
403
330
0
100
AcDbSymbolTable
 70
     1
  0
BLOCK_RECORD
  5
471
330
403
100
AcDbSymbolTableRecord
100
AcDbBlockTableRecord
  2
*Model_Space
340
474
  0
BLOCK_RECORD
  5
46D
330
403
100
AcDbSymbolTableRecord
100
AcDbBlockTableRecord
  2
*Paper_Space
340
470
  0
BLOCK_RECORD
  5
488
330
403
100
AcDbSymbolTableRecord
100
AcDbBlockTableRecord
  2
____
340
0
102
{BLKREFS
331
2D9
102
}
  0
ENDTAB
  0
ENDSEC
  0
SECTION
  2
BLOCKS
  0
BLOCK
  5
472
330
471
100
AcDbEntity
  8
0
100
AcDbBlockBegin
  2
*Model_Space
 70
     0
 10
0.0
 20
0.0
 30
0.0
  3
*Model_Space
  1

  0
ENDBLK
  5
473
330
471
100
AcDbEntity
  8
0
100
AcDbBlockEnd
  0
BLOCK
  5
46E
330
46D
100
AcDbEntity
 67
     1
  8
0
100
AcDbBlockBegin
  2
*Paper_Space
 70
     0
 10
0.0
 20
0.0
 30
0.0
  3
*Paper_Space
  1

  0
ENDBLK
  5
46F
330
46D
100
AcDbEntity
 67
     1
  8
0
100
AcDbBlockEnd
  0
BLOCK
  5
2D
330
488
100
AcDbEntity
  8
DATA
100
AcDbBlockBegin
  2
____
 70
     0
 10
0.0
 20
0.0
 30
0.0
  3
____
  1

  0
ARC
  5
2E
330
488
100
AcDbEntity
  8
0
  6
Continuous
 62
     7
100
AcDbCircle
 10
-707.6468859999996
 20
-504.6546709999992
 30
0.0
 40
3.352509452718326
100
AcDbArc
 50
264.6908562215338
 51
323.9911991542383
  0
ARC
  5
2F
330
488
100
AcDbEntity
  8
0
  6
Continuous
 62
     7
100
AcDbCircle
 10
-708.2672849999997
 20
-504.6546709999992
 30
0.0
 40
3.352504008030721
100
AcDbArc
 50
216.00880084576
 51
275.3091437784633
  0
ARC
  5
30
330
488
100
AcDbEntity
  8
0
  6
Continuous
 62
     7
100
AcDbCircle
 10
-699.1278949999998
 20
-505.5249169999994
 30
0.0
 40
2.473394835233616
100
AcDbArc
 50
273.8309816091148
 51
351.1351473098025
  0
ARC
  5
31
330
488
100
AcDbEntity
  8
0
  6
Continuous
 62
     7
100
AcDbCircle
 10
-699.1032339999998
 20
-497.4569089999994
 30
0.0
 40
2.469648912784909
100
AcDbArc
 50
8.226923859015675
 51
86.15412669215212
  0
ARC
  5
32
330
488
100
AcDbEntity
  8
0
  6
Continuous
 62
     7
100
AcDbCircle
 10
-699.3749842273544
 20
-506.1525127412319
 30
0.0
 40
0.4144180492639377
100
AcDbArc
 50
307.6419024975802
 51
354.2670192894067
  0
LINE
  5
33
330
488
100
AcDbEntity
  8
0
  6
Continuous
 62
     7
100
AcDbLine
 10
-710.0198149999998
 20
-499.6219549999993
 30
0.0
 11
-708.0770169999998
 21
-494.9928109999993
 31
0.0
  0
LINE
  5
34
330
488
100
AcDbEntity
  8
0
  6
Continuous
 62
     7
100
AcDbLine
 10
-710.0198149999998
 20
-499.6219549999993
 30
0.0
 11
-711.9386409999997
 21
-494.9928109999993
 31
0.0
  0
LINE
  5
35
330
488
100
AcDbEntity
  8
0
  6
Continuous
 62
     7
100
AcDbLine
 10
-695.2928949999998
 20
-507.9928109999993
 30
0.0
 11
-695.2928949999998
 21
-494.9928109999993
 31
0.0
  0
LINE
  5
36
330
488
100
AcDbEntity
  8
0
  6
Continuous
 62
     7
100
AcDbLine
 10
-692.7984289999998
 20
-494.9928109999993
 30
0.0
 11
-692.7984289999998
 21
-506.0020429999994
 31
0.0
  0
LINE
  5
37
330
488
100
AcDbEntity
  8
0
  6
Continuous
 62
     7
100
AcDbLine
 10
-707.1655739999998
 20
-494.9928109999993
 30
0.0
 11
-707.1655739999998
 21
-506.0020429999994
 31
0.0
  0
LINE
  5
38
330
488
100
AcDbEntity
  8
0
  6
Continuous
 62
     7
100
AcDbLine
 10
-704.7670479999998
 20
-494.9928109999993
 30
0.0
 11
-704.7670479999998
 21
-506.0020429999994
 31
0.0
  0
LINE
  5
39
330
488
100
AcDbEntity
  8
0
  6
Continuous
 62
     7
100
AcDbLine
 10
-703.5198149999999
 20
-494.9928109999993
 30
0.0
 11
-703.5198149999999
 21
-507.9928109999993
 31
0.0
  0
LINE
  5
3A
330
488
100
AcDbEntity
  8
0
  6
Continuous
 62
     7
100
AcDbLine
 10
-701.3371539999998
 20
-496.2160459999993
 30
0.0
 11
-701.3371539999998
 21
-500.3894879999994
 31
0.0
  0
LINE
  5
3B
330
488
100
AcDbEntity
  8
0
  6
Continuous
 62
     7
100
AcDbLine
 10
-696.6589999999999
 20
-500.1479999999994
 30
0.0
 11
-696.6589999999999
 21
-497.1035169999995
 31
0.0
  0
LINE
  5
3C
330
488
100
AcDbEntity
  8
0
  6
Continuous
 62
     7
100
AcDbLine
 10
-698.9626389999998
 20
-496.7916989999993
 30
0.0
 11
-698.9626389999998
 21
-499.8138479999992
 31
0.0
  0
LINE
  5
3D
330
488
100
AcDbEntity
  8
0
  6
Continuous
 62
     7
100
AcDbLine
 10
-708.9884469999998
 20
-503.9153089999993
 30
0.0
 11
-708.9884469999998
 21
-506.0020169999994
 31
0.0
  0
LINE
  5
3E
330
488
100
AcDbEntity
  8
0
  6
Continuous
 62
     7
100
AcDbLine
 10
-708.9884469999998
 20
-503.9153089999993
 30
0.0
 11
-711.1471229999997
 21
-503.9153089999993
 31
0.0
  0
LINE
  5
3F
330
488
100
AcDbEntity
  8
0
  6
Continuous
 62
     7
100
AcDbLine
 10
-711.1471229999997
 20
-503.9153089999993
 30
0.0
 11
-711.1471229999997
 21
-506.0020169999994
 31
0.0
  0
ARC
  5
40
330
488
100
AcDbEntity
  8
0
  6
Continuous
 62
     7
100
AcDbCircle
 10
-708.0724409999996
 20
-506.0301489999995
 30
0.0
 40
0.9073074741148923
100
AcDbArc
 50
269.7118487927531
 51
1.775987005690865
  0
ARC
  5
41
330
488
100
AcDbEntity
  8
0
  6
Continuous
 62
     7
100
AcDbCircle
 10
-708.0815799999997
 20
-506.0301489999995
 30
0.0
 40
0.9073028346974664
100
AcDbArc
 50
178.224012994317
 51
270.2881512072466
  0
ARC
  5
42
330
488
100
AcDbEntity
  8
0
  6
Continuous
 62
     7
100
AcDbCircle
 10
-709.6320509999998
 20
-505.9285279999994
 30
0.0
 40
1.516840270629105
100
AcDbArc
 50
182.7769954499891
 51
207.3596066671485
  0
CIRCLE
  5
43
330
488
100
AcDbEntity
  8
0
  6
Continuous
 62
     7
100
AcDbCircle
 10
-709.8878909999998
 20
-501.4208559999993
 30
0.0
 40
1.235233999999991
  0
LINE
  5
44
330
488
100
AcDbEntity
  8
0
  6
Continuous
 62
     7
100
AcDbLine
 10
-688.7928949999998
 20
-507.9927979999993
 30
0.0
 11
-695.2928949999998
 21
-507.9927979999993
 31
0.0
  0
LINE
  5
45
330
488
100
AcDbEntity
  8
0
  6
Continuous
 62
     7
100
AcDbLine
 10
-688.7928949999998
 20
-507.9927979999993
 30
0.0
 11
-688.7928949999998
 21
-503.9152959999993
 31
0.0
  0
LINE
  5
46
330
488
100
AcDbEntity
  8
0
  6
Continuous
 62
     7
100
AcDbLine
 10
-688.7928949999998
 20
-503.9153089999993
 30
0.0
 11
-690.9755429999997
 21
-503.9153089999993
 31
0.0
  0
LINE
  5
47
330
488
100
AcDbEntity
  8
0
  6
Continuous
 62
     7
100
AcDbLine
 10
-690.9755429999997
 20
-503.9153089999993
 30
0.0
 11
-690.9755429999997
 21
-506.0020169999994
 31
0.0
  0
LINE
  5
48
330
488
100
AcDbEntity
  8
0
  6
Continuous
 62
     7
100
AcDbLine
 10
-703.5198149999999
 20
-507.9927979999993
 30
0.0
 11
-698.9626389999998
 21
-507.9927849999994
 31
0.0
  0
LINE
  5
49
330
488
100
AcDbEntity
  8
0
  6
Continuous
 62
     7
100
AcDbLine
 10
-701.3371669999997
 20
-506.7695499999993
 30
0.0
 11
-700.1618889999997
 21
-506.7695499999993
 31
0.0
  0
LINE
  5
4A
330
488
100
AcDbEntity
  8
0
  6
Continuous
 62
     7
100
AcDbLine
 10
-701.3371539999998
 20
-506.7695499999993
 30
0.0
 11
-701.3371539999998
 21
-501.6367079999993
 31
0.0
  0
LINE
  5
4B
330
488
100
AcDbEntity
  8
0
  6
Continuous
 62
     7
100
AcDbLine
 10
-701.3371669999997
 20
-501.6367079999993
 30
0.0
 11
-700.1618889999997
 21
-501.6367079999993
 31
0.0
  0
LINE
  5
4C
330
488
100
AcDbEntity
  8
0
  6
Continuous
 62
     7
100
AcDbLine
 10
-698.9626389999998
 20
-506.1939099999993
 30
0.0
 11
-698.9626389999998
 21
-502.2123479999994
 31
0.0
  0
ARC
  5
4D
330
488
100
AcDbEntity
  8
0
  6
Continuous
 62
     7
100
AcDbCircle
 10
-706.2821199999998
 20
-505.9285279999994
 30
0.0
 40
1.516838112224527
100
AcDbArc
 50
332.6403933328558
 51
357.2230045500071
  0
ARC
  5
4E
330
488
100
AcDbEntity
  8
0
  6
Continuous
 62
     7
100
AcDbCircle
 10
-691.8824229999996
 20
-506.0301489999995
 30
0.0
 40
0.9073074741148927
100
AcDbArc
 50
269.711848792746
 51
1.775987005690865
  0
ARC
  5
4F
330
488
100
AcDbEntity
  8
0
  6
Continuous
 62
     7
100
AcDbCircle
 10
-691.8915489999997
 20
-506.0301489999995
 30
0.0
 40
0.9073028346975801
100
AcDbArc
 50
178.2240129943173
 51
270.2881512072466
  0
LINE
  5
50
330
488
100
AcDbEntity
  8
0
  6
Continuous
 62
     7
100
AcDbLine
 10
-696.6600529999998
 20
-505.9060769999994
 30
0.0
 11
-696.6600529999998
 21
-502.4522109999995
 31
0.0
  0
LINE
  5
51
330
488
100
AcDbEntity
  8
0
  6
Continuous
 62
     7
100
AcDbLine
 10
-701.3371669999997
 20
-500.3894879999994
 30
0.0
 11
-700.1618889999997
 21
-500.3894879999994
 31
0.0
  0
LINE
  5
52
330
488
100
AcDbEntity
  8
0
  6
Continuous
 62
     7
100
AcDbLine
 10
-707.1655739999998
 20
-494.9928109999993
 30
0.0
 11
-704.7670479999998
 21
-494.9928109999993
 31
0.0
  0
LINE
  5
53
330
488
100
AcDbEntity
  8
0
  6
Continuous
 62
     7
100
AcDbLine
 10
-711.9386409999997
 20
-494.9928109999993
 30
0.0
 11
-708.0770169999998
 21
-494.9928109999993
 31
0.0
  0
LINE
  5
54
330
488
100
AcDbEntity
  8
0
  6
Continuous
 62
     7
100
AcDbLine
 10
-695.2928949999998
 20
-494.9928109999993
 30
0.0
 11
-692.7984289999998
 21
-494.9928109999993
 31
0.0
  0
LINE
  5
55
330
488
100
AcDbEntity
  8
0
  6
Continuous
 62
     7
100
AcDbLine
 10
-703.5198149999999
 20
-494.9928109999993
 30
0.0
 11
-698.9375878334091
 21
-494.992821521862
 31
0.0
  0
LINE
  5
56
330
488
100
AcDbEntity
  8
0
  6
Continuous
 62
     7
100
AcDbLine
 10
-701.3371669999997
 20
-496.2160589999994
 30
0.0
 11
-700.1618889999997
 21
-496.2160589999994
 31
0.0
  0
ARC
  5
57
330
488
100
AcDbEntity
  8
0
  6
Continuous
 62
     7
100
AcDbCircle
 10
-700.1480108986156
 20
-504.4897556512363
 30
0.0
 40
2.27983658939627
100
AcDbArc
 50
269.6512199376202
 51
282.8264828068728
  0
ARC
  5
58
330
488
100
AcDbEntity
  8
0
  6
Continuous
 62
     7
100
AcDbCircle
 10
-699.8919491642929
 20
-505.4536254045947
 30
0.0
 40
1.283669274801205
100
AcDbArc
 50
281.2331036226604
 51
306.8620088940644
  0
ARC
  5
59
330
488
100
AcDbEntity
  8
0
  6
Continuous
 62
     7
100
AcDbCircle
 10
-699.3749842273544
 20
-502.2537452587671
 30
0.0
 40
0.4144180492639293
100
AcDbArc
 50
5.732980710608975
 51
52.35809750242935
  0
ARC
  5
5A
330
488
100
AcDbEntity
  8
0
  6
Continuous
 62
     7
100
AcDbCircle
 10
-700.1480108986156
 20
-503.9165023487625
 30
0.0
 40
2.279836589396365
100
AcDbArc
 50
77.17351719312512
 51
90.34878006237979
  0
ARC
  5
5B
330
488
100
AcDbEntity
  8
0
  6
Continuous
 62
     7
100
AcDbCircle
 10
-699.8919491642929
 20
-502.9526325954042
 30
0.0
 40
1.283669274801259
100
AcDbArc
 50
53.13799110593866
 51
78.76689637733962
  0
ARC
  5
5C
330
488
100
AcDbEntity
  8
0
  6
Continuous
 62
     7
100
AcDbCircle
 10
-697.9180369999997
 20
-502.5372439999993
 30
0.0
 40
1.260854613087846
100
AcDbArc
 50
3.867006359819951
 51
88.36163456790179
  0
ARC
  5
5D
330
488
100
AcDbEntity
  8
0
  6
Continuous
 62
     7
100
AcDbCircle
 10
-697.9191939999998
 20
-500.0153479999994
 30
0.0
 40
1.2621075219319
100
AcDbArc
 50
271.689282104647
 51
356.0782829826552
  0
ARC
  5
5E
330
488
100
AcDbEntity
  8
0
  6
Continuous
 62
     7
100
AcDbCircle
 10
-699.3749842273544
 20
-499.7724507412317
 30
0.0
 40
0.4144180492641178
100
AcDbArc
 50
307.6419024975611
 51
354.2670192893769
  0
ARC
  5
5F
330
488
100
AcDbEntity
  8
0
  6
Continuous
 62
     7
100
AcDbCircle
 10
-700.1480108986156
 20
-498.1096936512363
 30
0.0
 40
2.27983658939627
100
AcDbArc
 50
269.6512199376202
 51
282.8264828068728
  0
ARC
  5
60
330
488
100
AcDbEntity
  8
0
  6
Continuous
 62
     7
100
AcDbCircle
 10
-699.8919491642929
 20
-499.0735634045948
 30
0.0
 40
1.283669274801094
100
AcDbArc
 50
281.2331036226614
 51
306.8620088940644
  0
ARC
  5
61
330
488
100
AcDbEntity
  8
0
  6
Continuous
 62
     7
100
AcDbCircle
 10
-699.3749842273544
 20
-496.833096258767
 30
0.0
 40
0.4144180492639407
100
AcDbArc
 50
5.732980710624616
 51
52.35809750243896
  0
ARC
  5
62
330
488
100
AcDbEntity
  8
0
  6
Continuous
 62
     7
100
AcDbCircle
 10
-700.1480108986156
 20
-498.4958533487625
 30
0.0
 40
2.279836589396254
100
AcDbArc
 50
77.17351719312451
 51
90.34878006237979
  0
ARC
  5
63
330
488
100
AcDbEntity
  8
0
  6
Continuous
 62
     7
100
AcDbCircle
 10
-699.8919491642929
 20
-497.531983595404
 30
0.0
 40
1.283669274801168
100
AcDbArc
 50
53.1379911059356
 51
78.76689637733962
  0
ENDBLK
  5
64
330
488
100
AcDbEntity
  8
DATA
100
AcDbBlockEnd
  0
ENDSEC
  0
SECTION
  2
ENTITIES
  0
LINE
  5
65
330
471
100
AcDbEntity
  8
HIBINO-BASE
  6
Continuous
 62
     7
100
AcDbLine
 10
-1800.0
 20
2666.666920277777
 30
0.0
 11
1800.0
 21
2666.666920277777
 31
0.0
  0
LINE
  5
66
330
471
100
AcDbEntity
  8
HIBINO-BASE
  6
Continuous
 62
     7
100
AcDbLine
 10
1800.0
 20
-2533.333079722222
 30
0.0
 11
-1800.0
 21
-2533.333079722222
 31
0.0
  0
LINE
  5
67
330
471
100
AcDbEntity
  8
HIBINO-BASE
  6
Continuous
 62
     7
100
AcDbLine
 10
-1800.0
 20
-2533.333079722222
 30
0.0
 11
-1800.0
 21
2666.666920277777
 31
0.0
  0
LINE
  5
68
330
471
100
AcDbEntity
  8
HIBINO-BASE
  6
Continuous
 62
     7
100
AcDbLine
 10
1800.0
 20
2666.666920277777
 30
0.0
 11
1800.0
 21
-2533.333079722222
 31
0.0
  0
LINE
  5
69
330
471
100
AcDbEntity
  8
HIBINO-BASE
  6
Continuous
 62
     7
100
AcDbLine
 10
0.0000000000002842
 20
-2083.333079722222
 30
0.0
 11
1800.0
 21
-2083.333079722222
 31
0.0
  0
LINE
  5
6A
330
471
100
AcDbEntity
  8
HIBINO-BASE
  6
Continuous
 62
     7
100
AcDbLine
 10
0.0000000000002842
 20
-2533.333079722222
 30
0.0
 11
0.0000000000002842
 21
-2083.333079722222
 31
0.0
  0
TEXT
  5
6B
330
471
100
AcDbEntity
  8
HIBINO-BASE
 62
     7
100
AcDbText
 10
18.00000000000039
 20
-2133.506946388888
 30
0.0
 40
32.57682291666667
  1
NOTE
 41
0.7
 11
18.00000000000039
 21
-2100.930123472222
 31
0.0
100
AcDbText
 73
     3
  0
LINE
  5
6C
330
471
100
AcDbEntity
  8
HIBINO-BASE
  6
Continuous
 62
     7
100
AcDbLine
 10
700.0
 20
-2533.333079722222
 30
0.0
 11
700.0
 21
-2083.333079722222
 31
0.0
  0
TEXT
  5
6D
330
471
100
AcDbEntity
  8
HIBINO-BASE
 62
     7
100
AcDbText
 10
717.9999999999997
 20
-2133.506946388888
 30
0.0
 40
32.57682291666667
  1
TITLE
 41
0.7
 11
717.9999999999997
 21
-2100.930123472222
 31
0.0
100
AcDbText
 73
     3
  0
LINE
  5
6E
330
471
100
AcDbEntity
  8
HIBINO-BASE
  6
Continuous
 62
     7
100
AcDbLine
 10
0.0000000000002842
 20
-2333.333079722222
 30
0.0
 11
1800.0
 21
-2333.333079722222
 31
0.0
  0
TEXT
  5
6F
330
471
100
AcDbEntity
  8
HIBINO-BASE
 62
     7
100
AcDbText
 10
967.9999999999996
 20
-2382.380546388888
 30
0.0
 40
32.57682291666667
  1
DRAWN
 41
0.7
 11
967.9999999999996
 21
-2349.803723472222
 31
0.0
100
AcDbText
 73
     3
  0
TEXT
  5
70
330
471
100
AcDbEntity
  8
HIBINO-BASE
 62
     7
100
AcDbText
 10
467.9999999999998
 20
-2382.380546388888
 30
0.0
 40
32.57682291666667
  1
DATE
 41
0.7
 11
467.9999999999998
 21
-2349.803723472222
 31
0.0
100
AcDbText
 73
     3
  0
TEXT
  5
71
330
471
100
AcDbEntity
  8
HIBINO-BASE
 62
     7
100
AcDbText
 10
267.9999999999998
 20
-2382.380546388888
 30
0.0
 40
32.57682291666667
  1
SCALE
 41
0.7
 11
267.9999999999998
 21
-2349.803723472222
 31
0.0
100
AcDbText
 73
     3
  0
TEXT
  5
72
330
471
100
AcDbEntity
  8
HIBINO-BASE
 62
     7
100
AcDbText
 10
717.9999999999997
 20
-2382.380546388888
 30
0.0
 40
32.57682291666667
  1
DESIGN
 41
0.7
 11
717.9999999999997
 21
-2349.803723472222
 31
0.0
100
AcDbText
 73
     3
  0
TEXT
  5
73
330
471
100
AcDbEntity
  8
HIBINO-BASE
 62
     7
100
AcDbText
 10
1468.0
 20
-2382.380546388888
 30
0.0
 40
32.57682291666667
  1
DRAWING NO.
 41
0.7
 11
1468.0
 21
-2349.803723472222
 31
0.0
100
AcDbText
 73
     3
  0
TEXT
  5
74
330
471
100
AcDbEntity
  8
HIBINO-BASE
 62
     7
100
AcDbText
 10
1218.0
 20
-2382.380546388888
 30
0.0
 40
32.57682291666667
  1
CHECK
 41
0.7
 11
1218.0
 21
-2349.803723472222
 31
0.0
100
AcDbText
 73
     3
  0
LINE
  5
75
330
471
100
AcDbEntity
  8
HIBINO-BASE
  6
Continuous
 62
     7
100
AcDbLine
 10
287.5000000000003
 20
-2508.333079722222
 30
0.0
 11
362.5000000000002
 21
-2433.333079722222
 31
0.0
  0
TEXT
  5
76
330
471
100
AcDbEntity
  8
HIBINO-BASE
 62
     7
100
AcDbText
 10
275.0000000000003
 20
-2455.511946388888
 30
0.0
 40
32.57682291666667
  1
1
 41
0.7
 11
275.0000000000003
 21
-2422.935123472222
 31
0.0
100
AcDbText
 73
     3
  0
LINE
  5
77
330
471
100
AcDbEntity
  8
HIBINO-BASE
  6
Continuous
 62
     7
100
AcDbLine
 10
250.0000000000003
 20
-2533.333079722222
 30
0.0
 11
250.0000000000003
 21
-2333.333079722222
 31
0.0
  0
LINE
  5
78
330
471
100
AcDbEntity
  8
HIBINO-BASE
  6
Continuous
 62
     7
100
AcDbLine
 10
449.9999999999997
 20
-2533.333079722222
 30
0.0
 11
449.9999999999997
 21
-2333.333079722222
 31
0.0
  0
LINE
  5
79
330
471
100
AcDbEntity
  8
HIBINO-BASE
  6
Continuous
 62
     7
100
AcDbLine
 10
949.9999999999996
 20
-2333.333079722222
 30
0.0
 11
949.9999999999996
 21
-2533.333079722222
 31
0.0
  0
LINE
  5
7A
330
471
100
AcDbEntity
  8
HIBINO-BASE
  6
Continuous
 62
     7
100
AcDbLine
 10
1450.0
 20
-2333.333079722222
 30
0.0
 11
1450.0
 21
-2533.333079722222
 31
0.0
  0
LINE
  5
7B
330
471
100
AcDbEntity
  8
HIBINO-BASE
  6
Continuous
 62
     7
100
AcDbLine
 10
1200.0
 20
-2533.333079722222
 30
0.0
 11
1200.0
 21
-2333.333079722222
 31
0.0
  0
TEXT
  5
7C
330
471
100
AcDbEntity
  8
HIBINO-BASE
 62
     7
100
AcDbText
 10
467.1308000000001
 20
-2476.060146388888
 30
0.0
 40
32.57682291666667
  1
'19.11.
 41
0.7
 11
467.1308000000001
 21
-2443.483323472221
 31
0.0
100
AcDbText
 73
     3
  0
TEXT
  5
7D
330
471
100
AcDbEntity
  8
HIBINO-BASE
 62
     7
100
AcDbText
 10
350.0000000000002
 20
-2493.011946388888
 30
0.0
 40
32.57682291666667
  1
20
 41
0.7
 11
350.0000000000002
 21
-2460.435123472221
 31
0.0
100
AcDbText
 73
     3
  0
TEXT
  5
7E
330
471
100
AcDbEntity
  8
HIBINO-BASE
 62
     7
100
AcDbText
 10
980.1162002206924
 20
-2476.060146388888
 30
0.0
 40
32.57682291666667
  1
N.Sasaki
 41
0.7
 11
980.1162002206924
 21
-2443.483323472221
 31
0.0
100
AcDbText
 73
     3
  0
TEXT
  5
7F
330
471
100
AcDbEntity
  8
HIBINO-BASE
 62
     7
100
AcDbText
 10
77.66666666666735
 20
-2493.813079722222
 30
0.0
 40
65.15364583333333
  1
A4
 41
0.7
 11
77.66666666666735
 21
-2428.659433888889
 31
0.0
100
AcDbText
 73
     3
  0
TEXT
  5
80
330
471
100
AcDbEntity
  8
HIBINO-BASE
 62
     7
100
AcDbText
 10
19.16666666666656
 20
-2385.722179722222
 30
0.0
 40
32.57682291666667
  1
PAPER SIZE
 41
0.7
 11
19.16666666666657
 21
-2353.145356805555
 31
0.0
100
AcDbText
 73
     3
  0
TEXT
  5
81
330
471
100
AcDbEntity
  8
HIBINO-BASE
 62
     7
100
AcDbText
 10
280.486683344863
 20
-2660.843379722222
 30
0.0
 40
70.58311631944441
  1
ヒビノイマジニアリング株式会社
 41
0.7
 11
280.486683344863
 21
-2590.260263402778
 31
0.0
100
AcDbText
 73
     3
  0
TEXT
  5
82
330
471
100
AcDbEntity
  8
HIBINO-BASE
 62
     7
100
AcDbText
 10
-1656.319999999999
 20
-2660.843379722222
 30
0.0
 40
70.58311631944441
  1
Hibino Imagineering Corporation
 41
0.7
 11
-1656.319999999999
 21
-2590.260263402778
 31
0.0
100
AcDbText
 73
     3
  0
LINE
  5
83
330
471
100
AcDbEntity
  8
SPEC
  6
Continuous
 62
     7
100
AcDbLine
 10
-1649.999999999999
 20
2466.666920277779
 30
0.0
 11
1300.0
 21
2466.666920277779
 31
0.0
  0
LINE
  5
84
330
471
100
AcDbEntity
  8
SPEC
  6
Continuous
 62
     7
100
AcDbLine
 10
-1649.999999999999
 20
2391.666920277778
 30
0.0
 11
1300.0
 21
2391.666920277778
 31
0.0
  0
LINE
  5
85
330
471
100
AcDbEntity
  8
SPEC
  6
Continuous
 62
     7
100
AcDbLine
 10
-1649.999999999999
 20
2466.666920277779
 30
0.0
 11
-1649.999999999999
 21
1491.666920277778
 31
0.0
  0
TEXT
  5
86
330
471
100
AcDbEntity
  8
SPEC
 62
     7
100
AcDbText
 10
-1624.999999999999
 20
2494.532320277777
 30
0.0
 40
48.86523437500001
  1
仕様
 41
0.7
 11
-1624.999999999999
 21
2543.397554652778
 31
0.0
100
AcDbText
 73
     3
  0
LINE
  5
87
330
471
100
AcDbEntity
  8
SPEC
  6
Continuous
 62
     7
100
AcDbLine
 10
-999.9999999999996
 20
2466.666920277779
 30
0.0
 11
-999.9999999999996
 21
1491.666920277778
 31
0.0
  0
LINE
  5
88
330
471
100
AcDbEntity
  8
SPEC
  6
Continuous
 62
     7
100
AcDbLine
 10
1300.0
 20
2466.666920277779
 30
0.0
 11
1300.0
 21
1491.666920277778
 31
0.0
  0
LINE
  5
89
330
471
100
AcDbEntity
  8
SPEC
  6
Continuous
 62
     7
100
AcDbLine
 10
-1649.999999999999
 20
2316.666920277778
 30
0.0
 11
1300.0
 21
2316.666920277778
 31
0.0
  0
LINE
  5
8A
330
471
100
AcDbEntity
  8
SPEC
  6
Continuous
 62
     7
100
AcDbLine
 10
-1649.999999999999
 20
2241.666920277778
 30
0.0
 11
1300.0
 21
2241.666920277778
 31
0.0
  0
LINE
  5
8B
330
471
100
AcDbEntity
  8
SPEC
  6
Continuous
 62
     7
100
AcDbLine
 10
-1649.999999999999
 20
2166.666920277778
 30
0.0
 11
1300.0
 21
2166.666920277778
 31
0.0
  0
LINE
  5
8C
330
471
100
AcDbEntity
  8
SPEC
  6
Continuous
 62
     7
100
AcDbLine
 10
-1649.999999999999
 20
2091.666920277778
 30
0.0
 11
1300.0
 21
2091.666920277778
 31
0.0
  0
LINE
  5
8D
330
471
100
AcDbEntity
  8
SPEC
  6
Continuous
 62
     7
100
AcDbLine
 10
-1649.999999999999
 20
2016.666920277778
 30
0.0
 11
1300.0
 21
2016.666920277778
 31
0.0
  0
LINE
  5
8E
330
471
100
AcDbEntity
  8
SPEC
  6
Continuous
 62
     7
100
AcDbLine
 10
-1649.999999999999
 20
1941.666920277778
 30
0.0
 11
1300.0
 21
1941.666920277778
 31
0.0
  0
TEXT
  5
8F
330
471
100
AcDbEntity
  8
SPEC
 62
     7
100
AcDbText
 10
-1632.0
 20
2407.425275833333
 30
0.0
 40
38.00629340277778
  1
形式
 41
0.7
 11
-1632.0
 21
2445.431569236111
 31
0.0
100
AcDbText
 73
     3
  0
TEXT
  5
90
330
471
100
AcDbEntity
  8
SPEC
 62
     7
100
AcDbText
 10
-1632.0
 20
2332.425275833333
 30
0.0
 40
38.00629340277778
  1
駆動方式^I
 41
0.7
 11
-1632.0
 21
2370.431569236111
 31
0.0
100
AcDbText
 73
     3
  0
TEXT
  5
91
330
471
100
AcDbEntity
  8
SPEC
 62
     7
100
AcDbText
 10
-1632.0
 20
2257.425275833333
 30
0.0
 40
38.00629340277778
  1
周波数レンジ(-10dB)
 41
0.7
 11
-1632.0
 21
2295.431569236111
 31
0.0
100
AcDbText
 73
     3
  0
TEXT
  5
92
330
471
100
AcDbEntity
  8
SPEC
 62
     7
100
AcDbText
 10
-1632.0
 20
2182.425275833333
 30
0.0
 40
38.00629340277778
  1
カバレージ角
 41
0.7
 11
-1632.0
 21
2220.431569236111
 31
0.0
100
AcDbText
 73
     3
  0
TEXT
  5
93
330
471
100
AcDbEntity
  8
SPEC
 62
     7
100
AcDbText
 10
-1632.0
 20
2107.425275833334
 30
0.0
 40
38.00629340277778
  1
許容入力^I
 41
0.7
 11
-1632.0
 21
2145.431569236111
 31
0.0
100
AcDbText
 73
     3
  0
TEXT
  5
94
330
471
100
AcDbEntity
  8
SPEC
 62
     7
100
AcDbText
 10
-1632.0
 20
2032.425275833333
 30
0.0
 40
38.00629340277778
  1
感度(1m)
 41
0.7
 11
-1632.0
 21
2070.431569236111
 31
0.0
100
AcDbText
 73
     3
  0
TEXT
  5
95
330
471
100
AcDbEntity
  8
SPEC
 62
     7
100
AcDbText
 10
-1632.0
 20
1957.425275833333
 30
0.0
 40
38.00629340277778
  1
最大音圧(1m)
 41
0.7
 11
-1632.0
 21
1995.431569236111
 31
0.0
100
AcDbText
 73
     3
  0
TEXT
  5
96
330
471
100
AcDbEntity
  8
SPEC
 62
     7
100
AcDbText
 10
-1632.0
 20
1882.425275833333
 30
0.0
 40
38.00629340277778
  1
公称インピーダンス
 41
0.7
 11
-1632.0
 21
1920.431569236111
 31
0.0
100
AcDbText
 73
     3
  0
TEXT
  5
97
330
471
100
AcDbEntity
  8
SPEC
 62
     7
100
AcDbText
 10
-981.9999999999996
 20
2407.425275833333
 30
0.0
 40
38.00629340277778
  1
2-Wayフルレンジ
 41
0.7
 11
-981.9999999999996
 21
2445.431569236111
 31
0.0
100
AcDbText
 73
     3
  0
TEXT
  5
98
330
471
100
AcDbEntity
  8
SPEC
 62
     7
100
AcDbText
 10
-981.9999999999996
 20
2332.425275833333
 30
0.0
 40
38.00629340277778
  1
バイアンプ
 41
0.7
 11
-981.9999999999996
 21
2370.431569236111
 31
0.0
100
AcDbText
 73
     3
  0
TEXT
  5
99
330
471
100
AcDbEntity
  8
SPEC
 62
     7
100
AcDbText
 10
-981.9999999999996
 20
2257.425275833333
 30
0.0
 40
38.00629340277778
  1
36Hz～20kHz
 41
0.7
 11
-981.9999999999996
 21
2295.431569236111
 31
0.0
100
AcDbText
 73
     3
  0
TEXT
  5
9A
330
471
100
AcDbEntity
  8
SPEC
 62
     7
100
AcDbText
 10
-981.9999999999996
 20
2182.425275833333
 30
0.0
 40
38.00629340277778
  1
水平:100°、垂直:60°
 41
0.7
 11
-981.9999999999996
 21
2220.431569236111
 31
0.0
100
AcDbText
 73
     3
  0
TEXT
  5
9B
330
471
100
AcDbEntity
  8
SPEC
 62
     7
100
AcDbText
 10
-981.9999999999996
 20
2107.425275833334
 30
0.0
 40
38.00629340277778
  1
LF:1200W(AES、2時間)、HF:85W(AES、2時間)
 41
0.7
 11
-981.9999999999996
 21
2145.431569236111
 31
0.0
100
AcDbText
 73
     3
  0
TEXT
  5
9C
330
471
100
AcDbEntity
  8
SPEC
 62
     7
100
AcDbText
 10
-981.9999999999996
 20
2032.425275833333
 30
0.0
 40
38.00629340277778
  1
LF：103dB SPL、HF：112dB SPL(1W)
 41
0.7
 11
-981.9999999999996
 21
2070.431569236111
 31
0.0
100
AcDbText
 73
     3
  0
TEXT
  5
9D
330
471
100
AcDbEntity
  8
SPEC
 62
     7
100
AcDbText
 10
-981.9999999999996
 20
1957.425275833333
 30
0.0
 40
38.00629340277778
  1
135dB SPL(連続)、141dB SPL(ピーク)
 41
0.7
 11
-981.9999999999996
 21
1995.431569236111
 31
0.0
100
AcDbText
 73
     3
  0
TEXT
  5
9E
330
471
100
AcDbEntity
  8
SPEC
 62
     7
100
AcDbText
 10
-981.9999999999996
 20
1882.425275833333
 30
0.0
 40
38.00629340277778
  1
LF:4Ω、HF:8Ω
 41
0.7
 11
-981.9999999999996
 21
1920.431569236111
 31
0.0
100
AcDbText
 73
     3
  0
LINE
  5
9F
330
471
100
AcDbEntity
  8
SPEC
  6
Continuous
 62
     7
100
AcDbLine
 10
-1649.999999999999
 20
1866.666920277778
 30
0.0
 11
1300.0
 21
1866.666920277778
 31
0.0
  0
TEXT
  5
A0
330
471
100
AcDbEntity
  8
SPEC
 62
     7
100
AcDbText
 10
-1632.0
 20
1807.425275833333
 30
0.0
 40
38.00629340277778
  1
ドライバー構成
 41
0.7
 11
-1632.0
 21
1845.431569236111
 31
0.0
100
AcDbText
 73
     3
  0
TEXT
  5
A1
330
471
100
AcDbEntity
  8
SPEC
 62
     7
100
AcDbText
 10
-981.9999999999996
 20
1807.425275833333
 30
0.0
 40
38.00629340277778
  1
LF:2275H-BK(5インチ(381mm))×2
 41
0.7
 11
-981.9999999999996
 21
1845.431569236111
 31
0.0
100
AcDbText
 73
     3
  0
TEXT
  5
A2
330
471
100
AcDbEntity
  8
SPEC
 62
     7
100
AcDbText
 10
-1632.0
 20
1582.425275833333
 30
0.0
 40
38.00629340277778
  1
寸法(W×H×D)
 41
0.7
 11
-1632.0
 21
1620.431569236111
 31
0.0
100
AcDbText
 73
     3
  0
TEXT
  5
A3
330
471
100
AcDbEntity
  8
SPEC
 62
     7
100
AcDbText
 10
-1632.0
 20
1507.425275833333
 30
0.0
 40
38.00629340277778
  1
質量
 41
0.7
 11
-1632.0
 21
1545.431569236111
 31
0.0
100
AcDbText
 73
     3
  0
LINE
  5
A4
330
471
100
AcDbEntity
  8
SPEC
  6
Continuous
 62
     7
100
AcDbLine
 10
-1649.999999999999
 20
1716.666920277778
 30
0.0
 11
1300.0
 21
1716.666920277778
 31
0.0
  0
LINE
  5
A5
330
471
100
AcDbEntity
  8
SPEC
  6
Continuous
 62
     7
100
AcDbLine
 10
-1649.999999999999
 20
1641.666920277778
 30
0.0
 11
1300.0
 21
1641.666920277778
 31
0.0
  0
LINE
  5
A6
330
471
100
AcDbEntity
  8
SPEC
  6
Continuous
 62
     7
100
AcDbLine
 10
-1649.999999999999
 20
1566.666920277778
 30
0.0
 11
1300.0
 21
1566.666920277778
 31
0.0
  0
LINE
  5
A7
330
471
100
AcDbEntity
  8
SPEC
  6
Continuous
 62
     7
100
AcDbLine
 10
-1649.999999999999
 20
1491.666920277778
 30
0.0
 11
1300.0
 21
1491.666920277778
 31
0.0
  0
TEXT
  5
A8
330
471
100
AcDbEntity
  8
SPEC
 62
     7
100
AcDbText
 10
-1632.0
 20
1657.425275833333
 30
0.0
 40
38.00629340277778
  1
入力コネクター
 41
0.7
 11
-1632.0
 21
1695.431569236111
 31
0.0
100
AcDbText
 73
     3
  0
TEXT
  5
A9
330
471
100
AcDbEntity
  8
SPEC
 62
     7
100
AcDbText
 10
-981.9999999999996
 20
1732.425275833333
 30
0.0
 40
38.00629340277778
  1
HF:2515XP-J×2
 41
0.7
 11
-981.9999999999996
 21
1770.431569236111
 31
0.0
100
AcDbText
 73
     3
  0
TEXT
  5
AA
330
471
100
AcDbEntity
  8
SPEC
 62
     7
100
AcDbText
 10
-981.9999999999996
 20
1657.425275833333
 30
0.0
 40
38.00629340277778
  1
ねじ止め端子
 41
0.7
 11
-981.9999999999996
 21
1695.431569236111
 31
0.0
100
AcDbText
 73
     3
  0
TEXT
  5
AB
330
471
100
AcDbEntity
  8
SPEC
 62
     7
100
AcDbText
 10
-981.9999999999996
 20
1582.425275833333
 30
0.0
 40
38.00629340277778
  1
859×1,526×387mm(除突起部)
 41
0.7
 11
-981.9999999999996
 21
1620.431569236111
 31
0.0
100
AcDbText
 73
     3
  0
TEXT
  5
AC
330
471
100
AcDbEntity
  8
SPEC
 62
     7
100
AcDbText
 10
-981.9999999999996
 20
1507.425275833333
 30
0.0
 40
38.00629340277778
  1
95kg
 41
0.7
 11
-981.9999999999996
 21
1545.431569236111
 31
0.0
100
AcDbText
 73
     3
  0
TEXT
  5
AD
330
471
100
AcDbEntity
  8
DIMNSIONS
 62
     7
100
AcDbText
 10
-400.0
 20
-2287.943279722221
 30
0.0
 40
48.86523437500001
  1
(単位：mm)
 41
0.7
 11
-400.0
 21
-2239.078045347221
 31
0.0
100
AcDbText
 73
     3
  0
LINE
  5
AE
330
471
100
AcDbEntity
  8
DIMNSIONS
  6
Continuous
 62
     7
100
AcDbLine
 10
-1153.5
 20
487.0
 30
0.0
 11
-1220.0
 21
487.0
 31
0.0
  0
LINE
  5
AF
330
471
100
AcDbEntity
  8
DIMNSIONS
  6
Continuous
 62
     7
100
AcDbLine
 10
-986.5
 20
100.0
 30
0.0
 11
-1220.0
 21
100.0
 31
0.0
  0
LINE
  5
B0
330
471
100
AcDbEntity
  8
DIMNSIONS
  6
Continuous
 62
     7
100
AcDbLine
 10
-1200.0
 20
487.0
 30
0.0
 11
-1200.0
 21
100.0
 31
0.0
  0
LINE
  5
B1
330
471
100
AcDbEntity
  8
DIMNSIONS
  6
Continuous
 62
     7
100
AcDbLine
 10
-1200.0
 20
487.0
 30
0.0
 11
-1189.282686475588
 21
447.00244140625
 31
0.0
  0
LINE
  5
B2
330
471
100
AcDbEntity
  8
DIMNSIONS
  6
Continuous
 62
     7
100
AcDbLine
 10
-1200.0
 20
487.0
 30
0.0
 11
-1210.717313524412
 21
447.00244140625
 31
0.0
  0
LINE
  5
B3
330
471
100
AcDbEntity
  8
DIMNSIONS
  6
Continuous
 62
     7
100
AcDbLine
 10
-1200.0
 20
100.0
 30
0.0
 11
-1210.717313524412
 21
139.99755859375
 31
0.0
  0
LINE
  5
B4
330
471
100
AcDbEntity
  8
DIMNSIONS
  6
Continuous
 62
     7
100
AcDbLine
 10
-1200.0
 20
100.0
 30
0.0
 11
-1189.282686475588
 21
139.99755859375
 31
0.0
  0
TEXT
  5
B5
330
471
100
AcDbEntity
  8
DIMNSIONS
 62
     7
100
AcDbText
 10
-1219.877777777778
 20
240.5833333333333
 30
0.0
 40
54.29470486111111
  1
387
 50
90.0
 41
0.7
 11
-1274.172482638889
 21
240.5833333333333
 31
0.0
100
AcDbText
 73
     3
  0
LINE
  5
B6
330
471
100
AcDbEntity
  8
DIMNSIONS
  6
Continuous
 62
     7
100
AcDbLine
 10
-1153.5
 20
-964.4999999999999
 30
0.0
 11
-1220.0
 21
-964.4999999999999
 31
0.0
  0
LINE
  5
B7
330
471
100
AcDbEntity
  8
DIMNSIONS
  6
Continuous
 62
     7
100
AcDbLine
 10
-1153.5
 20
-74.5
 30
0.0
 11
-1220.0
 21
-74.5
 31
0.0
  0
LINE
  5
B8
330
471
100
AcDbEntity
  8
DIMNSIONS
  6
Continuous
 62
     7
100
AcDbLine
 10
-1200.0
 20
-964.4999999999999
 30
0.0
 11
-1200.0
 21
-74.5
 31
0.0
  0
LINE
  5
B9
330
471
100
AcDbEntity
  8
DIMNSIONS
  6
Continuous
 62
     7
100
AcDbLine
 10
-1200.0
 20
-964.4999999999999
 30
0.0
 11
-1210.717313524412
 21
-924.50244140625
 31
0.0
  0
LINE
  5
BA
330
471
100
AcDbEntity
  8
DIMNSIONS
  6
Continuous
 62
     7
100
AcDbLine
 10
-1200.0
 20
-964.4999999999999
 30
0.0
 11
-1189.282686475588
 21
-924.50244140625
 31
0.0
  0
LINE
  5
BB
330
471
100
AcDbEntity
  8
DIMNSIONS
  6
Continuous
 62
     7
100
AcDbLine
 10
-1200.0
 20
-74.5
 30
0.0
 11
-1189.282686475588
 21
-114.49755859375
 31
0.0
  0
LINE
  5
BC
330
471
100
AcDbEntity
  8
DIMNSIONS
  6
Continuous
 62
     7
100
AcDbLine
 10
-1200.0
 20
-74.5
 30
0.0
 11
-1210.717313524412
 21
-114.49755859375
 31
0.0
  0
TEXT
  5
BD
330
471
100
AcDbEntity
  8
DIMNSIONS
 62
     7
100
AcDbText
 10
-1219.877777777778
 20
-572.4166666666667
 30
0.0
 40
54.29470486111111
  1
890
 50
90.0
 41
0.7
 11
-1274.172482638889
 21
-572.4166666666667
 31
0.0
100
AcDbText
 73
     3
  0
LINE
  5
BE
330
471
100
AcDbEntity
  8
DIMNSIONS
  6
Continuous
 62
     7
100
AcDbLine
 10
-1153.5
 20
-1600.0
 30
0.0
 11
-1220.0
 21
-1600.0
 31
0.0
  0
LINE
  5
BF
330
471
100
AcDbEntity
  8
DIMNSIONS
  6
Continuous
 62
     7
100
AcDbLine
 10
-1155.8
 20
-964.4999999999999
 30
0.0
 11
-1220.0
 21
-964.4999999999999
 31
0.0
  0
LINE
  5
C0
330
471
100
AcDbEntity
  8
DIMNSIONS
  6
Continuous
 62
     7
100
AcDbLine
 10
-1200.0
 20
-1600.0
 30
0.0
 11
-1200.0
 21
-964.4999999999999
 31
0.0
  0
LINE
  5
C1
330
471
100
AcDbEntity
  8
DIMNSIONS
  6
Continuous
 62
     7
100
AcDbLine
 10
-1200.0
 20
-1600.0
 30
0.0
 11
-1210.717313524412
 21
-1560.00244140625
 31
0.0
  0
LINE
  5
C2
330
471
100
AcDbEntity
  8
DIMNSIONS
  6
Continuous
 62
     7
100
AcDbLine
 10
-1200.0
 20
-1600.0
 30
0.0
 11
-1189.282686475588
 21
-1560.00244140625
 31
0.0
  0
LINE
  5
C3
330
471
100
AcDbEntity
  8
DIMNSIONS
  6
Continuous
 62
     7
100
AcDbLine
 10
-1200.0
 20
-964.4999999999999
 30
0.0
 11
-1189.282686475588
 21
-1004.49755859375
 31
0.0
  0
LINE
  5
C4
330
471
100
AcDbEntity
  8
DIMNSIONS
  6
Continuous
 62
     7
100
AcDbLine
 10
-1200.0
 20
-964.4999999999999
 30
0.0
 11
-1210.717313524412
 21
-1004.49755859375
 31
0.0
  0
TEXT
  5
C5
330
471
100
AcDbEntity
  8
DIMNSIONS
 62
     7
100
AcDbText
 10
-1219.877777777778
 20
-1335.166666666667
 30
0.0
 40
54.29470486111111
  1
636
 50
90.0
 41
0.7
 11
-1274.172482638889
 21
-1335.166666666667
 31
0.0
100
AcDbText
 73
     3
  0
LINE
  5
C6
330
471
100
AcDbEntity
  8
DIMNSIONS
  6
Continuous
 62
     7
100
AcDbLine
 10
-1153.5
 20
-1600.0
 30
0.0
 11
-1320.0
 21
-1600.0
 31
0.0
  0
LINE
  5
C7
330
471
100
AcDbEntity
  8
DIMNSIONS
  6
Continuous
 62
     7
100
AcDbLine
 10
-1153.5
 20
-74.5
 30
0.0
 11
-1320.0
 21
-74.5
 31
0.0
  0
LINE
  5
C8
330
471
100
AcDbEntity
  8
DIMNSIONS
  6
Continuous
 62
     7
100
AcDbLine
 10
-1300.0
 20
-1600.0
 30
0.0
 11
-1300.0
 21
-74.5
 31
0.0
  0
LINE
  5
C9
330
471
100
AcDbEntity
  8
DIMNSIONS
  6
Continuous
 62
     7
100
AcDbLine
 10
-1300.0
 20
-1600.0
 30
0.0
 11
-1310.717313524412
 21
-1560.00244140625
 31
0.0
  0
LINE
  5
CA
330
471
100
AcDbEntity
  8
DIMNSIONS
  6
Continuous
 62
     7
100
AcDbLine
 10
-1300.0
 20
-1600.0
 30
0.0
 11
-1289.282686475588
 21
-1560.00244140625
 31
0.0
  0
LINE
  5
CB
330
471
100
AcDbEntity
  8
DIMNSIONS
  6
Continuous
 62
     7
100
AcDbLine
 10
-1300.0
 20
-74.5
 30
0.0
 11
-1289.282686475588
 21
-114.49755859375
 31
0.0
  0
LINE
  5
CC
330
471
100
AcDbEntity
  8
DIMNSIONS
  6
Continuous
 62
     7
100
AcDbLine
 10
-1300.0
 20
-74.5
 30
0.0
 11
-1310.717313524412
 21
-114.49755859375
 31
0.0
  0
TEXT
  5
CD
330
471
100
AcDbEntity
  8
DIMNSIONS
 62
     7
100
AcDbText
 10
-1319.877777777778
 20
-907.8055555555556
 30
0.0
 40
54.29470486111111
  1
1526
 50
90.0
 41
0.7
 11
-1374.172482638889
 21
-907.8055555555556
 31
0.0
100
AcDbText
 73
     3
  0
LINE
  5
CE
330
471
100
AcDbEntity
  8
DIMNSIONS
  6
Continuous
 62
     7
100
AcDbLine
 10
-1129.5
 20
-1624.0
 30
0.0
 11
-1129.5
 21
-1720.0
 31
0.0
  0
LINE
  5
CF
330
471
100
AcDbEntity
  8
DIMNSIONS
  6
Continuous
 62
     7
100
AcDbLine
 10
-270.5
 20
-1624.0
 30
0.0
 11
-270.5
 21
-1720.0
 31
0.0
  0
LINE
  5
D0
330
471
100
AcDbEntity
  8
DIMNSIONS
  6
Continuous
 62
     7
100
AcDbLine
 10
-1129.5
 20
-1700.0
 30
0.0
 11
-270.5
 21
-1700.0
 31
0.0
  0
LINE
  5
D1
330
471
100
AcDbEntity
  8
DIMNSIONS
  6
Continuous
 62
     7
100
AcDbLine
 10
-1129.5
 20
-1700.0
 30
0.0
 11
-1089.50244140625
 21
-1689.282686475588
 31
0.0
  0
LINE
  5
D2
330
471
100
AcDbEntity
  8
DIMNSIONS
  6
Continuous
 62
     7
100
AcDbLine
 10
-1129.5
 20
-1700.0
 30
0.0
 11
-1089.50244140625
 21
-1710.717313524412
 31
0.0
  0
LINE
  5
D3
330
471
100
AcDbEntity
  8
DIMNSIONS
  6
Continuous
 62
     7
100
AcDbLine
 10
-270.5
 20
-1700.0
 30
0.0
 11
-310.49755859375
 21
-1710.717313524412
 31
0.0
  0
LINE
  5
D4
330
471
100
AcDbEntity
  8
DIMNSIONS
  6
Continuous
 62
     7
100
AcDbLine
 10
-270.5
 20
-1700.0
 30
0.0
 11
-310.49755859375
 21
-1689.282686475588
 31
0.0
  0
TEXT
  5
D5
330
471
100
AcDbEntity
  8
DIMNSIONS
 62
     7
100
AcDbText
 10
-752.9166666666665
 20
-1680.122222222222
 30
0.0
 40
54.29470486111111
  1
859
 41
0.7
 11
-752.9166666666665
 21
-1625.827517361111
 31
0.0
100
AcDbText
 73
     3
  0
LINE
  5
D6
330
471
100
AcDbEntity
  8
DIMNSIONS
  6
Continuous
 62
     7
100
AcDbLine
 10
-696.8943744833556
 20
455.2733635436216
 30
0.0
 11
-650.0
 21
550.0
 31
0.0
  0
LINE
  5
D7
330
471
100
AcDbEntity
  8
DIMNSIONS
  6
Continuous
 62
     7
100
AcDbLine
 10
-696.8943744833556
 20
455.2733635436216
 30
0.0
 11
-688.2850591410403
 21
495.7770077250726
 31
0.0
  0
LINE
  5
D8
330
471
100
AcDbEntity
  8
DIMNSIONS
  6
Continuous
 62
     7
100
AcDbLine
 10
-696.8943744833556
 20
455.2733635436216
 30
0.0
 11
-669.186666596994
 21
486.0458906794463
 31
0.0
  0
LINE
  5
D9
330
471
100
AcDbEntity
  8
DIMNSIONS
  6
Continuous
 62
     7
100
AcDbLine
 10
-650.0
 20
550.0
 30
0.0
 11
-610.0
 21
550.0
 31
0.0
  0
TEXT
  5
DA
330
471
100
AcDbEntity
  8
DIMNSIONS
 62
     7
100
AcDbText
 10
-610.0
 20
524.5999999999999
 30
0.0
 40
54.29470486111111
  1
1/4-20 UNC(インチ)
 41
0.7
 11
-610.0
 21
578.894704861111
 31
0.0
100
AcDbText
 73
     3
  0
LINE
  5
DB
330
471
100
AcDbEntity
  8
DIMNSIONS
  6
Continuous
 62
     7
100
AcDbLine
 10
-270.5
 20
-1623.5
 30
0.0
 11
-270.5
 21
-1720.0
 31
0.0
  0
LINE
  5
DC
330
471
100
AcDbEntity
  8
DIMNSIONS
  6
Continuous
 62
     7
100
AcDbLine
 10
-266.5
 20
-615.5
 30
0.0
 11
-266.5
 21
-1720.0
 31
0.0
  0
LINE
  5
DD
330
471
100
AcDbEntity
  8
DIMNSIONS
  6
Continuous
 62
     7
100
AcDbLine
 10
-266.5
 20
-1700.0
 30
0.0
 11
-270.5
 21
-1700.0
 31
0.0
  0
LINE
  5
DE
330
471
100
AcDbEntity
  8
DIMNSIONS
  6
Continuous
 62
     7
100
AcDbLine
 10
-270.5
 20
-1700.0
 30
0.0
 11
-340.5
 21
-1700.0
 31
0.0
  0
LINE
  5
DF
330
471
100
AcDbEntity
  8
DIMNSIONS
  6
Continuous
 62
     7
100
AcDbLine
 10
-270.5
 20
-1700.0
 30
0.0
 11
-310.49755859375
 21
-1710.717313524412
 31
0.0
  0
LINE
  5
E0
330
471
100
AcDbEntity
  8
DIMNSIONS
  6
Continuous
 62
     7
100
AcDbLine
 10
-270.5
 20
-1700.0
 30
0.0
 11
-310.49755859375
 21
-1689.282686475588
 31
0.0
  0
LINE
  5
E1
330
471
100
AcDbEntity
  8
DIMNSIONS
  6
Continuous
 62
     7
100
AcDbLine
 10
-266.5
 20
-1700.0
 30
0.0
 11
-144.1666666666666
 21
-1700.0
 31
0.0
  0
LINE
  5
E2
330
471
100
AcDbEntity
  8
DIMNSIONS
  6
Continuous
 62
     7
100
AcDbLine
 10
-266.5
 20
-1700.0
 30
0.0
 11
-226.50244140625
 21
-1689.282686475588
 31
0.0
  0
LINE
  5
E3
330
471
100
AcDbEntity
  8
DIMNSIONS
  6
Continuous
 62
     7
100
AcDbLine
 10
-266.5
 20
-1700.0
 30
0.0
 11
-226.50244140625
 21
-1710.717313524412
 31
0.0
  0
TEXT
  5
E4
330
471
100
AcDbEntity
  8
DIMNSIONS
 62
     7
100
AcDbText
 10
-250.0
 20
-1680.122222222222
 30
0.0
 40
54.29470486111111
  1
4.0
 41
0.7
 11
-250.0
 21
-1625.827517361111
 31
0.0
100
AcDbText
 73
     3
  0
LINE
  5
E5
330
471
100
AcDbEntity
  8
DIMNSIONS
  6
Continuous
 62
     7
100
AcDbLine
 10
-1153.5
 20
-74.5
 30
0.0
 11
-1220.0
 21
-74.5
 31
0.0
  0
LINE
  5
E6
330
471
100
AcDbEntity
  8
DIMNSIONS
  6
Continuous
 62
     7
100
AcDbLine
 10
-724.0
 20
-67.49999999999992
 30
0.0
 11
-1220.0
 21
-67.49999999999992
 31
0.0
  0
LINE
  5
E7
330
471
100
AcDbEntity
  8
DIMNSIONS
  6
Continuous
 62
     7
100
AcDbLine
 10
-1200.0
 20
-67.49999999999992
 30
0.0
 11
-1200.0
 21
-74.5
 31
0.0
  0
LINE
  5
E8
330
471
100
AcDbEntity
  8
DIMNSIONS
  6
Continuous
 62
     7
100
AcDbLine
 10
-1200.0
 20
-74.5
 30
0.0
 11
-1200.0
 21
-144.5
 31
0.0
  0
LINE
  5
E9
330
471
100
AcDbEntity
  8
DIMNSIONS
  6
Continuous
 62
     7
100
AcDbLine
 10
-1200.0
 20
-74.5
 30
0.0
 11
-1189.282686475588
 21
-114.49755859375
 31
0.0
  0
LINE
  5
EA
330
471
100
AcDbEntity
  8
DIMNSIONS
  6
Continuous
 62
     7
100
AcDbLine
 10
-1200.0
 20
-74.5
 30
0.0
 11
-1210.717313524412
 21
-114.49755859375
 31
0.0
  0
LINE
  5
EB
330
471
100
AcDbEntity
  8
DIMNSIONS
  6
Continuous
 62
     7
100
AcDbLine
 10
-1200.0
 20
-67.49999999999992
 30
0.0
 11
-1200.0
 21
56.33333333333334
 31
0.0
  0
LINE
  5
EC
330
471
100
AcDbEntity
  8
DIMNSIONS
  6
Continuous
 62
     7
100
AcDbLine
 10
-1200.0
 20
-67.49999999999992
 30
0.0
 11
-1210.717313524412
 21
-27.50244140624995
 31
0.0
  0
LINE
  5
ED
330
471
100
AcDbEntity
  8
DIMNSIONS
  6
Continuous
 62
     7
100
AcDbLine
 10
-1200.0
 20
-67.49999999999992
 30
0.0
 11
-1189.282686475588
 21
-27.50244140624995
 31
0.0
  0
TEXT
  5
EE
330
471
100
AcDbEntity
  8
DIMNSIONS
 62
     7
100
AcDbText
 10
-1219.877777777778
 20
-49.50000000000001
 30
0.0
 40
54.29470486111111
  1
7.0
 50
90.0
 41
0.7
 11
-1274.172482638889
 21
-49.5
 31
0.0
100
AcDbText
 73
     3
  0
TEXT
  5
EF
330
471
100
AcDbEntity
  8
DATA
 62
     7
100
AcDbText
 10
999.9999999999996
 20
-2165.71527972222
 30
0.0
 40
48.86523437500001
  1
JBL PROFESSIONAL
 41
0.7
 11
999.9999999999996
 21
-2116.85004534722
 31
0.0
100
AcDbText
 73
     3
  0
TEXT
  5
F0
330
471
100
AcDbEntity
  8
DATA
 62
     7
100
AcDbText
 10
-1750.0
 20
-2375.807524166667
 30
0.0
 40
38.00629340277778
  1
●仕様及び外観は予告なく変更されることがあります。
 41
0.7
 11
-1750.0
 21
-2337.801230763889
 31
0.0
100
AcDbText
 73
     3
  0
TEXT
  5
F1
330
471
100
AcDbEntity
  8
DATA
 62
     7
100
AcDbText
 10
-1750.0
 20
-2425.196413055555
 30
0.0
 40
38.00629340277778
  1
　また、同一商品でも若干の個体差があることがあります。ご了承ください。
 41
0.7
 11
-1750.0
 21
-2387.190119652777
 31
0.0
100
AcDbText
 73
     3
  0
LINE
  5
F2
330
471
100
AcDbEntity
  8
DATA
  6
Continuous
 62
     7
100
AcDbLine
 10
-1122.75
 20
-1590.5
 30
0.0
 11
-1122.75
 21
-967.5
 31
0.0
  0
LINE
  5
F3
330
471
100
AcDbEntity
  8
DATA
  6
Continuous
 62
     7
100
AcDbLine
 10
-1122.75
 20
-964.4999999999999
 30
0.0
 11
-1122.75
 21
-79.5
 31
0.0
  0
LWPOLYLINE
  5
F4
330
471
100
AcDbEntity
  8
DATA
  6
Continuous
 62
     7
100
AcDbPolyline
 90
        4
 70
     1
 43
0.0
 10
-1129.5
 20
-964.4999999999999
 10
-270.5
 20
-964.4999999999999
 10
-270.5
 20
-1600.0
 10
-1129.5
 20
-1600.0
  0
LWPOLYLINE
  5
FB
330
471
100
AcDbEntity
  8
DATA
  6
Continuous
 62
     7
100
AcDbPolyline
 90
        4
 70
     1
 43
0.0
 10
-1129.5
 20
-74.5
 10
-270.5
 20
-74.5
 10
-270.5
 20
-964.4999999999999
 10
-1129.5
 20
-964.4999999999999
  0
TEXT
  5
102
330
471
100
AcDbEntity
  8
DATA
 62
     7
100
AcDbText
 10
949.9999999999996
 20
-2237.794379722222
 30
0.0
 40
38.00629340277778
  1
2-Wayフルレンジ・スクリーンアレイ
 41
0.7
 11
949.9999999999996
 21
-2199.788086319444
 31
0.0
100
AcDbText
 73
     3
  0
TEXT
  5
103
330
471
100
AcDbEntity
  8
DATA
 62
     7
100
AcDbText
 10
999.9999999999996
 20
-2310.715279722221
 30
0.0
 40
48.86523437500001
  1
C222HP
 41
0.7
 11
999.9999999999996
 21
-2261.850045347221
 31
0.0
100
AcDbText
 73
     3
  0
LWPOLYLINE
  5
104
330
471
100
AcDbEntity
  8
DATA
  6
Continuous
 62
     7
100
AcDbPolyline
 90
        4
 70
     1
 43
0.0
 10
-1129.5
 20
487.0
 10
-270.5
 20
487.0
 10
-270.5
 20
182.0
 10
-1129.5
 20
182.0
  0
LWPOLYLINE
  5
10B
330
471
100
AcDbEntity
  8
DATA
  6
Continuous
 62
     7
100
AcDbPolyline
 90
        4
 70
     1
 43
0.0
 10
-18.0
 20
-964.4999999999999
 10
287.0
 20
-964.4999999999999
 10
287.0
 20
-1600.0
 10
-18.0
 20
-1600.0
  0
LWPOLYLINE
  5
112
330
471
100
AcDbEntity
  8
DATA
  6
Continuous
 62
     7
100
AcDbPolyline
 90
        4
 70
     1
 43
0.0
 10
-18.0
 20
-74.5
 10
287.0
 20
-74.5
 10
287.0
 20
-964.4999999999999
 10
-18.0
 20
-964.4999999999999
  0
LINE
  5
119
330
471
100
AcDbEntity
  8
DATA
  6
Continuous
 62
     7
100
AcDbLine
 10
18.0
 20
-347.5
 30
0.0
 11
18.0
 21
-180.5
 31
0.0
  0
ARC
  5
11A
330
471
100
AcDbEntity
  8
DATA
  6
Continuous
 62
     7
100
AcDbCircle
 10
28.0
 20
-347.5
 30
0.0
 40
10.0
100
AcDbArc
 50
180.0
 51
270.0
  0
LINE
  5
11B
330
471
100
AcDbEntity
  8
DATA
  6
Continuous
 62
     7
100
AcDbLine
 10
241.0
 20
-357.5
 30
0.0
 11
28.0
 21
-357.5
 31
0.0
  0
ARC
  5
11C
330
471
100
AcDbEntity
  8
DATA
  6
Continuous
 62
     7
100
AcDbCircle
 10
241.0
 20
-347.5
 30
0.0
 40
10.0
100
AcDbArc
 50
270.0
 51
0.0
  0
LINE
  5
11D
330
471
100
AcDbEntity
  8
DATA
  6
Continuous
 62
     7
100
AcDbLine
 10
251.0
 20
-180.5
 30
0.0
 11
251.0
 21
-347.5
 31
0.0
  0
ARC
  5
11E
330
471
100
AcDbEntity
  8
DATA
  6
Continuous
 62
     7
100
AcDbCircle
 10
241.0
 20
-180.5
 30
0.0
 40
10.0
100
AcDbArc
 50
0.0
 51
90.0
  0
LINE
  5
11F
330
471
100
AcDbEntity
  8
DATA
  6
Continuous
 62
     7
100
AcDbLine
 10
28.0
 20
-170.5
 30
0.0
 11
241.0
 21
-170.5
 31
0.0
  0
ARC
  5
120
330
471
100
AcDbEntity
  8
DATA
  6
Continuous
 62
     7
100
AcDbCircle
 10
28.0
 20
-180.5
 30
0.0
 40
10.0
100
AcDbArc
 50
90.0
 51
180.0
  0
LINE
  5
121
330
471
100
AcDbEntity
  8
DATA
  6
Continuous
 62
     7
100
AcDbLine
 10
251.0
 20
-241.5
 30
0.0
 11
18.0
 21
-241.5
 31
0.0
  0
LINE
  5
122
330
471
100
AcDbEntity
  8
DATA
  6
Continuous
 62
     7
100
AcDbLine
 10
81.0
 20
-651.5
 30
0.0
 11
81.0
 21
-554.4999999999999
 31
0.0
  0
ARC
  5
123
330
471
100
AcDbEntity
  8
DATA
  6
Continuous
 62
     7
100
AcDbCircle
 10
87.0
 20
-651.5
 30
0.0
 40
6.0
100
AcDbArc
 50
180.0
 51
270.0
  0
LINE
  5
124
330
471
100
AcDbEntity
  8
DATA
  6
Continuous
 62
     7
100
AcDbLine
 10
182.0
 20
-657.5
 30
0.0
 11
87.0
 21
-657.5
 31
0.0
  0
ARC
  5
125
330
471
100
AcDbEntity
  8
DATA
  6
Continuous
 62
     7
100
AcDbCircle
 10
182.0
 20
-651.5
 30
0.0
 40
6.0
100
AcDbArc
 50
270.0
 51
0.0
  0
LINE
  5
126
330
471
100
AcDbEntity
  8
DATA
  6
Continuous
 62
     7
100
AcDbLine
 10
188.0
 20
-554.4999999999999
 30
0.0
 11
188.0
 21
-651.5
 31
0.0
  0
ARC
  5
127
330
471
100
AcDbEntity
  8
DATA
  6
Continuous
 62
     7
100
AcDbCircle
 10
182.0
 20
-554.4999999999999
 30
0.0
 40
6.0
100
AcDbArc
 50
0.0
 51
90.0
  0
LINE
  5
128
330
471
100
AcDbEntity
  8
DATA
  6
Continuous
 62
     7
100
AcDbLine
 10
87.0
 20
-548.5
 30
0.0
 11
182.0
 21
-548.5
 31
0.0
  0
ARC
  5
129
330
471
100
AcDbEntity
  8
DATA
  6
Continuous
 62
     7
100
AcDbCircle
 10
87.0
 20
-554.4999999999999
 30
0.0
 40
6.0
100
AcDbArc
 50
90.0
 51
180.0
  0
LWPOLYLINE
  5
12A
330
471
100
AcDbEntity
  8
DATA
  6
Continuous
 62
     7
100
AcDbPolyline
 90
        4
 70
     1
 43
0.0
 10
107.0
 20
-571.4999999999999
 10
162.0
 20
-571.4999999999999
 10
162.0
 20
-591.5
 10
107.0
 20
-591.5
  0
LWPOLYLINE
  5
131
330
471
100
AcDbEntity
  8
DATA
  6
Continuous
 62
     7
100
AcDbPolyline
 90
        4
 70
     1
 43
0.0
 10
110.75
 20
-577.5
 10
120.75
 20
-577.5
 10
120.75
 20
-585.5
 10
110.75
 20
-585.5
  0
LWPOLYLINE
  5
138
330
471
100
AcDbEntity
  8
DATA
  6
Continuous
 62
     7
100
AcDbPolyline
 90
        4
 70
     1
 43
0.0
 10
123.25
 20
-577.5
 10
133.25
 20
-577.5
 10
133.25
 20
-585.5
 10
123.25
 20
-585.5
  0
LWPOLYLINE
  5
13F
330
471
100
AcDbEntity
  8
DATA
  6
Continuous
 62
     7
100
AcDbPolyline
 90
        4
 70
     1
 43
0.0
 10
135.75
 20
-577.5
 10
145.75
 20
-577.5
 10
145.75
 20
-585.5
 10
135.75
 20
-585.5
  0
LWPOLYLINE
  5
146
330
471
100
AcDbEntity
  8
DATA
  6
Continuous
 62
     7
100
AcDbPolyline
 90
        4
 70
     1
 43
0.0
 10
148.25
 20
-577.5
 10
158.25
 20
-577.5
 10
158.25
 20
-585.5
 10
148.25
 20
-585.5
  0
LINE
  5
14D
330
471
100
AcDbEntity
  8
DATA
  6
Continuous
 62
     7
100
AcDbLine
 10
120.5
 20
-591.5
 30
0.0
 11
120.5
 21
-586.0
 31
0.0
  0
LINE
  5
14E
330
471
100
AcDbEntity
  8
DATA
  6
Continuous
 62
     7
100
AcDbLine
 10
120.5
 20
-577.0
 30
0.0
 11
120.5
 21
-571.4999999999999
 31
0.0
  0
LINE
  5
14F
330
471
100
AcDbEntity
  8
DATA
  6
Continuous
 62
     7
100
AcDbLine
 10
123.5
 20
-571.4999999999999
 30
0.0
 11
123.5
 21
-577.0
 31
0.0
  0
LINE
  5
150
330
471
100
AcDbEntity
  8
DATA
  6
Continuous
 62
     7
100
AcDbLine
 10
123.5
 20
-586.0
 30
0.0
 11
123.5
 21
-591.5
 31
0.0
  0
LINE
  5
151
330
471
100
AcDbEntity
  8
DATA
  6
Continuous
 62
     7
100
AcDbLine
 10
121.0499999999999
 20
-586.0
 30
0.0
 11
121.0499999999999
 21
-577.0
 31
0.0
  0
LINE
  5
152
330
471
100
AcDbEntity
  8
DATA
  6
Continuous
 62
     7
100
AcDbLine
 10
122.9499999999999
 20
-577.0
 30
0.0
 11
122.9499999999999
 21
-586.0
 31
0.0
  0
LINE
  5
153
330
471
100
AcDbEntity
  8
DATA
  6
Continuous
 62
     7
100
AcDbLine
 10
123.5
 20
-586.0
 30
0.0
 11
122.9499999999999
 21
-586.0
 31
0.0
  0
LINE
  5
154
330
471
100
AcDbEntity
  8
DATA
  6
Continuous
 62
     7
100
AcDbLine
 10
121.0499999999999
 20
-586.0
 30
0.0
 11
120.5
 21
-586.0
 31
0.0
  0
LINE
  5
155
330
471
100
AcDbEntity
  8
DATA
  6
Continuous
 62
     7
100
AcDbLine
 10
120.5
 20
-577.0
 30
0.0
 11
121.0499999999999
 21
-577.0
 31
0.0
  0
LINE
  5
156
330
471
100
AcDbEntity
  8
DATA
  6
Continuous
 62
     7
100
AcDbLine
 10
122.9499999999999
 20
-577.0
 30
0.0
 11
123.5
 21
-577.0
 31
0.0
  0
LINE
  5
157
330
471
100
AcDbEntity
  8
DATA
  6
Continuous
 62
     7
100
AcDbLine
 10
110.0
 20
-571.4999999999999
 30
0.0
 11
110.0
 21
-577.0
 31
0.0
  0
LINE
  5
158
330
471
100
AcDbEntity
  8
DATA
  6
Continuous
 62
     7
100
AcDbLine
 10
110.0
 20
-586.0
 30
0.0
 11
110.0
 21
-591.5
 31
0.0
  0
LINE
  5
159
330
471
100
AcDbEntity
  8
DATA
  6
Continuous
 62
     7
100
AcDbLine
 10
109.4499999999999
 20
-577.0
 30
0.0
 11
109.4499999999999
 21
-586.0
 31
0.0
  0
LINE
  5
15A
330
471
100
AcDbEntity
  8
DATA
  6
Continuous
 62
     7
100
AcDbLine
 10
110.0
 20
-586.0
 30
0.0
 11
109.4499999999999
 21
-586.0
 31
0.0
  0
LINE
  5
15B
330
471
100
AcDbEntity
  8
DATA
  6
Continuous
 62
     7
100
AcDbLine
 10
109.4499999999999
 20
-577.0
 30
0.0
 11
110.0
 21
-577.0
 31
0.0
  0
LINE
  5
15C
330
471
100
AcDbEntity
  8
DATA
  6
Continuous
 62
     7
100
AcDbLine
 10
133.0
 20
-591.5
 30
0.0
 11
133.0
 21
-586.0
 31
0.0
  0
LINE
  5
15D
330
471
100
AcDbEntity
  8
DATA
  6
Continuous
 62
     7
100
AcDbLine
 10
133.0
 20
-577.0
 30
0.0
 11
133.0
 21
-571.4999999999999
 31
0.0
  0
LINE
  5
15E
330
471
100
AcDbEntity
  8
DATA
  6
Continuous
 62
     7
100
AcDbLine
 10
136.0
 20
-571.4999999999999
 30
0.0
 11
136.0
 21
-577.0
 31
0.0
  0
LINE
  5
15F
330
471
100
AcDbEntity
  8
DATA
  6
Continuous
 62
     7
100
AcDbLine
 10
136.0
 20
-586.0
 30
0.0
 11
136.0
 21
-591.5
 31
0.0
  0
LINE
  5
160
330
471
100
AcDbEntity
  8
DATA
  6
Continuous
 62
     7
100
AcDbLine
 10
133.5499999999999
 20
-586.0
 30
0.0
 11
133.5499999999999
 21
-577.0
 31
0.0
  0
LINE
  5
161
330
471
100
AcDbEntity
  8
DATA
  6
Continuous
 62
     7
100
AcDbLine
 10
135.4499999999999
 20
-577.0
 30
0.0
 11
135.4499999999999
 21
-586.0
 31
0.0
  0
LINE
  5
162
330
471
100
AcDbEntity
  8
DATA
  6
Continuous
 62
     7
100
AcDbLine
 10
136.0
 20
-586.0
 30
0.0
 11
135.4499999999999
 21
-586.0
 31
0.0
  0
LINE
  5
163
330
471
100
AcDbEntity
  8
DATA
  6
Continuous
 62
     7
100
AcDbLine
 10
133.5499999999999
 20
-586.0
 30
0.0
 11
133.0
 21
-586.0
 31
0.0
  0
LINE
  5
164
330
471
100
AcDbEntity
  8
DATA
  6
Continuous
 62
     7
100
AcDbLine
 10
133.0
 20
-577.0
 30
0.0
 11
133.5499999999999
 21
-577.0
 31
0.0
  0
LINE
  5
165
330
471
100
AcDbEntity
  8
DATA
  6
Continuous
 62
     7
100
AcDbLine
 10
135.4499999999999
 20
-577.0
 30
0.0
 11
136.0
 21
-577.0
 31
0.0
  0
LINE
  5
166
330
471
100
AcDbEntity
  8
DATA
  6
Continuous
 62
     7
100
AcDbLine
 10
145.5
 20
-591.5
 30
0.0
 11
145.5
 21
-586.0
 31
0.0
  0
LINE
  5
167
330
471
100
AcDbEntity
  8
DATA
  6
Continuous
 62
     7
100
AcDbLine
 10
145.5
 20
-577.0
 30
0.0
 11
145.5
 21
-571.4999999999999
 31
0.0
  0
LINE
  5
168
330
471
100
AcDbEntity
  8
DATA
  6
Continuous
 62
     7
100
AcDbLine
 10
148.5
 20
-571.4999999999999
 30
0.0
 11
148.5
 21
-577.0
 31
0.0
  0
LINE
  5
169
330
471
100
AcDbEntity
  8
DATA
  6
Continuous
 62
     7
100
AcDbLine
 10
148.5
 20
-586.0
 30
0.0
 11
148.5
 21
-591.5
 31
0.0
  0
LINE
  5
16A
330
471
100
AcDbEntity
  8
DATA
  6
Continuous
 62
     7
100
AcDbLine
 10
146.0499999999999
 20
-586.0
 30
0.0
 11
146.0499999999999
 21
-577.0
 31
0.0
  0
LINE
  5
16B
330
471
100
AcDbEntity
  8
DATA
  6
Continuous
 62
     7
100
AcDbLine
 10
147.9499999999999
 20
-577.0
 30
0.0
 11
147.9499999999999
 21
-586.0
 31
0.0
  0
LINE
  5
16C
330
471
100
AcDbEntity
  8
DATA
  6
Continuous
 62
     7
100
AcDbLine
 10
148.5
 20
-586.0
 30
0.0
 11
147.9499999999999
 21
-586.0
 31
0.0
  0
LINE
  5
16D
330
471
100
AcDbEntity
  8
DATA
  6
Continuous
 62
     7
100
AcDbLine
 10
146.0499999999999
 20
-586.0
 30
0.0
 11
145.5
 21
-586.0
 31
0.0
  0
LINE
  5
16E
330
471
100
AcDbEntity
  8
DATA
  6
Continuous
 62
     7
100
AcDbLine
 10
145.5
 20
-577.0
 30
0.0
 11
146.0499999999999
 21
-577.0
 31
0.0
  0
LINE
  5
16F
330
471
100
AcDbEntity
  8
DATA
  6
Continuous
 62
     7
100
AcDbLine
 10
147.9499999999999
 20
-577.0
 30
0.0
 11
148.5
 21
-577.0
 31
0.0
  0
LINE
  5
170
330
471
100
AcDbEntity
  8
DATA
  6
Continuous
 62
     7
100
AcDbLine
 10
159.0
 20
-591.5
 30
0.0
 11
159.0
 21
-586.0
 31
0.0
  0
LINE
  5
171
330
471
100
AcDbEntity
  8
DATA
  6
Continuous
 62
     7
100
AcDbLine
 10
159.0
 20
-577.0
 30
0.0
 11
159.0
 21
-571.4999999999999
 31
0.0
  0
LINE
  5
172
330
471
100
AcDbEntity
  8
DATA
  6
Continuous
 62
     7
100
AcDbLine
 10
159.5499999999999
 20
-586.0
 30
0.0
 11
159.5499999999999
 21
-577.0
 31
0.0
  0
LINE
  5
173
330
471
100
AcDbEntity
  8
DATA
  6
Continuous
 62
     7
100
AcDbLine
 10
159.5499999999999
 20
-586.0
 30
0.0
 11
159.0
 21
-586.0
 31
0.0
  0
LINE
  5
174
330
471
100
AcDbEntity
  8
DATA
  6
Continuous
 62
     7
100
AcDbLine
 10
159.0
 20
-577.0
 30
0.0
 11
159.5499999999999
 21
-577.0
 31
0.0
  0
CIRCLE
  5
175
330
471
100
AcDbEntity
  8
DATA
  6
Continuous
 62
     7
100
AcDbCircle
 10
115.75
 20
-581.5
 30
0.0
 40
3.5
  0
LINE
  5
176
330
471
100
AcDbEntity
  8
DATA
  6
Continuous
 62
     7
100
AcDbLine
 10
112.7189110867545
 20
-583.25
 30
0.0
 11
118.7810889132456
 21
-579.75
 31
0.0
  0
LINE
  5
177
330
471
100
AcDbEntity
  8
DATA
  6
Continuous
 62
     7
100
AcDbLine
 10
116.75
 20
-583.2320508075689
 30
0.0
 11
114.75
 21
-579.7679491924312
 31
0.0
  0
CIRCLE
  5
178
330
471
100
AcDbEntity
  8
DATA
  6
Continuous
 62
     7
100
AcDbCircle
 10
128.25
 20
-581.5
 30
0.0
 40
3.5
  0
LINE
  5
179
330
471
100
AcDbEntity
  8
DATA
  6
Continuous
 62
     7
100
AcDbLine
 10
125.2189110867545
 20
-583.25
 30
0.0
 11
131.2810889132456
 21
-579.75
 31
0.0
  0
LINE
  5
17A
330
471
100
AcDbEntity
  8
DATA
  6
Continuous
 62
     7
100
AcDbLine
 10
129.25
 20
-583.2320508075689
 30
0.0
 11
127.25
 21
-579.7679491924312
 31
0.0
  0
CIRCLE
  5
17B
330
471
100
AcDbEntity
  8
DATA
  6
Continuous
 62
     7
100
AcDbCircle
 10
140.75
 20
-581.5
 30
0.0
 40
3.5
  0
LINE
  5
17C
330
471
100
AcDbEntity
  8
DATA
  6
Continuous
 62
     7
100
AcDbLine
 10
137.7189110867545
 20
-583.25
 30
0.0
 11
143.7810889132456
 21
-579.75
 31
0.0
  0
LINE
  5
17D
330
471
100
AcDbEntity
  8
DATA
  6
Continuous
 62
     7
100
AcDbLine
 10
141.75
 20
-583.2320508075689
 30
0.0
 11
139.75
 21
-579.7679491924312
 31
0.0
  0
CIRCLE
  5
17E
330
471
100
AcDbEntity
  8
DATA
  6
Continuous
 62
     7
100
AcDbCircle
 10
153.25
 20
-581.5
 30
0.0
 40
3.5
  0
LINE
  5
17F
330
471
100
AcDbEntity
  8
DATA
  6
Continuous
 62
     7
100
AcDbLine
 10
150.2189110867544
 20
-583.25
 30
0.0
 11
156.2810889132456
 21
-579.75
 31
0.0
  0
LINE
  5
180
330
471
100
AcDbEntity
  8
DATA
  6
Continuous
 62
     7
100
AcDbLine
 10
154.25
 20
-583.2320508075689
 30
0.0
 11
152.25
 21
-579.7679491924312
 31
0.0
  0
TEXT
  5
181
330
471
100
AcDbEntity
  8
DATA
 62
     7
100
AcDbText
 10
110.55603515625
 20
-569.5276822916667
 30
0.0
 40
6.515364583333333
  1
Model:C222HP
 41
0.7
 72
     1
 11
134.5
 21
-566.27
 31
0.0
100
AcDbText
 73
     2
  0
TEXT
  5
182
330
471
100
AcDbEntity
  8
DATA
 62
     7
100
AcDbText
 10
111.6959953703704
 20
-598.9017881944444
 30
0.0
 40
4.343576388888889
  1
HF+
 41
0.7
 72
     1
 11
115.75
 21
-596.73
 31
0.0
100
AcDbText
 73
     2
  0
TEXT
  5
183
330
471
100
AcDbEntity
  8
DATA
 62
     7
100
AcDbText
 10
124.1959953703704
 20
-598.9017881944444
 30
0.0
 40
4.343576388888889
  1
HF-
 41
0.7
 72
     1
 11
128.25
 21
-596.73
 31
0.0
100
AcDbText
 73
     2
  0
TEXT
  5
184
330
471
100
AcDbEntity
  8
DATA
 62
     7
100
AcDbText
 10
136.6959953703704
 20
-598.9017881944444
 30
0.0
 40
4.343576388888889
  1
LF+
 41
0.7
 72
     1
 11
140.75
 21
-596.73
 31
0.0
100
AcDbText
 73
     2
  0
TEXT
  5
185
330
471
100
AcDbEntity
  8
DATA
 62
     7
100
AcDbText
 10
149.1959953703704
 20
-598.9017881944444
 30
0.0
 40
4.343576388888889
  1
LF-
 41
0.7
 72
     1
 11
153.25
 21
-596.73
 31
0.0
100
AcDbText
 73
     2
  0
TEXT
  5
186
330
471
100
AcDbEntity
  8
DATA
 62
     7
100
AcDbText
 10
100.0
 20
-619.1288411458333
 30
0.0
 40
3.257682291666666
  1
BIAMP ONLY
 41
0.7
 11
100.0
 21
-617.4999999999999
 31
0.0
100
AcDbText
 73
     2
  0
TEXT
  5
187
330
471
100
AcDbEntity
  8
DATA
 62
     7
100
AcDbText
 10
100.0
 20
-624.1288411458334
 30
0.0
 40
3.257682291666666
  1
NOMINAL IMPEDANCE:HF=8 OHM、LF=4 OHM
 41
0.7
 11
100.0
 21
-622.5
 31
0.0
100
AcDbText
 73
     2
  0
CIRCLE
  5
188
330
471
100
AcDbEntity
  8
DATA
  6
Continuous
 62
     7
100
AcDbCircle
 10
-700.0
 20
-859.0
 30
0.0
 40
10.0
  0
CIRCLE
  5
189
330
471
100
AcDbEntity
  8
DATA
  6
Continuous
 62
     7
100
AcDbCircle
 10
-700.0
 20
-779.0
 30
0.0
 40
10.0
  0
LINE
  5
18A
330
471
100
AcDbEntity
  8
DATA
  6
Continuous
 62
     7
100
AcDbLine
 10
-962.5
 20
-964.4999999999999
 30
0.0
 11
-962.5
 21
-673.5
 31
0.0
  0
LINE
  5
18B
330
471
100
AcDbEntity
  8
DATA
  6
Continuous
 62
     7
100
AcDbLine
 10
-437.5
 20
-964.4999999999999
 30
0.0
 11
-437.5
 21
-673.5
 31
0.0
  0
LINE
  5
18C
330
471
100
AcDbEntity
  8
DATA
  6
Continuous
 62
     7
100
AcDbLine
 10
-73.0
 20
-364.8830402138797
 30
0.0
 11
-73.0
 21
-79.5
 31
0.0
  0
LINE
  5
18D
330
471
100
AcDbEntity
  8
DATA
  6
Continuous
 62
     7
100
AcDbLine
 10
-73.0
 20
-79.5
 30
0.0
 11
-18.0
 21
-79.5
 31
0.0
  0
LINE
  5
18E
330
471
100
AcDbEntity
  8
DATA
  6
Continuous
 62
     7
100
AcDbLine
 10
-277.25
 20
-79.5
 30
0.0
 11
-1122.75
 21
-79.5
 31
0.0
  0
LINE
  5
18F
330
471
100
AcDbEntity
  8
DATA
  6
Continuous
 62
     7
100
AcDbLine
 10
-277.25
 20
-79.5
 30
0.0
 11
-277.25
 21
-964.4999999999999
 31
0.0
  0
LINE
  5
190
330
471
100
AcDbEntity
  8
DATA
  6
Continuous
 62
     7
100
AcDbLine
 10
-277.25
 20
-967.5
 30
0.0
 11
-277.25
 21
-1590.5
 31
0.0
  0
CIRCLE
  5
191
330
471
100
AcDbEntity
  8
DATA
  6
Continuous
 62
     7
100
AcDbCircle
 10
-1062.5
 20
-737.5
 30
0.0
 40
5.5
  0
CIRCLE
  5
192
330
471
100
AcDbEntity
  8
DATA
  6
Continuous
 62
     7
100
AcDbCircle
 10
-1062.5
 20
-901.5
 30
0.0
 40
5.5
  0
CIRCLE
  5
193
330
471
100
AcDbEntity
  8
DATA
  6
Continuous
 62
     7
100
AcDbCircle
 10
-974.5
 20
-737.5
 30
0.0
 40
5.5
  0
CIRCLE
  5
194
330
471
100
AcDbEntity
  8
DATA
  6
Continuous
 62
     7
100
AcDbCircle
 10
-974.5
 20
-901.5
 30
0.0
 40
5.5
  0
LINE
  5
195
330
471
100
AcDbEntity
  8
DATA
  6
Continuous
 62
     7
100
AcDbLine
 10
-100.0
 20
-964.4999999999999
 30
0.0
 11
-100.0
 21
-673.5
 31
0.0
  0
LINE
  5
196
330
471
100
AcDbEntity
  8
DATA
  6
Continuous
 62
     7
100
AcDbLine
 10
-18.0
 20
-704.4999999999999
 30
0.0
 11
-39.0
 21
-704.4999999999999
 31
0.0
  0
LINE
  5
197
330
471
100
AcDbEntity
  8
DATA
  6
Continuous
 62
     7
100
AcDbLine
 10
-100.0
 20
-673.5
 30
0.0
 11
-39.0
 21
-673.5
 31
0.0
  0
LINE
  5
198
330
471
100
AcDbEntity
  8
DATA
  6
Continuous
 62
     7
100
AcDbLine
 10
-962.5
 20
-673.5
 30
0.0
 11
-864.0
 21
-711.5
 31
0.0
  0
LINE
  5
199
330
471
100
AcDbEntity
  8
DATA
  6
Continuous
 62
     7
100
AcDbLine
 10
-536.0
 20
-711.5
 30
0.0
 11
-437.5
 21
-673.5
 31
0.0
  0
LINE
  5
19A
330
471
100
AcDbEntity
  8
DATA
  6
Continuous
 62
     7
100
AcDbLine
 10
-962.5
 20
-964.4999999999999
 30
0.0
 11
-864.0
 21
-926.5
 31
0.0
  0
LINE
  5
19B
330
471
100
AcDbEntity
  8
DATA
  6
Continuous
 62
     7
100
AcDbLine
 10
-437.5
 20
-964.4999999999999
 30
0.0
 11
-536.0
 21
-926.5
 31
0.0
  0
LINE
  5
19C
330
471
100
AcDbEntity
  8
DATA
  6
Continuous
 62
     7
100
AcDbLine
 10
-536.0
 20
-711.5
 30
0.0
 11
-690.7526352414443
 21
-775.1939199926677
 31
0.0
  0
LINE
  5
19D
330
471
100
AcDbEntity
  8
DATA
  6
Continuous
 62
     7
100
AcDbLine
 10
-864.0
 20
-711.5
 30
0.0
 11
-709.2473647585556
 21
-775.1939199926677
 31
0.0
  0
LINE
  5
19E
330
471
100
AcDbEntity
  8
DATA
  6
Continuous
 62
     7
100
AcDbLine
 10
-864.0
 20
-819.0
 30
0.0
 11
-709.7152033878319
 21
-781.3695618019102
 31
0.0
  0
LINE
  5
19F
330
471
100
AcDbEntity
  8
DATA
  6
Continuous
 62
     7
100
AcDbLine
 10
-690.2847966121683
 20
-781.3695618019102
 30
0.0
 11
-536.0
 21
-819.0
 31
0.0
  0
LINE
  5
1A0
330
471
100
AcDbEntity
  8
DATA
  6
Continuous
 62
     7
100
AcDbLine
 10
-864.0
 20
-819.0
 30
0.0
 11
-709.7152033878319
 21
-856.6304381980899
 31
0.0
  0
LINE
  5
1A1
330
471
100
AcDbEntity
  8
DATA
  6
Continuous
 62
     7
100
AcDbLine
 10
-864.0
 20
-926.5
 30
0.0
 11
-709.2473647585556
 21
-862.8060800073324
 31
0.0
  0
LINE
  5
1A2
330
471
100
AcDbEntity
  8
DATA
  6
Continuous
 62
     7
100
AcDbLine
 10
-690.2847966121683
 20
-856.6304381980899
 30
0.0
 11
-536.0
 21
-819.0
 31
0.0
  0
LINE
  5
1A3
330
471
100
AcDbEntity
  8
DATA
  6
Continuous
 62
     7
100
AcDbLine
 10
-690.7526352414443
 20
-862.8060800073324
 30
0.0
 11
-536.0
 21
-926.5
 31
0.0
  0
LWPOLYLINE
  5
1A4
330
471
100
AcDbEntity
  8
DATA
  6
Continuous
 62
     7
100
AcDbPolyline
 90
        4
 70
     1
 43
0.0
 10
-864.0
 20
-711.5
 10
-536.0
 20
-711.5
 10
-536.0
 20
-926.5
 10
-864.0
 20
-926.5
  0
LINE
  5
1AB
330
471
100
AcDbEntity
  8
DATA
  6
Continuous
 62
     7
100
AcDbLine
 10
-89.0
 20
-673.5
 30
0.0
 11
-89.0
 21
-350.5314297256906
 31
0.0
  0
LINE
  5
1AC
330
471
100
AcDbEntity
  8
DATA
  6
Continuous
 62
     7
100
AcDbLine
 10
-1059.5
 20
-737.5
 30
0.0
 11
-1065.5
 21
-737.5
 31
0.0
  0
LINE
  5
1AD
330
471
100
AcDbEntity
  8
DATA
  6
Continuous
 62
     7
100
AcDbLine
 10
-1062.5
 20
-734.4999999999999
 30
0.0
 11
-1062.5
 21
-740.5
 31
0.0
  0
LINE
  5
1AE
330
471
100
AcDbEntity
  8
DATA
  6
Continuous
 62
     7
100
AcDbLine
 10
-1059.5
 20
-901.5
 30
0.0
 11
-1065.5
 21
-901.5
 31
0.0
  0
LINE
  5
1AF
330
471
100
AcDbEntity
  8
DATA
  6
Continuous
 62
     7
100
AcDbLine
 10
-1062.5
 20
-898.4999999999999
 30
0.0
 11
-1062.5
 21
-904.4999999999999
 31
0.0
  0
LINE
  5
1B0
330
471
100
AcDbEntity
  8
DATA
  6
Continuous
 62
     7
100
AcDbLine
 10
-971.4999999999999
 20
-901.5
 30
0.0
 11
-977.5
 21
-901.5
 31
0.0
  0
LINE
  5
1B1
330
471
100
AcDbEntity
  8
DATA
  6
Continuous
 62
     7
100
AcDbLine
 10
-974.5
 20
-898.4999999999999
 30
0.0
 11
-974.5
 21
-904.4999999999999
 31
0.0
  0
LINE
  5
1B2
330
471
100
AcDbEntity
  8
DATA
  6
Continuous
 62
     7
100
AcDbLine
 10
-971.4999999999999
 20
-737.5
 30
0.0
 11
-977.5
 21
-737.5
 31
0.0
  0
LINE
  5
1B3
330
471
100
AcDbEntity
  8
DATA
  6
Continuous
 62
     7
100
AcDbLine
 10
-974.5
 20
-734.4999999999999
 30
0.0
 11
-974.5
 21
-740.5
 31
0.0
  0
CIRCLE
  5
1B4
330
471
100
AcDbEntity
  8
DATA
  6
Continuous
 62
     7
100
AcDbCircle
 10
-337.5
 20
-737.5
 30
0.0
 40
5.5
  0
CIRCLE
  5
1B5
330
471
100
AcDbEntity
  8
DATA
  6
Continuous
 62
     7
100
AcDbCircle
 10
-337.5
 20
-901.5
 30
0.0
 40
5.5
  0
CIRCLE
  5
1B6
330
471
100
AcDbEntity
  8
DATA
  6
Continuous
 62
     7
100
AcDbCircle
 10
-425.4999999999999
 20
-737.5
 30
0.0
 40
5.5
  0
CIRCLE
  5
1B7
330
471
100
AcDbEntity
  8
DATA
  6
Continuous
 62
     7
100
AcDbCircle
 10
-425.4999999999999
 20
-901.5
 30
0.0
 40
5.5
  0
LINE
  5
1B8
330
471
100
AcDbEntity
  8
DATA
  6
Continuous
 62
     7
100
AcDbLine
 10
-340.5
 20
-737.5
 30
0.0
 11
-334.5
 21
-737.5
 31
0.0
  0
LINE
  5
1B9
330
471
100
AcDbEntity
  8
DATA
  6
Continuous
 62
     7
100
AcDbLine
 10
-337.5
 20
-734.4999999999999
 30
0.0
 11
-337.5
 21
-740.5
 31
0.0
  0
LINE
  5
1BA
330
471
100
AcDbEntity
  8
DATA
  6
Continuous
 62
     7
100
AcDbLine
 10
-340.5
 20
-901.5
 30
0.0
 11
-334.5
 21
-901.5
 31
0.0
  0
LINE
  5
1BB
330
471
100
AcDbEntity
  8
DATA
  6
Continuous
 62
     7
100
AcDbLine
 10
-337.5
 20
-898.4999999999999
 30
0.0
 11
-337.5
 21
-904.4999999999999
 31
0.0
  0
LINE
  5
1BC
330
471
100
AcDbEntity
  8
DATA
  6
Continuous
 62
     7
100
AcDbLine
 10
-428.5
 20
-901.5
 30
0.0
 11
-422.4999999999999
 21
-901.5
 31
0.0
  0
LINE
  5
1BD
330
471
100
AcDbEntity
  8
DATA
  6
Continuous
 62
     7
100
AcDbLine
 10
-425.4999999999999
 20
-898.4999999999999
 30
0.0
 11
-425.4999999999999
 21
-904.4999999999999
 31
0.0
  0
LINE
  5
1BE
330
471
100
AcDbEntity
  8
DATA
  6
Continuous
 62
     7
100
AcDbLine
 10
-428.5
 20
-737.5
 30
0.0
 11
-422.4999999999999
 21
-737.5
 31
0.0
  0
LINE
  5
1BF
330
471
100
AcDbEntity
  8
DATA
  6
Continuous
 62
     7
100
AcDbLine
 10
-425.4999999999999
 20
-734.4999999999999
 30
0.0
 11
-425.4999999999999
 21
-740.5
 31
0.0
  0
CIRCLE
  5
1C0
330
471
100
AcDbEntity
  8
DATA
  6
Continuous
 62
     7
100
AcDbCircle
 10
-962.5
 20
-332.5
 30
0.0
 40
5.5
  0
LINE
  5
1C1
330
471
100
AcDbEntity
  8
DATA
  6
Continuous
 62
     7
100
AcDbLine
 10
-959.5
 20
-332.5
 30
0.0
 11
-965.4999999999999
 21
-332.5
 31
0.0
  0
LINE
  5
1C2
330
471
100
AcDbEntity
  8
DATA
  6
Continuous
 62
     7
100
AcDbLine
 10
-962.5
 20
-329.5
 30
0.0
 11
-962.5
 21
-335.5
 31
0.0
  0
CIRCLE
  5
1C3
330
471
100
AcDbEntity
  8
DATA
  6
Continuous
 62
     7
100
AcDbCircle
 10
-437.5
 20
-332.5
 30
0.0
 40
5.5
  0
LINE
  5
1C4
330
471
100
AcDbEntity
  8
DATA
  6
Continuous
 62
     7
100
AcDbLine
 10
-434.4999999999999
 20
-332.5
 30
0.0
 11
-440.5
 21
-332.5
 31
0.0
  0
LINE
  5
1C5
330
471
100
AcDbEntity
  8
DATA
  6
Continuous
 62
     7
100
AcDbLine
 10
-437.5
 20
-329.5
 30
0.0
 11
-437.5
 21
-335.5
 31
0.0
  0
CIRCLE
  5
1C6
330
471
100
AcDbEntity
  8
DATA
  6
Continuous
 62
     7
100
AcDbCircle
 10
-1095.0
 20
-329.5
 30
0.0
 40
5.5
  0
LINE
  5
1C7
330
471
100
AcDbEntity
  8
DATA
  6
Continuous
 62
     7
100
AcDbLine
 10
-1092.0
 20
-329.5
 30
0.0
 11
-1098.0
 21
-329.5
 31
0.0
  0
LINE
  5
1C8
330
471
100
AcDbEntity
  8
DATA
  6
Continuous
 62
     7
100
AcDbLine
 10
-1095.0
 20
-326.5
 30
0.0
 11
-1095.0
 21
-332.5
 31
0.0
  0
CIRCLE
  5
1C9
330
471
100
AcDbEntity
  8
DATA
  6
Continuous
 62
     7
100
AcDbCircle
 10
-305.0
 20
-329.5
 30
0.0
 40
5.5
  0
LINE
  5
1CA
330
471
100
AcDbEntity
  8
DATA
  6
Continuous
 62
     7
100
AcDbLine
 10
-302.0
 20
-329.5
 30
0.0
 11
-308.0
 21
-329.5
 31
0.0
  0
LINE
  5
1CB
330
471
100
AcDbEntity
  8
DATA
  6
Continuous
 62
     7
100
AcDbLine
 10
-305.0
 20
-326.5
 30
0.0
 11
-305.0
 21
-332.5
 31
0.0
  0
CIRCLE
  5
1CC
330
471
100
AcDbEntity
  8
DATA
  6
Continuous
 62
     7
100
AcDbCircle
 10
-1095.0
 20
-216.5
 30
0.0
 40
5.5
  0
LINE
  5
1CD
330
471
100
AcDbEntity
  8
DATA
  6
Continuous
 62
     7
100
AcDbLine
 10
-1092.0
 20
-216.5
 30
0.0
 11
-1098.0
 21
-216.5
 31
0.0
  0
LINE
  5
1CE
330
471
100
AcDbEntity
  8
DATA
  6
Continuous
 62
     7
100
AcDbLine
 10
-1095.0
 20
-213.5
 30
0.0
 11
-1095.0
 21
-219.5
 31
0.0
  0
CIRCLE
  5
1CF
330
471
100
AcDbEntity
  8
DATA
  6
Continuous
 62
     7
100
AcDbCircle
 10
-1095.0
 20
-101.5
 30
0.0
 40
5.5
  0
LINE
  5
1D0
330
471
100
AcDbEntity
  8
DATA
  6
Continuous
 62
     7
100
AcDbLine
 10
-1092.0
 20
-101.5
 30
0.0
 11
-1098.0
 21
-101.5
 31
0.0
  0
LINE
  5
1D1
330
471
100
AcDbEntity
  8
DATA
  6
Continuous
 62
     7
100
AcDbLine
 10
-1095.0
 20
-98.50000000000001
 30
0.0
 11
-1095.0
 21
-104.5
 31
0.0
  0
CIRCLE
  5
1D2
330
471
100
AcDbEntity
  8
DATA
  6
Continuous
 62
     7
100
AcDbCircle
 10
-305.0
 20
-216.5
 30
0.0
 40
5.5
  0
LINE
  5
1D3
330
471
100
AcDbEntity
  8
DATA
  6
Continuous
 62
     7
100
AcDbLine
 10
-302.0
 20
-216.5
 30
0.0
 11
-308.0
 21
-216.5
 31
0.0
  0
LINE
  5
1D4
330
471
100
AcDbEntity
  8
DATA
  6
Continuous
 62
     7
100
AcDbLine
 10
-305.0
 20
-213.5
 30
0.0
 11
-305.0
 21
-219.5
 31
0.0
  0
CIRCLE
  5
1D5
330
471
100
AcDbEntity
  8
DATA
  6
Continuous
 62
     7
100
AcDbCircle
 10
-305.0
 20
-101.5
 30
0.0
 40
5.5
  0
LINE
  5
1D6
330
471
100
AcDbEntity
  8
DATA
  6
Continuous
 62
     7
100
AcDbLine
 10
-302.0
 20
-101.5
 30
0.0
 11
-308.0
 21
-101.5
 31
0.0
  0
LINE
  5
1D7
330
471
100
AcDbEntity
  8
DATA
  6
Continuous
 62
     7
100
AcDbLine
 10
-305.0
 20
-98.50000000000001
 30
0.0
 11
-305.0
 21
-104.5
 31
0.0
  0
CIRCLE
  5
1D8
330
471
100
AcDbEntity
  8
DATA
  6
Continuous
 62
     7
100
AcDbCircle
 10
-792.4999999999999
 20
-198.5
 30
0.0
 40
5.5
  0
LINE
  5
1D9
330
471
100
AcDbEntity
  8
DATA
  6
Continuous
 62
     7
100
AcDbLine
 10
-789.5
 20
-198.5
 30
0.0
 11
-795.5
 21
-198.5
 31
0.0
  0
LINE
  5
1DA
330
471
100
AcDbEntity
  8
DATA
  6
Continuous
 62
     7
100
AcDbLine
 10
-792.4999999999999
 20
-195.5
 30
0.0
 11
-792.4999999999999
 21
-201.5
 31
0.0
  0
CIRCLE
  5
1DB
330
471
100
AcDbEntity
  8
DATA
  6
Continuous
 62
     7
100
AcDbCircle
 10
-607.5
 20
-198.5
 30
0.0
 40
5.5
  0
LINE
  5
1DC
330
471
100
AcDbEntity
  8
DATA
  6
Continuous
 62
     7
100
AcDbLine
 10
-604.4999999999999
 20
-198.5
 30
0.0
 11
-610.5
 21
-198.5
 31
0.0
  0
LINE
  5
1DD
330
471
100
AcDbEntity
  8
DATA
  6
Continuous
 62
     7
100
AcDbLine
 10
-607.5
 20
-195.5
 30
0.0
 11
-607.5
 21
-201.5
 31
0.0
  0
CIRCLE
  5
1DE
330
471
100
AcDbEntity
  8
DATA
  6
Continuous
 62
     7
100
AcDbCircle
 10
-942.5
 20
-101.5
 30
0.0
 40
5.5
  0
LINE
  5
1DF
330
471
100
AcDbEntity
  8
DATA
  6
Continuous
 62
     7
100
AcDbLine
 10
-939.4999999999999
 20
-101.5
 30
0.0
 11
-945.5
 21
-101.5
 31
0.0
  0
LINE
  5
1E0
330
471
100
AcDbEntity
  8
DATA
  6
Continuous
 62
     7
100
AcDbLine
 10
-942.5
 20
-98.50000000000001
 30
0.0
 11
-942.5
 21
-104.5
 31
0.0
  0
CIRCLE
  5
1E1
330
471
100
AcDbEntity
  8
DATA
  6
Continuous
 62
     7
100
AcDbCircle
 10
-792.0
 20
-101.5
 30
0.0
 40
5.5
  0
LINE
  5
1E2
330
471
100
AcDbEntity
  8
DATA
  6
Continuous
 62
     7
100
AcDbLine
 10
-789.0
 20
-101.5
 30
0.0
 11
-795.0
 21
-101.5
 31
0.0
  0
LINE
  5
1E3
330
471
100
AcDbEntity
  8
DATA
  6
Continuous
 62
     7
100
AcDbLine
 10
-792.0
 20
-98.50000000000001
 30
0.0
 11
-792.0
 21
-104.5
 31
0.0
  0
CIRCLE
  5
1E4
330
471
100
AcDbEntity
  8
DATA
  6
Continuous
 62
     7
100
AcDbCircle
 10
-608.0
 20
-101.5
 30
0.0
 40
5.5
  0
LINE
  5
1E5
330
471
100
AcDbEntity
  8
DATA
  6
Continuous
 62
     7
100
AcDbLine
 10
-605.0
 20
-101.5
 30
0.0
 11
-611.0
 21
-101.5
 31
0.0
  0
LINE
  5
1E6
330
471
100
AcDbEntity
  8
DATA
  6
Continuous
 62
     7
100
AcDbLine
 10
-608.0
 20
-98.50000000000001
 30
0.0
 11
-608.0
 21
-104.5
 31
0.0
  0
CIRCLE
  5
1E7
330
471
100
AcDbEntity
  8
DATA
  6
Continuous
 62
     7
100
AcDbCircle
 10
-457.5
 20
-101.5
 30
0.0
 40
5.5
  0
LINE
  5
1E8
330
471
100
AcDbEntity
  8
DATA
  6
Continuous
 62
     7
100
AcDbLine
 10
-454.4999999999999
 20
-101.5
 30
0.0
 11
-460.5
 21
-101.5
 31
0.0
  0
LINE
  5
1E9
330
471
100
AcDbEntity
  8
DATA
  6
Continuous
 62
     7
100
AcDbLine
 10
-457.5
 20
-98.50000000000001
 30
0.0
 11
-457.5
 21
-104.5
 31
0.0
  0
LINE
  5
1EA
330
471
100
AcDbEntity
  8
DATA
  6
Continuous
 62
     7
100
AcDbLine
 10
-57.81903081489138
 20
-389.6591362576568
 30
0.0
 11
-57.81903081489138
 21
-673.5
 31
0.0
  0
LINE
  5
1EB
330
471
100
AcDbEntity
  8
DATA
  6
Continuous
 62
     7
100
AcDbLine
 10
-33.0
 20
-704.4999999999999
 30
0.0
 11
-33.0
 21
-79.5
 31
0.0
  0
LINE
  5
1EC
330
471
100
AcDbEntity
  8
DATA
  6
Continuous
 62
     7
100
AcDbLine
 10
-46.0
 20
-964.4999999999999
 30
0.0
 11
-46.0
 21
-673.5
 31
0.0
  0
LINE
  5
1ED
330
471
100
AcDbEntity
  8
DATA
  6
Continuous
 62
     7
100
AcDbLine
 10
-39.0
 20
-704.4999999999999
 30
0.0
 11
-39.0
 21
-673.5
 31
0.0
  0
LINE
  5
1EE
330
471
100
AcDbEntity
  8
DATA
  6
Continuous
 62
     7
100
AcDbLine
 10
-89.0
 20
-350.5314297256906
 30
0.0
 11
-66.12603207416023
 21
-371.048822100127
 31
0.0
  0
ARC
  5
1EF
330
471
100
AcDbEntity
  8
DATA
  6
Continuous
 62
     7
100
AcDbCircle
 10
-82.81903081489142
 20
-389.6591362576568
 30
0.0
 40
25.00000000000003
100
AcDbArc
 50
0.0
 51
48.10866760928632
  0
LINE
  5
1F0
330
471
100
AcDbEntity
  8
DATA
  6
Continuous
 62
     7
100
AcDbLine
 10
-62.19292402327925
 20
-104.75
 30
0.0
 11
-62.19292402327925
 21
-98.25000000000001
 31
0.0
  0
LINE
  5
1F1
330
471
100
AcDbEntity
  8
DATA
  6
Continuous
 62
     7
100
AcDbLine
 10
-57.69292402327925
 20
-98.25000000000001
 30
0.0
 11
-57.69292402327925
 21
-104.75
 31
0.0
  0
ARC
  5
1F2
330
471
100
AcDbEntity
  8
DATA
  6
Continuous
 62
     7
100
AcDbCircle
 10
-59.94292402327925
 20
-98.25000000000001
 30
0.0
 40
2.25
100
AcDbArc
 50
0.0
 51
180.0
  0
ARC
  5
1F3
330
471
100
AcDbEntity
  8
DATA
  6
Continuous
 62
     7
100
AcDbCircle
 10
-59.94292402327925
 20
-104.75
 30
0.0
 40
2.25
100
AcDbArc
 50
180.0
 51
0.0
  0
LINE
  5
1F4
330
471
100
AcDbEntity
  8
DATA
  6
Continuous
 62
     7
100
AcDbLine
 10
-62.19292402327925
 20
-219.75
 30
0.0
 11
-62.19292402327925
 21
-213.25
 31
0.0
  0
LINE
  5
1F5
330
471
100
AcDbEntity
  8
DATA
  6
Continuous
 62
     7
100
AcDbLine
 10
-57.69292402327925
 20
-213.25
 30
0.0
 11
-57.69292402327925
 21
-219.75
 31
0.0
  0
ARC
  5
1F6
330
471
100
AcDbEntity
  8
DATA
  6
Continuous
 62
     7
100
AcDbCircle
 10
-59.94292402327925
 20
-213.25
 30
0.0
 40
2.25
100
AcDbArc
 50
0.0
 51
180.0
  0
ARC
  5
1F7
330
471
100
AcDbEntity
  8
DATA
  6
Continuous
 62
     7
100
AcDbCircle
 10
-59.94292402327925
 20
-219.75
 30
0.0
 40
2.25
100
AcDbArc
 50
180.0
 51
0.0
  0
LINE
  5
1F8
330
471
100
AcDbEntity
  8
DATA
  6
Continuous
 62
     7
100
AcDbLine
 10
-62.19292402327925
 20
-332.75
 30
0.0
 11
-62.19292402327925
 21
-326.25
 31
0.0
  0
LINE
  5
1F9
330
471
100
AcDbEntity
  8
DATA
  6
Continuous
 62
     7
100
AcDbLine
 10
-57.69292402327925
 20
-326.25
 30
0.0
 11
-57.69292402327925
 21
-332.75
 31
0.0
  0
ARC
  5
1FA
330
471
100
AcDbEntity
  8
DATA
  6
Continuous
 62
     7
100
AcDbCircle
 10
-59.94292402327925
 20
-326.25
 30
0.0
 40
2.25
100
AcDbArc
 50
0.0
 51
180.0
  0
ARC
  5
1FB
330
471
100
AcDbEntity
  8
DATA
  6
Continuous
 62
     7
100
AcDbCircle
 10
-59.94292402327925
 20
-332.75
 30
0.0
 40
2.25
100
AcDbArc
 50
180.0
 51
0.0
  0
LINE
  5
1FC
330
471
100
AcDbEntity
  8
DATA
  6
Continuous
 62
     7
100
AcDbLine
 10
-80.4803639578863
 20
-441.75
 30
0.0
 11
-80.4803639578863
 21
-435.25
 31
0.0
  0
LINE
  5
1FD
330
471
100
AcDbEntity
  8
DATA
  6
Continuous
 62
     7
100
AcDbLine
 10
-75.98036395788629
 20
-435.25
 30
0.0
 11
-75.98036395788629
 21
-441.75
 31
0.0
  0
ARC
  5
1FE
330
471
100
AcDbEntity
  8
DATA
  6
Continuous
 62
     7
100
AcDbCircle
 10
-78.2303639578863
 20
-435.25
 30
0.0
 40
2.25
100
AcDbArc
 50
0.0
 51
180.0
  0
ARC
  5
1FF
330
471
100
AcDbEntity
  8
DATA
  6
Continuous
 62
     7
100
AcDbCircle
 10
-78.2303639578863
 20
-441.75
 30
0.0
 40
2.25
100
AcDbArc
 50
180.0
 51
0.0
  0
LINE
  5
200
330
471
100
AcDbEntity
  8
DATA
  6
Continuous
 62
     7
100
AcDbLine
 10
-77.1432254318698
 20
-604.75
 30
0.0
 11
-77.1432254318698
 21
-598.2499999999999
 31
0.0
  0
LINE
  5
201
330
471
100
AcDbEntity
  8
DATA
  6
Continuous
 62
     7
100
AcDbLine
 10
-72.64322543186981
 20
-598.2499999999999
 30
0.0
 11
-72.64322543186981
 21
-604.75
 31
0.0
  0
ARC
  5
202
330
471
100
AcDbEntity
  8
DATA
  6
Continuous
 62
     7
100
AcDbCircle
 10
-74.89322543186981
 20
-598.2499999999999
 30
0.0
 40
2.25
100
AcDbArc
 50
0.0
 51
180.0
  0
ARC
  5
203
330
471
100
AcDbEntity
  8
DATA
  6
Continuous
 62
     7
100
AcDbCircle
 10
-74.89322543186981
 20
-604.75
 30
0.0
 40
2.25
100
AcDbArc
 50
180.0
 51
0.0
  0
LINE
  5
204
330
471
100
AcDbEntity
  8
DATA
  6
Continuous
 62
     7
100
AcDbLine
 10
-74.53698457458745
 20
-740.7499999999999
 30
0.0
 11
-74.53698457458745
 21
-734.25
 31
0.0
  0
LINE
  5
205
330
471
100
AcDbEntity
  8
DATA
  6
Continuous
 62
     7
100
AcDbLine
 10
-70.03698457458745
 20
-734.25
 30
0.0
 11
-70.03698457458745
 21
-740.7499999999999
 31
0.0
  0
ARC
  5
206
330
471
100
AcDbEntity
  8
DATA
  6
Continuous
 62
     7
100
AcDbCircle
 10
-72.28698457458745
 20
-734.25
 30
0.0
 40
2.25
100
AcDbArc
 50
0.0
 51
180.0
  0
ARC
  5
207
330
471
100
AcDbEntity
  8
DATA
  6
Continuous
 62
     7
100
AcDbCircle
 10
-72.28698457458745
 20
-740.7499999999999
 30
0.0
 40
2.25
100
AcDbArc
 50
180.0
 51
0.0
  0
LINE
  5
208
330
471
100
AcDbEntity
  8
DATA
  6
Continuous
 62
     7
100
AcDbLine
 10
-74.53698457458749
 20
-904.7499999999999
 30
0.0
 11
-74.53698457458749
 21
-898.2499999999999
 31
0.0
  0
LINE
  5
209
330
471
100
AcDbEntity
  8
DATA
  6
Continuous
 62
     7
100
AcDbLine
 10
-70.0369845745875
 20
-898.2499999999999
 30
0.0
 11
-70.0369845745875
 21
-904.7499999999999
 31
0.0
  0
ARC
  5
20A
330
471
100
AcDbEntity
  8
DATA
  6
Continuous
 62
     7
100
AcDbCircle
 10
-72.28698457458749
 20
-898.2499999999999
 30
0.0
 40
2.25
100
AcDbArc
 50
0.0
 51
180.0
  0
ARC
  5
20B
330
471
100
AcDbEntity
  8
DATA
  6
Continuous
 62
     7
100
AcDbCircle
 10
-72.28698457458749
 20
-904.7499999999999
 30
0.0
 40
2.25
100
AcDbArc
 50
180.0
 51
0.0
  0
LINE
  5
20C
330
471
100
AcDbEntity
  8
DATA
  6
Continuous
 62
     7
100
AcDbLine
 10
-962.5
 20
100.0
 30
0.0
 11
-437.5
 21
100.0
 31
0.0
  0
LINE
  5
20D
330
471
100
AcDbEntity
  8
DATA
  6
Continuous
 62
     7
100
AcDbLine
 10
-277.25
 20
182.0
 30
0.0
 11
-277.25
 21
152.0
 31
0.0
  0
ARC
  5
20E
330
471
100
AcDbEntity
  8
DATA
  6
Continuous
 62
     7
100
AcDbCircle
 10
-586.824492979719
 20
833.1015624999997
 30
0.0
 40
748.1548670854124
100
AcDbArc
 50
281.5130049387414
 51
294.4427607595768
  0
LINE
  5
20F
330
471
100
AcDbEntity
  8
DATA
  6
Continuous
 62
     7
100
AcDbLine
 10
-1122.75
 20
182.0
 30
0.0
 11
-1122.75
 21
152.0
 31
0.0
  0
ARC
  5
210
330
471
100
AcDbEntity
  8
DATA
  6
Continuous
 62
     7
100
AcDbCircle
 10
-813.175507020281
 20
833.1015624999997
 30
0.0
 40
748.1548670854124
100
AcDbArc
 50
245.5572392404231
 51
258.4869950612586
  0
ARC
  5
211
330
471
100
AcDbEntity
  8
DATA
  6
Continuous
 62
     7
100
AcDbCircle
 10
-700.0
 20
9124.500000000001
 30
0.0
 40
9002.500000000001
100
AcDbArc
 50
268.0903174922556
 51
271.9096825077443
  0
ARC
  5
212
330
471
100
AcDbEntity
  8
DATA
  6
Continuous
 62
     7
100
AcDbCircle
 10
-926.4050407331975
 20
561.1890625000005
 30
0.0
 40
440.3820614240681
100
AcDbArc
 50
243.5221759400374
 51
260.3798113405093
  0
ARC
  5
213
330
471
100
AcDbEntity
  8
DATA
  6
Continuous
 62
     7
100
AcDbCircle
 10
-473.5949592668026
 20
561.1890625000005
 30
0.0
 40
440.3820614240681
100
AcDbArc
 50
279.6201886594907
 51
296.4778240599626
  0
LINE
  5
214
330
471
100
AcDbEntity
  8
DATA
  6
Continuous
 62
     7
100
AcDbLine
 10
-962.5
 20
111.0
 30
0.0
 11
-437.5
 21
111.0
 31
0.0
  0
ARC
  5
215
330
471
100
AcDbEntity
  8
DATA
  6
Continuous
 62
     7
100
AcDbCircle
 10
-844.6894990085006
 20
1533.502651180575
 30
0.0
 40
1479.634103661631
100
AcDbArc
 50
285.9736993398117
 51
289.2292051482901
  0
ARC
  5
216
330
471
100
AcDbEntity
  8
DATA
  6
Continuous
 62
     7
100
AcDbCircle
 10
-555.3105009914997
 20
1533.502651180575
 30
0.0
 40
1479.634103661631
100
AcDbArc
 50
250.7707948517099
 51
254.0263006601884
  0
CIRCLE
  5
217
330
471
100
AcDbEntity
  8
DATA
  6
Continuous
 62
     7
100
AcDbCircle
 10
-700.0
 20
449.0
 30
0.0
 40
7.0
  0
LINE
  5
218
330
471
100
AcDbEntity
  8
DATA
  6
Continuous
 62
     7
100
AcDbLine
 10
-700.0
 20
451.4999999999999
 30
0.0
 11
-700.0
 21
446.4999999999999
 31
0.0
  0
LINE
  5
219
330
471
100
AcDbEntity
  8
DATA
  6
Continuous
 62
     7
100
AcDbLine
 10
-702.5
 20
449.0
 30
0.0
 11
-697.5
 21
449.0
 31
0.0
  0
CIRCLE
  5
21A
330
471
100
AcDbEntity
  8
DATA
  6
Continuous
 62
     7
100
AcDbCircle
 10
-700.0
 20
449.0
 30
0.0
 40
8.0
  0
LINE
  5
21B
330
471
100
AcDbEntity
  8
DATA
  6
Continuous
 62
     7
100
AcDbLine
 10
241.0
 20
-74.5
 30
0.0
 11
241.0
 21
-72.89999999999998
 31
0.0
  0
LINE
  5
21C
330
471
100
AcDbEntity
  8
DATA
  6
Continuous
 62
     7
100
AcDbLine
 10
257.0
 20
-72.89999999999998
 30
0.0
 11
257.0
 21
-74.5
 31
0.0
  0
LINE
  5
21D
330
471
100
AcDbEntity
  8
DATA
  6
Continuous
 62
     7
100
AcDbLine
 10
241.0
 20
-72.89999999999998
 30
0.0
 11
257.0
 21
-72.89999999999998
 31
0.0
  0
LINE
  5
21E
330
471
100
AcDbEntity
  8
DATA
  6
Continuous
 62
     7
100
AcDbLine
 10
242.0
 20
-71.09999999999999
 30
0.0
 11
256.0
 21
-71.09999999999999
 31
0.0
  0
LINE
  5
21F
330
471
100
AcDbEntity
  8
DATA
  6
Continuous
 62
     7
100
AcDbLine
 10
242.0
 20
-72.89999999999998
 30
0.0
 11
242.0
 21
-69.59999999999999
 31
0.0
  0
LINE
  5
220
330
471
100
AcDbEntity
  8
DATA
  6
Continuous
 62
     7
100
AcDbLine
 10
256.0
 20
-69.59999999999999
 30
0.0
 11
256.0
 21
-72.89999999999998
 31
0.0
  0
LINE
  5
221
330
471
100
AcDbEntity
  8
DATA
  6
Continuous
 62
     7
100
AcDbLine
 10
242.0
 20
-69.59999999999999
 30
0.0
 11
256.0
 21
-69.59999999999999
 31
0.0
  0
ARC
  5
222
330
471
100
AcDbEntity
  8
DATA
  6
Continuous
 62
     7
100
AcDbCircle
 10
249.0
 20
-80.21666666666646
 30
0.0
 40
12.7166666666665
100
AcDbArc
 50
56.60151153201229
 51
123.3984884679877
  0
LINE
  5
223
330
471
100
AcDbEntity
  8
DATA
  6
Continuous
 62
     7
100
AcDbLine
 10
-266.5
 20
-571.4999999999999
 30
0.0
 11
-270.5
 21
-571.4999999999999
 31
0.0
  0
LINE
  5
224
330
471
100
AcDbEntity
  8
DATA
  6
Continuous
 62
     7
100
AcDbLine
 10
-266.5
 20
-591.5
 30
0.0
 11
-270.5
 21
-591.5
 31
0.0
  0
LINE
  5
225
330
471
100
AcDbEntity
  8
DATA
  6
Continuous
 62
     7
100
AcDbLine
 10
-266.5
 20
-591.5
 30
0.0
 11
-266.5
 21
-571.4999999999999
 31
0.0
  0
LINE
  5
226
330
471
100
AcDbEntity
  8
DATA
  6
Continuous
 62
     7
100
AcDbLine
 10
-708.0
 20
-74.5
 30
0.0
 11
-708.0
 21
-72.89999999999998
 31
0.0
  0
LINE
  5
227
330
471
100
AcDbEntity
  8
DATA
  6
Continuous
 62
     7
100
AcDbLine
 10
-692.0
 20
-72.89999999999998
 30
0.0
 11
-692.0
 21
-74.5
 31
0.0
  0
LINE
  5
228
330
471
100
AcDbEntity
  8
DATA
  6
Continuous
 62
     7
100
AcDbLine
 10
-708.0
 20
-72.89999999999998
 30
0.0
 11
-692.0
 21
-72.89999999999998
 31
0.0
  0
LINE
  5
229
330
471
100
AcDbEntity
  8
DATA
  6
Continuous
 62
     7
100
AcDbLine
 10
-707.0
 20
-71.09999999999999
 30
0.0
 11
-693.0
 21
-71.09999999999999
 31
0.0
  0
LINE
  5
22A
330
471
100
AcDbEntity
  8
DATA
  6
Continuous
 62
     7
100
AcDbLine
 10
-707.0
 20
-72.89999999999998
 30
0.0
 11
-707.0
 21
-69.59999999999999
 31
0.0
  0
LINE
  5
22B
330
471
100
AcDbEntity
  8
DATA
  6
Continuous
 62
     7
100
AcDbLine
 10
-693.0
 20
-69.59999999999999
 30
0.0
 11
-693.0
 21
-72.89999999999998
 31
0.0
  0
LINE
  5
22C
330
471
100
AcDbEntity
  8
DATA
  6
Continuous
 62
     7
100
AcDbLine
 10
-707.0
 20
-69.59999999999999
 30
0.0
 11
-693.0
 21
-69.59999999999999
 31
0.0
  0
ARC
  5
22D
330
471
100
AcDbEntity
  8
DATA
  6
Continuous
 62
     7
100
AcDbCircle
 10
-700.0
 20
-80.21666666666646
 30
0.0
 40
12.7166666666665
100
AcDbArc
 50
56.60151153201229
 51
123.3984884679877
  0
LINE
  5
22E
330
471
100
AcDbEntity
  8
DATA
  6
Continuous
 62
     7
100
AcDbLine
 10
-266.5
 20
362.0
 30
0.0
 11
-270.5
 21
362.0
 31
0.0
  0
LINE
  5
22F
330
471
100
AcDbEntity
  8
DATA
  6
Continuous
 62
     7
100
AcDbLine
 10
-266.5
 20
307.0
 30
0.0
 11
-270.5
 21
307.0
 31
0.0
  0
LINE
  5
230
330
471
100
AcDbEntity
  8
DATA
  6
Continuous
 62
     7
100
AcDbLine
 10
-266.5
 20
362.0
 30
0.0
 11
-266.5
 21
307.0
 31
0.0
  0
ARC
  5
231
330
471
100
AcDbEntity
  8
DATA
  6
Continuous
 62
     7
100
AcDbCircle
 10
-707.6468859999996
 20
-1173.154670999999
 30
0.0
 40
3.352509452718212
100
AcDbArc
 50
264.6908562215335
 51
323.9911991542383
  0
ARC
  5
232
330
471
100
AcDbEntity
  8
DATA
  6
Continuous
 62
     7
100
AcDbCircle
 10
-708.2672849999997
 20
-1173.154670999999
 30
0.0
 40
3.352504008030721
100
AcDbArc
 50
216.00880084576
 51
275.3091437784633
  0
ARC
  5
233
330
471
100
AcDbEntity
  8
DATA
  6
Continuous
 62
     7
100
AcDbCircle
 10
-699.1278949999998
 20
-1174.024916999999
 30
0.0
 40
2.47339483523373
100
AcDbArc
 50
273.8309816091146
 51
351.1351473097972
  0
ARC
  5
234
330
471
100
AcDbEntity
  8
DATA
  6
Continuous
 62
     7
100
AcDbCircle
 10
-699.1032339999998
 20
-1165.956908999999
 30
0.0
 40
2.469648912784909
100
AcDbArc
 50
8.226923859015675
 51
86.15412669215229
  0
ARC
  5
235
330
471
100
AcDbEntity
  8
DATA
  6
Continuous
 62
     7
100
AcDbCircle
 10
-699.3749842273544
 20
-1174.652512741232
 30
0.0
 40
0.4144180492639377
100
AcDbArc
 50
307.6419024975802
 51
354.2670192893909
  0
LINE
  5
236
330
471
100
AcDbEntity
  8
DATA
  6
Continuous
 62
     7
100
AcDbLine
 10
-710.0198149999998
 20
-1168.121954999999
 30
0.0
 11
-708.0770169999998
 21
-1163.492811
 31
0.0
  0
LINE
  5
237
330
471
100
AcDbEntity
  8
DATA
  6
Continuous
 62
     7
100
AcDbLine
 10
-710.0198149999998
 20
-1168.121954999999
 30
0.0
 11
-711.9386409999997
 21
-1163.492811
 31
0.0
  0
LINE
  5
238
330
471
100
AcDbEntity
  8
DATA
  6
Continuous
 62
     7
100
AcDbLine
 10
-695.2928949999998
 20
-1176.492810999999
 30
0.0
 11
-695.2928949999998
 21
-1163.492811
 31
0.0
  0
LINE
  5
239
330
471
100
AcDbEntity
  8
DATA
  6
Continuous
 62
     7
100
AcDbLine
 10
-692.7984289999998
 20
-1163.492811
 30
0.0
 11
-692.7984289999998
 21
-1174.502042999999
 31
0.0
  0
LINE
  5
23A
330
471
100
AcDbEntity
  8
DATA
  6
Continuous
 62
     7
100
AcDbLine
 10
-707.1655739999998
 20
-1163.492811
 30
0.0
 11
-707.1655739999998
 21
-1174.502042999999
 31
0.0
  0
LINE
  5
23B
330
471
100
AcDbEntity
  8
DATA
  6
Continuous
 62
     7
100
AcDbLine
 10
-704.7670479999998
 20
-1163.492811
 30
0.0
 11
-704.7670479999998
 21
-1174.502042999999
 31
0.0
  0
LINE
  5
23C
330
471
100
AcDbEntity
  8
DATA
  6
Continuous
 62
     7
100
AcDbLine
 10
-703.5198149999999
 20
-1163.492811
 30
0.0
 11
-703.5198149999999
 21
-1176.492810999999
 31
0.0
  0
LINE
  5
23D
330
471
100
AcDbEntity
  8
DATA
  6
Continuous
 62
     7
100
AcDbLine
 10
-701.3371539999998
 20
-1164.716045999999
 30
0.0
 11
-701.3371539999998
 21
-1168.889487999999
 31
0.0
  0
LINE
  5
23E
330
471
100
AcDbEntity
  8
DATA
  6
Continuous
 62
     7
100
AcDbLine
 10
-696.6589999999999
 20
-1168.647999999999
 30
0.0
 11
-696.6589999999999
 21
-1165.603516999999
 31
0.0
  0
LINE
  5
23F
330
471
100
AcDbEntity
  8
DATA
  6
Continuous
 62
     7
100
AcDbLine
 10
-698.9626389999998
 20
-1165.291698999999
 30
0.0
 11
-698.9626389999998
 21
-1168.313847999999
 31
0.0
  0
LINE
  5
240
330
471
100
AcDbEntity
  8
DATA
  6
Continuous
 62
     7
100
AcDbLine
 10
-708.9884469999998
 20
-1172.415308999999
 30
0.0
 11
-708.9884469999998
 21
-1174.502016999999
 31
0.0
  0
LINE
  5
241
330
471
100
AcDbEntity
  8
DATA
  6
Continuous
 62
     7
100
AcDbLine
 10
-708.9884469999998
 20
-1172.415308999999
 30
0.0
 11
-711.1471229999997
 21
-1172.415308999999
 31
0.0
  0
LINE
  5
242
330
471
100
AcDbEntity
  8
DATA
  6
Continuous
 62
     7
100
AcDbLine
 10
-711.1471229999997
 20
-1172.415308999999
 30
0.0
 11
-711.1471229999997
 21
-1174.502016999999
 31
0.0
  0
ARC
  5
243
330
471
100
AcDbEntity
  8
DATA
  6
Continuous
 62
     7
100
AcDbCircle
 10
-708.0724409999996
 20
-1174.530148999999
 30
0.0
 40
0.9073074741148923
100
AcDbArc
 50
269.7118487927531
 51
1.775987005683703
  0
ARC
  5
244
330
471
100
AcDbEntity
  8
DATA
  6
Continuous
 62
     7
100
AcDbCircle
 10
-708.0815799999997
 20
-1174.530148999999
 30
0.0
 40
0.9073028346974631
100
AcDbArc
 50
178.2240129943242
 51
270.2881512072465
  0
ARC
  5
245
330
471
100
AcDbEntity
  8
DATA
  6
Continuous
 62
     7
100
AcDbCircle
 10
-709.6320509999998
 20
-1174.428527999999
 30
0.0
 40
1.516840270629105
100
AcDbArc
 50
182.7769954499891
 51
207.3596066671485
  0
CIRCLE
  5
246
330
471
100
AcDbEntity
  8
DATA
  6
Continuous
 62
     7
100
AcDbCircle
 10
-709.8878909999998
 20
-1169.920855999999
 30
0.0
 40
1.235233999999991
  0
LINE
  5
247
330
471
100
AcDbEntity
  8
DATA
  6
Continuous
 62
     7
100
AcDbLine
 10
-688.7928949999998
 20
-1176.492797999999
 30
0.0
 11
-695.2928949999998
 21
-1176.492797999999
 31
0.0
  0
LINE
  5
248
330
471
100
AcDbEntity
  8
DATA
  6
Continuous
 62
     7
100
AcDbLine
 10
-688.7928949999998
 20
-1176.492797999999
 30
0.0
 11
-688.7928949999998
 21
-1172.415295999999
 31
0.0
  0
LINE
  5
249
330
471
100
AcDbEntity
  8
DATA
  6
Continuous
 62
     7
100
AcDbLine
 10
-688.7928949999998
 20
-1172.415308999999
 30
0.0
 11
-690.9755429999997
 21
-1172.415308999999
 31
0.0
  0
LINE
  5
24A
330
471
100
AcDbEntity
  8
DATA
  6
Continuous
 62
     7
100
AcDbLine
 10
-690.9755429999997
 20
-1172.415308999999
 30
0.0
 11
-690.9755429999997
 21
-1174.502016999999
 31
0.0
  0
LINE
  5
24B
330
471
100
AcDbEntity
  8
DATA
  6
Continuous
 62
     7
100
AcDbLine
 10
-703.5198149999999
 20
-1176.492797999999
 30
0.0
 11
-698.9626389999998
 21
-1176.492784999999
 31
0.0
  0
LINE
  5
24C
330
471
100
AcDbEntity
  8
DATA
  6
Continuous
 62
     7
100
AcDbLine
 10
-701.3371669999997
 20
-1175.269549999999
 30
0.0
 11
-700.1618889999997
 21
-1175.269549999999
 31
0.0
  0
LINE
  5
24D
330
471
100
AcDbEntity
  8
DATA
  6
Continuous
 62
     7
100
AcDbLine
 10
-701.3371539999998
 20
-1175.269549999999
 30
0.0
 11
-701.3371539999998
 21
-1170.136707999999
 31
0.0
  0
LINE
  5
24E
330
471
100
AcDbEntity
  8
DATA
  6
Continuous
 62
     7
100
AcDbLine
 10
-701.3371669999997
 20
-1170.136707999999
 30
0.0
 11
-700.1618889999997
 21
-1170.136707999999
 31
0.0
  0
LINE
  5
24F
330
471
100
AcDbEntity
  8
DATA
  6
Continuous
 62
     7
100
AcDbLine
 10
-698.9626389999998
 20
-1174.693909999999
 30
0.0
 11
-698.9626389999998
 21
-1170.712347999999
 31
0.0
  0
ARC
  5
250
330
471
100
AcDbEntity
  8
DATA
  6
Continuous
 62
     7
100
AcDbCircle
 10
-706.2821199999998
 20
-1174.428527999999
 30
0.0
 40
1.51683811222458
100
AcDbArc
 50
332.640393332852
 51
357.2230045500071
  0
ARC
  5
251
330
471
100
AcDbEntity
  8
DATA
  6
Continuous
 62
     7
100
AcDbCircle
 10
-691.8824229999996
 20
-1174.530148999999
 30
0.0
 40
0.9073074741148927
100
AcDbArc
 50
269.711848792746
 51
1.775987005683703
  0
ARC
  5
252
330
471
100
AcDbEntity
  8
DATA
  6
Continuous
 62
     7
100
AcDbCircle
 10
-691.8915489999997
 20
-1174.530148999999
 30
0.0
 40
0.9073028346975767
100
AcDbArc
 50
178.2240129943244
 51
270.2881512072465
  0
LINE
  5
253
330
471
100
AcDbEntity
  8
DATA
  6
Continuous
 62
     7
100
AcDbLine
 10
-696.6600529999998
 20
-1174.406076999999
 30
0.0
 11
-696.6600529999998
 21
-1170.952210999999
 31
0.0
  0
LINE
  5
254
330
471
100
AcDbEntity
  8
DATA
  6
Continuous
 62
     7
100
AcDbLine
 10
-701.3371669999997
 20
-1168.889487999999
 30
0.0
 11
-700.1618889999997
 21
-1168.889487999999
 31
0.0
  0
LINE
  5
255
330
471
100
AcDbEntity
  8
DATA
  6
Continuous
 62
     7
100
AcDbLine
 10
-707.1655739999998
 20
-1163.492811
 30
0.0
 11
-704.7670479999998
 21
-1163.492811
 31
0.0
  0
LINE
  5
256
330
471
100
AcDbEntity
  8
DATA
  6
Continuous
 62
     7
100
AcDbLine
 10
-711.9386409999997
 20
-1163.492811
 30
0.0
 11
-708.0770169999998
 21
-1163.492811
 31
0.0
  0
LINE
  5
257
330
471
100
AcDbEntity
  8
DATA
  6
Continuous
 62
     7
100
AcDbLine
 10
-695.2928949999998
 20
-1163.492811
 30
0.0
 11
-692.7984289999998
 21
-1163.492811
 31
0.0
  0
LINE
  5
258
330
471
100
AcDbEntity
  8
DATA
  6
Continuous
 62
     7
100
AcDbLine
 10
-703.5198149999999
 20
-1163.492811
 30
0.0
 11
-698.9375878334091
 21
-1163.492821521862
 31
0.0
  0
LINE
  5
259
330
471
100
AcDbEntity
  8
DATA
  6
Continuous
 62
     7
100
AcDbLine
 10
-701.3371669999997
 20
-1164.716058999999
 30
0.0
 11
-700.1618889999997
 21
-1164.716058999999
 31
0.0
  0
ARC
  5
25A
330
471
100
AcDbEntity
  8
DATA
  6
Continuous
 62
     7
100
AcDbCircle
 10
-700.1480108986156
 20
-1172.989755651236
 30
0.0
 40
2.27983658939627
100
AcDbArc
 50
269.6512199376202
 51
282.8264828068734
  0
ARC
  5
25B
330
471
100
AcDbEntity
  8
DATA
  6
Continuous
 62
     7
100
AcDbCircle
 10
-699.8919491642929
 20
-1173.953625404595
 30
0.0
 40
1.283669274801094
100
AcDbArc
 50
281.2331036226614
 51
306.8620088940644
  0
ARC
  5
25C
330
471
100
AcDbEntity
  8
DATA
  6
Continuous
 62
     7
100
AcDbCircle
 10
-699.3749842273544
 20
-1170.753745258767
 30
0.0
 40
0.4144180492639293
100
AcDbArc
 50
5.732980710608975
 51
52.35809750243896
  0
ARC
  5
25D
330
471
100
AcDbEntity
  8
DATA
  6
Continuous
 62
     7
100
AcDbCircle
 10
-700.1480108986156
 20
-1172.416502348762
 30
0.0
 40
2.279836589396365
100
AcDbArc
 50
77.17351719312512
 51
90.34878006237979
  0
ARC
  5
25E
330
471
100
AcDbEntity
  8
DATA
  6
Continuous
 62
     7
100
AcDbCircle
 10
-699.8919491642929
 20
-1171.452632595404
 30
0.0
 40
1.28366927480135
100
AcDbArc
 50
53.1379911059417
 51
78.76689637734061
  0
ARC
  5
25F
330
471
100
AcDbEntity
  8
DATA
  6
Continuous
 62
     7
100
AcDbCircle
 10
-697.9180369999997
 20
-1171.037243999999
 30
0.0
 40
1.260854613087854
100
AcDbArc
 50
3.867006359825106
 51
88.36163456790179
  0
ARC
  5
260
330
471
100
AcDbEntity
  8
DATA
  6
Continuous
 62
     7
100
AcDbCircle
 10
-697.9191939999998
 20
-1168.515347999999
 30
0.0
 40
1.2621075219319
100
AcDbArc
 50
271.689282104647
 51
356.0782829826552
  0
ARC
  5
261
330
471
100
AcDbEntity
  8
DATA
  6
Continuous
 62
     7
100
AcDbCircle
 10
-699.3749842273544
 20
-1168.272450741231
 30
0.0
 40
0.4144180492641178
100
AcDbArc
 50
307.6419024975611
 51
354.2670192893926
  0
ARC
  5
262
330
471
100
AcDbEntity
  8
DATA
  6
Continuous
 62
     7
100
AcDbCircle
 10
-700.1480108986156
 20
-1166.609693651236
 30
0.0
 40
2.27983658939627
100
AcDbArc
 50
269.6512199376202
 51
282.8264828068721
  0
ARC
  5
263
330
471
100
AcDbEntity
  8
DATA
  6
Continuous
 62
     7
100
AcDbCircle
 10
-699.8919491642929
 20
-1167.573563404594
 30
0.0
 40
1.283669274801094
100
AcDbArc
 50
281.2331036226614
 51
306.8620088940644
  0
ARC
  5
264
330
471
100
AcDbEntity
  8
DATA
  6
Continuous
 62
     7
100
AcDbCircle
 10
-699.3749842273544
 20
-1165.333096258767
 30
0.0
 40
0.4144180492639293
100
AcDbArc
 50
5.732980710608975
 51
52.35809750241976
  0
ARC
  5
265
330
471
100
AcDbEntity
  8
DATA
  6
Continuous
 62
     7
100
AcDbCircle
 10
-700.1480108986156
 20
-1166.995853348762
 30
0.0
 40
2.279836589396143
100
AcDbArc
 50
77.17351719312387
 51
90.34878006237979
  0
ARC
  5
266
330
471
100
AcDbEntity
  8
DATA
  6
Continuous
 62
     7
100
AcDbCircle
 10
-699.8919491642929
 20
-1166.031983595404
 30
0.0
 40
1.283669274801168
100
AcDbArc
 50
53.1379911059356
 51
78.76689637734057
  0
CIRCLE
  5
267
330
471
100
AcDbEntity
  8
DATA
  6
Continuous
 62
     7
100
AcDbCircle
 10
-432.5
 20
-1070.0
 30
0.0
 40
5.5
  0
LINE
  5
268
330
471
100
AcDbEntity
  8
DATA
  6
Continuous
 62
     7
100
AcDbLine
 10
-429.4999999999999
 20
-1070.0
 30
0.0
 11
-435.5
 21
-1070.0
 31
0.0
  0
LINE
  5
269
330
471
100
AcDbEntity
  8
DATA
  6
Continuous
 62
     7
100
AcDbLine
 10
-432.5
 20
-1073.0
 30
0.0
 11
-432.5
 21
-1067.0
 31
0.0
  0
CIRCLE
  5
26A
330
471
100
AcDbEntity
  8
DATA
  6
Continuous
 62
     7
100
AcDbCircle
 10
-345.0
 20
-1070.0
 30
0.0
 40
5.5
  0
LINE
  5
26B
330
471
100
AcDbEntity
  8
DATA
  6
Continuous
 62
     7
100
AcDbLine
 10
-342.0
 20
-1070.0
 30
0.0
 11
-348.0
 21
-1070.0
 31
0.0
  0
LINE
  5
26C
330
471
100
AcDbEntity
  8
DATA
  6
Continuous
 62
     7
100
AcDbLine
 10
-345.0
 20
-1073.0
 30
0.0
 11
-345.0
 21
-1067.0
 31
0.0
  0
CIRCLE
  5
26D
330
471
100
AcDbEntity
  8
DATA
  6
Continuous
 62
     7
100
AcDbCircle
 10
-355.0
 20
-1233.0
 30
0.0
 40
5.5
  0
LINE
  5
26E
330
471
100
AcDbEntity
  8
DATA
  6
Continuous
 62
     7
100
AcDbLine
 10
-352.0
 20
-1233.0
 30
0.0
 11
-358.0
 21
-1233.0
 31
0.0
  0
LINE
  5
26F
330
471
100
AcDbEntity
  8
DATA
  6
Continuous
 62
     7
100
AcDbLine
 10
-355.0
 20
-1236.0
 30
0.0
 11
-355.0
 21
-1230.0
 31
0.0
  0
CIRCLE
  5
270
330
471
100
AcDbEntity
  8
DATA
  6
Continuous
 62
     7
100
AcDbCircle
 10
-442.4999999999999
 20
-1233.0
 30
0.0
 40
5.5
  0
LINE
  5
271
330
471
100
AcDbEntity
  8
DATA
  6
Continuous
 62
     7
100
AcDbLine
 10
-439.5
 20
-1233.0
 30
0.0
 11
-445.5
 21
-1233.0
 31
0.0
  0
LINE
  5
272
330
471
100
AcDbEntity
  8
DATA
  6
Continuous
 62
     7
100
AcDbLine
 10
-442.4999999999999
 20
-1236.0
 30
0.0
 11
-442.4999999999999
 21
-1230.0
 31
0.0
  0
ARC
  5
273
330
471
100
AcDbEntity
  8
DATA
  6
Continuous
 62
     7
100
AcDbCircle
 10
-1213.799549549549
 20
-2767.083333333332
 30
0.0
 40
1480.371318561163
100
AcDbArc
 50
77.6500498572583
 51
83.86344201575679
  0
CIRCLE
  5
274
330
471
100
AcDbEntity
  8
DATA
  6
Continuous
 62
     7
100
AcDbCircle
 10
-967.5
 20
-1070.0
 30
0.0
 40
5.5
  0
LINE
  5
275
330
471
100
AcDbEntity
  8
DATA
  6
Continuous
 62
     7
100
AcDbLine
 10
-964.4999999999999
 20
-1070.0
 30
0.0
 11
-970.5
 21
-1070.0
 31
0.0
  0
LINE
  5
276
330
471
100
AcDbEntity
  8
DATA
  6
Continuous
 62
     7
100
AcDbLine
 10
-967.5
 20
-1073.0
 30
0.0
 11
-967.5
 21
-1067.0
 31
0.0
  0
CIRCLE
  5
277
330
471
100
AcDbEntity
  8
DATA
  6
Continuous
 62
     7
100
AcDbCircle
 10
-1055.0
 20
-1070.0
 30
0.0
 40
5.5
  0
LINE
  5
278
330
471
100
AcDbEntity
  8
DATA
  6
Continuous
 62
     7
100
AcDbLine
 10
-1052.0
 20
-1070.0
 30
0.0
 11
-1058.0
 21
-1070.0
 31
0.0
  0
LINE
  5
279
330
471
100
AcDbEntity
  8
DATA
  6
Continuous
 62
     7
100
AcDbLine
 10
-1055.0
 20
-1073.0
 30
0.0
 11
-1055.0
 21
-1067.0
 31
0.0
  0
CIRCLE
  5
27A
330
471
100
AcDbEntity
  8
DATA
  6
Continuous
 62
     7
100
AcDbCircle
 10
-1045.0
 20
-1233.0
 30
0.0
 40
5.5
  0
LINE
  5
27B
330
471
100
AcDbEntity
  8
DATA
  6
Continuous
 62
     7
100
AcDbLine
 10
-1042.0
 20
-1233.0
 30
0.0
 11
-1048.0
 21
-1233.0
 31
0.0
  0
LINE
  5
27C
330
471
100
AcDbEntity
  8
DATA
  6
Continuous
 62
     7
100
AcDbLine
 10
-1045.0
 20
-1236.0
 30
0.0
 11
-1045.0
 21
-1230.0
 31
0.0
  0
CIRCLE
  5
27D
330
471
100
AcDbEntity
  8
DATA
  6
Continuous
 62
     7
100
AcDbCircle
 10
-957.5000000000001
 20
-1233.0
 30
0.0
 40
5.5
  0
LINE
  5
27E
330
471
100
AcDbEntity
  8
DATA
  6
Continuous
 62
     7
100
AcDbLine
 10
-954.4999999999999
 20
-1233.0
 30
0.0
 11
-960.5
 21
-1233.0
 31
0.0
  0
LINE
  5
27F
330
471
100
AcDbEntity
  8
DATA
  6
Continuous
 62
     7
100
AcDbLine
 10
-957.5000000000001
 20
-1236.0
 30
0.0
 11
-957.5000000000001
 21
-1230.0
 31
0.0
  0
ARC
  5
280
330
471
100
AcDbEntity
  8
DATA
  6
Continuous
 62
     7
100
AcDbCircle
 10
-700.0
 20
-1169.999999999999
 30
0.0
 40
192.4999999999998
100
AcDbArc
 50
220.697505366306
 51
319.3024946336937
  0
CIRCLE
  5
281
330
471
100
AcDbEntity
  8
DATA
  6
Continuous
 62
     7
100
AcDbCircle
 10
-770.7964349875416
 20
-1340.917713514588
 30
0.0
 40
5.000000000000047
  0
LINE
  5
282
330
471
100
AcDbEntity
  8
DATA
  6
Continuous
 62
     7
100
AcDbLine
 10
-770.7964349875416
 20
-1337.917713514588
 30
0.0
 11
-770.7964349875416
 21
-1343.917713514588
 31
0.0
  0
LINE
  5
283
330
471
100
AcDbEntity
  8
DATA
  6
Continuous
 62
     7
100
AcDbLine
 10
-767.7964349875415
 20
-1340.917713514588
 30
0.0
 11
-773.7964349875416
 21
-1340.917713514588
 31
0.0
  0
CIRCLE
  5
284
330
471
100
AcDbEntity
  8
DATA
  6
Continuous
 62
     7
100
AcDbCircle
 10
-629.2035650124585
 20
-1340.917713514588
 30
0.0
 40
4.999999999999943
  0
ARC
  5
285
330
471
100
AcDbEntity
  8
DATA
  6
Continuous
 62
     7
100
AcDbCircle
 10
-699.9999999999996
 20
-1170.0
 30
0.0
 40
178.9999999999999
100
AcDbArc
 50
41.54407200690781
 51
138.4559279930922
  0
ARC
  5
286
330
471
100
AcDbEntity
  8
DATA
  6
Continuous
 62
     7
100
AcDbCircle
 10
-699.9999999999996
 20
-1170.0
 30
0.0
 40
179.0
100
AcDbArc
 50
221.5440720069076
 51
318.4559279930921
  0
ARC
  5
287
330
471
100
AcDbEntity
  8
DATA
  6
Continuous
 62
     7
100
AcDbCircle
 10
-700.0
 20
-1169.999999999999
 30
0.0
 40
57.50000000000009
100
AcDbArc
 50
182.9907029066654
 51
194.8344473920292
  0
ARC
  5
288
330
471
100
AcDbEntity
  8
DATA
  6
Continuous
 62
     7
100
AcDbCircle
 10
-700.0
 20
-1169.999999999999
 30
0.0
 40
57.50000000000007
100
AcDbArc
 50
165.1655526079727
 51
177.0092970933363
  0
ARC
  5
289
330
471
100
AcDbEntity
  8
DATA
  6
Continuous
 62
     7
100
AcDbCircle
 10
-700.0
 20
-1169.999999999999
 30
0.0
 40
57.50000000000019
100
AcDbArc
 50
20.81963395405514
 51
159.1803660459448
  0
ARC
  5
28A
330
471
100
AcDbEntity
  8
DATA
  6
Continuous
 62
     7
100
AcDbCircle
 10
-700.0
 20
-1169.999999999999
 30
0.0
 40
57.5000000000001
100
AcDbArc
 50
2.990702906663668
 51
14.83444739202732
  0
ARC
  5
28B
330
471
100
AcDbEntity
  8
DATA
  6
Continuous
 62
     7
100
AcDbCircle
 10
-700.0
 20
-1169.999999999999
 30
0.0
 40
57.5000000000001
100
AcDbArc
 50
345.1655526079708
 51
357.0092970933345
  0
ARC
  5
28C
330
471
100
AcDbEntity
  8
DATA
  6
Continuous
 62
     7
100
AcDbCircle
 10
-700.0
 20
-1169.999999999999
 30
0.0
 40
57.50000000000009
100
AcDbArc
 50
200.8196339540571
 51
339.1803660459448
  0
ARC
  5
28D
330
471
100
AcDbEntity
  8
DATA
  6
Continuous
 62
     7
100
AcDbCircle
 10
-700.0
 20
-1170.0
 30
0.0
 40
100.0
100
AcDbArc
 50
201.290061154541
 51
225.5322854796904
  0
ARC
  5
28E
330
471
100
AcDbEntity
  8
DATA
  6
Continuous
 62
     7
100
AcDbCircle
 10
-700.0
 20
-1170.0
 30
0.0
 40
100.0000000000001
100
AcDbArc
 50
181.7191313208778
 51
197.8143906753074
  0
ARC
  5
28F
330
471
100
AcDbEntity
  8
DATA
  6
Continuous
 62
     7
100
AcDbCircle
 10
-700.0
 20
-1170.0
 30
0.0
 40
100.0
100
AcDbArc
 50
162.1856093246926
 51
178.280868679122
  0
ARC
  5
290
330
471
100
AcDbEntity
  8
DATA
  6
Continuous
 62
     7
100
AcDbCircle
 10
-700.0
 20
-1170.0
 30
0.0
 40
100.0
100
AcDbArc
 50
134.4677145203096
 51
158.709938845459
  0
LINE
  5
291
330
471
100
AcDbEntity
  8
DATA
  6
Continuous
 62
     7
100
AcDbLine
 10
-502.5
 20
-1167.0
 30
0.0
 11
-680.75
 21
-1167.0
 31
0.0
  0
LINE
  5
292
330
471
100
AcDbEntity
  8
DATA
  6
Continuous
 62
     7
100
AcDbLine
 10
-502.5
 20
-1173.0
 30
0.0
 11
-502.5
 21
-1167.0
 31
0.0
  0
LINE
  5
293
330
471
100
AcDbEntity
  8
DATA
  6
Continuous
 62
     7
100
AcDbLine
 10
-680.75
 20
-1173.0
 30
0.0
 11
-502.5
 21
-1173.0
 31
0.0
  0
LINE
  5
294
330
471
100
AcDbEntity
  8
DATA
  6
Continuous
 62
     7
100
AcDbLine
 10
-897.4999999999999
 20
-1173.0
 30
0.0
 11
-719.2500000000001
 21
-1173.0
 31
0.0
  0
LINE
  5
295
330
471
100
AcDbEntity
  8
DATA
  6
Continuous
 62
     7
100
AcDbLine
 10
-897.4999999999999
 20
-1167.0
 30
0.0
 11
-897.4999999999999
 21
-1173.0
 31
0.0
  0
LINE
  5
296
330
471
100
AcDbEntity
  8
DATA
  6
Continuous
 62
     7
100
AcDbLine
 10
-719.2500000000001
 20
-1167.0
 30
0.0
 11
-897.4999999999999
 21
-1167.0
 31
0.0
  0
ARC
  5
297
330
471
100
AcDbEntity
  8
DATA
  6
Continuous
 62
     7
100
AcDbCircle
 10
-700.0
 20
-1380.868055555555
 30
0.0
 40
203.87
100
AcDbArc
 50
95.4181060630937
 51
146.4994709899485
  0
ARC
  5
298
330
471
100
AcDbEntity
  8
DATA
  6
Continuous
 62
     7
100
AcDbCircle
 10
-700.0
 20
-1380.868055555555
 30
0.0
 40
203.8699999999999
100
AcDbArc
 50
33.50052901005148
 51
84.58189393690638
  0
ARC
  5
299
330
471
100
AcDbEntity
  8
DATA
  6
Continuous
 62
     7
100
AcDbCircle
 10
-700.0
 20
-1380.868055555555
 30
0.0
 40
197.8700000000001
100
AcDbArc
 50
95.5829131503499
 51
146.4994709899486
  0
ARC
  5
29A
330
471
100
AcDbEntity
  8
DATA
  6
Continuous
 62
     7
100
AcDbCircle
 10
-700.0
 20
-1380.868055555555
 30
0.0
 40
197.8700000000001
100
AcDbArc
 50
33.50052901005149
 51
84.4170868496503
  0
LINE
  5
29B
330
471
100
AcDbEntity
  8
DATA
  6
Continuous
 62
     7
100
AcDbLine
 10
-870.0032636127914
 20
-1268.343092720637
 30
0.0
 11
-864.9999792566983
 21
-1271.654760827811
 31
0.0
  0
LINE
  5
29C
330
471
100
AcDbEntity
  8
DATA
  6
Continuous
 62
     7
100
AcDbLine
 10
-529.9967363872083
 20
-1268.343092720637
 30
0.0
 11
-535.0000207433017
 21
-1271.654760827811
 31
0.0
  0
ARC
  5
29D
330
471
100
AcDbEntity
  8
DATA
  6
Continuous
 62
     7
100
AcDbCircle
 10
-700.0
 20
-959.1319444444444
 30
0.0
 40
203.8700000000003
100
AcDbArc
 50
275.4181060630937
 51
326.4994709899485
  0
ARC
  5
29E
330
471
100
AcDbEntity
  8
DATA
  6
Continuous
 62
     7
100
AcDbCircle
 10
-700.0
 20
-959.1319444444444
 30
0.0
 40
203.8700000000001
100
AcDbArc
 50
213.5005290100515
 51
264.5818939369063
  0
ARC
  5
29F
330
471
100
AcDbEntity
  8
DATA
  6
Continuous
 62
     7
100
AcDbCircle
 10
-700.0
 20
-959.1319444444444
 30
0.0
 40
197.8700000000001
100
AcDbArc
 50
275.5829131503497
 51
326.4994709899486
  0
ARC
  5
2A0
330
471
100
AcDbEntity
  8
DATA
  6
Continuous
 62
     7
100
AcDbCircle
 10
-700.0
 20
-959.1319444444444
 30
0.0
 40
197.8700000000001
100
AcDbArc
 50
213.5005290100514
 51
264.4170868496503
  0
LINE
  5
2A1
330
471
100
AcDbEntity
  8
DATA
  6
Continuous
 62
     7
100
AcDbLine
 10
-870.0032636127914
 20
-1071.656907279362
 30
0.0
 11
-864.9999792566983
 21
-1068.345239172188
 31
0.0
  0
LINE
  5
2A2
330
471
100
AcDbEntity
  8
DATA
  6
Continuous
 62
     7
100
AcDbLine
 10
-529.9967363872083
 20
-1071.656907279362
 30
0.0
 11
-535.0000207433017
 21
-1068.345239172189
 31
0.0
  0
LINE
  5
2A3
330
471
100
AcDbEntity
  8
DATA
  6
Continuous
 62
     7
100
AcDbLine
 10
-888.3213290586384
 20
-1319.623380097866
 30
0.0
 11
-771.5966574955697
 21
-1253.236200681343
 31
0.0
  0
ARC
  5
2A4
330
471
100
AcDbEntity
  8
DATA
  6
Continuous
 62
     7
100
AcDbCircle
 10
-894.5011146343222
 20
-1308.757826718559
 30
0.0
 40
12.50000000000046
100
AcDbArc
 50
257.6500498572598
 51
299.6290627392191
  0
ARC
  5
2A5
330
471
100
AcDbEntity
  8
DATA
  6
Continuous
 62
     7
100
AcDbCircle
 10
-775.3045288409794
 20
-1093.283131346241
 30
0.0
 40
7.500000000000127
100
AcDbArc
 50
314.4677145203096
 51
60.37093726078098
  0
ARC
  5
2A6
330
471
100
AcDbEntity
  8
DATA
  6
Continuous
 62
     7
100
AcDbCircle
 10
-775.3045288409804
 20
-1246.716868653759
 30
0.0
 40
7.50000000000042
100
AcDbArc
 50
299.6290627392197
 51
45.53228547968738
  0
ARC
  5
2A7
330
471
100
AcDbEntity
  8
DATA
  6
Continuous
 62
     7
100
AcDbCircle
 10
-700.0
 20
-1170.0
 30
0.0
 40
100.0
100
AcDbArc
 50
314.4677145203096
 51
338.7099388454591
  0
ARC
  5
2A8
330
471
100
AcDbEntity
  8
DATA
  6
Continuous
 62
     7
100
AcDbCircle
 10
-700.0
 20
-1170.0
 30
0.0
 40
100.0
100
AcDbArc
 50
342.1856093246926
 51
358.2808686791221
  0
ARC
  5
2A9
330
471
100
AcDbEntity
  8
DATA
  6
Continuous
 62
     7
100
AcDbCircle
 10
-700.0
 20
-1170.0
 30
0.0
 40
100.0000000000001
100
AcDbArc
 50
1.719131320877939
 51
17.81439067530734
  0
ARC
  5
2AA
330
471
100
AcDbEntity
  8
DATA
  6
Continuous
 62
     7
100
AcDbCircle
 10
-700.0
 20
-1170.0
 30
0.0
 40
100.0
100
AcDbArc
 50
21.29006115454096
 51
45.53228547969041
  0
LINE
  5
2AB
330
471
100
AcDbEntity
  8
DATA
  6
Continuous
 62
     7
100
AcDbLine
 10
-511.6786709413615
 20
-1319.623380097866
 30
0.0
 11
-628.4033425044301
 21
-1253.236200681343
 31
0.0
  0
ARC
  5
2AC
330
471
100
AcDbEntity
  8
DATA
  6
Continuous
 62
     7
100
AcDbCircle
 10
-505.4988853656777
 20
-1308.757826718559
 30
0.0
 40
12.50000000000054
100
AcDbArc
 50
240.3709372607809
 51
282.3499501427402
  0
ARC
  5
2AD
330
471
100
AcDbEntity
  8
DATA
  6
Continuous
 62
     7
100
AcDbCircle
 10
-624.6954711590204
 20
-1093.283131346241
 30
0.0
 40
7.500000000000111
100
AcDbArc
 50
119.629062739219
 51
225.5322854796905
  0
ARC
  5
2AE
330
471
100
AcDbEntity
  8
DATA
  6
Continuous
 62
     7
100
AcDbCircle
 10
-624.6954711590196
 20
-1246.716868653759
 30
0.0
 40
7.500000000000526
100
AcDbArc
 50
134.4677145203126
 51
240.3709372607803
  0
LINE
  5
2AF
330
471
100
AcDbEntity
  8
DATA
  6
Continuous
 62
     7
100
AcDbLine
 10
-629.2035650124585
 20
-1337.917713514588
 30
0.0
 11
-629.2035650124585
 21
-1343.917713514588
 31
0.0
  0
LINE
  5
2B0
330
471
100
AcDbEntity
  8
DATA
  6
Continuous
 62
     7
100
AcDbLine
 10
-626.2035650124585
 20
-1340.917713514588
 30
0.0
 11
-632.2035650124584
 21
-1340.917713514588
 31
0.0
  0
CIRCLE
  5
2B1
330
471
100
AcDbEntity
  8
DATA
  6
Continuous
 62
     7
100
AcDbCircle
 10
-887.5
 20
-1048.0
 30
0.0
 40
5.5
  0
LINE
  5
2B2
330
471
100
AcDbEntity
  8
DATA
  6
Continuous
 62
     7
100
AcDbLine
 10
-884.5
 20
-1048.0
 30
0.0
 11
-890.4999999999999
 21
-1048.0
 31
0.0
  0
LINE
  5
2B3
330
471
100
AcDbEntity
  8
DATA
  6
Continuous
 62
     7
100
AcDbLine
 10
-887.5
 20
-1051.0
 30
0.0
 11
-887.5
 21
-1045.0
 31
0.0
  0
CIRCLE
  5
2B4
330
471
100
AcDbEntity
  8
DATA
  6
Continuous
 62
     7
100
AcDbCircle
 10
-512.5
 20
-1048.0
 30
0.0
 40
5.5
  0
LINE
  5
2B5
330
471
100
AcDbEntity
  8
DATA
  6
Continuous
 62
     7
100
AcDbLine
 10
-509.4999999999999
 20
-1048.0
 30
0.0
 11
-515.5
 21
-1048.0
 31
0.0
  0
LINE
  5
2B6
330
471
100
AcDbEntity
  8
DATA
  6
Continuous
 62
     7
100
AcDbLine
 10
-512.5
 20
-1051.0
 30
0.0
 11
-512.5
 21
-1045.0
 31
0.0
  0
CIRCLE
  5
2B7
330
471
100
AcDbEntity
  8
DATA
  6
Continuous
 62
     7
100
AcDbCircle
 10
-887.5
 20
-1290.0
 30
0.0
 40
5.5
  0
LINE
  5
2B8
330
471
100
AcDbEntity
  8
DATA
  6
Continuous
 62
     7
100
AcDbLine
 10
-884.5
 20
-1290.0
 30
0.0
 11
-890.4999999999999
 21
-1290.0
 31
0.0
  0
LINE
  5
2B9
330
471
100
AcDbEntity
  8
DATA
  6
Continuous
 62
     7
100
AcDbLine
 10
-887.5
 20
-1293.0
 30
0.0
 11
-887.5
 21
-1287.0
 31
0.0
  0
CIRCLE
  5
2BA
330
471
100
AcDbEntity
  8
DATA
  6
Continuous
 62
     7
100
AcDbCircle
 10
-512.5
 20
-1290.0
 30
0.0
 40
5.5
  0
LINE
  5
2BB
330
471
100
AcDbEntity
  8
DATA
  6
Continuous
 62
     7
100
AcDbLine
 10
-509.4999999999999
 20
-1290.0
 30
0.0
 11
-515.5
 21
-1290.0
 31
0.0
  0
LINE
  5
2BC
330
471
100
AcDbEntity
  8
DATA
  6
Continuous
 62
     7
100
AcDbLine
 10
-512.5
 20
-1293.0
 30
0.0
 11
-512.5
 21
-1287.0
 31
0.0
  0
LWPOLYLINE
  5
2BD
330
471
100
AcDbEntity
  8
DATA
  6
Continuous
 62
     7
100
AcDbPolyline
 90
        4
 70
     1
 43
0.0
 10
-719.2500000000001
 20
-1154.249999999999
 10
-680.75
 20
-1154.249999999999
 10
-680.75
 20
-1185.749999999999
 10
-719.2500000000001
 20
-1185.749999999999
  0
CIRCLE
  5
2C4
330
471
100
AcDbEntity
  8
DATA
  6
Continuous
 62
     7
100
AcDbCircle
 10
-770.7964349875418
 20
-999.082286485412
 30
0.0
 40
5.000000000000047
  0
LINE
  5
2C5
330
471
100
AcDbEntity
  8
DATA
  6
Continuous
 62
     7
100
AcDbLine
 10
-770.7964349875418
 20
-996.0822864854119
 30
0.0
 11
-770.7964349875418
 21
-1002.082286485412
 31
0.0
  0
LINE
  5
2C6
330
471
100
AcDbEntity
  8
DATA
  6
Continuous
 62
     7
100
AcDbLine
 10
-767.7964349875418
 20
-999.082286485412
 30
0.0
 11
-773.7964349875418
 21
-999.082286485412
 31
0.0
  0
CIRCLE
  5
2C7
330
471
100
AcDbEntity
  8
DATA
  6
Continuous
 62
     7
100
AcDbCircle
 10
-629.2035650124583
 20
-999.0822864854115
 30
0.0
 40
4.999999999999943
  0
LINE
  5
2C8
330
471
100
AcDbEntity
  8
DATA
  6
Continuous
 62
     7
100
AcDbLine
 10
-629.2035650124583
 20
-996.0822864854115
 30
0.0
 11
-629.2035650124583
 21
-1002.082286485411
 31
0.0
  0
LINE
  5
2C9
330
471
100
AcDbEntity
  8
DATA
  6
Continuous
 62
     7
100
AcDbLine
 10
-626.2035650124584
 20
-999.0822864854115
 30
0.0
 11
-632.2035650124584
 21
-999.0822864854115
 31
0.0
  0
ARC
  5
2CA
330
471
100
AcDbEntity
  8
DATA
  6
Continuous
 62
     7
100
AcDbCircle
 10
8867.687499989171
 20
-1114.599075112079
 30
0.0
 40
9946.787486416992
100
AcDbArc
 50
179.7430982274594
 51
180.8993886363895
  0
ARC
  5
2CB
330
471
100
AcDbEntity
  8
DATA
  6
Continuous
 62
     7
100
AcDbCircle
 10
9427.187499999995
 20
-967.4990853658536
 30
0.0
 40
10506.68750000003
100
AcDbArc
 50
180.0000049877448
 51
180.5589737933446
  0
ARC
  5
2CC
330
471
100
AcDbEntity
  8
DATA
  6
Continuous
 62
     7
100
AcDbCircle
 10
-1052.877622473934
 20
-1270.337883985848
 30
0.0
 40
24.99999999999972
100
AcDbArc
 50
180.8993886363898
 51
263.8634420157574
  0
ARC
  5
2CD
330
471
100
AcDbEntity
  8
DATA
  6
Continuous
 62
     7
100
AcDbCircle
 10
-186.2004504504506
 20
-2767.083333333332
 30
0.0
 40
1480.371318561163
100
AcDbArc
 50
96.13655798424321
 51
102.3499501427416
  0
ARC
  5
2CE
330
471
100
AcDbEntity
  8
DATA
  6
Continuous
 62
     7
100
AcDbCircle
 10
-10267.68749998917
 20
-1114.599075112079
 30
0.0
 40
9946.787486416992
100
AcDbArc
 50
359.1006113636105
 51
0.2569017725405729
  0
ARC
  5
2CF
330
471
100
AcDbEntity
  8
DATA
  6
Continuous
 62
     7
100
AcDbCircle
 10
-10827.18749999999
 20
-967.4990853658536
 30
0.0
 40
10506.68750000003
100
AcDbArc
 50
359.4410262066554
 51
359.9999950122552
  0
ARC
  5
2D0
330
471
100
AcDbEntity
  8
DATA
  6
Continuous
 62
     7
100
AcDbCircle
 10
-347.1223775260658
 20
-1270.337883985848
 30
0.0
 40
25.00000000000013
100
AcDbArc
 50
276.1365579842428
 51
359.1006113636102
  0
ARC
  5
2D1
330
471
100
AcDbEntity
  8
DATA
  6
Continuous
 62
     7
100
AcDbCircle
 10
-1213.799549549549
 20
1095.583333333332
 30
0.0
 40
1480.371318561163
100
AcDbArc
 50
276.1365579842433
 51
282.3499501427418
  0
ARC
  5
2D2
330
471
100
AcDbEntity
  8
DATA
  6
Continuous
 62
     7
100
AcDbCircle
 10
8867.687499989171
 20
-556.9009248879208
 30
0.0
 40
9946.787486416992
100
AcDbArc
 50
179.1006113636104
 51
180.2569017725405
  0
ARC
  5
2D3
330
471
100
AcDbEntity
  8
DATA
  6
Continuous
 62
     7
100
AcDbCircle
 10
9427.187499999995
 20
-704.0009146341463
 30
0.0
 40
10506.68750000003
100
AcDbArc
 50
179.4410262066554
 51
179.8336701139711
  0
ARC
  5
2D4
330
471
100
AcDbEntity
  8
DATA
  6
Continuous
 62
     7
100
AcDbCircle
 10
-1052.877622473934
 20
-401.1621160141516
 30
0.0
 40
24.9999999999999
100
AcDbArc
 50
96.13655798424275
 51
179.1006113636101
  0
ARC
  5
2D5
330
471
100
AcDbEntity
  8
DATA
  6
Continuous
 62
     7
100
AcDbCircle
 10
-186.2004504504506
 20
1095.583333333332
 30
0.0
 40
1480.371318561163
100
AcDbArc
 50
257.6500498572583
 51
263.8634420157568
  0
ARC
  5
2D6
330
471
100
AcDbEntity
  8
DATA
  6
Continuous
 62
     7
100
AcDbCircle
 10
-10267.68749998917
 20
-556.9009248879208
 30
0.0
 40
9946.787486416992
100
AcDbArc
 50
359.7430982274594
 51
0.8993886363895741
  0
ARC
  5
2D7
330
471
100
AcDbEntity
  8
DATA
  6
Continuous
 62
     7
100
AcDbCircle
 10
-10827.18749999999
 20
-704.0009146341463
 30
0.0
 40
10506.68750000003
100
AcDbArc
 50
0.1663298860287457
 51
0.5589737933448708
  0
ARC
  5
2D8
330
471
100
AcDbEntity
  8
DATA
  6
Continuous
 62
     7
100
AcDbCircle
 10
-347.1223775260658
 20
-401.1621160141516
 30
0.0
 40
24.99999999999972
100
AcDbArc
 50
0.8993886363898477
 51
83.86344201575724
  0
INSERT
  5
2D9
330
471
100
AcDbEntity
  8
DATA
 62
     7
100
AcDbBlockReference
  2
____
 10
0.0
 20
0.0
 30
0.0
  0
CIRCLE
  5
2DA
330
471
100
AcDbEntity
  8
DATA
  6
Continuous
 62
     7
100
AcDbCircle
 10
-432.5
 20
-601.5
 30
0.0
 40
5.5
  0
LINE
  5
2DB
330
471
100
AcDbEntity
  8
DATA
  6
Continuous
 62
     7
100
AcDbLine
 10
-429.4999999999999
 20
-601.5
 30
0.0
 11
-435.5
 21
-601.5
 31
0.0
  0
LINE
  5
2DC
330
471
100
AcDbEntity
  8
DATA
  6
Continuous
 62
     7
100
AcDbLine
 10
-432.5
 20
-598.5
 30
0.0
 11
-432.5
 21
-604.4999999999999
 31
0.0
  0
CIRCLE
  5
2DD
330
471
100
AcDbEntity
  8
DATA
  6
Continuous
 62
     7
100
AcDbCircle
 10
-345.0
 20
-601.5
 30
0.0
 40
5.5
  0
LINE
  5
2DE
330
471
100
AcDbEntity
  8
DATA
  6
Continuous
 62
     7
100
AcDbLine
 10
-342.0
 20
-601.5
 30
0.0
 11
-348.0
 21
-601.5
 31
0.0
  0
LINE
  5
2DF
330
471
100
AcDbEntity
  8
DATA
  6
Continuous
 62
     7
100
AcDbLine
 10
-345.0
 20
-598.5
 30
0.0
 11
-345.0
 21
-604.4999999999999
 31
0.0
  0
CIRCLE
  5
2E0
330
471
100
AcDbEntity
  8
DATA
  6
Continuous
 62
     7
100
AcDbCircle
 10
-355.0
 20
-438.4999999999999
 30
0.0
 40
5.5
  0
LINE
  5
2E1
330
471
100
AcDbEntity
  8
DATA
  6
Continuous
 62
     7
100
AcDbLine
 10
-352.0
 20
-438.4999999999999
 30
0.0
 11
-358.0
 21
-438.4999999999999
 31
0.0
  0
LINE
  5
2E2
330
471
100
AcDbEntity
  8
DATA
  6
Continuous
 62
     7
100
AcDbLine
 10
-355.0
 20
-435.5
 30
0.0
 11
-355.0
 21
-441.5
 31
0.0
  0
CIRCLE
  5
2E3
330
471
100
AcDbEntity
  8
DATA
  6
Continuous
 62
     7
100
AcDbCircle
 10
-442.4999999999999
 20
-438.4999999999999
 30
0.0
 40
5.5
  0
LINE
  5
2E4
330
471
100
AcDbEntity
  8
DATA
  6
Continuous
 62
     7
100
AcDbLine
 10
-439.5
 20
-438.4999999999999
 30
0.0
 11
-445.5
 21
-438.4999999999999
 31
0.0
  0
LINE
  5
2E5
330
471
100
AcDbEntity
  8
DATA
  6
Continuous
 62
     7
100
AcDbLine
 10
-442.4999999999999
 20
-435.5
 30
0.0
 11
-442.4999999999999
 21
-441.5
 31
0.0
  0
CIRCLE
  5
2E6
330
471
100
AcDbEntity
  8
DATA
  6
Continuous
 62
     7
100
AcDbCircle
 10
-967.5
 20
-601.5
 30
0.0
 40
5.5
  0
LINE
  5
2E7
330
471
100
AcDbEntity
  8
DATA
  6
Continuous
 62
     7
100
AcDbLine
 10
-964.4999999999999
 20
-601.5
 30
0.0
 11
-970.5
 21
-601.5
 31
0.0
  0
LINE
  5
2E8
330
471
100
AcDbEntity
  8
DATA
  6
Continuous
 62
     7
100
AcDbLine
 10
-967.5
 20
-598.5
 30
0.0
 11
-967.5
 21
-604.4999999999999
 31
0.0
  0
CIRCLE
  5
2E9
330
471
100
AcDbEntity
  8
DATA
  6
Continuous
 62
     7
100
AcDbCircle
 10
-1055.0
 20
-601.5
 30
0.0
 40
5.5
  0
LINE
  5
2EA
330
471
100
AcDbEntity
  8
DATA
  6
Continuous
 62
     7
100
AcDbLine
 10
-1052.0
 20
-601.5
 30
0.0
 11
-1058.0
 21
-601.5
 31
0.0
  0
LINE
  5
2EB
330
471
100
AcDbEntity
  8
DATA
  6
Continuous
 62
     7
100
AcDbLine
 10
-1055.0
 20
-598.5
 30
0.0
 11
-1055.0
 21
-604.4999999999999
 31
0.0
  0
CIRCLE
  5
2EC
330
471
100
AcDbEntity
  8
DATA
  6
Continuous
 62
     7
100
AcDbCircle
 10
-1045.0
 20
-438.4999999999999
 30
0.0
 40
5.5
  0
LINE
  5
2ED
330
471
100
AcDbEntity
  8
DATA
  6
Continuous
 62
     7
100
AcDbLine
 10
-1042.0
 20
-438.4999999999999
 30
0.0
 11
-1048.0
 21
-438.4999999999999
 31
0.0
  0
LINE
  5
2EE
330
471
100
AcDbEntity
  8
DATA
  6
Continuous
 62
     7
100
AcDbLine
 10
-1045.0
 20
-435.5
 30
0.0
 11
-1045.0
 21
-441.5
 31
0.0
  0
CIRCLE
  5
2EF
330
471
100
AcDbEntity
  8
DATA
  6
Continuous
 62
     7
100
AcDbCircle
 10
-957.5000000000001
 20
-438.4999999999999
 30
0.0
 40
5.5
  0
LINE
  5
2F0
330
471
100
AcDbEntity
  8
DATA
  6
Continuous
 62
     7
100
AcDbLine
 10
-954.4999999999999
 20
-438.4999999999999
 30
0.0
 11
-960.5
 21
-438.4999999999999
 31
0.0
  0
LINE
  5
2F1
330
471
100
AcDbEntity
  8
DATA
  6
Continuous
 62
     7
100
AcDbLine
 10
-957.5000000000001
 20
-435.5
 30
0.0
 11
-957.5000000000001
 21
-441.5
 31
0.0
  0
ARC
  5
2F2
330
471
100
AcDbEntity
  8
DATA
  6
Continuous
 62
     7
100
AcDbCircle
 10
-700.0
 20
-501.5000000000003
 30
0.0
 40
192.5000000000001
100
AcDbArc
 50
40.69750536630638
 51
139.3024946336937
  0
CIRCLE
  5
2F3
330
471
100
AcDbEntity
  8
DATA
  6
Continuous
 62
     7
100
AcDbCircle
 10
-770.7964349875416
 20
-330.5822864854119
 30
0.0
 40
5.000000000000047
  0
ARC
  5
2F4
330
471
100
AcDbEntity
  8
DATA
  6
Continuous
 62
     7
100
AcDbCircle
 10
-629.2035650124583
 20
-672.417713514588
 30
0.0
 40
4.999999999999848
100
AcDbArc
 50
347.4989622291224
 51
192.501037770877
  0
LINE
  5
2F5
330
471
100
AcDbEntity
  8
DATA
  6
Continuous
 62
     7
100
AcDbLine
 10
-629.2035650124583
 20
-673.5
 30
0.0
 11
-629.2035650124583
 21
-669.417713514588
 31
0.0
  0
LINE
  5
2F6
330
471
100
AcDbEntity
  8
DATA
  6
Continuous
 62
     7
100
AcDbLine
 10
-626.2035650124584
 20
-672.417713514588
 30
0.0
 11
-632.2035650124584
 21
-672.417713514588
 31
0.0
  0
LINE
  5
2F7
330
471
100
AcDbEntity
  8
DATA
  6
Continuous
 62
     7
100
AcDbLine
 10
-770.7964349875416
 20
-333.5822864854119
 30
0.0
 11
-770.7964349875416
 21
-327.582286485412
 31
0.0
  0
LINE
  5
2F8
330
471
100
AcDbEntity
  8
DATA
  6
Continuous
 62
     7
100
AcDbLine
 10
-767.7964349875415
 20
-330.5822864854119
 30
0.0
 11
-773.7964349875416
 21
-330.5822864854119
 31
0.0
  0
CIRCLE
  5
2F9
330
471
100
AcDbEntity
  8
DATA
  6
Continuous
 62
     7
100
AcDbCircle
 10
-629.2035650124585
 20
-330.5822864854119
 30
0.0
 40
4.999999999999943
  0
ARC
  5
2FA
330
471
100
AcDbEntity
  8
DATA
  6
Continuous
 62
     7
100
AcDbCircle
 10
-699.9999999999996
 20
-501.4999999999993
 30
0.0
 40
179.0
100
AcDbArc
 50
221.5440720069077
 51
253.923715210687
  0
ARC
  5
2FB
330
471
100
AcDbEntity
  8
DATA
  6
Continuous
 62
     7
100
AcDbCircle
 10
-699.9999999999996
 20
-501.4999999999993
 30
0.0
 40
178.9999999999999
100
AcDbArc
 50
286.0762847893129
 51
318.4559279930921
  0
ARC
  5
2FC
330
471
100
AcDbEntity
  8
DATA
  6
Continuous
 62
     7
100
AcDbCircle
 10
-699.9999999999996
 20
-501.4999999999993
 30
0.0
 40
178.9999999999999
100
AcDbArc
 50
41.54407200690784
 51
138.4559279930924
  0
ARC
  5
2FD
330
471
100
AcDbEntity
  8
DATA
  6
Continuous
 62
     7
100
AcDbCircle
 10
-700.0
 20
-501.5000000000008
 30
0.0
 40
57.50000000000014
100
AcDbArc
 50
165.1655526079707
 51
177.0092970933345
  0
ARC
  5
2FE
330
471
100
AcDbEntity
  8
DATA
  6
Continuous
 62
     7
100
AcDbCircle
 10
-700.0
 20
-501.5000000000008
 30
0.0
 40
57.5000000000001
100
AcDbArc
 50
182.9907029066636
 51
194.8344473920273
  0
ARC
  5
2FF
330
471
100
AcDbEntity
  8
DATA
  6
Continuous
 62
     7
100
AcDbCircle
 10
-700.0
 20
-501.5000000000008
 30
0.0
 40
57.50000000000009
100
AcDbArc
 50
200.8196339540551
 51
339.1803660459449
  0
ARC
  5
300
330
471
100
AcDbEntity
  8
DATA
  6
Continuous
 62
     7
100
AcDbCircle
 10
-700.0
 20
-501.5000000000008
 30
0.0
 40
57.50000000000007
100
AcDbArc
 50
345.1655526079727
 51
357.0092970933363
  0
ARC
  5
301
330
471
100
AcDbEntity
  8
DATA
  6
Continuous
 62
     7
100
AcDbCircle
 10
-700.0
 20
-501.5000000000008
 30
0.0
 40
57.50000000000007
100
AcDbArc
 50
2.990702906665428
 51
14.83444739202918
  0
ARC
  5
302
330
471
100
AcDbEntity
  8
DATA
  6
Continuous
 62
     7
100
AcDbCircle
 10
-700.0
 20
-501.5000000000008
 30
0.0
 40
57.50000000000007
100
AcDbArc
 50
20.81963395405513
 51
159.1803660459429
  0
ARC
  5
303
330
471
100
AcDbEntity
  8
DATA
  6
Continuous
 62
     7
100
AcDbCircle
 10
-700.0
 20
-501.4999999999999
 30
0.0
 40
100.0
100
AcDbArc
 50
134.4677145203096
 51
158.7099388454591
  0
ARC
  5
304
330
471
100
AcDbEntity
  8
DATA
  6
Continuous
 62
     7
100
AcDbCircle
 10
-700.0
 20
-501.4999999999999
 30
0.0
 40
100.0
100
AcDbArc
 50
162.1856093246926
 51
178.2808686791222
  0
ARC
  5
305
330
471
100
AcDbEntity
  8
DATA
  6
Continuous
 62
     7
100
AcDbCircle
 10
-700.0
 20
-501.4999999999999
 30
0.0
 40
100.0000000000001
100
AcDbArc
 50
181.7191313208779
 51
197.8143906753074
  0
ARC
  5
306
330
471
100
AcDbEntity
  8
DATA
  6
Continuous
 62
     7
100
AcDbCircle
 10
-700.0
 20
-501.4999999999999
 30
0.0
 40
100.0
100
AcDbArc
 50
201.290061154541
 51
225.5322854796904
  0
LINE
  5
307
330
471
100
AcDbEntity
  8
DATA
  6
Continuous
 62
     7
100
AcDbLine
 10
-502.5
 20
-504.4999999999999
 30
0.0
 11
-680.75
 21
-504.4999999999999
 31
0.0
  0
LINE
  5
308
330
471
100
AcDbEntity
  8
DATA
  6
Continuous
 62
     7
100
AcDbLine
 10
-502.5
 20
-498.5
 30
0.0
 11
-502.5
 21
-504.4999999999999
 31
0.0
  0
LINE
  5
309
330
471
100
AcDbEntity
  8
DATA
  6
Continuous
 62
     7
100
AcDbLine
 10
-680.75
 20
-498.5
 30
0.0
 11
-502.5
 21
-498.5
 31
0.0
  0
LINE
  5
30A
330
471
100
AcDbEntity
  8
DATA
  6
Continuous
 62
     7
100
AcDbLine
 10
-897.4999999999999
 20
-498.5
 30
0.0
 11
-719.2500000000001
 21
-498.5
 31
0.0
  0
LINE
  5
30B
330
471
100
AcDbEntity
  8
DATA
  6
Continuous
 62
     7
100
AcDbLine
 10
-897.4999999999999
 20
-504.4999999999999
 30
0.0
 11
-897.4999999999999
 21
-498.5
 31
0.0
  0
LINE
  5
30C
330
471
100
AcDbEntity
  8
DATA
  6
Continuous
 62
     7
100
AcDbLine
 10
-719.2500000000001
 20
-504.4999999999999
 30
0.0
 11
-897.4999999999999
 21
-504.4999999999999
 31
0.0
  0
ARC
  5
30D
330
471
100
AcDbEntity
  8
DATA
  6
Continuous
 62
     7
100
AcDbCircle
 10
-700.0
 20
-290.6319444444445
 30
0.0
 40
203.8699999999999
100
AcDbArc
 50
213.5005290100515
 51
264.5818939369063
  0
ARC
  5
30E
330
471
100
AcDbEntity
  8
DATA
  6
Continuous
 62
     7
100
AcDbCircle
 10
-700.0
 20
-290.6319444444445
 30
0.0
 40
203.8699999999999
100
AcDbArc
 50
275.4181060630936
 51
326.4994709899486
  0
ARC
  5
30F
330
471
100
AcDbEntity
  8
DATA
  6
Continuous
 62
     7
100
AcDbCircle
 10
-700.0
 20
-290.6319444444445
 30
0.0
 40
197.87
100
AcDbArc
 50
213.5005290100514
 51
264.4170868496501
  0
ARC
  5
310
330
471
100
AcDbEntity
  8
DATA
  6
Continuous
 62
     7
100
AcDbCircle
 10
-700.0
 20
-290.6319444444445
 30
0.0
 40
197.87
100
AcDbArc
 50
275.5829131503497
 51
326.4994709899486
  0
LINE
  5
311
330
471
100
AcDbEntity
  8
DATA
  6
Continuous
 62
     7
100
AcDbLine
 10
-870.0032636127914
 20
-403.1569072793622
 30
0.0
 11
-864.9999792566983
 21
-399.8452391721885
 31
0.0
  0
LINE
  5
312
330
471
100
AcDbEntity
  8
DATA
  6
Continuous
 62
     7
100
AcDbLine
 10
-529.9967363872083
 20
-403.1569072793624
 30
0.0
 11
-535.0000207433017
 21
-399.8452391721887
 31
0.0
  0
ARC
  5
313
330
471
100
AcDbEntity
  8
DATA
  6
Continuous
 62
     7
100
AcDbCircle
 10
-700.0
 20
-712.3680555555555
 30
0.0
 40
203.8700000000001
100
AcDbArc
 50
33.50052901005148
 51
84.58189393690636
  0
ARC
  5
314
330
471
100
AcDbEntity
  8
DATA
  6
Continuous
 62
     7
100
AcDbCircle
 10
-700.0
 20
-712.3680555555555
 30
0.0
 40
203.8700000000001
100
AcDbArc
 50
95.4181060630937
 51
146.4994709899486
  0
ARC
  5
315
330
471
100
AcDbEntity
  8
DATA
  6
Continuous
 62
     7
100
AcDbCircle
 10
-700.0
 20
-712.3680555555555
 30
0.0
 40
197.87
100
AcDbArc
 50
33.50052901005147
 51
84.41708684965021
  0
ARC
  5
316
330
471
100
AcDbEntity
  8
DATA
  6
Continuous
 62
     7
100
AcDbCircle
 10
-700.0
 20
-712.3680555555555
 30
0.0
 40
197.8700000000001
100
AcDbArc
 50
95.58291315034987
 51
146.4994709899486
  0
LINE
  5
317
330
471
100
AcDbEntity
  8
DATA
  6
Continuous
 62
     7
100
AcDbLine
 10
-870.0032636127914
 20
-599.8430927206377
 30
0.0
 11
-864.9999792566983
 21
-603.1547608278115
 31
0.0
  0
LINE
  5
318
330
471
100
AcDbEntity
  8
DATA
  6
Continuous
 62
     7
100
AcDbLine
 10
-529.9967363872083
 20
-599.8430927206375
 30
0.0
 11
-535.0000207433017
 21
-603.1547608278112
 31
0.0
  0
LINE
  5
319
330
471
100
AcDbEntity
  8
DATA
  6
Continuous
 62
     7
100
AcDbLine
 10
-888.3213290586384
 20
-351.8766199021334
 30
0.0
 11
-771.5966574955697
 21
-418.2637993186564
 31
0.0
  0
ARC
  5
31A
330
471
100
AcDbEntity
  8
DATA
  6
Continuous
 62
     7
100
AcDbCircle
 10
-894.5011146343222
 20
-362.742173281441
 30
0.0
 40
12.50000000000049
100
AcDbArc
 50
60.37093726078079
 51
102.3499501427402
  0
ARC
  5
31B
330
471
100
AcDbEntity
  8
DATA
  6
Continuous
 62
     7
100
AcDbCircle
 10
-775.3045288409794
 20
-578.2168686537587
 30
0.0
 40
7.500000000000111
100
AcDbArc
 50
299.6290627392191
 51
45.53228547968986
  0
ARC
  5
31C
330
471
100
AcDbEntity
  8
DATA
  6
Continuous
 62
     7
100
AcDbCircle
 10
-775.3045288409804
 20
-424.7831313462411
 30
0.0
 40
7.500000000000444
100
AcDbArc
 50
314.4677145203133
 51
60.37093726078055
  0
ARC
  5
31D
330
471
100
AcDbEntity
  8
DATA
  6
Continuous
 62
     7
100
AcDbCircle
 10
-700.0
 20
-501.4999999999999
 30
0.0
 40
100.0
100
AcDbArc
 50
21.29006115454092
 51
45.53228547969041
  0
ARC
  5
31E
330
471
100
AcDbEntity
  8
DATA
  6
Continuous
 62
     7
100
AcDbCircle
 10
-700.0
 20
-501.4999999999999
 30
0.0
 40
100.0000000000001
100
AcDbArc
 50
1.719131320877743
 51
17.81439067530744
  0
ARC
  5
31F
330
471
100
AcDbEntity
  8
DATA
  6
Continuous
 62
     7
100
AcDbCircle
 10
-700.0
 20
-501.4999999999999
 30
0.0
 40
100.0
100
AcDbArc
 50
342.1856093246926
 51
358.2808686791221
  0
ARC
  5
320
330
471
100
AcDbEntity
  8
DATA
  6
Continuous
 62
     7
100
AcDbCircle
 10
-700.0
 20
-501.4999999999999
 30
0.0
 40
100.0
100
AcDbArc
 50
314.4677145203096
 51
338.7099388454591
  0
LINE
  5
321
330
471
100
AcDbEntity
  8
DATA
  6
Continuous
 62
     7
100
AcDbLine
 10
-511.6786709413615
 20
-351.8766199021334
 30
0.0
 11
-628.4033425044301
 21
-418.2637993186564
 31
0.0
  0
ARC
  5
322
330
471
100
AcDbEntity
  8
DATA
  6
Continuous
 62
     7
100
AcDbCircle
 10
-505.4988853656777
 20
-362.742173281441
 30
0.0
 40
12.50000000000046
100
AcDbArc
 50
77.65004985725977
 51
119.6290627392192
  0
ARC
  5
323
330
471
100
AcDbEntity
  8
DATA
  6
Continuous
 62
     7
100
AcDbCircle
 10
-624.6954711590204
 20
-578.2168686537587
 30
0.0
 40
7.500000000000044
100
AcDbArc
 50
134.4677145203102
 51
240.370937260781
  0
ARC
  5
324
330
471
100
AcDbEntity
  8
DATA
  6
Continuous
 62
     7
100
AcDbCircle
 10
-624.6954711590196
 20
-424.7831313462411
 30
0.0
 40
7.50000000000047
100
AcDbArc
 50
119.6290627392194
 51
225.5322854796868
  0
LINE
  5
325
330
471
100
AcDbEntity
  8
DATA
  6
Continuous
 62
     7
100
AcDbLine
 10
-629.2035650124585
 20
-333.5822864854119
 30
0.0
 11
-629.2035650124585
 21
-327.582286485412
 31
0.0
  0
LINE
  5
326
330
471
100
AcDbEntity
  8
DATA
  6
Continuous
 62
     7
100
AcDbLine
 10
-626.2035650124585
 20
-330.5822864854119
 30
0.0
 11
-632.2035650124584
 21
-330.5822864854119
 31
0.0
  0
ARC
  5
327
330
471
100
AcDbEntity
  8
DATA
  6
Continuous
 62
     7
100
AcDbCircle
 10
-770.7964349875418
 20
-672.417713514588
 30
0.0
 40
5.000000000000205
100
AcDbArc
 50
347.4989622291218
 51
192.5010377708786
  0
LINE
  5
328
330
471
100
AcDbEntity
  8
DATA
  6
Continuous
 62
     7
100
AcDbLine
 10
-770.7964349875418
 20
-673.5
 30
0.0
 11
-770.7964349875418
 21
-669.417713514588
 31
0.0
  0
LINE
  5
329
330
471
100
AcDbEntity
  8
DATA
  6
Continuous
 62
     7
100
AcDbLine
 10
-767.7964349875418
 20
-672.417713514588
 30
0.0
 11
-773.7964349875418
 21
-672.417713514588
 31
0.0
  0
CIRCLE
  5
32A
330
471
100
AcDbEntity
  8
DATA
  6
Continuous
 62
     7
100
AcDbCircle
 10
-887.5
 20
-623.5
 30
0.0
 40
5.5
  0
LINE
  5
32B
330
471
100
AcDbEntity
  8
DATA
  6
Continuous
 62
     7
100
AcDbLine
 10
-884.5
 20
-623.5
 30
0.0
 11
-890.4999999999999
 21
-623.5
 31
0.0
  0
LINE
  5
32C
330
471
100
AcDbEntity
  8
DATA
  6
Continuous
 62
     7
100
AcDbLine
 10
-887.5
 20
-620.5
 30
0.0
 11
-887.5
 21
-626.5
 31
0.0
  0
CIRCLE
  5
32D
330
471
100
AcDbEntity
  8
DATA
  6
Continuous
 62
     7
100
AcDbCircle
 10
-512.5
 20
-623.5
 30
0.0
 40
5.5
  0
LINE
  5
32E
330
471
100
AcDbEntity
  8
DATA
  6
Continuous
 62
     7
100
AcDbLine
 10
-509.4999999999999
 20
-623.5
 30
0.0
 11
-515.5
 21
-623.5
 31
0.0
  0
LINE
  5
32F
330
471
100
AcDbEntity
  8
DATA
  6
Continuous
 62
     7
100
AcDbLine
 10
-512.5
 20
-620.5
 30
0.0
 11
-512.5
 21
-626.5
 31
0.0
  0
CIRCLE
  5
330
330
471
100
AcDbEntity
  8
DATA
  6
Continuous
 62
     7
100
AcDbCircle
 10
-887.5
 20
-381.5
 30
0.0
 40
5.5
  0
LINE
  5
331
330
471
100
AcDbEntity
  8
DATA
  6
Continuous
 62
     7
100
AcDbLine
 10
-884.5
 20
-381.5
 30
0.0
 11
-890.4999999999999
 21
-381.5
 31
0.0
  0
LINE
  5
332
330
471
100
AcDbEntity
  8
DATA
  6
Continuous
 62
     7
100
AcDbLine
 10
-887.5
 20
-378.5
 30
0.0
 11
-887.5
 21
-384.5
 31
0.0
  0
CIRCLE
  5
333
330
471
100
AcDbEntity
  8
DATA
  6
Continuous
 62
     7
100
AcDbCircle
 10
-512.5
 20
-381.5
 30
0.0
 40
5.5
  0
LINE
  5
334
330
471
100
AcDbEntity
  8
DATA
  6
Continuous
 62
     7
100
AcDbLine
 10
-509.4999999999999
 20
-381.5
 30
0.0
 11
-515.5
 21
-381.5
 31
0.0
  0
LINE
  5
335
330
471
100
AcDbEntity
  8
DATA
  6
Continuous
 62
     7
100
AcDbLine
 10
-512.5
 20
-378.5
 30
0.0
 11
-512.5
 21
-384.5
 31
0.0
  0
LWPOLYLINE
  5
336
330
471
100
AcDbEntity
  8
DATA
  6
Continuous
 62
     7
100
AcDbPolyline
 90
        4
 70
     1
 43
0.0
 10
-719.2500000000001
 20
-485.7500000000008
 10
-680.75
 20
-485.7500000000008
 10
-680.75
 20
-517.2500000000008
 10
-719.2500000000001
 20
-517.2500000000008
  0
LINE
  5
33D
330
471
100
AcDbEntity
  8
DATA
  6
Continuous
 62
     7
100
AcDbLine
 10
-73.0
 20
-1306.616959786121
 30
0.0
 11
-73.0
 21
-1590.5
 31
0.0
  0
LINE
  5
33E
330
471
100
AcDbEntity
  8
DATA
  6
Continuous
 62
     7
100
AcDbLine
 10
-89.0
 20
-967.5
 30
0.0
 11
-89.0
 21
-1320.968570274309
 31
0.0
  0
LINE
  5
33F
330
471
100
AcDbEntity
  8
DATA
  6
Continuous
 62
     7
100
AcDbLine
 10
-57.81903081489138
 20
-1281.840863742343
 30
0.0
 11
-57.81903081489138
 21
-967.5
 31
0.0
  0
LINE
  5
340
330
471
100
AcDbEntity
  8
DATA
  6
Continuous
 62
     7
100
AcDbLine
 10
-33.0
 20
-967.5
 30
0.0
 11
-33.0
 21
-1590.5
 31
0.0
  0
LINE
  5
341
330
471
100
AcDbEntity
  8
DATA
  6
Continuous
 62
     7
100
AcDbLine
 10
-89.0
 20
-1320.968570274309
 30
0.0
 11
-66.12603207416023
 21
-1300.451177899873
 31
0.0
  0
ARC
  5
342
330
471
100
AcDbEntity
  8
DATA
  6
Continuous
 62
     7
100
AcDbCircle
 10
-82.81903081489142
 20
-1281.840863742343
 30
0.0
 40
25.00000000000009
100
AcDbArc
 50
311.8913323907134
 51
0.0
  0
LINE
  5
343
330
471
100
AcDbEntity
  8
DATA
  6
Continuous
 62
     7
100
AcDbLine
 10
-62.19292402327925
 20
-1565.25
 30
0.0
 11
-62.19292402327925
 21
-1571.75
 31
0.0
  0
LINE
  5
344
330
471
100
AcDbEntity
  8
DATA
  6
Continuous
 62
     7
100
AcDbLine
 10
-57.69292402327925
 20
-1571.75
 30
0.0
 11
-57.69292402327925
 21
-1565.25
 31
0.0
  0
ARC
  5
345
330
471
100
AcDbEntity
  8
DATA
  6
Continuous
 62
     7
100
AcDbCircle
 10
-59.94292402327925
 20
-1571.75
 30
0.0
 40
2.25
100
AcDbArc
 50
180.0
 51
0.0
  0
ARC
  5
346
330
471
100
AcDbEntity
  8
DATA
  6
Continuous
 62
     7
100
AcDbCircle
 10
-59.94292402327925
 20
-1565.25
 30
0.0
 40
2.25
100
AcDbArc
 50
0.0
 51
180.0
  0
LINE
  5
347
330
471
100
AcDbEntity
  8
DATA
  6
Continuous
 62
     7
100
AcDbLine
 10
-62.19292402327925
 20
-1450.25
 30
0.0
 11
-62.19292402327925
 21
-1456.75
 31
0.0
  0
LINE
  5
348
330
471
100
AcDbEntity
  8
DATA
  6
Continuous
 62
     7
100
AcDbLine
 10
-57.69292402327925
 20
-1456.75
 30
0.0
 11
-57.69292402327925
 21
-1450.25
 31
0.0
  0
ARC
  5
349
330
471
100
AcDbEntity
  8
DATA
  6
Continuous
 62
     7
100
AcDbCircle
 10
-59.94292402327925
 20
-1456.75
 30
0.0
 40
2.25
100
AcDbArc
 50
180.0
 51
0.0
  0
ARC
  5
34A
330
471
100
AcDbEntity
  8
DATA
  6
Continuous
 62
     7
100
AcDbCircle
 10
-59.94292402327925
 20
-1450.25
 30
0.0
 40
2.25
100
AcDbArc
 50
0.0
 51
180.0
  0
LINE
  5
34B
330
471
100
AcDbEntity
  8
DATA
  6
Continuous
 62
     7
100
AcDbLine
 10
-62.19292402327925
 20
-1337.25
 30
0.0
 11
-62.19292402327925
 21
-1343.75
 31
0.0
  0
LINE
  5
34C
330
471
100
AcDbEntity
  8
DATA
  6
Continuous
 62
     7
100
AcDbLine
 10
-57.69292402327925
 20
-1343.75
 30
0.0
 11
-57.69292402327925
 21
-1337.25
 31
0.0
  0
ARC
  5
34D
330
471
100
AcDbEntity
  8
DATA
  6
Continuous
 62
     7
100
AcDbCircle
 10
-59.94292402327925
 20
-1343.75
 30
0.0
 40
2.25
100
AcDbArc
 50
180.0
 51
0.0
  0
ARC
  5
34E
330
471
100
AcDbEntity
  8
DATA
  6
Continuous
 62
     7
100
AcDbCircle
 10
-59.94292402327925
 20
-1337.25
 30
0.0
 40
2.25
100
AcDbArc
 50
0.0
 51
180.0
  0
LINE
  5
34F
330
471
100
AcDbEntity
  8
DATA
  6
Continuous
 62
     7
100
AcDbLine
 10
-80.4803639578863
 20
-1229.75
 30
0.0
 11
-80.4803639578863
 21
-1236.25
 31
0.0
  0
LINE
  5
350
330
471
100
AcDbEntity
  8
DATA
  6
Continuous
 62
     7
100
AcDbLine
 10
-75.98036395788629
 20
-1236.25
 30
0.0
 11
-75.98036395788629
 21
-1229.75
 31
0.0
  0
ARC
  5
351
330
471
100
AcDbEntity
  8
DATA
  6
Continuous
 62
     7
100
AcDbCircle
 10
-78.2303639578863
 20
-1236.25
 30
0.0
 40
2.25
100
AcDbArc
 50
180.0
 51
0.0
  0
ARC
  5
352
330
471
100
AcDbEntity
  8
DATA
  6
Continuous
 62
     7
100
AcDbCircle
 10
-78.2303639578863
 20
-1229.75
 30
0.0
 40
2.25
100
AcDbArc
 50
0.0
 51
180.0
  0
LINE
  5
353
330
471
100
AcDbEntity
  8
DATA
  6
Continuous
 62
     7
100
AcDbLine
 10
-77.1432254318698
 20
-1066.75
 30
0.0
 11
-77.1432254318698
 21
-1073.25
 31
0.0
  0
LINE
  5
354
330
471
100
AcDbEntity
  8
DATA
  6
Continuous
 62
     7
100
AcDbLine
 10
-72.64322543186981
 20
-1073.25
 30
0.0
 11
-72.64322543186981
 21
-1066.75
 31
0.0
  0
ARC
  5
355
330
471
100
AcDbEntity
  8
DATA
  6
Continuous
 62
     7
100
AcDbCircle
 10
-74.89322543186981
 20
-1073.25
 30
0.0
 40
2.25
100
AcDbArc
 50
180.0
 51
0.0
  0
ARC
  5
356
330
471
100
AcDbEntity
  8
DATA
  6
Continuous
 62
     7
100
AcDbCircle
 10
-74.89322543186981
 20
-1066.75
 30
0.0
 40
2.25
100
AcDbArc
 50
0.0
 51
180.0
  0
LINE
  5
357
330
471
100
AcDbEntity
  8
DATA
  6
Continuous
 62
     7
100
AcDbLine
 10
-277.25
 20
-1590.5
 30
0.0
 11
-1122.75
 21
-1590.5
 31
0.0
  0
LINE
  5
358
330
471
100
AcDbEntity
  8
DATA
  6
Continuous
 62
     7
100
AcDbLine
 10
-1122.75
 20
-967.5
 30
0.0
 11
-277.25
 21
-967.5
 31
0.0
  0
LINE
  5
359
330
471
100
AcDbEntity
  8
DATA
  6
Continuous
 62
     7
100
AcDbLine
 10
-89.0
 20
-967.5
 30
0.0
 11
-18.0
 21
-967.5
 31
0.0
  0
LINE
  5
35A
330
471
100
AcDbEntity
  8
DATA
  6
Continuous
 62
     7
100
AcDbLine
 10
-100.0
 20
-964.4999999999999
 30
0.0
 11
-18.0
 21
-964.4999999999999
 31
0.0
  0
LINE
  5
35B
330
471
100
AcDbEntity
  8
DATA
  6
Continuous
 62
     7
100
AcDbLine
 10
-73.0
 20
-1590.5
 30
0.0
 11
-18.0
 21
-1590.5
 31
0.0
  0
CIRCLE
  5
35C
330
471
100
AcDbEntity
  8
DATA
  6
Continuous
 62
     7
100
AcDbCircle
 10
-962.5
 20
-1337.5
 30
0.0
 40
5.5
  0
LINE
  5
35D
330
471
100
AcDbEntity
  8
DATA
  6
Continuous
 62
     7
100
AcDbLine
 10
-959.5
 20
-1337.5
 30
0.0
 11
-965.4999999999999
 21
-1337.5
 31
0.0
  0
LINE
  5
35E
330
471
100
AcDbEntity
  8
DATA
  6
Continuous
 62
     7
100
AcDbLine
 10
-962.5
 20
-1340.5
 30
0.0
 11
-962.5
 21
-1334.5
 31
0.0
  0
CIRCLE
  5
35F
330
471
100
AcDbEntity
  8
DATA
  6
Continuous
 62
     7
100
AcDbCircle
 10
-437.5
 20
-1337.5
 30
0.0
 40
5.5
  0
LINE
  5
360
330
471
100
AcDbEntity
  8
DATA
  6
Continuous
 62
     7
100
AcDbLine
 10
-434.5
 20
-1337.5
 30
0.0
 11
-440.5
 21
-1337.5
 31
0.0
  0
LINE
  5
361
330
471
100
AcDbEntity
  8
DATA
  6
Continuous
 62
     7
100
AcDbLine
 10
-437.5
 20
-1340.5
 30
0.0
 11
-437.5
 21
-1334.5
 31
0.0
  0
CIRCLE
  5
362
330
471
100
AcDbEntity
  8
DATA
  6
Continuous
 62
     7
100
AcDbCircle
 10
-1095.0
 20
-1340.5
 30
0.0
 40
5.5
  0
LINE
  5
363
330
471
100
AcDbEntity
  8
DATA
  6
Continuous
 62
     7
100
AcDbLine
 10
-1092.0
 20
-1340.5
 30
0.0
 11
-1098.0
 21
-1340.5
 31
0.0
  0
LINE
  5
364
330
471
100
AcDbEntity
  8
DATA
  6
Continuous
 62
     7
100
AcDbLine
 10
-1095.0
 20
-1343.5
 30
0.0
 11
-1095.0
 21
-1337.5
 31
0.0
  0
CIRCLE
  5
365
330
471
100
AcDbEntity
  8
DATA
  6
Continuous
 62
     7
100
AcDbCircle
 10
-305.0000000000001
 20
-1340.5
 30
0.0
 40
5.5
  0
LINE
  5
366
330
471
100
AcDbEntity
  8
DATA
  6
Continuous
 62
     7
100
AcDbLine
 10
-302.0
 20
-1340.5
 30
0.0
 11
-308.0
 21
-1340.5
 31
0.0
  0
LINE
  5
367
330
471
100
AcDbEntity
  8
DATA
  6
Continuous
 62
     7
100
AcDbLine
 10
-305.0000000000001
 20
-1343.5
 30
0.0
 11
-305.0000000000001
 21
-1337.5
 31
0.0
  0
CIRCLE
  5
368
330
471
100
AcDbEntity
  8
DATA
  6
Continuous
 62
     7
100
AcDbCircle
 10
-1095.0
 20
-1453.5
 30
0.0
 40
5.5
  0
LINE
  5
369
330
471
100
AcDbEntity
  8
DATA
  6
Continuous
 62
     7
100
AcDbLine
 10
-1092.0
 20
-1453.5
 30
0.0
 11
-1098.0
 21
-1453.5
 31
0.0
  0
LINE
  5
36A
330
471
100
AcDbEntity
  8
DATA
  6
Continuous
 62
     7
100
AcDbLine
 10
-1095.0
 20
-1456.5
 30
0.0
 11
-1095.0
 21
-1450.5
 31
0.0
  0
CIRCLE
  5
36B
330
471
100
AcDbEntity
  8
DATA
  6
Continuous
 62
     7
100
AcDbCircle
 10
-1095.0
 20
-1568.5
 30
0.0
 40
5.5
  0
LINE
  5
36C
330
471
100
AcDbEntity
  8
DATA
  6
Continuous
 62
     7
100
AcDbLine
 10
-1092.0
 20
-1568.5
 30
0.0
 11
-1098.0
 21
-1568.5
 31
0.0
  0
LINE
  5
36D
330
471
100
AcDbEntity
  8
DATA
  6
Continuous
 62
     7
100
AcDbLine
 10
-1095.0
 20
-1571.5
 30
0.0
 11
-1095.0
 21
-1565.5
 31
0.0
  0
CIRCLE
  5
36E
330
471
100
AcDbEntity
  8
DATA
  6
Continuous
 62
     7
100
AcDbCircle
 10
-305.0000000000001
 20
-1453.5
 30
0.0
 40
5.5
  0
LINE
  5
36F
330
471
100
AcDbEntity
  8
DATA
  6
Continuous
 62
     7
100
AcDbLine
 10
-302.0
 20
-1453.5
 30
0.0
 11
-308.0
 21
-1453.5
 31
0.0
  0
LINE
  5
370
330
471
100
AcDbEntity
  8
DATA
  6
Continuous
 62
     7
100
AcDbLine
 10
-305.0000000000001
 20
-1456.5
 30
0.0
 11
-305.0000000000001
 21
-1450.5
 31
0.0
  0
CIRCLE
  5
371
330
471
100
AcDbEntity
  8
DATA
  6
Continuous
 62
     7
100
AcDbCircle
 10
-305.0000000000001
 20
-1568.5
 30
0.0
 40
5.5
  0
LINE
  5
372
330
471
100
AcDbEntity
  8
DATA
  6
Continuous
 62
     7
100
AcDbLine
 10
-302.0
 20
-1568.5
 30
0.0
 11
-308.0
 21
-1568.5
 31
0.0
  0
LINE
  5
373
330
471
100
AcDbEntity
  8
DATA
  6
Continuous
 62
     7
100
AcDbLine
 10
-305.0000000000001
 20
-1571.5
 30
0.0
 11
-305.0000000000001
 21
-1565.5
 31
0.0
  0
CIRCLE
  5
374
330
471
100
AcDbEntity
  8
DATA
  6
Continuous
 62
     7
100
AcDbCircle
 10
-792.4999999999999
 20
-1471.5
 30
0.0
 40
5.5
  0
LINE
  5
375
330
471
100
AcDbEntity
  8
DATA
  6
Continuous
 62
     7
100
AcDbLine
 10
-789.5
 20
-1471.5
 30
0.0
 11
-795.5
 21
-1471.5
 31
0.0
  0
LINE
  5
376
330
471
100
AcDbEntity
  8
DATA
  6
Continuous
 62
     7
100
AcDbLine
 10
-792.4999999999999
 20
-1474.5
 30
0.0
 11
-792.4999999999999
 21
-1468.5
 31
0.0
  0
CIRCLE
  5
377
330
471
100
AcDbEntity
  8
DATA
  6
Continuous
 62
     7
100
AcDbCircle
 10
-607.5
 20
-1471.5
 30
0.0
 40
5.5
  0
LINE
  5
378
330
471
100
AcDbEntity
  8
DATA
  6
Continuous
 62
     7
100
AcDbLine
 10
-604.4999999999999
 20
-1471.5
 30
0.0
 11
-610.5
 21
-1471.5
 31
0.0
  0
LINE
  5
379
330
471
100
AcDbEntity
  8
DATA
  6
Continuous
 62
     7
100
AcDbLine
 10
-607.5
 20
-1474.5
 30
0.0
 11
-607.5
 21
-1468.5
 31
0.0
  0
CIRCLE
  5
37A
330
471
100
AcDbEntity
  8
DATA
  6
Continuous
 62
     7
100
AcDbCircle
 10
-942.5
 20
-1568.5
 30
0.0
 40
5.5
  0
LINE
  5
37B
330
471
100
AcDbEntity
  8
DATA
  6
Continuous
 62
     7
100
AcDbLine
 10
-939.4999999999999
 20
-1568.5
 30
0.0
 11
-945.5
 21
-1568.5
 31
0.0
  0
LINE
  5
37C
330
471
100
AcDbEntity
  8
DATA
  6
Continuous
 62
     7
100
AcDbLine
 10
-942.5
 20
-1571.5
 30
0.0
 11
-942.5
 21
-1565.5
 31
0.0
  0
CIRCLE
  5
37D
330
471
100
AcDbEntity
  8
DATA
  6
Continuous
 62
     7
100
AcDbCircle
 10
-792.0
 20
-1568.5
 30
0.0
 40
5.5
  0
LINE
  5
37E
330
471
100
AcDbEntity
  8
DATA
  6
Continuous
 62
     7
100
AcDbLine
 10
-789.0
 20
-1568.5
 30
0.0
 11
-795.0
 21
-1568.5
 31
0.0
  0
LINE
  5
37F
330
471
100
AcDbEntity
  8
DATA
  6
Continuous
 62
     7
100
AcDbLine
 10
-792.0
 20
-1571.5
 30
0.0
 11
-792.0
 21
-1565.5
 31
0.0
  0
CIRCLE
  5
380
330
471
100
AcDbEntity
  8
DATA
  6
Continuous
 62
     7
100
AcDbCircle
 10
-608.0
 20
-1568.5
 30
0.0
 40
5.5
  0
LINE
  5
381
330
471
100
AcDbEntity
  8
DATA
  6
Continuous
 62
     7
100
AcDbLine
 10
-605.0
 20
-1568.5
 30
0.0
 11
-611.0
 21
-1568.5
 31
0.0
  0
LINE
  5
382
330
471
100
AcDbEntity
  8
DATA
  6
Continuous
 62
     7
100
AcDbLine
 10
-608.0
 20
-1571.5
 30
0.0
 11
-608.0
 21
-1565.5
 31
0.0
  0
CIRCLE
  5
383
330
471
100
AcDbEntity
  8
DATA
  6
Continuous
 62
     7
100
AcDbCircle
 10
-457.5000000000001
 20
-1568.5
 30
0.0
 40
5.5
  0
LINE
  5
384
330
471
100
AcDbEntity
  8
DATA
  6
Continuous
 62
     7
100
AcDbLine
 10
-454.5
 20
-1568.5
 30
0.0
 11
-460.5
 21
-1568.5
 31
0.0
  0
LINE
  5
385
330
471
100
AcDbEntity
  8
DATA
  6
Continuous
 62
     7
100
AcDbLine
 10
-457.5000000000001
 20
-1571.5
 30
0.0
 11
-457.5000000000001
 21
-1565.5
 31
0.0
  0
LINE
  5
386
330
471
100
AcDbEntity
  8
DATA
  6
Continuous
 62
     7
100
AcDbLine
 10
18.0
 20
-1330.0
 30
0.0
 11
18.0
 21
-1497.0
 31
0.0
  0
ARC
  5
387
330
471
100
AcDbEntity
  8
DATA
  6
Continuous
 62
     7
100
AcDbCircle
 10
28.0
 20
-1330.0
 30
0.0
 40
10.0
100
AcDbArc
 50
90.0
 51
180.0
  0
LINE
  5
388
330
471
100
AcDbEntity
  8
DATA
  6
Continuous
 62
     7
100
AcDbLine
 10
241.0
 20
-1320.0
 30
0.0
 11
28.0
 21
-1320.0
 31
0.0
  0
ARC
  5
389
330
471
100
AcDbEntity
  8
DATA
  6
Continuous
 62
     7
100
AcDbCircle
 10
241.0
 20
-1330.0
 30
0.0
 40
10.0
100
AcDbArc
 50
0.0
 51
90.0
  0
LINE
  5
38A
330
471
100
AcDbEntity
  8
DATA
  6
Continuous
 62
     7
100
AcDbLine
 10
251.0
 20
-1497.0
 30
0.0
 11
251.0
 21
-1330.0
 31
0.0
  0
ARC
  5
38B
330
471
100
AcDbEntity
  8
DATA
  6
Continuous
 62
     7
100
AcDbCircle
 10
241.0
 20
-1497.0
 30
0.0
 40
10.0
100
AcDbArc
 50
270.0
 51
0.0
  0
LINE
  5
38C
330
471
100
AcDbEntity
  8
DATA
  6
Continuous
 62
     7
100
AcDbLine
 10
28.0
 20
-1507.0
 30
0.0
 11
241.0
 21
-1507.0
 31
0.0
  0
ARC
  5
38D
330
471
100
AcDbEntity
  8
DATA
  6
Continuous
 62
     7
100
AcDbCircle
 10
28.0
 20
-1497.0
 30
0.0
 40
10.0
100
AcDbArc
 50
180.0
 51
270.0
  0
LINE
  5
38E
330
471
100
AcDbEntity
  8
DATA
  6
Continuous
 62
     7
100
AcDbLine
 10
251.0
 20
-1436.0
 30
0.0
 11
18.0
 21
-1436.0
 31
0.0
  0
LINE
  5
38F
330
471
100
AcDbEntity
  8
DATA
  6
Continuous
 62
     7
100
AcDbLine
 10
772.0
 20
-1352.0
 30
0.0
 11
772.0
 21
-576.0
 31
0.0
  0
ARC
  5
390
330
471
100
AcDbEntity
  8
DATA
  6
Continuous
 62
     7
100
AcDbCircle
 10
820.0
 20
-1352.0
 30
0.0
 40
48.0
100
AcDbArc
 50
180.0
 51
270.0
  0
LINE
  5
391
330
471
100
AcDbEntity
  8
DATA
  6
Continuous
 62
     7
100
AcDbLine
 10
1580.0
 20
-1400.0
 30
0.0
 11
820.0
 21
-1400.0
 31
0.0
  0
ARC
  5
392
330
471
100
AcDbEntity
  8
DATA
  6
Continuous
 62
     7
100
AcDbCircle
 10
1580.0
 20
-1352.0
 30
0.0
 40
48.0
100
AcDbArc
 50
270.0
 51
0.0
  0
LINE
  5
393
330
471
100
AcDbEntity
  8
DATA
  6
Continuous
 62
     7
100
AcDbLine
 10
1628.0
 20
-576.0
 30
0.0
 11
1628.0
 21
-1352.0
 31
0.0
  0
ARC
  5
394
330
471
100
AcDbEntity
  8
DATA
  6
Continuous
 62
     7
100
AcDbCircle
 10
1580.0
 20
-576.0
 30
0.0
 40
48.0
100
AcDbArc
 50
0.0
 51
90.0
  0
LINE
  5
395
330
471
100
AcDbEntity
  8
DATA
  6
Continuous
 62
     7
100
AcDbLine
 10
820.0
 20
-528.0
 30
0.0
 11
1580.0
 21
-528.0
 31
0.0
  0
ARC
  5
396
330
471
100
AcDbEntity
  8
DATA
  6
Continuous
 62
     7
100
AcDbCircle
 10
820.0
 20
-576.0
 30
0.0
 40
48.0
100
AcDbArc
 50
90.0
 51
180.0
  0
LWPOLYLINE
  5
397
330
471
100
AcDbEntity
  8
DATA
  6
Continuous
 62
     7
100
AcDbPolyline
 90
        4
 70
     1
 43
0.0
 10
980.0
 20
-712.0
 10
1420.0
 20
-712.0
 10
1420.0
 20
-872.0
 10
980.0
 20
-872.0
  0
LWPOLYLINE
  5
39E
330
471
100
AcDbEntity
  8
DATA
  6
Continuous
 62
     7
100
AcDbPolyline
 90
        4
 70
     1
 43
0.0
 10
1010.0
 20
-760.0
 10
1090.0
 20
-760.0
 10
1090.0
 20
-824.0
 10
1010.0
 20
-824.0
  0
LWPOLYLINE
  5
3A5
330
471
100
AcDbEntity
  8
DATA
  6
Continuous
 62
     7
100
AcDbPolyline
 90
        4
 70
     1
 43
0.0
 10
1110.0
 20
-760.0
 10
1190.0
 20
-760.0
 10
1190.0
 20
-824.0
 10
1110.0
 20
-824.0
  0
LWPOLYLINE
  5
3AC
330
471
100
AcDbEntity
  8
DATA
  6
Continuous
 62
     7
100
AcDbPolyline
 90
        4
 70
     1
 43
0.0
 10
1210.0
 20
-760.0
 10
1290.0
 20
-760.0
 10
1290.0
 20
-824.0
 10
1210.0
 20
-824.0
  0
LWPOLYLINE
  5
3B3
330
471
100
AcDbEntity
  8
DATA
  6
Continuous
 62
     7
100
AcDbPolyline
 90
        4
 70
     1
 43
0.0
 10
1310.0
 20
-760.0
 10
1390.0
 20
-760.0
 10
1390.0
 20
-824.0
 10
1310.0
 20
-824.0
  0
LINE
  5
3BA
330
471
100
AcDbEntity
  8
DATA
  6
Continuous
 62
     7
100
AcDbLine
 10
1088.0
 20
-872.0
 30
0.0
 11
1088.0
 21
-828.0
 31
0.0
  0
LINE
  5
3BB
330
471
100
AcDbEntity
  8
DATA
  6
Continuous
 62
     7
100
AcDbLine
 10
1088.0
 20
-756.0
 30
0.0
 11
1088.0
 21
-712.0
 31
0.0
  0
LINE
  5
3BC
330
471
100
AcDbEntity
  8
DATA
  6
Continuous
 62
     7
100
AcDbLine
 10
1112.0
 20
-712.0
 30
0.0
 11
1112.0
 21
-756.0
 31
0.0
  0
LINE
  5
3BD
330
471
100
AcDbEntity
  8
DATA
  6
Continuous
 62
     7
100
AcDbLine
 10
1112.0
 20
-828.0
 30
0.0
 11
1112.0
 21
-872.0
 31
0.0
  0
LINE
  5
3BE
330
471
100
AcDbEntity
  8
DATA
  6
Continuous
 62
     7
100
AcDbLine
 10
1092.399999999999
 20
-828.0
 30
0.0
 11
1092.399999999999
 21
-756.0
 31
0.0
  0
LINE
  5
3BF
330
471
100
AcDbEntity
  8
DATA
  6
Continuous
 62
     7
100
AcDbLine
 10
1107.599999999998
 20
-756.0
 30
0.0
 11
1107.599999999998
 21
-828.0
 31
0.0
  0
LINE
  5
3C0
330
471
100
AcDbEntity
  8
DATA
  6
Continuous
 62
     7
100
AcDbLine
 10
1112.0
 20
-828.0
 30
0.0
 11
1107.599999999998
 21
-828.0
 31
0.0
  0
LINE
  5
3C1
330
471
100
AcDbEntity
  8
DATA
  6
Continuous
 62
     7
100
AcDbLine
 10
1092.399999999999
 20
-828.0
 30
0.0
 11
1088.0
 21
-828.0
 31
0.0
  0
LINE
  5
3C2
330
471
100
AcDbEntity
  8
DATA
  6
Continuous
 62
     7
100
AcDbLine
 10
1088.0
 20
-756.0
 30
0.0
 11
1092.399999999999
 21
-756.0
 31
0.0
  0
LINE
  5
3C3
330
471
100
AcDbEntity
  8
DATA
  6
Continuous
 62
     7
100
AcDbLine
 10
1107.599999999998
 20
-756.0
 30
0.0
 11
1112.0
 21
-756.0
 31
0.0
  0
LINE
  5
3C4
330
471
100
AcDbEntity
  8
DATA
  6
Continuous
 62
     7
100
AcDbLine
 10
1004.0
 20
-712.0
 30
0.0
 11
1004.0
 21
-756.0
 31
0.0
  0
LINE
  5
3C5
330
471
100
AcDbEntity
  8
DATA
  6
Continuous
 62
     7
100
AcDbLine
 10
1004.0
 20
-828.0
 30
0.0
 11
1004.0
 21
-872.0
 31
0.0
  0
LINE
  5
3C6
330
471
100
AcDbEntity
  8
DATA
  6
Continuous
 62
     7
100
AcDbLine
 10
999.5999999999982
 20
-756.0
 30
0.0
 11
999.5999999999982
 21
-828.0
 31
0.0
  0
LINE
  5
3C7
330
471
100
AcDbEntity
  8
DATA
  6
Continuous
 62
     7
100
AcDbLine
 10
1004.0
 20
-828.0
 30
0.0
 11
999.5999999999982
 21
-828.0
 31
0.0
  0
LINE
  5
3C8
330
471
100
AcDbEntity
  8
DATA
  6
Continuous
 62
     7
100
AcDbLine
 10
999.5999999999982
 20
-756.0
 30
0.0
 11
1004.0
 21
-756.0
 31
0.0
  0
LINE
  5
3C9
330
471
100
AcDbEntity
  8
DATA
  6
Continuous
 62
     7
100
AcDbLine
 10
1188.0
 20
-872.0
 30
0.0
 11
1188.0
 21
-828.0
 31
0.0
  0
LINE
  5
3CA
330
471
100
AcDbEntity
  8
DATA
  6
Continuous
 62
     7
100
AcDbLine
 10
1188.0
 20
-756.0
 30
0.0
 11
1188.0
 21
-712.0
 31
0.0
  0
LINE
  5
3CB
330
471
100
AcDbEntity
  8
DATA
  6
Continuous
 62
     7
100
AcDbLine
 10
1212.0
 20
-712.0
 30
0.0
 11
1212.0
 21
-756.0
 31
0.0
  0
LINE
  5
3CC
330
471
100
AcDbEntity
  8
DATA
  6
Continuous
 62
     7
100
AcDbLine
 10
1212.0
 20
-828.0
 30
0.0
 11
1212.0
 21
-872.0
 31
0.0
  0
LINE
  5
3CD
330
471
100
AcDbEntity
  8
DATA
  6
Continuous
 62
     7
100
AcDbLine
 10
1192.399999999999
 20
-828.0
 30
0.0
 11
1192.399999999999
 21
-756.0
 31
0.0
  0
LINE
  5
3CE
330
471
100
AcDbEntity
  8
DATA
  6
Continuous
 62
     7
100
AcDbLine
 10
1207.599999999998
 20
-756.0
 30
0.0
 11
1207.599999999998
 21
-828.0
 31
0.0
  0
LINE
  5
3CF
330
471
100
AcDbEntity
  8
DATA
  6
Continuous
 62
     7
100
AcDbLine
 10
1212.0
 20
-828.0
 30
0.0
 11
1207.599999999998
 21
-828.0
 31
0.0
  0
LINE
  5
3D0
330
471
100
AcDbEntity
  8
DATA
  6
Continuous
 62
     7
100
AcDbLine
 10
1192.399999999999
 20
-828.0
 30
0.0
 11
1188.0
 21
-828.0
 31
0.0
  0
LINE
  5
3D1
330
471
100
AcDbEntity
  8
DATA
  6
Continuous
 62
     7
100
AcDbLine
 10
1188.0
 20
-756.0
 30
0.0
 11
1192.399999999999
 21
-756.0
 31
0.0
  0
LINE
  5
3D2
330
471
100
AcDbEntity
  8
DATA
  6
Continuous
 62
     7
100
AcDbLine
 10
1207.599999999998
 20
-756.0
 30
0.0
 11
1212.0
 21
-756.0
 31
0.0
  0
LINE
  5
3D3
330
471
100
AcDbEntity
  8
DATA
  6
Continuous
 62
     7
100
AcDbLine
 10
1288.0
 20
-872.0
 30
0.0
 11
1288.0
 21
-828.0
 31
0.0
  0
LINE
  5
3D4
330
471
100
AcDbEntity
  8
DATA
  6
Continuous
 62
     7
100
AcDbLine
 10
1288.0
 20
-756.0
 30
0.0
 11
1288.0
 21
-712.0
 31
0.0
  0
LINE
  5
3D5
330
471
100
AcDbEntity
  8
DATA
  6
Continuous
 62
     7
100
AcDbLine
 10
1312.0
 20
-712.0
 30
0.0
 11
1312.0
 21
-756.0
 31
0.0
  0
LINE
  5
3D6
330
471
100
AcDbEntity
  8
DATA
  6
Continuous
 62
     7
100
AcDbLine
 10
1312.0
 20
-828.0
 30
0.0
 11
1312.0
 21
-872.0
 31
0.0
  0
LINE
  5
3D7
330
471
100
AcDbEntity
  8
DATA
  6
Continuous
 62
     7
100
AcDbLine
 10
1292.399999999999
 20
-828.0
 30
0.0
 11
1292.399999999999
 21
-756.0
 31
0.0
  0
LINE
  5
3D8
330
471
100
AcDbEntity
  8
DATA
  6
Continuous
 62
     7
100
AcDbLine
 10
1307.599999999998
 20
-756.0
 30
0.0
 11
1307.599999999998
 21
-828.0
 31
0.0
  0
LINE
  5
3D9
330
471
100
AcDbEntity
  8
DATA
  6
Continuous
 62
     7
100
AcDbLine
 10
1312.0
 20
-828.0
 30
0.0
 11
1307.599999999998
 21
-828.0
 31
0.0
  0
LINE
  5
3DA
330
471
100
AcDbEntity
  8
DATA
  6
Continuous
 62
     7
100
AcDbLine
 10
1292.399999999999
 20
-828.0
 30
0.0
 11
1288.0
 21
-828.0
 31
0.0
  0
LINE
  5
3DB
330
471
100
AcDbEntity
  8
DATA
  6
Continuous
 62
     7
100
AcDbLine
 10
1288.0
 20
-756.0
 30
0.0
 11
1292.399999999999
 21
-756.0
 31
0.0
  0
LINE
  5
3DC
330
471
100
AcDbEntity
  8
DATA
  6
Continuous
 62
     7
100
AcDbLine
 10
1307.599999999998
 20
-756.0
 30
0.0
 11
1312.0
 21
-756.0
 31
0.0
  0
LINE
  5
3DD
330
471
100
AcDbEntity
  8
DATA
  6
Continuous
 62
     7
100
AcDbLine
 10
1396.0
 20
-872.0
 30
0.0
 11
1396.0
 21
-828.0
 31
0.0
  0
LINE
  5
3DE
330
471
100
AcDbEntity
  8
DATA
  6
Continuous
 62
     7
100
AcDbLine
 10
1396.0
 20
-756.0
 30
0.0
 11
1396.0
 21
-712.0
 31
0.0
  0
LINE
  5
3DF
330
471
100
AcDbEntity
  8
DATA
  6
Continuous
 62
     7
100
AcDbLine
 10
1400.399999999999
 20
-828.0
 30
0.0
 11
1400.399999999999
 21
-756.0
 31
0.0
  0
LINE
  5
3E0
330
471
100
AcDbEntity
  8
DATA
  6
Continuous
 62
     7
100
AcDbLine
 10
1400.399999999999
 20
-828.0
 30
0.0
 11
1396.0
 21
-828.0
 31
0.0
  0
LINE
  5
3E1
330
471
100
AcDbEntity
  8
DATA
  6
Continuous
 62
     7
100
AcDbLine
 10
1396.0
 20
-756.0
 30
0.0
 11
1400.399999999999
 21
-756.0
 31
0.0
  0
CIRCLE
  5
3E2
330
471
100
AcDbEntity
  8
DATA
  6
Continuous
 62
     7
100
AcDbCircle
 10
1050.0
 20
-792.0
 30
0.0
 40
28.0
  0
LINE
  5
3E3
330
471
100
AcDbEntity
  8
DATA
  6
Continuous
 62
     7
100
AcDbLine
 10
1025.751288694034
 20
-806.0
 30
0.0
 11
1074.248711305965
 21
-778.0
 31
0.0
  0
LINE
  5
3E4
330
471
100
AcDbEntity
  8
DATA
  6
Continuous
 62
     7
100
AcDbLine
 10
1058.0
 20
-805.8564064605516
 30
0.0
 11
1042.0
 21
-778.1435935394492
 31
0.0
  0
CIRCLE
  5
3E5
330
471
100
AcDbEntity
  8
DATA
  6
Continuous
 62
     7
100
AcDbCircle
 10
1150.0
 20
-792.0
 30
0.0
 40
28.0
  0
LINE
  5
3E6
330
471
100
AcDbEntity
  8
DATA
  6
Continuous
 62
     7
100
AcDbLine
 10
1125.751288694035
 20
-806.0
 30
0.0
 11
1174.248711305965
 21
-778.0
 31
0.0
  0
LINE
  5
3E7
330
471
100
AcDbEntity
  8
DATA
  6
Continuous
 62
     7
100
AcDbLine
 10
1158.0
 20
-805.8564064605516
 30
0.0
 11
1142.0
 21
-778.1435935394492
 31
0.0
  0
CIRCLE
  5
3E8
330
471
100
AcDbEntity
  8
DATA
  6
Continuous
 62
     7
100
AcDbCircle
 10
1250.0
 20
-792.0
 30
0.0
 40
28.0
  0
LINE
  5
3E9
330
471
100
AcDbEntity
  8
DATA
  6
Continuous
 62
     7
100
AcDbLine
 10
1225.751288694034
 20
-806.0
 30
0.0
 11
1274.248711305965
 21
-778.0
 31
0.0
  0
LINE
  5
3EA
330
471
100
AcDbEntity
  8
DATA
  6
Continuous
 62
     7
100
AcDbLine
 10
1258.0
 20
-805.8564064605516
 30
0.0
 11
1242.0
 21
-778.1435935394492
 31
0.0
  0
CIRCLE
  5
3EB
330
471
100
AcDbEntity
  8
DATA
  6
Continuous
 62
     7
100
AcDbCircle
 10
1350.0
 20
-792.0
 30
0.0
 40
28.0
  0
LINE
  5
3EC
330
471
100
AcDbEntity
  8
DATA
  6
Continuous
 62
     7
100
AcDbLine
 10
1325.751288694035
 20
-806.0
 30
0.0
 11
1374.248711305965
 21
-778.0
 31
0.0
  0
LINE
  5
3ED
330
471
100
AcDbEntity
  8
DATA
  6
Continuous
 62
     7
100
AcDbLine
 10
1358.0
 20
-805.8564064605516
 30
0.0
 11
1342.0
 21
-778.1435935394492
 31
0.0
  0
TEXT
  5
3EE
330
471
100
AcDbEntity
  8
DATA
 62
     7
100
AcDbText
 10
1008.44828125
 20
-696.2214583333332
 30
0.0
 40
52.12291666666666
  1
Model:C222HP
 41
0.7
 72
     1
 11
1200.0
 21
-670.1599999999999
 31
0.0
100
AcDbText
 73
     2
  0
TEXT
  5
3EF
330
471
100
AcDbEntity
  8
DATA
 62
     7
100
AcDbText
 10
1017.567962962963
 20
-931.2143055555555
 30
0.0
 40
34.74861111111112
  1
HF+
 41
0.7
 72
     1
 11
1050.0
 21
-913.84
 31
0.0
100
AcDbText
 73
     2
  0
TEXT
  5
3F0
330
471
100
AcDbEntity
  8
DATA
 62
     7
100
AcDbText
 10
1117.567962962963
 20
-931.2143055555555
 30
0.0
 40
34.74861111111112
  1
HF-
 41
0.7
 72
     1
 11
1150.0
 21
-913.84
 31
0.0
100
AcDbText
 73
     2
  0
TEXT
  5
3F1
330
471
100
AcDbEntity
  8
DATA
 62
     7
100
AcDbText
 10
1217.567962962963
 20
-931.2143055555555
 30
0.0
 40
34.74861111111112
  1
LF+
 41
0.7
 72
     1
 11
1250.0
 21
-913.84
 31
0.0
100
AcDbText
 73
     2
  0
TEXT
  5
3F2
330
471
100
AcDbEntity
  8
DATA
 62
     7
100
AcDbText
 10
1317.567962962963
 20
-931.2143055555555
 30
0.0
 40
34.74861111111112
  1
LF-
 41
0.7
 72
     1
 11
1350.0
 21
-913.84
 31
0.0
100
AcDbText
 73
     2
  0
TEXT
  5
3F3
330
471
100
AcDbEntity
  8
DATA
 62
     7
100
AcDbText
 10
924.0
 20
-1093.030729166666
 30
0.0
 40
26.06145833333333
  1
BIAMP ONLY
 41
0.7
 11
924.0
 21
-1080.0
 31
0.0
100
AcDbText
 73
     2
  0
TEXT
  5
3F4
330
471
100
AcDbEntity
  8
DATA
 62
     7
100
AcDbText
 10
924.0
 20
-1133.030729166666
 30
0.0
 40
26.06145833333333
  1
NOMINAL IMPEDANCE:HF=8 OHM、LF=4 OHM
 41
0.7
 11
924.0
 21
-1120.0
 31
0.0
100
AcDbText
 73
     2
  0
TEXT
  5
3F5
330
471
100
AcDbEntity
  8
DATA
 62
     7
100
AcDbText
 10
1046.707949942129
 20
-1527.147352430556
 30
0.0
 40
54.29470486111111
  1
側面端子拡大図
 41
0.7
 72
     1
 11
1200.0
 21
-1500.0
 31
0.0
100
AcDbText
 73
     2
  0
LINE
  5
3F6
330
471
100
AcDbEntity
  8
DATA
  6
Continuous
 62
     7
100
AcDbLine
 10
950.0
 20
-1550.0
 30
0.0
 11
1450.0
 21
-1550.0
 31
0.0
  0
LINE
  5
3F7
330
471
100
AcDbEntity
  8
DATA
  6
Continuous
 62
     7
100
AcDbLine
 10
-747.5
 20
-967.5
 30
0.0
 11
-747.5
 21
-964.4999999999999
 31
0.0
  0
LINE
  5
3F8
330
471
100
AcDbEntity
  8
DATA
  6
Continuous
 62
     7
100
AcDbLine
 10
-652.5
 20
-967.5
 30
0.0
 11
-652.5
 21
-964.4999999999999
 31
0.0
  0
LINE
  5
3F9
330
471
100
AcDbEntity
  8
DATA
  6
Continuous
 62
     7
100
AcDbLine
 10
-1122.75
 20
-673.5
 30
0.0
 11
-277.25
 21
-673.5
 31
0.0
  0
LINE
  5
3FA
330
471
100
AcDbEntity
  8
DATA
  6
Continuous
 62
     7
100
AcDbLine
 10
-927.6648232652634
 20
-673.5
 30
0.0
 11
-771.5966574955695
 21
-584.7362006813431
 31
0.0
  0
LINE
  5
3FB
330
471
100
AcDbEntity
  8
DATA
  6
Continuous
 62
     7
100
AcDbLine
 10
-472.3351767347367
 20
-673.5
 30
0.0
 11
-628.4033425044305
 21
-584.7362006813431
 31
0.0
  0
ARC
  5
3FC
330
471
100
AcDbEntity
  8
DATA
  6
Continuous
 62
     7
100
AcDbCircle
 10
-700.0
 20
-501.5000000000003
 30
0.0
 40
192.5
100
AcDbArc
 50
220.6975053663065
 51
243.3172333509816
  0
ARC
  5
3FD
330
471
100
AcDbEntity
  8
DATA
  6
Continuous
 62
     7
100
AcDbCircle
 10
-700.0
 20
-501.5000000000003
 30
0.0
 40
192.5000000000001
100
AcDbArc
 50
296.6827666490184
 51
319.3024946336939
  0
LINE
  5
3FE
330
471
100
AcDbEntity
  8
DATA
  6
Continuous
 62
     7
100
AcDbLine
 10
-981.2911787447902
 20
-967.5
 30
0.0
 11
-771.5966574955695
 21
-1086.763799318656
 31
0.0
  0
LINE
  5
3FF
330
471
100
AcDbEntity
  8
DATA
  6
Continuous
 62
     7
100
AcDbLine
 10
-418.70882125521
 20
-967.5
 30
0.0
 11
-628.4033425044305
 21
-1086.763799318656
 31
0.0
  0
ARC
  5
400
330
471
100
AcDbEntity
  8
DATA
  6
Continuous
 62
     7
100
AcDbCircle
 10
-700.0
 20
-1169.999999999999
 30
0.0
 40
192.4999999999998
100
AcDbArc
 50
40.69750536630599
 51
139.3024946336938
  0
ENDSEC
  0
SECTION
  2
OBJECTS
  0
DICTIONARY
  5
40E
330
0
100
AcDbDictionary
281
     1
  3
ACAD_CIP_PREVIOUS_PRODUCT_INFO
350
48A
  3
ACAD_COLOR
350
464
  3
ACAD_DETAILVIEWSTYLE
350
46B
  3
ACAD_GROUP
350
40F
  3
ACAD_LAYOUT
350
463
  3
ACAD_MATERIAL
350
412
  3
ACAD_MLEADERSTYLE
350
467
  3
ACAD_MLINESTYLE
350
460
  3
ACAD_PLOTSETTINGS
350
462
  3
ACAD_PLOTSTYLENAME
350
410
  3
ACAD_SCALELIST
350
444
  3
ACAD_SECTIONVIEWSTYLE
350
469
  3
ACAD_TABLESTYLE
350
465
  3
ACAD_VISUALSTYLE
350
42B
  3
ACDB_RECOMPOSE_DATA
350
4A2
  3
AcDbVariableDictionary
350
495
  3
DWGPROPS
350
4A3
  0
DICTIONARY
  5
48B
330
456
100
AcDbDictionary
280
     1
281
     1
  3
ADSK_XREC_LAYER_RECONCILED
360
48C
  0
DICTIONARY
  5
48D
330
475
100
AcDbDictionary
280
     1
281
     1
  3
ADSK_XREC_LAYER_RECONCILED
360
48E
  0
DICTIONARY
  5
48F
330
481
100
AcDbDictionary
280
     1
281
     1
  3
ADSK_XREC_LAYER_RECONCILED
360
490
  0
DICTIONARY
  5
491
330
482
100
AcDbDictionary
280
     1
281
     1
  3
ADSK_XREC_LAYER_RECONCILED
360
492
  0
DICTIONARY
  5
493
330
483
100
AcDbDictionary
280
     1
281
     1
  3
ADSK_XREC_LAYER_RECONCILED
360
494
  0
XRECORD
  5
48A
102
{ACAD_REACTORS
330
40E
102
}
330
40E
100
AcDbXrecord
280
     1
300
ACDLT
300
2020
300

  0
DICTIONARY
  5
464
102
{ACAD_REACTORS
330
40E
102
}
330
40E
100
AcDbDictionary
281
     1
  0
DICTIONARY
  5
46B
102
{ACAD_REACTORS
330
40E
102
}
330
40E
100
AcDbDictionary
281
     1
  3
Imperial24
350
46C
  0
DICTIONARY
  5
40F
102
{ACAD_REACTORS
330
40E
102
}
330
40E
100
AcDbDictionary
281
     1
  0
DICTIONARY
  5
463
102
{ACAD_REACTORS
330
40E
102
}
330
40E
100
AcDbDictionary
281
     1
  3
Model
350
474
  3
レイアウト1
350
470
  0
DICTIONARY
  5
412
102
{ACAD_REACTORS
330
40E
102
}
330
40E
100
AcDbDictionary
281
     1
  3
ByBlock
350
41B
  3
ByLayer
350
413
  3
Global
350
423
  0
DICTIONARY
  5
467
102
{ACAD_REACTORS
330
40E
102
}
330
40E
100
AcDbDictionary
281
     1
  3
Standard
350
468
  0
DICTIONARY
  5
460
102
{ACAD_REACTORS
330
40E
102
}
330
40E
100
AcDbDictionary
281
     1
  3
Standard
350
461
  0
DICTIONARY
  5
462
102
{ACAD_REACTORS
330
40E
102
}
330
40E
100
AcDbDictionary
281
     1
  0
ACDBDICTIONARYWDFLT
  5
410
102
{ACAD_REACTORS
330
40E
102
}
330
40E
100
AcDbDictionary
281
     1
  3
Normal
350
411
100
AcDbDictionaryWithDefault
340
411
  0
DICTIONARY
  5
444
102
{ACAD_REACTORS
330
40E
102
}
330
40E
100
AcDbDictionary
281
     1
  3
A0
350
445
  3
A1
350
446
  3
A2
350
447
  3
A3
350
448
  3
A4
350
449
  3
A5
350
44A
  3
A6
350
44B
  3
A7
350
44C
  3
A8
350
44D
  3
A9
350
44E
  3
B0
350
44F
  3
B1
350
450
  3
B2
350
451
  3
B3
350
452
  3
B4
350
453
  3
B5
350
454
  3
B6
350
455
  0
DICTIONARY
  5
469
102
{ACAD_REACTORS
330
40E
102
}
330
40E
100
AcDbDictionary
281
     1
  3
Imperial24
350
46A
  0
DICTIONARY
  5
465
102
{ACAD_REACTORS
330
40E
102
}
330
40E
100
AcDbDictionary
281
     1
  3
Standard
350
466
  0
DICTIONARY
  5
42B
102
{ACAD_REACTORS
330
40E
102
}
330
40E
100
AcDbDictionary
281
     1
  3
2dWireframe
350
431
  3
Basic
350
430
  3
Brighten
350
437
  3
ColorChange
350
43B
  3
Conceptual
350
434
  3
Dim
350
436
  3
EdgeColorOff
350
443
  3
Facepattern
350
43A
  3
Flat
350
42C
  3
FlatWithEdges
350
42D
  3
Gouraud
350
42E
  3
GouraudWithEdges
350
42F
  3
Hidden
350
433
  3
JitterOff
350
441
  3
Linepattern
350
439
  3
OverhangOff
350
442
  3
Realistic
350
435
  3
Shaded
350
440
  3
Shaded with edges
350
43F
  3
Shades of Gray
350
43C
  3
Sketchy
350
43D
  3
Thicken
350
438
  3
Wireframe
350
432
  3
X-Ray
350
43E
  0
XRECORD
  5
4A2
102
{ACAD_REACTORS
330
40E
102
}
330
40E
100
AcDbXrecord
280
     1
 90
        1
330
466
  0
DICTIONARY
  5
495
102
{ACAD_REACTORS
330
40E
102
}
330
40E
100
AcDbDictionary
281
     1
  3
CANNOSCALE
350
49A
  3
CMLEADERSTYLE
350
497
  3
CTABLESTYLE
350
496
  3
CVIEWDETAILSTYLE
350
498
  3
CVIEWSECTIONSTYLE
350
499
  3
DIMASSOC
350
49D
  3
INDEXCTL
350
49C
  3
SORTENTS
350
49B
  3
XCLIPFRAME
350
49E
  0
XRECORD
  5
4A3
102
{ACAD_REACTORS
330
40E
102
}
330
40E
100
AcDbXrecord
280
     1
  1
DWGPROPS COOKIE
  2

  3

  4

  6

  7

  8
sasaki_n
  9

300
=
301
=
302
=
303
=
304
=
305
=
306
=
307
=
308
=
309
=
 40
0.0005902777777778
 41
2458816.438761574
 42
2458816.462939815
  1

 90
        0
  0
XRECORD
  5
48C
102
{ACAD_REACTORS
330
48B
102
}
330
48B
100
AcDbXrecord
280
     1
290
     1
  0
XRECORD
  5
48E
102
{ACAD_REACTORS
330
48D
102
}
330
48D
100
AcDbXrecord
280
     1
290
     1
  0
XRECORD
  5
490
102
{ACAD_REACTORS
330
48F
102
}
330
48F
100
AcDbXrecord
280
     1
290
     1
  0
XRECORD
  5
492
102
{ACAD_REACTORS
330
491
102
}
330
491
100
AcDbXrecord
280
     1
290
     1
  0
XRECORD
  5
494
102
{ACAD_REACTORS
330
493
102
}
330
493
100
AcDbXrecord
280
     1
290
     1
  0
ACDBDETAILVIEWSTYLE
  5
46C
102
{ACAD_XDICTIONARY
360
4DB
102
}
102
{ACAD_REACTORS
330
46B
102
}
330
46B
100
AcDbModelDocViewStyle
 70
     0
  3
Imperial24
290
     0
100
AcDbDetailViewStyle
 70
     0
 71
     0
 90
        3
 71
     1
340
457
 40
0.24
340
0
 40
0.24
300

 40
0.36
280
     3
 71
     2
340
45E
 90
       25
 71
     3
340
457
 40
0.24
 90
        1
 40
0.75
 90
        1
300
%<\AcVar ViewType \f "%tc1">% %<\AcVar ViewDetailId>%\PSCALE %<\AcVar ViewScale \f "%sn">%
 71
     4
340
45E
 90
       25
340
45E
 90
       25
280
     0
  0
LAYOUT
  5
474
102
{ACAD_XDICTIONARY
360
4DF
102
}
102
{ACAD_REACTORS
330
463
102
}
330
463
100
AcDbPlotSettings
  1

  2
DocuPrint 3000-3
  4

  6

 40
0.0
 41
0.0
 42
0.0
 43
0.0
 44
0.0
 45
0.0
 46
0.0
 47
0.0
 48
0.0
 49
0.0
140
0.0
141
0.0
142
1.0
143
1.0
 70
  1712
 72
     0
 73
     0
 74
     0
  7

 75
     0
147
1.0
148
0.0
149
0.0
100
AcDbLayout
  1
Model
 70
     1
 71
     0
 10
0.0
 20
0.0
 11
12.0
 21
9.0
 12
0.0
 22
0.0
 32
0.0
 14
0.0
 24
0.0
 34
0.0
 15
0.0
 25
0.0
 35
0.0
146
0.0
 13
0.0
 23
0.0
 33
0.0
 16
1.0
 26
0.0
 36
0.0
 17
0.0
 27
1.0
 37
0.0
 76
     0
330
471
331
476
  0
LAYOUT
  5
470
102
{ACAD_XDICTIONARY
360
4DD
102
}
102
{ACAD_REACTORS
330
463
102
}
330
463
100
AcDbPlotSettings
  1

  2
DocuPrint 3000-3
  4

  6

 40
0.0
 41
0.0
 42
0.0
 43
0.0
 44
0.0
 45
0.0
 46
0.0
 47
0.0
 48
0.0
 49
0.0
140
0.0
141
0.0
142
1.0
143
1.0
 70
   688
 72
     0
 73
     0
 74
     5
  7

 75
    16
147
1.0
148
0.0
149
0.0
100
AcDbLayout
  1
レイアウト1
 70
     0
 71
     1
 10
0.0
 20
0.0
 11
12.0
 21
9.0
 12
0.0
 22
0.0
 32
0.0
 14
1.000000000000000E+20
 24
1.000000000000000E+20
 34
1.000000000000000E+20
 15
-1.000000000000000E+20
 25
-1.000000000000000E+20
 35
-1.000000000000000E+20
146
0.0
 13
0.0
 23
0.0
 33
0.0
 16
1.0
 26
0.0
 36
0.0
 17
0.0
 27
1.0
 37
0.0
 76
     0
330
46D
  0
MATERIAL
  5
41B
102
{ACAD_XDICTIONARY
360
41C
102
}
102
{ACAD_REACTORS
330
412
102
}
330
412
100
AcDbMaterial
  1
ByBlock
 72
     0
 43
0.0208333333333333
 43
0.0
 43
0.0
 43
0.0
 43
0.0
 43
0.0208333333333333
 43
0.0
 43
0.0
 43
0.0
 43
0.0
 43
1.0
 43
0.0
 43
0.0
 43
0.0
 43
0.0
 43
1.0
 77
     0
 47
0.0208333333333333
 47
0.0
 47
0.0
 47
0.0
 47
0.0
 47
0.0208333333333333
 47
0.0
 47
0.0
 47
0.0
 47
0.0
 47
1.0
 47
0.0
 47
0.0
 47
0.0
 47
0.0
 47
1.0
171
     0
 49
0.0208333333333333
 49
0.0
 49
0.0
 49
0.0
 49
0.0
 49
0.0208333333333333
 49
0.0
 49
0.0
 49
0.0
 49
0.0
 49
1.0
 49
0.0
 49
0.0
 49
0.0
 49
0.0
 49
1.0
175
     0
142
0.0208333333333333
142
0.0
142
0.0
142
0.0
142
0.0
142
0.0208333333333333
142
0.0
142
0.0
142
0.0
142
0.0
142
1.0
142
0.0
142
0.0
142
0.0
142
0.0
142
1.0
179
     0
144
0.0208333333333333
144
0.0
144
0.0
144
0.0
144
0.0
144
0.0208333333333333
144
0.0
144
0.0
144
0.0
144
0.0
144
1.0
144
0.0
144
0.0
144
0.0
144
0.0
144
1.0
147
0.0208333333333333
147
0.0
147
0.0
147
0.0
147
0.0
147
0.0208333333333333
147
0.0
147
0.0
147
0.0
147
0.0
147
1.0
147
0.0
147
0.0
147
0.0
147
0.0
147
1.0
  0
MATERIAL
  5
413
102
{ACAD_XDICTIONARY
360
414
102
}
102
{ACAD_REACTORS
330
412
102
}
330
412
100
AcDbMaterial
  1
ByLayer
 72
     0
 43
0.0208333333333333
 43
0.0
 43
0.0
 43
0.0
 43
0.0
 43
0.0208333333333333
 43
0.0
 43
0.0
 43
0.0
 43
0.0
 43
1.0
 43
0.0
 43
0.0
 43
0.0
 43
0.0
 43
1.0
 77
     0
 47
0.0208333333333333
 47
0.0
 47
0.0
 47
0.0
 47
0.0
 47
0.0208333333333333
 47
0.0
 47
0.0
 47
0.0
 47
0.0
 47
1.0
 47
0.0
 47
0.0
 47
0.0
 47
0.0
 47
1.0
171
     0
 49
0.0208333333333333
 49
0.0
 49
0.0
 49
0.0
 49
0.0
 49
0.0208333333333333
 49
0.0
 49
0.0
 49
0.0
 49
0.0
 49
1.0
 49
0.0
 49
0.0
 49
0.0
 49
0.0
 49
1.0
175
     0
142
0.0208333333333333
142
0.0
142
0.0
142
0.0
142
0.0
142
0.0208333333333333
142
0.0
142
0.0
142
0.0
142
0.0
142
1.0
142
0.0
142
0.0
142
0.0
142
0.0
142
1.0
179
     0
144
0.0208333333333333
144
0.0
144
0.0
144
0.0
144
0.0
144
0.0208333333333333
144
0.0
144
0.0
144
0.0
144
0.0
144
1.0
144
0.0
144
0.0
144
0.0
144
0.0
144
1.0
147
0.0208333333333333
147
0.0
147
0.0
147
0.0
147
0.0
147
0.0208333333333333
147
0.0
147
0.0
147
0.0
147
0.0
147
1.0
147
0.0
147
0.0
147
0.0
147
0.0
147
1.0
  0
MATERIAL
  5
423
102
{ACAD_XDICTIONARY
360
424
102
}
102
{ACAD_REACTORS
330
412
102
}
330
412
100
AcDbMaterial
  1
Global
 72
     0
 43
0.0208333333333333
 43
0.0
 43
0.0
 43
0.0
 43
0.0
 43
0.0208333333333333
 43
0.0
 43
0.0
 43
0.0
 43
0.0
 43
1.0
 43
0.0
 43
0.0
 43
0.0
 43
0.0
 43
1.0
 77
     0
 47
0.0208333333333333
 47
0.0
 47
0.0
 47
0.0
 47
0.0
 47
0.0208333333333333
 47
0.0
 47
0.0
 47
0.0
 47
0.0
 47
1.0
 47
0.0
 47
0.0
 47
0.0
 47
0.0
 47
1.0
171
     0
 49
0.0208333333333333
 49
0.0
 49
0.0
 49
0.0
 49
0.0
 49
0.0208333333333333
 49
0.0
 49
0.0
 49
0.0
 49
0.0
 49
1.0
 49
0.0
 49
0.0
 49
0.0
 49
0.0
 49
1.0
175
     0
142
0.0208333333333333
142
0.0
142
0.0
142
0.0
142
0.0
142
0.0208333333333333
142
0.0
142
0.0
142
0.0
142
0.0
142
1.0
142
0.0
142
0.0
142
0.0
142
0.0
142
1.0
179
     0
144
0.0208333333333333
144
0.0
144
0.0
144
0.0
144
0.0
144
0.0208333333333333
144
0.0
144
0.0
144
0.0
144
0.0
144
1.0
144
0.0
144
0.0
144
0.0
144
0.0
144
1.0
147
0.0208333333333333
147
0.0
147
0.0
147
0.0
147
0.0
147
0.0208333333333333
147
0.0
147
0.0
147
0.0
147
0.0
147
1.0
147
0.0
147
0.0
147
0.0
147
0.0
147
1.0
  0
MLEADERSTYLE
  5
468
102
{ACAD_REACTORS
330
467
102
}
330
467
100
AcDbMLeaderStyle
170
     2
171
     1
172
     0
 90
        2
 40
0.0
 41
0.0
173
     1
 91
-1056964608
340
45C
 92
       -2
290
     1
 42
0.09
291
     1
 43
0.36
  3
Standard
 44
0.18
300

342
457
174
     1
178
     6
175
     1
176
     0
 93
-1056964608
 45
0.18
292
     0
297
     0
 46
0.18
 94
-1056964608
 47
1.0
 49
1.0
140
1.0
293
     1
141
0.0
294
     1
177
     0
142
1.0
295
     0
296
     0
143
0.125
1001
ACAD_MLEADERVER
1070
     2
  0
MLINESTYLE
  5
461
102
{ACAD_REACTORS
330
460
102
}
330
460
100
AcDbMlineStyle
  2
STANDARD
 70
     0
  3

 62
   256
 51
90.0
 52
90.0
 71
     2
 49
0.5
 62
   256
  6
BYLAYER
 49
-0.5
 62
   256
  6
BYLAYER
  0
ACDBPLACEHOLDER
  5
411
102
{ACAD_REACTORS
330
410
102
}
330
410
  0
SCALE
  5
445
102
{ACAD_REACTORS
330
444
102
}
330
444
100
AcDbScale
 70
     0
300
1:1
140
1.0
141
1.0
290
     1
  0
SCALE
  5
446
102
{ACAD_REACTORS
330
444
102
}
330
444
100
AcDbScale
 70
     0
300
1/128" = 1'-0"
140
0.0078125
141
12.0
290
     0
  0
SCALE
  5
447
102
{ACAD_REACTORS
330
444
102
}
330
444
100
AcDbScale
 70
     0
300
1/64" = 1'-0"
140
0.015625
141
12.0
290
     0
  0
SCALE
  5
448
102
{ACAD_REACTORS
330
444
102
}
330
444
100
AcDbScale
 70
     0
300
1/32" = 1'-0"
140
0.03125
141
12.0
290
     0
  0
SCALE
  5
449
102
{ACAD_REACTORS
330
444
102
}
330
444
100
AcDbScale
 70
     0
300
1/16" = 1'-0"
140
0.0625
141
12.0
290
     0
  0
SCALE
  5
44A
102
{ACAD_REACTORS
330
444
102
}
330
444
100
AcDbScale
 70
     0
300
3/32" = 1'-0"
140
0.09375
141
12.0
290
     0
  0
SCALE
  5
44B
102
{ACAD_REACTORS
330
444
102
}
330
444
100
AcDbScale
 70
     0
300
1/8" = 1'-0"
140
0.125
141
12.0
290
     0
  0
SCALE
  5
44C
102
{ACAD_REACTORS
330
444
102
}
330
444
100
AcDbScale
 70
     0
300
3/16" = 1'-0"
140
0.1875
141
12.0
290
     0
  0
SCALE
  5
44D
102
{ACAD_REACTORS
330
444
102
}
330
444
100
AcDbScale
 70
     0
300
1/4" = 1'-0"
140
0.25
141
12.0
290
     0
  0
SCALE
  5
44E
102
{ACAD_REACTORS
330
444
102
}
330
444
100
AcDbScale
 70
     0
300
3/8" = 1'-0"
140
0.375
141
12.0
290
     0
  0
SCALE
  5
44F
102
{ACAD_REACTORS
330
444
102
}
330
444
100
AcDbScale
 70
     0
300
1/2" = 1'-0"
140
0.5
141
12.0
290
     0
  0
SCALE
  5
450
102
{ACAD_REACTORS
330
444
102
}
330
444
100
AcDbScale
 70
     0
300
3/4" = 1'-0"
140
0.75
141
12.0
290
     0
  0
SCALE
  5
451
102
{ACAD_REACTORS
330
444
102
}
330
444
100
AcDbScale
 70
     0
300
1" = 1'-0"
140
1.0
141
12.0
290
     0
  0
SCALE
  5
452
102
{ACAD_REACTORS
330
444
102
}
330
444
100
AcDbScale
 70
     0
300
1-1/2" = 1'-0"
140
1.5
141
12.0
290
     0
  0
SCALE
  5
453
102
{ACAD_REACTORS
330
444
102
}
330
444
100
AcDbScale
 70
     0
300
3" = 1'-0"
140
3.0
141
12.0
290
     0
  0
SCALE
  5
454
102
{ACAD_REACTORS
330
444
102
}
330
444
100
AcDbScale
 70
     0
300
6" = 1'-0"
140
6.0
141
12.0
290
     0
  0
SCALE
  5
455
102
{ACAD_REACTORS
330
444
102
}
330
444
100
AcDbScale
 70
     0
300
1'-0" = 1'-0"
140
12.0
141
12.0
290
     0
  0
ACDBSECTIONVIEWSTYLE
  5
46A
102
{ACAD_XDICTIONARY
360
4D9
102
}
102
{ACAD_REACTORS
330
469
102
}
330
469
100
AcDbModelDocViewStyle
 70
     0
  3
Imperial24
290
     0
100
AcDbSectionViewStyle
 70
     0
 71
     0
 90
       78
 71
     1
340
457
 40
0.24
340
0
340
0
 40
0.24
300
I, O, Q, S, X, Z
 40
0.48
 90
        3
 40
0.18
 90
        1
 71
     2
340
45E
 90
       25
340
45E
 90
       50
 40
0.24
 40
0.0
 40
0.24
 71
     3
340
457
 40
0.24
 90
        1
 40
0.75
 90
        1
300
%<\AcVar ViewType \f "%tc1">% %<\AcVar ViewSectionStartId>%-%<\AcVar ViewSectionEndId>%\PSCALE %<\AcVar ViewScale \f "%sn">%
 71
     4
300
ANSI31
 40
1.0
 90
        0
290
     0
290
     0
 90
        6
 40
0.0
 40
1.570796326794896
 40
0.2617993877991494
 40
1.308996938995747
 40
-0.2617993877991494
 40
1.832595714594046
  0
TABLESTYLE
  5
466
102
{ACAD_XDICTIONARY
360
4A0
102
}
102
{ACAD_REACTORS
330
465
102
}
330
465
100
AcDbTableStyle
  3
Standard
 70
     0
 71
     0
 40
0.06
 41
0.06
280
     0
281
     0
  7
STANDARD
140
0.18
170
     2
 62
     0
 63
     7
283
     0
274
    -2
284
     1
 64
     0
275
    -2
285
     1
 65
     0
276
    -2
286
     1
 66
     0
277
    -2
287
     1
 67
     0
278
    -2
288
     1
 68
     0
279
    -2
289
     1
 69
     0
  7
STANDARD
140
0.25
170
     5
 62
     0
 63
     7
283
     0
274
    -2
284
     1
 64
     0
275
    -2
285
     1
 65
     0
276
    -2
286
     1
 66
     0
277
    -2
287
     1
 67
     0
278
    -2
288
     1
 68
     0
279
    -2
289
     1
 69
     0
  7
STANDARD
140
0.18
170
     5
 62
     0
 63
     7
283
     0
274
    -2
284
     1
 64
     0
275
    -2
285
     1
 65
     0
276
    -2
286
     1
 66
     0
277
    -2
287
     1
 67
     0
278
    -2
288
     1
 68
     0
279
    -2
289
     1
 69
     0
  0
VISUALSTYLE
  5
431
102
{ACAD_XDICTIONARY
360
4B1
102
}
102
{ACAD_REACTORS
330
42B
102
}
330
42B
100
AcDbVisualStyle
  2
2dWireframe
 70
     4
 71
     0
 72
     2
 73
     0
 90
        0
 40
-0.6
 41
-30.0
 62
     5
 63
     7
 74
     1
 91
        4
 64
     7
 65
   257
 75
     1
175
     1
 42
1.0
 92
        0
 66
   257
 43
1.0
 76
     1
 77
     6
 78
     2
 67
     7
 79
     5
170
     0
171
     0
290
     0
174
     0
 93
        1
 44
0.0
173
     0
291
     0
 45
0.0
1001
ACAD
1000
AcDbSavedByObjectVersion
1070
     0
  0
VISUALSTYLE
  5
430
102
{ACAD_XDICTIONARY
360
4AF
102
}
102
{ACAD_REACTORS
330
42B
102
}
330
42B
100
AcDbVisualStyle
  2
Basic
 70
     7
 71
     1
 72
     0
 73
     1
 90
        0
 40
-0.6
 41
-30.0
 62
     5
 63
     7
 74
     0
 91
        4
 64
     7
 65
   257
 75
     1
175
     1
 42
1.0
 92
        8
 66
     7
 43
1.0
 76
     1
 77
     6
 78
     2
 67
     7
 79
     5
170
     0
171
     0
290
     0
174
     0
 93
        1
 44
0.0
173
     0
291
     1
 45
0.0
1001
ACAD
1000
AcDbSavedByObjectVersion
1070
     0
  0
VISUALSTYLE
  5
437
102
{ACAD_XDICTIONARY
360
4BD
102
}
102
{ACAD_REACTORS
330
42B
102
}
330
42B
100
AcDbVisualStyle
  2
Brighten
 70
    12
 71
     2
 72
     2
 73
     0
 90
        0
 40
-0.6
 41
-30.0
 62
     5
 63
     7
 74
     1
 91
        4
 64
     7
 65
   257
 75
     1
175
     1
 42
1.0
 92
        8
 66
     7
 43
1.0
 76
     1
 77
     6
 78
     2
 67
     7
 79
     5
170
     0
171
     0
290
     0
174
     0
 93
        1
 44
50.0
173
     0
291
     1
 45
0.0
1001
ACAD
1000
AcDbSavedByObjectVersion
1070
     0
  0
VISUALSTYLE
  5
43B
102
{ACAD_XDICTIONARY
360
4C5
102
}
102
{ACAD_REACTORS
330
42B
102
}
330
42B
100
AcDbVisualStyle
  2
ColorChange
 70
    16
 71
     2
 72
     2
 73
     3
 90
        0
 40
-0.6
 41
-30.0
 62
     5
 63
     8
 74
     1
 91
        4
 64
     7
 65
   257
 75
     1
175
     1
 42
1.0
 92
        8
 66
     8
 43
1.0
 76
     1
 77
     6
 78
     2
 67
     7
 79
     5
170
     0
171
     0
290
     0
174
     0
 93
        1
 44
0.0
173
     0
291
     1
 45
0.0
1001
ACAD
1000
AcDbSavedByObjectVersion
1070
     0
  0
VISUALSTYLE
  5
434
102
{ACAD_XDICTIONARY
360
4B7
102
}
102
{ACAD_REACTORS
330
42B
102
}
330
42B
100
AcDbVisualStyle
  2
Conceptual
 70
     9
 71
     3
 72
     2
 73
     0
 90
        0
 40
-0.6
 41
-30.0
 62
     5
 63
     7
 74
     2
 91
        2
 64
     7
 65
   257
 75
     1
175
     1
 42
179.0
 92
        8
 66
     7
 43
1.0
 76
     1
 77
     6
 78
     2
 67
     7
 79
     3
170
     0
171
     0
290
     0
174
     0
 93
        1
 44
0.0
173
     0
291
     0
 45
0.0
1001
ACAD
1000
AcDbSavedByObjectVersion
1070
     0
  0
VISUALSTYLE
  5
436
102
{ACAD_XDICTIONARY
360
4BB
102
}
102
{ACAD_REACTORS
330
42B
102
}
330
42B
100
AcDbVisualStyle
  2
Dim
 70
    11
 71
     2
 72
     2
 73
     0
 90
        0
 40
-0.6
 41
-30.0
 62
     5
 63
     7
 74
     1
 91
        4
 64
     7
 65
   257
 75
     1
175
     1
 42
1.0
 92
        8
 66
     7
 43
1.0
 76
     1
 77
     6
 78
     2
 67
     7
 79
     5
170
     0
171
     0
290
     0
174
     0
 93
        1
 44
-50.0
173
     0
291
     1
 45
0.0
1001
ACAD
1000
AcDbSavedByObjectVersion
1070
     0
  0
VISUALSTYLE
  5
443
102
{ACAD_XDICTIONARY
360
4D5
102
}
102
{ACAD_REACTORS
330
42B
102
}
330
42B
100
AcDbVisualStyle
  2
EdgeColorOff
 70
    22
 71
     2
 72
     2
 73
     0
 90
        0
 40
-0.6
 41
-30.0
 62
     5
 63
     7
 74
     1
 91
        4
 64
     7
 65
   257
 75
     1
175
     1
 42
1.0
 92
        8
 66
     7
 43
1.0
 76
     1
 77
     6
 78
     2
 67
     7
 79
     5
170
     0
171
     0
290
     0
174
     0
 93
        1
 44
0.0
173
     0
291
     1
 45
0.0
1001
ACAD
1000
AcDbSavedByObjectVersion
1070
     0
  0
VISUALSTYLE
  5
43A
102
{ACAD_XDICTIONARY
360
4C3
102
}
102
{ACAD_REACTORS
330
42B
102
}
330
42B
100
AcDbVisualStyle
  2
Facepattern
 70
    15
 71
     2
 72
     2
 73
     0
 90
        0
 40
-0.6
 41
-30.0
 62
     5
 63
     7
 74
     1
 91
        4
 64
     7
 65
   257
 75
     1
175
     1
 42
1.0
 92
        8
 66
     7
 43
1.0
 76
     1
 77
     6
 78
     2
 67
     7
 79
     5
170
     0
171
     0
290
     0
174
     0
 93
        1
 44
0.0
173
     0
291
     1
 45
0.0
1001
ACAD
1000
AcDbSavedByObjectVersion
1070
     0
  0
VISUALSTYLE
  5
42C
102
{ACAD_XDICTIONARY
360
4A7
102
}
102
{ACAD_REACTORS
330
42B
102
}
330
42B
100
AcDbVisualStyle
  2
Flat
 70
     0
 71
     2
 72
     1
 73
     1
 90
        2
 40
-0.6
 41
30.0
 62
     5
 63
     7
 74
     0
 91
        0
 64
     7
 65
   257
 75
     1
175
     1
 42
1.0
 92
        8
 66
     7
 43
1.0
 76
     1
 77
     6
 78
     2
 67
     7
 79
     5
170
     0
171
     0
290
     0
174
     0
 93
       13
 44
0.0
173
     0
291
     1
 45
0.0
1001
ACAD
1000
AcDbSavedByObjectVersion
1070
     0
  0
VISUALSTYLE
  5
42D
102
{ACAD_XDICTIONARY
360
4A9
102
}
102
{ACAD_REACTORS
330
42B
102
}
330
42B
100
AcDbVisualStyle
  2
FlatWithEdges
 70
     1
 71
     2
 72
     1
 73
     1
 90
        2
 40
-0.6
 41
30.0
 62
     5
 63
     7
 74
     1
 91
        0
 64
     7
 65
   257
 75
     1
175
     1
 42
1.0
 92
        0
 66
   257
 43
1.0
 76
     1
 77
     6
 78
     2
 67
     7
 79
     5
170
     0
171
     0
290
     0
174
     0
 93
       13
 44
0.0
173
     0
291
     1
 45
0.0
1001
ACAD
1000
AcDbSavedByObjectVersion
1070
     0
  0
VISUALSTYLE
  5
42E
102
{ACAD_XDICTIONARY
360
4AB
102
}
102
{ACAD_REACTORS
330
42B
102
}
330
42B
100
AcDbVisualStyle
  2
Gouraud
 70
     2
 71
     2
 72
     2
 73
     1
 90
        2
 40
-0.6
 41
30.0
 62
     5
 63
     7
 74
     0
 91
        0
 64
     7
 65
   257
 75
     1
175
     1
 42
1.0
 92
        0
 66
     7
 43
1.0
 76
     1
 77
     6
 78
     2
 67
     7
 79
     5
170
     0
171
     0
290
     0
174
     0
 93
       13
 44
0.0
173
     0
291
     1
 45
0.0
1001
ACAD
1000
AcDbSavedByObjectVersion
1070
     0
  0
VISUALSTYLE
  5
42F
102
{ACAD_XDICTIONARY
360
4AD
102
}
102
{ACAD_REACTORS
330
42B
102
}
330
42B
100
AcDbVisualStyle
  2
GouraudWithEdges
 70
     3
 71
     2
 72
     2
 73
     1
 90
        2
 40
-0.6
 41
30.0
 62
     5
 63
     7
 74
     1
 91
        0
 64
     7
 65
   257
 75
     1
175
     1
 42
1.0
 92
        0
 66
   257
 43
1.0
 76
     1
 77
     6
 78
     2
 67
     7
 79
     5
170
     0
171
     0
290
     0
174
     0
 93
       13
 44
0.0
173
     0
291
     1
 45
0.0
1001
ACAD
1000
AcDbSavedByObjectVersion
1070
     0
  0
VISUALSTYLE
  5
433
102
{ACAD_XDICTIONARY
360
4B5
102
}
102
{ACAD_REACTORS
330
42B
102
}
330
42B
100
AcDbVisualStyle
  2
Hidden
 70
     6
 71
     1
 72
     2
 73
     2
 90
        0
 40
-0.6
 41
-30.0
 62
     5
 63
     7
 74
     2
 91
        2
 64
     7
 65
   257
 75
     2
175
     1
 42
40.0
 92
        0
 66
   257
 43
1.0
 76
     1
 77
     6
 78
     2
 67
     7
 79
     3
170
     0
171
     0
290
     0
174
     0
 93
        1
 44
0.0
173
     0
291
     0
 45
0.0
1001
ACAD
1000
AcDbSavedByObjectVersion
1070
     0
  0
VISUALSTYLE
  5
441
102
{ACAD_XDICTIONARY
360
4D1
102
}
102
{ACAD_REACTORS
330
42B
102
}
330
42B
100
AcDbVisualStyle
  2
JitterOff
 70
    20
 71
     2
 72
     2
 73
     0
 90
        0
 40
-0.6
 41
-30.0
 62
     5
 63
     7
 74
     1
 91
        4
 64
     7
 65
   257
 75
     1
175
     1
 42
1.0
 92
       10
 66
     7
 43
1.0
 76
     1
 77
     6
 78
     2
 67
     7
 79
     5
170
     0
171
     0
290
     0
174
     0
 93
        1
 44
0.0
173
     0
291
     1
 45
0.0
1001
ACAD
1000
AcDbSavedByObjectVersion
1070
     0
  0
VISUALSTYLE
  5
439
102
{ACAD_XDICTIONARY
360
4C1
102
}
102
{ACAD_REACTORS
330
42B
102
}
330
42B
100
AcDbVisualStyle
  2
Linepattern
 70
    14
 71
     2
 72
     2
 73
     0
 90
        0
 40
-0.6
 41
-30.0
 62
     5
 63
     7
 74
     1
 91
        4
 64
     7
 65
   257
 75
     7
175
     7
 42
1.0
 92
        8
 66
     7
 43
1.0
 76
     1
 77
     6
 78
     2
 67
     7
 79
     5
170
     0
171
     0
290
     0
174
     0
 93
        1
 44
0.0
173
     0
291
     1
 45
0.0
1001
ACAD
1000
AcDbSavedByObjectVersion
1070
     0
  0
VISUALSTYLE
  5
442
102
{ACAD_XDICTIONARY
360
4D3
102
}
102
{ACAD_REACTORS
330
42B
102
}
330
42B
100
AcDbVisualStyle
  2
OverhangOff
 70
    21
 71
     2
 72
     2
 73
     0
 90
        0
 40
-0.6
 41
-30.0
 62
     5
 63
     7
 74
     1
 91
        4
 64
     7
 65
   257
 75
     1
175
     1
 42
1.0
 92
        9
 66
     7
 43
1.0
 76
     1
 77
     6
 78
     2
 67
     7
 79
     5
170
     0
171
     0
290
     0
174
     0
 93
        1
 44
0.0
173
     0
291
     1
 45
0.0
1001
ACAD
1000
AcDbSavedByObjectVersion
1070
     0
  0
VISUALSTYLE
  5
435
102
{ACAD_XDICTIONARY
360
4B9
102
}
102
{ACAD_REACTORS
330
42B
102
}
330
42B
100
AcDbVisualStyle
  2
Realistic
 70
     8
 71
     2
 72
     3
 73
     0
 90
        2
 40
-0.6
 41
30.0
 62
     5
 63
     7
 74
     0
 91
        0
 64
     7
 65
   257
 75
     1
175
     1
 42
1.0
 92
        8
 66
   257
 43
1.0
 76
     1
 77
     6
 78
     2
 67
     7
 79
     3
170
     0
171
     0
290
     0
174
     0
 93
       13
 44
0.0
173
     0
291
     0
 45
0.0
1001
ACAD
1000
AcDbSavedByObjectVersion
1070
     0
  0
VISUALSTYLE
  5
440
102
{ACAD_XDICTIONARY
360
4CF
102
}
102
{ACAD_REACTORS
330
42B
102
}
330
42B
100
AcDbVisualStyle
  2
Shaded
 70
    27
 71
     2
 72
     2
 73
     1
 90
        2
 40
-0.6
 41
30.0
 62
     5
 63
     7
 74
     0
 91
        4
 64
     7
 65
   257
 75
     1
175
     1
 42
1.0
 92
        8
 66
   257
 43
1.0
 76
     1
 77
     6
 78
     2
 67
     8
 79
     3
170
     0
171
     0
290
     0
174
     0
 93
        5
 44
0.0
173
     0
291
     0
 45
0.0
1001
ACAD
1000
AcDbSavedByObjectVersion
1070
     0
  0
VISUALSTYLE
  5
43F
102
{ACAD_XDICTIONARY
360
4CD
102
}
102
{ACAD_REACTORS
330
42B
102
}
330
42B
100
AcDbVisualStyle
  2
Shaded with edges
 70
    26
 71
     2
 72
     2
 73
     1
 90
        2
 40
-0.6
 41
30.0
 62
     5
 63
     7
 74
     1
 91
        2
 64
     7
 65
   257
 75
     2
175
     1
 42
1.0
 92
        8
 66
   257
 43
1.0
 76
     1
 77
     6
 78
     2
 67
     7
 79
     3
170
     0
171
     0
290
     0
174
     0
 93
        5
 44
0.0
173
     0
291
     0
 45
0.0
1001
ACAD
1000
AcDbSavedByObjectVersion
1070
     0
  0
VISUALSTYLE
  5
43C
102
{ACAD_XDICTIONARY
360
4C7
102
}
102
{ACAD_REACTORS
330
42B
102
}
330
42B
100
AcDbVisualStyle
  2
Shades of Gray
 70
    23
 71
     2
 72
     2
 73
     3
 90
        0
 40
-0.6
 41
-30.0
 62
     5
 63
     7
 74
     2
 91
        2
 64
     7
 65
     7
 75
     1
175
     1
 42
40.0
 92
        8
 66
     7
 43
1.0
 76
     1
 77
     6
 78
     2
 67
     7
 79
     3
170
     0
171
     0
290
     0
174
     0
 93
        1
 44
0.0
173
     0
291
     0
 45
0.0
1001
ACAD
1000
AcDbSavedByObjectVersion
1070
     0
  0
VISUALSTYLE
  5
43D
102
{ACAD_XDICTIONARY
360
4C9
102
}
102
{ACAD_REACTORS
330
42B
102
}
330
42B
100
AcDbVisualStyle
  2
Sketchy
 70
    24
 71
     1
 72
     2
 73
     2
 90
        0
 40
-0.6
 41
-30.0
 62
     5
 63
     7
 74
     2
 91
        2
 64
     7
 65
     7
 75
     1
175
     1
 42
40.0
 92
       11
 66
     7
 43
1.0
 76
     1
 77
     6
 78
     2
 67
     7
 79
     6
170
     0
171
     0
290
     0
174
     0
 93
        1
 44
0.0
173
     0
291
     0
 45
0.0
1001
ACAD
1000
AcDbSavedByObjectVersion
1070
     0
  0
VISUALSTYLE
  5
438
102
{ACAD_XDICTIONARY
360
4BF
102
}
102
{ACAD_REACTORS
330
42B
102
}
330
42B
100
AcDbVisualStyle
  2
Thicken
 70
    13
 71
     2
 72
     2
 73
     0
 90
        0
 40
-0.6
 41
-30.0
 62
     5
 63
     7
 74
     1
 91
        4
 64
     7
 65
   257
 75
     1
175
     1
 42
1.0
 92
       12
 66
     7
 43
1.0
 76
     1
 77
     6
 78
     2
 67
     7
 79
     5
170
     0
171
     0
290
     0
174
     0
 93
        1
 44
0.0
173
     0
291
     1
 45
0.0
1001
ACAD
1000
AcDbSavedByObjectVersion
1070
     0
  0
VISUALSTYLE
  5
432
102
{ACAD_XDICTIONARY
360
4B3
102
}
102
{ACAD_REACTORS
330
42B
102
}
330
42B
100
AcDbVisualStyle
  2
Wireframe
 70
     5
 71
     0
 72
     2
 73
     0
 90
        0
 40
-0.6
 41
-30.0
 62
     5
 63
     7
 74
     1
 91
        4
 64
     7
 65
   257
 75
     1
175
     1
 42
1.0
 92
        0
 66
   257
 43
1.0
 76
     1
 77
     6
 78
     2
 67
     7
 79
     3
170
     0
171
     0
290
     0
174
     0
 93
        1
 44
0.0
173
     0
291
     0
 45
0.0
1001
ACAD
1000
AcDbSavedByObjectVersion
1070
     0
  0
VISUALSTYLE
  5
43E
102
{ACAD_XDICTIONARY
360
4CB
102
}
102
{ACAD_REACTORS
330
42B
102
}
330
42B
100
AcDbVisualStyle
  2
X-Ray
 70
    25
 71
     2
 72
     2
 73
     1
 90
        1
 40
0.5
 41
-30.0
 62
     5
 63
     7
 74
     1
 91
        0
 64
     7
 65
   257
 75
     1
175
     1
 42
1.0
 92
        8
 66
     7
 43
1.0
 76
     1
 77
     6
 78
     2
 67
     7
 79
     3
170
     0
171
     0
290
     0
174
     0
 93
       13
 44
0.0
173
     0
291
     0
 45
0.0
1001
ACAD
1000
AcDbSavedByObjectVersion
1070
     0
  0
DICTIONARYVAR
  5
49A
102
{ACAD_REACTORS
330
495
102
}
330
495
100
DictionaryVariables
280
     0
  1
1:1
  0
DICTIONARYVAR
  5
497
102
{ACAD_REACTORS
330
495
102
}
330
495
100
DictionaryVariables
280
     0
  1
STANDARD
  0
DICTIONARYVAR
  5
496
102
{ACAD_REACTORS
330
495
102
}
330
495
100
DictionaryVariables
280
     0
  1
STANDARD
  0
DICTIONARYVAR
  5
498
102
{ACAD_REACTORS
330
495
102
}
330
495
100
DictionaryVariables
280
     0
  1
Imperial24
  0
DICTIONARYVAR
  5
499
102
{ACAD_REACTORS
330
495
102
}
330
495
100
DictionaryVariables
280
     0
  1
Imperial24
  0
DICTIONARYVAR
  5
49D
102
{ACAD_REACTORS
330
495
102
}
330
495
100
DictionaryVariables
280
     0
  1
1
  0
DICTIONARYVAR
  5
49C
102
{ACAD_REACTORS
330
495
102
}
330
495
100
DictionaryVariables
280
     0
  1
0
  0
DICTIONARYVAR
  5
49B
102
{ACAD_REACTORS
330
495
102
}
330
495
100
DictionaryVariables
280
     0
  1
127
  0
DICTIONARYVAR
  5
49E
102
{ACAD_REACTORS
330
495
102
}
330
495
100
DictionaryVariables
280
     0
  1
2
  0
DICTIONARY
  5
4DB
330
46C
100
AcDbDictionary
280
     1
281
     1
  3
ACAD_XREC_ROUNDTRIP
360
4DC
  0
DICTIONARY
  5
4DF
330
474
100
AcDbDictionary
280
     1
281
     1
  3
ACAD_XREC_ROUNDTRIP
360
4E0
  0
DICTIONARY
  5
4DD
330
470
100
AcDbDictionary
280
     1
281
     1
  3
ACAD_XREC_ROUNDTRIP
360
4DE
  0
DICTIONARY
  5
41C
330
41B
100
AcDbDictionary
280
     1
281
     1
  3
ACAD_XREC_ROUNDTRIP
360
4A5
  3
BUMPTILE
360
41E
  3
DIFFUSETILE
360
41D
  3
OPACITYTILE
360
421
  3
REFLECTIONTILE
360
420
  3
REFRACTIONTILE
360
422
  3
SPECULARTILE
360
41F
  0
DICTIONARY
  5
414
330
413
100
AcDbDictionary
280
     1
281
     1
  3
ACAD_XREC_ROUNDTRIP
360
4A4
  3
BUMPTILE
360
416
  3
DIFFUSETILE
360
415
  3
OPACITYTILE
360
419
  3
REFLECTIONTILE
360
418
  3
REFRACTIONTILE
360
41A
  3
SPECULARTILE
360
417
  0
DICTIONARY
  5
424
330
423
100
AcDbDictionary
280
     1
281
     1
  3
ACAD_XREC_ROUNDTRIP
360
4A6
  3
BUMPTILE
360
426
  3
DIFFUSETILE
360
425
  3
OPACITYTILE
360
429
  3
REFLECTIONTILE
360
428
  3
REFRACTIONTILE
360
42A
  3
SPECULARTILE
360
427
  0
DICTIONARY
  5
4D9
330
46A
100
AcDbDictionary
280
     1
281
     1
  3
ACAD_XREC_ROUNDTRIP
360
4DA
  0
DICTIONARY
  5
4A0
330
466
100
AcDbDictionary
280
     1
281
     1
  3
ACAD_ROUNDTRIP_2008_TABLESTYLE_CELLSTYLEMAP
360
4A1
  3
ACAD_XREC_ROUNDTRIP
360
4D7
  0
DICTIONARY
  5
4B1
330
431
100
AcDbDictionary
280
     1
281
     1
  3
ACAD_XREC_ROUNDTRIP
360
4B2
  0
DICTIONARY
  5
4AF
330
430
100
AcDbDictionary
280
     1
281
     1
  3
ACAD_XREC_ROUNDTRIP
360
4B0
  0
DICTIONARY
  5
4BD
330
437
100
AcDbDictionary
280
     1
281
     1
  3
ACAD_XREC_ROUNDTRIP
360
4BE
  0
DICTIONARY
  5
4C5
330
43B
100
AcDbDictionary
280
     1
281
     1
  3
ACAD_XREC_ROUNDTRIP
360
4C6
  0
DICTIONARY
  5
4B7
330
434
100
AcDbDictionary
280
     1
281
     1
  3
ACAD_XREC_ROUNDTRIP
360
4B8
  0
DICTIONARY
  5
4BB
330
436
100
AcDbDictionary
280
     1
281
     1
  3
ACAD_XREC_ROUNDTRIP
360
4BC
  0
DICTIONARY
  5
4D5
330
443
100
AcDbDictionary
280
     1
281
     1
  3
ACAD_XREC_ROUNDTRIP
360
4D6
  0
DICTIONARY
  5
4C3
330
43A
100
AcDbDictionary
280
     1
281
     1
  3
ACAD_XREC_ROUNDTRIP
360
4C4
  0
DICTIONARY
  5
4A7
330
42C
100
AcDbDictionary
280
     1
281
     1
  3
ACAD_XREC_ROUNDTRIP
360
4A8
  0
DICTIONARY
  5
4A9
330
42D
100
AcDbDictionary
280
     1
281
     1
  3
ACAD_XREC_ROUNDTRIP
360
4AA
  0
DICTIONARY
  5
4AB
330
42E
100
AcDbDictionary
280
     1
281
     1
  3
ACAD_XREC_ROUNDTRIP
360
4AC
  0
DICTIONARY
  5
4AD
330
42F
100
AcDbDictionary
280
     1
281
     1
  3
ACAD_XREC_ROUNDTRIP
360
4AE
  0
DICTIONARY
  5
4B5
330
433
100
AcDbDictionary
280
     1
281
     1
  3
ACAD_XREC_ROUNDTRIP
360
4B6
  0
DICTIONARY
  5
4D1
330
441
100
AcDbDictionary
280
     1
281
     1
  3
ACAD_XREC_ROUNDTRIP
360
4D2
  0
DICTIONARY
  5
4C1
330
439
100
AcDbDictionary
280
     1
281
     1
  3
ACAD_XREC_ROUNDTRIP
360
4C2
  0
DICTIONARY
  5
4D3
330
442
100
AcDbDictionary
280
     1
281
     1
  3
ACAD_XREC_ROUNDTRIP
360
4D4
  0
DICTIONARY
  5
4B9
330
435
100
AcDbDictionary
280
     1
281
     1
  3
ACAD_XREC_ROUNDTRIP
360
4BA
  0
DICTIONARY
  5
4CF
330
440
100
AcDbDictionary
280
     1
281
     1
  3
ACAD_XREC_ROUNDTRIP
360
4D0
  0
DICTIONARY
  5
4CD
330
43F
100
AcDbDictionary
280
     1
281
     1
  3
ACAD_XREC_ROUNDTRIP
360
4CE
  0
DICTIONARY
  5
4C7
330
43C
100
AcDbDictionary
280
     1
281
     1
  3
ACAD_XREC_ROUNDTRIP
360
4C8
  0
DICTIONARY
  5
4C9
330
43D
100
AcDbDictionary
280
     1
281
     1
  3
ACAD_XREC_ROUNDTRIP
360
4CA
  0
DICTIONARY
  5
4BF
330
438
100
AcDbDictionary
280
     1
281
     1
  3
ACAD_XREC_ROUNDTRIP
360
4C0
  0
DICTIONARY
  5
4B3
330
432
100
AcDbDictionary
280
     1
281
     1
  3
ACAD_XREC_ROUNDTRIP
360
4B4
  0
DICTIONARY
  5
4CB
330
43E
100
AcDbDictionary
280
     1
281
     1
  3
ACAD_XREC_ROUNDTRIP
360
4CC
  0
XRECORD
  5
4DC
102
{ACAD_REACTORS
330
4DB
102
}
330
4DB
100
AcDbXrecord
280
     1
102
DISPLAYNAME
  1
Imperial24
102
FLAGS
 90
        0
  0
XRECORD
  5
4E0
102
{ACAD_REACTORS
330
4DF
102
}
330
4DF
100
AcDbXrecord
280
     1
102
SHADEPLOT
 70
     0
102
SHADEPLOTRESLEVEL
 70
     2
102
SHADEPLOTCUSTOMDPI
 70
   300
  0
XRECORD
  5
4DE
102
{ACAD_REACTORS
330
4DD
102
}
330
4DD
100
AcDbXrecord
280
     1
102
SHADEPLOT
 70
     0
102
SHADEPLOTRESLEVEL
 70
     2
102
SHADEPLOTCUSTOMDPI
 70
   300
  0
XRECORD
  5
4A5
102
{ACAD_REACTORS
330
41C
102
}
330
41C
100
AcDbXrecord
280
     1
102
MATERIAL
148
0.0
149
0.0
149
0.0
 93
        0
 94
      127
282
     0
 72
     0
 77
     0
171
     0
175
     0
179
     0
273
     0
  0
XRECORD
  5
41E
102
{ACAD_REACTORS
330
41C
102
}
330
41C
100
AcDbXrecord
280
     1
270
     1
271
     1
  0
XRECORD
  5
41D
102
{ACAD_REACTORS
330
41C
102
}
330
41C
100
AcDbXrecord
280
     1
270
     1
271
     1
  0
XRECORD
  5
421
102
{ACAD_REACTORS
330
41C
102
}
330
41C
100
AcDbXrecord
280
     1
270
     1
271
     1
  0
XRECORD
  5
420
102
{ACAD_REACTORS
330
41C
102
}
330
41C
100
AcDbXrecord
280
     1
270
     1
271
     1
  0
XRECORD
  5
422
102
{ACAD_REACTORS
330
41C
102
}
330
41C
100
AcDbXrecord
280
     1
270
     1
271
     1
  0
XRECORD
  5
41F
102
{ACAD_REACTORS
330
41C
102
}
330
41C
100
AcDbXrecord
280
     1
270
     1
271
     1
  0
XRECORD
  5
4A4
102
{ACAD_REACTORS
330
414
102
}
330
414
100
AcDbXrecord
280
     1
102
MATERIAL
148
0.0
149
0.0
149
0.0
 93
        0
 94
      127
282
     0
 72
     0
 77
     0
171
     0
175
     0
179
     0
273
     0
  0
XRECORD
  5
416
102
{ACAD_REACTORS
330
414
102
}
330
414
100
AcDbXrecord
280
     1
270
     1
271
     1
  0
XRECORD
  5
415
102
{ACAD_REACTORS
330
414
102
}
330
414
100
AcDbXrecord
280
     1
270
     1
271
     1
  0
XRECORD
  5
419
102
{ACAD_REACTORS
330
414
102
}
330
414
100
AcDbXrecord
280
     1
270
     1
271
     1
  0
XRECORD
  5
418
102
{ACAD_REACTORS
330
414
102
}
330
414
100
AcDbXrecord
280
     1
270
     1
271
     1
  0
XRECORD
  5
41A
102
{ACAD_REACTORS
330
414
102
}
330
414
100
AcDbXrecord
280
     1
270
     1
271
     1
  0
XRECORD
  5
417
102
{ACAD_REACTORS
330
414
102
}
330
414
100
AcDbXrecord
280
     1
270
     1
271
     1
  0
XRECORD
  5
4A6
102
{ACAD_REACTORS
330
424
102
}
330
424
100
AcDbXrecord
280
     1
102
MATERIAL
148
0.0
149
0.0
149
0.0
 93
        0
 94
      127
282
     0
 72
     0
 77
     0
171
     0
175
     0
179
     0
273
     0
  0
XRECORD
  5
426
102
{ACAD_REACTORS
330
424
102
}
330
424
100
AcDbXrecord
280
     1
270
     1
271
     1
  0
XRECORD
  5
425
102
{ACAD_REACTORS
330
424
102
}
330
424
100
AcDbXrecord
280
     1
270
     1
271
     1
  0
XRECORD
  5
429
102
{ACAD_REACTORS
330
424
102
}
330
424
100
AcDbXrecord
280
     1
270
     1
271
     1
  0
XRECORD
  5
428
102
{ACAD_REACTORS
330
424
102
}
330
424
100
AcDbXrecord
280
     1
270
     1
271
     1
  0
XRECORD
  5
42A
102
{ACAD_REACTORS
330
424
102
}
330
424
100
AcDbXrecord
280
     1
270
     1
271
     1
  0
XRECORD
  5
427
102
{ACAD_REACTORS
330
424
102
}
330
424
100
AcDbXrecord
280
     1
270
     1
271
     1
  0
XRECORD
  5
4DA
102
{ACAD_REACTORS
330
4D9
102
}
330
4D9
100
AcDbXrecord
280
     1
102
DISPLAYNAME
  1
Imperial24
102
FLAGS
 90
        0
  0
CELLSTYLEMAP
  5
4A1
102
{ACAD_REACTORS
330
4A0
102
}
330
4A0
100
AcDbCellStyleMap
 90
        3
300
CELLSTYLE
  1
TABLEFORMAT_BEGIN
 90
        5
170
     1
 91
        0
 92
    32768
 62
   257
 93
        1
300
CONTENTFORMAT
  1
CONTENTFORMAT_BEGIN
 90
        0
 91
        0
 92
      512
 93
        0
300

 40
0.0
140
1.0
 94
        5
 62
     0
340
457
144
0.25
309
CONTENTFORMAT_END
171
     0
 94
        0
309
TABLEFORMAT_END
  1
CELLSTYLE_BEGIN
 90
        1
 91
        1
300
_TITLE
309
CELLSTYLE_END
300
CELLSTYLE
  1
TABLEFORMAT_BEGIN
 90
        5
170
     1
 91
        0
 92
        0
 62
   257
 93
        1
300
CONTENTFORMAT
  1
CONTENTFORMAT_BEGIN
 90
        0
 91
        0
 92
      512
 93
        0
300

 40
0.0
140
1.0
 94
        5
 62
     0
340
457
144
0.18
309
CONTENTFORMAT_END
171
     0
 94
        0
309
TABLEFORMAT_END
  1
CELLSTYLE_BEGIN
 90
        2
 91
        1
300
_HEADER
309
CELLSTYLE_END
300
CELLSTYLE
  1
TABLEFORMAT_BEGIN
 90
        5
170
     1
 91
        0
 92
        0
 62
   257
 93
        1
300
CONTENTFORMAT
  1
CONTENTFORMAT_BEGIN
 90
        0
 91
        0
 92
      512
 93
        0
300

 40
0.0
140
1.0
 94
        2
 62
     0
340
457
144
0.18
309
CONTENTFORMAT_END
171
     0
 94
        0
309
TABLEFORMAT_END
  1
CELLSTYLE_BEGIN
 90
        3
 91
        2
300
_DATA
309
CELLSTYLE_END
  0
XRECORD
  5
4D7
102
{ACAD_REACTORS
330
4A0
102
}
330
4A0
100
AcDbXrecord
280
     1
102
ACAD_ROUNDTRIP_PRE2007_TABLESTYLE
 90
      512
 91
        0
  1

 92
      512
 93
        0
  2

 94
      512
 95
        0
  3

  0
XRECORD
  5
4B2
102
{ACAD_REACTORS
330
4B1
102
}
330
4B1
100
AcDbXrecord
280
     1
102
RTVSPost2010Prop28
280
     1
102
RTVSPost2010PropOp28
 70
     1
102
RTVSPost2010Prop29
280
     1
102
RTVSPost2010PropOp29
 70
     1
102
RTVSPost2010Prop30
280
     0
102
RTVSPost2010PropOp30
 70
     1
102
RTVSPost2010Prop31
280
     0
102
RTVSPost2010PropOp31
 70
     1
102
RTVSPost2010Prop32
280
     0
102
RTVSPost2010PropOp32
 70
     1
102
RTVSPost2010Prop33
280
     0
102
RTVSPost2010PropOp33
 70
     1
102
RTVSPost2010Prop34
280
     0
102
RTVSPost2010PropOp34
 70
     1
102
RTVSPost2010Prop35
280
     0
102
RTVSPost2010PropOp35
 70
     1
102
RTVSPost2010Prop36
280
     0
102
RTVSPost2010PropOp36
 70
     1
102
RTVSPost2010Prop37
 90
       50
102
RTVSPost2010PropOp37
 70
     1
102
RTVSPost2010Prop38
140
0.0
102
RTVSPost2010PropOp38
 70
     1
102
RTVSPost2010Prop39
140
1.0
102
RTVSPost2010PropOp39
 70
     1
102
RTVSPost2010Prop40
 90
        0
102
RTVSPost2010PropOp40
 70
     1
102
RTVSPost2010Prop41ColorIndex
 90
       18
102
RTVSPost2010Prop41ColorRGB
 90
        0
102
RTVSPost2010PropOp41
 70
     1
102
RTVSPost2010Prop42
 90
       50
102
RTVSPost2010PropOp42
 70
     1
102
RTVSPost2010Prop43
 90
        3
102
RTVSPost2010PropOp43
 70
     1
102
RTVSPost2010Prop44ColorIndex
 90
        5
102
RTVSPost2010Prop44ColorRGB
 90
      255
102
RTVSPost2010PropOp44
 70
     1
102
RTVSPost2010Prop45
280
     0
102
RTVSPost2010PropOp45
 70
     1
102
RTVSPost2010Prop46
 90
       50
102
RTVSPost2010PropOp46
 70
     1
102
RTVSPost2010Prop47
 90
       50
102
RTVSPost2010PropOp47
 70
     1
102
RTVSPost2010Prop48
 90
       50
102
RTVSPost2010PropOp48
 70
     1
102
RTVSPost2010Prop49
280
     0
102
RTVSPost2010PropOp49
 70
     1
102
RTVSPost2010Prop50
 90
       50
102
RTVSPost2010PropOp50
 70
     1
102
RTVSPost2010Prop51ColorIndex
 90
      256
102
RTVSPost2010Prop51ColorRGB
 90
-16777216
102
RTVSPost2010PropOp51
 70
     0
102
RTVSPost2010Prop52
140
1.0
102
RTVSPost2010PropOp52
 70
     0
102
RTVSPost2010Prop53
 90
        2
102
RTVSPost2010PropOp53
 70
     1
102
RTVSPost2010Prop54
  1
strokes_ogs.tif
102
RTVSPost2010PropOp54
 70
     1
102
RTVSPost2010Prop55
280
     0
102
RTVSPost2010PropOp55
 70
     1
102
RTVSPost2010Prop56
140
1.0
102
RTVSPost2010PropOp56
 70
     1
102
RTVSPost2010Prop57
140
1.0
102
RTVSPost2010PropOp57
 70
     1
102
RTVSPropertyOp0
 70
     1
102
RTVSPropertyOp1
 70
     1
102
RTVSPropertyOp2
 70
     1
102
RTVSPropertyOp3
 70
     1
102
RTVSPropertyOp4
 70
     1
102
RTVSPropertyOp5
 70
     1
102
RTVSPropertyOp6
 70
     1
102
RTVSPropertyOp7
 70
     1
102
RTVSPropertyOp8
 70
     1
102
RTVSPropertyOp9
 70
     1
102
RTVSPropertyOp10
 70
     1
102
RTVSPropertyOp11
 70
     1
102
RTVSPropertyOp12
 70
     1
102
RTVSPropertyOp13
 70
     1
102
RTVSPropertyOp14
 70
     1
102
RTVSPropertyOp15
 70
     1
102
RTVSPropertyOp16
 70
     1
102
RTVSPropertyOp17
 70
     1
102
RTVSPropertyOp18
 70
     1
102
RTVSPropertyOp19
 70
     1
102
RTVSPropertyOp20
 70
     1
102
RTVSPropertyOp21
 70
     1
102
RTVSPropertyOp22
 70
     1
102
RTVSPropertyOp23
 70
     1
102
RTVSPropertyOp24
 70
     1
102
RTVSPropertyOp25
 70
     1
102
RTVSPropertyOp26
 70
     1
102
RTVSPropertyOp27
 70
     1
102
RTVSPropertyOp28
 70
     1
102
RTVSPropertyOp29
 70
     1
102
RTVSPropertyOp30
 70
     1
102
RTVSPropertyOp31
 70
     1
102
RTVSPropertyOp32
 70
     1
102
RTVSPropertyOp33
 70
     1
102
RTVSPropertyOp34
 70
     1
102
RTVSPropertyOp35
 70
     1
102
RTVSPropertyOp36
 70
     1
102
RTVSPropertyOp37
 70
     1
102
RTVSPropertyOp38
 70
     1
102
RTVSPropertyOp39
 70
     1
102
RTVSPropertyOp40
 70
     1
102
RTVSPropertyOp41
 70
     1
102
RTVSPropertyOp42
 70
     1
102
RTVSPropertyOp43
 70
     1
102
RTVSPropertyOp44
 70
     1
102
RTVSPropertyOp45
 70
     1
102
RTVSPropertyOp46
 70
     1
102
RTVSPropertyOp47
 70
     1
102
RTVSPropertyOp48
 70
     1
102
RTVSPropertyOp49
 70
     1
102
RTVSPropertyOp50
 70
     1
102
RTVSPropertyOp51
 70
     0
102
RTVSPropertyOp52
 70
     0
102
RTVSPropertyOp53
 70
     1
102
RTVSPropertyOp54
 70
     1
102
RTVSPropertyOp55
 70
     1
102
RTVSPropertyOp56
 70
     1
102
RTVSPropertyOp57
 70
     1
102
RTVSPropertyOp58
 70
     1
102
RTVSPropertyOp59
 70
     1
102
RTVSPropertyOp60
 70
     1
102
RTVSPropertyOp61
 70
     1
102
RTVSPropertyOp62
 70
     1
  0
XRECORD
  5
4B0
102
{ACAD_REACTORS
330
4AF
102
}
330
4AF
100
AcDbXrecord
280
     1
102
RTVSPost2010Prop28
280
     0
102
RTVSPost2010PropOp28
 70
     1
102
RTVSPost2010Prop29
280
     1
102
RTVSPost2010PropOp29
 70
     1
102
RTVSPost2010Prop30
280
     1
102
RTVSPost2010PropOp30
 70
     1
102
RTVSPost2010Prop31
280
     0
102
RTVSPost2010PropOp31
 70
     1
102
RTVSPost2010Prop32
280
     0
102
RTVSPost2010PropOp32
 70
     1
102
RTVSPost2010Prop33
280
     0
102
RTVSPost2010PropOp33
 70
     1
102
RTVSPost2010Prop34
280
     0
102
RTVSPost2010PropOp34
 70
     1
102
RTVSPost2010Prop35
280
     0
102
RTVSPost2010PropOp35
 70
     1
102
RTVSPost2010Prop36
280
     0
102
RTVSPost2010PropOp36
 70
     1
102
RTVSPost2010Prop37
 90
       50
102
RTVSPost2010PropOp37
 70
     1
102
RTVSPost2010Prop38
140
0.0
102
RTVSPost2010PropOp38
 70
     1
102
RTVSPost2010Prop39
140
1.0
102
RTVSPost2010PropOp39
 70
     1
102
RTVSPost2010Prop40
 90
        0
102
RTVSPost2010PropOp40
 70
     1
102
RTVSPost2010Prop41ColorIndex
 90
       18
102
RTVSPost2010Prop41ColorRGB
 90
        0
102
RTVSPost2010PropOp41
 70
     1
102
RTVSPost2010Prop42
 90
       50
102
RTVSPost2010PropOp42
 70
     1
102
RTVSPost2010Prop43
 90
        3
102
RTVSPost2010PropOp43
 70
     1
102
RTVSPost2010Prop44ColorIndex
 90
        5
102
RTVSPost2010Prop44ColorRGB
 90
      255
102
RTVSPost2010PropOp44
 70
     1
102
RTVSPost2010Prop45
280
     0
102
RTVSPost2010PropOp45
 70
     1
102
RTVSPost2010Prop46
 90
       50
102
RTVSPost2010PropOp46
 70
     1
102
RTVSPost2010Prop47
 90
       50
102
RTVSPost2010PropOp47
 70
     1
102
RTVSPost2010Prop48
 90
       50
102
RTVSPost2010PropOp48
 70
     1
102
RTVSPost2010Prop49
280
     0
102
RTVSPost2010PropOp49
 70
     1
102
RTVSPost2010Prop50
 90
       50
102
RTVSPost2010PropOp50
 70
     1
102
RTVSPost2010Prop51ColorIndex
 90
      256
102
RTVSPost2010Prop51ColorRGB
 90
-16777216
102
RTVSPost2010PropOp51
 70
     0
102
RTVSPost2010Prop52
140
1.0
102
RTVSPost2010PropOp52
 70
     0
102
RTVSPost2010Prop53
 90
        2
102
RTVSPost2010PropOp53
 70
     1
102
RTVSPost2010Prop54
  1
strokes_ogs.tif
102
RTVSPost2010PropOp54
 70
     1
102
RTVSPost2010Prop55
280
     0
102
RTVSPost2010PropOp55
 70
     1
102
RTVSPost2010Prop56
140
1.0
102
RTVSPost2010PropOp56
 70
     1
102
RTVSPost2010Prop57
140
1.0
102
RTVSPost2010PropOp57
 70
     1
102
RTVSPropertyOp0
 70
     1
102
RTVSPropertyOp1
 70
     1
102
RTVSPropertyOp2
 70
     1
102
RTVSPropertyOp3
 70
     1
102
RTVSPropertyOp4
 70
     1
102
RTVSPropertyOp5
 70
     1
102
RTVSPropertyOp6
 70
     1
102
RTVSPropertyOp7
 70
     1
102
RTVSPropertyOp8
 70
     1
102
RTVSPropertyOp9
 70
     1
102
RTVSPropertyOp10
 70
     1
102
RTVSPropertyOp11
 70
     1
102
RTVSPropertyOp12
 70
     1
102
RTVSPropertyOp13
 70
     1
102
RTVSPropertyOp14
 70
     1
102
RTVSPropertyOp15
 70
     1
102
RTVSPropertyOp16
 70
     1
102
RTVSPropertyOp17
 70
     1
102
RTVSPropertyOp18
 70
     1
102
RTVSPropertyOp19
 70
     1
102
RTVSPropertyOp20
 70
     1
102
RTVSPropertyOp21
 70
     1
102
RTVSPropertyOp22
 70
     1
102
RTVSPropertyOp23
 70
     1
102
RTVSPropertyOp24
 70
     1
102
RTVSPropertyOp25
 70
     1
102
RTVSPropertyOp26
 70
     1
102
RTVSPropertyOp27
 70
     1
102
RTVSPropertyOp28
 70
     1
102
RTVSPropertyOp29
 70
     1
102
RTVSPropertyOp30
 70
     1
102
RTVSPropertyOp31
 70
     1
102
RTVSPropertyOp32
 70
     1
102
RTVSPropertyOp33
 70
     1
102
RTVSPropertyOp34
 70
     1
102
RTVSPropertyOp35
 70
     1
102
RTVSPropertyOp36
 70
     1
102
RTVSPropertyOp37
 70
     1
102
RTVSPropertyOp38
 70
     1
102
RTVSPropertyOp39
 70
     1
102
RTVSPropertyOp40
 70
     1
102
RTVSPropertyOp41
 70
     1
102
RTVSPropertyOp42
 70
     1
102
RTVSPropertyOp43
 70
     1
102
RTVSPropertyOp44
 70
     1
102
RTVSPropertyOp45
 70
     1
102
RTVSPropertyOp46
 70
     1
102
RTVSPropertyOp47
 70
     1
102
RTVSPropertyOp48
 70
     1
102
RTVSPropertyOp49
 70
     1
102
RTVSPropertyOp50
 70
     1
102
RTVSPropertyOp51
 70
     0
102
RTVSPropertyOp52
 70
     0
102
RTVSPropertyOp53
 70
     1
102
RTVSPropertyOp54
 70
     1
102
RTVSPropertyOp55
 70
     1
102
RTVSPropertyOp56
 70
     1
102
RTVSPropertyOp57
 70
     1
102
RTVSPropertyOp58
 70
     1
102
RTVSPropertyOp59
 70
     1
102
RTVSPropertyOp60
 70
     1
102
RTVSPropertyOp61
 70
     1
102
RTVSPropertyOp62
 70
     1
  0
XRECORD
  5
4BE
102
{ACAD_REACTORS
330
4BD
102
}
330
4BD
100
AcDbXrecord
280
     1
102
RTVSPost2010Prop28
280
     0
102
RTVSPost2010PropOp28
 70
     1
102
RTVSPost2010Prop29
280
     1
102
RTVSPost2010PropOp29
 70
     1
102
RTVSPost2010Prop30
280
     1
102
RTVSPost2010PropOp30
 70
     1
102
RTVSPost2010Prop31
280
     0
102
RTVSPost2010PropOp31
 70
     1
102
RTVSPost2010Prop32
280
     0
102
RTVSPost2010PropOp32
 70
     1
102
RTVSPost2010Prop33
280
     0
102
RTVSPost2010PropOp33
 70
     1
102
RTVSPost2010Prop34
280
     0
102
RTVSPost2010PropOp34
 70
     1
102
RTVSPost2010Prop35
280
     0
102
RTVSPost2010PropOp35
 70
     1
102
RTVSPost2010Prop36
280
     0
102
RTVSPost2010PropOp36
 70
     1
102
RTVSPost2010Prop37
 90
       50
102
RTVSPost2010PropOp37
 70
     1
102
RTVSPost2010Prop38
140
0.0
102
RTVSPost2010PropOp38
 70
     1
102
RTVSPost2010Prop39
140
1.0
102
RTVSPost2010PropOp39
 70
     1
102
RTVSPost2010Prop40
 90
        0
102
RTVSPost2010PropOp40
 70
     1
102
RTVSPost2010Prop41ColorIndex
 90
       18
102
RTVSPost2010Prop41ColorRGB
 90
        0
102
RTVSPost2010PropOp41
 70
     1
102
RTVSPost2010Prop42
 90
       50
102
RTVSPost2010PropOp42
 70
     1
102
RTVSPost2010Prop43
 90
        3
102
RTVSPost2010PropOp43
 70
     1
102
RTVSPost2010Prop44ColorIndex
 90
        5
102
RTVSPost2010Prop44ColorRGB
 90
      255
102
RTVSPost2010PropOp44
 70
     1
102
RTVSPost2010Prop45
280
     0
102
RTVSPost2010PropOp45
 70
     1
102
RTVSPost2010Prop46
 90
       50
102
RTVSPost2010PropOp46
 70
     1
102
RTVSPost2010Prop47
 90
       50
102
RTVSPost2010PropOp47
 70
     1
102
RTVSPost2010Prop48
 90
       50
102
RTVSPost2010PropOp48
 70
     1
102
RTVSPost2010Prop49
280
     0
102
RTVSPost2010PropOp49
 70
     1
102
RTVSPost2010Prop50
 90
       50
102
RTVSPost2010PropOp50
 70
     1
102
RTVSPost2010Prop51ColorIndex
 90
      256
102
RTVSPost2010Prop51ColorRGB
 90
-16777216
102
RTVSPost2010PropOp51
 70
     0
102
RTVSPost2010Prop52
140
1.0
102
RTVSPost2010PropOp52
 70
     0
102
RTVSPost2010Prop53
 90
        2
102
RTVSPost2010PropOp53
 70
     1
102
RTVSPost2010Prop54
  1
strokes_ogs.tif
102
RTVSPost2010PropOp54
 70
     1
102
RTVSPost2010Prop55
280
     0
102
RTVSPost2010PropOp55
 70
     1
102
RTVSPost2010Prop56
140
1.0
102
RTVSPost2010PropOp56
 70
     1
102
RTVSPost2010Prop57
140
1.0
102
RTVSPost2010PropOp57
 70
     1
102
RTVSPropertyOp0
 70
     1
102
RTVSPropertyOp1
 70
     1
102
RTVSPropertyOp2
 70
     1
102
RTVSPropertyOp3
 70
     1
102
RTVSPropertyOp4
 70
     1
102
RTVSPropertyOp5
 70
     1
102
RTVSPropertyOp6
 70
     1
102
RTVSPropertyOp7
 70
     1
102
RTVSPropertyOp8
 70
     1
102
RTVSPropertyOp9
 70
     1
102
RTVSPropertyOp10
 70
     1
102
RTVSPropertyOp11
 70
     1
102
RTVSPropertyOp12
 70
     1
102
RTVSPropertyOp13
 70
     1
102
RTVSPropertyOp14
 70
     1
102
RTVSPropertyOp15
 70
     1
102
RTVSPropertyOp16
 70
     1
102
RTVSPropertyOp17
 70
     1
102
RTVSPropertyOp18
 70
     1
102
RTVSPropertyOp19
 70
     1
102
RTVSPropertyOp20
 70
     1
102
RTVSPropertyOp21
 70
     1
102
RTVSPropertyOp22
 70
     1
102
RTVSPropertyOp23
 70
     1
102
RTVSPropertyOp24
 70
     1
102
RTVSPropertyOp25
 70
     1
102
RTVSPropertyOp26
 70
     1
102
RTVSPropertyOp27
 70
     1
102
RTVSPropertyOp28
 70
     1
102
RTVSPropertyOp29
 70
     1
102
RTVSPropertyOp30
 70
     1
102
RTVSPropertyOp31
 70
     1
102
RTVSPropertyOp32
 70
     1
102
RTVSPropertyOp33
 70
     1
102
RTVSPropertyOp34
 70
     1
102
RTVSPropertyOp35
 70
     1
102
RTVSPropertyOp36
 70
     1
102
RTVSPropertyOp37
 70
     1
102
RTVSPropertyOp38
 70
     1
102
RTVSPropertyOp39
 70
     1
102
RTVSPropertyOp40
 70
     1
102
RTVSPropertyOp41
 70
     1
102
RTVSPropertyOp42
 70
     1
102
RTVSPropertyOp43
 70
     1
102
RTVSPropertyOp44
 70
     1
102
RTVSPropertyOp45
 70
     1
102
RTVSPropertyOp46
 70
     1
102
RTVSPropertyOp47
 70
     1
102
RTVSPropertyOp48
 70
     1
102
RTVSPropertyOp49
 70
     1
102
RTVSPropertyOp50
 70
     1
102
RTVSPropertyOp51
 70
     0
102
RTVSPropertyOp52
 70
     0
102
RTVSPropertyOp53
 70
     1
102
RTVSPropertyOp54
 70
     1
102
RTVSPropertyOp55
 70
     1
102
RTVSPropertyOp56
 70
     1
102
RTVSPropertyOp57
 70
     1
102
RTVSPropertyOp58
 70
     1
102
RTVSPropertyOp59
 70
     1
102
RTVSPropertyOp60
 70
     1
102
RTVSPropertyOp61
 70
     1
102
RTVSPropertyOp62
 70
     1
  0
XRECORD
  5
4C6
102
{ACAD_REACTORS
330
4C5
102
}
330
4C5
100
AcDbXrecord
280
     1
102
RTVSPost2010Prop28
280
     0
102
RTVSPost2010PropOp28
 70
     1
102
RTVSPost2010Prop29
280
     1
102
RTVSPost2010PropOp29
 70
     1
102
RTVSPost2010Prop30
280
     1
102
RTVSPost2010PropOp30
 70
     1
102
RTVSPost2010Prop31
280
     0
102
RTVSPost2010PropOp31
 70
     1
102
RTVSPost2010Prop32
280
     0
102
RTVSPost2010PropOp32
 70
     1
102
RTVSPost2010Prop33
280
     0
102
RTVSPost2010PropOp33
 70
     1
102
RTVSPost2010Prop34
280
     0
102
RTVSPost2010PropOp34
 70
     1
102
RTVSPost2010Prop35
280
     0
102
RTVSPost2010PropOp35
 70
     1
102
RTVSPost2010Prop36
280
     0
102
RTVSPost2010PropOp36
 70
     1
102
RTVSPost2010Prop37
 90
       50
102
RTVSPost2010PropOp37
 70
     1
102
RTVSPost2010Prop38
140
0.0
102
RTVSPost2010PropOp38
 70
     1
102
RTVSPost2010Prop39
140
1.0
102
RTVSPost2010PropOp39
 70
     1
102
RTVSPost2010Prop40
 90
        0
102
RTVSPost2010PropOp40
 70
     1
102
RTVSPost2010Prop41ColorIndex
 90
       18
102
RTVSPost2010Prop41ColorRGB
 90
        0
102
RTVSPost2010PropOp41
 70
     1
102
RTVSPost2010Prop42
 90
       50
102
RTVSPost2010PropOp42
 70
     1
102
RTVSPost2010Prop43
 90
        3
102
RTVSPost2010PropOp43
 70
     1
102
RTVSPost2010Prop44ColorIndex
 90
        5
102
RTVSPost2010Prop44ColorRGB
 90
      255
102
RTVSPost2010PropOp44
 70
     1
102
RTVSPost2010Prop45
280
     0
102
RTVSPost2010PropOp45
 70
     1
102
RTVSPost2010Prop46
 90
       50
102
RTVSPost2010PropOp46
 70
     1
102
RTVSPost2010Prop47
 90
       50
102
RTVSPost2010PropOp47
 70
     1
102
RTVSPost2010Prop48
 90
       50
102
RTVSPost2010PropOp48
 70
     1
102
RTVSPost2010Prop49
280
     0
102
RTVSPost2010PropOp49
 70
     1
102
RTVSPost2010Prop50
 90
       50
102
RTVSPost2010PropOp50
 70
     1
102
RTVSPost2010Prop51ColorIndex
 90
      256
102
RTVSPost2010Prop51ColorRGB
 90
-16777216
102
RTVSPost2010PropOp51
 70
     0
102
RTVSPost2010Prop52
140
1.0
102
RTVSPost2010PropOp52
 70
     0
102
RTVSPost2010Prop53
 90
        2
102
RTVSPost2010PropOp53
 70
     1
102
RTVSPost2010Prop54
  1
strokes_ogs.tif
102
RTVSPost2010PropOp54
 70
     1
102
RTVSPost2010Prop55
280
     0
102
RTVSPost2010PropOp55
 70
     1
102
RTVSPost2010Prop56
140
1.0
102
RTVSPost2010PropOp56
 70
     1
102
RTVSPost2010Prop57
140
1.0
102
RTVSPost2010PropOp57
 70
     1
102
RTVSPropertyOp0
 70
     1
102
RTVSPropertyOp1
 70
     1
102
RTVSPropertyOp2
 70
     1
102
RTVSPropertyOp3
 70
     1
102
RTVSPropertyOp4
 70
     1
102
RTVSPropertyOp5
 70
     1
102
RTVSPropertyOp6
 70
     1
102
RTVSPropertyOp7
 70
     1
102
RTVSPropertyOp8
 70
     1
102
RTVSPropertyOp9
 70
     1
102
RTVSPropertyOp10
 70
     1
102
RTVSPropertyOp11
 70
     1
102
RTVSPropertyOp12
 70
     1
102
RTVSPropertyOp13
 70
     1
102
RTVSPropertyOp14
 70
     1
102
RTVSPropertyOp15
 70
     1
102
RTVSPropertyOp16
 70
     1
102
RTVSPropertyOp17
 70
     1
102
RTVSPropertyOp18
 70
     1
102
RTVSPropertyOp19
 70
     1
102
RTVSPropertyOp20
 70
     1
102
RTVSPropertyOp21
 70
     1
102
RTVSPropertyOp22
 70
     1
102
RTVSPropertyOp23
 70
     1
102
RTVSPropertyOp24
 70
     1
102
RTVSPropertyOp25
 70
     1
102
RTVSPropertyOp26
 70
     1
102
RTVSPropertyOp27
 70
     1
102
RTVSPropertyOp28
 70
     1
102
RTVSPropertyOp29
 70
     1
102
RTVSPropertyOp30
 70
     1
102
RTVSPropertyOp31
 70
     1
102
RTVSPropertyOp32
 70
     1
102
RTVSPropertyOp33
 70
     1
102
RTVSPropertyOp34
 70
     1
102
RTVSPropertyOp35
 70
     1
102
RTVSPropertyOp36
 70
     1
102
RTVSPropertyOp37
 70
     1
102
RTVSPropertyOp38
 70
     1
102
RTVSPropertyOp39
 70
     1
102
RTVSPropertyOp40
 70
     1
102
RTVSPropertyOp41
 70
     1
102
RTVSPropertyOp42
 70
     1
102
RTVSPropertyOp43
 70
     1
102
RTVSPropertyOp44
 70
     1
102
RTVSPropertyOp45
 70
     1
102
RTVSPropertyOp46
 70
     1
102
RTVSPropertyOp47
 70
     1
102
RTVSPropertyOp48
 70
     1
102
RTVSPropertyOp49
 70
     1
102
RTVSPropertyOp50
 70
     1
102
RTVSPropertyOp51
 70
     0
102
RTVSPropertyOp52
 70
     0
102
RTVSPropertyOp53
 70
     1
102
RTVSPropertyOp54
 70
     1
102
RTVSPropertyOp55
 70
     1
102
RTVSPropertyOp56
 70
     1
102
RTVSPropertyOp57
 70
     1
102
RTVSPropertyOp58
 70
     1
102
RTVSPropertyOp59
 70
     1
102
RTVSPropertyOp60
 70
     1
102
RTVSPropertyOp61
 70
     1
102
RTVSPropertyOp62
 70
     1
  0
XRECORD
  5
4B8
102
{ACAD_REACTORS
330
4B7
102
}
330
4B7
100
AcDbXrecord
280
     1
102
RTVSPost2010Prop28
280
     0
102
RTVSPost2010PropOp28
 70
     1
102
RTVSPost2010Prop29
280
     1
102
RTVSPost2010PropOp29
 70
     1
102
RTVSPost2010Prop30
280
     1
102
RTVSPost2010PropOp30
 70
     1
102
RTVSPost2010Prop31
280
     0
102
RTVSPost2010PropOp31
 70
     1
102
RTVSPost2010Prop32
280
     0
102
RTVSPost2010PropOp32
 70
     1
102
RTVSPost2010Prop33
280
     0
102
RTVSPost2010PropOp33
 70
     1
102
RTVSPost2010Prop34
280
     0
102
RTVSPost2010PropOp34
 70
     1
102
RTVSPost2010Prop35
280
     0
102
RTVSPost2010PropOp35
 70
     1
102
RTVSPost2010Prop36
280
     0
102
RTVSPost2010PropOp36
 70
     1
102
RTVSPost2010Prop37
 90
       50
102
RTVSPost2010PropOp37
 70
     1
102
RTVSPost2010Prop38
140
0.0
102
RTVSPost2010PropOp38
 70
     1
102
RTVSPost2010Prop39
140
1.0
102
RTVSPost2010PropOp39
 70
     1
102
RTVSPost2010Prop40
 90
        0
102
RTVSPost2010PropOp40
 70
     1
102
RTVSPost2010Prop41ColorIndex
 90
       18
102
RTVSPost2010Prop41ColorRGB
 90
        0
102
RTVSPost2010PropOp41
 70
     1
102
RTVSPost2010Prop42
 90
       50
102
RTVSPost2010PropOp42
 70
     1
102
RTVSPost2010Prop43
 90
        3
102
RTVSPost2010PropOp43
 70
     1
102
RTVSPost2010Prop44ColorIndex
 90
        5
102
RTVSPost2010Prop44ColorRGB
 90
      255
102
RTVSPost2010PropOp44
 70
     1
102
RTVSPost2010Prop45
280
     0
102
RTVSPost2010PropOp45
 70
     1
102
RTVSPost2010Prop46
 90
       50
102
RTVSPost2010PropOp46
 70
     1
102
RTVSPost2010Prop47
 90
       50
102
RTVSPost2010PropOp47
 70
     1
102
RTVSPost2010Prop48
 90
       50
102
RTVSPost2010PropOp48
 70
     1
102
RTVSPost2010Prop49
280
     0
102
RTVSPost2010PropOp49
 70
     1
102
RTVSPost2010Prop50
 90
       50
102
RTVSPost2010PropOp50
 70
     1
102
RTVSPost2010Prop51ColorIndex
 90
      256
102
RTVSPost2010Prop51ColorRGB
 90
-16777216
102
RTVSPost2010PropOp51
 70
     0
102
RTVSPost2010Prop52
140
1.0
102
RTVSPost2010PropOp52
 70
     0
102
RTVSPost2010Prop53
 90
        2
102
RTVSPost2010PropOp53
 70
     1
102
RTVSPost2010Prop54
  1
strokes_ogs.tif
102
RTVSPost2010PropOp54
 70
     1
102
RTVSPost2010Prop55
280
     0
102
RTVSPost2010PropOp55
 70
     1
102
RTVSPost2010Prop56
140
1.0
102
RTVSPost2010PropOp56
 70
     1
102
RTVSPost2010Prop57
140
1.0
102
RTVSPost2010PropOp57
 70
     1
102
RTVSPropertyOp0
 70
     1
102
RTVSPropertyOp1
 70
     1
102
RTVSPropertyOp2
 70
     1
102
RTVSPropertyOp3
 70
     1
102
RTVSPropertyOp4
 70
     1
102
RTVSPropertyOp5
 70
     1
102
RTVSPropertyOp6
 70
     1
102
RTVSPropertyOp7
 70
     1
102
RTVSPropertyOp8
 70
     1
102
RTVSPropertyOp9
 70
     1
102
RTVSPropertyOp10
 70
     1
102
RTVSPropertyOp11
 70
     1
102
RTVSPropertyOp12
 70
     1
102
RTVSPropertyOp13
 70
     1
102
RTVSPropertyOp14
 70
     1
102
RTVSPropertyOp15
 70
     1
102
RTVSPropertyOp16
 70
     1
102
RTVSPropertyOp17
 70
     1
102
RTVSPropertyOp18
 70
     1
102
RTVSPropertyOp19
 70
     1
102
RTVSPropertyOp20
 70
     1
102
RTVSPropertyOp21
 70
     1
102
RTVSPropertyOp22
 70
     1
102
RTVSPropertyOp23
 70
     1
102
RTVSPropertyOp24
 70
     1
102
RTVSPropertyOp25
 70
     1
102
RTVSPropertyOp26
 70
     1
102
RTVSPropertyOp27
 70
     1
102
RTVSPropertyOp28
 70
     1
102
RTVSPropertyOp29
 70
     1
102
RTVSPropertyOp30
 70
     1
102
RTVSPropertyOp31
 70
     1
102
RTVSPropertyOp32
 70
     1
102
RTVSPropertyOp33
 70
     1
102
RTVSPropertyOp34
 70
     1
102
RTVSPropertyOp35
 70
     1
102
RTVSPropertyOp36
 70
     1
102
RTVSPropertyOp37
 70
     1
102
RTVSPropertyOp38
 70
     1
102
RTVSPropertyOp39
 70
     1
102
RTVSPropertyOp40
 70
     1
102
RTVSPropertyOp41
 70
     1
102
RTVSPropertyOp42
 70
     1
102
RTVSPropertyOp43
 70
     1
102
RTVSPropertyOp44
 70
     1
102
RTVSPropertyOp45
 70
     1
102
RTVSPropertyOp46
 70
     1
102
RTVSPropertyOp47
 70
     1
102
RTVSPropertyOp48
 70
     1
102
RTVSPropertyOp49
 70
     1
102
RTVSPropertyOp50
 70
     1
102
RTVSPropertyOp51
 70
     0
102
RTVSPropertyOp52
 70
     0
102
RTVSPropertyOp53
 70
     1
102
RTVSPropertyOp54
 70
     1
102
RTVSPropertyOp55
 70
     1
102
RTVSPropertyOp56
 70
     1
102
RTVSPropertyOp57
 70
     1
102
RTVSPropertyOp58
 70
     1
102
RTVSPropertyOp59
 70
     1
102
RTVSPropertyOp60
 70
     1
102
RTVSPropertyOp61
 70
     1
102
RTVSPropertyOp62
 70
     1
  0
XRECORD
  5
4BC
102
{ACAD_REACTORS
330
4BB
102
}
330
4BB
100
AcDbXrecord
280
     1
102
RTVSPost2010Prop28
280
     0
102
RTVSPost2010PropOp28
 70
     1
102
RTVSPost2010Prop29
280
     1
102
RTVSPost2010PropOp29
 70
     1
102
RTVSPost2010Prop30
280
     1
102
RTVSPost2010PropOp30
 70
     1
102
RTVSPost2010Prop31
280
     0
102
RTVSPost2010PropOp31
 70
     1
102
RTVSPost2010Prop32
280
     0
102
RTVSPost2010PropOp32
 70
     1
102
RTVSPost2010Prop33
280
     0
102
RTVSPost2010PropOp33
 70
     1
102
RTVSPost2010Prop34
280
     0
102
RTVSPost2010PropOp34
 70
     1
102
RTVSPost2010Prop35
280
     0
102
RTVSPost2010PropOp35
 70
     1
102
RTVSPost2010Prop36
280
     0
102
RTVSPost2010PropOp36
 70
     1
102
RTVSPost2010Prop37
 90
       50
102
RTVSPost2010PropOp37
 70
     1
102
RTVSPost2010Prop38
140
0.0
102
RTVSPost2010PropOp38
 70
     1
102
RTVSPost2010Prop39
140
1.0
102
RTVSPost2010PropOp39
 70
     1
102
RTVSPost2010Prop40
 90
        0
102
RTVSPost2010PropOp40
 70
     1
102
RTVSPost2010Prop41ColorIndex
 90
       18
102
RTVSPost2010Prop41ColorRGB
 90
        0
102
RTVSPost2010PropOp41
 70
     1
102
RTVSPost2010Prop42
 90
       50
102
RTVSPost2010PropOp42
 70
     1
102
RTVSPost2010Prop43
 90
        3
102
RTVSPost2010PropOp43
 70
     1
102
RTVSPost2010Prop44ColorIndex
 90
        5
102
RTVSPost2010Prop44ColorRGB
 90
      255
102
RTVSPost2010PropOp44
 70
     1
102
RTVSPost2010Prop45
280
     0
102
RTVSPost2010PropOp45
 70
     1
102
RTVSPost2010Prop46
 90
       50
102
RTVSPost2010PropOp46
 70
     1
102
RTVSPost2010Prop47
 90
       50
102
RTVSPost2010PropOp47
 70
     1
102
RTVSPost2010Prop48
 90
       50
102
RTVSPost2010PropOp48
 70
     1
102
RTVSPost2010Prop49
280
     0
102
RTVSPost2010PropOp49
 70
     1
102
RTVSPost2010Prop50
 90
       50
102
RTVSPost2010PropOp50
 70
     1
102
RTVSPost2010Prop51ColorIndex
 90
      256
102
RTVSPost2010Prop51ColorRGB
 90
-16777216
102
RTVSPost2010PropOp51
 70
     0
102
RTVSPost2010Prop52
140
1.0
102
RTVSPost2010PropOp52
 70
     0
102
RTVSPost2010Prop53
 90
        2
102
RTVSPost2010PropOp53
 70
     1
102
RTVSPost2010Prop54
  1
strokes_ogs.tif
102
RTVSPost2010PropOp54
 70
     1
102
RTVSPost2010Prop55
280
     0
102
RTVSPost2010PropOp55
 70
     1
102
RTVSPost2010Prop56
140
1.0
102
RTVSPost2010PropOp56
 70
     1
102
RTVSPost2010Prop57
140
1.0
102
RTVSPost2010PropOp57
 70
     1
102
RTVSPropertyOp0
 70
     1
102
RTVSPropertyOp1
 70
     1
102
RTVSPropertyOp2
 70
     1
102
RTVSPropertyOp3
 70
     1
102
RTVSPropertyOp4
 70
     1
102
RTVSPropertyOp5
 70
     1
102
RTVSPropertyOp6
 70
     1
102
RTVSPropertyOp7
 70
     1
102
RTVSPropertyOp8
 70
     1
102
RTVSPropertyOp9
 70
     1
102
RTVSPropertyOp10
 70
     1
102
RTVSPropertyOp11
 70
     1
102
RTVSPropertyOp12
 70
     1
102
RTVSPropertyOp13
 70
     1
102
RTVSPropertyOp14
 70
     1
102
RTVSPropertyOp15
 70
     1
102
RTVSPropertyOp16
 70
     1
102
RTVSPropertyOp17
 70
     1
102
RTVSPropertyOp18
 70
     1
102
RTVSPropertyOp19
 70
     1
102
RTVSPropertyOp20
 70
     1
102
RTVSPropertyOp21
 70
     1
102
RTVSPropertyOp22
 70
     1
102
RTVSPropertyOp23
 70
     1
102
RTVSPropertyOp24
 70
     1
102
RTVSPropertyOp25
 70
     1
102
RTVSPropertyOp26
 70
     1
102
RTVSPropertyOp27
 70
     1
102
RTVSPropertyOp28
 70
     1
102
RTVSPropertyOp29
 70
     1
102
RTVSPropertyOp30
 70
     1
102
RTVSPropertyOp31
 70
     1
102
RTVSPropertyOp32
 70
     1
102
RTVSPropertyOp33
 70
     1
102
RTVSPropertyOp34
 70
     1
102
RTVSPropertyOp35
 70
     1
102
RTVSPropertyOp36
 70
     1
102
RTVSPropertyOp37
 70
     1
102
RTVSPropertyOp38
 70
     1
102
RTVSPropertyOp39
 70
     1
102
RTVSPropertyOp40
 70
     1
102
RTVSPropertyOp41
 70
     1
102
RTVSPropertyOp42
 70
     1
102
RTVSPropertyOp43
 70
     1
102
RTVSPropertyOp44
 70
     1
102
RTVSPropertyOp45
 70
     1
102
RTVSPropertyOp46
 70
     1
102
RTVSPropertyOp47
 70
     1
102
RTVSPropertyOp48
 70
     1
102
RTVSPropertyOp49
 70
     1
102
RTVSPropertyOp50
 70
     1
102
RTVSPropertyOp51
 70
     0
102
RTVSPropertyOp52
 70
     0
102
RTVSPropertyOp53
 70
     1
102
RTVSPropertyOp54
 70
     1
102
RTVSPropertyOp55
 70
     1
102
RTVSPropertyOp56
 70
     1
102
RTVSPropertyOp57
 70
     1
102
RTVSPropertyOp58
 70
     1
102
RTVSPropertyOp59
 70
     1
102
RTVSPropertyOp60
 70
     1
102
RTVSPropertyOp61
 70
     1
102
RTVSPropertyOp62
 70
     1
  0
XRECORD
  5
4D6
102
{ACAD_REACTORS
330
4D5
102
}
330
4D5
100
AcDbXrecord
280
     1
102
RTVSPost2010Prop28
280
     0
102
RTVSPost2010PropOp28
 70
     1
102
RTVSPost2010Prop29
280
     1
102
RTVSPost2010PropOp29
 70
     1
102
RTVSPost2010Prop30
280
     1
102
RTVSPost2010PropOp30
 70
     1
102
RTVSPost2010Prop31
280
     0
102
RTVSPost2010PropOp31
 70
     1
102
RTVSPost2010Prop32
280
     0
102
RTVSPost2010PropOp32
 70
     1
102
RTVSPost2010Prop33
280
     0
102
RTVSPost2010PropOp33
 70
     1
102
RTVSPost2010Prop34
280
     0
102
RTVSPost2010PropOp34
 70
     1
102
RTVSPost2010Prop35
280
     0
102
RTVSPost2010PropOp35
 70
     1
102
RTVSPost2010Prop36
280
     0
102
RTVSPost2010PropOp36
 70
     1
102
RTVSPost2010Prop37
 90
       50
102
RTVSPost2010PropOp37
 70
     0
102
RTVSPost2010Prop38
140
0.0
102
RTVSPost2010PropOp38
 70
     0
102
RTVSPost2010Prop39
140
1.0
102
RTVSPost2010PropOp39
 70
     0
102
RTVSPost2010Prop40
 90
        0
102
RTVSPost2010PropOp40
 70
     0
102
RTVSPost2010Prop41ColorIndex
 90
       18
102
RTVSPost2010Prop41ColorRGB
 90
        0
102
RTVSPost2010PropOp41
 70
     0
102
RTVSPost2010Prop42
 90
       50
102
RTVSPost2010PropOp42
 70
     0
102
RTVSPost2010Prop43
 90
        3
102
RTVSPost2010PropOp43
 70
     0
102
RTVSPost2010Prop44ColorIndex
 90
        5
102
RTVSPost2010Prop44ColorRGB
 90
      255
102
RTVSPost2010PropOp44
 70
     0
102
RTVSPost2010Prop45
280
     0
102
RTVSPost2010PropOp45
 70
     1
102
RTVSPost2010Prop46
 90
       50
102
RTVSPost2010PropOp46
 70
     0
102
RTVSPost2010Prop47
 90
       50
102
RTVSPost2010PropOp47
 70
     0
102
RTVSPost2010Prop48
 90
       50
102
RTVSPost2010PropOp48
 70
     0
102
RTVSPost2010Prop49
280
     0
102
RTVSPost2010PropOp49
 70
     1
102
RTVSPost2010Prop50
 90
       50
102
RTVSPost2010PropOp50
 70
     0
102
RTVSPost2010Prop51ColorIndex
 90
      256
102
RTVSPost2010Prop51ColorRGB
 90
-16777216
102
RTVSPost2010PropOp51
 70
     0
102
RTVSPost2010Prop52
140
1.0
102
RTVSPost2010PropOp52
 70
     0
102
RTVSPost2010Prop53
 90
        2
102
RTVSPost2010PropOp53
 70
     0
102
RTVSPost2010Prop54
  1
strokes_ogs.tif
102
RTVSPost2010PropOp54
 70
     0
102
RTVSPost2010Prop55
280
     0
102
RTVSPost2010PropOp55
 70
     1
102
RTVSPost2010Prop56
140
1.0
102
RTVSPost2010PropOp56
 70
     0
102
RTVSPost2010Prop57
140
1.0
102
RTVSPost2010PropOp57
 70
     0
102
RTVSPropertyOp0
 70
     0
102
RTVSPropertyOp1
 70
     0
102
RTVSPropertyOp2
 70
     0
102
RTVSPropertyOp3
 70
     0
102
RTVSPropertyOp4
 70
     0
102
RTVSPropertyOp5
 70
     0
102
RTVSPropertyOp6
 70
     0
102
RTVSPropertyOp7
 70
     0
102
RTVSPropertyOp8
 70
     0
102
RTVSPropertyOp9
 70
     0
102
RTVSPropertyOp10
 70
     0
102
RTVSPropertyOp11
 70
     0
102
RTVSPropertyOp12
 70
     0
102
RTVSPropertyOp13
 70
     0
102
RTVSPropertyOp14
 70
     2
102
RTVSPropertyOp15
 70
     0
102
RTVSPropertyOp16
 70
     0
102
RTVSPropertyOp17
 70
     0
102
RTVSPropertyOp18
 70
     0
102
RTVSPropertyOp19
 70
     0
102
RTVSPropertyOp20
 70
     0
102
RTVSPropertyOp21
 70
     0
102
RTVSPropertyOp22
 70
     0
102
RTVSPropertyOp23
 70
     0
102
RTVSPropertyOp24
 70
     0
102
RTVSPropertyOp25
 70
     0
102
RTVSPropertyOp26
 70
     0
102
RTVSPropertyOp27
 70
     0
102
RTVSPropertyOp28
 70
     1
102
RTVSPropertyOp29
 70
     1
102
RTVSPropertyOp30
 70
     1
102
RTVSPropertyOp31
 70
     1
102
RTVSPropertyOp32
 70
     1
102
RTVSPropertyOp33
 70
     1
102
RTVSPropertyOp34
 70
     1
102
RTVSPropertyOp35
 70
     1
102
RTVSPropertyOp36
 70
     1
102
RTVSPropertyOp37
 70
     0
102
RTVSPropertyOp38
 70
     0
102
RTVSPropertyOp39
 70
     0
102
RTVSPropertyOp40
 70
     0
102
RTVSPropertyOp41
 70
     0
102
RTVSPropertyOp42
 70
     0
102
RTVSPropertyOp43
 70
     0
102
RTVSPropertyOp44
 70
     0
102
RTVSPropertyOp45
 70
     1
102
RTVSPropertyOp46
 70
     0
102
RTVSPropertyOp47
 70
     0
102
RTVSPropertyOp48
 70
     0
102
RTVSPropertyOp49
 70
     1
102
RTVSPropertyOp50
 70
     0
102
RTVSPropertyOp51
 70
     0
102
RTVSPropertyOp52
 70
     0
102
RTVSPropertyOp53
 70
     0
102
RTVSPropertyOp54
 70
     0
102
RTVSPropertyOp55
 70
     1
102
RTVSPropertyOp56
 70
     0
102
RTVSPropertyOp57
 70
     0
102
RTVSPropertyOp58
 70
     0
102
RTVSPropertyOp59
 70
     0
102
RTVSPropertyOp60
 70
     0
102
RTVSPropertyOp61
 70
     0
102
RTVSPropertyOp62
 70
     0
  0
XRECORD
  5
4C4
102
{ACAD_REACTORS
330
4C3
102
}
330
4C3
100
AcDbXrecord
280
     1
102
RTVSPost2010Prop28
280
     0
102
RTVSPost2010PropOp28
 70
     1
102
RTVSPost2010Prop29
280
     1
102
RTVSPost2010PropOp29
 70
     1
102
RTVSPost2010Prop30
280
     1
102
RTVSPost2010PropOp30
 70
     1
102
RTVSPost2010Prop31
280
     0
102
RTVSPost2010PropOp31
 70
     1
102
RTVSPost2010Prop32
280
     0
102
RTVSPost2010PropOp32
 70
     1
102
RTVSPost2010Prop33
280
     0
102
RTVSPost2010PropOp33
 70
     1
102
RTVSPost2010Prop34
280
     0
102
RTVSPost2010PropOp34
 70
     1
102
RTVSPost2010Prop35
280
     0
102
RTVSPost2010PropOp35
 70
     1
102
RTVSPost2010Prop36
280
     0
102
RTVSPost2010PropOp36
 70
     1
102
RTVSPost2010Prop37
 90
       50
102
RTVSPost2010PropOp37
 70
     1
102
RTVSPost2010Prop38
140
0.0
102
RTVSPost2010PropOp38
 70
     1
102
RTVSPost2010Prop39
140
1.0
102
RTVSPost2010PropOp39
 70
     1
102
RTVSPost2010Prop40
 90
        0
102
RTVSPost2010PropOp40
 70
     1
102
RTVSPost2010Prop41ColorIndex
 90
       18
102
RTVSPost2010Prop41ColorRGB
 90
        0
102
RTVSPost2010PropOp41
 70
     1
102
RTVSPost2010Prop42
 90
       50
102
RTVSPost2010PropOp42
 70
     1
102
RTVSPost2010Prop43
 90
        3
102
RTVSPost2010PropOp43
 70
     1
102
RTVSPost2010Prop44ColorIndex
 90
        5
102
RTVSPost2010Prop44ColorRGB
 90
      255
102
RTVSPost2010PropOp44
 70
     1
102
RTVSPost2010Prop45
280
     0
102
RTVSPost2010PropOp45
 70
     1
102
RTVSPost2010Prop46
 90
       50
102
RTVSPost2010PropOp46
 70
     1
102
RTVSPost2010Prop47
 90
       50
102
RTVSPost2010PropOp47
 70
     1
102
RTVSPost2010Prop48
 90
       50
102
RTVSPost2010PropOp48
 70
     1
102
RTVSPost2010Prop49
280
     0
102
RTVSPost2010PropOp49
 70
     1
102
RTVSPost2010Prop50
 90
       50
102
RTVSPost2010PropOp50
 70
     1
102
RTVSPost2010Prop51ColorIndex
 90
      256
102
RTVSPost2010Prop51ColorRGB
 90
-16777216
102
RTVSPost2010PropOp51
 70
     0
102
RTVSPost2010Prop52
140
1.0
102
RTVSPost2010PropOp52
 70
     0
102
RTVSPost2010Prop53
 90
        2
102
RTVSPost2010PropOp53
 70
     1
102
RTVSPost2010Prop54
  1
strokes_ogs.tif
102
RTVSPost2010PropOp54
 70
     1
102
RTVSPost2010Prop55
280
     0
102
RTVSPost2010PropOp55
 70
     1
102
RTVSPost2010Prop56
140
1.0
102
RTVSPost2010PropOp56
 70
     1
102
RTVSPost2010Prop57
140
1.0
102
RTVSPost2010PropOp57
 70
     1
102
RTVSPropertyOp0
 70
     1
102
RTVSPropertyOp1
 70
     1
102
RTVSPropertyOp2
 70
     1
102
RTVSPropertyOp3
 70
     1
102
RTVSPropertyOp4
 70
     1
102
RTVSPropertyOp5
 70
     1
102
RTVSPropertyOp6
 70
     1
102
RTVSPropertyOp7
 70
     1
102
RTVSPropertyOp8
 70
     1
102
RTVSPropertyOp9
 70
     1
102
RTVSPropertyOp10
 70
     1
102
RTVSPropertyOp11
 70
     1
102
RTVSPropertyOp12
 70
     1
102
RTVSPropertyOp13
 70
     1
102
RTVSPropertyOp14
 70
     1
102
RTVSPropertyOp15
 70
     1
102
RTVSPropertyOp16
 70
     1
102
RTVSPropertyOp17
 70
     1
102
RTVSPropertyOp18
 70
     1
102
RTVSPropertyOp19
 70
     1
102
RTVSPropertyOp20
 70
     1
102
RTVSPropertyOp21
 70
     1
102
RTVSPropertyOp22
 70
     1
102
RTVSPropertyOp23
 70
     1
102
RTVSPropertyOp24
 70
     1
102
RTVSPropertyOp25
 70
     1
102
RTVSPropertyOp26
 70
     1
102
RTVSPropertyOp27
 70
     1
102
RTVSPropertyOp28
 70
     1
102
RTVSPropertyOp29
 70
     1
102
RTVSPropertyOp30
 70
     1
102
RTVSPropertyOp31
 70
     1
102
RTVSPropertyOp32
 70
     1
102
RTVSPropertyOp33
 70
     1
102
RTVSPropertyOp34
 70
     1
102
RTVSPropertyOp35
 70
     1
102
RTVSPropertyOp36
 70
     1
102
RTVSPropertyOp37
 70
     1
102
RTVSPropertyOp38
 70
     1
102
RTVSPropertyOp39
 70
     1
102
RTVSPropertyOp40
 70
     1
102
RTVSPropertyOp41
 70
     1
102
RTVSPropertyOp42
 70
     1
102
RTVSPropertyOp43
 70
     1
102
RTVSPropertyOp44
 70
     1
102
RTVSPropertyOp45
 70
     1
102
RTVSPropertyOp46
 70
     1
102
RTVSPropertyOp47
 70
     1
102
RTVSPropertyOp48
 70
     1
102
RTVSPropertyOp49
 70
     1
102
RTVSPropertyOp50
 70
     1
102
RTVSPropertyOp51
 70
     0
102
RTVSPropertyOp52
 70
     0
102
RTVSPropertyOp53
 70
     1
102
RTVSPropertyOp54
 70
     1
102
RTVSPropertyOp55
 70
     1
102
RTVSPropertyOp56
 70
     1
102
RTVSPropertyOp57
 70
     1
102
RTVSPropertyOp58
 70
     1
102
RTVSPropertyOp59
 70
     1
102
RTVSPropertyOp60
 70
     1
102
RTVSPropertyOp61
 70
     1
102
RTVSPropertyOp62
 70
     1
  0
XRECORD
  5
4A8
102
{ACAD_REACTORS
330
4A7
102
}
330
4A7
100
AcDbXrecord
280
     1
102
RTVSPost2010Prop28
280
     0
102
RTVSPost2010PropOp28
 70
     1
102
RTVSPost2010Prop29
280
     1
102
RTVSPost2010PropOp29
 70
     1
102
RTVSPost2010Prop30
280
     1
102
RTVSPost2010PropOp30
 70
     1
102
RTVSPost2010Prop31
280
     0
102
RTVSPost2010PropOp31
 70
     1
102
RTVSPost2010Prop32
280
     0
102
RTVSPost2010PropOp32
 70
     1
102
RTVSPost2010Prop33
280
     0
102
RTVSPost2010PropOp33
 70
     1
102
RTVSPost2010Prop34
280
     0
102
RTVSPost2010PropOp34
 70
     1
102
RTVSPost2010Prop35
280
     0
102
RTVSPost2010PropOp35
 70
     1
102
RTVSPost2010Prop36
280
     0
102
RTVSPost2010PropOp36
 70
     1
102
RTVSPost2010Prop37
 90
       50
102
RTVSPost2010PropOp37
 70
     1
102
RTVSPost2010Prop38
140
0.0
102
RTVSPost2010PropOp38
 70
     1
102
RTVSPost2010Prop39
140
1.0
102
RTVSPost2010PropOp39
 70
     1
102
RTVSPost2010Prop40
 90
        0
102
RTVSPost2010PropOp40
 70
     1
102
RTVSPost2010Prop41ColorIndex
 90
       18
102
RTVSPost2010Prop41ColorRGB
 90
        0
102
RTVSPost2010PropOp41
 70
     1
102
RTVSPost2010Prop42
 90
       50
102
RTVSPost2010PropOp42
 70
     1
102
RTVSPost2010Prop43
 90
        3
102
RTVSPost2010PropOp43
 70
     1
102
RTVSPost2010Prop44ColorIndex
 90
        5
102
RTVSPost2010Prop44ColorRGB
 90
      255
102
RTVSPost2010PropOp44
 70
     1
102
RTVSPost2010Prop45
280
     0
102
RTVSPost2010PropOp45
 70
     1
102
RTVSPost2010Prop46
 90
       50
102
RTVSPost2010PropOp46
 70
     1
102
RTVSPost2010Prop47
 90
       50
102
RTVSPost2010PropOp47
 70
     1
102
RTVSPost2010Prop48
 90
       50
102
RTVSPost2010PropOp48
 70
     1
102
RTVSPost2010Prop49
280
     0
102
RTVSPost2010PropOp49
 70
     1
102
RTVSPost2010Prop50
 90
       50
102
RTVSPost2010PropOp50
 70
     1
102
RTVSPost2010Prop51ColorIndex
 90
      256
102
RTVSPost2010Prop51ColorRGB
 90
-16777216
102
RTVSPost2010PropOp51
 70
     0
102
RTVSPost2010Prop52
140
1.0
102
RTVSPost2010PropOp52
 70
     0
102
RTVSPost2010Prop53
 90
        2
102
RTVSPost2010PropOp53
 70
     1
102
RTVSPost2010Prop54
  1
strokes_ogs.tif
102
RTVSPost2010PropOp54
 70
     1
102
RTVSPost2010Prop55
280
     0
102
RTVSPost2010PropOp55
 70
     1
102
RTVSPost2010Prop56
140
1.0
102
RTVSPost2010PropOp56
 70
     1
102
RTVSPost2010Prop57
140
1.0
102
RTVSPost2010PropOp57
 70
     1
102
RTVSPropertyOp0
 70
     1
102
RTVSPropertyOp1
 70
     1
102
RTVSPropertyOp2
 70
     1
102
RTVSPropertyOp3
 70
     1
102
RTVSPropertyOp4
 70
     1
102
RTVSPropertyOp5
 70
     1
102
RTVSPropertyOp6
 70
     1
102
RTVSPropertyOp7
 70
     1
102
RTVSPropertyOp8
 70
     1
102
RTVSPropertyOp9
 70
     1
102
RTVSPropertyOp10
 70
     1
102
RTVSPropertyOp11
 70
     1
102
RTVSPropertyOp12
 70
     1
102
RTVSPropertyOp13
 70
     1
102
RTVSPropertyOp14
 70
     1
102
RTVSPropertyOp15
 70
     1
102
RTVSPropertyOp16
 70
     1
102
RTVSPropertyOp17
 70
     1
102
RTVSPropertyOp18
 70
     1
102
RTVSPropertyOp19
 70
     1
102
RTVSPropertyOp20
 70
     1
102
RTVSPropertyOp21
 70
     1
102
RTVSPropertyOp22
 70
     1
102
RTVSPropertyOp23
 70
     1
102
RTVSPropertyOp24
 70
     1
102
RTVSPropertyOp25
 70
     1
102
RTVSPropertyOp26
 70
     1
102
RTVSPropertyOp27
 70
     1
102
RTVSPropertyOp28
 70
     1
102
RTVSPropertyOp29
 70
     1
102
RTVSPropertyOp30
 70
     1
102
RTVSPropertyOp31
 70
     1
102
RTVSPropertyOp32
 70
     1
102
RTVSPropertyOp33
 70
     1
102
RTVSPropertyOp34
 70
     1
102
RTVSPropertyOp35
 70
     1
102
RTVSPropertyOp36
 70
     1
102
RTVSPropertyOp37
 70
     1
102
RTVSPropertyOp38
 70
     1
102
RTVSPropertyOp39
 70
     1
102
RTVSPropertyOp40
 70
     1
102
RTVSPropertyOp41
 70
     1
102
RTVSPropertyOp42
 70
     1
102
RTVSPropertyOp43
 70
     1
102
RTVSPropertyOp44
 70
     1
102
RTVSPropertyOp45
 70
     1
102
RTVSPropertyOp46
 70
     1
102
RTVSPropertyOp47
 70
     1
102
RTVSPropertyOp48
 70
     1
102
RTVSPropertyOp49
 70
     1
102
RTVSPropertyOp50
 70
     1
102
RTVSPropertyOp51
 70
     0
102
RTVSPropertyOp52
 70
     0
102
RTVSPropertyOp53
 70
     1
102
RTVSPropertyOp54
 70
     1
102
RTVSPropertyOp55
 70
     1
102
RTVSPropertyOp56
 70
     1
102
RTVSPropertyOp57
 70
     1
102
RTVSPropertyOp58
 70
     1
102
RTVSPropertyOp59
 70
     1
102
RTVSPropertyOp60
 70
     1
102
RTVSPropertyOp61
 70
     1
102
RTVSPropertyOp62
 70
     1
  0
XRECORD
  5
4AA
102
{ACAD_REACTORS
330
4A9
102
}
330
4A9
100
AcDbXrecord
280
     1
102
RTVSPost2010Prop28
280
     0
102
RTVSPost2010PropOp28
 70
     1
102
RTVSPost2010Prop29
280
     1
102
RTVSPost2010PropOp29
 70
     1
102
RTVSPost2010Prop30
280
     1
102
RTVSPost2010PropOp30
 70
     1
102
RTVSPost2010Prop31
280
     0
102
RTVSPost2010PropOp31
 70
     1
102
RTVSPost2010Prop32
280
     0
102
RTVSPost2010PropOp32
 70
     1
102
RTVSPost2010Prop33
280
     0
102
RTVSPost2010PropOp33
 70
     1
102
RTVSPost2010Prop34
280
     0
102
RTVSPost2010PropOp34
 70
     1
102
RTVSPost2010Prop35
280
     0
102
RTVSPost2010PropOp35
 70
     1
102
RTVSPost2010Prop36
280
     0
102
RTVSPost2010PropOp36
 70
     1
102
RTVSPost2010Prop37
 90
       50
102
RTVSPost2010PropOp37
 70
     1
102
RTVSPost2010Prop38
140
0.0
102
RTVSPost2010PropOp38
 70
     1
102
RTVSPost2010Prop39
140
1.0
102
RTVSPost2010PropOp39
 70
     1
102
RTVSPost2010Prop40
 90
        0
102
RTVSPost2010PropOp40
 70
     1
102
RTVSPost2010Prop41ColorIndex
 90
       18
102
RTVSPost2010Prop41ColorRGB
 90
        0
102
RTVSPost2010PropOp41
 70
     1
102
RTVSPost2010Prop42
 90
       50
102
RTVSPost2010PropOp42
 70
     1
102
RTVSPost2010Prop43
 90
        3
102
RTVSPost2010PropOp43
 70
     1
102
RTVSPost2010Prop44ColorIndex
 90
        5
102
RTVSPost2010Prop44ColorRGB
 90
      255
102
RTVSPost2010PropOp44
 70
     1
102
RTVSPost2010Prop45
280
     0
102
RTVSPost2010PropOp45
 70
     1
102
RTVSPost2010Prop46
 90
       50
102
RTVSPost2010PropOp46
 70
     1
102
RTVSPost2010Prop47
 90
       50
102
RTVSPost2010PropOp47
 70
     1
102
RTVSPost2010Prop48
 90
       50
102
RTVSPost2010PropOp48
 70
     1
102
RTVSPost2010Prop49
280
     0
102
RTVSPost2010PropOp49
 70
     1
102
RTVSPost2010Prop50
 90
       50
102
RTVSPost2010PropOp50
 70
     1
102
RTVSPost2010Prop51ColorIndex
 90
      256
102
RTVSPost2010Prop51ColorRGB
 90
-16777216
102
RTVSPost2010PropOp51
 70
     0
102
RTVSPost2010Prop52
140
1.0
102
RTVSPost2010PropOp52
 70
     0
102
RTVSPost2010Prop53
 90
        2
102
RTVSPost2010PropOp53
 70
     1
102
RTVSPost2010Prop54
  1
strokes_ogs.tif
102
RTVSPost2010PropOp54
 70
     1
102
RTVSPost2010Prop55
280
     0
102
RTVSPost2010PropOp55
 70
     1
102
RTVSPost2010Prop56
140
1.0
102
RTVSPost2010PropOp56
 70
     1
102
RTVSPost2010Prop57
140
1.0
102
RTVSPost2010PropOp57
 70
     1
102
RTVSPropertyOp0
 70
     1
102
RTVSPropertyOp1
 70
     1
102
RTVSPropertyOp2
 70
     1
102
RTVSPropertyOp3
 70
     1
102
RTVSPropertyOp4
 70
     1
102
RTVSPropertyOp5
 70
     1
102
RTVSPropertyOp6
 70
     1
102
RTVSPropertyOp7
 70
     1
102
RTVSPropertyOp8
 70
     1
102
RTVSPropertyOp9
 70
     1
102
RTVSPropertyOp10
 70
     1
102
RTVSPropertyOp11
 70
     1
102
RTVSPropertyOp12
 70
     1
102
RTVSPropertyOp13
 70
     1
102
RTVSPropertyOp14
 70
     1
102
RTVSPropertyOp15
 70
     1
102
RTVSPropertyOp16
 70
     1
102
RTVSPropertyOp17
 70
     1
102
RTVSPropertyOp18
 70
     1
102
RTVSPropertyOp19
 70
     1
102
RTVSPropertyOp20
 70
     1
102
RTVSPropertyOp21
 70
     1
102
RTVSPropertyOp22
 70
     1
102
RTVSPropertyOp23
 70
     1
102
RTVSPropertyOp24
 70
     1
102
RTVSPropertyOp25
 70
     1
102
RTVSPropertyOp26
 70
     1
102
RTVSPropertyOp27
 70
     1
102
RTVSPropertyOp28
 70
     1
102
RTVSPropertyOp29
 70
     1
102
RTVSPropertyOp30
 70
     1
102
RTVSPropertyOp31
 70
     1
102
RTVSPropertyOp32
 70
     1
102
RTVSPropertyOp33
 70
     1
102
RTVSPropertyOp34
 70
     1
102
RTVSPropertyOp35
 70
     1
102
RTVSPropertyOp36
 70
     1
102
RTVSPropertyOp37
 70
     1
102
RTVSPropertyOp38
 70
     1
102
RTVSPropertyOp39
 70
     1
102
RTVSPropertyOp40
 70
     1
102
RTVSPropertyOp41
 70
     1
102
RTVSPropertyOp42
 70
     1
102
RTVSPropertyOp43
 70
     1
102
RTVSPropertyOp44
 70
     1
102
RTVSPropertyOp45
 70
     1
102
RTVSPropertyOp46
 70
     1
102
RTVSPropertyOp47
 70
     1
102
RTVSPropertyOp48
 70
     1
102
RTVSPropertyOp49
 70
     1
102
RTVSPropertyOp50
 70
     1
102
RTVSPropertyOp51
 70
     0
102
RTVSPropertyOp52
 70
     0
102
RTVSPropertyOp53
 70
     1
102
RTVSPropertyOp54
 70
     1
102
RTVSPropertyOp55
 70
     1
102
RTVSPropertyOp56
 70
     1
102
RTVSPropertyOp57
 70
     1
102
RTVSPropertyOp58
 70
     1
102
RTVSPropertyOp59
 70
     1
102
RTVSPropertyOp60
 70
     1
102
RTVSPropertyOp61
 70
     1
102
RTVSPropertyOp62
 70
     1
  0
XRECORD
  5
4AC
102
{ACAD_REACTORS
330
4AB
102
}
330
4AB
100
AcDbXrecord
280
     1
102
RTVSPost2010Prop28
280
     0
102
RTVSPost2010PropOp28
 70
     1
102
RTVSPost2010Prop29
280
     1
102
RTVSPost2010PropOp29
 70
     1
102
RTVSPost2010Prop30
280
     1
102
RTVSPost2010PropOp30
 70
     1
102
RTVSPost2010Prop31
280
     0
102
RTVSPost2010PropOp31
 70
     1
102
RTVSPost2010Prop32
280
     0
102
RTVSPost2010PropOp32
 70
     1
102
RTVSPost2010Prop33
280
     0
102
RTVSPost2010PropOp33
 70
     1
102
RTVSPost2010Prop34
280
     0
102
RTVSPost2010PropOp34
 70
     1
102
RTVSPost2010Prop35
280
     0
102
RTVSPost2010PropOp35
 70
     1
102
RTVSPost2010Prop36
280
     0
102
RTVSPost2010PropOp36
 70
     1
102
RTVSPost2010Prop37
 90
       50
102
RTVSPost2010PropOp37
 70
     1
102
RTVSPost2010Prop38
140
0.0
102
RTVSPost2010PropOp38
 70
     1
102
RTVSPost2010Prop39
140
1.0
102
RTVSPost2010PropOp39
 70
     1
102
RTVSPost2010Prop40
 90
        0
102
RTVSPost2010PropOp40
 70
     1
102
RTVSPost2010Prop41ColorIndex
 90
       18
102
RTVSPost2010Prop41ColorRGB
 90
        0
102
RTVSPost2010PropOp41
 70
     1
102
RTVSPost2010Prop42
 90
       50
102
RTVSPost2010PropOp42
 70
     1
102
RTVSPost2010Prop43
 90
        3
102
RTVSPost2010PropOp43
 70
     1
102
RTVSPost2010Prop44ColorIndex
 90
        5
102
RTVSPost2010Prop44ColorRGB
 90
      255
102
RTVSPost2010PropOp44
 70
     1
102
RTVSPost2010Prop45
280
     0
102
RTVSPost2010PropOp45
 70
     1
102
RTVSPost2010Prop46
 90
       50
102
RTVSPost2010PropOp46
 70
     1
102
RTVSPost2010Prop47
 90
       50
102
RTVSPost2010PropOp47
 70
     1
102
RTVSPost2010Prop48
 90
       50
102
RTVSPost2010PropOp48
 70
     1
102
RTVSPost2010Prop49
280
     0
102
RTVSPost2010PropOp49
 70
     1
102
RTVSPost2010Prop50
 90
       50
102
RTVSPost2010PropOp50
 70
     1
102
RTVSPost2010Prop51ColorIndex
 90
      256
102
RTVSPost2010Prop51ColorRGB
 90
-16777216
102
RTVSPost2010PropOp51
 70
     0
102
RTVSPost2010Prop52
140
1.0
102
RTVSPost2010PropOp52
 70
     0
102
RTVSPost2010Prop53
 90
        2
102
RTVSPost2010PropOp53
 70
     1
102
RTVSPost2010Prop54
  1
strokes_ogs.tif
102
RTVSPost2010PropOp54
 70
     1
102
RTVSPost2010Prop55
280
     0
102
RTVSPost2010PropOp55
 70
     1
102
RTVSPost2010Prop56
140
1.0
102
RTVSPost2010PropOp56
 70
     1
102
RTVSPost2010Prop57
140
1.0
102
RTVSPost2010PropOp57
 70
     1
102
RTVSPropertyOp0
 70
     1
102
RTVSPropertyOp1
 70
     1
102
RTVSPropertyOp2
 70
     1
102
RTVSPropertyOp3
 70
     1
102
RTVSPropertyOp4
 70
     1
102
RTVSPropertyOp5
 70
     1
102
RTVSPropertyOp6
 70
     1
102
RTVSPropertyOp7
 70
     1
102
RTVSPropertyOp8
 70
     1
102
RTVSPropertyOp9
 70
     1
102
RTVSPropertyOp10
 70
     1
102
RTVSPropertyOp11
 70
     1
102
RTVSPropertyOp12
 70
     1
102
RTVSPropertyOp13
 70
     1
102
RTVSPropertyOp14
 70
     1
102
RTVSPropertyOp15
 70
     1
102
RTVSPropertyOp16
 70
     1
102
RTVSPropertyOp17
 70
     1
102
RTVSPropertyOp18
 70
     1
102
RTVSPropertyOp19
 70
     1
102
RTVSPropertyOp20
 70
     1
102
RTVSPropertyOp21
 70
     1
102
RTVSPropertyOp22
 70
     1
102
RTVSPropertyOp23
 70
     1
102
RTVSPropertyOp24
 70
     1
102
RTVSPropertyOp25
 70
     1
102
RTVSPropertyOp26
 70
     1
102
RTVSPropertyOp27
 70
     1
102
RTVSPropertyOp28
 70
     1
102
RTVSPropertyOp29
 70
     1
102
RTVSPropertyOp30
 70
     1
102
RTVSPropertyOp31
 70
     1
102
RTVSPropertyOp32
 70
     1
102
RTVSPropertyOp33
 70
     1
102
RTVSPropertyOp34
 70
     1
102
RTVSPropertyOp35
 70
     1
102
RTVSPropertyOp36
 70
     1
102
RTVSPropertyOp37
 70
     1
102
RTVSPropertyOp38
 70
     1
102
RTVSPropertyOp39
 70
     1
102
RTVSPropertyOp40
 70
     1
102
RTVSPropertyOp41
 70
     1
102
RTVSPropertyOp42
 70
     1
102
RTVSPropertyOp43
 70
     1
102
RTVSPropertyOp44
 70
     1
102
RTVSPropertyOp45
 70
     1
102
RTVSPropertyOp46
 70
     1
102
RTVSPropertyOp47
 70
     1
102
RTVSPropertyOp48
 70
     1
102
RTVSPropertyOp49
 70
     1
102
RTVSPropertyOp50
 70
     1
102
RTVSPropertyOp51
 70
     0
102
RTVSPropertyOp52
 70
     0
102
RTVSPropertyOp53
 70
     1
102
RTVSPropertyOp54
 70
     1
102
RTVSPropertyOp55
 70
     1
102
RTVSPropertyOp56
 70
     1
102
RTVSPropertyOp57
 70
     1
102
RTVSPropertyOp58
 70
     1
102
RTVSPropertyOp59
 70
     1
102
RTVSPropertyOp60
 70
     1
102
RTVSPropertyOp61
 70
     1
102
RTVSPropertyOp62
 70
     1
  0
XRECORD
  5
4AE
102
{ACAD_REACTORS
330
4AD
102
}
330
4AD
100
AcDbXrecord
280
     1
102
RTVSPost2010Prop28
280
     0
102
RTVSPost2010PropOp28
 70
     1
102
RTVSPost2010Prop29
280
     1
102
RTVSPost2010PropOp29
 70
     1
102
RTVSPost2010Prop30
280
     1
102
RTVSPost2010PropOp30
 70
     1
102
RTVSPost2010Prop31
280
     0
102
RTVSPost2010PropOp31
 70
     1
102
RTVSPost2010Prop32
280
     0
102
RTVSPost2010PropOp32
 70
     1
102
RTVSPost2010Prop33
280
     0
102
RTVSPost2010PropOp33
 70
     1
102
RTVSPost2010Prop34
280
     0
102
RTVSPost2010PropOp34
 70
     1
102
RTVSPost2010Prop35
280
     0
102
RTVSPost2010PropOp35
 70
     1
102
RTVSPost2010Prop36
280
     0
102
RTVSPost2010PropOp36
 70
     1
102
RTVSPost2010Prop37
 90
       50
102
RTVSPost2010PropOp37
 70
     1
102
RTVSPost2010Prop38
140
0.0
102
RTVSPost2010PropOp38
 70
     1
102
RTVSPost2010Prop39
140
1.0
102
RTVSPost2010PropOp39
 70
     1
102
RTVSPost2010Prop40
 90
        0
102
RTVSPost2010PropOp40
 70
     1
102
RTVSPost2010Prop41ColorIndex
 90
       18
102
RTVSPost2010Prop41ColorRGB
 90
        0
102
RTVSPost2010PropOp41
 70
     1
102
RTVSPost2010Prop42
 90
       50
102
RTVSPost2010PropOp42
 70
     1
102
RTVSPost2010Prop43
 90
        3
102
RTVSPost2010PropOp43
 70
     1
102
RTVSPost2010Prop44ColorIndex
 90
        5
102
RTVSPost2010Prop44ColorRGB
 90
      255
102
RTVSPost2010PropOp44
 70
     1
102
RTVSPost2010Prop45
280
     0
102
RTVSPost2010PropOp45
 70
     1
102
RTVSPost2010Prop46
 90
       50
102
RTVSPost2010PropOp46
 70
     1
102
RTVSPost2010Prop47
 90
       50
102
RTVSPost2010PropOp47
 70
     1
102
RTVSPost2010Prop48
 90
       50
102
RTVSPost2010PropOp48
 70
     1
102
RTVSPost2010Prop49
280
     0
102
RTVSPost2010PropOp49
 70
     1
102
RTVSPost2010Prop50
 90
       50
102
RTVSPost2010PropOp50
 70
     1
102
RTVSPost2010Prop51ColorIndex
 90
      256
102
RTVSPost2010Prop51ColorRGB
 90
-16777216
102
RTVSPost2010PropOp51
 70
     0
102
RTVSPost2010Prop52
140
1.0
102
RTVSPost2010PropOp52
 70
     0
102
RTVSPost2010Prop53
 90
        2
102
RTVSPost2010PropOp53
 70
     1
102
RTVSPost2010Prop54
  1
strokes_ogs.tif
102
RTVSPost2010PropOp54
 70
     1
102
RTVSPost2010Prop55
280
     0
102
RTVSPost2010PropOp55
 70
     1
102
RTVSPost2010Prop56
140
1.0
102
RTVSPost2010PropOp56
 70
     1
102
RTVSPost2010Prop57
140
1.0
102
RTVSPost2010PropOp57
 70
     1
102
RTVSPropertyOp0
 70
     1
102
RTVSPropertyOp1
 70
     1
102
RTVSPropertyOp2
 70
     1
102
RTVSPropertyOp3
 70
     1
102
RTVSPropertyOp4
 70
     1
102
RTVSPropertyOp5
 70
     1
102
RTVSPropertyOp6
 70
     1
102
RTVSPropertyOp7
 70
     1
102
RTVSPropertyOp8
 70
     1
102
RTVSPropertyOp9
 70
     1
102
RTVSPropertyOp10
 70
     1
102
RTVSPropertyOp11
 70
     1
102
RTVSPropertyOp12
 70
     1
102
RTVSPropertyOp13
 70
     1
102
RTVSPropertyOp14
 70
     1
102
RTVSPropertyOp15
 70
     1
102
RTVSPropertyOp16
 70
     1
102
RTVSPropertyOp17
 70
     1
102
RTVSPropertyOp18
 70
     1
102
RTVSPropertyOp19
 70
     1
102
RTVSPropertyOp20
 70
     1
102
RTVSPropertyOp21
 70
     1
102
RTVSPropertyOp22
 70
     1
102
RTVSPropertyOp23
 70
     1
102
RTVSPropertyOp24
 70
     1
102
RTVSPropertyOp25
 70
     1
102
RTVSPropertyOp26
 70
     1
102
RTVSPropertyOp27
 70
     1
102
RTVSPropertyOp28
 70
     1
102
RTVSPropertyOp29
 70
     1
102
RTVSPropertyOp30
 70
     1
102
RTVSPropertyOp31
 70
     1
102
RTVSPropertyOp32
 70
     1
102
RTVSPropertyOp33
 70
     1
102
RTVSPropertyOp34
 70
     1
102
RTVSPropertyOp35
 70
     1
102
RTVSPropertyOp36
 70
     1
102
RTVSPropertyOp37
 70
     1
102
RTVSPropertyOp38
 70
     1
102
RTVSPropertyOp39
 70
     1
102
RTVSPropertyOp40
 70
     1
102
RTVSPropertyOp41
 70
     1
102
RTVSPropertyOp42
 70
     1
102
RTVSPropertyOp43
 70
     1
102
RTVSPropertyOp44
 70
     1
102
RTVSPropertyOp45
 70
     1
102
RTVSPropertyOp46
 70
     1
102
RTVSPropertyOp47
 70
     1
102
RTVSPropertyOp48
 70
     1
102
RTVSPropertyOp49
 70
     1
102
RTVSPropertyOp50
 70
     1
102
RTVSPropertyOp51
 70
     0
102
RTVSPropertyOp52
 70
     0
102
RTVSPropertyOp53
 70
     1
102
RTVSPropertyOp54
 70
     1
102
RTVSPropertyOp55
 70
     1
102
RTVSPropertyOp56
 70
     1
102
RTVSPropertyOp57
 70
     1
102
RTVSPropertyOp58
 70
     1
102
RTVSPropertyOp59
 70
     1
102
RTVSPropertyOp60
 70
     1
102
RTVSPropertyOp61
 70
     1
102
RTVSPropertyOp62
 70
     1
  0
XRECORD
  5
4B6
102
{ACAD_REACTORS
330
4B5
102
}
330
4B5
100
AcDbXrecord
280
     1
102
RTVSPost2010Prop28
280
     0
102
RTVSPost2010PropOp28
 70
     1
102
RTVSPost2010Prop29
280
     1
102
RTVSPost2010PropOp29
 70
     1
102
RTVSPost2010Prop30
280
     1
102
RTVSPost2010PropOp30
 70
     1
102
RTVSPost2010Prop31
280
     0
102
RTVSPost2010PropOp31
 70
     1
102
RTVSPost2010Prop32
280
     0
102
RTVSPost2010PropOp32
 70
     1
102
RTVSPost2010Prop33
280
     0
102
RTVSPost2010PropOp33
 70
     1
102
RTVSPost2010Prop34
280
     0
102
RTVSPost2010PropOp34
 70
     1
102
RTVSPost2010Prop35
280
     0
102
RTVSPost2010PropOp35
 70
     1
102
RTVSPost2010Prop36
280
     0
102
RTVSPost2010PropOp36
 70
     1
102
RTVSPost2010Prop37
 90
       50
102
RTVSPost2010PropOp37
 70
     1
102
RTVSPost2010Prop38
140
0.0
102
RTVSPost2010PropOp38
 70
     1
102
RTVSPost2010Prop39
140
1.0
102
RTVSPost2010PropOp39
 70
     1
102
RTVSPost2010Prop40
 90
        0
102
RTVSPost2010PropOp40
 70
     1
102
RTVSPost2010Prop41ColorIndex
 90
       18
102
RTVSPost2010Prop41ColorRGB
 90
        0
102
RTVSPost2010PropOp41
 70
     1
102
RTVSPost2010Prop42
 90
       50
102
RTVSPost2010PropOp42
 70
     1
102
RTVSPost2010Prop43
 90
        3
102
RTVSPost2010PropOp43
 70
     1
102
RTVSPost2010Prop44ColorIndex
 90
        5
102
RTVSPost2010Prop44ColorRGB
 90
      255
102
RTVSPost2010PropOp44
 70
     1
102
RTVSPost2010Prop45
280
     0
102
RTVSPost2010PropOp45
 70
     1
102
RTVSPost2010Prop46
 90
       50
102
RTVSPost2010PropOp46
 70
     1
102
RTVSPost2010Prop47
 90
       50
102
RTVSPost2010PropOp47
 70
     1
102
RTVSPost2010Prop48
 90
       50
102
RTVSPost2010PropOp48
 70
     1
102
RTVSPost2010Prop49
280
     0
102
RTVSPost2010PropOp49
 70
     1
102
RTVSPost2010Prop50
 90
       50
102
RTVSPost2010PropOp50
 70
     1
102
RTVSPost2010Prop51ColorIndex
 90
      256
102
RTVSPost2010Prop51ColorRGB
 90
-16777216
102
RTVSPost2010PropOp51
 70
     0
102
RTVSPost2010Prop52
140
1.0
102
RTVSPost2010PropOp52
 70
     0
102
RTVSPost2010Prop53
 90
        2
102
RTVSPost2010PropOp53
 70
     1
102
RTVSPost2010Prop54
  1
strokes_ogs.tif
102
RTVSPost2010PropOp54
 70
     1
102
RTVSPost2010Prop55
280
     0
102
RTVSPost2010PropOp55
 70
     1
102
RTVSPost2010Prop56
140
1.0
102
RTVSPost2010PropOp56
 70
     1
102
RTVSPost2010Prop57
140
1.0
102
RTVSPost2010PropOp57
 70
     1
102
RTVSPropertyOp0
 70
     1
102
RTVSPropertyOp1
 70
     1
102
RTVSPropertyOp2
 70
     1
102
RTVSPropertyOp3
 70
     1
102
RTVSPropertyOp4
 70
     1
102
RTVSPropertyOp5
 70
     1
102
RTVSPropertyOp6
 70
     1
102
RTVSPropertyOp7
 70
     1
102
RTVSPropertyOp8
 70
     1
102
RTVSPropertyOp9
 70
     1
102
RTVSPropertyOp10
 70
     1
102
RTVSPropertyOp11
 70
     1
102
RTVSPropertyOp12
 70
     1
102
RTVSPropertyOp13
 70
     1
102
RTVSPropertyOp14
 70
     1
102
RTVSPropertyOp15
 70
     1
102
RTVSPropertyOp16
 70
     1
102
RTVSPropertyOp17
 70
     1
102
RTVSPropertyOp18
 70
     1
102
RTVSPropertyOp19
 70
     1
102
RTVSPropertyOp20
 70
     1
102
RTVSPropertyOp21
 70
     1
102
RTVSPropertyOp22
 70
     1
102
RTVSPropertyOp23
 70
     1
102
RTVSPropertyOp24
 70
     1
102
RTVSPropertyOp25
 70
     1
102
RTVSPropertyOp26
 70
     1
102
RTVSPropertyOp27
 70
     1
102
RTVSPropertyOp28
 70
     1
102
RTVSPropertyOp29
 70
     1
102
RTVSPropertyOp30
 70
     1
102
RTVSPropertyOp31
 70
     1
102
RTVSPropertyOp32
 70
     1
102
RTVSPropertyOp33
 70
     1
102
RTVSPropertyOp34
 70
     1
102
RTVSPropertyOp35
 70
     1
102
RTVSPropertyOp36
 70
     1
102
RTVSPropertyOp37
 70
     1
102
RTVSPropertyOp38
 70
     1
102
RTVSPropertyOp39
 70
     1
102
RTVSPropertyOp40
 70
     1
102
RTVSPropertyOp41
 70
     1
102
RTVSPropertyOp42
 70
     1
102
RTVSPropertyOp43
 70
     1
102
RTVSPropertyOp44
 70
     1
102
RTVSPropertyOp45
 70
     1
102
RTVSPropertyOp46
 70
     1
102
RTVSPropertyOp47
 70
     1
102
RTVSPropertyOp48
 70
     1
102
RTVSPropertyOp49
 70
     1
102
RTVSPropertyOp50
 70
     1
102
RTVSPropertyOp51
 70
     0
102
RTVSPropertyOp52
 70
     0
102
RTVSPropertyOp53
 70
     1
102
RTVSPropertyOp54
 70
     1
102
RTVSPropertyOp55
 70
     1
102
RTVSPropertyOp56
 70
     1
102
RTVSPropertyOp57
 70
     1
102
RTVSPropertyOp58
 70
     1
102
RTVSPropertyOp59
 70
     1
102
RTVSPropertyOp60
 70
     1
102
RTVSPropertyOp61
 70
     1
102
RTVSPropertyOp62
 70
     1
  0
XRECORD
  5
4D2
102
{ACAD_REACTORS
330
4D1
102
}
330
4D1
100
AcDbXrecord
280
     1
102
RTVSPost2010Prop28
280
     0
102
RTVSPost2010PropOp28
 70
     1
102
RTVSPost2010Prop29
280
     1
102
RTVSPost2010PropOp29
 70
     1
102
RTVSPost2010Prop30
280
     1
102
RTVSPost2010PropOp30
 70
     1
102
RTVSPost2010Prop31
280
     0
102
RTVSPost2010PropOp31
 70
     1
102
RTVSPost2010Prop32
280
     0
102
RTVSPost2010PropOp32
 70
     1
102
RTVSPost2010Prop33
280
     0
102
RTVSPost2010PropOp33
 70
     1
102
RTVSPost2010Prop34
280
     0
102
RTVSPost2010PropOp34
 70
     1
102
RTVSPost2010Prop35
280
     0
102
RTVSPost2010PropOp35
 70
     1
102
RTVSPost2010Prop36
280
     0
102
RTVSPost2010PropOp36
 70
     1
102
RTVSPost2010Prop37
 90
       50
102
RTVSPost2010PropOp37
 70
     0
102
RTVSPost2010Prop38
140
0.0
102
RTVSPost2010PropOp38
 70
     0
102
RTVSPost2010Prop39
140
1.0
102
RTVSPost2010PropOp39
 70
     0
102
RTVSPost2010Prop40
 90
        0
102
RTVSPost2010PropOp40
 70
     0
102
RTVSPost2010Prop41ColorIndex
 90
       18
102
RTVSPost2010Prop41ColorRGB
 90
        0
102
RTVSPost2010PropOp41
 70
     0
102
RTVSPost2010Prop42
 90
       50
102
RTVSPost2010PropOp42
 70
     0
102
RTVSPost2010Prop43
 90
        3
102
RTVSPost2010PropOp43
 70
     0
102
RTVSPost2010Prop44ColorIndex
 90
        5
102
RTVSPost2010Prop44ColorRGB
 90
      255
102
RTVSPost2010PropOp44
 70
     0
102
RTVSPost2010Prop45
280
     0
102
RTVSPost2010PropOp45
 70
     1
102
RTVSPost2010Prop46
 90
       50
102
RTVSPost2010PropOp46
 70
     0
102
RTVSPost2010Prop47
 90
       50
102
RTVSPost2010PropOp47
 70
     0
102
RTVSPost2010Prop48
 90
       50
102
RTVSPost2010PropOp48
 70
     0
102
RTVSPost2010Prop49
280
     0
102
RTVSPost2010PropOp49
 70
     1
102
RTVSPost2010Prop50
 90
       50
102
RTVSPost2010PropOp50
 70
     0
102
RTVSPost2010Prop51ColorIndex
 90
      256
102
RTVSPost2010Prop51ColorRGB
 90
-16777216
102
RTVSPost2010PropOp51
 70
     0
102
RTVSPost2010Prop52
140
1.0
102
RTVSPost2010PropOp52
 70
     0
102
RTVSPost2010Prop53
 90
        2
102
RTVSPost2010PropOp53
 70
     0
102
RTVSPost2010Prop54
  1
strokes_ogs.tif
102
RTVSPost2010PropOp54
 70
     0
102
RTVSPost2010Prop55
280
     0
102
RTVSPost2010PropOp55
 70
     1
102
RTVSPost2010Prop56
140
1.0
102
RTVSPost2010PropOp56
 70
     0
102
RTVSPost2010Prop57
140
1.0
102
RTVSPost2010PropOp57
 70
     0
102
RTVSPropertyOp0
 70
     0
102
RTVSPropertyOp1
 70
     0
102
RTVSPropertyOp2
 70
     0
102
RTVSPropertyOp3
 70
     0
102
RTVSPropertyOp4
 70
     0
102
RTVSPropertyOp5
 70
     0
102
RTVSPropertyOp6
 70
     0
102
RTVSPropertyOp7
 70
     0
102
RTVSPropertyOp8
 70
     0
102
RTVSPropertyOp9
 70
     0
102
RTVSPropertyOp10
 70
     0
102
RTVSPropertyOp11
 70
     0
102
RTVSPropertyOp12
 70
     0
102
RTVSPropertyOp13
 70
     0
102
RTVSPropertyOp14
 70
     2
102
RTVSPropertyOp15
 70
     0
102
RTVSPropertyOp16
 70
     0
102
RTVSPropertyOp17
 70
     0
102
RTVSPropertyOp18
 70
     0
102
RTVSPropertyOp19
 70
     0
102
RTVSPropertyOp20
 70
     0
102
RTVSPropertyOp21
 70
     0
102
RTVSPropertyOp22
 70
     0
102
RTVSPropertyOp23
 70
     0
102
RTVSPropertyOp24
 70
     0
102
RTVSPropertyOp25
 70
     0
102
RTVSPropertyOp26
 70
     0
102
RTVSPropertyOp27
 70
     0
102
RTVSPropertyOp28
 70
     1
102
RTVSPropertyOp29
 70
     1
102
RTVSPropertyOp30
 70
     1
102
RTVSPropertyOp31
 70
     1
102
RTVSPropertyOp32
 70
     1
102
RTVSPropertyOp33
 70
     1
102
RTVSPropertyOp34
 70
     1
102
RTVSPropertyOp35
 70
     1
102
RTVSPropertyOp36
 70
     1
102
RTVSPropertyOp37
 70
     0
102
RTVSPropertyOp38
 70
     0
102
RTVSPropertyOp39
 70
     0
102
RTVSPropertyOp40
 70
     0
102
RTVSPropertyOp41
 70
     0
102
RTVSPropertyOp42
 70
     0
102
RTVSPropertyOp43
 70
     0
102
RTVSPropertyOp44
 70
     0
102
RTVSPropertyOp45
 70
     1
102
RTVSPropertyOp46
 70
     0
102
RTVSPropertyOp47
 70
     0
102
RTVSPropertyOp48
 70
     0
102
RTVSPropertyOp49
 70
     1
102
RTVSPropertyOp50
 70
     0
102
RTVSPropertyOp51
 70
     0
102
RTVSPropertyOp52
 70
     0
102
RTVSPropertyOp53
 70
     0
102
RTVSPropertyOp54
 70
     0
102
RTVSPropertyOp55
 70
     1
102
RTVSPropertyOp56
 70
     0
102
RTVSPropertyOp57
 70
     0
102
RTVSPropertyOp58
 70
     0
102
RTVSPropertyOp59
 70
     0
102
RTVSPropertyOp60
 70
     0
102
RTVSPropertyOp61
 70
     0
102
RTVSPropertyOp62
 70
     0
  0
XRECORD
  5
4C2
102
{ACAD_REACTORS
330
4C1
102
}
330
4C1
100
AcDbXrecord
280
     1
102
RTVSPost2010Prop28
280
     0
102
RTVSPost2010PropOp28
 70
     1
102
RTVSPost2010Prop29
280
     1
102
RTVSPost2010PropOp29
 70
     1
102
RTVSPost2010Prop30
280
     1
102
RTVSPost2010PropOp30
 70
     1
102
RTVSPost2010Prop31
280
     0
102
RTVSPost2010PropOp31
 70
     1
102
RTVSPost2010Prop32
280
     0
102
RTVSPost2010PropOp32
 70
     1
102
RTVSPost2010Prop33
280
     0
102
RTVSPost2010PropOp33
 70
     1
102
RTVSPost2010Prop34
280
     0
102
RTVSPost2010PropOp34
 70
     1
102
RTVSPost2010Prop35
280
     0
102
RTVSPost2010PropOp35
 70
     1
102
RTVSPost2010Prop36
280
     0
102
RTVSPost2010PropOp36
 70
     1
102
RTVSPost2010Prop37
 90
       50
102
RTVSPost2010PropOp37
 70
     1
102
RTVSPost2010Prop38
140
0.0
102
RTVSPost2010PropOp38
 70
     1
102
RTVSPost2010Prop39
140
1.0
102
RTVSPost2010PropOp39
 70
     1
102
RTVSPost2010Prop40
 90
        0
102
RTVSPost2010PropOp40
 70
     1
102
RTVSPost2010Prop41ColorIndex
 90
       18
102
RTVSPost2010Prop41ColorRGB
 90
        0
102
RTVSPost2010PropOp41
 70
     1
102
RTVSPost2010Prop42
 90
       50
102
RTVSPost2010PropOp42
 70
     1
102
RTVSPost2010Prop43
 90
        3
102
RTVSPost2010PropOp43
 70
     1
102
RTVSPost2010Prop44ColorIndex
 90
        5
102
RTVSPost2010Prop44ColorRGB
 90
      255
102
RTVSPost2010PropOp44
 70
     1
102
RTVSPost2010Prop45
280
     0
102
RTVSPost2010PropOp45
 70
     1
102
RTVSPost2010Prop46
 90
       50
102
RTVSPost2010PropOp46
 70
     1
102
RTVSPost2010Prop47
 90
       50
102
RTVSPost2010PropOp47
 70
     1
102
RTVSPost2010Prop48
 90
       50
102
RTVSPost2010PropOp48
 70
     1
102
RTVSPost2010Prop49
280
     0
102
RTVSPost2010PropOp49
 70
     1
102
RTVSPost2010Prop50
 90
       50
102
RTVSPost2010PropOp50
 70
     1
102
RTVSPost2010Prop51ColorIndex
 90
      256
102
RTVSPost2010Prop51ColorRGB
 90
-16777216
102
RTVSPost2010PropOp51
 70
     0
102
RTVSPost2010Prop52
140
1.0
102
RTVSPost2010PropOp52
 70
     0
102
RTVSPost2010Prop53
 90
        2
102
RTVSPost2010PropOp53
 70
     1
102
RTVSPost2010Prop54
  1
strokes_ogs.tif
102
RTVSPost2010PropOp54
 70
     1
102
RTVSPost2010Prop55
280
     0
102
RTVSPost2010PropOp55
 70
     1
102
RTVSPost2010Prop56
140
1.0
102
RTVSPost2010PropOp56
 70
     1
102
RTVSPost2010Prop57
140
1.0
102
RTVSPost2010PropOp57
 70
     1
102
RTVSPropertyOp0
 70
     1
102
RTVSPropertyOp1
 70
     1
102
RTVSPropertyOp2
 70
     1
102
RTVSPropertyOp3
 70
     1
102
RTVSPropertyOp4
 70
     1
102
RTVSPropertyOp5
 70
     1
102
RTVSPropertyOp6
 70
     1
102
RTVSPropertyOp7
 70
     1
102
RTVSPropertyOp8
 70
     1
102
RTVSPropertyOp9
 70
     1
102
RTVSPropertyOp10
 70
     1
102
RTVSPropertyOp11
 70
     1
102
RTVSPropertyOp12
 70
     1
102
RTVSPropertyOp13
 70
     1
102
RTVSPropertyOp14
 70
     1
102
RTVSPropertyOp15
 70
     1
102
RTVSPropertyOp16
 70
     1
102
RTVSPropertyOp17
 70
     1
102
RTVSPropertyOp18
 70
     1
102
RTVSPropertyOp19
 70
     1
102
RTVSPropertyOp20
 70
     1
102
RTVSPropertyOp21
 70
     1
102
RTVSPropertyOp22
 70
     1
102
RTVSPropertyOp23
 70
     1
102
RTVSPropertyOp24
 70
     1
102
RTVSPropertyOp25
 70
     1
102
RTVSPropertyOp26
 70
     1
102
RTVSPropertyOp27
 70
     1
102
RTVSPropertyOp28
 70
     1
102
RTVSPropertyOp29
 70
     1
102
RTVSPropertyOp30
 70
     1
102
RTVSPropertyOp31
 70
     1
102
RTVSPropertyOp32
 70
     1
102
RTVSPropertyOp33
 70
     1
102
RTVSPropertyOp34
 70
     1
102
RTVSPropertyOp35
 70
     1
102
RTVSPropertyOp36
 70
     1
102
RTVSPropertyOp37
 70
     1
102
RTVSPropertyOp38
 70
     1
102
RTVSPropertyOp39
 70
     1
102
RTVSPropertyOp40
 70
     1
102
RTVSPropertyOp41
 70
     1
102
RTVSPropertyOp42
 70
     1
102
RTVSPropertyOp43
 70
     1
102
RTVSPropertyOp44
 70
     1
102
RTVSPropertyOp45
 70
     1
102
RTVSPropertyOp46
 70
     1
102
RTVSPropertyOp47
 70
     1
102
RTVSPropertyOp48
 70
     1
102
RTVSPropertyOp49
 70
     1
102
RTVSPropertyOp50
 70
     1
102
RTVSPropertyOp51
 70
     0
102
RTVSPropertyOp52
 70
     0
102
RTVSPropertyOp53
 70
     1
102
RTVSPropertyOp54
 70
     1
102
RTVSPropertyOp55
 70
     1
102
RTVSPropertyOp56
 70
     1
102
RTVSPropertyOp57
 70
     1
102
RTVSPropertyOp58
 70
     1
102
RTVSPropertyOp59
 70
     1
102
RTVSPropertyOp60
 70
     1
102
RTVSPropertyOp61
 70
     1
102
RTVSPropertyOp62
 70
     1
  0
XRECORD
  5
4D4
102
{ACAD_REACTORS
330
4D3
102
}
330
4D3
100
AcDbXrecord
280
     1
102
RTVSPost2010Prop28
280
     0
102
RTVSPost2010PropOp28
 70
     1
102
RTVSPost2010Prop29
280
     1
102
RTVSPost2010PropOp29
 70
     1
102
RTVSPost2010Prop30
280
     1
102
RTVSPost2010PropOp30
 70
     1
102
RTVSPost2010Prop31
280
     0
102
RTVSPost2010PropOp31
 70
     1
102
RTVSPost2010Prop32
280
     0
102
RTVSPost2010PropOp32
 70
     1
102
RTVSPost2010Prop33
280
     0
102
RTVSPost2010PropOp33
 70
     1
102
RTVSPost2010Prop34
280
     0
102
RTVSPost2010PropOp34
 70
     1
102
RTVSPost2010Prop35
280
     0
102
RTVSPost2010PropOp35
 70
     1
102
RTVSPost2010Prop36
280
     0
102
RTVSPost2010PropOp36
 70
     1
102
RTVSPost2010Prop37
 90
       50
102
RTVSPost2010PropOp37
 70
     0
102
RTVSPost2010Prop38
140
0.0
102
RTVSPost2010PropOp38
 70
     0
102
RTVSPost2010Prop39
140
1.0
102
RTVSPost2010PropOp39
 70
     0
102
RTVSPost2010Prop40
 90
        0
102
RTVSPost2010PropOp40
 70
     0
102
RTVSPost2010Prop41ColorIndex
 90
       18
102
RTVSPost2010Prop41ColorRGB
 90
        0
102
RTVSPost2010PropOp41
 70
     0
102
RTVSPost2010Prop42
 90
       50
102
RTVSPost2010PropOp42
 70
     0
102
RTVSPost2010Prop43
 90
        3
102
RTVSPost2010PropOp43
 70
     0
102
RTVSPost2010Prop44ColorIndex
 90
        5
102
RTVSPost2010Prop44ColorRGB
 90
      255
102
RTVSPost2010PropOp44
 70
     0
102
RTVSPost2010Prop45
280
     0
102
RTVSPost2010PropOp45
 70
     1
102
RTVSPost2010Prop46
 90
       50
102
RTVSPost2010PropOp46
 70
     0
102
RTVSPost2010Prop47
 90
       50
102
RTVSPost2010PropOp47
 70
     0
102
RTVSPost2010Prop48
 90
       50
102
RTVSPost2010PropOp48
 70
     0
102
RTVSPost2010Prop49
280
     0
102
RTVSPost2010PropOp49
 70
     1
102
RTVSPost2010Prop50
 90
       50
102
RTVSPost2010PropOp50
 70
     0
102
RTVSPost2010Prop51ColorIndex
 90
      256
102
RTVSPost2010Prop51ColorRGB
 90
-16777216
102
RTVSPost2010PropOp51
 70
     0
102
RTVSPost2010Prop52
140
1.0
102
RTVSPost2010PropOp52
 70
     0
102
RTVSPost2010Prop53
 90
        2
102
RTVSPost2010PropOp53
 70
     0
102
RTVSPost2010Prop54
  1
strokes_ogs.tif
102
RTVSPost2010PropOp54
 70
     0
102
RTVSPost2010Prop55
280
     0
102
RTVSPost2010PropOp55
 70
     1
102
RTVSPost2010Prop56
140
1.0
102
RTVSPost2010PropOp56
 70
     0
102
RTVSPost2010Prop57
140
1.0
102
RTVSPost2010PropOp57
 70
     0
102
RTVSPropertyOp0
 70
     0
102
RTVSPropertyOp1
 70
     0
102
RTVSPropertyOp2
 70
     0
102
RTVSPropertyOp3
 70
     0
102
RTVSPropertyOp4
 70
     0
102
RTVSPropertyOp5
 70
     0
102
RTVSPropertyOp6
 70
     0
102
RTVSPropertyOp7
 70
     0
102
RTVSPropertyOp8
 70
     0
102
RTVSPropertyOp9
 70
     0
102
RTVSPropertyOp10
 70
     0
102
RTVSPropertyOp11
 70
     0
102
RTVSPropertyOp12
 70
     0
102
RTVSPropertyOp13
 70
     0
102
RTVSPropertyOp14
 70
     2
102
RTVSPropertyOp15
 70
     0
102
RTVSPropertyOp16
 70
     0
102
RTVSPropertyOp17
 70
     0
102
RTVSPropertyOp18
 70
     0
102
RTVSPropertyOp19
 70
     0
102
RTVSPropertyOp20
 70
     0
102
RTVSPropertyOp21
 70
     0
102
RTVSPropertyOp22
 70
     0
102
RTVSPropertyOp23
 70
     0
102
RTVSPropertyOp24
 70
     0
102
RTVSPropertyOp25
 70
     0
102
RTVSPropertyOp26
 70
     0
102
RTVSPropertyOp27
 70
     0
102
RTVSPropertyOp28
 70
     1
102
RTVSPropertyOp29
 70
     1
102
RTVSPropertyOp30
 70
     1
102
RTVSPropertyOp31
 70
     1
102
RTVSPropertyOp32
 70
     1
102
RTVSPropertyOp33
 70
     1
102
RTVSPropertyOp34
 70
     1
102
RTVSPropertyOp35
 70
     1
102
RTVSPropertyOp36
 70
     1
102
RTVSPropertyOp37
 70
     0
102
RTVSPropertyOp38
 70
     0
102
RTVSPropertyOp39
 70
     0
102
RTVSPropertyOp40
 70
     0
102
RTVSPropertyOp41
 70
     0
102
RTVSPropertyOp42
 70
     0
102
RTVSPropertyOp43
 70
     0
102
RTVSPropertyOp44
 70
     0
102
RTVSPropertyOp45
 70
     1
102
RTVSPropertyOp46
 70
     0
102
RTVSPropertyOp47
 70
     0
102
RTVSPropertyOp48
 70
     0
102
RTVSPropertyOp49
 70
     1
102
RTVSPropertyOp50
 70
     0
102
RTVSPropertyOp51
 70
     0
102
RTVSPropertyOp52
 70
     0
102
RTVSPropertyOp53
 70
     0
102
RTVSPropertyOp54
 70
     0
102
RTVSPropertyOp55
 70
     1
102
RTVSPropertyOp56
 70
     0
102
RTVSPropertyOp57
 70
     0
102
RTVSPropertyOp58
 70
     0
102
RTVSPropertyOp59
 70
     0
102
RTVSPropertyOp60
 70
     0
102
RTVSPropertyOp61
 70
     0
102
RTVSPropertyOp62
 70
     0
  0
XRECORD
  5
4BA
102
{ACAD_REACTORS
330
4B9
102
}
330
4B9
100
AcDbXrecord
280
     1
102
RTVSPost2010Prop28
280
     0
102
RTVSPost2010PropOp28
 70
     1
102
RTVSPost2010Prop29
280
     1
102
RTVSPost2010PropOp29
 70
     1
102
RTVSPost2010Prop30
280
     1
102
RTVSPost2010PropOp30
 70
     1
102
RTVSPost2010Prop31
280
     0
102
RTVSPost2010PropOp31
 70
     1
102
RTVSPost2010Prop32
280
     0
102
RTVSPost2010PropOp32
 70
     1
102
RTVSPost2010Prop33
280
     0
102
RTVSPost2010PropOp33
 70
     1
102
RTVSPost2010Prop34
280
     0
102
RTVSPost2010PropOp34
 70
     1
102
RTVSPost2010Prop35
280
     0
102
RTVSPost2010PropOp35
 70
     1
102
RTVSPost2010Prop36
280
     0
102
RTVSPost2010PropOp36
 70
     1
102
RTVSPost2010Prop37
 90
       50
102
RTVSPost2010PropOp37
 70
     1
102
RTVSPost2010Prop38
140
0.0
102
RTVSPost2010PropOp38
 70
     1
102
RTVSPost2010Prop39
140
1.0
102
RTVSPost2010PropOp39
 70
     1
102
RTVSPost2010Prop40
 90
        0
102
RTVSPost2010PropOp40
 70
     1
102
RTVSPost2010Prop41ColorIndex
 90
       18
102
RTVSPost2010Prop41ColorRGB
 90
        0
102
RTVSPost2010PropOp41
 70
     1
102
RTVSPost2010Prop42
 90
       50
102
RTVSPost2010PropOp42
 70
     1
102
RTVSPost2010Prop43
 90
        3
102
RTVSPost2010PropOp43
 70
     1
102
RTVSPost2010Prop44ColorIndex
 90
        5
102
RTVSPost2010Prop44ColorRGB
 90
      255
102
RTVSPost2010PropOp44
 70
     1
102
RTVSPost2010Prop45
280
     0
102
RTVSPost2010PropOp45
 70
     1
102
RTVSPost2010Prop46
 90
       50
102
RTVSPost2010PropOp46
 70
     1
102
RTVSPost2010Prop47
 90
       50
102
RTVSPost2010PropOp47
 70
     1
102
RTVSPost2010Prop48
 90
       50
102
RTVSPost2010PropOp48
 70
     1
102
RTVSPost2010Prop49
280
     0
102
RTVSPost2010PropOp49
 70
     1
102
RTVSPost2010Prop50
 90
       50
102
RTVSPost2010PropOp50
 70
     1
102
RTVSPost2010Prop51ColorIndex
 90
      256
102
RTVSPost2010Prop51ColorRGB
 90
-16777216
102
RTVSPost2010PropOp51
 70
     0
102
RTVSPost2010Prop52
140
1.0
102
RTVSPost2010PropOp52
 70
     0
102
RTVSPost2010Prop53
 90
        2
102
RTVSPost2010PropOp53
 70
     1
102
RTVSPost2010Prop54
  1
strokes_ogs.tif
102
RTVSPost2010PropOp54
 70
     1
102
RTVSPost2010Prop55
280
     0
102
RTVSPost2010PropOp55
 70
     1
102
RTVSPost2010Prop56
140
1.0
102
RTVSPost2010PropOp56
 70
     1
102
RTVSPost2010Prop57
140
1.0
102
RTVSPost2010PropOp57
 70
     1
102
RTVSPropertyOp0
 70
     1
102
RTVSPropertyOp1
 70
     1
102
RTVSPropertyOp2
 70
     1
102
RTVSPropertyOp3
 70
     1
102
RTVSPropertyOp4
 70
     1
102
RTVSPropertyOp5
 70
     1
102
RTVSPropertyOp6
 70
     1
102
RTVSPropertyOp7
 70
     1
102
RTVSPropertyOp8
 70
     1
102
RTVSPropertyOp9
 70
     1
102
RTVSPropertyOp10
 70
     1
102
RTVSPropertyOp11
 70
     1
102
RTVSPropertyOp12
 70
     1
102
RTVSPropertyOp13
 70
     1
102
RTVSPropertyOp14
 70
     1
102
RTVSPropertyOp15
 70
     1
102
RTVSPropertyOp16
 70
     1
102
RTVSPropertyOp17
 70
     1
102
RTVSPropertyOp18
 70
     1
102
RTVSPropertyOp19
 70
     1
102
RTVSPropertyOp20
 70
     1
102
RTVSPropertyOp21
 70
     1
102
RTVSPropertyOp22
 70
     1
102
RTVSPropertyOp23
 70
     1
102
RTVSPropertyOp24
 70
     1
102
RTVSPropertyOp25
 70
     1
102
RTVSPropertyOp26
 70
     1
102
RTVSPropertyOp27
 70
     1
102
RTVSPropertyOp28
 70
     1
102
RTVSPropertyOp29
 70
     1
102
RTVSPropertyOp30
 70
     1
102
RTVSPropertyOp31
 70
     1
102
RTVSPropertyOp32
 70
     1
102
RTVSPropertyOp33
 70
     1
102
RTVSPropertyOp34
 70
     1
102
RTVSPropertyOp35
 70
     1
102
RTVSPropertyOp36
 70
     1
102
RTVSPropertyOp37
 70
     1
102
RTVSPropertyOp38
 70
     1
102
RTVSPropertyOp39
 70
     1
102
RTVSPropertyOp40
 70
     1
102
RTVSPropertyOp41
 70
     1
102
RTVSPropertyOp42
 70
     1
102
RTVSPropertyOp43
 70
     1
102
RTVSPropertyOp44
 70
     1
102
RTVSPropertyOp45
 70
     1
102
RTVSPropertyOp46
 70
     1
102
RTVSPropertyOp47
 70
     1
102
RTVSPropertyOp48
 70
     1
102
RTVSPropertyOp49
 70
     1
102
RTVSPropertyOp50
 70
     1
102
RTVSPropertyOp51
 70
     0
102
RTVSPropertyOp52
 70
     0
102
RTVSPropertyOp53
 70
     1
102
RTVSPropertyOp54
 70
     1
102
RTVSPropertyOp55
 70
     1
102
RTVSPropertyOp56
 70
     1
102
RTVSPropertyOp57
 70
     1
102
RTVSPropertyOp58
 70
     1
102
RTVSPropertyOp59
 70
     1
102
RTVSPropertyOp60
 70
     1
102
RTVSPropertyOp61
 70
     1
102
RTVSPropertyOp62
 70
     1
  0
XRECORD
  5
4D0
102
{ACAD_REACTORS
330
4CF
102
}
330
4CF
100
AcDbXrecord
280
     1
102
RTVSPost2010Prop28
280
     0
102
RTVSPost2010PropOp28
 70
     1
102
RTVSPost2010Prop29
280
     1
102
RTVSPost2010PropOp29
 70
     1
102
RTVSPost2010Prop30
280
     1
102
RTVSPost2010PropOp30
 70
     1
102
RTVSPost2010Prop31
280
     0
102
RTVSPost2010PropOp31
 70
     1
102
RTVSPost2010Prop32
280
     0
102
RTVSPost2010PropOp32
 70
     1
102
RTVSPost2010Prop33
280
     0
102
RTVSPost2010PropOp33
 70
     1
102
RTVSPost2010Prop34
280
     0
102
RTVSPost2010PropOp34
 70
     1
102
RTVSPost2010Prop35
280
     0
102
RTVSPost2010PropOp35
 70
     1
102
RTVSPost2010Prop36
280
     0
102
RTVSPost2010PropOp36
 70
     1
102
RTVSPost2010Prop37
 90
       50
102
RTVSPost2010PropOp37
 70
     1
102
RTVSPost2010Prop38
140
0.0
102
RTVSPost2010PropOp38
 70
     1
102
RTVSPost2010Prop39
140
1.0
102
RTVSPost2010PropOp39
 70
     1
102
RTVSPost2010Prop40
 90
        0
102
RTVSPost2010PropOp40
 70
     1
102
RTVSPost2010Prop41ColorIndex
 90
       18
102
RTVSPost2010Prop41ColorRGB
 90
        0
102
RTVSPost2010PropOp41
 70
     1
102
RTVSPost2010Prop42
 90
       50
102
RTVSPost2010PropOp42
 70
     1
102
RTVSPost2010Prop43
 90
        3
102
RTVSPost2010PropOp43
 70
     1
102
RTVSPost2010Prop44ColorIndex
 90
        5
102
RTVSPost2010Prop44ColorRGB
 90
      255
102
RTVSPost2010PropOp44
 70
     1
102
RTVSPost2010Prop45
280
     0
102
RTVSPost2010PropOp45
 70
     1
102
RTVSPost2010Prop46
 90
       50
102
RTVSPost2010PropOp46
 70
     1
102
RTVSPost2010Prop47
 90
       50
102
RTVSPost2010PropOp47
 70
     1
102
RTVSPost2010Prop48
 90
       50
102
RTVSPost2010PropOp48
 70
     1
102
RTVSPost2010Prop49
280
     0
102
RTVSPost2010PropOp49
 70
     1
102
RTVSPost2010Prop50
 90
       50
102
RTVSPost2010PropOp50
 70
     1
102
RTVSPost2010Prop51ColorIndex
 90
      256
102
RTVSPost2010Prop51ColorRGB
 90
-16777216
102
RTVSPost2010PropOp51
 70
     0
102
RTVSPost2010Prop52
140
1.0
102
RTVSPost2010PropOp52
 70
     0
102
RTVSPost2010Prop53
 90
        2
102
RTVSPost2010PropOp53
 70
     1
102
RTVSPost2010Prop54
  1
strokes_ogs.tif
102
RTVSPost2010PropOp54
 70
     1
102
RTVSPost2010Prop55
280
     0
102
RTVSPost2010PropOp55
 70
     1
102
RTVSPost2010Prop56
140
1.0
102
RTVSPost2010PropOp56
 70
     1
102
RTVSPost2010Prop57
140
1.0
102
RTVSPost2010PropOp57
 70
     1
102
RTVSPropertyOp0
 70
     1
102
RTVSPropertyOp1
 70
     1
102
RTVSPropertyOp2
 70
     1
102
RTVSPropertyOp3
 70
     1
102
RTVSPropertyOp4
 70
     1
102
RTVSPropertyOp5
 70
     1
102
RTVSPropertyOp6
 70
     1
102
RTVSPropertyOp7
 70
     1
102
RTVSPropertyOp8
 70
     1
102
RTVSPropertyOp9
 70
     1
102
RTVSPropertyOp10
 70
     1
102
RTVSPropertyOp11
 70
     1
102
RTVSPropertyOp12
 70
     1
102
RTVSPropertyOp13
 70
     1
102
RTVSPropertyOp14
 70
     1
102
RTVSPropertyOp15
 70
     1
102
RTVSPropertyOp16
 70
     1
102
RTVSPropertyOp17
 70
     1
102
RTVSPropertyOp18
 70
     1
102
RTVSPropertyOp19
 70
     1
102
RTVSPropertyOp20
 70
     1
102
RTVSPropertyOp21
 70
     1
102
RTVSPropertyOp22
 70
     1
102
RTVSPropertyOp23
 70
     1
102
RTVSPropertyOp24
 70
     1
102
RTVSPropertyOp25
 70
     1
102
RTVSPropertyOp26
 70
     1
102
RTVSPropertyOp27
 70
     1
102
RTVSPropertyOp28
 70
     1
102
RTVSPropertyOp29
 70
     1
102
RTVSPropertyOp30
 70
     1
102
RTVSPropertyOp31
 70
     1
102
RTVSPropertyOp32
 70
     1
102
RTVSPropertyOp33
 70
     1
102
RTVSPropertyOp34
 70
     1
102
RTVSPropertyOp35
 70
     1
102
RTVSPropertyOp36
 70
     1
102
RTVSPropertyOp37
 70
     1
102
RTVSPropertyOp38
 70
     1
102
RTVSPropertyOp39
 70
     1
102
RTVSPropertyOp40
 70
     1
102
RTVSPropertyOp41
 70
     1
102
RTVSPropertyOp42
 70
     1
102
RTVSPropertyOp43
 70
     1
102
RTVSPropertyOp44
 70
     1
102
RTVSPropertyOp45
 70
     1
102
RTVSPropertyOp46
 70
     1
102
RTVSPropertyOp47
 70
     1
102
RTVSPropertyOp48
 70
     1
102
RTVSPropertyOp49
 70
     1
102
RTVSPropertyOp50
 70
     1
102
RTVSPropertyOp51
 70
     0
102
RTVSPropertyOp52
 70
     0
102
RTVSPropertyOp53
 70
     1
102
RTVSPropertyOp54
 70
     1
102
RTVSPropertyOp55
 70
     1
102
RTVSPropertyOp56
 70
     1
102
RTVSPropertyOp57
 70
     1
102
RTVSPropertyOp58
 70
     1
102
RTVSPropertyOp59
 70
     1
102
RTVSPropertyOp60
 70
     1
102
RTVSPropertyOp61
 70
     1
102
RTVSPropertyOp62
 70
     1
  0
XRECORD
  5
4CE
102
{ACAD_REACTORS
330
4CD
102
}
330
4CD
100
AcDbXrecord
280
     1
102
RTVSPost2010Prop28
280
     0
102
RTVSPost2010PropOp28
 70
     1
102
RTVSPost2010Prop29
280
     1
102
RTVSPost2010PropOp29
 70
     1
102
RTVSPost2010Prop30
280
     1
102
RTVSPost2010PropOp30
 70
     1
102
RTVSPost2010Prop31
280
     0
102
RTVSPost2010PropOp31
 70
     1
102
RTVSPost2010Prop32
280
     0
102
RTVSPost2010PropOp32
 70
     1
102
RTVSPost2010Prop33
280
     0
102
RTVSPost2010PropOp33
 70
     1
102
RTVSPost2010Prop34
280
     0
102
RTVSPost2010PropOp34
 70
     1
102
RTVSPost2010Prop35
280
     0
102
RTVSPost2010PropOp35
 70
     1
102
RTVSPost2010Prop36
280
     0
102
RTVSPost2010PropOp36
 70
     1
102
RTVSPost2010Prop37
 90
       50
102
RTVSPost2010PropOp37
 70
     1
102
RTVSPost2010Prop38
140
0.0
102
RTVSPost2010PropOp38
 70
     1
102
RTVSPost2010Prop39
140
1.0
102
RTVSPost2010PropOp39
 70
     1
102
RTVSPost2010Prop40
 90
        0
102
RTVSPost2010PropOp40
 70
     1
102
RTVSPost2010Prop41ColorIndex
 90
       18
102
RTVSPost2010Prop41ColorRGB
 90
        0
102
RTVSPost2010PropOp41
 70
     1
102
RTVSPost2010Prop42
 90
       50
102
RTVSPost2010PropOp42
 70
     1
102
RTVSPost2010Prop43
 90
        3
102
RTVSPost2010PropOp43
 70
     1
102
RTVSPost2010Prop44ColorIndex
 90
        5
102
RTVSPost2010Prop44ColorRGB
 90
      255
102
RTVSPost2010PropOp44
 70
     1
102
RTVSPost2010Prop45
280
     0
102
RTVSPost2010PropOp45
 70
     1
102
RTVSPost2010Prop46
 90
       50
102
RTVSPost2010PropOp46
 70
     1
102
RTVSPost2010Prop47
 90
       50
102
RTVSPost2010PropOp47
 70
     1
102
RTVSPost2010Prop48
 90
       50
102
RTVSPost2010PropOp48
 70
     1
102
RTVSPost2010Prop49
280
     0
102
RTVSPost2010PropOp49
 70
     1
102
RTVSPost2010Prop50
 90
       50
102
RTVSPost2010PropOp50
 70
     1
102
RTVSPost2010Prop51ColorIndex
 90
      256
102
RTVSPost2010Prop51ColorRGB
 90
-16777216
102
RTVSPost2010PropOp51
 70
     0
102
RTVSPost2010Prop52
140
1.0
102
RTVSPost2010PropOp52
 70
     0
102
RTVSPost2010Prop53
 90
        2
102
RTVSPost2010PropOp53
 70
     1
102
RTVSPost2010Prop54
  1
strokes_ogs.tif
102
RTVSPost2010PropOp54
 70
     1
102
RTVSPost2010Prop55
280
     0
102
RTVSPost2010PropOp55
 70
     1
102
RTVSPost2010Prop56
140
1.0
102
RTVSPost2010PropOp56
 70
     1
102
RTVSPost2010Prop57
140
1.0
102
RTVSPost2010PropOp57
 70
     1
102
RTVSPropertyOp0
 70
     1
102
RTVSPropertyOp1
 70
     1
102
RTVSPropertyOp2
 70
     1
102
RTVSPropertyOp3
 70
     1
102
RTVSPropertyOp4
 70
     1
102
RTVSPropertyOp5
 70
     1
102
RTVSPropertyOp6
 70
     1
102
RTVSPropertyOp7
 70
     1
102
RTVSPropertyOp8
 70
     1
102
RTVSPropertyOp9
 70
     1
102
RTVSPropertyOp10
 70
     1
102
RTVSPropertyOp11
 70
     1
102
RTVSPropertyOp12
 70
     1
102
RTVSPropertyOp13
 70
     1
102
RTVSPropertyOp14
 70
     1
102
RTVSPropertyOp15
 70
     1
102
RTVSPropertyOp16
 70
     1
102
RTVSPropertyOp17
 70
     1
102
RTVSPropertyOp18
 70
     1
102
RTVSPropertyOp19
 70
     1
102
RTVSPropertyOp20
 70
     1
102
RTVSPropertyOp21
 70
     1
102
RTVSPropertyOp22
 70
     1
102
RTVSPropertyOp23
 70
     1
102
RTVSPropertyOp24
 70
     1
102
RTVSPropertyOp25
 70
     1
102
RTVSPropertyOp26
 70
     1
102
RTVSPropertyOp27
 70
     1
102
RTVSPropertyOp28
 70
     1
102
RTVSPropertyOp29
 70
     1
102
RTVSPropertyOp30
 70
     1
102
RTVSPropertyOp31
 70
     1
102
RTVSPropertyOp32
 70
     1
102
RTVSPropertyOp33
 70
     1
102
RTVSPropertyOp34
 70
     1
102
RTVSPropertyOp35
 70
     1
102
RTVSPropertyOp36
 70
     1
102
RTVSPropertyOp37
 70
     1
102
RTVSPropertyOp38
 70
     1
102
RTVSPropertyOp39
 70
     1
102
RTVSPropertyOp40
 70
     1
102
RTVSPropertyOp41
 70
     1
102
RTVSPropertyOp42
 70
     1
102
RTVSPropertyOp43
 70
     1
102
RTVSPropertyOp44
 70
     1
102
RTVSPropertyOp45
 70
     1
102
RTVSPropertyOp46
 70
     1
102
RTVSPropertyOp47
 70
     1
102
RTVSPropertyOp48
 70
     1
102
RTVSPropertyOp49
 70
     1
102
RTVSPropertyOp50
 70
     1
102
RTVSPropertyOp51
 70
     0
102
RTVSPropertyOp52
 70
     0
102
RTVSPropertyOp53
 70
     1
102
RTVSPropertyOp54
 70
     1
102
RTVSPropertyOp55
 70
     1
102
RTVSPropertyOp56
 70
     1
102
RTVSPropertyOp57
 70
     1
102
RTVSPropertyOp58
 70
     1
102
RTVSPropertyOp59
 70
     1
102
RTVSPropertyOp60
 70
     1
102
RTVSPropertyOp61
 70
     1
102
RTVSPropertyOp62
 70
     1
  0
XRECORD
  5
4C8
102
{ACAD_REACTORS
330
4C7
102
}
330
4C7
100
AcDbXrecord
280
     1
102
RTVSPost2010Prop28
280
     0
102
RTVSPost2010PropOp28
 70
     1
102
RTVSPost2010Prop29
280
     1
102
RTVSPost2010PropOp29
 70
     1
102
RTVSPost2010Prop30
280
     1
102
RTVSPost2010PropOp30
 70
     1
102
RTVSPost2010Prop31
280
     0
102
RTVSPost2010PropOp31
 70
     1
102
RTVSPost2010Prop32
280
     0
102
RTVSPost2010PropOp32
 70
     1
102
RTVSPost2010Prop33
280
     0
102
RTVSPost2010PropOp33
 70
     1
102
RTVSPost2010Prop34
280
     0
102
RTVSPost2010PropOp34
 70
     1
102
RTVSPost2010Prop35
280
     0
102
RTVSPost2010PropOp35
 70
     1
102
RTVSPost2010Prop36
280
     0
102
RTVSPost2010PropOp36
 70
     1
102
RTVSPost2010Prop37
 90
       50
102
RTVSPost2010PropOp37
 70
     1
102
RTVSPost2010Prop38
140
0.0
102
RTVSPost2010PropOp38
 70
     1
102
RTVSPost2010Prop39
140
1.0
102
RTVSPost2010PropOp39
 70
     1
102
RTVSPost2010Prop40
 90
        0
102
RTVSPost2010PropOp40
 70
     1
102
RTVSPost2010Prop41ColorIndex
 90
       18
102
RTVSPost2010Prop41ColorRGB
 90
        0
102
RTVSPost2010PropOp41
 70
     1
102
RTVSPost2010Prop42
 90
       50
102
RTVSPost2010PropOp42
 70
     1
102
RTVSPost2010Prop43
 90
        3
102
RTVSPost2010PropOp43
 70
     1
102
RTVSPost2010Prop44ColorIndex
 90
        5
102
RTVSPost2010Prop44ColorRGB
 90
      255
102
RTVSPost2010PropOp44
 70
     1
102
RTVSPost2010Prop45
280
     0
102
RTVSPost2010PropOp45
 70
     1
102
RTVSPost2010Prop46
 90
       50
102
RTVSPost2010PropOp46
 70
     1
102
RTVSPost2010Prop47
 90
       50
102
RTVSPost2010PropOp47
 70
     1
102
RTVSPost2010Prop48
 90
       50
102
RTVSPost2010PropOp48
 70
     1
102
RTVSPost2010Prop49
280
     0
102
RTVSPost2010PropOp49
 70
     1
102
RTVSPost2010Prop50
 90
       50
102
RTVSPost2010PropOp50
 70
     1
102
RTVSPost2010Prop51ColorIndex
 90
      256
102
RTVSPost2010Prop51ColorRGB
 90
-16777216
102
RTVSPost2010PropOp51
 70
     0
102
RTVSPost2010Prop52
140
1.0
102
RTVSPost2010PropOp52
 70
     0
102
RTVSPost2010Prop53
 90
        2
102
RTVSPost2010PropOp53
 70
     1
102
RTVSPost2010Prop54
  1
strokes_ogs.tif
102
RTVSPost2010PropOp54
 70
     1
102
RTVSPost2010Prop55
280
     0
102
RTVSPost2010PropOp55
 70
     1
102
RTVSPost2010Prop56
140
1.0
102
RTVSPost2010PropOp56
 70
     1
102
RTVSPost2010Prop57
140
1.0
102
RTVSPost2010PropOp57
 70
     1
102
RTVSPropertyOp0
 70
     1
102
RTVSPropertyOp1
 70
     1
102
RTVSPropertyOp2
 70
     1
102
RTVSPropertyOp3
 70
     1
102
RTVSPropertyOp4
 70
     1
102
RTVSPropertyOp5
 70
     1
102
RTVSPropertyOp6
 70
     1
102
RTVSPropertyOp7
 70
     1
102
RTVSPropertyOp8
 70
     1
102
RTVSPropertyOp9
 70
     1
102
RTVSPropertyOp10
 70
     1
102
RTVSPropertyOp11
 70
     1
102
RTVSPropertyOp12
 70
     1
102
RTVSPropertyOp13
 70
     1
102
RTVSPropertyOp14
 70
     1
102
RTVSPropertyOp15
 70
     1
102
RTVSPropertyOp16
 70
     1
102
RTVSPropertyOp17
 70
     1
102
RTVSPropertyOp18
 70
     1
102
RTVSPropertyOp19
 70
     1
102
RTVSPropertyOp20
 70
     1
102
RTVSPropertyOp21
 70
     1
102
RTVSPropertyOp22
 70
     1
102
RTVSPropertyOp23
 70
     1
102
RTVSPropertyOp24
 70
     1
102
RTVSPropertyOp25
 70
     1
102
RTVSPropertyOp26
 70
     1
102
RTVSPropertyOp27
 70
     1
102
RTVSPropertyOp28
 70
     1
102
RTVSPropertyOp29
 70
     1
102
RTVSPropertyOp30
 70
     1
102
RTVSPropertyOp31
 70
     1
102
RTVSPropertyOp32
 70
     1
102
RTVSPropertyOp33
 70
     1
102
RTVSPropertyOp34
 70
     1
102
RTVSPropertyOp35
 70
     1
102
RTVSPropertyOp36
 70
     1
102
RTVSPropertyOp37
 70
     1
102
RTVSPropertyOp38
 70
     1
102
RTVSPropertyOp39
 70
     1
102
RTVSPropertyOp40
 70
     1
102
RTVSPropertyOp41
 70
     1
102
RTVSPropertyOp42
 70
     1
102
RTVSPropertyOp43
 70
     1
102
RTVSPropertyOp44
 70
     1
102
RTVSPropertyOp45
 70
     1
102
RTVSPropertyOp46
 70
     1
102
RTVSPropertyOp47
 70
     1
102
RTVSPropertyOp48
 70
     1
102
RTVSPropertyOp49
 70
     1
102
RTVSPropertyOp50
 70
     1
102
RTVSPropertyOp51
 70
     0
102
RTVSPropertyOp52
 70
     0
102
RTVSPropertyOp53
 70
     1
102
RTVSPropertyOp54
 70
     1
102
RTVSPropertyOp55
 70
     1
102
RTVSPropertyOp56
 70
     1
102
RTVSPropertyOp57
 70
     1
102
RTVSPropertyOp58
 70
     1
102
RTVSPropertyOp59
 70
     1
102
RTVSPropertyOp60
 70
     1
102
RTVSPropertyOp61
 70
     1
102
RTVSPropertyOp62
 70
     1
  0
XRECORD
  5
4CA
102
{ACAD_REACTORS
330
4C9
102
}
330
4C9
100
AcDbXrecord
280
     1
102
RTVSPost2010Prop28
280
     0
102
RTVSPost2010PropOp28
 70
     1
102
RTVSPost2010Prop29
280
     1
102
RTVSPost2010PropOp29
 70
     1
102
RTVSPost2010Prop30
280
     1
102
RTVSPost2010PropOp30
 70
     1
102
RTVSPost2010Prop31
280
     0
102
RTVSPost2010PropOp31
 70
     1
102
RTVSPost2010Prop32
280
     0
102
RTVSPost2010PropOp32
 70
     1
102
RTVSPost2010Prop33
280
     0
102
RTVSPost2010PropOp33
 70
     1
102
RTVSPost2010Prop34
280
     0
102
RTVSPost2010PropOp34
 70
     1
102
RTVSPost2010Prop35
280
     0
102
RTVSPost2010PropOp35
 70
     1
102
RTVSPost2010Prop36
280
     0
102
RTVSPost2010PropOp36
 70
     1
102
RTVSPost2010Prop37
 90
       50
102
RTVSPost2010PropOp37
 70
     1
102
RTVSPost2010Prop38
140
0.0
102
RTVSPost2010PropOp38
 70
     1
102
RTVSPost2010Prop39
140
1.0
102
RTVSPost2010PropOp39
 70
     1
102
RTVSPost2010Prop40
 90
        0
102
RTVSPost2010PropOp40
 70
     1
102
RTVSPost2010Prop41ColorIndex
 90
       18
102
RTVSPost2010Prop41ColorRGB
 90
        0
102
RTVSPost2010PropOp41
 70
     1
102
RTVSPost2010Prop42
 90
       50
102
RTVSPost2010PropOp42
 70
     1
102
RTVSPost2010Prop43
 90
        3
102
RTVSPost2010PropOp43
 70
     1
102
RTVSPost2010Prop44ColorIndex
 90
        5
102
RTVSPost2010Prop44ColorRGB
 90
      255
102
RTVSPost2010PropOp44
 70
     1
102
RTVSPost2010Prop45
280
     0
102
RTVSPost2010PropOp45
 70
     1
102
RTVSPost2010Prop46
 90
       50
102
RTVSPost2010PropOp46
 70
     1
102
RTVSPost2010Prop47
 90
       50
102
RTVSPost2010PropOp47
 70
     1
102
RTVSPost2010Prop48
 90
       50
102
RTVSPost2010PropOp48
 70
     1
102
RTVSPost2010Prop49
280
     0
102
RTVSPost2010PropOp49
 70
     1
102
RTVSPost2010Prop50
 90
       50
102
RTVSPost2010PropOp50
 70
     1
102
RTVSPost2010Prop51ColorIndex
 90
      256
102
RTVSPost2010Prop51ColorRGB
 90
-16777216
102
RTVSPost2010PropOp51
 70
     0
102
RTVSPost2010Prop52
140
1.0
102
RTVSPost2010PropOp52
 70
     0
102
RTVSPost2010Prop53
 90
        2
102
RTVSPost2010PropOp53
 70
     1
102
RTVSPost2010Prop54
  1
strokes_ogs.tif
102
RTVSPost2010PropOp54
 70
     1
102
RTVSPost2010Prop55
280
     0
102
RTVSPost2010PropOp55
 70
     1
102
RTVSPost2010Prop56
140
1.0
102
RTVSPost2010PropOp56
 70
     1
102
RTVSPost2010Prop57
140
1.0
102
RTVSPost2010PropOp57
 70
     1
102
RTVSPropertyOp0
 70
     1
102
RTVSPropertyOp1
 70
     1
102
RTVSPropertyOp2
 70
     1
102
RTVSPropertyOp3
 70
     1
102
RTVSPropertyOp4
 70
     1
102
RTVSPropertyOp5
 70
     1
102
RTVSPropertyOp6
 70
     1
102
RTVSPropertyOp7
 70
     1
102
RTVSPropertyOp8
 70
     1
102
RTVSPropertyOp9
 70
     1
102
RTVSPropertyOp10
 70
     1
102
RTVSPropertyOp11
 70
     1
102
RTVSPropertyOp12
 70
     1
102
RTVSPropertyOp13
 70
     1
102
RTVSPropertyOp14
 70
     1
102
RTVSPropertyOp15
 70
     1
102
RTVSPropertyOp16
 70
     1
102
RTVSPropertyOp17
 70
     1
102
RTVSPropertyOp18
 70
     1
102
RTVSPropertyOp19
 70
     1
102
RTVSPropertyOp20
 70
     1
102
RTVSPropertyOp21
 70
     1
102
RTVSPropertyOp22
 70
     1
102
RTVSPropertyOp23
 70
     1
102
RTVSPropertyOp24
 70
     1
102
RTVSPropertyOp25
 70
     1
102
RTVSPropertyOp26
 70
     1
102
RTVSPropertyOp27
 70
     1
102
RTVSPropertyOp28
 70
     1
102
RTVSPropertyOp29
 70
     1
102
RTVSPropertyOp30
 70
     1
102
RTVSPropertyOp31
 70
     1
102
RTVSPropertyOp32
 70
     1
102
RTVSPropertyOp33
 70
     1
102
RTVSPropertyOp34
 70
     1
102
RTVSPropertyOp35
 70
     1
102
RTVSPropertyOp36
 70
     1
102
RTVSPropertyOp37
 70
     1
102
RTVSPropertyOp38
 70
     1
102
RTVSPropertyOp39
 70
     1
102
RTVSPropertyOp40
 70
     1
102
RTVSPropertyOp41
 70
     1
102
RTVSPropertyOp42
 70
     1
102
RTVSPropertyOp43
 70
     1
102
RTVSPropertyOp44
 70
     1
102
RTVSPropertyOp45
 70
     1
102
RTVSPropertyOp46
 70
     1
102
RTVSPropertyOp47
 70
     1
102
RTVSPropertyOp48
 70
     1
102
RTVSPropertyOp49
 70
     1
102
RTVSPropertyOp50
 70
     1
102
RTVSPropertyOp51
 70
     0
102
RTVSPropertyOp52
 70
     0
102
RTVSPropertyOp53
 70
     1
102
RTVSPropertyOp54
 70
     1
102
RTVSPropertyOp55
 70
     1
102
RTVSPropertyOp56
 70
     1
102
RTVSPropertyOp57
 70
     1
102
RTVSPropertyOp58
 70
     1
102
RTVSPropertyOp59
 70
     1
102
RTVSPropertyOp60
 70
     1
102
RTVSPropertyOp61
 70
     1
102
RTVSPropertyOp62
 70
     1
  0
XRECORD
  5
4C0
102
{ACAD_REACTORS
330
4BF
102
}
330
4BF
100
AcDbXrecord
280
     1
102
RTVSPost2010Prop28
280
     0
102
RTVSPost2010PropOp28
 70
     1
102
RTVSPost2010Prop29
280
     1
102
RTVSPost2010PropOp29
 70
     1
102
RTVSPost2010Prop30
280
     1
102
RTVSPost2010PropOp30
 70
     1
102
RTVSPost2010Prop31
280
     0
102
RTVSPost2010PropOp31
 70
     1
102
RTVSPost2010Prop32
280
     0
102
RTVSPost2010PropOp32
 70
     1
102
RTVSPost2010Prop33
280
     0
102
RTVSPost2010PropOp33
 70
     1
102
RTVSPost2010Prop34
280
     0
102
RTVSPost2010PropOp34
 70
     1
102
RTVSPost2010Prop35
280
     0
102
RTVSPost2010PropOp35
 70
     1
102
RTVSPost2010Prop36
280
     0
102
RTVSPost2010PropOp36
 70
     1
102
RTVSPost2010Prop37
 90
       50
102
RTVSPost2010PropOp37
 70
     1
102
RTVSPost2010Prop38
140
0.0
102
RTVSPost2010PropOp38
 70
     1
102
RTVSPost2010Prop39
140
1.0
102
RTVSPost2010PropOp39
 70
     1
102
RTVSPost2010Prop40
 90
        0
102
RTVSPost2010PropOp40
 70
     1
102
RTVSPost2010Prop41ColorIndex
 90
       18
102
RTVSPost2010Prop41ColorRGB
 90
        0
102
RTVSPost2010PropOp41
 70
     1
102
RTVSPost2010Prop42
 90
       50
102
RTVSPost2010PropOp42
 70
     1
102
RTVSPost2010Prop43
 90
        3
102
RTVSPost2010PropOp43
 70
     1
102
RTVSPost2010Prop44ColorIndex
 90
        5
102
RTVSPost2010Prop44ColorRGB
 90
      255
102
RTVSPost2010PropOp44
 70
     1
102
RTVSPost2010Prop45
280
     0
102
RTVSPost2010PropOp45
 70
     1
102
RTVSPost2010Prop46
 90
       50
102
RTVSPost2010PropOp46
 70
     1
102
RTVSPost2010Prop47
 90
       50
102
RTVSPost2010PropOp47
 70
     1
102
RTVSPost2010Prop48
 90
       50
102
RTVSPost2010PropOp48
 70
     1
102
RTVSPost2010Prop49
280
     0
102
RTVSPost2010PropOp49
 70
     1
102
RTVSPost2010Prop50
 90
       50
102
RTVSPost2010PropOp50
 70
     1
102
RTVSPost2010Prop51ColorIndex
 90
      256
102
RTVSPost2010Prop51ColorRGB
 90
-16777216
102
RTVSPost2010PropOp51
 70
     0
102
RTVSPost2010Prop52
140
1.0
102
RTVSPost2010PropOp52
 70
     0
102
RTVSPost2010Prop53
 90
        2
102
RTVSPost2010PropOp53
 70
     1
102
RTVSPost2010Prop54
  1
strokes_ogs.tif
102
RTVSPost2010PropOp54
 70
     1
102
RTVSPost2010Prop55
280
     0
102
RTVSPost2010PropOp55
 70
     1
102
RTVSPost2010Prop56
140
1.0
102
RTVSPost2010PropOp56
 70
     1
102
RTVSPost2010Prop57
140
1.0
102
RTVSPost2010PropOp57
 70
     1
102
RTVSPropertyOp0
 70
     1
102
RTVSPropertyOp1
 70
     1
102
RTVSPropertyOp2
 70
     1
102
RTVSPropertyOp3
 70
     1
102
RTVSPropertyOp4
 70
     1
102
RTVSPropertyOp5
 70
     1
102
RTVSPropertyOp6
 70
     1
102
RTVSPropertyOp7
 70
     1
102
RTVSPropertyOp8
 70
     1
102
RTVSPropertyOp9
 70
     1
102
RTVSPropertyOp10
 70
     1
102
RTVSPropertyOp11
 70
     1
102
RTVSPropertyOp12
 70
     1
102
RTVSPropertyOp13
 70
     1
102
RTVSPropertyOp14
 70
     1
102
RTVSPropertyOp15
 70
     1
102
RTVSPropertyOp16
 70
     1
102
RTVSPropertyOp17
 70
     1
102
RTVSPropertyOp18
 70
     1
102
RTVSPropertyOp19
 70
     1
102
RTVSPropertyOp20
 70
     1
102
RTVSPropertyOp21
 70
     1
102
RTVSPropertyOp22
 70
     1
102
RTVSPropertyOp23
 70
     1
102
RTVSPropertyOp24
 70
     1
102
RTVSPropertyOp25
 70
     1
102
RTVSPropertyOp26
 70
     1
102
RTVSPropertyOp27
 70
     1
102
RTVSPropertyOp28
 70
     1
102
RTVSPropertyOp29
 70
     1
102
RTVSPropertyOp30
 70
     1
102
RTVSPropertyOp31
 70
     1
102
RTVSPropertyOp32
 70
     1
102
RTVSPropertyOp33
 70
     1
102
RTVSPropertyOp34
 70
     1
102
RTVSPropertyOp35
 70
     1
102
RTVSPropertyOp36
 70
     1
102
RTVSPropertyOp37
 70
     1
102
RTVSPropertyOp38
 70
     1
102
RTVSPropertyOp39
 70
     1
102
RTVSPropertyOp40
 70
     1
102
RTVSPropertyOp41
 70
     1
102
RTVSPropertyOp42
 70
     1
102
RTVSPropertyOp43
 70
     1
102
RTVSPropertyOp44
 70
     1
102
RTVSPropertyOp45
 70
     1
102
RTVSPropertyOp46
 70
     1
102
RTVSPropertyOp47
 70
     1
102
RTVSPropertyOp48
 70
     1
102
RTVSPropertyOp49
 70
     1
102
RTVSPropertyOp50
 70
     1
102
RTVSPropertyOp51
 70
     0
102
RTVSPropertyOp52
 70
     0
102
RTVSPropertyOp53
 70
     1
102
RTVSPropertyOp54
 70
     1
102
RTVSPropertyOp55
 70
     1
102
RTVSPropertyOp56
 70
     1
102
RTVSPropertyOp57
 70
     1
102
RTVSPropertyOp58
 70
     1
102
RTVSPropertyOp59
 70
     1
102
RTVSPropertyOp60
 70
     1
102
RTVSPropertyOp61
 70
     1
102
RTVSPropertyOp62
 70
     1
  0
XRECORD
  5
4B4
102
{ACAD_REACTORS
330
4B3
102
}
330
4B3
100
AcDbXrecord
280
     1
102
RTVSPost2010Prop28
280
     0
102
RTVSPost2010PropOp28
 70
     1
102
RTVSPost2010Prop29
280
     1
102
RTVSPost2010PropOp29
 70
     1
102
RTVSPost2010Prop30
280
     1
102
RTVSPost2010PropOp30
 70
     1
102
RTVSPost2010Prop31
280
     0
102
RTVSPost2010PropOp31
 70
     1
102
RTVSPost2010Prop32
280
     0
102
RTVSPost2010PropOp32
 70
     1
102
RTVSPost2010Prop33
280
     0
102
RTVSPost2010PropOp33
 70
     1
102
RTVSPost2010Prop34
280
     0
102
RTVSPost2010PropOp34
 70
     1
102
RTVSPost2010Prop35
280
     0
102
RTVSPost2010PropOp35
 70
     1
102
RTVSPost2010Prop36
280
     0
102
RTVSPost2010PropOp36
 70
     1
102
RTVSPost2010Prop37
 90
       50
102
RTVSPost2010PropOp37
 70
     1
102
RTVSPost2010Prop38
140
0.0
102
RTVSPost2010PropOp38
 70
     1
102
RTVSPost2010Prop39
140
1.0
102
RTVSPost2010PropOp39
 70
     1
102
RTVSPost2010Prop40
 90
        0
102
RTVSPost2010PropOp40
 70
     1
102
RTVSPost2010Prop41ColorIndex
 90
       18
102
RTVSPost2010Prop41ColorRGB
 90
        0
102
RTVSPost2010PropOp41
 70
     1
102
RTVSPost2010Prop42
 90
       50
102
RTVSPost2010PropOp42
 70
     1
102
RTVSPost2010Prop43
 90
        3
102
RTVSPost2010PropOp43
 70
     1
102
RTVSPost2010Prop44ColorIndex
 90
        5
102
RTVSPost2010Prop44ColorRGB
 90
      255
102
RTVSPost2010PropOp44
 70
     1
102
RTVSPost2010Prop45
280
     0
102
RTVSPost2010PropOp45
 70
     1
102
RTVSPost2010Prop46
 90
       50
102
RTVSPost2010PropOp46
 70
     1
102
RTVSPost2010Prop47
 90
       50
102
RTVSPost2010PropOp47
 70
     1
102
RTVSPost2010Prop48
 90
       50
102
RTVSPost2010PropOp48
 70
     1
102
RTVSPost2010Prop49
280
     0
102
RTVSPost2010PropOp49
 70
     1
102
RTVSPost2010Prop50
 90
       50
102
RTVSPost2010PropOp50
 70
     1
102
RTVSPost2010Prop51ColorIndex
 90
      256
102
RTVSPost2010Prop51ColorRGB
 90
-16777216
102
RTVSPost2010PropOp51
 70
     0
102
RTVSPost2010Prop52
140
1.0
102
RTVSPost2010PropOp52
 70
     0
102
RTVSPost2010Prop53
 90
        2
102
RTVSPost2010PropOp53
 70
     1
102
RTVSPost2010Prop54
  1
strokes_ogs.tif
102
RTVSPost2010PropOp54
 70
     1
102
RTVSPost2010Prop55
280
     0
102
RTVSPost2010PropOp55
 70
     1
102
RTVSPost2010Prop56
140
1.0
102
RTVSPost2010PropOp56
 70
     1
102
RTVSPost2010Prop57
140
1.0
102
RTVSPost2010PropOp57
 70
     1
102
RTVSPropertyOp0
 70
     1
102
RTVSPropertyOp1
 70
     1
102
RTVSPropertyOp2
 70
     1
102
RTVSPropertyOp3
 70
     1
102
RTVSPropertyOp4
 70
     1
102
RTVSPropertyOp5
 70
     1
102
RTVSPropertyOp6
 70
     1
102
RTVSPropertyOp7
 70
     1
102
RTVSPropertyOp8
 70
     1
102
RTVSPropertyOp9
 70
     1
102
RTVSPropertyOp10
 70
     1
102
RTVSPropertyOp11
 70
     1
102
RTVSPropertyOp12
 70
     1
102
RTVSPropertyOp13
 70
     1
102
RTVSPropertyOp14
 70
     1
102
RTVSPropertyOp15
 70
     1
102
RTVSPropertyOp16
 70
     1
102
RTVSPropertyOp17
 70
     1
102
RTVSPropertyOp18
 70
     1
102
RTVSPropertyOp19
 70
     1
102
RTVSPropertyOp20
 70
     1
102
RTVSPropertyOp21
 70
     1
102
RTVSPropertyOp22
 70
     1
102
RTVSPropertyOp23
 70
     1
102
RTVSPropertyOp24
 70
     1
102
RTVSPropertyOp25
 70
     1
102
RTVSPropertyOp26
 70
     1
102
RTVSPropertyOp27
 70
     1
102
RTVSPropertyOp28
 70
     1
102
RTVSPropertyOp29
 70
     1
102
RTVSPropertyOp30
 70
     1
102
RTVSPropertyOp31
 70
     1
102
RTVSPropertyOp32
 70
     1
102
RTVSPropertyOp33
 70
     1
102
RTVSPropertyOp34
 70
     1
102
RTVSPropertyOp35
 70
     1
102
RTVSPropertyOp36
 70
     1
102
RTVSPropertyOp37
 70
     1
102
RTVSPropertyOp38
 70
     1
102
RTVSPropertyOp39
 70
     1
102
RTVSPropertyOp40
 70
     1
102
RTVSPropertyOp41
 70
     1
102
RTVSPropertyOp42
 70
     1
102
RTVSPropertyOp43
 70
     1
102
RTVSPropertyOp44
 70
     1
102
RTVSPropertyOp45
 70
     1
102
RTVSPropertyOp46
 70
     1
102
RTVSPropertyOp47
 70
     1
102
RTVSPropertyOp48
 70
     1
102
RTVSPropertyOp49
 70
     1
102
RTVSPropertyOp50
 70
     1
102
RTVSPropertyOp51
 70
     0
102
RTVSPropertyOp52
 70
     0
102
RTVSPropertyOp53
 70
     1
102
RTVSPropertyOp54
 70
     1
102
RTVSPropertyOp55
 70
     1
102
RTVSPropertyOp56
 70
     1
102
RTVSPropertyOp57
 70
     1
102
RTVSPropertyOp58
 70
     1
102
RTVSPropertyOp59
 70
     1
102
RTVSPropertyOp60
 70
     1
102
RTVSPropertyOp61
 70
     1
102
RTVSPropertyOp62
 70
     1
  0
XRECORD
  5
4CC
102
{ACAD_REACTORS
330
4CB
102
}
330
4CB
100
AcDbXrecord
280
     1
102
RTVSPost2010Prop28
280
     0
102
RTVSPost2010PropOp28
 70
     1
102
RTVSPost2010Prop29
280
     1
102
RTVSPost2010PropOp29
 70
     1
102
RTVSPost2010Prop30
280
     1
102
RTVSPost2010PropOp30
 70
     1
102
RTVSPost2010Prop31
280
     0
102
RTVSPost2010PropOp31
 70
     1
102
RTVSPost2010Prop32
280
     0
102
RTVSPost2010PropOp32
 70
     1
102
RTVSPost2010Prop33
280
     0
102
RTVSPost2010PropOp33
 70
     1
102
RTVSPost2010Prop34
280
     0
102
RTVSPost2010PropOp34
 70
     1
102
RTVSPost2010Prop35
280
     0
102
RTVSPost2010PropOp35
 70
     1
102
RTVSPost2010Prop36
280
     0
102
RTVSPost2010PropOp36
 70
     1
102
RTVSPost2010Prop37
 90
       50
102
RTVSPost2010PropOp37
 70
     1
102
RTVSPost2010Prop38
140
0.0
102
RTVSPost2010PropOp38
 70
     1
102
RTVSPost2010Prop39
140
1.0
102
RTVSPost2010PropOp39
 70
     1
102
RTVSPost2010Prop40
 90
        0
102
RTVSPost2010PropOp40
 70
     1
102
RTVSPost2010Prop41ColorIndex
 90
       18
102
RTVSPost2010Prop41ColorRGB
 90
        0
102
RTVSPost2010PropOp41
 70
     1
102
RTVSPost2010Prop42
 90
       50
102
RTVSPost2010PropOp42
 70
     1
102
RTVSPost2010Prop43
 90
        3
102
RTVSPost2010PropOp43
 70
     1
102
RTVSPost2010Prop44ColorIndex
 90
        5
102
RTVSPost2010Prop44ColorRGB
 90
      255
102
RTVSPost2010PropOp44
 70
     1
102
RTVSPost2010Prop45
280
     0
102
RTVSPost2010PropOp45
 70
     1
102
RTVSPost2010Prop46
 90
       50
102
RTVSPost2010PropOp46
 70
     1
102
RTVSPost2010Prop47
 90
       50
102
RTVSPost2010PropOp47
 70
     1
102
RTVSPost2010Prop48
 90
       50
102
RTVSPost2010PropOp48
 70
     1
102
RTVSPost2010Prop49
280
     0
102
RTVSPost2010PropOp49
 70
     1
102
RTVSPost2010Prop50
 90
       50
102
RTVSPost2010PropOp50
 70
     1
102
RTVSPost2010Prop51ColorIndex
 90
      256
102
RTVSPost2010Prop51ColorRGB
 90
-16777216
102
RTVSPost2010PropOp51
 70
     0
102
RTVSPost2010Prop52
140
1.0
102
RTVSPost2010PropOp52
 70
     0
102
RTVSPost2010Prop53
 90
        2
102
RTVSPost2010PropOp53
 70
     1
102
RTVSPost2010Prop54
  1
strokes_ogs.tif
102
RTVSPost2010PropOp54
 70
     1
102
RTVSPost2010Prop55
280
     0
102
RTVSPost2010PropOp55
 70
     1
102
RTVSPost2010Prop56
140
1.0
102
RTVSPost2010PropOp56
 70
     1
102
RTVSPost2010Prop57
140
1.0
102
RTVSPost2010PropOp57
 70
     1
102
RTVSPropertyOp0
 70
     1
102
RTVSPropertyOp1
 70
     1
102
RTVSPropertyOp2
 70
     1
102
RTVSPropertyOp3
 70
     1
102
RTVSPropertyOp4
 70
     1
102
RTVSPropertyOp5
 70
     1
102
RTVSPropertyOp6
 70
     1
102
RTVSPropertyOp7
 70
     1
102
RTVSPropertyOp8
 70
     1
102
RTVSPropertyOp9
 70
     1
102
RTVSPropertyOp10
 70
     1
102
RTVSPropertyOp11
 70
     1
102
RTVSPropertyOp12
 70
     1
102
RTVSPropertyOp13
 70
     1
102
RTVSPropertyOp14
 70
     1
102
RTVSPropertyOp15
 70
     1
102
RTVSPropertyOp16
 70
     1
102
RTVSPropertyOp17
 70
     1
102
RTVSPropertyOp18
 70
     1
102
RTVSPropertyOp19
 70
     1
102
RTVSPropertyOp20
 70
     1
102
RTVSPropertyOp21
 70
     1
102
RTVSPropertyOp22
 70
     1
102
RTVSPropertyOp23
 70
     1
102
RTVSPropertyOp24
 70
     1
102
RTVSPropertyOp25
 70
     1
102
RTVSPropertyOp26
 70
     1
102
RTVSPropertyOp27
 70
     1
102
RTVSPropertyOp28
 70
     1
102
RTVSPropertyOp29
 70
     1
102
RTVSPropertyOp30
 70
     1
102
RTVSPropertyOp31
 70
     1
102
RTVSPropertyOp32
 70
     1
102
RTVSPropertyOp33
 70
     1
102
RTVSPropertyOp34
 70
     1
102
RTVSPropertyOp35
 70
     1
102
RTVSPropertyOp36
 70
     1
102
RTVSPropertyOp37
 70
     1
102
RTVSPropertyOp38
 70
     1
102
RTVSPropertyOp39
 70
     1
102
RTVSPropertyOp40
 70
     1
102
RTVSPropertyOp41
 70
     1
102
RTVSPropertyOp42
 70
     1
102
RTVSPropertyOp43
 70
     1
102
RTVSPropertyOp44
 70
     1
102
RTVSPropertyOp45
 70
     1
102
RTVSPropertyOp46
 70
     1
102
RTVSPropertyOp47
 70
     1
102
RTVSPropertyOp48
 70
     1
102
RTVSPropertyOp49
 70
     1
102
RTVSPropertyOp50
 70
     1
102
RTVSPropertyOp51
 70
     0
102
RTVSPropertyOp52
 70
     0
102
RTVSPropertyOp53
 70
     1
102
RTVSPropertyOp54
 70
     1
102
RTVSPropertyOp55
 70
     1
102
RTVSPropertyOp56
 70
     1
102
RTVSPropertyOp57
 70
     1
102
RTVSPropertyOp58
 70
     1
102
RTVSPropertyOp59
 70
     1
102
RTVSPropertyOp60
 70
     1
102
RTVSPropertyOp61
 70
     1
102
RTVSPropertyOp62
 70
     1
  0
ENDSEC
  0
EOF
