  0
SECTION
  2
HEADER
  9
$ACADVER
  1
AC1015
  9
$ACADMAINTVER
 70
     6
  9
$DWGCODEPAGE
  3
ANSI_932
  9
$INSBASE
 10
0.0
 20
0.0
 30
0.0
  9
$EXTMIN
 10
0.0
 20
0.0
 30
0.0
  9
$EXTMAX
 10
1485.0
 20
1050.0
 30
0.0
  9
$LIMMIN
 10
0.0
 20
0.0
  9
$LIMMAX
 10
1485.0
 20
1050.0
  9
$ORTHOMODE
 70
     0
  9
$REGENMODE
 70
     1
  9
$FILLMODE
 70
     1
  9
$QTEXTMODE
 70
     0
  9
$MIRRTEXT
 70
     1
  9
$LTSCALE
 40
5.0
  9
$ATTMODE
 70
     1
  9
$TEXTSIZE
 40
2.5
  9
$TRACEWID
 40
1.0
  9
$TEXTSTYLE
  7
Standard
  9
$CLAYER
  8
0
  9
$CELTYPE
  6
ByLayer
  9
$CECOLOR
 62
   256
  9
$CELTSCALE
 40
1.0
  9
$DISPSILH
 70
     0
  9
$DIMSCALE
 40
1.0
  9
$DIMASZ
 40
2.5
  9
$DIMEXO
 40
0.625
  9
$DIMDLI
 40
3.75
  9
$DIMRND
 40
0.0
  9
$DIMDLE
 40
0.0
  9
$DIMEXE
 40
1.25
  9
$DIMTP
 40
0.0
  9
$DIMTM
 40
0.0
  9
$DIMTXT
 40
2.5
  9
$DIMCEN
 40
2.5
  9
$DIMTSZ
 40
0.0
  9
$DIMTOL
 70
     0
  9
$DIMLIM
 70
     0
  9
$DIMTIH
 70
     0
  9
$DIMTOH
 70
     0
  9
$DIMSE1
 70
     0
  9
$DIMSE2
 70
     0
  9
$DIMTAD
 70
     1
  9
$DIMZIN
 70
     8
  9
$DIMBLK
  1

  9
$DIMASO
 70
     1
  9
$DIMSHO
 70
     1
  9
$DIMPOST
  1

  9
$DIMAPOST
  1

  9
$DIMALT
 70
     0
  9
$DIMALTD
 70
     3
  9
$DIMALTF
 40
0.03937007874016
  9
$DIMLFAC
 40
1.0
  9
$DIMTOFL
 70
     1
  9
$DIMTVP
 40
0.0
  9
$DIMTIX
 70
     0
  9
$DIMSOXD
 70
     0
  9
$DIMSAH
 70
     0
  9
$DIMBLK1
  1

  9
$DIMBLK2
  1

  9
$DIMSTYLE
  2
ISO-25
  9
$DIMCLRD
 70
     0
  9
$DIMCLRE
 70
     0
  9
$DIMCLRT
 70
     0
  9
$DIMTFAC
 40
1.0
  9
$DIMGAP
 40
0.625
  9
$DIMJUST
 70
     0
  9
$DIMSD1
 70
     0
  9
$DIMSD2
 70
     0
  9
$DIMTOLJ
 70
     0
  9
$DIMTZIN
 70
     8
  9
$DIMALTZ
 70
     0
  9
$DIMALTTZ
 70
     0
  9
$DIMUPT
 70
     0
  9
$DIMDEC
 70
     2
  9
$DIMTDEC
 70
     2
  9
$DIMALTU
 70
     2
  9
$DIMALTTD
 70
     3
  9
$DIMTXSTY
  7
Standard
  9
$DIMAUNIT
 70
     0
  9
$DIMADEC
 70
     0
  9
$DIMALTRND
 40
0.0
  9
$DIMAZIN
 70
     0
  9
$DIMDSEP
 70
    46
  9
$DIMATFIT
 70
     3
  9
$DIMFRAC
 70
     0
  9
$DIMLDRBLK
  1

  9
$DIMLUNIT
 70
     2
  9
$DIMLWD
 70
    -2
  9
$DIMLWE
 70
    -2
  9
$DIMTMOVE
 70
     0
  9
$LUNITS
 70
     2
  9
$LUPREC
 70
     4
  9
$SKETCHINC
 40
1.0
  9
$FILLETRAD
 40
10.0
  9
$AUNITS
 70
     0
  9
$AUPREC
 70
     0
  9
$MENU
  1
.
  9
$ELEVATION
 40
0.0
  9
$PELEVATION
 40
0.0
  9
$THICKNESS
 40
0.0
  9
$LIMCHECK
 70
     0
  9
$CHAMFERA
 40
10.0
  9
$CHAMFERB
 40
10.0
  9
$CHAMFERC
 40
20.0
  9
$CHAMFERD
 40
0.0
  9
$SKPOLY
 70
     0
  9
$TDCREATE
 40
2457071.000000
  9
$TDUCREATE
 40
0.000000000
  9
$TDUPDATE
 40
2457071.000000
  9
$TDUUPDATE
 40
2457071.000000
  9
$TDINDWG
 40
0.0
  9
$TDUSRTIMER
 40
0.0
  9
$USRTIMER
 70
     1
  9
$ANGBASE
 50
0.0
  9
$ANGDIR
 70
     0
  9
$PDMODE
 70
     0
  9
$PDSIZE
 40
0.0
  9
$PLINEWID
 40
0.0
  9
$SPLFRAME
 70
     0
  9
$SPLINETYPE
 70
     6
  9
$SPLINESEGS
 70
     8
  9
$HANDSEED
  5
045B
  9
$SURFTAB1
 70
     6
  9
$SURFTAB2
 70
     6
  9
$SURFTYPE
 70
     6
  9
$SURFU
 70
     6
  9
$SURFV
 70
     6
  9
$UCSBASE
  2

  9
$UCSNAME
  2

  9
$UCSORG
 10
0.0
 20
0.0
 30
0.0
  9
$UCSXDIR
 10
1.0
 20
0.0
 30
0.0
  9
$UCSYDIR
 10
0.0
 20
1.0
 30
0.0
  9
$UCSORTHOREF
  2

  9
$UCSORTHOVIEW
 70
     0
  9
$UCSORGTOP
 10
0.0
 20
0.0
 30
0.0
  9
$UCSORGBOTTOM
 10
0.0
 20
0.0
 30
0.0
  9
$UCSORGLEFT
 10
0.0
 20
0.0
 30
0.0
  9
$UCSORGRIGHT
 10
0.0
 20
0.0
 30
0.0
  9
$UCSORGFRONT
 10
0.0
 20
0.0
 30
0.0
  9
$UCSORGBACK
 10
0.0
 20
0.0
 30
0.0
  9
$PUCSBASE
  2

  9
$PUCSNAME
  2

  9
$PUCSORG
 10
0.0
 20
0.0
 30
0.0
  9
$PUCSXDIR
 10
1.0
 20
0.0
 30
0.0
  9
$PUCSYDIR
 10
0.0
 20
1.0
 30
0.0
  9
$PUCSORTHOREF
  2

  9
$PUCSORTHOVIEW
 70
     0
  9
$PUCSORGTOP
 10
0.0
 20
0.0
 30
0.0
  9
$PUCSORGBOTTOM
 10
0.0
 20
0.0
 30
0.0
  9
$PUCSORGLEFT
 10
0.0
 20
0.0
 30
0.0
  9
$PUCSORGRIGHT
 10
0.0
 20
0.0
 30
0.0
  9
$PUCSORGFRONT
 10
0.0
 20
0.0
 30
0.0
  9
$PUCSORGBACK
 10
0.0
 20
0.0
 30
0.0
  9
$USERI1
 70
     0
  9
$USERI2
 70
     0
  9
$USERI3
 70
     0
  9
$USERI4
 70
     0
  9
$USERI5
 70
     0
  9
$USERR1
 40
0.0
  9
$USERR2
 40
0.0
  9
$USERR3
 40
0.0
  9
$USERR4
 40
0.0
  9
$USERR5
 40
0.0
  9
$WORLDVIEW
 70
     1
  9
$SHADEDGE
 70
     3
  9
$SHADEDIF
 70
    70
  9
$TILEMODE
 70
     1
  9
$MAXACTVP
 70
    64
  9
$PINSBASE
 10
0.0
 20
0.0
 30
0.0
  9
$PLIMCHECK
 70
     0
  9
$PEXTMIN
 10
1.000000E+20
 20
1.000000E+20
 30
1.000000E+20
  9
$PEXTMAX
 10
-1.000000E+20
 20
-1.000000E+20
 30
-1.000000E+20
  9
$PLIMMIN
 10
0.0
 20
0.0
  9
$PLIMMAX
 10
0.0
 20
0.0
  9
$UNITMODE
 70
     0
  9
$VISRETAIN
 70
     0
  9
$PLINEGEN
 70
     0
  9
$PSLTSCALE
 70
     1
  9
$TREEDEPTH
 70
  3020
  9
$CMLSTYLE
  2
STANDARD
  9
$CMLJUST
 70
     0
  9
$CMLSCALE
 40
20.0
  9
$PROXYGRAPHICS
 70
     1
  9
$MEASUREMENT
 70
     1
  9
$CELWEIGHT
370
    -1
  9
$ENDCAPS
280
     0
  9
$JOINSTYLE
280
     0
  9
$LWDISPLAY
290
     0
  9
$INSUNITS
 70
     4
  9
$HYPERLINKBASE
  1

  9
$STYLESHEET
  1

  9
$XEDIT
290
     1
  9
$CEPSNTYPE
380
     0
  9
$PSTYLEMODE
290
     1
  9
$FINGERPRINTGUID
  2
{711AC5C3-F934-A0F5-548E-8F6E5A704C4E}
  9
$VERSIONGUID
  2
{B1E3C3EE-7A65-E5CC-4CDF-DFE2448D505F}
  9
$EXTNAMES
290
     1
  9
$PSVPSCALE
 40
0.0
  0
ENDSEC
  0
SECTION
  2
CLASSES
  0
ENDSEC
  0
SECTION
  2
TABLES
  0
TABLE
  2
VPORT
  5
8
330
0
100
AcDbSymbolTable
 70
     3
  0
VPORT
  5
29
330
8
100
AcDbSymbolTableRecord
100
AcDbViewportTableRecord
  2
*Active
 70
     0
 10
0.0
 20
0.0
 11
1.0
 21
1.0
 12
742.5
 22
525.0
 13
0.0
 23
0.0
 14
10.0
 24
10.0
 15
0.0
 25
0.0
 16
0.0
 26
0.0
 36
1.0
 17
0.0
 27
0.0
 37
0.0
 40
1050.0
 41
1.414285714
 42
50.0
 43
0.0
 44
0.0
 50
0.0
 51
0.0
 71
     0
 72
  1000
 73
     1
 74
     3
 75
     0
 76
     0
 77
     0
 78
     0
281
     0
 65
     0
110
0.0
120
0.0
130
0.0
111
1.0
121
0.0
131
0.0
112
0.0
122
1.0
132
0.0
 79
     0
146
0.0
  0
ENDTAB
  0
TABLE
  2
LTYPE
  5
5
330
0
100
AcDbSymbolTable
 70
     5
  0
LTYPE
  5
14
330
5
100
AcDbSymbolTableRecord
100
AcDbLinetypeTableRecord
  2
ByBlock
 70
     0
  3

 72
    65
 73
     0
 40
0.0
  0
LTYPE
  5
15
330
5
100
AcDbSymbolTableRecord
100
AcDbLinetypeTableRecord
  2
ByLayer
 70
     0
  3

 72
    65
 73
     0
 40
0.0
  0
LTYPE
  5
16
330
5
100
AcDbSymbolTableRecord
100
AcDbLinetypeTableRecord
  2
Continuous
 70
     0
  3
Solid line
 72
    65
 73
     0
 40
0.0
  0
LTYPE
  5
A9
330
5
100
AcDbSymbolTableRecord
100
AcDbLinetypeTableRecord
  2
LTYPE1
 70
     0
  3
PHANTOM
 72
    65
 73
     6
 40
12.0
 49
9.0
 74
     0
 49
-0.6
 74
     0
 49
0.6
 74
     0
 49
-0.6
 74
     0
 49
0.6
 74
     0
 49
-0.6
 74
     0
  0
LTYPE
  5
EB
330
5
100
AcDbSymbolTableRecord
100
AcDbLinetypeTableRecord
  2
LTYPE2
 70
     0
  3
HIDDEN
 72
    65
 73
     2
 40
2.0
 49
1.2
 74
     0
 49
-0.8
 74
     0
  0
ENDTAB
  0
TABLE
  2
LAYER
  5
2
330
0
100
AcDbSymbolTable
 70
   128
  0
LAYER
  5
10
330
2
100
AcDbSymbolTableRecord
100
AcDbLayerTableRecord
  2
0
 70
     0
 62
     7
  6
Continuous
290
     1
370
    -3
390
F
  0
LAYER
  5
2A
330
2
100
AcDbSymbolTableRecord
100
AcDbLayerTableRecord
  2
2
 70
     0
 62
     7
  6
Continuous
290
     1
370
    -3
390
F
  0
LAYER
  5
2B
330
2
100
AcDbSymbolTableRecord
100
AcDbLayerTableRecord
  2
3
 70
     0
 62
     7
  6
Continuous
290
     1
370
    -3
390
F
  0
LAYER
  5
2C
330
2
100
AcDbSymbolTableRecord
100
AcDbLayerTableRecord
  2
4
 70
     0
 62
     7
  6
Continuous
290
     1
370
    -3
390
F
  0
LAYER
  5
2D
330
2
100
AcDbSymbolTableRecord
100
AcDbLayerTableRecord
  2
5
 70
     0
 62
     7
  6
Continuous
290
     1
370
    -3
390
F
  0
LAYER
  5
2E
330
2
100
AcDbSymbolTableRecord
100
AcDbLayerTableRecord
  2
6
 70
     0
 62
     7
  6
Continuous
290
     1
370
    -3
390
F
  0
LAYER
  5
2F
330
2
100
AcDbSymbolTableRecord
100
AcDbLayerTableRecord
  2
7
 70
     0
 62
     7
  6
Continuous
290
     1
370
    -3
390
F
  0
LAYER
  5
30
330
2
100
AcDbSymbolTableRecord
100
AcDbLayerTableRecord
  2
8
 70
     0
 62
     7
  6
Continuous
290
     1
370
    -3
390
F
  0
LAYER
  5
31
330
2
100
AcDbSymbolTableRecord
100
AcDbLayerTableRecord
  2
9
 70
     0
 62
     7
  6
Continuous
290
     1
370
    -3
390
F
  0
LAYER
  5
32
330
2
100
AcDbSymbolTableRecord
100
AcDbLayerTableRecord
  2
10
 70
     0
 62
     7
  6
Continuous
290
     1
370
    -3
390
F
  0
LAYER
  5
33
330
2
100
AcDbSymbolTableRecord
100
AcDbLayerTableRecord
  2
11
 70
     0
 62
     7
  6
Continuous
290
     1
370
    -3
390
F
  0
LAYER
  5
34
330
2
100
AcDbSymbolTableRecord
100
AcDbLayerTableRecord
  2
12
 70
     0
 62
     7
  6
Continuous
290
     1
370
    -3
390
F
  0
LAYER
  5
35
330
2
100
AcDbSymbolTableRecord
100
AcDbLayerTableRecord
  2
13
 70
     0
 62
     7
  6
Continuous
290
     1
370
    -3
390
F
  0
LAYER
  5
36
330
2
100
AcDbSymbolTableRecord
100
AcDbLayerTableRecord
  2
14
 70
     0
 62
     7
  6
Continuous
290
     1
370
    -3
390
F
  0
LAYER
  5
37
330
2
100
AcDbSymbolTableRecord
100
AcDbLayerTableRecord
  2
15
 70
     0
 62
     7
  6
Continuous
290
     1
370
    -3
390
F
  0
LAYER
  5
38
330
2
100
AcDbSymbolTableRecord
100
AcDbLayerTableRecord
  2
16
 70
     0
 62
     7
  6
Continuous
290
     1
370
    -3
390
F
  0
LAYER
  5
39
330
2
100
AcDbSymbolTableRecord
100
AcDbLayerTableRecord
  2
17
 70
     0
 62
     7
  6
Continuous
290
     1
370
    -3
390
F
  0
LAYER
  5
3A
330
2
100
AcDbSymbolTableRecord
100
AcDbLayerTableRecord
  2
18
 70
     0
 62
     7
  6
Continuous
290
     1
370
    -3
390
F
  0
LAYER
  5
3B
330
2
100
AcDbSymbolTableRecord
100
AcDbLayerTableRecord
  2
19
 70
     0
 62
     7
  6
Continuous
290
     1
370
    -3
390
F
  0
LAYER
  5
3C
330
2
100
AcDbSymbolTableRecord
100
AcDbLayerTableRecord
  2
20
 70
     0
 62
     7
  6
Continuous
290
     1
370
    -3
390
F
  0
LAYER
  5
3D
330
2
100
AcDbSymbolTableRecord
100
AcDbLayerTableRecord
  2
21
 70
     0
 62
     7
  6
Continuous
290
     1
370
    -3
390
F
  0
LAYER
  5
3E
330
2
100
AcDbSymbolTableRecord
100
AcDbLayerTableRecord
  2
22
 70
     0
 62
     7
  6
Continuous
290
     1
370
    -3
390
F
  0
LAYER
  5
3F
330
2
100
AcDbSymbolTableRecord
100
AcDbLayerTableRecord
  2
23
 70
     0
 62
     7
  6
Continuous
290
     1
370
    -3
390
F
  0
LAYER
  5
40
330
2
100
AcDbSymbolTableRecord
100
AcDbLayerTableRecord
  2
24
 70
     0
 62
     7
  6
Continuous
290
     1
370
    -3
390
F
  0
LAYER
  5
41
330
2
100
AcDbSymbolTableRecord
100
AcDbLayerTableRecord
  2
25
 70
     0
 62
     7
  6
Continuous
290
     1
370
    -3
390
F
  0
LAYER
  5
42
330
2
100
AcDbSymbolTableRecord
100
AcDbLayerTableRecord
  2
26
 70
     0
 62
     7
  6
Continuous
290
     1
370
    -3
390
F
  0
LAYER
  5
43
330
2
100
AcDbSymbolTableRecord
100
AcDbLayerTableRecord
  2
27
 70
     0
 62
     7
  6
Continuous
290
     1
370
    -3
390
F
  0
LAYER
  5
44
330
2
100
AcDbSymbolTableRecord
100
AcDbLayerTableRecord
  2
28
 70
     0
 62
     7
  6
Continuous
290
     1
370
    -3
390
F
  0
LAYER
  5
45
330
2
100
AcDbSymbolTableRecord
100
AcDbLayerTableRecord
  2
29
 70
     0
 62
     7
  6
Continuous
290
     1
370
    -3
390
F
  0
LAYER
  5
46
330
2
100
AcDbSymbolTableRecord
100
AcDbLayerTableRecord
  2
30
 70
     0
 62
     7
  6
Continuous
290
     1
370
    -3
390
F
  0
LAYER
  5
47
330
2
100
AcDbSymbolTableRecord
100
AcDbLayerTableRecord
  2
31
 70
     0
 62
     7
  6
Continuous
290
     1
370
    -3
390
F
  0
LAYER
  5
48
330
2
100
AcDbSymbolTableRecord
100
AcDbLayerTableRecord
  2
32
 70
     0
 62
     7
  6
Continuous
290
     1
370
    -3
390
F
  0
LAYER
  5
49
330
2
100
AcDbSymbolTableRecord
100
AcDbLayerTableRecord
  2
33
 70
     0
 62
     7
  6
Continuous
290
     1
370
    -3
390
F
  0
LAYER
  5
4A
330
2
100
AcDbSymbolTableRecord
100
AcDbLayerTableRecord
  2
34
 70
     0
 62
     7
  6
Continuous
290
     1
370
    -3
390
F
  0
LAYER
  5
4B
330
2
100
AcDbSymbolTableRecord
100
AcDbLayerTableRecord
  2
35
 70
     0
 62
     7
  6
Continuous
290
     1
370
    -3
390
F
  0
LAYER
  5
4C
330
2
100
AcDbSymbolTableRecord
100
AcDbLayerTableRecord
  2
36
 70
     0
 62
     7
  6
Continuous
290
     1
370
    -3
390
F
  0
LAYER
  5
4D
330
2
100
AcDbSymbolTableRecord
100
AcDbLayerTableRecord
  2
37
 70
     0
 62
     7
  6
Continuous
290
     1
370
    -3
390
F
  0
LAYER
  5
4E
330
2
100
AcDbSymbolTableRecord
100
AcDbLayerTableRecord
  2
38
 70
     0
 62
     7
  6
Continuous
290
     1
370
    -3
390
F
  0
LAYER
  5
4F
330
2
100
AcDbSymbolTableRecord
100
AcDbLayerTableRecord
  2
39
 70
     0
 62
     7
  6
Continuous
290
     1
370
    -3
390
F
  0
LAYER
  5
50
330
2
100
AcDbSymbolTableRecord
100
AcDbLayerTableRecord
  2
40
 70
     0
 62
     7
  6
Continuous
290
     1
370
    -3
390
F
  0
LAYER
  5
51
330
2
100
AcDbSymbolTableRecord
100
AcDbLayerTableRecord
  2
41
 70
     0
 62
     7
  6
Continuous
290
     1
370
    -3
390
F
  0
LAYER
  5
52
330
2
100
AcDbSymbolTableRecord
100
AcDbLayerTableRecord
  2
42
 70
     0
 62
     7
  6
Continuous
290
     1
370
    -3
390
F
  0
LAYER
  5
53
330
2
100
AcDbSymbolTableRecord
100
AcDbLayerTableRecord
  2
43
 70
     0
 62
     7
  6
Continuous
290
     1
370
    -3
390
F
  0
LAYER
  5
54
330
2
100
AcDbSymbolTableRecord
100
AcDbLayerTableRecord
  2
44
 70
     0
 62
     7
  6
Continuous
290
     1
370
    -3
390
F
  0
LAYER
  5
55
330
2
100
AcDbSymbolTableRecord
100
AcDbLayerTableRecord
  2
45
 70
     0
 62
     7
  6
Continuous
290
     1
370
    -3
390
F
  0
LAYER
  5
56
330
2
100
AcDbSymbolTableRecord
100
AcDbLayerTableRecord
  2
46
 70
     0
 62
     7
  6
Continuous
290
     1
370
    -3
390
F
  0
LAYER
  5
57
330
2
100
AcDbSymbolTableRecord
100
AcDbLayerTableRecord
  2
47
 70
     0
 62
     7
  6
Continuous
290
     1
370
    -3
390
F
  0
LAYER
  5
58
330
2
100
AcDbSymbolTableRecord
100
AcDbLayerTableRecord
  2
48
 70
     0
 62
     7
  6
Continuous
290
     1
370
    -3
390
F
  0
LAYER
  5
59
330
2
100
AcDbSymbolTableRecord
100
AcDbLayerTableRecord
  2
49
 70
     0
 62
     7
  6
Continuous
290
     1
370
    -3
390
F
  0
LAYER
  5
5A
330
2
100
AcDbSymbolTableRecord
100
AcDbLayerTableRecord
  2
50
 70
     0
 62
     7
  6
Continuous
290
     1
370
    -3
390
F
  0
LAYER
  5
5B
330
2
100
AcDbSymbolTableRecord
100
AcDbLayerTableRecord
  2
51
 70
     0
 62
     7
  6
Continuous
290
     1
370
    -3
390
F
  0
LAYER
  5
5C
330
2
100
AcDbSymbolTableRecord
100
AcDbLayerTableRecord
  2
52
 70
     0
 62
     7
  6
Continuous
290
     1
370
    -3
390
F
  0
LAYER
  5
5D
330
2
100
AcDbSymbolTableRecord
100
AcDbLayerTableRecord
  2
53
 70
     0
 62
     7
  6
Continuous
290
     1
370
    -3
390
F
  0
LAYER
  5
5E
330
2
100
AcDbSymbolTableRecord
100
AcDbLayerTableRecord
  2
54
 70
     0
 62
     7
  6
Continuous
290
     1
370
    -3
390
F
  0
LAYER
  5
5F
330
2
100
AcDbSymbolTableRecord
100
AcDbLayerTableRecord
  2
55
 70
     0
 62
     7
  6
Continuous
290
     1
370
    -3
390
F
  0
LAYER
  5
60
330
2
100
AcDbSymbolTableRecord
100
AcDbLayerTableRecord
  2
56
 70
     0
 62
     7
  6
Continuous
290
     1
370
    -3
390
F
  0
LAYER
  5
61
330
2
100
AcDbSymbolTableRecord
100
AcDbLayerTableRecord
  2
57
 70
     0
 62
     7
  6
Continuous
290
     1
370
    -3
390
F
  0
LAYER
  5
62
330
2
100
AcDbSymbolTableRecord
100
AcDbLayerTableRecord
  2
58
 70
     0
 62
     7
  6
Continuous
290
     1
370
    -3
390
F
  0
LAYER
  5
63
330
2
100
AcDbSymbolTableRecord
100
AcDbLayerTableRecord
  2
59
 70
     0
 62
     7
  6
Continuous
290
     1
370
    -3
390
F
  0
LAYER
  5
64
330
2
100
AcDbSymbolTableRecord
100
AcDbLayerTableRecord
  2
60
 70
     0
 62
     7
  6
Continuous
290
     1
370
    -3
390
F
  0
LAYER
  5
65
330
2
100
AcDbSymbolTableRecord
100
AcDbLayerTableRecord
  2
61
 70
     0
 62
     7
  6
Continuous
290
     1
370
    -3
390
F
  0
LAYER
  5
66
330
2
100
AcDbSymbolTableRecord
100
AcDbLayerTableRecord
  2
62
 70
     0
 62
     7
  6
Continuous
290
     1
370
    -3
390
F
  0
LAYER
  5
67
330
2
100
AcDbSymbolTableRecord
100
AcDbLayerTableRecord
  2
63
 70
     0
 62
     7
  6
Continuous
290
     1
370
    -3
390
F
  0
LAYER
  5
68
330
2
100
AcDbSymbolTableRecord
100
AcDbLayerTableRecord
  2
64
 70
     0
 62
     7
  6
Continuous
290
     1
370
    -3
390
F
  0
LAYER
  5
69
330
2
100
AcDbSymbolTableRecord
100
AcDbLayerTableRecord
  2
65
 70
     0
 62
     7
  6
Continuous
290
     1
370
    -3
390
F
  0
LAYER
  5
6A
330
2
100
AcDbSymbolTableRecord
100
AcDbLayerTableRecord
  2
66
 70
     0
 62
     7
  6
Continuous
290
     1
370
    -3
390
F
  0
LAYER
  5
6B
330
2
100
AcDbSymbolTableRecord
100
AcDbLayerTableRecord
  2
67
 70
     0
 62
     7
  6
Continuous
290
     1
370
    -3
390
F
  0
LAYER
  5
6C
330
2
100
AcDbSymbolTableRecord
100
AcDbLayerTableRecord
  2
68
 70
     0
 62
     7
  6
Continuous
290
     1
370
    -3
390
F
  0
LAYER
  5
6D
330
2
100
AcDbSymbolTableRecord
100
AcDbLayerTableRecord
  2
69
 70
     0
 62
     7
  6
Continuous
290
     1
370
    -3
390
F
  0
LAYER
  5
6E
330
2
100
AcDbSymbolTableRecord
100
AcDbLayerTableRecord
  2
70
 70
     0
 62
     7
  6
Continuous
290
     1
370
    -3
390
F
  0
LAYER
  5
6F
330
2
100
AcDbSymbolTableRecord
100
AcDbLayerTableRecord
  2
71
 70
     0
 62
     7
  6
Continuous
290
     1
370
    -3
390
F
  0
LAYER
  5
70
330
2
100
AcDbSymbolTableRecord
100
AcDbLayerTableRecord
  2
72
 70
     0
 62
     7
  6
Continuous
290
     1
370
    -3
390
F
  0
LAYER
  5
71
330
2
100
AcDbSymbolTableRecord
100
AcDbLayerTableRecord
  2
73
 70
     0
 62
     7
  6
Continuous
290
     1
370
    -3
390
F
  0
LAYER
  5
72
330
2
100
AcDbSymbolTableRecord
100
AcDbLayerTableRecord
  2
74
 70
     0
 62
     7
  6
Continuous
290
     1
370
    -3
390
F
  0
LAYER
  5
73
330
2
100
AcDbSymbolTableRecord
100
AcDbLayerTableRecord
  2
75
 70
     0
 62
     7
  6
Continuous
290
     1
370
    -3
390
F
  0
LAYER
  5
74
330
2
100
AcDbSymbolTableRecord
100
AcDbLayerTableRecord
  2
76
 70
     0
 62
     7
  6
Continuous
290
     1
370
    -3
390
F
  0
LAYER
  5
75
330
2
100
AcDbSymbolTableRecord
100
AcDbLayerTableRecord
  2
77
 70
     0
 62
     7
  6
Continuous
290
     1
370
    -3
390
F
  0
LAYER
  5
76
330
2
100
AcDbSymbolTableRecord
100
AcDbLayerTableRecord
  2
78
 70
     0
 62
     7
  6
Continuous
290
     1
370
    -3
390
F
  0
LAYER
  5
77
330
2
100
AcDbSymbolTableRecord
100
AcDbLayerTableRecord
  2
79
 70
     0
 62
     7
  6
Continuous
290
     1
370
    -3
390
F
  0
LAYER
  5
78
330
2
100
AcDbSymbolTableRecord
100
AcDbLayerTableRecord
  2
80
 70
     0
 62
     7
  6
Continuous
290
     1
370
    -3
390
F
  0
LAYER
  5
79
330
2
100
AcDbSymbolTableRecord
100
AcDbLayerTableRecord
  2
81
 70
     0
 62
     7
  6
Continuous
290
     1
370
    -3
390
F
  0
LAYER
  5
7A
330
2
100
AcDbSymbolTableRecord
100
AcDbLayerTableRecord
  2
82
 70
     0
 62
     7
  6
Continuous
290
     1
370
    -3
390
F
  0
LAYER
  5
7B
330
2
100
AcDbSymbolTableRecord
100
AcDbLayerTableRecord
  2
83
 70
     0
 62
     7
  6
Continuous
290
     1
370
    -3
390
F
  0
LAYER
  5
7C
330
2
100
AcDbSymbolTableRecord
100
AcDbLayerTableRecord
  2
84
 70
     0
 62
     7
  6
Continuous
290
     1
370
    -3
390
F
  0
LAYER
  5
7D
330
2
100
AcDbSymbolTableRecord
100
AcDbLayerTableRecord
  2
85
 70
     0
 62
     7
  6
Continuous
290
     1
370
    -3
390
F
  0
LAYER
  5
7E
330
2
100
AcDbSymbolTableRecord
100
AcDbLayerTableRecord
  2
86
 70
     0
 62
     7
  6
Continuous
290
     1
370
    -3
390
F
  0
LAYER
  5
7F
330
2
100
AcDbSymbolTableRecord
100
AcDbLayerTableRecord
  2
87
 70
     0
 62
     7
  6
Continuous
290
     1
370
    -3
390
F
  0
LAYER
  5
80
330
2
100
AcDbSymbolTableRecord
100
AcDbLayerTableRecord
  2
88
 70
     0
 62
     7
  6
Continuous
290
     1
370
    -3
390
F
  0
LAYER
  5
81
330
2
100
AcDbSymbolTableRecord
100
AcDbLayerTableRecord
  2
89
 70
     0
 62
     7
  6
Continuous
290
     1
370
    -3
390
F
  0
LAYER
  5
82
330
2
100
AcDbSymbolTableRecord
100
AcDbLayerTableRecord
  2
90
 70
     0
 62
     7
  6
Continuous
290
     1
370
    -3
390
F
  0
LAYER
  5
83
330
2
100
AcDbSymbolTableRecord
100
AcDbLayerTableRecord
  2
91
 70
     0
 62
     7
  6
Continuous
290
     1
370
    -3
390
F
  0
LAYER
  5
84
330
2
100
AcDbSymbolTableRecord
100
AcDbLayerTableRecord
  2
92
 70
     0
 62
     7
  6
Continuous
290
     1
370
    -3
390
F
  0
LAYER
  5
85
330
2
100
AcDbSymbolTableRecord
100
AcDbLayerTableRecord
  2
93
 70
     0
 62
     7
  6
Continuous
290
     1
370
    -3
390
F
  0
LAYER
  5
86
330
2
100
AcDbSymbolTableRecord
100
AcDbLayerTableRecord
  2
94
 70
     0
 62
     7
  6
Continuous
290
     1
370
    -3
390
F
  0
LAYER
  5
87
330
2
100
AcDbSymbolTableRecord
100
AcDbLayerTableRecord
  2
95
 70
     0
 62
     7
  6
Continuous
290
     1
370
    -3
390
F
  0
LAYER
  5
88
330
2
100
AcDbSymbolTableRecord
100
AcDbLayerTableRecord
  2
96
 70
     0
 62
     7
  6
Continuous
290
     1
370
    -3
390
F
  0
LAYER
  5
89
330
2
100
AcDbSymbolTableRecord
100
AcDbLayerTableRecord
  2
97
 70
     0
 62
     7
  6
Continuous
290
     1
370
    -3
390
F
  0
LAYER
  5
8A
330
2
100
AcDbSymbolTableRecord
100
AcDbLayerTableRecord
  2
98
 70
     0
 62
     7
  6
Continuous
290
     1
370
    -3
390
F
  0
LAYER
  5
8B
330
2
100
AcDbSymbolTableRecord
100
AcDbLayerTableRecord
  2
99
 70
     0
 62
     7
  6
Continuous
290
     1
370
    -3
390
F
  0
LAYER
  5
8C
330
2
100
AcDbSymbolTableRecord
100
AcDbLayerTableRecord
  2
100
 70
     0
 62
     7
  6
Continuous
290
     1
370
    -3
390
F
  0
LAYER
  5
8D
330
2
100
AcDbSymbolTableRecord
100
AcDbLayerTableRecord
  2
101
 70
     0
 62
     7
  6
Continuous
290
     1
370
    -3
390
F
  0
LAYER
  5
8E
330
2
100
AcDbSymbolTableRecord
100
AcDbLayerTableRecord
  2
102
 70
     0
 62
     7
  6
Continuous
290
     1
370
    -3
390
F
  0
LAYER
  5
8F
330
2
100
AcDbSymbolTableRecord
100
AcDbLayerTableRecord
  2
103
 70
     0
 62
     7
  6
Continuous
290
     1
370
    -3
390
F
  0
LAYER
  5
90
330
2
100
AcDbSymbolTableRecord
100
AcDbLayerTableRecord
  2
104
 70
     0
 62
     7
  6
Continuous
290
     1
370
    -3
390
F
  0
LAYER
  5
91
330
2
100
AcDbSymbolTableRecord
100
AcDbLayerTableRecord
  2
105
 70
     0
 62
     7
  6
Continuous
290
     1
370
    -3
390
F
  0
LAYER
  5
92
330
2
100
AcDbSymbolTableRecord
100
AcDbLayerTableRecord
  2
106
 70
     0
 62
     7
  6
Continuous
290
     1
370
    -3
390
F
  0
LAYER
  5
93
330
2
100
AcDbSymbolTableRecord
100
AcDbLayerTableRecord
  2
107
 70
     0
 62
     7
  6
Continuous
290
     1
370
    -3
390
F
  0
LAYER
  5
94
330
2
100
AcDbSymbolTableRecord
100
AcDbLayerTableRecord
  2
108
 70
     0
 62
     7
  6
Continuous
290
     1
370
    -3
390
F
  0
LAYER
  5
95
330
2
100
AcDbSymbolTableRecord
100
AcDbLayerTableRecord
  2
109
 70
     0
 62
     7
  6
Continuous
290
     1
370
    -3
390
F
  0
LAYER
  5
96
330
2
100
AcDbSymbolTableRecord
100
AcDbLayerTableRecord
  2
110
 70
     0
 62
     7
  6
Continuous
290
     1
370
    -3
390
F
  0
LAYER
  5
97
330
2
100
AcDbSymbolTableRecord
100
AcDbLayerTableRecord
  2
111
 70
     0
 62
     7
  6
Continuous
290
     1
370
    -3
390
F
  0
LAYER
  5
98
330
2
100
AcDbSymbolTableRecord
100
AcDbLayerTableRecord
  2
112
 70
     0
 62
     7
  6
Continuous
290
     1
370
    -3
390
F
  0
LAYER
  5
99
330
2
100
AcDbSymbolTableRecord
100
AcDbLayerTableRecord
  2
113
 70
     0
 62
     7
  6
Continuous
290
     1
370
    -3
390
F
  0
LAYER
  5
9A
330
2
100
AcDbSymbolTableRecord
100
AcDbLayerTableRecord
  2
114
 70
     0
 62
     7
  6
Continuous
290
     1
370
    -3
390
F
  0
LAYER
  5
9B
330
2
100
AcDbSymbolTableRecord
100
AcDbLayerTableRecord
  2
115
 70
     0
 62
     7
  6
Continuous
290
     1
370
    -3
390
F
  0
LAYER
  5
9C
330
2
100
AcDbSymbolTableRecord
100
AcDbLayerTableRecord
  2
116
 70
     0
 62
     7
  6
Continuous
290
     1
370
    -3
390
F
  0
LAYER
  5
9D
330
2
100
AcDbSymbolTableRecord
100
AcDbLayerTableRecord
  2
117
 70
     0
 62
     7
  6
Continuous
290
     1
370
    -3
390
F
  0
LAYER
  5
9E
330
2
100
AcDbSymbolTableRecord
100
AcDbLayerTableRecord
  2
118
 70
     0
 62
     7
  6
Continuous
290
     1
370
    -3
390
F
  0
LAYER
  5
9F
330
2
100
AcDbSymbolTableRecord
100
AcDbLayerTableRecord
  2
119
 70
     0
 62
     7
  6
Continuous
290
     1
370
    -3
390
F
  0
LAYER
  5
A0
330
2
100
AcDbSymbolTableRecord
100
AcDbLayerTableRecord
  2
120
 70
     0
 62
     7
  6
Continuous
290
     1
370
    -3
390
F
  0
LAYER
  5
A1
330
2
100
AcDbSymbolTableRecord
100
AcDbLayerTableRecord
  2
121
 70
     0
 62
     7
  6
Continuous
290
     1
370
    -3
390
F
  0
LAYER
  5
A2
330
2
100
AcDbSymbolTableRecord
100
AcDbLayerTableRecord
  2
122
 70
     0
 62
     7
  6
Continuous
290
     1
370
    -3
390
F
  0
LAYER
  5
A3
330
2
100
AcDbSymbolTableRecord
100
AcDbLayerTableRecord
  2
123
 70
     0
 62
     7
  6
Continuous
290
     1
370
    -3
390
F
  0
LAYER
  5
A4
330
2
100
AcDbSymbolTableRecord
100
AcDbLayerTableRecord
  2
124
 70
     0
 62
     7
  6
Continuous
290
     1
370
    -3
390
F
  0
LAYER
  5
A5
330
2
100
AcDbSymbolTableRecord
100
AcDbLayerTableRecord
  2
125
 70
     0
 62
     7
  6
Continuous
290
     1
370
    -3
390
F
  0
LAYER
  5
A6
330
2
100
AcDbSymbolTableRecord
100
AcDbLayerTableRecord
  2
126
 70
     0
 62
     7
  6
Continuous
290
     1
370
    -3
390
F
  0
LAYER
  5
A7
330
2
100
AcDbSymbolTableRecord
100
AcDbLayerTableRecord
  2
127
 70
     0
 62
     7
  6
Continuous
290
     1
370
    -3
390
F
  0
LAYER
  5
A8
330
2
100
AcDbSymbolTableRecord
100
AcDbLayerTableRecord
  2
128
 70
     0
 62
     7
  6
Continuous
290
     1
370
    -3
390
F
  0
ENDTAB
  0
TABLE
  2
STYLE
  5
3
330
0
100
AcDbSymbolTable
 70
    10
  0
STYLE
  5
11
330
3
100
AcDbSymbolTableRecord
100
AcDbTextStyleTableRecord
  2
Standard
 70
     0
 40
0.0
 41
1.0
 50
0.0
 71
     0
 42
2.5
  3
txt.shx
  4
extfont.shx
  0
STYLE
  5
B0
330
3
100
AcDbSymbolTableRecord
100
AcDbTextStyleTableRecord
  2
KANJI0
 70
     4
 40
12.5
 41
1.0
 50
0.0
 71
     0
 42
12.5
  3
txt.shx
  4
extfont.shx
  0
STYLE
  5
B6
330
3
100
AcDbSymbolTableRecord
100
AcDbTextStyleTableRecord
  2
KANJI1
 70
     4
 40
12.5
 41
1.0
 50
0.0
 71
     0
 42
12.5
  3
txt.shx
  4
extfont.shx
  0
STYLE
  5
C2
330
3
100
AcDbSymbolTableRecord
100
AcDbTextStyleTableRecord
  2
KANJI2
 70
     4
 40
8.333333333
 41
1.5
 50
0.0
 71
     0
 42
8.333333333
  3
txt.shx
  4
extfont.shx
  0
STYLE
  5
C4
330
3
100
AcDbSymbolTableRecord
100
AcDbTextStyleTableRecord
  2
KANJI3
 70
     0
 40
15.0
 41
0.9
 50
0.0
 71
     0
 42
15.0
  3
txt.shx
  4
extfont.shx
  0
STYLE
  5
CD
330
3
100
AcDbSymbolTableRecord
100
AcDbTextStyleTableRecord
  2
KANJI4
 70
     0
 40
15.0
 41
1.0
 50
0.0
 71
     0
 42
15.0
  3
txt.shx
  4
extfont.shx
  0
STYLE
  5
D2
330
3
100
AcDbSymbolTableRecord
100
AcDbTextStyleTableRecord
  2
KANJI5
 70
     0
 40
15.0
 41
0.45
 50
0.0
 71
     0
 42
15.0
  3
txt.shx
  4
extfont.shx
  0
STYLE
  5
E2
330
3
100
AcDbSymbolTableRecord
100
AcDbTextStyleTableRecord
  2
KANJI6
 70
     0
 40
15.0
 41
0.666666667
 50
0.0
 71
     0
 42
15.0
  3
txt.shx
  4
extfont.shx
  0
STYLE
  5
144
330
3
100
AcDbSymbolTableRecord
100
AcDbTextStyleTableRecord
  2
KANJI7
 70
     0
 40
15.0
 41
0.6
 50
0.0
 71
     0
 42
15.0
  3
txt.shx
  4
extfont.shx
  0
STYLE
  5
33F
330
3
100
AcDbSymbolTableRecord
100
AcDbTextStyleTableRecord
  2
KANJI8
 70
     0
 40
15.0
 41
0.9
 50
0.0
 71
     0
 42
15.0
  3
txt.shx
  4
extfont.shx
  0
ENDTAB
  0
TABLE
  2
VIEW
  5
6
330
0
100
AcDbSymbolTable
 70
     0
  0
ENDTAB
  0
TABLE
  2
UCS
  5
7
330
0
100
AcDbSymbolTable
 70
     0
  0
ENDTAB
  0
TABLE
  2
APPID
  5
9
330
0
100
AcDbSymbolTable
 70
     1
  0
APPID
  5
12
330
9
100
AcDbSymbolTableRecord
100
AcDbRegAppTableRecord
  2
ACAD
 70
     0
  0
ENDTAB
  0
TABLE
  2
DIMSTYLE
  5
A
330
0
100
AcDbSymbolTable
 70
     1
100
AcDbDimStyleTable
 71
     0
  0
DIMSTYLE
105
27
330
A
100
AcDbSymbolTableRecord
100
AcDbDimStyleTableRecord
  2
ISO-25
 70
    64
  3

  4

 40
1.0
 41
2.5
 42
0.625
 43
3.75
 44
1.25
 45
0.0
 46
0.0
 47
0.0
 48
0.0
 71
     0
 72
     0
 73
     0
 74
     0
 75
     0
 76
     0
 77
     1
 78
     8
 79
     0
140
2.5
141
2.5
142
0.0
143
0.039370079
144
1.0
145
0.0
146
1.0
147
0.625
148
0.0
170
     0
171
     3
172
     1
173
     0
174
     0
175
     0
176
     0
177
     0
178
     0
179
     0
270
     2
271
     2
272
     2
273
     2
274
     3
275
     0
276
     0
277
     2
278
    46
279
     0
280
     0
281
     0
282
     0
283
     1
284
     8
285
     0
286
     0
288
     0
289
     3
340
11
341
0
342
0
343
0
344
0
371
    -2
372
    -2
  0
ENDTAB
  0
TABLE
  2
BLOCK_RECORD
  5
1
330
0
100
AcDbSymbolTable
 70
     3
  0
BLOCK_RECORD
  5
1F
330
1
100
AcDbSymbolTableRecord
100
AcDbBlockTableRecord
  2
*Model_Space
340
22
  0
BLOCK_RECORD
  5
1B
330
1
100
AcDbSymbolTableRecord
100
AcDbBlockTableRecord
  2
*Paper_Space
340
1E
  0
BLOCK_RECORD
  5
23
330
1
100
AcDbSymbolTableRecord
100
AcDbBlockTableRecord
  2
*Paper_Space0
340
26
  0
ENDTAB
  0
ENDSEC
  0
SECTION
  2
BLOCKS
  0
BLOCK
  5
1C
330
1B
100
AcDbEntity
 67
     1
  8
0
100
AcDbBlockBegin
  2
*Paper_Space
 70
     0
 10
0.0
 20
0.0
 30
0.0
  3
*Paper_Space
  1

  0
ENDBLK
  5
1D
330
1B
100
AcDbEntity
  8
0
100
AcDbBlockEnd
  0
BLOCK
  5
20
330
1F
100
AcDbEntity
  8
0
100
AcDbBlockBegin
  2
*Model_Space
 70
     0
 10
0.0
 20
0.0
 30
0.0
  3
*Model_Space
  1

  0
ENDBLK
  5
21
330
1F
100
AcDbEntity
  8
0
100
AcDbBlockEnd
  0
BLOCK
  5
24
330
23
100
AcDbEntity
 67
     1
  8
0
100
AcDbBlockBegin
  2
*Paper_Space0
 70
     0
 10
0.0
 20
0.0
 30
0.0
  3
*Paper_Space0
  1

  0
ENDBLK
  5
25
330
23
100
AcDbEntity
  8
0
100
AcDbBlockEnd
  0
ENDSEC
  0
SECTION
  2
ENTITIES
  0
LINE
  5
AA
330
1F
100
AcDbEntity
  8
0
  6
LTYPE1
 62
     2
100
AcDbLine
 10
1406.8925
 20
1385.900558126
 30
0.0
 11
1406.8925
 21
1385.900558126
 31
0.0
  0
LINE
  5
AB
330
1F
100
AcDbEntity
  8
0
  6
LTYPE1
 62
     2
100
AcDbLine
 10
1406.8925
 20
1385.9
 30
0.0
 11
1406.8925
 21
1385.9
 31
0.0
  0
LINE
  5
AC
330
1F
100
AcDbEntity
  8
0
  6
LTYPE1
 62
     2
100
AcDbLine
 10
1406.8925
 20
1385.9
 30
0.0
 11
1406.8925
 21
1385.9
 31
0.0
  0
LINE
  5
AD
330
1F
100
AcDbEntity
  8
0
  6
LTYPE1
 62
     2
100
AcDbLine
 10
1406.8925
 20
1385.9
 30
0.0
 11
1406.8925
 21
1385.9
 31
0.0
  0
LINE
  5
AE
330
1F
100
AcDbEntity
  8
0
  6
Continuous
 62
     2
100
AcDbLine
 10
1451.666666667
 20
63.333333333
 30
0.0
 11
526.666666667
 21
63.333333333
 31
0.0
  0
MTEXT
  5
AF
330
1F
100
AcDbEntity
  8
0
  6
Continuous
 62
     2
100
AcDbMText
 10
1179.166666667
 20
120.833333333
 30
0.0
 40
12.5
 41
50.0
 71
     1
 72
     3
  1
\W1.000;仕上
  7
KANJI0
 73
     1
 44
1.0
  0
LINE
  5
B1
330
1F
100
AcDbEntity
  8
0
  6
Continuous
 62
     2
100
AcDbLine
 10
1176.666666667
 20
153.333333333
 30
0.0
 11
1451.666666667
 21
153.333333333
 31
0.0
  0
LINE
  5
B2
330
1F
100
AcDbEntity
  8
0
  6
Continuous
 62
     2
100
AcDbLine
 10
1176.666666667
 20
123.333333333
 30
0.0
 11
1451.666666667
 21
123.333333333
 31
0.0
  0
MTEXT
  5
B3
330
1F
100
AcDbEntity
  8
0
  6
Continuous
 62
     2
100
AcDbMText
 10
1179.166666667
 20
150.833333333
 30
0.0
 40
12.5
 41
50.0
 71
     1
 72
     3
  1
\W1.000;規格
  7
KANJI0
 73
     1
 44
1.0
  0
MTEXT
  5
B4
330
1F
100
AcDbEntity
  8
0
  6
Continuous
 62
     2
100
AcDbMText
 10
1179.166666667
 20
180.833333333
 30
0.0
 40
12.5
 41
50.0
 71
     1
 72
     3
  1
\W1.000;材質
  7
KANJI0
 73
     1
 44
1.0
  0
MTEXT
  5
B5
330
1F
100
AcDbEntity
  8
0
  6
Continuous
 62
     2
100
AcDbMText
 10
1179.166666667
 20
210.833333333
 30
0.0
 40
12.5
 41
50.0
 71
     1
 72
     3
  1
\W1.000;品番
  7
KANJI1
 73
     1
 44
1.0
  0
MTEXT
  5
B7
330
1F
100
AcDbEntity
  8
0
  6
Continuous
 62
     2
100
AcDbMText
 10
1179.166666667
 20
240.833333333
 30
0.0
 40
12.5
 41
50.0
 71
     1
 72
     3
  1
\W1.000;図名
  7
KANJI0
 73
     1
 44
1.0
  0
LINE
  5
B8
330
1F
100
AcDbEntity
  8
0
  6
Continuous
 62
     2
100
AcDbLine
 10
1176.666666667
 20
183.333333333
 30
0.0
 11
1451.666666667
 21
183.333333333
 31
0.0
  0
LINE
  5
B9
330
1F
100
AcDbEntity
  8
0
  6
Continuous
 62
     2
100
AcDbLine
 10
1176.666666667
 20
213.333333333
 30
0.0
 11
1451.666666667
 21
213.333333333
 31
0.0
  0
LINE
  5
BA
330
1F
100
AcDbEntity
  8
0
  6
Continuous
 62
     2
100
AcDbLine
 10
1176.666666667
 20
243.333333333
 30
0.0
 11
1451.666666667
 21
243.333333333
 31
0.0
  0
LINE
  5
BB
330
1F
100
AcDbEntity
  8
0
  6
Continuous
 62
     2
100
AcDbLine
 10
1066.666666667
 20
63.333333333
 30
0.0
 11
1066.666666667
 21
33.333333333
 31
0.0
  0
MTEXT
  5
BC
330
1F
100
AcDbEntity
  8
0
  6
Continuous
 62
     2
100
AcDbMText
 10
1069.166666667
 20
60.833333333
 30
0.0
 40
12.5
 41
50.0
 71
     1
 72
     3
  1
\W1.000;日付
  7
KANJI0
 73
     1
 44
1.0
  0
LINE
  5
BD
330
1F
100
AcDbEntity
  8
0
  6
Continuous
 62
     2
100
AcDbLine
 10
1176.666666667
 20
33.333333333
 30
0.0
 11
1176.666666667
 21
243.333333333
 31
0.0
  0
MTEXT
  5
BE
330
1F
100
AcDbEntity
  8
0
  6
Continuous
 62
     2
100
AcDbMText
 10
1069.166666667
 20
90.833333333
 30
0.0
 40
12.5
 41
50.0
 71
     1
 72
     3
  1
\W1.000;尺度
  7
KANJI0
 73
     1
 44
1.0
  0
LINE
  5
BF
330
1F
100
AcDbEntity
  8
0
  6
Continuous
 62
     2
100
AcDbLine
 10
1066.666666667
 20
93.333333333
 30
0.0
 11
1451.666666667
 21
93.333333333
 31
0.0
  0
MTEXT
  5
C0
330
1F
100
AcDbEntity
  8
0
  6
Continuous
 62
     2
100
AcDbMText
 10
1179.166666667
 20
60.833333333
 30
0.0
 40
12.5
 41
50.0
 71
     1
 72
     3
  1
\W1.000;品名
  7
KANJI0
 73
     1
 44
1.0
  0
MTEXT
  5
C1
330
1F
100
AcDbEntity
  8
0
  6
Continuous
 62
     2
100
AcDbMText
 10
1179.166666667
 20
90.833333333
 30
0.0
 40
8.333333333
 41
50.0
 71
     1
 72
     3
  1
\W1.500;その他
  7
KANJI2
 73
     1
 44
1.0
  0
MTEXT
  5
C3
330
1F
100
AcDbEntity
  8
0
  6
Continuous
 62
     2
100
AcDbMText
 10
1206.666666667
 20
159.333333333
 30
0.0
 40
15.0
 41
87.0
 71
     7
 72
     1
  1
\T1.111;\W0.900;－－－
  7
KANJI3
 73
     1
 44
1.0
  0
MTEXT
  5
C5
330
1F
100
AcDbEntity
  8
0
  6
Continuous
 62
     2
100
AcDbMText
 10
1206.666666667
 20
129.333333333
 30
0.0
 40
15.0
 41
87.0
 71
     7
 72
     1
  1
\T1.111;\W0.900;－－－
  7
KANJI3
 73
     1
 44
1.0
  0
MTEXT
  5
C6
330
1F
100
AcDbEntity
  8
0
  6
Continuous
 62
     2
100
AcDbMText
 10
1206.666666667
 20
99.333333333
 30
0.0
 40
15.0
 41
87.0
 71
     7
 72
     1
  1
\T1.111;\W0.900;－－－
  7
KANJI3
 73
     1
 44
1.0
  0
MTEXT
  5
C7
330
1F
100
AcDbEntity
  8
0
  6
Continuous
 62
     2
100
AcDbMText
 10
1206.666666667
 20
69.333333333
 30
0.0
 40
15.0
 41
87.0
 71
     7
 72
     1
  1
\T1.111;\W0.900;－－－
  7
KANJI3
 73
     1
 44
1.0
  0
POINT
  5
C8
330
1F
100
AcDbEntity
  8
0
  6
Continuous
 62
     2
100
AcDbPoint
 10
1451.666666667
 20
243.333333333
 30
0.0
  0
LINE
  5
C9
330
1F
100
AcDbEntity
  8
0
  6
Continuous
 62
     2
100
AcDbLine
 10
1066.666666667
 20
123.333333333
 30
0.0
 11
1176.666666667
 21
123.333333333
 31
0.0
  0
LINE
  5
CA
330
1F
100
AcDbEntity
  8
0
  6
Continuous
 62
     2
100
AcDbLine
 10
1066.666666667
 20
123.333333333
 30
0.0
 11
1066.666666667
 21
63.333333333
 31
0.0
  0
MTEXT
  5
CB
330
1F
100
AcDbEntity
  8
0
  6
Continuous
 62
     2
100
AcDbMText
 10
1069.166666667
 20
120.833333333
 30
0.0
 40
12.5
 41
50.0
 71
     1
 72
     3
  1
\W1.000;用紙
  7
KANJI0
 73
     1
 44
1.0
  0
MTEXT
  5
CC
330
1F
100
AcDbEntity
  8
0
  6
Continuous
 62
     2
100
AcDbMText
 10
531.666666667
 20
40.833333333
 30
0.0
 40
15.0
 41
400.0
 71
     7
 72
     1
  1
\T1.370;\W1.000;オオハシ産業株式会社
  7
KANJI4
 73
     1
 44
1.0
  0
LINE
  5
CE
330
1F
100
AcDbEntity
  8
0
  6
Continuous
 62
     2
100
AcDbLine
 10
741.666666667
 20
63.333333333
 30
0.0
 11
741.666666667
 21
33.333333333
 31
0.0
  0
MTEXT
  5
CF
330
1F
100
AcDbEntity
  8
0
  6
Continuous
 62
     2
100
AcDbMText
 10
744.166666667
 20
60.833333333
 30
0.0
 40
12.5
 41
50.0
 71
     1
 72
     3
  1
\W1.000;作図
  7
KANJI0
 73
     1
 44
1.0
  0
LINE
  5
D0
330
1F
100
AcDbEntity
  8
0
  6
Continuous
 62
     2
100
AcDbLine
 10
841.666666667
 20
33.333333333
 30
0.0
 11
841.666666667
 21
63.333333333
 31
0.0
  0
MTEXT
  5
D1
330
1F
100
AcDbEntity
  8
0
  6
Continuous
 62
     2
100
AcDbMText
 10
846.666666667
 20
40.833333333
 30
0.0
 40
15.0
 41
46.5
 71
     7
 72
     1
  1
\T1.111;\W0.900;ＦＤ＝
  7
KANJI5
 73
     1
 44
1.0
  0
LINE
  5
D3
330
1F
100
AcDbEntity
  8
0
  6
Continuous
 62
     2
100
AcDbLine
 10
941.666666667
 20
33.333333333
 30
0.0
 11
941.666666667
 21
63.333333333
 31
0.0
  0
MTEXT
  5
D4
330
1F
100
AcDbEntity
  8
0
  6
Continuous
 62
     2
100
AcDbMText
 10
946.666666667
 20
40.833333333
 30
0.0
 40
15.0
 41
46.5
 71
     7
 72
     1
  1
\T1.111;\W0.900;ＮＯ＝
  7
KANJI5
 73
     1
 44
1.0
  0
LINE
  5
D5
330
1F
100
AcDbEntity
  8
0
  6
Continuous
 62
     2
100
AcDbLine
 10
526.666666667
 20
33.333333333
 30
0.0
 11
526.666666667
 21
63.333333333
 31
0.0
  0
MTEXT
  5
D6
330
1F
100
AcDbEntity
  8
0
  6
Continuous
 62
     2
100
AcDbMText
 10
601.666666667
 20
75.833333333
 30
0.0
 40
15.0
 41
687.0
 71
     7
 72
     1
  1
\T1.111;\W0.900;特記　　寸法指示無い公差は±０．５以内とする．
  7
KANJI3
 73
     1
 44
1.0
  0
MTEXT
  5
D7
330
1F
100
AcDbEntity
  8
0
  6
Continuous
 62
     2
100
AcDbMText
 10
761.666666667
 20
39.333333333
 30
0.0
 40
15.0
 41
147.0
 71
     7
 72
     1
  1
\T1.111;\W0.900;大橋　一之
  7
KANJI3
 73
     1
 44
1.0
  0
MTEXT
  5
D8
330
1F
100
AcDbEntity
  8
0
  6
Continuous
 62
     2
100
AcDbMText
 10
1086.666666667
 20
39.333333333
 30
0.0
 40
15.0
 41
162.0
 71
     7
 72
     1
  1
\T1.111;\W0.900;２０１５／０２／１７
  7
KANJI5
 73
     1
 44
1.0
  0
MTEXT
  5
D9
330
1F
100
AcDbEntity
  8
0
  6
Continuous
 62
     2
100
AcDbMText
 10
879.666666667
 20
39.333333333
 30
0.0
 40
15.0
 41
87.0
 71
     7
 72
     1
  1
\T1.111;\W0.900;ヒビノ
  7
KANJI3
 73
     1
 44
1.0
  0
MTEXT
  5
DA
330
1F
100
AcDbEntity
  8
0
  6
Continuous
 62
     2
100
AcDbMText
 10
1106.666666667
 20
99.333333333
 30
0.0
 40
15.0
 41
57.0
 71
     7
 72
     1
  1
\T1.111;\W0.900;Ａ４
  7
KANJI3
 73
     1
 44
1.0
  0
LINE
  5
DB
330
1F
100
AcDbEntity
  8
0
  6
Continuous
 62
     2
100
AcDbLine
 10
33.333333333
 20
33.333333333
 30
0.0
 11
33.333333333
 21
1016.666666667
 31
0.0
  0
LINE
  5
DC
330
1F
100
AcDbEntity
  8
0
  6
Continuous
 62
     2
100
AcDbLine
 10
33.333333333
 20
33.333333333
 30
0.0
 11
1451.666666667
 21
33.333333333
 31
0.0
  0
LINE
  5
DD
330
1F
100
AcDbEntity
  8
0
  6
Continuous
 62
     2
100
AcDbLine
 10
1451.666666667
 20
33.333333333
 30
0.0
 11
1451.666666667
 21
1016.666666667
 31
0.0
  0
LINE
  5
DE
330
1F
100
AcDbEntity
  8
0
  6
Continuous
 62
     2
100
AcDbLine
 10
33.333333333
 20
1016.666666667
 30
0.0
 11
1451.666666667
 21
1016.666666667
 31
0.0
  0
MTEXT
  5
DF
330
1F
100
AcDbEntity
  8
0
  6
Continuous
 62
     2
100
AcDbMText
 10
1206.666666667
 20
219.333333333
 30
0.0
 40
15.0
 41
216.0
 71
     7
 72
     1
  1
\T1.111;\W0.655;ＣＨ－１００　全体図
  7
KANJI3
 73
     1
 44
1.0
  0
MTEXT
  5
E0
330
1F
100
AcDbEntity
  8
0
  6
Continuous
 62
     2
100
AcDbMText
 10
1206.666666667
 20
189.333333333
 30
0.0
 40
15.0
 41
79.5
 71
     7
 72
     1
  1
\T1.111;\W0.900;ＣＨ１００
  7
KANJI5
 73
     1
 44
1.0
  0
MTEXT
  5
E1
330
1F
100
AcDbEntity
  8
0
  6
Continuous
 62
     2
100
AcDbMText
 10
1194.666666667
 20
39.333333333
 30
0.0
 40
15.0
 41
492.0
 71
     7
 72
     1
  1
\T1.150;\W0.573;ＣＨ－１００　ＣＢＴ１００ＬＡ横向き天井吊下げ金具
  7
KANJI6
 73
     1
 44
1.0
  0
MTEXT
  5
E3
330
1F
100
AcDbEntity
  8
0
  6
Continuous
 62
     2
100
AcDbMText
 10
981.666666667
 20
39.333333333
 30
0.0
 40
15.0
 41
145.5
 71
     7
 72
     1
  1
\T1.111;\W0.900;ＣＨ１００－０００
  7
KANJI5
 73
     1
 44
1.0
  0
MTEXT
  5
E4
330
1F
100
AcDbEntity
  8
0
  6
Continuous
 62
     2
100
AcDbMText
 10
1106.666666667
 20
69.333333333
 30
0.0
 40
15.0
 41
87.0
 71
     7
 72
     1
  1
\T1.111;\W0.900;１／５
  7
KANJI3
 73
     1
 44
1.0
  0
LINE
  5
E5
330
1F
100
AcDbEntity
  8
2
  6
Continuous
 62
     1
100
AcDbLine
 10
1272.38
 20
487.910000353
 30
0.0
 11
1272.38
 21
489.910000353
 31
0.0
  0
LINE
  5
E6
330
1F
100
AcDbEntity
  8
2
  6
Continuous
 62
     1
100
AcDbLine
 10
1270.38
 20
485.910000353
 30
0.0
 11
1268.38
 21
485.910000353
 31
0.0
  0
ARC
  5
E7
330
1F
100
AcDbEntity
  8
2
  6
Continuous
 62
     1
100
AcDbCircle
 10
1272.38
 20
485.910000353
 30
0.0
 40
2.0
100
AcDbArc
 50
90.0
 51
180.0
  0
ARC
  5
E8
330
1F
100
AcDbEntity
  8
2
  6
Continuous
 62
     1
100
AcDbCircle
 10
1272.38
 20
485.910000353
 30
0.0
 40
4.0
100
AcDbArc
 50
90.0
 51
180.0
  0
ARC
  5
E9
330
1F
100
AcDbEntity
  8
2
  6
Continuous
 62
     1
100
AcDbCircle
 10
1270.38
 20
487.910000353
 30
0.0
 40
2.0
100
AcDbArc
 50
270.0
 51
0.0
  0
LINE
  5
EA
330
1F
100
AcDbEntity
  8
2
  6
Continuous
 62
     1
100
AcDbLine
 10
1268.38
 20
485.910000353
 30
0.0
 11
1268.38
 21
393.910000353
 31
0.0
  0
LINE
  5
EC
330
1F
100
AcDbEntity
  8
2
  6
LTYPE2
 62
     2
100
AcDbLine
 10
1270.38
 20
485.910000353
 30
0.0
 11
1270.38
 21
393.910000353
 31
0.0
  0
LINE
  5
ED
330
1F
100
AcDbEntity
  8
2
  6
Continuous
 62
     1
100
AcDbLine
 10
1272.38
 20
391.910000353
 30
0.0
 11
1272.38
 21
389.910000353
 31
0.0
  0
LINE
  5
EE
330
1F
100
AcDbEntity
  8
2
  6
Continuous
 62
     1
100
AcDbLine
 10
1270.38
 20
393.910000353
 30
0.0
 11
1268.38
 21
393.910000353
 31
0.0
  0
ARC
  5
EF
330
1F
100
AcDbEntity
  8
2
  6
Continuous
 62
     1
100
AcDbCircle
 10
1272.38
 20
393.910000353
 30
0.0
 40
2.0
100
AcDbArc
 50
180.0
 51
270.0
  0
ARC
  5
F0
330
1F
100
AcDbEntity
  8
2
  6
Continuous
 62
     1
100
AcDbCircle
 10
1272.38
 20
393.910000353
 30
0.0
 40
4.0
100
AcDbArc
 50
180.0
 51
270.0
  0
ARC
  5
F1
330
1F
100
AcDbEntity
  8
2
  6
Continuous
 62
     1
100
AcDbCircle
 10
1270.38
 20
391.910000353
 30
0.0
 40
2.0
100
AcDbArc
 50
0.0
 51
90.0
  0
LINE
  5
F2
330
1F
100
AcDbEntity
  8
2
  6
Continuous
 62
     1
100
AcDbLine
 10
1272.38
 20
389.910000353
 30
0.0
 11
1320.380029299
 21
389.910000353
 31
0.0
  0
LINE
  5
F3
330
1F
100
AcDbEntity
  8
2
  6
LTYPE2
 62
     2
100
AcDbLine
 10
1272.38
 20
391.910000353
 30
0.0
 11
1320.380030518
 21
391.910000353
 31
0.0
  0
LINE
  5
F4
330
1F
100
AcDbEntity
  8
2
  6
Continuous
 62
     1
100
AcDbLine
 10
1320.380029299
 20
394.910000353
 30
0.0
 11
1320.380029299
 21
389.910000353
 31
0.0
  0
ARC
  5
F5
330
1F
100
AcDbEntity
  8
2
  6
Continuous
 62
     1
100
AcDbCircle
 10
1340.380029299
 20
394.910000353
 30
0.0
 40
20.0
100
AcDbArc
 50
90.0
 51
180.0
  0
LINE
  5
F6
330
1F
100
AcDbEntity
  8
2
  6
Continuous
 62
     1
100
AcDbLine
 10
1343.380043158
 20
414.910000353
 30
0.0
 11
1340.380029299
 21
414.910000353
 31
0.0
  0
LINE
  5
F7
330
1F
100
AcDbEntity
  8
3
  6
Continuous
 62
     1
100
AcDbLine
 10
1366.872307026
 20
431.359473433
 30
0.0
 11
1391.38
 21
498.693806483
 31
0.0
  0
ARC
  5
F8
330
1F
100
AcDbEntity
  8
3
  6
Continuous
 62
     1
100
AcDbCircle
 10
1343.38
 20
439.910000353
 30
0.0
 40
25.0
100
AcDbArc
 50
200.000056918
 51
339.999943082
  0
LINE
  5
F9
330
1F
100
AcDbEntity
  8
3
  6
Continuous
 62
     1
100
AcDbLine
 10
1319.887692974
 20
431.359473433
 30
0.0
 11
1295.38
 21
498.693806483
 31
0.0
  0
CIRCLE
  5
FA
330
1F
100
AcDbEntity
  8
3
  6
LTYPE1
 62
     2
100
AcDbCircle
 10
1343.38
 20
439.910000353
 30
0.0
 40
90.0
  0
LINE
  5
FB
330
1F
100
AcDbEntity
  8
3
  6
Continuous
 62
     1
100
AcDbLine
 10
1295.38
 20
535.910000353
 30
0.0
 11
1293.38
 21
535.910000353
 31
0.0
  0
ARC
  5
FC
330
1F
100
AcDbEntity
  8
3
  6
Continuous
 62
     1
100
AcDbCircle
 10
1297.38
 20
535.910000353
 30
0.0
 40
2.0
100
AcDbArc
 50
90.0
 51
180.0
  0
ARC
  5
FD
330
1F
100
AcDbEntity
  8
3
  6
Continuous
 62
     1
100
AcDbCircle
 10
1297.38
 20
535.910000353
 30
0.0
 40
4.0
100
AcDbArc
 50
90.0
 51
180.0
  0
LWPOLYLINE
  5
FF
330
1F
100
AcDbEntity
  8
3
  6
Continuous
 62
     1
100
AcDbPolyline
 90
     3
 70
   128
 43
0.0
 10
1295.38
 20
535.910000353
 42
0.414211982
 10
1297.38
 20
537.909989564
 42
0.0
 10
1297.38
 20
539.910000353
 42
0.0
  0
LINE
  5
100
330
1F
100
AcDbEntity
  8
3
  6
Continuous
 62
     1
100
AcDbLine
 10
1391.38
 20
535.910000353
 30
0.0
 11
1393.38
 21
535.910000353
 31
0.0
  0
ARC
  5
101
330
1F
100
AcDbEntity
  8
3
  6
Continuous
 62
     1
100
AcDbCircle
 10
1389.38
 20
535.910000353
 30
0.0
 40
2.0
100
AcDbArc
 50
360.0
 51
90.0
  0
ARC
  5
102
330
1F
100
AcDbEntity
  8
3
  6
Continuous
 62
     1
100
AcDbCircle
 10
1389.38
 20
535.910000353
 30
0.0
 40
4.0
100
AcDbArc
 50
0.0
 51
90.0
  0
LWPOLYLINE
  5
104
330
1F
100
AcDbEntity
  8
3
  6
Continuous
 62
     1
100
AcDbPolyline
 90
     4
 70
   128
 43
0.0
 10
1391.38
 20
535.910000353
 42
-0.414211982
 10
1389.38
 20
537.909989564
 42
0.0
 10
1389.38
 20
539.910000353
 42
0.0
 10
1297.38
 20
539.910000353
 42
0.0
  0
LINE
  5
105
330
1F
100
AcDbEntity
  8
3
  6
Continuous
 62
     1
100
AcDbLine
 10
1391.38
 20
498.693806483
 30
0.0
 11
1391.38
 21
535.910000353
 31
0.0
  0
LINE
  5
106
330
1F
100
AcDbEntity
  8
3
  6
Continuous
 62
     1
100
AcDbLine
 10
1295.38
 20
498.693806483
 30
0.0
 11
1295.38
 21
535.910000353
 31
0.0
  0
LINE
  5
107
330
1F
100
AcDbEntity
  8
3
  6
Continuous
 62
     1
100
AcDbLine
 10
1393.38
 20
519.910000353
 30
0.0
 11
1393.38
 21
535.910000353
 31
0.0
  0
LINE
  5
108
330
1F
100
AcDbEntity
  8
3
  6
Continuous
 62
     1
100
AcDbLine
 10
1293.38
 20
519.910000353
 30
0.0
 11
1293.38
 21
535.910000353
 31
0.0
  0
LINE
  5
109
330
1F
100
AcDbEntity
  8
3
  6
Continuous
 62
     1
100
AcDbLine
 10
1295.38
 20
519.910000353
 30
0.0
 11
1293.38
 21
519.910000353
 31
0.0
  0
LINE
  5
10A
330
1F
100
AcDbEntity
  8
3
  6
Continuous
 62
     1
100
AcDbLine
 10
1393.38
 20
519.910000353
 30
0.0
 11
1391.38
 21
519.910000353
 31
0.0
  0
LINE
  5
10B
330
1F
100
AcDbEntity
  8
3
  6
LTYPE2
 62
     2
100
AcDbLine
 10
1389.38
 20
537.910000353
 30
0.0
 11
1297.38
 21
537.910000353
 31
0.0
  0
LINE
  5
10C
330
1F
100
AcDbEntity
  8
5
  6
Continuous
 62
     2
100
AcDbLine
 10
1355.38
 20
541.910000353
 30
0.0
 11
1331.38
 21
541.910000353
 31
0.0
  0
LINE
  5
10D
330
1F
100
AcDbEntity
  8
5
  6
Continuous
 62
     2
100
AcDbLine
 10
1358.755021579
 20
549.710000353
 30
0.0
 11
1328.004978421
 21
549.710000353
 31
0.0
  0
LINE
  5
10E
330
1F
100
AcDbEntity
  8
5
  6
Continuous
 62
     2
100
AcDbLine
 10
1333.129978421
 20
552.010000353
 30
0.0
 11
1333.129978421
 21
561.010000353
 31
0.0
  0
LINE
  5
10F
330
1F
100
AcDbEntity
  8
5
  6
Continuous
 62
     2
100
AcDbLine
 10
1353.629978421
 20
552.010000353
 30
0.0
 11
1353.629978421
 21
561.010000353
 31
0.0
  0
LINE
  5
110
330
1F
100
AcDbEntity
  8
5
  6
Continuous
 62
     2
100
AcDbLine
 10
1333.88
 20
549.710000353
 30
0.0
 11
1333.88
 21
541.910000353
 31
0.0
  0
LINE
  5
111
330
1F
100
AcDbEntity
  8
5
  6
LTYPE2
 62
     2
100
AcDbLine
 10
1335.38
 20
549.710000353
 30
0.0
 11
1335.38
 21
530.910000353
 31
0.0
  0
LINE
  5
112
330
1F
100
AcDbEntity
  8
5
  6
LTYPE2
 62
     2
100
AcDbLine
 10
1351.38
 20
549.710000353
 30
0.0
 11
1351.38
 21
530.910000353
 31
0.0
  0
LINE
  5
113
330
1F
100
AcDbEntity
  8
5
  6
Continuous
 62
     2
100
AcDbLine
 10
1352.88
 20
541.910000353
 30
0.0
 11
1352.88
 21
549.710000353
 31
0.0
  0
LINE
  5
114
330
1F
100
AcDbEntity
  8
5
  6
Continuous
 62
     2
100
AcDbLine
 10
1383.38
 20
591.910000353
 30
0.0
 11
1303.38
 21
591.910000353
 31
0.0
  0
CIRCLE
  5
115
330
1F
100
AcDbEntity
  8
5
  6
Continuous
 62
     2
100
AcDbCircle
 10
1371.38
 20
579.610000353
 30
0.0
 40
9.0
  0
ARC
  5
116
330
1F
100
AcDbEntity
  8
5
  6
LTYPE2
 62
     2
100
AcDbCircle
 10
1343.38
 20
559.92032644
 30
0.0
 40
23.989673913
100
AcDbArc
 50
64.705747729
 51
115.294252271
  0
LINE
  5
117
330
1F
100
AcDbEntity
  8
5
  6
LTYPE2
 62
     2
100
AcDbLine
 10
1358.755021579
 20
583.910000353
 30
0.0
 11
1328.005021579
 21
583.910000353
 31
0.0
  0
LINE
  5
118
330
1F
100
AcDbEntity
  8
5
  6
LTYPE2
 62
     2
100
AcDbLine
 10
1383.38
 20
570.310000353
 30
0.0
 11
1303.38
 21
570.310000353
 31
0.0
  0
LWPOLYLINE
  5
11A
330
1F
100
AcDbEntity
  8
5
  6
Continuous
 62
     2
100
AcDbPolyline
 90
     5
 70
   128
 43
0.0
 10
1367.755
 20
573.331316176
 10
1375.005
 20
573.331316176
 10
1378.63
 20
579.610000353
 10
1375.005
 20
585.888684531
 10
1367.755
 20
585.888684531
  0
CIRCLE
  5
11B
330
1F
100
AcDbEntity
  8
5
  6
Continuous
 62
     2
100
AcDbCircle
 10
1371.38
 20
579.610000353
 30
0.0
 40
6.0
  0
CIRCLE
  5
11C
330
1F
100
AcDbEntity
  8
5
  6
Continuous
 62
     2
100
AcDbCircle
 10
1371.38
 20
579.610000353
 30
0.0
 40
4.0
  0
LWPOLYLINE
  5
11E
330
1F
100
AcDbEntity
  8
5
  6
Continuous
 62
     2
100
AcDbPolyline
 90
     3
 70
   128
 43
0.0
 10
1367.755
 20
585.888684531
 10
1364.13
 20
579.610000353
 10
1367.755
 20
573.331316176
  0
LWPOLYLINE
  5
120
330
1F
100
AcDbEntity
  8
5
  6
Continuous
 62
     1
100
AcDbPolyline
 90
     4
 70
   129
 43
0.0
 10
1268.38
 20
598.310000353
 10
1418.38
 20
598.310000353
 10
1418.38
 20
595.110000353
 10
1268.38
 20
595.110000353
  0
LWPOLYLINE
  5
122
330
1F
100
AcDbEntity
  8
5
  6
Continuous
 62
     1
100
AcDbPolyline
 90
     4
 70
   128
 43
0.0
 10
1383.38
 20
595.110000353
 10
1383.38
 20
567.110000353
 10
1303.38
 20
567.110000353
 10
1303.38
 20
595.110000353
  0
LWPOLYLINE
  5
124
330
1F
100
AcDbEntity
  8
5
  6
LTYPE2
 62
     2
100
AcDbPolyline
 90
     4
 70
   128
 43
0.0
 10
1322.38
 20
535.910000353
 10
1322.38
 20
530.910000353
 10
1364.13
 20
530.910000353
 10
1364.13
 20
535.910000353
  0
LWPOLYLINE
  5
127
330
1F
100
AcDbEntity
  8
5
  6
Continuous
 62
     2
100
AcDbPolyline
 90
     8
 70
   129
 43
0.0
 10
1363.879978421
 20
561.010000353
 42
0.0
 10
1363.879978421
 20
552.010000353
 42
-0.448780488
 10
1353.629978421
 20
552.010000353
 42
-0.224390244
 10
1333.129978421
 20
552.010000353
 42
-0.448780488
 10
1322.879978421
 20
552.010000353
 42
0.0
 10
1322.879978421
 20
561.010000353
 42
-0.448780488
 10
1333.129978421
 20
561.010000353
 42
-0.224390244
 10
1353.629978421
 20
561.010000353
 42
-0.448780488
  0
LWPOLYLINE
  5
12E
330
1F
100
AcDbEntity
  8
5
  6
Continuous
 62
     2
100
AcDbPolyline
 90
     4
 70
   128
 43
0.0
 10
1367.38
 20
567.110000353
 10
1367.38
 20
563.310000353
 10
1319.38
 20
563.310000353
 10
1319.38
 20
567.110000353
  0
LWPOLYLINE
  5
130
330
1F
100
AcDbEntity
  8
5
  6
LTYPE2
 62
     2
100
AcDbPolyline
 90
    10
 70
   128
 43
0.0
 10
1353.63
 20
572.610000353
 42
0.448780488
 10
1363.88
 20
572.610000353
 42
0.0
 10
1363.88
 20
581.610000353
 42
0.448780488
 10
1353.63
 20
581.610000353
 42
0.0
 10
1353.63
 20
572.610000353
 42
-0.224390244
 10
1333.13
 20
572.610000353
 42
-0.448780488
 10
1322.88
 20
572.610000353
 42
0.0
 10
1322.88
 20
581.610000353
 42
-0.448780488
 10
1333.13
 20
581.610000353
 42
0.0
 10
1333.13
 20
572.610000353
 42
0.0
  0
LINE
  5
135
330
1F
100
AcDbEntity
  8
2
  6
LTYPE2
 62
     2
100
AcDbLine
 10
1272.38
 20
487.910000353
 30
0.0
 11
1299.304984443
 21
487.910000353
 31
0.0
  0
LINE
  5
136
330
1F
100
AcDbEntity
  8
2
  6
Continuous
 62
     1
100
AcDbLine
 10
1272.38
 20
489.910000353
 30
0.0
 11
1298.577043975
 21
489.910000353
 31
0.0
  0
ARC
  5
137
330
1F
100
AcDbEntity
  8
2
  6
LTYPE2
 62
     2
100
AcDbCircle
 10
1340.380029299
 20
484.910000353
 30
0.0
 40
20.0
100
AcDbArc
 50
180.0
 51
270.0
  0
ARC
  5
138
330
1F
100
AcDbEntity
  8
2
  6
LTYPE2
 62
     2
100
AcDbCircle
 10
1343.38
 20
439.910000353
 30
0.0
 40
25.0
100
AcDbArc
 50
270.000098913
 51
90.0
  0
LINE
  5
139
330
1F
100
AcDbEntity
  8
2
  6
LTYPE2
 62
     2
100
AcDbLine
 10
1343.38
 20
464.910000353
 30
0.0
 11
1340.380029299
 21
464.910000353
 31
0.0
  0
LINE
  5
13A
330
1F
100
AcDbEntity
  8
2
  6
LTYPE2
 62
     2
100
AcDbLine
 10
1320.380029299
 20
484.910000353
 30
0.0
 11
1320.380029299
 21
489.910000353
 31
0.0
  0
LINE
  5
13B
330
1F
100
AcDbEntity
  8
2
  6
LTYPE2
 62
     2
100
AcDbLine
 10
1298.577043975
 20
489.910000353
 30
0.0
 11
1320.380029299
 21
489.910000353
 31
0.0
  0
LINE
  5
13C
330
1F
100
AcDbEntity
  8
7
  6
Continuous
 62
     2
100
AcDbLine
 10
1268.38
 20
388.910000353
 30
0.0
 11
1268.38
 21
349.910000353
 31
0.0
  0
LINE
  5
13D
330
1F
100
AcDbEntity
  8
7
  6
Continuous
 62
     2
100
AcDbLine
 10
1268.38
 20
359.910000353
 30
0.0
 11
1280.454072829
 21
356.67476229
 31
0.0
  0
LINE
  5
13E
330
1F
100
AcDbEntity
  8
7
  6
Continuous
 62
     2
100
AcDbLine
 10
1268.38
 20
359.910000353
 30
0.0
 11
1280.454072829
 21
363.145238417
 31
0.0
  0
LWPOLYLINE
  5
140
330
1F
100
AcDbEntity
  8
7
  6
Continuous
 62
     2
100
AcDbPolyline
 90
     3
 70
   128
 43
0.0
 10
1268.38
 20
359.910000353
 10
1423.379997814
 20
359.910000353
 10
1411.305924986
 20
363.145238417
  0
LINE
  5
141
330
1F
100
AcDbEntity
  8
7
  6
Continuous
 62
     2
100
AcDbLine
 10
1423.379997814
 20
359.910000353
 30
0.0
 11
1411.305924986
 21
356.67476229
 31
0.0
  0
LINE
  5
142
330
1F
100
AcDbEntity
  8
7
  6
Continuous
 62
     2
100
AcDbLine
 10
1423.379997814
 20
434.910000353
 30
0.0
 11
1423.379997814
 21
349.910000353
 31
0.0
  0
MTEXT
  5
143
330
1F
100
AcDbEntity
  8
7
  6
Continuous
 62
     2
100
AcDbMText
 10
1320.379998907
 20
364.910000353
 30
0.0
 40
15.0
 41
102.0
 71
     7
 72
     1
  1
\T1.167;\W0.600;（１５５）
  7
KANJI7
 73
     1
 44
1.0
  0
ARC
  5
145
330
1F
100
AcDbEntity
  8
6
  6
LTYPE1
 62
     2
100
AcDbCircle
 10
1370.876427136
 20
439.910000353
 30
0.0
 40
52.503570679
100
AcDbArc
 50
289.473976541
 51
70.526023459
  0
LINE
  5
146
330
1F
100
AcDbEntity
  8
6
  6
LTYPE1
 62
     2
100
AcDbLine
 10
1388.379998314
 20
489.409999646
 30
0.0
 11
1320.380029299
 21
486.816780489
 31
0.0
  0
LINE
  5
147
330
1F
100
AcDbEntity
  8
6
  6
LTYPE1
 62
     2
100
AcDbLine
 10
1388.379998314
 20
390.410001061
 30
0.0
 11
1320.380029299
 21
393.003220218
 31
0.0
  0
LINE
  5
148
330
1F
100
AcDbEntity
  8
2
  6
LTYPE2
 62
     2
100
AcDbLine
 10
1297.88
 20
521.910000353
 30
0.0
 11
1295.88
 21
521.910000353
 31
0.0
  0
LWPOLYLINE
  5
14A
330
1F
100
AcDbEntity
  8
2
  6
LTYPE2
 62
     2
100
AcDbPolyline
 90
     5
 70
   128
 43
0.0
 10
1390.88
 20
521.910000353
 42
0.0
 10
1388.88
 20
521.910000353
 42
0.0
 10
1388.88
 20
533.910000353
 42
0.414213562
 10
1386.88
 20
535.910000353
 42
0.0
 10
1299.88
 20
535.910000353
 42
0.0
  0
LINE
  5
14C
330
1F
100
AcDbEntity
  8
2
  6
LTYPE2
 62
     2
100
AcDbLine
 10
1297.88
 20
521.910000353
 30
0.0
 11
1297.88
 21
533.910000353
 31
0.0
  0
ARC
  5
14D
330
1F
100
AcDbEntity
  8
2
  6
LTYPE2
 62
     2
100
AcDbCircle
 10
1299.88
 20
533.910000353
 30
0.0
 40
2.0
100
AcDbArc
 50
90.0
 51
180.0
  0
LWPOLYLINE
  5
150
330
1F
100
AcDbEntity
  8
2
  6
LTYPE2
 62
     2
100
AcDbPolyline
 90
     3
 70
   128
 43
0.0
 10
1384.537621552
 20
529.909053608
 42
-0.692820277
 10
1380.210227263
 20
529.909053608
 42
-0.346244685
 10
1371.548569414
 20
529.910000277
 42
0.0
  0
ARC
  5
151
330
1F
100
AcDbEntity
  8
2
  6
LTYPE2
 62
     2
100
AcDbCircle
 10
1369.383505954
 20
530.723059874
 30
0.0
 40
2.313059521
100
AcDbArc
 50
200.569995159
 51
339.430002812
  0
LINE
  5
152
330
1F
100
AcDbEntity
  8
2
  6
LTYPE2
 62
     2
100
AcDbLine
 10
1367.218442465
 20
535.910000353
 30
0.0
 11
1367.218442465
 21
529.910000353
 31
0.0
  0
LINE
  5
153
330
1F
100
AcDbEntity
  8
2
  6
LTYPE2
 62
     2
100
AcDbLine
 10
1371.548569484
 20
535.910000353
 30
0.0
 11
1371.548569484
 21
529.910000353
 31
0.0
  0
LINE
  5
154
330
1F
100
AcDbEntity
  8
2
  6
LTYPE2
 62
     2
100
AcDbLine
 10
1380.208823522
 20
535.910000353
 30
0.0
 11
1380.208823522
 21
529.910000353
 31
0.0
  0
LINE
  5
155
330
1F
100
AcDbEntity
  8
2
  6
LTYPE2
 62
     2
100
AcDbLine
 10
1384.538950541
 20
535.910000353
 30
0.0
 11
1384.538950541
 21
529.910000353
 31
0.0
  0
LINE
  5
156
330
1F
100
AcDbEntity
  8
2
  6
LTYPE2
 62
     2
100
AcDbLine
 10
1369.383527533
 20
528.410000353
 30
0.0
 11
1382.373945987
 21
528.410000353
 31
0.0
  0
LWPOLYLINE
  5
159
330
1F
100
AcDbEntity
  8
2
  6
LTYPE2
 62
     2
100
AcDbPolyline
 90
     3
 70
   128
 43
0.0
 10
1302.222378448
 20
529.909053608
 42
0.692820277
 10
1306.549772737
 20
529.909053608
 42
0.346244685
 10
1315.211430586
 20
529.910000277
 42
0.0
  0
ARC
  5
15A
330
1F
100
AcDbEntity
  8
2
  6
LTYPE2
 62
     2
100
AcDbCircle
 10
1317.376494046
 20
530.723059874
 30
0.0
 40
2.313059521
100
AcDbArc
 50
200.569997188
 51
339.430004841
  0
LINE
  5
15B
330
1F
100
AcDbEntity
  8
2
  6
LTYPE2
 62
     2
100
AcDbLine
 10
1319.541557535
 20
535.910000353
 30
0.0
 11
1319.541557535
 21
529.910000353
 31
0.0
  0
LINE
  5
15C
330
1F
100
AcDbEntity
  8
2
  6
LTYPE2
 62
     2
100
AcDbLine
 10
1315.211430516
 20
535.910000353
 30
0.0
 11
1315.211430516
 21
529.910000353
 31
0.0
  0
LINE
  5
15D
330
1F
100
AcDbEntity
  8
2
  6
LTYPE2
 62
     2
100
AcDbLine
 10
1306.551176478
 20
535.910000353
 30
0.0
 11
1306.551176478
 21
529.910000353
 31
0.0
  0
LINE
  5
15E
330
1F
100
AcDbEntity
  8
2
  6
LTYPE2
 62
     2
100
AcDbLine
 10
1302.221049459
 20
535.910000353
 30
0.0
 11
1302.221049459
 21
529.910000353
 31
0.0
  0
LINE
  5
15F
330
1F
100
AcDbEntity
  8
2
  6
LTYPE2
 62
     2
100
AcDbLine
 10
1317.376472467
 20
528.410000353
 30
0.0
 11
1304.386054013
 21
528.410000353
 31
0.0
  0
CIRCLE
  5
160
330
1F
100
AcDbEntity
  8
4
  6
Continuous
 62
     2
100
AcDbCircle
 10
1343.38
 20
439.910000353
 30
0.0
 40
6.5
  0
LWPOLYLINE
  5
162
330
1F
100
AcDbEntity
  8
4
  6
Continuous
 62
     2
100
AcDbPolyline
 90
     6
 70
   129
 43
0.0
 10
1347.18
 20
446.410000353
 10
1339.58
 20
446.410000353
 10
1335.88
 20
439.910000353
 10
1339.58
 20
433.410000353
 10
1347.18
 20
433.410000353
 10
1350.88
 20
439.910000353
  0
CIRCLE
  5
163
330
1F
100
AcDbEntity
  8
4
  6
Continuous
 62
     2
100
AcDbCircle
 10
1343.38
 20
439.910000353
 30
0.0
 40
7.7
  0
CIRCLE
  5
164
330
1F
100
AcDbEntity
  8
4
  6
Continuous
 62
     2
100
AcDbCircle
 10
1343.38
 20
439.910000353
 30
0.0
 40
8.5
  0
LWPOLYLINE
  5
166
330
1F
100
AcDbEntity
  8
4
  6
Continuous
 62
     2
100
AcDbPolyline
 90
     4
 70
   129
 43
0.0
 10
1302.378707292
 20
539.910000353
 10
1319.378707292
 20
539.910000353
 10
1319.378707292
 20
541.510000353
 10
1302.378707292
 20
541.510000353
  0
LWPOLYLINE
  5
168
330
1F
100
AcDbEntity
  8
4
  6
Continuous
 62
     2
100
AcDbPolyline
 90
     4
 70
   129
 43
0.0
 10
1318.578707292
 20
541.510000353
 10
1318.578707292
 20
543.510000353
 10
1303.178707292
 20
543.510000353
 10
1303.178707292
 20
541.510000353
  0
LINE
  5
169
330
1F
100
AcDbEntity
  8
4
  6
Continuous
 62
     2
100
AcDbLine
 10
1303.378707292
 20
543.510000353
 30
0.0
 11
1303.378707292
 21
548.110000353
 31
0.0
  0
LINE
  5
16A
330
1F
100
AcDbEntity
  8
4
  6
Continuous
 62
     2
100
AcDbLine
 10
1318.378707292
 20
543.510000353
 30
0.0
 11
1318.378707292
 21
548.110000353
 31
0.0
  0
LINE
  5
16B
330
1F
100
AcDbEntity
  8
4
  6
Continuous
 62
     2
100
AcDbLine
 10
1314.678707292
 20
543.510000353
 30
0.0
 11
1314.678707292
 21
548.110000353
 31
0.0
  0
LINE
  5
16C
330
1F
100
AcDbEntity
  8
4
  6
Continuous
 62
     2
100
AcDbLine
 10
1307.078707292
 20
543.510000353
 30
0.0
 11
1307.078707292
 21
548.110000353
 31
0.0
  0
LINE
  5
16D
330
1F
100
AcDbEntity
  8
4
  6
Continuous
 62
     2
100
AcDbLine
 10
1305.178707292
 20
548.810000353
 30
0.0
 11
1316.578707292
 21
548.810000353
 31
0.0
  0
ARC
  5
16E
330
1F
100
AcDbEntity
  8
4
  6
Continuous
 62
     2
100
AcDbCircle
 10
1316.578707292
 20
546.010000353
 30
0.0
 40
2.8
100
AcDbArc
 50
48.5
 51
131.5
  0
ARC
  5
16F
330
1F
100
AcDbEntity
  8
4
  6
Continuous
 62
     2
100
AcDbCircle
 10
1310.878707292
 20
538.110000353
 30
0.0
 40
10.7
100
AcDbArc
 50
69.1
 51
110.9
  0
ARC
  5
170
330
1F
100
AcDbEntity
  8
4
  6
Continuous
 62
     2
100
AcDbCircle
 10
1305.178707292
 20
546.010000353
 30
0.0
 40
2.8
100
AcDbArc
 50
48.5
 51
131.5
  0
LINE
  5
171
330
1F
100
AcDbEntity
  8
4
  6
Continuous
 62
     2
100
AcDbLine
 10
1310.878707292
 20
543.510000353
 30
0.0
 11
1312.033407831
 21
541.510000353
 31
0.0
  0
LINE
  5
172
330
1F
100
AcDbEntity
  8
4
  6
Continuous
 62
     2
100
AcDbLine
 10
1310.878707292
 20
541.510000353
 30
0.0
 11
1309.724006754
 21
543.510000353
 31
0.0
  0
LWPOLYLINE
  5
174
330
1F
100
AcDbEntity
  8
4
  6
Continuous
 62
     2
100
AcDbPolyline
 90
     4
 70
   129
 43
0.0
 10
1367.378700972
 20
539.910000353
 10
1384.378700972
 20
539.910000353
 10
1384.378700972
 20
541.510000353
 10
1367.378700972
 20
541.510000353
  0
LWPOLYLINE
  5
176
330
1F
100
AcDbEntity
  8
4
  6
Continuous
 62
     2
100
AcDbPolyline
 90
     4
 70
   129
 43
0.0
 10
1383.578700972
 20
541.510000353
 10
1383.578700972
 20
543.510000353
 10
1368.178700972
 20
543.510000353
 10
1368.178700972
 20
541.510000353
  0
LINE
  5
177
330
1F
100
AcDbEntity
  8
4
  6
Continuous
 62
     2
100
AcDbLine
 10
1368.378700972
 20
543.510000353
 30
0.0
 11
1368.378700972
 21
548.110000353
 31
0.0
  0
LINE
  5
178
330
1F
100
AcDbEntity
  8
4
  6
Continuous
 62
     2
100
AcDbLine
 10
1383.378700972
 20
543.510000353
 30
0.0
 11
1383.378700972
 21
548.110000353
 31
0.0
  0
LINE
  5
179
330
1F
100
AcDbEntity
  8
4
  6
Continuous
 62
     2
100
AcDbLine
 10
1379.678700972
 20
543.510000353
 30
0.0
 11
1379.678700972
 21
548.110000353
 31
0.0
  0
LINE
  5
17A
330
1F
100
AcDbEntity
  8
4
  6
Continuous
 62
     2
100
AcDbLine
 10
1372.078700972
 20
543.510000353
 30
0.0
 11
1372.078700972
 21
548.110000353
 31
0.0
  0
LINE
  5
17B
330
1F
100
AcDbEntity
  8
4
  6
Continuous
 62
     2
100
AcDbLine
 10
1370.178700972
 20
548.810000353
 30
0.0
 11
1381.578700972
 21
548.810000353
 31
0.0
  0
ARC
  5
17C
330
1F
100
AcDbEntity
  8
4
  6
Continuous
 62
     2
100
AcDbCircle
 10
1381.578700972
 20
546.010000353
 30
0.0
 40
2.8
100
AcDbArc
 50
48.5
 51
131.5
  0
ARC
  5
17D
330
1F
100
AcDbEntity
  8
4
  6
Continuous
 62
     2
100
AcDbCircle
 10
1375.878700972
 20
538.110000353
 30
0.0
 40
10.7
100
AcDbArc
 50
69.1
 51
110.9
  0
ARC
  5
17E
330
1F
100
AcDbEntity
  8
4
  6
Continuous
 62
     2
100
AcDbCircle
 10
1370.178700972
 20
546.010000353
 30
0.0
 40
2.8
100
AcDbArc
 50
48.5
 51
131.5
  0
LINE
  5
17F
330
1F
100
AcDbEntity
  8
4
  6
Continuous
 62
     2
100
AcDbLine
 10
1375.878700972
 20
543.510000353
 30
0.0
 11
1377.03340151
 21
541.510000353
 31
0.0
  0
LINE
  5
180
330
1F
100
AcDbEntity
  8
4
  6
Continuous
 62
     2
100
AcDbLine
 10
1375.878700972
 20
541.510000353
 30
0.0
 11
1374.724000434
 21
543.510000353
 31
0.0
  0
LINE
  5
181
330
1F
100
AcDbEntity
  8
5
  6
Continuous
 62
     2
100
AcDbLine
 10
1333.88
 20
541.910000353
 30
0.0
 11
1331.88
 21
539.910000353
 31
0.0
  0
LINE
  5
182
330
1F
100
AcDbEntity
  8
5
  6
Continuous
 62
     1
100
AcDbLine
 10
1331.38
 20
549.710000353
 30
0.0
 11
1331.38
 21
539.910000353
 31
0.0
  0
LINE
  5
183
330
1F
100
AcDbEntity
  8
5
  6
Continuous
 62
     2
100
AcDbLine
 10
1352.88
 20
541.910000353
 30
0.0
 11
1354.88
 21
539.910000353
 31
0.0
  0
LINE
  5
184
330
1F
100
AcDbEntity
  8
5
  6
Continuous
 62
     1
100
AcDbLine
 10
1355.38
 20
539.910000353
 30
0.0
 11
1355.38
 21
549.710000353
 31
0.0
  0
LINE
  5
185
330
1F
100
AcDbEntity
  8
7
  6
Continuous
 62
     2
100
AcDbLine
 10
1263.38
 20
598.310000353
 30
0.0
 11
1233.38
 21
598.310000353
 31
0.0
  0
LINE
  5
186
330
1F
100
AcDbEntity
  8
7
  6
Continuous
 62
     2
100
AcDbLine
 10
1243.38
 20
598.310000353
 30
0.0
 11
1240.144761936
 21
586.235927525
 31
0.0
  0
LINE
  5
187
330
1F
100
AcDbEntity
  8
7
  6
Continuous
 62
     2
100
AcDbLine
 10
1243.38
 20
598.310000353
 30
0.0
 11
1246.615238064
 21
586.235927525
 31
0.0
  0
LWPOLYLINE
  5
189
330
1F
100
AcDbEntity
  8
7
  6
Continuous
 62
     2
100
AcDbPolyline
 90
     3
 70
   128
 43
0.0
 10
1243.38
 20
598.310000353
 10
1243.38
 20
539.910000353
 10
1246.615238064
 20
551.984073182
  0
LINE
  5
18A
330
1F
100
AcDbEntity
  8
7
  6
Continuous
 62
     2
100
AcDbLine
 10
1243.38
 20
539.910000353
 30
0.0
 11
1240.144761936
 21
551.984073182
 31
0.0
  0
LINE
  5
18B
330
1F
100
AcDbEntity
  8
7
  6
Continuous
 62
     2
100
AcDbLine
 10
1292.38
 20
539.910000353
 30
0.0
 11
1233.38
 21
539.910000353
 31
0.0
  0
MTEXT
  5
18C
330
1F
100
AcDbEntity
  8
7
  6
Continuous
 62
     2
100
AcDbMText
 10
1238.38
 20
538.360000353
 30
0.0
 40
15.0
 41
123.0
 71
     7
 72
     1
  1
\T1.167;\W0.600;（５８．４）
  7
KANJI7
 11
0.0
 21
1.0
 31
0.0
 73
     1
 44
1.0
  0
LINE
  5
18D
330
1F
100
AcDbEntity
  8
7
  6
Continuous
 62
     2
100
AcDbLine
 10
1243.38
 20
539.910000353
 30
0.0
 11
1240.144761936
 21
527.835927525
 31
0.0
  0
LINE
  5
18E
330
1F
100
AcDbEntity
  8
7
  6
Continuous
 62
     2
100
AcDbLine
 10
1243.38
 20
539.910000353
 30
0.0
 11
1246.615238064
 21
527.835927525
 31
0.0
  0
LWPOLYLINE
  5
190
330
1F
100
AcDbEntity
  8
7
  6
Continuous
 62
     2
100
AcDbPolyline
 90
     3
 70
   128
 43
0.0
 10
1243.38
 20
539.910000353
 10
1243.38
 20
439.910000353
 10
1246.615238064
 20
451.984073182
  0
LINE
  5
191
330
1F
100
AcDbEntity
  8
7
  6
Continuous
 62
     2
100
AcDbLine
 10
1243.38
 20
439.910000353
 30
0.0
 11
1240.144761936
 21
451.984073182
 31
0.0
  0
LINE
  5
192
330
1F
100
AcDbEntity
  8
7
  6
Continuous
 62
     2
100
AcDbLine
 10
1338.38
 20
439.910000353
 30
0.0
 11
1233.38
 21
439.910000353
 31
0.0
  0
MTEXT
  5
193
330
1F
100
AcDbEntity
  8
7
  6
Continuous
 62
     2
100
AcDbMText
 10
1238.38
 20
474.910000353
 30
0.0
 40
15.0
 41
60.0
 71
     7
 72
     1
  1
\T1.167;\W0.600;１００
  7
KANJI7
 11
0.0
 21
1.0
 31
0.0
 73
     1
 44
1.0
  0
LINE
  5
194
330
1F
100
AcDbEntity
  8
7
  6
Continuous
 62
     2
100
AcDbLine
 10
1238.38
 20
598.310000353
 30
0.0
 11
1203.38
 21
598.310000353
 31
0.0
  0
LINE
  5
195
330
1F
100
AcDbEntity
  8
7
  6
Continuous
 62
     2
100
AcDbLine
 10
1213.38
 20
598.310000353
 30
0.0
 11
1210.144761936
 21
586.235927525
 31
0.0
  0
LINE
  5
196
330
1F
100
AcDbEntity
  8
7
  6
Continuous
 62
     2
100
AcDbLine
 10
1213.38
 20
598.310000353
 30
0.0
 11
1216.615238064
 21
586.235927525
 31
0.0
  0
LWPOLYLINE
  5
198
330
1F
100
AcDbEntity
  8
7
  6
Continuous
 62
     2
100
AcDbPolyline
 90
     3
 70
   128
 43
0.0
 10
1213.38
 20
598.310000353
 10
1213.38
 20
389.910000353
 10
1216.615238064
 20
401.984073182
  0
LINE
  5
199
330
1F
100
AcDbEntity
  8
7
  6
Continuous
 62
     2
100
AcDbLine
 10
1213.38
 20
389.910000353
 30
0.0
 11
1210.144761936
 21
401.984073182
 31
0.0
  0
LINE
  5
19A
330
1F
100
AcDbEntity
  8
7
  6
Continuous
 62
     2
100
AcDbLine
 10
1267.38
 20
389.910000353
 30
0.0
 11
1203.38
 21
389.910000353
 31
0.0
  0
MTEXT
  5
19B
330
1F
100
AcDbEntity
  8
7
  6
Continuous
 62
     2
100
AcDbMText
 10
1208.38
 20
458.110000353
 30
0.0
 40
15.0
 41
144.0
 71
     7
 72
     1
  1
\T1.167;\W0.600;（２０８．４）
  7
KANJI7
 11
0.0
 21
1.0
 31
0.0
 73
     1
 44
1.0
  0
LINE
  5
19C
330
1F
100
AcDbEntity
  8
5
  6
Continuous
 62
     2
100
AcDbLine
 10
611.38
 20
541.910000353
 30
0.0
 11
587.38
 21
541.910000353
 31
0.0
  0
LINE
  5
19D
330
1F
100
AcDbEntity
  8
5
  6
Continuous
 62
     2
100
AcDbLine
 10
614.755021579
 20
583.910000353
 30
0.0
 11
584.005021579
 21
583.910000353
 31
0.0
  0
LINE
  5
19E
330
1F
100
AcDbEntity
  8
5
  6
Continuous
 62
     2
100
AcDbLine
 10
589.13
 20
572.610000353
 30
0.0
 11
589.13
 21
581.610000353
 31
0.0
  0
LINE
  5
19F
330
1F
100
AcDbEntity
  8
5
  6
Continuous
 62
     2
100
AcDbLine
 10
609.63
 20
572.610000353
 30
0.0
 11
609.63
 21
581.610000353
 31
0.0
  0
LINE
  5
1A0
330
1F
100
AcDbEntity
  8
5
  6
Continuous
 62
     2
100
AcDbLine
 10
614.755021579
 20
549.710000353
 30
0.0
 11
584.004978421
 21
549.710000353
 31
0.0
  0
LINE
  5
1A1
330
1F
100
AcDbEntity
  8
5
  6
Continuous
 62
     2
100
AcDbLine
 10
589.129978421
 20
552.010000353
 30
0.0
 11
589.129978421
 21
561.010000353
 31
0.0
  0
LINE
  5
1A2
330
1F
100
AcDbEntity
  8
5
  6
Continuous
 62
     2
100
AcDbLine
 10
609.629978421
 20
552.010000353
 30
0.0
 11
609.629978421
 21
561.010000353
 31
0.0
  0
LINE
  5
1A3
330
1F
100
AcDbEntity
  8
5
  6
Continuous
 62
     2
100
AcDbLine
 10
589.88
 20
549.710000353
 30
0.0
 11
589.88
 21
541.910000353
 31
0.0
  0
LINE
  5
1A4
330
1F
100
AcDbEntity
  8
5
  6
LTYPE2
 62
     2
100
AcDbLine
 10
591.38
 20
549.710000353
 30
0.0
 11
591.38
 21
530.910000353
 31
0.0
  0
LINE
  5
1A5
330
1F
100
AcDbEntity
  8
5
  6
LTYPE2
 62
     2
100
AcDbLine
 10
607.38
 20
549.710000353
 30
0.0
 11
607.38
 21
530.910000353
 31
0.0
  0
LINE
  5
1A6
330
1F
100
AcDbEntity
  8
5
  6
Continuous
 62
     2
100
AcDbLine
 10
608.88
 20
541.910000353
 30
0.0
 11
608.88
 21
549.710000353
 31
0.0
  0
LINE
  5
1A7
330
1F
100
AcDbEntity
  8
5
  6
Continuous
 62
     2
100
AcDbLine
 10
629.18
 20
575.985000353
 30
0.0
 11
633.18
 21
575.985000353
 31
0.0
  0
LINE
  5
1A8
330
1F
100
AcDbEntity
  8
5
  6
Continuous
 62
     2
100
AcDbLine
 10
629.18
 20
583.235000353
 30
0.0
 11
633.18
 21
583.235000353
 31
0.0
  0
LINE
  5
1A9
330
1F
100
AcDbEntity
  8
5
  6
Continuous
 62
     2
100
AcDbLine
 10
638.68
 20
576.110000353
 30
0.0
 11
636.68
 21
576.110000353
 31
0.0
  0
LINE
  5
1AA
330
1F
100
AcDbEntity
  8
5
  6
Continuous
 62
     2
100
AcDbLine
 10
638.68
 20
583.110000353
 30
0.0
 11
638.68
 21
576.110000353
 31
0.0
  0
LINE
  5
1AB
330
1F
100
AcDbEntity
  8
5
  6
Continuous
 62
     2
100
AcDbLine
 10
636.68
 20
583.110000353
 30
0.0
 11
638.68
 21
583.110000353
 31
0.0
  0
LINE
  5
1AC
330
1F
100
AcDbEntity
  8
5
  6
Continuous
 62
     2
100
AcDbLine
 10
638.18
 20
583.610000353
 30
0.0
 11
638.68
 21
583.110000353
 31
0.0
  0
LINE
  5
1AD
330
1F
100
AcDbEntity
  8
5
  6
Continuous
 62
     2
100
AcDbLine
 10
638.68
 20
576.110000353
 30
0.0
 11
638.18
 21
575.610000353
 31
0.0
  0
LINE
  5
1AE
330
1F
100
AcDbEntity
  8
5
  6
Continuous
 62
     2
100
AcDbLine
 10
564.08
 20
574.172500353
 30
0.0
 11
564.08
 21
585.047500353
 31
0.0
  0
LINE
  5
1AF
330
1F
100
AcDbEntity
  8
5
  6
Continuous
 62
     2
100
AcDbLine
 10
569.58
 20
583.235000353
 30
0.0
 11
565.58
 21
583.235000353
 31
0.0
  0
LINE
  5
1B0
330
1F
100
AcDbEntity
  8
5
  6
Continuous
 62
     2
100
AcDbLine
 10
569.58
 20
575.985000353
 30
0.0
 11
565.58
 21
575.985000353
 31
0.0
  0
LINE
  5
1B1
330
1F
100
AcDbEntity
  8
5
  6
Continuous
 62
     2
100
AcDbLine
 10
578.88
 20
575.610000353
 30
0.0
 11
574.38
 21
575.610000353
 31
0.0
  0
LINE
  5
1B2
330
1F
100
AcDbEntity
  8
5
  6
Continuous
 62
     2
100
AcDbLine
 10
581.998522717
 20
583.610000353
 30
0.0
 11
574.38
 21
583.610000353
 31
0.0
  0
LINE
  5
1B3
330
1F
100
AcDbEntity
  8
5
  6
Continuous
 62
     2
100
AcDbLine
 10
624.38
 20
583.610000353
 30
0.0
 11
616.761477283
 21
583.610000353
 31
0.0
  0
LINE
  5
1B4
330
1F
100
AcDbEntity
  8
5
  6
Continuous
 62
     2
100
AcDbLine
 10
624.38
 20
575.610000353
 30
0.0
 11
619.88
 21
575.610000353
 31
0.0
  0
LWPOLYLINE
  5
1B6
330
1F
100
AcDbEntity
  8
5
  6
Continuous
 62
     1
100
AcDbPolyline
 90
     4
 70
   129
 43
0.0
 10
524.38
 20
598.310000353
 10
674.38
 20
598.310000353
 10
674.38
 20
595.110000353
 10
524.38
 20
595.110000353
  0
LWPOLYLINE
  5
1B8
330
1F
100
AcDbEntity
  8
5
  6
Continuous
 62
     1
100
AcDbPolyline
 90
    10
 70
   128
 43
0.0
 10
649.38
 20
595.110000353
 42
0.0
 10
649.38
 20
591.910000353
 42
0.0
 10
627.58
 20
591.910000353
 42
0.0
 10
627.58
 20
570.110000353
 42
-0.414213562
 10
624.58
 20
567.110000353
 42
0.0
 10
574.18
 20
567.110000353
 42
-0.414213562
 10
571.18
 20
570.110000353
 42
0.0
 10
571.18
 20
591.910000353
 42
0.0
 10
549.38
 20
591.910000353
 42
0.0
 10
549.38
 20
595.110000353
 42
0.0
  0
LWPOLYLINE
  5
1BD
330
1F
100
AcDbEntity
  8
5
  6
Continuous
 62
     2
100
AcDbPolyline
 90
     6
 70
   128
 43
0.0
 10
569.58
 20
586.860000353
 42
0.0
 10
565.58
 20
586.860000353
 42
0.827586207
 10
565.58
 20
583.235000353
 42
0.413793103
 10
565.58
 20
575.985000353
 42
0.827586207
 10
565.58
 20
572.360000353
 42
0.0
 10
569.58
 20
572.360000353
 42
0.0
  0
LWPOLYLINE
  5
1C1
330
1F
100
AcDbEntity
  8
5
  6
Continuous
 62
     2
100
AcDbPolyline
 90
     4
 70
   128
 43
0.0
 10
571.18
 20
588.610000353
 10
569.58
 20
588.610000353
 10
569.58
 20
570.610000353
 10
571.18
 20
570.610000353
  0
LWPOLYLINE
  5
1C3
330
1F
100
AcDbEntity
  8
5
  6
Continuous
 62
     2
100
AcDbPolyline
 90
     4
 70
   128
 43
0.0
 10
627.58
 20
588.610000353
 10
629.18
 20
588.610000353
 10
629.18
 20
570.610000353
 10
627.58
 20
570.610000353
  0
LWPOLYLINE
  5
1C6
330
1F
100
AcDbEntity
  8
5
  6
Continuous
 62
     2
100
AcDbPolyline
 90
     6
 70
   128
 43
0.0
 10
629.18
 20
586.860000353
 42
0.0
 10
633.18
 20
586.860000353
 42
-0.827586207
 10
633.18
 20
583.235000353
 42
-0.413793103
 10
633.18
 20
575.985000353
 42
-0.827586207
 10
633.18
 20
572.360000353
 42
0.0
 10
629.18
 20
572.360000353
 42
0.0
  0
LWPOLYLINE
  5
1CA
330
1F
100
AcDbEntity
  8
5
  6
Continuous
 62
     2
100
AcDbPolyline
 90
     4
 70
   128
 43
0.0
 10
636.68
 20
583.610000353
 10
638.18
 20
583.610000353
 10
638.18
 20
575.610000353
 10
636.68
 20
575.610000353
  0
LWPOLYLINE
  5
1CD
330
1F
100
AcDbEntity
  8
5
  6
Continuous
 62
     2
100
AcDbPolyline
 90
     6
 70
   129
 43
0.0
 10
636.68
 20
575.672500353
 42
0.0
 10
636.68
 20
583.547500353
 42
0.414213562
 10
635.18
 20
585.047500353
 42
0.0
 10
634.68
 20
585.047500353
 42
0.0
 10
634.68
 20
574.172500353
 42
0.0
 10
635.18
 20
574.172500353
 42
0.414213562
  0
LWPOLYLINE
  5
1D1
330
1F
100
AcDbEntity
  8
5
  6
Continuous
 62
     2
100
AcDbPolyline
 90
     8
 70
   129
 43
0.0
 10
619.88
 20
581.610000353
 42
0.0
 10
619.88
 20
572.610000353
 42
-0.448780488
 10
609.63
 20
572.610000353
 42
-0.224390244
 10
589.13
 20
572.610000353
 42
-0.448780488
 10
578.88
 20
572.610000353
 42
0.0
 10
578.88
 20
581.610000353
 42
-0.448780488
 10
589.13
 20
581.610000353
 42
-0.224390244
 10
609.63
 20
581.610000353
 42
-0.448780488
  0
LWPOLYLINE
  5
1D8
330
1F
100
AcDbEntity
  8
5
  6
Continuous
 62
     2
100
AcDbPolyline
 90
     6
 70
   128
 43
0.0
 10
571.38
 20
595.110000353
 42
-0.414213562
 10
574.38
 20
592.110000353
 42
0.0
 10
574.38
 20
570.310000353
 42
0.0
 10
624.38
 20
570.310000353
 42
0.0
 10
624.38
 20
592.110000353
 42
-0.414213562
 10
627.38
 20
595.110000353
 42
0.0
  0
LWPOLYLINE
  5
1DB
330
1F
100
AcDbEntity
  8
5
  6
Continuous
 62
     2
100
AcDbPolyline
 90
     4
 70
   128
 43
0.0
 10
623.38
 20
567.110000353
 10
623.38
 20
563.310000353
 10
575.38
 20
563.310000353
 10
575.38
 20
567.110000353
  0
LWPOLYLINE
  5
1DE
330
1F
100
AcDbEntity
  8
5
  6
Continuous
 62
     2
100
AcDbPolyline
 90
     8
 70
   129
 43
0.0
 10
619.879978421
 20
561.010000353
 42
0.0
 10
619.879978421
 20
552.010000353
 42
-0.448780488
 10
609.629978421
 20
552.010000353
 42
-0.224390244
 10
589.129978421
 20
552.010000353
 42
-0.448780488
 10
578.879978421
 20
552.010000353
 42
0.0
 10
578.879978421
 20
561.010000353
 42
-0.448780488
 10
589.129978421
 20
561.010000353
 42
-0.224390244
 10
609.629978421
 20
561.010000353
 42
-0.448780488
  0
LWPOLYLINE
  5
1E5
330
1F
100
AcDbEntity
  8
5
  6
LTYPE2
 62
     2
100
AcDbPolyline
 90
     4
 70
   128
 43
0.0
 10
578.38
 20
535.910000353
 10
578.38
 20
530.910000353
 10
620.13
 20
530.910000353
 10
620.13
 20
535.910000353
  0
CIRCLE
  5
1E6
330
1F
100
AcDbEntity
  8
2
  6
Continuous
 62
     1
100
AcDbCircle
 10
1029.88
 20
414.510000716
 30
0.0
 40
3.5
  0
CIRCLE
  5
1E7
330
1F
100
AcDbEntity
  8
2
  6
Continuous
 62
     1
100
AcDbCircle
 10
1029.88
 20
465.309999991
 30
0.0
 40
3.5
  0
LINE
  5
1E8
330
1F
100
AcDbEntity
  8
2
  6
Continuous
 62
     1
100
AcDbLine
 10
906.88
 20
489.910000353
 30
0.0
 11
906.88
 21
389.910000353
 31
0.0
  0
LINE
  5
1E9
330
1F
100
AcDbEntity
  8
2
  6
Continuous
 62
     1
100
AcDbLine
 10
1116.88
 20
485.910000353
 30
0.0
 11
1118.88
 21
485.910000353
 31
0.0
  0
LINE
  5
1EA
330
1F
100
AcDbEntity
  8
2
  6
Continuous
 62
     1
100
AcDbLine
 10
1114.88
 20
487.910000353
 30
0.0
 11
1114.88
 21
489.910000353
 31
0.0
  0
LINE
  5
1EB
330
1F
100
AcDbEntity
  8
2
  6
LTYPE2
 62
     2
100
AcDbLine
 10
906.88
 20
487.910000353
 30
0.0
 11
1114.88
 21
487.910000353
 31
0.0
  0
LINE
  5
1EC
330
1F
100
AcDbEntity
  8
2
  6
Continuous
 62
     1
100
AcDbLine
 10
906.88
 20
489.910000353
 30
0.0
 11
1114.88
 21
489.910000353
 31
0.0
  0
ARC
  5
1ED
330
1F
100
AcDbEntity
  8
2
  6
Continuous
 62
     1
100
AcDbCircle
 10
1114.88
 20
485.910000353
 30
0.0
 40
4.0
100
AcDbArc
 50
0.0
 51
90.0
  0
LWPOLYLINE
  5
1F0
330
1F
100
AcDbEntity
  8
2
  6
Continuous
 62
     1
100
AcDbPolyline
 90
     2
 70
   129
 43
0.0
 10
1116.88
 20
485.910000353
 42
0.414213562
 10
1114.88
 20
487.910000353
 42
0.414213562
  0
LINE
  5
1F1
330
1F
100
AcDbEntity
  8
2
  6
Continuous
 62
     1
100
AcDbLine
 10
1116.88
 20
393.910000353
 30
0.0
 11
1118.88
 21
393.910000353
 31
0.0
  0
LINE
  5
1F2
330
1F
100
AcDbEntity
  8
2
  6
Continuous
 62
     1
100
AcDbLine
 10
1114.88
 20
391.910000353
 30
0.0
 11
1114.88
 21
389.910000353
 31
0.0
  0
ARC
  5
1F3
330
1F
100
AcDbEntity
  8
2
  6
Continuous
 62
     1
100
AcDbCircle
 10
1114.88
 20
393.910000353
 30
0.0
 40
4.0
100
AcDbArc
 50
270.0
 51
0.0
  0
LWPOLYLINE
  5
1F6
330
1F
100
AcDbEntity
  8
2
  6
Continuous
 62
     1
100
AcDbPolyline
 90
     2
 70
   129
 43
0.0
 10
1116.88
 20
393.910000353
 42
-0.414213562
 10
1114.88
 20
391.910000353
 42
-0.414213562
  0
LINE
  5
1F7
330
1F
100
AcDbEntity
  8
2
  6
LTYPE2
 62
     2
100
AcDbLine
 10
1116.88
 20
485.910000353
 30
0.0
 11
1116.88
 21
393.910000353
 31
0.0
  0
LINE
  5
1F8
330
1F
100
AcDbEntity
  8
2
  6
Continuous
 62
     1
100
AcDbLine
 10
1118.88
 20
485.910000353
 30
0.0
 11
1118.88
 21
393.910000353
 31
0.0
  0
LINE
  5
1F9
330
1F
100
AcDbEntity
  8
2
  6
Continuous
 62
     1
100
AcDbLine
 10
906.88
 20
389.910000353
 30
0.0
 11
1114.88
 21
389.910000353
 31
0.0
  0
LINE
  5
1FA
330
1F
100
AcDbEntity
  8
2
  6
LTYPE2
 62
     2
100
AcDbLine
 10
906.88
 20
391.910000353
 30
0.0
 11
1114.88
 21
391.910000353
 31
0.0
  0
ARC
  5
1FB
330
1F
100
AcDbEntity
  8
2
  6
LTYPE2
 62
     2
100
AcDbCircle
 10
1111.692500155
 20
446.405190882
 30
0.0
 40
2.312500155
100
AcDbArc
 50
110.569995672
 51
249.430004329
  0
LWPOLYLINE
  5
1FE
330
1F
100
AcDbEntity
  8
2
  6
LTYPE2
 62
     2
100
AcDbPolyline
 90
     3
 70
   128
 43
0.0
 10
1110.879644461
 20
444.239079735
 42
0.346410138
 10
1110.879644496
 20
435.580877719
 42
0.692577528
 10
1110.879999961
 20
431.249746231
 42
0.0
  0
LINE
  5
1FF
330
1F
100
AcDbEntity
  8
2
  6
LTYPE2
 62
     2
100
AcDbLine
 10
1116.88
 20
435.579873334
 30
0.0
 11
1110.88
 21
435.579873334
 31
0.0
  0
LINE
  5
200
330
1F
100
AcDbEntity
  8
2
  6
LTYPE2
 62
     2
100
AcDbLine
 10
1116.88
 20
431.249746316
 30
0.0
 11
1110.88
 21
431.249746316
 31
0.0
  0
LINE
  5
201
330
1F
100
AcDbEntity
  8
2
  6
LTYPE2
 62
     2
100
AcDbLine
 10
1116.88
 20
448.570254391
 30
0.0
 11
1110.88
 21
448.570254391
 31
0.0
  0
LINE
  5
202
330
1F
100
AcDbEntity
  8
2
  6
LTYPE2
 62
     2
100
AcDbLine
 10
1116.88
 20
444.240127372
 30
0.0
 11
1110.88
 21
444.240127372
 31
0.0
  0
LINE
  5
203
330
1F
100
AcDbEntity
  8
2
  6
LTYPE2
 62
     2
100
AcDbLine
 10
1109.38
 20
446.405175623
 30
0.0
 11
1109.38
 21
433.415363535
 31
0.0
  0
CIRCLE
  5
204
330
1F
100
AcDbEntity
  8
2
  6
Continuous
 62
     1
100
AcDbCircle
 10
168.88
 20
414.510000716
 30
0.0
 40
3.5
  0
CIRCLE
  5
205
330
1F
100
AcDbEntity
  8
2
  6
Continuous
 62
     1
100
AcDbCircle
 10
168.88
 20
465.309999991
 30
0.0
 40
3.5
  0
LINE
  5
206
330
1F
100
AcDbEntity
  8
2
  6
Continuous
 62
     1
100
AcDbLine
 10
291.88
 20
489.910000353
 30
0.0
 11
291.88
 21
389.910000353
 31
0.0
  0
LINE
  5
207
330
1F
100
AcDbEntity
  8
2
  6
Continuous
 62
     1
100
AcDbLine
 10
81.88
 20
485.910000353
 30
0.0
 11
79.88
 21
485.910000353
 31
0.0
  0
LINE
  5
208
330
1F
100
AcDbEntity
  8
2
  6
Continuous
 62
     1
100
AcDbLine
 10
83.88
 20
487.910000353
 30
0.0
 11
83.88
 21
489.910000353
 31
0.0
  0
LINE
  5
209
330
1F
100
AcDbEntity
  8
2
  6
LTYPE2
 62
     2
100
AcDbLine
 10
291.88
 20
487.910000353
 30
0.0
 11
83.88
 21
487.910000353
 31
0.0
  0
LINE
  5
20A
330
1F
100
AcDbEntity
  8
2
  6
Continuous
 62
     1
100
AcDbLine
 10
291.88
 20
489.910000353
 30
0.0
 11
83.88
 21
489.910000353
 31
0.0
  0
ARC
  5
20B
330
1F
100
AcDbEntity
  8
2
  6
Continuous
 62
     1
100
AcDbCircle
 10
83.88
 20
485.910000353
 30
0.0
 40
4.0
100
AcDbArc
 50
90.0
 51
180.0
  0
LWPOLYLINE
  5
20E
330
1F
100
AcDbEntity
  8
2
  6
Continuous
 62
     1
100
AcDbPolyline
 90
     2
 70
   129
 43
0.0
 10
81.88
 20
485.910000353
 42
-0.414213562
 10
83.88
 20
487.910000353
 42
-0.414213562
  0
LINE
  5
20F
330
1F
100
AcDbEntity
  8
2
  6
Continuous
 62
     1
100
AcDbLine
 10
81.88
 20
393.910000353
 30
0.0
 11
79.88
 21
393.910000353
 31
0.0
  0
LINE
  5
210
330
1F
100
AcDbEntity
  8
2
  6
Continuous
 62
     1
100
AcDbLine
 10
83.88
 20
391.910000353
 30
0.0
 11
83.88
 21
389.910000353
 31
0.0
  0
ARC
  5
211
330
1F
100
AcDbEntity
  8
2
  6
Continuous
 62
     1
100
AcDbCircle
 10
83.88
 20
393.910000353
 30
0.0
 40
4.0
100
AcDbArc
 50
180.0
 51
270.0
  0
LWPOLYLINE
  5
214
330
1F
100
AcDbEntity
  8
2
  6
Continuous
 62
     1
100
AcDbPolyline
 90
     2
 70
   129
 43
0.0
 10
81.88
 20
393.910000353
 42
0.414213562
 10
83.88
 20
391.910000353
 42
0.414213562
  0
LINE
  5
215
330
1F
100
AcDbEntity
  8
2
  6
LTYPE2
 62
     2
100
AcDbLine
 10
81.88
 20
485.910000353
 30
0.0
 11
81.88
 21
393.910000353
 31
0.0
  0
LINE
  5
216
330
1F
100
AcDbEntity
  8
2
  6
Continuous
 62
     1
100
AcDbLine
 10
79.88
 20
485.910000353
 30
0.0
 11
79.88
 21
393.910000353
 31
0.0
  0
LINE
  5
217
330
1F
100
AcDbEntity
  8
2
  6
Continuous
 62
     1
100
AcDbLine
 10
291.88
 20
389.910000353
 30
0.0
 11
83.88
 21
389.910000353
 31
0.0
  0
LINE
  5
218
330
1F
100
AcDbEntity
  8
2
  6
LTYPE2
 62
     2
100
AcDbLine
 10
291.88
 20
391.910000353
 30
0.0
 11
83.88
 21
391.910000353
 31
0.0
  0
ARC
  5
219
330
1F
100
AcDbEntity
  8
2
  6
LTYPE2
 62
     2
100
AcDbCircle
 10
87.067499845
 20
446.405190882
 30
0.0
 40
2.312500155
100
AcDbArc
 50
290.569995671
 51
69.430004328
  0
LWPOLYLINE
  5
21C
330
1F
100
AcDbEntity
  8
2
  6
LTYPE2
 62
     2
100
AcDbPolyline
 90
     3
 70
   128
 43
0.0
 10
87.880355539
 20
444.239079735
 42
-0.346410138
 10
87.880355504
 20
435.580877719
 42
-0.692577528
 10
87.880000039
 20
431.249746231
 42
0.0
  0
LINE
  5
21D
330
1F
100
AcDbEntity
  8
2
  6
LTYPE2
 62
     2
100
AcDbLine
 10
81.88
 20
435.579873334
 30
0.0
 11
87.88
 21
435.579873334
 31
0.0
  0
LINE
  5
21E
330
1F
100
AcDbEntity
  8
2
  6
LTYPE2
 62
     2
100
AcDbLine
 10
81.88
 20
431.249746316
 30
0.0
 11
87.88
 21
431.249746316
 31
0.0
  0
LINE
  5
21F
330
1F
100
AcDbEntity
  8
2
  6
LTYPE2
 62
     2
100
AcDbLine
 10
81.88
 20
448.570254391
 30
0.0
 11
87.88
 21
448.570254391
 31
0.0
  0
LINE
  5
220
330
1F
100
AcDbEntity
  8
2
  6
LTYPE2
 62
     2
100
AcDbLine
 10
81.88
 20
444.240127372
 30
0.0
 11
87.88
 21
444.240127372
 31
0.0
  0
LINE
  5
221
330
1F
100
AcDbEntity
  8
2
  6
LTYPE2
 62
     2
100
AcDbLine
 10
89.38
 20
446.405175623
 30
0.0
 11
89.38
 21
433.415363535
 31
0.0
  0
LWPOLYLINE
  5
223
330
1F
100
AcDbEntity
  8
2
  6
Continuous
 62
     1
100
AcDbPolyline
 90
     4
 70
   129
 43
0.0
 10
278.38
 20
461.809999991
 42
1.0
 10
278.38
 20
468.809999991
 42
0.0
 10
275.38
 20
468.809999991
 42
1.0
 10
275.38
 20
461.809999991
 42
0.0
  0
LWPOLYLINE
  5
226
330
1F
100
AcDbEntity
  8
2
  6
Continuous
 62
     1
100
AcDbPolyline
 90
     4
 70
   129
 43
0.0
 10
278.38
 20
411.010000716
 42
1.0
 10
278.38
 20
418.010000716
 42
0.0
 10
275.38
 20
418.010000716
 42
1.0
 10
275.38
 20
411.010000716
 42
0.0
  0
LWPOLYLINE
  5
229
330
1F
100
AcDbEntity
  8
2
  6
Continuous
 62
     1
100
AcDbPolyline
 90
     4
 70
   129
 43
0.0
 10
923.38
 20
461.809999991
 42
1.0
 10
923.38
 20
468.809999991
 42
0.0
 10
920.38
 20
468.809999991
 42
1.0
 10
920.38
 20
461.809999991
 42
0.0
  0
LWPOLYLINE
  5
22C
330
1F
100
AcDbEntity
  8
2
  6
Continuous
 62
     1
100
AcDbPolyline
 90
     4
 70
   129
 43
0.0
 10
923.38
 20
411.010000716
 42
1.0
 10
923.38
 20
418.010000716
 42
0.0
 10
920.38
 20
418.010000716
 42
1.0
 10
920.38
 20
411.010000716
 42
0.0
  0
LINE
  5
22E
330
1F
100
AcDbEntity
  8
3
  6
Continuous
 62
     1
100
AcDbLine
 10
1121.38
 20
414.910000353
 30
0.0
 11
1119.38
 21
414.910000353
 31
0.0
  0
LINE
  5
22F
330
1F
100
AcDbEntity
  8
3
  6
Continuous
 62
     1
100
AcDbLine
 10
1121.38
 20
535.910000353
 30
0.0
 11
1121.38
 21
414.910000353
 31
0.0
  0
ARC
  5
230
330
1F
100
AcDbEntity
  8
3
  6
Continuous
 62
     1
100
AcDbCircle
 10
1117.38
 20
535.910000353
 30
0.0
 40
4.0
100
AcDbArc
 50
0.0
 51
90.0
  0
LINE
  5
231
330
1F
100
AcDbEntity
  8
3
  6
Continuous
 62
     1
100
AcDbLine
 10
1119.38
 20
535.910000353
 30
0.0
 11
1119.38
 21
414.910000353
 31
0.0
  0
ARC
  5
232
330
1F
100
AcDbEntity
  8
3
  6
Continuous
 62
     1
100
AcDbCircle
 10
1117.38
 20
535.910000353
 30
0.0
 40
2.0
100
AcDbArc
 50
0.0
 51
90.0
  0
LINE
  5
233
330
1F
100
AcDbEntity
  8
3
  6
Continuous
 62
     1
100
AcDbLine
 10
1117.38
 20
537.909989564
 30
0.0
 11
1117.38
 21
539.910000353
 31
0.0
  0
LWPOLYLINE
  5
235
330
1F
100
AcDbEntity
  8
3
  6
Continuous
 62
     1
100
AcDbPolyline
 90
     3
 70
   128
 43
0.0
 10
1117.38
 20
537.909989564
 42
0.414211982
 10
1119.38
 20
535.910000353
 42
0.0
 10
1121.38
 20
535.910000353
 42
0.0
  0
LINE
  5
236
330
1F
100
AcDbEntity
  8
3
  6
Continuous
 62
     1
100
AcDbLine
 10
77.38
 20
414.910000353
 30
0.0
 11
79.38
 21
414.910000353
 31
0.0
  0
LINE
  5
237
330
1F
100
AcDbEntity
  8
3
  6
Continuous
 62
     1
100
AcDbLine
 10
77.38
 20
535.910000353
 30
0.0
 11
77.38
 21
414.910000353
 31
0.0
  0
ARC
  5
238
330
1F
100
AcDbEntity
  8
3
  6
Continuous
 62
     1
100
AcDbCircle
 10
81.38
 20
535.910000353
 30
0.0
 40
4.0
100
AcDbArc
 50
90.0
 51
180.0
  0
LINE
  5
239
330
1F
100
AcDbEntity
  8
3
  6
Continuous
 62
     1
100
AcDbLine
 10
79.38
 20
535.910000353
 30
0.0
 11
79.38
 21
414.910000353
 31
0.0
  0
ARC
  5
23A
330
1F
100
AcDbEntity
  8
3
  6
Continuous
 62
     1
100
AcDbCircle
 10
81.38
 20
535.910000353
 30
0.0
 40
2.0
100
AcDbArc
 50
90.0
 51
180.0
  0
LINE
  5
23B
330
1F
100
AcDbEntity
  8
3
  6
Continuous
 62
     1
100
AcDbLine
 10
81.38
 20
537.909989564
 30
0.0
 11
81.38
 21
539.910000353
 31
0.0
  0
LWPOLYLINE
  5
23D
330
1F
100
AcDbEntity
  8
3
  6
Continuous
 62
     1
100
AcDbPolyline
 90
     3
 70
   128
 43
0.0
 10
81.38
 20
537.909989564
 42
-0.414211982
 10
79.38
 20
535.910000353
 42
0.0
 10
77.38
 20
535.910000353
 42
0.0
  0
LINE
  5
23E
330
1F
100
AcDbEntity
  8
3
  6
Continuous
 62
     1
100
AcDbLine
 10
79.38
 20
519.910000353
 30
0.0
 11
1119.38
 21
519.910000353
 31
0.0
  0
LINE
  5
23F
330
1F
100
AcDbEntity
  8
3
  6
Continuous
 62
     1
100
AcDbLine
 10
81.38
 20
539.910000353
 30
0.0
 11
1117.38
 21
539.910000353
 31
0.0
  0
LINE
  5
240
330
1F
100
AcDbEntity
  8
3
  6
LTYPE2
 62
     2
100
AcDbLine
 10
81.38
 20
537.910000353
 30
0.0
 11
1117.38
 21
537.910000353
 31
0.0
  0
LINE
  5
241
330
1F
100
AcDbEntity
  8
10
  6
LTYPE1
 62
     2
100
AcDbLine
 10
99.38
 20
418.092620509
 30
0.0
 11
99.38
 21
461.727380197
 31
0.0
  0
LINE
  5
242
330
1F
100
AcDbEntity
  8
10
  6
LTYPE1
 62
     2
100
AcDbLine
 10
1098.38
 20
461.727380197
 30
0.0
 11
1098.38
 21
418.092620509
 31
0.0
  0
LINE
  5
243
330
1F
100
AcDbEntity
  8
10
  6
LTYPE1
 62
     2
100
AcDbLine
 10
1097.392109144
 20
467.935415743
 30
0.0
 11
1090.605175039
 21
488.720401438
 31
0.0
  0
LINE
  5
244
330
1F
100
AcDbEntity
  8
10
  6
LTYPE1
 62
     2
100
AcDbLine
 10
1090.605175039
 20
391.099599269
 30
0.0
 11
1097.392109144
 21
411.884584964
 31
0.0
  0
ARC
  5
245
330
1F
100
AcDbEntity
  8
10
  6
LTYPE1
 62
     2
100
AcDbCircle
 10
1078.380000286
 20
461.727380197
 30
0.0
 40
19.999999714
100
AcDbArc
 50
0.0
 51
18.083445383
  0
ARC
  5
246
330
1F
100
AcDbEntity
  8
10
  6
LTYPE1
 62
     2
100
AcDbCircle
 10
1078.380000286
 20
418.092620509
 30
0.0
 40
19.999999714
100
AcDbArc
 50
341.916554617
 51
0.0
  0
LINE
  5
247
330
1F
100
AcDbEntity
  8
10
  6
LTYPE1
 62
     2
100
AcDbLine
 10
100.367890856
 20
467.935415743
 30
0.0
 11
107.154824961
 21
488.720401438
 31
0.0
  0
LINE
  5
248
330
1F
100
AcDbEntity
  8
10
  6
LTYPE1
 62
     2
100
AcDbLine
 10
100.367890856
 20
411.884584964
 30
0.0
 11
107.154824961
 21
391.099599269
 31
0.0
  0
ARC
  5
249
330
1F
100
AcDbEntity
  8
10
  6
LTYPE1
 62
     2
100
AcDbCircle
 10
119.379999714
 20
461.727380197
 30
0.0
 40
19.999999714
100
AcDbArc
 50
161.916554617
 51
180.0
  0
ARC
  5
24A
330
1F
100
AcDbEntity
  8
10
  6
LTYPE1
 62
     2
100
AcDbCircle
 10
119.379999714
 20
418.092620509
 30
0.0
 40
19.999999714
100
AcDbArc
 50
180.0
 51
198.083445383
  0
ARC
  5
24B
330
1F
100
AcDbEntity
  8
10
  6
LTYPE1
 62
     2
100
AcDbCircle
 10
1089.654569597
 20
488.409999661
 30
0.0
 40
0.999999986
100
AcDbArc
 50
18.083445383
 51
90.0
  0
ARC
  5
24C
330
1F
100
AcDbEntity
  8
10
  6
LTYPE1
 62
     2
100
AcDbCircle
 10
1089.654569597
 20
391.410001046
 30
0.0
 40
0.999999986
100
AcDbArc
 50
270.0
 51
341.916554617
  0
ARC
  5
24D
330
1F
100
AcDbEntity
  8
10
  6
LTYPE1
 62
     2
100
AcDbCircle
 10
108.105430404
 20
488.409999661
 30
0.0
 40
0.999999986
100
AcDbArc
 50
90.0
 51
161.916554617
  0
ARC
  5
24E
330
1F
100
AcDbEntity
  8
10
  6
LTYPE1
 62
     2
100
AcDbCircle
 10
108.105430404
 20
391.410001046
 30
0.0
 40
0.999999986
100
AcDbArc
 50
198.083445383
 51
270.0
  0
LINE
  5
24F
330
1F
100
AcDbEntity
  8
10
  6
LTYPE1
 62
     2
100
AcDbLine
 10
511.331964939
 20
413.910000725
 30
0.0
 11
511.331964939
 21
465.909999982
 31
0.0
  0
LINE
  5
250
330
1F
100
AcDbEntity
  8
10
  6
LTYPE1
 62
     2
100
AcDbLine
 10
567.331964139
 20
413.910000725
 30
0.0
 11
567.331964139
 21
465.909999982
 31
0.0
  0
LINE
  5
251
330
1F
100
AcDbEntity
  8
10
  6
LTYPE1
 62
     2
100
AcDbLine
 10
513.331964911
 20
467.909999953
 30
0.0
 11
565.331964168
 21
467.909999953
 31
0.0
  0
LINE
  5
252
330
1F
100
AcDbEntity
  8
10
  6
LTYPE1
 62
     2
100
AcDbLine
 10
565.331964168
 20
411.910000753
 30
0.0
 11
513.331964911
 21
411.910000753
 31
0.0
  0
LINE
  5
253
330
1F
100
AcDbEntity
  8
10
  6
LTYPE1
 62
     2
100
AcDbLine
 10
524.331964754
 20
458.910000082
 30
0.0
 11
554.331964325
 21
458.910000082
 31
0.0
  0
LINE
  5
254
330
1F
100
AcDbEntity
  8
10
  6
LTYPE1
 62
     2
100
AcDbLine
 10
524.331964754
 20
420.910000625
 30
0.0
 11
524.331964754
 21
458.910000082
 31
0.0
  0
LINE
  5
255
330
1F
100
AcDbEntity
  8
10
  6
LTYPE1
 62
     2
100
AcDbLine
 10
554.331964325
 20
420.910000625
 30
0.0
 11
524.331964754
 21
420.910000625
 31
0.0
  0
LINE
  5
256
330
1F
100
AcDbEntity
  8
10
  6
LTYPE1
 62
     2
100
AcDbLine
 10
554.331964325
 20
458.910000082
 30
0.0
 11
554.331964325
 21
420.910000625
 31
0.0
  0
CIRCLE
  5
257
330
1F
100
AcDbEntity
  8
10
  6
LTYPE1
 62
     2
100
AcDbCircle
 10
560.831964232
 20
461.410000046
 30
0.0
 40
2.999999957
  0
LINE
  5
258
330
1F
100
AcDbEntity
  8
10
  6
LTYPE1
 62
     2
100
AcDbLine
 10
560.831964232
 20
459.789506317
 30
0.0
 11
560.831964232
 21
463.030493775
 31
0.0
  0
LINE
  5
259
330
1F
100
AcDbEntity
  8
10
  6
LTYPE1
 62
     2
100
AcDbLine
 10
559.211470503
 20
461.410000046
 30
0.0
 11
562.452457961
 21
461.410000046
 31
0.0
  0
CIRCLE
  5
25A
330
1F
100
AcDbEntity
  8
10
  6
LTYPE1
 62
     2
100
AcDbCircle
 10
560.831964232
 20
418.410000661
 30
0.0
 40
2.999999957
  0
LINE
  5
25B
330
1F
100
AcDbEntity
  8
10
  6
LTYPE1
 62
     2
100
AcDbLine
 10
560.831964232
 20
416.789506932
 30
0.0
 11
560.831964232
 21
420.030494389
 31
0.0
  0
LINE
  5
25C
330
1F
100
AcDbEntity
  8
10
  6
LTYPE1
 62
     2
100
AcDbLine
 10
559.211470503
 20
418.410000661
 30
0.0
 11
562.452457961
 21
418.410000661
 31
0.0
  0
CIRCLE
  5
25D
330
1F
100
AcDbEntity
  8
10
  6
LTYPE1
 62
     2
100
AcDbCircle
 10
517.831964846
 20
461.410000046
 30
0.0
 40
2.999999957
  0
LINE
  5
25E
330
1F
100
AcDbEntity
  8
10
  6
LTYPE1
 62
     2
100
AcDbLine
 10
517.831964846
 20
459.789506317
 30
0.0
 11
517.831964846
 21
463.030493775
 31
0.0
  0
LINE
  5
25F
330
1F
100
AcDbEntity
  8
10
  6
LTYPE1
 62
     2
100
AcDbLine
 10
516.211471118
 20
461.410000046
 30
0.0
 11
519.452458575
 21
461.410000046
 31
0.0
  0
CIRCLE
  5
260
330
1F
100
AcDbEntity
  8
10
  6
LTYPE1
 62
     2
100
AcDbCircle
 10
517.831964846
 20
418.410000661
 30
0.0
 40
2.999999957
  0
LINE
  5
261
330
1F
100
AcDbEntity
  8
10
  6
LTYPE1
 62
     2
100
AcDbLine
 10
517.831964846
 20
416.789506932
 30
0.0
 11
517.831964846
 21
420.030494389
 31
0.0
  0
LINE
  5
262
330
1F
100
AcDbEntity
  8
10
  6
LTYPE1
 62
     2
100
AcDbLine
 10
516.211471118
 20
418.410000661
 30
0.0
 11
519.452458575
 21
418.410000661
 31
0.0
  0
ARC
  5
263
330
1F
100
AcDbEntity
  8
10
  6
LTYPE1
 62
     2
100
AcDbCircle
 10
565.331964168
 20
465.909999982
 30
0.0
 40
1.999999971
100
AcDbArc
 50
0.0
 51
90.0
  0
ARC
  5
264
330
1F
100
AcDbEntity
  8
10
  6
LTYPE1
 62
     2
100
AcDbCircle
 10
565.331964168
 20
413.910000725
 30
0.0
 40
1.999999971
100
AcDbArc
 50
270.0
 51
0.0
  0
ARC
  5
265
330
1F
100
AcDbEntity
  8
10
  6
LTYPE1
 62
     2
100
AcDbCircle
 10
513.331964911
 20
465.909999982
 30
0.0
 40
1.999999971
100
AcDbArc
 50
90.0
 51
180.0
  0
ARC
  5
266
330
1F
100
AcDbEntity
  8
10
  6
LTYPE1
 62
     2
100
AcDbCircle
 10
513.331964911
 20
413.910000725
 30
0.0
 40
1.999999971
100
AcDbArc
 50
180.0
 51
270.0
  0
LINE
  5
267
330
1F
100
AcDbEntity
  8
10
  6
LTYPE1
 62
     2
100
AcDbLine
 10
547.831964418
 20
455.160000136
 30
0.0
 11
547.831964418
 21
443.160000307
 31
0.0
  0
LINE
  5
268
330
1F
100
AcDbEntity
  8
10
  6
LTYPE1
 62
     2
100
AcDbLine
 10
547.831964418
 20
436.6600004
 30
0.0
 11
547.831964418
 21
424.660000571
 31
0.0
  0
LINE
  5
269
330
1F
100
AcDbEntity
  8
10
  6
LTYPE1
 62
     2
100
AcDbLine
 10
536.031964586
 20
455.160000136
 30
0.0
 11
536.031964586
 21
443.160000307
 31
0.0
  0
LINE
  5
26A
330
1F
100
AcDbEntity
  8
10
  6
LTYPE1
 62
     2
100
AcDbLine
 10
536.031964586
 20
436.6600004
 30
0.0
 11
536.031964586
 21
424.660000571
 31
0.0
  0
LINE
  5
26B
330
1F
100
AcDbEntity
  8
10
  6
LTYPE1
 62
     2
100
AcDbLine
 10
536.031964586
 20
443.160000307
 30
0.0
 11
547.831964418
 21
443.160000307
 31
0.0
  0
LINE
  5
26C
330
1F
100
AcDbEntity
  8
10
  6
LTYPE1
 62
     2
100
AcDbLine
 10
547.831964418
 20
436.6600004
 30
0.0
 11
536.031964586
 21
436.6600004
 31
0.0
  0
LINE
  5
26D
330
1F
100
AcDbEntity
  8
10
  6
LTYPE1
 62
     2
100
AcDbLine
 10
547.831964418
 20
424.660000571
 30
0.0
 11
536.031964586
 21
424.660000571
 31
0.0
  0
LINE
  5
26E
330
1F
100
AcDbEntity
  8
10
  6
LTYPE1
 62
     2
100
AcDbLine
 10
536.031964586
 20
455.160000136
 30
0.0
 11
547.831964418
 21
455.160000136
 31
0.0
  0
LINE
  5
26F
330
1F
100
AcDbEntity
  8
10
  6
LTYPE1
 62
     2
100
AcDbLine
 10
536.031964586
 20
453.710000156
 30
0.0
 11
547.831964418
 21
453.710000156
 31
0.0
  0
LINE
  5
270
330
1F
100
AcDbEntity
  8
10
  6
LTYPE1
 62
     2
100
AcDbLine
 10
536.031964586
 20
444.610000286
 30
0.0
 11
547.831964418
 21
444.610000286
 31
0.0
  0
LINE
  5
271
330
1F
100
AcDbEntity
  8
10
  6
LTYPE1
 62
     2
100
AcDbLine
 10
547.831964418
 20
435.210000421
 30
0.0
 11
536.031964586
 21
435.210000421
 31
0.0
  0
LINE
  5
272
330
1F
100
AcDbEntity
  8
10
  6
LTYPE1
 62
     2
100
AcDbLine
 10
547.831964418
 20
426.110000551
 30
0.0
 11
536.031964586
 21
426.110000551
 31
0.0
  0
CIRCLE
  5
273
330
1F
100
AcDbEntity
  8
10
  6
LTYPE1
 62
     2
100
AcDbCircle
 10
541.931964502
 20
449.160000221
 30
0.0
 40
3.299999953
  0
CIRCLE
  5
274
330
1F
100
AcDbEntity
  8
10
  6
LTYPE1
 62
     2
100
AcDbCircle
 10
541.931964502
 20
430.660000486
 30
0.0
 40
3.299999953
  0
LINE
  5
275
330
1F
100
AcDbEntity
  8
10
  6
LTYPE1
 62
     2
100
AcDbLine
 10
540.478600609
 20
432.113364379
 30
0.0
 11
543.385328395
 21
429.206636592
 31
0.0
  0
LINE
  5
276
330
1F
100
AcDbEntity
  8
10
  6
LTYPE1
 62
     2
100
AcDbLine
 10
540.478600609
 20
429.206636592
 30
0.0
 11
543.385328395
 21
432.113364379
 31
0.0
  0
LINE
  5
277
330
1F
100
AcDbEntity
  8
10
  6
LTYPE1
 62
     2
100
AcDbLine
 10
540.478600609
 20
450.613364115
 30
0.0
 11
543.385328395
 21
447.706636328
 31
0.0
  0
LINE
  5
278
330
1F
100
AcDbEntity
  8
10
  6
LTYPE1
 62
     2
100
AcDbLine
 10
540.478600609
 20
447.706636328
 30
0.0
 11
543.385328395
 21
450.613364115
 31
0.0
  0
CIRCLE
  5
279
330
1F
100
AcDbEntity
  8
10
  6
LTYPE1
 62
     2
100
AcDbCircle
 10
527.431964502
 20
430.660000486
 30
0.0
 40
2.0
  0
CIRCLE
  5
27A
330
1F
100
AcDbEntity
  8
10
  6
LTYPE1
 62
     2
100
AcDbCircle
 10
527.431964502
 20
449.160000221
 30
0.0
 40
2.0
  0
LINE
  5
27B
330
1F
100
AcDbEntity
  8
10
  6
LTYPE1
 62
     2
100
AcDbLine
 10
527.431964502
 20
431.910000486
 30
0.0
 11
527.431964502
 21
429.410000486
 31
0.0
  0
LINE
  5
27C
330
1F
100
AcDbEntity
  8
10
  6
LTYPE1
 62
     2
100
AcDbLine
 10
526.181964502
 20
430.660000486
 30
0.0
 11
528.681964502
 21
430.660000486
 31
0.0
  0
LINE
  5
27D
330
1F
100
AcDbEntity
  8
10
  6
LTYPE1
 62
     2
100
AcDbLine
 10
527.431964502
 20
450.410000221
 30
0.0
 11
527.431964502
 21
447.910000221
 31
0.0
  0
CIRCLE
  5
27E
330
1F
100
AcDbEntity
  8
10
  6
LTYPE1
 62
     2
100
AcDbCircle
 10
814.63
 20
465.309999991
 30
0.0
 40
3.0
  0
CIRCLE
  5
27F
330
1F
100
AcDbEntity
  8
10
  6
LTYPE1
 62
     2
100
AcDbCircle
 10
814.63
 20
414.510000716
 30
0.0
 40
3.0
  0
CIRCLE
  5
280
330
1F
100
AcDbEntity
  8
10
  6
LTYPE1
 62
     2
100
AcDbCircle
 10
707.005
 20
465.309999991
 30
0.0
 40
3.0
  0
CIRCLE
  5
281
330
1F
100
AcDbEntity
  8
10
  6
LTYPE1
 62
     2
100
AcDbCircle
 10
707.005
 20
414.510000716
 30
0.0
 40
3.0
  0
CIRCLE
  5
282
330
1F
100
AcDbEntity
  8
10
  6
LTYPE1
 62
     2
100
AcDbCircle
 10
599.38
 20
465.309999991
 30
0.0
 40
3.0
  0
CIRCLE
  5
283
330
1F
100
AcDbEntity
  8
10
  6
LTYPE1
 62
     2
100
AcDbCircle
 10
599.38
 20
414.510000716
 30
0.0
 40
3.0
  0
CIRCLE
  5
284
330
1F
100
AcDbEntity
  8
10
  6
LTYPE1
 62
     2
100
AcDbCircle
 10
491.755
 20
465.309999991
 30
0.0
 40
3.0
  0
CIRCLE
  5
285
330
1F
100
AcDbEntity
  8
10
  6
LTYPE1
 62
     2
100
AcDbCircle
 10
491.755
 20
414.510000716
 30
0.0
 40
3.0
  0
CIRCLE
  5
286
330
1F
100
AcDbEntity
  8
10
  6
LTYPE1
 62
     2
100
AcDbCircle
 10
384.13
 20
465.309999991
 30
0.0
 40
3.0
  0
CIRCLE
  5
287
330
1F
100
AcDbEntity
  8
10
  6
LTYPE1
 62
     2
100
AcDbCircle
 10
384.13
 20
414.510000716
 30
0.0
 40
3.0
  0
LINE
  5
288
330
1F
100
AcDbEntity
  8
10
  6
LTYPE1
 62
     2
100
AcDbLine
 10
291.88
 20
489.409999646
 30
0.0
 11
906.88
 21
489.409999646
 31
0.0
  0
LINE
  5
289
330
1F
100
AcDbEntity
  8
10
  6
LTYPE1
 62
     2
100
AcDbLine
 10
906.88
 20
390.410001061
 30
0.0
 11
291.88
 21
390.410001061
 31
0.0
  0
LINE
  5
28A
330
1F
100
AcDbEntity
  8
7
  6
Continuous
 62
     2
100
AcDbLine
 10
276.88
 20
409.510000716
 30
0.0
 11
276.88
 21
349.910000353
 31
0.0
  0
LINE
  5
28B
330
1F
100
AcDbEntity
  8
7
  6
Continuous
 62
     2
100
AcDbLine
 10
276.88
 20
359.910000353
 30
0.0
 11
288.954072829
 21
356.67476229
 31
0.0
  0
LINE
  5
28C
330
1F
100
AcDbEntity
  8
7
  6
Continuous
 62
     2
100
AcDbLine
 10
276.88
 20
359.910000353
 30
0.0
 11
288.954072829
 21
363.145238417
 31
0.0
  0
LWPOLYLINE
  5
28E
330
1F
100
AcDbEntity
  8
7
  6
Continuous
 62
     2
100
AcDbPolyline
 90
     3
 70
   128
 43
0.0
 10
276.88
 20
359.910000353
 10
921.88
 20
359.910000353
 10
909.805927171
 20
363.145238417
  0
LINE
  5
28F
330
1F
100
AcDbEntity
  8
7
  6
Continuous
 62
     2
100
AcDbLine
 10
921.88
 20
359.910000353
 30
0.0
 11
909.805927171
 21
356.67476229
 31
0.0
  0
LINE
  5
290
330
1F
100
AcDbEntity
  8
7
  6
Continuous
 62
     2
100
AcDbLine
 10
921.88
 20
409.510000716
 30
0.0
 11
921.88
 21
349.910000353
 31
0.0
  0
MTEXT
  5
291
330
1F
100
AcDbEntity
  8
7
  6
Continuous
 62
     2
100
AcDbMText
 10
573.88
 20
364.910000353
 30
0.0
 40
15.0
 41
102.0
 71
     7
 72
     1
  1
\T1.167;\W0.600;（６４５）
  7
KANJI7
 73
     1
 44
1.0
  0
LINE
  5
292
330
1F
100
AcDbEntity
  8
7
  6
Continuous
 62
     2
100
AcDbLine
 10
921.88
 20
359.910000353
 30
0.0
 11
933.954072829
 21
356.67476229
 31
0.0
  0
LINE
  5
293
330
1F
100
AcDbEntity
  8
7
  6
Continuous
 62
     2
100
AcDbLine
 10
921.88
 20
359.910000353
 30
0.0
 11
933.954072829
 21
363.145238417
 31
0.0
  0
LWPOLYLINE
  5
295
330
1F
100
AcDbEntity
  8
7
  6
Continuous
 62
     2
100
AcDbPolyline
 90
     3
 70
   128
 43
0.0
 10
921.88
 20
359.910000353
 10
1029.88
 20
359.910000353
 10
1017.805927171
 20
363.145238417
  0
LINE
  5
296
330
1F
100
AcDbEntity
  8
7
  6
Continuous
 62
     2
100
AcDbLine
 10
1029.88
 20
359.910000353
 30
0.0
 11
1017.805927171
 21
356.67476229
 31
0.0
  0
LINE
  5
297
330
1F
100
AcDbEntity
  8
7
  6
Continuous
 62
     2
100
AcDbLine
 10
1029.88
 20
409.510000716
 30
0.0
 11
1029.88
 21
349.910000353
 31
0.0
  0
MTEXT
  5
298
330
1F
100
AcDbEntity
  8
7
  6
Continuous
 62
     2
100
AcDbMText
 10
960.88
 20
364.910000353
 30
0.0
 40
15.0
 41
60.0
 71
     7
 72
     1
  1
\T1.167;\W0.600;１０８
  7
KANJI7
 73
     1
 44
1.0
  0
LINE
  5
299
330
1F
100
AcDbEntity
  8
7
  6
Continuous
 62
     2
100
AcDbLine
 10
276.88
 20
359.910000353
 30
0.0
 11
264.805927171
 21
363.145238417
 31
0.0
  0
LINE
  5
29A
330
1F
100
AcDbEntity
  8
7
  6
Continuous
 62
     2
100
AcDbLine
 10
276.88
 20
359.910000353
 30
0.0
 11
264.805927171
 21
356.67476229
 31
0.0
  0
LWPOLYLINE
  5
29C
330
1F
100
AcDbEntity
  8
7
  6
Continuous
 62
     2
100
AcDbPolyline
 90
     3
 70
   128
 43
0.0
 10
276.88
 20
359.910000353
 10
168.88
 20
359.910000353
 10
180.954072829
 20
356.67476229
  0
LINE
  5
29D
330
1F
100
AcDbEntity
  8
7
  6
Continuous
 62
     2
100
AcDbLine
 10
168.88
 20
359.910000353
 30
0.0
 11
180.954072829
 21
363.145238417
 31
0.0
  0
LINE
  5
29E
330
1F
100
AcDbEntity
  8
7
  6
Continuous
 62
     2
100
AcDbLine
 10
168.88
 20
409.510000716
 30
0.0
 11
168.88
 21
349.910000353
 31
0.0
  0
MTEXT
  5
29F
330
1F
100
AcDbEntity
  8
7
  6
Continuous
 62
     2
100
AcDbMText
 10
207.88
 20
364.910000353
 30
0.0
 40
15.0
 41
60.0
 71
     7
 72
     1
  1
\T1.167;\W0.600;１０８
  7
KANJI7
 73
     1
 44
1.0
  0
LINE
  5
2A0
330
1F
100
AcDbEntity
  8
7
  6
Continuous
 62
     2
100
AcDbLine
 10
77.38
 20
409.910000353
 30
0.0
 11
77.38
 21
319.910000353
 31
0.0
  0
LINE
  5
2A1
330
1F
100
AcDbEntity
  8
7
  6
Continuous
 62
     2
100
AcDbLine
 10
77.38
 20
329.910000353
 30
0.0
 11
89.454072829
 21
326.67476229
 31
0.0
  0
LINE
  5
2A2
330
1F
100
AcDbEntity
  8
7
  6
Continuous
 62
     2
100
AcDbLine
 10
77.38
 20
329.910000353
 30
0.0
 11
89.454072829
 21
333.145238417
 31
0.0
  0
LWPOLYLINE
  5
2A4
330
1F
100
AcDbEntity
  8
7
  6
Continuous
 62
     2
100
AcDbPolyline
 90
     3
 70
   128
 43
0.0
 10
77.38
 20
329.910000353
 10
1121.38
 20
329.910000353
 10
1109.305927171
 20
333.145238417
  0
LINE
  5
2A5
330
1F
100
AcDbEntity
  8
7
  6
Continuous
 62
     2
100
AcDbLine
 10
1121.38
 20
329.910000353
 30
0.0
 11
1109.305927171
 21
326.67476229
 31
0.0
  0
LINE
  5
2A6
330
1F
100
AcDbEntity
  8
7
  6
Continuous
 62
     2
100
AcDbLine
 10
1121.38
 20
409.910000353
 30
0.0
 11
1121.38
 21
319.910000353
 31
0.0
  0
MTEXT
  5
2A7
330
1F
100
AcDbEntity
  8
7
  6
Continuous
 62
     2
100
AcDbMText
 10
568.63
 20
334.910000353
 30
0.0
 40
15.0
 41
123.0
 71
     7
 72
     1
  1
\T1.167;\W0.600;（１０４４）
  7
KANJI7
 73
     1
 44
1.0
  0
LINE
  5
2A8
330
1F
100
AcDbEntity
  8
7
  6
Continuous
 62
     2
100
AcDbLine
 10
1034.88
 20
465.309999991
 30
0.0
 11
1076.5
 21
465.309999991
 31
0.0
  0
LINE
  5
2A9
330
1F
100
AcDbEntity
  8
7
  6
Continuous
 62
     2
100
AcDbLine
 10
1066.5
 20
465.309999991
 30
0.0
 11
1063.264761936
 21
453.235927162
 31
0.0
  0
LINE
  5
2AA
330
1F
100
AcDbEntity
  8
7
  6
Continuous
 62
     2
100
AcDbLine
 10
1066.5
 20
465.309999991
 30
0.0
 11
1069.735238064
 21
453.235927162
 31
0.0
  0
LWPOLYLINE
  5
2AC
330
1F
100
AcDbEntity
  8
7
  6
Continuous
 62
     2
100
AcDbPolyline
 90
     3
 70
   128
 43
0.0
 10
1066.5
 20
465.309999991
 10
1066.5
 20
414.510000716
 10
1069.735238064
 20
426.584073545
  0
LINE
  5
2AD
330
1F
100
AcDbEntity
  8
7
  6
Continuous
 62
     2
100
AcDbLine
 10
1066.5
 20
414.510000716
 30
0.0
 11
1063.264761936
 21
426.584073545
 31
0.0
  0
LINE
  5
2AE
330
1F
100
AcDbEntity
  8
7
  6
Continuous
 62
     2
100
AcDbLine
 10
1034.88
 20
414.510000716
 30
0.0
 11
1076.5
 21
414.510000716
 31
0.0
  0
MTEXT
  5
2AF
330
1F
100
AcDbEntity
  8
7
  6
Continuous
 62
     2
100
AcDbMText
 10
1061.5
 20
419.660000353
 30
0.0
 40
15.0
 41
81.0
 71
     7
 72
     1
  1
\T1.167;\W0.600;５０．８
  7
KANJI7
 11
0.0
 21
1.0
 31
0.0
 73
     1
 44
1.0
  0
LWPOLYLINE
  5
2B2
330
1F
100
AcDbEntity
  8
2
  6
LTYPE2
 62
     2
100
AcDbPolyline
 90
     3
 70
   128
 43
0.0
 10
808.038925049
 20
529.909053608
 42
-0.692820277
 10
803.71153076
 20
529.909053608
 42
-0.346244685
 10
795.049872911
 20
529.910000277
 42
0.0
  0
ARC
  5
2B3
330
1F
100
AcDbEntity
  8
2
  6
LTYPE2
 62
     2
100
AcDbCircle
 10
792.884809451
 20
530.723059874
 30
0.0
 40
2.313059521
100
AcDbArc
 50
200.569995159
 51
339.430002812
  0
LINE
  5
2B4
330
1F
100
AcDbEntity
  8
2
  6
LTYPE2
 62
     2
100
AcDbLine
 10
790.719745962
 20
535.910000353
 30
0.0
 11
790.719745962
 21
529.910000353
 31
0.0
  0
LINE
  5
2B5
330
1F
100
AcDbEntity
  8
2
  6
LTYPE2
 62
     2
100
AcDbLine
 10
795.049872981
 20
535.910000353
 30
0.0
 11
795.049872981
 21
529.910000353
 31
0.0
  0
LINE
  5
2B6
330
1F
100
AcDbEntity
  8
2
  6
LTYPE2
 62
     2
100
AcDbLine
 10
803.710127019
 20
535.910000353
 30
0.0
 11
803.710127019
 21
529.910000353
 31
0.0
  0
LINE
  5
2B7
330
1F
100
AcDbEntity
  8
2
  6
LTYPE2
 62
     2
100
AcDbLine
 10
808.040254038
 20
535.910000353
 30
0.0
 11
808.040254038
 21
529.910000353
 31
0.0
  0
LINE
  5
2B8
330
1F
100
AcDbEntity
  8
2
  6
LTYPE2
 62
     2
100
AcDbLine
 10
792.88483103
 20
528.410000353
 30
0.0
 11
805.875249484
 21
528.410000353
 31
0.0
  0
LWPOLYLINE
  5
2BB
330
1F
100
AcDbEntity
  8
2
  6
LTYPE2
 62
     2
100
AcDbPolyline
 90
     3
 70
   128
 43
0.0
 10
708.038925049
 20
529.909053608
 42
-0.692820277
 10
703.71153076
 20
529.909053608
 42
-0.346244685
 10
695.049872911
 20
529.910000277
 42
0.0
  0
ARC
  5
2BC
330
1F
100
AcDbEntity
  8
2
  6
LTYPE2
 62
     2
100
AcDbCircle
 10
692.884809451
 20
530.723059874
 30
0.0
 40
2.313059521
100
AcDbArc
 50
200.569995159
 51
339.430002812
  0
LINE
  5
2BD
330
1F
100
AcDbEntity
  8
2
  6
LTYPE2
 62
     2
100
AcDbLine
 10
690.719745962
 20
535.910000353
 30
0.0
 11
690.719745962
 21
529.910000353
 31
0.0
  0
LINE
  5
2BE
330
1F
100
AcDbEntity
  8
2
  6
LTYPE2
 62
     2
100
AcDbLine
 10
695.049872981
 20
535.910000353
 30
0.0
 11
695.049872981
 21
529.910000353
 31
0.0
  0
LINE
  5
2BF
330
1F
100
AcDbEntity
  8
2
  6
LTYPE2
 62
     2
100
AcDbLine
 10
703.710127019
 20
535.910000353
 30
0.0
 11
703.710127019
 21
529.910000353
 31
0.0
  0
LINE
  5
2C0
330
1F
100
AcDbEntity
  8
2
  6
LTYPE2
 62
     2
100
AcDbLine
 10
708.040254038
 20
535.910000353
 30
0.0
 11
708.040254038
 21
529.910000353
 31
0.0
  0
LINE
  5
2C1
330
1F
100
AcDbEntity
  8
2
  6
LTYPE2
 62
     2
100
AcDbLine
 10
692.88483103
 20
528.410000353
 30
0.0
 11
705.875249484
 21
528.410000353
 31
0.0
  0
LWPOLYLINE
  5
2C4
330
1F
100
AcDbEntity
  8
2
  6
LTYPE2
 62
     2
100
AcDbPolyline
 90
     3
 70
   128
 43
0.0
 10
490.721074951
 20
529.909053608
 42
0.692820277
 10
495.04846924
 20
529.909053608
 42
0.346244685
 10
503.710127089
 20
529.910000277
 42
0.0
  0
ARC
  5
2C5
330
1F
100
AcDbEntity
  8
2
  6
LTYPE2
 62
     2
100
AcDbCircle
 10
505.875190549
 20
530.723059874
 30
0.0
 40
2.313059521
100
AcDbArc
 50
200.569997188
 51
339.430004841
  0
LINE
  5
2C6
330
1F
100
AcDbEntity
  8
2
  6
LTYPE2
 62
     2
100
AcDbLine
 10
508.040254038
 20
535.910000353
 30
0.0
 11
508.040254038
 21
529.910000353
 31
0.0
  0
LINE
  5
2C7
330
1F
100
AcDbEntity
  8
2
  6
LTYPE2
 62
     2
100
AcDbLine
 10
503.710127019
 20
535.910000353
 30
0.0
 11
503.710127019
 21
529.910000353
 31
0.0
  0
LINE
  5
2C8
330
1F
100
AcDbEntity
  8
2
  6
LTYPE2
 62
     2
100
AcDbLine
 10
495.049872981
 20
535.910000353
 30
0.0
 11
495.049872981
 21
529.910000353
 31
0.0
  0
LINE
  5
2C9
330
1F
100
AcDbEntity
  8
2
  6
LTYPE2
 62
     2
100
AcDbLine
 10
490.719745962
 20
535.910000353
 30
0.0
 11
490.719745962
 21
529.910000353
 31
0.0
  0
LINE
  5
2CA
330
1F
100
AcDbEntity
  8
2
  6
LTYPE2
 62
     2
100
AcDbLine
 10
505.87516897
 20
528.410000353
 30
0.0
 11
492.884750516
 21
528.410000353
 31
0.0
  0
LINE
  5
2CB
330
1F
100
AcDbEntity
  8
2
  6
LTYPE2
 62
     2
100
AcDbLine
 10
379.38
 20
526.910000353
 30
0.0
 11
379.38
 21
537.910000353
 31
0.0
  0
ARC
  5
2CC
330
1F
100
AcDbEntity
  8
2
  6
LTYPE2
 62
     2
100
AcDbCircle
 10
384.38
 20
526.910000353
 30
0.0
 40
5.0
100
AcDbArc
 50
180.0
 51
270.0
  0
LWPOLYLINE
  5
2CF
330
1F
100
AcDbEntity
  8
2
  6
LTYPE2
 62
     2
100
AcDbPolyline
 90
     3
 70
   128
 43
0.0
 10
390.721074951
 20
529.909053608
 42
0.692820277
 10
395.04846924
 20
529.909053608
 42
0.346244685
 10
403.710127089
 20
529.910000277
 42
0.0
  0
ARC
  5
2D0
330
1F
100
AcDbEntity
  8
2
  6
LTYPE2
 62
     2
100
AcDbCircle
 10
405.875190549
 20
530.723059874
 30
0.0
 40
2.313059521
100
AcDbArc
 50
200.569997188
 51
339.430004841
  0
LINE
  5
2D1
330
1F
100
AcDbEntity
  8
2
  6
LTYPE2
 62
     2
100
AcDbLine
 10
408.040254038
 20
535.910000353
 30
0.0
 11
408.040254038
 21
529.910000353
 31
0.0
  0
LINE
  5
2D2
330
1F
100
AcDbEntity
  8
2
  6
LTYPE2
 62
     2
100
AcDbLine
 10
403.710127019
 20
535.910000353
 30
0.0
 11
403.710127019
 21
529.910000353
 31
0.0
  0
LINE
  5
2D3
330
1F
100
AcDbEntity
  8
2
  6
LTYPE2
 62
     2
100
AcDbLine
 10
395.049872981
 20
535.910000353
 30
0.0
 11
395.049872981
 21
529.910000353
 31
0.0
  0
LINE
  5
2D4
330
1F
100
AcDbEntity
  8
2
  6
LTYPE2
 62
     2
100
AcDbLine
 10
390.719745962
 20
535.910000353
 30
0.0
 11
390.719745962
 21
529.910000353
 31
0.0
  0
LINE
  5
2D5
330
1F
100
AcDbEntity
  8
2
  6
LTYPE2
 62
     2
100
AcDbLine
 10
405.87516897
 20
528.410000353
 30
0.0
 11
392.884750516
 21
528.410000353
 31
0.0
  0
LINE
  5
2D6
330
1F
100
AcDbEntity
  8
2
  6
LTYPE2
 62
     2
100
AcDbLine
 10
819.38
 20
526.910000353
 30
0.0
 11
819.38
 21
537.910000353
 31
0.0
  0
ARC
  5
2D7
330
1F
100
AcDbEntity
  8
2
  6
LTYPE2
 62
     2
100
AcDbCircle
 10
814.38
 20
526.910000353
 30
0.0
 40
5.0
100
AcDbArc
 50
270.0
 51
0.0
  0
LINE
  5
2D8
330
1F
100
AcDbEntity
  8
2
  6
LTYPE2
 62
     2
100
AcDbLine
 10
379.38
 20
535.910000353
 30
0.0
 11
819.38
 21
535.910000353
 31
0.0
  0
LINE
  5
2D9
330
1F
100
AcDbEntity
  8
2
  6
LTYPE2
 62
     2
100
AcDbLine
 10
384.38
 20
521.910000353
 30
0.0
 11
814.38
 21
521.910000353
 31
0.0
  0
LWPOLYLINE
  5
2DB
330
1F
100
AcDbEntity
  8
4
  6
Continuous
 62
     2
100
AcDbPolyline
 90
     4
 70
   129
 43
0.0
 10
790.88
 20
539.910000353
 10
807.88
 20
539.910000353
 10
807.88
 20
541.510000353
 10
790.88
 20
541.510000353
  0
LWPOLYLINE
  5
2DD
330
1F
100
AcDbEntity
  8
4
  6
Continuous
 62
     2
100
AcDbPolyline
 90
     4
 70
   129
 43
0.0
 10
807.08
 20
541.510000353
 10
807.08
 20
543.510000353
 10
791.68
 20
543.510000353
 10
791.68
 20
541.510000353
  0
LINE
  5
2DE
330
1F
100
AcDbEntity
  8
4
  6
Continuous
 62
     2
100
AcDbLine
 10
791.88
 20
543.510000353
 30
0.0
 11
791.88
 21
548.110000353
 31
0.0
  0
LINE
  5
2DF
330
1F
100
AcDbEntity
  8
4
  6
Continuous
 62
     2
100
AcDbLine
 10
806.88
 20
543.510000353
 30
0.0
 11
806.88
 21
548.110000353
 31
0.0
  0
LINE
  5
2E0
330
1F
100
AcDbEntity
  8
4
  6
Continuous
 62
     2
100
AcDbLine
 10
803.18
 20
543.510000353
 30
0.0
 11
803.18
 21
548.110000353
 31
0.0
  0
LINE
  5
2E1
330
1F
100
AcDbEntity
  8
4
  6
Continuous
 62
     2
100
AcDbLine
 10
795.58
 20
543.510000353
 30
0.0
 11
795.58
 21
548.110000353
 31
0.0
  0
LINE
  5
2E2
330
1F
100
AcDbEntity
  8
4
  6
Continuous
 62
     2
100
AcDbLine
 10
793.68
 20
548.810000353
 30
0.0
 11
805.08
 21
548.810000353
 31
0.0
  0
ARC
  5
2E3
330
1F
100
AcDbEntity
  8
4
  6
Continuous
 62
     2
100
AcDbCircle
 10
805.08
 20
546.010000353
 30
0.0
 40
2.8
100
AcDbArc
 50
48.5
 51
131.5
  0
ARC
  5
2E4
330
1F
100
AcDbEntity
  8
4
  6
Continuous
 62
     2
100
AcDbCircle
 10
799.38
 20
538.110000353
 30
0.0
 40
10.7
100
AcDbArc
 50
69.1
 51
110.9
  0
ARC
  5
2E5
330
1F
100
AcDbEntity
  8
4
  6
Continuous
 62
     2
100
AcDbCircle
 10
793.68
 20
546.010000353
 30
0.0
 40
2.8
100
AcDbArc
 50
48.5
 51
131.5
  0
LINE
  5
2E6
330
1F
100
AcDbEntity
  8
4
  6
Continuous
 62
     2
100
AcDbLine
 10
799.38
 20
543.510000353
 30
0.0
 11
800.534700538
 21
541.510000353
 31
0.0
  0
LINE
  5
2E7
330
1F
100
AcDbEntity
  8
4
  6
Continuous
 62
     2
100
AcDbLine
 10
799.38
 20
541.510000353
 30
0.0
 11
798.225299462
 21
543.510000353
 31
0.0
  0
LWPOLYLINE
  5
2E9
330
1F
100
AcDbEntity
  8
4
  6
Continuous
 62
     2
100
AcDbPolyline
 90
     4
 70
   129
 43
0.0
 10
690.88
 20
539.910000353
 10
707.88
 20
539.910000353
 10
707.88
 20
541.510000353
 10
690.88
 20
541.510000353
  0
LWPOLYLINE
  5
2EB
330
1F
100
AcDbEntity
  8
4
  6
Continuous
 62
     2
100
AcDbPolyline
 90
     4
 70
   129
 43
0.0
 10
707.08
 20
541.510000353
 10
707.08
 20
543.510000353
 10
691.68
 20
543.510000353
 10
691.68
 20
541.510000353
  0
LINE
  5
2EC
330
1F
100
AcDbEntity
  8
4
  6
Continuous
 62
     2
100
AcDbLine
 10
691.88
 20
543.510000353
 30
0.0
 11
691.88
 21
548.110000353
 31
0.0
  0
LINE
  5
2ED
330
1F
100
AcDbEntity
  8
4
  6
Continuous
 62
     2
100
AcDbLine
 10
706.88
 20
543.510000353
 30
0.0
 11
706.88
 21
548.110000353
 31
0.0
  0
LINE
  5
2EE
330
1F
100
AcDbEntity
  8
4
  6
Continuous
 62
     2
100
AcDbLine
 10
703.18
 20
543.510000353
 30
0.0
 11
703.18
 21
548.110000353
 31
0.0
  0
LINE
  5
2EF
330
1F
100
AcDbEntity
  8
4
  6
Continuous
 62
     2
100
AcDbLine
 10
695.58
 20
543.510000353
 30
0.0
 11
695.58
 21
548.110000353
 31
0.0
  0
LINE
  5
2F0
330
1F
100
AcDbEntity
  8
4
  6
Continuous
 62
     2
100
AcDbLine
 10
693.68
 20
548.810000353
 30
0.0
 11
705.08
 21
548.810000353
 31
0.0
  0
ARC
  5
2F1
330
1F
100
AcDbEntity
  8
4
  6
Continuous
 62
     2
100
AcDbCircle
 10
705.08
 20
546.010000353
 30
0.0
 40
2.8
100
AcDbArc
 50
48.5
 51
131.5
  0
ARC
  5
2F2
330
1F
100
AcDbEntity
  8
4
  6
Continuous
 62
     2
100
AcDbCircle
 10
699.38
 20
538.110000353
 30
0.0
 40
10.7
100
AcDbArc
 50
69.1
 51
110.9
  0
ARC
  5
2F3
330
1F
100
AcDbEntity
  8
4
  6
Continuous
 62
     2
100
AcDbCircle
 10
693.68
 20
546.010000353
 30
0.0
 40
2.8
100
AcDbArc
 50
48.5
 51
131.5
  0
LINE
  5
2F4
330
1F
100
AcDbEntity
  8
4
  6
Continuous
 62
     2
100
AcDbLine
 10
699.38
 20
543.510000353
 30
0.0
 11
700.534700538
 21
541.510000353
 31
0.0
  0
LINE
  5
2F5
330
1F
100
AcDbEntity
  8
4
  6
Continuous
 62
     2
100
AcDbLine
 10
699.38
 20
541.510000353
 30
0.0
 11
698.225299462
 21
543.510000353
 31
0.0
  0
LWPOLYLINE
  5
2F7
330
1F
100
AcDbEntity
  8
4
  6
Continuous
 62
     2
100
AcDbPolyline
 90
     4
 70
   129
 43
0.0
 10
490.88
 20
539.910000353
 10
507.88
 20
539.910000353
 10
507.88
 20
541.510000353
 10
490.88
 20
541.510000353
  0
LWPOLYLINE
  5
2F9
330
1F
100
AcDbEntity
  8
4
  6
Continuous
 62
     2
100
AcDbPolyline
 90
     4
 70
   129
 43
0.0
 10
507.08
 20
541.510000353
 10
507.08
 20
543.510000353
 10
491.68
 20
543.510000353
 10
491.68
 20
541.510000353
  0
LINE
  5
2FA
330
1F
100
AcDbEntity
  8
4
  6
Continuous
 62
     2
100
AcDbLine
 10
491.88
 20
543.510000353
 30
0.0
 11
491.88
 21
548.110000353
 31
0.0
  0
LINE
  5
2FB
330
1F
100
AcDbEntity
  8
4
  6
Continuous
 62
     2
100
AcDbLine
 10
506.88
 20
543.510000353
 30
0.0
 11
506.88
 21
548.110000353
 31
0.0
  0
LINE
  5
2FC
330
1F
100
AcDbEntity
  8
4
  6
Continuous
 62
     2
100
AcDbLine
 10
503.18
 20
543.510000353
 30
0.0
 11
503.18
 21
548.110000353
 31
0.0
  0
LINE
  5
2FD
330
1F
100
AcDbEntity
  8
4
  6
Continuous
 62
     2
100
AcDbLine
 10
495.58
 20
543.510000353
 30
0.0
 11
495.58
 21
548.110000353
 31
0.0
  0
LINE
  5
2FE
330
1F
100
AcDbEntity
  8
4
  6
Continuous
 62
     2
100
AcDbLine
 10
493.68
 20
548.810000353
 30
0.0
 11
505.08
 21
548.810000353
 31
0.0
  0
ARC
  5
2FF
330
1F
100
AcDbEntity
  8
4
  6
Continuous
 62
     2
100
AcDbCircle
 10
505.08
 20
546.010000353
 30
0.0
 40
2.8
100
AcDbArc
 50
48.5
 51
131.5
  0
ARC
  5
300
330
1F
100
AcDbEntity
  8
4
  6
Continuous
 62
     2
100
AcDbCircle
 10
499.38
 20
538.110000353
 30
0.0
 40
10.7
100
AcDbArc
 50
69.1
 51
110.9
  0
ARC
  5
301
330
1F
100
AcDbEntity
  8
4
  6
Continuous
 62
     2
100
AcDbCircle
 10
493.68
 20
546.010000353
 30
0.0
 40
2.8
100
AcDbArc
 50
48.5
 51
131.5
  0
LINE
  5
302
330
1F
100
AcDbEntity
  8
4
  6
Continuous
 62
     2
100
AcDbLine
 10
499.38
 20
543.510000353
 30
0.0
 11
500.534700538
 21
541.510000353
 31
0.0
  0
LINE
  5
303
330
1F
100
AcDbEntity
  8
4
  6
Continuous
 62
     2
100
AcDbLine
 10
499.38
 20
541.510000353
 30
0.0
 11
498.225299462
 21
543.510000353
 31
0.0
  0
LWPOLYLINE
  5
305
330
1F
100
AcDbEntity
  8
4
  6
Continuous
 62
     2
100
AcDbPolyline
 90
     4
 70
   129
 43
0.0
 10
390.88
 20
539.910000353
 10
407.88
 20
539.910000353
 10
407.88
 20
541.510000353
 10
390.88
 20
541.510000353
  0
LWPOLYLINE
  5
307
330
1F
100
AcDbEntity
  8
4
  6
Continuous
 62
     2
100
AcDbPolyline
 90
     4
 70
   129
 43
0.0
 10
407.08
 20
541.510000353
 10
407.08
 20
543.510000353
 10
391.68
 20
543.510000353
 10
391.68
 20
541.510000353
  0
LINE
  5
308
330
1F
100
AcDbEntity
  8
4
  6
Continuous
 62
     2
100
AcDbLine
 10
391.88
 20
543.510000353
 30
0.0
 11
391.88
 21
548.110000353
 31
0.0
  0
LINE
  5
309
330
1F
100
AcDbEntity
  8
4
  6
Continuous
 62
     2
100
AcDbLine
 10
406.88
 20
543.510000353
 30
0.0
 11
406.88
 21
548.110000353
 31
0.0
  0
LINE
  5
30A
330
1F
100
AcDbEntity
  8
4
  6
Continuous
 62
     2
100
AcDbLine
 10
403.18
 20
543.510000353
 30
0.0
 11
403.18
 21
548.110000353
 31
0.0
  0
LINE
  5
30B
330
1F
100
AcDbEntity
  8
4
  6
Continuous
 62
     2
100
AcDbLine
 10
395.58
 20
543.510000353
 30
0.0
 11
395.58
 21
548.110000353
 31
0.0
  0
LINE
  5
30C
330
1F
100
AcDbEntity
  8
4
  6
Continuous
 62
     2
100
AcDbLine
 10
393.68
 20
548.810000353
 30
0.0
 11
405.08
 21
548.810000353
 31
0.0
  0
ARC
  5
30D
330
1F
100
AcDbEntity
  8
4
  6
Continuous
 62
     2
100
AcDbCircle
 10
405.08
 20
546.010000353
 30
0.0
 40
2.8
100
AcDbArc
 50
48.5
 51
131.5
  0
ARC
  5
30E
330
1F
100
AcDbEntity
  8
4
  6
Continuous
 62
     2
100
AcDbCircle
 10
399.38
 20
538.110000353
 30
0.0
 40
10.7
100
AcDbArc
 50
69.1
 51
110.9
  0
ARC
  5
30F
330
1F
100
AcDbEntity
  8
4
  6
Continuous
 62
     2
100
AcDbCircle
 10
393.68
 20
546.010000353
 30
0.0
 40
2.8
100
AcDbArc
 50
48.5
 51
131.5
  0
LINE
  5
310
330
1F
100
AcDbEntity
  8
4
  6
Continuous
 62
     2
100
AcDbLine
 10
399.38
 20
543.510000353
 30
0.0
 11
400.534700538
 21
541.510000353
 31
0.0
  0
LINE
  5
311
330
1F
100
AcDbEntity
  8
4
  6
Continuous
 62
     2
100
AcDbLine
 10
399.38
 20
541.510000353
 30
0.0
 11
398.225299462
 21
543.510000353
 31
0.0
  0
LWPOLYLINE
  5
313
330
1F
100
AcDbEntity
  8
4
  6
Continuous
 62
     2
100
AcDbPolyline
 90
     4
 70
   129
 43
0.0
 10
77.38
 20
431.410000353
 10
77.38
 20
448.410000353
 10
75.78
 20
448.410000353
 10
75.78
 20
431.410000353
  0
LWPOLYLINE
  5
315
330
1F
100
AcDbEntity
  8
4
  6
Continuous
 62
     2
100
AcDbPolyline
 90
     4
 70
   129
 43
0.0
 10
75.78
 20
447.610000353
 10
73.78
 20
447.610000353
 10
73.78
 20
432.210000353
 10
75.78
 20
432.210000353
  0
LINE
  5
316
330
1F
100
AcDbEntity
  8
4
  6
Continuous
 62
     2
100
AcDbLine
 10
73.78
 20
432.410000353
 30
0.0
 11
69.18
 21
432.410000353
 31
0.0
  0
LINE
  5
317
330
1F
100
AcDbEntity
  8
4
  6
Continuous
 62
     2
100
AcDbLine
 10
73.78
 20
447.410000353
 30
0.0
 11
69.18
 21
447.410000353
 31
0.0
  0
LINE
  5
318
330
1F
100
AcDbEntity
  8
4
  6
Continuous
 62
     2
100
AcDbLine
 10
73.78
 20
443.710000353
 30
0.0
 11
69.18
 21
443.710000353
 31
0.0
  0
LINE
  5
319
330
1F
100
AcDbEntity
  8
4
  6
Continuous
 62
     2
100
AcDbLine
 10
73.78
 20
436.110000353
 30
0.0
 11
69.18
 21
436.110000353
 31
0.0
  0
LINE
  5
31A
330
1F
100
AcDbEntity
  8
4
  6
Continuous
 62
     2
100
AcDbLine
 10
68.48
 20
434.210000353
 30
0.0
 11
68.48
 21
445.610000353
 31
0.0
  0
ARC
  5
31B
330
1F
100
AcDbEntity
  8
4
  6
Continuous
 62
     2
100
AcDbCircle
 10
71.28
 20
445.610000353
 30
0.0
 40
2.8
100
AcDbArc
 50
138.5
 51
221.5
  0
ARC
  5
31C
330
1F
100
AcDbEntity
  8
4
  6
Continuous
 62
     2
100
AcDbCircle
 10
79.18
 20
439.910000353
 30
0.0
 40
10.7
100
AcDbArc
 50
159.1
 51
200.9
  0
ARC
  5
31D
330
1F
100
AcDbEntity
  8
4
  6
Continuous
 62
     2
100
AcDbCircle
 10
71.28
 20
434.210000353
 30
0.0
 40
2.8
100
AcDbArc
 50
138.5
 51
221.5
  0
LINE
  5
31E
330
1F
100
AcDbEntity
  8
4
  6
Continuous
 62
     2
100
AcDbLine
 10
73.78
 20
439.910000353
 30
0.0
 11
75.78
 21
441.064700892
 31
0.0
  0
LINE
  5
31F
330
1F
100
AcDbEntity
  8
4
  6
Continuous
 62
     2
100
AcDbLine
 10
75.78
 20
439.910000353
 30
0.0
 11
73.78
 21
438.755299815
 31
0.0
  0
LWPOLYLINE
  5
321
330
1F
100
AcDbEntity
  8
4
  6
Continuous
 62
     2
100
AcDbPolyline
 90
     4
 70
   129
 43
0.0
 10
1121.38
 20
448.410000353
 10
1121.38
 20
431.410000353
 10
1122.98
 20
431.410000353
 10
1122.98
 20
448.410000353
  0
LWPOLYLINE
  5
323
330
1F
100
AcDbEntity
  8
4
  6
Continuous
 62
     2
100
AcDbPolyline
 90
     4
 70
   129
 43
0.0
 10
1122.98
 20
432.210000353
 10
1124.98
 20
432.210000353
 10
1124.98
 20
447.610000353
 10
1122.98
 20
447.610000353
  0
LINE
  5
324
330
1F
100
AcDbEntity
  8
4
  6
Continuous
 62
     2
100
AcDbLine
 10
1124.98
 20
447.410000353
 30
0.0
 11
1129.58
 21
447.410000353
 31
0.0
  0
LINE
  5
325
330
1F
100
AcDbEntity
  8
4
  6
Continuous
 62
     2
100
AcDbLine
 10
1124.98
 20
432.410000353
 30
0.0
 11
1129.58
 21
432.410000353
 31
0.0
  0
LINE
  5
326
330
1F
100
AcDbEntity
  8
4
  6
Continuous
 62
     2
100
AcDbLine
 10
1124.98
 20
436.110000353
 30
0.0
 11
1129.58
 21
436.110000353
 31
0.0
  0
LINE
  5
327
330
1F
100
AcDbEntity
  8
4
  6
Continuous
 62
     2
100
AcDbLine
 10
1124.98
 20
443.710000353
 30
0.0
 11
1129.58
 21
443.710000353
 31
0.0
  0
LINE
  5
328
330
1F
100
AcDbEntity
  8
4
  6
Continuous
 62
     2
100
AcDbLine
 10
1130.28
 20
445.610000353
 30
0.0
 11
1130.28
 21
434.210000353
 31
0.0
  0
ARC
  5
329
330
1F
100
AcDbEntity
  8
4
  6
Continuous
 62
     2
100
AcDbCircle
 10
1127.48
 20
434.210000353
 30
0.0
 40
2.8
100
AcDbArc
 50
318.5
 51
41.5
  0
ARC
  5
32A
330
1F
100
AcDbEntity
  8
4
  6
Continuous
 62
     2
100
AcDbCircle
 10
1119.58
 20
439.910000353
 30
0.0
 40
10.7
100
AcDbArc
 50
339.1
 51
20.9
  0
ARC
  5
32B
330
1F
100
AcDbEntity
  8
4
  6
Continuous
 62
     2
100
AcDbCircle
 10
1127.48
 20
445.610000353
 30
0.0
 40
2.8
100
AcDbArc
 50
318.5
 51
41.5
  0
LINE
  5
32C
330
1F
100
AcDbEntity
  8
4
  6
Continuous
 62
     2
100
AcDbLine
 10
1124.98
 20
439.910000353
 30
0.0
 11
1122.98
 21
438.755299815
 31
0.0
  0
LINE
  5
32D
330
1F
100
AcDbEntity
  8
4
  6
Continuous
 62
     2
100
AcDbLine
 10
1122.98
 20
439.910000353
 30
0.0
 11
1124.98
 21
441.064700892
 31
0.0
  0
LINE
  5
32E
330
1F
100
AcDbEntity
  8
5
  6
Continuous
 62
     1
100
AcDbLine
 10
587.38
 20
549.710000353
 30
0.0
 11
587.38
 21
539.910000353
 31
0.0
  0
LINE
  5
32F
330
1F
100
AcDbEntity
  8
5
  6
Continuous
 62
     2
100
AcDbLine
 10
589.88
 20
541.910000353
 30
0.0
 11
587.88
 21
539.910000353
 31
0.0
  0
LINE
  5
330
330
1F
100
AcDbEntity
  8
5
  6
Continuous
 62
     1
100
AcDbLine
 10
611.38
 20
539.910000353
 30
0.0
 11
611.38
 21
549.710000353
 31
0.0
  0
LINE
  5
331
330
1F
100
AcDbEntity
  8
5
  6
Continuous
 62
     2
100
AcDbLine
 10
608.88
 20
541.910000353
 30
0.0
 11
610.88
 21
539.910000353
 31
0.0
  0
LINE
  5
332
330
1F
100
AcDbEntity
  8
7
  6
Continuous
 62
     2
100
AcDbLine
 10
1119.88
 20
389.910000353
 30
0.0
 11
1170.28
 21
389.910000353
 31
0.0
  0
LINE
  5
333
330
1F
100
AcDbEntity
  8
7
  6
Continuous
 62
     2
100
AcDbLine
 10
1160.28
 20
389.910000353
 30
0.0
 11
1163.515238064
 21
401.984073182
 31
0.0
  0
LINE
  5
334
330
1F
100
AcDbEntity
  8
7
  6
Continuous
 62
     2
100
AcDbLine
 10
1160.28
 20
389.910000353
 30
0.0
 11
1157.044761936
 21
401.984073182
 31
0.0
  0
LWPOLYLINE
  5
336
330
1F
100
AcDbEntity
  8
7
  6
Continuous
 62
     2
100
AcDbPolyline
 90
     3
 70
   128
 43
0.0
 10
1160.28
 20
389.910000353
 10
1160.28
 20
489.910000353
 10
1157.044761936
 20
477.835927525
  0
LINE
  5
337
330
1F
100
AcDbEntity
  8
7
  6
Continuous
 62
     2
100
AcDbLine
 10
1160.28
 20
489.910000353
 30
0.0
 11
1163.515238064
 21
477.835927525
 31
0.0
  0
LINE
  5
338
330
1F
100
AcDbEntity
  8
7
  6
Continuous
 62
     2
100
AcDbLine
 10
1119.88
 20
489.910000353
 30
0.0
 11
1170.28
 21
489.910000353
 31
0.0
  0
MTEXT
  5
339
330
1F
100
AcDbEntity
  8
7
  6
Continuous
 62
     2
100
AcDbMText
 10
1155.28
 20
424.910000353
 30
0.0
 40
15.0
 41
60.0
 71
     7
 72
     1
  1
\T1.167;\W0.600;１００
  7
KANJI7
 11
0.0
 21
1.0
 31
0.0
 73
     1
 44
1.0
  0
LINE
  5
33A
330
1F
100
AcDbEntity
  8
7
  6
Continuous
 62
     2
100
AcDbLine
 10
163.59
 20
404.760000353
 30
0.0
 11
155.396760836
 21
395.31961731
 31
0.0
  0
LINE
  5
33B
330
1F
100
AcDbEntity
  8
7
  6
Continuous
 62
     2
100
AcDbLine
 10
163.59
 20
404.760000353
 30
0.0
 11
161.214638267
 21
392.487769235
 31
0.0
  0
LWPOLYLINE
  5
33D
330
1F
100
AcDbEntity
  8
7
  6
Continuous
 62
     2
100
AcDbPolyline
 90
     3
 70
   128
 43
0.0
 10
163.59
 20
404.760000353
 10
109.04
 20
292.690000353
 10
70.79
 20
292.690000353
  0
MTEXT
  5
33E
330
1F
100
AcDbEntity
  8
7
  6
Continuous
 62
     2
100
AcDbMText
 10
70.79
 20
297.690000353
 30
0.0
 40
15.0
 41
76.5
 71
     7
 72
     1
  1
\T1.111;\W0.588;４－φ７
  7
KANJI8
 73
     1
 44
1.0
  0
LINE
  5
340
330
1F
100
AcDbEntity
  8
7
  6
Continuous
 62
     2
100
AcDbLine
 10
283.95
 20
408.000000716
 30
0.0
 11
285.44925468
 21
395.590237004
 31
0.0
  0
LINE
  5
341
330
1F
100
AcDbEntity
  8
7
  6
Continuous
 62
     2
100
AcDbLine
 10
283.95
 20
408.000000716
 30
0.0
 11
291.453274496
 21
398.002457426
 31
0.0
  0
LWPOLYLINE
  5
343
330
1F
100
AcDbEntity
  8
7
  6
Continuous
 62
     2
100
AcDbPolyline
 90
     3
 70
   128
 43
0.0
 10
283.95
 20
408.000000716
 10
329.41
 20
294.850000716
 10
407.41
 20
294.850000716
  0
MTEXT
  5
344
330
1F
100
AcDbEntity
  8
7
  6
Continuous
 62
     2
100
AcDbMText
 10
329.41
 20
299.850000716
 30
0.0
 40
15.0
 41
156.0
 71
     7
 72
     1
  1
\T1.111;\W0.592;４－長丸１０＊７
  7
KANJI8
 73
     1
 44
1.0
  0
LINE
  5
345
330
1F
100
AcDbEntity
  8
5
  6
LTYPE2
 62
     2
100
AcDbLine
 10
624.38
 20
749.410001832
 30
0.0
 11
624.38
 21
829.410001832
 31
0.0
  0
CIRCLE
  5
346
330
1F
100
AcDbEntity
  8
5
  6
LTYPE2
 62
     2
100
AcDbCircle
 10
599.38
 20
789.410001832
 30
0.0
 40
12.5
  0
LINE
  5
347
330
1F
100
AcDbEntity
  8
5
  6
LTYPE2
 62
     2
100
AcDbLine
 10
574.38
 20
749.410001832
 30
0.0
 11
574.38
 21
829.410001832
 31
0.0
  0
LINE
  5
348
330
1F
100
AcDbEntity
  8
5
  6
LTYPE2
 62
     2
100
AcDbLine
 10
624.38
 20
821.410002945
 30
0.0
 11
574.38
 21
821.410008349
 31
0.0
  0
LINE
  5
349
330
1F
100
AcDbEntity
  8
5
  6
LTYPE2
 62
     2
100
AcDbLine
 10
624.38
 20
813.410002945
 30
0.0
 11
574.38
 21
813.410008349
 31
0.0
  0
LWPOLYLINE
  5
34C
330
1F
100
AcDbEntity
  8
5
  6
Continuous
 62
     1
100
AcDbPolyline
 90
     8
 70
   129
 43
0.0
 10
534.38
 20
864.410001832
 42
0.0
 10
664.38
 20
864.410001832
 42
-0.414213562
 10
674.38
 20
854.410001832
 42
0.0
 10
674.38
 20
724.410001832
 42
-0.414213562
 10
664.38
 20
714.410001832
 42
0.0
 10
534.38
 20
714.410001832
 42
-0.414213562
 10
524.38
 20
724.410001832
 42
0.0
 10
524.38
 20
854.410001832
 42
-0.414213562
  0
LWPOLYLINE
  5
351
330
1F
100
AcDbEntity
  8
5
  6
LTYPE2
 62
     2
100
AcDbPolyline
 90
    12
 70
   128
 43
0.0
 10
613.880002248
 20
821.41000408
 42
0.0
 10
621.88
 20
829.410001832
 42
0.0
 10
634.38
 20
829.410001832
 42
-0.414213562
 10
639.38
 20
824.410001832
 42
0.0
 10
639.38
 20
754.410001832
 42
-0.414213562
 10
634.38
 20
749.410001832
 42
0.0
 10
564.38
 20
749.410001832
 42
-0.414213562
 10
559.38
 20
754.410001832
 42
0.0
 10
559.38
 20
824.410001832
 42
-0.414213562
 10
564.38
 20
829.410001832
 42
0.0
 10
576.88
 20
829.410001832
 42
0.0
 10
584.879994618
 20
821.410007214
 42
0.0
  0
LWPOLYLINE
  5
357
330
1F
100
AcDbEntity
  8
5
  6
LTYPE2
 62
     2
100
AcDbPolyline
 90
     6
 70
   129
 43
0.0
 10
587.832994616
 20
809.410001832
 10
610.927005384
 20
809.410001832
 10
622.474010768
 20
789.410001832
 10
610.927005384
 20
769.410001832
 10
587.832994616
 20
769.410001832
 10
576.285989232
 20
789.410001832
  0
LINE
  5
358
330
1F
100
AcDbEntity
  8
5
  6
LTYPE2
 62
     2
100
AcDbLine
 10
586.88
 20
807.759366738
 30
0.0
 11
586.88
 21
813.410006998
 31
0.0
  0
LINE
  5
359
330
1F
100
AcDbEntity
  8
5
  6
LTYPE2
 62
     2
100
AcDbLine
 10
611.88
 20
807.759366738
 30
0.0
 11
611.88
 21
813.410004296
 31
0.0
  0
LINE
  5
35A
330
1F
100
AcDbEntity
  8
2
  6
LTYPE2
 62
     2
100
AcDbLine
 10
906.88
 20
716.410001832
 30
0.0
 11
1114.88
 21
716.410001832
 31
0.0
  0
LWPOLYLINE
  5
35D
330
1F
100
AcDbEntity
  8
2
  6
Continuous
 62
     1
100
AcDbPolyline
 90
     3
 70
   128
 43
0.0
 10
906.88
 20
714.410001832
 42
0.0
 10
1114.88
 20
714.410001832
 42
0.414213562
 10
1118.88
 20
718.410001832
 42
0.0
  0
LINE
  5
35E
330
1F
100
AcDbEntity
  8
2
  6
Continuous
 62
     1
100
AcDbLine
 10
1116.88
 20
718.410001832
 30
0.0
 11
1118.88
 21
718.410001832
 31
0.0
  0
LINE
  5
35F
330
1F
100
AcDbEntity
  8
2
  6
Continuous
 62
     1
100
AcDbLine
 10
1114.88
 20
716.409986574
 30
0.0
 11
1114.88
 21
714.410001832
 31
0.0
  0
ARC
  5
360
330
1F
100
AcDbEntity
  8
2
  6
Continuous
 62
     1
100
AcDbCircle
 10
1114.88
 20
718.410001832
 30
0.0
 40
2.0
100
AcDbArc
 50
270.0
 51
0.0
  0
ARC
  5
361
330
1F
100
AcDbEntity
  8
2
  6
Continuous
 62
     1
100
AcDbCircle
 10
1116.88
 20
716.410001832
 30
0.0
 40
2.0
100
AcDbArc
 50
90.0
 51
120.522487814
  0
LINE
  5
362
330
1F
100
AcDbEntity
  8
2
  6
Continuous
 62
     1
100
AcDbLine
 10
1103.88
 20
730.117108614
 30
0.0
 11
1115.864246997
 21
718.132861617
 31
0.0
  0
LWPOLYLINE
  5
365
330
1F
100
AcDbEntity
  8
2
  6
Continuous
 62
     1
100
AcDbPolyline
 90
     3
 70
   128
 43
0.0
 10
1103.172893219
 20
729.410001832
 42
0.0
 10
1115.157140216
 20
717.425754835
 42
0.133974437
 10
1114.88
 20
716.409986574
 42
0.0
  0
LINE
  5
366
330
1F
100
AcDbEntity
  8
2
  6
Continuous
 62
     1
100
AcDbLine
 10
906.88
 20
714.410001832
 30
0.0
 11
906.88
 21
724.410001832
 31
0.0
  0
LINE
  5
367
330
1F
100
AcDbEntity
  8
2
  6
Continuous
 62
     1
100
AcDbLine
 10
911.88
 20
729.410001832
 30
0.0
 11
1103.172893219
 21
729.410001832
 31
0.0
  0
ARC
  5
368
330
1F
100
AcDbEntity
  8
2
  6
Continuous
 62
     1
100
AcDbCircle
 10
911.88
 20
724.410001832
 30
0.0
 40
5.0
100
AcDbArc
 50
90.0
 51
180.0
  0
LINE
  5
369
330
1F
100
AcDbEntity
  8
2
  6
Continuous
 62
     2
100
AcDbLine
 10
1109.38
 20
795.905177102
 30
0.0
 11
1109.38
 21
782.915365014
 31
0.0
  0
LINE
  5
36A
330
1F
100
AcDbEntity
  8
2
  6
LTYPE2
 62
     2
100
AcDbLine
 10
291.88
 20
716.410001832
 30
0.0
 11
83.88
 21
716.410001832
 31
0.0
  0
LWPOLYLINE
  5
36D
330
1F
100
AcDbEntity
  8
2
  6
Continuous
 62
     1
100
AcDbPolyline
 90
     3
 70
   128
 43
0.0
 10
291.88
 20
714.410001832
 42
0.0
 10
83.88
 20
714.410001832
 42
-0.414213562
 10
79.88
 20
718.410001832
 42
0.0
  0
LINE
  5
36E
330
1F
100
AcDbEntity
  8
2
  6
Continuous
 62
     1
100
AcDbLine
 10
81.88
 20
718.410001832
 30
0.0
 11
79.88
 21
718.410001832
 31
0.0
  0
LINE
  5
36F
330
1F
100
AcDbEntity
  8
2
  6
Continuous
 62
     1
100
AcDbLine
 10
83.88
 20
716.409986574
 30
0.0
 11
83.88
 21
714.410001832
 31
0.0
  0
ARC
  5
370
330
1F
100
AcDbEntity
  8
2
  6
Continuous
 62
     1
100
AcDbCircle
 10
83.88
 20
718.410001832
 30
0.0
 40
2.0
100
AcDbArc
 50
180.0
 51
270.0
  0
ARC
  5
371
330
1F
100
AcDbEntity
  8
2
  6
Continuous
 62
     1
100
AcDbCircle
 10
81.88
 20
716.410001832
 30
0.0
 40
2.0
100
AcDbArc
 50
59.477512186
 51
90.0
  0
LINE
  5
372
330
1F
100
AcDbEntity
  8
2
  6
Continuous
 62
     1
100
AcDbLine
 10
94.88
 20
730.117108614
 30
0.0
 11
82.895753003
 21
718.132861617
 31
0.0
  0
LWPOLYLINE
  5
375
330
1F
100
AcDbEntity
  8
2
  6
Continuous
 62
     1
100
AcDbPolyline
 90
     3
 70
   128
 43
0.0
 10
95.587106781
 20
729.410001832
 42
0.0
 10
83.602859784
 20
717.425754835
 42
-0.133974437
 10
83.88
 20
716.409986574
 42
0.0
  0
LINE
  5
376
330
1F
100
AcDbEntity
  8
2
  6
Continuous
 62
     1
100
AcDbLine
 10
291.88
 20
714.410001832
 30
0.0
 11
291.88
 21
724.410001832
 31
0.0
  0
LINE
  5
377
330
1F
100
AcDbEntity
  8
2
  6
Continuous
 62
     1
100
AcDbLine
 10
286.88
 20
729.410001832
 30
0.0
 11
95.587106781
 21
729.410001832
 31
0.0
  0
ARC
  5
378
330
1F
100
AcDbEntity
  8
2
  6
Continuous
 62
     1
100
AcDbCircle
 10
286.88
 20
724.410001832
 30
0.0
 40
5.0
100
AcDbArc
 50
0.0
 51
90.0
  0
LINE
  5
379
330
1F
100
AcDbEntity
  8
3
  6
Continuous
 62
     1
100
AcDbLine
 10
1119.38
 20
743.410001832
 30
0.0
 11
1119.38
 21
739.410001832
 31
0.0
  0
LINE
  5
37A
330
1F
100
AcDbEntity
  8
3
  6
Continuous
 62
     1
100
AcDbLine
 10
1117.38
 20
741.410001832
 30
0.0
 11
1121.38
 21
741.410001832
 31
0.0
  0
ARC
  5
37B
330
1F
100
AcDbEntity
  8
3
  6
Continuous
 62
     1
100
AcDbCircle
 10
1119.38
 20
741.410001832
 30
0.0
 40
2.0
100
AcDbArc
 50
90.0
 51
180.0
  0
ARC
  5
37C
330
1F
100
AcDbEntity
  8
3
  6
Continuous
 62
     1
100
AcDbCircle
 10
1119.38
 20
837.410001832
 30
0.0
 40
2.0
100
AcDbArc
 50
180.0
 51
270.0
  0
LINE
  5
37D
330
1F
100
AcDbEntity
  8
3
  6
LTYPE2
 62
     2
100
AcDbLine
 10
1119.38
 20
835.410001832
 30
0.0
 11
1119.38
 21
743.410001832
 31
0.0
  0
LINE
  5
37E
330
1F
100
AcDbEntity
  8
3
  6
Continuous
 62
     1
100
AcDbLine
 10
1121.38
 20
837.410001832
 30
0.0
 11
1121.38
 21
741.410001832
 31
0.0
  0
LINE
  5
37F
330
1F
100
AcDbEntity
  8
3
  6
Continuous
 62
     1
100
AcDbLine
 10
1117.38
 20
837.410001832
 30
0.0
 11
1121.38
 21
837.410001832
 31
0.0
  0
LINE
  5
380
330
1F
100
AcDbEntity
  8
3
  6
Continuous
 62
     1
100
AcDbLine
 10
1119.38
 20
835.410001832
 30
0.0
 11
1119.38
 21
839.410001832
 31
0.0
  0
LWPOLYLINE
  5
382
330
1F
100
AcDbEntity
  8
3
  6
Continuous
 62
     1
100
AcDbPolyline
 90
     3
 70
   128
 43
0.0
 10
81.38
 20
741.410001832
 42
0.414213562
 10
79.38
 20
743.410001832
 42
0.0
 10
79.38
 20
739.410001832
 42
0.0
  0
LINE
  5
383
330
1F
100
AcDbEntity
  8
3
  6
Continuous
 62
     1
100
AcDbLine
 10
81.38
 20
741.410001832
 30
0.0
 11
77.38
 21
741.410001832
 31
0.0
  0
LINE
  5
384
330
1F
100
AcDbEntity
  8
3
  6
LTYPE2
 62
     2
100
AcDbLine
 10
79.38
 20
835.410001832
 30
0.0
 11
79.38
 21
743.410001832
 31
0.0
  0
ARC
  5
385
330
1F
100
AcDbEntity
  8
3
  6
Continuous
 62
     1
100
AcDbCircle
 10
79.38
 20
837.410001832
 30
0.0
 40
2.0
100
AcDbArc
 50
270.0
 51
0.0
  0
LINE
  5
386
330
1F
100
AcDbEntity
  8
3
  6
Continuous
 62
     1
100
AcDbLine
 10
79.38
 20
835.410001832
 30
0.0
 11
79.38
 21
839.410001832
 31
0.0
  0
LWPOLYLINE
  5
388
330
1F
100
AcDbEntity
  8
3
  6
Continuous
 62
     1
100
AcDbPolyline
 90
     3
 70
   128
 43
0.0
 10
81.38
 20
837.410001832
 10
77.38
 20
837.410001832
 10
77.38
 20
741.410001832
  0
LINE
  5
389
330
1F
100
AcDbEntity
  8
3
  6
LTYPE2
 62
     2
100
AcDbLine
 10
674.38
 20
837.410001832
 30
0.0
 11
1117.38
 21
837.410001832
 31
0.0
  0
LINE
  5
38A
330
1F
100
AcDbEntity
  8
3
  6
LTYPE2
 62
     2
100
AcDbLine
 10
81.38
 20
837.410001832
 30
0.0
 11
524.38
 21
837.410001832
 31
0.0
  0
LINE
  5
38B
330
1F
100
AcDbEntity
  8
3
  6
LTYPE2
 62
     2
100
AcDbLine
 10
674.38
 20
741.410001832
 30
0.0
 11
1117.38
 21
741.410001832
 31
0.0
  0
LINE
  5
38C
330
1F
100
AcDbEntity
  8
3
  6
LTYPE2
 62
     2
100
AcDbLine
 10
81.38
 20
741.410001832
 30
0.0
 11
524.38
 21
741.410001832
 31
0.0
  0
LINE
  5
38D
330
1F
100
AcDbEntity
  8
3
  6
Continuous
 62
     1
100
AcDbLine
 10
79.38
 20
739.410001832
 30
0.0
 11
524.38
 21
739.410001832
 31
0.0
  0
LINE
  5
38E
330
1F
100
AcDbEntity
  8
3
  6
Continuous
 62
     1
100
AcDbLine
 10
674.38
 20
739.410001832
 30
0.0
 11
1119.38
 21
739.410001832
 31
0.0
  0
LINE
  5
38F
330
1F
100
AcDbEntity
  8
3
  6
LTYPE2
 62
     2
100
AcDbLine
 10
524.38
 20
739.410001832
 30
0.0
 11
674.38
 21
739.410001832
 31
0.0
  0
LINE
  5
390
330
1F
100
AcDbEntity
  8
3
  6
Continuous
 62
     1
100
AcDbLine
 10
674.38
 20
839.410001832
 30
0.0
 11
1119.38
 21
839.410001832
 31
0.0
  0
LINE
  5
391
330
1F
100
AcDbEntity
  8
3
  6
Continuous
 62
     1
100
AcDbLine
 10
79.38
 20
839.410001832
 30
0.0
 11
524.38
 21
839.410001832
 31
0.0
  0
LINE
  5
392
330
1F
100
AcDbEntity
  8
3
  6
LTYPE2
 62
     2
100
AcDbLine
 10
524.38
 20
839.410001832
 30
0.0
 11
674.38
 21
839.410001832
 31
0.0
  0
CIRCLE
  5
393
330
1F
100
AcDbEntity
  8
5
  6
Continuous
 62
     1
100
AcDbCircle
 10
659.38
 20
849.410001832
 30
0.0
 40
5.1
  0
CIRCLE
  5
394
330
1F
100
AcDbEntity
  8
5
  6
Continuous
 62
     1
100
AcDbCircle
 10
599.38
 20
849.410001832
 30
0.0
 40
5.1
  0
CIRCLE
  5
395
330
1F
100
AcDbEntity
  8
5
  6
Continuous
 62
     1
100
AcDbCircle
 10
539.38
 20
849.410001832
 30
0.0
 40
5.1
  0
CIRCLE
  5
396
330
1F
100
AcDbEntity
  8
5
  6
Continuous
 62
     1
100
AcDbCircle
 10
539.38
 20
789.410001832
 30
0.0
 40
5.1
  0
CIRCLE
  5
397
330
1F
100
AcDbEntity
  8
5
  6
Continuous
 62
     1
100
AcDbCircle
 10
539.38
 20
729.410001832
 30
0.0
 40
5.1
  0
CIRCLE
  5
398
330
1F
100
AcDbEntity
  8
5
  6
Continuous
 62
     1
100
AcDbCircle
 10
599.38
 20
729.410001832
 30
0.0
 40
5.1
  0
CIRCLE
  5
399
330
1F
100
AcDbEntity
  8
5
  6
Continuous
 62
     1
100
AcDbCircle
 10
659.38
 20
729.410001832
 30
0.0
 40
5.1
  0
CIRCLE
  5
39A
330
1F
100
AcDbEntity
  8
5
  6
Continuous
 62
     1
100
AcDbCircle
 10
659.38
 20
789.410001832
 30
0.0
 40
5.1
  0
LINE
  5
39B
330
1F
100
AcDbEntity
  8
7
  6
Continuous
 62
     2
100
AcDbLine
 10
664.38
 20
789.410001832
 30
0.0
 11
756.07
 21
789.410001832
 31
0.0
  0
LINE
  5
39C
330
1F
100
AcDbEntity
  8
7
  6
Continuous
 62
     2
100
AcDbLine
 10
746.07
 20
789.410001832
 30
0.0
 11
749.305238064
 21
801.484074661
 31
0.0
  0
LINE
  5
39D
330
1F
100
AcDbEntity
  8
7
  6
Continuous
 62
     2
100
AcDbLine
 10
746.07
 20
789.410001832
 30
0.0
 11
742.834761936
 21
801.484074661
 31
0.0
  0
LWPOLYLINE
  5
39F
330
1F
100
AcDbEntity
  8
7
  6
Continuous
 62
     2
100
AcDbPolyline
 90
     3
 70
   128
 43
0.0
 10
746.07
 20
789.410001832
 10
746.07
 20
849.410001832
 10
742.834761936
 20
837.335929004
  0
LINE
  5
3A0
330
1F
100
AcDbEntity
  8
7
  6
Continuous
 62
     2
100
AcDbLine
 10
746.07
 20
849.410001832
 30
0.0
 11
749.305238064
 21
837.335929004
 31
0.0
  0
LINE
  5
3A1
330
1F
100
AcDbEntity
  8
7
  6
Continuous
 62
     2
100
AcDbLine
 10
664.38
 20
849.410001832
 30
0.0
 11
756.07
 21
849.410001832
 31
0.0
  0
MTEXT
  5
3A2
330
1F
100
AcDbEntity
  8
7
  6
Continuous
 62
     2
100
AcDbMText
 10
741.07
 20
809.660001832
 30
0.0
 40
15.0
 41
39.0
 71
     7
 72
     1
  1
\T1.167;\W0.600;６０
  7
KANJI7
 11
0.0
 21
1.0
 31
0.0
 73
     1
 44
1.0
  0
LINE
  5
3A3
330
1F
100
AcDbEntity
  8
7
  6
Continuous
 62
     2
100
AcDbLine
 10
746.07
 20
789.410001832
 30
0.0
 11
742.834761936
 21
777.335929004
 31
0.0
  0
LINE
  5
3A4
330
1F
100
AcDbEntity
  8
7
  6
Continuous
 62
     2
100
AcDbLine
 10
746.07
 20
789.410001832
 30
0.0
 11
749.305238064
 21
777.335929004
 31
0.0
  0
LWPOLYLINE
  5
3A6
330
1F
100
AcDbEntity
  8
7
  6
Continuous
 62
     2
100
AcDbPolyline
 90
     3
 70
   128
 43
0.0
 10
746.07
 20
789.410001832
 10
746.07
 20
729.410001832
 10
749.305238064
 20
741.484074661
  0
LINE
  5
3A7
330
1F
100
AcDbEntity
  8
7
  6
Continuous
 62
     2
100
AcDbLine
 10
746.07
 20
729.410001832
 30
0.0
 11
742.834761936
 21
741.484074661
 31
0.0
  0
LINE
  5
3A8
330
1F
100
AcDbEntity
  8
7
  6
Continuous
 62
     2
100
AcDbLine
 10
664.38
 20
729.410001832
 30
0.0
 11
756.07
 21
729.410001832
 31
0.0
  0
MTEXT
  5
3A9
330
1F
100
AcDbEntity
  8
7
  6
Continuous
 62
     2
100
AcDbMText
 10
741.07
 20
749.660001832
 30
0.0
 40
15.0
 41
39.0
 71
     7
 72
     1
  1
\T1.167;\W0.600;６０
  7
KANJI7
 11
0.0
 21
1.0
 31
0.0
 73
     1
 44
1.0
  0
LINE
  5
3AA
330
1F
100
AcDbEntity
  8
7
  6
Continuous
 62
     2
100
AcDbLine
 10
669.38
 20
714.410001832
 30
0.0
 11
789.27
 21
714.410001832
 31
0.0
  0
LINE
  5
3AB
330
1F
100
AcDbEntity
  8
7
  6
Continuous
 62
     2
100
AcDbLine
 10
779.27
 20
714.410001832
 30
0.0
 11
782.505238064
 21
726.484074661
 31
0.0
  0
LINE
  5
3AC
330
1F
100
AcDbEntity
  8
7
  6
Continuous
 62
     2
100
AcDbLine
 10
779.27
 20
714.410001832
 30
0.0
 11
776.034761936
 21
726.484074661
 31
0.0
  0
LWPOLYLINE
  5
3AE
330
1F
100
AcDbEntity
  8
7
  6
Continuous
 62
     2
100
AcDbPolyline
 90
     3
 70
   128
 43
0.0
 10
779.27
 20
714.410001832
 10
779.27
 20
864.410001832
 10
776.034761936
 20
852.335929004
  0
LINE
  5
3AF
330
1F
100
AcDbEntity
  8
7
  6
Continuous
 62
     2
100
AcDbLine
 10
779.27
 20
864.410001832
 30
0.0
 11
782.505238064
 21
852.335929004
 31
0.0
  0
LINE
  5
3B0
330
1F
100
AcDbEntity
  8
7
  6
Continuous
 62
     2
100
AcDbLine
 10
669.38
 20
864.410001832
 30
0.0
 11
789.27
 21
864.410001832
 31
0.0
  0
MTEXT
  5
3B1
330
1F
100
AcDbEntity
  8
7
  6
Continuous
 62
     2
100
AcDbMText
 10
774.27
 20
774.410001832
 30
0.0
 40
15.0
 41
60.0
 71
     7
 72
     1
  1
\T1.167;\W0.600;１５０
  7
KANJI7
 11
0.0
 21
1.0
 31
0.0
 73
     1
 44
1.0
  0
LINE
  5
3B2
330
1F
100
AcDbEntity
  8
7
  6
Continuous
 62
     2
100
AcDbLine
 10
599.38
 20
854.410001832
 30
0.0
 11
599.38
 21
901.080001832
 31
0.0
  0
LINE
  5
3B3
330
1F
100
AcDbEntity
  8
7
  6
Continuous
 62
     2
100
AcDbLine
 10
599.38
 20
891.080001832
 30
0.0
 11
611.454072829
 21
887.844763769
 31
0.0
  0
LINE
  5
3B4
330
1F
100
AcDbEntity
  8
7
  6
Continuous
 62
     2
100
AcDbLine
 10
599.38
 20
891.080001832
 30
0.0
 11
611.454072829
 21
894.315239896
 31
0.0
  0
LWPOLYLINE
  5
3B6
330
1F
100
AcDbEntity
  8
7
  6
Continuous
 62
     2
100
AcDbPolyline
 90
     3
 70
   128
 43
0.0
 10
599.38
 20
891.080001832
 10
659.38
 20
891.080001832
 10
647.305927171
 20
894.315239896
  0
LINE
  5
3B7
330
1F
100
AcDbEntity
  8
7
  6
Continuous
 62
     2
100
AcDbLine
 10
659.38
 20
891.080001832
 30
0.0
 11
647.305927171
 21
887.844763769
 31
0.0
  0
LINE
  5
3B8
330
1F
100
AcDbEntity
  8
7
  6
Continuous
 62
     2
100
AcDbLine
 10
659.38
 20
854.410001832
 30
0.0
 11
659.38
 21
901.080001832
 31
0.0
  0
MTEXT
  5
3B9
330
1F
100
AcDbEntity
  8
7
  6
Continuous
 62
     2
100
AcDbMText
 10
619.63
 20
896.080001832
 30
0.0
 40
15.0
 41
39.0
 71
     7
 72
     1
  1
\T1.167;\W0.600;６０
  7
KANJI7
 73
     1
 44
1.0
  0
LINE
  5
3BA
330
1F
100
AcDbEntity
  8
7
  6
Continuous
 62
     2
100
AcDbLine
 10
599.38
 20
891.080001832
 30
0.0
 11
587.305927171
 21
894.315239896
 31
0.0
  0
LINE
  5
3BB
330
1F
100
AcDbEntity
  8
7
  6
Continuous
 62
     2
100
AcDbLine
 10
599.38
 20
891.080001832
 30
0.0
 11
587.305927171
 21
887.844763769
 31
0.0
  0
LWPOLYLINE
  5
3BD
330
1F
100
AcDbEntity
  8
7
  6
Continuous
 62
     2
100
AcDbPolyline
 90
     3
 70
   128
 43
0.0
 10
599.38
 20
891.080001832
 10
539.38
 20
891.080001832
 10
551.454072829
 20
887.844763769
  0
LINE
  5
3BE
330
1F
100
AcDbEntity
  8
7
  6
Continuous
 62
     2
100
AcDbLine
 10
539.38
 20
891.080001832
 30
0.0
 11
551.454072829
 21
894.315239896
 31
0.0
  0
LINE
  5
3BF
330
1F
100
AcDbEntity
  8
7
  6
Continuous
 62
     2
100
AcDbLine
 10
539.38
 20
854.410001832
 30
0.0
 11
539.38
 21
901.080001832
 31
0.0
  0
MTEXT
  5
3C0
330
1F
100
AcDbEntity
  8
7
  6
Continuous
 62
     2
100
AcDbMText
 10
559.63
 20
896.080001832
 30
0.0
 40
15.0
 41
39.0
 71
     7
 72
     1
  1
\T1.167;\W0.600;６０
  7
KANJI7
 73
     1
 44
1.0
  0
LINE
  5
3C1
330
1F
100
AcDbEntity
  8
7
  6
Continuous
 62
     2
100
AcDbLine
 10
524.38
 20
859.410001832
 30
0.0
 11
524.38
 21
933.090001832
 31
0.0
  0
LINE
  5
3C2
330
1F
100
AcDbEntity
  8
7
  6
Continuous
 62
     2
100
AcDbLine
 10
524.38
 20
923.090001832
 30
0.0
 11
536.454072829
 21
919.854763769
 31
0.0
  0
LINE
  5
3C3
330
1F
100
AcDbEntity
  8
7
  6
Continuous
 62
     2
100
AcDbLine
 10
524.38
 20
923.090001832
 30
0.0
 11
536.454072829
 21
926.325239896
 31
0.0
  0
LWPOLYLINE
  5
3C5
330
1F
100
AcDbEntity
  8
7
  6
Continuous
 62
     2
100
AcDbPolyline
 90
     3
 70
   128
 43
0.0
 10
524.38
 20
923.090001832
 10
674.38
 20
923.090001832
 10
662.305927171
 20
926.325239896
  0
LINE
  5
3C6
330
1F
100
AcDbEntity
  8
7
  6
Continuous
 62
     2
100
AcDbLine
 10
674.38
 20
923.090001832
 30
0.0
 11
662.305927171
 21
919.854763769
 31
0.0
  0
LINE
  5
3C7
330
1F
100
AcDbEntity
  8
7
  6
Continuous
 62
     2
100
AcDbLine
 10
674.38
 20
859.410001832
 30
0.0
 11
674.38
 21
933.090001832
 31
0.0
  0
MTEXT
  5
3C8
330
1F
100
AcDbEntity
  8
7
  6
Continuous
 62
     2
100
AcDbMText
 10
584.38
 20
928.090001832
 30
0.0
 40
15.0
 41
60.0
 71
     7
 72
     1
  1
\T1.167;\W0.600;１５０
  7
KANJI7
 73
     1
 44
1.0
  0
LINE
  5
3C9
330
1F
100
AcDbEntity
  8
7
  6
Continuous
 62
     2
100
AcDbLine
 10
535.64
 20
777.270001832
 30
0.0
 11
526.192268975
 21
769.085236809
 31
0.0
  0
LINE
  5
3CA
330
1F
100
AcDbEntity
  8
7
  6
Continuous
 62
     2
100
AcDbLine
 10
535.64
 20
777.270001832
 30
0.0
 11
531.550407436
 21
765.457921886
 31
0.0
  0
LWPOLYLINE
  5
3CC
330
1F
100
AcDbEntity
  8
7
  6
Continuous
 62
     2
100
AcDbPolyline
 90
     3
 70
   128
 43
0.0
 10
535.64
 20
777.270001832
 10
473.02
 20
684.770001832
 10
410.02
 20
684.770001832
  0
MTEXT
  5
3CD
330
1F
100
AcDbEntity
  8
7
  6
Continuous
 62
     2
100
AcDbMText
 10
410.02
 20
689.770001832
 30
0.0
 40
15.0
 41
126.0
 71
     7
 72
     1
  1
\T1.111;\W0.548;８－φ１０．２
  7
KANJI8
 73
     1
 44
1.0
  0
LINE
  5
3CE
330
1F
100
AcDbEntity
  8
2
  6
LTYPE2
 62
     2
100
AcDbLine
 10
81.88
 20
718.410001832
 30
0.0
 11
81.88
 21
739.410001832
 31
0.0
  0
LINE
  5
3CF
330
1F
100
AcDbEntity
  8
2
  6
Continuous
 62
     1
100
AcDbLine
 10
94.88
 20
730.117108614
 30
0.0
 11
94.88
 21
739.410001832
 31
0.0
  0
LINE
  5
3D0
330
1F
100
AcDbEntity
  8
2
  6
Continuous
 62
     1
100
AcDbLine
 10
79.88
 20
718.410001832
 30
0.0
 11
79.88
 21
739.410001832
 31
0.0
  0
LINE
  5
3D1
330
1F
100
AcDbEntity
  8
2
  6
Continuous
 62
     1
100
AcDbLine
 10
1103.88
 20
730.117108614
 30
0.0
 11
1103.88
 21
739.410001832
 31
0.0
  0
LINE
  5
3D2
330
1F
100
AcDbEntity
  8
2
  6
LTYPE2
 62
     2
100
AcDbLine
 10
1116.88
 20
718.410001832
 30
0.0
 11
1116.88
 21
739.410001832
 31
0.0
  0
LINE
  5
3D3
330
1F
100
AcDbEntity
  8
2
  6
Continuous
 62
     1
100
AcDbLine
 10
1118.88
 20
718.410001832
 30
0.0
 11
1118.88
 21
739.410001832
 31
0.0
  0
LINE
  5
3D4
330
1F
100
AcDbEntity
  8
2
  6
LTYPE2
 62
     2
100
AcDbLine
 10
89.88
 20
766.410031132
 30
0.0
 11
79.88
 21
766.410031132
 31
0.0
  0
ARC
  5
3D5
330
1F
100
AcDbEntity
  8
2
  6
LTYPE2
 62
     2
100
AcDbCircle
 10
89.88
 20
761.410031132
 30
0.0
 40
5.0
100
AcDbArc
 50
0.0
 51
90.0
  0
LINE
  5
3D6
330
1F
100
AcDbEntity
  8
2
  6
LTYPE2
 62
     2
100
AcDbLine
 10
94.88
 20
739.410001832
 30
0.0
 11
94.88
 21
761.410031132
 31
0.0
  0
LINE
  5
3D7
330
1F
100
AcDbEntity
  8
2
  6
LTYPE2
 62
     2
100
AcDbLine
 10
81.88
 20
814.410001832
 30
0.0
 11
79.88
 21
814.410001832
 31
0.0
  0
LINE
  5
3D8
330
1F
100
AcDbEntity
  8
2
  6
LTYPE2
 62
     2
100
AcDbLine
 10
81.88
 20
766.410031132
 30
0.0
 11
81.88
 21
814.410001832
 31
0.0
  0
LINE
  5
3D9
330
1F
100
AcDbEntity
  8
2
  6
LTYPE2
 62
     2
100
AcDbLine
 10
81.88
 20
785.079874813
 30
0.0
 11
87.88
 21
785.079874813
 31
0.0
  0
LINE
  5
3DA
330
1F
100
AcDbEntity
  8
2
  6
LTYPE2
 62
     2
100
AcDbLine
 10
81.88
 20
780.749747794
 30
0.0
 11
87.88
 21
780.749747794
 31
0.0
  0
LINE
  5
3DB
330
1F
100
AcDbEntity
  8
2
  6
LTYPE2
 62
     2
100
AcDbLine
 10
81.88
 20
798.07025587
 30
0.0
 11
87.88
 21
798.07025587
 31
0.0
  0
LINE
  5
3DC
330
1F
100
AcDbEntity
  8
2
  6
LTYPE2
 62
     2
100
AcDbLine
 10
81.88
 20
793.740128851
 30
0.0
 11
87.88
 21
793.740128851
 31
0.0
  0
ARC
  5
3DD
330
1F
100
AcDbEntity
  8
2
  6
LTYPE2
 62
     2
100
AcDbCircle
 10
87.067499845
 20
795.905192361
 30
0.0
 40
2.312500155
100
AcDbArc
 50
290.569995671
 51
69.430004328
  0
LWPOLYLINE
  5
3E0
330
1F
100
AcDbEntity
  8
2
  6
LTYPE2
 62
     2
100
AcDbPolyline
 90
     3
 70
   128
 43
0.0
 10
87.880355539
 20
793.739081214
 42
-0.346410138
 10
87.880355504
 20
785.080879198
 42
-0.692577528
 10
87.880000039
 20
780.74974771
 42
0.0
  0
LINE
  5
3E1
330
1F
100
AcDbEntity
  8
2
  6
LTYPE2
 62
     2
100
AcDbLine
 10
89.38
 20
795.905177102
 30
0.0
 11
89.38
 21
782.915365014
 31
0.0
  0
LINE
  5
3E2
330
1F
100
AcDbEntity
  8
2
  6
LTYPE2
 62
     2
100
AcDbLine
 10
79.88
 20
739.410001832
 30
0.0
 11
79.88
 21
814.410001832
 31
0.0
  0
LINE
  5
3E3
330
1F
100
AcDbEntity
  8
2
  6
LTYPE2
 62
     2
100
AcDbLine
 10
1108.88
 20
766.410031132
 30
0.0
 11
1118.88
 21
766.410031132
 31
0.0
  0
ARC
  5
3E4
330
1F
100
AcDbEntity
  8
2
  6
LTYPE2
 62
     2
100
AcDbCircle
 10
1108.88
 20
761.410031132
 30
0.0
 40
5.0
100
AcDbArc
 50
90.0
 51
180.0
  0
LINE
  5
3E5
330
1F
100
AcDbEntity
  8
2
  6
LTYPE2
 62
     2
100
AcDbLine
 10
1103.88
 20
739.410001832
 30
0.0
 11
1103.88
 21
761.410031132
 31
0.0
  0
LINE
  5
3E6
330
1F
100
AcDbEntity
  8
2
  6
LTYPE2
 62
     2
100
AcDbLine
 10
1116.88
 20
814.410001832
 30
0.0
 11
1118.88
 21
814.410001832
 31
0.0
  0
LINE
  5
3E7
330
1F
100
AcDbEntity
  8
2
  6
LTYPE2
 62
     2
100
AcDbLine
 10
1116.88
 20
766.410031132
 30
0.0
 11
1116.88
 21
814.410001832
 31
0.0
  0
LINE
  5
3E8
330
1F
100
AcDbEntity
  8
2
  6
LTYPE2
 62
     2
100
AcDbLine
 10
1116.88
 20
785.079874813
 30
0.0
 11
1110.88
 21
785.079874813
 31
0.0
  0
LINE
  5
3E9
330
1F
100
AcDbEntity
  8
2
  6
LTYPE2
 62
     2
100
AcDbLine
 10
1116.88
 20
780.749747794
 30
0.0
 11
1110.88
 21
780.749747794
 31
0.0
  0
LINE
  5
3EA
330
1F
100
AcDbEntity
  8
2
  6
LTYPE2
 62
     2
100
AcDbLine
 10
1116.88
 20
798.07025587
 30
0.0
 11
1110.88
 21
798.07025587
 31
0.0
  0
LINE
  5
3EB
330
1F
100
AcDbEntity
  8
2
  6
LTYPE2
 62
     2
100
AcDbLine
 10
1116.88
 20
793.740128851
 30
0.0
 11
1110.88
 21
793.740128851
 31
0.0
  0
ARC
  5
3EC
330
1F
100
AcDbEntity
  8
2
  6
LTYPE2
 62
     2
100
AcDbCircle
 10
1111.692500155
 20
795.905192361
 30
0.0
 40
2.312500155
100
AcDbArc
 50
110.569995672
 51
249.430004329
  0
LWPOLYLINE
  5
3EF
330
1F
100
AcDbEntity
  8
2
  6
LTYPE2
 62
     2
100
AcDbPolyline
 90
     3
 70
   128
 43
0.0
 10
1110.879644461
 20
793.739081214
 42
0.346410138
 10
1110.879644496
 20
785.080879198
 42
0.692577528
 10
1110.879999961
 20
780.74974771
 42
0.0
  0
LINE
  5
3F0
330
1F
100
AcDbEntity
  8
2
  6
LTYPE2
 62
     2
100
AcDbLine
 10
1118.88
 20
739.410001832
 30
0.0
 11
1118.88
 21
814.410001832
 31
0.0
  0
LINE
  5
3F1
330
1F
100
AcDbEntity
  8
6
  6
LTYPE1
 62
     2
100
AcDbLine
 10
110.687357809
 20
869.409999647
 30
0.0
 11
1091.08
 21
869.409999647
 31
0.0
  0
LINE
  5
3F2
330
1F
100
AcDbEntity
  8
6
  6
LTYPE1
 62
     2
100
AcDbLine
 10
1092.86705735
 20
868.113209757
 30
0.0
 11
1099.102968711
 21
851.510095757
 31
0.0
  0
LINE
  5
3F3
330
1F
100
AcDbEntity
  8
6
  6
LTYPE1
 62
     2
100
AcDbLine
 10
102.633111683
 20
851.481364089
 30
0.0
 11
108.812669006
 21
868.106807954
 31
0.0
  0
ARC
  5
3F4
330
1F
100
AcDbEntity
  8
6
  6
LTYPE1
 62
     2
100
AcDbCircle
 10
1090.994760507
 20
867.409999675
 30
0.0
 40
1.999999971
100
AcDbArc
 50
20.585518355
 51
90.0
  0
ARC
  5
3F5
330
1F
100
AcDbEntity
  8
6
  6
LTYPE1
 62
     2
100
AcDbCircle
 10
110.687357809
 20
867.409999675
 30
0.0
 40
1.999999971
100
AcDbArc
 50
90.0
 51
159.610263522
  0
ARC
  5
3F6
330
1F
100
AcDbEntity
  8
6
  6
LTYPE1
 62
     2
100
AcDbCircle
 10
1080.380000286
 20
844.47799494
 30
0.0
 40
19.999999714
100
AcDbArc
 50
0.0
 51
20.585518355
  0
ARC
  5
3F7
330
1F
100
AcDbEntity
  8
6
  6
LTYPE1
 62
     2
100
AcDbCircle
 10
121.379999714
 20
844.513281302
 30
0.0
 40
19.999999714
100
AcDbArc
 50
159.610263522
 51
180.0
  0
LINE
  5
3F8
330
1F
100
AcDbEntity
  8
6
  6
LTYPE1
 62
     2
100
AcDbLine
 10
196.379998643
 20
869.409999647
 30
0.0
 11
196.379998643
 21
869.053687865
 31
0.0
  0
LWPOLYLINE
  5
3FA
330
1F
100
AcDbEntity
  8
6
  6
LTYPE1
 62
     2
100
AcDbPolyline
 90
     3
 70
   128
 43
0.0
 10
180.379998872
 20
869.409999647
 10
180.379998872
 20
869.053687865
 10
196.379998643
 20
869.053687865
  0
LINE
  5
3FB
330
1F
100
AcDbEntity
  8
6
  6
LTYPE1
 62
     2
100
AcDbLine
 10
549.836242799
 20
711.410001904
 30
0.0
 11
549.836242799
 21
716.410001832
 31
0.0
  0
LINE
  5
3FC
330
1F
100
AcDbEntity
  8
6
  6
LTYPE1
 62
     2
100
AcDbLine
 10
538.036242967
 20
711.410001904
 30
0.0
 11
538.036242967
 21
716.410001832
 31
0.0
  0
LINE
  5
3FD
330
1F
100
AcDbEntity
  8
6
  6
LTYPE1
 62
     2
100
AcDbLine
 10
538.036242967
 20
711.410001904
 30
0.0
 11
549.836242799
 21
711.410001904
 31
0.0
  0
LINE
  5
3FE
330
1F
100
AcDbEntity
  8
6
  6
LTYPE1
 62
     2
100
AcDbLine
 10
101.38
 20
729.410001832
 30
0.0
 11
101.38
 21
844.513281302
 31
0.0
  0
LINE
  5
3FF
330
1F
100
AcDbEntity
  8
6
  6
LTYPE1
 62
     2
100
AcDbLine
 10
906.88
 20
716.410001832
 30
0.0
 11
291.88
 21
716.410001832
 31
0.0
  0
LINE
  5
400
330
1F
100
AcDbEntity
  8
6
  6
LTYPE1
 62
     2
100
AcDbLine
 10
1100.38
 20
844.47799494
 30
0.0
 11
1100.38
 21
729.410001832
 31
0.0
  0
LINE
  5
401
330
1F
100
AcDbEntity
  8
2
  6
LTYPE2
 62
     2
100
AcDbLine
 10
819.38
 20
836.910001832
 30
0.0
 11
819.38
 21
741.910001832
 31
0.0
  0
LINE
  5
402
330
1F
100
AcDbEntity
  8
2
  6
LTYPE2
 62
     2
100
AcDbLine
 10
379.38
 20
836.910001832
 30
0.0
 11
379.38
 21
741.910001832
 31
0.0
  0
LINE
  5
403
330
1F
100
AcDbEntity
  8
2
  6
LTYPE2
 62
     2
100
AcDbLine
 10
524.38
 20
834.910001832
 30
0.0
 11
379.38
 21
834.910001832
 31
0.0
  0
LINE
  5
404
330
1F
100
AcDbEntity
  8
2
  6
LTYPE2
 62
     2
100
AcDbLine
 10
819.38
 20
834.910001832
 30
0.0
 11
674.38
 21
834.910001832
 31
0.0
  0
LINE
  5
405
330
1F
100
AcDbEntity
  8
2
  6
LTYPE2
 62
     2
100
AcDbLine
 10
674.38
 20
743.910001832
 30
0.0
 11
819.38
 21
743.910001832
 31
0.0
  0
LINE
  5
406
330
1F
100
AcDbEntity
  8
2
  6
LTYPE2
 62
     2
100
AcDbLine
 10
379.38
 20
743.910001832
 30
0.0
 11
524.38
 21
743.910001832
 31
0.0
  0
CIRCLE
  5
407
330
1F
100
AcDbEntity
  8
4
  6
Continuous
 62
     2
100
AcDbCircle
 10
399.38
 20
821.910001832
 30
0.0
 40
6.5
  0
LWPOLYLINE
  5
409
330
1F
100
AcDbEntity
  8
4
  6
Continuous
 62
     2
100
AcDbPolyline
 90
     6
 70
   129
 43
0.0
 10
403.18
 20
828.410001832
 10
395.58
 20
828.410001832
 10
391.88
 20
821.910001832
 10
395.58
 20
815.410001832
 10
403.18
 20
815.410001832
 10
406.88
 20
821.910001832
  0
CIRCLE
  5
40A
330
1F
100
AcDbEntity
  8
4
  6
Continuous
 62
     2
100
AcDbCircle
 10
399.38
 20
821.910001832
 30
0.0
 40
7.7
  0
CIRCLE
  5
40B
330
1F
100
AcDbEntity
  8
4
  6
Continuous
 62
     2
100
AcDbCircle
 10
399.38
 20
821.910001832
 30
0.0
 40
8.5
  0
CIRCLE
  5
40C
330
1F
100
AcDbEntity
  8
4
  6
Continuous
 62
     2
100
AcDbCircle
 10
499.38
 20
821.910001832
 30
0.0
 40
6.5
  0
LWPOLYLINE
  5
40E
330
1F
100
AcDbEntity
  8
4
  6
Continuous
 62
     2
100
AcDbPolyline
 90
     6
 70
   129
 43
0.0
 10
503.18
 20
828.410001832
 10
495.58
 20
828.410001832
 10
491.88
 20
821.910001832
 10
495.58
 20
815.410001832
 10
503.18
 20
815.410001832
 10
506.88
 20
821.910001832
  0
CIRCLE
  5
40F
330
1F
100
AcDbEntity
  8
4
  6
Continuous
 62
     2
100
AcDbCircle
 10
499.38
 20
821.910001832
 30
0.0
 40
7.7
  0
CIRCLE
  5
410
330
1F
100
AcDbEntity
  8
4
  6
Continuous
 62
     2
100
AcDbCircle
 10
499.38
 20
821.910001832
 30
0.0
 40
8.5
  0
CIRCLE
  5
411
330
1F
100
AcDbEntity
  8
4
  6
Continuous
 62
     2
100
AcDbCircle
 10
499.38
 20
756.910001832
 30
0.0
 40
6.5
  0
LWPOLYLINE
  5
413
330
1F
100
AcDbEntity
  8
4
  6
Continuous
 62
     2
100
AcDbPolyline
 90
     6
 70
   129
 43
0.0
 10
503.18
 20
763.410001832
 10
495.58
 20
763.410001832
 10
491.88
 20
756.910001832
 10
495.58
 20
750.410001832
 10
503.18
 20
750.410001832
 10
506.88
 20
756.910001832
  0
CIRCLE
  5
414
330
1F
100
AcDbEntity
  8
4
  6
Continuous
 62
     2
100
AcDbCircle
 10
499.38
 20
756.910001832
 30
0.0
 40
7.7
  0
CIRCLE
  5
415
330
1F
100
AcDbEntity
  8
4
  6
Continuous
 62
     2
100
AcDbCircle
 10
499.38
 20
756.910001832
 30
0.0
 40
8.5
  0
CIRCLE
  5
416
330
1F
100
AcDbEntity
  8
4
  6
Continuous
 62
     2
100
AcDbCircle
 10
399.38
 20
756.910001832
 30
0.0
 40
6.5
  0
LWPOLYLINE
  5
418
330
1F
100
AcDbEntity
  8
4
  6
Continuous
 62
     2
100
AcDbPolyline
 90
     6
 70
   129
 43
0.0
 10
403.18
 20
763.410001832
 10
395.58
 20
763.410001832
 10
391.88
 20
756.910001832
 10
395.58
 20
750.410001832
 10
403.18
 20
750.410001832
 10
406.88
 20
756.910001832
  0
CIRCLE
  5
419
330
1F
100
AcDbEntity
  8
4
  6
Continuous
 62
     2
100
AcDbCircle
 10
399.38
 20
756.910001832
 30
0.0
 40
7.7
  0
CIRCLE
  5
41A
330
1F
100
AcDbEntity
  8
4
  6
Continuous
 62
     2
100
AcDbCircle
 10
399.38
 20
756.910001832
 30
0.0
 40
8.5
  0
CIRCLE
  5
41B
330
1F
100
AcDbEntity
  8
4
  6
Continuous
 62
     2
100
AcDbCircle
 10
699.38
 20
821.910001832
 30
0.0
 40
6.5
  0
LWPOLYLINE
  5
41D
330
1F
100
AcDbEntity
  8
4
  6
Continuous
 62
     2
100
AcDbPolyline
 90
     6
 70
   129
 43
0.0
 10
703.18
 20
828.410001832
 10
695.58
 20
828.410001832
 10
691.88
 20
821.910001832
 10
695.58
 20
815.410001832
 10
703.18
 20
815.410001832
 10
706.88
 20
821.910001832
  0
CIRCLE
  5
41E
330
1F
100
AcDbEntity
  8
4
  6
Continuous
 62
     2
100
AcDbCircle
 10
699.38
 20
821.910001832
 30
0.0
 40
7.7
  0
CIRCLE
  5
41F
330
1F
100
AcDbEntity
  8
4
  6
Continuous
 62
     2
100
AcDbCircle
 10
699.38
 20
821.910001832
 30
0.0
 40
8.5
  0
CIRCLE
  5
420
330
1F
100
AcDbEntity
  8
4
  6
Continuous
 62
     2
100
AcDbCircle
 10
699.38
 20
756.910001832
 30
0.0
 40
6.5
  0
LWPOLYLINE
  5
422
330
1F
100
AcDbEntity
  8
4
  6
Continuous
 62
     2
100
AcDbPolyline
 90
     6
 70
   129
 43
0.0
 10
703.18
 20
763.410001832
 10
695.58
 20
763.410001832
 10
691.88
 20
756.910001832
 10
695.58
 20
750.410001832
 10
703.18
 20
750.410001832
 10
706.88
 20
756.910001832
  0
CIRCLE
  5
423
330
1F
100
AcDbEntity
  8
4
  6
Continuous
 62
     2
100
AcDbCircle
 10
699.38
 20
756.910001832
 30
0.0
 40
7.7
  0
CIRCLE
  5
424
330
1F
100
AcDbEntity
  8
4
  6
Continuous
 62
     2
100
AcDbCircle
 10
699.38
 20
756.910001832
 30
0.0
 40
8.5
  0
CIRCLE
  5
425
330
1F
100
AcDbEntity
  8
4
  6
Continuous
 62
     2
100
AcDbCircle
 10
799.38
 20
756.910001832
 30
0.0
 40
6.5
  0
LWPOLYLINE
  5
427
330
1F
100
AcDbEntity
  8
4
  6
Continuous
 62
     2
100
AcDbPolyline
 90
     6
 70
   129
 43
0.0
 10
803.18
 20
763.410001832
 10
795.58
 20
763.410001832
 10
791.88
 20
756.910001832
 10
795.58
 20
750.410001832
 10
803.18
 20
750.410001832
 10
806.88
 20
756.910001832
  0
CIRCLE
  5
428
330
1F
100
AcDbEntity
  8
4
  6
Continuous
 62
     2
100
AcDbCircle
 10
799.38
 20
756.910001832
 30
0.0
 40
7.7
  0
CIRCLE
  5
429
330
1F
100
AcDbEntity
  8
4
  6
Continuous
 62
     2
100
AcDbCircle
 10
799.38
 20
756.910001832
 30
0.0
 40
8.5
  0
CIRCLE
  5
42A
330
1F
100
AcDbEntity
  8
4
  6
Continuous
 62
     2
100
AcDbCircle
 10
799.38
 20
821.910001832
 30
0.0
 40
6.5
  0
LWPOLYLINE
  5
42C
330
1F
100
AcDbEntity
  8
4
  6
Continuous
 62
     2
100
AcDbPolyline
 90
     6
 70
   129
 43
0.0
 10
803.18
 20
828.410001832
 10
795.58
 20
828.410001832
 10
791.88
 20
821.910001832
 10
795.58
 20
815.410001832
 10
803.18
 20
815.410001832
 10
806.88
 20
821.910001832
  0
CIRCLE
  5
42D
330
1F
100
AcDbEntity
  8
4
  6
Continuous
 62
     2
100
AcDbCircle
 10
799.38
 20
821.910001832
 30
0.0
 40
7.7
  0
CIRCLE
  5
42E
330
1F
100
AcDbEntity
  8
4
  6
Continuous
 62
     2
100
AcDbCircle
 10
799.38
 20
821.910001832
 30
0.0
 40
8.5
  0
LWPOLYLINE
  5
430
330
1F
100
AcDbEntity
  8
4
  6
Continuous
 62
     2
100
AcDbPolyline
 90
     4
 70
   129
 43
0.0
 10
1121.38
 20
797.910001832
 10
1121.38
 20
780.910001832
 10
1122.98
 20
780.910001832
 10
1122.98
 20
797.910001832
  0
LWPOLYLINE
  5
432
330
1F
100
AcDbEntity
  8
4
  6
Continuous
 62
     2
100
AcDbPolyline
 90
     4
 70
   129
 43
0.0
 10
1122.98
 20
781.710001832
 10
1124.98
 20
781.710001832
 10
1124.98
 20
797.110001832
 10
1122.98
 20
797.110001832
  0
LINE
  5
433
330
1F
100
AcDbEntity
  8
4
  6
Continuous
 62
     2
100
AcDbLine
 10
1124.98
 20
796.910001832
 30
0.0
 11
1129.58
 21
796.910001832
 31
0.0
  0
LINE
  5
434
330
1F
100
AcDbEntity
  8
4
  6
Continuous
 62
     2
100
AcDbLine
 10
1124.98
 20
781.910001832
 30
0.0
 11
1129.58
 21
781.910001832
 31
0.0
  0
LINE
  5
435
330
1F
100
AcDbEntity
  8
4
  6
Continuous
 62
     2
100
AcDbLine
 10
1124.98
 20
785.610001832
 30
0.0
 11
1129.58
 21
785.610001832
 31
0.0
  0
LINE
  5
436
330
1F
100
AcDbEntity
  8
4
  6
Continuous
 62
     2
100
AcDbLine
 10
1124.98
 20
793.210001832
 30
0.0
 11
1129.58
 21
793.210001832
 31
0.0
  0
LINE
  5
437
330
1F
100
AcDbEntity
  8
4
  6
Continuous
 62
     2
100
AcDbLine
 10
1130.28
 20
795.110001832
 30
0.0
 11
1130.28
 21
783.710001832
 31
0.0
  0
ARC
  5
438
330
1F
100
AcDbEntity
  8
4
  6
Continuous
 62
     2
100
AcDbCircle
 10
1127.48
 20
783.710001832
 30
0.0
 40
2.8
100
AcDbArc
 50
318.5
 51
41.5
  0
ARC
  5
439
330
1F
100
AcDbEntity
  8
4
  6
Continuous
 62
     2
100
AcDbCircle
 10
1119.58
 20
789.410001832
 30
0.0
 40
10.7
100
AcDbArc
 50
339.1
 51
20.9
  0
ARC
  5
43A
330
1F
100
AcDbEntity
  8
4
  6
Continuous
 62
     2
100
AcDbCircle
 10
1127.48
 20
795.110001832
 30
0.0
 40
2.8
100
AcDbArc
 50
318.5
 51
41.5
  0
LINE
  5
43B
330
1F
100
AcDbEntity
  8
4
  6
Continuous
 62
     2
100
AcDbLine
 10
1124.98
 20
789.410001832
 30
0.0
 11
1122.98
 21
788.255301294
 31
0.0
  0
LINE
  5
43C
330
1F
100
AcDbEntity
  8
4
  6
Continuous
 62
     2
100
AcDbLine
 10
1122.98
 20
789.410001832
 30
0.0
 11
1124.98
 21
790.564702371
 31
0.0
  0
LWPOLYLINE
  5
43E
330
1F
100
AcDbEntity
  8
4
  6
Continuous
 62
     2
100
AcDbPolyline
 90
     4
 70
   129
 43
0.0
 10
77.38
 20
780.910001832
 10
77.38
 20
797.910001832
 10
75.78
 20
797.910001832
 10
75.78
 20
780.910001832
  0
LWPOLYLINE
  5
440
330
1F
100
AcDbEntity
  8
4
  6
Continuous
 62
     2
100
AcDbPolyline
 90
     4
 70
   129
 43
0.0
 10
75.78
 20
797.110001832
 10
73.78
 20
797.110001832
 10
73.78
 20
781.710001832
 10
75.78
 20
781.710001832
  0
LINE
  5
441
330
1F
100
AcDbEntity
  8
4
  6
Continuous
 62
     2
100
AcDbLine
 10
73.78
 20
781.910001832
 30
0.0
 11
69.18
 21
781.910001832
 31
0.0
  0
LINE
  5
442
330
1F
100
AcDbEntity
  8
4
  6
Continuous
 62
     2
100
AcDbLine
 10
73.78
 20
796.910001832
 30
0.0
 11
69.18
 21
796.910001832
 31
0.0
  0
LINE
  5
443
330
1F
100
AcDbEntity
  8
4
  6
Continuous
 62
     2
100
AcDbLine
 10
73.78
 20
793.210001832
 30
0.0
 11
69.18
 21
793.210001832
 31
0.0
  0
LINE
  5
444
330
1F
100
AcDbEntity
  8
4
  6
Continuous
 62
     2
100
AcDbLine
 10
73.78
 20
785.610001832
 30
0.0
 11
69.18
 21
785.610001832
 31
0.0
  0
LINE
  5
445
330
1F
100
AcDbEntity
  8
4
  6
Continuous
 62
     2
100
AcDbLine
 10
68.48
 20
783.710001832
 30
0.0
 11
68.48
 21
795.110001832
 31
0.0
  0
ARC
  5
446
330
1F
100
AcDbEntity
  8
4
  6
Continuous
 62
     2
100
AcDbCircle
 10
71.28
 20
795.110001832
 30
0.0
 40
2.8
100
AcDbArc
 50
138.5
 51
221.5
  0
ARC
  5
447
330
1F
100
AcDbEntity
  8
4
  6
Continuous
 62
     2
100
AcDbCircle
 10
79.18
 20
789.410001832
 30
0.0
 40
10.7
100
AcDbArc
 50
159.1
 51
200.9
  0
ARC
  5
448
330
1F
100
AcDbEntity
  8
4
  6
Continuous
 62
     2
100
AcDbCircle
 10
71.28
 20
783.710001832
 30
0.0
 40
2.8
100
AcDbArc
 50
138.5
 51
221.5
  0
LINE
  5
449
330
1F
100
AcDbEntity
  8
4
  6
Continuous
 62
     2
100
AcDbLine
 10
73.78
 20
789.410001832
 30
0.0
 11
75.78
 21
790.564702371
 31
0.0
  0
LINE
  5
44A
330
1F
100
AcDbEntity
  8
4
  6
Continuous
 62
     2
100
AcDbLine
 10
75.78
 20
789.410001832
 30
0.0
 11
73.78
 21
788.255301294
 31
0.0
  0
LINE
  5
44B
330
1F
100
AcDbEntity
  8
7
  6
Continuous
 62
     2
100
AcDbLine
 10
1124.38
 20
839.410001832
 30
0.0
 11
1170.28
 21
839.410001832
 31
0.0
  0
LINE
  5
44C
330
1F
100
AcDbEntity
  8
7
  6
Continuous
 62
     2
100
AcDbLine
 10
1160.28
 20
839.410001832
 30
0.0
 11
1157.044761936
 21
827.335929004
 31
0.0
  0
LINE
  5
44D
330
1F
100
AcDbEntity
  8
7
  6
Continuous
 62
     2
100
AcDbLine
 10
1160.28
 20
839.410001832
 30
0.0
 11
1163.515238064
 21
827.335929004
 31
0.0
  0
LWPOLYLINE
  5
44F
330
1F
100
AcDbEntity
  8
7
  6
Continuous
 62
     2
100
AcDbPolyline
 90
     3
 70
   128
 43
0.0
 10
1160.28
 20
839.410001832
 10
1160.28
 20
739.410001832
 10
1163.515238064
 20
751.484074661
  0
LINE
  5
450
330
1F
100
AcDbEntity
  8
7
  6
Continuous
 62
     2
100
AcDbLine
 10
1160.28
 20
739.410001832
 30
0.0
 11
1157.044761936
 21
751.484074661
 31
0.0
  0
LINE
  5
451
330
1F
100
AcDbEntity
  8
7
  6
Continuous
 62
     2
100
AcDbLine
 10
1124.38
 20
739.410001832
 30
0.0
 11
1170.28
 21
739.410001832
 31
0.0
  0
MTEXT
  5
452
330
1F
100
AcDbEntity
  8
7
  6
Continuous
 62
     2
100
AcDbMText
 10
1155.28
 20
774.410001832
 30
0.0
 40
15.0
 41
60.0
 71
     7
 72
     1
  1
\T1.167;\W0.600;１００
  7
KANJI7
 11
0.0
 21
1.0
 31
0.0
 73
     1
 44
1.0
  0
LINE
  5
453
330
1F
100
AcDbEntity
  8
7
  6
Continuous
 62
     2
100
AcDbLine
 10
1160.28
 20
739.410001832
 30
0.0
 11
1163.515238064
 21
751.484074661
 31
0.0
  0
LINE
  5
454
330
1F
100
AcDbEntity
  8
7
  6
Continuous
 62
     2
100
AcDbLine
 10
1160.28
 20
739.410001832
 30
0.0
 11
1157.044761936
 21
751.484074661
 31
0.0
  0
LWPOLYLINE
  5
456
330
1F
100
AcDbEntity
  8
7
  6
Continuous
 62
     2
100
AcDbPolyline
 90
     4
 70
   128
 43
0.0
 10
1160.28
 20
758.160001832
 10
1160.28
 20
739.410001832
 10
1160.28
 20
714.410001832
 10
1160.28
 20
655.160001832
  0
LINE
  5
457
330
1F
100
AcDbEntity
  8
7
  6
Continuous
 62
     2
100
AcDbLine
 10
1160.28
 20
714.410001832
 30
0.0
 11
1157.044761936
 21
702.335929004
 31
0.0
  0
LINE
  5
458
330
1F
100
AcDbEntity
  8
7
  6
Continuous
 62
     2
100
AcDbLine
 10
1160.28
 20
714.410001832
 30
0.0
 11
1163.515238064
 21
702.335929004
 31
0.0
  0
LINE
  5
459
330
1F
100
AcDbEntity
  8
7
  6
Continuous
 62
     2
100
AcDbLine
 10
1119.88
 20
714.410001832
 30
0.0
 11
1170.28
 21
714.410001832
 31
0.0
  0
MTEXT
  5
45A
330
1F
100
AcDbEntity
  8
7
  6
Continuous
 62
     2
100
AcDbMText
 10
1155.28
 20
655.160001832
 30
0.0
 40
15.0
 41
81.0
 71
     7
 72
     1
  1
\T1.167;\W0.600;（２５）
  7
KANJI7
 11
0.0
 21
1.0
 31
0.0
 73
     1
 44
1.0
  0
ENDSEC
  0
SECTION
  2
OBJECTS
  0
DICTIONARY
  5
C
330
0
100
AcDbDictionary
280
     0
281
     1
  3
ACAD_GROUP
350
D
  3
ACAD_LAYOUT
350
1A
  3
ACAD_MLINESTYLE
350
17
  3
ACAD_PLOTSETTINGS
350
19
  3
ACAD_PLOTSTYLENAME
350
E
  0
DICTIONARY
  5
D
102
{ACAD_REACTORS
330
C
102
}
330
C
100
AcDbDictionary
280
     0
281
     1
  0
DICTIONARY
  5
1A
102
{ACAD_REACTORS
330
C
102
}
330
C
100
AcDbDictionary
280
     0
281
     1
  3
Model
350
22
  3
ﾚｲｱｳﾄ1
350
1E
  3
ﾚｲｱｳﾄ2
350
26
  0
LAYOUT
  5
22
102
{ACAD_REACTORS
330
1A
102
}
330
1A
100
AcDbPlotSettings
  1

  2

  4

  6

 40
0.0
 41
0.0
 42
0.0
 43
0.0
 44
0.0
 45
0.0
 46
0.0
 47
0.0
 48
0.0
 49
0.0
140
0.0
141
0.0
142
1.0
143
1.0
 70
  1712
 72
     0
 73
     0
 74
     0
  7

 75
     0
147
1.0
148
0.0
149
0.0
100
AcDbLayout
  1
Model
 70
     1
 71
     0
 10
0.0
 20
0.0
 11
0.0
 21
0.0
 12
0.0
 22
0.0
 32
0.0
 14
0.0
 24
0.0
 34
0.0
 15
0.0
 25
0.0
 35
0.0
146
0.0
 13
0.0
 23
0.0
 33
0.0
 16
1.0
 26
0.0
 36
0.0
 17
0.0
 27
1.0
 37
0.0
 76
     0
330
1F
331
0
345
0
346
0
  0
LAYOUT
  5
1E
102
{ACAD_REACTORS
330
1A
102
}
330
1A
100
AcDbPlotSettings
  1

  2

  4

  6

 40
0.0
 41
0.0
 42
0.0
 43
0.0
 44
0.0
 45
0.0
 46
0.0
 47
0.0
 48
0.0
 49
0.0
140
0.0
141
0.0
142
1.0
143
1.0
 70
   688
 72
     0
 73
     0
 74
     5
  7

 75
    16
147
1.0
148
0.0
149
0.0
100
AcDbLayout
  1
ﾚｲｱｳﾄ1
 70
     1
 71
     1
 10
0.0
 20
0.0
 11
0.0
 21
0.0
 12
0.0
 22
0.0
 32
0.0
 14
0.0
 24
0.0
 34
0.0
 15
0.0
 25
0.0
 35
0.0
146
0.0
 13
0.0
 23
0.0
 33
0.0
 16
1.0
 26
0.0
 36
0.0
 17
0.0
 27
1.0
 37
0.0
 76
     0
330
1B
331
0
345
0
346
0
  0
LAYOUT
  5
26
102
{ACAD_REACTORS
330
1A
102
}
330
1A
100
AcDbPlotSettings
  1

  2

  4

  6

 40
0.0
 41
0.0
 42
0.0
 43
0.0
 44
0.0
 45
0.0
 46
0.0
 47
0.0
 48
0.0
 49
0.0
140
0.0
141
0.0
142
1.0
143
1.0
 70
   688
 72
     0
 73
     0
 74
     5
  7

 75
    16
147
1.0
148
0.0
149
0.0
100
AcDbLayout
  1
ﾚｲｱｳﾄ2
 70
     1
 71
     2
 10
0.0
 20
0.0
 11
0.0
 21
0.0
 12
0.0
 22
0.0
 32
0.0
 14
0.0
 24
0.0
 34
0.0
 15
0.0
 25
0.0
 35
0.0
146
0.0
 13
0.0
 23
0.0
 33
0.0
 16
1.0
 26
0.0
 36
0.0
 17
0.0
 27
1.0
 37
0.0
 76
     0
330
23
331
0
345
0
346
0
  0
DICTIONARY
  5
17
102
{ACAD_REACTORS
330
C
102
}
330
C
100
AcDbDictionary
280
     0
281
     1
  3
Standard
350
18
  0
MLINESTYLE
  5
18
102
{ACAD_REACTORS
330
17
102
}
330
17
100
AcDbMlineStyle
  2
STANDARD
 70
     0
  3

 62
   256
 51
90.0
 52
90.0
 71
     2
 49
0.5
 62
   256
  6
ByLayer
 49
-0.5
 62
   256
  6
ByLayer
  0
DICTIONARY
  5
19
102
{ACAD_REACTORS
330
C
102
}
330
C
100
AcDbDictionary
280
     0
281
     1
  0
ACDBDICTIONARYWDFLT
  5
E
330
C
100
AcDbDictionary
281
     0
  3
Normal
350
F
100
AcDbDictionaryWithDefault
340
F
  0
ACDBPLACEHOLDER
  5
F
102
{ACAD_REACTORS
330
E
102
}
330
E
  0
ENDSEC
  0
EOF
