  0
SECTION
  2
HEADER
  9
$ACADVER
  1
AC1015
  9
$ACADMAINTVER
 70
     6
  9
$DWGCODEPAGE
  3
ANSI_932
  9
$INSBASE
 10
0.0
 20
0.0
 30
0.0
  9
$EXTMIN
 10
0.0
 20
0.0
 30
0.0
  9
$EXTMAX
 10
1188.0
 20
840.0
 30
0.0
  9
$LIMMIN
 10
0.0
 20
0.0
  9
$LIMMAX
 10
1188.0
 20
840.0
  9
$ORTHOMODE
 70
     0
  9
$REGENMODE
 70
     1
  9
$FILLMODE
 70
     1
  9
$QTEXTMODE
 70
     0
  9
$MIRRTEXT
 70
     1
  9
$LTSCALE
 40
4.0
  9
$ATTMODE
 70
     1
  9
$TEXTSIZE
 40
2.5
  9
$TRACEWID
 40
1.0
  9
$TEXTSTYLE
  7
Standard
  9
$CLAYER
  8
0
  9
$CELTYPE
  6
ByLayer
  9
$CECOLOR
 62
   256
  9
$CELTSCALE
 40
1.0
  9
$DISPSILH
 70
     0
  9
$DIMSCALE
 40
1.0
  9
$DIMASZ
 40
2.5
  9
$DIMEXO
 40
0.625
  9
$DIMDLI
 40
3.75
  9
$DIMRND
 40
0.0
  9
$DIMDLE
 40
0.0
  9
$DIMEXE
 40
1.25
  9
$DIMTP
 40
0.0
  9
$DIMTM
 40
0.0
  9
$DIMTXT
 40
2.5
  9
$DIMCEN
 40
2.5
  9
$DIMTSZ
 40
0.0
  9
$DIMTOL
 70
     0
  9
$DIMLIM
 70
     0
  9
$DIMTIH
 70
     0
  9
$DIMTOH
 70
     0
  9
$DIMSE1
 70
     0
  9
$DIMSE2
 70
     0
  9
$DIMTAD
 70
     1
  9
$DIMZIN
 70
     8
  9
$DIMBLK
  1

  9
$DIMASO
 70
     1
  9
$DIMSHO
 70
     1
  9
$DIMPOST
  1

  9
$DIMAPOST
  1

  9
$DIMALT
 70
     0
  9
$DIMALTD
 70
     3
  9
$DIMALTF
 40
0.03937007874016
  9
$DIMLFAC
 40
1.0
  9
$DIMTOFL
 70
     1
  9
$DIMTVP
 40
0.0
  9
$DIMTIX
 70
     0
  9
$DIMSOXD
 70
     0
  9
$DIMSAH
 70
     0
  9
$DIMBLK1
  1

  9
$DIMBLK2
  1

  9
$DIMSTYLE
  2
ISO-25
  9
$DIMCLRD
 70
     0
  9
$DIMCLRE
 70
     0
  9
$DIMCLRT
 70
     0
  9
$DIMTFAC
 40
1.0
  9
$DIMGAP
 40
0.625
  9
$DIMJUST
 70
     0
  9
$DIMSD1
 70
     0
  9
$DIMSD2
 70
     0
  9
$DIMTOLJ
 70
     0
  9
$DIMTZIN
 70
     8
  9
$DIMALTZ
 70
     0
  9
$DIMALTTZ
 70
     0
  9
$DIMUPT
 70
     0
  9
$DIMDEC
 70
     2
  9
$DIMTDEC
 70
     2
  9
$DIMALTU
 70
     2
  9
$DIMALTTD
 70
     3
  9
$DIMTXSTY
  7
Standard
  9
$DIMAUNIT
 70
     0
  9
$DIMADEC
 70
     0
  9
$DIMALTRND
 40
0.0
  9
$DIMAZIN
 70
     0
  9
$DIMDSEP
 70
    46
  9
$DIMATFIT
 70
     3
  9
$DIMFRAC
 70
     0
  9
$DIMLDRBLK
  1

  9
$DIMLUNIT
 70
     2
  9
$DIMLWD
 70
    -2
  9
$DIMLWE
 70
    -2
  9
$DIMTMOVE
 70
     0
  9
$LUNITS
 70
     2
  9
$LUPREC
 70
     4
  9
$SKETCHINC
 40
1.0
  9
$FILLETRAD
 40
10.0
  9
$AUNITS
 70
     0
  9
$AUPREC
 70
     0
  9
$MENU
  1
.
  9
$ELEVATION
 40
0.0
  9
$PELEVATION
 40
0.0
  9
$THICKNESS
 40
0.0
  9
$LIMCHECK
 70
     0
  9
$CHAMFERA
 40
10.0
  9
$CHAMFERB
 40
10.0
  9
$CHAMFERC
 40
20.0
  9
$CHAMFERD
 40
0.0
  9
$SKPOLY
 70
     0
  9
$TDCREATE
 40
2457071.000000
  9
$TDUCREATE
 40
0.000000000
  9
$TDUPDATE
 40
2457071.000000
  9
$TDUUPDATE
 40
2457071.000000
  9
$TDINDWG
 40
0.0
  9
$TDUSRTIMER
 40
0.0
  9
$USRTIMER
 70
     1
  9
$ANGBASE
 50
0.0
  9
$ANGDIR
 70
     0
  9
$PDMODE
 70
     0
  9
$PDSIZE
 40
0.0
  9
$PLINEWID
 40
0.0
  9
$SPLFRAME
 70
     0
  9
$SPLINETYPE
 70
     6
  9
$SPLINESEGS
 70
     8
  9
$HANDSEED
  5
0375
  9
$SURFTAB1
 70
     6
  9
$SURFTAB2
 70
     6
  9
$SURFTYPE
 70
     6
  9
$SURFU
 70
     6
  9
$SURFV
 70
     6
  9
$UCSBASE
  2

  9
$UCSNAME
  2

  9
$UCSORG
 10
0.0
 20
0.0
 30
0.0
  9
$UCSXDIR
 10
1.0
 20
0.0
 30
0.0
  9
$UCSYDIR
 10
0.0
 20
1.0
 30
0.0
  9
$UCSORTHOREF
  2

  9
$UCSORTHOVIEW
 70
     0
  9
$UCSORGTOP
 10
0.0
 20
0.0
 30
0.0
  9
$UCSORGBOTTOM
 10
0.0
 20
0.0
 30
0.0
  9
$UCSORGLEFT
 10
0.0
 20
0.0
 30
0.0
  9
$UCSORGRIGHT
 10
0.0
 20
0.0
 30
0.0
  9
$UCSORGFRONT
 10
0.0
 20
0.0
 30
0.0
  9
$UCSORGBACK
 10
0.0
 20
0.0
 30
0.0
  9
$PUCSBASE
  2

  9
$PUCSNAME
  2

  9
$PUCSORG
 10
0.0
 20
0.0
 30
0.0
  9
$PUCSXDIR
 10
1.0
 20
0.0
 30
0.0
  9
$PUCSYDIR
 10
0.0
 20
1.0
 30
0.0
  9
$PUCSORTHOREF
  2

  9
$PUCSORTHOVIEW
 70
     0
  9
$PUCSORGTOP
 10
0.0
 20
0.0
 30
0.0
  9
$PUCSORGBOTTOM
 10
0.0
 20
0.0
 30
0.0
  9
$PUCSORGLEFT
 10
0.0
 20
0.0
 30
0.0
  9
$PUCSORGRIGHT
 10
0.0
 20
0.0
 30
0.0
  9
$PUCSORGFRONT
 10
0.0
 20
0.0
 30
0.0
  9
$PUCSORGBACK
 10
0.0
 20
0.0
 30
0.0
  9
$USERI1
 70
     0
  9
$USERI2
 70
     0
  9
$USERI3
 70
     0
  9
$USERI4
 70
     0
  9
$USERI5
 70
     0
  9
$USERR1
 40
0.0
  9
$USERR2
 40
0.0
  9
$USERR3
 40
0.0
  9
$USERR4
 40
0.0
  9
$USERR5
 40
0.0
  9
$WORLDVIEW
 70
     1
  9
$SHADEDGE
 70
     3
  9
$SHADEDIF
 70
    70
  9
$TILEMODE
 70
     1
  9
$MAXACTVP
 70
    64
  9
$PINSBASE
 10
0.0
 20
0.0
 30
0.0
  9
$PLIMCHECK
 70
     0
  9
$PEXTMIN
 10
1.000000E+20
 20
1.000000E+20
 30
1.000000E+20
  9
$PEXTMAX
 10
-1.000000E+20
 20
-1.000000E+20
 30
-1.000000E+20
  9
$PLIMMIN
 10
0.0
 20
0.0
  9
$PLIMMAX
 10
0.0
 20
0.0
  9
$UNITMODE
 70
     0
  9
$VISRETAIN
 70
     0
  9
$PLINEGEN
 70
     0
  9
$PSLTSCALE
 70
     1
  9
$TREEDEPTH
 70
  3020
  9
$CMLSTYLE
  2
STANDARD
  9
$CMLJUST
 70
     0
  9
$CMLSCALE
 40
20.0
  9
$PROXYGRAPHICS
 70
     1
  9
$MEASUREMENT
 70
     1
  9
$CELWEIGHT
370
    -1
  9
$ENDCAPS
280
     0
  9
$JOINSTYLE
280
     0
  9
$LWDISPLAY
290
     0
  9
$INSUNITS
 70
     4
  9
$HYPERLINKBASE
  1

  9
$STYLESHEET
  1

  9
$XEDIT
290
     1
  9
$CEPSNTYPE
380
     0
  9
$PSTYLEMODE
290
     1
  9
$FINGERPRINTGUID
  2
{4CF12A79-4E77-30D9-11BB-FCF2921888A4}
  9
$VERSIONGUID
  2
{14524229-43B3-9702-696C-2B47DF82C235}
  9
$EXTNAMES
290
     1
  9
$PSVPSCALE
 40
0.0
  0
ENDSEC
  0
SECTION
  2
CLASSES
  0
ENDSEC
  0
SECTION
  2
TABLES
  0
TABLE
  2
VPORT
  5
8
330
0
100
AcDbSymbolTable
 70
     3
  0
VPORT
  5
29
330
8
100
AcDbSymbolTableRecord
100
AcDbViewportTableRecord
  2
*Active
 70
     0
 10
0.0
 20
0.0
 11
1.0
 21
1.0
 12
594.0
 22
420.0
 13
0.0
 23
0.0
 14
10.0
 24
10.0
 15
0.0
 25
0.0
 16
0.0
 26
0.0
 36
1.0
 17
0.0
 27
0.0
 37
0.0
 40
840.0
 41
1.414285714
 42
50.0
 43
0.0
 44
0.0
 50
0.0
 51
0.0
 71
     0
 72
  1000
 73
     1
 74
     3
 75
     0
 76
     0
 77
     0
 78
     0
281
     0
 65
     0
110
0.0
120
0.0
130
0.0
111
1.0
121
0.0
131
0.0
112
0.0
122
1.0
132
0.0
 79
     0
146
0.0
  0
ENDTAB
  0
TABLE
  2
LTYPE
  5
5
330
0
100
AcDbSymbolTable
 70
     5
  0
LTYPE
  5
14
330
5
100
AcDbSymbolTableRecord
100
AcDbLinetypeTableRecord
  2
ByBlock
 70
     0
  3

 72
    65
 73
     0
 40
0.0
  0
LTYPE
  5
15
330
5
100
AcDbSymbolTableRecord
100
AcDbLinetypeTableRecord
  2
ByLayer
 70
     0
  3

 72
    65
 73
     0
 40
0.0
  0
LTYPE
  5
16
330
5
100
AcDbSymbolTableRecord
100
AcDbLinetypeTableRecord
  2
Continuous
 70
     0
  3
Solid line
 72
    65
 73
     0
 40
0.0
  0
LTYPE
  5
A9
330
5
100
AcDbSymbolTableRecord
100
AcDbLinetypeTableRecord
  2
LTYPE1
 70
     0
  3
PHANTOM
 72
    65
 73
     6
 40
12.0
 49
9.0
 74
     0
 49
-0.6
 74
     0
 49
0.6
 74
     0
 49
-0.6
 74
     0
 49
0.6
 74
     0
 49
-0.6
 74
     0
  0
LTYPE
  5
E0
330
5
100
AcDbSymbolTableRecord
100
AcDbLinetypeTableRecord
  2
LTYPE2
 70
     0
  3
HIDDEN
 72
    65
 73
     2
 40
2.0
 49
1.2
 74
     0
 49
-0.8
 74
     0
  0
ENDTAB
  0
TABLE
  2
LAYER
  5
2
330
0
100
AcDbSymbolTable
 70
   128
  0
LAYER
  5
10
330
2
100
AcDbSymbolTableRecord
100
AcDbLayerTableRecord
  2
0
 70
     0
 62
     7
  6
Continuous
290
     1
370
    -3
390
F
  0
LAYER
  5
2A
330
2
100
AcDbSymbolTableRecord
100
AcDbLayerTableRecord
  2
2
 70
     0
 62
     7
  6
Continuous
290
     1
370
    -3
390
F
  0
LAYER
  5
2B
330
2
100
AcDbSymbolTableRecord
100
AcDbLayerTableRecord
  2
3
 70
     0
 62
     7
  6
Continuous
290
     1
370
    -3
390
F
  0
LAYER
  5
2C
330
2
100
AcDbSymbolTableRecord
100
AcDbLayerTableRecord
  2
4
 70
     0
 62
     7
  6
Continuous
290
     1
370
    -3
390
F
  0
LAYER
  5
2D
330
2
100
AcDbSymbolTableRecord
100
AcDbLayerTableRecord
  2
5
 70
     0
 62
     7
  6
Continuous
290
     1
370
    -3
390
F
  0
LAYER
  5
2E
330
2
100
AcDbSymbolTableRecord
100
AcDbLayerTableRecord
  2
6
 70
     0
 62
     7
  6
Continuous
290
     1
370
    -3
390
F
  0
LAYER
  5
2F
330
2
100
AcDbSymbolTableRecord
100
AcDbLayerTableRecord
  2
7
 70
     0
 62
     7
  6
Continuous
290
     1
370
    -3
390
F
  0
LAYER
  5
30
330
2
100
AcDbSymbolTableRecord
100
AcDbLayerTableRecord
  2
8
 70
     0
 62
     7
  6
Continuous
290
     1
370
    -3
390
F
  0
LAYER
  5
31
330
2
100
AcDbSymbolTableRecord
100
AcDbLayerTableRecord
  2
9
 70
     0
 62
     7
  6
Continuous
290
     1
370
    -3
390
F
  0
LAYER
  5
32
330
2
100
AcDbSymbolTableRecord
100
AcDbLayerTableRecord
  2
10
 70
     0
 62
     7
  6
Continuous
290
     1
370
    -3
390
F
  0
LAYER
  5
33
330
2
100
AcDbSymbolTableRecord
100
AcDbLayerTableRecord
  2
11
 70
     0
 62
     7
  6
Continuous
290
     1
370
    -3
390
F
  0
LAYER
  5
34
330
2
100
AcDbSymbolTableRecord
100
AcDbLayerTableRecord
  2
12
 70
     0
 62
     7
  6
Continuous
290
     1
370
    -3
390
F
  0
LAYER
  5
35
330
2
100
AcDbSymbolTableRecord
100
AcDbLayerTableRecord
  2
13
 70
     0
 62
     7
  6
Continuous
290
     1
370
    -3
390
F
  0
LAYER
  5
36
330
2
100
AcDbSymbolTableRecord
100
AcDbLayerTableRecord
  2
14
 70
     0
 62
     7
  6
Continuous
290
     1
370
    -3
390
F
  0
LAYER
  5
37
330
2
100
AcDbSymbolTableRecord
100
AcDbLayerTableRecord
  2
15
 70
     0
 62
     7
  6
Continuous
290
     1
370
    -3
390
F
  0
LAYER
  5
38
330
2
100
AcDbSymbolTableRecord
100
AcDbLayerTableRecord
  2
16
 70
     0
 62
     7
  6
Continuous
290
     1
370
    -3
390
F
  0
LAYER
  5
39
330
2
100
AcDbSymbolTableRecord
100
AcDbLayerTableRecord
  2
17
 70
     0
 62
     7
  6
Continuous
290
     1
370
    -3
390
F
  0
LAYER
  5
3A
330
2
100
AcDbSymbolTableRecord
100
AcDbLayerTableRecord
  2
18
 70
     0
 62
     7
  6
Continuous
290
     1
370
    -3
390
F
  0
LAYER
  5
3B
330
2
100
AcDbSymbolTableRecord
100
AcDbLayerTableRecord
  2
19
 70
     0
 62
     7
  6
Continuous
290
     1
370
    -3
390
F
  0
LAYER
  5
3C
330
2
100
AcDbSymbolTableRecord
100
AcDbLayerTableRecord
  2
20
 70
     0
 62
     7
  6
Continuous
290
     1
370
    -3
390
F
  0
LAYER
  5
3D
330
2
100
AcDbSymbolTableRecord
100
AcDbLayerTableRecord
  2
21
 70
     0
 62
     7
  6
Continuous
290
     1
370
    -3
390
F
  0
LAYER
  5
3E
330
2
100
AcDbSymbolTableRecord
100
AcDbLayerTableRecord
  2
22
 70
     0
 62
     7
  6
Continuous
290
     1
370
    -3
390
F
  0
LAYER
  5
3F
330
2
100
AcDbSymbolTableRecord
100
AcDbLayerTableRecord
  2
23
 70
     0
 62
     7
  6
Continuous
290
     1
370
    -3
390
F
  0
LAYER
  5
40
330
2
100
AcDbSymbolTableRecord
100
AcDbLayerTableRecord
  2
24
 70
     0
 62
     7
  6
Continuous
290
     1
370
    -3
390
F
  0
LAYER
  5
41
330
2
100
AcDbSymbolTableRecord
100
AcDbLayerTableRecord
  2
25
 70
     0
 62
     7
  6
Continuous
290
     1
370
    -3
390
F
  0
LAYER
  5
42
330
2
100
AcDbSymbolTableRecord
100
AcDbLayerTableRecord
  2
26
 70
     0
 62
     7
  6
Continuous
290
     1
370
    -3
390
F
  0
LAYER
  5
43
330
2
100
AcDbSymbolTableRecord
100
AcDbLayerTableRecord
  2
27
 70
     0
 62
     7
  6
Continuous
290
     1
370
    -3
390
F
  0
LAYER
  5
44
330
2
100
AcDbSymbolTableRecord
100
AcDbLayerTableRecord
  2
28
 70
     0
 62
     7
  6
Continuous
290
     1
370
    -3
390
F
  0
LAYER
  5
45
330
2
100
AcDbSymbolTableRecord
100
AcDbLayerTableRecord
  2
29
 70
     0
 62
     7
  6
Continuous
290
     1
370
    -3
390
F
  0
LAYER
  5
46
330
2
100
AcDbSymbolTableRecord
100
AcDbLayerTableRecord
  2
30
 70
     0
 62
     7
  6
Continuous
290
     1
370
    -3
390
F
  0
LAYER
  5
47
330
2
100
AcDbSymbolTableRecord
100
AcDbLayerTableRecord
  2
31
 70
     0
 62
     7
  6
Continuous
290
     1
370
    -3
390
F
  0
LAYER
  5
48
330
2
100
AcDbSymbolTableRecord
100
AcDbLayerTableRecord
  2
32
 70
     0
 62
     7
  6
Continuous
290
     1
370
    -3
390
F
  0
LAYER
  5
49
330
2
100
AcDbSymbolTableRecord
100
AcDbLayerTableRecord
  2
33
 70
     0
 62
     7
  6
Continuous
290
     1
370
    -3
390
F
  0
LAYER
  5
4A
330
2
100
AcDbSymbolTableRecord
100
AcDbLayerTableRecord
  2
34
 70
     0
 62
     7
  6
Continuous
290
     1
370
    -3
390
F
  0
LAYER
  5
4B
330
2
100
AcDbSymbolTableRecord
100
AcDbLayerTableRecord
  2
35
 70
     0
 62
     7
  6
Continuous
290
     1
370
    -3
390
F
  0
LAYER
  5
4C
330
2
100
AcDbSymbolTableRecord
100
AcDbLayerTableRecord
  2
36
 70
     0
 62
     7
  6
Continuous
290
     1
370
    -3
390
F
  0
LAYER
  5
4D
330
2
100
AcDbSymbolTableRecord
100
AcDbLayerTableRecord
  2
37
 70
     0
 62
     7
  6
Continuous
290
     1
370
    -3
390
F
  0
LAYER
  5
4E
330
2
100
AcDbSymbolTableRecord
100
AcDbLayerTableRecord
  2
38
 70
     0
 62
     7
  6
Continuous
290
     1
370
    -3
390
F
  0
LAYER
  5
4F
330
2
100
AcDbSymbolTableRecord
100
AcDbLayerTableRecord
  2
39
 70
     0
 62
     7
  6
Continuous
290
     1
370
    -3
390
F
  0
LAYER
  5
50
330
2
100
AcDbSymbolTableRecord
100
AcDbLayerTableRecord
  2
40
 70
     0
 62
     7
  6
Continuous
290
     1
370
    -3
390
F
  0
LAYER
  5
51
330
2
100
AcDbSymbolTableRecord
100
AcDbLayerTableRecord
  2
41
 70
     0
 62
     7
  6
Continuous
290
     1
370
    -3
390
F
  0
LAYER
  5
52
330
2
100
AcDbSymbolTableRecord
100
AcDbLayerTableRecord
  2
42
 70
     0
 62
     7
  6
Continuous
290
     1
370
    -3
390
F
  0
LAYER
  5
53
330
2
100
AcDbSymbolTableRecord
100
AcDbLayerTableRecord
  2
43
 70
     0
 62
     7
  6
Continuous
290
     1
370
    -3
390
F
  0
LAYER
  5
54
330
2
100
AcDbSymbolTableRecord
100
AcDbLayerTableRecord
  2
44
 70
     0
 62
     7
  6
Continuous
290
     1
370
    -3
390
F
  0
LAYER
  5
55
330
2
100
AcDbSymbolTableRecord
100
AcDbLayerTableRecord
  2
45
 70
     0
 62
     7
  6
Continuous
290
     1
370
    -3
390
F
  0
LAYER
  5
56
330
2
100
AcDbSymbolTableRecord
100
AcDbLayerTableRecord
  2
46
 70
     0
 62
     7
  6
Continuous
290
     1
370
    -3
390
F
  0
LAYER
  5
57
330
2
100
AcDbSymbolTableRecord
100
AcDbLayerTableRecord
  2
47
 70
     0
 62
     7
  6
Continuous
290
     1
370
    -3
390
F
  0
LAYER
  5
58
330
2
100
AcDbSymbolTableRecord
100
AcDbLayerTableRecord
  2
48
 70
     0
 62
     7
  6
Continuous
290
     1
370
    -3
390
F
  0
LAYER
  5
59
330
2
100
AcDbSymbolTableRecord
100
AcDbLayerTableRecord
  2
49
 70
     0
 62
     7
  6
Continuous
290
     1
370
    -3
390
F
  0
LAYER
  5
5A
330
2
100
AcDbSymbolTableRecord
100
AcDbLayerTableRecord
  2
50
 70
     0
 62
     7
  6
Continuous
290
     1
370
    -3
390
F
  0
LAYER
  5
5B
330
2
100
AcDbSymbolTableRecord
100
AcDbLayerTableRecord
  2
51
 70
     0
 62
     7
  6
Continuous
290
     1
370
    -3
390
F
  0
LAYER
  5
5C
330
2
100
AcDbSymbolTableRecord
100
AcDbLayerTableRecord
  2
52
 70
     0
 62
     7
  6
Continuous
290
     1
370
    -3
390
F
  0
LAYER
  5
5D
330
2
100
AcDbSymbolTableRecord
100
AcDbLayerTableRecord
  2
53
 70
     0
 62
     7
  6
Continuous
290
     1
370
    -3
390
F
  0
LAYER
  5
5E
330
2
100
AcDbSymbolTableRecord
100
AcDbLayerTableRecord
  2
54
 70
     0
 62
     7
  6
Continuous
290
     1
370
    -3
390
F
  0
LAYER
  5
5F
330
2
100
AcDbSymbolTableRecord
100
AcDbLayerTableRecord
  2
55
 70
     0
 62
     7
  6
Continuous
290
     1
370
    -3
390
F
  0
LAYER
  5
60
330
2
100
AcDbSymbolTableRecord
100
AcDbLayerTableRecord
  2
56
 70
     0
 62
     7
  6
Continuous
290
     1
370
    -3
390
F
  0
LAYER
  5
61
330
2
100
AcDbSymbolTableRecord
100
AcDbLayerTableRecord
  2
57
 70
     0
 62
     7
  6
Continuous
290
     1
370
    -3
390
F
  0
LAYER
  5
62
330
2
100
AcDbSymbolTableRecord
100
AcDbLayerTableRecord
  2
58
 70
     0
 62
     7
  6
Continuous
290
     1
370
    -3
390
F
  0
LAYER
  5
63
330
2
100
AcDbSymbolTableRecord
100
AcDbLayerTableRecord
  2
59
 70
     0
 62
     7
  6
Continuous
290
     1
370
    -3
390
F
  0
LAYER
  5
64
330
2
100
AcDbSymbolTableRecord
100
AcDbLayerTableRecord
  2
60
 70
     0
 62
     7
  6
Continuous
290
     1
370
    -3
390
F
  0
LAYER
  5
65
330
2
100
AcDbSymbolTableRecord
100
AcDbLayerTableRecord
  2
61
 70
     0
 62
     7
  6
Continuous
290
     1
370
    -3
390
F
  0
LAYER
  5
66
330
2
100
AcDbSymbolTableRecord
100
AcDbLayerTableRecord
  2
62
 70
     0
 62
     7
  6
Continuous
290
     1
370
    -3
390
F
  0
LAYER
  5
67
330
2
100
AcDbSymbolTableRecord
100
AcDbLayerTableRecord
  2
63
 70
     0
 62
     7
  6
Continuous
290
     1
370
    -3
390
F
  0
LAYER
  5
68
330
2
100
AcDbSymbolTableRecord
100
AcDbLayerTableRecord
  2
64
 70
     0
 62
     7
  6
Continuous
290
     1
370
    -3
390
F
  0
LAYER
  5
69
330
2
100
AcDbSymbolTableRecord
100
AcDbLayerTableRecord
  2
65
 70
     0
 62
     7
  6
Continuous
290
     1
370
    -3
390
F
  0
LAYER
  5
6A
330
2
100
AcDbSymbolTableRecord
100
AcDbLayerTableRecord
  2
66
 70
     0
 62
     7
  6
Continuous
290
     1
370
    -3
390
F
  0
LAYER
  5
6B
330
2
100
AcDbSymbolTableRecord
100
AcDbLayerTableRecord
  2
67
 70
     0
 62
     7
  6
Continuous
290
     1
370
    -3
390
F
  0
LAYER
  5
6C
330
2
100
AcDbSymbolTableRecord
100
AcDbLayerTableRecord
  2
68
 70
     0
 62
     7
  6
Continuous
290
     1
370
    -3
390
F
  0
LAYER
  5
6D
330
2
100
AcDbSymbolTableRecord
100
AcDbLayerTableRecord
  2
69
 70
     0
 62
     7
  6
Continuous
290
     1
370
    -3
390
F
  0
LAYER
  5
6E
330
2
100
AcDbSymbolTableRecord
100
AcDbLayerTableRecord
  2
70
 70
     0
 62
     7
  6
Continuous
290
     1
370
    -3
390
F
  0
LAYER
  5
6F
330
2
100
AcDbSymbolTableRecord
100
AcDbLayerTableRecord
  2
71
 70
     0
 62
     7
  6
Continuous
290
     1
370
    -3
390
F
  0
LAYER
  5
70
330
2
100
AcDbSymbolTableRecord
100
AcDbLayerTableRecord
  2
72
 70
     0
 62
     7
  6
Continuous
290
     1
370
    -3
390
F
  0
LAYER
  5
71
330
2
100
AcDbSymbolTableRecord
100
AcDbLayerTableRecord
  2
73
 70
     0
 62
     7
  6
Continuous
290
     1
370
    -3
390
F
  0
LAYER
  5
72
330
2
100
AcDbSymbolTableRecord
100
AcDbLayerTableRecord
  2
74
 70
     0
 62
     7
  6
Continuous
290
     1
370
    -3
390
F
  0
LAYER
  5
73
330
2
100
AcDbSymbolTableRecord
100
AcDbLayerTableRecord
  2
75
 70
     0
 62
     7
  6
Continuous
290
     1
370
    -3
390
F
  0
LAYER
  5
74
330
2
100
AcDbSymbolTableRecord
100
AcDbLayerTableRecord
  2
76
 70
     0
 62
     7
  6
Continuous
290
     1
370
    -3
390
F
  0
LAYER
  5
75
330
2
100
AcDbSymbolTableRecord
100
AcDbLayerTableRecord
  2
77
 70
     0
 62
     7
  6
Continuous
290
     1
370
    -3
390
F
  0
LAYER
  5
76
330
2
100
AcDbSymbolTableRecord
100
AcDbLayerTableRecord
  2
78
 70
     0
 62
     7
  6
Continuous
290
     1
370
    -3
390
F
  0
LAYER
  5
77
330
2
100
AcDbSymbolTableRecord
100
AcDbLayerTableRecord
  2
79
 70
     0
 62
     7
  6
Continuous
290
     1
370
    -3
390
F
  0
LAYER
  5
78
330
2
100
AcDbSymbolTableRecord
100
AcDbLayerTableRecord
  2
80
 70
     0
 62
     7
  6
Continuous
290
     1
370
    -3
390
F
  0
LAYER
  5
79
330
2
100
AcDbSymbolTableRecord
100
AcDbLayerTableRecord
  2
81
 70
     0
 62
     7
  6
Continuous
290
     1
370
    -3
390
F
  0
LAYER
  5
7A
330
2
100
AcDbSymbolTableRecord
100
AcDbLayerTableRecord
  2
82
 70
     0
 62
     7
  6
Continuous
290
     1
370
    -3
390
F
  0
LAYER
  5
7B
330
2
100
AcDbSymbolTableRecord
100
AcDbLayerTableRecord
  2
83
 70
     0
 62
     7
  6
Continuous
290
     1
370
    -3
390
F
  0
LAYER
  5
7C
330
2
100
AcDbSymbolTableRecord
100
AcDbLayerTableRecord
  2
84
 70
     0
 62
     7
  6
Continuous
290
     1
370
    -3
390
F
  0
LAYER
  5
7D
330
2
100
AcDbSymbolTableRecord
100
AcDbLayerTableRecord
  2
85
 70
     0
 62
     7
  6
Continuous
290
     1
370
    -3
390
F
  0
LAYER
  5
7E
330
2
100
AcDbSymbolTableRecord
100
AcDbLayerTableRecord
  2
86
 70
     0
 62
     7
  6
Continuous
290
     1
370
    -3
390
F
  0
LAYER
  5
7F
330
2
100
AcDbSymbolTableRecord
100
AcDbLayerTableRecord
  2
87
 70
     0
 62
     7
  6
Continuous
290
     1
370
    -3
390
F
  0
LAYER
  5
80
330
2
100
AcDbSymbolTableRecord
100
AcDbLayerTableRecord
  2
88
 70
     0
 62
     7
  6
Continuous
290
     1
370
    -3
390
F
  0
LAYER
  5
81
330
2
100
AcDbSymbolTableRecord
100
AcDbLayerTableRecord
  2
89
 70
     0
 62
     7
  6
Continuous
290
     1
370
    -3
390
F
  0
LAYER
  5
82
330
2
100
AcDbSymbolTableRecord
100
AcDbLayerTableRecord
  2
90
 70
     0
 62
     7
  6
Continuous
290
     1
370
    -3
390
F
  0
LAYER
  5
83
330
2
100
AcDbSymbolTableRecord
100
AcDbLayerTableRecord
  2
91
 70
     0
 62
     7
  6
Continuous
290
     1
370
    -3
390
F
  0
LAYER
  5
84
330
2
100
AcDbSymbolTableRecord
100
AcDbLayerTableRecord
  2
92
 70
     0
 62
     7
  6
Continuous
290
     1
370
    -3
390
F
  0
LAYER
  5
85
330
2
100
AcDbSymbolTableRecord
100
AcDbLayerTableRecord
  2
93
 70
     0
 62
     7
  6
Continuous
290
     1
370
    -3
390
F
  0
LAYER
  5
86
330
2
100
AcDbSymbolTableRecord
100
AcDbLayerTableRecord
  2
94
 70
     0
 62
     7
  6
Continuous
290
     1
370
    -3
390
F
  0
LAYER
  5
87
330
2
100
AcDbSymbolTableRecord
100
AcDbLayerTableRecord
  2
95
 70
     0
 62
     7
  6
Continuous
290
     1
370
    -3
390
F
  0
LAYER
  5
88
330
2
100
AcDbSymbolTableRecord
100
AcDbLayerTableRecord
  2
96
 70
     0
 62
     7
  6
Continuous
290
     1
370
    -3
390
F
  0
LAYER
  5
89
330
2
100
AcDbSymbolTableRecord
100
AcDbLayerTableRecord
  2
97
 70
     0
 62
     7
  6
Continuous
290
     1
370
    -3
390
F
  0
LAYER
  5
8A
330
2
100
AcDbSymbolTableRecord
100
AcDbLayerTableRecord
  2
98
 70
     0
 62
     7
  6
Continuous
290
     1
370
    -3
390
F
  0
LAYER
  5
8B
330
2
100
AcDbSymbolTableRecord
100
AcDbLayerTableRecord
  2
99
 70
     0
 62
     7
  6
Continuous
290
     1
370
    -3
390
F
  0
LAYER
  5
8C
330
2
100
AcDbSymbolTableRecord
100
AcDbLayerTableRecord
  2
100
 70
     0
 62
     7
  6
Continuous
290
     1
370
    -3
390
F
  0
LAYER
  5
8D
330
2
100
AcDbSymbolTableRecord
100
AcDbLayerTableRecord
  2
101
 70
     0
 62
     7
  6
Continuous
290
     1
370
    -3
390
F
  0
LAYER
  5
8E
330
2
100
AcDbSymbolTableRecord
100
AcDbLayerTableRecord
  2
102
 70
     0
 62
     7
  6
Continuous
290
     1
370
    -3
390
F
  0
LAYER
  5
8F
330
2
100
AcDbSymbolTableRecord
100
AcDbLayerTableRecord
  2
103
 70
     0
 62
     7
  6
Continuous
290
     1
370
    -3
390
F
  0
LAYER
  5
90
330
2
100
AcDbSymbolTableRecord
100
AcDbLayerTableRecord
  2
104
 70
     0
 62
     7
  6
Continuous
290
     1
370
    -3
390
F
  0
LAYER
  5
91
330
2
100
AcDbSymbolTableRecord
100
AcDbLayerTableRecord
  2
105
 70
     0
 62
     7
  6
Continuous
290
     1
370
    -3
390
F
  0
LAYER
  5
92
330
2
100
AcDbSymbolTableRecord
100
AcDbLayerTableRecord
  2
106
 70
     0
 62
     7
  6
Continuous
290
     1
370
    -3
390
F
  0
LAYER
  5
93
330
2
100
AcDbSymbolTableRecord
100
AcDbLayerTableRecord
  2
107
 70
     0
 62
     7
  6
Continuous
290
     1
370
    -3
390
F
  0
LAYER
  5
94
330
2
100
AcDbSymbolTableRecord
100
AcDbLayerTableRecord
  2
108
 70
     0
 62
     7
  6
Continuous
290
     1
370
    -3
390
F
  0
LAYER
  5
95
330
2
100
AcDbSymbolTableRecord
100
AcDbLayerTableRecord
  2
109
 70
     0
 62
     7
  6
Continuous
290
     1
370
    -3
390
F
  0
LAYER
  5
96
330
2
100
AcDbSymbolTableRecord
100
AcDbLayerTableRecord
  2
110
 70
     0
 62
     7
  6
Continuous
290
     1
370
    -3
390
F
  0
LAYER
  5
97
330
2
100
AcDbSymbolTableRecord
100
AcDbLayerTableRecord
  2
111
 70
     0
 62
     7
  6
Continuous
290
     1
370
    -3
390
F
  0
LAYER
  5
98
330
2
100
AcDbSymbolTableRecord
100
AcDbLayerTableRecord
  2
112
 70
     0
 62
     7
  6
Continuous
290
     1
370
    -3
390
F
  0
LAYER
  5
99
330
2
100
AcDbSymbolTableRecord
100
AcDbLayerTableRecord
  2
113
 70
     0
 62
     7
  6
Continuous
290
     1
370
    -3
390
F
  0
LAYER
  5
9A
330
2
100
AcDbSymbolTableRecord
100
AcDbLayerTableRecord
  2
114
 70
     0
 62
     7
  6
Continuous
290
     1
370
    -3
390
F
  0
LAYER
  5
9B
330
2
100
AcDbSymbolTableRecord
100
AcDbLayerTableRecord
  2
115
 70
     0
 62
     7
  6
Continuous
290
     1
370
    -3
390
F
  0
LAYER
  5
9C
330
2
100
AcDbSymbolTableRecord
100
AcDbLayerTableRecord
  2
116
 70
     0
 62
     7
  6
Continuous
290
     1
370
    -3
390
F
  0
LAYER
  5
9D
330
2
100
AcDbSymbolTableRecord
100
AcDbLayerTableRecord
  2
117
 70
     0
 62
     7
  6
Continuous
290
     1
370
    -3
390
F
  0
LAYER
  5
9E
330
2
100
AcDbSymbolTableRecord
100
AcDbLayerTableRecord
  2
118
 70
     0
 62
     7
  6
Continuous
290
     1
370
    -3
390
F
  0
LAYER
  5
9F
330
2
100
AcDbSymbolTableRecord
100
AcDbLayerTableRecord
  2
119
 70
     0
 62
     7
  6
Continuous
290
     1
370
    -3
390
F
  0
LAYER
  5
A0
330
2
100
AcDbSymbolTableRecord
100
AcDbLayerTableRecord
  2
120
 70
     0
 62
     7
  6
Continuous
290
     1
370
    -3
390
F
  0
LAYER
  5
A1
330
2
100
AcDbSymbolTableRecord
100
AcDbLayerTableRecord
  2
121
 70
     0
 62
     7
  6
Continuous
290
     1
370
    -3
390
F
  0
LAYER
  5
A2
330
2
100
AcDbSymbolTableRecord
100
AcDbLayerTableRecord
  2
122
 70
     0
 62
     7
  6
Continuous
290
     1
370
    -3
390
F
  0
LAYER
  5
A3
330
2
100
AcDbSymbolTableRecord
100
AcDbLayerTableRecord
  2
123
 70
     0
 62
     7
  6
Continuous
290
     1
370
    -3
390
F
  0
LAYER
  5
A4
330
2
100
AcDbSymbolTableRecord
100
AcDbLayerTableRecord
  2
124
 70
     0
 62
     7
  6
Continuous
290
     1
370
    -3
390
F
  0
LAYER
  5
A5
330
2
100
AcDbSymbolTableRecord
100
AcDbLayerTableRecord
  2
125
 70
     0
 62
     7
  6
Continuous
290
     1
370
    -3
390
F
  0
LAYER
  5
A6
330
2
100
AcDbSymbolTableRecord
100
AcDbLayerTableRecord
  2
126
 70
     0
 62
     7
  6
Continuous
290
     1
370
    -3
390
F
  0
LAYER
  5
A7
330
2
100
AcDbSymbolTableRecord
100
AcDbLayerTableRecord
  2
127
 70
     0
 62
     7
  6
Continuous
290
     1
370
    -3
390
F
  0
LAYER
  5
A8
330
2
100
AcDbSymbolTableRecord
100
AcDbLayerTableRecord
  2
128
 70
     0
 62
     7
  6
Continuous
290
     1
370
    -3
390
F
  0
ENDTAB
  0
TABLE
  2
STYLE
  5
3
330
0
100
AcDbSymbolTable
 70
    10
  0
STYLE
  5
11
330
3
100
AcDbSymbolTableRecord
100
AcDbTextStyleTableRecord
  2
Standard
 70
     0
 40
0.0
 41
1.0
 50
0.0
 71
     0
 42
2.5
  3
txt.shx
  4
extfont.shx
  0
STYLE
  5
B0
330
3
100
AcDbSymbolTableRecord
100
AcDbTextStyleTableRecord
  2
KANJI0
 70
     4
 40
10.0
 41
1.0
 50
0.0
 71
     0
 42
10.0
  3
txt.shx
  4
extfont.shx
  0
STYLE
  5
B6
330
3
100
AcDbSymbolTableRecord
100
AcDbTextStyleTableRecord
  2
KANJI1
 70
     4
 40
10.0
 41
1.0
 50
0.0
 71
     0
 42
10.0
  3
txt.shx
  4
extfont.shx
  0
STYLE
  5
C2
330
3
100
AcDbSymbolTableRecord
100
AcDbTextStyleTableRecord
  2
KANJI2
 70
     4
 40
6.666666667
 41
1.5
 50
0.0
 71
     0
 42
6.666666667
  3
txt.shx
  4
extfont.shx
  0
STYLE
  5
C4
330
3
100
AcDbSymbolTableRecord
100
AcDbTextStyleTableRecord
  2
KANJI3
 70
     0
 40
12.0
 41
0.9
 50
0.0
 71
     0
 42
12.0
  3
txt.shx
  4
extfont.shx
  0
STYLE
  5
CD
330
3
100
AcDbSymbolTableRecord
100
AcDbTextStyleTableRecord
  2
KANJI4
 70
     0
 40
12.0
 41
1.0
 50
0.0
 71
     0
 42
12.0
  3
txt.shx
  4
extfont.shx
  0
STYLE
  5
D2
330
3
100
AcDbSymbolTableRecord
100
AcDbTextStyleTableRecord
  2
KANJI5
 70
     0
 40
12.0
 41
0.45
 50
0.0
 71
     0
 42
12.0
  3
txt.shx
  4
extfont.shx
  0
STYLE
  5
17F
330
3
100
AcDbSymbolTableRecord
100
AcDbTextStyleTableRecord
  2
KANJI6
 70
     0
 40
12.0
 41
0.666666667
 50
0.0
 71
     0
 42
12.0
  3
txt.shx
  4
extfont.shx
  0
STYLE
  5
18A
330
3
100
AcDbSymbolTableRecord
100
AcDbTextStyleTableRecord
  2
KANJI7
 70
     0
 40
12.0
 41
0.6
 50
0.0
 71
     0
 42
12.0
  3
txt.shx
  4
extfont.shx
  0
STYLE
  5
1B6
330
3
100
AcDbSymbolTableRecord
100
AcDbTextStyleTableRecord
  2
KANJI8
 70
     0
 40
12.0
 41
0.9
 50
0.0
 71
     0
 42
12.0
  3
txt.shx
  4
extfont.shx
  0
ENDTAB
  0
TABLE
  2
VIEW
  5
6
330
0
100
AcDbSymbolTable
 70
     0
  0
ENDTAB
  0
TABLE
  2
UCS
  5
7
330
0
100
AcDbSymbolTable
 70
     0
  0
ENDTAB
  0
TABLE
  2
APPID
  5
9
330
0
100
AcDbSymbolTable
 70
     1
  0
APPID
  5
12
330
9
100
AcDbSymbolTableRecord
100
AcDbRegAppTableRecord
  2
ACAD
 70
     0
  0
ENDTAB
  0
TABLE
  2
DIMSTYLE
  5
A
330
0
100
AcDbSymbolTable
 70
     1
100
AcDbDimStyleTable
 71
     0
  0
DIMSTYLE
105
27
330
A
100
AcDbSymbolTableRecord
100
AcDbDimStyleTableRecord
  2
ISO-25
 70
    64
  3

  4

 40
1.0
 41
2.5
 42
0.625
 43
3.75
 44
1.25
 45
0.0
 46
0.0
 47
0.0
 48
0.0
 71
     0
 72
     0
 73
     0
 74
     0
 75
     0
 76
     0
 77
     1
 78
     8
 79
     0
140
2.5
141
2.5
142
0.0
143
0.039370079
144
1.0
145
0.0
146
1.0
147
0.625
148
0.0
170
     0
171
     3
172
     1
173
     0
174
     0
175
     0
176
     0
177
     0
178
     0
179
     0
270
     2
271
     2
272
     2
273
     2
274
     3
275
     0
276
     0
277
     2
278
    46
279
     0
280
     0
281
     0
282
     0
283
     1
284
     8
285
     0
286
     0
288
     0
289
     3
340
11
341
0
342
0
343
0
344
0
371
    -2
372
    -2
  0
ENDTAB
  0
TABLE
  2
BLOCK_RECORD
  5
1
330
0
100
AcDbSymbolTable
 70
     3
  0
BLOCK_RECORD
  5
1F
330
1
100
AcDbSymbolTableRecord
100
AcDbBlockTableRecord
  2
*Model_Space
340
22
  0
BLOCK_RECORD
  5
1B
330
1
100
AcDbSymbolTableRecord
100
AcDbBlockTableRecord
  2
*Paper_Space
340
1E
  0
BLOCK_RECORD
  5
23
330
1
100
AcDbSymbolTableRecord
100
AcDbBlockTableRecord
  2
*Paper_Space0
340
26
  0
ENDTAB
  0
ENDSEC
  0
SECTION
  2
BLOCKS
  0
BLOCK
  5
1C
330
1B
100
AcDbEntity
 67
     1
  8
0
100
AcDbBlockBegin
  2
*Paper_Space
 70
     0
 10
0.0
 20
0.0
 30
0.0
  3
*Paper_Space
  1

  0
ENDBLK
  5
1D
330
1B
100
AcDbEntity
  8
0
100
AcDbBlockEnd
  0
BLOCK
  5
20
330
1F
100
AcDbEntity
  8
0
100
AcDbBlockBegin
  2
*Model_Space
 70
     0
 10
0.0
 20
0.0
 30
0.0
  3
*Model_Space
  1

  0
ENDBLK
  5
21
330
1F
100
AcDbEntity
  8
0
100
AcDbBlockEnd
  0
BLOCK
  5
24
330
23
100
AcDbEntity
 67
     1
  8
0
100
AcDbBlockBegin
  2
*Paper_Space0
 70
     0
 10
0.0
 20
0.0
 30
0.0
  3
*Paper_Space0
  1

  0
ENDBLK
  5
25
330
23
100
AcDbEntity
  8
0
100
AcDbBlockEnd
  0
ENDSEC
  0
SECTION
  2
ENTITIES
  0
LINE
  5
AA
330
1F
100
AcDbEntity
  8
4
  6
LTYPE1
 62
     2
100
AcDbLine
 10
1125.514
 20
1108.720446501
 30
0.0
 11
1125.514
 21
1108.720446501
 31
0.0
  0
LINE
  5
AB
330
1F
100
AcDbEntity
  8
4
  6
LTYPE1
 62
     2
100
AcDbLine
 10
1125.514
 20
1108.72
 30
0.0
 11
1125.514
 21
1108.72
 31
0.0
  0
LINE
  5
AC
330
1F
100
AcDbEntity
  8
4
  6
LTYPE1
 62
     2
100
AcDbLine
 10
1125.514
 20
1108.72
 30
0.0
 11
1125.514
 21
1108.72
 31
0.0
  0
LINE
  5
AD
330
1F
100
AcDbEntity
  8
4
  6
LTYPE1
 62
     2
100
AcDbLine
 10
1125.514
 20
1108.72
 30
0.0
 11
1125.514
 21
1108.72
 31
0.0
  0
LINE
  5
AE
330
1F
100
AcDbEntity
  8
4
  6
Continuous
 62
     2
100
AcDbLine
 10
1161.333333333
 20
50.666666667
 30
0.0
 11
421.333333333
 21
50.666666667
 31
0.0
  0
MTEXT
  5
AF
330
1F
100
AcDbEntity
  8
4
  6
Continuous
 62
     2
100
AcDbMText
 10
943.333333333
 20
96.666666667
 30
0.0
 40
10.0
 41
40.0
 71
     1
 72
     3
  1
\W1.000;仕上
  7
KANJI0
 73
     1
 44
1.0
  0
LINE
  5
B1
330
1F
100
AcDbEntity
  8
4
  6
Continuous
 62
     2
100
AcDbLine
 10
941.333333333
 20
122.666666667
 30
0.0
 11
1161.333333333
 21
122.666666667
 31
0.0
  0
LINE
  5
B2
330
1F
100
AcDbEntity
  8
4
  6
Continuous
 62
     2
100
AcDbLine
 10
941.333333333
 20
98.666666667
 30
0.0
 11
1161.333333333
 21
98.666666667
 31
0.0
  0
MTEXT
  5
B3
330
1F
100
AcDbEntity
  8
4
  6
Continuous
 62
     2
100
AcDbMText
 10
943.333333333
 20
120.666666667
 30
0.0
 40
10.0
 41
40.0
 71
     1
 72
     3
  1
\W1.000;規格
  7
KANJI0
 73
     1
 44
1.0
  0
MTEXT
  5
B4
330
1F
100
AcDbEntity
  8
4
  6
Continuous
 62
     2
100
AcDbMText
 10
943.333333333
 20
144.666666667
 30
0.0
 40
10.0
 41
40.0
 71
     1
 72
     3
  1
\W1.000;材質
  7
KANJI0
 73
     1
 44
1.0
  0
MTEXT
  5
B5
330
1F
100
AcDbEntity
  8
4
  6
Continuous
 62
     2
100
AcDbMText
 10
943.333333333
 20
168.666666667
 30
0.0
 40
10.0
 41
40.0
 71
     1
 72
     3
  1
\W1.000;品番
  7
KANJI1
 73
     1
 44
1.0
  0
MTEXT
  5
B7
330
1F
100
AcDbEntity
  8
4
  6
Continuous
 62
     2
100
AcDbMText
 10
943.333333333
 20
192.666666667
 30
0.0
 40
10.0
 41
40.0
 71
     1
 72
     3
  1
\W1.000;図名
  7
KANJI0
 73
     1
 44
1.0
  0
LINE
  5
B8
330
1F
100
AcDbEntity
  8
4
  6
Continuous
 62
     2
100
AcDbLine
 10
941.333333333
 20
146.666666667
 30
0.0
 11
1161.333333333
 21
146.666666667
 31
0.0
  0
LINE
  5
B9
330
1F
100
AcDbEntity
  8
4
  6
Continuous
 62
     2
100
AcDbLine
 10
941.333333333
 20
170.666666667
 30
0.0
 11
1161.333333333
 21
170.666666667
 31
0.0
  0
LINE
  5
BA
330
1F
100
AcDbEntity
  8
4
  6
Continuous
 62
     2
100
AcDbLine
 10
941.333333333
 20
194.666666667
 30
0.0
 11
1161.333333333
 21
194.666666667
 31
0.0
  0
LINE
  5
BB
330
1F
100
AcDbEntity
  8
4
  6
Continuous
 62
     2
100
AcDbLine
 10
853.333333333
 20
50.666666667
 30
0.0
 11
853.333333333
 21
26.666666667
 31
0.0
  0
MTEXT
  5
BC
330
1F
100
AcDbEntity
  8
4
  6
Continuous
 62
     2
100
AcDbMText
 10
855.333333333
 20
48.666666667
 30
0.0
 40
10.0
 41
40.0
 71
     1
 72
     3
  1
\W1.000;日付
  7
KANJI0
 73
     1
 44
1.0
  0
LINE
  5
BD
330
1F
100
AcDbEntity
  8
4
  6
Continuous
 62
     2
100
AcDbLine
 10
941.333333333
 20
26.666666667
 30
0.0
 11
941.333333333
 21
194.666666667
 31
0.0
  0
MTEXT
  5
BE
330
1F
100
AcDbEntity
  8
4
  6
Continuous
 62
     2
100
AcDbMText
 10
855.333333333
 20
72.666666667
 30
0.0
 40
10.0
 41
40.0
 71
     1
 72
     3
  1
\W1.000;尺度
  7
KANJI0
 73
     1
 44
1.0
  0
LINE
  5
BF
330
1F
100
AcDbEntity
  8
4
  6
Continuous
 62
     2
100
AcDbLine
 10
853.333333333
 20
74.666666667
 30
0.0
 11
1161.333333333
 21
74.666666667
 31
0.0
  0
MTEXT
  5
C0
330
1F
100
AcDbEntity
  8
4
  6
Continuous
 62
     2
100
AcDbMText
 10
943.333333333
 20
48.666666667
 30
0.0
 40
10.0
 41
40.0
 71
     1
 72
     3
  1
\W1.000;品名
  7
KANJI0
 73
     1
 44
1.0
  0
MTEXT
  5
C1
330
1F
100
AcDbEntity
  8
4
  6
Continuous
 62
     2
100
AcDbMText
 10
943.333333333
 20
72.666666667
 30
0.0
 40
6.666666667
 41
40.0
 71
     1
 72
     3
  1
\W1.500;その他
  7
KANJI2
 73
     1
 44
1.0
  0
MTEXT
  5
C3
330
1F
100
AcDbEntity
  8
4
  6
Continuous
 62
     2
100
AcDbMText
 10
965.333333333
 20
127.466666667
 30
0.0
 40
12.0
 41
69.6
 71
     7
 72
     1
  1
\T1.111;\W0.900;－－－
  7
KANJI3
 73
     1
 44
1.0
  0
MTEXT
  5
C5
330
1F
100
AcDbEntity
  8
4
  6
Continuous
 62
     2
100
AcDbMText
 10
965.333333333
 20
103.466666667
 30
0.0
 40
12.0
 41
69.6
 71
     7
 72
     1
  1
\T1.111;\W0.900;－－－
  7
KANJI3
 73
     1
 44
1.0
  0
MTEXT
  5
C6
330
1F
100
AcDbEntity
  8
4
  6
Continuous
 62
     2
100
AcDbMText
 10
965.333333333
 20
79.466666667
 30
0.0
 40
12.0
 41
69.6
 71
     7
 72
     1
  1
\T1.111;\W0.900;－－－
  7
KANJI3
 73
     1
 44
1.0
  0
MTEXT
  5
C7
330
1F
100
AcDbEntity
  8
4
  6
Continuous
 62
     2
100
AcDbMText
 10
965.333333333
 20
55.466666667
 30
0.0
 40
12.0
 41
69.6
 71
     7
 72
     1
  1
\T1.111;\W0.900;－－－
  7
KANJI3
 73
     1
 44
1.0
  0
POINT
  5
C8
330
1F
100
AcDbEntity
  8
4
  6
Continuous
 62
     2
100
AcDbPoint
 10
1161.333333333
 20
194.666666667
 30
0.0
  0
LINE
  5
C9
330
1F
100
AcDbEntity
  8
4
  6
Continuous
 62
     2
100
AcDbLine
 10
853.333333333
 20
98.666666667
 30
0.0
 11
941.333333333
 21
98.666666667
 31
0.0
  0
LINE
  5
CA
330
1F
100
AcDbEntity
  8
4
  6
Continuous
 62
     2
100
AcDbLine
 10
853.333333333
 20
98.666666667
 30
0.0
 11
853.333333333
 21
50.666666667
 31
0.0
  0
MTEXT
  5
CB
330
1F
100
AcDbEntity
  8
4
  6
Continuous
 62
     2
100
AcDbMText
 10
855.333333333
 20
96.666666667
 30
0.0
 40
10.0
 41
40.0
 71
     1
 72
     3
  1
\W1.000;用紙
  7
KANJI0
 73
     1
 44
1.0
  0
MTEXT
  5
CC
330
1F
100
AcDbEntity
  8
4
  6
Continuous
 62
     2
100
AcDbMText
 10
425.333333333
 20
32.666666667
 30
0.0
 40
12.0
 41
320.0
 71
     7
 72
     1
  1
\T1.370;\W1.000;オオハシ産業株式会社
  7
KANJI4
 73
     1
 44
1.0
  0
LINE
  5
CE
330
1F
100
AcDbEntity
  8
4
  6
Continuous
 62
     2
100
AcDbLine
 10
593.333333333
 20
50.666666667
 30
0.0
 11
593.333333333
 21
26.666666667
 31
0.0
  0
MTEXT
  5
CF
330
1F
100
AcDbEntity
  8
4
  6
Continuous
 62
     2
100
AcDbMText
 10
595.333333333
 20
48.666666667
 30
0.0
 40
10.0
 41
40.0
 71
     1
 72
     3
  1
\W1.000;作図
  7
KANJI0
 73
     1
 44
1.0
  0
LINE
  5
D0
330
1F
100
AcDbEntity
  8
4
  6
Continuous
 62
     2
100
AcDbLine
 10
673.333333333
 20
26.666666667
 30
0.0
 11
673.333333333
 21
50.666666667
 31
0.0
  0
MTEXT
  5
D1
330
1F
100
AcDbEntity
  8
4
  6
Continuous
 62
     2
100
AcDbMText
 10
677.333333333
 20
32.666666667
 30
0.0
 40
12.0
 41
37.2
 71
     7
 72
     1
  1
\T1.111;\W0.900;ＦＤ＝
  7
KANJI5
 73
     1
 44
1.0
  0
LINE
  5
D3
330
1F
100
AcDbEntity
  8
4
  6
Continuous
 62
     2
100
AcDbLine
 10
753.333333333
 20
26.666666667
 30
0.0
 11
753.333333333
 21
50.666666667
 31
0.0
  0
MTEXT
  5
D4
330
1F
100
AcDbEntity
  8
4
  6
Continuous
 62
     2
100
AcDbMText
 10
757.333333333
 20
32.666666667
 30
0.0
 40
12.0
 41
37.2
 71
     7
 72
     1
  1
\T1.111;\W0.900;ＮＯ＝
  7
KANJI5
 73
     1
 44
1.0
  0
LINE
  5
D5
330
1F
100
AcDbEntity
  8
4
  6
Continuous
 62
     2
100
AcDbLine
 10
421.333333333
 20
26.666666667
 30
0.0
 11
421.333333333
 21
50.666666667
 31
0.0
  0
MTEXT
  5
D6
330
1F
100
AcDbEntity
  8
4
  6
Continuous
 62
     2
100
AcDbMText
 10
481.333333333
 20
60.666666667
 30
0.0
 40
12.0
 41
549.6
 71
     7
 72
     1
  1
\T1.111;\W0.900;特記　　寸法指示無い公差は±０．５以内とする．
  7
KANJI3
 73
     1
 44
1.0
  0
MTEXT
  5
D7
330
1F
100
AcDbEntity
  8
4
  6
Continuous
 62
     2
100
AcDbMText
 10
609.333333333
 20
31.466666667
 30
0.0
 40
12.0
 41
117.6
 71
     7
 72
     1
  1
\T1.111;\W0.900;大橋　一之
  7
KANJI3
 73
     1
 44
1.0
  0
MTEXT
  5
D8
330
1F
100
AcDbEntity
  8
4
  6
Continuous
 62
     2
100
AcDbMText
 10
869.333333333
 20
31.466666667
 30
0.0
 40
12.0
 41
129.6
 71
     7
 72
     1
  1
\T1.111;\W0.900;２０１５／０２／１７
  7
KANJI5
 73
     1
 44
1.0
  0
MTEXT
  5
D9
330
1F
100
AcDbEntity
  8
4
  6
Continuous
 62
     2
100
AcDbMText
 10
703.733333333
 20
31.466666667
 30
0.0
 40
12.0
 41
69.6
 71
     7
 72
     1
  1
\T1.111;\W0.900;ヒビノ
  7
KANJI3
 73
     1
 44
1.0
  0
MTEXT
  5
DA
330
1F
100
AcDbEntity
  8
4
  6
Continuous
 62
     2
100
AcDbMText
 10
885.333333333
 20
79.466666667
 30
0.0
 40
12.0
 41
45.6
 71
     7
 72
     1
  1
\T1.111;\W0.900;Ａ４
  7
KANJI3
 73
     1
 44
1.0
  0
LINE
  5
DB
330
1F
100
AcDbEntity
  8
4
  6
Continuous
 62
     2
100
AcDbLine
 10
26.666666667
 20
26.666666667
 30
0.0
 11
26.666666667
 21
813.333333333
 31
0.0
  0
LINE
  5
DC
330
1F
100
AcDbEntity
  8
4
  6
Continuous
 62
     2
100
AcDbLine
 10
26.666666667
 20
26.666666667
 30
0.0
 11
1161.333333333
 21
26.666666667
 31
0.0
  0
LINE
  5
DD
330
1F
100
AcDbEntity
  8
4
  6
Continuous
 62
     2
100
AcDbLine
 10
1161.333333333
 20
26.666666667
 30
0.0
 11
1161.333333333
 21
813.333333333
 31
0.0
  0
LINE
  5
DE
330
1F
100
AcDbEntity
  8
4
  6
Continuous
 62
     2
100
AcDbLine
 10
26.666666667
 20
813.333333333
 30
0.0
 11
1161.333333333
 21
813.333333333
 31
0.0
  0
MTEXT
  5
DF
330
1F
100
AcDbEntity
  8
4
  6
Continuous
 62
     2
100
AcDbMText
 10
885.333333333
 20
55.466666667
 30
0.0
 40
12.0
 41
69.6
 71
     7
 72
     1
  1
\T1.111;\W0.900;１／４
  7
KANJI3
 73
     1
 44
1.0
  0
LINE
  5
E1
330
1F
100
AcDbEntity
  8
5
  6
LTYPE2
 62
     2
100
AcDbLine
 10
507.503846487
 20
596.74552231
 30
0.0
 11
507.503846487
 21
676.74552231
 31
0.0
  0
CIRCLE
  5
E2
330
1F
100
AcDbEntity
  8
5
  6
LTYPE2
 62
     2
100
AcDbCircle
 10
482.503846487
 20
636.74552231
 30
0.0
 40
12.5
  0
LINE
  5
E3
330
1F
100
AcDbEntity
  8
5
  6
LTYPE2
 62
     2
100
AcDbLine
 10
457.503846487
 20
596.74552231
 30
0.0
 11
457.503846487
 21
676.74552231
 31
0.0
  0
LINE
  5
E4
330
1F
100
AcDbEntity
  8
5
  6
LTYPE2
 62
     2
100
AcDbLine
 10
507.503846487
 20
668.745523423
 30
0.0
 11
457.503846487
 21
668.745528827
 31
0.0
  0
LINE
  5
E5
330
1F
100
AcDbEntity
  8
5
  6
LTYPE2
 62
     2
100
AcDbLine
 10
507.503846487
 20
660.745523423
 30
0.0
 11
457.503846487
 21
660.745528827
 31
0.0
  0
LWPOLYLINE
  5
E8
330
1F
100
AcDbEntity
  8
5
  6
Continuous
 62
     1
100
AcDbPolyline
 90
     8
 70
   129
 43
0.0
 10
417.503846487
 20
711.74552231
 42
0.0
 10
547.503846487
 20
711.74552231
 42
-0.414213562
 10
557.503846487
 20
701.74552231
 42
0.0
 10
557.503846487
 20
571.74552231
 42
-0.414213562
 10
547.503846487
 20
561.74552231
 42
0.0
 10
417.503846487
 20
561.74552231
 42
-0.414213562
 10
407.503846487
 20
571.74552231
 42
0.0
 10
407.503846487
 20
701.74552231
 42
-0.414213562
  0
LWPOLYLINE
  5
ED
330
1F
100
AcDbEntity
  8
5
  6
LTYPE2
 62
     2
100
AcDbPolyline
 90
    12
 70
   128
 43
0.0
 10
497.003848735
 20
668.745524558
 42
0.0
 10
505.003846487
 20
676.74552231
 42
0.0
 10
517.503846487
 20
676.74552231
 42
-0.414213562
 10
522.503846487
 20
671.74552231
 42
0.0
 10
522.503846487
 20
601.74552231
 42
-0.414213562
 10
517.503846487
 20
596.74552231
 42
0.0
 10
447.503846487
 20
596.74552231
 42
-0.414213562
 10
442.503846487
 20
601.74552231
 42
0.0
 10
442.503846487
 20
671.74552231
 42
-0.414213562
 10
447.503846487
 20
676.74552231
 42
0.0
 10
460.003846487
 20
676.74552231
 42
0.0
 10
468.003841106
 20
668.745527692
 42
0.0
  0
LWPOLYLINE
  5
F3
330
1F
100
AcDbEntity
  8
5
  6
LTYPE2
 62
     2
100
AcDbPolyline
 90
     6
 70
   129
 43
0.0
 10
470.956841103
 20
656.74552231
 10
494.050851871
 20
656.74552231
 10
505.597857255
 20
636.74552231
 10
494.050851871
 20
616.74552231
 10
470.956841103
 20
616.74552231
 10
459.40983572
 20
636.74552231
  0
LINE
  5
F4
330
1F
100
AcDbEntity
  8
5
  6
LTYPE2
 62
     2
100
AcDbLine
 10
470.003846487
 20
655.094887216
 30
0.0
 11
470.003846487
 21
660.745527476
 31
0.0
  0
LINE
  5
F5
330
1F
100
AcDbEntity
  8
5
  6
LTYPE2
 62
     2
100
AcDbLine
 10
495.003846487
 20
655.094887216
 30
0.0
 11
495.003846487
 21
660.745524774
 31
0.0
  0
ARC
  5
F6
330
1F
100
AcDbEntity
  8
2
  6
Continuous
 62
     1
100
AcDbCircle
 10
762.753846487
 20
565.74552231
 30
0.0
 40
4.0
100
AcDbArc
 50
270.0
 51
0.0
  0
LINE
  5
F7
330
1F
100
AcDbEntity
  8
2
  6
Continuous
 62
     1
100
AcDbLine
 10
764.753846487
 20
565.74552231
 30
0.0
 11
766.753846487
 21
565.74552231
 31
0.0
  0
LINE
  5
F8
330
1F
100
AcDbEntity
  8
2
  6
Continuous
 62
     1
100
AcDbLine
 10
762.753846487
 20
563.745507051
 30
0.0
 11
762.753846487
 21
561.74552231
 31
0.0
  0
ARC
  5
F9
330
1F
100
AcDbEntity
  8
2
  6
Continuous
 62
     1
100
AcDbCircle
 10
762.753846487
 20
565.74552231
 30
0.0
 40
2.0
100
AcDbArc
 50
270.0
 51
0.0
  0
ARC
  5
FA
330
1F
100
AcDbEntity
  8
2
  6
Continuous
 62
     1
100
AcDbCircle
 10
764.753846487
 20
563.74552231
 30
0.0
 40
2.0
100
AcDbArc
 50
90.0
 51
120.522487814
  0
LINE
  5
FB
330
1F
100
AcDbEntity
  8
2
  6
Continuous
 62
     1
100
AcDbLine
 10
751.753846487
 20
577.452629091
 30
0.0
 11
763.738093484
 21
565.468382095
 31
0.0
  0
LWPOLYLINE
  5
FE
330
1F
100
AcDbEntity
  8
2
  6
Continuous
 62
     1
100
AcDbPolyline
 90
     3
 70
   128
 43
0.0
 10
751.046739706
 20
576.74552231
 42
0.0
 10
763.030986703
 20
564.761275313
 42
0.133974437
 10
762.753846487
 20
563.745507051
 42
0.0
  0
LINE
  5
FF
330
1F
100
AcDbEntity
  8
2
  6
Continuous
 62
     1
100
AcDbLine
 10
682.753846487
 20
561.74552231
 30
0.0
 11
682.753846487
 21
571.74552231
 31
0.0
  0
LINE
  5
100
330
1F
100
AcDbEntity
  8
2
  6
LTYPE2
 62
     2
100
AcDbLine
 10
682.753846487
 20
563.74552231
 30
0.0
 11
762.753846487
 21
563.74552231
 31
0.0
  0
LINE
  5
101
330
1F
100
AcDbEntity
  8
2
  6
Continuous
 62
     1
100
AcDbLine
 10
682.753846487
 20
561.74552231
 30
0.0
 11
762.753846487
 21
561.74552231
 31
0.0
  0
LINE
  5
102
330
1F
100
AcDbEntity
  8
2
  6
Continuous
 62
     1
100
AcDbLine
 10
687.753857277
 20
576.74552231
 30
0.0
 11
751.046739706
 21
576.74552231
 31
0.0
  0
ARC
  5
103
330
1F
100
AcDbEntity
  8
2
  6
Continuous
 62
     1
100
AcDbCircle
 10
687.753846487
 20
571.74552231
 30
0.0
 40
5.0
100
AcDbArc
 50
89.999876362
 51
180.0
  0
ARC
  5
104
330
1F
100
AcDbEntity
  8
2
  6
Continuous
 62
     1
100
AcDbCircle
 10
202.253846487
 20
565.74552231
 30
0.0
 40
4.0
100
AcDbArc
 50
180.0
 51
270.0
  0
LINE
  5
105
330
1F
100
AcDbEntity
  8
2
  6
Continuous
 62
     1
100
AcDbLine
 10
200.253846487
 20
565.74552231
 30
0.0
 11
198.253846487
 21
565.74552231
 31
0.0
  0
LINE
  5
106
330
1F
100
AcDbEntity
  8
2
  6
Continuous
 62
     1
100
AcDbLine
 10
202.253846487
 20
563.745507051
 30
0.0
 11
202.253846487
 21
561.74552231
 31
0.0
  0
ARC
  5
107
330
1F
100
AcDbEntity
  8
2
  6
Continuous
 62
     1
100
AcDbCircle
 10
202.253846487
 20
565.74552231
 30
0.0
 40
2.0
100
AcDbArc
 50
180.0
 51
270.0
  0
ARC
  5
108
330
1F
100
AcDbEntity
  8
2
  6
Continuous
 62
     1
100
AcDbCircle
 10
200.253846487
 20
563.74552231
 30
0.0
 40
2.0
100
AcDbArc
 50
59.477512186
 51
90.0
  0
LINE
  5
109
330
1F
100
AcDbEntity
  8
2
  6
Continuous
 62
     1
100
AcDbLine
 10
213.253846487
 20
577.452629091
 30
0.0
 11
201.26959949
 21
565.468382095
 31
0.0
  0
LWPOLYLINE
  5
10C
330
1F
100
AcDbEntity
  8
2
  6
Continuous
 62
     1
100
AcDbPolyline
 90
     3
 70
   128
 43
0.0
 10
213.960953268
 20
576.74552231
 42
0.0
 10
201.976706271
 20
564.761275313
 42
-0.133974437
 10
202.253846487
 20
563.745507051
 42
0.0
  0
LINE
  5
10D
330
1F
100
AcDbEntity
  8
2
  6
Continuous
 62
     1
100
AcDbLine
 10
282.253846487
 20
561.74552231
 30
0.0
 11
282.253846487
 21
571.74552231
 31
0.0
  0
LINE
  5
10E
330
1F
100
AcDbEntity
  8
2
  6
LTYPE2
 62
     2
100
AcDbLine
 10
282.253846487
 20
563.74552231
 30
0.0
 11
202.253846487
 21
563.74552231
 31
0.0
  0
LINE
  5
10F
330
1F
100
AcDbEntity
  8
2
  6
Continuous
 62
     1
100
AcDbLine
 10
282.253846487
 20
561.74552231
 30
0.0
 11
202.253846487
 21
561.74552231
 31
0.0
  0
LINE
  5
110
330
1F
100
AcDbEntity
  8
2
  6
Continuous
 62
     1
100
AcDbLine
 10
277.253835698
 20
576.74552231
 30
0.0
 11
213.960953268
 21
576.74552231
 31
0.0
  0
ARC
  5
111
330
1F
100
AcDbEntity
  8
2
  6
Continuous
 62
     1
100
AcDbCircle
 10
277.253846487
 20
571.74552231
 30
0.0
 40
5.0
100
AcDbArc
 50
0.0
 51
90.000123638
  0
LINE
  5
112
330
1F
100
AcDbEntity
  8
3
  6
Continuous
 62
     1
100
AcDbLine
 10
767.503846487
 20
590.74552231
 30
0.0
 11
767.503846487
 21
586.74552231
 31
0.0
  0
LINE
  5
113
330
1F
100
AcDbEntity
  8
3
  6
Continuous
 62
     1
100
AcDbLine
 10
765.503846487
 20
588.74552231
 30
0.0
 11
769.503846487
 21
588.74552231
 31
0.0
  0
ARC
  5
114
330
1F
100
AcDbEntity
  8
3
  6
Continuous
 62
     1
100
AcDbCircle
 10
767.503846487
 20
588.74552231
 30
0.0
 40
2.0
100
AcDbArc
 50
90.0
 51
180.0
  0
ARC
  5
115
330
1F
100
AcDbEntity
  8
3
  6
Continuous
 62
     1
100
AcDbCircle
 10
767.503846487
 20
684.74552231
 30
0.0
 40
2.0
100
AcDbArc
 50
180.0
 51
270.0
  0
LINE
  5
116
330
1F
100
AcDbEntity
  8
3
  6
LTYPE2
 62
     2
100
AcDbLine
 10
767.503846487
 20
682.74552231
 30
0.0
 11
767.503846487
 21
590.74552231
 31
0.0
  0
LINE
  5
117
330
1F
100
AcDbEntity
  8
3
  6
Continuous
 62
     1
100
AcDbLine
 10
769.503846487
 20
684.74552231
 30
0.0
 11
769.503846487
 21
588.74552231
 31
0.0
  0
LINE
  5
118
330
1F
100
AcDbEntity
  8
3
  6
Continuous
 62
     1
100
AcDbLine
 10
765.503846487
 20
684.74552231
 30
0.0
 11
769.503846487
 21
684.74552231
 31
0.0
  0
LINE
  5
119
330
1F
100
AcDbEntity
  8
3
  6
Continuous
 62
     1
100
AcDbLine
 10
767.503846487
 20
682.74552231
 30
0.0
 11
767.503846487
 21
686.74552231
 31
0.0
  0
LINE
  5
11A
330
1F
100
AcDbEntity
  8
3
  6
Continuous
 62
     1
100
AcDbLine
 10
199.503846487
 20
588.74552231
 30
0.0
 11
195.503846487
 21
588.74552231
 31
0.0
  0
LINE
  5
11B
330
1F
100
AcDbEntity
  8
3
  6
LTYPE2
 62
     2
100
AcDbLine
 10
197.503846487
 20
682.74552231
 30
0.0
 11
197.503846487
 21
590.74552231
 31
0.0
  0
LINE
  5
11C
330
1F
100
AcDbEntity
  8
3
  6
Continuous
 62
     1
100
AcDbLine
 10
195.503846487
 20
684.74552231
 30
0.0
 11
195.503846487
 21
588.74552231
 31
0.0
  0
LINE
  5
11D
330
1F
100
AcDbEntity
  8
3
  6
Continuous
 62
     1
100
AcDbLine
 10
199.503846487
 20
684.74552231
 30
0.0
 11
195.503846487
 21
684.74552231
 31
0.0
  0
LINE
  5
11E
330
1F
100
AcDbEntity
  8
3
  6
Continuous
 62
     1
100
AcDbLine
 10
197.503846487
 20
590.74552231
 30
0.0
 11
197.503846487
 21
586.74552231
 31
0.0
  0
ARC
  5
11F
330
1F
100
AcDbEntity
  8
3
  6
Continuous
 62
     1
100
AcDbCircle
 10
197.503846487
 20
588.74552231
 30
0.0
 40
2.0
100
AcDbArc
 50
0.0
 51
90.0
  0
ARC
  5
120
330
1F
100
AcDbEntity
  8
3
  6
Continuous
 62
     1
100
AcDbCircle
 10
197.503846487
 20
684.74552231
 30
0.0
 40
2.0
100
AcDbArc
 50
270.0
 51
0.0
  0
LINE
  5
121
330
1F
100
AcDbEntity
  8
3
  6
Continuous
 62
     1
100
AcDbLine
 10
197.503846487
 20
682.74552231
 30
0.0
 11
197.503846487
 21
686.74552231
 31
0.0
  0
LINE
  5
122
330
1F
100
AcDbEntity
  8
0
  6
LTYPE1
 62
     2
100
AcDbLine
 10
227.711204429
 20
716.74552231
 30
0.0
 11
738.01860686
 21
716.74552231
 31
0.0
  0
LINE
  5
123
330
1F
100
AcDbEntity
  8
0
  6
LTYPE1
 62
     2
100
AcDbLine
 10
739.89090373
 20
715.448732402
 30
0.0
 11
746.12681518
 21
698.845618165
 31
0.0
  0
LINE
  5
124
330
1F
100
AcDbEntity
  8
0
  6
LTYPE1
 62
     2
100
AcDbLine
 10
219.656958188
 20
698.816886496
 30
0.0
 11
225.8365156
 21
715.442330599
 31
0.0
  0
ARC
  5
125
330
1F
100
AcDbEntity
  8
0
  6
LTYPE1
 62
     2
100
AcDbCircle
 10
738.01860686
 20
714.74552231
 30
0.0
 40
2.0
100
AcDbArc
 50
20.585518355
 51
90.0
  0
ARC
  5
126
330
1F
100
AcDbEntity
  8
0
  6
LTYPE1
 62
     2
100
AcDbCircle
 10
227.711204429
 20
714.74552231
 30
0.0
 40
2.0
100
AcDbArc
 50
90.0
 51
159.610263522
  0
ARC
  5
127
330
1F
100
AcDbEntity
  8
0
  6
LTYPE1
 62
     2
100
AcDbCircle
 10
727.403846487
 20
691.813517247
 30
0.0
 40
20.0
100
AcDbArc
 50
0.0
 51
20.585518355
  0
ARC
  5
128
330
1F
100
AcDbEntity
  8
0
  6
LTYPE1
 62
     2
100
AcDbCircle
 10
238.403846487
 20
691.84880361
 30
0.0
 40
20.0
100
AcDbArc
 50
159.610263522
 51
180.0
  0
LINE
  5
129
330
1F
100
AcDbEntity
  8
0
  6
LTYPE1
 62
     2
100
AcDbLine
 10
747.403846487
 20
691.813517247
 30
0.0
 11
747.403846487
 21
576.74552231
 31
0.0
  0
LINE
  5
12A
330
1F
100
AcDbEntity
  8
0
  6
LTYPE1
 62
     2
100
AcDbLine
 10
682.753846487
 20
563.74552231
 30
0.0
 11
282.253846487
 21
563.74552231
 31
0.0
  0
LINE
  5
12B
330
1F
100
AcDbEntity
  8
0
  6
LTYPE1
 62
     2
100
AcDbLine
 10
218.403846487
 20
576.74552231
 30
0.0
 11
218.403846487
 21
691.84880361
 31
0.0
  0
LINE
  5
12C
330
1F
100
AcDbEntity
  8
2
  6
LTYPE2
 62
     2
100
AcDbLine
 10
200.253846487
 20
565.74552231
 30
0.0
 11
200.253846487
 21
586.74552231
 31
0.0
  0
LINE
  5
12D
330
1F
100
AcDbEntity
  8
2
  6
Continuous
 62
     1
100
AcDbLine
 10
213.253846487
 20
577.452629091
 30
0.0
 11
213.253846487
 21
586.74552231
 31
0.0
  0
LINE
  5
12E
330
1F
100
AcDbEntity
  8
2
  6
Continuous
 62
     1
100
AcDbLine
 10
198.253846487
 20
565.74552231
 30
0.0
 11
198.253846487
 21
586.74552231
 31
0.0
  0
LINE
  5
12F
330
1F
100
AcDbEntity
  8
2
  6
LTYPE2
 62
     2
100
AcDbLine
 10
764.753846487
 20
565.74552231
 30
0.0
 11
764.753846487
 21
586.74552231
 31
0.0
  0
LINE
  5
130
330
1F
100
AcDbEntity
  8
2
  6
Continuous
 62
     1
100
AcDbLine
 10
751.753846487
 20
577.452629091
 30
0.0
 11
751.753846487
 21
586.74552231
 31
0.0
  0
LINE
  5
131
330
1F
100
AcDbEntity
  8
2
  6
Continuous
 62
     1
100
AcDbLine
 10
766.753846487
 20
565.74552231
 30
0.0
 11
766.753846487
 21
586.74552231
 31
0.0
  0
LINE
  5
132
330
1F
100
AcDbEntity
  8
2
  6
LTYPE2
 62
     2
100
AcDbLine
 10
756.753846487
 20
613.74555161
 30
0.0
 11
766.753846487
 21
613.74555161
 31
0.0
  0
ARC
  5
133
330
1F
100
AcDbEntity
  8
2
  6
LTYPE2
 62
     2
100
AcDbCircle
 10
756.753846487
 20
608.74555161
 30
0.0
 40
5.0
100
AcDbArc
 50
90.0
 51
180.0
  0
LINE
  5
134
330
1F
100
AcDbEntity
  8
2
  6
LTYPE2
 62
     2
100
AcDbLine
 10
751.753846487
 20
586.74552231
 30
0.0
 11
751.753846487
 21
608.74555161
 31
0.0
  0
LINE
  5
135
330
1F
100
AcDbEntity
  8
2
  6
LTYPE2
 62
     2
100
AcDbLine
 10
764.753846487
 20
661.74552231
 30
0.0
 11
766.753846487
 21
661.74552231
 31
0.0
  0
LINE
  5
136
330
1F
100
AcDbEntity
  8
2
  6
LTYPE2
 62
     2
100
AcDbLine
 10
764.753846487
 20
613.74555161
 30
0.0
 11
764.753846487
 21
661.74552231
 31
0.0
  0
LINE
  5
137
330
1F
100
AcDbEntity
  8
2
  6
LTYPE2
 62
     2
100
AcDbLine
 10
764.753846487
 20
632.415395291
 30
0.0
 11
758.753846487
 21
632.415395291
 31
0.0
  0
LINE
  5
138
330
1F
100
AcDbEntity
  8
2
  6
LTYPE2
 62
     2
100
AcDbLine
 10
764.753846487
 20
628.085268272
 30
0.0
 11
758.753846487
 21
628.085268272
 31
0.0
  0
LINE
  5
139
330
1F
100
AcDbEntity
  8
2
  6
LTYPE2
 62
     2
100
AcDbLine
 10
764.753846487
 20
645.405776348
 30
0.0
 11
758.753846487
 21
645.405776348
 31
0.0
  0
LINE
  5
13A
330
1F
100
AcDbEntity
  8
2
  6
LTYPE2
 62
     2
100
AcDbLine
 10
764.753846487
 20
641.075649329
 30
0.0
 11
758.753846487
 21
641.075649329
 31
0.0
  0
ARC
  5
13B
330
1F
100
AcDbEntity
  8
2
  6
LTYPE2
 62
     2
100
AcDbCircle
 10
759.566346642
 20
643.240712839
 30
0.0
 40
2.312500155
100
AcDbArc
 50
110.569995672
 51
249.430004329
  0
LWPOLYLINE
  5
13E
330
1F
100
AcDbEntity
  8
2
  6
LTYPE2
 62
     2
100
AcDbPolyline
 90
     3
 70
   128
 43
0.0
 10
758.753490948
 20
641.074601692
 42
0.346410138
 10
758.753490983
 20
632.416399676
 42
0.692577528
 10
758.753846448
 20
628.085268188
 42
0.0
  0
LINE
  5
13F
330
1F
100
AcDbEntity
  8
2
  6
LTYPE2
 62
     2
100
AcDbLine
 10
757.253846487
 20
643.24069758
 30
0.0
 11
757.253846487
 21
630.250885492
 31
0.0
  0
LINE
  5
140
330
1F
100
AcDbEntity
  8
2
  6
LTYPE2
 62
     2
100
AcDbLine
 10
766.753846487
 20
586.74552231
 30
0.0
 11
766.753846487
 21
661.74552231
 31
0.0
  0
LINE
  5
141
330
1F
100
AcDbEntity
  8
2
  6
LTYPE2
 62
     2
100
AcDbLine
 10
200.253846487
 20
661.74552231
 30
0.0
 11
198.253846487
 21
661.74552231
 31
0.0
  0
LINE
  5
142
330
1F
100
AcDbEntity
  8
2
  6
LTYPE2
 62
     2
100
AcDbLine
 10
200.253846487
 20
613.74555161
 30
0.0
 11
200.253846487
 21
661.74552231
 31
0.0
  0
LINE
  5
143
330
1F
100
AcDbEntity
  8
2
  6
LTYPE2
 62
     2
100
AcDbLine
 10
200.253846487
 20
632.415395291
 30
0.0
 11
206.253846487
 21
632.415395291
 31
0.0
  0
LINE
  5
144
330
1F
100
AcDbEntity
  8
2
  6
LTYPE2
 62
     2
100
AcDbLine
 10
200.253846487
 20
628.085268272
 30
0.0
 11
206.253846487
 21
628.085268272
 31
0.0
  0
LINE
  5
145
330
1F
100
AcDbEntity
  8
2
  6
LTYPE2
 62
     2
100
AcDbLine
 10
200.253846487
 20
645.405776348
 30
0.0
 11
206.253846487
 21
645.405776348
 31
0.0
  0
LINE
  5
146
330
1F
100
AcDbEntity
  8
2
  6
LTYPE2
 62
     2
100
AcDbLine
 10
200.253846487
 20
641.075649329
 30
0.0
 11
206.253846487
 21
641.075649329
 31
0.0
  0
ARC
  5
147
330
1F
100
AcDbEntity
  8
2
  6
LTYPE2
 62
     2
100
AcDbCircle
 10
205.441346333
 20
643.240712839
 30
0.0
 40
2.312500155
100
AcDbArc
 50
290.569995671
 51
69.430004328
  0
LWPOLYLINE
  5
14A
330
1F
100
AcDbEntity
  8
2
  6
LTYPE2
 62
     2
100
AcDbPolyline
 90
     3
 70
   128
 43
0.0
 10
206.254202027
 20
641.074601692
 42
-0.346410138
 10
206.254201992
 20
632.416399676
 42
-0.692577528
 10
206.253846526
 20
628.085268188
 42
0.0
  0
LINE
  5
14B
330
1F
100
AcDbEntity
  8
2
  6
LTYPE2
 62
     2
100
AcDbLine
 10
207.753846487
 20
643.24069758
 30
0.0
 11
207.753846487
 21
630.250885492
 31
0.0
  0
LINE
  5
14C
330
1F
100
AcDbEntity
  8
2
  6
LTYPE2
 62
     2
100
AcDbLine
 10
198.253846487
 20
586.74552231
 30
0.0
 11
198.253846487
 21
661.74552231
 31
0.0
  0
LINE
  5
14D
330
1F
100
AcDbEntity
  8
2
  6
LTYPE2
 62
     2
100
AcDbLine
 10
208.253846487
 20
613.74555161
 30
0.0
 11
198.253846487
 21
613.74555161
 31
0.0
  0
ARC
  5
14E
330
1F
100
AcDbEntity
  8
2
  6
LTYPE2
 62
     2
100
AcDbCircle
 10
208.253846487
 20
608.74555161
 30
0.0
 40
5.0
100
AcDbArc
 50
0.0
 51
90.0
  0
LINE
  5
14F
330
1F
100
AcDbEntity
  8
2
  6
LTYPE2
 62
     2
100
AcDbLine
 10
213.253846487
 20
586.74552231
 30
0.0
 11
213.253846487
 21
608.74555161
 31
0.0
  0
LINE
  5
150
330
1F
100
AcDbEntity
  8
3
  6
LTYPE2
 62
     2
100
AcDbLine
 10
557.503846487
 20
684.74552231
 30
0.0
 11
765.503846487
 21
684.74552231
 31
0.0
  0
LINE
  5
151
330
1F
100
AcDbEntity
  8
3
  6
LTYPE2
 62
     2
100
AcDbLine
 10
199.503846487
 20
684.74552231
 30
0.0
 11
407.503846487
 21
684.74552231
 31
0.0
  0
LINE
  5
152
330
1F
100
AcDbEntity
  8
3
  6
LTYPE2
 62
     2
100
AcDbLine
 10
557.503846487
 20
588.74552231
 30
0.0
 11
765.503846487
 21
588.74552231
 31
0.0
  0
LINE
  5
153
330
1F
100
AcDbEntity
  8
3
  6
LTYPE2
 62
     2
100
AcDbLine
 10
199.503846487
 20
588.74552231
 30
0.0
 11
407.503846487
 21
588.74552231
 31
0.0
  0
LINE
  5
154
330
1F
100
AcDbEntity
  8
3
  6
Continuous
 62
     1
100
AcDbLine
 10
197.503846487
 20
586.74552231
 30
0.0
 11
407.503846487
 21
586.74552231
 31
0.0
  0
LINE
  5
155
330
1F
100
AcDbEntity
  8
3
  6
Continuous
 62
     1
100
AcDbLine
 10
557.503846487
 20
586.74552231
 30
0.0
 11
767.503846487
 21
586.74552231
 31
0.0
  0
LINE
  5
156
330
1F
100
AcDbEntity
  8
3
  6
Continuous
 62
     1
100
AcDbLine
 10
557.503846487
 20
686.74552231
 30
0.0
 11
767.503846487
 21
686.74552231
 31
0.0
  0
LINE
  5
157
330
1F
100
AcDbEntity
  8
3
  6
Continuous
 62
     1
100
AcDbLine
 10
197.503846487
 20
686.74552231
 30
0.0
 11
407.503846487
 21
686.74552231
 31
0.0
  0
LINE
  5
158
330
1F
100
AcDbEntity
  8
3
  6
LTYPE2
 62
     2
100
AcDbLine
 10
407.503846487
 20
686.74552231
 30
0.0
 11
557.503846487
 21
686.74552231
 31
0.0
  0
LINE
  5
159
330
1F
100
AcDbEntity
  8
3
  6
LTYPE2
 62
     2
100
AcDbLine
 10
407.503846487
 20
586.74552231
 30
0.0
 11
557.503846487
 21
586.74552231
 31
0.0
  0
CIRCLE
  5
15A
330
1F
100
AcDbEntity
  8
5
  6
Continuous
 62
     1
100
AcDbCircle
 10
542.503846487
 20
696.74552231
 30
0.0
 40
5.1
  0
CIRCLE
  5
15B
330
1F
100
AcDbEntity
  8
5
  6
Continuous
 62
     1
100
AcDbCircle
 10
482.503846487
 20
696.74552231
 30
0.0
 40
5.1
  0
CIRCLE
  5
15C
330
1F
100
AcDbEntity
  8
5
  6
Continuous
 62
     1
100
AcDbCircle
 10
422.503846487
 20
696.74552231
 30
0.0
 40
5.1
  0
CIRCLE
  5
15D
330
1F
100
AcDbEntity
  8
5
  6
Continuous
 62
     1
100
AcDbCircle
 10
542.503846487
 20
636.74552231
 30
0.0
 40
5.1
  0
CIRCLE
  5
15E
330
1F
100
AcDbEntity
  8
5
  6
Continuous
 62
     1
100
AcDbCircle
 10
542.503846487
 20
576.74552231
 30
0.0
 40
5.1
  0
CIRCLE
  5
15F
330
1F
100
AcDbEntity
  8
5
  6
Continuous
 62
     1
100
AcDbCircle
 10
482.503846487
 20
576.74552231
 30
0.0
 40
5.1
  0
CIRCLE
  5
160
330
1F
100
AcDbEntity
  8
5
  6
Continuous
 62
     1
100
AcDbCircle
 10
422.503846487
 20
576.74552231
 30
0.0
 40
5.1
  0
CIRCLE
  5
161
330
1F
100
AcDbEntity
  8
5
  6
Continuous
 62
     1
100
AcDbCircle
 10
422.503846487
 20
636.74552231
 30
0.0
 40
5.1
  0
LWPOLYLINE
  5
163
330
1F
100
AcDbEntity
  8
5
  6
Continuous
 62
     2
100
AcDbPolyline
 90
     4
 70
   129
 43
0.0
 10
195.503846487
 20
628.245517278
 10
195.503846487
 20
645.245517278
 10
193.903846487
 20
645.245517278
 10
193.903846487
 20
628.245517278
  0
LWPOLYLINE
  5
165
330
1F
100
AcDbEntity
  8
5
  6
Continuous
 62
     2
100
AcDbPolyline
 90
     4
 70
   129
 43
0.0
 10
193.903846487
 20
644.445517278
 10
191.903846487
 20
644.445517278
 10
191.903846487
 20
629.045517278
 10
193.903846487
 20
629.045517278
  0
LINE
  5
166
330
1F
100
AcDbEntity
  8
5
  6
Continuous
 62
     2
100
AcDbLine
 10
191.903846487
 20
629.245517278
 30
0.0
 11
187.303846487
 21
629.245517278
 31
0.0
  0
LINE
  5
167
330
1F
100
AcDbEntity
  8
5
  6
Continuous
 62
     2
100
AcDbLine
 10
191.903846487
 20
644.245517278
 30
0.0
 11
187.303846487
 21
644.245517278
 31
0.0
  0
LINE
  5
168
330
1F
100
AcDbEntity
  8
5
  6
Continuous
 62
     2
100
AcDbLine
 10
191.903846487
 20
640.545517278
 30
0.0
 11
187.303846487
 21
640.545517278
 31
0.0
  0
LINE
  5
169
330
1F
100
AcDbEntity
  8
5
  6
Continuous
 62
     2
100
AcDbLine
 10
191.903846487
 20
632.945517278
 30
0.0
 11
187.303846487
 21
632.945517278
 31
0.0
  0
LINE
  5
16A
330
1F
100
AcDbEntity
  8
5
  6
Continuous
 62
     2
100
AcDbLine
 10
186.603846487
 20
631.045517278
 30
0.0
 11
186.603846487
 21
642.445517278
 31
0.0
  0
ARC
  5
16B
330
1F
100
AcDbEntity
  8
5
  6
Continuous
 62
     2
100
AcDbCircle
 10
189.403846487
 20
642.445517278
 30
0.0
 40
2.8
100
AcDbArc
 50
138.5
 51
221.5
  0
ARC
  5
16C
330
1F
100
AcDbEntity
  8
5
  6
Continuous
 62
     2
100
AcDbCircle
 10
197.303846487
 20
636.745517278
 30
0.0
 40
10.7
100
AcDbArc
 50
159.1
 51
200.9
  0
ARC
  5
16D
330
1F
100
AcDbEntity
  8
5
  6
Continuous
 62
     2
100
AcDbCircle
 10
189.403846487
 20
631.045517278
 30
0.0
 40
2.8
100
AcDbArc
 50
138.5
 51
221.5
  0
LINE
  5
16E
330
1F
100
AcDbEntity
  8
5
  6
Continuous
 62
     2
100
AcDbLine
 10
191.903846487
 20
636.745517278
 30
0.0
 11
193.903846487
 21
637.900217817
 31
0.0
  0
LINE
  5
16F
330
1F
100
AcDbEntity
  8
5
  6
Continuous
 62
     2
100
AcDbLine
 10
193.903846487
 20
636.745517278
 30
0.0
 11
191.903846487
 21
635.59081674
 31
0.0
  0
LWPOLYLINE
  5
171
330
1F
100
AcDbEntity
  8
5
  6
Continuous
 62
     2
100
AcDbPolyline
 90
     4
 70
   129
 43
0.0
 10
769.503846487
 20
645.245528068
 10
769.503846487
 20
628.245528068
 10
771.103846487
 20
628.245528068
 10
771.103846487
 20
645.245528068
  0
LWPOLYLINE
  5
173
330
1F
100
AcDbEntity
  8
5
  6
Continuous
 62
     2
100
AcDbPolyline
 90
     4
 70
   129
 43
0.0
 10
771.103846487
 20
629.045528068
 10
773.103846487
 20
629.045528068
 10
773.103846487
 20
644.445528068
 10
771.103846487
 20
644.445528068
  0
LINE
  5
174
330
1F
100
AcDbEntity
  8
5
  6
Continuous
 62
     2
100
AcDbLine
 10
773.103846487
 20
644.245528068
 30
0.0
 11
777.703846487
 21
644.245528068
 31
0.0
  0
LINE
  5
175
330
1F
100
AcDbEntity
  8
5
  6
Continuous
 62
     2
100
AcDbLine
 10
773.103846487
 20
629.245528068
 30
0.0
 11
777.703846487
 21
629.245528068
 31
0.0
  0
LINE
  5
176
330
1F
100
AcDbEntity
  8
5
  6
Continuous
 62
     2
100
AcDbLine
 10
773.103846487
 20
632.945528068
 30
0.0
 11
777.703846487
 21
632.945528068
 31
0.0
  0
LINE
  5
177
330
1F
100
AcDbEntity
  8
5
  6
Continuous
 62
     2
100
AcDbLine
 10
773.103846487
 20
640.545528068
 30
0.0
 11
777.703846487
 21
640.545528068
 31
0.0
  0
LINE
  5
178
330
1F
100
AcDbEntity
  8
5
  6
Continuous
 62
     2
100
AcDbLine
 10
778.403846487
 20
642.445528068
 30
0.0
 11
778.403846487
 21
631.045528068
 31
0.0
  0
ARC
  5
179
330
1F
100
AcDbEntity
  8
5
  6
Continuous
 62
     2
100
AcDbCircle
 10
775.603846487
 20
631.045528068
 30
0.0
 40
2.8
100
AcDbArc
 50
318.5
 51
41.5
  0
ARC
  5
17A
330
1F
100
AcDbEntity
  8
5
  6
Continuous
 62
     2
100
AcDbCircle
 10
767.703846487
 20
636.745528068
 30
0.0
 40
10.7
100
AcDbArc
 50
339.1
 51
20.9
  0
ARC
  5
17B
330
1F
100
AcDbEntity
  8
5
  6
Continuous
 62
     2
100
AcDbCircle
 10
775.603846487
 20
642.445528068
 30
0.0
 40
2.8
100
AcDbArc
 50
318.5
 51
41.5
  0
LINE
  5
17C
330
1F
100
AcDbEntity
  8
5
  6
Continuous
 62
     2
100
AcDbLine
 10
773.103846487
 20
636.745528068
 30
0.0
 11
771.103846487
 21
635.59082753
 31
0.0
  0
LINE
  5
17D
330
1F
100
AcDbEntity
  8
5
  6
Continuous
 62
     2
100
AcDbLine
 10
771.103846487
 20
636.745528068
 30
0.0
 11
773.103846487
 21
637.900228606
 31
0.0
  0
MTEXT
  5
17E
330
1F
100
AcDbEntity
  8
4
  6
Continuous
 62
     2
100
AcDbMText
 10
965.333333333
 20
31.466666667
 30
0.0
 40
12.0
 41
364.8
 71
     7
 72
     1
  1
\T1.150;\W0.578;ＣＨ－５０　ＣＢＴ５０ＬＡ横向き天井吊下げ金具
  7
KANJI6
 73
     1
 44
1.0
  0
MTEXT
  5
180
330
1F
100
AcDbEntity
  8
4
  6
Continuous
 62
     2
100
AcDbMText
 10
965.333333333
 20
175.466666667
 30
0.0
 40
12.0
 41
159.6
 71
     7
 72
     1
  1
\T1.111;\W0.672;ＣＨ－５０　全体図
  7
KANJI3
 73
     1
 44
1.0
  0
MTEXT
  5
181
330
1F
100
AcDbEntity
  8
4
  6
Continuous
 62
     2
100
AcDbMText
 10
965.333333333
 20
151.466666667
 30
0.0
 40
12.0
 41
50.4
 71
     7
 72
     1
  1
\T1.111;\W0.900;ＣＨ５０
  7
KANJI5
 73
     1
 44
1.0
  0
LINE
  5
182
330
1F
100
AcDbEntity
  8
7
  6
Continuous
 62
     2
100
AcDbLine
 10
422.503846487
 20
700.74552231
 30
0.0
 11
422.503846487
 21
744.74552231
 31
0.0
  0
LINE
  5
183
330
1F
100
AcDbEntity
  8
7
  6
Continuous
 62
     2
100
AcDbLine
 10
422.503846487
 20
736.74552231
 30
0.0
 11
432.16310475
 21
734.157331859
 31
0.0
  0
LINE
  5
184
330
1F
100
AcDbEntity
  8
7
  6
Continuous
 62
     2
100
AcDbLine
 10
422.503846487
 20
736.74552231
 30
0.0
 11
432.16310475
 21
739.333712761
 31
0.0
  0
LWPOLYLINE
  5
186
330
1F
100
AcDbEntity
  8
7
  6
Continuous
 62
     2
100
AcDbPolyline
 90
     3
 70
   128
 43
0.0
 10
422.503846487
 20
736.74552231
 10
482.503846487
 20
736.74552231
 10
472.844588224
 20
739.333712761
  0
LINE
  5
187
330
1F
100
AcDbEntity
  8
7
  6
Continuous
 62
     2
100
AcDbLine
 10
482.503846487
 20
736.74552231
 30
0.0
 11
472.844588224
 21
734.157331859
 31
0.0
  0
LINE
  5
188
330
1F
100
AcDbEntity
  8
7
  6
Continuous
 62
     2
100
AcDbLine
 10
482.503846487
 20
700.74552231
 30
0.0
 11
482.503846487
 21
744.74552231
 31
0.0
  0
MTEXT
  5
189
330
1F
100
AcDbEntity
  8
7
  6
Continuous
 62
     2
100
AcDbMText
 10
444.703846487
 20
740.74552231
 30
0.0
 40
12.0
 41
31.2
 71
     7
 72
     1
  1
\T1.167;\W0.600;６０
  7
KANJI7
 73
     1
 44
1.0
  0
LINE
  5
18B
330
1F
100
AcDbEntity
  8
7
  6
Continuous
 62
     2
100
AcDbLine
 10
482.503846487
 20
736.74552231
 30
0.0
 11
492.16310475
 21
734.157331859
 31
0.0
  0
LINE
  5
18C
330
1F
100
AcDbEntity
  8
7
  6
Continuous
 62
     2
100
AcDbLine
 10
482.503846487
 20
736.74552231
 30
0.0
 11
492.16310475
 21
739.333712761
 31
0.0
  0
LWPOLYLINE
  5
18E
330
1F
100
AcDbEntity
  8
7
  6
Continuous
 62
     2
100
AcDbPolyline
 90
     3
 70
   128
 43
0.0
 10
482.503846487
 20
736.74552231
 10
542.503846487
 20
736.74552231
 10
532.844588224
 20
739.333712761
  0
LINE
  5
18F
330
1F
100
AcDbEntity
  8
7
  6
Continuous
 62
     2
100
AcDbLine
 10
542.503846487
 20
736.74552231
 30
0.0
 11
532.844588224
 21
734.157331859
 31
0.0
  0
LINE
  5
190
330
1F
100
AcDbEntity
  8
7
  6
Continuous
 62
     2
100
AcDbLine
 10
542.503846487
 20
700.74552231
 30
0.0
 11
542.503846487
 21
744.74552231
 31
0.0
  0
MTEXT
  5
191
330
1F
100
AcDbEntity
  8
7
  6
Continuous
 62
     2
100
AcDbMText
 10
504.703846487
 20
740.74552231
 30
0.0
 40
12.0
 41
31.2
 71
     7
 72
     1
  1
\T1.167;\W0.600;６０
  7
KANJI7
 73
     1
 44
1.0
  0
LINE
  5
192
330
1F
100
AcDbEntity
  8
7
  6
Continuous
 62
     2
100
AcDbLine
 10
407.503846487
 20
705.74552231
 30
0.0
 11
407.503846487
 21
769.74552231
 31
0.0
  0
LINE
  5
193
330
1F
100
AcDbEntity
  8
7
  6
Continuous
 62
     2
100
AcDbLine
 10
407.503846487
 20
761.74552231
 30
0.0
 11
417.16310475
 21
759.157331859
 31
0.0
  0
LINE
  5
194
330
1F
100
AcDbEntity
  8
7
  6
Continuous
 62
     2
100
AcDbLine
 10
407.503846487
 20
761.74552231
 30
0.0
 11
417.16310475
 21
764.333712761
 31
0.0
  0
LWPOLYLINE
  5
196
330
1F
100
AcDbEntity
  8
7
  6
Continuous
 62
     2
100
AcDbPolyline
 90
     3
 70
   128
 43
0.0
 10
407.503846487
 20
761.74552231
 10
557.503846487
 20
761.74552231
 10
547.844588224
 20
764.333712761
  0
LINE
  5
197
330
1F
100
AcDbEntity
  8
7
  6
Continuous
 62
     2
100
AcDbLine
 10
557.503846487
 20
761.74552231
 30
0.0
 11
547.844588224
 21
759.157331859
 31
0.0
  0
LINE
  5
198
330
1F
100
AcDbEntity
  8
7
  6
Continuous
 62
     2
100
AcDbLine
 10
557.503846487
 20
705.74552231
 30
0.0
 11
557.503846487
 21
769.74552231
 31
0.0
  0
MTEXT
  5
199
330
1F
100
AcDbEntity
  8
7
  6
Continuous
 62
     2
100
AcDbMText
 10
470.503846487
 20
765.74552231
 30
0.0
 40
12.0
 41
48.0
 71
     7
 72
     1
  1
\T1.167;\W0.600;１５０
  7
KANJI7
 73
     1
 44
1.0
  0
LINE
  5
19A
330
1F
100
AcDbEntity
  8
7
  6
Continuous
 62
     2
100
AcDbLine
 10
546.503846487
 20
576.74552231
 30
0.0
 11
590.503846487
 21
576.74552231
 31
0.0
  0
LINE
  5
19B
330
1F
100
AcDbEntity
  8
7
  6
Continuous
 62
     2
100
AcDbLine
 10
582.503846487
 20
576.74552231
 30
0.0
 11
585.092036938
 21
586.404780573
 31
0.0
  0
LINE
  5
19C
330
1F
100
AcDbEntity
  8
7
  6
Continuous
 62
     2
100
AcDbLine
 10
582.503846487
 20
576.74552231
 30
0.0
 11
579.915656036
 21
586.404780573
 31
0.0
  0
LWPOLYLINE
  5
19E
330
1F
100
AcDbEntity
  8
7
  6
Continuous
 62
     2
100
AcDbPolyline
 90
     3
 70
   128
 43
0.0
 10
582.503846487
 20
576.74552231
 10
582.503846487
 20
636.74552231
 10
579.915656036
 20
627.086264047
  0
LINE
  5
19F
330
1F
100
AcDbEntity
  8
7
  6
Continuous
 62
     2
100
AcDbLine
 10
582.503846487
 20
636.74552231
 30
0.0
 11
585.092036938
 21
627.086264047
 31
0.0
  0
LINE
  5
1A0
330
1F
100
AcDbEntity
  8
7
  6
Continuous
 62
     2
100
AcDbLine
 10
546.503846487
 20
636.74552231
 30
0.0
 11
590.503846487
 21
636.74552231
 31
0.0
  0
MTEXT
  5
1A1
330
1F
100
AcDbEntity
  8
7
  6
Continuous
 62
     2
100
AcDbMText
 10
578.503846487
 20
598.94552231
 30
0.0
 40
12.0
 41
31.2
 71
     7
 72
     1
  1
\T1.167;\W0.600;６０
  7
KANJI7
 11
0.0
 21
1.0
 31
0.0
 73
     1
 44
1.0
  0
LINE
  5
1A2
330
1F
100
AcDbEntity
  8
7
  6
Continuous
 62
     2
100
AcDbLine
 10
582.503846487
 20
636.74552231
 30
0.0
 11
585.092036938
 21
646.404780573
 31
0.0
  0
LINE
  5
1A3
330
1F
100
AcDbEntity
  8
7
  6
Continuous
 62
     2
100
AcDbLine
 10
582.503846487
 20
636.74552231
 30
0.0
 11
579.915656036
 21
646.404780573
 31
0.0
  0
LWPOLYLINE
  5
1A5
330
1F
100
AcDbEntity
  8
7
  6
Continuous
 62
     2
100
AcDbPolyline
 90
     3
 70
   128
 43
0.0
 10
582.503846487
 20
636.74552231
 10
582.503846487
 20
696.74552231
 10
579.915656036
 20
687.086264047
  0
LINE
  5
1A6
330
1F
100
AcDbEntity
  8
7
  6
Continuous
 62
     2
100
AcDbLine
 10
582.503846487
 20
696.74552231
 30
0.0
 11
585.092036938
 21
687.086264047
 31
0.0
  0
LINE
  5
1A7
330
1F
100
AcDbEntity
  8
7
  6
Continuous
 62
     2
100
AcDbLine
 10
546.503846487
 20
696.74552231
 30
0.0
 11
590.503846487
 21
696.74552231
 31
0.0
  0
MTEXT
  5
1A8
330
1F
100
AcDbEntity
  8
7
  6
Continuous
 62
     2
100
AcDbMText
 10
578.503846487
 20
658.94552231
 30
0.0
 40
12.0
 41
31.2
 71
     7
 72
     1
  1
\T1.167;\W0.600;６０
  7
KANJI7
 11
0.0
 21
1.0
 31
0.0
 73
     1
 44
1.0
  0
LINE
  5
1A9
330
1F
100
AcDbEntity
  8
7
  6
Continuous
 62
     2
100
AcDbLine
 10
551.503846487
 20
561.74552231
 30
0.0
 11
615.503846487
 21
561.74552231
 31
0.0
  0
LINE
  5
1AA
330
1F
100
AcDbEntity
  8
7
  6
Continuous
 62
     2
100
AcDbLine
 10
607.503846487
 20
561.74552231
 30
0.0
 11
610.092036938
 21
571.404780573
 31
0.0
  0
LINE
  5
1AB
330
1F
100
AcDbEntity
  8
7
  6
Continuous
 62
     2
100
AcDbLine
 10
607.503846487
 20
561.74552231
 30
0.0
 11
604.915656036
 21
571.404780573
 31
0.0
  0
LWPOLYLINE
  5
1AD
330
1F
100
AcDbEntity
  8
7
  6
Continuous
 62
     2
100
AcDbPolyline
 90
     3
 70
   128
 43
0.0
 10
607.503846487
 20
561.74552231
 10
607.503846487
 20
711.74552231
 10
604.915656036
 20
702.086264047
  0
LINE
  5
1AE
330
1F
100
AcDbEntity
  8
7
  6
Continuous
 62
     2
100
AcDbLine
 10
607.503846487
 20
711.74552231
 30
0.0
 11
610.092036938
 21
702.086264047
 31
0.0
  0
LINE
  5
1AF
330
1F
100
AcDbEntity
  8
7
  6
Continuous
 62
     2
100
AcDbLine
 10
551.503846487
 20
711.74552231
 30
0.0
 11
615.503846487
 21
711.74552231
 31
0.0
  0
MTEXT
  5
1B0
330
1F
100
AcDbEntity
  8
7
  6
Continuous
 62
     2
100
AcDbMText
 10
603.503846487
 20
624.74552231
 30
0.0
 40
12.0
 41
48.0
 71
     7
 72
     1
  1
\T1.167;\W0.600;１５０
  7
KANJI7
 11
0.0
 21
1.0
 31
0.0
 73
     1
 44
1.0
  0
LINE
  5
1B1
330
1F
100
AcDbEntity
  8
7
  6
Continuous
 62
     2
100
AcDbLine
 10
420.653846487
 20
624.90552231
 30
0.0
 11
414.493341707
 21
617.028455544
 31
0.0
  0
LINE
  5
1B2
330
1F
100
AcDbEntity
  8
7
  6
Continuous
 62
     2
100
AcDbLine
 10
420.653846487
 20
624.90552231
 30
0.0
 11
419.25722623
 21
615.003529993
 31
0.0
  0
LWPOLYLINE
  5
1B4
330
1F
100
AcDbEntity
  8
7
  6
Continuous
 62
     2
100
AcDbPolyline
 90
     3
 70
   128
 43
0.0
 10
420.653846487
 20
624.90552231
 10
381.943846487
 20
533.83552231
 10
331.543846487
 20
533.83552231
  0
MTEXT
  5
1B5
330
1F
100
AcDbEntity
  8
7
  6
Continuous
 62
     2
100
AcDbMText
 10
331.543846487
 20
537.83552231
 30
0.0
 40
12.0
 41
100.8
 71
     7
 72
     1
  1
\T1.111;\W0.548;８－φ１０．２
  7
KANJI8
 73
     1
 44
1.0
  0
LINE
  5
1B7
330
1F
100
AcDbEntity
  8
7
  6
Continuous
 62
     2
100
AcDbLine
 10
771.503846487
 20
586.74552231
 30
0.0
 11
811.403846487
 21
586.74552231
 31
0.0
  0
LINE
  5
1B8
330
1F
100
AcDbEntity
  8
7
  6
Continuous
 62
     2
100
AcDbLine
 10
803.403846487
 20
586.74552231
 30
0.0
 11
805.992036938
 21
596.404780573
 31
0.0
  0
LINE
  5
1B9
330
1F
100
AcDbEntity
  8
7
  6
Continuous
 62
     2
100
AcDbLine
 10
803.403846487
 20
586.74552231
 30
0.0
 11
800.815656036
 21
596.404780573
 31
0.0
  0
LWPOLYLINE
  5
1BB
330
1F
100
AcDbEntity
  8
7
  6
Continuous
 62
     2
100
AcDbPolyline
 90
     3
 70
   128
 43
0.0
 10
803.403846487
 20
586.74552231
 10
803.403846487
 20
686.74552231
 10
800.815656036
 20
677.086264047
  0
LINE
  5
1BC
330
1F
100
AcDbEntity
  8
7
  6
Continuous
 62
     2
100
AcDbLine
 10
803.403846487
 20
686.74552231
 30
0.0
 11
805.992036938
 21
677.086264047
 31
0.0
  0
LINE
  5
1BD
330
1F
100
AcDbEntity
  8
7
  6
Continuous
 62
     2
100
AcDbLine
 10
771.503846487
 20
686.74552231
 30
0.0
 11
811.403846487
 21
686.74552231
 31
0.0
  0
MTEXT
  5
1BE
330
1F
100
AcDbEntity
  8
7
  6
Continuous
 62
     2
100
AcDbMText
 10
799.403846487
 20
624.74552231
 30
0.0
 40
12.0
 41
48.0
 71
     7
 72
     1
  1
\T1.167;\W0.600;１００
  7
KANJI7
 11
0.0
 21
1.0
 31
0.0
 73
     1
 44
1.0
  0
LINE
  5
1BF
330
1F
100
AcDbEntity
  8
7
  6
Continuous
 62
     2
100
AcDbLine
 10
803.403846487
 20
586.74552231
 30
0.0
 11
800.815656036
 21
577.086264047
 31
0.0
  0
LINE
  5
1C0
330
1F
100
AcDbEntity
  8
7
  6
Continuous
 62
     2
100
AcDbLine
 10
803.403846487
 20
586.74552231
 30
0.0
 11
805.992036938
 21
577.086264047
 31
0.0
  0
LWPOLYLINE
  5
1C2
330
1F
100
AcDbEntity
  8
7
  6
Continuous
 62
     2
100
AcDbPolyline
 90
     3
 70
   128
 43
0.0
 10
803.403846487
 20
586.74552231
 10
803.403846487
 20
561.74552231
 10
805.992036938
 20
571.404780573
  0
LINE
  5
1C3
330
1F
100
AcDbEntity
  8
7
  6
Continuous
 62
     2
100
AcDbLine
 10
803.403846487
 20
561.74552231
 30
0.0
 11
800.815656036
 21
571.404780573
 31
0.0
  0
LINE
  5
1C4
330
1F
100
AcDbEntity
  8
7
  6
Continuous
 62
     2
100
AcDbLine
 10
766.753846487
 20
561.74552231
 30
0.0
 11
811.403846487
 21
561.74552231
 31
0.0
  0
MTEXT
  5
1C5
330
1F
100
AcDbEntity
  8
7
  6
Continuous
 62
     2
100
AcDbMText
 10
799.403846487
 20
558.04552231
 30
0.0
 40
12.0
 41
64.8
 71
     7
 72
     1
  1
\T1.167;\W0.600;（２５）
  7
KANJI7
 11
0.0
 21
1.0
 31
0.0
 73
     1
 44
1.0
  0
LINE
  5
1C6
330
1F
100
AcDbEntity
  8
5
  6
Continuous
 62
     2
100
AcDbLine
 10
494.503846487
 20
446.24552231
 30
0.0
 11
470.503846487
 21
446.24552231
 31
0.0
  0
LINE
  5
1C7
330
1F
100
AcDbEntity
  8
5
  6
Continuous
 62
     2
100
AcDbLine
 10
492.003846487
 20
446.24552231
 30
0.0
 11
494.503846487
 21
443.74552231
 31
0.0
  0
LINE
  5
1C8
330
1F
100
AcDbEntity
  8
5
  6
Continuous
 62
     2
100
AcDbLine
 10
473.003846487
 20
446.24552231
 30
0.0
 11
470.503846487
 21
443.74552231
 31
0.0
  0
LINE
  5
1C9
330
1F
100
AcDbEntity
  8
5
  6
Continuous
 62
     1
100
AcDbLine
 10
498.503846487
 20
443.74552231
 30
0.0
 11
466.503846487
 21
443.74552231
 31
0.0
  0
LINE
  5
1CA
330
1F
100
AcDbEntity
  8
5
  6
Continuous
 62
     2
100
AcDbLine
 10
497.878868066
 20
488.24552231
 30
0.0
 11
467.128868066
 21
488.24552231
 31
0.0
  0
LINE
  5
1CB
330
1F
100
AcDbEntity
  8
5
  6
Continuous
 62
     2
100
AcDbLine
 10
472.253846487
 20
476.94552231
 30
0.0
 11
472.253846487
 21
485.94552231
 31
0.0
  0
LINE
  5
1CC
330
1F
100
AcDbEntity
  8
5
  6
Continuous
 62
     2
100
AcDbLine
 10
492.753846487
 20
476.94552231
 30
0.0
 11
492.753846487
 21
485.94552231
 31
0.0
  0
LINE
  5
1CD
330
1F
100
AcDbEntity
  8
5
  6
Continuous
 62
     2
100
AcDbLine
 10
497.878868066
 20
454.04552231
 30
0.0
 11
467.128824908
 21
454.04552231
 31
0.0
  0
LINE
  5
1CE
330
1F
100
AcDbEntity
  8
5
  6
Continuous
 62
     2
100
AcDbLine
 10
472.253824908
 20
456.34552231
 30
0.0
 11
472.253824908
 21
465.34552231
 31
0.0
  0
LINE
  5
1CF
330
1F
100
AcDbEntity
  8
5
  6
Continuous
 62
     2
100
AcDbLine
 10
492.753824908
 20
456.34552231
 30
0.0
 11
492.753824908
 21
465.34552231
 31
0.0
  0
LINE
  5
1D0
330
1F
100
AcDbEntity
  8
5
  6
Continuous
 62
     1
100
AcDbLine
 10
470.503846487
 20
454.04552231
 30
0.0
 11
470.503846487
 21
443.74552231
 31
0.0
  0
LINE
  5
1D1
330
1F
100
AcDbEntity
  8
5
  6
Continuous
 62
     2
100
AcDbLine
 10
473.003846487
 20
454.04552231
 30
0.0
 11
473.003846487
 21
446.24552231
 31
0.0
  0
LINE
  5
1D2
330
1F
100
AcDbEntity
  8
5
  6
LTYPE2
 62
     2
100
AcDbLine
 10
474.503846487
 20
454.04552231
 30
0.0
 11
474.503846487
 21
435.24552231
 31
0.0
  0
LINE
  5
1D3
330
1F
100
AcDbEntity
  8
5
  6
LTYPE2
 62
     2
100
AcDbLine
 10
490.503846487
 20
454.04552231
 30
0.0
 11
490.503846487
 21
435.24552231
 31
0.0
  0
LINE
  5
1D4
330
1F
100
AcDbEntity
  8
5
  6
Continuous
 62
     2
100
AcDbLine
 10
492.003846487
 20
446.24552231
 30
0.0
 11
492.003846487
 21
454.04552231
 31
0.0
  0
LINE
  5
1D5
330
1F
100
AcDbEntity
  8
5
  6
Continuous
 62
     1
100
AcDbLine
 10
494.503846487
 20
443.74552231
 30
0.0
 11
494.503846487
 21
454.04552231
 31
0.0
  0
LINE
  5
1D6
330
1F
100
AcDbEntity
  8
5
  6
Continuous
 62
     2
100
AcDbLine
 10
512.303846487
 20
480.32052231
 30
0.0
 11
516.303846487
 21
480.32052231
 31
0.0
  0
LINE
  5
1D7
330
1F
100
AcDbEntity
  8
5
  6
Continuous
 62
     2
100
AcDbLine
 10
512.303846487
 20
487.57052231
 30
0.0
 11
516.303846487
 21
487.57052231
 31
0.0
  0
LINE
  5
1D8
330
1F
100
AcDbEntity
  8
5
  6
Continuous
 62
     2
100
AcDbLine
 10
521.803846487
 20
480.44552231
 30
0.0
 11
519.803846487
 21
480.44552231
 31
0.0
  0
LINE
  5
1D9
330
1F
100
AcDbEntity
  8
5
  6
Continuous
 62
     2
100
AcDbLine
 10
521.803846487
 20
487.44552231
 30
0.0
 11
521.803846487
 21
480.44552231
 31
0.0
  0
LINE
  5
1DA
330
1F
100
AcDbEntity
  8
5
  6
Continuous
 62
     2
100
AcDbLine
 10
519.803846487
 20
487.44552231
 30
0.0
 11
521.803846487
 21
487.44552231
 31
0.0
  0
LINE
  5
1DB
330
1F
100
AcDbEntity
  8
5
  6
Continuous
 62
     2
100
AcDbLine
 10
521.303846487
 20
487.94552231
 30
0.0
 11
521.803846487
 21
487.44552231
 31
0.0
  0
LINE
  5
1DC
330
1F
100
AcDbEntity
  8
5
  6
Continuous
 62
     2
100
AcDbLine
 10
521.803846487
 20
480.44552231
 30
0.0
 11
521.303846487
 21
479.94552231
 31
0.0
  0
LINE
  5
1DD
330
1F
100
AcDbEntity
  8
5
  6
Continuous
 62
     2
100
AcDbLine
 10
447.203846487
 20
478.50802231
 30
0.0
 11
447.203846487
 21
489.38302231
 31
0.0
  0
LINE
  5
1DE
330
1F
100
AcDbEntity
  8
5
  6
Continuous
 62
     2
100
AcDbLine
 10
452.703846487
 20
487.57052231
 30
0.0
 11
448.703846487
 21
487.57052231
 31
0.0
  0
LINE
  5
1DF
330
1F
100
AcDbEntity
  8
5
  6
Continuous
 62
     2
100
AcDbLine
 10
452.703846487
 20
480.32052231
 30
0.0
 11
448.703846487
 21
480.32052231
 31
0.0
  0
LINE
  5
1E0
330
1F
100
AcDbEntity
  8
5
  6
Continuous
 62
     2
100
AcDbLine
 10
462.003846487
 20
479.94552231
 30
0.0
 11
457.503846487
 21
479.94552231
 31
0.0
  0
LINE
  5
1E1
330
1F
100
AcDbEntity
  8
5
  6
Continuous
 62
     2
100
AcDbLine
 10
465.122369204
 20
487.94552231
 30
0.0
 11
457.503846487
 21
487.94552231
 31
0.0
  0
LINE
  5
1E2
330
1F
100
AcDbEntity
  8
5
  6
Continuous
 62
     2
100
AcDbLine
 10
507.503846487
 20
487.94552231
 30
0.0
 11
499.88532377
 21
487.94552231
 31
0.0
  0
LINE
  5
1E3
330
1F
100
AcDbEntity
  8
5
  6
Continuous
 62
     2
100
AcDbLine
 10
507.503846487
 20
479.94552231
 30
0.0
 11
503.003846487
 21
479.94552231
 31
0.0
  0
LINE
  5
1E4
330
1F
100
AcDbEntity
  8
5
  6
LTYPE2
 62
     2
100
AcDbLine
 10
466.503846487
 20
443.74552231
 30
0.0
 11
466.503846487
 21
440.24552231
 31
0.0
  0
LINE
  5
1E5
330
1F
100
AcDbEntity
  8
5
  6
LTYPE2
 62
     2
100
AcDbLine
 10
498.503846487
 20
443.74552231
 30
0.0
 11
498.503846487
 21
440.24552231
 31
0.0
  0
LWPOLYLINE
  5
1E7
330
1F
100
AcDbEntity
  8
5
  6
Continuous
 62
     1
100
AcDbPolyline
 90
     4
 70
   129
 43
0.0
 10
407.503846487
 20
502.64552231
 10
557.503846487
 20
502.64552231
 10
557.503846487
 20
499.44552231
 10
407.503846487
 20
499.44552231
  0
LWPOLYLINE
  5
1E9
330
1F
100
AcDbEntity
  8
5
  6
Continuous
 62
     1
100
AcDbPolyline
 90
    10
 70
   128
 43
0.0
 10
532.503846487
 20
499.44552231
 42
0.0
 10
532.503846487
 20
496.24552231
 42
0.0
 10
510.703846487
 20
496.24552231
 42
0.0
 10
510.703846487
 20
474.44552231
 42
-0.414213562
 10
507.703846487
 20
471.44552231
 42
0.0
 10
457.303846487
 20
471.44552231
 42
-0.414213562
 10
454.303846487
 20
474.44552231
 42
0.0
 10
454.303846487
 20
496.24552231
 42
0.0
 10
432.503846487
 20
496.24552231
 42
0.0
 10
432.503846487
 20
499.44552231
 42
0.0
  0
LWPOLYLINE
  5
1EE
330
1F
100
AcDbEntity
  8
5
  6
Continuous
 62
     2
100
AcDbPolyline
 90
     6
 70
   128
 43
0.0
 10
452.703846487
 20
491.19552231
 42
0.0
 10
448.703846487
 20
491.19552231
 42
0.827586207
 10
448.703846487
 20
487.57052231
 42
0.413793103
 10
448.703846487
 20
480.32052231
 42
0.827586207
 10
448.703846487
 20
476.69552231
 42
0.0
 10
452.703846487
 20
476.69552231
 42
0.0
  0
LWPOLYLINE
  5
1F2
330
1F
100
AcDbEntity
  8
5
  6
Continuous
 62
     2
100
AcDbPolyline
 90
     4
 70
   128
 43
0.0
 10
454.303846487
 20
492.94552231
 10
452.703846487
 20
492.94552231
 10
452.703846487
 20
474.94552231
 10
454.303846487
 20
474.94552231
  0
LWPOLYLINE
  5
1F4
330
1F
100
AcDbEntity
  8
5
  6
Continuous
 62
     2
100
AcDbPolyline
 90
     4
 70
   128
 43
0.0
 10
510.703846487
 20
492.94552231
 10
512.303846487
 20
492.94552231
 10
512.303846487
 20
474.94552231
 10
510.703846487
 20
474.94552231
  0
LWPOLYLINE
  5
1F7
330
1F
100
AcDbEntity
  8
5
  6
Continuous
 62
     2
100
AcDbPolyline
 90
     6
 70
   128
 43
0.0
 10
512.303846487
 20
491.19552231
 42
0.0
 10
516.303846487
 20
491.19552231
 42
-0.827586207
 10
516.303846487
 20
487.57052231
 42
-0.413793103
 10
516.303846487
 20
480.32052231
 42
-0.827586207
 10
516.303846487
 20
476.69552231
 42
0.0
 10
512.303846487
 20
476.69552231
 42
0.0
  0
LWPOLYLINE
  5
1FB
330
1F
100
AcDbEntity
  8
5
  6
Continuous
 62
     2
100
AcDbPolyline
 90
     4
 70
   128
 43
0.0
 10
519.803846487
 20
487.94552231
 10
521.303846487
 20
487.94552231
 10
521.303846487
 20
479.94552231
 10
519.803846487
 20
479.94552231
  0
LWPOLYLINE
  5
1FE
330
1F
100
AcDbEntity
  8
5
  6
Continuous
 62
     2
100
AcDbPolyline
 90
     6
 70
   129
 43
0.0
 10
519.803846487
 20
480.00802231
 42
0.0
 10
519.803846487
 20
487.88302231
 42
0.414213562
 10
518.303846487
 20
489.38302231
 42
0.0
 10
517.803846487
 20
489.38302231
 42
0.0
 10
517.803846487
 20
478.50802231
 42
0.0
 10
518.303846487
 20
478.50802231
 42
0.414213562
  0
LWPOLYLINE
  5
202
330
1F
100
AcDbEntity
  8
5
  6
Continuous
 62
     2
100
AcDbPolyline
 90
     8
 70
   129
 43
0.0
 10
503.003846487
 20
485.94552231
 42
0.0
 10
503.003846487
 20
476.94552231
 42
-0.448780488
 10
492.753846487
 20
476.94552231
 42
-0.224390244
 10
472.253846487
 20
476.94552231
 42
-0.448780488
 10
462.003846487
 20
476.94552231
 42
0.0
 10
462.003846487
 20
485.94552231
 42
-0.448780488
 10
472.253846487
 20
485.94552231
 42
-0.224390244
 10
492.753846487
 20
485.94552231
 42
-0.448780488
  0
LWPOLYLINE
  5
209
330
1F
100
AcDbEntity
  8
5
  6
Continuous
 62
     2
100
AcDbPolyline
 90
     6
 70
   128
 43
0.0
 10
454.503846487
 20
499.44552231
 42
-0.414213562
 10
457.503846487
 20
496.44552231
 42
0.0
 10
457.503846487
 20
474.64552231
 42
0.0
 10
507.503846487
 20
474.64552231
 42
0.0
 10
507.503846487
 20
496.44552231
 42
-0.414213562
 10
510.503846487
 20
499.44552231
 42
0.0
  0
LWPOLYLINE
  5
20C
330
1F
100
AcDbEntity
  8
5
  6
Continuous
 62
     2
100
AcDbPolyline
 90
     4
 70
   128
 43
0.0
 10
506.503846487
 20
471.44552231
 10
506.503846487
 20
467.64552231
 10
458.503846487
 20
467.64552231
 10
458.503846487
 20
471.44552231
  0
LWPOLYLINE
  5
20F
330
1F
100
AcDbEntity
  8
5
  6
Continuous
 62
     2
100
AcDbPolyline
 90
     8
 70
   129
 43
0.0
 10
503.003824908
 20
465.34552231
 42
0.0
 10
503.003824908
 20
456.34552231
 42
-0.448780488
 10
492.753824908
 20
456.34552231
 42
-0.224390244
 10
472.253824908
 20
456.34552231
 42
-0.448780488
 10
462.003824908
 20
456.34552231
 42
0.0
 10
462.003824908
 20
465.34552231
 42
-0.448780488
 10
472.253824908
 20
465.34552231
 42
-0.224390244
 10
492.753824908
 20
465.34552231
 42
-0.448780488
  0
LWPOLYLINE
  5
216
330
1F
100
AcDbEntity
  8
5
  6
LTYPE2
 62
     2
100
AcDbPolyline
 90
     4
 70
   128
 43
0.0
 10
461.503846487
 20
440.24552231
 10
461.503846487
 20
435.24552231
 10
503.253846487
 20
435.24552231
 10
503.253846487
 20
440.24552231
  0
LINE
  5
217
330
1F
100
AcDbEntity
  8
5
  6
LTYPE2
 62
     2
100
AcDbLine
 10
461.503846487
 20
440.24552231
 30
0.0
 11
503.253846487
 21
440.24552231
 31
0.0
  0
CIRCLE
  5
218
330
1F
100
AcDbEntity
  8
2
  6
Continuous
 62
     1
100
AcDbCircle
 10
697.753846487
 20
316.84552231
 30
0.0
 40
3.5
  0
CIRCLE
  5
219
330
1F
100
AcDbEntity
  8
2
  6
Continuous
 62
     1
100
AcDbCircle
 10
697.753846487
 20
367.645521585
 30
0.0
 40
3.5
  0
LINE
  5
21A
330
1F
100
AcDbEntity
  8
2
  6
Continuous
 62
     1
100
AcDbLine
 10
764.753846487
 20
388.245521947
 30
0.0
 11
766.753846487
 21
388.245521947
 31
0.0
  0
LINE
  5
21B
330
1F
100
AcDbEntity
  8
2
  6
Continuous
 62
     1
100
AcDbLine
 10
762.753846487
 20
390.245521947
 30
0.0
 11
762.753846487
 21
392.245521947
 31
0.0
  0
ARC
  5
21C
330
1F
100
AcDbEntity
  8
2
  6
Continuous
 62
     1
100
AcDbCircle
 10
762.753846487
 20
388.245521947
 30
0.0
 40
4.0
100
AcDbArc
 50
0.0
 51
90.0
  0
LWPOLYLINE
  5
21F
330
1F
100
AcDbEntity
  8
2
  6
Continuous
 62
     1
100
AcDbPolyline
 90
     2
 70
   129
 43
0.0
 10
764.753846487
 20
388.245521947
 42
0.414213562
 10
762.753846487
 20
390.245521947
 42
0.414213562
  0
LINE
  5
220
330
1F
100
AcDbEntity
  8
2
  6
Continuous
 62
     1
100
AcDbLine
 10
764.753846487
 20
296.245521947
 30
0.0
 11
766.753846487
 21
296.245521947
 31
0.0
  0
LINE
  5
221
330
1F
100
AcDbEntity
  8
2
  6
Continuous
 62
     1
100
AcDbLine
 10
762.753846487
 20
294.245521947
 30
0.0
 11
762.753846487
 21
292.245521947
 31
0.0
  0
ARC
  5
222
330
1F
100
AcDbEntity
  8
2
  6
Continuous
 62
     1
100
AcDbCircle
 10
762.753846487
 20
296.245521947
 30
0.0
 40
4.0
100
AcDbArc
 50
270.0
 51
0.0
  0
LWPOLYLINE
  5
225
330
1F
100
AcDbEntity
  8
2
  6
Continuous
 62
     1
100
AcDbPolyline
 90
     2
 70
   129
 43
0.0
 10
764.753846487
 20
296.245521947
 42
-0.414213562
 10
762.753846487
 20
294.245521947
 42
-0.414213562
  0
LINE
  5
226
330
1F
100
AcDbEntity
  8
2
  6
LTYPE2
 62
     2
100
AcDbLine
 10
764.753846487
 20
388.245521947
 30
0.0
 11
764.753846487
 21
296.245521947
 31
0.0
  0
LINE
  5
227
330
1F
100
AcDbEntity
  8
2
  6
Continuous
 62
     1
100
AcDbLine
 10
766.753846487
 20
388.245521947
 30
0.0
 11
766.753846487
 21
296.245521947
 31
0.0
  0
ARC
  5
228
330
1F
100
AcDbEntity
  8
2
  6
LTYPE2
 62
     2
100
AcDbCircle
 10
759.566346642
 20
348.740712476
 30
0.0
 40
2.312500155
100
AcDbArc
 50
110.569995672
 51
249.430004329
  0
LWPOLYLINE
  5
22B
330
1F
100
AcDbEntity
  8
2
  6
LTYPE2
 62
     2
100
AcDbPolyline
 90
     3
 70
   128
 43
0.0
 10
758.753490948
 20
346.574601329
 42
0.346410138
 10
758.753490983
 20
337.916399313
 42
0.692577528
 10
758.753846448
 20
333.585267825
 42
0.0
  0
LINE
  5
22C
330
1F
100
AcDbEntity
  8
2
  6
LTYPE2
 62
     2
100
AcDbLine
 10
764.753846487
 20
337.915394928
 30
0.0
 11
758.753846487
 21
337.915394928
 31
0.0
  0
LINE
  5
22D
330
1F
100
AcDbEntity
  8
2
  6
LTYPE2
 62
     2
100
AcDbLine
 10
764.753846487
 20
333.58526791
 30
0.0
 11
758.753846487
 21
333.58526791
 31
0.0
  0
LINE
  5
22E
330
1F
100
AcDbEntity
  8
2
  6
LTYPE2
 62
     2
100
AcDbLine
 10
764.753846487
 20
350.905775985
 30
0.0
 11
758.753846487
 21
350.905775985
 31
0.0
  0
LINE
  5
22F
330
1F
100
AcDbEntity
  8
2
  6
LTYPE2
 62
     2
100
AcDbLine
 10
764.753846487
 20
346.575648966
 30
0.0
 11
758.753846487
 21
346.575648966
 31
0.0
  0
LINE
  5
230
330
1F
100
AcDbEntity
  8
2
  6
LTYPE2
 62
     2
100
AcDbLine
 10
757.253846487
 20
348.740697217
 30
0.0
 11
757.253846487
 21
335.750885129
 31
0.0
  0
CIRCLE
  5
231
330
1F
100
AcDbEntity
  8
2
  6
Continuous
 62
     1
100
AcDbCircle
 10
267.253846487
 20
316.84552231
 30
0.0
 40
3.5
  0
CIRCLE
  5
232
330
1F
100
AcDbEntity
  8
2
  6
Continuous
 62
     1
100
AcDbCircle
 10
267.253846487
 20
367.645521585
 30
0.0
 40
3.5
  0
LINE
  5
233
330
1F
100
AcDbEntity
  8
2
  6
Continuous
 62
     1
100
AcDbLine
 10
200.253846487
 20
388.245521947
 30
0.0
 11
198.253846487
 21
388.245521947
 31
0.0
  0
LINE
  5
234
330
1F
100
AcDbEntity
  8
2
  6
Continuous
 62
     1
100
AcDbLine
 10
202.253846487
 20
390.245521947
 30
0.0
 11
202.253846487
 21
392.245521947
 31
0.0
  0
ARC
  5
235
330
1F
100
AcDbEntity
  8
2
  6
Continuous
 62
     1
100
AcDbCircle
 10
202.253846487
 20
388.245521947
 30
0.0
 40
4.0
100
AcDbArc
 50
90.0
 51
180.0
  0
LWPOLYLINE
  5
238
330
1F
100
AcDbEntity
  8
2
  6
Continuous
 62
     1
100
AcDbPolyline
 90
     2
 70
   129
 43
0.0
 10
200.253846487
 20
388.245521947
 42
-0.414213562
 10
202.253846487
 20
390.245521947
 42
-0.414213562
  0
LINE
  5
239
330
1F
100
AcDbEntity
  8
2
  6
Continuous
 62
     1
100
AcDbLine
 10
200.253846487
 20
296.245521947
 30
0.0
 11
198.253846487
 21
296.245521947
 31
0.0
  0
LINE
  5
23A
330
1F
100
AcDbEntity
  8
2
  6
Continuous
 62
     1
100
AcDbLine
 10
202.253846487
 20
294.245521947
 30
0.0
 11
202.253846487
 21
292.245521947
 31
0.0
  0
ARC
  5
23B
330
1F
100
AcDbEntity
  8
2
  6
Continuous
 62
     1
100
AcDbCircle
 10
202.253846487
 20
296.245521947
 30
0.0
 40
4.0
100
AcDbArc
 50
180.0
 51
270.0
  0
LWPOLYLINE
  5
23E
330
1F
100
AcDbEntity
  8
2
  6
Continuous
 62
     1
100
AcDbPolyline
 90
     2
 70
   129
 43
0.0
 10
200.253846487
 20
296.245521947
 42
0.414213562
 10
202.253846487
 20
294.245521947
 42
0.414213562
  0
LINE
  5
23F
330
1F
100
AcDbEntity
  8
2
  6
LTYPE2
 62
     2
100
AcDbLine
 10
200.253846487
 20
388.245521947
 30
0.0
 11
200.253846487
 21
296.245521947
 31
0.0
  0
LINE
  5
240
330
1F
100
AcDbEntity
  8
2
  6
Continuous
 62
     1
100
AcDbLine
 10
198.253846487
 20
388.245521947
 30
0.0
 11
198.253846487
 21
296.245521947
 31
0.0
  0
ARC
  5
241
330
1F
100
AcDbEntity
  8
2
  6
LTYPE2
 62
     2
100
AcDbCircle
 10
205.441346333
 20
348.740712476
 30
0.0
 40
2.312500155
100
AcDbArc
 50
290.569995671
 51
69.430004328
  0
LWPOLYLINE
  5
244
330
1F
100
AcDbEntity
  8
2
  6
LTYPE2
 62
     2
100
AcDbPolyline
 90
     3
 70
   128
 43
0.0
 10
206.254202027
 20
346.574601329
 42
-0.346410138
 10
206.254201992
 20
337.916399313
 42
-0.692577528
 10
206.253846526
 20
333.585267825
 42
0.0
  0
LINE
  5
245
330
1F
100
AcDbEntity
  8
2
  6
LTYPE2
 62
     2
100
AcDbLine
 10
200.253846487
 20
337.915394928
 30
0.0
 11
206.253846487
 21
337.915394928
 31
0.0
  0
LINE
  5
246
330
1F
100
AcDbEntity
  8
2
  6
LTYPE2
 62
     2
100
AcDbLine
 10
200.253846487
 20
333.58526791
 30
0.0
 11
206.253846487
 21
333.58526791
 31
0.0
  0
LINE
  5
247
330
1F
100
AcDbEntity
  8
2
  6
LTYPE2
 62
     2
100
AcDbLine
 10
200.253846487
 20
350.905775985
 30
0.0
 11
206.253846487
 21
350.905775985
 31
0.0
  0
LINE
  5
248
330
1F
100
AcDbEntity
  8
2
  6
LTYPE2
 62
     2
100
AcDbLine
 10
200.253846487
 20
346.575648966
 30
0.0
 11
206.253846487
 21
346.575648966
 31
0.0
  0
LINE
  5
249
330
1F
100
AcDbEntity
  8
2
  6
LTYPE2
 62
     2
100
AcDbLine
 10
207.753846487
 20
348.740697217
 30
0.0
 11
207.753846487
 21
335.750885129
 31
0.0
  0
LINE
  5
24A
330
1F
100
AcDbEntity
  8
2
  6
Continuous
 62
     1
100
AcDbLine
 10
282.253846487
 20
392.245521947
 30
0.0
 11
282.253846487
 21
292.245521947
 31
0.0
  0
LINE
  5
24B
330
1F
100
AcDbEntity
  8
2
  6
Continuous
 62
     1
100
AcDbLine
 10
682.753846487
 20
392.245521947
 30
0.0
 11
682.753846487
 21
292.245521947
 31
0.0
  0
LINE
  5
24C
330
1F
100
AcDbEntity
  8
2
  6
LTYPE2
 62
     2
100
AcDbLine
 10
682.753846487
 20
390.245521947
 30
0.0
 11
762.753846487
 21
390.245521947
 31
0.0
  0
LINE
  5
24D
330
1F
100
AcDbEntity
  8
2
  6
Continuous
 62
     1
100
AcDbLine
 10
682.753846487
 20
392.245521947
 30
0.0
 11
762.753846487
 21
392.245521947
 31
0.0
  0
LINE
  5
24E
330
1F
100
AcDbEntity
  8
2
  6
Continuous
 62
     1
100
AcDbLine
 10
682.753846487
 20
292.245521947
 30
0.0
 11
762.753846487
 21
292.245521947
 31
0.0
  0
LINE
  5
24F
330
1F
100
AcDbEntity
  8
2
  6
LTYPE2
 62
     2
100
AcDbLine
 10
682.753846487
 20
294.245521947
 30
0.0
 11
762.753846487
 21
294.245521947
 31
0.0
  0
LINE
  5
250
330
1F
100
AcDbEntity
  8
2
  6
LTYPE2
 62
     2
100
AcDbLine
 10
282.253846487
 20
390.245521947
 30
0.0
 11
202.253846487
 21
390.245521947
 31
0.0
  0
LINE
  5
251
330
1F
100
AcDbEntity
  8
2
  6
Continuous
 62
     1
100
AcDbLine
 10
282.253846487
 20
392.245521947
 30
0.0
 11
202.253846487
 21
392.245521947
 31
0.0
  0
LINE
  5
252
330
1F
100
AcDbEntity
  8
2
  6
Continuous
 62
     1
100
AcDbLine
 10
282.253846487
 20
292.245521947
 30
0.0
 11
202.253846487
 21
292.245521947
 31
0.0
  0
LINE
  5
253
330
1F
100
AcDbEntity
  8
2
  6
LTYPE2
 62
     2
100
AcDbLine
 10
282.253846487
 20
294.245521947
 30
0.0
 11
202.253846487
 21
294.245521947
 31
0.0
  0
LINE
  5
254
330
1F
100
AcDbEntity
  8
3
  6
Continuous
 62
     1
100
AcDbLine
 10
769.503846487
 20
317.24552231
 30
0.0
 11
767.503846487
 21
317.24552231
 31
0.0
  0
LINE
  5
255
330
1F
100
AcDbEntity
  8
3
  6
Continuous
 62
     1
100
AcDbLine
 10
769.503846487
 20
438.24552231
 30
0.0
 11
769.503846487
 21
317.24552231
 31
0.0
  0
ARC
  5
256
330
1F
100
AcDbEntity
  8
3
  6
Continuous
 62
     1
100
AcDbCircle
 10
765.503846487
 20
438.24552231
 30
0.0
 40
4.0
100
AcDbArc
 50
0.0
 51
90.0
  0
LINE
  5
257
330
1F
100
AcDbEntity
  8
3
  6
Continuous
 62
     1
100
AcDbLine
 10
767.503846487
 20
438.24552231
 30
0.0
 11
767.503846487
 21
317.24552231
 31
0.0
  0
ARC
  5
258
330
1F
100
AcDbEntity
  8
3
  6
Continuous
 62
     1
100
AcDbCircle
 10
765.503846487
 20
438.24552231
 30
0.0
 40
2.0
100
AcDbArc
 50
0.0
 51
90.0
  0
LINE
  5
259
330
1F
100
AcDbEntity
  8
3
  6
Continuous
 62
     1
100
AcDbLine
 10
765.503846487
 20
440.245511521
 30
0.0
 11
765.503846487
 21
442.24552231
 31
0.0
  0
LWPOLYLINE
  5
25B
330
1F
100
AcDbEntity
  8
3
  6
Continuous
 62
     1
100
AcDbPolyline
 90
     3
 70
   128
 43
0.0
 10
765.503846487
 20
440.245511521
 42
0.414211982
 10
767.503846487
 20
438.24552231
 42
0.0
 10
769.503846487
 20
438.24552231
 42
0.0
  0
LINE
  5
25C
330
1F
100
AcDbEntity
  8
3
  6
Continuous
 62
     1
100
AcDbLine
 10
195.503846487
 20
317.24552231
 30
0.0
 11
197.503846487
 21
317.24552231
 31
0.0
  0
LINE
  5
25D
330
1F
100
AcDbEntity
  8
3
  6
Continuous
 62
     1
100
AcDbLine
 10
195.503846487
 20
438.24552231
 30
0.0
 11
195.503846487
 21
317.24552231
 31
0.0
  0
ARC
  5
25E
330
1F
100
AcDbEntity
  8
3
  6
Continuous
 62
     1
100
AcDbCircle
 10
199.503846487
 20
438.24552231
 30
0.0
 40
4.0
100
AcDbArc
 50
90.0
 51
180.0
  0
LINE
  5
25F
330
1F
100
AcDbEntity
  8
3
  6
Continuous
 62
     1
100
AcDbLine
 10
197.503846487
 20
438.24552231
 30
0.0
 11
197.503846487
 21
317.24552231
 31
0.0
  0
ARC
  5
260
330
1F
100
AcDbEntity
  8
3
  6
Continuous
 62
     1
100
AcDbCircle
 10
199.503846487
 20
438.24552231
 30
0.0
 40
2.0
100
AcDbArc
 50
90.0
 51
180.0
  0
LINE
  5
261
330
1F
100
AcDbEntity
  8
3
  6
Continuous
 62
     1
100
AcDbLine
 10
199.503846487
 20
440.245511521
 30
0.0
 11
199.503846487
 21
442.24552231
 31
0.0
  0
LWPOLYLINE
  5
263
330
1F
100
AcDbEntity
  8
3
  6
Continuous
 62
     1
100
AcDbPolyline
 90
     3
 70
   128
 43
0.0
 10
199.503846487
 20
440.245511521
 42
-0.414211982
 10
197.503846487
 20
438.24552231
 42
0.0
 10
195.503846487
 20
438.24552231
 42
0.0
  0
LINE
  5
264
330
1F
100
AcDbEntity
  8
3
  6
Continuous
 62
     1
100
AcDbLine
 10
197.503846487
 20
422.24552231
 30
0.0
 11
767.503846487
 21
422.24552231
 31
0.0
  0
LINE
  5
265
330
1F
100
AcDbEntity
  8
3
  6
Continuous
 62
     1
100
AcDbLine
 10
199.503846487
 20
442.24552231
 30
0.0
 11
765.503846487
 21
442.24552231
 31
0.0
  0
LINE
  5
266
330
1F
100
AcDbEntity
  8
3
  6
LTYPE2
 62
     2
100
AcDbLine
 10
199.503846487
 20
440.24552231
 30
0.0
 11
765.503846487
 21
440.24552231
 31
0.0
  0
LINE
  5
267
330
1F
100
AcDbEntity
  8
0
  6
LTYPE1
 62
     2
100
AcDbLine
 10
747.353846487
 20
364.062902466
 30
0.0
 11
747.353846487
 21
320.428142155
 31
0.0
  0
LINE
  5
268
330
1F
100
AcDbEntity
  8
0
  6
LTYPE1
 62
     2
100
AcDbLine
 10
218.353846487
 20
320.428142155
 30
0.0
 11
218.353846487
 21
364.062902466
 31
0.0
  0
LINE
  5
269
330
1F
100
AcDbEntity
  8
0
  6
LTYPE1
 62
     2
100
AcDbLine
 10
219.341737357
 20
314.22010652
 30
0.0
 11
226.128671559
 21
293.435120529
 31
0.0
  0
LINE
  5
26A
330
1F
100
AcDbEntity
  8
0
  6
LTYPE1
 62
     2
100
AcDbLine
 10
226.128671559
 20
391.055924092
 30
0.0
 11
219.341737357
 21
370.2709381
 31
0.0
  0
ARC
  5
26B
330
1F
100
AcDbEntity
  8
0
  6
LTYPE1
 62
     2
100
AcDbCircle
 10
238.353846487
 20
320.428142155
 30
0.0
 40
20.0
100
AcDbArc
 50
180.0
 51
198.083445383
  0
ARC
  5
26C
330
1F
100
AcDbEntity
  8
0
  6
LTYPE1
 62
     2
100
AcDbCircle
 10
238.353846487
 20
364.062902466
 30
0.0
 40
20.0
100
AcDbArc
 50
161.916554617
 51
180.0
  0
LINE
  5
26D
330
1F
100
AcDbEntity
  8
0
  6
LTYPE1
 62
     2
100
AcDbLine
 10
746.365955617
 20
314.22010652
 30
0.0
 11
739.579021416
 21
293.435120529
 31
0.0
  0
LINE
  5
26E
330
1F
100
AcDbEntity
  8
0
  6
LTYPE1
 62
     2
100
AcDbLine
 10
746.365955617
 20
370.2709381
 30
0.0
 11
739.579021416
 21
391.055924092
 31
0.0
  0
ARC
  5
26F
330
1F
100
AcDbEntity
  8
0
  6
LTYPE1
 62
     2
100
AcDbCircle
 10
727.353846487
 20
320.428142155
 30
0.0
 40
20.0
100
AcDbArc
 50
341.916554617
 51
0.0
  0
ARC
  5
270
330
1F
100
AcDbEntity
  8
0
  6
LTYPE1
 62
     2
100
AcDbCircle
 10
727.353846487
 20
364.062902466
 30
0.0
 40
20.0
100
AcDbArc
 50
0.0
 51
18.083445383
  0
ARC
  5
271
330
1F
100
AcDbEntity
  8
0
  6
LTYPE1
 62
     2
100
AcDbCircle
 10
227.079277015
 20
293.74552231
 30
0.0
 40
1.0
100
AcDbArc
 50
198.083445383
 51
270.0
  0
ARC
  5
272
330
1F
100
AcDbEntity
  8
0
  6
LTYPE1
 62
     2
100
AcDbCircle
 10
227.079277015
 20
390.74552231
 30
0.0
 40
1.0
100
AcDbArc
 50
90.0
 51
161.916554617
  0
ARC
  5
273
330
1F
100
AcDbEntity
  8
0
  6
LTYPE1
 62
     2
100
AcDbCircle
 10
738.628415959
 20
293.74552231
 30
0.0
 40
1.0
100
AcDbArc
 50
270.0
 51
341.916554617
  0
ARC
  5
274
330
1F
100
AcDbEntity
  8
0
  6
LTYPE1
 62
     2
100
AcDbCircle
 10
738.628415959
 20
390.74552231
 30
0.0
 40
1.0
100
AcDbArc
 50
18.083445383
 51
90.0
  0
LINE
  5
275
330
1F
100
AcDbEntity
  8
0
  6
LTYPE1
 62
     2
100
AcDbLine
 10
570.353845687
 20
368.245521939
 30
0.0
 11
570.353845687
 21
316.245522682
 31
0.0
  0
LINE
  5
276
330
1F
100
AcDbEntity
  8
0
  6
LTYPE1
 62
     2
100
AcDbLine
 10
514.353846487
 20
368.245521939
 30
0.0
 11
514.353846487
 21
316.245522682
 31
0.0
  0
LINE
  5
277
330
1F
100
AcDbEntity
  8
0
  6
LTYPE1
 62
     2
100
AcDbLine
 10
568.353845716
 20
314.24552271
 30
0.0
 11
516.353846459
 21
314.24552271
 31
0.0
  0
LINE
  5
278
330
1F
100
AcDbEntity
  8
0
  6
LTYPE1
 62
     2
100
AcDbLine
 10
516.353846459
 20
370.24552191
 30
0.0
 11
568.353845716
 21
370.24552191
 31
0.0
  0
LINE
  5
279
330
1F
100
AcDbEntity
  8
0
  6
LTYPE1
 62
     2
100
AcDbLine
 10
557.353845873
 20
323.245522582
 30
0.0
 11
527.353846302
 21
323.245522582
 31
0.0
  0
LINE
  5
27A
330
1F
100
AcDbEntity
  8
0
  6
LTYPE1
 62
     2
100
AcDbLine
 10
557.353845873
 20
361.245522039
 30
0.0
 11
557.353845873
 21
323.245522582
 31
0.0
  0
LINE
  5
27B
330
1F
100
AcDbEntity
  8
0
  6
LTYPE1
 62
     2
100
AcDbLine
 10
527.353846302
 20
361.245522039
 30
0.0
 11
557.353845873
 21
361.245522039
 31
0.0
  0
LINE
  5
27C
330
1F
100
AcDbEntity
  8
0
  6
LTYPE1
 62
     2
100
AcDbLine
 10
527.353846302
 20
323.245522582
 30
0.0
 11
527.353846302
 21
361.245522039
 31
0.0
  0
CIRCLE
  5
27D
330
1F
100
AcDbEntity
  8
0
  6
LTYPE1
 62
     2
100
AcDbCircle
 10
520.853846394
 20
320.745522617
 30
0.0
 40
2.999999957
  0
LINE
  5
27E
330
1F
100
AcDbEntity
  8
0
  6
LTYPE1
 62
     2
100
AcDbLine
 10
520.853846394
 20
322.366016346
 30
0.0
 11
520.853846394
 21
319.125028889
 31
0.0
  0
LINE
  5
27F
330
1F
100
AcDbEntity
  8
0
  6
LTYPE1
 62
     2
100
AcDbLine
 10
522.474340123
 20
320.745522617
 30
0.0
 11
519.233352666
 21
320.745522617
 31
0.0
  0
CIRCLE
  5
280
330
1F
100
AcDbEntity
  8
0
  6
LTYPE1
 62
     2
100
AcDbCircle
 10
520.853846394
 20
363.745522003
 30
0.0
 40
2.999999957
  0
LINE
  5
281
330
1F
100
AcDbEntity
  8
0
  6
LTYPE1
 62
     2
100
AcDbLine
 10
520.853846394
 20
365.366015732
 30
0.0
 11
520.853846394
 21
362.125028274
 31
0.0
  0
LINE
  5
282
330
1F
100
AcDbEntity
  8
0
  6
LTYPE1
 62
     2
100
AcDbLine
 10
522.474340123
 20
363.745522003
 30
0.0
 11
519.233352666
 21
363.745522003
 31
0.0
  0
CIRCLE
  5
283
330
1F
100
AcDbEntity
  8
0
  6
LTYPE1
 62
     2
100
AcDbCircle
 10
563.85384578
 20
320.745522617
 30
0.0
 40
2.999999957
  0
LINE
  5
284
330
1F
100
AcDbEntity
  8
0
  6
LTYPE1
 62
     2
100
AcDbLine
 10
563.85384578
 20
322.366016346
 30
0.0
 11
563.85384578
 21
319.125028889
 31
0.0
  0
LINE
  5
285
330
1F
100
AcDbEntity
  8
0
  6
LTYPE1
 62
     2
100
AcDbLine
 10
565.474339509
 20
320.745522617
 30
0.0
 11
562.233352051
 21
320.745522617
 31
0.0
  0
CIRCLE
  5
286
330
1F
100
AcDbEntity
  8
0
  6
LTYPE1
 62
     2
100
AcDbCircle
 10
563.85384578
 20
363.745522003
 30
0.0
 40
2.999999957
  0
LINE
  5
287
330
1F
100
AcDbEntity
  8
0
  6
LTYPE1
 62
     2
100
AcDbLine
 10
563.85384578
 20
365.366015732
 30
0.0
 11
563.85384578
 21
362.125028274
 31
0.0
  0
LINE
  5
288
330
1F
100
AcDbEntity
  8
0
  6
LTYPE1
 62
     2
100
AcDbLine
 10
565.474339509
 20
363.745522003
 30
0.0
 11
562.233352051
 21
363.745522003
 31
0.0
  0
ARC
  5
289
330
1F
100
AcDbEntity
  8
0
  6
LTYPE1
 62
     2
100
AcDbCircle
 10
516.353846459
 20
316.245522682
 30
0.0
 40
1.999999971
100
AcDbArc
 50
180.0
 51
270.0
  0
ARC
  5
28A
330
1F
100
AcDbEntity
  8
0
  6
LTYPE1
 62
     2
100
AcDbCircle
 10
516.353846459
 20
368.245521939
 30
0.0
 40
1.999999971
100
AcDbArc
 50
90.0
 51
180.0
  0
ARC
  5
28B
330
1F
100
AcDbEntity
  8
0
  6
LTYPE1
 62
     2
100
AcDbCircle
 10
568.353845716
 20
316.245522682
 30
0.0
 40
1.999999971
100
AcDbArc
 50
270.0
 51
0.0
  0
ARC
  5
28C
330
1F
100
AcDbEntity
  8
0
  6
LTYPE1
 62
     2
100
AcDbCircle
 10
568.353845716
 20
368.245521939
 30
0.0
 40
1.999999971
100
AcDbArc
 50
0.0
 51
90.0
  0
LINE
  5
28D
330
1F
100
AcDbEntity
  8
0
  6
LTYPE1
 62
     2
100
AcDbLine
 10
533.853846209
 20
326.995522528
 30
0.0
 11
533.853846209
 21
338.995522357
 31
0.0
  0
LINE
  5
28E
330
1F
100
AcDbEntity
  8
0
  6
LTYPE1
 62
     2
100
AcDbLine
 10
533.853846209
 20
345.495522264
 30
0.0
 11
533.853846209
 21
357.495522092
 31
0.0
  0
LINE
  5
28F
330
1F
100
AcDbEntity
  8
0
  6
LTYPE1
 62
     2
100
AcDbLine
 10
545.65384604
 20
326.995522528
 30
0.0
 11
545.65384604
 21
338.995522357
 31
0.0
  0
LINE
  5
290
330
1F
100
AcDbEntity
  8
0
  6
LTYPE1
 62
     2
100
AcDbLine
 10
545.65384604
 20
345.495522264
 30
0.0
 11
545.65384604
 21
357.495522092
 31
0.0
  0
LINE
  5
291
330
1F
100
AcDbEntity
  8
0
  6
LTYPE1
 62
     2
100
AcDbLine
 10
545.65384604
 20
338.995522357
 30
0.0
 11
533.853846209
 21
338.995522357
 31
0.0
  0
LINE
  5
292
330
1F
100
AcDbEntity
  8
0
  6
LTYPE1
 62
     2
100
AcDbLine
 10
533.853846209
 20
345.495522264
 30
0.0
 11
545.65384604
 21
345.495522264
 31
0.0
  0
LINE
  5
293
330
1F
100
AcDbEntity
  8
0
  6
LTYPE1
 62
     2
100
AcDbLine
 10
533.853846209
 20
357.495522092
 30
0.0
 11
545.65384604
 21
357.495522092
 31
0.0
  0
LINE
  5
294
330
1F
100
AcDbEntity
  8
0
  6
LTYPE1
 62
     2
100
AcDbLine
 10
545.65384604
 20
326.995522528
 30
0.0
 11
533.853846209
 21
326.995522528
 31
0.0
  0
LINE
  5
295
330
1F
100
AcDbEntity
  8
0
  6
LTYPE1
 62
     2
100
AcDbLine
 10
545.65384604
 20
328.445522507
 30
0.0
 11
533.853846209
 21
328.445522507
 31
0.0
  0
LINE
  5
296
330
1F
100
AcDbEntity
  8
0
  6
LTYPE1
 62
     2
100
AcDbLine
 10
545.65384604
 20
337.545522377
 30
0.0
 11
533.853846209
 21
337.545522377
 31
0.0
  0
LINE
  5
297
330
1F
100
AcDbEntity
  8
0
  6
LTYPE1
 62
     2
100
AcDbLine
 10
533.853846209
 20
346.945522243
 30
0.0
 11
545.65384604
 21
346.945522243
 31
0.0
  0
LINE
  5
298
330
1F
100
AcDbEntity
  8
0
  6
LTYPE1
 62
     2
100
AcDbLine
 10
533.853846209
 20
356.045522113
 30
0.0
 11
545.65384604
 21
356.045522113
 31
0.0
  0
CIRCLE
  5
299
330
1F
100
AcDbEntity
  8
0
  6
LTYPE1
 62
     2
100
AcDbCircle
 10
539.753846124
 20
332.995522442
 30
0.0
 40
3.299999953
  0
CIRCLE
  5
29A
330
1F
100
AcDbEntity
  8
0
  6
LTYPE1
 62
     2
100
AcDbCircle
 10
539.753846124
 20
351.495522178
 30
0.0
 40
3.299999953
  0
LINE
  5
29B
330
1F
100
AcDbEntity
  8
0
  6
LTYPE1
 62
     2
100
AcDbLine
 10
541.207210018
 20
350.042158285
 30
0.0
 11
538.300482231
 21
352.948886071
 31
0.0
  0
LINE
  5
29C
330
1F
100
AcDbEntity
  8
0
  6
LTYPE1
 62
     2
100
AcDbLine
 10
541.207210018
 20
352.948886071
 30
0.0
 11
538.300482231
 21
350.042158285
 31
0.0
  0
LINE
  5
29D
330
1F
100
AcDbEntity
  8
0
  6
LTYPE1
 62
     2
100
AcDbLine
 10
541.207210018
 20
331.542158549
 30
0.0
 11
538.300482231
 21
334.448886336
 31
0.0
  0
LINE
  5
29E
330
1F
100
AcDbEntity
  8
0
  6
LTYPE1
 62
     2
100
AcDbLine
 10
541.207210018
 20
334.448886336
 30
0.0
 11
538.300482231
 21
331.542158549
 31
0.0
  0
CIRCLE
  5
29F
330
1F
100
AcDbEntity
  8
0
  6
LTYPE1
 62
     2
100
AcDbCircle
 10
554.253846124
 20
351.495522178
 30
0.0
 40
2.0
  0
CIRCLE
  5
2A0
330
1F
100
AcDbEntity
  8
0
  6
LTYPE1
 62
     2
100
AcDbCircle
 10
554.253846124
 20
332.995522442
 30
0.0
 40
2.0
  0
LINE
  5
2A1
330
1F
100
AcDbEntity
  8
0
  6
LTYPE1
 62
     2
100
AcDbLine
 10
554.253846124
 20
350.245522178
 30
0.0
 11
554.253846124
 21
352.745522178
 31
0.0
  0
LINE
  5
2A2
330
1F
100
AcDbEntity
  8
0
  6
LTYPE1
 62
     2
100
AcDbLine
 10
555.503846124
 20
351.495522178
 30
0.0
 11
553.003846124
 21
351.495522178
 31
0.0
  0
LINE
  5
2A3
330
1F
100
AcDbEntity
  8
0
  6
LTYPE1
 62
     2
100
AcDbLine
 10
554.253846124
 20
331.745522442
 30
0.0
 11
554.253846124
 21
334.245522442
 31
0.0
  0
CIRCLE
  5
2A4
330
1F
100
AcDbEntity
  8
0
  6
LTYPE1
 62
     2
100
AcDbCircle
 10
590.128846487
 20
316.84552231
 30
0.0
 40
3.0
  0
CIRCLE
  5
2A5
330
1F
100
AcDbEntity
  8
0
  6
LTYPE1
 62
     2
100
AcDbCircle
 10
590.128846487
 20
367.64552231
 30
0.0
 40
3.0
  0
LINE
  5
2A6
330
1F
100
AcDbEntity
  8
0
  6
LTYPE1
 62
     2
100
AcDbLine
 10
682.753846487
 20
292.74552231
 30
0.0
 11
282.253846487
 21
292.74552231
 31
0.0
  0
LINE
  5
2A7
330
1F
100
AcDbEntity
  8
0
  6
LTYPE1
 62
     2
100
AcDbLine
 10
282.253846487
 20
391.74552231
 30
0.0
 11
682.753846487
 21
391.74552231
 31
0.0
  0
CIRCLE
  5
2A8
330
1F
100
AcDbEntity
  8
0
  6
LTYPE1
 62
     2
100
AcDbCircle
 10
374.878846487
 20
316.84552231
 30
0.0
 40
3.0
  0
CIRCLE
  5
2A9
330
1F
100
AcDbEntity
  8
0
  6
LTYPE1
 62
     2
100
AcDbCircle
 10
374.878846487
 20
367.64552231
 30
0.0
 40
3.0
  0
CIRCLE
  5
2AA
330
1F
100
AcDbEntity
  8
0
  6
LTYPE1
 62
     2
100
AcDbCircle
 10
482.503846487
 20
316.84552231
 30
0.0
 40
3.0
  0
CIRCLE
  5
2AB
330
1F
100
AcDbEntity
  8
0
  6
LTYPE1
 62
     2
100
AcDbCircle
 10
482.503846487
 20
367.64552231
 30
0.0
 40
3.0
  0
LWPOLYLINE
  5
2AD
330
1F
100
AcDbEntity
  8
5
  6
Continuous
 62
     2
100
AcDbPolyline
 90
     4
 70
   129
 43
0.0
 10
769.503846487
 20
350.74552231
 10
769.503846487
 20
333.74552231
 10
771.103846487
 20
333.74552231
 10
771.103846487
 20
350.74552231
  0
LWPOLYLINE
  5
2AF
330
1F
100
AcDbEntity
  8
5
  6
Continuous
 62
     2
100
AcDbPolyline
 90
     4
 70
   129
 43
0.0
 10
771.103846487
 20
334.54552231
 10
773.103846487
 20
334.54552231
 10
773.103846487
 20
349.94552231
 10
771.103846487
 20
349.94552231
  0
LINE
  5
2B0
330
1F
100
AcDbEntity
  8
5
  6
Continuous
 62
     2
100
AcDbLine
 10
773.103846487
 20
349.74552231
 30
0.0
 11
777.703846487
 21
349.74552231
 31
0.0
  0
LINE
  5
2B1
330
1F
100
AcDbEntity
  8
5
  6
Continuous
 62
     2
100
AcDbLine
 10
773.103846487
 20
334.74552231
 30
0.0
 11
777.703846487
 21
334.74552231
 31
0.0
  0
LINE
  5
2B2
330
1F
100
AcDbEntity
  8
5
  6
Continuous
 62
     2
100
AcDbLine
 10
773.103846487
 20
338.44552231
 30
0.0
 11
777.703846487
 21
338.44552231
 31
0.0
  0
LINE
  5
2B3
330
1F
100
AcDbEntity
  8
5
  6
Continuous
 62
     2
100
AcDbLine
 10
773.103846487
 20
346.04552231
 30
0.0
 11
777.703846487
 21
346.04552231
 31
0.0
  0
LINE
  5
2B4
330
1F
100
AcDbEntity
  8
5
  6
Continuous
 62
     2
100
AcDbLine
 10
778.403846487
 20
347.94552231
 30
0.0
 11
778.403846487
 21
336.54552231
 31
0.0
  0
ARC
  5
2B5
330
1F
100
AcDbEntity
  8
5
  6
Continuous
 62
     2
100
AcDbCircle
 10
775.603846487
 20
336.54552231
 30
0.0
 40
2.8
100
AcDbArc
 50
318.5
 51
41.5
  0
ARC
  5
2B6
330
1F
100
AcDbEntity
  8
5
  6
Continuous
 62
     2
100
AcDbCircle
 10
767.703846487
 20
342.24552231
 30
0.0
 40
10.7
100
AcDbArc
 50
339.1
 51
20.9
  0
ARC
  5
2B7
330
1F
100
AcDbEntity
  8
5
  6
Continuous
 62
     2
100
AcDbCircle
 10
775.603846487
 20
347.94552231
 30
0.0
 40
2.8
100
AcDbArc
 50
318.5
 51
41.5
  0
LINE
  5
2B8
330
1F
100
AcDbEntity
  8
5
  6
Continuous
 62
     2
100
AcDbLine
 10
773.103846487
 20
342.24552231
 30
0.0
 11
771.103846487
 21
341.090821772
 31
0.0
  0
LINE
  5
2B9
330
1F
100
AcDbEntity
  8
5
  6
Continuous
 62
     2
100
AcDbLine
 10
771.103846487
 20
342.24552231
 30
0.0
 11
773.103846487
 21
343.400222849
 31
0.0
  0
LWPOLYLINE
  5
2BB
330
1F
100
AcDbEntity
  8
5
  6
Continuous
 62
     2
100
AcDbPolyline
 90
     4
 70
   129
 43
0.0
 10
195.503846487
 20
333.74552231
 10
195.503846487
 20
350.74552231
 10
193.903846487
 20
350.74552231
 10
193.903846487
 20
333.74552231
  0
LWPOLYLINE
  5
2BD
330
1F
100
AcDbEntity
  8
5
  6
Continuous
 62
     2
100
AcDbPolyline
 90
     4
 70
   129
 43
0.0
 10
193.903846487
 20
349.94552231
 10
191.903846487
 20
349.94552231
 10
191.903846487
 20
334.54552231
 10
193.903846487
 20
334.54552231
  0
LINE
  5
2BE
330
1F
100
AcDbEntity
  8
5
  6
Continuous
 62
     2
100
AcDbLine
 10
191.903846487
 20
334.74552231
 30
0.0
 11
187.303846487
 21
334.74552231
 31
0.0
  0
LINE
  5
2BF
330
1F
100
AcDbEntity
  8
5
  6
Continuous
 62
     2
100
AcDbLine
 10
191.903846487
 20
349.74552231
 30
0.0
 11
187.303846487
 21
349.74552231
 31
0.0
  0
LINE
  5
2C0
330
1F
100
AcDbEntity
  8
5
  6
Continuous
 62
     2
100
AcDbLine
 10
191.903846487
 20
346.04552231
 30
0.0
 11
187.303846487
 21
346.04552231
 31
0.0
  0
LINE
  5
2C1
330
1F
100
AcDbEntity
  8
5
  6
Continuous
 62
     2
100
AcDbLine
 10
191.903846487
 20
338.44552231
 30
0.0
 11
187.303846487
 21
338.44552231
 31
0.0
  0
LINE
  5
2C2
330
1F
100
AcDbEntity
  8
5
  6
Continuous
 62
     2
100
AcDbLine
 10
186.603846487
 20
336.54552231
 30
0.0
 11
186.603846487
 21
347.94552231
 31
0.0
  0
ARC
  5
2C3
330
1F
100
AcDbEntity
  8
5
  6
Continuous
 62
     2
100
AcDbCircle
 10
189.403846487
 20
347.94552231
 30
0.0
 40
2.8
100
AcDbArc
 50
138.5
 51
221.5
  0
ARC
  5
2C4
330
1F
100
AcDbEntity
  8
5
  6
Continuous
 62
     2
100
AcDbCircle
 10
197.303846487
 20
342.24552231
 30
0.0
 40
10.7
100
AcDbArc
 50
159.1
 51
200.9
  0
ARC
  5
2C5
330
1F
100
AcDbEntity
  8
5
  6
Continuous
 62
     2
100
AcDbCircle
 10
189.403846487
 20
336.54552231
 30
0.0
 40
2.8
100
AcDbArc
 50
138.5
 51
221.5
  0
LINE
  5
2C6
330
1F
100
AcDbEntity
  8
5
  6
Continuous
 62
     2
100
AcDbLine
 10
191.903846487
 20
342.24552231
 30
0.0
 11
193.903846487
 21
343.400222849
 31
0.0
  0
LINE
  5
2C7
330
1F
100
AcDbEntity
  8
5
  6
Continuous
 62
     2
100
AcDbLine
 10
193.903846487
 20
342.24552231
 30
0.0
 11
191.903846487
 21
341.090821772
 31
0.0
  0
LINE
  5
2C8
330
1F
100
AcDbEntity
  8
7
  6
Continuous
 62
     2
100
AcDbLine
 10
267.253846487
 20
312.84552231
 30
0.0
 11
267.253846487
 21
259.245521947
 31
0.0
  0
LINE
  5
2C9
330
1F
100
AcDbEntity
  8
7
  6
Continuous
 62
     2
100
AcDbLine
 10
267.253846487
 20
267.245521947
 30
0.0
 11
276.91310475
 21
264.657331496
 31
0.0
  0
LINE
  5
2CA
330
1F
100
AcDbEntity
  8
7
  6
Continuous
 62
     2
100
AcDbLine
 10
267.253846487
 20
267.245521947
 30
0.0
 11
276.91310475
 21
269.833712398
 31
0.0
  0
LWPOLYLINE
  5
2CC
330
1F
100
AcDbEntity
  8
7
  6
Continuous
 62
     2
100
AcDbPolyline
 90
     3
 70
   128
 43
0.0
 10
267.253846487
 20
267.245521947
 10
697.753846487
 20
267.245521947
 10
688.094588224
 20
269.833712398
  0
LINE
  5
2CD
330
1F
100
AcDbEntity
  8
7
  6
Continuous
 62
     2
100
AcDbLine
 10
697.753846487
 20
267.245521947
 30
0.0
 11
688.094588224
 21
264.657331496
 31
0.0
  0
LINE
  5
2CE
330
1F
100
AcDbEntity
  8
7
  6
Continuous
 62
     2
100
AcDbLine
 10
697.753846487
 20
312.84552231
 30
0.0
 11
697.753846487
 21
259.245521947
 31
0.0
  0
MTEXT
  5
2CF
330
1F
100
AcDbEntity
  8
7
  6
Continuous
 62
     2
100
AcDbMText
 10
453.703846487
 20
271.245521947
 30
0.0
 40
12.0
 41
115.2
 71
     7
 72
     1
  1
\T1.167;\W0.600;（４３０．５）
  7
KANJI7
 73
     1
 44
1.0
  0
LINE
  5
2D0
330
1F
100
AcDbEntity
  8
7
  6
Continuous
 62
     2
100
AcDbLine
 10
769.503846487
 20
313.24552231
 30
0.0
 11
769.503846487
 21
234.245521947
 31
0.0
  0
LINE
  5
2D1
330
1F
100
AcDbEntity
  8
7
  6
Continuous
 62
     2
100
AcDbLine
 10
769.503846487
 20
242.245521947
 30
0.0
 11
759.844588224
 21
244.833712398
 31
0.0
  0
LINE
  5
2D2
330
1F
100
AcDbEntity
  8
7
  6
Continuous
 62
     2
100
AcDbLine
 10
769.503846487
 20
242.245521947
 30
0.0
 11
759.844588224
 21
239.657331496
 31
0.0
  0
LWPOLYLINE
  5
2D4
330
1F
100
AcDbEntity
  8
7
  6
Continuous
 62
     2
100
AcDbPolyline
 90
     3
 70
   128
 43
0.0
 10
769.503846487
 20
242.245521947
 10
195.503846487
 20
242.245521947
 10
205.16310475
 20
239.657331496
  0
LINE
  5
2D5
330
1F
100
AcDbEntity
  8
7
  6
Continuous
 62
     2
100
AcDbLine
 10
195.503846487
 20
242.245521947
 30
0.0
 11
205.16310475
 21
244.833712398
 31
0.0
  0
LINE
  5
2D6
330
1F
100
AcDbEntity
  8
7
  6
Continuous
 62
     2
100
AcDbLine
 10
195.503846487
 20
313.24552231
 30
0.0
 11
195.503846487
 21
234.245521947
 31
0.0
  0
MTEXT
  5
2D7
330
1F
100
AcDbEntity
  8
7
  6
Continuous
 62
     2
100
AcDbMText
 10
462.103846487
 20
246.245521947
 30
0.0
 40
12.0
 41
81.6
 71
     7
 72
     1
  1
\T1.167;\W0.600;（５７４）
  7
KANJI7
 73
     1
 44
1.0
  0
LINE
  5
2D8
330
1F
100
AcDbEntity
  8
7
  6
Continuous
 62
     2
100
AcDbLine
 10
766.753846487
 20
392.245521947
 30
0.0
 11
811.403846487
 21
392.245521947
 31
0.0
  0
LINE
  5
2D9
330
1F
100
AcDbEntity
  8
7
  6
Continuous
 62
     2
100
AcDbLine
 10
803.403846487
 20
392.245521947
 30
0.0
 11
800.815656036
 21
382.586263685
 31
0.0
  0
LINE
  5
2DA
330
1F
100
AcDbEntity
  8
7
  6
Continuous
 62
     2
100
AcDbLine
 10
803.403846487
 20
392.245521947
 30
0.0
 11
805.992036938
 21
382.586263685
 31
0.0
  0
LWPOLYLINE
  5
2DC
330
1F
100
AcDbEntity
  8
7
  6
Continuous
 62
     2
100
AcDbPolyline
 90
     3
 70
   128
 43
0.0
 10
803.403846487
 20
392.245521947
 10
803.403846487
 20
292.245521947
 10
805.992036938
 20
301.90478021
  0
LINE
  5
2DD
330
1F
100
AcDbEntity
  8
7
  6
Continuous
 62
     2
100
AcDbLine
 10
803.403846487
 20
292.245521947
 30
0.0
 11
800.815656036
 21
301.90478021
 31
0.0
  0
LINE
  5
2DE
330
1F
100
AcDbEntity
  8
7
  6
Continuous
 62
     2
100
AcDbLine
 10
766.753846487
 20
292.245521947
 30
0.0
 11
811.403846487
 21
292.245521947
 31
0.0
  0
MTEXT
  5
2DF
330
1F
100
AcDbEntity
  8
7
  6
Continuous
 62
     2
100
AcDbMText
 10
799.403846487
 20
330.245521947
 30
0.0
 40
12.0
 41
48.0
 71
     7
 72
     1
  1
\T1.167;\W0.600;１００
  7
KANJI7
 11
0.0
 21
1.0
 31
0.0
 73
     1
 44
1.0
  0
LINE
  5
2E0
330
1F
100
AcDbEntity
  8
2
  6
Continuous
 62
     1
100
AcDbLine
 10
909.503846487
 20
390.24552231
 30
0.0
 11
909.503846487
 21
392.24552231
 31
0.0
  0
LINE
  5
2E1
330
1F
100
AcDbEntity
  8
2
  6
Continuous
 62
     1
100
AcDbLine
 10
907.503846487
 20
388.24552231
 30
0.0
 11
905.503846487
 21
388.24552231
 31
0.0
  0
ARC
  5
2E2
330
1F
100
AcDbEntity
  8
2
  6
Continuous
 62
     1
100
AcDbCircle
 10
909.503846487
 20
388.24552231
 30
0.0
 40
2.0
100
AcDbArc
 50
90.0
 51
180.0
  0
ARC
  5
2E3
330
1F
100
AcDbEntity
  8
2
  6
Continuous
 62
     1
100
AcDbCircle
 10
909.503846487
 20
388.24552231
 30
0.0
 40
4.0
100
AcDbArc
 50
90.0
 51
180.0
  0
ARC
  5
2E4
330
1F
100
AcDbEntity
  8
2
  6
Continuous
 62
     1
100
AcDbCircle
 10
907.503846487
 20
390.24552231
 30
0.0
 40
2.0
100
AcDbArc
 50
270.0
 51
0.0
  0
LINE
  5
2E5
330
1F
100
AcDbEntity
  8
2
  6
Continuous
 62
     1
100
AcDbLine
 10
905.503846487
 20
388.24552231
 30
0.0
 11
905.503846487
 21
296.24552231
 31
0.0
  0
LINE
  5
2E6
330
1F
100
AcDbEntity
  8
2
  6
LTYPE2
 62
     2
100
AcDbLine
 10
907.503846487
 20
388.24552231
 30
0.0
 11
907.503846487
 21
296.24552231
 31
0.0
  0
LINE
  5
2E7
330
1F
100
AcDbEntity
  8
2
  6
Continuous
 62
     1
100
AcDbLine
 10
909.503846487
 20
294.24552231
 30
0.0
 11
909.503846487
 21
292.24552231
 31
0.0
  0
LINE
  5
2E8
330
1F
100
AcDbEntity
  8
2
  6
Continuous
 62
     1
100
AcDbLine
 10
907.503846487
 20
296.24552231
 30
0.0
 11
905.503846487
 21
296.24552231
 31
0.0
  0
ARC
  5
2E9
330
1F
100
AcDbEntity
  8
2
  6
Continuous
 62
     1
100
AcDbCircle
 10
909.503846487
 20
296.24552231
 30
0.0
 40
2.0
100
AcDbArc
 50
180.0
 51
270.0
  0
ARC
  5
2EA
330
1F
100
AcDbEntity
  8
2
  6
Continuous
 62
     1
100
AcDbCircle
 10
909.503846487
 20
296.24552231
 30
0.0
 40
4.0
100
AcDbArc
 50
180.0
 51
270.0
  0
ARC
  5
2EB
330
1F
100
AcDbEntity
  8
2
  6
Continuous
 62
     1
100
AcDbCircle
 10
907.503846487
 20
294.24552231
 30
0.0
 40
2.0
100
AcDbArc
 50
0.0
 51
90.0
  0
LINE
  5
2EC
330
1F
100
AcDbEntity
  8
2
  6
Continuous
 62
     1
100
AcDbLine
 10
909.503846487
 20
292.24552231
 30
0.0
 11
957.503875787
 21
292.24552231
 31
0.0
  0
LINE
  5
2ED
330
1F
100
AcDbEntity
  8
2
  6
LTYPE2
 62
     2
100
AcDbLine
 10
909.503846487
 20
294.24552231
 30
0.0
 11
957.503877005
 21
294.24552231
 31
0.0
  0
LINE
  5
2EE
330
1F
100
AcDbEntity
  8
2
  6
Continuous
 62
     1
100
AcDbLine
 10
957.503875787
 20
297.24552231
 30
0.0
 11
957.503875787
 21
292.24552231
 31
0.0
  0
ARC
  5
2EF
330
1F
100
AcDbEntity
  8
2
  6
Continuous
 62
     1
100
AcDbCircle
 10
977.503875787
 20
297.24552231
 30
0.0
 40
20.0
100
AcDbArc
 50
90.0
 51
180.0
  0
LINE
  5
2F0
330
1F
100
AcDbEntity
  8
2
  6
Continuous
 62
     1
100
AcDbLine
 10
980.503889646
 20
317.24552231
 30
0.0
 11
977.503875787
 21
317.24552231
 31
0.0
  0
LINE
  5
2F1
330
1F
100
AcDbEntity
  8
3
  6
Continuous
 62
     1
100
AcDbLine
 10
1003.996153513
 20
333.69499539
 30
0.0
 11
1028.503846487
 21
401.02932844
 31
0.0
  0
ARC
  5
2F2
330
1F
100
AcDbEntity
  8
3
  6
Continuous
 62
     1
100
AcDbCircle
 10
980.503846487
 20
342.24552231
 30
0.0
 40
25.0
100
AcDbArc
 50
200.000056918
 51
339.999943082
  0
LINE
  5
2F3
330
1F
100
AcDbEntity
  8
3
  6
Continuous
 62
     1
100
AcDbLine
 10
957.011539462
 20
333.69499539
 30
0.0
 11
932.503846487
 21
401.02932844
 31
0.0
  0
CIRCLE
  5
2F4
330
1F
100
AcDbEntity
  8
3
  6
LTYPE1
 62
     2
100
AcDbCircle
 10
980.503846487
 20
342.24552231
 30
0.0
 40
90.0
  0
LINE
  5
2F5
330
1F
100
AcDbEntity
  8
3
  6
Continuous
 62
     1
100
AcDbLine
 10
932.503846487
 20
438.24552231
 30
0.0
 11
930.503846487
 21
438.24552231
 31
0.0
  0
ARC
  5
2F6
330
1F
100
AcDbEntity
  8
3
  6
Continuous
 62
     1
100
AcDbCircle
 10
934.503846487
 20
438.24552231
 30
0.0
 40
2.0
100
AcDbArc
 50
90.0
 51
180.0
  0
ARC
  5
2F7
330
1F
100
AcDbEntity
  8
3
  6
Continuous
 62
     1
100
AcDbCircle
 10
934.503846487
 20
438.24552231
 30
0.0
 40
4.0
100
AcDbArc
 50
90.0
 51
180.0
  0
LWPOLYLINE
  5
2F9
330
1F
100
AcDbEntity
  8
3
  6
Continuous
 62
     1
100
AcDbPolyline
 90
     3
 70
   128
 43
0.0
 10
932.503846487
 20
438.24552231
 42
0.414211982
 10
934.503846487
 20
440.245511521
 42
0.0
 10
934.503846487
 20
442.24552231
 42
0.0
  0
LINE
  5
2FA
330
1F
100
AcDbEntity
  8
3
  6
Continuous
 62
     1
100
AcDbLine
 10
1028.503846487
 20
438.24552231
 30
0.0
 11
1030.503846487
 21
438.24552231
 31
0.0
  0
ARC
  5
2FB
330
1F
100
AcDbEntity
  8
3
  6
Continuous
 62
     1
100
AcDbCircle
 10
1026.503846487
 20
438.24552231
 30
0.0
 40
2.0
100
AcDbArc
 50
360.0
 51
90.0
  0
ARC
  5
2FC
330
1F
100
AcDbEntity
  8
3
  6
Continuous
 62
     1
100
AcDbCircle
 10
1026.503846487
 20
438.24552231
 30
0.0
 40
4.0
100
AcDbArc
 50
0.0
 51
90.0
  0
LWPOLYLINE
  5
2FE
330
1F
100
AcDbEntity
  8
3
  6
Continuous
 62
     1
100
AcDbPolyline
 90
     4
 70
   128
 43
0.0
 10
1028.503846487
 20
438.24552231
 42
-0.414211982
 10
1026.503846487
 20
440.245511521
 42
0.0
 10
1026.503846487
 20
442.24552231
 42
0.0
 10
934.503846487
 20
442.24552231
 42
0.0
  0
LINE
  5
2FF
330
1F
100
AcDbEntity
  8
3
  6
Continuous
 62
     1
100
AcDbLine
 10
1028.503846487
 20
401.02932844
 30
0.0
 11
1028.503846487
 21
438.24552231
 31
0.0
  0
LINE
  5
300
330
1F
100
AcDbEntity
  8
3
  6
Continuous
 62
     1
100
AcDbLine
 10
932.503846487
 20
401.02932844
 30
0.0
 11
932.503846487
 21
438.24552231
 31
0.0
  0
LINE
  5
301
330
1F
100
AcDbEntity
  8
3
  6
Continuous
 62
     1
100
AcDbLine
 10
1030.503846487
 20
422.24552231
 30
0.0
 11
1030.503846487
 21
438.24552231
 31
0.0
  0
LINE
  5
302
330
1F
100
AcDbEntity
  8
3
  6
Continuous
 62
     1
100
AcDbLine
 10
930.503846487
 20
422.24552231
 30
0.0
 11
930.503846487
 21
438.24552231
 31
0.0
  0
LINE
  5
303
330
1F
100
AcDbEntity
  8
3
  6
Continuous
 62
     1
100
AcDbLine
 10
932.503846487
 20
422.24552231
 30
0.0
 11
930.503846487
 21
422.24552231
 31
0.0
  0
LINE
  5
304
330
1F
100
AcDbEntity
  8
3
  6
Continuous
 62
     1
100
AcDbLine
 10
1030.503846487
 20
422.24552231
 30
0.0
 11
1028.503846487
 21
422.24552231
 31
0.0
  0
LINE
  5
305
330
1F
100
AcDbEntity
  8
3
  6
LTYPE2
 62
     2
100
AcDbLine
 10
1026.503846487
 20
440.24552231
 30
0.0
 11
934.503846487
 21
440.24552231
 31
0.0
  0
LINE
  5
306
330
1F
100
AcDbEntity
  8
5
  6
Continuous
 62
     2
100
AcDbLine
 10
992.503846487
 20
446.24552231
 30
0.0
 11
968.503846487
 21
446.24552231
 31
0.0
  0
LINE
  5
307
330
1F
100
AcDbEntity
  8
5
  6
Continuous
 62
     2
100
AcDbLine
 10
990.003846487
 20
446.24552231
 30
0.0
 11
992.503846487
 21
443.74552231
 31
0.0
  0
LINE
  5
308
330
1F
100
AcDbEntity
  8
5
  6
Continuous
 62
     2
100
AcDbLine
 10
971.003846487
 20
446.24552231
 30
0.0
 11
968.503846487
 21
443.74552231
 31
0.0
  0
LINE
  5
309
330
1F
100
AcDbEntity
  8
5
  6
Continuous
 62
     1
100
AcDbLine
 10
996.503846487
 20
443.74552231
 30
0.0
 11
964.503846487
 21
443.74552231
 31
0.0
  0
LINE
  5
30A
330
1F
100
AcDbEntity
  8
5
  6
Continuous
 62
     2
100
AcDbLine
 10
995.878868066
 20
454.04552231
 30
0.0
 11
965.128824908
 21
454.04552231
 31
0.0
  0
LINE
  5
30B
330
1F
100
AcDbEntity
  8
5
  6
Continuous
 62
     2
100
AcDbLine
 10
970.253824908
 20
456.34552231
 30
0.0
 11
970.253824908
 21
465.34552231
 31
0.0
  0
LINE
  5
30C
330
1F
100
AcDbEntity
  8
5
  6
Continuous
 62
     2
100
AcDbLine
 10
990.753824908
 20
456.34552231
 30
0.0
 11
990.753824908
 21
465.34552231
 31
0.0
  0
LINE
  5
30D
330
1F
100
AcDbEntity
  8
5
  6
Continuous
 62
     1
100
AcDbLine
 10
968.503846487
 20
454.04552231
 30
0.0
 11
968.503846487
 21
443.74552231
 31
0.0
  0
LINE
  5
30E
330
1F
100
AcDbEntity
  8
5
  6
Continuous
 62
     2
100
AcDbLine
 10
971.003846487
 20
454.04552231
 30
0.0
 11
971.003846487
 21
446.24552231
 31
0.0
  0
LINE
  5
30F
330
1F
100
AcDbEntity
  8
5
  6
LTYPE2
 62
     2
100
AcDbLine
 10
972.503846487
 20
454.04552231
 30
0.0
 11
972.503846487
 21
435.24552231
 31
0.0
  0
LINE
  5
310
330
1F
100
AcDbEntity
  8
5
  6
LTYPE2
 62
     2
100
AcDbLine
 10
988.503846487
 20
454.04552231
 30
0.0
 11
988.503846487
 21
435.24552231
 31
0.0
  0
LINE
  5
311
330
1F
100
AcDbEntity
  8
5
  6
Continuous
 62
     2
100
AcDbLine
 10
990.003846487
 20
446.24552231
 30
0.0
 11
990.003846487
 21
454.04552231
 31
0.0
  0
LINE
  5
312
330
1F
100
AcDbEntity
  8
5
  6
Continuous
 62
     1
100
AcDbLine
 10
992.503846487
 20
443.74552231
 30
0.0
 11
992.503846487
 21
454.04552231
 31
0.0
  0
LINE
  5
313
330
1F
100
AcDbEntity
  8
5
  6
Continuous
 62
     2
100
AcDbLine
 10
1020.503846487
 20
496.24552231
 30
0.0
 11
940.503846487
 21
496.24552231
 31
0.0
  0
CIRCLE
  5
314
330
1F
100
AcDbEntity
  8
5
  6
Continuous
 62
     2
100
AcDbCircle
 10
1008.503846487
 20
483.94552231
 30
0.0
 40
9.0
  0
ARC
  5
315
330
1F
100
AcDbEntity
  8
5
  6
LTYPE2
 62
     2
100
AcDbCircle
 10
980.503846487
 20
464.255848397
 30
0.0
 40
23.989673913
100
AcDbArc
 50
64.705747729
 51
115.294252271
  0
LINE
  5
316
330
1F
100
AcDbEntity
  8
5
  6
LTYPE2
 62
     2
100
AcDbLine
 10
995.878868066
 20
488.24552231
 30
0.0
 11
965.128868066
 21
488.24552231
 31
0.0
  0
LINE
  5
317
330
1F
100
AcDbEntity
  8
5
  6
LTYPE2
 62
     2
100
AcDbLine
 10
1020.503846487
 20
474.64552231
 30
0.0
 11
940.503846487
 21
474.64552231
 31
0.0
  0
LWPOLYLINE
  5
319
330
1F
100
AcDbEntity
  8
5
  6
Continuous
 62
     2
100
AcDbPolyline
 90
     5
 70
   128
 43
0.0
 10
1004.878846487
 20
477.666838133
 10
1012.128846487
 20
477.666838133
 10
1015.753846487
 20
483.94552231
 10
1012.128846487
 20
490.224206488
 10
1004.878846487
 20
490.224206488
  0
CIRCLE
  5
31A
330
1F
100
AcDbEntity
  8
5
  6
Continuous
 62
     2
100
AcDbCircle
 10
1008.503846487
 20
483.94552231
 30
0.0
 40
6.0
  0
CIRCLE
  5
31B
330
1F
100
AcDbEntity
  8
5
  6
Continuous
 62
     2
100
AcDbCircle
 10
1008.503846487
 20
483.94552231
 30
0.0
 40
4.0
  0
LWPOLYLINE
  5
31D
330
1F
100
AcDbEntity
  8
5
  6
Continuous
 62
     2
100
AcDbPolyline
 90
     3
 70
   128
 43
0.0
 10
1004.878846487
 20
490.224206488
 10
1001.253846487
 20
483.94552231
 10
1004.878846487
 20
477.666838133
  0
LINE
  5
31E
330
1F
100
AcDbEntity
  8
5
  6
LTYPE2
 62
     2
100
AcDbLine
 10
964.503846487
 20
443.74552231
 30
0.0
 11
964.503846487
 21
440.24552231
 31
0.0
  0
LINE
  5
31F
330
1F
100
AcDbEntity
  8
5
  6
LTYPE2
 62
     2
100
AcDbLine
 10
996.503846487
 20
443.74552231
 30
0.0
 11
996.503846487
 21
440.24552231
 31
0.0
  0
LWPOLYLINE
  5
321
330
1F
100
AcDbEntity
  8
5
  6
Continuous
 62
     1
100
AcDbPolyline
 90
     4
 70
   129
 43
0.0
 10
905.503846487
 20
502.64552231
 10
1055.503846487
 20
502.64552231
 10
1055.503846487
 20
499.44552231
 10
905.503846487
 20
499.44552231
  0
LWPOLYLINE
  5
323
330
1F
100
AcDbEntity
  8
5
  6
Continuous
 62
     1
100
AcDbPolyline
 90
     4
 70
   128
 43
0.0
 10
1020.503846487
 20
499.44552231
 10
1020.503846487
 20
471.44552231
 10
940.503846487
 20
471.44552231
 10
940.503846487
 20
499.44552231
  0
LWPOLYLINE
  5
325
330
1F
100
AcDbEntity
  8
5
  6
LTYPE2
 62
     2
100
AcDbPolyline
 90
     4
 70
   129
 43
0.0
 10
959.503846487
 20
440.24552231
 10
959.503846487
 20
435.24552231
 10
1001.253846487
 20
435.24552231
 10
1001.253846487
 20
440.24552231
  0
LWPOLYLINE
  5
328
330
1F
100
AcDbEntity
  8
5
  6
Continuous
 62
     2
100
AcDbPolyline
 90
     8
 70
   129
 43
0.0
 10
1001.003824908
 20
465.34552231
 42
0.0
 10
1001.003824908
 20
456.34552231
 42
-0.448780488
 10
990.753824908
 20
456.34552231
 42
-0.224390244
 10
970.253824908
 20
456.34552231
 42
-0.448780488
 10
960.003824908
 20
456.34552231
 42
0.0
 10
960.003824908
 20
465.34552231
 42
-0.448780488
 10
970.253824908
 20
465.34552231
 42
-0.224390244
 10
990.753824908
 20
465.34552231
 42
-0.448780488
  0
LWPOLYLINE
  5
32F
330
1F
100
AcDbEntity
  8
5
  6
Continuous
 62
     2
100
AcDbPolyline
 90
     4
 70
   128
 43
0.0
 10
1004.503846487
 20
471.44552231
 10
1004.503846487
 20
467.64552231
 10
956.503846487
 20
467.64552231
 10
956.503846487
 20
471.44552231
  0
LWPOLYLINE
  5
331
330
1F
100
AcDbEntity
  8
5
  6
LTYPE2
 62
     2
100
AcDbPolyline
 90
    10
 70
   128
 43
0.0
 10
990.753846487
 20
476.94552231
 42
0.448780488
 10
1001.003846487
 20
476.94552231
 42
0.0
 10
1001.003846487
 20
485.94552231
 42
0.448780488
 10
990.753846487
 20
485.94552231
 42
0.0
 10
990.753846487
 20
476.94552231
 42
-0.224390244
 10
970.253846487
 20
476.94552231
 42
-0.448780488
 10
960.003846487
 20
476.94552231
 42
0.0
 10
960.003846487
 20
485.94552231
 42
-0.448780488
 10
970.253846487
 20
485.94552231
 42
0.0
 10
970.253846487
 20
476.94552231
 42
0.0
  0
LWPOLYLINE
  5
337
330
1F
100
AcDbEntity
  8
0
  6
LTYPE1
 62
     2
100
AcDbPolyline
 90
     3
 70
   128
 43
0.0
 10
1025.503846487
 20
292.74552231
 42
0.707070707
 10
1025.503846487
 20
391.74552231
 42
0.0
 10
957.503875787
 20
389.152303089
 42
0.0
  0
LINE
  5
338
330
1F
100
AcDbEntity
  8
0
  6
LTYPE1
 62
     2
100
AcDbLine
 10
1025.503846487
 20
292.74552231
 30
0.0
 11
957.503875787
 21
295.338741532
 31
0.0
  0
LINE
  5
339
330
1F
100
AcDbEntity
  8
2
  6
LTYPE2
 62
     2
100
AcDbLine
 10
909.503846487
 20
390.24552231
 30
0.0
 11
936.428830931
 21
390.24552231
 31
0.0
  0
LINE
  5
33A
330
1F
100
AcDbEntity
  8
2
  6
Continuous
 62
     1
100
AcDbLine
 10
909.503846487
 20
392.24552231
 30
0.0
 11
935.700890462
 21
392.24552231
 31
0.0
  0
LINE
  5
33B
330
1F
100
AcDbEntity
  8
2
  6
LTYPE2
 62
     2
100
AcDbLine
 10
957.503875787
 20
387.24552231
 30
0.0
 11
957.503875787
 21
392.24552231
 31
0.0
  0
LINE
  5
33C
330
1F
100
AcDbEntity
  8
2
  6
LTYPE2
 62
     2
100
AcDbLine
 10
935.700890462
 20
392.24552231
 30
0.0
 11
957.503875787
 21
392.24552231
 31
0.0
  0
LWPOLYLINE
  5
33E
330
1F
100
AcDbEntity
  8
2
  6
LTYPE2
 62
     2
100
AcDbPolyline
 90
     3
 70
   128
 43
0.0
 10
980.503889646
 20
317.24552231
 42
0.999999137
 10
980.503846487
 20
367.24552231
 42
0.0
 10
977.503875787
 20
367.24552231
 42
0.0
  0
ARC
  5
33F
330
1F
100
AcDbEntity
  8
2
  6
LTYPE2
 62
     2
100
AcDbCircle
 10
977.503875787
 20
387.24552231
 30
0.0
 40
20.0
100
AcDbArc
 50
180.0
 51
270.0
  0
LINE
  5
340
330
1F
100
AcDbEntity
  8
7
  6
Continuous
 62
     2
100
AcDbLine
 10
905.503846487
 20
292.24552231
 30
0.0
 11
905.503846487
 21
259.245521947
 31
0.0
  0
LINE
  5
341
330
1F
100
AcDbEntity
  8
7
  6
Continuous
 62
     2
100
AcDbLine
 10
905.503846487
 20
267.245521947
 30
0.0
 11
915.16310475
 21
264.657331496
 31
0.0
  0
LINE
  5
342
330
1F
100
AcDbEntity
  8
7
  6
Continuous
 62
     2
100
AcDbLine
 10
905.503846487
 20
267.245521947
 30
0.0
 11
915.16310475
 21
269.833712398
 31
0.0
  0
LWPOLYLINE
  5
344
330
1F
100
AcDbEntity
  8
7
  6
Continuous
 62
     2
100
AcDbPolyline
 90
     3
 70
   128
 43
0.0
 10
905.503846487
 20
267.245521947
 10
1060.503846487
 20
267.245521947
 10
1050.844588224
 20
269.833712398
  0
LINE
  5
345
330
1F
100
AcDbEntity
  8
7
  6
Continuous
 62
     2
100
AcDbLine
 10
1060.503846487
 20
267.245521947
 30
0.0
 11
1050.844588224
 21
264.657331496
 31
0.0
  0
LINE
  5
346
330
1F
100
AcDbEntity
  8
7
  6
Continuous
 62
     2
100
AcDbLine
 10
1060.503846487
 20
338.24552231
 30
0.0
 11
1060.503846487
 21
259.245521947
 31
0.0
  0
MTEXT
  5
347
330
1F
100
AcDbEntity
  8
7
  6
Continuous
 62
     2
100
AcDbMText
 10
962.603846487
 20
271.245521947
 30
0.0
 40
12.0
 41
81.6
 71
     7
 72
     1
  1
\T1.167;\W0.600;（１５５）
  7
KANJI7
 73
     1
 44
1.0
  0
LINE
  5
348
330
1F
100
AcDbEntity
  8
7
  6
Continuous
 62
     2
100
AcDbLine
 10
976.503846487
 20
342.24552231
 30
0.0
 11
872.503846487
 21
342.24552231
 31
0.0
  0
LINE
  5
349
330
1F
100
AcDbEntity
  8
7
  6
Continuous
 62
     2
100
AcDbLine
 10
880.503846487
 20
342.24552231
 30
0.0
 11
883.092036938
 21
351.904780573
 31
0.0
  0
LINE
  5
34A
330
1F
100
AcDbEntity
  8
7
  6
Continuous
 62
     2
100
AcDbLine
 10
880.503846487
 20
342.24552231
 30
0.0
 11
877.915656036
 21
351.904780573
 31
0.0
  0
LWPOLYLINE
  5
34C
330
1F
100
AcDbEntity
  8
7
  6
Continuous
 62
     2
100
AcDbPolyline
 90
     3
 70
   128
 43
0.0
 10
880.503846487
 20
342.24552231
 10
880.503846487
 20
442.24552231
 10
877.915656036
 20
432.586264047
  0
LINE
  5
34D
330
1F
100
AcDbEntity
  8
7
  6
Continuous
 62
     2
100
AcDbLine
 10
880.503846487
 20
442.24552231
 30
0.0
 11
883.092036938
 21
432.586264047
 31
0.0
  0
LINE
  5
34E
330
1F
100
AcDbEntity
  8
7
  6
Continuous
 62
     2
100
AcDbLine
 10
930.503846487
 20
442.24552231
 30
0.0
 11
872.503846487
 21
442.24552231
 31
0.0
  0
MTEXT
  5
34F
330
1F
100
AcDbEntity
  8
7
  6
Continuous
 62
     2
100
AcDbMText
 10
876.503846487
 20
380.24552231
 30
0.0
 40
12.0
 41
48.0
 71
     7
 72
     1
  1
\T1.167;\W0.600;１００
  7
KANJI7
 11
0.0
 21
1.0
 31
0.0
 73
     1
 44
1.0
  0
LINE
  5
350
330
1F
100
AcDbEntity
  8
7
  6
Continuous
 62
     2
100
AcDbLine
 10
880.503846487
 20
442.24552231
 30
0.0
 11
883.092036938
 21
451.904780573
 31
0.0
  0
LINE
  5
351
330
1F
100
AcDbEntity
  8
7
  6
Continuous
 62
     2
100
AcDbLine
 10
880.503846487
 20
442.24552231
 30
0.0
 11
877.915656036
 21
451.904780573
 31
0.0
  0
LWPOLYLINE
  5
353
330
1F
100
AcDbEntity
  8
7
  6
Continuous
 62
     2
100
AcDbPolyline
 90
     3
 70
   128
 43
0.0
 10
880.503846487
 20
442.24552231
 10
880.503846487
 20
502.64552231
 10
877.915656036
 20
492.986264047
  0
LINE
  5
354
330
1F
100
AcDbEntity
  8
7
  6
Continuous
 62
     2
100
AcDbLine
 10
880.503846487
 20
502.64552231
 30
0.0
 11
883.092036938
 21
492.986264047
 31
0.0
  0
LINE
  5
355
330
1F
100
AcDbEntity
  8
7
  6
Continuous
 62
     2
100
AcDbLine
 10
901.503846487
 20
502.64552231
 30
0.0
 11
872.503846487
 21
502.64552231
 31
0.0
  0
MTEXT
  5
356
330
1F
100
AcDbEntity
  8
7
  6
Continuous
 62
     2
100
AcDbMText
 10
876.503846487
 20
447.84552231
 30
0.0
 40
12.0
 41
98.4
 71
     7
 72
     1
  1
\T1.167;\W0.600;（６０．４）
  7
KANJI7
 11
0.0
 21
1.0
 31
0.0
 73
     1
 44
1.0
  0
LINE
  5
357
330
1F
100
AcDbEntity
  8
7
  6
Continuous
 62
     2
100
AcDbLine
 10
876.503846487
 20
502.64552231
 30
0.0
 11
847.503846487
 21
502.64552231
 31
0.0
  0
LINE
  5
358
330
1F
100
AcDbEntity
  8
7
  6
Continuous
 62
     2
100
AcDbLine
 10
855.503846487
 20
502.64552231
 30
0.0
 11
852.915656036
 21
492.986264047
 31
0.0
  0
LINE
  5
359
330
1F
100
AcDbEntity
  8
7
  6
Continuous
 62
     2
100
AcDbLine
 10
855.503846487
 20
502.64552231
 30
0.0
 11
858.092036938
 21
492.986264047
 31
0.0
  0
LWPOLYLINE
  5
35B
330
1F
100
AcDbEntity
  8
7
  6
Continuous
 62
     2
100
AcDbPolyline
 90
     3
 70
   128
 43
0.0
 10
855.503846487
 20
502.64552231
 10
855.503846487
 20
292.24552231
 10
858.092036938
 20
301.904780573
  0
LINE
  5
35C
330
1F
100
AcDbEntity
  8
7
  6
Continuous
 62
     2
100
AcDbLine
 10
855.503846487
 20
292.24552231
 30
0.0
 11
852.915656036
 21
301.904780573
 31
0.0
  0
LINE
  5
35D
330
1F
100
AcDbEntity
  8
7
  6
Continuous
 62
     2
100
AcDbLine
 10
905.503846487
 20
292.24552231
 30
0.0
 11
847.503846487
 21
292.24552231
 31
0.0
  0
MTEXT
  5
35E
330
1F
100
AcDbEntity
  8
7
  6
Continuous
 62
     2
100
AcDbMText
 10
851.503846487
 20
368.64552231
 30
0.0
 40
12.0
 41
115.2
 71
     7
 72
     1
  1
\T1.167;\W0.600;（２１０．４）
  7
KANJI7
 11
0.0
 21
1.0
 31
0.0
 73
     1
 44
1.0
  0
LINE
  5
35F
330
1F
100
AcDbEntity
  8
7
  6
Continuous
 62
     2
100
AcDbLine
 10
701.753846487
 20
316.84552231
 30
0.0
 11
738.613846487
 21
316.84552231
 31
0.0
  0
LINE
  5
360
330
1F
100
AcDbEntity
  8
7
  6
Continuous
 62
     2
100
AcDbLine
 10
730.613846487
 20
316.84552231
 30
0.0
 11
733.202036938
 21
326.504780573
 31
0.0
  0
LINE
  5
361
330
1F
100
AcDbEntity
  8
7
  6
Continuous
 62
     2
100
AcDbLine
 10
730.613846487
 20
316.84552231
 30
0.0
 11
728.025656036
 21
326.504780573
 31
0.0
  0
LWPOLYLINE
  5
363
330
1F
100
AcDbEntity
  8
7
  6
Continuous
 62
     2
100
AcDbPolyline
 90
     3
 70
   128
 43
0.0
 10
730.613846487
 20
316.84552231
 10
730.613846487
 20
367.645521585
 10
728.025656036
 20
357.986263322
  0
LINE
  5
364
330
1F
100
AcDbEntity
  8
7
  6
Continuous
 62
     2
100
AcDbLine
 10
730.613846487
 20
367.645521585
 30
0.0
 11
733.202036938
 21
357.986263322
 31
0.0
  0
LINE
  5
365
330
1F
100
AcDbEntity
  8
7
  6
Continuous
 62
     2
100
AcDbLine
 10
701.753846487
 20
367.645521585
 30
0.0
 11
738.613846487
 21
367.645521585
 31
0.0
  0
MTEXT
  5
366
330
1F
100
AcDbEntity
  8
7
  6
Continuous
 62
     2
100
AcDbMText
 10
726.613846487
 20
326.045521947
 30
0.0
 40
12.0
 41
64.8
 71
     7
 72
     1
  1
\T1.167;\W0.600;５０．８
  7
KANJI7
 11
0.0
 21
1.0
 31
0.0
 73
     1
 44
1.0
  0
MTEXT
  5
367
330
1F
100
AcDbEntity
  8
4
  6
Continuous
 62
     2
100
AcDbMText
 10
785.333333333
 20
31.466666667
 30
0.0
 40
12.0
 41
103.2
 71
     7
 72
     1
  1
\T1.111;\W0.900;ＣＨ５０－０００
  7
KANJI5
 73
     1
 44
1.0
  0
LWPOLYLINE
  5
369
330
1F
100
AcDbEntity
  8
5
  6
Continuous
 62
     2
100
AcDbPolyline
 90
     3
 70
   128
 43
0.0
 10
984.303846487
 20
348.74552231
 10
976.703846487
 20
348.74552231
 10
973.003846487
 20
342.24552231
  0
LINE
  5
36A
330
1F
100
AcDbEntity
  8
5
  6
Continuous
 62
     2
100
AcDbLine
 10
988.003846487
 20
342.24552231
 30
0.0
 11
984.303846487
 21
348.74552231
 31
0.0
  0
LWPOLYLINE
  5
36C
330
1F
100
AcDbEntity
  8
5
  6
Continuous
 62
     2
100
AcDbPolyline
 90
     4
 70
   128
 43
0.0
 10
973.003846487
 20
342.24552231
 10
976.703846487
 20
335.74552231
 10
984.303846487
 20
335.74552231
 10
988.003846487
 20
342.24552231
  0
CIRCLE
  5
36D
330
1F
100
AcDbEntity
  8
5
  6
Continuous
 62
     2
100
AcDbCircle
 10
980.503846487
 20
342.24552231
 30
0.0
 40
6.5
  0
CIRCLE
  5
36E
330
1F
100
AcDbEntity
  8
5
  6
Continuous
 62
     2
100
AcDbCircle
 10
980.503846487
 20
342.24552231
 30
0.0
 40
7.7
  0
CIRCLE
  5
36F
330
1F
100
AcDbEntity
  8
5
  6
Continuous
 62
     2
100
AcDbCircle
 10
980.503846487
 20
342.24552231
 30
0.0
 40
8.5
  0
LINE
  5
370
330
1F
100
AcDbEntity
  8
7
  6
Continuous
 62
     2
100
AcDbLine
 10
262.283846487
 20
311.03552231
 30
0.0
 11
255.533131387
 21
303.657999309
 31
0.0
  0
LINE
  5
371
330
1F
100
AcDbEntity
  8
7
  6
Continuous
 62
     2
100
AcDbLine
 10
262.283846487
 20
311.03552231
 30
0.0
 11
260.126317218
 21
301.271042424
 31
0.0
  0
LWPOLYLINE
  5
373
330
1F
100
AcDbEntity
  8
7
  6
Continuous
 62
     2
100
AcDbPolyline
 90
     3
 70
   128
 43
0.0
 10
262.283846487
 20
311.03552231
 10
205.623846487
 20
202.00552231
 10
175.023846487
 20
202.00552231
  0
MTEXT
  5
374
330
1F
100
AcDbEntity
  8
7
  6
Continuous
 62
     2
100
AcDbMText
 10
175.023846487
 20
206.00552231
 30
0.0
 40
12.0
 41
61.2
 71
     7
 72
     1
  1
\T1.111;\W0.588;４－φ７
  7
KANJI8
 73
     1
 44
1.0
  0
ENDSEC
  0
SECTION
  2
OBJECTS
  0
DICTIONARY
  5
C
330
0
100
AcDbDictionary
280
     0
281
     1
  3
ACAD_GROUP
350
D
  3
ACAD_LAYOUT
350
1A
  3
ACAD_MLINESTYLE
350
17
  3
ACAD_PLOTSETTINGS
350
19
  3
ACAD_PLOTSTYLENAME
350
E
  0
DICTIONARY
  5
D
102
{ACAD_REACTORS
330
C
102
}
330
C
100
AcDbDictionary
280
     0
281
     1
  0
DICTIONARY
  5
1A
102
{ACAD_REACTORS
330
C
102
}
330
C
100
AcDbDictionary
280
     0
281
     1
  3
Model
350
22
  3
ﾚｲｱｳﾄ1
350
1E
  3
ﾚｲｱｳﾄ2
350
26
  0
LAYOUT
  5
22
102
{ACAD_REACTORS
330
1A
102
}
330
1A
100
AcDbPlotSettings
  1

  2

  4

  6

 40
0.0
 41
0.0
 42
0.0
 43
0.0
 44
0.0
 45
0.0
 46
0.0
 47
0.0
 48
0.0
 49
0.0
140
0.0
141
0.0
142
1.0
143
1.0
 70
  1712
 72
     0
 73
     0
 74
     0
  7

 75
     0
147
1.0
148
0.0
149
0.0
100
AcDbLayout
  1
Model
 70
     1
 71
     0
 10
0.0
 20
0.0
 11
0.0
 21
0.0
 12
0.0
 22
0.0
 32
0.0
 14
0.0
 24
0.0
 34
0.0
 15
0.0
 25
0.0
 35
0.0
146
0.0
 13
0.0
 23
0.0
 33
0.0
 16
1.0
 26
0.0
 36
0.0
 17
0.0
 27
1.0
 37
0.0
 76
     0
330
1F
331
0
345
0
346
0
  0
LAYOUT
  5
1E
102
{ACAD_REACTORS
330
1A
102
}
330
1A
100
AcDbPlotSettings
  1

  2

  4

  6

 40
0.0
 41
0.0
 42
0.0
 43
0.0
 44
0.0
 45
0.0
 46
0.0
 47
0.0
 48
0.0
 49
0.0
140
0.0
141
0.0
142
1.0
143
1.0
 70
   688
 72
     0
 73
     0
 74
     5
  7

 75
    16
147
1.0
148
0.0
149
0.0
100
AcDbLayout
  1
ﾚｲｱｳﾄ1
 70
     1
 71
     1
 10
0.0
 20
0.0
 11
0.0
 21
0.0
 12
0.0
 22
0.0
 32
0.0
 14
0.0
 24
0.0
 34
0.0
 15
0.0
 25
0.0
 35
0.0
146
0.0
 13
0.0
 23
0.0
 33
0.0
 16
1.0
 26
0.0
 36
0.0
 17
0.0
 27
1.0
 37
0.0
 76
     0
330
1B
331
0
345
0
346
0
  0
LAYOUT
  5
26
102
{ACAD_REACTORS
330
1A
102
}
330
1A
100
AcDbPlotSettings
  1

  2

  4

  6

 40
0.0
 41
0.0
 42
0.0
 43
0.0
 44
0.0
 45
0.0
 46
0.0
 47
0.0
 48
0.0
 49
0.0
140
0.0
141
0.0
142
1.0
143
1.0
 70
   688
 72
     0
 73
     0
 74
     5
  7

 75
    16
147
1.0
148
0.0
149
0.0
100
AcDbLayout
  1
ﾚｲｱｳﾄ2
 70
     1
 71
     2
 10
0.0
 20
0.0
 11
0.0
 21
0.0
 12
0.0
 22
0.0
 32
0.0
 14
0.0
 24
0.0
 34
0.0
 15
0.0
 25
0.0
 35
0.0
146
0.0
 13
0.0
 23
0.0
 33
0.0
 16
1.0
 26
0.0
 36
0.0
 17
0.0
 27
1.0
 37
0.0
 76
     0
330
23
331
0
345
0
346
0
  0
DICTIONARY
  5
17
102
{ACAD_REACTORS
330
C
102
}
330
C
100
AcDbDictionary
280
     0
281
     1
  3
Standard
350
18
  0
MLINESTYLE
  5
18
102
{ACAD_REACTORS
330
17
102
}
330
17
100
AcDbMlineStyle
  2
STANDARD
 70
     0
  3

 62
   256
 51
90.0
 52
90.0
 71
     2
 49
0.5
 62
   256
  6
ByLayer
 49
-0.5
 62
   256
  6
ByLayer
  0
DICTIONARY
  5
19
102
{ACAD_REACTORS
330
C
102
}
330
C
100
AcDbDictionary
280
     0
281
     1
  0
ACDBDICTIONARYWDFLT
  5
E
330
C
100
AcDbDictionary
281
     0
  3
Normal
350
F
100
AcDbDictionaryWithDefault
340
F
  0
ACDBPLACEHOLDER
  5
F
102
{ACAD_REACTORS
330
E
102
}
330
E
  0
ENDSEC
  0
EOF
