  0
SECTION
  2
HEADER
  9
$ACADVER
  1
AC1015
  9
$ACADMAINTVER
 70
     6
  9
$DWGCODEPAGE
  3
ANSI_932
  9
$INSBASE
 10
0.0
 20
0.0
 30
0.0
  9
$EXTMIN
 10
0.0
 20
0.0
 30
0.0
  9
$EXTMAX
 10
594.0
 20
420.0
 30
0.0
  9
$LIMMIN
 10
0.0
 20
0.0
  9
$LIMMAX
 10
594.0
 20
420.0
  9
$ORTHOMODE
 70
     0
  9
$REGENMODE
 70
     1
  9
$FILLMODE
 70
     1
  9
$QTEXTMODE
 70
     0
  9
$MIRRTEXT
 70
     1
  9
$LTSCALE
 40
2.0
  9
$ATTMODE
 70
     1
  9
$TEXTSIZE
 40
2.5
  9
$TRACEWID
 40
1.0
  9
$TEXTSTYLE
  7
Standard
  9
$CLAYER
  8
0
  9
$CELTYPE
  6
ByLayer
  9
$CECOLOR
 62
   256
  9
$CELTSCALE
 40
1.0
  9
$DISPSILH
 70
     0
  9
$DIMSCALE
 40
1.0
  9
$DIMASZ
 40
2.5
  9
$DIMEXO
 40
0.625
  9
$DIMDLI
 40
3.75
  9
$DIMRND
 40
0.0
  9
$DIMDLE
 40
0.0
  9
$DIMEXE
 40
1.25
  9
$DIMTP
 40
0.0
  9
$DIMTM
 40
0.0
  9
$DIMTXT
 40
2.5
  9
$DIMCEN
 40
2.5
  9
$DIMTSZ
 40
0.0
  9
$DIMTOL
 70
     0
  9
$DIMLIM
 70
     0
  9
$DIMTIH
 70
     0
  9
$DIMTOH
 70
     0
  9
$DIMSE1
 70
     0
  9
$DIMSE2
 70
     0
  9
$DIMTAD
 70
     1
  9
$DIMZIN
 70
     8
  9
$DIMBLK
  1

  9
$DIMASO
 70
     1
  9
$DIMSHO
 70
     1
  9
$DIMPOST
  1

  9
$DIMAPOST
  1

  9
$DIMALT
 70
     0
  9
$DIMALTD
 70
     3
  9
$DIMALTF
 40
0.03937007874016
  9
$DIMLFAC
 40
1.0
  9
$DIMTOFL
 70
     1
  9
$DIMTVP
 40
0.0
  9
$DIMTIX
 70
     0
  9
$DIMSOXD
 70
     0
  9
$DIMSAH
 70
     0
  9
$DIMBLK1
  1

  9
$DIMBLK2
  1

  9
$DIMSTYLE
  2
ISO-25
  9
$DIMCLRD
 70
     0
  9
$DIMCLRE
 70
     0
  9
$DIMCLRT
 70
     0
  9
$DIMTFAC
 40
1.0
  9
$DIMGAP
 40
0.625
  9
$DIMJUST
 70
     0
  9
$DIMSD1
 70
     0
  9
$DIMSD2
 70
     0
  9
$DIMTOLJ
 70
     0
  9
$DIMTZIN
 70
     8
  9
$DIMALTZ
 70
     0
  9
$DIMALTTZ
 70
     0
  9
$DIMUPT
 70
     0
  9
$DIMDEC
 70
     2
  9
$DIMTDEC
 70
     2
  9
$DIMALTU
 70
     2
  9
$DIMALTTD
 70
     3
  9
$DIMTXSTY
  7
Standard
  9
$DIMAUNIT
 70
     0
  9
$DIMADEC
 70
     0
  9
$DIMALTRND
 40
0.0
  9
$DIMAZIN
 70
     0
  9
$DIMDSEP
 70
    46
  9
$DIMATFIT
 70
     3
  9
$DIMFRAC
 70
     0
  9
$DIMLDRBLK
  1

  9
$DIMLUNIT
 70
     2
  9
$DIMLWD
 70
    -2
  9
$DIMLWE
 70
    -2
  9
$DIMTMOVE
 70
     0
  9
$LUNITS
 70
     2
  9
$LUPREC
 70
     4
  9
$SKETCHINC
 40
1.0
  9
$FILLETRAD
 40
10.0
  9
$AUNITS
 70
     0
  9
$AUPREC
 70
     0
  9
$MENU
  1
.
  9
$ELEVATION
 40
0.0
  9
$PELEVATION
 40
0.0
  9
$THICKNESS
 40
0.0
  9
$LIMCHECK
 70
     0
  9
$CHAMFERA
 40
10.0
  9
$CHAMFERB
 40
10.0
  9
$CHAMFERC
 40
20.0
  9
$CHAMFERD
 40
0.0
  9
$SKPOLY
 70
     0
  9
$TDCREATE
 40
2457074.000000
  9
$TDUCREATE
 40
0.000000000
  9
$TDUPDATE
 40
2457074.000000
  9
$TDUUPDATE
 40
2457074.000000
  9
$TDINDWG
 40
0.0
  9
$TDUSRTIMER
 40
0.0
  9
$USRTIMER
 70
     1
  9
$ANGBASE
 50
0.0
  9
$ANGDIR
 70
     0
  9
$PDMODE
 70
     0
  9
$PDSIZE
 40
0.0
  9
$PLINEWID
 40
0.0
  9
$SPLFRAME
 70
     0
  9
$SPLINETYPE
 70
     6
  9
$SPLINESEGS
 70
     8
  9
$HANDSEED
  5
032E
  9
$SURFTAB1
 70
     6
  9
$SURFTAB2
 70
     6
  9
$SURFTYPE
 70
     6
  9
$SURFU
 70
     6
  9
$SURFV
 70
     6
  9
$UCSBASE
  2

  9
$UCSNAME
  2

  9
$UCSORG
 10
0.0
 20
0.0
 30
0.0
  9
$UCSXDIR
 10
1.0
 20
0.0
 30
0.0
  9
$UCSYDIR
 10
0.0
 20
1.0
 30
0.0
  9
$UCSORTHOREF
  2

  9
$UCSORTHOVIEW
 70
     0
  9
$UCSORGTOP
 10
0.0
 20
0.0
 30
0.0
  9
$UCSORGBOTTOM
 10
0.0
 20
0.0
 30
0.0
  9
$UCSORGLEFT
 10
0.0
 20
0.0
 30
0.0
  9
$UCSORGRIGHT
 10
0.0
 20
0.0
 30
0.0
  9
$UCSORGFRONT
 10
0.0
 20
0.0
 30
0.0
  9
$UCSORGBACK
 10
0.0
 20
0.0
 30
0.0
  9
$PUCSBASE
  2

  9
$PUCSNAME
  2

  9
$PUCSORG
 10
0.0
 20
0.0
 30
0.0
  9
$PUCSXDIR
 10
1.0
 20
0.0
 30
0.0
  9
$PUCSYDIR
 10
0.0
 20
1.0
 30
0.0
  9
$PUCSORTHOREF
  2

  9
$PUCSORTHOVIEW
 70
     0
  9
$PUCSORGTOP
 10
0.0
 20
0.0
 30
0.0
  9
$PUCSORGBOTTOM
 10
0.0
 20
0.0
 30
0.0
  9
$PUCSORGLEFT
 10
0.0
 20
0.0
 30
0.0
  9
$PUCSORGRIGHT
 10
0.0
 20
0.0
 30
0.0
  9
$PUCSORGFRONT
 10
0.0
 20
0.0
 30
0.0
  9
$PUCSORGBACK
 10
0.0
 20
0.0
 30
0.0
  9
$USERI1
 70
     0
  9
$USERI2
 70
     0
  9
$USERI3
 70
     0
  9
$USERI4
 70
     0
  9
$USERI5
 70
     0
  9
$USERR1
 40
0.0
  9
$USERR2
 40
0.0
  9
$USERR3
 40
0.0
  9
$USERR4
 40
0.0
  9
$USERR5
 40
0.0
  9
$WORLDVIEW
 70
     1
  9
$SHADEDGE
 70
     3
  9
$SHADEDIF
 70
    70
  9
$TILEMODE
 70
     1
  9
$MAXACTVP
 70
    64
  9
$PINSBASE
 10
0.0
 20
0.0
 30
0.0
  9
$PLIMCHECK
 70
     0
  9
$PEXTMIN
 10
1.000000E+20
 20
1.000000E+20
 30
1.000000E+20
  9
$PEXTMAX
 10
-1.000000E+20
 20
-1.000000E+20
 30
-1.000000E+20
  9
$PLIMMIN
 10
0.0
 20
0.0
  9
$PLIMMAX
 10
0.0
 20
0.0
  9
$UNITMODE
 70
     0
  9
$VISRETAIN
 70
     0
  9
$PLINEGEN
 70
     0
  9
$PSLTSCALE
 70
     1
  9
$TREEDEPTH
 70
  3020
  9
$CMLSTYLE
  2
STANDARD
  9
$CMLJUST
 70
     0
  9
$CMLSCALE
 40
20.0
  9
$PROXYGRAPHICS
 70
     1
  9
$MEASUREMENT
 70
     1
  9
$CELWEIGHT
370
    -1
  9
$ENDCAPS
280
     0
  9
$JOINSTYLE
280
     0
  9
$LWDISPLAY
290
     0
  9
$INSUNITS
 70
     4
  9
$HYPERLINKBASE
  1

  9
$STYLESHEET
  1

  9
$XEDIT
290
     1
  9
$CEPSNTYPE
380
     0
  9
$PSTYLEMODE
290
     1
  9
$FINGERPRINTGUID
  2
{D6E8B302-F6A4-6765-89F6-95B261734A4F}
  9
$VERSIONGUID
  2
{E302572F-4E6D-4BF5-5A72-04AAD475EC65}
  9
$EXTNAMES
290
     1
  9
$PSVPSCALE
 40
0.0
  0
ENDSEC
  0
SECTION
  2
CLASSES
  0
ENDSEC
  0
SECTION
  2
TABLES
  0
TABLE
  2
VPORT
  5
8
330
0
100
AcDbSymbolTable
 70
     3
  0
VPORT
  5
29
330
8
100
AcDbSymbolTableRecord
100
AcDbViewportTableRecord
  2
*Active
 70
     0
 10
0.0
 20
0.0
 11
1.0
 21
1.0
 12
297.0
 22
210.0
 13
0.0
 23
0.0
 14
10.0
 24
10.0
 15
0.0
 25
0.0
 16
0.0
 26
0.0
 36
1.0
 17
0.0
 27
0.0
 37
0.0
 40
420.0
 41
1.414285714
 42
50.0
 43
0.0
 44
0.0
 50
0.0
 51
0.0
 71
     0
 72
  1000
 73
     1
 74
     3
 75
     0
 76
     0
 77
     0
 78
     0
281
     0
 65
     0
110
0.0
120
0.0
130
0.0
111
1.0
121
0.0
131
0.0
112
0.0
122
1.0
132
0.0
 79
     0
146
0.0
  0
ENDTAB
  0
TABLE
  2
LTYPE
  5
5
330
0
100
AcDbSymbolTable
 70
     5
  0
LTYPE
  5
14
330
5
100
AcDbSymbolTableRecord
100
AcDbLinetypeTableRecord
  2
ByBlock
 70
     0
  3

 72
    65
 73
     0
 40
0.0
  0
LTYPE
  5
15
330
5
100
AcDbSymbolTableRecord
100
AcDbLinetypeTableRecord
  2
ByLayer
 70
     0
  3

 72
    65
 73
     0
 40
0.0
  0
LTYPE
  5
16
330
5
100
AcDbSymbolTableRecord
100
AcDbLinetypeTableRecord
  2
Continuous
 70
     0
  3
Solid line
 72
    65
 73
     0
 40
0.0
  0
LTYPE
  5
DA
330
5
100
AcDbSymbolTableRecord
100
AcDbLinetypeTableRecord
  2
LTYPE1
 70
     0
  3
CENTER
 72
    65
 73
     4
 40
12.0
 49
8.4
 74
     0
 49
-1.2
 74
     0
 49
1.2
 74
     0
 49
-1.2
 74
     0
  0
LTYPE
  5
DF
330
5
100
AcDbSymbolTableRecord
100
AcDbLinetypeTableRecord
  2
LTYPE2
 70
     0
  3
HIDDEN
 72
    65
 73
     2
 40
2.0
 49
1.2
 74
     0
 49
-0.8
 74
     0
  0
ENDTAB
  0
TABLE
  2
LAYER
  5
2
330
0
100
AcDbSymbolTable
 70
   128
  0
LAYER
  5
10
330
2
100
AcDbSymbolTableRecord
100
AcDbLayerTableRecord
  2
0
 70
     0
 62
     7
  6
Continuous
290
     1
370
    -3
390
F
  0
LAYER
  5
2A
330
2
100
AcDbSymbolTableRecord
100
AcDbLayerTableRecord
  2
2
 70
     0
 62
     7
  6
Continuous
290
     1
370
    -3
390
F
  0
LAYER
  5
2B
330
2
100
AcDbSymbolTableRecord
100
AcDbLayerTableRecord
  2
3
 70
     0
 62
     7
  6
Continuous
290
     1
370
    -3
390
F
  0
LAYER
  5
2C
330
2
100
AcDbSymbolTableRecord
100
AcDbLayerTableRecord
  2
4
 70
     0
 62
     7
  6
Continuous
290
     1
370
    -3
390
F
  0
LAYER
  5
2D
330
2
100
AcDbSymbolTableRecord
100
AcDbLayerTableRecord
  2
5
 70
     0
 62
     7
  6
Continuous
290
     1
370
    -3
390
F
  0
LAYER
  5
2E
330
2
100
AcDbSymbolTableRecord
100
AcDbLayerTableRecord
  2
6
 70
     0
 62
     7
  6
Continuous
290
     1
370
    -3
390
F
  0
LAYER
  5
2F
330
2
100
AcDbSymbolTableRecord
100
AcDbLayerTableRecord
  2
7
 70
     0
 62
     7
  6
Continuous
290
     1
370
    -3
390
F
  0
LAYER
  5
30
330
2
100
AcDbSymbolTableRecord
100
AcDbLayerTableRecord
  2
8
 70
     0
 62
     7
  6
Continuous
290
     1
370
    -3
390
F
  0
LAYER
  5
31
330
2
100
AcDbSymbolTableRecord
100
AcDbLayerTableRecord
  2
9
 70
     0
 62
     7
  6
Continuous
290
     1
370
    -3
390
F
  0
LAYER
  5
32
330
2
100
AcDbSymbolTableRecord
100
AcDbLayerTableRecord
  2
10
 70
     0
 62
     7
  6
Continuous
290
     1
370
    -3
390
F
  0
LAYER
  5
33
330
2
100
AcDbSymbolTableRecord
100
AcDbLayerTableRecord
  2
11
 70
     0
 62
     7
  6
Continuous
290
     1
370
    -3
390
F
  0
LAYER
  5
34
330
2
100
AcDbSymbolTableRecord
100
AcDbLayerTableRecord
  2
12
 70
     0
 62
     7
  6
Continuous
290
     1
370
    -3
390
F
  0
LAYER
  5
35
330
2
100
AcDbSymbolTableRecord
100
AcDbLayerTableRecord
  2
13
 70
     0
 62
     7
  6
Continuous
290
     1
370
    -3
390
F
  0
LAYER
  5
36
330
2
100
AcDbSymbolTableRecord
100
AcDbLayerTableRecord
  2
14
 70
     0
 62
     7
  6
Continuous
290
     1
370
    -3
390
F
  0
LAYER
  5
37
330
2
100
AcDbSymbolTableRecord
100
AcDbLayerTableRecord
  2
15
 70
     0
 62
     7
  6
Continuous
290
     1
370
    -3
390
F
  0
LAYER
  5
38
330
2
100
AcDbSymbolTableRecord
100
AcDbLayerTableRecord
  2
16
 70
     0
 62
     7
  6
Continuous
290
     1
370
    -3
390
F
  0
LAYER
  5
39
330
2
100
AcDbSymbolTableRecord
100
AcDbLayerTableRecord
  2
17
 70
     0
 62
     7
  6
Continuous
290
     1
370
    -3
390
F
  0
LAYER
  5
3A
330
2
100
AcDbSymbolTableRecord
100
AcDbLayerTableRecord
  2
18
 70
     0
 62
     7
  6
Continuous
290
     1
370
    -3
390
F
  0
LAYER
  5
3B
330
2
100
AcDbSymbolTableRecord
100
AcDbLayerTableRecord
  2
19
 70
     0
 62
     7
  6
Continuous
290
     1
370
    -3
390
F
  0
LAYER
  5
3C
330
2
100
AcDbSymbolTableRecord
100
AcDbLayerTableRecord
  2
20
 70
     0
 62
     7
  6
Continuous
290
     1
370
    -3
390
F
  0
LAYER
  5
3D
330
2
100
AcDbSymbolTableRecord
100
AcDbLayerTableRecord
  2
21
 70
     0
 62
     7
  6
Continuous
290
     1
370
    -3
390
F
  0
LAYER
  5
3E
330
2
100
AcDbSymbolTableRecord
100
AcDbLayerTableRecord
  2
22
 70
     0
 62
     7
  6
Continuous
290
     1
370
    -3
390
F
  0
LAYER
  5
3F
330
2
100
AcDbSymbolTableRecord
100
AcDbLayerTableRecord
  2
23
 70
     0
 62
     7
  6
Continuous
290
     1
370
    -3
390
F
  0
LAYER
  5
40
330
2
100
AcDbSymbolTableRecord
100
AcDbLayerTableRecord
  2
24
 70
     0
 62
     7
  6
Continuous
290
     1
370
    -3
390
F
  0
LAYER
  5
41
330
2
100
AcDbSymbolTableRecord
100
AcDbLayerTableRecord
  2
25
 70
     0
 62
     7
  6
Continuous
290
     1
370
    -3
390
F
  0
LAYER
  5
42
330
2
100
AcDbSymbolTableRecord
100
AcDbLayerTableRecord
  2
26
 70
     0
 62
     7
  6
Continuous
290
     1
370
    -3
390
F
  0
LAYER
  5
43
330
2
100
AcDbSymbolTableRecord
100
AcDbLayerTableRecord
  2
27
 70
     0
 62
     7
  6
Continuous
290
     1
370
    -3
390
F
  0
LAYER
  5
44
330
2
100
AcDbSymbolTableRecord
100
AcDbLayerTableRecord
  2
28
 70
     0
 62
     7
  6
Continuous
290
     1
370
    -3
390
F
  0
LAYER
  5
45
330
2
100
AcDbSymbolTableRecord
100
AcDbLayerTableRecord
  2
29
 70
     0
 62
     7
  6
Continuous
290
     1
370
    -3
390
F
  0
LAYER
  5
46
330
2
100
AcDbSymbolTableRecord
100
AcDbLayerTableRecord
  2
30
 70
     0
 62
     7
  6
Continuous
290
     1
370
    -3
390
F
  0
LAYER
  5
47
330
2
100
AcDbSymbolTableRecord
100
AcDbLayerTableRecord
  2
31
 70
     0
 62
     7
  6
Continuous
290
     1
370
    -3
390
F
  0
LAYER
  5
48
330
2
100
AcDbSymbolTableRecord
100
AcDbLayerTableRecord
  2
32
 70
     0
 62
     7
  6
Continuous
290
     1
370
    -3
390
F
  0
LAYER
  5
49
330
2
100
AcDbSymbolTableRecord
100
AcDbLayerTableRecord
  2
33
 70
     0
 62
     7
  6
Continuous
290
     1
370
    -3
390
F
  0
LAYER
  5
4A
330
2
100
AcDbSymbolTableRecord
100
AcDbLayerTableRecord
  2
34
 70
     0
 62
     7
  6
Continuous
290
     1
370
    -3
390
F
  0
LAYER
  5
4B
330
2
100
AcDbSymbolTableRecord
100
AcDbLayerTableRecord
  2
35
 70
     0
 62
     7
  6
Continuous
290
     1
370
    -3
390
F
  0
LAYER
  5
4C
330
2
100
AcDbSymbolTableRecord
100
AcDbLayerTableRecord
  2
36
 70
     0
 62
     7
  6
Continuous
290
     1
370
    -3
390
F
  0
LAYER
  5
4D
330
2
100
AcDbSymbolTableRecord
100
AcDbLayerTableRecord
  2
37
 70
     0
 62
     7
  6
Continuous
290
     1
370
    -3
390
F
  0
LAYER
  5
4E
330
2
100
AcDbSymbolTableRecord
100
AcDbLayerTableRecord
  2
38
 70
     0
 62
     7
  6
Continuous
290
     1
370
    -3
390
F
  0
LAYER
  5
4F
330
2
100
AcDbSymbolTableRecord
100
AcDbLayerTableRecord
  2
39
 70
     0
 62
     7
  6
Continuous
290
     1
370
    -3
390
F
  0
LAYER
  5
50
330
2
100
AcDbSymbolTableRecord
100
AcDbLayerTableRecord
  2
40
 70
     0
 62
     7
  6
Continuous
290
     1
370
    -3
390
F
  0
LAYER
  5
51
330
2
100
AcDbSymbolTableRecord
100
AcDbLayerTableRecord
  2
41
 70
     0
 62
     7
  6
Continuous
290
     1
370
    -3
390
F
  0
LAYER
  5
52
330
2
100
AcDbSymbolTableRecord
100
AcDbLayerTableRecord
  2
42
 70
     0
 62
     7
  6
Continuous
290
     1
370
    -3
390
F
  0
LAYER
  5
53
330
2
100
AcDbSymbolTableRecord
100
AcDbLayerTableRecord
  2
43
 70
     0
 62
     7
  6
Continuous
290
     1
370
    -3
390
F
  0
LAYER
  5
54
330
2
100
AcDbSymbolTableRecord
100
AcDbLayerTableRecord
  2
44
 70
     0
 62
     7
  6
Continuous
290
     1
370
    -3
390
F
  0
LAYER
  5
55
330
2
100
AcDbSymbolTableRecord
100
AcDbLayerTableRecord
  2
45
 70
     0
 62
     7
  6
Continuous
290
     1
370
    -3
390
F
  0
LAYER
  5
56
330
2
100
AcDbSymbolTableRecord
100
AcDbLayerTableRecord
  2
46
 70
     0
 62
     7
  6
Continuous
290
     1
370
    -3
390
F
  0
LAYER
  5
57
330
2
100
AcDbSymbolTableRecord
100
AcDbLayerTableRecord
  2
47
 70
     0
 62
     7
  6
Continuous
290
     1
370
    -3
390
F
  0
LAYER
  5
58
330
2
100
AcDbSymbolTableRecord
100
AcDbLayerTableRecord
  2
48
 70
     0
 62
     7
  6
Continuous
290
     1
370
    -3
390
F
  0
LAYER
  5
59
330
2
100
AcDbSymbolTableRecord
100
AcDbLayerTableRecord
  2
49
 70
     0
 62
     7
  6
Continuous
290
     1
370
    -3
390
F
  0
LAYER
  5
5A
330
2
100
AcDbSymbolTableRecord
100
AcDbLayerTableRecord
  2
50
 70
     0
 62
     7
  6
Continuous
290
     1
370
    -3
390
F
  0
LAYER
  5
5B
330
2
100
AcDbSymbolTableRecord
100
AcDbLayerTableRecord
  2
51
 70
     0
 62
     7
  6
Continuous
290
     1
370
    -3
390
F
  0
LAYER
  5
5C
330
2
100
AcDbSymbolTableRecord
100
AcDbLayerTableRecord
  2
52
 70
     0
 62
     7
  6
Continuous
290
     1
370
    -3
390
F
  0
LAYER
  5
5D
330
2
100
AcDbSymbolTableRecord
100
AcDbLayerTableRecord
  2
53
 70
     0
 62
     7
  6
Continuous
290
     1
370
    -3
390
F
  0
LAYER
  5
5E
330
2
100
AcDbSymbolTableRecord
100
AcDbLayerTableRecord
  2
54
 70
     0
 62
     7
  6
Continuous
290
     1
370
    -3
390
F
  0
LAYER
  5
5F
330
2
100
AcDbSymbolTableRecord
100
AcDbLayerTableRecord
  2
55
 70
     0
 62
     7
  6
Continuous
290
     1
370
    -3
390
F
  0
LAYER
  5
60
330
2
100
AcDbSymbolTableRecord
100
AcDbLayerTableRecord
  2
56
 70
     0
 62
     7
  6
Continuous
290
     1
370
    -3
390
F
  0
LAYER
  5
61
330
2
100
AcDbSymbolTableRecord
100
AcDbLayerTableRecord
  2
57
 70
     0
 62
     7
  6
Continuous
290
     1
370
    -3
390
F
  0
LAYER
  5
62
330
2
100
AcDbSymbolTableRecord
100
AcDbLayerTableRecord
  2
58
 70
     0
 62
     7
  6
Continuous
290
     1
370
    -3
390
F
  0
LAYER
  5
63
330
2
100
AcDbSymbolTableRecord
100
AcDbLayerTableRecord
  2
59
 70
     0
 62
     7
  6
Continuous
290
     1
370
    -3
390
F
  0
LAYER
  5
64
330
2
100
AcDbSymbolTableRecord
100
AcDbLayerTableRecord
  2
60
 70
     0
 62
     7
  6
Continuous
290
     1
370
    -3
390
F
  0
LAYER
  5
65
330
2
100
AcDbSymbolTableRecord
100
AcDbLayerTableRecord
  2
61
 70
     0
 62
     7
  6
Continuous
290
     1
370
    -3
390
F
  0
LAYER
  5
66
330
2
100
AcDbSymbolTableRecord
100
AcDbLayerTableRecord
  2
62
 70
     0
 62
     7
  6
Continuous
290
     1
370
    -3
390
F
  0
LAYER
  5
67
330
2
100
AcDbSymbolTableRecord
100
AcDbLayerTableRecord
  2
63
 70
     0
 62
     7
  6
Continuous
290
     1
370
    -3
390
F
  0
LAYER
  5
68
330
2
100
AcDbSymbolTableRecord
100
AcDbLayerTableRecord
  2
64
 70
     0
 62
     7
  6
Continuous
290
     1
370
    -3
390
F
  0
LAYER
  5
69
330
2
100
AcDbSymbolTableRecord
100
AcDbLayerTableRecord
  2
65
 70
     0
 62
     7
  6
Continuous
290
     1
370
    -3
390
F
  0
LAYER
  5
6A
330
2
100
AcDbSymbolTableRecord
100
AcDbLayerTableRecord
  2
66
 70
     0
 62
     7
  6
Continuous
290
     1
370
    -3
390
F
  0
LAYER
  5
6B
330
2
100
AcDbSymbolTableRecord
100
AcDbLayerTableRecord
  2
67
 70
     0
 62
     7
  6
Continuous
290
     1
370
    -3
390
F
  0
LAYER
  5
6C
330
2
100
AcDbSymbolTableRecord
100
AcDbLayerTableRecord
  2
68
 70
     0
 62
     7
  6
Continuous
290
     1
370
    -3
390
F
  0
LAYER
  5
6D
330
2
100
AcDbSymbolTableRecord
100
AcDbLayerTableRecord
  2
69
 70
     0
 62
     7
  6
Continuous
290
     1
370
    -3
390
F
  0
LAYER
  5
6E
330
2
100
AcDbSymbolTableRecord
100
AcDbLayerTableRecord
  2
70
 70
     0
 62
     7
  6
Continuous
290
     1
370
    -3
390
F
  0
LAYER
  5
6F
330
2
100
AcDbSymbolTableRecord
100
AcDbLayerTableRecord
  2
71
 70
     0
 62
     7
  6
Continuous
290
     1
370
    -3
390
F
  0
LAYER
  5
70
330
2
100
AcDbSymbolTableRecord
100
AcDbLayerTableRecord
  2
72
 70
     0
 62
     7
  6
Continuous
290
     1
370
    -3
390
F
  0
LAYER
  5
71
330
2
100
AcDbSymbolTableRecord
100
AcDbLayerTableRecord
  2
73
 70
     0
 62
     7
  6
Continuous
290
     1
370
    -3
390
F
  0
LAYER
  5
72
330
2
100
AcDbSymbolTableRecord
100
AcDbLayerTableRecord
  2
74
 70
     0
 62
     7
  6
Continuous
290
     1
370
    -3
390
F
  0
LAYER
  5
73
330
2
100
AcDbSymbolTableRecord
100
AcDbLayerTableRecord
  2
75
 70
     0
 62
     7
  6
Continuous
290
     1
370
    -3
390
F
  0
LAYER
  5
74
330
2
100
AcDbSymbolTableRecord
100
AcDbLayerTableRecord
  2
76
 70
     0
 62
     7
  6
Continuous
290
     1
370
    -3
390
F
  0
LAYER
  5
75
330
2
100
AcDbSymbolTableRecord
100
AcDbLayerTableRecord
  2
77
 70
     0
 62
     7
  6
Continuous
290
     1
370
    -3
390
F
  0
LAYER
  5
76
330
2
100
AcDbSymbolTableRecord
100
AcDbLayerTableRecord
  2
78
 70
     0
 62
     7
  6
Continuous
290
     1
370
    -3
390
F
  0
LAYER
  5
77
330
2
100
AcDbSymbolTableRecord
100
AcDbLayerTableRecord
  2
79
 70
     0
 62
     7
  6
Continuous
290
     1
370
    -3
390
F
  0
LAYER
  5
78
330
2
100
AcDbSymbolTableRecord
100
AcDbLayerTableRecord
  2
80
 70
     0
 62
     7
  6
Continuous
290
     1
370
    -3
390
F
  0
LAYER
  5
79
330
2
100
AcDbSymbolTableRecord
100
AcDbLayerTableRecord
  2
81
 70
     0
 62
     7
  6
Continuous
290
     1
370
    -3
390
F
  0
LAYER
  5
7A
330
2
100
AcDbSymbolTableRecord
100
AcDbLayerTableRecord
  2
82
 70
     0
 62
     7
  6
Continuous
290
     1
370
    -3
390
F
  0
LAYER
  5
7B
330
2
100
AcDbSymbolTableRecord
100
AcDbLayerTableRecord
  2
83
 70
     0
 62
     7
  6
Continuous
290
     1
370
    -3
390
F
  0
LAYER
  5
7C
330
2
100
AcDbSymbolTableRecord
100
AcDbLayerTableRecord
  2
84
 70
     0
 62
     7
  6
Continuous
290
     1
370
    -3
390
F
  0
LAYER
  5
7D
330
2
100
AcDbSymbolTableRecord
100
AcDbLayerTableRecord
  2
85
 70
     0
 62
     7
  6
Continuous
290
     1
370
    -3
390
F
  0
LAYER
  5
7E
330
2
100
AcDbSymbolTableRecord
100
AcDbLayerTableRecord
  2
86
 70
     0
 62
     7
  6
Continuous
290
     1
370
    -3
390
F
  0
LAYER
  5
7F
330
2
100
AcDbSymbolTableRecord
100
AcDbLayerTableRecord
  2
87
 70
     0
 62
     7
  6
Continuous
290
     1
370
    -3
390
F
  0
LAYER
  5
80
330
2
100
AcDbSymbolTableRecord
100
AcDbLayerTableRecord
  2
88
 70
     0
 62
     7
  6
Continuous
290
     1
370
    -3
390
F
  0
LAYER
  5
81
330
2
100
AcDbSymbolTableRecord
100
AcDbLayerTableRecord
  2
89
 70
     0
 62
     7
  6
Continuous
290
     1
370
    -3
390
F
  0
LAYER
  5
82
330
2
100
AcDbSymbolTableRecord
100
AcDbLayerTableRecord
  2
90
 70
     0
 62
     7
  6
Continuous
290
     1
370
    -3
390
F
  0
LAYER
  5
83
330
2
100
AcDbSymbolTableRecord
100
AcDbLayerTableRecord
  2
91
 70
     0
 62
     7
  6
Continuous
290
     1
370
    -3
390
F
  0
LAYER
  5
84
330
2
100
AcDbSymbolTableRecord
100
AcDbLayerTableRecord
  2
92
 70
     0
 62
     7
  6
Continuous
290
     1
370
    -3
390
F
  0
LAYER
  5
85
330
2
100
AcDbSymbolTableRecord
100
AcDbLayerTableRecord
  2
93
 70
     0
 62
     7
  6
Continuous
290
     1
370
    -3
390
F
  0
LAYER
  5
86
330
2
100
AcDbSymbolTableRecord
100
AcDbLayerTableRecord
  2
94
 70
     0
 62
     7
  6
Continuous
290
     1
370
    -3
390
F
  0
LAYER
  5
87
330
2
100
AcDbSymbolTableRecord
100
AcDbLayerTableRecord
  2
95
 70
     0
 62
     7
  6
Continuous
290
     1
370
    -3
390
F
  0
LAYER
  5
88
330
2
100
AcDbSymbolTableRecord
100
AcDbLayerTableRecord
  2
96
 70
     0
 62
     7
  6
Continuous
290
     1
370
    -3
390
F
  0
LAYER
  5
89
330
2
100
AcDbSymbolTableRecord
100
AcDbLayerTableRecord
  2
97
 70
     0
 62
     7
  6
Continuous
290
     1
370
    -3
390
F
  0
LAYER
  5
8A
330
2
100
AcDbSymbolTableRecord
100
AcDbLayerTableRecord
  2
98
 70
     0
 62
     7
  6
Continuous
290
     1
370
    -3
390
F
  0
LAYER
  5
8B
330
2
100
AcDbSymbolTableRecord
100
AcDbLayerTableRecord
  2
99
 70
     0
 62
     7
  6
Continuous
290
     1
370
    -3
390
F
  0
LAYER
  5
8C
330
2
100
AcDbSymbolTableRecord
100
AcDbLayerTableRecord
  2
100
 70
     0
 62
     7
  6
Continuous
290
     1
370
    -3
390
F
  0
LAYER
  5
8D
330
2
100
AcDbSymbolTableRecord
100
AcDbLayerTableRecord
  2
101
 70
     0
 62
     7
  6
Continuous
290
     1
370
    -3
390
F
  0
LAYER
  5
8E
330
2
100
AcDbSymbolTableRecord
100
AcDbLayerTableRecord
  2
102
 70
     0
 62
     7
  6
Continuous
290
     1
370
    -3
390
F
  0
LAYER
  5
8F
330
2
100
AcDbSymbolTableRecord
100
AcDbLayerTableRecord
  2
103
 70
     0
 62
     7
  6
Continuous
290
     1
370
    -3
390
F
  0
LAYER
  5
90
330
2
100
AcDbSymbolTableRecord
100
AcDbLayerTableRecord
  2
104
 70
     0
 62
     7
  6
Continuous
290
     1
370
    -3
390
F
  0
LAYER
  5
91
330
2
100
AcDbSymbolTableRecord
100
AcDbLayerTableRecord
  2
105
 70
     0
 62
     7
  6
Continuous
290
     1
370
    -3
390
F
  0
LAYER
  5
92
330
2
100
AcDbSymbolTableRecord
100
AcDbLayerTableRecord
  2
106
 70
     0
 62
     7
  6
Continuous
290
     1
370
    -3
390
F
  0
LAYER
  5
93
330
2
100
AcDbSymbolTableRecord
100
AcDbLayerTableRecord
  2
107
 70
     0
 62
     7
  6
Continuous
290
     1
370
    -3
390
F
  0
LAYER
  5
94
330
2
100
AcDbSymbolTableRecord
100
AcDbLayerTableRecord
  2
108
 70
     0
 62
     7
  6
Continuous
290
     1
370
    -3
390
F
  0
LAYER
  5
95
330
2
100
AcDbSymbolTableRecord
100
AcDbLayerTableRecord
  2
109
 70
     0
 62
     7
  6
Continuous
290
     1
370
    -3
390
F
  0
LAYER
  5
96
330
2
100
AcDbSymbolTableRecord
100
AcDbLayerTableRecord
  2
110
 70
     0
 62
     7
  6
Continuous
290
     1
370
    -3
390
F
  0
LAYER
  5
97
330
2
100
AcDbSymbolTableRecord
100
AcDbLayerTableRecord
  2
111
 70
     0
 62
     7
  6
Continuous
290
     1
370
    -3
390
F
  0
LAYER
  5
98
330
2
100
AcDbSymbolTableRecord
100
AcDbLayerTableRecord
  2
112
 70
     0
 62
     7
  6
Continuous
290
     1
370
    -3
390
F
  0
LAYER
  5
99
330
2
100
AcDbSymbolTableRecord
100
AcDbLayerTableRecord
  2
113
 70
     0
 62
     7
  6
Continuous
290
     1
370
    -3
390
F
  0
LAYER
  5
9A
330
2
100
AcDbSymbolTableRecord
100
AcDbLayerTableRecord
  2
114
 70
     0
 62
     7
  6
Continuous
290
     1
370
    -3
390
F
  0
LAYER
  5
9B
330
2
100
AcDbSymbolTableRecord
100
AcDbLayerTableRecord
  2
115
 70
     0
 62
     7
  6
Continuous
290
     1
370
    -3
390
F
  0
LAYER
  5
9C
330
2
100
AcDbSymbolTableRecord
100
AcDbLayerTableRecord
  2
116
 70
     0
 62
     7
  6
Continuous
290
     1
370
    -3
390
F
  0
LAYER
  5
9D
330
2
100
AcDbSymbolTableRecord
100
AcDbLayerTableRecord
  2
117
 70
     0
 62
     7
  6
Continuous
290
     1
370
    -3
390
F
  0
LAYER
  5
9E
330
2
100
AcDbSymbolTableRecord
100
AcDbLayerTableRecord
  2
118
 70
     0
 62
     7
  6
Continuous
290
     1
370
    -3
390
F
  0
LAYER
  5
9F
330
2
100
AcDbSymbolTableRecord
100
AcDbLayerTableRecord
  2
119
 70
     0
 62
     7
  6
Continuous
290
     1
370
    -3
390
F
  0
LAYER
  5
A0
330
2
100
AcDbSymbolTableRecord
100
AcDbLayerTableRecord
  2
120
 70
     0
 62
     7
  6
Continuous
290
     1
370
    -3
390
F
  0
LAYER
  5
A1
330
2
100
AcDbSymbolTableRecord
100
AcDbLayerTableRecord
  2
121
 70
     0
 62
     7
  6
Continuous
290
     1
370
    -3
390
F
  0
LAYER
  5
A2
330
2
100
AcDbSymbolTableRecord
100
AcDbLayerTableRecord
  2
122
 70
     0
 62
     7
  6
Continuous
290
     1
370
    -3
390
F
  0
LAYER
  5
A3
330
2
100
AcDbSymbolTableRecord
100
AcDbLayerTableRecord
  2
123
 70
     0
 62
     7
  6
Continuous
290
     1
370
    -3
390
F
  0
LAYER
  5
A4
330
2
100
AcDbSymbolTableRecord
100
AcDbLayerTableRecord
  2
124
 70
     0
 62
     7
  6
Continuous
290
     1
370
    -3
390
F
  0
LAYER
  5
A5
330
2
100
AcDbSymbolTableRecord
100
AcDbLayerTableRecord
  2
125
 70
     0
 62
     7
  6
Continuous
290
     1
370
    -3
390
F
  0
LAYER
  5
A6
330
2
100
AcDbSymbolTableRecord
100
AcDbLayerTableRecord
  2
126
 70
     0
 62
     7
  6
Continuous
290
     1
370
    -3
390
F
  0
LAYER
  5
A7
330
2
100
AcDbSymbolTableRecord
100
AcDbLayerTableRecord
  2
127
 70
     0
 62
     7
  6
Continuous
290
     1
370
    -3
390
F
  0
LAYER
  5
A8
330
2
100
AcDbSymbolTableRecord
100
AcDbLayerTableRecord
  2
128
 70
     0
 62
     7
  6
Continuous
290
     1
370
    -3
390
F
  0
ENDTAB
  0
TABLE
  2
STYLE
  5
3
330
0
100
AcDbSymbolTable
 70
     8
  0
STYLE
  5
11
330
3
100
AcDbSymbolTableRecord
100
AcDbTextStyleTableRecord
  2
Standard
 70
     0
 40
0.0
 41
1.0
 50
0.0
 71
     0
 42
2.5
  3
txt.shx
  4
extfont.shx
  0
STYLE
  5
AA
330
3
100
AcDbSymbolTableRecord
100
AcDbTextStyleTableRecord
  2
KANJI0
 70
     0
 40
6.0
 41
1.0
 50
0.0
 71
     0
 42
6.0
  3
txt.shx
  4
extfont.shx
  0
STYLE
  5
AD
330
3
100
AcDbSymbolTableRecord
100
AcDbTextStyleTableRecord
  2
KANJI1
 70
     4
 40
5.0
 41
1.0
 50
0.0
 71
     0
 42
5.0
  3
txt.shx
  4
extfont.shx
  0
STYLE
  5
B3
330
3
100
AcDbSymbolTableRecord
100
AcDbTextStyleTableRecord
  2
KANJI2
 70
     4
 40
5.0
 41
1.0
 50
0.0
 71
     0
 42
5.0
  3
txt.shx
  4
extfont.shx
  0
STYLE
  5
BC
330
3
100
AcDbSymbolTableRecord
100
AcDbTextStyleTableRecord
  2
KANJI3
 70
     0
 40
6.0
 41
0.45
 50
0.0
 71
     0
 42
6.0
  3
txt.shx
  4
extfont.shx
  0
STYLE
  5
C6
330
3
100
AcDbSymbolTableRecord
100
AcDbTextStyleTableRecord
  2
KANJI4
 70
     4
 40
3.333333333
 41
1.5
 50
0.0
 71
     0
 42
3.333333333
  3
txt.shx
  4
extfont.shx
  0
STYLE
  5
C9
330
3
100
AcDbSymbolTableRecord
100
AcDbTextStyleTableRecord
  2
KANJI5
 70
     0
 40
6.0
 41
0.9
 50
0.0
 71
     0
 42
6.0
  3
txt.shx
  4
extfont.shx
  0
STYLE
  5
234
330
3
100
AcDbSymbolTableRecord
100
AcDbTextStyleTableRecord
  2
KANJI6
 70
     0
 40
6.0
 41
0.6
 50
0.0
 71
     0
 42
6.0
  3
txt.shx
  4
extfont.shx
  0
ENDTAB
  0
TABLE
  2
VIEW
  5
6
330
0
100
AcDbSymbolTable
 70
     0
  0
ENDTAB
  0
TABLE
  2
UCS
  5
7
330
0
100
AcDbSymbolTable
 70
     0
  0
ENDTAB
  0
TABLE
  2
APPID
  5
9
330
0
100
AcDbSymbolTable
 70
     1
  0
APPID
  5
12
330
9
100
AcDbSymbolTableRecord
100
AcDbRegAppTableRecord
  2
ACAD
 70
     0
  0
ENDTAB
  0
TABLE
  2
DIMSTYLE
  5
A
330
0
100
AcDbSymbolTable
 70
     1
100
AcDbDimStyleTable
 71
     0
  0
DIMSTYLE
105
27
330
A
100
AcDbSymbolTableRecord
100
AcDbDimStyleTableRecord
  2
ISO-25
 70
    64
  3

  4

 40
1.0
 41
2.5
 42
0.625
 43
3.75
 44
1.25
 45
0.0
 46
0.0
 47
0.0
 48
0.0
 71
     0
 72
     0
 73
     0
 74
     0
 75
     0
 76
     0
 77
     1
 78
     8
 79
     0
140
2.5
141
2.5
142
0.0
143
0.039370079
144
1.0
145
0.0
146
1.0
147
0.625
148
0.0
170
     0
171
     3
172
     1
173
     0
174
     0
175
     0
176
     0
177
     0
178
     0
179
     0
270
     2
271
     2
272
     2
273
     2
274
     3
275
     0
276
     0
277
     2
278
    46
279
     0
280
     0
281
     0
282
     0
283
     1
284
     8
285
     0
286
     0
288
     0
289
     3
340
11
341
0
342
0
343
0
344
0
371
    -2
372
    -2
  0
ENDTAB
  0
TABLE
  2
BLOCK_RECORD
  5
1
330
0
100
AcDbSymbolTable
 70
     3
  0
BLOCK_RECORD
  5
1F
330
1
100
AcDbSymbolTableRecord
100
AcDbBlockTableRecord
  2
*Model_Space
340
22
  0
BLOCK_RECORD
  5
1B
330
1
100
AcDbSymbolTableRecord
100
AcDbBlockTableRecord
  2
*Paper_Space
340
1E
  0
BLOCK_RECORD
  5
23
330
1
100
AcDbSymbolTableRecord
100
AcDbBlockTableRecord
  2
*Paper_Space0
340
26
  0
ENDTAB
  0
ENDSEC
  0
SECTION
  2
BLOCKS
  0
BLOCK
  5
1C
330
1B
100
AcDbEntity
 67
     1
  8
0
100
AcDbBlockBegin
  2
*Paper_Space
 70
     0
 10
0.0
 20
0.0
 30
0.0
  3
*Paper_Space
  1

  0
ENDBLK
  5
1D
330
1B
100
AcDbEntity
  8
0
100
AcDbBlockEnd
  0
BLOCK
  5
20
330
1F
100
AcDbEntity
  8
0
100
AcDbBlockBegin
  2
*Model_Space
 70
     0
 10
0.0
 20
0.0
 30
0.0
  3
*Model_Space
  1

  0
ENDBLK
  5
21
330
1F
100
AcDbEntity
  8
0
100
AcDbBlockEnd
  0
BLOCK
  5
24
330
23
100
AcDbEntity
 67
     1
  8
0
100
AcDbBlockBegin
  2
*Paper_Space0
 70
     0
 10
0.0
 20
0.0
 30
0.0
  3
*Paper_Space0
  1

  0
ENDBLK
  5
25
330
23
100
AcDbEntity
  8
0
100
AcDbBlockEnd
  0
ENDSEC
  0
SECTION
  2
ENTITIES
  0
MTEXT
  5
A9
330
1F
100
AcDbEntity
  8
4
  6
Continuous
 62
     2
100
AcDbMText
 10
206.0
 20
23.0
 30
0.0
 40
6.0
 41
160.0
 71
     7
 72
     1
  1
\T1.370;\W1.000;オオハシ産業株式会社
  7
KANJI0
 73
     1
 44
1.0
  0
LINE
  5
AB
330
1F
100
AcDbEntity
  8
4
  6
Continuous
 62
     2
100
AcDbLine
 10
574.0
 20
32.0
 30
0.0
 11
204.0
 21
32.0
 31
0.0
  0
MTEXT
  5
AC
330
1F
100
AcDbEntity
  8
4
  6
Continuous
 62
     2
100
AcDbMText
 10
465.0
 20
55.0
 30
0.0
 40
5.0
 41
20.0
 71
     1
 72
     3
  1
\W1.000;仕上
  7
KANJI1
 73
     1
 44
1.0
  0
LINE
  5
AE
330
1F
100
AcDbEntity
  8
4
  6
Continuous
 62
     2
100
AcDbLine
 10
464.0
 20
68.0
 30
0.0
 11
574.0
 21
68.0
 31
0.0
  0
LINE
  5
AF
330
1F
100
AcDbEntity
  8
4
  6
Continuous
 62
     2
100
AcDbLine
 10
464.0
 20
56.0
 30
0.0
 11
574.0
 21
56.0
 31
0.0
  0
MTEXT
  5
B0
330
1F
100
AcDbEntity
  8
4
  6
Continuous
 62
     2
100
AcDbMText
 10
465.0
 20
67.0
 30
0.0
 40
5.0
 41
20.0
 71
     1
 72
     3
  1
\W1.000;規格
  7
KANJI1
 73
     1
 44
1.0
  0
MTEXT
  5
B1
330
1F
100
AcDbEntity
  8
4
  6
Continuous
 62
     2
100
AcDbMText
 10
465.0
 20
79.0
 30
0.0
 40
5.0
 41
20.0
 71
     1
 72
     3
  1
\W1.000;材質
  7
KANJI1
 73
     1
 44
1.0
  0
MTEXT
  5
B2
330
1F
100
AcDbEntity
  8
4
  6
Continuous
 62
     2
100
AcDbMText
 10
465.0
 20
91.0
 30
0.0
 40
5.0
 41
20.0
 71
     1
 72
     3
  1
\W1.000;品番
  7
KANJI2
 73
     1
 44
1.0
  0
MTEXT
  5
B4
330
1F
100
AcDbEntity
  8
4
  6
Continuous
 62
     2
100
AcDbMText
 10
465.0
 20
103.0
 30
0.0
 40
5.0
 41
20.0
 71
     1
 72
     3
  1
\W1.000;図名
  7
KANJI1
 73
     1
 44
1.0
  0
LINE
  5
B5
330
1F
100
AcDbEntity
  8
4
  6
Continuous
 62
     2
100
AcDbLine
 10
464.0
 20
80.0
 30
0.0
 11
574.0
 21
80.0
 31
0.0
  0
LINE
  5
B6
330
1F
100
AcDbEntity
  8
4
  6
Continuous
 62
     2
100
AcDbLine
 10
464.0
 20
92.0
 30
0.0
 11
574.0
 21
92.0
 31
0.0
  0
LINE
  5
B7
330
1F
100
AcDbEntity
  8
4
  6
Continuous
 62
     2
100
AcDbLine
 10
464.0
 20
104.0
 30
0.0
 11
574.0
 21
104.0
 31
0.0
  0
LINE
  5
B8
330
1F
100
AcDbEntity
  8
4
  6
Continuous
 62
     2
100
AcDbLine
 10
290.0
 20
32.0
 30
0.0
 11
290.0
 21
20.0
 31
0.0
  0
MTEXT
  5
B9
330
1F
100
AcDbEntity
  8
4
  6
Continuous
 62
     2
100
AcDbMText
 10
291.0
 20
31.0
 30
0.0
 40
5.0
 41
20.0
 71
     1
 72
     3
  1
\W1.000;作図
  7
KANJI1
 73
     1
 44
1.0
  0
LINE
  5
BA
330
1F
100
AcDbEntity
  8
4
  6
Continuous
 62
     2
100
AcDbLine
 10
330.0
 20
20.0
 30
0.0
 11
330.0
 21
32.0
 31
0.0
  0
MTEXT
  5
BB
330
1F
100
AcDbEntity
  8
4
  6
Continuous
 62
     2
100
AcDbMText
 10
332.0
 20
23.0
 30
0.0
 40
6.0
 41
18.6
 71
     7
 72
     1
  1
\T1.111;\W0.900;FD=
  7
KANJI3
 73
     1
 44
1.0
  0
LINE
  5
BD
330
1F
100
AcDbEntity
  8
4
  6
Continuous
 62
     2
100
AcDbLine
 10
370.0
 20
20.0
 30
0.0
 11
370.0
 21
32.0
 31
0.0
  0
MTEXT
  5
BE
330
1F
100
AcDbEntity
  8
4
  6
Continuous
 62
     2
100
AcDbMText
 10
372.0
 20
23.0
 30
0.0
 40
6.0
 41
18.6
 71
     7
 72
     1
  1
\T1.111;\W0.900;NO=
  7
KANJI3
 73
     1
 44
1.0
  0
LINE
  5
BF
330
1F
100
AcDbEntity
  8
4
  6
Continuous
 62
     2
100
AcDbLine
 10
420.0
 20
32.0
 30
0.0
 11
420.0
 21
20.0
 31
0.0
  0
MTEXT
  5
C0
330
1F
100
AcDbEntity
  8
4
  6
Continuous
 62
     2
100
AcDbMText
 10
421.0
 20
31.0
 30
0.0
 40
5.0
 41
20.0
 71
     1
 72
     3
  1
\W1.000;日付
  7
KANJI1
 73
     1
 44
1.0
  0
LINE
  5
C1
330
1F
100
AcDbEntity
  8
4
  6
Continuous
 62
     2
100
AcDbLine
 10
464.0
 20
20.0
 30
0.0
 11
464.0
 21
104.0
 31
0.0
  0
MTEXT
  5
C2
330
1F
100
AcDbEntity
  8
4
  6
Continuous
 62
     2
100
AcDbMText
 10
421.0
 20
43.0
 30
0.0
 40
5.0
 41
20.0
 71
     1
 72
     3
  1
\W1.000;尺度
  7
KANJI1
 73
     1
 44
1.0
  0
LINE
  5
C3
330
1F
100
AcDbEntity
  8
4
  6
Continuous
 62
     2
100
AcDbLine
 10
420.0
 20
44.0
 30
0.0
 11
574.0
 21
44.0
 31
0.0
  0
MTEXT
  5
C4
330
1F
100
AcDbEntity
  8
4
  6
Continuous
 62
     2
100
AcDbMText
 10
465.0
 20
31.0
 30
0.0
 40
5.0
 41
20.0
 71
     1
 72
     3
  1
\W1.000;品名
  7
KANJI1
 73
     1
 44
1.0
  0
MTEXT
  5
C5
330
1F
100
AcDbEntity
  8
4
  6
Continuous
 62
     2
100
AcDbMText
 10
465.0
 20
43.0
 30
0.0
 40
3.333333333
 41
20.0
 71
     1
 72
     3
  1
\W1.500;その他
  7
KANJI4
 73
     1
 44
1.0
  0
LINE
  5
C7
330
1F
100
AcDbEntity
  8
4
  6
Continuous
 62
     2
100
AcDbLine
 10
204.0
 20
20.0
 30
0.0
 11
204.0
 21
32.0
 31
0.0
  0
MTEXT
  5
C8
330
1F
100
AcDbEntity
  8
4
  6
Continuous
 62
     2
100
AcDbMText
 10
476.0
 20
70.4
 30
0.0
 40
6.0
 41
34.8
 71
     7
 72
     1
  1
\T1.111;\W0.900;－－－
  7
KANJI5
 73
     1
 44
1.0
  0
MTEXT
  5
CA
330
1F
100
AcDbEntity
  8
4
  6
Continuous
 62
     2
100
AcDbMText
 10
476.0
 20
58.4
 30
0.0
 40
6.0
 41
34.8
 71
     7
 72
     1
  1
\T1.111;\W0.900;－－－
  7
KANJI5
 73
     1
 44
1.0
  0
MTEXT
  5
CB
330
1F
100
AcDbEntity
  8
4
  6
Continuous
 62
     2
100
AcDbMText
 10
476.0
 20
46.4
 30
0.0
 40
6.0
 41
34.8
 71
     7
 72
     1
  1
\T1.111;\W0.900;－－－
  7
KANJI5
 73
     1
 44
1.0
  0
MTEXT
  5
CC
330
1F
100
AcDbEntity
  8
4
  6
Continuous
 62
     2
100
AcDbMText
 10
476.0
 20
34.4
 30
0.0
 40
6.0
 41
34.8
 71
     7
 72
     1
  1
\T1.111;\W0.900;－－－
  7
KANJI5
 73
     1
 44
1.0
  0
MTEXT
  5
CD
330
1F
100
AcDbEntity
  8
4
  6
Continuous
 62
     2
100
AcDbMText
 10
234.0
 20
37.0
 30
0.0
 40
6.0
 41
274.8
 71
     7
 72
     1
  1
\T1.111;\W0.900;特記　　寸法指示無い公差は±０．５以内とする．
  7
KANJI5
 73
     1
 44
1.0
  0
POINT
  5
CE
330
1F
100
AcDbEntity
  8
4
  6
Continuous
 62
     2
100
AcDbPoint
 10
574.0
 20
104.0
 30
0.0
  0
LINE
  5
CF
330
1F
100
AcDbEntity
  8
4
  6
Continuous
 62
     2
100
AcDbLine
 10
20.0
 20
20.0
 30
0.0
 11
574.0
 21
20.0
 31
0.0
  0
LWPOLYLINE
  5
D1
330
1F
100
AcDbEntity
  8
4
  6
Continuous
 62
     2
100
AcDbPolyline
 90
     3
 70
   128
 43
0.0
 10
20.0
 20
20.0
 10
20.0
 20
400.0
 10
574.0
 20
400.0
  0
LINE
  5
D2
330
1F
100
AcDbEntity
  8
4
  6
Continuous
 62
     2
100
AcDbLine
 10
574.0
 20
20.0
 30
0.0
 11
574.0
 21
400.0
 31
0.0
  0
MTEXT
  5
D3
330
1F
100
AcDbEntity
  8
4
  6
Continuous
 62
     2
100
AcDbMText
 10
298.0
 20
22.4
 30
0.0
 40
6.0
 41
58.8
 71
     7
 72
     1
  1
\T1.111;\W0.900;大橋　一之
  7
KANJI5
 73
     1
 44
1.0
  0
LINE
  5
D4
330
1F
100
AcDbEntity
  8
4
  6
Continuous
 62
     2
100
AcDbLine
 10
420.0
 20
56.0
 30
0.0
 11
464.0
 21
56.0
 31
0.0
  0
LINE
  5
D5
330
1F
100
AcDbEntity
  8
4
  6
Continuous
 62
     2
100
AcDbLine
 10
420.0
 20
56.0
 30
0.0
 11
420.0
 21
32.0
 31
0.0
  0
MTEXT
  5
D6
330
1F
100
AcDbEntity
  8
4
  6
Continuous
 62
     2
100
AcDbMText
 10
421.0
 20
55.0
 30
0.0
 40
5.0
 41
20.0
 71
     1
 72
     3
  1
\W1.000;用紙
  7
KANJI1
 73
     1
 44
1.0
  0
MTEXT
  5
D7
330
1F
100
AcDbEntity
  8
4
  6
Continuous
 62
     2
100
AcDbMText
 10
345.2
 20
22.4
 30
0.0
 40
6.0
 41
25.2
 71
     7
 72
     1
  1
\T1.111;\W0.900;ﾋﾋﾞﾉ
  7
KANJI3
 73
     1
 44
1.0
  0
MTEXT
  5
D8
330
1F
100
AcDbEntity
  8
4
  6
Continuous
 62
     2
100
AcDbMText
 10
436.0
 20
34.4
 30
0.0
 40
6.0
 41
34.8
 71
     7
 72
     1
  1
\T1.111;\W0.900;１／２
  7
KANJI5
 73
     1
 44
1.0
  0
MTEXT
  5
D9
330
1F
100
AcDbEntity
  8
4
  6
Continuous
 62
     2
100
AcDbMText
 10
436.0
 20
46.4
 30
0.0
 40
6.0
 41
22.8
 71
     7
 72
     1
  1
\T1.111;\W0.900;Ａ４
  7
KANJI5
 73
     1
 44
1.0
  0
LINE
  5
DB
330
1F
100
AcDbEntity
  8
2
  6
LTYPE1
 62
     2
100
AcDbLine
 10
303.723096623
 20
271.527331395
 30
0.0
 11
303.723096623
 21
222.147798584
 31
0.0
  0
LINE
  5
DC
330
1F
100
AcDbEntity
  8
2
  6
LTYPE1
 62
     2
100
AcDbLine
 10
303.723096623
 20
271.527331395
 30
0.0
 11
303.723096623
 21
222.147798584
 31
0.0
  0
LINE
  5
DD
330
1F
100
AcDbEntity
  8
2
  6
Continuous
 62
     1
100
AcDbLine
 10
297.723096623
 20
222.83756499
 30
0.0
 11
297.723096623
 21
270.837564989
 31
0.0
  0
LINE
  5
DE
330
1F
100
AcDbEntity
  8
2
  6
Continuous
 62
     1
100
AcDbLine
 10
297.723096623
 20
222.83756499
 30
0.0
 11
297.723096623
 21
270.837564989
 31
0.0
  0
LINE
  5
E0
330
1F
100
AcDbEntity
  8
2
  6
LTYPE2
 62
     2
100
AcDbLine
 10
315.123096623
 20
216.837564989
 30
0.0
 11
315.123096623
 21
276.837564989
 31
0.0
  0
LINE
  5
E1
330
1F
100
AcDbEntity
  8
2
  6
Continuous
 62
     1
100
AcDbLine
 10
313.723096623
 20
206.837564989
 30
0.0
 11
317.723096623
 21
206.83756499
 31
0.0
  0
LINE
  5
E2
330
1F
100
AcDbEntity
  8
2
  6
Continuous
 62
     1
100
AcDbLine
 10
297.723096623
 20
222.83756499
 30
0.0
 11
313.723096623
 21
206.837564989
 31
0.0
  0
LINE
  5
E3
330
1F
100
AcDbEntity
  8
2
  6
Continuous
 62
     1
100
AcDbLine
 10
317.723096623
 20
206.83756499
 30
0.0
 11
317.723096623
 21
286.837564989
 31
0.0
  0
LINE
  5
E4
330
1F
100
AcDbEntity
  8
2
  6
Continuous
 62
     1
100
AcDbLine
 10
313.723096623
 20
286.837564989
 30
0.0
 11
317.723096623
 21
286.837564989
 31
0.0
  0
LINE
  5
E5
330
1F
100
AcDbEntity
  8
2
  6
Continuous
 62
     1
100
AcDbLine
 10
297.723096623
 20
270.837564989
 30
0.0
 11
313.723096623
 21
286.837564989
 31
0.0
  0
LINE
  5
E6
330
1F
100
AcDbEntity
  8
2
  6
LTYPE2
 62
     2
100
AcDbLine
 10
315.123096623
 20
216.837564989
 30
0.0
 11
317.723096623
 21
216.837564989
 31
0.0
  0
LINE
  5
E7
330
1F
100
AcDbEntity
  8
2
  6
LTYPE2
 62
     2
100
AcDbLine
 10
315.123096623
 20
276.837564989
 30
0.0
 11
317.723096623
 21
276.837564989
 31
0.0
  0
LINE
  5
E8
330
1F
100
AcDbEntity
  8
0
  6
LTYPE1
 62
     2
100
AcDbLine
 10
303.723096623
 20
271.527331395
 30
0.0
 11
303.723096623
 21
222.147798584
 31
0.0
  0
LINE
  5
E9
330
1F
100
AcDbEntity
  8
0
  6
LTYPE1
 62
     2
100
AcDbLine
 10
303.723096623
 20
271.527331395
 30
0.0
 11
303.723096623
 21
222.147798584
 31
0.0
  0
LINE
  5
EA
330
1F
100
AcDbEntity
  8
0
  6
Continuous
 62
     1
100
AcDbLine
 10
399.975910365
 20
376.608572262
 30
0.0
 11
401.390123927
 21
375.1943587
 31
0.0
  0
LINE
  5
EB
330
1F
100
AcDbEntity
  8
0
  6
Continuous
 62
     1
100
AcDbLine
 10
315.123096623
 20
291.75575852
 30
0.0
 11
399.975910365
 21
376.608572262
 31
0.0
  0
LWPOLYLINE
  5
ED
330
1F
100
AcDbEntity
  8
0
  6
Continuous
 62
     1
100
AcDbPolyline
 90
     3
 70
   128
 43
0.0
 10
315.123096623
 20
291.75575852
 10
316.537310185
 20
290.341544957
 10
401.390123927
 20
375.1943587
  0
LINE
  5
EE
330
1F
100
AcDbEntity
  8
0
  6
Continuous
 62
     1
100
AcDbLine
 10
329.265232246
 20
303.069467019
 30
0.0
 11
331.103709878
 21
301.230989388
 31
0.0
  0
LINE
  5
EF
330
1F
100
AcDbEntity
  8
0
  6
Continuous
 62
     1
100
AcDbLine
 10
313.723096623
 20
206.83756499
 30
0.0
 11
317.723096623
 21
206.83756499
 31
0.0
  0
LINE
  5
F0
330
1F
100
AcDbEntity
  8
0
  6
Continuous
 62
     1
100
AcDbLine
 10
297.723096623
 20
222.83756499
 30
0.0
 11
297.723096623
 21
270.837564989
 31
0.0
  0
LINE
  5
F1
330
1F
100
AcDbEntity
  8
0
  6
Continuous
 62
     1
100
AcDbLine
 10
313.723096623
 20
286.83756499
 30
0.0
 11
317.723096623
 21
286.83756499
 31
0.0
  0
LINE
  5
F2
330
1F
100
AcDbEntity
  8
0
  6
Continuous
 62
     1
100
AcDbLine
 10
313.723096623
 20
286.83756499
 30
0.0
 11
317.723096623
 21
286.83756499
 31
0.0
  0
LINE
  5
F3
330
1F
100
AcDbEntity
  8
0
  6
Continuous
 62
     1
100
AcDbLine
 10
297.723096623
 20
270.837564989
 30
0.0
 11
313.723096623
 21
286.83756499
 31
0.0
  0
LINE
  5
F4
330
1F
100
AcDbEntity
  8
0
  6
Continuous
 62
     1
100
AcDbLine
 10
297.723096623
 20
222.83756499
 30
0.0
 11
297.723096623
 21
270.837564989
 31
0.0
  0
LINE
  5
F5
330
1F
100
AcDbEntity
  8
0
  6
Continuous
 62
     1
100
AcDbLine
 10
297.723096623
 20
222.83756499
 30
0.0
 11
313.723096623
 21
206.837564989
 31
0.0
  0
LINE
  5
F6
330
1F
100
AcDbEntity
  8
0
  6
Continuous
 62
     1
100
AcDbLine
 10
313.723096623
 20
206.837564989
 30
0.0
 11
317.723096623
 21
206.83756499
 31
0.0
  0
LINE
  5
F7
330
1F
100
AcDbEntity
  8
0
  6
Continuous
 62
     1
100
AcDbLine
 10
323.325535284
 20
290.62438767
 30
0.0
 11
328.982389534
 21
296.281241919
 31
0.0
  0
LINE
  5
F8
330
1F
100
AcDbEntity
  8
0
  6
Continuous
 62
     1
100
AcDbLine
 10
321.911321722
 20
292.038601232
 30
0.0
 11
323.325535284
 21
290.62438767
 31
0.0
  0
LINE
  5
F9
330
1F
100
AcDbEntity
  8
0
  6
Continuous
 62
     1
100
AcDbLine
 10
327.568175972
 20
297.695455482
 30
0.0
 11
328.982389534
 21
296.281241919
 31
0.0
  0
LINE
  5
FA
330
1F
100
AcDbEntity
  8
0
  6
Continuous
 62
     1
100
AcDbLine
 10
323.325535284
 20
203.050742309
 30
0.0
 11
328.982389534
 21
197.39388806
 31
0.0
  0
LINE
  5
FB
330
1F
100
AcDbEntity
  8
0
  6
Continuous
 62
     1
100
AcDbLine
 10
321.911321722
 20
201.636528747
 30
0.0
 11
323.325535284
 21
203.050742309
 31
0.0
  0
LINE
  5
FC
330
1F
100
AcDbEntity
  8
0
  6
Continuous
 62
     1
100
AcDbLine
 10
327.568175972
 20
195.979674497
 30
0.0
 11
328.982389534
 21
197.39388806
 31
0.0
  0
LINE
  5
FD
330
1F
100
AcDbEntity
  8
0
  6
LTYPE2
 62
     2
100
AcDbLine
 10
315.123096623
 20
277.83756499
 30
0.0
 11
315.123096623
 21
286.83756499
 31
0.0
  0
LINE
  5
FE
330
1F
100
AcDbEntity
  8
0
  6
LTYPE2
 62
     2
100
AcDbLine
 10
315.123096623
 20
206.83756499
 30
0.0
 11
315.123096623
 21
215.837564989
 31
0.0
  0
LINE
  5
FF
330
1F
100
AcDbEntity
  8
0
  6
Continuous
 62
     1
100
AcDbLine
 10
318.484618992
 20
288.611898502
 30
0.0
 11
331.103709878
 21
301.230989388
 31
0.0
  0
ARC
  5
100
330
1F
100
AcDbEntity
  8
0
  6
Continuous
 62
     1
100
AcDbCircle
 10
320.323096623
 20
286.773420871
 30
0.0
 40
2.6
100
AcDbArc
 50
135.0
 51
180.0
  0
ARC
  5
101
330
1F
100
AcDbEntity
  8
0
  6
Continuous
 62
     1
100
AcDbCircle
 10
320.323096623
 20
286.773420871
 30
0.0
 40
5.2
100
AcDbArc
 50
135.0
 51
180.0
  0
LINE
  5
102
330
1F
100
AcDbEntity
  8
0
  6
Continuous
 62
     1
100
AcDbLine
 10
318.484617643
 20
205.063232826
 30
0.0
 11
331.103709878
 21
192.444140591
 31
0.0
  0
LINE
  5
103
330
1F
100
AcDbEntity
  8
0
  6
Continuous
 62
     1
100
AcDbLine
 10
317.723096623
 20
206.901711444
 30
0.0
 11
317.723096623
 21
286.773420871
 31
0.0
  0
ARC
  5
104
330
1F
100
AcDbEntity
  8
0
  6
Continuous
 62
     1
100
AcDbCircle
 10
320.323096623
 20
206.901709108
 30
0.0
 40
2.6
100
AcDbArc
 50
179.999948522
 51
224.999957968
  0
LINE
  5
105
330
1F
100
AcDbEntity
  8
0
  6
LTYPE2
 62
     2
100
AcDbLine
 10
311.723096623
 20
215.83756499
 30
0.0
 11
317.723096623
 21
215.837564989
 31
0.0
  0
ARC
  5
106
330
1F
100
AcDbEntity
  8
0
  6
LTYPE2
 62
     2
100
AcDbCircle
 10
311.723096623
 20
217.837564989
 30
0.0
 40
2.0
100
AcDbArc
 50
180.0
 51
270.0
  0
LINE
  5
107
330
1F
100
AcDbEntity
  8
0
  6
LTYPE2
 62
     2
100
AcDbLine
 10
311.723096623
 20
277.83756499
 30
0.0
 11
317.723096623
 21
277.83756499
 31
0.0
  0
ARC
  5
108
330
1F
100
AcDbEntity
  8
0
  6
LTYPE2
 62
     2
100
AcDbCircle
 10
311.723096623
 20
275.83756499
 30
0.0
 40
2.0
100
AcDbArc
 50
90.0
 51
179.99984545
  0
LINE
  5
109
330
1F
100
AcDbEntity
  8
0
  6
LTYPE2
 62
     2
100
AcDbLine
 10
309.723096623
 20
275.837570384
 30
0.0
 11
309.723096623
 21
217.83756499
 31
0.0
  0
LINE
  5
10A
330
1F
100
AcDbEntity
  8
0
  6
LTYPE1
 62
     2
100
AcDbLine
 10
289.601240024
 20
246.83756499
 30
0.0
 11
325.073096623
 21
246.83756499
 31
0.0
  0
CIRCLE
  5
10B
330
1F
100
AcDbEntity
  8
3
  6
Continuous
 62
     2
100
AcDbCircle
 10
303.723096623
 20
226.83756499
 30
0.0
 40
4.5
  0
LWPOLYLINE
  5
10D
330
1F
100
AcDbEntity
  8
3
  6
Continuous
 62
     2
100
AcDbPolyline
 90
     3
 70
   128
 43
0.0
 10
306.223096623
 20
226.43756499
 10
306.223096623
 20
227.23756499
 10
305.223096623
 20
227.23756499
  0
LINE
  5
10E
330
1F
100
AcDbEntity
  8
3
  6
Continuous
 62
     2
100
AcDbLine
 10
306.223096623
 20
226.43756499
 30
0.0
 11
305.223096623
 21
226.43756499
 31
0.0
  0
LWPOLYLINE
  5
110
330
1F
100
AcDbEntity
  8
3
  6
Continuous
 62
     2
100
AcDbPolyline
 90
     3
 70
   128
 43
0.0
 10
304.123096623
 20
229.33756499
 10
303.323096623
 20
229.33756499
 10
303.323096623
 20
228.33756499
  0
LINE
  5
111
330
1F
100
AcDbEntity
  8
3
  6
Continuous
 62
     2
100
AcDbLine
 10
304.123096623
 20
229.33756499
 30
0.0
 11
304.123096623
 21
228.33756499
 31
0.0
  0
LWPOLYLINE
  5
113
330
1F
100
AcDbEntity
  8
3
  6
Continuous
 62
     2
100
AcDbPolyline
 90
     3
 70
   128
 43
0.0
 10
301.223096623
 20
227.23756499
 10
301.223096623
 20
226.43756499
 10
302.223096623
 20
226.43756499
  0
LINE
  5
114
330
1F
100
AcDbEntity
  8
3
  6
Continuous
 62
     2
100
AcDbLine
 10
301.223096623
 20
227.23756499
 30
0.0
 11
302.223096623
 21
227.23756499
 31
0.0
  0
LWPOLYLINE
  5
116
330
1F
100
AcDbEntity
  8
3
  6
Continuous
 62
     2
100
AcDbPolyline
 90
     3
 70
   128
 43
0.0
 10
303.323096623
 20
224.33756499
 10
304.123096623
 20
224.33756499
 10
304.123096623
 20
225.33756499
  0
LINE
  5
117
330
1F
100
AcDbEntity
  8
3
  6
Continuous
 62
     2
100
AcDbLine
 10
303.323096623
 20
224.33756499
 30
0.0
 11
303.323096623
 21
225.33756499
 31
0.0
  0
ARC
  5
118
330
1F
100
AcDbEntity
  8
3
  6
Continuous
 62
     2
100
AcDbCircle
 10
305.123096623
 20
228.23756499
 30
0.0
 40
1.0
100
AcDbArc
 50
173.9
 51
276.1
  0
ARC
  5
119
330
1F
100
AcDbEntity
  8
3
  6
Continuous
 62
     2
100
AcDbCircle
 10
302.323096623
 20
228.23756499
 30
0.0
 40
1.0
100
AcDbArc
 50
263.9
 51
6.1
  0
ARC
  5
11A
330
1F
100
AcDbEntity
  8
3
  6
Continuous
 62
     2
100
AcDbCircle
 10
302.323096623
 20
225.43756499
 30
0.0
 40
1.0
100
AcDbArc
 50
353.9
 51
96.1
  0
ARC
  5
11B
330
1F
100
AcDbEntity
  8
3
  6
Continuous
 62
     2
100
AcDbCircle
 10
305.123096623
 20
225.43756499
 30
0.0
 40
1.0
100
AcDbArc
 50
83.9
 51
186.1
  0
CIRCLE
  5
11C
330
1F
100
AcDbEntity
  8
3
  6
Continuous
 62
     2
100
AcDbCircle
 10
303.723096623
 20
266.83756499
 30
0.0
 40
4.5
  0
LWPOLYLINE
  5
11E
330
1F
100
AcDbEntity
  8
3
  6
Continuous
 62
     2
100
AcDbPolyline
 90
     3
 70
   128
 43
0.0
 10
306.223096623
 20
266.43756499
 10
306.223096623
 20
267.23756499
 10
305.223096623
 20
267.23756499
  0
LINE
  5
11F
330
1F
100
AcDbEntity
  8
3
  6
Continuous
 62
     2
100
AcDbLine
 10
306.223096623
 20
266.43756499
 30
0.0
 11
305.223096623
 21
266.43756499
 31
0.0
  0
LWPOLYLINE
  5
121
330
1F
100
AcDbEntity
  8
3
  6
Continuous
 62
     2
100
AcDbPolyline
 90
     3
 70
   128
 43
0.0
 10
304.123096623
 20
269.33756499
 10
303.323096623
 20
269.33756499
 10
303.323096623
 20
268.33756499
  0
LINE
  5
122
330
1F
100
AcDbEntity
  8
3
  6
Continuous
 62
     2
100
AcDbLine
 10
304.123096623
 20
269.33756499
 30
0.0
 11
304.123096623
 21
268.33756499
 31
0.0
  0
LWPOLYLINE
  5
124
330
1F
100
AcDbEntity
  8
3
  6
Continuous
 62
     2
100
AcDbPolyline
 90
     3
 70
   128
 43
0.0
 10
301.223096623
 20
267.23756499
 10
301.223096623
 20
266.43756499
 10
302.223096623
 20
266.43756499
  0
LINE
  5
125
330
1F
100
AcDbEntity
  8
3
  6
Continuous
 62
     2
100
AcDbLine
 10
301.223096623
 20
267.23756499
 30
0.0
 11
302.223096623
 21
267.23756499
 31
0.0
  0
LWPOLYLINE
  5
127
330
1F
100
AcDbEntity
  8
3
  6
Continuous
 62
     2
100
AcDbPolyline
 90
     3
 70
   128
 43
0.0
 10
303.323096623
 20
264.33756499
 10
304.123096623
 20
264.33756499
 10
304.123096623
 20
265.33756499
  0
LINE
  5
128
330
1F
100
AcDbEntity
  8
3
  6
Continuous
 62
     2
100
AcDbLine
 10
303.323096623
 20
264.33756499
 30
0.0
 11
303.323096623
 21
265.33756499
 31
0.0
  0
ARC
  5
129
330
1F
100
AcDbEntity
  8
3
  6
Continuous
 62
     2
100
AcDbCircle
 10
305.123096623
 20
268.23756499
 30
0.0
 40
1.0
100
AcDbArc
 50
173.9
 51
276.1
  0
ARC
  5
12A
330
1F
100
AcDbEntity
  8
3
  6
Continuous
 62
     2
100
AcDbCircle
 10
302.323096623
 20
268.23756499
 30
0.0
 40
1.0
100
AcDbArc
 50
263.9
 51
6.1
  0
ARC
  5
12B
330
1F
100
AcDbEntity
  8
3
  6
Continuous
 62
     2
100
AcDbCircle
 10
302.323096623
 20
265.43756499
 30
0.0
 40
1.0
100
AcDbArc
 50
353.9
 51
96.1
  0
ARC
  5
12C
330
1F
100
AcDbEntity
  8
3
  6
Continuous
 62
     2
100
AcDbCircle
 10
305.123096623
 20
265.43756499
 30
0.0
 40
1.0
100
AcDbArc
 50
83.9
 51
186.1
  0
LINE
  5
12D
330
1F
100
AcDbEntity
  8
0
  6
Continuous
 62
     1
100
AcDbLine
 10
329.265232246
 20
190.60566296
 30
0.0
 11
331.103709878
 21
192.444140591
 31
0.0
  0
LINE
  5
12E
330
1F
100
AcDbEntity
  8
0
  6
Continuous
 62
     1
100
AcDbLine
 10
316.646138663
 20
203.224756544
 30
0.0
 11
329.265232246
 21
190.60566296
 31
0.0
  0
ARC
  5
12F
330
1F
100
AcDbEntity
  8
0
  6
Continuous
 62
     1
100
AcDbCircle
 10
320.323096623
 20
206.901709108
 30
0.0
 40
5.2
100
AcDbArc
 50
180.0
 51
224.999957974
  0
LINE
  5
130
330
1F
100
AcDbEntity
  8
2
  6
LTYPE1
 62
     2
100
AcDbLine
 10
248.343563812
 20
216.147798584
 30
0.0
 11
297.723096623
 21
216.147798584
 31
0.0
  0
LINE
  5
131
330
1F
100
AcDbEntity
  8
2
  6
LTYPE1
 62
     2
100
AcDbLine
 10
248.343563812
 20
216.147798584
 30
0.0
 11
297.723096623
 21
216.147798584
 31
0.0
  0
LINE
  5
132
330
1F
100
AcDbEntity
  8
2
  6
Continuous
 62
     1
100
AcDbLine
 10
297.033330217
 20
222.147798584
 30
0.0
 11
249.033330217
 21
222.147798584
 31
0.0
  0
LINE
  5
133
330
1F
100
AcDbEntity
  8
2
  6
Continuous
 62
     1
100
AcDbLine
 10
297.033330217
 20
222.147798584
 30
0.0
 11
249.033330217
 21
222.147798584
 31
0.0
  0
LINE
  5
134
330
1F
100
AcDbEntity
  8
2
  6
LTYPE2
 62
     2
100
AcDbLine
 10
303.033330217
 20
204.747798584
 30
0.0
 11
243.033330217
 21
204.747798584
 31
0.0
  0
LINE
  5
135
330
1F
100
AcDbEntity
  8
2
  6
Continuous
 62
     1
100
AcDbLine
 10
313.033330217
 20
206.147798584
 30
0.0
 11
313.033330217
 21
202.147798584
 31
0.0
  0
LINE
  5
136
330
1F
100
AcDbEntity
  8
2
  6
Continuous
 62
     1
100
AcDbLine
 10
297.033330217
 20
222.147798584
 30
0.0
 11
313.033330217
 21
206.147798584
 31
0.0
  0
LINE
  5
137
330
1F
100
AcDbEntity
  8
2
  6
Continuous
 62
     1
100
AcDbLine
 10
313.033330217
 20
202.147798584
 30
0.0
 11
233.033330217
 21
202.147798584
 31
0.0
  0
LINE
  5
138
330
1F
100
AcDbEntity
  8
2
  6
LTYPE2
 62
     2
100
AcDbLine
 10
303.033330217
 20
204.747798584
 30
0.0
 11
303.033330217
 21
202.147798584
 31
0.0
  0
LINE
  5
139
330
1F
100
AcDbEntity
  8
0
  6
LTYPE1
 62
     2
100
AcDbLine
 10
248.343563812
 20
216.147798584
 30
0.0
 11
297.723096623
 21
216.147798584
 31
0.0
  0
LINE
  5
13A
330
1F
100
AcDbEntity
  8
0
  6
LTYPE1
 62
     2
100
AcDbLine
 10
248.343563812
 20
216.147798584
 30
0.0
 11
297.723096623
 21
216.147798584
 31
0.0
  0
LINE
  5
13B
330
1F
100
AcDbEntity
  8
0
  6
Continuous
 62
     1
100
AcDbLine
 10
313.033330217
 20
206.147798584
 30
0.0
 11
313.033330217
 21
202.147798584
 31
0.0
  0
LINE
  5
13C
330
1F
100
AcDbEntity
  8
0
  6
Continuous
 62
     1
100
AcDbLine
 10
297.033330217
 20
222.147798584
 30
0.0
 11
249.033330217
 21
222.147798584
 31
0.0
  0
LINE
  5
13D
330
1F
100
AcDbEntity
  8
0
  6
Continuous
 62
     1
100
AcDbLine
 10
297.033330217
 20
222.147798584
 30
0.0
 11
249.033330217
 21
222.147798584
 31
0.0
  0
LINE
  5
13E
330
1F
100
AcDbEntity
  8
0
  6
Continuous
 62
     1
100
AcDbLine
 10
297.033330217
 20
222.147798584
 30
0.0
 11
313.033330217
 21
206.147798584
 31
0.0
  0
LINE
  5
13F
330
1F
100
AcDbEntity
  8
0
  6
Continuous
 62
     1
100
AcDbLine
 10
313.033330217
 20
206.147798584
 30
0.0
 11
313.033330217
 21
202.147798584
 31
0.0
  0
LINE
  5
140
330
1F
100
AcDbEntity
  8
0
  6
Continuous
 62
     1
100
AcDbLine
 10
316.820152898
 20
196.545359922
 30
0.0
 11
322.477007147
 21
190.888505673
 31
0.0
  0
LINE
  5
141
330
1F
100
AcDbEntity
  8
0
  6
Continuous
 62
     1
100
AcDbLine
 10
318.23436646
 20
197.959573485
 30
0.0
 11
316.820152898
 21
196.545359922
 31
0.0
  0
LINE
  5
142
330
1F
100
AcDbEntity
  8
0
  6
Continuous
 62
     1
100
AcDbLine
 10
323.891220709
 20
192.302719235
 30
0.0
 11
322.477007147
 21
190.888505673
 31
0.0
  0
LINE
  5
143
330
1F
100
AcDbEntity
  8
0
  6
LTYPE2
 62
     2
100
AcDbLine
 10
313.033330217
 20
204.747798584
 30
0.0
 11
304.033330217
 21
204.747798584
 31
0.0
  0
LINE
  5
144
330
1F
100
AcDbEntity
  8
0
  6
Continuous
 62
     1
100
AcDbLine
 10
314.807662381
 20
201.386277564
 30
0.0
 11
327.426754615
 21
188.767185329
 31
0.0
  0
LINE
  5
145
330
1F
100
AcDbEntity
  8
0
  6
Continuous
 62
     1
100
AcDbLine
 10
312.969183762
 20
202.147798584
 30
0.0
 11
233.097474336
 21
202.147798584
 31
0.0
  0
ARC
  5
146
330
1F
100
AcDbEntity
  8
0
  6
Continuous
 62
     1
100
AcDbCircle
 10
312.969186098
 20
199.547798584
 30
0.0
 40
2.6
100
AcDbArc
 50
45.000042032
 51
90.000051478
  0
LINE
  5
147
330
1F
100
AcDbEntity
  8
0
  6
LTYPE2
 62
     2
100
AcDbLine
 10
304.033330217
 20
208.147798584
 30
0.0
 11
304.033330217
 21
202.147798584
 31
0.0
  0
ARC
  5
148
330
1F
100
AcDbEntity
  8
0
  6
LTYPE2
 62
     2
100
AcDbCircle
 10
302.033330217
 20
208.147798584
 30
0.0
 40
2.0
100
AcDbArc
 50
0.0
 51
90.0
  0
LINE
  5
149
330
1F
100
AcDbEntity
  8
0
  6
LTYPE2
 62
     2
100
AcDbLine
 10
244.033324822
 20
210.147798584
 30
0.0
 11
302.033330217
 21
210.147798584
 31
0.0
  0
LINE
  5
14A
330
1F
100
AcDbEntity
  8
0
  6
LTYPE1
 62
     2
100
AcDbLine
 10
273.033330217
 20
230.269655183
 30
0.0
 11
273.033330217
 21
194.797798584
 31
0.0
  0
CIRCLE
  5
14B
330
1F
100
AcDbEntity
  8
3
  6
Continuous
 62
     2
100
AcDbCircle
 10
293.033330217
 20
216.147798584
 30
0.0
 40
4.5
  0
LWPOLYLINE
  5
14D
330
1F
100
AcDbEntity
  8
3
  6
Continuous
 62
     2
100
AcDbPolyline
 90
     3
 70
   128
 43
0.0
 10
293.433330217
 20
213.647798584
 10
292.633330217
 20
213.647798584
 10
292.633330217
 20
214.647798584
  0
LINE
  5
14E
330
1F
100
AcDbEntity
  8
3
  6
Continuous
 62
     2
100
AcDbLine
 10
293.433330217
 20
213.647798584
 30
0.0
 11
293.433330217
 21
214.647798584
 31
0.0
  0
LWPOLYLINE
  5
150
330
1F
100
AcDbEntity
  8
3
  6
Continuous
 62
     2
100
AcDbPolyline
 90
     3
 70
   128
 43
0.0
 10
290.533330217
 20
215.747798584
 10
290.533330217
 20
216.547798584
 10
291.533330217
 20
216.547798584
  0
LINE
  5
151
330
1F
100
AcDbEntity
  8
3
  6
Continuous
 62
     2
100
AcDbLine
 10
290.533330217
 20
215.747798584
 30
0.0
 11
291.533330217
 21
215.747798584
 31
0.0
  0
LWPOLYLINE
  5
153
330
1F
100
AcDbEntity
  8
3
  6
Continuous
 62
     2
100
AcDbPolyline
 90
     3
 70
   128
 43
0.0
 10
292.633330217
 20
218.647798584
 10
293.433330217
 20
218.647798584
 10
293.433330217
 20
217.647798584
  0
LINE
  5
154
330
1F
100
AcDbEntity
  8
3
  6
Continuous
 62
     2
100
AcDbLine
 10
292.633330217
 20
218.647798584
 30
0.0
 11
292.633330217
 21
217.647798584
 31
0.0
  0
LWPOLYLINE
  5
156
330
1F
100
AcDbEntity
  8
3
  6
Continuous
 62
     2
100
AcDbPolyline
 90
     3
 70
   128
 43
0.0
 10
295.533330217
 20
216.547798584
 10
295.533330217
 20
215.747798584
 10
294.533330217
 20
215.747798584
  0
LINE
  5
157
330
1F
100
AcDbEntity
  8
3
  6
Continuous
 62
     2
100
AcDbLine
 10
295.533330217
 20
216.547798584
 30
0.0
 11
294.533330217
 21
216.547798584
 31
0.0
  0
ARC
  5
158
330
1F
100
AcDbEntity
  8
3
  6
Continuous
 62
     2
100
AcDbCircle
 10
291.633330217
 20
214.747798584
 30
0.0
 40
1.0
100
AcDbArc
 50
353.9
 51
96.1
  0
ARC
  5
159
330
1F
100
AcDbEntity
  8
3
  6
Continuous
 62
     2
100
AcDbCircle
 10
291.633330217
 20
217.547798584
 30
0.0
 40
1.0
100
AcDbArc
 50
263.9
 51
6.1
  0
ARC
  5
15A
330
1F
100
AcDbEntity
  8
3
  6
Continuous
 62
     2
100
AcDbCircle
 10
294.433330217
 20
217.547798584
 30
0.0
 40
1.0
100
AcDbArc
 50
173.9
 51
276.1
  0
ARC
  5
15B
330
1F
100
AcDbEntity
  8
3
  6
Continuous
 62
     2
100
AcDbCircle
 10
294.433330217
 20
214.747798584
 30
0.0
 40
1.0
100
AcDbArc
 50
83.9
 51
186.1
  0
LINE
  5
15C
330
1F
100
AcDbEntity
  8
0
  6
Continuous
 62
     1
100
AcDbLine
 10
329.265232246
 20
190.60566296
 30
0.0
 11
327.426754615
 21
188.767185329
 31
0.0
  0
ARC
  5
15D
330
1F
100
AcDbEntity
  8
0
  6
Continuous
 62
     1
100
AcDbCircle
 10
312.969186098
 20
199.547798584
 30
0.0
 40
5.2
100
AcDbArc
 50
45.000042026
 51
90.0
  0
LINE
  5
15E
330
1F
100
AcDbEntity
  8
2
  6
Continuous
 62
     1
100
AcDbLine
 10
232.343563812
 20
206.837564989
 30
0.0
 11
228.343563812
 21
206.83756499
 31
0.0
  0
LINE
  5
15F
330
1F
100
AcDbEntity
  8
2
  6
Continuous
 62
     1
100
AcDbLine
 10
248.343563812
 20
222.83756499
 30
0.0
 11
232.343563812
 21
206.837564989
 31
0.0
  0
LINE
  5
160
330
1F
100
AcDbEntity
  8
2
  6
LTYPE2
 62
     2
100
AcDbLine
 10
230.943563812
 20
216.837564989
 30
0.0
 11
228.343563812
 21
216.83756499
 31
0.0
  0
LINE
  5
161
330
1F
100
AcDbEntity
  8
0
  6
Continuous
 62
     1
100
AcDbLine
 10
232.343563812
 20
206.83756499
 30
0.0
 11
228.343563812
 21
206.83756499
 31
0.0
  0
LINE
  5
162
330
1F
100
AcDbEntity
  8
0
  6
Continuous
 62
     1
100
AcDbLine
 10
248.343563812
 20
222.83756499
 30
0.0
 11
232.343563812
 21
206.837564989
 31
0.0
  0
LINE
  5
163
330
1F
100
AcDbEntity
  8
0
  6
Continuous
 62
     1
100
AcDbLine
 10
232.343563812
 20
206.837564989
 30
0.0
 11
228.343563812
 21
206.83756499
 31
0.0
  0
LINE
  5
164
330
1F
100
AcDbEntity
  8
0
  6
Continuous
 62
     1
100
AcDbLine
 10
222.74112515
 20
203.050742309
 30
0.0
 11
217.084270901
 21
197.39388806
 31
0.0
  0
LINE
  5
165
330
1F
100
AcDbEntity
  8
0
  6
Continuous
 62
     1
100
AcDbLine
 10
224.155338712
 20
201.636528747
 30
0.0
 11
222.74112515
 21
203.050742309
 31
0.0
  0
LINE
  5
166
330
1F
100
AcDbEntity
  8
0
  6
Continuous
 62
     1
100
AcDbLine
 10
218.498484463
 20
195.979674497
 30
0.0
 11
217.084270901
 21
197.39388806
 31
0.0
  0
LINE
  5
167
330
1F
100
AcDbEntity
  8
0
  6
LTYPE2
 62
     2
100
AcDbLine
 10
230.943563812
 20
206.83756499
 30
0.0
 11
230.943563812
 21
215.837564989
 31
0.0
  0
LINE
  5
168
330
1F
100
AcDbEntity
  8
0
  6
Continuous
 62
     1
100
AcDbLine
 10
227.582042792
 20
205.063232826
 30
0.0
 11
214.962950557
 21
192.444140591
 31
0.0
  0
ARC
  5
169
330
1F
100
AcDbEntity
  8
0
  6
Continuous
 62
     1
100
AcDbCircle
 10
225.743563812
 20
206.901709108
 30
0.0
 40
2.6
100
AcDbArc
 50
315.000042032
 51
0.000051478
  0
LINE
  5
16A
330
1F
100
AcDbEntity
  8
0
  6
LTYPE2
 62
     2
100
AcDbLine
 10
234.343563812
 20
215.837564989
 30
0.0
 11
228.343563812
 21
215.837564989
 31
0.0
  0
ARC
  5
16B
330
1F
100
AcDbEntity
  8
0
  6
LTYPE2
 62
     2
100
AcDbCircle
 10
234.343563812
 20
217.837564989
 30
0.0
 40
2.0
100
AcDbArc
 50
270.0
 51
360.0
  0
CIRCLE
  5
16C
330
1F
100
AcDbEntity
  8
3
  6
Continuous
 62
     2
100
AcDbCircle
 10
242.343563812
 20
226.83756499
 30
0.0
 40
4.5
  0
LWPOLYLINE
  5
16E
330
1F
100
AcDbEntity
  8
3
  6
Continuous
 62
     2
100
AcDbPolyline
 90
     3
 70
   128
 43
0.0
 10
239.843563812
 20
226.43756499
 10
239.843563812
 20
227.23756499
 10
240.843563812
 20
227.23756499
  0
LINE
  5
16F
330
1F
100
AcDbEntity
  8
3
  6
Continuous
 62
     2
100
AcDbLine
 10
239.843563812
 20
226.43756499
 30
0.0
 11
240.843563812
 21
226.43756499
 31
0.0
  0
LWPOLYLINE
  5
171
330
1F
100
AcDbEntity
  8
3
  6
Continuous
 62
     2
100
AcDbPolyline
 90
     3
 70
   128
 43
0.0
 10
241.943563812
 20
229.33756499
 10
242.743563812
 20
229.33756499
 10
242.743563812
 20
228.33756499
  0
LINE
  5
172
330
1F
100
AcDbEntity
  8
3
  6
Continuous
 62
     2
100
AcDbLine
 10
241.943563812
 20
229.33756499
 30
0.0
 11
241.943563812
 21
228.33756499
 31
0.0
  0
LWPOLYLINE
  5
174
330
1F
100
AcDbEntity
  8
3
  6
Continuous
 62
     2
100
AcDbPolyline
 90
     3
 70
   128
 43
0.0
 10
244.843563812
 20
227.23756499
 10
244.843563812
 20
226.43756499
 10
243.843563812
 20
226.43756499
  0
LINE
  5
175
330
1F
100
AcDbEntity
  8
3
  6
Continuous
 62
     2
100
AcDbLine
 10
244.843563812
 20
227.23756499
 30
0.0
 11
243.843563812
 21
227.23756499
 31
0.0
  0
LWPOLYLINE
  5
177
330
1F
100
AcDbEntity
  8
3
  6
Continuous
 62
     2
100
AcDbPolyline
 90
     3
 70
   128
 43
0.0
 10
242.743563812
 20
224.33756499
 10
241.943563812
 20
224.33756499
 10
241.943563812
 20
225.33756499
  0
LINE
  5
178
330
1F
100
AcDbEntity
  8
3
  6
Continuous
 62
     2
100
AcDbLine
 10
242.743563812
 20
224.33756499
 30
0.0
 11
242.743563812
 21
225.33756499
 31
0.0
  0
ARC
  5
179
330
1F
100
AcDbEntity
  8
3
  6
Continuous
 62
     2
100
AcDbCircle
 10
240.943563812
 20
228.23756499
 30
0.0
 40
1.0
100
AcDbArc
 50
263.9
 51
6.1
  0
ARC
  5
17A
330
1F
100
AcDbEntity
  8
3
  6
Continuous
 62
     2
100
AcDbCircle
 10
243.743563812
 20
228.23756499
 30
0.0
 40
1.0
100
AcDbArc
 50
173.9
 51
276.1
  0
ARC
  5
17B
330
1F
100
AcDbEntity
  8
3
  6
Continuous
 62
     2
100
AcDbCircle
 10
243.743563812
 20
225.43756499
 30
0.0
 40
1.0
100
AcDbArc
 50
83.9
 51
186.1
  0
ARC
  5
17C
330
1F
100
AcDbEntity
  8
3
  6
Continuous
 62
     2
100
AcDbCircle
 10
240.943563812
 20
225.43756499
 30
0.0
 40
1.0
100
AcDbArc
 50
353.9
 51
96.1
  0
LINE
  5
17D
330
1F
100
AcDbEntity
  8
0
  6
Continuous
 62
     1
100
AcDbLine
 10
216.801428188
 20
190.60566296
 30
0.0
 11
214.962950557
 21
192.444140591
 31
0.0
  0
LINE
  5
17E
330
1F
100
AcDbEntity
  8
0
  6
Continuous
 62
     1
100
AcDbLine
 10
229.420521771
 20
203.224756544
 30
0.0
 11
216.801428188
 21
190.60566296
 31
0.0
  0
ARC
  5
17F
330
1F
100
AcDbEntity
  8
0
  6
Continuous
 62
     1
100
AcDbCircle
 10
225.743563812
 20
206.901709108
 30
0.0
 40
5.2
100
AcDbArc
 50
315.000042026
 51
0.0
  0
LINE
  5
180
330
1F
100
AcDbEntity
  8
2
  6
Continuous
 62
     1
100
AcDbLine
 10
233.033330217
 20
206.147798584
 30
0.0
 11
233.033330217
 21
202.147798584
 31
0.0
  0
LINE
  5
181
330
1F
100
AcDbEntity
  8
2
  6
Continuous
 62
     1
100
AcDbLine
 10
249.033330217
 20
222.147798584
 30
0.0
 11
233.033330217
 21
206.147798584
 31
0.0
  0
LINE
  5
182
330
1F
100
AcDbEntity
  8
2
  6
LTYPE2
 62
     2
100
AcDbLine
 10
243.033330217
 20
204.747798584
 30
0.0
 11
243.033330217
 21
202.147798584
 31
0.0
  0
LINE
  5
183
330
1F
100
AcDbEntity
  8
0
  6
Continuous
 62
     1
100
AcDbLine
 10
233.033330217
 20
206.147798584
 30
0.0
 11
233.033330217
 21
202.147798584
 31
0.0
  0
LINE
  5
184
330
1F
100
AcDbEntity
  8
0
  6
Continuous
 62
     1
100
AcDbLine
 10
249.033330217
 20
222.147798584
 30
0.0
 11
233.033330217
 21
206.147798584
 31
0.0
  0
LINE
  5
185
330
1F
100
AcDbEntity
  8
0
  6
Continuous
 62
     1
100
AcDbLine
 10
233.033330217
 20
206.147798584
 30
0.0
 11
233.033330217
 21
202.147798584
 31
0.0
  0
LINE
  5
186
330
1F
100
AcDbEntity
  8
0
  6
Continuous
 62
     1
100
AcDbLine
 10
229.246507537
 20
196.545359922
 30
0.0
 11
223.589653287
 21
190.888505673
 31
0.0
  0
LINE
  5
187
330
1F
100
AcDbEntity
  8
0
  6
Continuous
 62
     1
100
AcDbLine
 10
227.832293975
 20
197.959573485
 30
0.0
 11
229.246507537
 21
196.545359922
 31
0.0
  0
LINE
  5
188
330
1F
100
AcDbEntity
  8
0
  6
Continuous
 62
     1
100
AcDbLine
 10
222.175439725
 20
192.302719235
 30
0.0
 11
223.589653287
 21
190.888505673
 31
0.0
  0
LINE
  5
189
330
1F
100
AcDbEntity
  8
0
  6
LTYPE2
 62
     2
100
AcDbLine
 10
233.033330217
 20
204.747798584
 30
0.0
 11
242.033330217
 21
204.747798584
 31
0.0
  0
LINE
  5
18A
330
1F
100
AcDbEntity
  8
0
  6
Continuous
 62
     1
100
AcDbLine
 10
231.258998054
 20
201.386277564
 30
0.0
 11
218.639905819
 21
188.767185329
 31
0.0
  0
ARC
  5
18B
330
1F
100
AcDbEntity
  8
0
  6
Continuous
 62
     1
100
AcDbCircle
 10
233.097474336
 20
199.547798584
 30
0.0
 40
2.6
100
AcDbArc
 50
89.999948522
 51
134.999957968
  0
LINE
  5
18C
330
1F
100
AcDbEntity
  8
0
  6
LTYPE2
 62
     2
100
AcDbLine
 10
242.033330217
 20
208.147798584
 30
0.0
 11
242.033330217
 21
202.147798584
 31
0.0
  0
ARC
  5
18D
330
1F
100
AcDbEntity
  8
0
  6
LTYPE2
 62
     2
100
AcDbCircle
 10
244.033330217
 20
208.147798584
 30
0.0
 40
2.0
100
AcDbArc
 50
90.0
 51
180.0
  0
CIRCLE
  5
18E
330
1F
100
AcDbEntity
  8
3
  6
Continuous
 62
     2
100
AcDbCircle
 10
253.033330217
 20
216.147798584
 30
0.0
 40
4.5
  0
LWPOLYLINE
  5
190
330
1F
100
AcDbEntity
  8
3
  6
Continuous
 62
     2
100
AcDbPolyline
 90
     3
 70
   128
 43
0.0
 10
252.633330217
 20
213.647798584
 10
253.433330217
 20
213.647798584
 10
253.433330217
 20
214.647798584
  0
LINE
  5
191
330
1F
100
AcDbEntity
  8
3
  6
Continuous
 62
     2
100
AcDbLine
 10
252.633330217
 20
213.647798584
 30
0.0
 11
252.633330217
 21
214.647798584
 31
0.0
  0
LWPOLYLINE
  5
193
330
1F
100
AcDbEntity
  8
3
  6
Continuous
 62
     2
100
AcDbPolyline
 90
     3
 70
   128
 43
0.0
 10
255.533330217
 20
215.747798584
 10
255.533330217
 20
216.547798584
 10
254.533330217
 20
216.547798584
  0
LINE
  5
194
330
1F
100
AcDbEntity
  8
3
  6
Continuous
 62
     2
100
AcDbLine
 10
255.533330217
 20
215.747798584
 30
0.0
 11
254.533330217
 21
215.747798584
 31
0.0
  0
LWPOLYLINE
  5
196
330
1F
100
AcDbEntity
  8
3
  6
Continuous
 62
     2
100
AcDbPolyline
 90
     3
 70
   128
 43
0.0
 10
253.433330217
 20
218.647798584
 10
252.633330217
 20
218.647798584
 10
252.633330217
 20
217.647798584
  0
LINE
  5
197
330
1F
100
AcDbEntity
  8
3
  6
Continuous
 62
     2
100
AcDbLine
 10
253.433330217
 20
218.647798584
 30
0.0
 11
253.433330217
 21
217.647798584
 31
0.0
  0
LWPOLYLINE
  5
199
330
1F
100
AcDbEntity
  8
3
  6
Continuous
 62
     2
100
AcDbPolyline
 90
     3
 70
   128
 43
0.0
 10
250.533330217
 20
216.547798584
 10
250.533330217
 20
215.747798584
 10
251.533330217
 20
215.747798584
  0
LINE
  5
19A
330
1F
100
AcDbEntity
  8
3
  6
Continuous
 62
     2
100
AcDbLine
 10
250.533330217
 20
216.547798584
 30
0.0
 11
251.533330217
 21
216.547798584
 31
0.0
  0
ARC
  5
19B
330
1F
100
AcDbEntity
  8
3
  6
Continuous
 62
     2
100
AcDbCircle
 10
254.433330217
 20
214.747798584
 30
0.0
 40
1.0
100
AcDbArc
 50
83.9
 51
186.1
  0
ARC
  5
19C
330
1F
100
AcDbEntity
  8
3
  6
Continuous
 62
     2
100
AcDbCircle
 10
254.433330217
 20
217.547798584
 30
0.0
 40
1.0
100
AcDbArc
 50
173.9
 51
276.1
  0
ARC
  5
19D
330
1F
100
AcDbEntity
  8
3
  6
Continuous
 62
     2
100
AcDbCircle
 10
251.633330217
 20
217.547798584
 30
0.0
 40
1.0
100
AcDbArc
 50
263.9
 51
6.1
  0
ARC
  5
19E
330
1F
100
AcDbEntity
  8
3
  6
Continuous
 62
     2
100
AcDbCircle
 10
251.633330217
 20
214.747798584
 30
0.0
 40
1.0
100
AcDbArc
 50
353.9
 51
96.1
  0
LINE
  5
19F
330
1F
100
AcDbEntity
  8
0
  6
Continuous
 62
     1
100
AcDbLine
 10
216.801428188
 20
190.60566296
 30
0.0
 11
218.639905819
 21
188.767185329
 31
0.0
  0
ARC
  5
1A0
330
1F
100
AcDbEntity
  8
0
  6
Continuous
 62
     1
100
AcDbCircle
 10
233.097474336
 20
199.547798584
 30
0.0
 40
5.2
100
AcDbArc
 50
90.0
 51
134.999957974
  0
LINE
  5
1A1
330
1F
100
AcDbEntity
  8
2
  6
LTYPE1
 62
     2
100
AcDbLine
 10
242.343563812
 20
271.527331395
 30
0.0
 11
242.343563812
 21
222.147798584
 31
0.0
  0
LINE
  5
1A2
330
1F
100
AcDbEntity
  8
2
  6
LTYPE1
 62
     2
100
AcDbLine
 10
242.343563812
 20
271.527331395
 30
0.0
 11
242.343563812
 21
222.147798584
 31
0.0
  0
LINE
  5
1A3
330
1F
100
AcDbEntity
  8
2
  6
Continuous
 62
     1
100
AcDbLine
 10
248.343563812
 20
222.83756499
 30
0.0
 11
248.343563812
 21
270.837564989
 31
0.0
  0
LINE
  5
1A4
330
1F
100
AcDbEntity
  8
2
  6
Continuous
 62
     1
100
AcDbLine
 10
248.343563812
 20
222.837564989
 30
0.0
 11
248.343563812
 21
270.837564989
 31
0.0
  0
LINE
  5
1A5
330
1F
100
AcDbEntity
  8
2
  6
LTYPE2
 62
     2
100
AcDbLine
 10
230.943563812
 20
216.837564989
 30
0.0
 11
230.943563812
 21
276.837564989
 31
0.0
  0
LINE
  5
1A6
330
1F
100
AcDbEntity
  8
2
  6
Continuous
 62
     1
100
AcDbLine
 10
228.343563812
 20
206.837564989
 30
0.0
 11
228.343563812
 21
286.83756499
 31
0.0
  0
LINE
  5
1A7
330
1F
100
AcDbEntity
  8
2
  6
Continuous
 62
     1
100
AcDbLine
 10
232.343563812
 20
286.837564989
 30
0.0
 11
228.343563812
 21
286.83756499
 31
0.0
  0
LINE
  5
1A8
330
1F
100
AcDbEntity
  8
2
  6
Continuous
 62
     1
100
AcDbLine
 10
248.343563812
 20
270.837564989
 30
0.0
 11
232.343563812
 21
286.837564989
 31
0.0
  0
LINE
  5
1A9
330
1F
100
AcDbEntity
  8
2
  6
LTYPE2
 62
     2
100
AcDbLine
 10
230.943563812
 20
276.837564989
 30
0.0
 11
228.343563812
 21
276.837564989
 31
0.0
  0
LINE
  5
1AA
330
1F
100
AcDbEntity
  8
0
  6
LTYPE1
 62
     2
100
AcDbLine
 10
242.343563812
 20
271.527331395
 30
0.0
 11
242.343563812
 21
222.147798584
 31
0.0
  0
LINE
  5
1AB
330
1F
100
AcDbEntity
  8
0
  6
LTYPE1
 62
     2
100
AcDbLine
 10
242.343563812
 20
271.527331395
 30
0.0
 11
242.343563812
 21
222.147798584
 31
0.0
  0
LINE
  5
1AC
330
1F
100
AcDbEntity
  8
0
  6
Continuous
 62
     1
100
AcDbLine
 10
230.943563812
 20
291.75575852
 30
0.0
 11
146.090750069
 21
376.608572262
 31
0.0
  0
LWPOLYLINE
  5
1AE
330
1F
100
AcDbEntity
  8
0
  6
Continuous
 62
     1
100
AcDbPolyline
 90
     3
 70
   128
 43
0.0
 10
230.943563812
 20
291.75575852
 10
229.529350249
 20
290.341544957
 10
144.676536507
 20
375.1943587
  0
LINE
  5
1AF
330
1F
100
AcDbEntity
  8
0
  6
Continuous
 62
     1
100
AcDbLine
 10
216.801428188
 20
303.069467019
 30
0.0
 11
214.962950557
 21
301.230989388
 31
0.0
  0
LINE
  5
1B0
330
1F
100
AcDbEntity
  8
0
  6
Continuous
 62
     1
100
AcDbLine
 10
248.343563812
 20
222.83756499
 30
0.0
 11
248.343563812
 21
270.837564989
 31
0.0
  0
LINE
  5
1B1
330
1F
100
AcDbEntity
  8
0
  6
Continuous
 62
     1
100
AcDbLine
 10
232.343563812
 20
286.837564989
 30
0.0
 11
228.343563812
 21
286.83756499
 31
0.0
  0
LINE
  5
1B2
330
1F
100
AcDbEntity
  8
0
  6
Continuous
 62
     1
100
AcDbLine
 10
232.343563812
 20
286.837564989
 30
0.0
 11
228.343563812
 21
286.83756499
 31
0.0
  0
LINE
  5
1B3
330
1F
100
AcDbEntity
  8
0
  6
Continuous
 62
     1
100
AcDbLine
 10
248.343563812
 20
270.837564989
 30
0.0
 11
232.343563812
 21
286.837564989
 31
0.0
  0
LINE
  5
1B4
330
1F
100
AcDbEntity
  8
0
  6
Continuous
 62
     1
100
AcDbLine
 10
248.343563812
 20
222.837564989
 30
0.0
 11
248.343563812
 21
270.837564989
 31
0.0
  0
LINE
  5
1B5
330
1F
100
AcDbEntity
  8
0
  6
Continuous
 62
     1
100
AcDbLine
 10
222.74112515
 20
290.62438767
 30
0.0
 11
217.084270901
 21
296.281241919
 31
0.0
  0
LINE
  5
1B6
330
1F
100
AcDbEntity
  8
0
  6
Continuous
 62
     1
100
AcDbLine
 10
224.155338712
 20
292.038601232
 30
0.0
 11
222.74112515
 21
290.62438767
 31
0.0
  0
LINE
  5
1B7
330
1F
100
AcDbEntity
  8
0
  6
Continuous
 62
     1
100
AcDbLine
 10
218.498484463
 20
297.695455482
 30
0.0
 11
217.084270901
 21
296.281241919
 31
0.0
  0
LINE
  5
1B8
330
1F
100
AcDbEntity
  8
0
  6
LTYPE2
 62
     2
100
AcDbLine
 10
230.943563812
 20
277.83756499
 30
0.0
 11
230.943563812
 21
286.83756499
 31
0.0
  0
LINE
  5
1B9
330
1F
100
AcDbEntity
  8
0
  6
Continuous
 62
     1
100
AcDbLine
 10
227.582041443
 20
288.611898502
 30
0.0
 11
214.962950557
 21
301.230989388
 31
0.0
  0
ARC
  5
1BA
330
1F
100
AcDbEntity
  8
0
  6
Continuous
 62
     1
100
AcDbCircle
 10
225.743563812
 20
286.773420871
 30
0.0
 40
2.6
100
AcDbArc
 50
0.0
 51
45.0
  0
ARC
  5
1BB
330
1F
100
AcDbEntity
  8
0
  6
Continuous
 62
     1
100
AcDbCircle
 10
225.743563812
 20
286.773420871
 30
0.0
 40
5.2
100
AcDbArc
 50
0.0
 51
45.0
  0
LINE
  5
1BC
330
1F
100
AcDbEntity
  8
0
  6
Continuous
 62
     1
100
AcDbLine
 10
228.343563812
 20
206.901711444
 30
0.0
 11
228.343563812
 21
286.773420871
 31
0.0
  0
LINE
  5
1BD
330
1F
100
AcDbEntity
  8
0
  6
LTYPE2
 62
     2
100
AcDbLine
 10
234.343563812
 20
277.83756499
 30
0.0
 11
228.343563812
 21
277.83756499
 31
0.0
  0
ARC
  5
1BE
330
1F
100
AcDbEntity
  8
0
  6
LTYPE2
 62
     2
100
AcDbCircle
 10
234.343563812
 20
275.83756499
 30
0.0
 40
2.0
100
AcDbArc
 50
0.00015455
 51
90.0
  0
LINE
  5
1BF
330
1F
100
AcDbEntity
  8
0
  6
LTYPE2
 62
     2
100
AcDbLine
 10
236.343563812
 20
275.837570384
 30
0.0
 11
236.343563812
 21
217.83756499
 31
0.0
  0
LINE
  5
1C0
330
1F
100
AcDbEntity
  8
0
  6
LTYPE1
 62
     2
100
AcDbLine
 10
256.465420411
 20
246.83756499
 30
0.0
 11
220.993563812
 21
246.83756499
 31
0.0
  0
CIRCLE
  5
1C1
330
1F
100
AcDbEntity
  8
3
  6
Continuous
 62
     2
100
AcDbCircle
 10
242.343563812
 20
266.83756499
 30
0.0
 40
4.5
  0
LWPOLYLINE
  5
1C3
330
1F
100
AcDbEntity
  8
3
  6
Continuous
 62
     2
100
AcDbPolyline
 90
     3
 70
   128
 43
0.0
 10
239.843563812
 20
266.43756499
 10
239.843563812
 20
267.23756499
 10
240.843563812
 20
267.23756499
  0
LINE
  5
1C4
330
1F
100
AcDbEntity
  8
3
  6
Continuous
 62
     2
100
AcDbLine
 10
239.843563812
 20
266.43756499
 30
0.0
 11
240.843563812
 21
266.43756499
 31
0.0
  0
LWPOLYLINE
  5
1C6
330
1F
100
AcDbEntity
  8
3
  6
Continuous
 62
     2
100
AcDbPolyline
 90
     3
 70
   128
 43
0.0
 10
241.943563812
 20
269.33756499
 10
242.743563812
 20
269.33756499
 10
242.743563812
 20
268.33756499
  0
LINE
  5
1C7
330
1F
100
AcDbEntity
  8
3
  6
Continuous
 62
     2
100
AcDbLine
 10
241.943563812
 20
269.33756499
 30
0.0
 11
241.943563812
 21
268.33756499
 31
0.0
  0
LWPOLYLINE
  5
1C9
330
1F
100
AcDbEntity
  8
3
  6
Continuous
 62
     2
100
AcDbPolyline
 90
     3
 70
   128
 43
0.0
 10
244.843563812
 20
267.23756499
 10
244.843563812
 20
266.43756499
 10
243.843563812
 20
266.43756499
  0
LINE
  5
1CA
330
1F
100
AcDbEntity
  8
3
  6
Continuous
 62
     2
100
AcDbLine
 10
244.843563812
 20
267.23756499
 30
0.0
 11
243.843563812
 21
267.23756499
 31
0.0
  0
LWPOLYLINE
  5
1CC
330
1F
100
AcDbEntity
  8
3
  6
Continuous
 62
     2
100
AcDbPolyline
 90
     3
 70
   128
 43
0.0
 10
242.743563812
 20
264.33756499
 10
241.943563812
 20
264.33756499
 10
241.943563812
 20
265.33756499
  0
LINE
  5
1CD
330
1F
100
AcDbEntity
  8
3
  6
Continuous
 62
     2
100
AcDbLine
 10
242.743563812
 20
264.33756499
 30
0.0
 11
242.743563812
 21
265.33756499
 31
0.0
  0
ARC
  5
1CE
330
1F
100
AcDbEntity
  8
3
  6
Continuous
 62
     2
100
AcDbCircle
 10
240.943563812
 20
268.23756499
 30
0.0
 40
1.0
100
AcDbArc
 50
263.9
 51
6.1
  0
ARC
  5
1CF
330
1F
100
AcDbEntity
  8
3
  6
Continuous
 62
     2
100
AcDbCircle
 10
243.743563812
 20
268.23756499
 30
0.0
 40
1.0
100
AcDbArc
 50
173.9
 51
276.1
  0
ARC
  5
1D0
330
1F
100
AcDbEntity
  8
3
  6
Continuous
 62
     2
100
AcDbCircle
 10
243.743563812
 20
265.43756499
 30
0.0
 40
1.0
100
AcDbArc
 50
83.9
 51
186.1
  0
ARC
  5
1D1
330
1F
100
AcDbEntity
  8
3
  6
Continuous
 62
     2
100
AcDbCircle
 10
240.943563812
 20
265.43756499
 30
0.0
 40
1.0
100
AcDbArc
 50
353.9
 51
96.1
  0
LINE
  5
1D2
330
1F
100
AcDbEntity
  8
2
  6
Continuous
 62
     1
100
AcDbLine
 10
146.164720836
 20
206.83756499
 30
0.0
 11
146.164720836
 21
286.83756499
 31
0.0
  0
LINE
  5
1D3
330
1F
100
AcDbEntity
  8
2
  6
Continuous
 62
     1
100
AcDbLine
 10
143.564720836
 20
206.83756499
 30
0.0
 11
146.164720836
 21
206.83756499
 31
0.0
  0
LINE
  5
1D4
330
1F
100
AcDbEntity
  8
2
  6
Continuous
 62
     1
100
AcDbLine
 10
143.564720836
 20
286.83756499
 30
0.0
 11
146.164720836
 21
286.83756499
 31
0.0
  0
LINE
  5
1D5
330
1F
100
AcDbEntity
  8
0
  6
Continuous
 62
     1
100
AcDbLine
 10
135.564720836
 20
206.83756499
 30
0.0
 11
143.564720836
 21
206.83756499
 31
0.0
  0
LINE
  5
1D6
330
1F
100
AcDbEntity
  8
0
  6
Continuous
 62
     1
100
AcDbLine
 10
143.564720836
 20
286.83756499
 30
0.0
 11
135.564720836
 21
286.83756499
 31
0.0
  0
ARC
  5
1D7
330
1F
100
AcDbEntity
  8
0
  6
Continuous
 62
     1
100
AcDbCircle
 10
74.052905165
 20
224.83756499
 30
0.0
 40
5.0
100
AcDbArc
 50
180.0
 51
270.0
  0
LINE
  5
1D8
330
1F
100
AcDbEntity
  8
0
  6
Continuous
 62
     1
100
AcDbLine
 10
69.052905165
 20
268.83756499
 30
0.0
 11
69.052905165
 21
224.83756499
 31
0.0
  0
ARC
  5
1D9
330
1F
100
AcDbEntity
  8
0
  6
Continuous
 62
     1
100
AcDbCircle
 10
74.052905165
 20
268.83756499
 30
0.0
 40
5.0
100
AcDbArc
 50
90.0
 51
180.0
  0
LINE
  5
1DA
330
1F
100
AcDbEntity
  8
0
  6
LTYPE2
 62
     2
100
AcDbLine
 10
55.564720836
 20
205.824753846
 30
0.0
 11
135.564720836
 21
205.824753846
 31
0.0
  0
LINE
  5
1DB
330
1F
100
AcDbEntity
  8
0
  6
Continuous
 62
     1
100
AcDbLine
 10
55.564720836
 20
204.747798584
 30
0.0
 11
135.564720836
 21
204.747798584
 31
0.0
  0
LINE
  5
1DC
330
1F
100
AcDbEntity
  8
0
  6
LTYPE2
 62
     2
100
AcDbLine
 10
55.564720836
 20
287.850376133
 30
0.0
 11
135.564720836
 21
287.850376133
 31
0.0
  0
LINE
  5
1DD
330
1F
100
AcDbEntity
  8
0
  6
Continuous
 62
     1
100
AcDbLine
 10
55.564720836
 20
288.927331395
 30
0.0
 11
135.564720836
 21
288.927331395
 31
0.0
  0
LINE
  5
1DE
330
1F
100
AcDbEntity
  8
0
  6
Continuous
 62
     1
100
AcDbLine
 10
74.052905165
 20
219.83756499
 30
0.0
 11
107.564720836
 21
219.83756499
 31
0.0
  0
LINE
  5
1DF
330
1F
100
AcDbEntity
  8
0
  6
Continuous
 62
     1
100
AcDbLine
 10
107.564720836
 20
219.83756499
 30
0.0
 11
122.064720836
 21
215.83756499
 31
0.0
  0
LINE
  5
1E0
330
1F
100
AcDbEntity
  8
0
  6
Continuous
 62
     1
100
AcDbLine
 10
107.564720836
 20
273.83756499
 30
0.0
 11
74.052905165
 21
273.83756499
 31
0.0
  0
LINE
  5
1E1
330
1F
100
AcDbEntity
  8
0
  6
Continuous
 62
     1
100
AcDbLine
 10
107.564720836
 20
273.83756499
 30
0.0
 11
122.064720836
 21
277.83756499
 31
0.0
  0
LINE
  5
1E2
330
1F
100
AcDbEntity
  8
0
  6
Continuous
 62
     1
100
AcDbLine
 10
135.564720836
 20
303.069467019
 30
0.0
 11
55.564720836
 21
303.069467019
 31
0.0
  0
LINE
  5
1E3
330
1F
100
AcDbEntity
  8
0
  6
Continuous
 62
     2
100
AcDbLine
 10
135.564720836
 20
301.230989388
 30
0.0
 11
55.564720836
 21
301.230989388
 31
0.0
  0
LINE
  5
1E4
330
1F
100
AcDbEntity
  8
0
  6
Continuous
 62
     1
100
AcDbLine
 10
135.564720836
 20
286.83756499
 30
0.0
 11
135.564720836
 21
369.544138953
 31
0.0
  0
ELLIPSE
  5
1E5
330
1F
100
AcDbEntity
  8
0
  6
Continuous
 62
     2
100
AcDbEllipse
 10
125.564720836
 20
293.452814795
 30
0.0
 11
4.0
 21
0.0
 31
0.0
 40
0.707106781
 41
0.0
 42
6.283185307
  0
LINE
  5
1E6
330
1F
100
AcDbEntity
  8
0
  6
Continuous
 62
     2
100
AcDbLine
 10
129.564720836
 20
293.452814795
 30
0.0
 11
129.564720836
 21
294.867028357
 31
0.0
  0
LINE
  5
1E7
330
1F
100
AcDbEntity
  8
0
  6
Continuous
 62
     2
100
AcDbLine
 10
121.564720836
 20
293.452814795
 30
0.0
 11
121.564720836
 21
294.867028357
 31
0.0
  0
ELLIPSE
  5
1E8
330
1F
100
AcDbEntity
  8
0
  6
Continuous
 62
     2
100
AcDbEllipse
 10
125.564720836
 20
294.867028357
 30
0.0
 11
4.0
 21
0.0
 31
0.0
 40
0.707106781
 41
0.0
 42
3.141592654
  0
ELLIPSE
  5
1E9
330
1F
100
AcDbEntity
  8
0
  6
Continuous
 62
     2
100
AcDbEllipse
 10
65.564720836
 20
293.452814795
 30
0.0
 11
4.0
 21
0.0
 31
0.0
 40
0.707106781
 41
0.0
 42
6.283185307
  0
LINE
  5
1EA
330
1F
100
AcDbEntity
  8
0
  6
Continuous
 62
     2
100
AcDbLine
 10
61.564720836
 20
293.452814795
 30
0.0
 11
61.564720836
 21
294.867028357
 31
0.0
  0
LINE
  5
1EB
330
1F
100
AcDbEntity
  8
0
  6
Continuous
 62
     2
100
AcDbLine
 10
69.564720836
 20
293.452814795
 30
0.0
 11
69.564720836
 21
294.867028357
 31
0.0
  0
ELLIPSE
  5
1EC
330
1F
100
AcDbEntity
  8
0
  6
Continuous
 62
     2
100
AcDbEllipse
 10
65.564720836
 20
294.867028357
 30
0.0
 11
4.0
 21
0.0
 31
0.0
 40
0.707106781
 41
0.0
 42
3.141592654
  0
ELLIPSE
  5
1ED
330
1F
100
AcDbEntity
  8
0
  6
Continuous
 62
     2
100
AcDbEllipse
 10
95.564720836
 20
293.452814795
 30
0.0
 11
4.0
 21
0.0
 31
0.0
 40
0.707106781
 41
0.0
 42
6.283185307
  0
LINE
  5
1EE
330
1F
100
AcDbEntity
  8
0
  6
Continuous
 62
     2
100
AcDbLine
 10
99.564720836
 20
293.452814795
 30
0.0
 11
99.564720836
 21
294.867028357
 31
0.0
  0
LINE
  5
1EF
330
1F
100
AcDbEntity
  8
0
  6
Continuous
 62
     2
100
AcDbLine
 10
91.564720836
 20
293.452814795
 30
0.0
 11
91.564720836
 21
294.867028357
 31
0.0
  0
ELLIPSE
  5
1F0
330
1F
100
AcDbEntity
  8
0
  6
Continuous
 62
     2
100
AcDbEllipse
 10
95.564720836
 20
294.867028357
 30
0.0
 11
4.0
 21
0.0
 31
0.0
 40
0.707106781
 41
0.0
 42
3.141592654
  0
LINE
  5
1F1
330
1F
100
AcDbEntity
  8
0
  6
Continuous
 62
     2
100
AcDbLine
 10
135.564720836
 20
192.444140591
 30
0.0
 11
55.564720836
 21
192.444140591
 31
0.0
  0
ELLIPSE
  5
1F2
330
1F
100
AcDbEntity
  8
0
  6
Continuous
 62
     2
100
AcDbEllipse
 10
125.564720836
 20
200.222315184
 30
0.0
 11
4.0
 21
0.0
 31
0.0
 40
0.707106781
 41
0.0
 42
6.283185307
  0
LINE
  5
1F3
330
1F
100
AcDbEntity
  8
0
  6
Continuous
 62
     2
100
AcDbLine
 10
129.564720836
 20
200.222315184
 30
0.0
 11
129.564720836
 21
198.808101622
 31
0.0
  0
LINE
  5
1F4
330
1F
100
AcDbEntity
  8
0
  6
Continuous
 62
     2
100
AcDbLine
 10
121.564720836
 20
200.222315184
 30
0.0
 11
121.564720836
 21
198.808101622
 31
0.0
  0
ELLIPSE
  5
1F5
330
1F
100
AcDbEntity
  8
0
  6
Continuous
 62
     2
100
AcDbEllipse
 10
125.564720836
 20
198.808101622
 30
0.0
 11
4.0
 21
0.0
 31
0.0
 40
0.707106781
 41
3.141592654
 42
0.0
  0
ELLIPSE
  5
1F6
330
1F
100
AcDbEntity
  8
0
  6
Continuous
 62
     2
100
AcDbEllipse
 10
65.564720836
 20
200.222315184
 30
0.0
 11
4.0
 21
0.0
 31
0.0
 40
0.707106781
 41
0.0
 42
6.283185307
  0
LINE
  5
1F7
330
1F
100
AcDbEntity
  8
0
  6
Continuous
 62
     2
100
AcDbLine
 10
61.564720836
 20
200.222315184
 30
0.0
 11
61.564720836
 21
198.808101622
 31
0.0
  0
LINE
  5
1F8
330
1F
100
AcDbEntity
  8
0
  6
Continuous
 62
     2
100
AcDbLine
 10
69.564720836
 20
200.222315184
 30
0.0
 11
69.564720836
 21
198.808101622
 31
0.0
  0
ELLIPSE
  5
1F9
330
1F
100
AcDbEntity
  8
0
  6
Continuous
 62
     2
100
AcDbEllipse
 10
65.564720836
 20
198.808101622
 30
0.0
 11
4.0
 21
0.0
 31
0.0
 40
0.707106781
 41
3.141592654
 42
0.0
  0
ELLIPSE
  5
1FA
330
1F
100
AcDbEntity
  8
0
  6
Continuous
 62
     2
100
AcDbEllipse
 10
95.564720836
 20
200.222315184
 30
0.0
 11
4.0
 21
0.0
 31
0.0
 40
0.707106781
 41
0.0
 42
6.283185307
  0
LINE
  5
1FB
330
1F
100
AcDbEntity
  8
0
  6
Continuous
 62
     2
100
AcDbLine
 10
99.564720836
 20
200.222315184
 30
0.0
 11
99.564720836
 21
198.808101622
 31
0.0
  0
LINE
  5
1FC
330
1F
100
AcDbEntity
  8
0
  6
Continuous
 62
     2
100
AcDbLine
 10
91.564720836
 20
200.222315184
 30
0.0
 11
91.564720836
 21
198.808101622
 31
0.0
  0
ELLIPSE
  5
1FD
330
1F
100
AcDbEntity
  8
0
  6
Continuous
 62
     2
100
AcDbEllipse
 10
95.564720836
 20
198.808101622
 30
0.0
 11
4.0
 21
0.0
 31
0.0
 40
0.707106781
 41
3.141592654
 42
0.0
  0
LINE
  5
1FE
330
1F
100
AcDbEntity
  8
0
  6
LTYPE1
 62
     2
100
AcDbLine
 10
95.564720836
 20
284.65756499
 30
0.0
 11
95.564720836
 21
380.05756499
 31
0.0
  0
LINE
  5
1FF
330
1F
100
AcDbEntity
  8
0
  6
LTYPE1
 62
     2
100
AcDbLine
 10
148.554720836
 20
246.83756499
 30
0.0
 11
50.396536507
 21
246.83756499
 31
0.0
  0
LINE
  5
200
330
1F
100
AcDbEntity
  8
0
  6
LTYPE2
 62
     2
100
AcDbLine
 10
140.964720836
 20
206.83756499
 30
0.0
 11
140.964720836
 21
215.83756499
 31
0.0
  0
LINE
  5
201
330
1F
100
AcDbEntity
  8
0
  6
LTYPE2
 62
     2
100
AcDbLine
 10
140.964720836
 20
277.83756499
 30
0.0
 11
140.964720836
 21
286.83756499
 31
0.0
  0
LINE
  5
202
330
1F
100
AcDbEntity
  8
0
  6
Continuous
 62
     1
100
AcDbLine
 10
143.564720836
 20
277.83756499
 30
0.0
 11
122.064720836
 21
277.83756499
 31
0.0
  0
LINE
  5
203
330
1F
100
AcDbEntity
  8
0
  6
Continuous
 62
     1
100
AcDbLine
 10
122.064720836
 20
215.83756499
 30
0.0
 11
143.564720836
 21
215.83756499
 31
0.0
  0
LINE
  5
204
330
1F
100
AcDbEntity
  8
2
  6
Continuous
 62
     1
100
AcDbLine
 10
143.564720836
 20
276.83756499
 30
0.0
 11
143.564720836
 21
286.83756499
 31
0.0
  0
LINE
  5
205
330
1F
100
AcDbEntity
  8
2
  6
Continuous
 62
     1
100
AcDbLine
 10
143.564720836
 20
206.83756499
 30
0.0
 11
143.564720836
 21
216.83756499
 31
0.0
  0
LINE
  5
206
330
1F
100
AcDbEntity
  8
2
  6
LTYPE2
 62
     2
100
AcDbLine
 10
143.564720836
 20
216.83756499
 30
0.0
 11
143.564720836
 21
276.83756499
 31
0.0
  0
LINE
  5
207
330
1F
100
AcDbEntity
  8
0
  6
Continuous
 62
     1
100
AcDbLine
 10
140.964720836
 20
215.83756499
 30
0.0
 11
140.964720836
 21
216.83756499
 31
0.0
  0
LINE
  5
208
330
1F
100
AcDbEntity
  8
0
  6
Continuous
 62
     1
100
AcDbLine
 10
140.964720836
 20
276.83756499
 30
0.0
 11
140.964720836
 21
277.83756499
 31
0.0
  0
LINE
  5
209
330
1F
100
AcDbEntity
  8
0
  6
LTYPE2
 62
     2
100
AcDbLine
 10
140.964720836
 20
216.83756499
 30
0.0
 11
140.964720836
 21
276.83756499
 31
0.0
  0
LINE
  5
20A
330
1F
100
AcDbEntity
  8
0
  6
Continuous
 62
     1
100
AcDbLine
 10
143.564720836
 20
276.83756499
 30
0.0
 11
143.564720836
 21
286.83756499
 31
0.0
  0
LINE
  5
20B
330
1F
100
AcDbEntity
  8
0
  6
Continuous
 62
     1
100
AcDbLine
 10
143.564720836
 20
206.83756499
 30
0.0
 11
143.564720836
 21
216.83756499
 31
0.0
  0
LINE
  5
20C
330
1F
100
AcDbEntity
  8
7
  6
Continuous
 62
     2
100
AcDbLine
 10
55.564720836
 20
259.83756499
 30
0.0
 11
60.394349967
 21
261.131660215
 31
0.0
  0
LINE
  5
20D
330
1F
100
AcDbEntity
  8
7
  6
Continuous
 62
     2
100
AcDbLine
 10
55.564720836
 20
259.83756499
 30
0.0
 11
60.394349967
 21
258.543469764
 31
0.0
  0
LWPOLYLINE
  5
20F
330
1F
100
AcDbEntity
  8
7
  6
Continuous
 62
     2
100
AcDbPolyline
 90
     3
 70
   128
 43
0.0
 10
34.364720836
 20
259.83756499
 10
69.052905165
 20
259.83756499
 10
64.223276034
 20
258.543469764
  0
LINE
  5
210
330
1F
100
AcDbEntity
  8
7
  6
Continuous
 62
     2
100
AcDbLine
 10
69.052905165
 20
259.83756499
 30
0.0
 11
64.223276034
 21
261.131660215
 31
0.0
  0
LINE
  5
211
330
1F
100
AcDbEntity
  8
7
  6
Continuous
 62
     2
100
AcDbLine
 10
109.564720836
 20
219.83756499
 30
0.0
 11
165.164720836
 21
219.837564989
 31
0.0
  0
LINE
  5
212
330
1F
100
AcDbEntity
  8
7
  6
Continuous
 62
     2
100
AcDbLine
 10
161.164720836
 20
219.83756499
 30
0.0
 11
159.870625611
 21
224.667194121
 31
0.0
  0
LINE
  5
213
330
1F
100
AcDbEntity
  8
7
  6
Continuous
 62
     2
100
AcDbLine
 10
161.164720836
 20
219.83756499
 30
0.0
 11
162.458816062
 21
224.667194121
 31
0.0
  0
LWPOLYLINE
  5
215
330
1F
100
AcDbEntity
  8
7
  6
Continuous
 62
     2
100
AcDbPolyline
 90
     3
 70
   128
 43
0.0
 10
161.164720836
 20
219.83756499
 10
161.164720836
 20
273.83756499
 10
162.458816062
 20
269.007935858
  0
LINE
  5
216
330
1F
100
AcDbEntity
  8
7
  6
Continuous
 62
     2
100
AcDbLine
 10
161.164720836
 20
273.83756499
 30
0.0
 11
159.870625611
 21
269.007935858
 31
0.0
  0
LINE
  5
217
330
1F
100
AcDbEntity
  8
7
  6
Continuous
 62
     2
100
AcDbLine
 10
109.564720836
 20
273.83756499
 30
0.0
 11
165.164720836
 21
273.83756499
 31
0.0
  0
LINE
  5
218
330
1F
100
AcDbEntity
  8
7
  6
Continuous
 62
     2
100
AcDbLine
 10
145.564720836
 20
277.83756499
 30
0.0
 11
180.164720836
 21
277.83756499
 31
0.0
  0
LINE
  5
219
330
1F
100
AcDbEntity
  8
7
  6
Continuous
 62
     2
100
AcDbLine
 10
176.164720836
 20
277.83756499
 30
0.0
 11
177.458816062
 21
273.007935858
 31
0.0
  0
LINE
  5
21A
330
1F
100
AcDbEntity
  8
7
  6
Continuous
 62
     2
100
AcDbLine
 10
176.164720836
 20
277.83756499
 30
0.0
 11
174.870625611
 21
273.007935858
 31
0.0
  0
LWPOLYLINE
  5
21C
330
1F
100
AcDbEntity
  8
7
  6
Continuous
 62
     2
100
AcDbPolyline
 90
     3
 70
   128
 43
0.0
 10
176.164720836
 20
277.83756499
 10
176.164720836
 20
215.83756499
 10
174.870625611
 20
220.667194121
  0
LINE
  5
21D
330
1F
100
AcDbEntity
  8
7
  6
Continuous
 62
     2
100
AcDbLine
 10
176.164720836
 20
215.83756499
 30
0.0
 11
177.458816062
 21
220.667194121
 31
0.0
  0
LINE
  5
21E
330
1F
100
AcDbEntity
  8
7
  6
Continuous
 62
     2
100
AcDbLine
 10
145.564720836
 20
215.83756499
 30
0.0
 11
180.164720836
 21
215.83756499
 31
0.0
  0
LINE
  5
21F
330
1F
100
AcDbEntity
  8
7
  6
Continuous
 62
     2
100
AcDbLine
 10
148.164720836
 20
286.83756499
 30
0.0
 11
195.164720836
 21
286.83756499
 31
0.0
  0
LINE
  5
220
330
1F
100
AcDbEntity
  8
7
  6
Continuous
 62
     2
100
AcDbLine
 10
191.164720836
 20
286.83756499
 30
0.0
 11
192.458816062
 21
282.007935858
 31
0.0
  0
LINE
  5
221
330
1F
100
AcDbEntity
  8
7
  6
Continuous
 62
     2
100
AcDbLine
 10
191.164720836
 20
286.83756499
 30
0.0
 11
189.870625611
 21
282.007935858
 31
0.0
  0
LWPOLYLINE
  5
223
330
1F
100
AcDbEntity
  8
7
  6
Continuous
 62
     2
100
AcDbPolyline
 90
     3
 70
   128
 43
0.0
 10
191.164720836
 20
286.83756499
 10
191.164720836
 20
206.83756499
 10
189.870625611
 20
211.667194121
  0
LINE
  5
224
330
1F
100
AcDbEntity
  8
7
  6
Continuous
 62
     2
100
AcDbLine
 10
191.164720836
 20
206.83756499
 30
0.0
 11
192.458816062
 21
211.667194121
 31
0.0
  0
LINE
  5
225
330
1F
100
AcDbEntity
  8
7
  6
Continuous
 62
     2
100
AcDbLine
 10
148.164720836
 20
206.83756499
 30
0.0
 11
195.164720836
 21
206.83756499
 31
0.0
  0
LINE
  5
226
330
1F
100
AcDbEntity
  8
3
  6
Continuous
 62
     2
100
AcDbLine
 10
146.164720836
 20
222.33756499
 30
0.0
 11
147.664720836
 21
222.43756499
 31
0.0
  0
LINE
  5
227
330
1F
100
AcDbEntity
  8
3
  6
Continuous
 62
     2
100
AcDbLine
 10
146.164720836
 20
231.33756499
 30
0.0
 11
147.664720836
 21
231.23756499
 31
0.0
  0
ARC
  5
228
330
1F
100
AcDbEntity
  8
3
  6
Continuous
 62
     2
100
AcDbCircle
 10
147.164720836
 20
229.33756499
 30
0.0
 40
2.0
100
AcDbArc
 50
18.6
 51
75.7
  0
ARC
  5
229
330
1F
100
AcDbEntity
  8
3
  6
Continuous
 62
     2
100
AcDbCircle
 10
147.164720836
 20
224.33756499
 30
0.0
 40
2.0
100
AcDbArc
 50
284.3
 51
341.4
  0
ARC
  5
22A
330
1F
100
AcDbEntity
  8
3
  6
Continuous
 62
     2
100
AcDbCircle
 10
137.264720836
 20
226.83756499
 30
0.0
 40
12.2
100
AcDbArc
 50
345.3
 51
14.7
  0
LINE
  5
22B
330
1F
100
AcDbEntity
  8
3
  6
Continuous
 62
     2
100
AcDbLine
 10
146.164720836
 20
262.33756499
 30
0.0
 11
147.664720836
 21
262.43756499
 31
0.0
  0
LINE
  5
22C
330
1F
100
AcDbEntity
  8
3
  6
Continuous
 62
     2
100
AcDbLine
 10
146.164720836
 20
271.33756499
 30
0.0
 11
147.664720836
 21
271.23756499
 31
0.0
  0
ARC
  5
22D
330
1F
100
AcDbEntity
  8
3
  6
Continuous
 62
     2
100
AcDbCircle
 10
147.164720836
 20
269.33756499
 30
0.0
 40
2.0
100
AcDbArc
 50
18.6
 51
75.7
  0
ARC
  5
22E
330
1F
100
AcDbEntity
  8
3
  6
Continuous
 62
     2
100
AcDbCircle
 10
147.164720836
 20
264.33756499
 30
0.0
 40
2.0
100
AcDbArc
 50
284.3
 51
341.4
  0
ARC
  5
22F
330
1F
100
AcDbEntity
  8
3
  6
Continuous
 62
     2
100
AcDbCircle
 10
137.264720836
 20
266.83756499
 30
0.0
 40
12.2
100
AcDbArc
 50
345.3
 51
14.7
  0
LINE
  5
230
330
1F
100
AcDbEntity
  8
0
  6
Continuous
 62
     1
100
AcDbLine
 10
135.564720836
 20
190.60566296
 30
0.0
 11
135.564720836
 21
206.83756499
 31
0.0
  0
LWPOLYLINE
  5
232
330
1F
100
AcDbEntity
  8
0
  6
Continuous
 62
     1
100
AcDbPolyline
 90
     3
 70
   128
 43
0.0
 10
135.564720836
 20
190.60566296
 10
55.564720836
 20
190.60566296
 10
55.564720836
 20
369.544138953
  0
MTEXT
  5
233
330
1F
100
AcDbEntity
  8
7
  6
Continuous
 62
     2
100
AcDbMText
 10
34.364720836
 20
261.83756499
 30
0.0
 40
6.0
 41
32.4
 71
     7
 72
     1
  1
\T1.167;\W0.600;１３．５
  7
KANJI6
 73
     1
 44
1.0
  0
ELLIPSE
  5
235
330
1F
100
AcDbEntity
  8
0
  6
Continuous
 62
     1
100
AcDbEllipse
 10
125.564720836
 20
368.129921576
 30
0.0
 11
10.0
 21
0.0
 31
0.0
 40
0.707106781
 41
0.0
 42
1.570796057
  0
ELLIPSE
  5
236
330
1F
100
AcDbEntity
  8
0
  6
Continuous
 62
     1
100
AcDbEllipse
 10
125.564720836
 20
369.544135138
 30
0.0
 11
10.0
 21
0.0
 31
0.0
 40
0.707106781
 41
0.000000539
 42
1.570796057
  0
ELLIPSE
  5
237
330
1F
100
AcDbEntity
  8
0
  6
Continuous
 62
     1
100
AcDbEllipse
 10
65.564720836
 20
368.129921576
 30
0.0
 11
10.0
 21
0.0
 31
0.0
 40
0.707106781
 41
1.570796113
 42
3.141592654
  0
ELLIPSE
  5
238
330
1F
100
AcDbEntity
  8
0
  6
Continuous
 62
     1
100
AcDbEllipse
 10
65.564720836
 20
369.544135138
 30
0.0
 11
10.0
 21
0.0
 31
0.0
 40
0.707106781
 41
1.570795747
 42
3.141592114
  0
LINE
  5
239
330
1F
100
AcDbEntity
  8
0
  6
Continuous
 62
     1
100
AcDbLine
 10
125.564723533
 20
375.200989388
 30
0.0
 11
65.564722969
 21
375.200989388
 31
0.0
  0
LINE
  5
23A
330
1F
100
AcDbEntity
  8
0
  6
Continuous
 62
     1
100
AcDbLine
 10
125.564723533
 20
376.61520295
 30
0.0
 11
65.564726637
 21
376.61520295
 31
0.0
  0
LINE
  5
23B
330
1F
100
AcDbEntity
  8
0
  6
Continuous
 62
     1
100
AcDbLine
 10
80.564720836
 20
322.161350111
 30
0.0
 11
80.564720836
 21
358.2293587
 31
0.0
  0
LINE
  5
23C
330
1F
100
AcDbEntity
  8
0
  6
Continuous
 62
     1
100
AcDbLine
 10
110.564720836
 20
358.229362514
 30
0.0
 11
110.564720836
 21
322.161352808
 31
0.0
  0
ELLIPSE
  5
23D
330
1F
100
AcDbEntity
  8
0
  6
Continuous
 62
     1
100
AcDbEllipse
 10
95.564720836
 20
322.161350111
 30
0.0
 11
15.0
 21
0.0
 31
0.0
 40
0.707106781
 41
3.141592654
 42
0.0
  0
ELLIPSE
  5
23E
330
1F
100
AcDbEntity
  8
0
  6
Continuous
 62
     1
100
AcDbEllipse
 10
95.564720836
 20
358.2293587
 30
0.0
 11
15.0
 21
0.0
 31
0.0
 40
0.707106781
 41
0.000000359
 42
3.141592654
  0
ELLIPSE
  5
23F
330
1F
100
AcDbEntity
  8
0
  6
Continuous
 62
     1
100
AcDbEllipse
 10
95.564720836
 20
323.575563673
 30
0.0
 11
15.0
 21
0.0
 31
0.0
 40
0.707106781
 41
3.141592654
 42
0.0
  0
ELLIPSE
  5
240
330
1F
100
AcDbEntity
  8
0
  6
Continuous
 62
     1
100
AcDbEllipse
 10
65.564720836
 20
368.129921576
 30
0.0
 11
3.5
 21
0.0
 31
0.0
 40
0.707106781
 41
0.0
 42
6.283185307
  0
ELLIPSE
  5
241
330
1F
100
AcDbEntity
  8
0
  6
Continuous
 62
     1
100
AcDbEllipse
 10
65.564720836
 20
369.544135138
 30
0.0
 11
3.5
 21
0.0
 31
0.0
 40
0.707106781
 41
3.431344355
 42
5.993433606
  0
ELLIPSE
  5
242
330
1F
100
AcDbEntity
  8
0
  6
Continuous
 62
     1
100
AcDbEllipse
 10
65.564720836
 20
339.83901964
 30
0.0
 11
3.5
 21
0.0
 31
0.0
 40
0.707106781
 41
0.0
 42
6.283185307
  0
ELLIPSE
  5
243
330
1F
100
AcDbEntity
  8
0
  6
Continuous
 62
     1
100
AcDbEllipse
 10
65.564720836
 20
341.253233203
 30
0.0
 11
3.5
 21
0.0
 31
0.0
 40
0.707106781
 41
3.431344355
 42
5.993433606
  0
ELLIPSE
  5
244
330
1F
100
AcDbEntity
  8
0
  6
Continuous
 62
     1
100
AcDbEllipse
 10
65.564720836
 20
311.554748393
 30
0.0
 11
3.5
 21
0.0
 31
0.0
 40
0.707106781
 41
0.0
 42
6.283185307
  0
ELLIPSE
  5
245
330
1F
100
AcDbEntity
  8
0
  6
Continuous
 62
     1
100
AcDbEllipse
 10
65.564720836
 20
312.968961955
 30
0.0
 11
3.5
 21
0.0
 31
0.0
 40
0.707106781
 41
3.431344355
 42
5.993433606
  0
ELLIPSE
  5
246
330
1F
100
AcDbEntity
  8
0
  6
Continuous
 62
     1
100
AcDbEllipse
 10
125.564720836
 20
339.83901964
 30
0.0
 11
3.5
 21
0.0
 31
0.0
 40
0.707106781
 41
0.0
 42
6.283185307
  0
ELLIPSE
  5
247
330
1F
100
AcDbEntity
  8
0
  6
Continuous
 62
     1
100
AcDbEllipse
 10
125.564720836
 20
341.253233203
 30
0.0
 11
3.5
 21
0.0
 31
0.0
 40
0.707106781
 41
3.431344355
 42
5.993433606
  0
ELLIPSE
  5
248
330
1F
100
AcDbEntity
  8
0
  6
Continuous
 62
     1
100
AcDbEllipse
 10
125.564720836
 20
368.129921576
 30
0.0
 11
3.5
 21
0.0
 31
0.0
 40
0.707106781
 41
0.0
 42
6.283185307
  0
ELLIPSE
  5
249
330
1F
100
AcDbEntity
  8
0
  6
Continuous
 62
     1
100
AcDbEllipse
 10
125.564720836
 20
369.544135138
 30
0.0
 11
3.5
 21
0.0
 31
0.0
 40
0.707106781
 41
3.431344355
 42
5.993433606
  0
ELLIPSE
  5
24A
330
1F
100
AcDbEntity
  8
0
  6
Continuous
 62
     1
100
AcDbEllipse
 10
125.564720836
 20
312.968961955
 30
0.0
 11
3.5
 21
0.0
 31
0.0
 40
0.707106781
 41
3.431344355
 42
5.993433606
  0
ELLIPSE
  5
24B
330
1F
100
AcDbEntity
  8
0
  6
Continuous
 62
     1
100
AcDbEllipse
 10
125.564720836
 20
311.554748393
 30
0.0
 11
3.5
 21
0.0
 31
0.0
 40
0.707106781
 41
0.0
 42
6.283185307
  0
LINE
  5
24C
330
1F
100
AcDbEntity
  8
7
  6
Continuous
 62
     2
100
AcDbLine
 10
515.718865742
 20
246.723481261
 30
0.0
 11
540.467603084
 21
221.97474392
 31
0.0
  0
LINE
  5
24D
330
1F
100
AcDbEntity
  8
7
  6
Continuous
 62
     2
100
AcDbLine
 10
537.639175959
 20
224.803171045
 30
0.0
 11
535.139175959
 21
220.473044026
 31
0.0
  0
LINE
  5
24E
330
1F
100
AcDbEntity
  8
7
  6
Continuous
 62
     2
100
AcDbLine
 10
537.639175959
 20
224.803171045
 30
0.0
 11
533.30904894
 21
222.303171045
 31
0.0
  0
LWPOLYLINE
  5
250
330
1F
100
AcDbEntity
  8
7
  6
Continuous
 62
     2
100
AcDbPolyline
 90
     3
 70
   128
 43
0.0
 10
537.639175959
 20
224.803171045
 10
509.354904711
 20
196.518899797
 10
511.854904711
 20
200.849026816
  0
LINE
  5
251
330
1F
100
AcDbEntity
  8
7
  6
Continuous
 62
     2
100
AcDbLine
 10
509.354904711
 20
196.518899797
 30
0.0
 11
513.68503173
 21
199.018899797
 31
0.0
  0
LINE
  5
252
330
1F
100
AcDbEntity
  8
7
  6
Continuous
 62
     2
100
AcDbLine
 10
487.434594495
 20
218.439210014
 30
0.0
 11
512.183331836
 21
193.690472672
 31
0.0
  0
LINE
  5
253
330
1F
100
AcDbEntity
  8
7
  6
Continuous
 62
     2
100
AcDbLine
 10
509.354904711
 20
196.518899797
 30
0.0
 11
506.854904711
 21
192.188772778
 31
0.0
  0
LINE
  5
254
330
1F
100
AcDbEntity
  8
7
  6
Continuous
 62
     2
100
AcDbLine
 10
509.354904711
 20
196.518899797
 30
0.0
 11
505.024777692
 21
194.018899797
 31
0.0
  0
LWPOLYLINE
  5
256
330
1F
100
AcDbEntity
  8
7
  6
Continuous
 62
     2
100
AcDbPolyline
 90
     3
 70
   128
 43
0.0
 10
509.354904711
 20
196.518899797
 10
481.070633464
 20
168.23462855
 10
483.570633464
 20
172.564755569
  0
LINE
  5
257
330
1F
100
AcDbEntity
  8
7
  6
Continuous
 62
     2
100
AcDbLine
 10
481.070633464
 20
168.23462855
 30
0.0
 11
485.400760483
 21
170.73462855
 31
0.0
  0
LINE
  5
258
330
1F
100
AcDbEntity
  8
7
  6
Continuous
 62
     2
100
AcDbLine
 10
459.150323247
 20
190.154938766
 30
0.0
 11
483.899060589
 21
165.406201425
 31
0.0
  0
LINE
  5
259
330
1F
100
AcDbEntity
  8
7
  6
Continuous
 62
     2
100
AcDbLine
 10
537.639175959
 20
224.803171045
 30
0.0
 11
535.139175959
 21
220.473044026
 31
0.0
  0
LINE
  5
25A
330
1F
100
AcDbEntity
  8
7
  6
Continuous
 62
     2
100
AcDbLine
 10
537.639175959
 20
224.803171045
 30
0.0
 11
533.30904894
 21
222.303171045
 31
0.0
  0
LWPOLYLINE
  5
25C
330
1F
100
AcDbEntity
  8
7
  6
Continuous
 62
     2
100
AcDbPolyline
 90
     4
 70
   128
 43
0.0
 10
532.3358751
 20
219.499870186
 10
537.639175959
 20
224.803171045
 10
544.710243771
 20
231.874238856
 10
550.01354463
 20
237.177539715
  0
LINE
  5
25D
330
1F
100
AcDbEntity
  8
7
  6
Continuous
 62
     2
100
AcDbLine
 10
544.710243771
 20
231.874238856
 30
0.0
 11
547.210243771
 21
236.204365875
 31
0.0
  0
LINE
  5
25E
330
1F
100
AcDbEntity
  8
7
  6
Continuous
 62
     2
100
AcDbLine
 10
544.710243771
 20
231.874238856
 30
0.0
 11
549.04037079
 21
234.374238856
 31
0.0
  0
LINE
  5
25F
330
1F
100
AcDbEntity
  8
7
  6
Continuous
 62
     2
100
AcDbLine
 10
528.446787803
 20
248.137694824
 30
0.0
 11
547.538670895
 21
229.045811732
 31
0.0
  0
LINE
  5
260
330
1F
100
AcDbEntity
  8
7
  6
Continuous
 62
     2
100
AcDbLine
 10
515.718865742
 20
238.238199887
 30
0.0
 11
540.467603084
 21
262.986937229
 31
0.0
  0
LINE
  5
261
330
1F
100
AcDbEntity
  8
7
  6
Continuous
 62
     2
100
AcDbLine
 10
537.639175959
 20
260.158510104
 30
0.0
 11
533.30904894
 21
262.658510104
 31
0.0
  0
LINE
  5
262
330
1F
100
AcDbEntity
  8
7
  6
Continuous
 62
     2
100
AcDbLine
 10
537.639175959
 20
260.158510104
 30
0.0
 11
535.139175959
 21
264.488637123
 31
0.0
  0
LWPOLYLINE
  5
264
330
1F
100
AcDbEntity
  8
7
  6
Continuous
 62
     2
100
AcDbPolyline
 90
     3
 70
   128
 43
0.0
 10
537.639175959
 20
260.158510104
 10
495.212769088
 20
302.584916975
 10
499.542896107
 20
300.084916975
  0
LINE
  5
265
330
1F
100
AcDbEntity
  8
7
  6
Continuous
 62
     2
100
AcDbLine
 10
495.212769088
 20
302.584916975
 30
0.0
 11
497.712769088
 21
298.254789956
 31
0.0
  0
LINE
  5
266
330
1F
100
AcDbEntity
  8
7
  6
Continuous
 62
     2
100
AcDbLine
 10
473.292458871
 20
280.664606758
 30
0.0
 11
498.041196212
 21
305.4133441
 31
0.0
  0
LINE
  5
267
330
1F
100
AcDbEntity
  8
7
  6
Continuous
 62
     2
100
AcDbLine
 10
528.446787803
 20
236.823986325
 30
0.0
 11
558.145272613
 21
266.522471135
 31
0.0
  0
LINE
  5
268
330
1F
100
AcDbEntity
  8
7
  6
Continuous
 62
     2
100
AcDbLine
 10
555.316845489
 20
263.69404401
 30
0.0
 11
550.98671847
 21
266.19404401
 31
0.0
  0
LINE
  5
269
330
1F
100
AcDbEntity
  8
7
  6
Continuous
 62
     2
100
AcDbLine
 10
555.316845489
 20
263.69404401
 30
0.0
 11
552.816845489
 21
268.024171029
 31
0.0
  0
LWPOLYLINE
  5
26B
330
1F
100
AcDbEntity
  8
7
  6
Continuous
 62
     2
100
AcDbPolyline
 90
     3
 70
   128
 43
0.0
 10
555.316845489
 20
263.69404401
 10
498.748302994
 20
320.262586505
 10
503.078430013
 20
317.762586505
  0
LINE
  5
26C
330
1F
100
AcDbEntity
  8
7
  6
Continuous
 62
     2
100
AcDbLine
 10
498.748302994
 20
320.262586505
 30
0.0
 11
501.248302994
 21
315.932459486
 31
0.0
  0
LINE
  5
26D
330
1F
100
AcDbEntity
  8
7
  6
Continuous
 62
     2
100
AcDbLine
 10
471.878245308
 20
293.39252882
 30
0.0
 11
501.576730118
 21
323.09101363
 31
0.0
  0
LINE
  5
26E
330
1F
100
AcDbEntity
  8
7
  6
Continuous
 62
     2
100
AcDbLine
 10
498.748302994
 20
320.262586505
 30
0.0
 11
494.418175975
 21
322.762586505
 31
0.0
  0
LINE
  5
26F
330
1F
100
AcDbEntity
  8
7
  6
Continuous
 62
     2
100
AcDbLine
 10
498.748302994
 20
320.262586505
 30
0.0
 11
496.248302994
 21
324.592713524
 31
0.0
  0
LINE
  5
270
330
1F
100
AcDbEntity
  8
7
  6
Continuous
 62
     2
100
AcDbLine
 10
498.748302994
 20
320.262586505
 30
0.0
 11
476.262307352
 21
342.748582147
 31
0.0
  0
LINE
  5
271
330
1F
100
AcDbEntity
  8
7
  6
Continuous
 62
     2
100
AcDbLine
 10
491.252971113
 20
327.757918385
 30
0.0
 11
495.583098132
 21
325.257918385
 31
0.0
  0
LINE
  5
272
330
1F
100
AcDbEntity
  8
7
  6
Continuous
 62
     2
100
AcDbLine
 10
491.252971113
 20
327.757918385
 30
0.0
 11
493.752971113
 21
323.427791366
 31
0.0
  0
LINE
  5
273
330
1F
100
AcDbEntity
  8
7
  6
Continuous
 62
     2
100
AcDbLine
 10
385.442070732
 20
221.947018005
 30
0.0
 11
494.081398238
 21
330.58634551
 31
0.0
  0
CIRCLE
  5
274
330
1F
100
AcDbEntity
  8
0
  6
Continuous
 62
     1
100
AcDbCircle
 10
420.966557063
 20
228.338704951
 30
0.0
 40
3.5
  0
CIRCLE
  5
275
330
1F
100
AcDbEntity
  8
0
  6
Continuous
 62
     1
100
AcDbCircle
 10
449.250828311
 20
256.622976198
 30
0.0
 40
3.5
  0
CIRCLE
  5
276
330
1F
100
AcDbEntity
  8
0
  6
Continuous
 62
     1
100
AcDbCircle
 10
477.535099558
 20
284.907247445
 30
0.0
 40
3.5
  0
CIRCLE
  5
277
330
1F
100
AcDbEntity
  8
0
  6
Continuous
 62
     1
100
AcDbCircle
 10
463.392963934
 20
185.912298079
 30
0.0
 40
3.5
  0
CIRCLE
  5
278
330
1F
100
AcDbEntity
  8
0
  6
Continuous
 62
     1
100
AcDbCircle
 10
491.677235182
 20
214.196569327
 30
0.0
 40
3.5
  0
CIRCLE
  5
279
330
1F
100
AcDbEntity
  8
0
  6
Continuous
 62
     1
100
AcDbCircle
 10
519.961506429
 20
242.480840574
 30
0.0
 40
3.5
  0
LINE
  5
27A
330
1F
100
AcDbEntity
  8
0
  6
Continuous
 62
     1
100
AcDbLine
 10
442.179771288
 20
228.33871574
 30
0.0
 11
477.535099558
 21
263.69404401
 31
0.0
  0
ARC
  5
27B
330
1F
100
AcDbEntity
  8
0
  6
Continuous
 62
     1
100
AcDbCircle
 10
488.141701276
 20
253.087442292
 30
0.0
 40
15.0
100
AcDbArc
 50
314.999917574
 51
135.0
  0
LWPOLYLINE
  5
27E
330
1F
100
AcDbEntity
  8
0
  6
Continuous
 62
     1
100
AcDbPolyline
 90
     3
 70
   128
 43
0.0
 10
498.748287735
 20
242.480825315
 42
0.0
 10
463.392948675
 20
207.125486256
 42
-0.999999789
 10
442.179771288
 20
228.33871574
 42
0.0
  0
ARC
  5
27F
330
1F
100
AcDbEntity
  8
0
  6
Continuous
 62
     1
100
AcDbCircle
 10
519.961506429
 20
242.480840574
 30
0.0
 40
10.0
100
AcDbArc
 50
315.0
 51
45.0
  0
LINE
  5
280
330
1F
100
AcDbEntity
  8
0
  6
Continuous
 62
     1
100
AcDbLine
 10
484.60616737
 20
291.978315257
 30
0.0
 11
527.032574241
 21
249.551908386
 31
0.0
  0
ARC
  5
281
330
1F
100
AcDbEntity
  8
0
  6
Continuous
 62
     1
100
AcDbCircle
 10
477.535099558
 20
284.907247445
 30
0.0
 40
10.0
100
AcDbArc
 50
45.0
 51
135.0
  0
CIRCLE
  5
282
330
1F
100
AcDbEntity
  8
0
  6
LTYPE2
 62
     2
100
AcDbCircle
 10
406.117314658
 20
213.489462546
 30
0.0
 40
2.2
  0
CIRCLE
  5
283
330
1F
100
AcDbEntity
  8
0
  6
LTYPE2
 62
     2
100
AcDbCircle
 10
406.117314658
 20
213.489462546
 30
0.0
 40
2.2
  0
CIRCLE
  5
284
330
1F
100
AcDbEntity
  8
0
  6
LTYPE2
 62
     2
100
AcDbCircle
 10
427.330518094
 20
192.27625911
 30
0.0
 40
2.2
  0
CIRCLE
  5
285
330
1F
100
AcDbEntity
  8
0
  6
LTYPE2
 62
     2
100
AcDbCircle
 10
427.330518094
 20
192.27625911
 30
0.0
 40
2.2
  0
CIRCLE
  5
286
330
1F
100
AcDbEntity
  8
0
  6
LTYPE2
 62
     2
100
AcDbCircle
 10
448.543721529
 20
171.063055674
 30
0.0
 40
2.2
  0
CIRCLE
  5
287
330
1F
100
AcDbEntity
  8
0
  6
LTYPE2
 62
     2
100
AcDbCircle
 10
448.543721529
 20
171.063055674
 30
0.0
 40
2.2
  0
CIRCLE
  5
288
330
1F
100
AcDbEntity
  8
0
  6
Continuous
 62
     2
100
AcDbCircle
 10
406.117314658
 20
213.489462546
 30
0.0
 40
4.0
  0
CIRCLE
  5
289
330
1F
100
AcDbEntity
  8
0
  6
Continuous
 62
     2
100
AcDbCircle
 10
427.330518094
 20
192.27625911
 30
0.0
 40
4.0
  0
CIRCLE
  5
28A
330
1F
100
AcDbEntity
  8
0
  6
Continuous
 62
     2
100
AcDbCircle
 10
448.543721529
 20
171.063055674
 30
0.0
 40
4.0
  0
LINE
  5
28B
330
1F
100
AcDbEntity
  8
0
  6
LTYPE1
 62
     2
100
AcDbLine
 10
509.637747424
 20
274.58348844
 30
0.0
 11
415.634971933
 21
180.580712949
 31
0.0
  0
LINE
  5
28C
330
1F
100
AcDbEntity
  8
0
  6
Continuous
 62
     2
100
AcDbLine
 10
391.268072253
 20
212.782355764
 30
0.0
 11
447.836614748
 21
156.213813269
 31
0.0
  0
LINE
  5
28D
330
1F
100
AcDbEntity
  8
0
  6
Continuous
 62
     1
100
AcDbLine
 10
403.522178924
 20
185.438482688
 30
0.0
 11
427.218616429
 21
161.742045183
 31
0.0
  0
ELLIPSE
  5
28E
330
1F
100
AcDbEntity
  8
0
  6
Continuous
 62
     1
100
AcDbEllipse
 10
424.718611035
 20
159.242050578
 30
0.0
 11
3.535533906
 21
-3.535533906
 31
0.0
 40
0.707106781
 41
6.283184228
 42
1.570794801
  0
ELLIPSE
  5
28F
330
1F
100
AcDbEntity
  8
0
  6
Continuous
 62
     1
100
AcDbEllipse
 10
386.943290063
 20
212.417371549
 30
0.0
 11
3.676955262
 21
-3.676955262
 31
0.0
 40
0.707106781
 41
1.570795289
 42
3.141593691
  0
LINE
  5
290
330
1F
100
AcDbEntity
  8
0
  6
Continuous
 62
     1
100
AcDbLine
 10
389.543293878
 20
215.017367734
 30
0.0
 11
391.523189051
 21
213.037472562
 31
0.0
  0
LINE
  5
291
330
1F
100
AcDbEntity
  8
3
  6
Continuous
 62
     2
100
AcDbLine
 10
370.209837685
 20
206.714784958
 30
0.0
 11
369.078466835
 21
207.704734451
 31
0.0
  0
LINE
  5
292
330
1F
100
AcDbEntity
  8
3
  6
Continuous
 62
     2
100
AcDbLine
 10
363.845876655
 20
200.350823927
 30
0.0
 11
362.855927161
 21
201.482194777
 31
0.0
  0
ARC
  5
293
330
1F
100
AcDbEntity
  8
3
  6
Continuous
 62
     2
100
AcDbCircle
 10
364.552983436
 20
202.47214427
 30
0.0
 40
2.0
100
AcDbArc
 50
153.6
 51
210.7
  0
ARC
  5
294
330
1F
100
AcDbEntity
  8
3
  6
Continuous
 62
     2
100
AcDbCircle
 10
368.088517342
 20
206.007678176
 30
0.0
 40
2.0
100
AcDbArc
 50
59.3
 51
116.4
  0
ARC
  5
295
330
1F
100
AcDbEntity
  8
3
  6
Continuous
 62
     2
100
AcDbCircle
 10
373.321107522
 20
197.23955409
 30
0.0
 40
12.2
100
AcDbArc
 50
120.3
 51
149.7
  0
LINE
  5
296
330
1F
100
AcDbEntity
  8
0
  6
Continuous
 62
     1
100
AcDbLine
 10
146.090750069
 20
376.608572262
 30
0.0
 11
144.676536507
 21
375.1943587
 31
0.0
  0
LINE
  5
297
330
1F
100
AcDbEntity
  8
0
  6
LTYPE2
 62
     2
100
AcDbLine
 10
226.929350249
 20
130.1943587
 30
0.0
 11
226.929350249
 21
50.1943587
 31
0.0
  0
LINE
  5
298
330
1F
100
AcDbEntity
  8
0
  6
Continuous
 62
     1
100
AcDbLine
 10
229.529350249
 20
132.994366329
 30
0.0
 11
229.529350249
 21
50.1943587
 31
0.0
  0
LINE
  5
299
330
1F
100
AcDbEntity
  8
0
  6
Continuous
 62
     1
100
AcDbLine
 10
226.929350249
 20
132.9943587
 30
0.0
 11
226.929350249
 21
130.1943587
 31
0.0
  0
LINE
  5
29A
330
1F
100
AcDbEntity
  8
0
  6
Continuous
 62
     1
100
AcDbLine
 10
246.929350249
 20
138.1943587
 30
0.0
 11
246.929350249
 21
135.5943587
 31
0.0
  0
LINE
  5
29B
330
1F
100
AcDbEntity
  8
0
  6
Continuous
 62
     1
100
AcDbLine
 10
232.129350249
 20
135.5943587
 30
0.0
 11
246.929350249
 21
135.5943587
 31
0.0
  0
LINE
  5
29C
330
1F
100
AcDbEntity
  8
0
  6
Continuous
 62
     1
100
AcDbLine
 10
232.129350249
 20
138.1943587
 30
0.0
 11
246.929350249
 21
138.1943587
 31
0.0
  0
ARC
  5
29D
330
1F
100
AcDbEntity
  8
0
  6
Continuous
 62
     1
100
AcDbCircle
 10
232.129350249
 20
132.9943587
 30
0.0
 40
5.2
100
AcDbArc
 50
90.0
 51
179.999915935
  0
ARC
  5
29E
330
1F
100
AcDbEntity
  8
0
  6
Continuous
 62
     1
100
AcDbCircle
 10
232.129350249
 20
132.9943587
 30
0.0
 40
2.6
100
AcDbArc
 50
90.0
 51
180.0
  0
LINE
  5
29F
330
1F
100
AcDbEntity
  8
0
  6
Continuous
 62
     2
100
AcDbLine
 10
235.429350249
 20
130.0943587
 30
0.0
 11
246.429350249
 21
130.0943587
 31
0.0
  0
LINE
  5
2A0
330
1F
100
AcDbEntity
  8
0
  6
Continuous
 62
     2
100
AcDbLine
 10
235.429350249
 20
135.5943587
 30
0.0
 11
235.429350249
 21
130.0943587
 31
0.0
  0
LINE
  5
2A1
330
1F
100
AcDbEntity
  8
0
  6
Continuous
 62
     2
100
AcDbLine
 10
246.429350249
 20
135.5943587
 30
0.0
 11
246.429350249
 21
130.0943587
 31
0.0
  0
LINE
  5
2A2
330
1F
100
AcDbEntity
  8
0
  6
Continuous
 62
     1
100
AcDbLine
 10
144.676536507
 20
120.1943587
 30
0.0
 11
144.676536507
 21
60.19435107
 31
0.0
  0
LINE
  5
2A3
330
1F
100
AcDbEntity
  8
0
  6
Continuous
 62
     1
100
AcDbLine
 10
162.35420934
 20
105.1943587
 30
0.0
 11
197.709547793
 21
105.1943587
 31
0.0
  0
ELLIPSE
  5
2A4
330
1F
100
AcDbEntity
  8
0
  6
Continuous
 62
     1
100
AcDbEllipse
 10
162.354206037
 20
90.1943587
 30
0.0
 11
0.0
 21
15.0
 31
0.0
 40
0.707106781
 41
6.283184995
 42
3.141592965
  0
LINE
  5
2A5
330
1F
100
AcDbEntity
  8
0
  6
Continuous
 62
     1
100
AcDbLine
 10
162.35420934
 20
75.1943587
 30
0.0
 11
197.709547793
 21
75.1943587
 31
0.0
  0
ELLIPSE
  5
2A6
330
1F
100
AcDbEntity
  8
0
  6
Continuous
 62
     1
100
AcDbEllipse
 10
197.709545096
 20
90.1943587
 30
0.0
 11
0.0
 21
15.0
 31
0.0
 40
0.707106781
 41
3.141592908
 42
6.283185053
  0
ELLIPSE
  5
2A7
330
1F
100
AcDbEntity
  8
0
  6
Continuous
 62
     1
100
AcDbEllipse
 10
151.747604319
 20
120.1943587
 30
0.0
 11
0.0
 21
3.5
 31
0.0
 40
0.707106781
 41
0.0
 42
6.283185307
  0
ELLIPSE
  5
2A8
330
1F
100
AcDbEntity
  8
0
  6
Continuous
 62
     1
100
AcDbEllipse
 10
151.747604319
 20
60.1943587
 30
0.0
 11
0.0
 21
3.5
 31
0.0
 40
0.707106781
 41
0.0
 42
6.283185307
  0
ELLIPSE
  5
2A9
330
1F
100
AcDbEntity
  8
0
  6
Continuous
 62
     1
100
AcDbEllipse
 10
180.031875566
 20
60.1943587
 30
0.0
 11
0.0
 21
3.5
 31
0.0
 40
0.707106781
 41
0.0
 42
6.283185307
  0
ELLIPSE
  5
2AA
330
1F
100
AcDbEntity
  8
0
  6
Continuous
 62
     1
100
AcDbEllipse
 10
180.031875566
 20
120.1943587
 30
0.0
 11
0.0
 21
3.5
 31
0.0
 40
0.707106781
 41
0.0
 42
6.283185307
  0
ELLIPSE
  5
2AB
330
1F
100
AcDbEntity
  8
0
  6
Continuous
 62
     1
100
AcDbEllipse
 10
208.316146814
 20
120.1943587
 30
0.0
 11
0.0
 21
3.5
 31
0.0
 40
0.707106781
 41
0.0
 42
6.283185307
  0
ELLIPSE
  5
2AC
330
1F
100
AcDbEntity
  8
0
  6
Continuous
 62
     1
100
AcDbEllipse
 10
208.316146814
 20
60.1943587
 30
0.0
 11
0.0
 21
3.5
 31
0.0
 40
0.707106781
 41
0.0
 42
6.283185307
  0
LINE
  5
2AD
330
1F
100
AcDbEntity
  8
0
  6
LTYPE1
 62
     2
100
AcDbLine
 10
138.125389219
 20
90.1943587
 30
0.0
 11
235.355389219
 21
90.1943587
 31
0.0
  0
LINE
  5
2AE
330
1F
100
AcDbEntity
  8
2
  6
Continuous
 62
     1
100
AcDbLine
 10
226.929350249
 20
140.7943587
 30
0.0
 11
246.929350249
 21
140.7943587
 31
0.0
  0
LINE
  5
2AF
330
1F
100
AcDbEntity
  8
2
  6
Continuous
 62
     1
100
AcDbLine
 10
246.929350249
 20
140.7943587
 30
0.0
 11
246.929350249
 21
138.1943587
 31
0.0
  0
LINE
  5
2B0
330
1F
100
AcDbEntity
  8
2
  6
Continuous
 62
     1
100
AcDbLine
 10
226.929350249
 20
138.1943587
 30
0.0
 11
246.929350249
 21
138.1943587
 31
0.0
  0
LINE
  5
2B1
330
1F
100
AcDbEntity
  8
2
  6
Continuous
 62
     1
100
AcDbLine
 10
226.929350249
 20
140.7943587
 30
0.0
 11
226.929350249
 21
138.1943587
 31
0.0
  0
ARC
  5
2B2
330
1F
100
AcDbEntity
  8
2
  6
Continuous
 62
     1
100
AcDbCircle
 10
232.129350249
 20
135.5943587
 30
0.0
 40
5.2
100
AcDbArc
 50
150.0
 51
180.0
  0
ARC
  5
2B3
330
1F
100
AcDbEntity
  8
2
  6
LTYPE2
 62
     2
100
AcDbCircle
 10
232.129350249
 20
135.5943587
 30
0.0
 40
5.2
100
AcDbArc
 50
90.0
 51
150.0
  0
ARC
  5
2B4
330
1F
100
AcDbEntity
  8
2
  6
LTYPE2
 62
     2
100
AcDbCircle
 10
232.129350249
 20
135.5943587
 30
0.0
 40
2.6
100
AcDbArc
 50
90.0
 51
180.0
  0
LINE
  5
2B5
330
1F
100
AcDbEntity
  8
2
  6
LTYPE2
 62
     2
100
AcDbLine
 10
229.529350249
 20
135.5943587
 30
0.0
 11
229.529350249
 21
132.994366329
 31
0.0
  0
LINE
  5
2B6
330
1F
100
AcDbEntity
  8
2
  6
Continuous
 62
     1
100
AcDbLine
 10
226.929350249
 20
135.5943587
 30
0.0
 11
226.929350249
 21
132.9943587
 31
0.0
  0
LINE
  5
2B7
330
1F
100
AcDbEntity
  8
2
  6
LTYPE2
 62
     2
100
AcDbLine
 10
226.929350249
 20
115.3943587
 30
0.0
 11
229.529350249
 21
115.3943587
 31
0.0
  0
LINE
  5
2B8
330
1F
100
AcDbEntity
  8
0
  6
LTYPE1
 62
     2
100
AcDbLine
 10
240.929350249
 20
144.808300793
 30
0.0
 11
240.929350249
 21
127.568300793
 31
0.0
  0
LINE
  5
2B9
330
1F
100
AcDbEntity
  8
7
  6
Continuous
 62
     2
100
AcDbLine
 10
246.929350249
 20
142.7943587
 30
0.0
 11
246.929350249
 21
159.7943587
 31
0.0
  0
LINE
  5
2BA
330
1F
100
AcDbEntity
  8
7
  6
Continuous
 62
     2
100
AcDbLine
 10
246.929350249
 20
155.7943587
 30
0.0
 11
251.758979381
 21
154.500263474
 31
0.0
  0
LINE
  5
2BB
330
1F
100
AcDbEntity
  8
7
  6
Continuous
 62
     2
100
AcDbLine
 10
246.929350249
 20
155.7943587
 30
0.0
 11
251.758979381
 21
157.088453925
 31
0.0
  0
LWPOLYLINE
  5
2BD
330
1F
100
AcDbEntity
  8
7
  6
Continuous
 62
     2
100
AcDbPolyline
 90
     4
 70
   128
 43
0.0
 10
254.429350249
 20
155.7943587
 10
246.929350249
 20
155.7943587
 10
240.929350249
 20
155.7943587
 10
233.429350249
 20
155.7943587
  0
LINE
  5
2BE
330
1F
100
AcDbEntity
  8
7
  6
Continuous
 62
     2
100
AcDbLine
 10
240.929350249
 20
155.7943587
 30
0.0
 11
236.099721118
 21
157.088453925
 31
0.0
  0
LINE
  5
2BF
330
1F
100
AcDbEntity
  8
7
  6
Continuous
 62
     2
100
AcDbLine
 10
240.929350249
 20
155.7943587
 30
0.0
 11
236.099721118
 21
154.500263474
 31
0.0
  0
LINE
  5
2C0
330
1F
100
AcDbEntity
  8
7
  6
Continuous
 62
     2
100
AcDbLine
 10
240.929350249
 20
146.808300793
 30
0.0
 11
240.929350249
 21
159.7943587
 31
0.0
  0
MTEXT
  5
2C1
330
1F
100
AcDbEntity
  8
7
  6
Continuous
 62
     2
100
AcDbMText
 10
242.129350249
 20
157.7943587
 30
0.0
 40
6.0
 41
7.2
 71
     7
 72
     1
  1
\T1.167;\W0.600;６
  7
KANJI6
 11
1.0
 21
-0.0
 31
0.0
 73
     1
 44
1.0
  0
LINE
  5
2C2
330
1F
100
AcDbEntity
  8
7
  6
Continuous
 62
     2
100
AcDbLine
 10
246.929350249
 20
157.7943587
 30
0.0
 11
246.929350249
 21
174.7943587
 31
0.0
  0
LINE
  5
2C3
330
1F
100
AcDbEntity
  8
7
  6
Continuous
 62
     2
100
AcDbLine
 10
246.929350249
 20
170.7943587
 30
0.0
 11
242.099721118
 21
172.088453925
 31
0.0
  0
LINE
  5
2C4
330
1F
100
AcDbEntity
  8
7
  6
Continuous
 62
     2
100
AcDbLine
 10
246.929350249
 20
170.7943587
 30
0.0
 11
242.099721118
 21
169.500263474
 31
0.0
  0
LWPOLYLINE
  5
2C6
330
1F
100
AcDbEntity
  8
7
  6
Continuous
 62
     2
100
AcDbPolyline
 90
     3
 70
   128
 43
0.0
 10
246.929350249
 20
170.7943587
 10
226.929350249
 20
170.7943587
 10
231.758979381
 20
169.500263474
  0
LINE
  5
2C7
330
1F
100
AcDbEntity
  8
7
  6
Continuous
 62
     2
100
AcDbLine
 10
226.929350249
 20
170.7943587
 30
0.0
 11
231.758979381
 21
172.088453925
 31
0.0
  0
LINE
  5
2C8
330
1F
100
AcDbEntity
  8
7
  6
Continuous
 62
     2
100
AcDbLine
 10
226.929350249
 20
142.7943587
 30
0.0
 11
226.929350249
 21
174.7943587
 31
0.0
  0
MTEXT
  5
2C9
330
1F
100
AcDbEntity
  8
7
  6
Continuous
 62
     2
100
AcDbMText
 10
233.029350249
 20
172.7943587
 30
0.0
 40
6.0
 41
15.6
 71
     7
 72
     1
  1
\T1.167;\W0.600;２０
  7
KANJI6
 11
1.0
 21
-0.0
 31
0.0
 73
     1
 44
1.0
  0
LINE
  5
2CA
330
1F
100
AcDbEntity
  8
3
  6
Continuous
 62
     2
100
AcDbLine
 10
236.429350249
 20
140.7943587
 30
0.0
 11
236.529350249
 21
142.2943587
 31
0.0
  0
LINE
  5
2CB
330
1F
100
AcDbEntity
  8
3
  6
Continuous
 62
     2
100
AcDbLine
 10
245.429350249
 20
140.7943587
 30
0.0
 11
245.329350249
 21
142.2943587
 31
0.0
  0
ARC
  5
2CC
330
1F
100
AcDbEntity
  8
3
  6
Continuous
 62
     2
100
AcDbCircle
 10
243.429350249
 20
141.7943587
 30
0.0
 40
2.0
100
AcDbArc
 50
14.3
 51
71.4
  0
ARC
  5
2CD
330
1F
100
AcDbEntity
  8
3
  6
Continuous
 62
     2
100
AcDbCircle
 10
238.429350249
 20
141.7943587
 30
0.0
 40
2.0
100
AcDbArc
 50
108.6
 51
165.7
  0
ARC
  5
2CE
330
1F
100
AcDbEntity
  8
3
  6
Continuous
 62
     2
100
AcDbCircle
 10
240.929350249
 20
131.8943587
 30
0.0
 40
12.2
100
AcDbArc
 50
75.3
 51
104.7
  0
ELLIPSE
  5
2CF
330
1F
100
AcDbEntity
  8
0
  6
Continuous
 62
     1
100
AcDbEllipse
 10
163.768419599
 20
90.1943587
 30
0.0
 11
0.0
 21
15.0
 31
0.0
 40
0.707106781
 41
6.283184995
 42
3.141592965
  0
ELLIPSE
  5
2D0
330
1F
100
AcDbEntity
  8
0
  6
Continuous
 62
     1
100
AcDbEllipse
 10
209.526146814
 20
120.1243587
 30
0.0
 11
0.0
 21
-3.5
 31
0.0
 40
0.707106781
 41
3.347878873
 42
5.99513067
  0
ELLIPSE
  5
2D1
330
1F
100
AcDbEntity
  8
0
  6
Continuous
 62
     1
100
AcDbEllipse
 10
181.241875566
 20
120.1243587
 30
0.0
 11
0.0
 21
-3.5
 31
0.0
 40
0.707106781
 41
3.347878873
 42
5.99513067
  0
ELLIPSE
  5
2D2
330
1F
100
AcDbEntity
  8
0
  6
Continuous
 62
     1
100
AcDbEllipse
 10
152.957604319
 20
120.1243587
 30
0.0
 11
0.0
 21
-3.5
 31
0.0
 40
0.707106781
 41
3.347878873
 42
5.99513067
  0
ELLIPSE
  5
2D3
330
1F
100
AcDbEntity
  8
0
  6
Continuous
 62
     1
100
AcDbEllipse
 10
152.957604319
 20
60.1243587
 30
0.0
 11
0.0
 21
-3.5
 31
0.0
 40
0.707106781
 41
3.347878873
 42
5.99513067
  0
ELLIPSE
  5
2D4
330
1F
100
AcDbEntity
  8
0
  6
Continuous
 62
     1
100
AcDbEllipse
 10
181.241875566
 20
60.1243587
 30
0.0
 11
0.0
 21
-3.5
 31
0.0
 40
0.707106781
 41
3.347878873
 42
5.99513067
  0
ELLIPSE
  5
2D5
330
1F
100
AcDbEntity
  8
0
  6
Continuous
 62
     1
100
AcDbEllipse
 10
209.526146814
 20
60.1243587
 30
0.0
 11
0.0
 21
-3.5
 31
0.0
 40
0.707106781
 41
3.347878873
 42
5.99513067
  0
LINE
  5
2D6
330
1F
100
AcDbEntity
  8
0
  6
Continuous
 62
     1
100
AcDbLine
 10
151.747600273
 20
50.1943587
 30
0.0
 11
229.529350249
 21
50.1943587
 31
0.0
  0
ELLIPSE
  5
2D7
330
1F
100
AcDbEntity
  8
0
  6
Continuous
 62
     1
100
AcDbEllipse
 10
151.747604319
 20
60.1943587
 30
0.0
 11
0.0
 21
10.0
 31
0.0
 40
0.707106781
 41
1.57079709
 42
3.141592081
  0
LINE
  5
2D8
330
1F
100
AcDbEntity
  8
0
  6
Continuous
 62
     1
100
AcDbLine
 10
151.747600273
 20
130.1943587
 30
0.0
 11
229.529350249
 21
130.1943587
 31
0.0
  0
ELLIPSE
  5
2D9
330
1F
100
AcDbEntity
  8
0
  6
Continuous
 62
     1
100
AcDbEllipse
 10
151.747604319
 20
120.1943587
 30
0.0
 11
0.0
 21
10.0
 31
0.0
 40
0.707106781
 41
0.000000572
 42
1.570796327
  0
ELLIPSE
  5
2DA
330
1F
100
AcDbEntity
  8
0
  6
Continuous
 62
     2
100
AcDbEllipse
 10
221.751175656
 20
90.1943587
 30
0.0
 11
0.0
 21
4.0
 31
0.0
 40
0.707106781
 41
0.0
 42
6.283185307
  0
ELLIPSE
  5
2DB
330
1F
100
AcDbEntity
  8
0
  6
Continuous
 62
     2
100
AcDbEllipse
 10
221.751175656
 20
60.1943587
 30
0.0
 11
0.0
 21
4.0
 31
0.0
 40
0.707106781
 41
0.0
 42
6.283185307
  0
ELLIPSE
  5
2DC
330
1F
100
AcDbEntity
  8
0
  6
Continuous
 62
     2
100
AcDbEllipse
 10
221.751175656
 20
120.1943587
 30
0.0
 11
0.0
 21
4.0
 31
0.0
 40
0.707106781
 41
0.0
 42
6.283185307
  0
MTEXT
  5
2DD
330
1F
100
AcDbEntity
  8
7
  6
Continuous
 62
     2
100
AcDbMText
 10
189.164720836
 20
242.93756499
 30
0.0
 40
6.0
 41
15.6
 71
     7
 72
     1
  1
\T1.167;\W0.600;８０
  7
KANJI6
 11
0.0
 21
1.0
 31
0.0
 73
     1
 44
1.0
  0
MTEXT
  5
2DE
330
1F
100
AcDbEntity
  8
7
  6
Continuous
 62
     2
100
AcDbMText
 10
174.164720836
 20
242.93756499
 30
0.0
 40
6.0
 41
15.6
 71
     7
 72
     1
  1
\T1.167;\W0.600;６２
  7
KANJI6
 11
0.0
 21
1.0
 31
0.0
 73
     1
 44
1.0
  0
MTEXT
  5
2DF
330
1F
100
AcDbEntity
  8
7
  6
Continuous
 62
     2
100
AcDbMText
 10
159.164720836
 20
242.93756499
 30
0.0
 40
6.0
 41
15.6
 71
     7
 72
     1
  1
\T1.167;\W0.600;５４
  7
KANJI6
 11
0.0
 21
1.0
 31
0.0
 73
     1
 44
1.0
  0
MTEXT
  5
2E0
330
1F
100
AcDbEntity
  8
7
  6
Continuous
 62
     2
100
AcDbMText
 10
491.040839079
 20
181.033261289
 30
0.0
 40
6.0
 41
15.6
 71
     7
 72
     1
  1
\T1.167;\W0.600;４０
  7
KANJI6
 11
0.707106781
 21
0.707106781
 31
0.0
 73
     1
 44
1.0
  0
MTEXT
  5
2E1
330
1F
100
AcDbEntity
  8
7
  6
Continuous
 62
     2
100
AcDbMText
 10
519.325110326
 20
209.317532537
 30
0.0
 40
6.0
 41
15.6
 71
     7
 72
     1
  1
\T1.167;\W0.600;４０
  7
KANJI6
 11
0.707106781
 21
0.707106781
 31
0.0
 73
     1
 44
1.0
  0
MTEXT
  5
2E2
330
1F
100
AcDbEntity
  8
7
  6
Continuous
 62
     2
100
AcDbMText
 10
537.002779856
 20
226.995202066
 30
0.0
 40
6.0
 41
15.6
 71
     7
 72
     1
  1
\T1.167;\W0.600;１０
  7
KANJI6
 11
0.707106781
 21
0.707106781
 31
0.0
 73
     1
 44
1.0
  0
MTEXT
  5
2E3
330
1F
100
AcDbEntity
  8
7
  6
Continuous
 62
     2
100
AcDbMText
 10
525.689071357
 20
296.150245266
 30
0.0
 40
6.0
 41
15.6
 71
     7
 72
     1
  1
\T1.167;\W0.600;８０
  7
KANJI6
 11
0.707106781
 21
-0.707106781
 31
0.0
 73
     1
 44
1.0
  0
MTEXT
  5
2E4
330
1F
100
AcDbEntity
  8
7
  6
Continuous
 62
     2
100
AcDbMText
 10
515.082469639
 20
285.543643549
 30
0.0
 40
6.0
 41
15.6
 71
     7
 72
     1
  1
\T1.167;\W0.600;６０
  7
KANJI6
 11
0.707106781
 21
-0.707106781
 31
0.0
 73
     1
 44
1.0
  0
MTEXT
  5
2E5
330
1F
100
AcDbEntity
  8
7
  6
Continuous
 62
     2
100
AcDbMText
 10
477.676520914
 20
344.162795709
 30
0.0
 40
6.0
 41
32.4
 71
     7
 72
     1
  1
\T1.167;\W0.600;１０．６
  7
KANJI6
 11
0.707106781
 21
-0.707106781
 31
0.0
 73
     1
 44
1.0
  0
LINE
  5
2E6
330
1F
100
AcDbEntity
  8
7
  6
Continuous
 62
     2
100
AcDbLine
 10
419.04354463
 20
232.027539715
 30
0.0
 11
418.369420614
 21
236.981886979
 31
0.0
  0
LINE
  5
2E7
330
1F
100
AcDbEntity
  8
7
  6
Continuous
 62
     2
100
AcDbLine
 10
419.04354463
 20
232.027539715
 30
0.0
 11
415.982562475
 21
235.981068298
 31
0.0
  0
LWPOLYLINE
  5
2E9
330
1F
100
AcDbEntity
  8
7
  6
Continuous
 62
     2
100
AcDbPolyline
 90
     3
 70
   128
 43
0.0
 10
419.04354463
 20
232.027539715
 10
408.44354463
 20
257.307539715
 10
392.54354463
 20
257.307539715
  0
MTEXT
  5
2EA
330
1F
100
AcDbEntity
  8
7
  6
Continuous
 62
     2
100
AcDbMText
 10
392.54354463
 20
259.307539715
 30
0.0
 40
6.0
 41
30.6
 71
     7
 72
     1
  1
\T1.111;\W0.900;φ7.0
  7
KANJI5
 73
     1
 44
1.0
  0
LINE
  5
2EB
330
1F
100
AcDbEntity
  8
7
  6
Continuous
 62
     2
100
AcDbLine
 10
319.903354625
 20
296.536016522
 30
0.0
 11
317.403354625
 21
300.86614354
 31
0.0
  0
LINE
  5
2EC
330
1F
100
AcDbEntity
  8
7
  6
Continuous
 62
     2
100
AcDbLine
 10
319.903354625
 20
296.536016522
 30
0.0
 11
315.573227606
 21
299.036016522
 31
0.0
  0
LWPOLYLINE
  5
2EE
330
1F
100
AcDbEntity
  8
7
  6
Continuous
 62
     2
100
AcDbPolyline
 90
     3
 70
   128
 43
0.0
 10
319.903354625
 20
296.536016522
 42
0.414213562
 10
226.16330581
 20
296.536016522
 42
0.0
 10
230.493432829
 20
299.036016522
 42
0.0
  0
LINE
  5
2EF
330
1F
100
AcDbEntity
  8
7
  6
Continuous
 62
     2
100
AcDbLine
 10
226.16330581
 20
296.536016522
 30
0.0
 11
228.66330581
 21
300.86614354
 31
0.0
  0
MTEXT
  5
2F0
330
1F
100
AcDbEntity
  8
7
  6
Continuous
 62
     2
100
AcDbMText
 10
267.033330217
 20
317.9502163
 30
0.0
 40
6.0
 41
24.0
 71
     7
 72
     1
  1
\T1.167;\W0.600;９０゜
  7
KANJI6
 73
     1
 44
1.0
  0
LINE
  5
2F1
330
1F
100
AcDbEntity
  8
7
  6
Continuous
 62
     2
100
AcDbLine
 10
398.561696803
 20
378.022785824
 30
0.0
 11
383.005347617
 21
393.579135011
 31
0.0
  0
LINE
  5
2F2
330
1F
100
AcDbEntity
  8
7
  6
Continuous
 62
     2
100
AcDbLine
 10
385.833774741
 20
390.750707886
 30
0.0
 11
381.503647722
 21
388.250707886
 31
0.0
  0
LINE
  5
2F3
330
1F
100
AcDbEntity
  8
7
  6
Continuous
 62
     2
100
AcDbLine
 10
385.833774741
 20
390.750707886
 30
0.0
 11
383.333774741
 21
386.420580867
 31
0.0
  0
LWPOLYLINE
  5
2F5
330
1F
100
AcDbEntity
  8
7
  6
Continuous
 62
     2
100
AcDbPolyline
 90
     3
 70
   128
 43
0.0
 10
385.833774741
 20
390.750707886
 10
258.891194594
 20
263.808127738
 10
263.221321612
 20
266.308127738
  0
LINE
  5
2F6
330
1F
100
AcDbEntity
  8
7
  6
Continuous
 62
     2
100
AcDbLine
 10
258.891194594
 20
263.808127738
 30
0.0
 11
261.391194594
 21
268.138254757
 31
0.0
  0
LINE
  5
2F7
330
1F
100
AcDbEntity
  8
7
  6
Continuous
 62
     2
100
AcDbLine
 10
232.357777374
 20
290.341544957
 30
0.0
 11
261.719621718
 21
260.979700613
 31
0.0
  0
MTEXT
  5
2F8
330
1F
100
AcDbEntity
  8
7
  6
Continuous
 62
     2
100
AcDbMText
 10
307.796084975
 20
315.541445244
 30
0.0
 40
6.0
 41
74.4
 71
     7
 72
     1
  1
\T1.167;\W0.600;（１７９．５２４）
  7
KANJI6
 11
0.707106781
 21
0.707106781
 31
0.0
 73
     1
 44
1.0
  0
LINE
  5
2F9
330
1F
100
AcDbEntity
  8
2
  6
Continuous
 62
     1
100
AcDbLine
 10
355.827145922
 20
188.655137932
 30
0.0
 11
385.866334801
 21
218.694326811
 31
0.0
  0
LINE
  5
2FA
330
1F
100
AcDbEntity
  8
0
  6
Continuous
 62
     1
100
AcDbLine
 10
527.032574241
 20
235.409772762
 30
0.0
 11
426.984092046
 21
135.361290567
 31
0.0
  0
LINE
  5
2FB
330
1F
100
AcDbEntity
  8
0
  6
Continuous
 62
     2
100
AcDbLine
 10
214.962950557
 20
130.1943587
 30
0.0
 11
214.962950557
 21
50.1943587
 31
0.0
  0
ARC
  5
2FC
330
1F
100
AcDbEntity
  8
0
  6
Continuous
 62
     2
100
AcDbCircle
 10
412.936902353
 20
229.133227319
 30
0.0
 40
70.0
100
AcDbArc
 50
198.31315815
 51
251.68684185
  0
ARC
  5
2FD
330
1F
100
AcDbEntity
  8
0
  6
Continuous
 62
     2
100
AcDbCircle
 10
368.947434293
 20
96.223759259
 30
0.0
 40
70.0
100
AcDbArc
 50
18.31315815
 51
71.68684185
  0
LINE
  5
2FE
330
1F
100
AcDbEntity
  8
0
  6
Continuous
 62
     1
100
AcDbLine
 10
396.569130597
 20
198.991531016
 30
0.0
 11
404.822178924
 21
186.738482688
 31
0.0
  0
LINE
  5
2FF
330
1F
100
AcDbEntity
  8
0
  6
Continuous
 62
     1
100
AcDbLine
 10
404.822178924
 20
186.738482688
 30
0.0
 11
428.518616429
 21
163.042045183
 31
0.0
  0
LINE
  5
300
330
1F
100
AcDbEntity
  8
0
  6
Continuous
 62
     1
100
AcDbLine
 10
429.554148445
 20
157.006520176
 30
0.0
 11
418.356807326
 21
145.809179057
 31
0.0
  0
ELLIPSE
  5
301
330
1F
100
AcDbEntity
  8
0
  6
Continuous
 62
     1
100
AcDbEllipse
 10
426.018611035
 20
160.542050578
 30
0.0
 11
3.535533906
 21
-3.535533906
 31
0.0
 40
0.707106781
 41
0.000001402
 42
1.570794801
  0
ELLIPSE
  5
302
330
1F
100
AcDbEntity
  8
0
  6
LTYPE2
 62
     2
100
AcDbEllipse
 10
386.943290063
 20
212.417371549
 30
0.0
 11
1.838477631
 21
-1.838477631
 31
0.0
 40
0.707106781
 41
1.57079486
 42
3.141594729
  0
LINE
  5
303
330
1F
100
AcDbEntity
  8
0
  6
Continuous
 62
     1
100
AcDbLine
 10
470.464031746
 20
291.978315257
 30
0.0
 11
391.268072253
 21
212.782355764
 31
0.0
  0
LINE
  5
304
330
1F
100
AcDbEntity
  8
0
  6
LTYPE2
 62
     2
100
AcDbLine
 10
388.243292761
 20
213.717368852
 30
0.0
 11
390.223189051
 21
211.737472562
 31
0.0
  0
LINE
  5
305
330
1F
100
AcDbEntity
  8
0
  6
LTYPE2
 62
     2
100
AcDbLine
 10
391.268072253
 20
212.782355764
 30
0.0
 11
390.223189051
 21
211.737472562
 31
0.0
  0
LWPOLYLINE
  5
307
330
1F
100
AcDbEntity
  8
2
  6
Continuous
 62
     1
100
AcDbPolyline
 90
     3
 70
   128
 43
0.0
 10
354.337880807
 20
190.84282808
 10
384.02785717
 20
220.532804442
 10
385.866334801
 20
218.694326811
  0
LINE
  5
308
330
1F
100
AcDbEntity
  8
2
  6
Continuous
 62
     1
100
AcDbLine
 10
379.02785717
 20
215.532804442
 30
0.0
 11
380.866334801
 21
213.694326811
 31
0.0
  0
ELLIPSE
  5
309
330
1F
100
AcDbEntity
  8
0
  6
Continuous
 62
     1
100
AcDbEllipse
 10
380.104808617
 20
209.255852995
 30
0.0
 11
3.676955262
 21
-3.676955262
 31
0.0
 40
0.707106781
 41
1.570795289
 42
3.140152195
  0
LINE
  5
30A
330
1F
100
AcDbEntity
  8
0
  6
Continuous
 62
     1
100
AcDbLine
 10
381.366334801
 20
214.194326811
 30
0.0
 11
396.569130597
 21
198.991531016
 31
0.0
  0
LINE
  5
30B
330
1F
100
AcDbEntity
  8
0
  6
LTYPE2
 62
     2
100
AcDbLine
 10
357.387722972
 20
186.53875972
 30
0.0
 11
382.704812432
 21
211.85584918
 31
0.0
  0
LINE
  5
30C
330
1F
100
AcDbEntity
  8
0
  6
LTYPE2
 62
     2
100
AcDbLine
 10
383.204812432
 20
212.35584918
 30
0.0
 11
385.104809735
 21
214.255846483
 31
0.0
  0
LINE
  5
30D
330
1F
100
AcDbEntity
  8
0
  6
Continuous
 62
     1
100
AcDbLine
 10
382.704812432
 20
211.85584918
 30
0.0
 11
383.204812432
 21
212.35584918
 31
0.0
  0
LINE
  5
30E
330
1F
100
AcDbEntity
  8
0
  6
LTYPE2
 62
     2
100
AcDbLine
 10
372.826132776
 20
201.977169524
 30
0.0
 11
374.947453119
 21
199.85584918
 31
0.0
  0
LINE
  5
30F
330
1F
100
AcDbEntity
  8
0
  6
LTYPE2
 62
     2
100
AcDbLine
 10
374.947453119
 20
204.098489867
 30
0.0
 11
377.068773463
 21
201.977169524
 31
0.0
  0
ARC
  5
310
330
1F
100
AcDbEntity
  8
0
  6
LTYPE2
 62
     2
100
AcDbCircle
 10
375.566174365
 20
201.358448278
 30
0.0
 40
1.624996023
100
AcDbArc
 50
247.619870236
 51
22.380129764
  0
LINE
  5
311
330
1F
100
AcDbEntity
  8
0
  6
LTYPE2
 62
     2
100
AcDbLine
 10
368.583492089
 20
197.734528837
 30
0.0
 11
370.704812432
 21
195.613208493
 31
0.0
  0
ARC
  5
312
330
1F
100
AcDbEntity
  8
0
  6
LTYPE2
 62
     2
100
AcDbCircle
 10
369.996196988
 20
200.564464306
 30
0.0
 40
5.002133346
100
AcDbArc
 50
278.130146913
 51
351.869803699
  0
LINE
  5
313
330
1F
100
AcDbEntity
  8
0
  6
LTYPE2
 62
     2
100
AcDbLine
 10
366.462171745
 20
195.613208493
 30
0.0
 11
368.583492089
 21
193.491888149
 31
0.0
  0
ARC
  5
314
330
1F
100
AcDbEntity
  8
0
  6
LTYPE2
 62
     2
100
AcDbCircle
 10
369.202467415
 20
194.993205289
 30
0.0
 40
1.623909879
100
AcDbArc
 50
247.594234838
 51
22.421980475
  0
LINE
  5
315
330
1F
100
AcDbEntity
  8
0
  6
LTYPE2
 62
     2
100
AcDbLine
 10
370.350741288
 20
193.844923787
 30
0.0
 11
376.715220072
 21
200.209402571
 31
0.0
  0
LINE
  5
316
330
1F
100
AcDbEntity
  8
0
  6
LTYPE2
 62
     2
100
AcDbLine
 10
392.682285816
 20
214.196569327
 30
0.0
 11
449.250828311
 21
157.628026832
 31
0.0
  0
LINE
  5
317
330
1F
100
AcDbEntity
  8
0
  6
LTYPE2
 62
     2
100
AcDbLine
 10
392.029594622
 20
213.543878133
 30
0.0
 11
448.598137117
 21
156.975335638
 31
0.0
  0
LINE
  5
318
330
1F
100
AcDbEntity
  8
0
  6
Continuous
 62
     1
100
AcDbLine
 10
461.978750372
 20
170.355948893
 30
0.0
 11
405.410207877
 21
226.924491388
 31
0.0
  0
LINE
  5
319
330
1F
100
AcDbEntity
  8
2
  6
Continuous
 62
     1
100
AcDbLine
 10
121.664720836
 20
219.83756499
 30
0.0
 11
121.664720836
 21
273.83756499
 31
0.0
  0
LINE
  5
31A
330
1F
100
AcDbEntity
  8
2
  6
Continuous
 62
     1
100
AcDbLine
 10
124.664723533
 20
276.83756499
 30
0.0
 11
146.164720836
 21
276.83756499
 31
0.0
  0
ARC
  5
31B
330
1F
100
AcDbEntity
  8
2
  6
Continuous
 62
     1
100
AcDbCircle
 10
124.664720836
 20
273.83756499
 30
0.0
 40
3.0
100
AcDbArc
 50
89.999948483
 51
180.0
  0
LWPOLYLINE
  5
31D
330
1F
100
AcDbEntity
  8
2
  6
Continuous
 62
     1
100
AcDbPolyline
 90
     3
 70
   128
 43
0.0
 10
121.664720836
 20
219.83756499
 42
0.414213826
 10
124.664723533
 20
216.83756499
 42
0.0
 10
146.164720836
 20
216.83756499
 42
0.0
  0
LINE
  5
31E
330
1F
100
AcDbEntity
  8
7
  6
Continuous
 62
     2
100
AcDbLine
 10
69.052905165
 20
259.83756499
 30
0.0
 11
73.882534296
 21
258.543469764
 31
0.0
  0
LINE
  5
31F
330
1F
100
AcDbEntity
  8
7
  6
Continuous
 62
     2
100
AcDbLine
 10
69.052905165
 20
259.83756499
 30
0.0
 11
73.882534296
 21
261.131660215
 31
0.0
  0
LWPOLYLINE
  5
321
330
1F
100
AcDbEntity
  8
7
  6
Continuous
 62
     2
100
AcDbPolyline
 90
     3
 70
   128
 43
0.0
 10
69.052905165
 20
259.83756499
 10
121.664720836
 20
259.83756499
 10
116.835091705
 20
261.131660215
  0
LINE
  5
322
330
1F
100
AcDbEntity
  8
7
  6
Continuous
 62
     2
100
AcDbLine
 10
121.664720836
 20
259.83756499
 30
0.0
 11
116.835091705
 21
258.543469764
 31
0.0
  0
MTEXT
  5
323
330
1F
100
AcDbEntity
  8
7
  6
Continuous
 62
     2
100
AcDbMText
 10
83.058813001
 20
261.83756499
 30
0.0
 40
6.0
 41
49.2
 71
     7
 72
     1
  1
\T1.167;\W0.600;（５２．６）
  7
KANJI6
 73
     1
 44
1.0
  0
ELLIPSE
  5
324
330
1F
100
AcDbEntity
  8
2
  6
Continuous
 62
     1
100
AcDbEllipse
 10
392.730652965
 20
198.830008647
 30
0.0
 11
2.121320344
 21
-2.121320344
 31
0.0
 40
0.707106781
 41
0.0
 42
1.570794529
  0
LINE
  5
325
330
1F
100
AcDbEntity
  8
2
  6
Continuous
 62
     1
100
AcDbLine
 10
382.704812432
 20
211.85584918
 30
0.0
 11
394.23065723
 21
200.330004382
 31
0.0
  0
LINE
  5
326
330
1F
100
AcDbEntity
  8
0
  6
Continuous
 62
     1
100
AcDbLine
 10
395.304588339
 20
197.63888799
 30
0.0
 11
403.522178924
 21
185.438482688
 31
0.0
  0
LINE
  5
327
330
1F
100
AcDbEntity
  8
2
  6
Continuous
 62
     1
100
AcDbLine
 10
371.13126557
 20
172.987980564
 30
0.0
 11
394.851973309
 21
196.708688303
 31
0.0
  0
MTEXT
  5
328
330
1F
100
AcDbEntity
  8
4
  6
Continuous
 62
     2
100
AcDbMText
 10
476.0
 20
94.4
 30
0.0
 40
6.0
 41
70.8
 71
     7
 72
     1
  1
\T1.111;\W0.900;ＣＲ３全体図
  7
KANJI5
 73
     1
 44
1.0
  0
CIRCLE
  5
329
330
1F
100
AcDbEntity
  8
5
  6
Continuous
 62
     1
100
AcDbCircle
 10
129.664720836
 20
246.83756499
 30
0.0
 40
2.0
  0
MTEXT
  5
32A
330
1F
100
AcDbEntity
  8
4
  6
Continuous
 62
     2
100
AcDbMText
 10
476.0
 20
22.4
 30
0.0
 40
6.0
 41
126.6
 71
     7
 72
     1
  1
\T1.111;\W0.900;ＣＲ３　CRV３台用金具
  7
KANJI5
 73
     1
 44
1.0
  0
MTEXT
  5
32B
330
1F
100
AcDbEntity
  8
4
  6
Continuous
 62
     2
100
AcDbMText
 10
476.0
 20
82.4
 30
0.0
 40
6.0
 41
18.6
 71
     7
 72
     1
  1
\T1.111;\W0.900;CR3
  7
KANJI3
 73
     1
 44
1.0
  0
MTEXT
  5
32C
330
1F
100
AcDbEntity
  8
4
  6
Continuous
 62
     2
100
AcDbMText
 10
386.0
 20
22.4
 30
0.0
 40
6.0
 41
45.0
 71
     7
 72
     1
  1
\T1.111;\W0.900;CR3-000
  7
KANJI3
 73
     1
 44
1.0
  0
MTEXT
  5
32D
330
1F
100
AcDbEntity
  8
4
  6
Continuous
 62
     2
100
AcDbMText
 10
428.0
 20
22.4
 30
0.0
 40
6.0
 41
64.8
 71
     7
 72
     1
  1
\T1.111;\W0.900;2015/02/23
  7
KANJI3
 73
     1
 44
1.0
  0
ENDSEC
  0
SECTION
  2
OBJECTS
  0
DICTIONARY
  5
C
330
0
100
AcDbDictionary
280
     0
281
     1
  3
ACAD_GROUP
350
D
  3
ACAD_LAYOUT
350
1A
  3
ACAD_MLINESTYLE
350
17
  3
ACAD_PLOTSETTINGS
350
19
  3
ACAD_PLOTSTYLENAME
350
E
  0
DICTIONARY
  5
D
102
{ACAD_REACTORS
330
C
102
}
330
C
100
AcDbDictionary
280
     0
281
     1
  0
DICTIONARY
  5
1A
102
{ACAD_REACTORS
330
C
102
}
330
C
100
AcDbDictionary
280
     0
281
     1
  3
Model
350
22
  3
ﾚｲｱｳﾄ1
350
1E
  3
ﾚｲｱｳﾄ2
350
26
  0
LAYOUT
  5
22
102
{ACAD_REACTORS
330
1A
102
}
330
1A
100
AcDbPlotSettings
  1

  2

  4

  6

 40
0.0
 41
0.0
 42
0.0
 43
0.0
 44
0.0
 45
0.0
 46
0.0
 47
0.0
 48
0.0
 49
0.0
140
0.0
141
0.0
142
1.0
143
1.0
 70
  1712
 72
     0
 73
     0
 74
     0
  7

 75
     0
147
1.0
148
0.0
149
0.0
100
AcDbLayout
  1
Model
 70
     1
 71
     0
 10
0.0
 20
0.0
 11
0.0
 21
0.0
 12
0.0
 22
0.0
 32
0.0
 14
0.0
 24
0.0
 34
0.0
 15
0.0
 25
0.0
 35
0.0
146
0.0
 13
0.0
 23
0.0
 33
0.0
 16
1.0
 26
0.0
 36
0.0
 17
0.0
 27
1.0
 37
0.0
 76
     0
330
1F
331
0
345
0
346
0
  0
LAYOUT
  5
1E
102
{ACAD_REACTORS
330
1A
102
}
330
1A
100
AcDbPlotSettings
  1

  2

  4

  6

 40
0.0
 41
0.0
 42
0.0
 43
0.0
 44
0.0
 45
0.0
 46
0.0
 47
0.0
 48
0.0
 49
0.0
140
0.0
141
0.0
142
1.0
143
1.0
 70
   688
 72
     0
 73
     0
 74
     5
  7

 75
    16
147
1.0
148
0.0
149
0.0
100
AcDbLayout
  1
ﾚｲｱｳﾄ1
 70
     1
 71
     1
 10
0.0
 20
0.0
 11
0.0
 21
0.0
 12
0.0
 22
0.0
 32
0.0
 14
0.0
 24
0.0
 34
0.0
 15
0.0
 25
0.0
 35
0.0
146
0.0
 13
0.0
 23
0.0
 33
0.0
 16
1.0
 26
0.0
 36
0.0
 17
0.0
 27
1.0
 37
0.0
 76
     0
330
1B
331
0
345
0
346
0
  0
LAYOUT
  5
26
102
{ACAD_REACTORS
330
1A
102
}
330
1A
100
AcDbPlotSettings
  1

  2

  4

  6

 40
0.0
 41
0.0
 42
0.0
 43
0.0
 44
0.0
 45
0.0
 46
0.0
 47
0.0
 48
0.0
 49
0.0
140
0.0
141
0.0
142
1.0
143
1.0
 70
   688
 72
     0
 73
     0
 74
     5
  7

 75
    16
147
1.0
148
0.0
149
0.0
100
AcDbLayout
  1
ﾚｲｱｳﾄ2
 70
     1
 71
     2
 10
0.0
 20
0.0
 11
0.0
 21
0.0
 12
0.0
 22
0.0
 32
0.0
 14
0.0
 24
0.0
 34
0.0
 15
0.0
 25
0.0
 35
0.0
146
0.0
 13
0.0
 23
0.0
 33
0.0
 16
1.0
 26
0.0
 36
0.0
 17
0.0
 27
1.0
 37
0.0
 76
     0
330
23
331
0
345
0
346
0
  0
DICTIONARY
  5
17
102
{ACAD_REACTORS
330
C
102
}
330
C
100
AcDbDictionary
280
     0
281
     1
  3
Standard
350
18
  0
MLINESTYLE
  5
18
102
{ACAD_REACTORS
330
17
102
}
330
17
100
AcDbMlineStyle
  2
STANDARD
 70
     0
  3

 62
   256
 51
90.0
 52
90.0
 71
     2
 49
0.5
 62
   256
  6
ByLayer
 49
-0.5
 62
   256
  6
ByLayer
  0
DICTIONARY
  5
19
102
{ACAD_REACTORS
330
C
102
}
330
C
100
AcDbDictionary
280
     0
281
     1
  0
ACDBDICTIONARYWDFLT
  5
E
330
C
100
AcDbDictionary
281
     0
  3
Normal
350
F
100
AcDbDictionaryWithDefault
340
F
  0
ACDBPLACEHOLDER
  5
F
102
{ACAD_REACTORS
330
E
102
}
330
E
  0
ENDSEC
  0
EOF
