  0
SECTION
  2
HEADER
  9
$ACADVER
  1
AC1009
  9
$INSBASE
 10
0.0
 20
0.0
 30
0.0
  9
$EXTMIN
 10
-450.02746372486871
 20
-673.98230819777791
 30
-0.0015258207003583
  9
$EXTMAX
 10
450.02746791582013
 20
664.16801378504169
 30
0.0000000349246037
  9
$LIMMIN
 10
0.0
 20
0.0
  9
$LIMMAX
 10
0.0
 20
0.0
  9
$ORTHOMODE
 70
     0
  9
$REGENMODE
 70
     1
  9
$FILLMODE
 70
     1
  9
$QTEXTMODE
 70
     0
  9
$MIRRTEXT
 70
     1
  9
$DRAGMODE
 70
     2
  9
$LTSCALE
 40
25.399999999999999
  9
$OSMODE
 70
   231
  9
$ATTMODE
 70
     1
  9
$TEXTSIZE
 40
0.0
  9
$TRACEWID
 40
1.0
  9
$TEXTSTYLE
  7
STANDARD
  9
$CLAYER
  8
DATA
  9
$CELTYPE
  6
BYLAYER
  9
$CECOLOR
 62
   256
  9
$DIMSCALE
 40
1.0
  9
$DIMASZ
 40
0.18
  9
$DIMEXO
 40
0.0625
  9
$DIMDLI
 40
0.38
  9
$DIMRND
 40
0.0
  9
$DIMDLE
 40
0.0
  9
$DIMEXE
 40
0.18
  9
$DIMTP
 40
0.0
  9
$DIMTM
 40
0.0
  9
$DIMTXT
 40
0.18
  9
$DIMCEN
 40
0.09
  9
$DIMTSZ
 40
0.0
  9
$DIMTOL
 70
     0
  9
$DIMLIM
 70
     0
  9
$DIMTIH
 70
     1
  9
$DIMTOH
 70
     1
  9
$DIMSE1
 70
     0
  9
$DIMSE2
 70
     0
  9
$DIMTAD
 70
     0
  9
$DIMZIN
 70
     0
  9
$DIMBLK
  1

  9
$DIMASO
 70
     1
  9
$DIMSHO
 70
     1
  9
$DIMPOST
  1

  9
$DIMAPOST
  1

  9
$DIMALT
 70
     0
  9
$DIMALTD
 70
     2
  9
$DIMALTF
 40
25.399999999999999
  9
$DIMLFAC
 40
1.0
  9
$DIMTOFL
 70
     0
  9
$DIMTVP
 40
0.0
  9
$DIMTIX
 70
     0
  9
$DIMSOXD
 70
     0
  9
$DIMSAH
 70
     0
  9
$DIMBLK1
  1

  9
$DIMBLK2
  1

  9
$DIMSTYLE
  2
STANDARD
  9
$DIMCLRD
 70
     0
  9
$DIMCLRE
 70
     0
  9
$DIMCLRT
 70
     0
  9
$DIMTFAC
 40
1.0
  9
$DIMGAP
 40
0.09
  9
$LUNITS
 70
     2
  9
$LUPREC
 70
     4
  9
$SKETCHINC
 40
0.1
  9
$FILLETRAD
 40
0.0
  9
$AUNITS
 70
     0
  9
$AUPREC
 70
     0
  9
$MENU
  1
acad
  9
$ELEVATION
 40
0.0
  9
$PELEVATION
 40
0.0
  9
$THICKNESS
 40
0.0
  9
$LIMCHECK
 70
     0
  9
$BLIPMODE
 70
     0
  9
$CHAMFERA
 40
0.0
  9
$CHAMFERB
 40
0.0
  9
$SKPOLY
 70
     0
  9
$TDCREATE
 40
2456148.709131944
  9
$TDUPDATE
 40
2456148.7149149878
  9
$TDINDWG
 40
0.0002998843
  9
$TDUSRTIMER
 40
0.0002998843
  9
$USRTIMER
 70
     1
  9
$ANGBASE
 50
0.0
  9
$ANGDIR
 70
     0
  9
$PDMODE
 70
     1
  9
$PDSIZE
 40
-2.0
  9
$PLINEWID
 40
0.0
  9
$COORDS
 70
     2
  9
$SPLFRAME
 70
     0
  9
$SPLINETYPE
 70
     6
  9
$SPLINESEGS
 70
     8
  9
$ATTDIA
 70
     0
  9
$ATTREQ
 70
     1
  9
$HANDLING
 70
     1
  9
$HANDSEED
  5
420
  9
$SURFTAB1
 70
     6
  9
$SURFTAB2
 70
     6
  9
$SURFTYPE
 70
     6
  9
$SURFU
 70
     6
  9
$SURFV
 70
     6
  9
$UCSNAME
  2

  9
$UCSORG
 10
0.0
 20
0.0
 30
0.0
  9
$UCSXDIR
 10
1.0
 20
0.0
 30
0.0
  9
$UCSYDIR
 10
0.0
 20
1.0
 30
0.0
  9
$PUCSNAME
  2

  9
$PUCSORG
 10
0.0
 20
0.0
 30
0.0
  9
$PUCSXDIR
 10
1.0
 20
0.0
 30
0.0
  9
$PUCSYDIR
 10
0.0
 20
1.0
 30
0.0
  9
$USERI1
 70
     0
  9
$USERI2
 70
     0
  9
$USERI3
 70
     0
  9
$USERI4
 70
     0
  9
$USERI5
 70
     0
  9
$USERR1
 40
0.0
  9
$USERR2
 40
0.0
  9
$USERR3
 40
0.0
  9
$USERR4
 40
0.0
  9
$USERR5
 40
0.0
  9
$WORLDVIEW
 70
     1
  9
$SHADEDGE
 70
     3
  9
$SHADEDIF
 70
    70
  9
$TILEMODE
 70
     1
  9
$MAXACTVP
 70
    64
  9
$PLIMCHECK
 70
     0
  9
$PEXTMIN
 10
1.0000000000000000E+020
 20
1.0000000000000000E+020
 30
1.0000000000000000E+020
  9
$PEXTMAX
 10
-1.0000000000000000E+020
 20
-1.0000000000000000E+020
 30
-1.0000000000000000E+020
  9
$PLIMMIN
 10
0.0
 20
0.0
  9
$PLIMMAX
 10
12.0
 20
9.0
  9
$UNITMODE
 70
     0
  9
$VISRETAIN
 70
     0
  9
$PLINEGEN
 70
     1
  9
$PSLTSCALE
 70
     0
  0
ENDSEC
  0
SECTION
  2
TABLES
  0
TABLE
  2
VPORT
 70
     1
  0
VPORT
  2
*ACTIVE
 70
     0
 10
0.0
 20
0.0
 11
1.0
 21
1.0
 12
0.0000020954756792
 22
-4.9071472063681076
 13
0.0
 23
0.0
 14
1.0
 24
1.0
 15
0.0
 25
0.0
 16
0.0
 26
0.0
 36
1.0
 17
0.0
 27
0.0
 37
0.0
 40
1348.700784442605
 41
2.1881578947368419
 42
50.0
 43
0.0
 44
0.0
 50
0.0
 51
0.0
 71
     0
 72
  2000
 73
     1
 74
     1
 75
     0
 76
     0
 77
     0
 78
     0
  0
ENDTAB
  0
TABLE
  2
LTYPE
 70
    12
  0
LTYPE
  2
CONTINUOUS
 70
     0
  3
Solid line
 72
    65
 73
     0
 40
0.0
  0
LTYPE
  2
PHANTOM2
 70
     0
  3
___ _ _ ___ _ _ ___ _ _ ___ _ _
 72
    65
 73
     6
 40
1.25
 49
0.625
 49
-0.125
 49
0.125
 49
-0.125
 49
0.125
 49
-0.125
  0
LTYPE
  2
STYLE_05
 70
     0
  3

 72
    65
 73
     2
 40
0.208282470703125
 49
0.069427490234375
 49
-0.13885498046875
  0
ENDTAB
  0
TABLE
  2
LAYER
 70
     5
  0
LAYER
  2
0
 70
     0
 62
     7
  6
CONTINUOUS
  0
LAYER
  2
DATA
 70
     0
 62
     7
  6
CONTINUOUS
  0
LAYER
  2
HIBINO-BASE
 70
     0
 62
     7
  6
CONTINUOUS
  0
LAYER
  2
SPEC
 70
     0
 62
     7
  6
CONTINUOUS
  0
LAYER
  2
DIMNSIONS
 70
     0
 62
     7
  6
CONTINUOUS
  0
ENDTAB
  0
TABLE
  2
STYLE
 70
     3
  0
STYLE
  2
STANDARD
 70
     0
 40
0.0
 41
1.0
 50
0.0
 71
     0
 42
0.0
  3
txt
  4
BIGFONT.SHX
  0
ENDTAB
  0
TABLE
  2
VIEW
 70
     0
  0
ENDTAB
  0
TABLE
  2
UCS
 70
     0
  0
ENDTAB
  0
TABLE
  2
APPID
 70
     4
  0
APPID
  2
ACAD
 70
     0
  0
APPID
  2
ACADANNOTATIVE
 70
     0
  0
APPID
  2
ACAD_NAV_VCDISPLAY
 70
     0
  0
APPID
  2
ACAD_MLEADERVER
 70
     0
  0
ENDTAB
  0
TABLE
  2
DIMSTYLE
 70
     2
  0
DIMSTYLE
  2
STANDARD
 70
     0
  3

  4

  5

  6

  7

 40
1.0
 41
0.18
 42
0.0625
 43
0.38
 44
0.18
 45
0.0
 46
0.0
 47
0.0
 48
0.0
140
0.18
141
0.09
142
0.0
143
25.399999999999999
144
1.0
145
0.0
146
1.0
147
0.09
 71
     0
 72
     0
 73
     1
 74
     1
 75
     0
 76
     0
 77
     0
 78
     0
170
     0
171
     2
172
     0
173
     0
174
     0
175
     0
176
     0
177
     0
178
     0
  0
ENDTAB
  0
ENDSEC
  0
SECTION
  2
BLOCKS
  0
BLOCK
  8
0
  2
$MODEL_SPACE
 70
     0
 10
0.0
 20
0.0
 30
0.0
  3
$MODEL_SPACE
  1

  0
ENDBLK
  5
39A
  8
0
  0
BLOCK
 67
     1
  8
0
  2
$PAPER_SPACE
 70
     0
 10
0.0
 20
0.0
 30
0.0
  3
$PAPER_SPACE
  1

  0
ENDBLK
  5
396
 67
     1
  8
0
  0
ENDSEC
  0
SECTION
  2
ENTITIES
  0
LINE
  5
2C
  8
HIBINO-BASE
  6
CONTINUOUS
 62
     7
 10
-450.0
 20
664.12725999999986
 30
0.0
 11
450.0
 21
664.12725999999986
 31
0.0
  0
LINE
  5
2D
  8
HIBINO-BASE
  6
CONTINUOUS
 62
     7
 10
450.0
 20
-635.87274000000002
 30
0.0
 11
-450.0
 21
-635.87274000000002
 31
0.0
  0
LINE
  5
2E
  8
HIBINO-BASE
  6
CONTINUOUS
 62
     7
 10
-450.0
 20
-635.87274000000002
 30
0.0
 11
-450.0
 21
664.12725999999986
 31
0.0
  0
TEXT
  5
2F
  8
HIBINO-BASE
 62
     7
 10
-414.07999999999993
 20
-667.91612899999984
 30
0.0
 40
18.00022089843749
  1
Hibino Corporation
 41
0.7
 11
-414.07999999999993
 21
-649.91590810156231
 31
0.0
 73
     3
  0
LINE
  5
30
  8
HIBINO-BASE
  6
CONTINUOUS
 62
     7
 10
450.0
 20
664.12725999999986
 30
0.0
 11
450.0
 21
-635.87274000000002
 31
0.0
  0
LINE
  5
31
  8
HIBINO-BASE
  6
CONTINUOUS
 62
     7
 10
0.0
 20
-523.37274000000002
 30
0.0
 11
450.0
 21
-523.37274000000002
 31
0.0
  0
LINE
  5
32
  8
HIBINO-BASE
  6
CONTINUOUS
 62
     7
 10
0.0
 20
-635.87274000000002
 30
0.0
 11
0.0
 21
-523.37274000000002
 31
0.0
  0
TEXT
  5
33
  8
HIBINO-BASE
 62
     7
 10
4.4999999999999991
 20
-535.91620666666665
 30
0.0
 40
8.1442057291666661
  1
NOTE
 41
0.7
 11
4.5
 21
-527.77200093750002
 31
0.0
 73
     3
  0
LINE
  5
34
  8
HIBINO-BASE
  6
CONTINUOUS
 62
     7
 10
175.0
 20
-635.87274000000002
 30
0.0
 11
175.0
 21
-523.37274000000002
 31
0.0
  0
TEXT
  5
35
  8
HIBINO-BASE
 62
     7
 10
179.5
 20
-535.91620666666665
 30
0.0
 40
8.1442057291666661
  1
TITLE
 41
0.7
 11
179.5
 21
-527.77200093750002
 31
0.0
 73
     3
  0
TEXT
  5
36
  8
HIBINO-BASE
 62
     7
 10
250.34195
 20
-667.91612899999984
 30
0.0
 40
18.00022089843749
  1
ヒビノ株式会社
 41
0.7
 11
250.34195
 21
-649.91590810156231
 31
0.0
 73
     3
  0
LINE
  5
37
  8
HIBINO-BASE
  6
CONTINUOUS
 62
     7
 10
0.0
 20
-585.87274000000002
 30
0.0
 11
450.0
 21
-585.87274000000002
 31
0.0
  0
TEXT
  5
38
  8
HIBINO-BASE
 62
     7
 10
242.0
 20
-598.13460666666663
 30
0.0
 40
8.1442057291666661
  1
DRAWN
 41
0.7
 11
242.0
 21
-589.99040093749989
 31
0.0
 73
     3
  0
TEXT
  5
39
  8
HIBINO-BASE
 62
     7
 10
117.0
 20
-598.13460666666663
 30
0.0
 40
8.1442057291666661
  1
DATE
 41
0.7
 11
117.0
 21
-589.99040093749989
 31
0.0
 73
     3
  0
TEXT
  5
3A
  8
HIBINO-BASE
 62
     7
 10
67.0
 20
-598.13460666666663
 30
0.0
 40
8.1442057291666661
  1
SCALE
 41
0.7
 11
67.0
 21
-589.99040093749989
 31
0.0
 73
     3
  0
TEXT
  5
3B
  8
HIBINO-BASE
 62
     7
 10
179.5
 20
-598.13460666666663
 30
0.0
 40
8.1442057291666661
  1
DESIGN
 41
0.7
 11
179.5
 21
-589.99040093749989
 31
0.0
 73
     3
  0
TEXT
  5
3C
  8
HIBINO-BASE
 62
     7
 10
367.0
 20
-598.13460666666663
 30
0.0
 40
8.1442057291666661
  1
DRAWING NO.
 41
0.7
 11
367.0
 21
-589.99040093749989
 31
0.0
 73
     3
  0
TEXT
  5
3D
  8
HIBINO-BASE
 62
     7
 10
304.49999999999989
 20
-598.13460666666663
 30
0.0
 40
8.1442057291666661
  1
CHECK
 41
0.7
 11
304.49999999999989
 21
-589.99040093749989
 31
0.0
 73
     3
  0
LINE
  5
3E
  8
HIBINO-BASE
  6
CONTINUOUS
 62
     7
 10
71.874999999999986
 20
-629.62274000000002
 30
0.0
 11
90.625
 21
-610.87274000000002
 31
0.0
  0
TEXT
  5
3F
  8
HIBINO-BASE
 62
     7
 10
68.749999999999986
 20
-616.41745666666645
 30
0.0
 40
8.1442057291666661
  1
1
 41
0.7
 11
68.749999999999986
 21
-608.27325093749982
 31
0.0
 73
     3
  0
LINE
  5
40
  8
HIBINO-BASE
  6
CONTINUOUS
 62
     7
 10
62.5
 20
-635.87274000000002
 30
0.0
 11
62.5
 21
-585.87274000000002
 31
0.0
  0
LINE
  5
41
  8
HIBINO-BASE
  6
CONTINUOUS
 62
     7
 10
112.5
 20
-635.87274000000002
 30
0.0
 11
112.5
 21
-585.87274000000002
 31
0.0
  0
LINE
  5
42
  8
HIBINO-BASE
  6
CONTINUOUS
 62
     7
 10
237.5
 20
-585.87274000000002
 30
0.0
 11
237.5
 21
-635.87274000000002
 31
0.0
  0
LINE
  5
43
  8
HIBINO-BASE
  6
CONTINUOUS
 62
     7
 10
362.5
 20
-585.87274000000002
 30
0.0
 11
362.5
 21
-635.87274000000002
 31
0.0
  0
LINE
  5
44
  8
HIBINO-BASE
  6
CONTINUOUS
 62
     7
 10
300.0
 20
-635.87274000000002
 30
0.0
 11
300.0
 21
-585.87274000000002
 31
0.0
  0
TEXT
  5
45
  8
HIBINO-BASE
 62
     7
 10
116.78270000000001
 20
-621.55450666666638
 30
0.0
 40
8.1442057291666661
  1
'12.08.
 41
0.7
 11
116.78270000000001
 21
-613.41030093749987
 31
0.0
 73
     3
  0
TEXT
  5
46
  8
HIBINO-BASE
 62
     7
 10
87.5
 20
-625.79245666666645
 30
0.0
 40
8.1442057291666661
  1
5
 41
0.7
 11
87.5
 21
-617.64825093749982
 31
0.0
 73
     3
  0
TEXT
  5
47
  8
HIBINO-BASE
 62
     7
 10
245.02905005517309
 20
-621.55450666666638
 30
0.0
 40
8.1442057291666661
  1
Ootake
 41
0.7
 11
245.02905005517309
 21
-613.41030093749987
 31
0.0
 73
     3
  0
TEXT
  5
48
  8
HIBINO-BASE
 62
     7
 10
19.416666666666739
 20
-625.99274000000014
 30
0.0
 40
16.288411458333329
  1
A4
 41
0.7
 11
19.416666666666739
 21
-609.70432854166665
 31
0.0
 73
     3
  0
TEXT
  5
49
  8
HIBINO-BASE
 62
     7
 10
4.791666666666659
 20
-598.97001499999965
 30
0.0
 40
8.1442057291666661
  1
PAPER SIZE
 41
0.7
 11
4.7916666666666599
 21
-590.82580927083313
 31
0.0
 73
     3
  0
LINE
  5
4A
  8
SPEC
  6
CONTINUOUS
 62
     7
 10
-412.5
 20
614.12725999999986
 30
0.0
 11
325.0
 21
614.12725999999986
 31
0.0
  0
LINE
  5
4B
  8
SPEC
  6
CONTINUOUS
 62
     7
 10
-412.5
 20
595.37725999999986
 30
0.0
 11
325.0
 21
595.37725999999986
 31
0.0
  0
LINE
  5
4C
  8
SPEC
  6
CONTINUOUS
 62
     7
 10
-412.5
 20
576.62725999999986
 30
0.0
 11
325.0
 21
576.62725999999986
 31
0.0
  0
LINE
  5
4D
  8
SPEC
  6
CONTINUOUS
 62
     7
 10
-412.5
 20
614.12725999999986
 30
0.0
 11
-412.5
 21
557.87725999999986
 31
0.0
  0
TEXT
  5
4E
  8
SPEC
 62
     7
 10
-406.25
 20
621.09361000000001
 30
0.0
 40
12.21630859375
  1
仕様
 41
0.7
 11
-406.25
 21
633.3099185937499
 31
0.0
 73
     3
  0
LINE
  5
4F
  8
SPEC
  6
CONTINUOUS
 62
     7
 10
-250.0
 20
614.12725999999986
 30
0.0
 11
-250.0
 21
557.87725999999986
 31
0.0
  0
LINE
  5
50
  8
SPEC
  6
CONTINUOUS
 62
     7
 10
325.0
 20
614.12725999999986
 30
0.0
 11
325.0
 21
557.87725999999986
 31
0.0
  0
TEXT
  5
51
  8
SPEC
 62
     7
 10
-408.59816033061321
 20
599.94615683620475
 30
0.0
 40
9.5015562499999984
  1
寸法
 41
0.7
 11
-408.59816033061321
 21
609.44771308620466
 31
0.0
 73
     3
  0
TEXT
  5
52
  8
SPEC
 62
     7
 10
-408.42674691619112
 20
581.62361840034123
 30
0.0
 40
9.5015562499999984
  1
重量
 41
0.7
 11
-408.42674691619112
 21
591.12517465034125
 31
0.0
 73
     3
  0
TEXT
  5
53
  8
SPEC
 62
     7
 10
-246.08823258696009
 20
599.87205135314878
 30
0.0
 40
9.5015562499999984
  1
122(W)\U+00D7361(H)\U+00D7163(D)mm
 41
0.7
 11
-246.08823258696009
 21
609.37360760314891
 31
0.0
 73
     3
  0
TEXT
  5
54
  8
SPEC
 62
     7
 10
-245.72543205756671
 20
581.53693386149007
 30
0.0
 40
9.5015562499999984
  1
約700g
 41
0.7
 11
-245.72543205756671
 21
591.03849011149009
 31
0.0
 73
     3
  0
LINE
  5
55
  8
SPEC
  6
CONTINUOUS
 62
     7
 10
-412.5
 20
557.87725999999986
 30
0.0
 11
325.0
 21
557.87725999999986
 31
0.0
  0
TEXT
  5
56
  8
SPEC
 62
     7
 10
-408.55159700468857
 20
562.59703760227546
 30
0.0
 40
9.5015562499999984
  1
ケーブル長さ
 41
0.7
 11
-408.55159700468857
 21
572.0985938522756
 31
0.0
 73
     3
  0
TEXT
  5
57
  8
SPEC
 62
     7
 10
-245.47692305400989
 20
562.41348200334187
 30
0.0
 40
9.5015562499999984
  1
3m
 41
0.7
 11
-245.47692305400989
 21
571.915038253342
 31
0.0
 73
     3
  0
TEXT
  5
58
  8
DIMNSIONS
 62
     7
 10
-100.0
 20
-574.52528999999993
 30
0.0
 40
12.21630859375
  1
(単位：mm)
 41
0.7
 11
-100.0
 21
-562.30898140624993
 31
0.0
 73
     3
  0
LINE
  5
59
  8
DIMNSIONS
  6
CONTINUOUS
 62
     7
 10
-250.00595288170001
 20
20.0
 30
0.0
 11
-310.0059528816999
 21
20.0
 31
0.0
  0
LINE
  5
5A
  8
DIMNSIONS
  6
CONTINUOUS
 62
     7
 10
-250.00595288170001
 20
183.0
 30
0.0
 11
-310.0059528816999
 21
183.0
 31
0.0
  0
LINE
  5
5B
  8
DIMNSIONS
  6
CONTINUOUS
 62
     7
 10
-300.00595288170001
 20
20.0
 30
0.0
 11
-300.00595288170001
 21
183.0
 31
0.0
  0
LINE
  5
5C
  8
DIMNSIONS
  6
CONTINUOUS
 62
     7
 10
-300.00595288170001
 20
20.0
 30
0.0
 11
-303.3561518574511
 21
32.50311279296875
 31
0.0
  0
LINE
  5
5D
  8
DIMNSIONS
  6
CONTINUOUS
 62
     7
 10
-300.00595288170001
 20
20.0
 30
0.0
 11
-296.65575390594881
 21
32.50311279296875
 31
0.0
  0
LINE
  5
5E
  8
DIMNSIONS
  6
CONTINUOUS
 62
     7
 10
-300.00595288170001
 20
183.0
 30
0.0
 11
-296.65575390594881
 21
170.49688720703119
 31
0.0
  0
LINE
  5
5F
  8
DIMNSIONS
  6
CONTINUOUS
 62
     7
 10
-300.00595288170001
 20
183.0
 30
0.0
 11
-303.3561518574511
 21
170.49688720703119
 31
0.0
  0
TEXT
  5
60
  8
DIMNSIONS
 62
     7
 10
-304.97539743653721
 20
88.270833333333314
 30
0.0
 40
13.57367682206846
  1
163
 50
90.0
 41
0.7
 11
-318.54907425860569
 21
88.270833333333314
 31
0.0
 73
     3
  0
LINE
  5
61
  8
DIMNSIONS
  6
CONTINUOUS
 62
     7
 10
-240.00595288170001
 20
193.0
 30
0.0
 11
-240.00595288170001
 21
250.0
 31
0.0
  0
LINE
  5
62
  8
DIMNSIONS
  6
CONTINUOUS
 62
     7
 10
-118.0059528817
 20
193.0
 30
0.0
 11
-118.0059528817
 21
250.0
 31
0.0
  0
LINE
  5
63
  8
DIMNSIONS
  6
CONTINUOUS
 62
     7
 10
-240.00595288170001
 20
240.0
 30
0.0
 11
-118.0059528817
 21
240.0
 31
0.0
  0
LINE
  5
64
  8
DIMNSIONS
  6
CONTINUOUS
 62
     7
 10
-240.00595288170001
 20
240.0
 30
0.0
 11
-227.5028400887312
 21
243.3501989757512
 31
0.0
  0
LINE
  5
65
  8
DIMNSIONS
  6
CONTINUOUS
 62
     7
 10
-240.00595288170001
 20
240.0
 30
0.0
 11
-227.5028400887312
 21
236.6498010242488
 31
0.0
  0
LINE
  5
66
  8
DIMNSIONS
  6
CONTINUOUS
 62
     7
 10
-118.0059528817
 20
240.0
 30
0.0
 11
-130.5090656746687
 21
236.6498010242488
 31
0.0
  0
LINE
  5
67
  8
DIMNSIONS
  6
CONTINUOUS
 62
     7
 10
-118.0059528817
 20
240.0
 30
0.0
 11
-130.5090656746687
 21
243.3501989757512
 31
0.0
  0
TEXT
  5
68
  8
DIMNSIONS
 62
     7
 10
-192.2351195483667
 20
244.9694445548372
 30
0.0
 40
13.57367682206846
  1
122
 41
0.7
 11
-192.2351195483667
 21
258.54312137690567
 31
0.0
 73
     3
  0
LINE
  5
69
  8
DIMNSIONS
  6
CONTINUOUS
 62
     7
 10
-250.00595288170001
 20
-420.0
 30
0.0
 11
-310.0059528816999
 21
-420.0
 31
0.0
  0
LINE
  5
6A
  8
DIMNSIONS
  6
CONTINUOUS
 62
     7
 10
-189.00595288170001
 20
-59.000000000000021
 30
0.0
 11
-310.0059528816999
 21
-59.000000000000021
 31
0.0
  0
LINE
  5
6B
  8
DIMNSIONS
  6
CONTINUOUS
 62
     7
 10
-300.00595288170001
 20
-420.0
 30
0.0
 11
-300.00595288170001
 21
-59.000000000000021
 31
0.0
  0
LINE
  5
6C
  8
DIMNSIONS
  6
CONTINUOUS
 62
     7
 10
-300.00595288170001
 20
-420.0
 30
0.0
 11
-303.3561518574511
 21
-407.49688720703119
 31
0.0
  0
LINE
  5
6D
  8
DIMNSIONS
  6
CONTINUOUS
 62
     7
 10
-300.00595288170001
 20
-420.0
 30
0.0
 11
-296.65575390594881
 21
-407.49688720703119
 31
0.0
  0
LINE
  5
6E
  8
DIMNSIONS
  6
CONTINUOUS
 62
     7
 10
-300.00595288170001
 20
-59.000000000000021
 30
0.0
 11
-296.65575390594881
 21
-71.503112792968778
 31
0.0
  0
LINE
  5
6F
  8
DIMNSIONS
  6
CONTINUOUS
 62
     7
 10
-300.00595288170001
 20
-59.000000000000021
 30
0.0
 11
-303.3561518574511
 21
-71.503112792968778
 31
0.0
  0
TEXT
  5
70
  8
DIMNSIONS
 62
     7
 10
-304.97539747333491
 20
-252.7291675077544
 30
0.0
 40
13.57367702433203
  1
361
 50
90.0
 41
0.7
 11
-318.54907449766688
 21
-252.7291675077544
 31
0.0
 73
     3
  0
LINE
  5
71
  8
DIMNSIONS
  6
CONTINUOUS
 62
     7
 10
-260.0059528816999
 20
-420.0
 30
0.0
 11
-280.00595288170001
 21
-420.0
 31
0.0
  0
LINE
  5
72
  8
DIMNSIONS
  6
CONTINUOUS
 62
     7
 10
-242.29489724168991
 20
-369.0
 30
0.0
 11
-280.00595288170001
 21
-369.0
 31
0.0
  0
LINE
  5
73
  8
DIMNSIONS
  6
CONTINUOUS
 62
     7
 10
-270.0059528816999
 20
-420.0
 30
0.0
 11
-270.0059528816999
 21
-369.0
 31
0.0
  0
LINE
  5
74
  8
DIMNSIONS
  6
CONTINUOUS
 62
     7
 10
-270.0059528816999
 20
-420.0
 30
0.0
 11
-273.35615185745121
 21
-407.49688720703119
 31
0.0
  0
LINE
  5
75
  8
DIMNSIONS
  6
CONTINUOUS
 62
     7
 10
-270.0059528816999
 20
-420.0
 30
0.0
 11
-266.65575390594881
 21
-407.49688720703119
 31
0.0
  0
LINE
  5
76
  8
DIMNSIONS
  6
CONTINUOUS
 62
     7
 10
-270.0059528816999
 20
-369.0
 30
0.0
 11
-266.65575390594881
 21
-381.50311279296881
 31
0.0
  0
LINE
  5
77
  8
DIMNSIONS
  6
CONTINUOUS
 62
     7
 10
-270.0059528816999
 20
-369.0
 30
0.0
 11
-273.35615185745121
 21
-381.50311279296881
 31
0.0
  0
TEXT
  5
78
  8
DIMNSIONS
 62
     7
 10
-274.97539747333479
 20
-403.31944528553208
 30
0.0
 40
13.57367702433203
  1
51
 50
90.0
 41
0.7
 11
-288.54907449766682
 21
-403.31944528553208
 31
0.0
 73
     3
  0
LINE
  5
79
  8
DIMNSIONS
  6
CONTINUOUS
 62
     7
 10
-235.00595288170001
 20
-422.0
 30
0.0
 11
-310.0
 21
-422.0
 31
0.0
  0
LINE
  5
7A
  8
DIMNSIONS
  6
CONTINUOUS
 62
     7
 10
-260.0059528816999
 20
-420.0
 30
0.0
 11
-310.0
 21
-420.0
 31
0.0
  0
LINE
  5
7B
  8
DIMNSIONS
  6
CONTINUOUS
 62
     7
 10
-300.0
 20
-420.0
 30
0.0
 11
-300.0
 21
-422.0
 31
0.0
  0
LINE
  5
7C
  8
DIMNSIONS
  6
CONTINUOUS
 62
     7
 10
-300.0
 20
-422.0
 30
0.0
 11
-300.0
 21
-447.81944528553208
 31
0.0
  0
LINE
  5
7D
  8
DIMNSIONS
  6
CONTINUOUS
 62
     7
 10
-300.0
 20
-422.0
 30
0.0
 11
-296.6498010242488
 21
-434.50311279296869
 31
0.0
  0
LINE
  5
7E
  8
DIMNSIONS
  6
CONTINUOUS
 62
     7
 10
-300.0
 20
-422.0
 30
0.0
 11
-303.3501989757512
 21
-434.50311279296869
 31
0.0
  0
LINE
  5
7F
  8
DIMNSIONS
  6
CONTINUOUS
 62
     7
 10
-300.0
 20
-420.0
 30
0.0
 11
-300.0
 21
-395.0
 31
0.0
  0
LINE
  5
80
  8
DIMNSIONS
  6
CONTINUOUS
 62
     7
 10
-300.0
 20
-420.0
 30
0.0
 11
-303.3501989757512
 21
-407.49688720703119
 31
0.0
  0
LINE
  5
81
  8
DIMNSIONS
  6
CONTINUOUS
 62
     7
 10
-300.0
 20
-420.0
 30
0.0
 11
-296.6498010242488
 21
-407.49688720703119
 31
0.0
  0
TEXT
  5
82
  8
DIMNSIONS
 62
     7
 10
-304.9694445916349
 20
-447.81944528553208
 30
0.0
 40
13.57367702433203
  1
2
 50
90.0
 41
0.7
 11
-318.54312161596692
 21
-447.81944528553208
 31
0.0
 73
     3
  0
TEXT
  5
83
  8
DATA
 62
     7
 10
250.0
 20
-580.2182899999998
 30
0.0
 40
12.21630859375
  1
CSPM-4
 41
0.7
 11
250.0
 21
-568.0019814062498
 31
0.0
 73
     3
  0
TEXT
  5
84
  8
DATA
 62
     7
 10
250.0
 20
-543.96828999999991
 30
0.0
 40
12.21630859375
  1
JBL
 41
0.7
 11
250.0
 21
-531.75198140624991
 31
0.0
 73
     3
  0
TEXT
  5
85
  8
DATA
 62
     7
 10
237.5
 20
-561.35307099999989
 30
0.0
 40
8.1442185546874981
  1
アナウンス用マイクロホン
 41
0.7
 11
237.5
 21
-553.20885244531235
 31
0.0
 73
     3
  0
TEXT
  5
86
  8
DATA
 62
     7
 10
-400.0
 20
-614.68273999999985
 30
0.0
 40
8.1442057291666661
  1
仕様および外観は予告なく変更されることがありますので、ご了承ください。
 41
0.7
 11
-400.0
 21
-606.53853427083334
 31
0.0
 73
     3
  0
LINE
  5
87
  8
DATA
  6
CONTINUOUS
 62
     7
 10
-234.66163521238249
 20
24.55724640725245
 30
0.0
 11
-239.87333236765099
 21
177.11783586147291
 31
0.0
  0
LINE
  5
88
  8
DATA
  6
CONTINUOUS
 62
     7
 10
-123.3502705510174
 20
24.557246407254269
 30
0.0
 11
-118.13857339574901
 21
177.11783586147379
 31
0.0
  0
ARC
  5
89
  8
DATA
  6
CONTINUOUS
 62
     7
 10
-179.00595288170001
 20
-748.24999999999989
 30
0.0
 40
931.25
 50
86.483752288509848
 51
93.516247711490152
  0
ARC
  5
8A
  8
DATA
  6
CONTINUOUS
 62
     7
 10
-235.875664341667
 20
177.25440216049711
 30
0.0
 40
4.0000000000003721
 50
93.516247711494842
 51
181.9565483725633
  0
ARC
  5
8B
  8
DATA
  6
CONTINUOUS
 62
     7
 10
-122.136241421732
 20
177.25440216049799
 30
0.0
 40
3.9999999999995448
 50
358.0434516274367
 51
86.483752288517138
  0
ARC
  5
8C
  8
DATA
  6
CONTINUOUS
 62
     7
 10
-179.00595288170001
 20
1947.4526795358699
 30
0.0
 40
1927.4526795358711
 50
268.46102679964042
 51
271.53897320035958
  0
ARC
  5
8D
  8
DATA
  6
CONTINUOUS
 62
     7
 10
-230.6639671864009
 20
24.69381270627667
 30
0.0
 40
3.9999999999980669
 50
181.9565483725635
 51
268.4610267996681
  0
ARC
  5
8E
  8
DATA
  6
CONTINUOUS
 62
     7
 10
-127.3479385770009
 20
24.69381270627855
 30
0.0
 40
4.0000000000000124
 50
271.53897320035981
 51
358.04345162743653
  0
LINE
  5
8F
  8
DATA
  6
CONTINUOUS
 62
     7
 10
-212.50595288170001
 20
123.9159711990218
 30
0.0
 11
-212.50595288170001
 21
176.30272654635041
 31
0.0
  0
LINE
  5
90
  8
DATA
  6
CONTINUOUS
 62
     7
 10
-145.5059528816999
 20
123.9159711990218
 30
0.0
 11
-145.5059528816999
 21
176.30272654635041
 31
0.0
  0
LINE
  5
91
  8
DATA
  6
CONTINUOUS
 62
     7
 10
-208.50595288170001
 20
119.9159711990217
 30
0.0
 11
-149.5059528816999
 21
119.9159711990217
 31
0.0
  0
LINE
  5
92
  8
DATA
  6
CONTINUOUS
 62
     7
 10
-208.50595288170001
 20
180.30272654635041
 30
0.0
 11
-149.5059528816999
 21
180.30272654635041
 31
0.0
  0
ARC
  5
93
  8
DATA
  6
CONTINUOUS
 62
     7
 10
-208.50595288170001
 20
123.9159711990218
 30
0.0
 40
4.0
 50
180.0
 51
270.0
  0
ARC
  5
94
  8
DATA
  6
CONTINUOUS
 62
     7
 10
-149.5059528816999
 20
123.9159711990218
 30
0.0
 40
4.0
 50
270.0
 51
0.0
  0
ARC
  5
95
  8
DATA
  6
CONTINUOUS
 62
     7
 10
-208.50595288170001
 20
176.30272654635041
 30
0.0
 40
4.0
 50
90.0
 51
180.0
  0
ARC
  5
96
  8
DATA
  6
CONTINUOUS
 62
     7
 10
-149.5059528816999
 20
176.30272654635041
 30
0.0
 40
4.0
 50
0.0
 51
90.0
  0
LINE
  5
97
  8
DATA
  6
CONTINUOUS
 62
     7
 10
-212.50595288170001
 20
113.5000000000001
 30
0.0
 11
-212.50595288170001
 21
34.500000000000121
 31
0.0
  0
LINE
  5
98
  8
DATA
  6
CONTINUOUS
 62
     7
 10
-145.5059528816999
 20
113.5000000000001
 30
0.0
 11
-145.5059528816999
 21
34.500000000000121
 31
0.0
  0
LINE
  5
99
  8
DATA
  6
CONTINUOUS
 62
     7
 10
-208.50595288170001
 20
117.5000000000001
 30
0.0
 11
-149.5059528816999
 21
117.5000000000001
 31
0.0
  0
LINE
  5
9A
  8
DATA
  6
CONTINUOUS
 62
     7
 10
-208.50595288170001
 20
30.50000000000011
 30
0.0
 11
-149.5059528816999
 21
30.50000000000011
 31
0.0
  0
ARC
  5
9B
  8
DATA
  6
CONTINUOUS
 62
     7
 10
-208.50595288170001
 20
113.5000000000001
 30
0.0
 40
4.0
 50
90.0
 51
180.0
  0
ARC
  5
9C
  8
DATA
  6
CONTINUOUS
 62
     7
 10
-149.5059528816999
 20
113.5000000000001
 30
0.0
 40
4.0
 50
0.0
 51
90.0
  0
ARC
  5
9D
  8
DATA
  6
CONTINUOUS
 62
     7
 10
-208.50595288170001
 20
34.500000000000121
 30
0.0
 40
4.0
 50
180.0
 51
270.0
  0
ARC
  5
9E
  8
DATA
  6
CONTINUOUS
 62
     7
 10
-149.5059528816999
 20
34.500000000000121
 30
0.0
 40
4.0
 50
270.0
 51
0.0
  0
LINE
  5
9F
  8
DATA
  6
CONTINUOUS
 62
     7
 10
-207.00595288170001
 20
89.500000000000114
 30
0.0
 11
-207.00595288170001
 21
104.5000000000001
 31
0.0
  0
LINE
  5
A0
  8
DATA
  6
CONTINUOUS
 62
     7
 10
-187.00595288170001
 20
104.5000000000001
 30
0.0
 11
-187.00595288170001
 21
89.500000000000114
 31
0.0
  0
LINE
  5
A1
  8
DATA
  6
CONTINUOUS
 62
     7
 10
-187.00595288170001
 20
104.5000000000001
 30
0.0
 11
-207.00595288170001
 21
104.5000000000001
 31
0.0
  0
LINE
  5
A2
  8
DATA
  6
CONTINUOUS
 62
     7
 10
-187.00595288170001
 20
89.500000000000114
 30
0.0
 11
-207.0059528817001
 21
89.500000000000114
 31
0.0
  0
POLYLINE
  5
A3
  8
DATA
  6
CONTINUOUS
 62
     7
 66
     1
 10
0.0
 20
0.0
 30
0.0
 70
     1
  0
VERTEX
  5
3CA
  8
DATA
  6
CONTINUOUS
 62
     7
 10
-204.50595288170001
 20
102.0000000000001
 30
0.0
  0
VERTEX
  5
3CB
  8
DATA
  6
CONTINUOUS
 62
     7
 10
-189.5059528816999
 20
102.0000000000001
 30
0.0
  0
VERTEX
  5
3CC
  8
DATA
  6
CONTINUOUS
 62
     7
 10
-189.5059528816999
 20
92.000000000000128
 30
0.0
  0
VERTEX
  5
3CD
  8
DATA
  6
CONTINUOUS
 62
     7
 10
-204.50595288170001
 20
92.000000000000128
 30
0.0
  0
SEQEND
  5
3CE
  8
DATA
  6
CONTINUOUS
 62
     7
  0
LINE
  5
AA
  8
DATA
  6
CONTINUOUS
 62
     7
 10
-207.00595288170001
 20
64.500000000000085
 30
0.0
 11
-207.00595288170001
 21
79.500000000000085
 31
0.0
  0
LINE
  5
AB
  8
DATA
  6
CONTINUOUS
 62
     7
 10
-187.00595288170001
 20
79.500000000000085
 30
0.0
 11
-187.00595288170001
 21
64.500000000000085
 31
0.0
  0
LINE
  5
AC
  8
DATA
  6
CONTINUOUS
 62
     7
 10
-187.00595288170001
 20
79.500000000000085
 30
0.0
 11
-207.00595288170001
 21
79.500000000000085
 31
0.0
  0
LINE
  5
AD
  8
DATA
  6
CONTINUOUS
 62
     7
 10
-187.00595288170001
 20
64.500000000000085
 30
0.0
 11
-207.0059528817001
 21
64.500000000000085
 31
0.0
  0
POLYLINE
  5
AE
  8
DATA
  6
CONTINUOUS
 62
     7
 66
     1
 10
0.0
 20
0.0
 30
0.0
 70
     1
  0
VERTEX
  5
3CF
  8
DATA
  6
CONTINUOUS
 62
     7
 10
-204.50595288170001
 20
77.000000000000085
 30
0.0
  0
VERTEX
  5
3D0
  8
DATA
  6
CONTINUOUS
 62
     7
 10
-189.5059528816999
 20
77.000000000000085
 30
0.0
  0
VERTEX
  5
3D1
  8
DATA
  6
CONTINUOUS
 62
     7
 10
-189.5059528816999
 20
67.000000000000085
 30
0.0
  0
VERTEX
  5
3D2
  8
DATA
  6
CONTINUOUS
 62
     7
 10
-204.50595288170001
 20
67.000000000000085
 30
0.0
  0
SEQEND
  5
3D3
  8
DATA
  6
CONTINUOUS
 62
     7
  0
LINE
  5
B5
  8
DATA
  6
CONTINUOUS
 62
     7
 10
-151.0059528816999
 20
89.500000000000114
 30
0.0
 11
-151.0059528816999
 21
104.5000000000001
 31
0.0
  0
LINE
  5
B6
  8
DATA
  6
CONTINUOUS
 62
     7
 10
-171.0059528816999
 20
104.5000000000001
 30
0.0
 11
-171.0059528816999
 21
89.500000000000114
 31
0.0
  0
LINE
  5
B7
  8
DATA
  6
CONTINUOUS
 62
     7
 10
-171.0059528816999
 20
104.5000000000001
 30
0.0
 11
-151.0059528816999
 21
104.5000000000001
 31
0.0
  0
LINE
  5
B8
  8
DATA
  6
CONTINUOUS
 62
     7
 10
-171.0059528816999
 20
89.500000000000114
 30
0.0
 11
-151.00595288169981
 21
89.500000000000114
 31
0.0
  0
POLYLINE
  5
B9
  8
DATA
  6
CONTINUOUS
 62
     7
 66
     1
 10
0.0
 20
0.0
 30
0.0
 70
     1
  0
VERTEX
  5
3D4
  8
DATA
  6
CONTINUOUS
 62
     7
 10
-168.5059528816999
 20
102.0000000000001
 30
0.0
  0
VERTEX
  5
3D5
  8
DATA
  6
CONTINUOUS
 62
     7
 10
-153.5059528816999
 20
102.0000000000001
 30
0.0
  0
VERTEX
  5
3D6
  8
DATA
  6
CONTINUOUS
 62
     7
 10
-153.5059528816999
 20
92.000000000000128
 30
0.0
  0
VERTEX
  5
3D7
  8
DATA
  6
CONTINUOUS
 62
     7
 10
-168.5059528816999
 20
92.000000000000128
 30
0.0
  0
SEQEND
  5
3D8
  8
DATA
  6
CONTINUOUS
 62
     7
  0
LINE
  5
C0
  8
DATA
  6
CONTINUOUS
 62
     7
 10
-151.0059528816999
 20
64.500000000000085
 30
0.0
 11
-151.0059528816999
 21
79.500000000000085
 31
0.0
  0
LINE
  5
C1
  8
DATA
  6
CONTINUOUS
 62
     7
 10
-171.0059528816999
 20
79.500000000000085
 30
0.0
 11
-171.0059528816999
 21
64.500000000000085
 31
0.0
  0
LINE
  5
C2
  8
DATA
  6
CONTINUOUS
 62
     7
 10
-171.0059528816999
 20
79.500000000000085
 30
0.0
 11
-151.0059528816999
 21
79.500000000000085
 31
0.0
  0
LINE
  5
C3
  8
DATA
  6
CONTINUOUS
 62
     7
 10
-171.0059528816999
 20
64.500000000000085
 30
0.0
 11
-151.00595288169981
 21
64.500000000000085
 31
0.0
  0
POLYLINE
  5
C4
  8
DATA
  6
CONTINUOUS
 62
     7
 66
     1
 10
0.0
 20
0.0
 30
0.0
 70
     1
  0
VERTEX
  5
3D9
  8
DATA
  6
CONTINUOUS
 62
     7
 10
-168.5059528816999
 20
77.000000000000085
 30
0.0
  0
VERTEX
  5
3DA
  8
DATA
  6
CONTINUOUS
 62
     7
 10
-153.5059528816999
 20
77.000000000000085
 30
0.0
  0
VERTEX
  5
3DB
  8
DATA
  6
CONTINUOUS
 62
     7
 10
-153.5059528816999
 20
67.000000000000085
 30
0.0
  0
VERTEX
  5
3DC
  8
DATA
  6
CONTINUOUS
 62
     7
 10
-168.5059528816999
 20
67.000000000000085
 30
0.0
  0
SEQEND
  5
3DD
  8
DATA
  6
CONTINUOUS
 62
     7
  0
LINE
  5
CB
  8
DATA
  6
CONTINUOUS
 62
     7
 10
-169.0059528816999
 20
41.500000000000107
 30
0.0
 11
-169.0059528816999
 21
56.500000000000107
 31
0.0
  0
LINE
  5
CC
  8
DATA
  6
CONTINUOUS
 62
     7
 10
-189.00595288170001
 20
56.500000000000107
 30
0.0
 11
-189.00595288170001
 21
41.500000000000107
 31
0.0
  0
LINE
  5
CD
  8
DATA
  6
CONTINUOUS
 62
     7
 10
-189.00595288170001
 20
56.500000000000107
 30
0.0
 11
-169.0059528816999
 21
56.500000000000107
 31
0.0
  0
LINE
  5
CE
  8
DATA
  6
CONTINUOUS
 62
     7
 10
-189.00595288170001
 20
41.500000000000107
 30
0.0
 11
-169.00595288169981
 21
41.500000000000107
 31
0.0
  0
POLYLINE
  5
CF
  8
DATA
  6
CONTINUOUS
 62
     7
 66
     1
 10
0.0
 20
0.0
 30
0.0
 70
     1
  0
VERTEX
  5
3DE
  8
DATA
  6
CONTINUOUS
 62
     7
 10
-186.5059528816999
 20
54.000000000000107
 30
0.0
  0
VERTEX
  5
3DF
  8
DATA
  6
CONTINUOUS
 62
     7
 10
-171.5059528816999
 20
54.000000000000107
 30
0.0
  0
VERTEX
  5
3E0
  8
DATA
  6
CONTINUOUS
 62
     7
 10
-171.5059528816999
 20
44.000000000000107
 30
0.0
  0
VERTEX
  5
3E1
  8
DATA
  6
CONTINUOUS
 62
     7
 10
-186.5059528816999
 20
44.000000000000107
 30
0.0
  0
SEQEND
  5
3E2
  8
DATA
  6
CONTINUOUS
 62
     7
  0
TEXT
  5
D6
  8
DATA
 62
     7
 10
-200.8152464747011
 20
84.977164612676944
 30
0.0
 40
2.0360515536498038
  1
ZONE 1
 41
0.7
 11
-200.8152464747011
 21
85.995190389501843
 31
0.0
 73
     2
  0
LINE
  5
D7
  8
DATA
  6
CONTINUOUS
 62
     7
 10
-209.50595288170001
 20
86.000000000000114
 30
0.0
 11
-209.50595288170001
 21
97.000000000000128
 31
0.0
  0
LINE
  5
D8
  8
DATA
  6
CONTINUOUS
 62
     7
 10
-184.50595288170001
 20
86.000000000000114
 30
0.0
 11
-184.50595288170001
 21
97.000000000000128
 31
0.0
  0
LINE
  5
D9
  8
DATA
  6
CONTINUOUS
 62
     7
 10
-184.50595288170001
 20
97.000000000000128
 30
0.0
 11
-187.00595288170001
 21
97.000000000000128
 31
0.0
  0
LINE
  5
DA
  8
DATA
  6
CONTINUOUS
 62
     7
 10
-209.50595288170001
 20
97.000000000000128
 30
0.0
 11
-207.00595288170001
 21
97.000000000000128
 31
0.0
  0
LINE
  5
DB
  8
DATA
  6
CONTINUOUS
 62
     7
 10
-209.50595288170001
 20
86.000000000000114
 30
0.0
 11
-202.4936241761194
 21
86.000000000000114
 31
0.0
  0
LINE
  5
DC
  8
DATA
  6
CONTINUOUS
 62
     7
 10
-184.50595288170001
 20
86.000000000000114
 30
0.0
 11
-191.51828158728051
 21
86.000000000000114
 31
0.0
  0
TEXT
  5
DD
  8
DATA
 62
     7
 10
-164.81524647470101
 20
84.977164612676944
 30
0.0
 40
2.0360515536498038
  1
ZONE 2
 41
0.7
 11
-164.81524647470101
 21
85.995190389501843
 31
0.0
 73
     2
  0
LINE
  5
DE
  8
DATA
  6
CONTINUOUS
 62
     7
 10
-173.50595288170001
 20
86.000000000000114
 30
0.0
 11
-173.50595288170001
 21
97.000000000000128
 31
0.0
  0
LINE
  5
DF
  8
DATA
  6
CONTINUOUS
 62
     7
 10
-148.50595288170001
 20
86.000000000000114
 30
0.0
 11
-148.50595288170001
 21
97.000000000000128
 31
0.0
  0
LINE
  5
E0
  8
DATA
  6
CONTINUOUS
 62
     7
 10
-148.50595288170001
 20
97.000000000000128
 30
0.0
 11
-151.0059528816999
 21
97.000000000000128
 31
0.0
  0
LINE
  5
E1
  8
DATA
  6
CONTINUOUS
 62
     7
 10
-173.50595288170001
 20
97.000000000000128
 30
0.0
 11
-171.00595288170001
 21
97.000000000000128
 31
0.0
  0
LINE
  5
E2
  8
DATA
  6
CONTINUOUS
 62
     7
 10
-173.50595288170001
 20
86.000000000000114
 30
0.0
 11
-166.4936241761194
 21
86.000000000000114
 31
0.0
  0
LINE
  5
E3
  8
DATA
  6
CONTINUOUS
 62
     7
 10
-148.50595288170001
 20
86.000000000000114
 30
0.0
 11
-155.5182815872806
 21
86.000000000000114
 31
0.0
  0
TEXT
  5
E4
  8
DATA
 62
     7
 10
-200.8152464747011
 20
59.977164612676923
 30
0.0
 40
2.0360515536498038
  1
ZONE 3
 41
0.7
 11
-200.8152464747011
 21
60.995190389501829
 31
0.0
 73
     2
  0
LINE
  5
E5
  8
DATA
  6
CONTINUOUS
 62
     7
 10
-209.50595288170001
 20
61.000000000000107
 30
0.0
 11
-209.50595288170001
 21
72.000000000000085
 31
0.0
  0
LINE
  5
E6
  8
DATA
  6
CONTINUOUS
 62
     7
 10
-184.50595288170001
 20
61.000000000000107
 30
0.0
 11
-184.50595288170001
 21
72.000000000000085
 31
0.0
  0
LINE
  5
E7
  8
DATA
  6
CONTINUOUS
 62
     7
 10
-184.50595288170001
 20
72.000000000000085
 30
0.0
 11
-187.00595288170001
 21
72.000000000000085
 31
0.0
  0
LINE
  5
E8
  8
DATA
  6
CONTINUOUS
 62
     7
 10
-209.50595288170001
 20
72.000000000000085
 30
0.0
 11
-207.00595288170001
 21
72.000000000000085
 31
0.0
  0
LINE
  5
E9
  8
DATA
  6
CONTINUOUS
 62
     7
 10
-209.50595288170001
 20
61.000000000000107
 30
0.0
 11
-202.4936241761194
 21
61.000000000000107
 31
0.0
  0
LINE
  5
EA
  8
DATA
  6
CONTINUOUS
 62
     7
 10
-184.50595288170001
 20
61.000000000000107
 30
0.0
 11
-191.51828158728051
 21
61.000000000000107
 31
0.0
  0
TEXT
  5
EB
  8
DATA
 62
     7
 10
-164.81524647470101
 20
59.977164612676923
 30
0.0
 40
2.0360515536498038
  1
ZONE 4
 41
0.7
 11
-164.81524647470101
 21
60.995190389501829
 31
0.0
 73
     2
  0
LINE
  5
EC
  8
DATA
  6
CONTINUOUS
 62
     7
 10
-173.50595288170001
 20
61.000000000000107
 30
0.0
 11
-173.50595288170001
 21
72.000000000000085
 31
0.0
  0
LINE
  5
ED
  8
DATA
  6
CONTINUOUS
 62
     7
 10
-148.50595288170001
 20
61.000000000000107
 30
0.0
 11
-148.50595288170001
 21
72.000000000000085
 31
0.0
  0
LINE
  5
EE
  8
DATA
  6
CONTINUOUS
 62
     7
 10
-148.50595288170001
 20
72.000000000000085
 30
0.0
 11
-151.0059528816999
 21
72.000000000000085
 31
0.0
  0
LINE
  5
EF
  8
DATA
  6
CONTINUOUS
 62
     7
 10
-173.50595288170001
 20
72.000000000000085
 30
0.0
 11
-171.00595288170001
 21
72.000000000000085
 31
0.0
  0
LINE
  5
F0
  8
DATA
  6
CONTINUOUS
 62
     7
 10
-173.50595288170001
 20
61.000000000000107
 30
0.0
 11
-166.4936241761194
 21
61.000000000000107
 31
0.0
  0
LINE
  5
F1
  8
DATA
  6
CONTINUOUS
 62
     7
 10
-148.50595288170001
 20
61.000000000000107
 30
0.0
 11
-155.5182815872806
 21
61.000000000000107
 31
0.0
  0
TEXT
  5
F2
  8
DATA
 62
     7
 10
-186.79237324437921
 20
37.145477840335722
 30
0.0
 40
2.0360515536498038
  1
PUSH TO TALK
 41
0.7
 11
-186.79237324437921
 21
38.163503617160607
 31
0.0
 73
     2
  0
ARC
  5
F3
  8
DATA
  6
CONTINUOUS
 62
     7
 10
-179.00595288170001
 20
-749.24999999999989
 30
0.0
 40
931.25
 50
86.547639703707489
 51
93.452360296292568
  0
ARC
  5
F4
  8
DATA
  6
CONTINUOUS
 62
     7
 10
-234.84364945536731
 20
176.31723912493879
 30
0.0
 40
3.9999999999922471
 50
93.452360296182079
 51
181.95654837256359
  0
ARC
  5
F5
  8
DATA
  6
CONTINUOUS
 62
     7
 10
-123.1682563080406
 20
176.31723912493271
 30
0.0
 40
3.9999999999988329
 50
358.04345162743681
 51
86.547639703724045
  0
ARC
  5
F6
  8
DATA
  6
CONTINUOUS
 62
     7
 10
-230.66453872377531
 20
24.693467398965229
 30
0.0
 40
2.9999999999960041
 50
181.95654837256311
 51
268.46180966367473
  0
LINE
  5
F7
  8
DATA
  6
CONTINUOUS
 62
     7
 10
-233.66278974325891
 20
24.591042674697171
 30
0.0
 11
-238.841317481343
 21
176.18067282591471
 31
0.0
  0
ARC
  5
F8
  8
DATA
  6
CONTINUOUS
 62
     7
 10
-127.3473670396293
 20
24.693467398968998
 30
0.0
 40
2.9999999999996558
 50
271.53819033639621
 51
358.04345162743692
  0
LINE
  5
F9
  8
DATA
  6
CONTINUOUS
 62
     7
 10
-127.2668372561882
 20
21.694548434745911
 30
0.0
 11
-230.74506850721249
 21
21.694548434745698
 31
0.0
  0
LINE
  5
FA
  8
DATA
  6
CONTINUOUS
 62
     7
 10
-124.34911602014201
 20
24.59104267470082
 30
0.0
 11
-119.1705882820582
 21
176.1806728259084
 31
0.0
  0
CIRCLE
  5
FB
  8
DATA
  6
CONTINUOUS
 62
     7
 10
-179.00595288170001
 20
150.0
 30
0.0
 40
17.499999999999979
  0
CIRCLE
  5
FC
  8
DATA
  6
CONTINUOUS
 62
     7
 10
-179.00595288170001
 20
150.0
 30
0.0
 40
15.999999999999959
  0
LINE
  5
FD
  8
DATA
  6
CONTINUOUS
 62
     7
 10
-193.9419609818556
 20
155.73721727251851
 30
0.0
 11
-184.7431701542184
 21
164.93600810015559
 31
0.0
  0
LINE
  5
FE
  8
DATA
  6
CONTINUOUS
 62
     7
 10
-194.96228010727731
 20
151.18136424116409
 30
0.0
 11
-180.1873171228641
 21
165.95632722557721
 31
0.0
  0
LINE
  5
FF
  8
DATA
  6
CONTINUOUS
 62
     7
 10
-194.84834392431131
 20
147.7597665181973
 30
0.0
 11
-176.76571939989739
 21
165.8423910426113
 31
0.0
  0
LINE
  5
100
  8
DATA
  6
CONTINUOUS
 62
     7
 10
-194.17167666522101
 20
144.90089987135491
 30
0.0
 11
-173.90685275305501
 21
165.16572378352089
 31
0.0
  0
LINE
  5
101
  8
DATA
  6
CONTINUOUS
 62
     7
 10
-193.10368205449359
 20
142.4333605761496
 30
0.0
 11
-171.43931345784961
 21
164.09772917279349
 31
0.0
  0
LINE
  5
102
  8
DATA
  6
CONTINUOUS
 62
     7
 10
-191.7178585578659
 20
140.2836501668445
 30
0.0
 11
-169.28960304854451
 21
162.71190567616591
 31
0.0
  0
LINE
  5
103
  8
DATA
  6
CONTINUOUS
 62
     7
 10
-190.0464503969304
 20
138.41952442184731
 30
0.0
 11
-167.4254773035473
 21
161.04049751523041
 31
0.0
  0
LINE
  5
104
  8
DATA
  6
CONTINUOUS
 62
     7
 10
-188.0968783352474
 20
136.83356257759749
 30
0.0
 11
-165.8395154592975
 21
159.0909254535475
 31
0.0
  0
LINE
  5
105
  8
DATA
  6
CONTINUOUS
 62
     7
 10
-185.85491234247871
 20
135.53999466443349
 30
0.0
 11
-164.5459475461335
 21
156.8489594607787
 31
0.0
  0
LINE
  5
106
  8
DATA
  6
CONTINUOUS
 62
     7
 10
-183.33215792795141
 20
134.52721517302811
 30
0.0
 11
-163.58693093130441
 21
154.27244216967509
 31
0.0
  0
LINE
  5
107
  8
DATA
  6
CONTINUOUS
 62
     7
 10
-180.27354775760611
 20
134.05029143744071
 30
0.0
 11
-163.05624431914069
 21
151.26759487590601
 31
0.0
  0
LINE
  5
108
  8
DATA
  6
CONTINUOUS
 62
     7
 10
-176.6075187200025
 20
134.18078656911149
 30
0.0
 11
-163.1867394508115
 21
147.60156583830249
 31
0.0
  0
LINE
  5
109
  8
DATA
  6
CONTINUOUS
 62
     7
 10
-171.24380809811831
 20
136.008963285063
 30
0.0
 11
-165.01491616676299
 21
142.2378552164183
 31
0.0
  0
LINE
  5
10A
  8
DATA
  6
CONTINUOUS
 62
     7
 10
-183.33215792795141
 20
134.52721517302811
 30
0.0
 11
-194.3826733933634
 21
145.57773063843999
 31
0.0
  0
LINE
  5
10B
  8
DATA
  6
CONTINUOUS
 62
     7
 10
-179.27161450406911
 20
134.00220565507851
 30
0.0
 11
-195.00374722662141
 21
149.73433837763079
 31
0.0
  0
LINE
  5
10C
  8
DATA
  6
CONTINUOUS
 62
     7
 10
-176.0157704454441
 20
134.28189550238619
 30
0.0
 11
-194.72405737931371
 21
152.99018243625591
 31
0.0
  0
LINE
  5
10D
  8
DATA
  6
CONTINUOUS
 62
     7
 10
-173.26411039534489
 20
135.0657693582198
 30
0.0
 11
-193.94018352348019
 21
155.7418424863551
 31
0.0
  0
LINE
  5
10E
  8
DATA
  6
CONTINUOUS
 62
     7
 10
-170.87992885634279
 20
136.21712172515041
 30
0.0
 11
-192.78883115654949
 21
158.12602402535711
 31
0.0
  0
LINE
  5
10F
  8
DATA
  6
CONTINUOUS
 62
     7
 10
-168.80273272741101
 20
137.67545950215131
 30
0.0
 11
-191.33049337954861
 21
160.20322015428891
 31
0.0
  0
LINE
  5
110
  8
DATA
  6
CONTINUOUS
 62
     7
 10
-167.00725630987719
 20
139.41551699055029
 30
0.0
 11
-189.59043589114961
 21
161.99869657182271
 31
0.0
  0
LINE
  5
111
  8
DATA
  6
CONTINUOUS
 62
     7
 10
-165.49137806463719
 20
141.43517265124311
 30
0.0
 11
-187.57078023045679
 21
163.51457481706271
 31
0.0
  0
LINE
  5
112
  8
DATA
  6
CONTINUOUS
 62
     7
 10
-164.27522371287921
 20
143.7545522054177
 30
0.0
 11
-185.2514006762822
 21
164.7307291688208
 31
0.0
  0
LINE
  5
113
  8
DATA
  6
CONTINUOUS
 62
     7
 10
-163.41040048527401
 20
146.42526288374521
 30
0.0
 11
-182.58068999795481
 21
165.595552396426
 31
0.0
  0
LINE
  5
114
  8
DATA
  6
CONTINUOUS
 62
     7
 10
-163.01193992607051
 20
149.5623362304745
 30
0.0
 11
-179.4436166512254
 21
165.9940129556295
 31
0.0
  0
LINE
  5
115
  8
DATA
  6
CONTINUOUS
 62
     7
 10
-163.38753243493611
 20
153.4734626452728
 30
0.0
 11
-175.53249023642709
 21
165.61842044676391
 31
0.0
  0
LINE
  5
116
  8
DATA
  6
CONTINUOUS
 62
     7
 10
-232.29489724168991
 20
-369.0
 30
0.0
 11
-212.50595288170001
 21
-369.0
 31
0.0
  0
LINE
  5
117
  8
DATA
  6
CONTINUOUS
 62
     7
 10
-145.5059528816999
 20
-369.0
 30
0.0
 11
-125.8125126919111
 21
-369.0
 31
0.0
  0
LINE
  5
118
  8
DATA
  6
CONTINUOUS
 62
     7
 10
-225.00595288170001
 20
-422.0
 30
0.0
 11
-219.00595288170001
 21
-422.0
 31
0.0
  0
LINE
  5
119
  8
DATA
  6
CONTINUOUS
 62
     7
 10
-196.50595288170001
 20
-117.9999999999999
 30
0.0
 11
-196.50595288170001
 21
-76.5
 31
0.0
  0
LINE
  5
11A
  8
DATA
  6
CONTINUOUS
 62
     7
 10
-161.50595288170001
 20
-76.5
 30
0.0
 11
-161.50595288170001
 21
-118.1218793502758
 31
0.0
  0
LINE
  5
11B
  8
DATA
  6
CONTINUOUS
 62
     7
 10
-195.63992747791559
 20
-75.0
 30
0.0
 11
-162.3719782854844
 21
-75.0
 31
0.0
  0
ARC
  5
11C
  8
DATA
  6
CONTINUOUS
 62
     7
 10
-179.00595288170001
 20
-75.0
 30
0.0
 40
15.99999999999997
 50
0.0
 51
180.0
  0
LINE
  5
11D
  8
DATA
  6
CONTINUOUS
 62
     7
 10
-196.50595288170001
 20
-80.200000000000017
 30
0.0
 11
-161.50595288170001
 21
-80.200000000000017
 31
0.0
  0
LINE
  5
11E
  8
DATA
  6
CONTINUOUS
 62
     7
 10
-196.50595288170001
 20
-76.5
 30
0.0
 11
-161.50595288170001
 21
-76.5
 31
0.0
  0
LINE
  5
11F
  8
DATA
  6
CONTINUOUS
 62
     7
 10
-196.50595288170001
 20
-76.5
 30
0.0
 11
-195.63992747791559
 21
-75.0
 31
0.0
  0
LINE
  5
120
  8
DATA
  6
CONTINUOUS
 62
     7
 10
-161.50595288170001
 20
-76.5
 30
0.0
 11
-162.3719782854844
 21
-75.0
 31
0.0
  0
LINE
  5
121
  8
DATA
  6
CONTINUOUS
 62
     7
 10
-196.50595288170001
 20
-82.579999999999998
 30
0.0
 11
-161.50595288170001
 21
-82.579999999999998
 31
0.0
  0
LINE
  5
122
  8
DATA
  6
CONTINUOUS
 62
     7
 10
-196.50595288170001
 20
-85.379999999999981
 30
0.0
 11
-161.50595288170001
 21
-85.379999999999981
 31
0.0
  0
LINE
  5
123
  8
DATA
  6
CONTINUOUS
 62
     7
 10
-196.50595288170001
 20
-88.179999999999964
 30
0.0
 11
-161.50595288170001
 21
-88.179999999999964
 31
0.0
  0
LINE
  5
124
  8
DATA
  6
CONTINUOUS
 62
     7
 10
-196.50595288170001
 20
-90.980000000000004
 30
0.0
 11
-161.50595288170001
 21
-90.980000000000004
 31
0.0
  0
LINE
  5
125
  8
DATA
  6
CONTINUOUS
 62
     7
 10
-196.50595288170001
 20
-93.780000000000001
 30
0.0
 11
-161.50595288170001
 21
-93.780000000000001
 31
0.0
  0
LINE
  5
126
  8
DATA
  6
CONTINUOUS
 62
     7
 10
-196.50595288170001
 20
-96.580000000000013
 30
0.0
 11
-161.50595288170001
 21
-96.580000000000013
 31
0.0
  0
LINE
  5
127
  8
DATA
  6
CONTINUOUS
 62
     7
 10
-196.50595288170001
 20
-99.379999999999995
 30
0.0
 11
-161.50595288170001
 21
-99.379999999999995
 31
0.0
  0
LINE
  5
128
  8
DATA
  6
CONTINUOUS
 62
     7
 10
-196.50595288170001
 20
-102.18000000000001
 30
0.0
 11
-161.50595288170001
 21
-102.18000000000001
 31
0.0
  0
LINE
  5
129
  8
DATA
  6
CONTINUOUS
 62
     7
 10
-196.50595288170001
 20
-104.98
 30
0.0
 11
-161.50595288170001
 21
-104.98
 31
0.0
  0
LINE
  5
12A
  8
DATA
  6
CONTINUOUS
 62
     7
 10
-193.00595288170001
 20
-104.98
 30
0.0
 11
-193.00595288170001
 21
-102.18000000000001
 31
0.0
  0
LINE
  5
12B
  8
DATA
  6
CONTINUOUS
 62
     7
 10
-193.00595288170001
 20
-99.379999999999981
 30
0.0
 11
-193.00595288170001
 21
-96.579999999999984
 31
0.0
  0
LINE
  5
12C
  8
DATA
  6
CONTINUOUS
 62
     7
 10
-193.00595288170001
 20
-93.780000000000001
 30
0.0
 11
-193.00595288170001
 21
-90.980000000000004
 31
0.0
  0
LINE
  5
12D
  8
DATA
  6
CONTINUOUS
 62
     7
 10
-193.00595288170001
 20
-88.179999999999964
 30
0.0
 11
-193.00595288170001
 21
-85.379999999999981
 31
0.0
  0
LINE
  5
12E
  8
DATA
  6
CONTINUOUS
 62
     7
 10
-193.00595288170001
 20
-82.579999999999984
 30
0.0
 11
-193.00595288170001
 21
-80.200000000000017
 31
0.0
  0
LINE
  5
12F
  8
DATA
  6
CONTINUOUS
 62
     7
 10
-165.00595288170001
 20
-80.200000000000017
 30
0.0
 11
-165.00595288170001
 21
-82.579999999999984
 31
0.0
  0
LINE
  5
130
  8
DATA
  6
CONTINUOUS
 62
     7
 10
-165.00595288170001
 20
-85.379999999999981
 30
0.0
 11
-165.00595288170001
 21
-88.180000000000007
 31
0.0
  0
LINE
  5
131
  8
DATA
  6
CONTINUOUS
 62
     7
 10
-165.00595288170001
 20
-90.980000000000004
 30
0.0
 11
-165.00595288170001
 21
-93.780000000000001
 31
0.0
  0
LINE
  5
132
  8
DATA
  6
CONTINUOUS
 62
     7
 10
-165.00595288170001
 20
-96.580000000000013
 30
0.0
 11
-165.00595288170001
 21
-99.379999999999995
 31
0.0
  0
LINE
  5
133
  8
DATA
  6
CONTINUOUS
 62
     7
 10
-165.00595288170001
 20
-102.18000000000001
 30
0.0
 11
-165.00595288170001
 21
-104.98
 31
0.0
  0
LINE
  5
134
  8
DATA
  6
CONTINUOUS
 62
     7
 10
-191.50595288170001
 20
-133.0
 30
0.0
 11
-191.50595288170001
 21
-126.0
 31
0.0
  0
LINE
  5
135
  8
DATA
  6
CONTINUOUS
 62
     7
 10
-166.50595288170001
 20
-126.0
 30
0.0
 11
-166.50595288170001
 21
-133.0
 31
0.0
  0
LINE
  5
136
  8
DATA
  6
CONTINUOUS
 62
     7
 10
-191.50595288170001
 20
-126.0
 30
0.0
 11
-166.50595288170001
 21
-126.0
 31
0.0
  0
LINE
  5
137
  8
DATA
  6
CONTINUOUS
 62
     7
 10
-191.50595288170001
 20
-126.0
 30
0.0
 11
-196.50595288170001
 21
-118.0
 31
0.0
  0
LINE
  5
138
  8
DATA
  6
CONTINUOUS
 62
     7
 10
-166.50595288170001
 20
-126.0
 30
0.0
 11
-161.42859982016739
 21
-118.0
 31
0.0
  0
LINE
  5
139
  8
DATA
  6
CONTINUOUS
 62
     7
 10
-191.50595288170001
 20
-133.0
 30
0.0
 11
-166.50595288170001
 21
-133.0
 31
0.0
  0
LINE
  5
13A
  8
DATA
  6
CONTINUOUS
 62
     7
 10
-185.50595288170001
 20
-324.0
 30
0.0
 11
-185.50595288170001
 21
-138.0
 31
0.0
  0
LINE
  5
13B
  8
DATA
  6
CONTINUOUS
 62
     7
 10
-172.50595288170001
 20
-138.0
 30
0.0
 11
-172.50595288170001
 21
-324.0
 31
0.0
  0
LINE
  5
13C
  8
DATA
  6
CONTINUOUS
 62
     7
 10
-185.50595288170001
 20
-138.0
 30
0.0
 11
-172.50595288170001
 21
-138.0
 31
0.0
  0
LINE
  5
13D
  8
DATA
  6
CONTINUOUS
 62
     7
 10
-185.50595288170001
 20
-138.0
 30
0.0
 11
-191.50595288170001
 21
-133.0
 31
0.0
  0
LINE
  5
13E
  8
DATA
  6
CONTINUOUS
 62
     7
 10
-172.50595288170001
 20
-138.0
 30
0.0
 11
-166.50595288170001
 21
-133.0
 31
0.0
  0
LINE
  5
13F
  8
DATA
  6
CONTINUOUS
 62
     7
 10
-225.00595288170001
 20
-422.0
 30
0.0
 11
-225.00595288170001
 21
-420.00000000000011
 31
0.0
  0
LINE
  5
140
  8
DATA
  6
CONTINUOUS
 62
     7
 10
-219.00595288170001
 20
-420.00000000000011
 30
0.0
 11
-219.00595288170001
 21
-422.0
 31
0.0
  0
LINE
  5
141
  8
DATA
  6
CONTINUOUS
 62
     7
 10
-133.00595288170001
 20
-422.0
 30
0.0
 11
-139.00595288170001
 21
-422.0
 31
0.0
  0
LINE
  5
142
  8
DATA
  6
CONTINUOUS
 62
     7
 10
-133.00595288170001
 20
-422.0
 30
0.0
 11
-133.00595288170001
 21
-420.00000000000011
 31
0.0
  0
LINE
  5
143
  8
DATA
  6
CONTINUOUS
 62
     7
 10
-139.00595288170001
 20
-420.00000000000011
 30
0.0
 11
-139.00595288170001
 21
-422.0
 31
0.0
  0
LINE
  5
144
  8
DATA
  6
CONTINUOUS
 62
     7
 10
-231.0680029827426
 20
-400.0
 30
0.0
 11
-126.9439027806574
 21
-400.0
 31
0.0
  0
LINE
  5
145
  8
DATA
  6
CONTINUOUS
 62
     7
 10
-240.00595288170001
 20
-410.0
 30
0.0
 11
-118.0059528817
 21
-410.0
 31
0.0
  0
LINE
  5
146
  8
DATA
  6
CONTINUOUS
 62
     7
 10
-240.00595288170001
 20
-407.80000000000001
 30
0.0
 11
-118.0059528817
 21
-407.80000000000001
 31
0.0
  0
LINE
  5
147
  8
DATA
  6
CONTINUOUS
 62
     7
 10
-190.00595288170001
 20
-325.0
 30
0.0
 11
-185.50595288170001
 21
-324.0
 31
0.0
  0
LINE
  5
148
  8
DATA
  6
CONTINUOUS
 62
     7
 10
-168.00595288170001
 20
-325.0
 30
0.0
 11
-172.50595288170001
 21
-324.0
 31
0.0
  0
LINE
  5
149
  8
DATA
  6
CONTINUOUS
 62
     7
 10
-192.53436197260959
 20
-369.5
 30
0.0
 11
-190.00595288170001
 21
-325.0
 31
0.0
  0
LINE
  5
14A
  8
DATA
  6
CONTINUOUS
 62
     7
 10
-165.47754379079041
 20
-369.5
 30
0.0
 11
-168.00595288170001
 21
-325.0
 31
0.0
  0
LINE
  5
14B
  8
DATA
  6
CONTINUOUS
 62
     7
 10
-185.50595288170001
 20
-324.0
 30
0.0
 11
-172.50595288170001
 21
-324.0
 31
0.0
  0
LINE
  5
14C
  8
DATA
  6
CONTINUOUS
 62
     7
 10
-226.65151718189239
 20
-420.0
 30
0.0
 11
-131.36038858150761
 21
-420.0
 31
0.0
  0
LINE
  5
14D
  8
DATA
  6
CONTINUOUS
 62
     7
 10
-234.00595288170001
 20
-410.0
 30
0.0
 11
-234.00595288170001
 21
-407.80000000000001
 31
0.0
  0
LINE
  5
14E
  8
DATA
  6
CONTINUOUS
 62
     7
 10
-124.0059528817
 20
-410.0
 30
0.0
 11
-124.0059528817
 21
-407.80000000000001
 31
0.0
  0
LINE
  5
14F
  8
DATA
  6
CONTINUOUS
 62
     7
 10
-227.53691508473031
 20
-419.46483389898992
 30
0.0
 11
-232.50595288170001
 21
-410.0
 31
0.0
  0
LINE
  5
150
  8
DATA
  6
CONTINUOUS
 62
     7
 10
-130.47499067866971
 20
-419.46483389898992
 30
0.0
 11
-125.5059528817
 21
-410.0
 31
0.0
  0
LINE
  5
151
  8
DATA
  6
CONTINUOUS
 62
     7
 10
-232.50595288170001
 20
-407.80000000000001
 30
0.0
 11
-232.06595472365879
 21
-400.9360287345566
 31
0.0
  0
LINE
  5
152
  8
DATA
  6
CONTINUOUS
 62
     7
 10
-125.5059528817
 20
-407.80000000000001
 30
0.0
 11
-125.9459510397412
 21
-400.9360287345566
 31
0.0
  0
LINE
  5
153
  8
DATA
  6
CONTINUOUS
 62
     7
 10
-207.00595288170001
 20
-382.37677483782511
 30
0.0
 11
-207.00595288170001
 21
-378.479055578989
 31
0.0
  0
LINE
  5
154
  8
DATA
  6
CONTINUOUS
 62
     7
 10
-187.00595288170001
 20
-378.47905557898912
 30
0.0
 11
-187.00595288170001
 21
-382.37677483782511
 31
0.0
  0
LINE
  5
155
  8
DATA
  6
CONTINUOUS
 62
     7
 10
-189.50595288170001
 20
-382.37677483782511
 30
0.0
 11
-204.50595288170001
 21
-382.37677483782511
 31
0.0
  0
LINE
  5
156
  8
DATA
  6
CONTINUOUS
 62
     7
 10
-204.50595288170001
 20
-382.37677483782511
 30
0.0
 11
-204.50595288170001
 21
-377.30037265704078
 31
0.0
  0
LINE
  5
157
  8
DATA
  6
CONTINUOUS
 62
     7
 10
-189.5059528816999
 20
-377.30037265704101
 30
0.0
 11
-189.5059528816999
 21
-382.37677483782522
 31
0.0
  0
LINE
  5
158
  8
DATA
  6
CONTINUOUS
 62
     7
 10
-240.00595288170001
 20
-410.0
 30
0.0
 11
-240.00595288170001
 21
-407.80000000000001
 31
0.0
  0
LINE
  5
159
  8
DATA
  6
CONTINUOUS
 62
     7
 10
-118.0059528817
 20
-410.0
 30
0.0
 11
-118.0059528817
 21
-407.80000000000001
 31
0.0
  0
LINE
  5
15A
  8
DATA
  6
CONTINUOUS
 62
     7
 10
-119.0059528817
 20
-407.80000000000001
 30
0.0
 11
-123.82924068745361
 21
-370.74186794787352
 31
0.0
  0
LINE
  5
15B
  8
DATA
  6
CONTINUOUS
 62
     7
 10
-239.00595288170001
 20
-407.80000000000001
 30
0.0
 11
-234.27881729273551
 21
-370.74689679761138
 31
0.0
  0
ARC
  5
15C
  8
DATA
  6
CONTINUOUS
 62
     7
 10
-232.29489724168991
 20
-371.00000000000011
 30
0.0
 40
2.000000000000056
 50
90.0
 51
172.72963237384579
  0
ARC
  5
15D
  8
DATA
  6
CONTINUOUS
 62
     7
 10
-125.8125126919111
 20
-371.0
 30
0.0
 40
2.000000000000028
 50
7.4156248798645867
 51
89.999999999999176
  0
ARC
  5
15E
  8
DATA
  6
CONTINUOUS
 62
     7
 10
-231.0680029827426
 20
-401.0
 30
0.0
 40
1.0
 50
90.0
 51
176.3322119444687
  0
ARC
  5
15F
  8
DATA
  6
CONTINUOUS
 62
     7
 10
-126.9439027806574
 20
-401.0
 30
0.0
 40
1.000000000000012
 50
3.6677880555313451
 51
90.0
  0
LINE
  5
160
  8
DATA
  6
CONTINUOUS
 62
     7
 10
-231.75211873850211
 20
-400.270626547836
 30
0.0
 11
-233.61659947654141
 21
-369.49896595561972
 31
0.0
  0
LINE
  5
161
  8
DATA
  6
CONTINUOUS
 62
     7
 10
-126.2597870248979
 20
-400.270626547836
 30
0.0
 11
-124.64636656295249
 21
-369.40508073041002
 31
0.0
  0
LINE
  5
162
  8
DATA
  6
CONTINUOUS
 62
     7
 10
-212.50595288170001
 20
-369.0
 30
0.0
 11
-212.50595288170001
 21
-369.5
 31
0.0
  0
LINE
  5
163
  8
DATA
  6
CONTINUOUS
 62
     7
 10
-145.5059528816999
 20
-369.0
 30
0.0
 11
-145.5059528816999
 21
-369.5
 31
0.0
  0
LINE
  5
164
  8
DATA
  6
CONTINUOUS
 62
     7
 10
-212.50595288170001
 20
-369.5
 30
0.0
 11
-192.5343619726093
 21
-369.5
 31
0.0
  0
LINE
  5
165
  8
DATA
  6
CONTINUOUS
 62
     7
 10
-165.47754379079069
 20
-369.5
 30
0.0
 11
-145.5059528816999
 21
-369.5
 31
0.0
  0
LINE
  5
166
  8
DATA
  6
CONTINUOUS
 62
     7
 10
-207.00595288170001
 20
-382.37677483782511
 30
0.0
 11
-207.00595288170001
 21
-383.75480903966547
 31
0.0
  0
LINE
  5
167
  8
DATA
  6
CONTINUOUS
 62
     7
 10
-207.00595288170001
 20
-383.75480903966542
 30
0.0
 11
-204.50595288170001
 21
-383.75480903966542
 31
0.0
  0
LINE
  5
168
  8
DATA
  6
CONTINUOUS
 62
     7
 10
-189.5059528816999
 20
-383.75480903966542
 30
0.0
 11
-187.00595288170001
 21
-383.75480903966542
 31
0.0
  0
LINE
  5
169
  8
DATA
  6
CONTINUOUS
 62
     7
 10
-187.00595288170001
 20
-382.37677483782511
 30
0.0
 11
-187.00595288170001
 21
-383.75480903966547
 31
0.0
  0
LINE
  5
16A
  8
DATA
  6
CONTINUOUS
 62
     7
 10
-204.50595288170001
 20
-377.30037265704078
 30
0.0
 11
-189.5059528816999
 21
-377.30037265704078
 31
0.0
  0
LINE
  5
16B
  8
DATA
  6
CONTINUOUS
 62
     7
 10
-207.0059528817001
 20
-378.479055578989
 30
0.0
 11
-204.50595288170001
 21
-378.479055578989
 31
0.0
  0
LINE
  5
16C
  8
DATA
  6
CONTINUOUS
 62
     7
 10
-189.5059528816999
 20
-378.479055578989
 30
0.0
 11
-187.00595288170001
 21
-378.479055578989
 31
0.0
  0
LINE
  5
16D
  8
DATA
  6
CONTINUOUS
 62
     7
 10
-212.50595288170001
 20
-397.74930827493222
 30
0.0
 11
-212.50595288170001
 21
-369.00000000000011
 31
0.0
  0
LINE
  5
16E
  8
DATA
  6
CONTINUOUS
 62
     7
 10
-145.5059528816999
 20
-397.74930827493222
 30
0.0
 11
-145.5059528816999
 21
-369.00000000000011
 31
0.0
  0
LINE
  5
16F
  8
DATA
  6
CONTINUOUS
 62
     7
 10
-212.50595288170001
 20
-397.74930827493222
 30
0.0
 11
-145.5059528816999
 21
-397.74930827493222
 31
0.0
  0
LINE
  5
170
  8
DATA
  6
CONTINUOUS
 62
     7
 10
-204.50595288170001
 20
-379.27145064864982
 30
0.0
 11
-189.5059528816999
 21
-379.27145064864982
 31
0.0
  0
LINE
  5
171
  8
DATA
  6
CONTINUOUS
 62
     7
 10
-207.00595288170001
 20
-388.20131772184112
 30
0.0
 11
-207.00595288170001
 21
-384.3035984630049
 31
0.0
  0
LINE
  5
172
  8
DATA
  6
CONTINUOUS
 62
     7
 10
-187.00595288170001
 20
-384.30359846300507
 30
0.0
 11
-187.00595288170001
 21
-388.20131772184112
 31
0.0
  0
LINE
  5
173
  8
DATA
  6
CONTINUOUS
 62
     7
 10
-189.50595288170001
 20
-388.20131772184112
 30
0.0
 11
-204.50595288170001
 21
-388.20131772184112
 31
0.0
  0
LINE
  5
174
  8
DATA
  6
CONTINUOUS
 62
     7
 10
-204.50595288170001
 20
-388.20131772184112
 30
0.0
 11
-204.50595288170001
 21
-383.12491554105691
 31
0.0
  0
LINE
  5
175
  8
DATA
  6
CONTINUOUS
 62
     7
 10
-189.5059528816999
 20
-383.12491554105691
 30
0.0
 11
-189.5059528816999
 21
-388.20131772184112
 31
0.0
  0
LINE
  5
176
  8
DATA
  6
CONTINUOUS
 62
     7
 10
-207.00595288170001
 20
-388.20131772184112
 30
0.0
 11
-207.00595288170001
 21
-389.57935192368137
 31
0.0
  0
LINE
  5
177
  8
DATA
  6
CONTINUOUS
 62
     7
 10
-207.00595288170001
 20
-389.5793519236812
 30
0.0
 11
-187.00595288170001
 21
-389.5793519236812
 31
0.0
  0
LINE
  5
178
  8
DATA
  6
CONTINUOUS
 62
     7
 10
-187.00595288170001
 20
-388.20131772184112
 30
0.0
 11
-187.00595288170001
 21
-389.57935192368137
 31
0.0
  0
LINE
  5
179
  8
DATA
  6
CONTINUOUS
 62
     7
 10
-204.50595288170001
 20
-383.12491554105691
 30
0.0
 11
-189.5059528816999
 21
-383.12491554105691
 31
0.0
  0
LINE
  5
17A
  8
DATA
  6
CONTINUOUS
 62
     7
 10
-207.0059528817001
 20
-384.3035984630049
 30
0.0
 11
-204.50595288170001
 21
-384.3035984630049
 31
0.0
  0
LINE
  5
17B
  8
DATA
  6
CONTINUOUS
 62
     7
 10
-189.5059528816999
 20
-384.3035984630049
 30
0.0
 11
-187.00595288170001
 21
-384.3035984630049
 31
0.0
  0
LINE
  5
17C
  8
DATA
  6
CONTINUOUS
 62
     7
 10
-204.50595288170001
 20
-385.09599353266577
 30
0.0
 11
-189.5059528816999
 21
-385.09599353266577
 31
0.0
  0
LINE
  5
17D
  8
DATA
  6
CONTINUOUS
 62
     7
 10
-189.00595288170001
 20
-395.0135646753555
 30
0.0
 11
-189.00595288170001
 21
-391.11584541651951
 31
0.0
  0
LINE
  5
17E
  8
DATA
  6
CONTINUOUS
 62
     7
 10
-169.0059528816999
 20
-391.11584541651951
 30
0.0
 11
-169.0059528816999
 21
-395.0135646753555
 31
0.0
  0
LINE
  5
17F
  8
DATA
  6
CONTINUOUS
 62
     7
 10
-171.50595288170001
 20
-395.0135646753555
 30
0.0
 11
-186.5059528816999
 21
-395.0135646753555
 31
0.0
  0
LINE
  5
180
  8
DATA
  6
CONTINUOUS
 62
     7
 10
-186.5059528816999
 20
-395.0135646753555
 30
0.0
 11
-186.5059528816999
 21
-389.93716249457123
 31
0.0
  0
LINE
  5
181
  8
DATA
  6
CONTINUOUS
 62
     7
 10
-171.50595288170001
 20
-389.9371624945714
 30
0.0
 11
-171.50595288170001
 21
-395.01356467535561
 31
0.0
  0
LINE
  5
182
  8
DATA
  6
CONTINUOUS
 62
     7
 10
-189.00595288170001
 20
-395.0135646753555
 30
0.0
 11
-189.00595288170001
 21
-396.3915988771958
 31
0.0
  0
LINE
  5
183
  8
DATA
  6
CONTINUOUS
 62
     7
 10
-189.00595288170001
 20
-396.3915988771958
 30
0.0
 11
-169.0059528816999
 21
-396.3915988771958
 31
0.0
  0
LINE
  5
184
  8
DATA
  6
CONTINUOUS
 62
     7
 10
-169.0059528816999
 20
-395.0135646753555
 30
0.0
 11
-169.0059528816999
 21
-396.3915988771958
 31
0.0
  0
LINE
  5
185
  8
DATA
  6
CONTINUOUS
 62
     7
 10
-186.5059528816999
 20
-389.93716249457123
 30
0.0
 11
-171.50595288170001
 21
-389.93716249457123
 31
0.0
  0
LINE
  5
186
  8
DATA
  6
CONTINUOUS
 62
     7
 10
-189.0059528817001
 20
-391.11584541651951
 30
0.0
 11
-186.5059528816999
 21
-391.11584541651951
 31
0.0
  0
LINE
  5
187
  8
DATA
  6
CONTINUOUS
 62
     7
 10
-171.50595288170001
 20
-391.11584541651951
 30
0.0
 11
-169.0059528816999
 21
-391.11584541651951
 31
0.0
  0
LINE
  5
188
  8
DATA
  6
CONTINUOUS
 62
     7
 10
-186.5059528816999
 20
-391.90824048618032
 30
0.0
 11
-171.50595288170001
 21
-391.90824048618032
 31
0.0
  0
LINE
  5
189
  8
DATA
  6
CONTINUOUS
 62
     7
 10
-151.00595288170001
 20
-382.37677483782511
 30
0.0
 11
-151.00595288170001
 21
-378.479055578989
 31
0.0
  0
LINE
  5
18A
  8
DATA
  6
CONTINUOUS
 62
     7
 10
-171.00595288170001
 20
-378.47905557898912
 30
0.0
 11
-171.00595288170001
 21
-382.37677483782511
 31
0.0
  0
LINE
  5
18B
  8
DATA
  6
CONTINUOUS
 62
     7
 10
-168.50595288170001
 20
-382.37677483782511
 30
0.0
 11
-153.50595288170001
 21
-382.37677483782511
 31
0.0
  0
LINE
  5
18C
  8
DATA
  6
CONTINUOUS
 62
     7
 10
-153.50595288170001
 20
-382.37677483782511
 30
0.0
 11
-153.50595288170001
 21
-377.30037265704078
 31
0.0
  0
LINE
  5
18D
  8
DATA
  6
CONTINUOUS
 62
     7
 10
-168.50595288170001
 20
-377.30037265704101
 30
0.0
 11
-168.50595288170001
 21
-382.37677483782522
 31
0.0
  0
LINE
  5
18E
  8
DATA
  6
CONTINUOUS
 62
     7
 10
-151.00595288170001
 20
-382.37677483782511
 30
0.0
 11
-151.00595288170001
 21
-383.75480903966547
 31
0.0
  0
LINE
  5
18F
  8
DATA
  6
CONTINUOUS
 62
     7
 10
-151.00595288170001
 20
-383.75480903966542
 30
0.0
 11
-153.50595288170001
 21
-383.75480903966542
 31
0.0
  0
LINE
  5
190
  8
DATA
  6
CONTINUOUS
 62
     7
 10
-168.50595288170001
 20
-383.75480903966542
 30
0.0
 11
-171.0059528817001
 21
-383.75480903966542
 31
0.0
  0
LINE
  5
191
  8
DATA
  6
CONTINUOUS
 62
     7
 10
-171.00595288170001
 20
-382.37677483782511
 30
0.0
 11
-171.00595288170001
 21
-383.75480903966547
 31
0.0
  0
LINE
  5
192
  8
DATA
  6
CONTINUOUS
 62
     7
 10
-153.50595288170001
 20
-377.30037265704078
 30
0.0
 11
-168.50595288170001
 21
-377.30037265704078
 31
0.0
  0
LINE
  5
193
  8
DATA
  6
CONTINUOUS
 62
     7
 10
-151.0059528816999
 20
-378.479055578989
 30
0.0
 11
-153.50595288170001
 21
-378.479055578989
 31
0.0
  0
LINE
  5
194
  8
DATA
  6
CONTINUOUS
 62
     7
 10
-168.50595288170001
 20
-378.479055578989
 30
0.0
 11
-171.0059528817001
 21
-378.479055578989
 31
0.0
  0
LINE
  5
195
  8
DATA
  6
CONTINUOUS
 62
     7
 10
-153.50595288170001
 20
-379.27145064864982
 30
0.0
 11
-168.50595288170001
 21
-379.27145064864982
 31
0.0
  0
LINE
  5
196
  8
DATA
  6
CONTINUOUS
 62
     7
 10
-151.00595288170001
 20
-388.20131772184112
 30
0.0
 11
-151.00595288170001
 21
-384.3035984630049
 31
0.0
  0
LINE
  5
197
  8
DATA
  6
CONTINUOUS
 62
     7
 10
-171.00595288170001
 20
-384.30359846300507
 30
0.0
 11
-171.00595288170001
 21
-388.20131772184112
 31
0.0
  0
LINE
  5
198
  8
DATA
  6
CONTINUOUS
 62
     7
 10
-168.50595288170001
 20
-388.20131772184112
 30
0.0
 11
-153.50595288170001
 21
-388.20131772184112
 31
0.0
  0
LINE
  5
199
  8
DATA
  6
CONTINUOUS
 62
     7
 10
-153.50595288170001
 20
-388.20131772184112
 30
0.0
 11
-153.50595288170001
 21
-383.12491554105691
 31
0.0
  0
LINE
  5
19A
  8
DATA
  6
CONTINUOUS
 62
     7
 10
-168.50595288170001
 20
-383.12491554105691
 30
0.0
 11
-168.50595288170001
 21
-388.20131772184112
 31
0.0
  0
LINE
  5
19B
  8
DATA
  6
CONTINUOUS
 62
     7
 10
-151.00595288170001
 20
-388.20131772184112
 30
0.0
 11
-151.00595288170001
 21
-389.57935192368137
 31
0.0
  0
LINE
  5
19C
  8
DATA
  6
CONTINUOUS
 62
     7
 10
-151.00595288170001
 20
-389.5793519236812
 30
0.0
 11
-171.0059528817001
 21
-389.5793519236812
 31
0.0
  0
LINE
  5
19D
  8
DATA
  6
CONTINUOUS
 62
     7
 10
-171.00595288170001
 20
-388.20131772184112
 30
0.0
 11
-171.00595288170001
 21
-389.57935192368137
 31
0.0
  0
LINE
  5
19E
  8
DATA
  6
CONTINUOUS
 62
     7
 10
-153.50595288170001
 20
-383.12491554105691
 30
0.0
 11
-168.50595288170001
 21
-383.12491554105691
 31
0.0
  0
LINE
  5
19F
  8
DATA
  6
CONTINUOUS
 62
     7
 10
-151.0059528816999
 20
-384.3035984630049
 30
0.0
 11
-153.50595288170001
 21
-384.3035984630049
 31
0.0
  0
LINE
  5
1A0
  8
DATA
  6
CONTINUOUS
 62
     7
 10
-168.50595288170001
 20
-384.3035984630049
 30
0.0
 11
-171.0059528817001
 21
-384.3035984630049
 31
0.0
  0
LINE
  5
1A1
  8
DATA
  6
CONTINUOUS
 62
     7
 10
-153.50595288170001
 20
-385.09599353266577
 30
0.0
 11
-168.50595288170001
 21
-385.09599353266577
 31
0.0
  0
ARC
  5
1A2
  8
DATA
  6
CONTINUOUS
 62
     7
 10
-179.00595288170001
 20
-296.19048536414613
 30
0.0
 40
74.547319124670594
 50
259.54436512864322
 51
280.45563487135678
  0
LINE
  5
1A3
  8
DATA
  6
CONTINUOUS
 62
     7
 10
-185.5059528816999
 20
-322.5686243670574
 30
0.0
 11
-172.50595288170001
 21
-320.68777330322769
 31
0.0
  0
LINE
  5
1A4
  8
DATA
  6
CONTINUOUS
 62
     7
 10
-185.5059528816999
 20
-320.0686243670574
 30
0.0
 11
-172.50595288170001
 21
-318.18777330322769
 31
0.0
  0
LINE
  5
1A5
  8
DATA
  6
CONTINUOUS
 62
     7
 10
-185.5059528816999
 20
-317.5686243670574
 30
0.0
 11
-172.5059528817001
 21
-315.68777330322769
 31
0.0
  0
LINE
  5
1A6
  8
DATA
  6
CONTINUOUS
 62
     7
 10
-185.5059528816999
 20
-315.0686243670574
 30
0.0
 11
-172.50595288170001
 21
-313.18777330322769
 31
0.0
  0
LINE
  5
1A7
  8
DATA
  6
CONTINUOUS
 62
     7
 10
-185.5059528816999
 20
-312.5686243670574
 30
0.0
 11
-172.50595288170001
 21
-310.68777330322769
 31
0.0
  0
LINE
  5
1A8
  8
DATA
  6
CONTINUOUS
 62
     7
 10
-185.5059528816999
 20
-310.0686243670574
 30
0.0
 11
-172.50595288170001
 21
-308.18777330322769
 31
0.0
  0
LINE
  5
1A9
  8
DATA
  6
CONTINUOUS
 62
     7
 10
-185.5059528816999
 20
-307.5686243670574
 30
0.0
 11
-172.50595288170001
 21
-305.68777330322769
 31
0.0
  0
LINE
  5
1AA
  8
DATA
  6
CONTINUOUS
 62
     7
 10
-185.5059528816999
 20
-305.0686243670574
 30
0.0
 11
-172.50595288170001
 21
-303.18777330322769
 31
0.0
  0
LINE
  5
1AB
  8
DATA
  6
CONTINUOUS
 62
     7
 10
-185.5059528816999
 20
-302.5686243670574
 30
0.0
 11
-172.50595288170001
 21
-300.68777330322769
 31
0.0
  0
LINE
  5
1AC
  8
DATA
  6
CONTINUOUS
 62
     7
 10
-185.5059528816999
 20
-300.0686243670574
 30
0.0
 11
-172.5059528817001
 21
-298.18777330322769
 31
0.0
  0
LINE
  5
1AD
  8
DATA
  6
CONTINUOUS
 62
     7
 10
-185.5059528816999
 20
-297.5686243670574
 30
0.0
 11
-172.5059528817001
 21
-295.68777330322769
 31
0.0
  0
LINE
  5
1AE
  8
DATA
  6
CONTINUOUS
 62
     7
 10
-185.5059528816999
 20
-295.0686243670574
 30
0.0
 11
-172.5059528817001
 21
-293.18777330322769
 31
0.0
  0
LINE
  5
1AF
  8
DATA
  6
CONTINUOUS
 62
     7
 10
-185.5059528816999
 20
-292.5686243670574
 30
0.0
 11
-172.5059528817001
 21
-290.68777330322769
 31
0.0
  0
LINE
  5
1B0
  8
DATA
  6
CONTINUOUS
 62
     7
 10
-185.5059528816999
 20
-290.0686243670574
 30
0.0
 11
-172.5059528817001
 21
-288.18777330322769
 31
0.0
  0
LINE
  5
1B1
  8
DATA
  6
CONTINUOUS
 62
     7
 10
-185.5059528816999
 20
-287.5686243670574
 30
0.0
 11
-172.5059528817001
 21
-285.68777330322769
 31
0.0
  0
LINE
  5
1B2
  8
DATA
  6
CONTINUOUS
 62
     7
 10
-185.5059528816999
 20
-285.0686243670574
 30
0.0
 11
-172.5059528817001
 21
-283.18777330322769
 31
0.0
  0
LINE
  5
1B3
  8
DATA
  6
CONTINUOUS
 62
     7
 10
-185.5059528816999
 20
-282.5686243670574
 30
0.0
 11
-172.50595288170001
 21
-280.68777330322769
 31
0.0
  0
LINE
  5
1B4
  8
DATA
  6
CONTINUOUS
 62
     7
 10
-185.5059528816999
 20
-280.0686243670574
 30
0.0
 11
-172.50595288170001
 21
-278.18777330322769
 31
0.0
  0
LINE
  5
1B5
  8
DATA
  6
CONTINUOUS
 62
     7
 10
-185.5059528816999
 20
-277.5686243670574
 30
0.0
 11
-172.50595288170001
 21
-275.68777330322769
 31
0.0
  0
LINE
  5
1B6
  8
DATA
  6
CONTINUOUS
 62
     7
 10
-185.5059528816999
 20
-275.0686243670574
 30
0.0
 11
-172.50595288170001
 21
-273.18777330322769
 31
0.0
  0
LINE
  5
1B7
  8
DATA
  6
CONTINUOUS
 62
     7
 10
-185.5059528816999
 20
-272.5686243670574
 30
0.0
 11
-172.50595288170001
 21
-270.68777330322769
 31
0.0
  0
LINE
  5
1B8
  8
DATA
  6
CONTINUOUS
 62
     7
 10
-185.5059528816999
 20
-270.0686243670574
 30
0.0
 11
-172.50595288170001
 21
-268.18777330322769
 31
0.0
  0
LINE
  5
1B9
  8
DATA
  6
CONTINUOUS
 62
     7
 10
-185.5059528816999
 20
-267.5686243670574
 30
0.0
 11
-172.50595288170001
 21
-265.68777330322769
 31
0.0
  0
LINE
  5
1BA
  8
DATA
  6
CONTINUOUS
 62
     7
 10
-185.5059528816999
 20
-265.0686243670574
 30
0.0
 11
-172.50595288170001
 21
-263.18777330322769
 31
0.0
  0
LINE
  5
1BB
  8
DATA
  6
CONTINUOUS
 62
     7
 10
-185.5059528816999
 20
-262.5686243670574
 30
0.0
 11
-172.50595288170001
 21
-260.68777330322769
 31
0.0
  0
LINE
  5
1BC
  8
DATA
  6
CONTINUOUS
 62
     7
 10
-185.5059528816999
 20
-260.0686243670574
 30
0.0
 11
-172.5059528817001
 21
-258.18777330322769
 31
0.0
  0
LINE
  5
1BD
  8
DATA
  6
CONTINUOUS
 62
     7
 10
-185.5059528816999
 20
-257.5686243670574
 30
0.0
 11
-172.5059528817001
 21
-255.68777330322769
 31
0.0
  0
LINE
  5
1BE
  8
DATA
  6
CONTINUOUS
 62
     7
 10
-185.5059528816999
 20
-255.0686243670574
 30
0.0
 11
-172.5059528817001
 21
-253.18777330322769
 31
0.0
  0
LINE
  5
1BF
  8
DATA
  6
CONTINUOUS
 62
     7
 10
-185.5059528816999
 20
-252.5686243670574
 30
0.0
 11
-172.5059528817001
 21
-250.68777330322769
 31
0.0
  0
LINE
  5
1C0
  8
DATA
  6
CONTINUOUS
 62
     7
 10
-185.5059528816999
 20
-250.0686243670574
 30
0.0
 11
-172.5059528817001
 21
-248.18777330322769
 31
0.0
  0
LINE
  5
1C1
  8
DATA
  6
CONTINUOUS
 62
     7
 10
-185.5059528816999
 20
-247.5686243670574
 30
0.0
 11
-172.5059528817001
 21
-245.68777330322769
 31
0.0
  0
LINE
  5
1C2
  8
DATA
  6
CONTINUOUS
 62
     7
 10
-185.5059528816999
 20
-245.0686243670574
 30
0.0
 11
-172.50595288170001
 21
-243.18777330322769
 31
0.0
  0
LINE
  5
1C3
  8
DATA
  6
CONTINUOUS
 62
     7
 10
-185.5059528816999
 20
-242.56862436705751
 30
0.0
 11
-172.50595288170001
 21
-240.68777330322769
 31
0.0
  0
LINE
  5
1C4
  8
DATA
  6
CONTINUOUS
 62
     7
 10
-185.5059528816999
 20
-240.06862436705751
 30
0.0
 11
-172.50595288170001
 21
-238.18777330322769
 31
0.0
  0
LINE
  5
1C5
  8
DATA
  6
CONTINUOUS
 62
     7
 10
-185.5059528816999
 20
-237.56862436705751
 30
0.0
 11
-172.50595288170001
 21
-235.68777330322769
 31
0.0
  0
LINE
  5
1C6
  8
DATA
  6
CONTINUOUS
 62
     7
 10
-185.5059528816999
 20
-235.0686243670574
 30
0.0
 11
-172.50595288170001
 21
-233.18777330322769
 31
0.0
  0
LINE
  5
1C7
  8
DATA
  6
CONTINUOUS
 62
     7
 10
-185.5059528816999
 20
-232.5686243670574
 30
0.0
 11
-172.50595288170001
 21
-230.68777330322769
 31
0.0
  0
LINE
  5
1C8
  8
DATA
  6
CONTINUOUS
 62
     7
 10
-185.5059528816999
 20
-230.06862436705751
 30
0.0
 11
-172.50595288170001
 21
-228.18777330322769
 31
0.0
  0
LINE
  5
1C9
  8
DATA
  6
CONTINUOUS
 62
     7
 10
-185.5059528816999
 20
-227.56862436705751
 30
0.0
 11
-172.50595288170001
 21
-225.68777330322769
 31
0.0
  0
LINE
  5
1CA
  8
DATA
  6
CONTINUOUS
 62
     7
 10
-185.5059528816999
 20
-225.06862436705751
 30
0.0
 11
-172.50595288170001
 21
-223.18777330322769
 31
0.0
  0
LINE
  5
1CB
  8
DATA
  6
CONTINUOUS
 62
     7
 10
-185.5059528816999
 20
-222.5686243670574
 30
0.0
 11
-172.5059528817001
 21
-220.68777330322769
 31
0.0
  0
LINE
  5
1CC
  8
DATA
  6
CONTINUOUS
 62
     7
 10
-185.5059528816999
 20
-220.0686243670574
 30
0.0
 11
-172.5059528817001
 21
-218.18777330322769
 31
0.0
  0
LINE
  5
1CD
  8
DATA
  6
CONTINUOUS
 62
     7
 10
-185.5059528816999
 20
-217.5686243670574
 30
0.0
 11
-172.5059528817001
 21
-215.68777330322769
 31
0.0
  0
LINE
  5
1CE
  8
DATA
  6
CONTINUOUS
 62
     7
 10
-185.5059528816999
 20
-215.0686243670574
 30
0.0
 11
-172.5059528817001
 21
-213.18777330322769
 31
0.0
  0
LINE
  5
1CF
  8
DATA
  6
CONTINUOUS
 62
     7
 10
-185.5059528816999
 20
-212.5686243670574
 30
0.0
 11
-172.5059528817001
 21
-210.68777330322769
 31
0.0
  0
LINE
  5
1D0
  8
DATA
  6
CONTINUOUS
 62
     7
 10
-185.5059528816999
 20
-210.0686243670574
 30
0.0
 11
-172.5059528817001
 21
-208.18777330322769
 31
0.0
  0
LINE
  5
1D1
  8
DATA
  6
CONTINUOUS
 62
     7
 10
-185.5059528816999
 20
-207.5686243670574
 30
0.0
 11
-172.5059528817001
 21
-205.68777330322769
 31
0.0
  0
LINE
  5
1D2
  8
DATA
  6
CONTINUOUS
 62
     7
 10
-185.5059528816999
 20
-205.06862436705751
 30
0.0
 11
-172.50595288170001
 21
-203.18777330322769
 31
0.0
  0
LINE
  5
1D3
  8
DATA
  6
CONTINUOUS
 62
     7
 10
-185.5059528816999
 20
-202.56862436705751
 30
0.0
 11
-172.50595288170001
 21
-200.68777330322769
 31
0.0
  0
LINE
  5
1D4
  8
DATA
  6
CONTINUOUS
 62
     7
 10
-185.5059528816999
 20
-200.0686243670574
 30
0.0
 11
-172.50595288170001
 21
-198.18777330322769
 31
0.0
  0
LINE
  5
1D5
  8
DATA
  6
CONTINUOUS
 62
     7
 10
-185.5059528816999
 20
-197.5686243670574
 30
0.0
 11
-172.50595288170001
 21
-195.68777330322769
 31
0.0
  0
LINE
  5
1D6
  8
DATA
  6
CONTINUOUS
 62
     7
 10
-185.5059528816999
 20
-195.0686243670574
 30
0.0
 11
-172.50595288170001
 21
-193.18777330322769
 31
0.0
  0
LINE
  5
1D7
  8
DATA
  6
CONTINUOUS
 62
     7
 10
-185.5059528816999
 20
-192.5686243670574
 30
0.0
 11
-172.50595288170001
 21
-190.68777330322769
 31
0.0
  0
LINE
  5
1D8
  8
DATA
  6
CONTINUOUS
 62
     7
 10
-185.5059528816999
 20
-190.0686243670574
 30
0.0
 11
-172.50595288170001
 21
-188.18777330322769
 31
0.0
  0
LINE
  5
1D9
  8
DATA
  6
CONTINUOUS
 62
     7
 10
-185.5059528816999
 20
-187.5686243670574
 30
0.0
 11
-172.50595288170001
 21
-185.68777330322769
 31
0.0
  0
LINE
  5
1DA
  8
DATA
  6
CONTINUOUS
 62
     7
 10
-185.5059528816999
 20
-185.0686243670574
 30
0.0
 11
-172.50595288170001
 21
-183.18777330322769
 31
0.0
  0
LINE
  5
1DB
  8
DATA
  6
CONTINUOUS
 62
     7
 10
-185.5059528816999
 20
-182.5686243670574
 30
0.0
 11
-172.5059528817001
 21
-180.68777330322769
 31
0.0
  0
LINE
  5
1DC
  8
DATA
  6
CONTINUOUS
 62
     7
 10
-185.5059528816999
 20
-180.0686243670574
 30
0.0
 11
-172.5059528817001
 21
-178.1877733032276
 31
0.0
  0
LINE
  5
1DD
  8
DATA
  6
CONTINUOUS
 62
     7
 10
-185.5059528816999
 20
-177.5686243670574
 30
0.0
 11
-172.5059528817001
 21
-175.6877733032276
 31
0.0
  0
LINE
  5
1DE
  8
DATA
  6
CONTINUOUS
 62
     7
 10
-185.5059528816999
 20
-175.0686243670574
 30
0.0
 11
-172.5059528817001
 21
-173.1877733032276
 31
0.0
  0
LINE
  5
1DF
  8
DATA
  6
CONTINUOUS
 62
     7
 10
-185.5059528816999
 20
-172.5686243670574
 30
0.0
 11
-172.5059528817001
 21
-170.6877733032276
 31
0.0
  0
LINE
  5
1E0
  8
DATA
  6
CONTINUOUS
 62
     7
 10
-185.5059528816999
 20
-170.0686243670574
 30
0.0
 11
-172.5059528817001
 21
-168.1877733032276
 31
0.0
  0
LINE
  5
1E1
  8
DATA
  6
CONTINUOUS
 62
     7
 10
-185.5059528816999
 20
-167.5686243670574
 30
0.0
 11
-172.5059528817001
 21
-165.6877733032276
 31
0.0
  0
LINE
  5
1E2
  8
DATA
  6
CONTINUOUS
 62
     7
 10
-185.5059528816999
 20
-165.06862436705751
 30
0.0
 11
-172.50595288170001
 21
-163.1877733032276
 31
0.0
  0
LINE
  5
1E3
  8
DATA
  6
CONTINUOUS
 62
     7
 10
-185.5059528816999
 20
-162.56862436705751
 30
0.0
 11
-172.50595288170001
 21
-160.6877733032276
 31
0.0
  0
LINE
  5
1E4
  8
DATA
  6
CONTINUOUS
 62
     7
 10
-185.5059528816999
 20
-160.06862436705751
 30
0.0
 11
-172.50595288170001
 21
-158.1877733032276
 31
0.0
  0
LINE
  5
1E5
  8
DATA
  6
CONTINUOUS
 62
     7
 10
-185.5059528816999
 20
-157.5686243670574
 30
0.0
 11
-172.50595288170001
 21
-155.6877733032276
 31
0.0
  0
LINE
  5
1E6
  8
DATA
  6
CONTINUOUS
 62
     7
 10
-185.5059528816999
 20
-155.06862436705751
 30
0.0
 11
-172.50595288170001
 21
-153.1877733032276
 31
0.0
  0
LINE
  5
1E7
  8
DATA
  6
CONTINUOUS
 62
     7
 10
-185.5059528816999
 20
-152.5686243670574
 30
0.0
 11
-172.5059528817001
 21
-150.6877733032276
 31
0.0
  0
LINE
  5
1E8
  8
DATA
  6
CONTINUOUS
 62
     7
 10
-185.5059528816999
 20
-150.06862436705751
 30
0.0
 11
-172.5059528817001
 21
-148.1877733032276
 31
0.0
  0
LINE
  5
1E9
  8
DATA
  6
CONTINUOUS
 62
     7
 10
-185.5059528816999
 20
-147.56862436705751
 30
0.0
 11
-172.5059528817001
 21
-145.6877733032276
 31
0.0
  0
LINE
  5
1EA
  8
DATA
  6
CONTINUOUS
 62
     7
 10
-185.5059528816999
 20
-145.0686243670574
 30
0.0
 11
-172.5059528817001
 21
-143.1877733032276
 31
0.0
  0
LINE
  5
1EB
  8
DATA
  6
CONTINUOUS
 62
     7
 10
-185.5059528816999
 20
-142.56862436705751
 30
0.0
 11
-172.5059528817001
 21
-140.6877733032276
 31
0.0
  0
LINE
  5
1EC
  8
DATA
  6
CONTINUOUS
 62
     7
 10
-185.5059528816999
 20
-140.06862436705751
 30
0.0
 11
-172.5059528817001
 21
-138.1877733032276
 31
0.0
  0
LINE
  5
1ED
  8
DATA
  6
CONTINUOUS
 62
     7
 10
102.4999999999
 20
-117.9999999999999
 30
0.0
 11
102.4999999999
 21
-76.5
 31
0.0
  0
LINE
  5
1EE
  8
DATA
  6
CONTINUOUS
 62
     7
 10
137.49999999990001
 20
-76.5
 30
0.0
 11
137.49999999990001
 21
-118.1218793502758
 31
0.0
  0
LINE
  5
1EF
  8
DATA
  6
CONTINUOUS
 62
     7
 10
102.4999999999
 20
-80.200000000000017
 30
0.0
 11
137.49999999990001
 21
-80.200000000000017
 31
0.0
  0
LINE
  5
1F0
  8
DATA
  6
CONTINUOUS
 62
     7
 10
102.4999999999
 20
-76.5
 30
0.0
 11
137.49999999990001
 21
-76.5
 31
0.0
  0
LINE
  5
1F1
  8
DATA
  6
CONTINUOUS
 62
     7
 10
102.4999999999
 20
-76.5
 30
0.0
 11
103.3660254036844
 21
-75.0
 31
0.0
  0
LINE
  5
1F2
  8
DATA
  6
CONTINUOUS
 62
     7
 10
137.49999999990001
 20
-76.5
 30
0.0
 11
136.63397459611559
 21
-75.0
 31
0.0
  0
LINE
  5
1F3
  8
DATA
  6
CONTINUOUS
 62
     7
 10
102.4999999999
 20
-82.579999999999998
 30
0.0
 11
137.49999999990001
 21
-82.579999999999998
 31
0.0
  0
LINE
  5
1F4
  8
DATA
  6
CONTINUOUS
 62
     7
 10
102.4999999999
 20
-85.379999999999981
 30
0.0
 11
137.49999999990001
 21
-85.379999999999981
 31
0.0
  0
LINE
  5
1F5
  8
DATA
  6
CONTINUOUS
 62
     7
 10
102.4999999999
 20
-88.179999999999964
 30
0.0
 11
137.49999999990001
 21
-88.179999999999964
 31
0.0
  0
LINE
  5
1F6
  8
DATA
  6
CONTINUOUS
 62
     7
 10
102.4999999999
 20
-90.980000000000004
 30
0.0
 11
137.49999999990001
 21
-90.980000000000004
 31
0.0
  0
LINE
  5
1F7
  8
DATA
  6
CONTINUOUS
 62
     7
 10
102.4999999999
 20
-93.780000000000001
 30
0.0
 11
137.49999999990001
 21
-93.780000000000001
 31
0.0
  0
LINE
  5
1F8
  8
DATA
  6
CONTINUOUS
 62
     7
 10
102.4999999999
 20
-96.580000000000013
 30
0.0
 11
137.49999999990001
 21
-96.580000000000013
 31
0.0
  0
LINE
  5
1F9
  8
DATA
  6
CONTINUOUS
 62
     7
 10
102.4999999999
 20
-99.379999999999995
 30
0.0
 11
137.49999999990001
 21
-99.379999999999995
 31
0.0
  0
LINE
  5
1FA
  8
DATA
  6
CONTINUOUS
 62
     7
 10
102.4999999999
 20
-102.18000000000001
 30
0.0
 11
137.49999999990001
 21
-102.18000000000001
 31
0.0
  0
LINE
  5
1FB
  8
DATA
  6
CONTINUOUS
 62
     7
 10
102.4999999999
 20
-104.98
 30
0.0
 11
137.49999999990001
 21
-104.98
 31
0.0
  0
LINE
  5
1FC
  8
DATA
  6
CONTINUOUS
 62
     7
 10
105.9999999998999
 20
-104.98
 30
0.0
 11
105.9999999998999
 21
-102.18000000000001
 31
0.0
  0
LINE
  5
1FD
  8
DATA
  6
CONTINUOUS
 62
     7
 10
105.9999999998999
 20
-99.379999999999981
 30
0.0
 11
105.9999999998999
 21
-96.579999999999984
 31
0.0
  0
LINE
  5
1FE
  8
DATA
  6
CONTINUOUS
 62
     7
 10
105.9999999998999
 20
-93.780000000000001
 30
0.0
 11
105.9999999998999
 21
-90.980000000000004
 31
0.0
  0
LINE
  5
1FF
  8
DATA
  6
CONTINUOUS
 62
     7
 10
105.9999999998999
 20
-88.179999999999964
 30
0.0
 11
105.9999999998999
 21
-85.379999999999981
 31
0.0
  0
LINE
  5
200
  8
DATA
  6
CONTINUOUS
 62
     7
 10
105.9999999998999
 20
-82.579999999999984
 30
0.0
 11
105.9999999998999
 21
-80.200000000000017
 31
0.0
  0
LINE
  5
201
  8
DATA
  6
CONTINUOUS
 62
     7
 10
133.9999999998999
 20
-80.200000000000017
 30
0.0
 11
133.9999999998999
 21
-82.579999999999984
 31
0.0
  0
LINE
  5
202
  8
DATA
  6
CONTINUOUS
 62
     7
 10
133.9999999998999
 20
-85.379999999999981
 30
0.0
 11
133.9999999998999
 21
-88.180000000000007
 31
0.0
  0
LINE
  5
203
  8
DATA
  6
CONTINUOUS
 62
     7
 10
133.9999999998999
 20
-90.980000000000004
 30
0.0
 11
133.9999999998999
 21
-93.780000000000001
 31
0.0
  0
LINE
  5
204
  8
DATA
  6
CONTINUOUS
 62
     7
 10
133.9999999998999
 20
-96.580000000000013
 30
0.0
 11
133.9999999998999
 21
-99.379999999999995
 31
0.0
  0
LINE
  5
205
  8
DATA
  6
CONTINUOUS
 62
     7
 10
133.9999999998999
 20
-102.18000000000001
 30
0.0
 11
133.9999999998999
 21
-104.98
 31
0.0
  0
LINE
  5
206
  8
DATA
  6
CONTINUOUS
 62
     7
 10
107.4999999998999
 20
-133.0
 30
0.0
 11
107.4999999998999
 21
-126.0
 31
0.0
  0
LINE
  5
207
  8
DATA
  6
CONTINUOUS
 62
     7
 10
132.4999999998999
 20
-126.0
 30
0.0
 11
132.4999999998999
 21
-133.0
 31
0.0
  0
LINE
  5
208
  8
DATA
  6
CONTINUOUS
 62
     7
 10
107.4999999998999
 20
-126.0
 30
0.0
 11
132.4999999998999
 21
-126.0
 31
0.0
  0
LINE
  5
209
  8
DATA
  6
CONTINUOUS
 62
     7
 10
107.4999999998999
 20
-126.0
 30
0.0
 11
102.4999999999
 21
-118.0
 31
0.0
  0
LINE
  5
20A
  8
DATA
  6
CONTINUOUS
 62
     7
 10
132.4999999998999
 20
-126.0
 30
0.0
 11
137.57735306143249
 21
-118.0
 31
0.0
  0
LINE
  5
20B
  8
DATA
  6
CONTINUOUS
 62
     7
 10
107.4999999998999
 20
-133.0
 30
0.0
 11
132.4999999998999
 21
-133.0
 31
0.0
  0
LINE
  5
20C
  8
DATA
  6
CONTINUOUS
 62
     7
 10
113.4999999998999
 20
-324.0
 30
0.0
 11
113.4999999998999
 21
-255.15947943956269
 31
0.0
  0
LINE
  5
20D
  8
DATA
  6
CONTINUOUS
 62
     7
 10
126.4999999998999
 20
-249.77470312871279
 30
0.0
 11
126.4999999998999
 21
-324.0
 31
0.0
  0
LINE
  5
20E
  8
DATA
  6
CONTINUOUS
 62
     7
 10
113.4999999998999
 20
-138.0
 30
0.0
 11
126.4999999998999
 21
-138.0
 31
0.0
  0
LINE
  5
20F
  8
DATA
  6
CONTINUOUS
 62
     7
 10
113.4999999998999
 20
-138.0
 30
0.0
 11
107.4999999998999
 21
-133.0
 31
0.0
  0
LINE
  5
210
  8
DATA
  6
CONTINUOUS
 62
     7
 10
126.4999999998999
 20
-138.0
 30
0.0
 11
132.4999999998999
 21
-133.0
 31
0.0
  0
LINE
  5
211
  8
DATA
  6
CONTINUOUS
 62
     7
 10
108.9999999999
 20
-325.0
 30
0.0
 11
113.4999999998999
 21
-324.0
 31
0.0
  0
LINE
  5
212
  8
DATA
  6
CONTINUOUS
 62
     7
 10
130.99999999990001
 20
-325.0
 30
0.0
 11
126.4999999998999
 21
-324.0
 31
0.0
  0
LINE
  5
213
  8
DATA
  6
CONTINUOUS
 62
     7
 10
106.3790436559905
 20
-371.12883165279862
 30
0.0
 11
108.9999999999
 21
-325.0
 31
0.0
  0
LINE
  5
214
  8
DATA
  6
CONTINUOUS
 62
     7
 10
133.5623780234167
 20
-370.09785321388551
 30
0.0
 11
130.99999999990001
 21
-325.0
 31
0.0
  0
LINE
  5
215
  8
DATA
  6
CONTINUOUS
 62
     7
 10
113.4999999998999
 20
-324.0
 30
0.0
 11
126.4999999998999
 21
-324.0
 31
0.0
  0
LINE
  5
216
  8
DATA
  6
CONTINUOUS
 62
     7
 10
113.4999999999
 20
-322.5686243670574
 30
0.0
 11
126.4999999998999
 21
-320.68777330322769
 31
0.0
  0
LINE
  5
217
  8
DATA
  6
CONTINUOUS
 62
     7
 10
113.4999999999
 20
-320.0686243670574
 30
0.0
 11
126.4999999998999
 21
-318.18777330322769
 31
0.0
  0
LINE
  5
218
  8
DATA
  6
CONTINUOUS
 62
     7
 10
113.4999999999
 20
-317.5686243670574
 30
0.0
 11
126.4999999998999
 21
-315.68777330322769
 31
0.0
  0
LINE
  5
219
  8
DATA
  6
CONTINUOUS
 62
     7
 10
113.4999999999
 20
-315.0686243670574
 30
0.0
 11
126.4999999998999
 21
-313.18777330322769
 31
0.0
  0
LINE
  5
21A
  8
DATA
  6
CONTINUOUS
 62
     7
 10
113.4999999999
 20
-312.5686243670574
 30
0.0
 11
126.4999999998999
 21
-310.68777330322769
 31
0.0
  0
LINE
  5
21B
  8
DATA
  6
CONTINUOUS
 62
     7
 10
113.4999999999
 20
-310.0686243670574
 30
0.0
 11
126.4999999998999
 21
-308.18777330322769
 31
0.0
  0
LINE
  5
21C
  8
DATA
  6
CONTINUOUS
 62
     7
 10
113.4999999999
 20
-307.5686243670574
 30
0.0
 11
126.4999999998999
 21
-305.68777330322769
 31
0.0
  0
LINE
  5
21D
  8
DATA
  6
CONTINUOUS
 62
     7
 10
113.4999999999
 20
-305.0686243670574
 30
0.0
 11
126.4999999998999
 21
-303.18777330322769
 31
0.0
  0
LINE
  5
21E
  8
DATA
  6
CONTINUOUS
 62
     7
 10
113.4999999999
 20
-302.5686243670574
 30
0.0
 11
126.4999999998999
 21
-300.68777330322769
 31
0.0
  0
LINE
  5
21F
  8
DATA
  6
CONTINUOUS
 62
     7
 10
113.4999999999
 20
-300.0686243670574
 30
0.0
 11
126.4999999998999
 21
-298.18777330322769
 31
0.0
  0
LINE
  5
220
  8
DATA
  6
CONTINUOUS
 62
     7
 10
113.4999999999
 20
-297.5686243670574
 30
0.0
 11
126.4999999998999
 21
-295.68777330322769
 31
0.0
  0
LINE
  5
221
  8
DATA
  6
CONTINUOUS
 62
     7
 10
113.4999999999
 20
-295.0686243670574
 30
0.0
 11
126.4999999998999
 21
-293.18777330322769
 31
0.0
  0
LINE
  5
222
  8
DATA
  6
CONTINUOUS
 62
     7
 10
113.4999999999
 20
-292.5686243670574
 30
0.0
 11
126.4999999998999
 21
-290.68777330322769
 31
0.0
  0
LINE
  5
223
  8
DATA
  6
CONTINUOUS
 62
     7
 10
113.4999999999
 20
-290.0686243670574
 30
0.0
 11
126.4999999998999
 21
-288.18777330322769
 31
0.0
  0
LINE
  5
224
  8
DATA
  6
CONTINUOUS
 62
     7
 10
113.4999999999
 20
-287.5686243670574
 30
0.0
 11
126.4999999998999
 21
-285.68777330322769
 31
0.0
  0
LINE
  5
225
  8
DATA
  6
CONTINUOUS
 62
     7
 10
113.4999999999
 20
-285.0686243670574
 30
0.0
 11
126.4999999998999
 21
-283.18777330322769
 31
0.0
  0
LINE
  5
226
  8
DATA
  6
CONTINUOUS
 62
     7
 10
113.4999999999
 20
-282.5686243670574
 30
0.0
 11
126.4999999998999
 21
-280.68777330322769
 31
0.0
  0
LINE
  5
227
  8
DATA
  6
CONTINUOUS
 62
     7
 10
113.4999999999
 20
-280.0686243670574
 30
0.0
 11
126.4999999998999
 21
-278.18777330322769
 31
0.0
  0
LINE
  5
228
  8
DATA
  6
CONTINUOUS
 62
     7
 10
113.4999999999
 20
-277.5686243670574
 30
0.0
 11
126.4999999998999
 21
-275.68777330322769
 31
0.0
  0
LINE
  5
229
  8
DATA
  6
CONTINUOUS
 62
     7
 10
113.4999999999
 20
-275.0686243670574
 30
0.0
 11
126.4999999998999
 21
-273.18777330322769
 31
0.0
  0
LINE
  5
22A
  8
DATA
  6
CONTINUOUS
 62
     7
 10
113.4999999999
 20
-272.5686243670574
 30
0.0
 11
126.4999999998999
 21
-270.68777330322769
 31
0.0
  0
LINE
  5
22B
  8
DATA
  6
CONTINUOUS
 62
     7
 10
113.4999999999
 20
-270.0686243670574
 30
0.0
 11
126.4999999998999
 21
-268.18777330322769
 31
0.0
  0
LINE
  5
22C
  8
DATA
  6
CONTINUOUS
 62
     7
 10
113.4999999999
 20
-267.5686243670574
 30
0.0
 11
126.4999999998999
 21
-265.68777330322769
 31
0.0
  0
LINE
  5
22D
  8
DATA
  6
CONTINUOUS
 62
     7
 10
113.4999999999
 20
-265.0686243670574
 30
0.0
 11
126.4999999998999
 21
-263.18777330322769
 31
0.0
  0
LINE
  5
22E
  8
DATA
  6
CONTINUOUS
 62
     7
 10
113.4999999999
 20
-262.5686243670574
 30
0.0
 11
126.4999999998999
 21
-260.68777330322769
 31
0.0
  0
LINE
  5
22F
  8
DATA
  6
CONTINUOUS
 62
     7
 10
113.4999999999
 20
-260.0686243670574
 30
0.0
 11
126.4999999998999
 21
-258.18777330322769
 31
0.0
  0
LINE
  5
230
  8
DATA
  6
CONTINUOUS
 62
     7
 10
113.4999999999
 20
-257.5686243670574
 30
0.0
 11
126.4999999998999
 21
-255.68777330322769
 31
0.0
  0
LINE
  5
231
  8
DATA
  6
CONTINUOUS
 62
     7
 10
113.4999999999
 20
-255.0686243670574
 30
0.0
 11
126.4999999998999
 21
-253.18777330322769
 31
0.0
  0
LINE
  5
232
  8
DATA
  6
CONTINUOUS
 62
     7
 10
113.4999999999
 20
-252.5686243670574
 30
0.0
 11
126.4999999998999
 21
-250.68777330322769
 31
0.0
  0
LINE
  5
233
  8
DATA
  6
CONTINUOUS
 62
     7
 10
113.4999999999
 20
-250.0686243670574
 30
0.0
 11
126.4999999998999
 21
-248.18777330322769
 31
0.0
  0
LINE
  5
234
  8
DATA
  6
CONTINUOUS
 62
     7
 10
113.4999999999
 20
-247.5686243670574
 30
0.0
 11
126.4999999998999
 21
-245.68777330322769
 31
0.0
  0
LINE
  5
235
  8
DATA
  6
CONTINUOUS
 62
     7
 10
113.4999999999
 20
-245.0686243670574
 30
0.0
 11
126.4999999998999
 21
-243.18777330322769
 31
0.0
  0
LINE
  5
236
  8
DATA
  6
CONTINUOUS
 62
     7
 10
113.4999999999
 20
-242.56862436705751
 30
0.0
 11
126.4999999998999
 21
-240.68777330322769
 31
0.0
  0
LINE
  5
237
  8
DATA
  6
CONTINUOUS
 62
     7
 10
113.4999999999
 20
-240.06862436705751
 30
0.0
 11
126.4999999998999
 21
-238.18777330322769
 31
0.0
  0
LINE
  5
238
  8
DATA
  6
CONTINUOUS
 62
     7
 10
113.4999999999
 20
-237.56862436705751
 30
0.0
 11
126.4999999998999
 21
-235.68777330322769
 31
0.0
  0
LINE
  5
239
  8
DATA
  6
CONTINUOUS
 62
     7
 10
113.4999999999
 20
-235.0686243670574
 30
0.0
 11
126.4999999998999
 21
-233.18777330322769
 31
0.0
  0
LINE
  5
23A
  8
DATA
  6
CONTINUOUS
 62
     7
 10
113.4999999999
 20
-232.5686243670574
 30
0.0
 11
126.4999999998999
 21
-230.68777330322769
 31
0.0
  0
LINE
  5
23B
  8
DATA
  6
CONTINUOUS
 62
     7
 10
113.4999999999
 20
-230.06862436705751
 30
0.0
 11
126.4999999998999
 21
-228.18777330322769
 31
0.0
  0
LINE
  5
23C
  8
DATA
  6
CONTINUOUS
 62
     7
 10
113.4999999999
 20
-227.56862436705751
 30
0.0
 11
126.4999999998999
 21
-225.68777330322769
 31
0.0
  0
LINE
  5
23D
  8
DATA
  6
CONTINUOUS
 62
     7
 10
113.4999999999
 20
-225.06862436705751
 30
0.0
 11
126.4999999998999
 21
-223.18777330322769
 31
0.0
  0
LINE
  5
23E
  8
DATA
  6
CONTINUOUS
 62
     7
 10
113.4999999999
 20
-222.5686243670574
 30
0.0
 11
126.4999999998999
 21
-220.68777330322769
 31
0.0
  0
LINE
  5
23F
  8
DATA
  6
CONTINUOUS
 62
     7
 10
113.4999999999
 20
-220.0686243670574
 30
0.0
 11
126.4999999998999
 21
-218.18777330322769
 31
0.0
  0
LINE
  5
240
  8
DATA
  6
CONTINUOUS
 62
     7
 10
113.4999999999
 20
-217.5686243670574
 30
0.0
 11
126.4999999998999
 21
-215.68777330322769
 31
0.0
  0
LINE
  5
241
  8
DATA
  6
CONTINUOUS
 62
     7
 10
113.4999999999
 20
-215.0686243670574
 30
0.0
 11
126.4999999998999
 21
-213.18777330322769
 31
0.0
  0
LINE
  5
242
  8
DATA
  6
CONTINUOUS
 62
     7
 10
113.4999999999
 20
-212.5686243670574
 30
0.0
 11
126.4999999998999
 21
-210.68777330322769
 31
0.0
  0
LINE
  5
243
  8
DATA
  6
CONTINUOUS
 62
     7
 10
113.4999999999
 20
-210.0686243670574
 30
0.0
 11
126.4999999998999
 21
-208.18777330322769
 31
0.0
  0
LINE
  5
244
  8
DATA
  6
CONTINUOUS
 62
     7
 10
113.4999999999
 20
-207.5686243670574
 30
0.0
 11
126.4999999998999
 21
-205.68777330322769
 31
0.0
  0
LINE
  5
245
  8
DATA
  6
CONTINUOUS
 62
     7
 10
113.4999999999
 20
-205.06862436705751
 30
0.0
 11
126.4999999998999
 21
-203.18777330322769
 31
0.0
  0
LINE
  5
246
  8
DATA
  6
CONTINUOUS
 62
     7
 10
113.4999999999
 20
-202.56862436705751
 30
0.0
 11
126.4999999998999
 21
-200.68777330322769
 31
0.0
  0
LINE
  5
247
  8
DATA
  6
CONTINUOUS
 62
     7
 10
113.4999999999
 20
-200.0686243670574
 30
0.0
 11
126.4999999998999
 21
-198.18777330322769
 31
0.0
  0
LINE
  5
248
  8
DATA
  6
CONTINUOUS
 62
     7
 10
113.4999999999
 20
-197.5686243670574
 30
0.0
 11
126.4999999998999
 21
-195.68777330322769
 31
0.0
  0
LINE
  5
249
  8
DATA
  6
CONTINUOUS
 62
     7
 10
113.4999999999
 20
-195.0686243670574
 30
0.0
 11
126.4999999998999
 21
-193.18777330322769
 31
0.0
  0
LINE
  5
24A
  8
DATA
  6
CONTINUOUS
 62
     7
 10
113.4999999999
 20
-192.5686243670574
 30
0.0
 11
126.4999999998999
 21
-190.68777330322769
 31
0.0
  0
LINE
  5
24B
  8
DATA
  6
CONTINUOUS
 62
     7
 10
113.4999999999
 20
-190.0686243670574
 30
0.0
 11
126.4999999998999
 21
-188.18777330322769
 31
0.0
  0
LINE
  5
24C
  8
DATA
  6
CONTINUOUS
 62
     7
 10
113.4999999999
 20
-187.5686243670574
 30
0.0
 11
126.4999999998999
 21
-185.68777330322769
 31
0.0
  0
LINE
  5
24D
  8
DATA
  6
CONTINUOUS
 62
     7
 10
113.4999999999
 20
-185.0686243670574
 30
0.0
 11
126.4999999998999
 21
-183.18777330322769
 31
0.0
  0
LINE
  5
24E
  8
DATA
  6
CONTINUOUS
 62
     7
 10
113.4999999999
 20
-182.5686243670574
 30
0.0
 11
126.4999999998999
 21
-180.68777330322769
 31
0.0
  0
LINE
  5
24F
  8
DATA
  6
CONTINUOUS
 62
     7
 10
113.4999999999
 20
-180.0686243670574
 30
0.0
 11
126.4999999998999
 21
-178.1877733032276
 31
0.0
  0
LINE
  5
250
  8
DATA
  6
CONTINUOUS
 62
     7
 10
113.4999999999
 20
-177.5686243670574
 30
0.0
 11
126.4999999998999
 21
-175.6877733032276
 31
0.0
  0
LINE
  5
251
  8
DATA
  6
CONTINUOUS
 62
     7
 10
113.4999999999
 20
-175.0686243670574
 30
0.0
 11
126.4999999998999
 21
-173.1877733032276
 31
0.0
  0
LINE
  5
252
  8
DATA
  6
CONTINUOUS
 62
     7
 10
113.4999999999
 20
-172.5686243670574
 30
0.0
 11
126.4999999998999
 21
-170.6877733032276
 31
0.0
  0
LINE
  5
253
  8
DATA
  6
CONTINUOUS
 62
     7
 10
113.4999999999
 20
-170.0686243670574
 30
0.0
 11
126.4999999998999
 21
-168.1877733032276
 31
0.0
  0
LINE
  5
254
  8
DATA
  6
CONTINUOUS
 62
     7
 10
113.4999999999
 20
-167.5686243670574
 30
0.0
 11
126.4999999998999
 21
-165.6877733032276
 31
0.0
  0
LINE
  5
255
  8
DATA
  6
CONTINUOUS
 62
     7
 10
113.4999999999
 20
-165.06862436705751
 30
0.0
 11
126.4999999998999
 21
-163.1877733032276
 31
0.0
  0
LINE
  5
256
  8
DATA
  6
CONTINUOUS
 62
     7
 10
113.4999999999
 20
-162.56862436705751
 30
0.0
 11
126.4999999998999
 21
-160.6877733032276
 31
0.0
  0
LINE
  5
257
  8
DATA
  6
CONTINUOUS
 62
     7
 10
113.4999999999
 20
-160.06862436705751
 30
0.0
 11
126.4999999998999
 21
-158.1877733032276
 31
0.0
  0
LINE
  5
258
  8
DATA
  6
CONTINUOUS
 62
     7
 10
113.4999999999
 20
-157.5686243670574
 30
0.0
 11
126.4999999998999
 21
-155.6877733032276
 31
0.0
  0
LINE
  5
259
  8
DATA
  6
CONTINUOUS
 62
     7
 10
113.4999999999
 20
-155.06862436705751
 30
0.0
 11
126.4999999998999
 21
-153.1877733032276
 31
0.0
  0
LINE
  5
25A
  8
DATA
  6
CONTINUOUS
 62
     7
 10
113.4999999999
 20
-152.5686243670574
 30
0.0
 11
126.4999999998999
 21
-150.6877733032276
 31
0.0
  0
LINE
  5
25B
  8
DATA
  6
CONTINUOUS
 62
     7
 10
113.4999999999
 20
-150.06862436705751
 30
0.0
 11
126.4999999998999
 21
-148.1877733032276
 31
0.0
  0
LINE
  5
25C
  8
DATA
  6
CONTINUOUS
 62
     7
 10
113.4999999999
 20
-147.56862436705751
 30
0.0
 11
126.4999999998999
 21
-145.6877733032276
 31
0.0
  0
LINE
  5
25D
  8
DATA
  6
CONTINUOUS
 62
     7
 10
113.4999999999
 20
-145.0686243670574
 30
0.0
 11
126.4999999998999
 21
-143.1877733032276
 31
0.0
  0
LINE
  5
25E
  8
DATA
  6
CONTINUOUS
 62
     7
 10
113.4999999999
 20
-142.56862436705751
 30
0.0
 11
126.4999999998999
 21
-140.6877733032276
 31
0.0
  0
LINE
  5
25F
  8
DATA
  6
CONTINUOUS
 62
     7
 10
113.4999999999
 20
-140.06862436705751
 30
0.0
 11
126.4999999998999
 21
-138.1877733032276
 31
0.0
  0
LINE
  5
260
  8
DATA
  6
CONTINUOUS
 62
     7
 10
-2.0717967697699069
 20
-420.0
 30
0.0
 11
148.13925459472489
 21
-420.0
 31
0.0
  0
LINE
  5
261
  8
DATA
  6
CONTINUOUS
 62
     7
 10
152.99999999995441
 20
-410.0
 30
0.0
 11
152.99999999995441
 21
-407.80000000000001
 31
0.0
  0
LINE
  5
262
  8
DATA
  6
CONTINUOUS
 62
     7
 10
-10.000000000045519
 20
-410.0
 30
0.0
 11
-10.000000000045519
 21
-407.80000000000001
 31
0.0
  0
LINE
  5
263
  8
DATA
  6
CONTINUOUS
 62
     7
 10
-10.000000000045519
 20
-407.80000000000001
 30
0.0
 11
152.9999999999545
 21
-407.80000000000001
 31
0.0
  0
LINE
  5
264
  8
DATA
  6
CONTINUOUS
 62
     7
 10
-10.00000000004554
 20
-410.0
 30
0.0
 11
152.99999999995441
 21
-410.0
 31
0.0
  0
LINE
  5
265
  8
DATA
  6
CONTINUOUS
 62
     7
 10
151.9999999999545
 20
-410.0
 30
0.0
 11
150.089940821716
 21
-418.44138786098762
 31
0.0
  0
LINE
  5
266
  8
DATA
  6
CONTINUOUS
 62
     7
 10
-9.0000000000455191
 20
-410.0
 30
0.0
 11
-3.8038475773387752
 21
-419.0
 31
0.0
  0
LINE
  5
267
  8
DATA
  6
CONTINUOUS
 62
     7
 10
-9.0000000000455191
 20
-407.80000000000001
 30
0.0
 11
-6.9858998973317368
 21
-401.57341488766571
 31
0.0
  0
LINE
  5
268
  8
DATA
  6
CONTINUOUS
 62
     7
 10
151.9999999999545
 20
-407.80000000000013
 30
0.0
 11
141.096412431
 21
-378.60000000000002
 31
0.0
  0
ARC
  5
269
  8
DATA
  6
CONTINUOUS
 62
     7
 10
128.15954023600429
 20
-382.47463941269081
 30
0.0
 40
13.504647080469351
 50
16.673145882061931
 51
93.820257022374463
  0
ARC
  5
26A
  8
DATA
  6
CONTINUOUS
 62
     7
 10
125.64085199024061
 20
-456.58989624158932
 30
0.0
 40
87.604856149387402
 50
88.941126258280732
 51
106.1683082676968
  0
LINE
  5
26B
  8
DATA
  6
CONTINUOUS
 62
     7
 10
-4.874833835604238
 20
-399.59026231533829
 30
0.0
 11
101.246412431
 21
-372.4500000000001
 31
0.0
  0
ARC
  5
26C
  8
DATA
  6
CONTINUOUS
 62
     7
 10
-179.0612206124249
 20
-228.67271206077581
 30
0.0
 40
96.947065794547456
 50
263.51783676509763
 51
276.525619166556
  0
LINE
  5
26D
  8
DATA
  6
CONTINUOUS
 62
     7
 10
-191.2559528817003
 20
-347.0
 30
0.0
 11
-166.7559528816997
 21
-347.0
 31
0.0
  0
LINE
  5
26E
  8
DATA
  6
CONTINUOUS
 62
     7
 10
107.7499999998998
 20
-347.0
 30
0.0
 11
132.24999999990021
 21
-347.0
 31
0.0
  0
LINE
  5
26F
  8
DATA
  6
CONTINUOUS
 62
     7
 10
-191.3014074271548
 20
-347.80000000000001
 30
0.0
 11
-166.71049833624519
 21
-347.80000000000001
 31
0.0
  0
LINE
  5
270
  8
DATA
  6
CONTINUOUS
 62
     7
 10
107.7045454544452
 20
-347.80000000000001
 30
0.0
 11
132.2954545453548
 21
-347.80000000000001
 31
0.0
  0
ARC
  5
271
  8
DATA
  6
CONTINUOUS
 62
     7
 10
119.9999999999
 20
-213.3299316048259
 30
0.0
 40
112.2105350463265
 50
264.37425898855543
 51
275.62574101144457
  0
LINE
  5
272
  8
DATA
  6
CONTINUOUS
 62
     7
 10
8.703467863822949
 20
-422.0
 30
0.0
 11
2.7034678638229468
 21
-422.0
 31
0.0
  0
LINE
  5
273
  8
DATA
  6
CONTINUOUS
 62
     7
 10
8.703467863822949
 20
-422.0
 30
0.0
 11
8.703467863822949
 21
-420.00000000000011
 31
0.0
  0
LINE
  5
274
  8
DATA
  6
CONTINUOUS
 62
     7
 10
2.7034678638229468
 20
-420.00000000000011
 30
0.0
 11
2.7034678638229468
 21
-422.0
 31
0.0
  0
LINE
  5
275
  8
DATA
  6
CONTINUOUS
 62
     7
 10
142.97185542545219
 20
-422.0
 30
0.0
 11
136.97185542545219
 21
-422.0
 31
0.0
  0
LINE
  5
276
  8
DATA
  6
CONTINUOUS
 62
     7
 10
142.97185542545219
 20
-422.0
 30
0.0
 11
142.97185542545219
 21
-420.00000000000011
 31
0.0
  0
LINE
  5
277
  8
DATA
  6
CONTINUOUS
 62
     7
 10
136.97185542545219
 20
-420.00000000000011
 30
0.0
 11
136.97185542545219
 21
-422.0
 31
0.0
  0
ARC
  5
278
  8
DATA
  6
CONTINUOUS
 62
     7
 10
-4.131514882489828
 20
-402.49671667313243
 30
0.0
 40
3.000000000000044
 50
104.3457679140668
 51
162.07527327827651
  0
ARC
  5
279
  8
DATA
  6
CONTINUOUS
 62
     7
 10
-2.0717967697698918
 20
-418.0
 30
0.0
 40
2.0000000000000031
 50
210.0
 51
269.9999999999996
  0
ARC
  5
27A
  8
DATA
  6
CONTINUOUS
 62
     7
 10
148.13925459472489
 20
-418.0
 30
0.0
 40
2.0
 50
270.0
 51
347.25020587086368
  0
LINE
  5
27B
  8
DATA
  6
STYLE_05
 62
     7
 10
-6.9821010657138229
 20
-137.8073206888601
 30
0.0
 11
-36.327032484955517
 21
-108.4623892696184
 31
0.0
  0
LINE
  5
27C
  8
DATA
  6
STYLE_05
 62
     7
 10
-11.578295143426359
 20
-83.713651928089234
 30
0.0
 11
17.852817990882031
 21
-113.1447650623976
 31
0.0
  0
LINE
  5
27D
  8
DATA
  6
STYLE_05
 62
     7
 10
-36.775320221039543
 20
-106.78935666214269
 30
0.0
 11
-13.251327750901959
 21
-83.26536419200518
 31
0.0
  0
ARC
  5
27E
  8
DATA
  6
STYLE_05
 62
     7
 10
-25.013323985970761
 20
-95.027360427073987
 30
0.0
 40
15.999999999999959
 50
45.0
 51
224.99999999999989
  0
LINE
  5
27F
  8
DATA
  6
STYLE_05
 62
     7
 10
-33.710737394565299
 20
-111.07868436000859
 30
0.0
 11
-8.962000053036137
 21
-86.329947018479459
 31
0.0
  0
LINE
  5
280
  8
DATA
  6
STYLE_05
 62
     7
 10
-36.327032484955517
 20
-108.4623892696184
 30
0.0
 11
-11.578295143426359
 21
-83.713651928089234
 31
0.0
  0
LINE
  5
281
  8
DATA
  6
STYLE_05
 62
     7
 10
-36.327032484955517
 20
-108.4623892696184
 30
0.0
 11
-36.775320221039543
 21
-106.78935666214269
 31
0.0
  0
LINE
  5
282
  8
DATA
  6
STYLE_05
 62
     7
 10
-11.578295143426359
 20
-83.713651928089234
 30
0.0
 11
-13.251327750901959
 21
-83.26536419200518
 31
0.0
  0
LINE
  5
283
  8
DATA
  6
STYLE_05
 62
     7
 10
-32.027823255341318
 20
-112.7615984992326
 30
0.0
 11
-7.2790859138121577
 21
-88.012861157703426
 31
0.0
  0
LINE
  5
284
  8
DATA
  6
STYLE_05
 62
     7
 10
-30.04792426801901
 20
-114.74149748655491
 30
0.0
 11
-5.2991869264898268
 21
-89.992760145025784
 31
0.0
  0
LINE
  5
285
  8
DATA
  6
STYLE_05
 62
     7
 10
-28.068025280696649
 20
-116.72139647387721
 30
0.0
 11
-3.3192879391674981
 21
-91.972659132348099
 31
0.0
  0
LINE
  5
286
  8
DATA
  6
STYLE_05
 62
     7
 10
-26.088126293374319
 20
-118.70129546119961
 30
0.0
 11
-1.3393889518451689
 21
-93.952558119670428
 31
0.0
  0
LINE
  5
287
  8
DATA
  6
STYLE_05
 62
     7
 10
-24.108227306052001
 20
-120.68119444852189
 30
0.0
 11
0.640510035477174
 21
-95.932457106992786
 31
0.0
  0
LINE
  5
288
  8
DATA
  6
STYLE_05
 62
     7
 10
-22.128328318729661
 20
-122.66109343584419
 30
0.0
 11
2.6204090227995032
 21
-97.912356094315101
 31
0.0
  0
LINE
  5
289
  8
DATA
  6
STYLE_05
 62
     7
 10
-20.148429331407321
 20
-124.64099242316659
 30
0.0
 11
4.6003080101218332
 21
-99.892255081637444
 31
0.0
  0
LINE
  5
28A
  8
DATA
  6
STYLE_05
 62
     7
 10
-18.168530344084999
 20
-126.62089141048889
 30
0.0
 11
6.5802069974441766
 21
-101.8721540689598
 31
0.0
  0
LINE
  5
28B
  8
DATA
  6
STYLE_05
 62
     7
 10
-16.188631356762649
 20
-128.60079039781121
 30
0.0
 11
8.5601059847665049
 21
-103.8520530562821
 31
0.0
  0
LINE
  5
28C
  8
DATA
  6
STYLE_05
 62
     7
 10
-13.71375762260975
 20
-126.1259166636584
 30
0.0
 11
-15.69365660993209
 21
-124.146017676336
 31
0.0
  0
LINE
  5
28D
  8
DATA
  6
STYLE_05
 62
     7
 10
-17.673555597254431
 20
-122.1661186890137
 30
0.0
 11
-19.65345458457675
 21
-120.1862197016913
 31
0.0
  0
LINE
  5
28E
  8
DATA
  6
STYLE_05
 62
     7
 10
-21.633353571899089
 20
-118.206320714369
 30
0.0
 11
-23.61325255922144
 21
-116.2264217270467
 31
0.0
  0
LINE
  5
28F
  8
DATA
  6
STYLE_05
 62
     7
 10
-25.593151546543751
 20
-114.2465227397243
 30
0.0
 11
-27.573050533866091
 21
-112.266623752402
 31
0.0
  0
LINE
  5
290
  8
DATA
  6
STYLE_05
 62
     7
 10
-29.552949521188442
 20
-110.2867247650797
 30
0.0
 11
-31.235863660412392
 21
-108.6038106258557
 31
0.0
  0
LINE
  5
291
  8
DATA
  6
STYLE_05
 62
     7
 10
-11.436873787189059
 20
-88.804820752632423
 30
0.0
 11
-9.7539596479650914
 21
-90.487734891856363
 31
0.0
  0
LINE
  5
292
  8
DATA
  6
STYLE_05
 62
     7
 10
-7.7740606606427631
 20
-92.467633879178706
 30
0.0
 11
-5.7941616733204198
 21
-94.447532866501064
 31
0.0
  0
LINE
  5
293
  8
DATA
  6
STYLE_05
 62
     7
 10
-3.8142626859981048
 20
-96.427431853823379
 30
0.0
 11
-1.834363698675747
 21
-98.407330841145736
 31
0.0
  0
LINE
  5
294
  8
DATA
  6
STYLE_05
 62
     7
 10
0.1455352886465668
 20
-100.38722982846799
 30
0.0
 11
2.125434275968896
 21
-102.36712881579029
 31
0.0
  0
LINE
  5
295
  8
DATA
  6
STYLE_05
 62
     7
 10
4.1053332632912412
 20
-104.3470278031127
 30
0.0
 11
6.0852322506135836
 21
-106.326926790435
 31
0.0
  0
LINE
  5
296
  8
DATA
  6
STYLE_05
 62
     7
 10
7.1600345580171139
 20
-144.87838850072561
 30
0.0
 11
2.2102870897112821
 21
-139.92864103241979
 31
0.0
  0
LINE
  5
297
  8
DATA
  6
STYLE_05
 62
     7
 10
19.887956619374972
 20
-122.2509715027561
 30
0.0
 11
24.837704087680819
 21
-127.2007189710619
 31
0.0
  0
LINE
  5
298
  8
DATA
  6
STYLE_05
 62
     7
 10
2.2102870897112821
 20
-139.92864103241979
 30
0.0
 11
19.887956619374972
 21
-122.2509715027561
 31
0.0
  0
LINE
  5
299
  8
DATA
  6
STYLE_05
 62
     7
 10
2.2102870897112821
 20
-139.92864103241979
 30
0.0
 11
-6.9821010657138087
 21
-137.8073206888601
 31
0.0
  0
LINE
  5
29A
  8
DATA
  6
STYLE_05
 62
     7
 10
19.887956619374972
 20
-122.2509715027561
 30
0.0
 11
17.821333150170581
 21
-113.00388647297569
 31
0.0
  0
LINE
  5
29B
  8
DATA
  6
STYLE_05
 62
     7
 10
7.1600345580171139
 20
-144.87838850072561
 30
0.0
 11
24.837704087680819
 21
-127.2007189710619
 31
0.0
  0
LINE
  5
29C
  8
DATA
  6
STYLE_05
 62
     7
 10
14.938209151069181
 20
-144.17128171953911
 30
0.0
 11
24.130597306494298
 21
-134.978893564114
 31
0.0
  0
LINE
  5
29D
  8
DATA
  6
STYLE_05
 62
     7
 10
14.938209151069181
 20
-144.17128171953911
 30
0.0
 11
7.1600345580171139
 21
-144.87838850072561
 31
0.0
  0
LINE
  5
29E
  8
DATA
  6
STYLE_05
 62
     7
 10
24.130597306494298
 20
-134.978893564114
 30
0.0
 11
24.837704087680819
 21
-127.2007189710619
 31
0.0
  0
LINE
  5
29F
  8
DATA
  6
STYLE_05
 62
     7
 10
78.272790822566137
 20
-207.505863391036
 30
0.0
 11
86.135216436355222
 21
-196.98351269397489
 31
0.0
  0
LINE
  5
2A0
  8
DATA
  6
STYLE_05
 62
     7
 10
76.505023869599782
 20
-205.73809643806959
 30
0.0
 11
84.367449483388867
 21
-195.21574574100859
 31
0.0
  0
LINE
  5
2A1
  8
DATA
  6
STYLE_05
 62
     7
 10
74.73725691663337
 20
-203.97032948510329
 30
0.0
 11
82.59968253042247
 21
-193.44797878804221
 31
0.0
  0
LINE
  5
2A2
  8
DATA
  6
STYLE_05
 62
     7
 10
72.96948996366703
 20
-202.20256253213691
 30
0.0
 11
80.831915577456115
 21
-191.6802118350758
 31
0.0
  0
LINE
  5
2A3
  8
DATA
  6
STYLE_05
 62
     7
 10
71.201723010700661
 20
-200.4347955791705
 30
0.0
 11
79.064148624489732
 21
-189.91244488210941
 31
0.0
  0
LINE
  5
2A4
  8
DATA
  6
STYLE_05
 62
     7
 10
69.433956057734292
 20
-198.66702862620409
 30
0.0
 11
77.296381671523392
 21
-188.14467792914311
 31
0.0
  0
LINE
  5
2A5
  8
DATA
  6
STYLE_05
 62
     7
 10
67.666189104767909
 20
-196.8992616732377
 30
0.0
 11
75.52861471855698
 21
-186.37691097617679
 31
0.0
  0
LINE
  5
2A6
  8
DATA
  6
STYLE_05
 62
     7
 10
65.898422151801554
 20
-195.13149472027141
 30
0.0
 11
73.76084776559064
 21
-184.6091440232104
 31
0.0
  0
LINE
  5
2A7
  8
DATA
  6
STYLE_05
 62
     7
 10
64.130655198835171
 20
-193.36372776730511
 30
0.0
 11
71.993080812624257
 21
-182.84137707024399
 31
0.0
  0
LINE
  5
2A8
  8
DATA
  6
STYLE_05
 62
     7
 10
62.362888245868852
 20
-191.5959608143387
 30
0.0
 11
70.22531385965793
 21
-181.07361011727761
 31
0.0
  0
LINE
  5
2A9
  8
DATA
  6
STYLE_05
 62
     7
 10
60.595121292902462
 20
-189.8281938613724
 30
0.0
 11
68.457546906691547
 21
-179.3058431643112
 31
0.0
  0
LINE
  5
2AA
  8
DATA
  6
STYLE_05
 62
     7
 10
58.8273543399361
 20
-188.06042690840599
 30
0.0
 11
66.689779953725179
 21
-177.5380762113449
 31
0.0
  0
LINE
  5
2AB
  8
DATA
  6
STYLE_05
 62
     7
 10
57.059587386969731
 20
-186.2926599554396
 30
0.0
 11
64.92201300075881
 21
-175.77030925837849
 31
0.0
  0
LINE
  5
2AC
  8
DATA
  6
STYLE_05
 62
     7
 10
55.291820434003363
 20
-184.52489300247319
 30
0.0
 11
63.154246047792462
 21
-174.00254230541211
 31
0.0
  0
LINE
  5
2AD
  8
DATA
  6
STYLE_05
 62
     7
 10
53.524053481036972
 20
-182.75712604950681
 30
0.0
 11
61.386479094826072
 21
-172.23477535244581
 31
0.0
  0
LINE
  5
2AE
  8
DATA
  6
STYLE_05
 62
     7
 10
51.756286528070632
 20
-180.9893590965404
 30
0.0
 11
59.618712141859717
 21
-170.4670083994794
 31
0.0
  0
LINE
  5
2AF
  8
DATA
  6
STYLE_05
 62
     7
 10
49.988519575104242
 20
-179.2215921435741
 30
0.0
 11
57.850945188893327
 21
-168.69924144651301
 31
0.0
  0
LINE
  5
2B0
  8
DATA
  6
STYLE_05
 62
     7
 10
48.220752622137887
 20
-177.45382519060769
 30
0.0
 11
56.083178235926979
 21
-166.93147449354669
 31
0.0
  0
LINE
  5
2B1
  8
DATA
  6
STYLE_05
 62
     7
 10
46.452985669171468
 20
-175.6860582376413
 30
0.0
 11
54.315411282960611
 21
-165.1637075405803
 31
0.0
  0
LINE
  5
2B2
  8
DATA
  6
STYLE_05
 62
     7
 10
44.685218716205121
 20
-173.91829128467489
 30
0.0
 11
52.547644329994213
 21
-163.39594058761389
 31
0.0
  0
LINE
  5
2B3
  8
DATA
  6
STYLE_05
 62
     7
 10
42.917451763238759
 20
-172.1505243317086
 30
0.0
 11
50.779877377027852
 21
-161.62817363464751
 31
0.0
  0
LINE
  5
2B4
  8
DATA
  6
STYLE_05
 62
     7
 10
41.14968481027239
 20
-170.38275737874221
 30
0.0
 11
49.012110424061483
 21
-159.8604066816811
 31
0.0
  0
LINE
  5
2B5
  8
DATA
  6
STYLE_05
 62
     7
 10
39.381917857306021
 20
-168.6149904257758
 30
0.0
 11
47.244343471095107
 21
-158.0926397287148
 31
0.0
  0
LINE
  5
2B6
  8
DATA
  6
STYLE_05
 62
     7
 10
37.614150904339652
 20
-166.8472234728095
 30
0.0
 11
45.476576518128731
 21
-156.32487277574839
 31
0.0
  0
LINE
  5
2B7
  8
DATA
  6
STYLE_05
 62
     7
 10
35.846383951373291
 20
-165.07945651984321
 30
0.0
 11
43.708809565162383
 21
-154.55710582278209
 31
0.0
  0
LINE
  5
2B8
  8
DATA
  6
STYLE_05
 62
     7
 10
34.078616998406929
 20
-163.31168956687679
 30
0.0
 11
41.941042612196021
 21
-152.78933886981571
 31
0.0
  0
LINE
  5
2B9
  8
DATA
  6
STYLE_05
 62
     7
 10
32.31085004544056
 20
-161.54392261391041
 30
0.0
 11
40.173275659229652
 21
-151.02157191684941
 31
0.0
  0
LINE
  5
2BA
  8
DATA
  6
STYLE_05
 62
     7
 10
30.543083092474191
 20
-159.77615566094411
 30
0.0
 11
38.405508706263291
 21
-149.25380496388291
 31
0.0
  0
LINE
  5
2BB
  8
DATA
  6
STYLE_05
 62
     7
 10
28.775316139507819
 20
-158.0083887079777
 30
0.0
 11
36.637741753296922
 21
-147.48603801091659
 31
0.0
  0
LINE
  5
2BC
  8
DATA
  6
STYLE_05
 62
     7
 10
27.00754918654145
 20
-156.2406217550114
 30
0.0
 11
34.86997480033056
 21
-145.7182710579502
 31
0.0
  0
LINE
  5
2BD
  8
DATA
  6
STYLE_05
 62
     7
 10
25.239782233575081
 20
-154.47285480204491
 30
0.0
 11
33.10220784736417
 21
-143.95050410498391
 31
0.0
  0
LINE
  5
2BE
  8
DATA
  6
STYLE_05
 62
     7
 10
23.472015280608709
 20
-152.70508784907861
 30
0.0
 11
31.33444089439779
 21
-142.18273715201749
 31
0.0
  0
LINE
  5
2BF
  8
DATA
  6
STYLE_05
 62
     7
 10
21.70424832764235
 20
-150.9373208961122
 30
0.0
 11
29.566673941431429
 21
-140.41497019905111
 31
0.0
  0
LINE
  5
2C0
  8
DATA
  6
STYLE_05
 62
     7
 10
19.936481374675971
 20
-149.1695539431459
 30
0.0
 11
27.798906988465049
 21
-138.64720324608481
 31
0.0
  0
LINE
  5
2C1
  8
DATA
  6
STYLE_05
 62
     7
 10
18.168714421709598
 20
-147.40178699017949
 30
0.0
 11
26.031140035498691
 21
-136.8794362931184
 31
0.0
  0
LINE
  5
2C2
  8
DATA
  6
STYLE_05
 62
     7
 10
16.400947468743251
 20
-145.63402003721311
 30
0.0
 11
24.263373082532311
 21
-135.11166934015199
 31
0.0
  0
LINE
  5
2C3
  8
DATA
  6
STYLE_05
 62
     7
 10
104.7132034354964
 20
-233.9462760039662
 30
0.0
 11
14.95666993126506
 21
-144.1897424997349
 31
0.0
  0
LINE
  5
2C4
  8
DATA
  6
STYLE_05
 62
     7
 10
117.7132034354965
 20
-228.5614996931165
 30
0.0
 11
24.130597306494359
 21
-134.97889356411341
 31
0.0
  0
ARC
  5
2C5
  8
DATA
  6
STYLE_05
 62
     7
 10
83.499999999899956
 20
-255.15947943956269
 30
0.0
 40
30.0
 50
0.0
 51
45.0
  0
ARC
  5
2C6
  8
DATA
  6
STYLE_05
 62
     7
 10
96.499999999899956
 20
-249.77470312871279
 30
0.0
 40
30.0
 50
0.0000000000000568
 51
44.999999999999773
  0
LINE
  5
2C7
  8
DATA
  6
CONTINUOUS
 62
     7
 10
113.4999999998999
 20
-255.15947943956269
 30
0.0
 11
113.4999999998999
 21
-138.0
 31
0.0
  0
LINE
  5
2C8
  8
DATA
  6
CONTINUOUS
 62
     7
 10
126.4999999998999
 20
-138.0
 30
0.0
 11
126.4999999998999
 21
-249.7747031287129
 31
0.0
  0
LINE
  5
2C9
  8
DATA
  6
CONTINUOUS
 62
     7
 10
168.696412431
 20
-412.30000000000001
 30
0.0
 11
151.4795718212836
 21
-412.30000000000001
 31
0.0
  0
LINE
  5
2CA
  8
DATA
  6
CONTINUOUS
 62
     7
 10
150.31965260062921
 20
-403.30000000000001
 30
0.0
 11
168.696412431
 21
-403.30000000000001
 31
0.0
  0
LINE
  5
2CB
  8
DATA
  6
CONTINUOUS
 62
     7
 10
168.696412431
 20
-403.30000000000001
 30
0.0
 11
168.696412431
 21
-412.30000000000013
 31
0.0
  0
LINE
  5
2CC
  8
DATA
  6
CONTINUOUS
 62
     7
 10
215.72543502124751
 20
-410.80000000000001
 30
0.0
 11
168.696412431
 21
-410.80000000000001
 31
0.0
  0
LINE
  5
2CD
  8
DATA
  6
CONTINUOUS
 62
     7
 10
168.696412431
 20
-404.80000000000001
 30
0.0
 11
215.72543502124751
 21
-404.80000000000001
 31
0.0
  0
LINE
  5
2CE
  8
DATA
  6
CONTINUOUS
 62
     7
 10
20.434410437786418
 20
-387.01232707685739
 30
0.0
 11
11.598647081530251
 21
-389.43378992084598
 31
0.0
  0
LINE
  5
2CF
  8
DATA
  6
CONTINUOUS
 62
     7
 10
20.434410437786401
 20
-387.01232707685739
 30
0.0
 11
22.246412431
 21
-392.7000000000001
 31
0.0
  0
LINE
  5
2D0
  8
DATA
  6
CONTINUOUS
 62
     7
 10
11.598647081530251
 20
-389.43378992084598
 30
0.0
 11
13.151130933567661
 21
-394.98016368256032
 31
0.0
  0
LINE
  5
2D1
  8
DATA
  6
CONTINUOUS
 62
     7
 10
33.603380568235131
 20
-383.35821012025502
 30
0.0
 11
42.214396199165861
 21
-380.96883130635678
 31
0.0
  0
LINE
  5
2D2
  8
DATA
  6
CONTINUOUS
 62
     7
 10
56.124378281222612
 20
-377.10909885282553
 30
0.0
 11
64.517344173581407
 21
-374.78022433343222
 31
0.0
  0
LINE
  5
2D3
  8
DATA
  6
CONTINUOUS
 62
     7
 10
44.139757683573109
 20
-387.01232707685739
 30
0.0
 11
44.152297250108511
 21
-387.05168738292679
 31
0.0
  0
LINE
  5
2D4
  8
DATA
  6
CONTINUOUS
 62
     7
 10
35.272865959676011
 20
-389.32258131709642
 30
0.0
 11
33.603380568235131
 21
-383.35821012025508
 31
0.0
  0
LINE
  5
2D5
  8
DATA
  6
CONTINUOUS
 62
     7
 10
44.152297250108482
 20
-387.05168738292679
 30
0.0
 11
42.21439619916584
 21
-380.96883130635689
 31
0.0
  0
LINE
  5
2D6
  8
DATA
  6
CONTINUOUS
 62
     7
 10
57.921704953658761
 20
-383.53019333580312
 30
0.0
 11
56.124378281222633
 21
-377.10909885282553
 31
0.0
  0
LINE
  5
2D7
  8
DATA
  6
CONTINUOUS
 62
     7
 10
66.598023341465009
 20
-381.31124505484451
 30
0.0
 11
64.517344173581378
 21
-374.78022433343222
 31
0.0
  0
LINE
  5
2D8
  8
DATA
  6
CONTINUOUS
 62
     7
 10
-174.50595288169089
 20
197.8846202420502
 30
0.0
 11
-174.50595288169089
 21
182.98912745330881
 31
0.0
  0
LINE
  5
2D9
  8
DATA
  6
CONTINUOUS
 62
     7
 10
-183.50595288169089
 20
182.9891274533091
 30
0.0
 11
-183.50595288169089
 21
197.8846202420502
 31
0.0
  0
LINE
  5
2DA
  8
DATA
  6
CONTINUOUS
 62
     7
 10
-183.50595288169089
 20
197.8846202420502
 30
0.0
 11
-174.5059528816908
 21
197.8846202420502
 31
0.0
  0
LINE
  5
2DB
  8
DATA
  6
CONTINUOUS
 62
     7
 10
-176.00595288169089
 20
230.0
 30
0.0
 11
-176.00595288169089
 21
197.8846202420502
 31
0.0
  0
LINE
  5
2DC
  8
DATA
  6
CONTINUOUS
 62
     7
 10
-182.0059528816908
 20
197.8846202420502
 30
0.0
 11
-182.0059528816908
 21
230.0
 31
0.0
  0
LINE
  5
2DD
  8
DATA
  6
CONTINUOUS
 62
     7
 10
-194.90883625256311
 20
-73.239801007635094
 30
0.0
 11
-188.4390062393577
 21
-62.033726708429143
 31
0.0
  0
LINE
  5
2DE
  8
DATA
  6
CONTINUOUS
 62
     7
 10
-193.92508761463239
 20
-75.0
 30
0.0
 11
-185.47660272991769
 21
-60.366794932696401
 31
0.0
  0
LINE
  5
2DF
  8
DATA
  6
CONTINUOUS
 62
     7
 10
-191.92508761463239
 20
-74.999999999999986
 30
0.0
 11
-182.9764323575165
 21
-59.500474435257061
 31
0.0
  0
LINE
  5
2E0
  8
DATA
  6
CONTINUOUS
 62
     7
 10
-189.92508761463239
 20
-75.0
 30
0.0
 11
-180.74202235314289
 21
-59.094464397879477
 31
0.0
  0
LINE
  5
2E1
  8
DATA
  6
CONTINUOUS
 62
     7
 10
-187.92508761463239
 20
-75.0
 30
0.0
 11
-178.68929264265859
 21
-59.003133860252277
 31
0.0
  0
LINE
  5
2E2
  8
DATA
  6
CONTINUOUS
 62
     7
 10
-185.92508761463239
 20
-74.999999999999986
 30
0.0
 11
-176.77751819523371
 21
-59.155944999838148
 31
0.0
  0
LINE
  5
2E3
  8
DATA
  6
CONTINUOUS
 62
     7
 10
-183.92508761463239
 20
-74.999999999999972
 30
0.0
 11
-174.98408507330939
 21
-59.513729327826148
 31
0.0
  0
LINE
  5
2E4
  8
DATA
  6
CONTINUOUS
 62
     7
 10
-181.92508761463239
 20
-75.000000000000014
 30
0.0
 11
-173.2957946221409
 21
-60.053626103606717
 31
0.0
  0
LINE
  5
2E5
  8
DATA
  6
CONTINUOUS
 62
     7
 10
-179.92508761463239
 20
-74.999999999999986
 30
0.0
 11
-171.7052101661948
 21
-60.762754627316532
 31
0.0
  0
LINE
  5
2E6
  8
DATA
  6
CONTINUOUS
 62
     7
 10
-177.92508761463239
 20
-74.999999999999986
 30
0.0
 11
-170.20900632697339
 21
-61.635355174443198
 31
0.0
  0
LINE
  5
2E7
  8
DATA
  6
CONTINUOUS
 62
     7
 10
-175.92508761463239
 20
-75.0
 30
0.0
 11
-168.8073193677634
 21
-62.67166375992246
 31
0.0
  0
LINE
  5
2E8
  8
DATA
  6
CONTINUOUS
 62
     7
 10
-173.92508761463239
 20
-74.999999999999972
 30
0.0
 11
-167.50377277526019
 21
-63.877956446811517
 31
0.0
  0
LINE
  5
2E9
  8
DATA
  6
CONTINUOUS
 62
     7
 10
-171.92508761463239
 20
-74.999999999999986
 30
0.0
 11
-166.3061901431594
 21
-65.26778409688859
 31
0.0
  0
LINE
  5
2EA
  8
DATA
  6
CONTINUOUS
 62
     7
 10
-169.92508761463239
 20
-75.0
 30
0.0
 11
-165.22835670716569
 21
-66.865023438788697
 31
0.0
  0
LINE
  5
2EB
  8
DATA
  6
CONTINUOUS
 62
     7
 10
-165.9390062393577
 20
-75.024107765195623
 30
0.0
 11
-163.5457857462215
 21
-70.878928277368857
 31
0.0
  0
LINE
  5
2EC
  8
DATA
  6
CONTINUOUS
 62
     7
 10
-163.92508761463239
 20
-75.000000000000014
 30
0.0
 11
-163.07400467963541
 21
-73.525881115130346
 31
0.0
  0
LINE
  5
2ED
  8
DATA
  6
CONTINUOUS
 62
     7
 10
-167.02197426945969
 20
-64.398855881492466
 30
0.0
 11
-175.81708207201279
 21
-59.320998024136728
 31
0.0
  0
LINE
  5
2EE
  8
DATA
  6
CONTINUOUS
 62
     7
 10
-164.76832672839001
 20
-67.699999895987617
 30
0.0
 11
-179.8027804206514
 21
-59.019854009641591
 31
0.0
  0
LINE
  5
2EF
  8
DATA
  6
CONTINUOUS
 62
     7
 10
-163.70811994055069
 20
-70.312110570343251
 30
0.0
 11
-182.5950380160595
 21
-59.407743335285971
 31
0.0
  0
LINE
  5
2F0
  8
DATA
  6
CONTINUOUS
 62
     7
 10
-163.1848236800121
 20
-72.614235807231125
 30
0.0
 11
-184.85038508416699
 21
-60.105618098398097
 31
0.0
  0
LINE
  5
2F1
  8
DATA
  6
CONTINUOUS
 62
     7
 10
-163.00847265508801
 20
-74.716052118942912
 30
0.0
 11
-186.75878691666
 21
-61.003801786686289
 31
0.0
  0
LINE
  5
2F2
  8
DATA
  6
CONTINUOUS
 62
     7
 10
-165.9390062393577
 20
-75.024107765195623
 30
0.0
 11
-188.4390062393577
 21
-62.033726708429178
 31
0.0
  0
LINE
  5
2F3
  8
DATA
  6
CONTINUOUS
 62
     7
 10
-169.44486372867121
 20
-75.0
 30
0.0
 11
-189.83913684224439
 21
-63.225360927951883
 31
0.0
  0
LINE
  5
2F4
  8
DATA
  6
CONTINUOUS
 62
     7
 10
-172.908965343809
 20
-75.0
 30
0.0
 11
-191.0842798090294
 21
-64.506477300898993
 31
0.0
  0
LINE
  5
2F5
  8
DATA
  6
CONTINUOUS
 62
     7
 10
-176.37306695894679
 20
-75.000000000000014
 30
0.0
 11
-192.15715693023199
 21
-65.887051406165284
 31
0.0
  0
LINE
  5
2F6
  8
DATA
  6
CONTINUOUS
 62
     7
 10
-179.83716857408459
 20
-75.000000000000014
 30
0.0
 11
-193.0654878370043
 21
-67.362626312627071
 31
0.0
  0
LINE
  5
2F7
  8
DATA
  6
CONTINUOUS
 62
     7
 10
-183.30127018922241
 20
-75.0
 30
0.0
 11
-193.81079352349079
 21
-68.932323873905531
 31
0.0
  0
LINE
  5
2F8
  8
DATA
  6
CONTINUOUS
 62
     7
 10
-186.7653718043602
 20
-74.999999999999972
 30
0.0
 11
-194.38868270929831
 21
-70.598679396917817
 31
0.0
  0
LINE
  5
2F9
  8
DATA
  6
CONTINUOUS
 62
     7
 10
-190.22947341949799
 20
-75.0
 30
0.0
 11
-194.78800772263759
 21
-72.368128992972188
 31
0.0
  0
LINE
  5
2FA
  8
DATA
  6
CONTINUOUS
 62
     7
 10
-193.6935750346357
 20
-74.999999999999986
 30
0.0
 11
-194.98847697282801
 21
-74.252388017410539
 31
0.0
  0
LINE
  5
2FB
  8
DATA
  6
CONTINUOUS
 62
     7
 10
103.3660254040844
 20
-75.0
 30
0.0
 11
136.63397459651549
 21
-75.0
 31
0.0
  0
ARC
  5
2FC
  8
DATA
  6
CONTINUOUS
 62
     7
 10
120.00000000029991
 20
-75.0
 30
0.0
 40
15.99999999999997
 50
0.0
 51
180.0
  0
LINE
  5
2FD
  8
DATA
  6
CONTINUOUS
 62
     7
 10
104.0971166294367
 20
-73.239801007635094
 30
0.0
 11
110.56694664264231
 21
-62.033726708429143
 31
0.0
  0
LINE
  5
2FE
  8
DATA
  6
CONTINUOUS
 62
     7
 10
105.0808652673675
 20
-75.0
 30
0.0
 11
113.5293501520823
 21
-60.366794932696401
 31
0.0
  0
LINE
  5
2FF
  8
DATA
  6
CONTINUOUS
 62
     7
 10
107.0808652673675
 20
-74.999999999999986
 30
0.0
 11
116.0295205244834
 21
-59.500474435257061
 31
0.0
  0
LINE
  5
300
  8
DATA
  6
CONTINUOUS
 62
     7
 10
109.0808652673675
 20
-75.0
 30
0.0
 11
118.263930528857
 21
-59.094464397879477
 31
0.0
  0
LINE
  5
301
  8
DATA
  6
CONTINUOUS
 62
     7
 10
111.0808652673675
 20
-75.0
 30
0.0
 11
120.3166602393413
 21
-59.003133860252277
 31
0.0
  0
LINE
  5
302
  8
DATA
  6
CONTINUOUS
 62
     7
 10
113.0808652673675
 20
-74.999999999999986
 30
0.0
 11
122.22843468676621
 21
-59.155944999838148
 31
0.0
  0
LINE
  5
303
  8
DATA
  6
CONTINUOUS
 62
     7
 10
115.0808652673676
 20
-74.999999999999972
 30
0.0
 11
124.0218678086906
 21
-59.513729327826148
 31
0.0
  0
LINE
  5
304
  8
DATA
  6
CONTINUOUS
 62
     7
 10
117.0808652673675
 20
-75.000000000000014
 30
0.0
 11
125.710158259859
 21
-60.053626103606717
 31
0.0
  0
LINE
  5
305
  8
DATA
  6
CONTINUOUS
 62
     7
 10
119.0808652673675
 20
-74.999999999999986
 30
0.0
 11
127.3007427158051
 21
-60.762754627316532
 31
0.0
  0
LINE
  5
306
  8
DATA
  6
CONTINUOUS
 62
     7
 10
121.0808652673675
 20
-74.999999999999986
 30
0.0
 11
128.79694655502661
 21
-61.635355174443198
 31
0.0
  0
LINE
  5
307
  8
DATA
  6
CONTINUOUS
 62
     7
 10
123.0808652673675
 20
-75.0
 30
0.0
 11
130.19863351423649
 21
-62.67166375992246
 31
0.0
  0
LINE
  5
308
  8
DATA
  6
CONTINUOUS
 62
     7
 10
125.0808652673676
 20
-74.999999999999972
 30
0.0
 11
131.5021801067397
 21
-63.877956446811517
 31
0.0
  0
LINE
  5
309
  8
DATA
  6
CONTINUOUS
 62
     7
 10
127.0808652673675
 20
-74.999999999999986
 30
0.0
 11
132.69976273884049
 21
-65.26778409688859
 31
0.0
  0
LINE
  5
30A
  8
DATA
  6
CONTINUOUS
 62
     7
 10
129.0808652673675
 20
-75.0
 30
0.0
 11
133.7775961748342
 21
-66.865023438788697
 31
0.0
  0
LINE
  5
30B
  8
DATA
  6
CONTINUOUS
 62
     7
 10
133.06694664264231
 20
-75.024107765195623
 30
0.0
 11
135.46016713577839
 21
-70.878928277368857
 31
0.0
  0
LINE
  5
30C
  8
DATA
  6
CONTINUOUS
 62
     7
 10
135.0808652673675
 20
-75.000000000000014
 30
0.0
 11
135.93194820236451
 21
-73.525881115130346
 31
0.0
  0
LINE
  5
30D
  8
DATA
  6
CONTINUOUS
 62
     7
 10
131.9839786125402
 20
-64.398855881492466
 30
0.0
 11
123.18887080998709
 21
-59.320998024136728
 31
0.0
  0
LINE
  5
30E
  8
DATA
  6
CONTINUOUS
 62
     7
 10
134.23762615360999
 20
-67.699999895987617
 30
0.0
 11
119.2031724613485
 21
-59.019854009641591
 31
0.0
  0
LINE
  5
30F
  8
DATA
  6
CONTINUOUS
 62
     7
 10
135.2978329414492
 20
-70.312110570343251
 30
0.0
 11
116.4109148659404
 21
-59.407743335285971
 31
0.0
  0
LINE
  5
310
  8
DATA
  6
CONTINUOUS
 62
     7
 10
135.82112920198779
 20
-72.614235807231125
 30
0.0
 11
114.155567797833
 21
-60.105618098398097
 31
0.0
  0
LINE
  5
311
  8
DATA
  6
CONTINUOUS
 62
     7
 10
135.9974802269119
 20
-74.716052118942912
 30
0.0
 11
112.24716596534
 21
-61.003801786686289
 31
0.0
  0
LINE
  5
312
  8
DATA
  6
CONTINUOUS
 62
     7
 10
133.06694664264231
 20
-75.024107765195623
 30
0.0
 11
110.56694664264231
 21
-62.033726708429178
 31
0.0
  0
LINE
  5
313
  8
DATA
  6
CONTINUOUS
 62
     7
 10
129.56108915332871
 20
-75.0
 30
0.0
 11
109.1668160397555
 21
-63.225360927951883
 31
0.0
  0
LINE
  5
314
  8
DATA
  6
CONTINUOUS
 62
     7
 10
126.0969875381909
 20
-75.0
 30
0.0
 11
107.92167307297051
 21
-64.506477300898993
 31
0.0
  0
LINE
  5
315
  8
DATA
  6
CONTINUOUS
 62
     7
 10
122.63288592305319
 20
-75.000000000000014
 30
0.0
 11
106.8487959517679
 21
-65.887051406165284
 31
0.0
  0
LINE
  5
316
  8
DATA
  6
CONTINUOUS
 62
     7
 10
119.1687843079153
 20
-75.000000000000014
 30
0.0
 11
105.94046504499561
 21
-67.362626312627071
 31
0.0
  0
LINE
  5
317
  8
DATA
  6
CONTINUOUS
 62
     7
 10
115.7046826927775
 20
-75.0
 30
0.0
 11
105.1951593585091
 21
-68.932323873905531
 31
0.0
  0
LINE
  5
318
  8
DATA
  6
CONTINUOUS
 62
     7
 10
112.2405810776397
 20
-74.999999999999972
 30
0.0
 11
104.61727017270159
 21
-70.598679396917817
 31
0.0
  0
LINE
  5
319
  8
DATA
  6
CONTINUOUS
 62
     7
 10
108.7764794625019
 20
-75.0
 30
0.0
 11
104.2179451593622
 21
-72.368128992972188
 31
0.0
  0
LINE
  5
31A
  8
DATA
  6
CONTINUOUS
 62
     7
 10
105.3123778473642
 20
-74.999999999999986
 30
0.0
 11
104.01747590917191
 21
-74.252388017410539
 31
0.0
  0
LINE
  5
31B
  8
DATA
  6
CONTINUOUS
 62
     7
 10
113.4999999999
 20
-192.5686243670574
 30
0.0
 11
113.4999999999
 21
-190.0686243670574
 31
0.0
  0
LINE
  5
31C
  8
DATA
  6
STYLE_05
 62
     7
 10
87.596583523741145
 20
-198.44487978136081
 30
0.0
 11
79.73415790995216
 21
-208.96723047842201
 31
0.0
  0
LINE
  5
31D
  8
DATA
  6
STYLE_05
 62
     7
 10
89.027434587570923
 20
-199.87573084519059
 30
0.0
 11
81.16500897378198
 21
-210.39808154225179
 31
0.0
  0
LINE
  5
31E
  8
DATA
  6
STYLE_05
 62
     7
 10
90.458285651400743
 20
-201.30658190902039
 30
0.0
 11
82.595860037611814
 21
-211.82893260608159
 31
0.0
  0
LINE
  5
31F
  8
DATA
  6
STYLE_05
 62
     7
 10
91.889136715230507
 20
-202.73743297285031
 30
0.0
 11
84.026711101441606
 21
-213.2597836699114
 31
0.0
  0
LINE
  5
320
  8
DATA
  6
STYLE_05
 62
     7
 10
93.319987779060313
 20
-204.16828403668009
 30
0.0
 11
85.457562165271383
 21
-214.69063473374129
 31
0.0
  0
LINE
  5
321
  8
DATA
  6
STYLE_05
 62
     7
 10
94.750838842890147
 20
-205.5991351005099
 30
0.0
 11
86.888413229101204
 21
-216.1214857975711
 31
0.0
  0
LINE
  5
322
  8
DATA
  6
STYLE_05
 62
     7
 10
96.18168990671991
 20
-207.0299861643397
 30
0.0
 11
88.319264292930981
 21
-217.5523368614009
 31
0.0
  0
LINE
  5
323
  8
DATA
  6
STYLE_05
 62
     7
 10
97.61254097054973
 20
-208.46083722816951
 30
0.0
 11
89.750115356760787
 21
-218.9831879252306
 31
0.0
  0
LINE
  5
324
  8
DATA
  6
STYLE_05
 62
     7
 10
99.043392034379522
 20
-209.89168829199929
 30
0.0
 11
91.180966420590636
 21
-220.41403898906049
 31
0.0
  0
ARC
  5
325
  8
DATA
  6
CONTINUOUS
 62
     7
 10
-226.65151718189239
 20
-419.0
 30
0.0
 40
1.0000000000000071
 50
207.69947280805491
 51
270.0
  0
ARC
  5
326
  8
DATA
  6
CONTINUOUS
 62
     7
 10
-131.36038858150761
 20
-419.0
 30
0.0
 40
1.0
 50
270.0
 51
332.30052719194521
  0
ENDSEC
  0
EOF
