  0
SECTION
  2
HEADER
  9
$ACADVER
  1
AC1009
  9
$INSBASE
 10
0.0
 20
0.0
 30
0.0
  9
$EXTMIN
 10
-270.01647823492112
 20
-405.8021109186667
 30
-0.0015258207003583
  9
$EXTMAX
 10
270.0164807494923
 20
397.08808227102509
 30
0.0000000349246037
  9
$LIMMIN
 10
0.0
 20
0.0
  9
$LIMMAX
 10
0.0
 20
0.0
  9
$ORTHOMODE
 70
     0
  9
$REGENMODE
 70
     1
  9
$FILLMODE
 70
     1
  9
$QTEXTMODE
 70
     0
  9
$MIRRTEXT
 70
     1
  9
$DRAGMODE
 70
     2
  9
$LTSCALE
 40
15.24
  9
$OSMODE
 70
   231
  9
$ATTMODE
 70
     1
  9
$TEXTSIZE
 40
0.0
  9
$TRACEWID
 40
1.0
  9
$TEXTSTYLE
  7
STANDARD
  9
$CLAYER
  8
DATA
  9
$CELTYPE
  6
BYLAYER
  9
$CECOLOR
 62
   256
  9
$DIMSCALE
 40
1.0
  9
$DIMASZ
 40
0.18
  9
$DIMEXO
 40
0.0625
  9
$DIMDLI
 40
0.38
  9
$DIMRND
 40
0.0
  9
$DIMDLE
 40
0.0
  9
$DIMEXE
 40
0.18
  9
$DIMTP
 40
0.0
  9
$DIMTM
 40
0.0
  9
$DIMTXT
 40
0.18
  9
$DIMCEN
 40
0.09
  9
$DIMTSZ
 40
0.0
  9
$DIMTOL
 70
     0
  9
$DIMLIM
 70
     0
  9
$DIMTIH
 70
     1
  9
$DIMTOH
 70
     1
  9
$DIMSE1
 70
     0
  9
$DIMSE2
 70
     0
  9
$DIMTAD
 70
     0
  9
$DIMZIN
 70
     0
  9
$DIMBLK
  1

  9
$DIMASO
 70
     1
  9
$DIMSHO
 70
     1
  9
$DIMPOST
  1

  9
$DIMAPOST
  1

  9
$DIMALT
 70
     0
  9
$DIMALTD
 70
     2
  9
$DIMALTF
 40
25.399999999999999
  9
$DIMLFAC
 40
1.0
  9
$DIMTOFL
 70
     0
  9
$DIMTVP
 40
0.0
  9
$DIMTIX
 70
     0
  9
$DIMSOXD
 70
     0
  9
$DIMSAH
 70
     0
  9
$DIMBLK1
  1

  9
$DIMBLK2
  1

  9
$DIMSTYLE
  2
STANDARD
  9
$DIMCLRD
 70
     0
  9
$DIMCLRE
 70
     0
  9
$DIMCLRT
 70
     0
  9
$DIMTFAC
 40
1.0
  9
$DIMGAP
 40
0.09
  9
$LUNITS
 70
     2
  9
$LUPREC
 70
     4
  9
$SKETCHINC
 40
0.1
  9
$FILLETRAD
 40
0.0
  9
$AUNITS
 70
     0
  9
$AUPREC
 70
     0
  9
$MENU
  1
acad
  9
$ELEVATION
 40
0.0
  9
$PELEVATION
 40
0.0
  9
$THICKNESS
 40
0.0
  9
$LIMCHECK
 70
     0
  9
$BLIPMODE
 70
     0
  9
$CHAMFERA
 40
0.0
  9
$CHAMFERB
 40
0.0
  9
$SKPOLY
 70
     0
  9
$TDCREATE
 40
2456129.6991898152
  9
$TDUPDATE
 40
2456129.7041434138
  9
$TDINDWG
 40
0.0003155903
  9
$TDUSRTIMER
 40
0.0003154051
  9
$USRTIMER
 70
     1
  9
$ANGBASE
 50
0.0
  9
$ANGDIR
 70
     0
  9
$PDMODE
 70
     1
  9
$PDSIZE
 40
-2.0
  9
$PLINEWID
 40
0.0
  9
$COORDS
 70
     2
  9
$SPLFRAME
 70
     0
  9
$SPLINETYPE
 70
     6
  9
$SPLINESEGS
 70
     8
  9
$ATTDIA
 70
     0
  9
$ATTREQ
 70
     1
  9
$HANDLING
 70
     1
  9
$HANDSEED
  5
307
  9
$SURFTAB1
 70
     6
  9
$SURFTAB2
 70
     6
  9
$SURFTYPE
 70
     6
  9
$SURFU
 70
     6
  9
$SURFV
 70
     6
  9
$UCSNAME
  2

  9
$UCSORG
 10
0.0
 20
0.0
 30
0.0
  9
$UCSXDIR
 10
1.0
 20
0.0
 30
0.0
  9
$UCSYDIR
 10
0.0
 20
1.0
 30
0.0
  9
$PUCSNAME
  2

  9
$PUCSORG
 10
0.0
 20
0.0
 30
0.0
  9
$PUCSXDIR
 10
1.0
 20
0.0
 30
0.0
  9
$PUCSYDIR
 10
0.0
 20
1.0
 30
0.0
  9
$USERI1
 70
     0
  9
$USERI2
 70
     0
  9
$USERI3
 70
     0
  9
$USERI4
 70
     0
  9
$USERI5
 70
     0
  9
$USERR1
 40
0.0
  9
$USERR2
 40
0.0
  9
$USERR3
 40
0.0
  9
$USERR4
 40
0.0
  9
$USERR5
 40
0.0
  9
$WORLDVIEW
 70
     1
  9
$SHADEDGE
 70
     3
  9
$SHADEDIF
 70
    70
  9
$TILEMODE
 70
     1
  9
$MAXACTVP
 70
    64
  9
$PLIMCHECK
 70
     0
  9
$PEXTMIN
 10
1.0000000000000000E+020
 20
1.0000000000000000E+020
 30
1.0000000000000000E+020
  9
$PEXTMAX
 10
-1.0000000000000000E+020
 20
-1.0000000000000000E+020
 30
-1.0000000000000000E+020
  9
$PLIMMIN
 10
0.0
 20
0.0
  9
$PLIMMAX
 10
12.0
 20
9.0
  9
$UNITMODE
 70
     0
  9
$VISRETAIN
 70
     0
  9
$PLINEGEN
 70
     1
  9
$PSLTSCALE
 70
     0
  0
ENDSEC
  0
SECTION
  2
TABLES
  0
TABLE
  2
VPORT
 70
     1
  0
VPORT
  2
*ACTIVE
 70
     0
 10
0.0
 20
0.0
 11
1.0
 21
1.0
 12
0.0000012572855894
 22
-4.3570143238208621
 13
0.0
 23
0.0
 14
1.0
 24
1.0
 15
0.0
 25
0.0
 16
0.0
 26
0.0
 36
1.0
 17
0.0
 27
0.0
 37
0.0
 40
809.17095089391375
 41
2.1540469973890342
 42
50.0
 43
0.0
 44
0.0
 50
0.0
 51
0.0
 71
     0
 72
  2000
 73
     1
 74
     1
 75
     0
 76
     0
 77
     0
 78
     0
  0
ENDTAB
  0
TABLE
  2
LTYPE
 70
    11
  0
LTYPE
  2
CONTINUOUS
 70
     0
  3
Solid line
 72
    65
 73
     0
 40
0.0
  0
ENDTAB
  0
TABLE
  2
LAYER
 70
     5
  0
LAYER
  2
0
 70
     0
 62
     7
  6
CONTINUOUS
  0
LAYER
  2
DATA
 70
     0
 62
     7
  6
CONTINUOUS
  0
LAYER
  2
HIBINO-BASE
 70
     0
 62
     7
  6
CONTINUOUS
  0
LAYER
  2
SPEC
 70
     0
 62
     7
  6
CONTINUOUS
  0
LAYER
  2
DIMNSIONS
 70
     0
 62
     7
  6
CONTINUOUS
  0
ENDTAB
  0
TABLE
  2
STYLE
 70
     3
  0
STYLE
  2
STANDARD
 70
     0
 40
0.0
 41
1.0
 50
0.0
 71
     0
 42
0.0
  3
txt
  4
BIGFONT.SHX
  0
ENDTAB
  0
TABLE
  2
VIEW
 70
     0
  0
ENDTAB
  0
TABLE
  2
UCS
 70
     0
  0
ENDTAB
  0
TABLE
  2
APPID
 70
     4
  0
APPID
  2
ACAD
 70
     0
  0
APPID
  2
ACADANNOTATIVE
 70
     0
  0
APPID
  2
ACAD_NAV_VCDISPLAY
 70
     0
  0
APPID
  2
ACAD_MLEADERVER
 70
     0
  0
ENDTAB
  0
TABLE
  2
DIMSTYLE
 70
     2
  0
DIMSTYLE
  2
STANDARD
 70
     0
  3

  4

  5

  6

  7

 40
1.0
 41
0.18
 42
0.0625
 43
0.38
 44
0.18
 45
0.0
 46
0.0
 47
0.0
 48
0.0
140
0.18
141
0.09
142
0.0
143
25.399999999999999
144
1.0
145
0.0
146
1.0
147
0.09
 71
     0
 72
     0
 73
     1
 74
     1
 75
     0
 76
     0
 77
     0
 78
     0
170
     0
171
     2
172
     0
173
     0
174
     0
175
     0
176
     0
177
     0
178
     0
  0
ENDTAB
  0
ENDSEC
  0
SECTION
  2
BLOCKS
  0
BLOCK
  8
0
  2
$MODEL_SPACE
 70
     0
 10
0.0
 20
0.0
 30
0.0
  3
$MODEL_SPACE
  1

  0
ENDBLK
  5
23E
  8
0
  0
BLOCK
 67
     1
  8
0
  2
$PAPER_SPACE
 70
     0
 10
0.0
 20
0.0
 30
0.0
  3
$PAPER_SPACE
  1

  0
ENDBLK
  5
23A
 67
     1
  8
0
  0
ENDSEC
  0
SECTION
  2
ENTITIES
  0
LINE
  5
2C
  8
HIBINO-BASE
  6
CONTINUOUS
 62
     7
 10
-269.99999999999989
 20
397.06362999999999
 30
0.0
 11
269.99999999999989
 21
397.06362999999999
 31
0.0
  0
LINE
  5
2D
  8
HIBINO-BASE
  6
CONTINUOUS
 62
     7
 10
269.99999999999989
 20
-382.93637000000001
 30
0.0
 11
-269.99999999999989
 21
-382.93637000000001
 31
0.0
  0
LINE
  5
2E
  8
HIBINO-BASE
  6
CONTINUOUS
 62
     7
 10
-269.99999999999989
 20
-382.93637000000001
 30
0.0
 11
-269.99999999999989
 21
397.06362999999999
 31
0.0
  0
TEXT
  5
2F
  8
HIBINO-BASE
 62
     7
 10
-248.44800000000001
 20
-402.1624033999999
 30
0.0
 40
10.800132539062499
  1
Hibino Corporation
 41
0.7
 11
-248.44800000000001
 21
-391.36227086093749
 31
0.0
 73
     3
  0
LINE
  5
30
  8
HIBINO-BASE
  6
CONTINUOUS
 62
     7
 10
269.99999999999989
 20
397.06362999999999
 30
0.0
 11
269.99999999999989
 21
-382.93637000000001
 31
0.0
  0
LINE
  5
31
  8
HIBINO-BASE
  6
CONTINUOUS
 62
     7
 10
0.0
 20
-315.4363699999999
 30
0.0
 11
269.99999999999989
 21
-315.4363699999999
 31
0.0
  0
LINE
  5
32
  8
HIBINO-BASE
  6
CONTINUOUS
 62
     7
 10
0.0
 20
-382.93637000000001
 30
0.0
 11
0.0
 21
-315.4363699999999
 31
0.0
  0
TEXT
  5
33
  8
HIBINO-BASE
 62
     7
 10
2.6999999999999988
 20
-322.96244999999999
 30
0.0
 40
4.8865234374999993
  1
NOTE
 41
0.7
 11
2.7000000000000002
 21
-318.0759265625
 31
0.0
 73
     3
  0
LINE
  5
34
  8
HIBINO-BASE
  6
CONTINUOUS
 62
     7
 10
105.0
 20
-382.93637000000001
 30
0.0
 11
105.0
 21
-315.4363699999999
 31
0.0
  0
TEXT
  5
35
  8
HIBINO-BASE
 62
     7
 10
107.7
 20
-322.96244999999999
 30
0.0
 40
4.8865234374999993
  1
TITLE
 41
0.7
 11
107.7
 21
-318.0759265625
 31
0.0
 73
     3
  0
TEXT
  5
36
  8
HIBINO-BASE
 62
     7
 10
150.2051699999999
 20
-402.1624033999999
 30
0.0
 40
10.800132539062499
  1
ヒビノ株式会社
 41
0.7
 11
150.2051699999999
 21
-391.36227086093749
 31
0.0
 73
     3
  0
LINE
  5
37
  8
HIBINO-BASE
  6
CONTINUOUS
 62
     7
 10
0.0
 20
-352.9363699999999
 30
0.0
 11
269.99999999999989
 21
-352.9363699999999
 31
0.0
  0
TEXT
  5
38
  8
HIBINO-BASE
 62
     7
 10
145.19999999999999
 20
-360.29349000000002
 30
0.0
 40
4.8865234374999993
  1
DRAWN
 41
0.7
 11
145.19999999999999
 21
-355.40696656249997
 31
0.0
 73
     3
  0
TEXT
  5
39
  8
HIBINO-BASE
 62
     7
 10
70.199999999999989
 20
-360.29349000000002
 30
0.0
 40
4.8865234374999993
  1
DATE
 41
0.7
 11
70.199999999999989
 21
-355.40696656249997
 31
0.0
 73
     3
  0
TEXT
  5
3A
  8
HIBINO-BASE
 62
     7
 10
40.200000000000003
 20
-360.29349000000002
 30
0.0
 40
4.8865234374999993
  1
SCALE
 41
0.7
 11
40.200000000000003
 21
-355.40696656249997
 31
0.0
 73
     3
  0
TEXT
  5
3B
  8
HIBINO-BASE
 62
     7
 10
107.7
 20
-360.29349000000002
 30
0.0
 40
4.8865234374999993
  1
DESIGN
 41
0.7
 11
107.7
 21
-355.40696656249997
 31
0.0
 73
     3
  0
TEXT
  5
3C
  8
HIBINO-BASE
 62
     7
 10
220.19999999999999
 20
-360.29349000000002
 30
0.0
 40
4.8865234374999993
  1
DRAWING NO.
 41
0.7
 11
220.19999999999999
 21
-355.40696656249997
 31
0.0
 73
     3
  0
TEXT
  5
3D
  8
HIBINO-BASE
 62
     7
 10
182.69999999999999
 20
-360.29349000000002
 30
0.0
 40
4.8865234374999993
  1
CHECK
 41
0.7
 11
182.69999999999999
 21
-355.40696656249997
 31
0.0
 73
     3
  0
LINE
  5
3E
  8
HIBINO-BASE
  6
CONTINUOUS
 62
     7
 10
43.124999999999993
 20
-379.18637000000001
 30
0.0
 11
54.375
 21
-367.93637000000001
 31
0.0
  0
TEXT
  5
3F
  8
HIBINO-BASE
 62
     7
 10
41.249999999999993
 20
-371.26319999999998
 30
0.0
 40
4.8865234374999993
  1
1
 41
0.7
 11
41.249999999999993
 21
-366.37667656249999
 31
0.0
 73
     3
  0
LINE
  5
40
  8
HIBINO-BASE
  6
CONTINUOUS
 62
     7
 10
37.5
 20
-382.93637000000001
 30
0.0
 11
37.5
 21
-352.9363699999999
 31
0.0
  0
LINE
  5
41
  8
HIBINO-BASE
  6
CONTINUOUS
 62
     7
 10
67.499999999999986
 20
-382.93637000000001
 30
0.0
 11
67.499999999999986
 21
-352.9363699999999
 31
0.0
  0
LINE
  5
42
  8
HIBINO-BASE
  6
CONTINUOUS
 62
     7
 10
142.5
 20
-352.9363699999999
 30
0.0
 11
142.5
 21
-382.93637000000001
 31
0.0
  0
LINE
  5
43
  8
HIBINO-BASE
  6
CONTINUOUS
 62
     7
 10
217.5
 20
-352.9363699999999
 30
0.0
 11
217.5
 21
-382.93637000000001
 31
0.0
  0
LINE
  5
44
  8
HIBINO-BASE
  6
CONTINUOUS
 62
     7
 10
180.0
 20
-382.93637000000001
 30
0.0
 11
180.0
 21
-352.9363699999999
 31
0.0
  0
TEXT
  5
45
  8
HIBINO-BASE
 62
     7
 10
70.06962
 20
-374.34543000000002
 30
0.0
 40
4.8865234374999993
  1
'12.07.
 41
0.7
 11
70.06962
 21
-369.45890656249998
 31
0.0
 73
     3
  0
TEXT
  5
46
  8
HIBINO-BASE
 62
     7
 10
52.5
 20
-376.88819999999998
 30
0.0
 40
4.8865234374999993
  1
3
 41
0.7
 11
52.5
 21
-372.00167656249999
 31
0.0
 73
     3
  0
TEXT
  5
47
  8
HIBINO-BASE
 62
     7
 10
147.01743003310381
 20
-374.34543000000002
 30
0.0
 40
4.8865234374999993
  1
Ootake
 41
0.7
 11
147.01743003310381
 21
-369.45890656249998
 31
0.0
 73
     3
  0
TEXT
  5
48
  8
HIBINO-BASE
 62
     7
 10
11.65000000000005
 20
-377.00837000000001
 30
0.0
 40
9.7730468749999986
  1
A4
 41
0.7
 11
11.65000000000005
 21
-367.23532312499998
 31
0.0
 73
     3
  0
TEXT
  5
49
  8
HIBINO-BASE
 62
     7
 10
2.874999999999996
 20
-360.794735
 30
0.0
 40
4.8865234374999993
  1
PAPER SIZE
 41
0.7
 11
2.874999999999996
 21
-355.90821156250001
 31
0.0
 73
     3
  0
LINE
  5
4A
  8
SPEC
  6
CONTINUOUS
 62
     7
 10
-247.5
 20
367.06362999999988
 30
0.0
 11
195.0
 21
367.06362999999988
 31
0.0
  0
LINE
  5
4B
  8
SPEC
  6
CONTINUOUS
 62
     7
 10
-247.5
 20
355.81362999999988
 30
0.0
 11
195.0
 21
355.81362999999988
 31
0.0
  0
LINE
  5
4C
  8
SPEC
  6
CONTINUOUS
 62
     7
 10
-247.5
 20
322.06362999999988
 30
0.0
 11
195.0
 21
322.06362999999988
 31
0.0
  0
LINE
  5
4D
  8
SPEC
  6
CONTINUOUS
 62
     7
 10
-247.5
 20
333.31362999999999
 30
0.0
 11
195.0
 21
333.31362999999999
 31
0.0
  0
LINE
  5
4E
  8
SPEC
  6
CONTINUOUS
 62
     7
 10
-247.5
 20
344.56362999999988
 30
0.0
 11
195.0
 21
344.56362999999988
 31
0.0
  0
TEXT
  5
4F
  8
SPEC
 62
     7
 10
-147.45524793441589
 20
358.47503694488552
 30
0.0
 40
5.700933749999999
  1
70V/100V
 41
0.7
 11
-147.45524793441589
 21
364.17597069488551
 31
0.0
 73
     3
  0
LINE
  5
50
  8
SPEC
  6
CONTINUOUS
 62
     7
 10
-247.5
 20
367.06362999999988
 30
0.0
 11
-247.5
 21
322.0636300000001
 31
0.0
  0
TEXT
  5
51
  8
SPEC
 62
     7
 10
-243.75
 20
371.24344000000002
 30
0.0
 40
7.3297851562499989
  1
仕様
 41
0.7
 11
-243.75
 21
378.57322515624998
 31
0.0
 73
     3
  0
LINE
  5
52
  8
SPEC
  6
CONTINUOUS
 62
     7
 10
-150.0
 20
367.06362999999988
 30
0.0
 11
-150.0
 21
322.0636300000001
 31
0.0
  0
LINE
  5
53
  8
SPEC
  6
CONTINUOUS
 62
     7
 10
195.0
 20
367.06362999999988
 30
0.0
 11
195.0
 21
322.0636300000001
 31
0.0
  0
TEXT
  5
54
  8
SPEC
 62
     7
 10
-245.1591162321653
 20
347.4568149245959
 30
0.0
 40
5.700933749999999
  1
寸法
 41
0.7
 11
-245.1591162321653
 21
353.15774867459589
 31
0.0
 73
     3
  0
TEXT
  5
55
  8
SPEC
 62
     7
 10
-245.04576767508121
 20
336.18048366968122
 30
0.0
 40
5.700933749999999
  1
重量
 41
0.7
 11
-245.04576767508121
 21
341.88141741968121
 31
0.0
 73
     3
  0
TEXT
  5
56
  8
SPEC
 62
     7
 10
-147.21853840497479
 20
347.3792226102027
 30
0.0
 40
5.7009440104166647
  1
210(W)\U+00D744(H)\U+00D7178(D)mm(突起部含まず）、EIA 1Uハーフラックサイズ
 41
0.7
 11
-147.21853840497479
 21
353.08016662061942
 31
0.0
 73
     3
  0
TEXT
  5
57
  8
SPEC
 62
     7
 10
-147.43415880345529
 20
336.11571297405902
 30
0.0
 40
5.7009440104166647
  1
約2.1kg
 41
0.7
 11
-147.43415880345529
 21
341.81665698447569
 31
0.0
 73
     3
  0
TEXT
  5
58
  8
SPEC
 62
     7
 10
-244.81156031238049
 20
325.32797934843501
 30
0.0
 40
5.700933749999999
  1
付属品
 41
0.7
 11
-244.81156031238049
 21
331.028913098435
 31
0.0
 73
     3
  0
TEXT
  5
59
  8
SPEC
 62
     7
 10
-147.29168542184641
 20
325.03019784622501
 30
0.0
 40
5.700933749999999
  1
CSA-2120との接続ケーブル、出力用ブロックコネクター
 41
0.7
 11
-147.29168542184641
 21
330.731131596225
 31
0.0
 73
     3
  0
TEXT
  5
5A
  8
SPEC
 62
     7
 10
-245.3061114739281
 20
358.56691790959059
 30
0.0
 40
5.700933749999999
  1
出力
 41
0.7
 11
-245.3061114739281
 21
364.26785165959069
 31
0.0
 73
     3
  0
TEXT
  5
5B
  8
DIMNSIONS
 62
     7
 10
-60.0
 20
-346.12790000000001
 30
0.0
 40
7.3297851562499989
  1
(単位：mm)
 41
0.7
 11
-60.0
 21
-338.79811484375
 31
0.0
 73
     3
  0
LINE
  5
5C
  8
DIMNSIONS
  6
CONTINUOUS
 62
     7
 10
-186.0
 20
-200.0
 30
0.0
 11
-226.0
 21
-200.0
 31
0.0
  0
LINE
  5
5D
  8
DIMNSIONS
  6
CONTINUOUS
 62
     7
 10
-186.0
 20
-156.0
 30
0.0
 11
-226.0
 21
-156.0
 31
0.0
  0
LINE
  5
5E
  8
DIMNSIONS
  6
CONTINUOUS
 62
     7
 10
-220.0
 20
-200.0
 30
0.0
 11
-220.0
 21
-156.0
 31
0.0
  0
LINE
  5
5F
  8
DIMNSIONS
  6
CONTINUOUS
 62
     7
 10
-220.0
 20
-200.0
 30
0.0
 11
-222.01011938545071
 21
-192.4981323242188
 31
0.0
  0
LINE
  5
60
  8
DIMNSIONS
  6
CONTINUOUS
 62
     7
 10
-220.0
 20
-200.0
 30
0.0
 11
-217.98988061454929
 21
-192.4981323242188
 31
0.0
  0
LINE
  5
61
  8
DIMNSIONS
  6
CONTINUOUS
 62
     7
 10
-220.0
 20
-156.0
 30
0.0
 11
-217.98988061454929
 21
-163.50186767578131
 31
0.0
  0
LINE
  5
62
  8
DIMNSIONS
  6
CONTINUOUS
 62
     7
 10
-220.0
 20
-156.0
 30
0.0
 11
-222.01011938545071
 21
-163.50186767578131
 31
0.0
  0
TEXT
  5
63
  8
DIMNSIONS
 62
     7
 10
-222.98166673290231
 20
-183.29166666666671
 30
0.0
 40
8.1442060932410758
  1
44
 50
90.0
 41
0.7
 11
-231.12587282614339
 21
-183.29166666666671
 31
0.0
 73
     3
  0
LINE
  5
64
  8
DIMNSIONS
  6
CONTINUOUS
 62
     7
 10
-180.0
 20
-206.0
 30
0.0
 11
-180.0
 21
-246.0
 31
0.0
  0
LINE
  5
65
  8
DIMNSIONS
  6
CONTINUOUS
 62
     7
 10
30.0
 20
-206.0
 30
0.0
 11
30.0
 21
-246.0
 31
0.0
  0
LINE
  5
66
  8
DIMNSIONS
  6
CONTINUOUS
 62
     7
 10
-180.0
 20
-240.0
 30
0.0
 11
30.0
 21
-240.0
 31
0.0
  0
LINE
  5
67
  8
DIMNSIONS
  6
CONTINUOUS
 62
     7
 10
-180.0
 20
-240.0
 30
0.0
 11
-172.49813232421869
 21
-237.98988061454929
 31
0.0
  0
LINE
  5
68
  8
DIMNSIONS
  6
CONTINUOUS
 62
     7
 10
-180.0
 20
-240.0
 30
0.0
 11
-172.49813232421869
 21
-242.01011938545071
 31
0.0
  0
LINE
  5
69
  8
DIMNSIONS
  6
CONTINUOUS
 62
     7
 10
30.0
 20
-240.0
 30
0.0
 11
22.498132324218759
 21
-242.01011938545071
 31
0.0
  0
LINE
  5
6A
  8
DIMNSIONS
  6
CONTINUOUS
 62
     7
 10
30.0
 20
-240.0
 30
0.0
 11
22.498132324218759
 21
-237.98988061454929
 31
0.0
  0
TEXT
  5
6B
  8
DIMNSIONS
 62
     7
 10
-82.937500000000014
 20
-237.0183332670976
 30
0.0
 40
8.1442060932410758
  1
210
 41
0.7
 11
-82.937500000000014
 21
-228.87412717385649
 31
0.0
 73
     3
  0
LINE
  5
6C
  8
DIMNSIONS
  6
CONTINUOUS
 62
     7
 10
-186.0
 20
-120.0
 30
0.0
 11
-226.0
 21
-120.0
 31
0.0
  0
LINE
  5
6D
  8
DIMNSIONS
  6
CONTINUOUS
 62
     7
 10
-186.0
 20
58.0
 30
0.0
 11
-226.0
 21
58.0
 31
0.0
  0
LINE
  5
6E
  8
DIMNSIONS
  6
CONTINUOUS
 62
     7
 10
-220.0
 20
-120.0
 30
0.0
 11
-220.0
 21
58.0
 31
0.0
  0
LINE
  5
6F
  8
DIMNSIONS
  6
CONTINUOUS
 62
     7
 10
-220.0
 20
-120.0
 30
0.0
 11
-222.01011938545071
 21
-112.4981323242187
 31
0.0
  0
LINE
  5
70
  8
DIMNSIONS
  6
CONTINUOUS
 62
     7
 10
-220.0
 20
-120.0
 30
0.0
 11
-217.98988061454929
 21
-112.4981323242187
 31
0.0
  0
LINE
  5
71
  8
DIMNSIONS
  6
CONTINUOUS
 62
     7
 10
-220.0
 20
58.0
 30
0.0
 11
-217.98988061454929
 21
50.498132324218751
 31
0.0
  0
LINE
  5
72
  8
DIMNSIONS
  6
CONTINUOUS
 62
     7
 10
-220.0
 20
58.0
 30
0.0
 11
-222.01011938545071
 21
50.498132324218751
 31
0.0
  0
TEXT
  5
73
  8
DIMNSIONS
 62
     7
 10
-222.98166673290231
 20
-38.9375
 30
0.0
 40
8.1442060932410758
  1
178
 50
90.0
 41
0.7
 11
-231.12587282614339
 21
-38.9375
 31
0.0
 73
     3
  0
TEXT
  5
74
  8
DATA
 62
     7
 10
150.0
 20
-349.5437
 30
0.0
 40
7.3297851562499989
  1
CST-2120
 41
0.7
 11
150.0
 21
-342.21391484374999
 31
0.0
 73
     3
  0
TEXT
  5
75
  8
DATA
 62
     7
 10
150.0
 20
-327.7937
 30
0.0
 40
7.3297851562499989
  1
JBL
 41
0.7
 11
150.0
 21
-320.46391484374999
 31
0.0
 73
     3
  0
TEXT
  5
76
  8
DATA
 62
     7
 10
146.06773309534969
 20
-337.79644062855789
 30
0.0
 40
4.8865311328124994
  1
CSA-2120用マッチングトランス
 41
0.7
 11
146.06773309534969
 21
-332.90990949574541
 31
0.0
 73
     3
  0
TEXT
  5
77
  8
DATA
 62
     7
 10
-240.0
 20
-370.22237000000001
 30
0.0
 40
4.8865234374999993
  1
仕様および外観は予告なく変更されることがありますので、ご了承ください。
 41
0.7
 11
-240.0
 21
-365.33584656250002
 31
0.0
 73
     3
  0
LINE
  5
78
  8
DATA
  6
CONTINUOUS
 62
     7
 10
-180.0
 20
-200.0
 30
0.0
 11
-180.0
 21
-156.0
 31
0.0
  0
LINE
  5
79
  8
DATA
  6
CONTINUOUS
 62
     7
 10
30.0
 20
-200.0
 30
0.0
 11
-180.0
 21
-200.0
 31
0.0
  0
LINE
  5
7A
  8
DATA
  6
CONTINUOUS
 62
     7
 10
30.0
 20
-156.0
 30
0.0
 11
30.0
 21
-200.0
 31
0.0
  0
LINE
  5
7B
  8
DATA
  6
CONTINUOUS
 62
     7
 10
-180.0
 20
-156.0
 30
0.0
 11
30.0
 21
-156.0
 31
0.0
  0
LINE
  5
7C
  8
DATA
  6
CONTINUOUS
 62
     7
 10
-180.0
 20
-120.0
 30
0.0
 11
-180.0
 21
58.0
 31
0.0
  0
LINE
  5
7D
  8
DATA
  6
CONTINUOUS
 62
     7
 10
30.0
 20
-120.0
 30
0.0
 11
-180.0
 21
-120.0
 31
0.0
  0
LINE
  5
7E
  8
DATA
  6
CONTINUOUS
 62
     7
 10
30.0
 20
58.0
 30
0.0
 11
30.0
 21
-120.0
 31
0.0
  0
LINE
  5
7F
  8
DATA
  6
CONTINUOUS
 62
     7
 10
-180.0
 20
58.0
 30
0.0
 11
30.0
 21
58.0
 31
0.0
  0
TEXT
  5
80
  8
DATA
 62
     7
 10
-5.3132589870253106
 20
-165.77269064545879
 30
0.0
 40
5.1308496093749989
  1
CST-2120
 41
0.7
 11
-5.3132589870253106
 21
-160.6418410360838
 31
0.0
 73
     3
  0
LINE
  5
81
  8
DATA
  6
CONTINUOUS
 62
     7
 10
24.09170277897309
 20
-191.0
 30
0.0
 11
-175.67976685139681
 21
-191.0
 31
0.0
  0
LINE
  5
82
  8
DATA
  6
CONTINUOUS
 62
     7
 10
-180.0
 20
56.0
 30
0.0
 11
30.0
 21
56.0
 31
0.0
  0
LINE
  5
83
  8
DATA
  6
CONTINUOUS
 62
     7
 10
30.0
 20
141.99999999999989
 30
0.0
 11
30.0
 21
101.9999999999999
 31
0.0
  0
LINE
  5
84
  8
DATA
  6
CONTINUOUS
 62
     7
 10
-178.0
 20
143.99999999999989
 30
0.0
 11
28.0
 21
143.99999999999989
 31
0.0
  0
LINE
  5
85
  8
DATA
  6
CONTINUOUS
 62
     7
 10
-180.0
 20
101.9999999999999
 30
0.0
 11
-180.0
 21
141.99999999999989
 31
0.0
  0
LINE
  5
86
  8
DATA
  6
CONTINUOUS
 62
     7
 10
28.0
 20
99.999999999999957
 30
0.0
 11
-178.0
 21
99.999999999999957
 31
0.0
  0
LINE
  5
87
  8
DATA
  6
CONTINUOUS
 62
     7
 10
-57.5
 20
105.1195388013807
 30
0.0
 11
-57.5
 21
124.4060875427402
 31
0.0
  0
LINE
  5
88
  8
DATA
  6
CONTINUOUS
 62
     7
 10
-57.5
 20
133.99999999999989
 30
0.0
 11
-57.5
 21
139.55362791510089
 31
0.0
  0
LINE
  5
89
  8
DATA
  6
CONTINUOUS
 62
     7
 10
-68.553285576437773
 20
133.99999999999989
 30
0.0
 11
-46.50328557643774
 21
133.99999999999989
 31
0.0
  0
LINE
  5
8A
  8
DATA
  6
CONTINUOUS
 62
     7
 10
-68.553285576437773
 20
124.4999999999999
 30
0.0
 11
-46.50328557643774
 21
124.4999999999999
 31
0.0
  0
LINE
  5
8B
  8
DATA
  6
CONTINUOUS
 62
     7
 10
-68.553285576437773
 20
133.99999999999989
 30
0.0
 11
-68.553285576437773
 21
124.4999999999999
 31
0.0
  0
POLYLINE
  5
8C
  8
DATA
  6
CONTINUOUS
 62
     7
 66
     1
 10
0.0
 20
0.0
 30
0.0
 70
     1
  0
VERTEX
  5
262
  8
DATA
  6
CONTINUOUS
 62
     7
 10
-60.053285576437759
 20
129.74999999999989
 30
0.0
  0
VERTEX
  5
263
  8
DATA
  6
CONTINUOUS
 62
     7
 10
-59.053285576437773
 20
129.74999999999989
 30
0.0
  0
VERTEX
  5
264
  8
DATA
  6
CONTINUOUS
 62
     7
 10
-59.053285576437773
 20
128.74999999999989
 30
0.0
  0
VERTEX
  5
265
  8
DATA
  6
CONTINUOUS
 62
     7
 10
-60.053285576437759
 20
128.74999999999989
 30
0.0
  0
SEQEND
  5
266
  8
DATA
  6
CONTINUOUS
 62
     7
  0
POLYLINE
  5
93
  8
DATA
  6
CONTINUOUS
 62
     7
 66
     1
 10
0.0
 20
0.0
 30
0.0
 70
     1
  0
VERTEX
  5
267
  8
DATA
  6
CONTINUOUS
 62
     7
 10
-55.053285576437759
 20
129.74999999999989
 30
0.0
  0
VERTEX
  5
268
  8
DATA
  6
CONTINUOUS
 62
     7
 10
-54.053285576437773
 20
129.74999999999989
 30
0.0
  0
VERTEX
  5
269
  8
DATA
  6
CONTINUOUS
 62
     7
 10
-54.053285576437773
 20
128.74999999999989
 30
0.0
  0
VERTEX
  5
26A
  8
DATA
  6
CONTINUOUS
 62
     7
 10
-55.053285576437759
 20
128.74999999999989
 30
0.0
  0
SEQEND
  5
26B
  8
DATA
  6
CONTINUOUS
 62
     7
  0
POLYLINE
  5
9A
  8
DATA
  6
CONTINUOUS
 62
     7
 66
     1
 10
0.0
 20
0.0
 30
0.0
 70
     1
  0
VERTEX
  5
26C
  8
DATA
  6
CONTINUOUS
 62
     7
 10
-65.053285576437773
 20
129.74999999999989
 30
0.0
  0
VERTEX
  5
26D
  8
DATA
  6
CONTINUOUS
 62
     7
 10
-64.053285576437773
 20
129.74999999999989
 30
0.0
  0
VERTEX
  5
26E
  8
DATA
  6
CONTINUOUS
 62
     7
 10
-64.053285576437773
 20
128.74999999999989
 30
0.0
  0
VERTEX
  5
26F
  8
DATA
  6
CONTINUOUS
 62
     7
 10
-65.053285576437773
 20
128.74999999999989
 30
0.0
  0
SEQEND
  5
270
  8
DATA
  6
CONTINUOUS
 62
     7
  0
LINE
  5
A1
  8
DATA
  6
CONTINUOUS
 62
     7
 10
-68.053285576437773
 20
133.0
 30
0.0
 11
-68.053285576437773
 21
125.4999999999999
 31
0.0
  0
LINE
  5
A2
  8
DATA
  6
CONTINUOUS
 62
     7
 10
-47.003285576437762
 20
125.4999999999999
 30
0.0
 11
-68.053285576437773
 21
125.4999999999999
 31
0.0
  0
LINE
  5
A3
  8
DATA
  6
CONTINUOUS
 62
     7
 10
-68.053285576437773
 20
133.0
 30
0.0
 11
-67.053285576437773
 21
133.0
 31
0.0
  0
ARC
  5
A4
  8
DATA
  6
CONTINUOUS
 62
     7
 10
-59.553285576437773
 20
126.9999999999998
 30
0.0
 40
6.5000000000001572
 50
67.380135051960139
 51
112.6198649480398
  0
ARC
  5
A5
  8
DATA
  6
CONTINUOUS
 62
     7
 10
-54.553285576437773
 20
126.9999999999998
 30
0.0
 40
6.5000000000001616
 50
67.380135051960039
 51
112.6198649480398
  0
ARC
  5
A6
  8
DATA
  6
CONTINUOUS
 62
     7
 10
-64.553285576437773
 20
126.9999999999998
 30
0.0
 40
6.5000000000001572
 50
67.380135051960139
 51
112.6198649480398
  0
LINE
  5
A7
  8
DATA
  6
CONTINUOUS
 62
     7
 10
-53.832537834329727
 20
124.4060875427402
 30
0.0
 11
-53.832537834329727
 21
121.4060875427402
 31
0.0
  0
LINE
  5
A8
  8
DATA
  6
CONTINUOUS
 62
     7
 10
-61.224033318545843
 20
124.4060875427402
 30
0.0
 11
-53.832537834329763
 21
124.4060875427402
 31
0.0
  0
LINE
  5
A9
  8
DATA
  6
CONTINUOUS
 62
     7
 10
-53.832537834329727
 20
124.4060875427402
 30
0.0
 11
-53.832537834329727
 21
121.4060875427402
 31
0.0
  0
LINE
  5
AA
  8
DATA
  6
CONTINUOUS
 62
     7
 10
-50.83253783432972
 20
124.4999999999999
 30
0.0
 11
-50.83253783432972
 21
121.4060875427402
 31
0.0
  0
LINE
  5
AB
  8
DATA
  6
CONTINUOUS
 62
     7
 10
-53.832537834329727
 20
121.4060875427402
 30
0.0
 11
-50.83253783432972
 21
121.4060875427402
 31
0.0
  0
TEXT
  5
AC
  8
DATA
 62
     7
 10
-49.870538144474601
 20
117.0195535252474
 30
0.0
 40
1.86165
  1
CH 1
 50
180.0
 41
0.7
 11
-49.870538144474601
 21
116.0887285252474
 31
0.0
 73
     2
  0
LINE
  5
AD
  8
DATA
  6
CONTINUOUS
 62
     7
 10
-48.59083528038164
 20
137.7429452573688
 30
0.0
 11
-50.59083528038164
 21
137.7429452573688
 31
0.0
  0
LINE
  5
AE
  8
DATA
  6
CONTINUOUS
 62
     7
 10
-53.553285576437759
 20
137.7429452573688
 30
0.0
 11
-55.553285576437759
 21
137.7429452573688
 31
0.0
  0
LINE
  5
AF
  8
DATA
  6
CONTINUOUS
 62
     7
 10
-54.553285576437773
 20
138.74294525736869
 30
0.0
 11
-54.553285576437773
 21
136.7429452573688
 31
0.0
  0
LINE
  5
B0
  8
DATA
  6
CONTINUOUS
 62
     7
 10
-46.503285576437762
 20
133.99999999999989
 30
0.0
 11
-46.503285576437762
 21
124.4999999999999
 31
0.0
  0
LINE
  5
B1
  8
DATA
  6
CONTINUOUS
 62
     7
 10
-47.003285576437762
 20
133.0
 30
0.0
 11
-47.003285576437762
 21
125.4999999999999
 31
0.0
  0
POLYLINE
  5
B2
  8
DATA
  6
CONTINUOUS
 62
     7
 66
     1
 10
0.0
 20
0.0
 30
0.0
 70
     1
  0
VERTEX
  5
271
  8
DATA
  6
CONTINUOUS
 62
     7
 10
-50.053285576437759
 20
129.74999999999989
 30
0.0
  0
VERTEX
  5
272
  8
DATA
  6
CONTINUOUS
 62
     7
 10
-49.053285576437773
 20
129.74999999999989
 30
0.0
  0
VERTEX
  5
273
  8
DATA
  6
CONTINUOUS
 62
     7
 10
-49.053285576437773
 20
128.74999999999989
 30
0.0
  0
VERTEX
  5
274
  8
DATA
  6
CONTINUOUS
 62
     7
 10
-50.053285576437759
 20
128.74999999999989
 30
0.0
  0
SEQEND
  5
275
  8
DATA
  6
CONTINUOUS
 62
     7
  0
ARC
  5
B9
  8
DATA
  6
CONTINUOUS
 62
     7
 10
-49.553285576437773
 20
126.9999999999998
 30
0.0
 40
6.5000000000001616
 50
67.380135051960039
 51
112.6198649480398
  0
LINE
  5
BA
  8
DATA
  6
CONTINUOUS
 62
     7
 10
-61.224033318545807
 20
124.4060875427402
 30
0.0
 11
-61.224033318545807
 21
121.4060875427402
 31
0.0
  0
LINE
  5
BB
  8
DATA
  6
CONTINUOUS
 62
     7
 10
-64.224033318545807
 20
124.4999999999999
 30
0.0
 11
-64.224033318545807
 21
121.4060875427402
 31
0.0
  0
LINE
  5
BC
  8
DATA
  6
CONTINUOUS
 62
     7
 10
-61.224033318545807
 20
121.4060875427402
 30
0.0
 11
-64.224033318545807
 21
121.4060875427402
 31
0.0
  0
LINE
  5
BD
  8
DATA
  6
CONTINUOUS
 62
     7
 10
-60.537734193199952
 20
137.7429452573688
 30
0.0
 11
-58.537734193199952
 21
137.7429452573688
 31
0.0
  0
LINE
  5
BE
  8
DATA
  6
CONTINUOUS
 62
     7
 10
-65.554535551276729
 20
137.7429452573688
 30
0.0
 11
-63.554535551276722
 21
137.7429452573688
 31
0.0
  0
LINE
  5
BF
  8
DATA
  6
CONTINUOUS
 62
     7
 10
-64.554535551276729
 20
138.74294525736869
 30
0.0
 11
-64.554535551276729
 21
136.7429452573688
 31
0.0
  0
TEXT
  5
C0
  8
DATA
 62
     7
 10
-60.208629274395371
 20
117.0195535252474
 30
0.0
 40
1.86165
  1
CH 2
 50
180.0
 41
0.7
 11
-60.208629274395371
 21
116.0887285252474
 31
0.0
 73
     2
  0
TEXT
  5
C1
  8
DATA
 62
     7
 10
-53.05424006763603
 20
104.1235312499999
 30
0.0
 40
2.3270624999999998
  1
INPUTS
 50
180.0
 41
0.7
 11
-53.05424006763603
 21
102.95999999999989
 31
0.0
 73
     2
  0
CIRCLE
  5
C2
  8
DATA
  6
CONTINUOUS
 62
     7
 10
-41.19805795031418
 20
104.9999999999999
 30
0.0
 40
2.450000000000002
  0
POLYLINE
  5
C3
  8
DATA
  6
CONTINUOUS
 62
     7
 66
     1
 10
0.0
 20
0.0
 30
0.0
 70
     1
  0
VERTEX
  5
276
  8
DATA
  6
CONTINUOUS
 62
     7
 10
-41.716015754044648
 20
104.102870767762
 30
0.0
  0
VERTEX
  5
277
  8
DATA
  6
CONTINUOUS
 62
     7
 10
-40.929943261984327
 20
103.9993823608975
 30
0.0
  0
VERTEX
  5
278
  8
DATA
  6
CONTINUOUS
 62
     7
 10
-40.300928718076221
 20
104.4820421962695
 30
0.0
  0
VERTEX
  5
279
  8
DATA
  6
CONTINUOUS
 62
     7
 10
-40.19744031121175
 20
105.2681146883298
 30
0.0
  0
VERTEX
  5
27A
  8
DATA
  6
CONTINUOUS
 62
     7
 10
-40.680100146583719
 20
105.8971292322379
 30
0.0
  0
VERTEX
  5
27B
  8
DATA
  6
CONTINUOUS
 62
     7
 10
-41.466172638644039
 20
106.0006176391024
 30
0.0
  0
VERTEX
  5
27C
  8
DATA
  6
CONTINUOUS
 62
     7
 10
-42.095187182552174
 20
105.5179578037304
 30
0.0
  0
VERTEX
  5
27D
  8
DATA
  6
CONTINUOUS
 62
     7
 10
-42.198675589416638
 20
104.7318853116701
 30
0.0
  0
SEQEND
  5
27E
  8
DATA
  6
CONTINUOUS
 62
     7
  0
CIRCLE
  5
CE
  8
DATA
  6
CONTINUOUS
 62
     7
 10
-118.0
 20
104.9999999999999
 30
0.0
 40
2.4499999999999882
  0
POLYLINE
  5
CF
  8
DATA
  6
CONTINUOUS
 62
     7
 66
     1
 10
0.0
 20
0.0
 30
0.0
 70
     1
  0
VERTEX
  5
27F
  8
DATA
  6
CONTINUOUS
 62
     7
 10
-118.5179578037305
 20
104.102870767762
 30
0.0
  0
VERTEX
  5
280
  8
DATA
  6
CONTINUOUS
 62
     7
 10
-117.7318853116701
 20
103.9993823608975
 30
0.0
  0
VERTEX
  5
281
  8
DATA
  6
CONTINUOUS
 62
     7
 10
-117.102870767762
 20
104.4820421962695
 30
0.0
  0
VERTEX
  5
282
  8
DATA
  6
CONTINUOUS
 62
     7
 10
-116.9993823608975
 20
105.2681146883298
 30
0.0
  0
VERTEX
  5
283
  8
DATA
  6
CONTINUOUS
 62
     7
 10
-117.4820421962695
 20
105.8971292322379
 30
0.0
  0
VERTEX
  5
284
  8
DATA
  6
CONTINUOUS
 62
     7
 10
-118.2681146883298
 20
106.0006176391024
 30
0.0
  0
VERTEX
  5
285
  8
DATA
  6
CONTINUOUS
 62
     7
 10
-118.8971292322379
 20
105.5179578037304
 30
0.0
  0
VERTEX
  5
286
  8
DATA
  6
CONTINUOUS
 62
     7
 10
-119.0006176391024
 20
104.7318853116701
 30
0.0
  0
SEQEND
  5
287
  8
DATA
  6
CONTINUOUS
 62
     7
  0
LINE
  5
DA
  8
DATA
  6
CONTINUOUS
 62
     7
 10
61.0
 20
-200.0
 30
0.0
 11
236.0
 21
-200.0
 31
0.0
  0
LINE
  5
DB
  8
DATA
  6
CONTINUOUS
 62
     7
 10
61.0
 20
-156.0
 30
0.0
 11
238.0
 21
-156.0
 31
0.0
  0
LINE
  5
DC
  8
DATA
  6
CONTINUOUS
 62
     7
 10
60.0
 20
-199.0
 30
0.0
 11
60.0
 21
-157.0
 31
0.0
  0
LINE
  5
DD
  8
DATA
  6
CONTINUOUS
 62
     7
 10
238.0
 20
-198.0
 30
0.0
 11
238.0
 21
-156.0
 31
0.0
  0
LINE
  5
DE
  8
DATA
  6
CONTINUOUS
 62
     7
 10
61.0
 20
-166.0
 30
0.0
 11
236.0
 21
-166.0
 31
0.0
  0
LINE
  5
DF
  8
DATA
  6
CONTINUOUS
 62
     7
 10
236.0
 20
-198.00000000000011
 30
0.0
 11
236.0
 21
-156.0
 31
0.0
  0
LINE
  5
E0
  8
DATA
  6
CONTINUOUS
 62
     7
 10
61.0
 20
-198.00000000000011
 30
0.0
 11
61.0
 21
-157.0
 31
0.0
  0
ARC
  5
E1
  8
DATA
  6
CONTINUOUS
 62
     7
 10
61.0
 20
-157.0
 30
0.0
 40
1.0
 50
90.0
 51
180.0
  0
LINE
  5
E2
  8
DATA
  6
CONTINUOUS
 62
     7
 10
62.0
 20
-199.00000000000011
 30
0.0
 11
68.0
 21
-199.00000000000011
 31
0.0
  0
LINE
  5
E3
  8
DATA
  6
CONTINUOUS
 62
     7
 10
68.0
 20
-199.0
 30
0.0
 11
68.0
 21
-200.0
 31
0.0
  0
ARC
  5
E4
  8
DATA
  6
CONTINUOUS
 62
     7
 10
61.0
 20
-199.0
 30
0.0
 40
1.0
 50
180.0
 51
270.0
  0
ARC
  5
E5
  8
DATA
  6
CONTINUOUS
 62
     7
 10
62.0
 20
-198.00000000000011
 30
0.0
 40
1.0
 50
180.0
 51
270.0
  0
CIRCLE
  5
E6
  8
DATA
  6
CONTINUOUS
 62
     7
 10
80.0
 20
-161.5
 30
0.0
 40
2.450000000000002
  0
POLYLINE
  5
E7
  8
DATA
  6
CONTINUOUS
 62
     7
 66
     1
 10
0.0
 20
0.0
 30
0.0
 70
     1
  0
VERTEX
  5
288
  8
DATA
  6
CONTINUOUS
 62
     7
 10
79.482042196269546
 20
-162.397129232238
 30
0.0
  0
VERTEX
  5
289
  8
DATA
  6
CONTINUOUS
 62
     7
 10
80.268114688329874
 20
-162.5006176391025
 30
0.0
  0
VERTEX
  5
28A
  8
DATA
  6
CONTINUOUS
 62
     7
 10
80.897129232237987
 20
-162.0179578037305
 30
0.0
  0
VERTEX
  5
28B
  8
DATA
  6
CONTINUOUS
 62
     7
 10
81.000617639102444
 20
-161.23188531167011
 30
0.0
  0
VERTEX
  5
28C
  8
DATA
  6
CONTINUOUS
 62
     7
 10
80.517957803730454
 20
-160.602870767762
 30
0.0
  0
VERTEX
  5
28D
  8
DATA
  6
CONTINUOUS
 62
     7
 10
79.73188531167014
 20
-160.49938236089761
 30
0.0
  0
VERTEX
  5
28E
  8
DATA
  6
CONTINUOUS
 62
     7
 10
79.102870767762013
 20
-160.9820421962695
 30
0.0
  0
VERTEX
  5
28F
  8
DATA
  6
CONTINUOUS
 62
     7
 10
78.999382360897556
 20
-161.7681146883298
 30
0.0
  0
SEQEND
  5
290
  8
DATA
  6
CONTINUOUS
 62
     7
  0
CIRCLE
  5
F2
  8
DATA
  6
CONTINUOUS
 62
     7
 10
126.0
 20
-161.5
 30
0.0
 40
2.450000000000002
  0
POLYLINE
  5
F3
  8
DATA
  6
CONTINUOUS
 62
     7
 66
     1
 10
0.0
 20
0.0
 30
0.0
 70
     1
  0
VERTEX
  5
291
  8
DATA
  6
CONTINUOUS
 62
     7
 10
125.4820421962695
 20
-162.397129232238
 30
0.0
  0
VERTEX
  5
292
  8
DATA
  6
CONTINUOUS
 62
     7
 10
126.2681146883299
 20
-162.5006176391025
 30
0.0
  0
VERTEX
  5
293
  8
DATA
  6
CONTINUOUS
 62
     7
 10
126.8971292322379
 20
-162.0179578037305
 30
0.0
  0
VERTEX
  5
294
  8
DATA
  6
CONTINUOUS
 62
     7
 10
127.0006176391024
 20
-161.23188531167011
 30
0.0
  0
VERTEX
  5
295
  8
DATA
  6
CONTINUOUS
 62
     7
 10
126.5179578037304
 20
-160.602870767762
 30
0.0
  0
VERTEX
  5
296
  8
DATA
  6
CONTINUOUS
 62
     7
 10
125.7318853116701
 20
-160.49938236089761
 30
0.0
  0
VERTEX
  5
297
  8
DATA
  6
CONTINUOUS
 62
     7
 10
125.102870767762
 20
-160.9820421962695
 30
0.0
  0
VERTEX
  5
298
  8
DATA
  6
CONTINUOUS
 62
     7
 10
124.9993823608975
 20
-161.7681146883298
 30
0.0
  0
SEQEND
  5
299
  8
DATA
  6
CONTINUOUS
 62
     7
  0
CIRCLE
  5
FE
  8
DATA
  6
CONTINUOUS
 62
     7
 10
172.0
 20
-161.5
 30
0.0
 40
2.4499999999999882
  0
POLYLINE
  5
FF
  8
DATA
  6
CONTINUOUS
 62
     7
 66
     1
 10
0.0
 20
0.0
 30
0.0
 70
     1
  0
VERTEX
  5
29A
  8
DATA
  6
CONTINUOUS
 62
     7
 10
171.4820421962695
 20
-162.397129232238
 30
0.0
  0
VERTEX
  5
29B
  8
DATA
  6
CONTINUOUS
 62
     7
 10
172.26811468832989
 20
-162.5006176391025
 30
0.0
  0
VERTEX
  5
29C
  8
DATA
  6
CONTINUOUS
 62
     7
 10
172.89712923223789
 20
-162.0179578037305
 30
0.0
  0
VERTEX
  5
29D
  8
DATA
  6
CONTINUOUS
 62
     7
 10
173.00061763910239
 20
-161.23188531167011
 30
0.0
  0
VERTEX
  5
29E
  8
DATA
  6
CONTINUOUS
 62
     7
 10
172.51795780373041
 20
-160.602870767762
 30
0.0
  0
VERTEX
  5
29F
  8
DATA
  6
CONTINUOUS
 62
     7
 10
171.73188531167011
 20
-160.49938236089761
 30
0.0
  0
VERTEX
  5
2A0
  8
DATA
  6
CONTINUOUS
 62
     7
 10
171.102870767762
 20
-160.9820421962695
 30
0.0
  0
VERTEX
  5
2A1
  8
DATA
  6
CONTINUOUS
 62
     7
 10
170.9993823608975
 20
-161.7681146883298
 30
0.0
  0
SEQEND
  5
2A2
  8
DATA
  6
CONTINUOUS
 62
     7
  0
CIRCLE
  5
10A
  8
DATA
  6
CONTINUOUS
 62
     7
 10
217.0
 20
-161.5
 30
0.0
 40
2.4499999999999882
  0
POLYLINE
  5
10B
  8
DATA
  6
CONTINUOUS
 62
     7
 66
     1
 10
0.0
 20
0.0
 30
0.0
 70
     1
  0
VERTEX
  5
2A3
  8
DATA
  6
CONTINUOUS
 62
     7
 10
216.48204219626959
 20
-162.397129232238
 30
0.0
  0
VERTEX
  5
2A4
  8
DATA
  6
CONTINUOUS
 62
     7
 10
217.26811468832989
 20
-162.5006176391025
 30
0.0
  0
VERTEX
  5
2A5
  8
DATA
  6
CONTINUOUS
 62
     7
 10
217.897129232238
 20
-162.0179578037305
 30
0.0
  0
VERTEX
  5
2A6
  8
DATA
  6
CONTINUOUS
 62
     7
 10
218.0006176391025
 20
-161.23188531167011
 30
0.0
  0
VERTEX
  5
2A7
  8
DATA
  6
CONTINUOUS
 62
     7
 10
217.5179578037305
 20
-160.602870767762
 30
0.0
  0
VERTEX
  5
2A8
  8
DATA
  6
CONTINUOUS
 62
     7
 10
216.73188531167011
 20
-160.49938236089761
 30
0.0
  0
VERTEX
  5
2A9
  8
DATA
  6
CONTINUOUS
 62
     7
 10
216.102870767762
 20
-160.9820421962695
 30
0.0
  0
VERTEX
  5
2AA
  8
DATA
  6
CONTINUOUS
 62
     7
 10
215.99938236089761
 20
-161.7681146883298
 30
0.0
  0
SEQEND
  5
2AB
  8
DATA
  6
CONTINUOUS
 62
     7
  0
ARC
  5
116
  8
DATA
  6
CONTINUOUS
 62
     7
 10
236.0
 20
-198.0
 30
0.0
 40
2.0
 50
270.0
 51
0.0
  0
CIRCLE
  5
117
  8
DATA
  6
CONTINUOUS
 62
     7
 10
74.0
 20
-173.0
 30
0.0
 40
2.0
  0
CIRCLE
  5
118
  8
DATA
  6
CONTINUOUS
 62
     7
 10
74.0
 20
-190.0
 30
0.0
 40
2.0
  0
CIRCLE
  5
119
  8
DATA
  6
CONTINUOUS
 62
     7
 10
220.0
 20
-186.0
 30
0.0
 40
2.0
  0
CIRCLE
  5
11A
  8
DATA
  6
CONTINUOUS
 62
     7
 10
203.0
 20
-186.0
 30
0.0
 40
2.0
  0
LINE
  5
11B
  8
DATA
  6
CONTINUOUS
 62
     7
 10
79.304653991536554
 20
-156.0
 30
0.0
 11
104.3046539915365
 21
-156.0
 31
0.0
  0
CIRCLE
  5
11C
  8
DATA
  6
CONTINUOUS
 62
     7
 10
86.0
 20
-171.0
 30
0.0
 40
1.200000000000002
  0
CIRCLE
  5
11D
  8
DATA
  6
CONTINUOUS
 62
     7
 10
86.0
 20
-175.5
 30
0.0
 40
1.200000000000002
  0
CIRCLE
  5
11E
  8
DATA
  6
CONTINUOUS
 62
     7
 10
86.0
 20
-180.0
 30
0.0
 40
1.200000000000002
  0
CIRCLE
  5
11F
  8
DATA
  6
CONTINUOUS
 62
     7
 10
86.0
 20
-184.5
 30
0.0
 40
1.200000000000002
  0
CIRCLE
  5
120
  8
DATA
  6
CONTINUOUS
 62
     7
 10
90.5
 20
-171.0
 30
0.0
 40
1.200000000000002
  0
CIRCLE
  5
121
  8
DATA
  6
CONTINUOUS
 62
     7
 10
90.5
 20
-175.5
 30
0.0
 40
1.200000000000002
  0
CIRCLE
  5
122
  8
DATA
  6
CONTINUOUS
 62
     7
 10
90.5
 20
-180.0
 30
0.0
 40
1.200000000000002
  0
CIRCLE
  5
123
  8
DATA
  6
CONTINUOUS
 62
     7
 10
90.5
 20
-184.5
 30
0.0
 40
1.200000000000002
  0
CIRCLE
  5
124
  8
DATA
  6
CONTINUOUS
 62
     7
 10
95.0
 20
-171.0
 30
0.0
 40
1.200000000000002
  0
CIRCLE
  5
125
  8
DATA
  6
CONTINUOUS
 62
     7
 10
95.0
 20
-175.5
 30
0.0
 40
1.200000000000002
  0
CIRCLE
  5
126
  8
DATA
  6
CONTINUOUS
 62
     7
 10
95.0
 20
-180.0
 30
0.0
 40
1.200000000000002
  0
CIRCLE
  5
127
  8
DATA
  6
CONTINUOUS
 62
     7
 10
95.0
 20
-184.5
 30
0.0
 40
1.200000000000002
  0
CIRCLE
  5
128
  8
DATA
  6
CONTINUOUS
 62
     7
 10
99.500000000000014
 20
-171.0
 30
0.0
 40
1.200000000000002
  0
CIRCLE
  5
129
  8
DATA
  6
CONTINUOUS
 62
     7
 10
99.500000000000014
 20
-175.5
 30
0.0
 40
1.200000000000002
  0
CIRCLE
  5
12A
  8
DATA
  6
CONTINUOUS
 62
     7
 10
99.500000000000014
 20
-180.0
 30
0.0
 40
1.200000000000002
  0
CIRCLE
  5
12B
  8
DATA
  6
CONTINUOUS
 62
     7
 10
99.500000000000014
 20
-184.5
 30
0.0
 40
1.200000000000002
  0
CIRCLE
  5
12C
  8
DATA
  6
CONTINUOUS
 62
     7
 10
104.0
 20
-171.0
 30
0.0
 40
1.200000000000002
  0
CIRCLE
  5
12D
  8
DATA
  6
CONTINUOUS
 62
     7
 10
104.0
 20
-175.5
 30
0.0
 40
1.200000000000002
  0
CIRCLE
  5
12E
  8
DATA
  6
CONTINUOUS
 62
     7
 10
104.0
 20
-180.0
 30
0.0
 40
1.200000000000002
  0
CIRCLE
  5
12F
  8
DATA
  6
CONTINUOUS
 62
     7
 10
104.0
 20
-184.5
 30
0.0
 40
1.200000000000002
  0
CIRCLE
  5
130
  8
DATA
  6
CONTINUOUS
 62
     7
 10
108.5
 20
-171.0
 30
0.0
 40
1.200000000000002
  0
CIRCLE
  5
131
  8
DATA
  6
CONTINUOUS
 62
     7
 10
108.5
 20
-175.5
 30
0.0
 40
1.200000000000002
  0
CIRCLE
  5
132
  8
DATA
  6
CONTINUOUS
 62
     7
 10
108.5
 20
-180.0
 30
0.0
 40
1.200000000000002
  0
CIRCLE
  5
133
  8
DATA
  6
CONTINUOUS
 62
     7
 10
108.5
 20
-184.5
 30
0.0
 40
1.200000000000002
  0
CIRCLE
  5
134
  8
DATA
  6
CONTINUOUS
 62
     7
 10
113.0
 20
-171.0
 30
0.0
 40
1.200000000000002
  0
CIRCLE
  5
135
  8
DATA
  6
CONTINUOUS
 62
     7
 10
113.0
 20
-175.5
 30
0.0
 40
1.200000000000002
  0
CIRCLE
  5
136
  8
DATA
  6
CONTINUOUS
 62
     7
 10
113.0
 20
-180.0
 30
0.0
 40
1.200000000000002
  0
CIRCLE
  5
137
  8
DATA
  6
CONTINUOUS
 62
     7
 10
113.0
 20
-184.5
 30
0.0
 40
1.200000000000002
  0
CIRCLE
  5
138
  8
DATA
  6
CONTINUOUS
 62
     7
 10
117.5
 20
-171.0
 30
0.0
 40
1.200000000000002
  0
CIRCLE
  5
139
  8
DATA
  6
CONTINUOUS
 62
     7
 10
117.5
 20
-175.5
 30
0.0
 40
1.200000000000002
  0
CIRCLE
  5
13A
  8
DATA
  6
CONTINUOUS
 62
     7
 10
117.5
 20
-180.0
 30
0.0
 40
1.200000000000002
  0
CIRCLE
  5
13B
  8
DATA
  6
CONTINUOUS
 62
     7
 10
117.5
 20
-184.5
 30
0.0
 40
1.200000000000002
  0
CIRCLE
  5
13C
  8
DATA
  6
CONTINUOUS
 62
     7
 10
122.0
 20
-171.0
 30
0.0
 40
1.200000000000002
  0
CIRCLE
  5
13D
  8
DATA
  6
CONTINUOUS
 62
     7
 10
122.0
 20
-175.5
 30
0.0
 40
1.200000000000002
  0
CIRCLE
  5
13E
  8
DATA
  6
CONTINUOUS
 62
     7
 10
122.0
 20
-180.0
 30
0.0
 40
1.200000000000002
  0
CIRCLE
  5
13F
  8
DATA
  6
CONTINUOUS
 62
     7
 10
122.0
 20
-184.5
 30
0.0
 40
1.200000000000002
  0
CIRCLE
  5
140
  8
DATA
  6
CONTINUOUS
 62
     7
 10
126.5
 20
-171.0
 30
0.0
 40
1.200000000000002
  0
CIRCLE
  5
141
  8
DATA
  6
CONTINUOUS
 62
     7
 10
126.5
 20
-175.5
 30
0.0
 40
1.200000000000002
  0
CIRCLE
  5
142
  8
DATA
  6
CONTINUOUS
 62
     7
 10
126.5
 20
-180.0
 30
0.0
 40
1.200000000000002
  0
CIRCLE
  5
143
  8
DATA
  6
CONTINUOUS
 62
     7
 10
126.5
 20
-184.5
 30
0.0
 40
1.200000000000002
  0
CIRCLE
  5
144
  8
DATA
  6
CONTINUOUS
 62
     7
 10
131.0
 20
-171.0
 30
0.0
 40
1.199999999999988
  0
CIRCLE
  5
145
  8
DATA
  6
CONTINUOUS
 62
     7
 10
131.0
 20
-175.5
 30
0.0
 40
1.199999999999988
  0
CIRCLE
  5
146
  8
DATA
  6
CONTINUOUS
 62
     7
 10
131.0
 20
-180.0
 30
0.0
 40
1.199999999999988
  0
CIRCLE
  5
147
  8
DATA
  6
CONTINUOUS
 62
     7
 10
131.0
 20
-184.5
 30
0.0
 40
1.199999999999988
  0
CIRCLE
  5
148
  8
DATA
  6
CONTINUOUS
 62
     7
 10
135.5
 20
-171.0
 30
0.0
 40
1.199999999999988
  0
CIRCLE
  5
149
  8
DATA
  6
CONTINUOUS
 62
     7
 10
135.5
 20
-175.5
 30
0.0
 40
1.199999999999988
  0
CIRCLE
  5
14A
  8
DATA
  6
CONTINUOUS
 62
     7
 10
135.5
 20
-180.0
 30
0.0
 40
1.199999999999988
  0
CIRCLE
  5
14B
  8
DATA
  6
CONTINUOUS
 62
     7
 10
135.5
 20
-184.5
 30
0.0
 40
1.199999999999988
  0
CIRCLE
  5
14C
  8
DATA
  6
CONTINUOUS
 62
     7
 10
140.0
 20
-171.0
 30
0.0
 40
1.199999999999988
  0
CIRCLE
  5
14D
  8
DATA
  6
CONTINUOUS
 62
     7
 10
140.0
 20
-175.5
 30
0.0
 40
1.199999999999988
  0
CIRCLE
  5
14E
  8
DATA
  6
CONTINUOUS
 62
     7
 10
140.0
 20
-180.0
 30
0.0
 40
1.199999999999988
  0
CIRCLE
  5
14F
  8
DATA
  6
CONTINUOUS
 62
     7
 10
140.0
 20
-184.5
 30
0.0
 40
1.199999999999988
  0
CIRCLE
  5
150
  8
DATA
  6
CONTINUOUS
 62
     7
 10
144.5
 20
-171.0
 30
0.0
 40
1.199999999999988
  0
CIRCLE
  5
151
  8
DATA
  6
CONTINUOUS
 62
     7
 10
144.5
 20
-175.5
 30
0.0
 40
1.199999999999988
  0
CIRCLE
  5
152
  8
DATA
  6
CONTINUOUS
 62
     7
 10
144.5
 20
-180.0
 30
0.0
 40
1.199999999999988
  0
CIRCLE
  5
153
  8
DATA
  6
CONTINUOUS
 62
     7
 10
144.5
 20
-184.5
 30
0.0
 40
1.199999999999988
  0
CIRCLE
  5
154
  8
DATA
  6
CONTINUOUS
 62
     7
 10
149.0
 20
-171.0
 30
0.0
 40
1.199999999999988
  0
CIRCLE
  5
155
  8
DATA
  6
CONTINUOUS
 62
     7
 10
149.0
 20
-175.5
 30
0.0
 40
1.199999999999988
  0
CIRCLE
  5
156
  8
DATA
  6
CONTINUOUS
 62
     7
 10
149.0
 20
-180.0
 30
0.0
 40
1.199999999999988
  0
CIRCLE
  5
157
  8
DATA
  6
CONTINUOUS
 62
     7
 10
149.0
 20
-184.5
 30
0.0
 40
1.199999999999988
  0
CIRCLE
  5
158
  8
DATA
  6
CONTINUOUS
 62
     7
 10
153.5
 20
-171.0
 30
0.0
 40
1.199999999999988
  0
CIRCLE
  5
159
  8
DATA
  6
CONTINUOUS
 62
     7
 10
153.5
 20
-175.5
 30
0.0
 40
1.199999999999988
  0
CIRCLE
  5
15A
  8
DATA
  6
CONTINUOUS
 62
     7
 10
153.5
 20
-180.0
 30
0.0
 40
1.199999999999988
  0
CIRCLE
  5
15B
  8
DATA
  6
CONTINUOUS
 62
     7
 10
153.5
 20
-184.5
 30
0.0
 40
1.199999999999988
  0
CIRCLE
  5
15C
  8
DATA
  6
CONTINUOUS
 62
     7
 10
158.0
 20
-171.0
 30
0.0
 40
1.199999999999988
  0
CIRCLE
  5
15D
  8
DATA
  6
CONTINUOUS
 62
     7
 10
158.0
 20
-175.5
 30
0.0
 40
1.199999999999988
  0
CIRCLE
  5
15E
  8
DATA
  6
CONTINUOUS
 62
     7
 10
158.0
 20
-180.0
 30
0.0
 40
1.199999999999988
  0
CIRCLE
  5
15F
  8
DATA
  6
CONTINUOUS
 62
     7
 10
158.0
 20
-184.5
 30
0.0
 40
1.199999999999988
  0
CIRCLE
  5
160
  8
DATA
  6
CONTINUOUS
 62
     7
 10
162.5
 20
-171.0
 30
0.0
 40
1.199999999999988
  0
CIRCLE
  5
161
  8
DATA
  6
CONTINUOUS
 62
     7
 10
162.5
 20
-175.5
 30
0.0
 40
1.199999999999988
  0
CIRCLE
  5
162
  8
DATA
  6
CONTINUOUS
 62
     7
 10
162.5
 20
-180.0
 30
0.0
 40
1.199999999999988
  0
CIRCLE
  5
163
  8
DATA
  6
CONTINUOUS
 62
     7
 10
162.5
 20
-184.5
 30
0.0
 40
1.199999999999988
  0
CIRCLE
  5
164
  8
DATA
  6
CONTINUOUS
 62
     7
 10
167.0
 20
-171.0
 30
0.0
 40
1.199999999999988
  0
CIRCLE
  5
165
  8
DATA
  6
CONTINUOUS
 62
     7
 10
167.0
 20
-175.5
 30
0.0
 40
1.199999999999988
  0
CIRCLE
  5
166
  8
DATA
  6
CONTINUOUS
 62
     7
 10
167.0
 20
-180.0
 30
0.0
 40
1.199999999999988
  0
CIRCLE
  5
167
  8
DATA
  6
CONTINUOUS
 62
     7
 10
167.0
 20
-184.5
 30
0.0
 40
1.199999999999988
  0
CIRCLE
  5
168
  8
DATA
  6
CONTINUOUS
 62
     7
 10
171.5
 20
-171.0
 30
0.0
 40
1.199999999999988
  0
CIRCLE
  5
169
  8
DATA
  6
CONTINUOUS
 62
     7
 10
171.5
 20
-175.5
 30
0.0
 40
1.199999999999988
  0
CIRCLE
  5
16A
  8
DATA
  6
CONTINUOUS
 62
     7
 10
171.5
 20
-180.0
 30
0.0
 40
1.199999999999988
  0
CIRCLE
  5
16B
  8
DATA
  6
CONTINUOUS
 62
     7
 10
171.5
 20
-184.5
 30
0.0
 40
1.199999999999988
  0
LINE
  5
16C
  8
DATA
  6
CONTINUOUS
 62
     7
 10
-121.5032855764377
 20
133.99999999999989
 30
0.0
 11
-89.503285576437747
 21
133.99999999999989
 31
0.0
  0
LINE
  5
16D
  8
DATA
  6
CONTINUOUS
 62
     7
 10
-121.5032855764377
 20
124.4999999999999
 30
0.0
 11
-89.503285576437747
 21
124.4999999999999
 31
0.0
  0
LINE
  5
16E
  8
DATA
  6
CONTINUOUS
 62
     7
 10
-121.5032855764377
 20
133.99999999999989
 30
0.0
 11
-121.5032855764377
 21
124.4999999999999
 31
0.0
  0
POLYLINE
  5
16F
  8
DATA
  6
CONTINUOUS
 62
     7
 66
     1
 10
0.0
 20
0.0
 30
0.0
 70
     1
  0
VERTEX
  5
2AC
  8
DATA
  6
CONTINUOUS
 62
     7
 10
-103.0532855764377
 20
129.74999999999989
 30
0.0
  0
VERTEX
  5
2AD
  8
DATA
  6
CONTINUOUS
 62
     7
 10
-102.0532855764377
 20
129.74999999999989
 30
0.0
  0
VERTEX
  5
2AE
  8
DATA
  6
CONTINUOUS
 62
     7
 10
-102.0532855764377
 20
128.74999999999989
 30
0.0
  0
VERTEX
  5
2AF
  8
DATA
  6
CONTINUOUS
 62
     7
 10
-103.0532855764377
 20
128.74999999999989
 30
0.0
  0
SEQEND
  5
2B0
  8
DATA
  6
CONTINUOUS
 62
     7
  0
POLYLINE
  5
176
  8
DATA
  6
CONTINUOUS
 62
     7
 66
     1
 10
0.0
 20
0.0
 30
0.0
 70
     1
  0
VERTEX
  5
2B1
  8
DATA
  6
CONTINUOUS
 62
     7
 10
-98.053285576437744
 20
129.74999999999989
 30
0.0
  0
VERTEX
  5
2B2
  8
DATA
  6
CONTINUOUS
 62
     7
 10
-97.053285576437759
 20
129.74999999999989
 30
0.0
  0
VERTEX
  5
2B3
  8
DATA
  6
CONTINUOUS
 62
     7
 10
-97.053285576437759
 20
128.74999999999989
 30
0.0
  0
VERTEX
  5
2B4
  8
DATA
  6
CONTINUOUS
 62
     7
 10
-98.053285576437744
 20
128.74999999999989
 30
0.0
  0
SEQEND
  5
2B5
  8
DATA
  6
CONTINUOUS
 62
     7
  0
POLYLINE
  5
17D
  8
DATA
  6
CONTINUOUS
 62
     7
 66
     1
 10
0.0
 20
0.0
 30
0.0
 70
     1
  0
VERTEX
  5
2B6
  8
DATA
  6
CONTINUOUS
 62
     7
 10
-108.0532855764377
 20
129.74999999999989
 30
0.0
  0
VERTEX
  5
2B7
  8
DATA
  6
CONTINUOUS
 62
     7
 10
-107.0532855764377
 20
129.74999999999989
 30
0.0
  0
VERTEX
  5
2B8
  8
DATA
  6
CONTINUOUS
 62
     7
 10
-107.0532855764377
 20
128.74999999999989
 30
0.0
  0
VERTEX
  5
2B9
  8
DATA
  6
CONTINUOUS
 62
     7
 10
-108.0532855764377
 20
128.74999999999989
 30
0.0
  0
SEQEND
  5
2BA
  8
DATA
  6
CONTINUOUS
 62
     7
  0
LINE
  5
184
  8
DATA
  6
CONTINUOUS
 62
     7
 10
-121.0032855764378
 20
133.0
 30
0.0
 11
-121.0032855764378
 21
125.4999999999999
 31
0.0
  0
LINE
  5
185
  8
DATA
  6
CONTINUOUS
 62
     7
 10
-90.003285576437762
 20
125.4999999999999
 30
0.0
 11
-121.0032855764378
 21
125.4999999999999
 31
0.0
  0
LINE
  5
186
  8
DATA
  6
CONTINUOUS
 62
     7
 10
-121.0032855764378
 20
133.0
 30
0.0
 11
-120.0532855764377
 21
133.0
 31
0.0
  0
ARC
  5
187
  8
DATA
  6
CONTINUOUS
 62
     7
 10
-102.5532855764377
 20
126.9999999999998
 30
0.0
 40
6.5000000000001572
 50
67.380135051960139
 51
112.6198649480398
  0
ARC
  5
188
  8
DATA
  6
CONTINUOUS
 62
     7
 10
-97.553285576437759
 20
126.9999999999998
 30
0.0
 40
6.5000000000001616
 50
67.380135051960039
 51
112.6198649480398
  0
ARC
  5
189
  8
DATA
  6
CONTINUOUS
 62
     7
 10
-107.5532855764377
 20
126.9999999999998
 30
0.0
 40
6.5000000000001572
 50
67.380135051960139
 51
112.6198649480398
  0
LINE
  5
18A
  8
DATA
  6
CONTINUOUS
 62
     7
 10
-96.832537834329713
 20
124.4060875427402
 30
0.0
 11
-96.832537834329713
 21
121.4060875427402
 31
0.0
  0
LINE
  5
18B
  8
DATA
  6
CONTINUOUS
 62
     7
 10
-114.1772788995347
 20
124.4060875427402
 30
0.0
 11
-96.832537834329756
 21
124.4060875427402
 31
0.0
  0
LINE
  5
18C
  8
DATA
  6
CONTINUOUS
 62
     7
 10
-96.832537834329713
 20
124.4060875427402
 30
0.0
 11
-96.832537834329713
 21
121.4060875427402
 31
0.0
  0
LINE
  5
18D
  8
DATA
  6
CONTINUOUS
 62
     7
 10
-93.832537834329713
 20
124.4999999999999
 30
0.0
 11
-93.832537834329713
 21
121.4060875427402
 31
0.0
  0
LINE
  5
18E
  8
DATA
  6
CONTINUOUS
 62
     7
 10
-96.832537834329713
 20
121.4060875427402
 30
0.0
 11
-93.832537834329713
 21
121.4060875427402
 31
0.0
  0
LINE
  5
18F
  8
DATA
  6
CONTINUOUS
 62
     7
 10
-89.503285576437776
 20
133.99999999999989
 30
0.0
 11
-89.503285576437776
 21
124.4999999999999
 31
0.0
  0
LINE
  5
190
  8
DATA
  6
CONTINUOUS
 62
     7
 10
-90.003285576437762
 20
133.0
 30
0.0
 11
-90.003285576437762
 21
125.4999999999999
 31
0.0
  0
POLYLINE
  5
191
  8
DATA
  6
CONTINUOUS
 62
     7
 66
     1
 10
0.0
 20
0.0
 30
0.0
 70
     1
  0
VERTEX
  5
2BB
  8
DATA
  6
CONTINUOUS
 62
     7
 10
-93.053285576437744
 20
129.74999999999989
 30
0.0
  0
VERTEX
  5
2BC
  8
DATA
  6
CONTINUOUS
 62
     7
 10
-92.053285576437759
 20
129.74999999999989
 30
0.0
  0
VERTEX
  5
2BD
  8
DATA
  6
CONTINUOUS
 62
     7
 10
-92.053285576437759
 20
128.74999999999989
 30
0.0
  0
VERTEX
  5
2BE
  8
DATA
  6
CONTINUOUS
 62
     7
 10
-93.053285576437744
 20
128.74999999999989
 30
0.0
  0
SEQEND
  5
2BF
  8
DATA
  6
CONTINUOUS
 62
     7
  0
ARC
  5
198
  8
DATA
  6
CONTINUOUS
 62
     7
 10
-92.553285576437759
 20
126.9999999999998
 30
0.0
 40
6.5000000000001616
 50
67.380135051960039
 51
112.6198649480398
  0
LINE
  5
199
  8
DATA
  6
CONTINUOUS
 62
     7
 10
-114.1772788995347
 20
124.4060875427402
 30
0.0
 11
-114.1772788995347
 21
121.4060875427402
 31
0.0
  0
LINE
  5
19A
  8
DATA
  6
CONTINUOUS
 62
     7
 10
-117.1772788995347
 20
124.4999999999999
 30
0.0
 11
-117.1772788995347
 21
121.4060875427402
 31
0.0
  0
LINE
  5
19B
  8
DATA
  6
CONTINUOUS
 62
     7
 10
-114.1772788995347
 20
121.4060875427402
 30
0.0
 11
-117.1772788995347
 21
121.4060875427402
 31
0.0
  0
POLYLINE
  5
19C
  8
DATA
  6
CONTINUOUS
 62
     7
 66
     1
 10
0.0
 20
0.0
 30
0.0
 70
     1
  0
VERTEX
  5
2C0
  8
DATA
  6
CONTINUOUS
 62
     7
 10
-113.0532855764377
 20
129.74999999999989
 30
0.0
  0
VERTEX
  5
2C1
  8
DATA
  6
CONTINUOUS
 62
     7
 10
-112.0532855764377
 20
129.74999999999989
 30
0.0
  0
VERTEX
  5
2C2
  8
DATA
  6
CONTINUOUS
 62
     7
 10
-112.0532855764377
 20
128.74999999999989
 30
0.0
  0
VERTEX
  5
2C3
  8
DATA
  6
CONTINUOUS
 62
     7
 10
-113.0532855764377
 20
128.74999999999989
 30
0.0
  0
SEQEND
  5
2C4
  8
DATA
  6
CONTINUOUS
 62
     7
  0
POLYLINE
  5
1A3
  8
DATA
  6
CONTINUOUS
 62
     7
 66
     1
 10
0.0
 20
0.0
 30
0.0
 70
     1
  0
VERTEX
  5
2C5
  8
DATA
  6
CONTINUOUS
 62
     7
 10
-118.0532855764377
 20
129.74999999999989
 30
0.0
  0
VERTEX
  5
2C6
  8
DATA
  6
CONTINUOUS
 62
     7
 10
-117.0532855764377
 20
129.74999999999989
 30
0.0
  0
VERTEX
  5
2C7
  8
DATA
  6
CONTINUOUS
 62
     7
 10
-117.0532855764377
 20
128.74999999999989
 30
0.0
  0
VERTEX
  5
2C8
  8
DATA
  6
CONTINUOUS
 62
     7
 10
-118.0532855764377
 20
128.74999999999989
 30
0.0
  0
SEQEND
  5
2C9
  8
DATA
  6
CONTINUOUS
 62
     7
  0
ARC
  5
1AA
  8
DATA
  6
CONTINUOUS
 62
     7
 10
-112.5532855764377
 20
126.9999999999998
 30
0.0
 40
6.5000000000001572
 50
67.380135051960139
 51
112.6198649480398
  0
ARC
  5
1AB
  8
DATA
  6
CONTINUOUS
 62
     7
 10
-117.5532855764377
 20
126.9999999999998
 30
0.0
 40
6.5000000000001572
 50
67.380135051960139
 51
112.6198649480398
  0
TEXT
  5
1AC
  8
DATA
 62
     7
 10
-100.20532395888731
 20
104.1235312499999
 30
0.0
 40
2.3270624999999998
  1
OUTPUTS
 50
180.0
 41
0.7
 11
-100.20532395888731
 21
102.95999999999989
 31
0.0
 73
     2
  0
LINE
  5
1AD
  8
DATA
  6
CONTINUOUS
 62
     7
 10
-105.5
 20
105.1195388013807
 30
0.0
 11
-105.5
 21
124.4060875427402
 31
0.0
  0
TEXT
  5
1AE
  8
DATA
 62
     7
 10
-97.870538144474594
 20
117.0195535252474
 30
0.0
 40
1.86165
  1
CH 1
 50
180.0
 41
0.7
 11
-97.870538144474594
 21
116.0887285252474
 31
0.0
 73
     2
  0
TEXT
  5
1AF
  8
DATA
 62
     7
 10
-108.20862927439531
 20
117.0195535252474
 30
0.0
 40
1.86165
  1
CH 2
 50
180.0
 41
0.7
 11
-108.20862927439531
 21
116.0887285252474
 31
0.0
 73
     2
  0
TEXT
  5
1B0
  8
DATA
 62
     7
 10
-91.334668685233282
 20
136.58401347281901
 30
0.0
 40
1.3031550000000001
  1
70V
 50
180.0
 41
0.7
 11
-91.334668685233282
 21
135.93243597281901
 31
0.0
 73
     2
  0
TEXT
  5
1B1
  8
DATA
 62
     7
 10
-96.083421157533294
 20
136.58401347281901
 30
0.0
 40
1.3031550000000001
  1
COM
 50
180.0
 41
0.7
 11
-96.083421157533294
 21
135.93243597281901
 31
0.0
 73
     2
  0
TEXT
  5
1B2
  8
DATA
 62
     7
 10
-100.9594478013525
 20
136.58401347281901
 30
0.0
 40
1.3031550000000001
  1
100V
 50
180.0
 41
0.7
 11
-100.9594478013525
 21
135.93243597281901
 31
0.0
 73
     2
  0
TEXT
  5
1B3
  8
DATA
 62
     7
 10
-106.3346686852333
 20
136.58401347281901
 30
0.0
 40
1.3031550000000001
  1
70V
 50
180.0
 41
0.7
 11
-106.3346686852333
 21
135.93243597281901
 31
0.0
 73
     2
  0
TEXT
  5
1B4
  8
DATA
 62
     7
 10
-111.08342115753329
 20
136.58401347281901
 30
0.0
 40
1.3031550000000001
  1
COM
 50
180.0
 41
0.7
 11
-111.08342115753329
 21
135.93243597281901
 31
0.0
 73
     2
  0
TEXT
  5
1B5
  8
DATA
 62
     7
 10
-115.9594478013525
 20
136.58401347281901
 30
0.0
 40
1.3031550000000001
  1
100V
 50
180.0
 41
0.7
 11
-115.9594478013525
 21
135.93243597281901
 31
0.0
 73
     2
  0
LINE
  5
1B6
  8
DATA
  6
CONTINUOUS
 62
     7
 10
-105.5032855764377
 20
133.99999999999989
 30
0.0
 11
-105.5032855764377
 21
139.55362791510089
 31
0.0
  0
LINE
  5
1B7
  8
DATA
  6
CONTINUOUS
 62
     7
 10
-122.985307764323
 20
102.9999999999999
 30
0.0
 11
-122.985307764323
 21
137.99999999999989
 31
0.0
  0
LINE
  5
1B8
  8
DATA
  6
CONTINUOUS
 62
     7
 10
-87.969385651061856
 20
102.9999999999999
 30
0.0
 11
-87.969385651061856
 21
137.99999999999989
 31
0.0
  0
LINE
  5
1B9
  8
DATA
  6
CONTINUOUS
 62
     7
 10
-76.701234049590624
 20
102.9999999999999
 30
0.0
 11
-76.701234049590624
 21
137.99999999999989
 31
0.0
  0
LINE
  5
1BA
  8
DATA
  6
CONTINUOUS
 62
     7
 10
-36.701234049590617
 20
102.9999999999999
 30
0.0
 11
-36.701234049590617
 21
137.99999999999989
 31
0.0
  0
TEXT
  5
1BB
  8
DATA
 62
     7
 10
-78.455293893139157
 20
118.4308249999999
 30
0.0
 40
1.86165
  1
CLASS2
 50
180.0
 41
0.7
 11
-78.455293893139157
 21
117.4999999999999
 31
0.0
 73
     2
  0
TEXT
  5
1BC
  8
DATA
 62
     7
 10
-78.513154489973729
 20
121.0670925800224
 30
0.0
 40
1.86165
  1
WIRING
 50
180.0
 41
0.7
 11
-78.513154489973729
 21
120.13626758002241
 31
0.0
 73
     2
  0
LINE
  5
1BD
  8
DATA
  6
CONTINUOUS
 62
     7
 10
-80.818326117709546
 20
126.2656846539454
 30
0.0
 11
-80.517852373261732
 21
130.0857063569334
 31
0.0
  0
LINE
  5
1BE
  8
DATA
  6
CONTINUOUS
 62
     7
 10
-80.517852373261732
 20
130.0857063569334
 30
0.0
 11
-81.458428935685248
 21
129.64710830279441
 31
0.0
  0
LINE
  5
1BF
  8
DATA
  6
CONTINUOUS
 62
     7
 10
-81.458428935685248
 20
129.64710830279441
 30
0.0
 11
-81.247544789384591
 21
131.42458961362061
 31
0.0
  0
LINE
  5
1C0
  8
DATA
  6
CONTINUOUS
 62
     7
 10
-80.576403729746787
 20
131.39391992146801
 30
0.0
 11
-81.474483827629399
 21
133.6221748223937
 31
0.0
  0
LINE
  5
1C1
  8
DATA
  6
CONTINUOUS
 62
     7
 10
-81.474483827629399
 20
133.6221748223937
 30
0.0
 11
-82.370234963937477
 21
131.4758941218783
 31
0.0
  0
LINE
  5
1C2
  8
DATA
  6
CONTINUOUS
 62
     7
 10
-80.818326117709546
 20
126.2656846539454
 30
0.0
 11
-82.860809644725094
 21
126.12949315059529
 31
0.0
  0
LINE
  5
1C3
  8
DATA
  6
CONTINUOUS
 62
     7
 10
-82.860809644725094
 20
126.12949315059529
 30
0.0
 11
-81.874324060172995
 21
128.83984001876979
 31
0.0
  0
LINE
  5
1C4
  8
DATA
  6
CONTINUOUS
 62
     7
 10
-81.874324060172995
 20
128.83984001876979
 30
0.0
 11
-82.639651969323438
 21
128.48296175373309
 31
0.0
  0
LINE
  5
1C5
  8
DATA
  6
CONTINUOUS
 62
     7
 10
-81.754377864428861
 20
131.44775078691089
 30
0.0
 11
-82.639651969323438
 21
128.48296175373309
 31
0.0
  0
LINE
  5
1C6
  8
DATA
  6
CONTINUOUS
 62
     7
 10
-82.370234963937477
 20
131.4758941218783
 30
0.0
 11
-81.754377864428861
 21
131.44775078691089
 31
0.0
  0
LINE
  5
1C7
  8
DATA
  6
CONTINUOUS
 62
     7
 10
-81.247544789384591
 20
131.42458961362061
 30
0.0
 11
-80.576403729746787
 21
131.39391992146801
 31
0.0
  0
ARC
  5
1C8
  8
DATA
  6
CONTINUOUS
 62
     7
 10
-178.0
 20
101.9999999999999
 30
0.0
 40
2.0
 50
180.0
 51
270.0
  0
ARC
  5
1C9
  8
DATA
  6
CONTINUOUS
 62
     7
 10
28.0
 20
101.9999999999999
 30
0.0
 40
2.0
 50
270.0
 51
0.0
  0
LINE
  5
1CA
  8
DATA
  6
CONTINUOUS
 62
     7
 10
27.0
 20
141.99999999999989
 30
0.0
 11
27.0
 21
143.99999999999989
 31
0.0
  0
LINE
  5
1CB
  8
DATA
  6
CONTINUOUS
 62
     7
 10
30.0
 20
141.99999999999989
 30
0.0
 11
27.0
 21
141.99999999999989
 31
0.0
  0
LINE
  5
1CC
  8
DATA
  6
CONTINUOUS
 62
     7
 10
-177.0
 20
141.99999999999989
 30
0.0
 11
-180.0
 21
141.99999999999989
 31
0.0
  0
LINE
  5
1CD
  8
DATA
  6
CONTINUOUS
 62
     7
 10
-177.0
 20
143.99999999999989
 30
0.0
 11
-177.0
 21
141.99999999999989
 31
0.0
  0
ARC
  5
1CE
  8
DATA
  6
CONTINUOUS
 62
     7
 10
28.0
 20
141.99999999999989
 30
0.0
 40
2.0
 50
0.0
 51
90.0
  0
ARC
  5
1CF
  8
DATA
  6
CONTINUOUS
 62
     7
 10
-178.0
 20
141.99999999999989
 30
0.0
 40
2.0
 50
90.0
 51
180.0
  0
ENDSEC
  0
EOF
