  0
SECTION
  2
HEADER
  9
$ACADVER
  1
AC1015
  9
$ACADMAINTVER
 70
     6
  9
$DWGCODEPAGE
  3
ANSI_932
  9
$INSBASE
 10
0.0
 20
0.0
 30
0.0
  9
$EXTMIN
 10
0.0
 20
0.0
 30
0.0
  9
$EXTMAX
 10
594.0
 20
420.0
 30
0.0
  9
$LIMMIN
 10
0.0
 20
0.0
  9
$LIMMAX
 10
594.0
 20
420.0
  9
$ORTHOMODE
 70
     0
  9
$REGENMODE
 70
     1
  9
$FILLMODE
 70
     1
  9
$QTEXTMODE
 70
     0
  9
$MIRRTEXT
 70
     1
  9
$LTSCALE
 40
2.0
  9
$ATTMODE
 70
     1
  9
$TEXTSIZE
 40
2.5
  9
$TRACEWID
 40
1.0
  9
$TEXTSTYLE
  7
Standard
  9
$CLAYER
  8
0
  9
$CELTYPE
  6
ByLayer
  9
$CECOLOR
 62
   256
  9
$CELTSCALE
 40
1.0
  9
$DISPSILH
 70
     0
  9
$DIMSCALE
 40
1.0
  9
$DIMASZ
 40
2.5
  9
$DIMEXO
 40
0.625
  9
$DIMDLI
 40
3.75
  9
$DIMRND
 40
0.0
  9
$DIMDLE
 40
0.0
  9
$DIMEXE
 40
1.25
  9
$DIMTP
 40
0.0
  9
$DIMTM
 40
0.0
  9
$DIMTXT
 40
2.5
  9
$DIMCEN
 40
2.5
  9
$DIMTSZ
 40
0.0
  9
$DIMTOL
 70
     0
  9
$DIMLIM
 70
     0
  9
$DIMTIH
 70
     0
  9
$DIMTOH
 70
     0
  9
$DIMSE1
 70
     0
  9
$DIMSE2
 70
     0
  9
$DIMTAD
 70
     1
  9
$DIMZIN
 70
     8
  9
$DIMBLK
  1

  9
$DIMASO
 70
     1
  9
$DIMSHO
 70
     1
  9
$DIMPOST
  1

  9
$DIMAPOST
  1

  9
$DIMALT
 70
     0
  9
$DIMALTD
 70
     3
  9
$DIMALTF
 40
0.03937007874016
  9
$DIMLFAC
 40
1.0
  9
$DIMTOFL
 70
     1
  9
$DIMTVP
 40
0.0
  9
$DIMTIX
 70
     0
  9
$DIMSOXD
 70
     0
  9
$DIMSAH
 70
     0
  9
$DIMBLK1
  1

  9
$DIMBLK2
  1

  9
$DIMSTYLE
  2
ISO-25
  9
$DIMCLRD
 70
     0
  9
$DIMCLRE
 70
     0
  9
$DIMCLRT
 70
     0
  9
$DIMTFAC
 40
1.0
  9
$DIMGAP
 40
0.625
  9
$DIMJUST
 70
     0
  9
$DIMSD1
 70
     0
  9
$DIMSD2
 70
     0
  9
$DIMTOLJ
 70
     0
  9
$DIMTZIN
 70
     8
  9
$DIMALTZ
 70
     0
  9
$DIMALTTZ
 70
     0
  9
$DIMUPT
 70
     0
  9
$DIMDEC
 70
     2
  9
$DIMTDEC
 70
     2
  9
$DIMALTU
 70
     2
  9
$DIMALTTD
 70
     3
  9
$DIMTXSTY
  7
Standard
  9
$DIMAUNIT
 70
     0
  9
$DIMADEC
 70
     0
  9
$DIMALTRND
 40
0.0
  9
$DIMAZIN
 70
     0
  9
$DIMDSEP
 70
    46
  9
$DIMATFIT
 70
     3
  9
$DIMFRAC
 70
     0
  9
$DIMLDRBLK
  1

  9
$DIMLUNIT
 70
     2
  9
$DIMLWD
 70
    -2
  9
$DIMLWE
 70
    -2
  9
$DIMTMOVE
 70
     0
  9
$LUNITS
 70
     2
  9
$LUPREC
 70
     4
  9
$SKETCHINC
 40
1.0
  9
$FILLETRAD
 40
10.0
  9
$AUNITS
 70
     0
  9
$AUPREC
 70
     0
  9
$MENU
  1
.
  9
$ELEVATION
 40
0.0
  9
$PELEVATION
 40
0.0
  9
$THICKNESS
 40
0.0
  9
$LIMCHECK
 70
     0
  9
$CHAMFERA
 40
10.0
  9
$CHAMFERB
 40
10.0
  9
$CHAMFERC
 40
20.0
  9
$CHAMFERD
 40
0.0
  9
$SKPOLY
 70
     0
  9
$TDCREATE
 40
2457071.000000
  9
$TDUCREATE
 40
0.000000000
  9
$TDUPDATE
 40
2457071.000000
  9
$TDUUPDATE
 40
2457071.000000
  9
$TDINDWG
 40
0.0
  9
$TDUSRTIMER
 40
0.0
  9
$USRTIMER
 70
     1
  9
$ANGBASE
 50
0.0
  9
$ANGDIR
 70
     0
  9
$PDMODE
 70
     0
  9
$PDSIZE
 40
0.0
  9
$PLINEWID
 40
0.0
  9
$SPLFRAME
 70
     0
  9
$SPLINETYPE
 70
     6
  9
$SPLINESEGS
 70
     8
  9
$HANDSEED
  5
0264
  9
$SURFTAB1
 70
     6
  9
$SURFTAB2
 70
     6
  9
$SURFTYPE
 70
     6
  9
$SURFU
 70
     6
  9
$SURFV
 70
     6
  9
$UCSBASE
  2

  9
$UCSNAME
  2

  9
$UCSORG
 10
0.0
 20
0.0
 30
0.0
  9
$UCSXDIR
 10
1.0
 20
0.0
 30
0.0
  9
$UCSYDIR
 10
0.0
 20
1.0
 30
0.0
  9
$UCSORTHOREF
  2

  9
$UCSORTHOVIEW
 70
     0
  9
$UCSORGTOP
 10
0.0
 20
0.0
 30
0.0
  9
$UCSORGBOTTOM
 10
0.0
 20
0.0
 30
0.0
  9
$UCSORGLEFT
 10
0.0
 20
0.0
 30
0.0
  9
$UCSORGRIGHT
 10
0.0
 20
0.0
 30
0.0
  9
$UCSORGFRONT
 10
0.0
 20
0.0
 30
0.0
  9
$UCSORGBACK
 10
0.0
 20
0.0
 30
0.0
  9
$PUCSBASE
  2

  9
$PUCSNAME
  2

  9
$PUCSORG
 10
0.0
 20
0.0
 30
0.0
  9
$PUCSXDIR
 10
1.0
 20
0.0
 30
0.0
  9
$PUCSYDIR
 10
0.0
 20
1.0
 30
0.0
  9
$PUCSORTHOREF
  2

  9
$PUCSORTHOVIEW
 70
     0
  9
$PUCSORGTOP
 10
0.0
 20
0.0
 30
0.0
  9
$PUCSORGBOTTOM
 10
0.0
 20
0.0
 30
0.0
  9
$PUCSORGLEFT
 10
0.0
 20
0.0
 30
0.0
  9
$PUCSORGRIGHT
 10
0.0
 20
0.0
 30
0.0
  9
$PUCSORGFRONT
 10
0.0
 20
0.0
 30
0.0
  9
$PUCSORGBACK
 10
0.0
 20
0.0
 30
0.0
  9
$USERI1
 70
     0
  9
$USERI2
 70
     0
  9
$USERI3
 70
     0
  9
$USERI4
 70
     0
  9
$USERI5
 70
     0
  9
$USERR1
 40
0.0
  9
$USERR2
 40
0.0
  9
$USERR3
 40
0.0
  9
$USERR4
 40
0.0
  9
$USERR5
 40
0.0
  9
$WORLDVIEW
 70
     1
  9
$SHADEDGE
 70
     3
  9
$SHADEDIF
 70
    70
  9
$TILEMODE
 70
     1
  9
$MAXACTVP
 70
    64
  9
$PINSBASE
 10
0.0
 20
0.0
 30
0.0
  9
$PLIMCHECK
 70
     0
  9
$PEXTMIN
 10
1.000000E+20
 20
1.000000E+20
 30
1.000000E+20
  9
$PEXTMAX
 10
-1.000000E+20
 20
-1.000000E+20
 30
-1.000000E+20
  9
$PLIMMIN
 10
0.0
 20
0.0
  9
$PLIMMAX
 10
0.0
 20
0.0
  9
$UNITMODE
 70
     0
  9
$VISRETAIN
 70
     0
  9
$PLINEGEN
 70
     0
  9
$PSLTSCALE
 70
     1
  9
$TREEDEPTH
 70
  3020
  9
$CMLSTYLE
  2
STANDARD
  9
$CMLJUST
 70
     0
  9
$CMLSCALE
 40
20.0
  9
$PROXYGRAPHICS
 70
     1
  9
$MEASUREMENT
 70
     1
  9
$CELWEIGHT
370
    -1
  9
$ENDCAPS
280
     0
  9
$JOINSTYLE
280
     0
  9
$LWDISPLAY
290
     0
  9
$INSUNITS
 70
     4
  9
$HYPERLINKBASE
  1

  9
$STYLESHEET
  1

  9
$XEDIT
290
     1
  9
$CEPSNTYPE
380
     0
  9
$PSTYLEMODE
290
     1
  9
$FINGERPRINTGUID
  2
{4CF12A79-4E77-30D9-11BB-FCF2921888A4}
  9
$VERSIONGUID
  2
{14524229-43B3-9702-696C-2B47DF82C235}
  9
$EXTNAMES
290
     1
  9
$PSVPSCALE
 40
0.0
  0
ENDSEC
  0
SECTION
  2
CLASSES
  0
ENDSEC
  0
SECTION
  2
TABLES
  0
TABLE
  2
VPORT
  5
8
330
0
100
AcDbSymbolTable
 70
     3
  0
VPORT
  5
29
330
8
100
AcDbSymbolTableRecord
100
AcDbViewportTableRecord
  2
*Active
 70
     0
 10
0.0
 20
0.0
 11
1.0
 21
1.0
 12
297.0
 22
210.0
 13
0.0
 23
0.0
 14
10.0
 24
10.0
 15
0.0
 25
0.0
 16
0.0
 26
0.0
 36
1.0
 17
0.0
 27
0.0
 37
0.0
 40
420.0
 41
1.414285714
 42
50.0
 43
0.0
 44
0.0
 50
0.0
 51
0.0
 71
     0
 72
  1000
 73
     1
 74
     3
 75
     0
 76
     0
 77
     0
 78
     0
281
     0
 65
     0
110
0.0
120
0.0
130
0.0
111
1.0
121
0.0
131
0.0
112
0.0
122
1.0
132
0.0
 79
     0
146
0.0
  0
ENDTAB
  0
TABLE
  2
LTYPE
  5
5
330
0
100
AcDbSymbolTable
 70
     6
  0
LTYPE
  5
14
330
5
100
AcDbSymbolTableRecord
100
AcDbLinetypeTableRecord
  2
ByBlock
 70
     0
  3

 72
    65
 73
     0
 40
0.0
  0
LTYPE
  5
15
330
5
100
AcDbSymbolTableRecord
100
AcDbLinetypeTableRecord
  2
ByLayer
 70
     0
  3

 72
    65
 73
     0
 40
0.0
  0
LTYPE
  5
16
330
5
100
AcDbSymbolTableRecord
100
AcDbLinetypeTableRecord
  2
Continuous
 70
     0
  3
Solid line
 72
    65
 73
     0
 40
0.0
  0
LTYPE
  5
DD
330
5
100
AcDbSymbolTableRecord
100
AcDbLinetypeTableRecord
  2
LTYPE1
 70
     0
  3
HIDDEN
 72
    65
 73
     2
 40
2.0
 49
1.2
 74
     0
 49
-0.8
 74
     0
  0
LTYPE
  5
112
330
5
100
AcDbSymbolTableRecord
100
AcDbLinetypeTableRecord
  2
LTYPE2
 70
     0
  3
CENTER
 72
    65
 73
     4
 40
12.0
 49
8.4
 74
     0
 49
-1.2
 74
     0
 49
1.2
 74
     0
 49
-1.2
 74
     0
  0
LTYPE
  5
11C
330
5
100
AcDbSymbolTableRecord
100
AcDbLinetypeTableRecord
  2
LTYPE3
 70
     0
  3
PHANTOM
 72
    65
 73
     6
 40
12.0
 49
9.0
 74
     0
 49
-0.6
 74
     0
 49
0.6
 74
     0
 49
-0.6
 74
     0
 49
0.6
 74
     0
 49
-0.6
 74
     0
  0
ENDTAB
  0
TABLE
  2
LAYER
  5
2
330
0
100
AcDbSymbolTable
 70
   128
  0
LAYER
  5
10
330
2
100
AcDbSymbolTableRecord
100
AcDbLayerTableRecord
  2
0
 70
     0
 62
     7
  6
Continuous
290
     1
370
    -3
390
F
  0
LAYER
  5
2A
330
2
100
AcDbSymbolTableRecord
100
AcDbLayerTableRecord
  2
2
 70
     0
 62
     7
  6
Continuous
290
     1
370
    -3
390
F
  0
LAYER
  5
2B
330
2
100
AcDbSymbolTableRecord
100
AcDbLayerTableRecord
  2
3
 70
     0
 62
     7
  6
Continuous
290
     1
370
    -3
390
F
  0
LAYER
  5
2C
330
2
100
AcDbSymbolTableRecord
100
AcDbLayerTableRecord
  2
4
 70
     0
 62
     7
  6
Continuous
290
     1
370
    -3
390
F
  0
LAYER
  5
2D
330
2
100
AcDbSymbolTableRecord
100
AcDbLayerTableRecord
  2
5
 70
     0
 62
     7
  6
Continuous
290
     1
370
    -3
390
F
  0
LAYER
  5
2E
330
2
100
AcDbSymbolTableRecord
100
AcDbLayerTableRecord
  2
6
 70
     0
 62
     7
  6
Continuous
290
     1
370
    -3
390
F
  0
LAYER
  5
2F
330
2
100
AcDbSymbolTableRecord
100
AcDbLayerTableRecord
  2
7
 70
     0
 62
     7
  6
Continuous
290
     1
370
    -3
390
F
  0
LAYER
  5
30
330
2
100
AcDbSymbolTableRecord
100
AcDbLayerTableRecord
  2
8
 70
     0
 62
     7
  6
Continuous
290
     1
370
    -3
390
F
  0
LAYER
  5
31
330
2
100
AcDbSymbolTableRecord
100
AcDbLayerTableRecord
  2
9
 70
     0
 62
     7
  6
Continuous
290
     1
370
    -3
390
F
  0
LAYER
  5
32
330
2
100
AcDbSymbolTableRecord
100
AcDbLayerTableRecord
  2
10
 70
     0
 62
     7
  6
Continuous
290
     1
370
    -3
390
F
  0
LAYER
  5
33
330
2
100
AcDbSymbolTableRecord
100
AcDbLayerTableRecord
  2
11
 70
     0
 62
     7
  6
Continuous
290
     1
370
    -3
390
F
  0
LAYER
  5
34
330
2
100
AcDbSymbolTableRecord
100
AcDbLayerTableRecord
  2
12
 70
     0
 62
     7
  6
Continuous
290
     1
370
    -3
390
F
  0
LAYER
  5
35
330
2
100
AcDbSymbolTableRecord
100
AcDbLayerTableRecord
  2
13
 70
     0
 62
     7
  6
Continuous
290
     1
370
    -3
390
F
  0
LAYER
  5
36
330
2
100
AcDbSymbolTableRecord
100
AcDbLayerTableRecord
  2
14
 70
     0
 62
     7
  6
Continuous
290
     1
370
    -3
390
F
  0
LAYER
  5
37
330
2
100
AcDbSymbolTableRecord
100
AcDbLayerTableRecord
  2
15
 70
     0
 62
     7
  6
Continuous
290
     1
370
    -3
390
F
  0
LAYER
  5
38
330
2
100
AcDbSymbolTableRecord
100
AcDbLayerTableRecord
  2
16
 70
     0
 62
     7
  6
Continuous
290
     1
370
    -3
390
F
  0
LAYER
  5
39
330
2
100
AcDbSymbolTableRecord
100
AcDbLayerTableRecord
  2
17
 70
     0
 62
     7
  6
Continuous
290
     1
370
    -3
390
F
  0
LAYER
  5
3A
330
2
100
AcDbSymbolTableRecord
100
AcDbLayerTableRecord
  2
18
 70
     0
 62
     7
  6
Continuous
290
     1
370
    -3
390
F
  0
LAYER
  5
3B
330
2
100
AcDbSymbolTableRecord
100
AcDbLayerTableRecord
  2
19
 70
     0
 62
     7
  6
Continuous
290
     1
370
    -3
390
F
  0
LAYER
  5
3C
330
2
100
AcDbSymbolTableRecord
100
AcDbLayerTableRecord
  2
20
 70
     0
 62
     7
  6
Continuous
290
     1
370
    -3
390
F
  0
LAYER
  5
3D
330
2
100
AcDbSymbolTableRecord
100
AcDbLayerTableRecord
  2
21
 70
     0
 62
     7
  6
Continuous
290
     1
370
    -3
390
F
  0
LAYER
  5
3E
330
2
100
AcDbSymbolTableRecord
100
AcDbLayerTableRecord
  2
22
 70
     0
 62
     7
  6
Continuous
290
     1
370
    -3
390
F
  0
LAYER
  5
3F
330
2
100
AcDbSymbolTableRecord
100
AcDbLayerTableRecord
  2
23
 70
     0
 62
     7
  6
Continuous
290
     1
370
    -3
390
F
  0
LAYER
  5
40
330
2
100
AcDbSymbolTableRecord
100
AcDbLayerTableRecord
  2
24
 70
     0
 62
     7
  6
Continuous
290
     1
370
    -3
390
F
  0
LAYER
  5
41
330
2
100
AcDbSymbolTableRecord
100
AcDbLayerTableRecord
  2
25
 70
     0
 62
     7
  6
Continuous
290
     1
370
    -3
390
F
  0
LAYER
  5
42
330
2
100
AcDbSymbolTableRecord
100
AcDbLayerTableRecord
  2
26
 70
     0
 62
     7
  6
Continuous
290
     1
370
    -3
390
F
  0
LAYER
  5
43
330
2
100
AcDbSymbolTableRecord
100
AcDbLayerTableRecord
  2
27
 70
     0
 62
     7
  6
Continuous
290
     1
370
    -3
390
F
  0
LAYER
  5
44
330
2
100
AcDbSymbolTableRecord
100
AcDbLayerTableRecord
  2
28
 70
     0
 62
     7
  6
Continuous
290
     1
370
    -3
390
F
  0
LAYER
  5
45
330
2
100
AcDbSymbolTableRecord
100
AcDbLayerTableRecord
  2
29
 70
     0
 62
     7
  6
Continuous
290
     1
370
    -3
390
F
  0
LAYER
  5
46
330
2
100
AcDbSymbolTableRecord
100
AcDbLayerTableRecord
  2
30
 70
     0
 62
     7
  6
Continuous
290
     1
370
    -3
390
F
  0
LAYER
  5
47
330
2
100
AcDbSymbolTableRecord
100
AcDbLayerTableRecord
  2
31
 70
     0
 62
     7
  6
Continuous
290
     1
370
    -3
390
F
  0
LAYER
  5
48
330
2
100
AcDbSymbolTableRecord
100
AcDbLayerTableRecord
  2
32
 70
     0
 62
     7
  6
Continuous
290
     1
370
    -3
390
F
  0
LAYER
  5
49
330
2
100
AcDbSymbolTableRecord
100
AcDbLayerTableRecord
  2
33
 70
     0
 62
     7
  6
Continuous
290
     1
370
    -3
390
F
  0
LAYER
  5
4A
330
2
100
AcDbSymbolTableRecord
100
AcDbLayerTableRecord
  2
34
 70
     0
 62
     7
  6
Continuous
290
     1
370
    -3
390
F
  0
LAYER
  5
4B
330
2
100
AcDbSymbolTableRecord
100
AcDbLayerTableRecord
  2
35
 70
     0
 62
     7
  6
Continuous
290
     1
370
    -3
390
F
  0
LAYER
  5
4C
330
2
100
AcDbSymbolTableRecord
100
AcDbLayerTableRecord
  2
36
 70
     0
 62
     7
  6
Continuous
290
     1
370
    -3
390
F
  0
LAYER
  5
4D
330
2
100
AcDbSymbolTableRecord
100
AcDbLayerTableRecord
  2
37
 70
     0
 62
     7
  6
Continuous
290
     1
370
    -3
390
F
  0
LAYER
  5
4E
330
2
100
AcDbSymbolTableRecord
100
AcDbLayerTableRecord
  2
38
 70
     0
 62
     7
  6
Continuous
290
     1
370
    -3
390
F
  0
LAYER
  5
4F
330
2
100
AcDbSymbolTableRecord
100
AcDbLayerTableRecord
  2
39
 70
     0
 62
     7
  6
Continuous
290
     1
370
    -3
390
F
  0
LAYER
  5
50
330
2
100
AcDbSymbolTableRecord
100
AcDbLayerTableRecord
  2
40
 70
     0
 62
     7
  6
Continuous
290
     1
370
    -3
390
F
  0
LAYER
  5
51
330
2
100
AcDbSymbolTableRecord
100
AcDbLayerTableRecord
  2
41
 70
     0
 62
     7
  6
Continuous
290
     1
370
    -3
390
F
  0
LAYER
  5
52
330
2
100
AcDbSymbolTableRecord
100
AcDbLayerTableRecord
  2
42
 70
     0
 62
     7
  6
Continuous
290
     1
370
    -3
390
F
  0
LAYER
  5
53
330
2
100
AcDbSymbolTableRecord
100
AcDbLayerTableRecord
  2
43
 70
     0
 62
     7
  6
Continuous
290
     1
370
    -3
390
F
  0
LAYER
  5
54
330
2
100
AcDbSymbolTableRecord
100
AcDbLayerTableRecord
  2
44
 70
     0
 62
     7
  6
Continuous
290
     1
370
    -3
390
F
  0
LAYER
  5
55
330
2
100
AcDbSymbolTableRecord
100
AcDbLayerTableRecord
  2
45
 70
     0
 62
     7
  6
Continuous
290
     1
370
    -3
390
F
  0
LAYER
  5
56
330
2
100
AcDbSymbolTableRecord
100
AcDbLayerTableRecord
  2
46
 70
     0
 62
     7
  6
Continuous
290
     1
370
    -3
390
F
  0
LAYER
  5
57
330
2
100
AcDbSymbolTableRecord
100
AcDbLayerTableRecord
  2
47
 70
     0
 62
     7
  6
Continuous
290
     1
370
    -3
390
F
  0
LAYER
  5
58
330
2
100
AcDbSymbolTableRecord
100
AcDbLayerTableRecord
  2
48
 70
     0
 62
     7
  6
Continuous
290
     1
370
    -3
390
F
  0
LAYER
  5
59
330
2
100
AcDbSymbolTableRecord
100
AcDbLayerTableRecord
  2
49
 70
     0
 62
     7
  6
Continuous
290
     1
370
    -3
390
F
  0
LAYER
  5
5A
330
2
100
AcDbSymbolTableRecord
100
AcDbLayerTableRecord
  2
50
 70
     0
 62
     7
  6
Continuous
290
     1
370
    -3
390
F
  0
LAYER
  5
5B
330
2
100
AcDbSymbolTableRecord
100
AcDbLayerTableRecord
  2
51
 70
     0
 62
     7
  6
Continuous
290
     1
370
    -3
390
F
  0
LAYER
  5
5C
330
2
100
AcDbSymbolTableRecord
100
AcDbLayerTableRecord
  2
52
 70
     0
 62
     7
  6
Continuous
290
     1
370
    -3
390
F
  0
LAYER
  5
5D
330
2
100
AcDbSymbolTableRecord
100
AcDbLayerTableRecord
  2
53
 70
     0
 62
     7
  6
Continuous
290
     1
370
    -3
390
F
  0
LAYER
  5
5E
330
2
100
AcDbSymbolTableRecord
100
AcDbLayerTableRecord
  2
54
 70
     0
 62
     7
  6
Continuous
290
     1
370
    -3
390
F
  0
LAYER
  5
5F
330
2
100
AcDbSymbolTableRecord
100
AcDbLayerTableRecord
  2
55
 70
     0
 62
     7
  6
Continuous
290
     1
370
    -3
390
F
  0
LAYER
  5
60
330
2
100
AcDbSymbolTableRecord
100
AcDbLayerTableRecord
  2
56
 70
     0
 62
     7
  6
Continuous
290
     1
370
    -3
390
F
  0
LAYER
  5
61
330
2
100
AcDbSymbolTableRecord
100
AcDbLayerTableRecord
  2
57
 70
     0
 62
     7
  6
Continuous
290
     1
370
    -3
390
F
  0
LAYER
  5
62
330
2
100
AcDbSymbolTableRecord
100
AcDbLayerTableRecord
  2
58
 70
     0
 62
     7
  6
Continuous
290
     1
370
    -3
390
F
  0
LAYER
  5
63
330
2
100
AcDbSymbolTableRecord
100
AcDbLayerTableRecord
  2
59
 70
     0
 62
     7
  6
Continuous
290
     1
370
    -3
390
F
  0
LAYER
  5
64
330
2
100
AcDbSymbolTableRecord
100
AcDbLayerTableRecord
  2
60
 70
     0
 62
     7
  6
Continuous
290
     1
370
    -3
390
F
  0
LAYER
  5
65
330
2
100
AcDbSymbolTableRecord
100
AcDbLayerTableRecord
  2
61
 70
     0
 62
     7
  6
Continuous
290
     1
370
    -3
390
F
  0
LAYER
  5
66
330
2
100
AcDbSymbolTableRecord
100
AcDbLayerTableRecord
  2
62
 70
     0
 62
     7
  6
Continuous
290
     1
370
    -3
390
F
  0
LAYER
  5
67
330
2
100
AcDbSymbolTableRecord
100
AcDbLayerTableRecord
  2
63
 70
     0
 62
     7
  6
Continuous
290
     1
370
    -3
390
F
  0
LAYER
  5
68
330
2
100
AcDbSymbolTableRecord
100
AcDbLayerTableRecord
  2
64
 70
     0
 62
     7
  6
Continuous
290
     1
370
    -3
390
F
  0
LAYER
  5
69
330
2
100
AcDbSymbolTableRecord
100
AcDbLayerTableRecord
  2
65
 70
     0
 62
     7
  6
Continuous
290
     1
370
    -3
390
F
  0
LAYER
  5
6A
330
2
100
AcDbSymbolTableRecord
100
AcDbLayerTableRecord
  2
66
 70
     0
 62
     7
  6
Continuous
290
     1
370
    -3
390
F
  0
LAYER
  5
6B
330
2
100
AcDbSymbolTableRecord
100
AcDbLayerTableRecord
  2
67
 70
     0
 62
     7
  6
Continuous
290
     1
370
    -3
390
F
  0
LAYER
  5
6C
330
2
100
AcDbSymbolTableRecord
100
AcDbLayerTableRecord
  2
68
 70
     0
 62
     7
  6
Continuous
290
     1
370
    -3
390
F
  0
LAYER
  5
6D
330
2
100
AcDbSymbolTableRecord
100
AcDbLayerTableRecord
  2
69
 70
     0
 62
     7
  6
Continuous
290
     1
370
    -3
390
F
  0
LAYER
  5
6E
330
2
100
AcDbSymbolTableRecord
100
AcDbLayerTableRecord
  2
70
 70
     0
 62
     7
  6
Continuous
290
     1
370
    -3
390
F
  0
LAYER
  5
6F
330
2
100
AcDbSymbolTableRecord
100
AcDbLayerTableRecord
  2
71
 70
     0
 62
     7
  6
Continuous
290
     1
370
    -3
390
F
  0
LAYER
  5
70
330
2
100
AcDbSymbolTableRecord
100
AcDbLayerTableRecord
  2
72
 70
     0
 62
     7
  6
Continuous
290
     1
370
    -3
390
F
  0
LAYER
  5
71
330
2
100
AcDbSymbolTableRecord
100
AcDbLayerTableRecord
  2
73
 70
     0
 62
     7
  6
Continuous
290
     1
370
    -3
390
F
  0
LAYER
  5
72
330
2
100
AcDbSymbolTableRecord
100
AcDbLayerTableRecord
  2
74
 70
     0
 62
     7
  6
Continuous
290
     1
370
    -3
390
F
  0
LAYER
  5
73
330
2
100
AcDbSymbolTableRecord
100
AcDbLayerTableRecord
  2
75
 70
     0
 62
     7
  6
Continuous
290
     1
370
    -3
390
F
  0
LAYER
  5
74
330
2
100
AcDbSymbolTableRecord
100
AcDbLayerTableRecord
  2
76
 70
     0
 62
     7
  6
Continuous
290
     1
370
    -3
390
F
  0
LAYER
  5
75
330
2
100
AcDbSymbolTableRecord
100
AcDbLayerTableRecord
  2
77
 70
     0
 62
     7
  6
Continuous
290
     1
370
    -3
390
F
  0
LAYER
  5
76
330
2
100
AcDbSymbolTableRecord
100
AcDbLayerTableRecord
  2
78
 70
     0
 62
     7
  6
Continuous
290
     1
370
    -3
390
F
  0
LAYER
  5
77
330
2
100
AcDbSymbolTableRecord
100
AcDbLayerTableRecord
  2
79
 70
     0
 62
     7
  6
Continuous
290
     1
370
    -3
390
F
  0
LAYER
  5
78
330
2
100
AcDbSymbolTableRecord
100
AcDbLayerTableRecord
  2
80
 70
     0
 62
     7
  6
Continuous
290
     1
370
    -3
390
F
  0
LAYER
  5
79
330
2
100
AcDbSymbolTableRecord
100
AcDbLayerTableRecord
  2
81
 70
     0
 62
     7
  6
Continuous
290
     1
370
    -3
390
F
  0
LAYER
  5
7A
330
2
100
AcDbSymbolTableRecord
100
AcDbLayerTableRecord
  2
82
 70
     0
 62
     7
  6
Continuous
290
     1
370
    -3
390
F
  0
LAYER
  5
7B
330
2
100
AcDbSymbolTableRecord
100
AcDbLayerTableRecord
  2
83
 70
     0
 62
     7
  6
Continuous
290
     1
370
    -3
390
F
  0
LAYER
  5
7C
330
2
100
AcDbSymbolTableRecord
100
AcDbLayerTableRecord
  2
84
 70
     0
 62
     7
  6
Continuous
290
     1
370
    -3
390
F
  0
LAYER
  5
7D
330
2
100
AcDbSymbolTableRecord
100
AcDbLayerTableRecord
  2
85
 70
     0
 62
     7
  6
Continuous
290
     1
370
    -3
390
F
  0
LAYER
  5
7E
330
2
100
AcDbSymbolTableRecord
100
AcDbLayerTableRecord
  2
86
 70
     0
 62
     7
  6
Continuous
290
     1
370
    -3
390
F
  0
LAYER
  5
7F
330
2
100
AcDbSymbolTableRecord
100
AcDbLayerTableRecord
  2
87
 70
     0
 62
     7
  6
Continuous
290
     1
370
    -3
390
F
  0
LAYER
  5
80
330
2
100
AcDbSymbolTableRecord
100
AcDbLayerTableRecord
  2
88
 70
     0
 62
     7
  6
Continuous
290
     1
370
    -3
390
F
  0
LAYER
  5
81
330
2
100
AcDbSymbolTableRecord
100
AcDbLayerTableRecord
  2
89
 70
     0
 62
     7
  6
Continuous
290
     1
370
    -3
390
F
  0
LAYER
  5
82
330
2
100
AcDbSymbolTableRecord
100
AcDbLayerTableRecord
  2
90
 70
     0
 62
     7
  6
Continuous
290
     1
370
    -3
390
F
  0
LAYER
  5
83
330
2
100
AcDbSymbolTableRecord
100
AcDbLayerTableRecord
  2
91
 70
     0
 62
     7
  6
Continuous
290
     1
370
    -3
390
F
  0
LAYER
  5
84
330
2
100
AcDbSymbolTableRecord
100
AcDbLayerTableRecord
  2
92
 70
     0
 62
     7
  6
Continuous
290
     1
370
    -3
390
F
  0
LAYER
  5
85
330
2
100
AcDbSymbolTableRecord
100
AcDbLayerTableRecord
  2
93
 70
     0
 62
     7
  6
Continuous
290
     1
370
    -3
390
F
  0
LAYER
  5
86
330
2
100
AcDbSymbolTableRecord
100
AcDbLayerTableRecord
  2
94
 70
     0
 62
     7
  6
Continuous
290
     1
370
    -3
390
F
  0
LAYER
  5
87
330
2
100
AcDbSymbolTableRecord
100
AcDbLayerTableRecord
  2
95
 70
     0
 62
     7
  6
Continuous
290
     1
370
    -3
390
F
  0
LAYER
  5
88
330
2
100
AcDbSymbolTableRecord
100
AcDbLayerTableRecord
  2
96
 70
     0
 62
     7
  6
Continuous
290
     1
370
    -3
390
F
  0
LAYER
  5
89
330
2
100
AcDbSymbolTableRecord
100
AcDbLayerTableRecord
  2
97
 70
     0
 62
     7
  6
Continuous
290
     1
370
    -3
390
F
  0
LAYER
  5
8A
330
2
100
AcDbSymbolTableRecord
100
AcDbLayerTableRecord
  2
98
 70
     0
 62
     7
  6
Continuous
290
     1
370
    -3
390
F
  0
LAYER
  5
8B
330
2
100
AcDbSymbolTableRecord
100
AcDbLayerTableRecord
  2
99
 70
     0
 62
     7
  6
Continuous
290
     1
370
    -3
390
F
  0
LAYER
  5
8C
330
2
100
AcDbSymbolTableRecord
100
AcDbLayerTableRecord
  2
100
 70
     0
 62
     7
  6
Continuous
290
     1
370
    -3
390
F
  0
LAYER
  5
8D
330
2
100
AcDbSymbolTableRecord
100
AcDbLayerTableRecord
  2
101
 70
     0
 62
     7
  6
Continuous
290
     1
370
    -3
390
F
  0
LAYER
  5
8E
330
2
100
AcDbSymbolTableRecord
100
AcDbLayerTableRecord
  2
102
 70
     0
 62
     7
  6
Continuous
290
     1
370
    -3
390
F
  0
LAYER
  5
8F
330
2
100
AcDbSymbolTableRecord
100
AcDbLayerTableRecord
  2
103
 70
     0
 62
     7
  6
Continuous
290
     1
370
    -3
390
F
  0
LAYER
  5
90
330
2
100
AcDbSymbolTableRecord
100
AcDbLayerTableRecord
  2
104
 70
     0
 62
     7
  6
Continuous
290
     1
370
    -3
390
F
  0
LAYER
  5
91
330
2
100
AcDbSymbolTableRecord
100
AcDbLayerTableRecord
  2
105
 70
     0
 62
     7
  6
Continuous
290
     1
370
    -3
390
F
  0
LAYER
  5
92
330
2
100
AcDbSymbolTableRecord
100
AcDbLayerTableRecord
  2
106
 70
     0
 62
     7
  6
Continuous
290
     1
370
    -3
390
F
  0
LAYER
  5
93
330
2
100
AcDbSymbolTableRecord
100
AcDbLayerTableRecord
  2
107
 70
     0
 62
     7
  6
Continuous
290
     1
370
    -3
390
F
  0
LAYER
  5
94
330
2
100
AcDbSymbolTableRecord
100
AcDbLayerTableRecord
  2
108
 70
     0
 62
     7
  6
Continuous
290
     1
370
    -3
390
F
  0
LAYER
  5
95
330
2
100
AcDbSymbolTableRecord
100
AcDbLayerTableRecord
  2
109
 70
     0
 62
     7
  6
Continuous
290
     1
370
    -3
390
F
  0
LAYER
  5
96
330
2
100
AcDbSymbolTableRecord
100
AcDbLayerTableRecord
  2
110
 70
     0
 62
     7
  6
Continuous
290
     1
370
    -3
390
F
  0
LAYER
  5
97
330
2
100
AcDbSymbolTableRecord
100
AcDbLayerTableRecord
  2
111
 70
     0
 62
     7
  6
Continuous
290
     1
370
    -3
390
F
  0
LAYER
  5
98
330
2
100
AcDbSymbolTableRecord
100
AcDbLayerTableRecord
  2
112
 70
     0
 62
     7
  6
Continuous
290
     1
370
    -3
390
F
  0
LAYER
  5
99
330
2
100
AcDbSymbolTableRecord
100
AcDbLayerTableRecord
  2
113
 70
     0
 62
     7
  6
Continuous
290
     1
370
    -3
390
F
  0
LAYER
  5
9A
330
2
100
AcDbSymbolTableRecord
100
AcDbLayerTableRecord
  2
114
 70
     0
 62
     7
  6
Continuous
290
     1
370
    -3
390
F
  0
LAYER
  5
9B
330
2
100
AcDbSymbolTableRecord
100
AcDbLayerTableRecord
  2
115
 70
     0
 62
     7
  6
Continuous
290
     1
370
    -3
390
F
  0
LAYER
  5
9C
330
2
100
AcDbSymbolTableRecord
100
AcDbLayerTableRecord
  2
116
 70
     0
 62
     7
  6
Continuous
290
     1
370
    -3
390
F
  0
LAYER
  5
9D
330
2
100
AcDbSymbolTableRecord
100
AcDbLayerTableRecord
  2
117
 70
     0
 62
     7
  6
Continuous
290
     1
370
    -3
390
F
  0
LAYER
  5
9E
330
2
100
AcDbSymbolTableRecord
100
AcDbLayerTableRecord
  2
118
 70
     0
 62
     7
  6
Continuous
290
     1
370
    -3
390
F
  0
LAYER
  5
9F
330
2
100
AcDbSymbolTableRecord
100
AcDbLayerTableRecord
  2
119
 70
     0
 62
     7
  6
Continuous
290
     1
370
    -3
390
F
  0
LAYER
  5
A0
330
2
100
AcDbSymbolTableRecord
100
AcDbLayerTableRecord
  2
120
 70
     0
 62
     7
  6
Continuous
290
     1
370
    -3
390
F
  0
LAYER
  5
A1
330
2
100
AcDbSymbolTableRecord
100
AcDbLayerTableRecord
  2
121
 70
     0
 62
     7
  6
Continuous
290
     1
370
    -3
390
F
  0
LAYER
  5
A2
330
2
100
AcDbSymbolTableRecord
100
AcDbLayerTableRecord
  2
122
 70
     0
 62
     7
  6
Continuous
290
     1
370
    -3
390
F
  0
LAYER
  5
A3
330
2
100
AcDbSymbolTableRecord
100
AcDbLayerTableRecord
  2
123
 70
     0
 62
     7
  6
Continuous
290
     1
370
    -3
390
F
  0
LAYER
  5
A4
330
2
100
AcDbSymbolTableRecord
100
AcDbLayerTableRecord
  2
124
 70
     0
 62
     7
  6
Continuous
290
     1
370
    -3
390
F
  0
LAYER
  5
A5
330
2
100
AcDbSymbolTableRecord
100
AcDbLayerTableRecord
  2
125
 70
     0
 62
     7
  6
Continuous
290
     1
370
    -3
390
F
  0
LAYER
  5
A6
330
2
100
AcDbSymbolTableRecord
100
AcDbLayerTableRecord
  2
126
 70
     0
 62
     7
  6
Continuous
290
     1
370
    -3
390
F
  0
LAYER
  5
A7
330
2
100
AcDbSymbolTableRecord
100
AcDbLayerTableRecord
  2
127
 70
     0
 62
     7
  6
Continuous
290
     1
370
    -3
390
F
  0
LAYER
  5
A8
330
2
100
AcDbSymbolTableRecord
100
AcDbLayerTableRecord
  2
128
 70
     0
 62
     7
  6
Continuous
290
     1
370
    -3
390
F
  0
ENDTAB
  0
TABLE
  2
STYLE
  5
3
330
0
100
AcDbSymbolTable
 70
    12
  0
STYLE
  5
11
330
3
100
AcDbSymbolTableRecord
100
AcDbTextStyleTableRecord
  2
Standard
 70
     0
 40
0.0
 41
1.0
 50
0.0
 71
     0
 42
2.5
  3
txt.shx
  4
extfont.shx
  0
STYLE
  5
AB
330
3
100
AcDbSymbolTableRecord
100
AcDbTextStyleTableRecord
  2
KANJI0
 70
     4
 40
5.0
 41
1.0
 50
0.0
 71
     0
 42
5.0
  3
txt.shx
  4
extfont.shx
  0
STYLE
  5
B1
330
3
100
AcDbSymbolTableRecord
100
AcDbTextStyleTableRecord
  2
KANJI1
 70
     4
 40
5.0
 41
1.0
 50
0.0
 71
     0
 42
5.0
  3
txt.shx
  4
extfont.shx
  0
STYLE
  5
BD
330
3
100
AcDbSymbolTableRecord
100
AcDbTextStyleTableRecord
  2
KANJI2
 70
     4
 40
3.333333333
 41
1.5
 50
0.0
 71
     0
 42
3.333333333
  3
txt.shx
  4
extfont.shx
  0
STYLE
  5
BF
330
3
100
AcDbSymbolTableRecord
100
AcDbTextStyleTableRecord
  2
KANJI3
 70
     0
 40
6.0
 41
0.9
 50
0.0
 71
     0
 42
6.0
  3
txt.shx
  4
extfont.shx
  0
STYLE
  5
C8
330
3
100
AcDbSymbolTableRecord
100
AcDbTextStyleTableRecord
  2
KANJI4
 70
     0
 40
6.0
 41
1.0
 50
0.0
 71
     0
 42
6.0
  3
txt.shx
  4
extfont.shx
  0
STYLE
  5
CD
330
3
100
AcDbSymbolTableRecord
100
AcDbTextStyleTableRecord
  2
KANJI5
 70
     0
 40
6.0
 41
0.45
 50
0.0
 71
     0
 42
6.0
  3
txt.shx
  4
extfont.shx
  0
STYLE
  5
132
330
3
100
AcDbSymbolTableRecord
100
AcDbTextStyleTableRecord
  2
KANJI6
 70
     0
 40
6.0
 41
0.6
 50
0.0
 71
     0
 42
6.0
  3
txt.shx
  4
extfont.shx
  0
STYLE
  5
181
330
3
100
AcDbSymbolTableRecord
100
AcDbTextStyleTableRecord
  2
KANJI7
 70
     0
 40
6.0
 41
0.6
 50
0.0
 71
     0
 42
6.0
  3
txt.shx
  4
extfont.shx
  0
STYLE
  5
241
330
3
100
AcDbSymbolTableRecord
100
AcDbTextStyleTableRecord
  2
KANJI8
 70
     0
 40
6.0
 41
0.666666667
 50
0.0
 71
     0
 42
6.0
  3
txt.shx
  4
extfont.shx
  0
STYLE
  5
245
330
3
100
AcDbSymbolTableRecord
100
AcDbTextStyleTableRecord
  2
KANJI9
 70
     0
 40
8.0
 41
0.925
 50
0.0
 71
     0
 42
8.0
  3
txt.shx
  4
extfont.shx
  0
STYLE
  5
24C
330
3
100
AcDbSymbolTableRecord
100
AcDbTextStyleTableRecord
  2
KANJI10
 70
     0
 40
8.0
 41
0.4625
 50
0.0
 71
     0
 42
8.0
  3
txt.shx
  4
extfont.shx
  0
ENDTAB
  0
TABLE
  2
VIEW
  5
6
330
0
100
AcDbSymbolTable
 70
     0
  0
ENDTAB
  0
TABLE
  2
UCS
  5
7
330
0
100
AcDbSymbolTable
 70
     0
  0
ENDTAB
  0
TABLE
  2
APPID
  5
9
330
0
100
AcDbSymbolTable
 70
     1
  0
APPID
  5
12
330
9
100
AcDbSymbolTableRecord
100
AcDbRegAppTableRecord
  2
ACAD
 70
     0
  0
ENDTAB
  0
TABLE
  2
DIMSTYLE
  5
A
330
0
100
AcDbSymbolTable
 70
     1
100
AcDbDimStyleTable
 71
     0
  0
DIMSTYLE
105
27
330
A
100
AcDbSymbolTableRecord
100
AcDbDimStyleTableRecord
  2
ISO-25
 70
    64
  3

  4

 40
1.0
 41
2.5
 42
0.625
 43
3.75
 44
1.25
 45
0.0
 46
0.0
 47
0.0
 48
0.0
 71
     0
 72
     0
 73
     0
 74
     0
 75
     0
 76
     0
 77
     1
 78
     8
 79
     0
140
2.5
141
2.5
142
0.0
143
0.039370079
144
1.0
145
0.0
146
1.0
147
0.625
148
0.0
170
     0
171
     3
172
     1
173
     0
174
     0
175
     0
176
     0
177
     0
178
     0
179
     0
270
     2
271
     2
272
     2
273
     2
274
     3
275
     0
276
     0
277
     2
278
    46
279
     0
280
     0
281
     0
282
     0
283
     1
284
     8
285
     0
286
     0
288
     0
289
     3
340
11
341
0
342
0
343
0
344
0
371
    -2
372
    -2
  0
ENDTAB
  0
TABLE
  2
BLOCK_RECORD
  5
1
330
0
100
AcDbSymbolTable
 70
     3
  0
BLOCK_RECORD
  5
1F
330
1
100
AcDbSymbolTableRecord
100
AcDbBlockTableRecord
  2
*Model_Space
340
22
  0
BLOCK_RECORD
  5
1B
330
1
100
AcDbSymbolTableRecord
100
AcDbBlockTableRecord
  2
*Paper_Space
340
1E
  0
BLOCK_RECORD
  5
23
330
1
100
AcDbSymbolTableRecord
100
AcDbBlockTableRecord
  2
*Paper_Space0
340
26
  0
ENDTAB
  0
ENDSEC
  0
SECTION
  2
BLOCKS
  0
BLOCK
  5
1C
330
1B
100
AcDbEntity
 67
     1
  8
0
100
AcDbBlockBegin
  2
*Paper_Space
 70
     0
 10
0.0
 20
0.0
 30
0.0
  3
*Paper_Space
  1

  0
ENDBLK
  5
1D
330
1B
100
AcDbEntity
  8
0
100
AcDbBlockEnd
  0
BLOCK
  5
20
330
1F
100
AcDbEntity
  8
0
100
AcDbBlockBegin
  2
*Model_Space
 70
     0
 10
0.0
 20
0.0
 30
0.0
  3
*Model_Space
  1

  0
ENDBLK
  5
21
330
1F
100
AcDbEntity
  8
0
100
AcDbBlockEnd
  0
BLOCK
  5
24
330
23
100
AcDbEntity
 67
     1
  8
0
100
AcDbBlockBegin
  2
*Paper_Space0
 70
     0
 10
0.0
 20
0.0
 30
0.0
  3
*Paper_Space0
  1

  0
ENDBLK
  5
25
330
23
100
AcDbEntity
  8
0
100
AcDbBlockEnd
  0
ENDSEC
  0
SECTION
  2
ENTITIES
  0
LINE
  5
A9
330
1F
100
AcDbEntity
  8
0
  6
Continuous
 62
     2
100
AcDbLine
 10
581.5
 20
24.5
 30
0.0
 11
211.5
 21
24.5
 31
0.0
  0
MTEXT
  5
AA
330
1F
100
AcDbEntity
  8
0
  6
Continuous
 62
     2
100
AcDbMText
 10
472.5
 20
47.5
 30
0.0
 40
5.0
 41
20.0
 71
     1
 72
     3
  1
\W1.000;仕上
  7
KANJI0
 73
     1
 44
1.0
  0
LINE
  5
AC
330
1F
100
AcDbEntity
  8
0
  6
Continuous
 62
     2
100
AcDbLine
 10
471.5
 20
60.5
 30
0.0
 11
581.5
 21
60.5
 31
0.0
  0
LINE
  5
AD
330
1F
100
AcDbEntity
  8
0
  6
Continuous
 62
     2
100
AcDbLine
 10
471.5
 20
48.5
 30
0.0
 11
581.5
 21
48.5
 31
0.0
  0
MTEXT
  5
AE
330
1F
100
AcDbEntity
  8
0
  6
Continuous
 62
     2
100
AcDbMText
 10
472.5
 20
59.5
 30
0.0
 40
5.0
 41
20.0
 71
     1
 72
     3
  1
\W1.000;規格
  7
KANJI0
 73
     1
 44
1.0
  0
MTEXT
  5
AF
330
1F
100
AcDbEntity
  8
0
  6
Continuous
 62
     2
100
AcDbMText
 10
472.5
 20
71.5
 30
0.0
 40
5.0
 41
20.0
 71
     1
 72
     3
  1
\W1.000;材質
  7
KANJI0
 73
     1
 44
1.0
  0
MTEXT
  5
B0
330
1F
100
AcDbEntity
  8
0
  6
Continuous
 62
     2
100
AcDbMText
 10
472.5
 20
83.5
 30
0.0
 40
5.0
 41
20.0
 71
     1
 72
     3
  1
\W1.000;品番
  7
KANJI1
 73
     1
 44
1.0
  0
MTEXT
  5
B2
330
1F
100
AcDbEntity
  8
0
  6
Continuous
 62
     2
100
AcDbMText
 10
472.5
 20
95.5
 30
0.0
 40
5.0
 41
20.0
 71
     1
 72
     3
  1
\W1.000;図名
  7
KANJI0
 73
     1
 44
1.0
  0
LINE
  5
B3
330
1F
100
AcDbEntity
  8
0
  6
Continuous
 62
     2
100
AcDbLine
 10
471.5
 20
72.5
 30
0.0
 11
581.5
 21
72.5
 31
0.0
  0
LINE
  5
B4
330
1F
100
AcDbEntity
  8
0
  6
Continuous
 62
     2
100
AcDbLine
 10
471.5
 20
84.5
 30
0.0
 11
581.5
 21
84.5
 31
0.0
  0
LINE
  5
B5
330
1F
100
AcDbEntity
  8
0
  6
Continuous
 62
     2
100
AcDbLine
 10
471.5
 20
96.5
 30
0.0
 11
581.5
 21
96.5
 31
0.0
  0
LINE
  5
B6
330
1F
100
AcDbEntity
  8
0
  6
Continuous
 62
     2
100
AcDbLine
 10
427.5
 20
24.5
 30
0.0
 11
427.5
 21
12.5
 31
0.0
  0
MTEXT
  5
B7
330
1F
100
AcDbEntity
  8
0
  6
Continuous
 62
     2
100
AcDbMText
 10
428.5
 20
23.5
 30
0.0
 40
5.0
 41
20.0
 71
     1
 72
     3
  1
\W1.000;日付
  7
KANJI0
 73
     1
 44
1.0
  0
LINE
  5
B8
330
1F
100
AcDbEntity
  8
0
  6
Continuous
 62
     2
100
AcDbLine
 10
471.5
 20
12.5
 30
0.0
 11
471.5
 21
96.5
 31
0.0
  0
MTEXT
  5
B9
330
1F
100
AcDbEntity
  8
0
  6
Continuous
 62
     2
100
AcDbMText
 10
428.5
 20
35.5
 30
0.0
 40
5.0
 41
20.0
 71
     1
 72
     3
  1
\W1.000;尺度
  7
KANJI0
 73
     1
 44
1.0
  0
LINE
  5
BA
330
1F
100
AcDbEntity
  8
0
  6
Continuous
 62
     2
100
AcDbLine
 10
427.5
 20
36.5
 30
0.0
 11
581.5
 21
36.5
 31
0.0
  0
MTEXT
  5
BB
330
1F
100
AcDbEntity
  8
0
  6
Continuous
 62
     2
100
AcDbMText
 10
472.5
 20
23.5
 30
0.0
 40
5.0
 41
20.0
 71
     1
 72
     3
  1
\W1.000;品名
  7
KANJI0
 73
     1
 44
1.0
  0
MTEXT
  5
BC
330
1F
100
AcDbEntity
  8
0
  6
Continuous
 62
     2
100
AcDbMText
 10
472.5
 20
35.5
 30
0.0
 40
3.333333333
 41
20.0
 71
     1
 72
     3
  1
\W1.500;その他
  7
KANJI2
 73
     1
 44
1.0
  0
MTEXT
  5
BE
330
1F
100
AcDbEntity
  8
0
  6
Continuous
 62
     2
100
AcDbMText
 10
483.5
 20
62.9
 30
0.0
 40
6.0
 41
34.8
 71
     7
 72
     1
  1
\T1.111;\W0.900;－－－
  7
KANJI3
 73
     1
 44
1.0
  0
MTEXT
  5
C0
330
1F
100
AcDbEntity
  8
0
  6
Continuous
 62
     2
100
AcDbMText
 10
483.5
 20
50.9
 30
0.0
 40
6.0
 41
34.8
 71
     7
 72
     1
  1
\T1.111;\W0.900;－－－
  7
KANJI3
 73
     1
 44
1.0
  0
MTEXT
  5
C1
330
1F
100
AcDbEntity
  8
0
  6
Continuous
 62
     2
100
AcDbMText
 10
483.5
 20
38.9
 30
0.0
 40
6.0
 41
34.8
 71
     7
 72
     1
  1
\T1.111;\W0.900;－－－
  7
KANJI3
 73
     1
 44
1.0
  0
MTEXT
  5
C2
330
1F
100
AcDbEntity
  8
0
  6
Continuous
 62
     2
100
AcDbMText
 10
483.5
 20
26.9
 30
0.0
 40
6.0
 41
34.8
 71
     7
 72
     1
  1
\T1.111;\W0.900;－－－
  7
KANJI3
 73
     1
 44
1.0
  0
POINT
  5
C3
330
1F
100
AcDbEntity
  8
0
  6
Continuous
 62
     2
100
AcDbPoint
 10
581.5
 20
96.5
 30
0.0
  0
LINE
  5
C4
330
1F
100
AcDbEntity
  8
0
  6
Continuous
 62
     2
100
AcDbLine
 10
427.5
 20
48.5
 30
0.0
 11
471.5
 21
48.5
 31
0.0
  0
LINE
  5
C5
330
1F
100
AcDbEntity
  8
0
  6
Continuous
 62
     2
100
AcDbLine
 10
427.5
 20
48.5
 30
0.0
 11
427.5
 21
24.5
 31
0.0
  0
MTEXT
  5
C6
330
1F
100
AcDbEntity
  8
0
  6
Continuous
 62
     2
100
AcDbMText
 10
428.5
 20
47.5
 30
0.0
 40
5.0
 41
20.0
 71
     1
 72
     3
  1
\W1.000;用紙
  7
KANJI0
 73
     1
 44
1.0
  0
MTEXT
  5
C7
330
1F
100
AcDbEntity
  8
0
  6
Continuous
 62
     2
100
AcDbMText
 10
213.5
 20
15.5
 30
0.0
 40
6.0
 41
160.0
 71
     7
 72
     1
  1
\T1.370;\W1.000;オオハシ産業株式会社
  7
KANJI4
 73
     1
 44
1.0
  0
LINE
  5
C9
330
1F
100
AcDbEntity
  8
0
  6
Continuous
 62
     2
100
AcDbLine
 10
297.5
 20
24.5
 30
0.0
 11
297.5
 21
12.5
 31
0.0
  0
MTEXT
  5
CA
330
1F
100
AcDbEntity
  8
0
  6
Continuous
 62
     2
100
AcDbMText
 10
298.5
 20
23.5
 30
0.0
 40
5.0
 41
20.0
 71
     1
 72
     3
  1
\W1.000;作図
  7
KANJI0
 73
     1
 44
1.0
  0
LINE
  5
CB
330
1F
100
AcDbEntity
  8
0
  6
Continuous
 62
     2
100
AcDbLine
 10
337.5
 20
12.5
 30
0.0
 11
337.5
 21
24.5
 31
0.0
  0
MTEXT
  5
CC
330
1F
100
AcDbEntity
  8
0
  6
Continuous
 62
     2
100
AcDbMText
 10
339.5
 20
15.5
 30
0.0
 40
6.0
 41
18.6
 71
     7
 72
     1
  1
\T1.111;\W0.900;ＦＤ＝
  7
KANJI5
 73
     1
 44
1.0
  0
LINE
  5
CE
330
1F
100
AcDbEntity
  8
0
  6
Continuous
 62
     2
100
AcDbLine
 10
377.5
 20
12.5
 30
0.0
 11
377.5
 21
24.5
 31
0.0
  0
MTEXT
  5
CF
330
1F
100
AcDbEntity
  8
0
  6
Continuous
 62
     2
100
AcDbMText
 10
379.5
 20
15.5
 30
0.0
 40
6.0
 41
18.6
 71
     7
 72
     1
  1
\T1.111;\W0.900;ＮＯ＝
  7
KANJI5
 73
     1
 44
1.0
  0
LINE
  5
D0
330
1F
100
AcDbEntity
  8
0
  6
Continuous
 62
     2
100
AcDbLine
 10
211.5
 20
12.5
 30
0.0
 11
211.5
 21
24.5
 31
0.0
  0
MTEXT
  5
D1
330
1F
100
AcDbEntity
  8
0
  6
Continuous
 62
     2
100
AcDbMText
 10
241.5
 20
29.5
 30
0.0
 40
6.0
 41
274.8
 71
     7
 72
     1
  1
\T1.111;\W0.900;特記　　寸法指示無い公差は±０．５以内とする．
  7
KANJI3
 73
     1
 44
1.0
  0
MTEXT
  5
D2
330
1F
100
AcDbEntity
  8
0
  6
Continuous
 62
     2
100
AcDbMText
 10
305.5
 20
14.9
 30
0.0
 40
6.0
 41
58.8
 71
     7
 72
     1
  1
\T1.111;\W0.900;大橋　一之
  7
KANJI3
 73
     1
 44
1.0
  0
MTEXT
  5
D3
330
1F
100
AcDbEntity
  8
0
  6
Continuous
 62
     2
100
AcDbMText
 10
435.5
 20
14.9
 30
0.0
 40
6.0
 41
64.8
 71
     7
 72
     1
  1
\T1.111;\W0.900;２０１５／０２／１７
  7
KANJI5
 73
     1
 44
1.0
  0
MTEXT
  5
D4
330
1F
100
AcDbEntity
  8
0
  6
Continuous
 62
     2
100
AcDbMText
 10
352.7
 20
14.9
 30
0.0
 40
6.0
 41
34.8
 71
     7
 72
     1
  1
\T1.111;\W0.900;ヒビノ
  7
KANJI3
 73
     1
 44
1.0
  0
MTEXT
  5
D5
330
1F
100
AcDbEntity
  8
0
  6
Continuous
 62
     2
100
AcDbMText
 10
443.5
 20
38.9
 30
0.0
 40
6.0
 41
22.8
 71
     7
 72
     1
  1
\T1.111;\W0.900;Ａ４
  7
KANJI3
 73
     1
 44
1.0
  0
LINE
  5
D6
330
1F
100
AcDbEntity
  8
0
  6
Continuous
 62
     2
100
AcDbLine
 10
12.5
 20
407.5
 30
0.0
 11
581.5
 21
407.5
 31
0.0
  0
LINE
  5
D7
330
1F
100
AcDbEntity
  8
0
  6
Continuous
 62
     2
100
AcDbLine
 10
581.5
 20
12.5
 30
0.0
 11
581.5
 21
407.5
 31
0.0
  0
LINE
  5
D8
330
1F
100
AcDbEntity
  8
0
  6
Continuous
 62
     2
100
AcDbLine
 10
12.5
 20
12.5
 30
0.0
 11
12.5
 21
407.5
 31
0.0
  0
LINE
  5
D9
330
1F
100
AcDbEntity
  8
0
  6
Continuous
 62
     2
100
AcDbLine
 10
12.5
 20
12.5
 30
0.0
 11
581.5
 21
12.5
 31
0.0
  0
LINE
  5
DA
330
1F
100
AcDbEntity
  8
4
  6
Continuous
 62
     1
100
AcDbLine
 10
217.01
 20
278.01572425
 30
0.0
 11
217.01
 21
73.81572425
 31
0.0
  0
ARC
  5
DB
330
1F
100
AcDbEntity
  8
4
  6
Continuous
 62
     1
100
AcDbCircle
 10
214.41
 20
278.01572425
 30
0.0
 40
2.6
100
AcDbArc
 50
0.0
 51
90.0
  0
ARC
  5
DC
330
1F
100
AcDbEntity
  8
4
  6
Continuous
 62
     1
100
AcDbCircle
 10
214.41
 20
278.01572425
 30
0.0
 40
5.8
100
AcDbArc
 50
0.0
 51
90.0
  0
LINE
  5
DE
330
1F
100
AcDbEntity
  8
4
  6
LTYPE1
 62
     2
100
AcDbLine
 10
217.56
 20
84.81572425
 30
0.0
 11
219.66
 21
86.91572425
 31
0.0
  0
LINE
  5
DF
330
1F
100
AcDbEntity
  8
4
  6
LTYPE1
 62
     2
100
AcDbLine
 10
217.56
 20
80.61572425
 30
0.0
 11
219.66
 21
78.51572425
 31
0.0
  0
LINE
  5
E0
330
1F
100
AcDbEntity
  8
4
  6
LTYPE1
 62
     2
100
AcDbLine
 10
217.56
 20
84.81572425
 30
0.0
 11
217.56
 21
80.61572425
 31
0.0
  0
LINE
  5
E1
330
1F
100
AcDbEntity
  8
4
  6
LTYPE1
 62
     2
100
AcDbLine
 10
219.66
 20
86.91572425
 30
0.0
 11
219.66
 21
78.51572425
 31
0.0
  0
LINE
  5
E2
330
1F
100
AcDbEntity
  8
4
  6
LTYPE1
 62
     2
100
AcDbLine
 10
217.01
 20
84.81572425
 30
0.0
 11
217.56
 21
84.81572425
 31
0.0
  0
LINE
  5
E3
330
1F
100
AcDbEntity
  8
4
  6
LTYPE1
 62
     2
100
AcDbLine
 10
217.01
 20
80.61572425
 30
0.0
 11
217.56
 21
80.61572425
 31
0.0
  0
LINE
  5
E4
330
1F
100
AcDbEntity
  8
4
  6
LTYPE1
 62
     2
100
AcDbLine
 10
219.66
 20
78.51572425
 30
0.0
 11
220.21
 21
78.51572425
 31
0.0
  0
LINE
  5
E5
330
1F
100
AcDbEntity
  8
4
  6
LTYPE1
 62
     2
100
AcDbLine
 10
219.66
 20
86.91572425
 30
0.0
 11
220.21
 21
86.91572425
 31
0.0
  0
LINE
  5
E6
330
1F
100
AcDbEntity
  8
4
  6
LTYPE1
 62
     2
100
AcDbLine
 10
217.56
 20
141.81572425
 30
0.0
 11
219.66
 21
143.91572425
 31
0.0
  0
LINE
  5
E7
330
1F
100
AcDbEntity
  8
4
  6
LTYPE1
 62
     2
100
AcDbLine
 10
217.56
 20
137.61572425
 30
0.0
 11
219.66
 21
135.51572425
 31
0.0
  0
LINE
  5
E8
330
1F
100
AcDbEntity
  8
4
  6
LTYPE1
 62
     2
100
AcDbLine
 10
217.56
 20
141.81572425
 30
0.0
 11
217.56
 21
137.61572425
 31
0.0
  0
LINE
  5
E9
330
1F
100
AcDbEntity
  8
4
  6
LTYPE1
 62
     2
100
AcDbLine
 10
219.66
 20
143.91572425
 30
0.0
 11
219.66
 21
135.51572425
 31
0.0
  0
LINE
  5
EA
330
1F
100
AcDbEntity
  8
4
  6
LTYPE1
 62
     2
100
AcDbLine
 10
217.01
 20
141.81572425
 30
0.0
 11
217.56
 21
141.81572425
 31
0.0
  0
LINE
  5
EB
330
1F
100
AcDbEntity
  8
4
  6
LTYPE1
 62
     2
100
AcDbLine
 10
217.01
 20
137.61572425
 30
0.0
 11
217.56
 21
137.61572425
 31
0.0
  0
LINE
  5
EC
330
1F
100
AcDbEntity
  8
4
  6
LTYPE1
 62
     2
100
AcDbLine
 10
219.66
 20
135.51572425
 30
0.0
 11
220.21
 21
135.51572425
 31
0.0
  0
LINE
  5
ED
330
1F
100
AcDbEntity
  8
4
  6
LTYPE1
 62
     2
100
AcDbLine
 10
219.66
 20
143.91572425
 30
0.0
 11
220.21
 21
143.91572425
 31
0.0
  0
LINE
  5
EE
330
1F
100
AcDbEntity
  8
4
  6
Continuous
 62
     1
100
AcDbLine
 10
214.41
 20
280.61572425
 30
0.0
 11
202.71
 21
280.61572425
 31
0.0
  0
LINE
  5
EF
330
1F
100
AcDbEntity
  8
4
  6
Continuous
 62
     1
100
AcDbLine
 10
90.21
 20
283.81572425
 30
0.0
 11
90.21
 21
280.61572425
 31
0.0
  0
LINE
  5
F0
330
1F
100
AcDbEntity
  8
4
  6
Continuous
 62
     1
100
AcDbLine
 10
214.41
 20
283.81572425
 30
0.0
 11
90.21
 21
283.81572425
 31
0.0
  0
LINE
  5
F1
330
1F
100
AcDbEntity
  8
4
  6
Continuous
 62
     1
100
AcDbLine
 10
167.71
 20
280.61572425
 30
0.0
 11
90.21
 21
280.61572425
 31
0.0
  0
LINE
  5
F2
330
1F
100
AcDbEntity
  8
4
  6
Continuous
 62
     1
100
AcDbLine
 10
220.21
 20
73.81572425
 30
0.0
 11
217.01
 21
73.81572425
 31
0.0
  0
LINE
  5
F3
330
1F
100
AcDbEntity
  8
4
  6
Continuous
 62
     1
100
AcDbLine
 10
220.21
 20
278.01572425
 30
0.0
 11
220.21
 21
73.81572425
 31
0.0
  0
LINE
  5
F4
330
1F
100
AcDbEntity
  8
4
  6
LTYPE1
 62
     2
100
AcDbLine
 10
202.71
 20
280.61572425
 30
0.0
 11
167.71
 21
280.61572425
 31
0.0
  0
ELLIPSE
  5
F5
330
1F
100
AcDbEntity
  8
4
  6
Continuous
 62
     1
100
AcDbEllipse
 10
172.71
 20
269.673588626
 30
0.0
 11
5.0
 21
0.0
 31
0.0
 40
0.707106781
 41
3.141592654
 42
4.71238898
  0
LINE
  5
F6
330
1F
100
AcDbEntity
  8
4
  6
Continuous
 62
     1
100
AcDbLine
 10
197.710015259
 20
266.13805472
 30
0.0
 11
172.71
 21
266.13805472
 31
0.0
  0
ELLIPSE
  5
F7
330
1F
100
AcDbEntity
  8
4
  6
Continuous
 62
     1
100
AcDbEllipse
 10
197.71
 20
269.673588626
 30
0.0
 11
5.0
 21
0.0
 31
0.0
 40
0.707106781
 41
4.712392032
 42
0.0
  0
LINE
  5
F8
330
1F
100
AcDbEntity
  8
4
  6
Continuous
 62
     1
100
AcDbLine
 10
197.71001079
 20
263.875313021
 30
0.0
 11
172.71001079
 21
263.875313021
 31
0.0
  0
ELLIPSE
  5
F9
330
1F
100
AcDbEntity
  8
4
  6
Continuous
 62
     1
100
AcDbEllipse
 10
185.21
 20
274.976889485
 30
0.0
 11
5.0
 21
0.0
 31
0.0
 40
0.707106781
 41
0.0
 42
6.283185307
  0
ELLIPSE
  5
FA
330
1F
100
AcDbEntity
  8
4
  6
Continuous
 62
     1
100
AcDbEllipse
 10
185.21
 20
272.714147785
 30
0.0
 11
5.0
 21
0.0
 31
0.0
 40
0.707106781
 41
0.325729487
 42
2.815863166
  0
LINE
  5
FB
330
1F
100
AcDbEntity
  8
4
  6
Continuous
 62
     1
100
AcDbLine
 10
167.71
 20
283.81572425
 30
0.0
 11
167.71
 21
267.410846926
 31
0.0
  0
ELLIPSE
  5
FC
330
1F
100
AcDbEntity
  8
4
  6
Continuous
 62
     1
100
AcDbEllipse
 10
172.71
 20
267.410846926
 30
0.0
 11
5.0
 21
0.0
 31
0.0
 40
0.707106781
 41
3.141592654
 42
4.712391138
  0
ELLIPSE
  5
FD
330
1F
100
AcDbEntity
  8
4
  6
Continuous
 62
     1
100
AcDbEllipse
 10
197.71
 20
267.410846926
 30
0.0
 11
5.0
 21
0.0
 31
0.0
 40
0.707106781
 41
4.712391138
 42
0.000003052
  0
LINE
  5
FE
330
1F
100
AcDbEntity
  8
4
  6
Continuous
 62
     1
100
AcDbLine
 10
202.71
 20
283.81572425
 30
0.0
 11
202.71
 21
267.410857716
 31
0.0
  0
ARC
  5
FF
330
1F
100
AcDbEntity
  8
4
  6
Continuous
 62
     1
100
AcDbCircle
 10
352.51
 20
76.81572425
 30
0.0
 40
3.0
100
AcDbArc
 50
180.0
 51
270.0
  0
LINE
  5
100
330
1F
100
AcDbEntity
  8
4
  6
Continuous
 62
     1
100
AcDbLine
 10
352.51
 20
73.81572425
 30
0.0
 11
401.51
 21
73.81572425
 31
0.0
  0
ARC
  5
101
330
1F
100
AcDbEntity
  8
4
  6
Continuous
 62
     1
100
AcDbCircle
 10
401.51
 20
76.81572425
 30
0.0
 40
3.0
100
AcDbArc
 50
270.0
 51
0.0
  0
CIRCLE
  5
102
330
1F
100
AcDbEntity
  8
4
  6
Continuous
 62
     1
100
AcDbCircle
 10
361.01
 20
107.71572425
 30
0.0
 40
2.1
  0
CIRCLE
  5
103
330
1F
100
AcDbEntity
  8
4
  6
Continuous
 62
     1
100
AcDbCircle
 10
393.01
 20
107.71572425
 30
0.0
 40
2.1
  0
CIRCLE
  5
104
330
1F
100
AcDbEntity
  8
4
  6
Continuous
 62
     1
100
AcDbCircle
 10
361.01
 20
164.71572425
 30
0.0
 40
2.1
  0
CIRCLE
  5
105
330
1F
100
AcDbEntity
  8
4
  6
Continuous
 62
     1
100
AcDbCircle
 10
393.01
 20
164.71572425
 30
0.0
 40
2.1
  0
CIRCLE
  5
106
330
1F
100
AcDbEntity
  8
4
  6
Continuous
 62
     1
100
AcDbCircle
 10
393.01
 20
139.71572425
 30
0.0
 40
2.1
  0
CIRCLE
  5
107
330
1F
100
AcDbEntity
  8
4
  6
Continuous
 62
     1
100
AcDbCircle
 10
361.01
 20
139.71572425
 30
0.0
 40
2.1
  0
CIRCLE
  5
108
330
1F
100
AcDbEntity
  8
4
  6
Continuous
 62
     1
100
AcDbCircle
 10
361.01
 20
82.71572425
 30
0.0
 40
2.1
  0
CIRCLE
  5
109
330
1F
100
AcDbEntity
  8
4
  6
Continuous
 62
     1
100
AcDbCircle
 10
393.01
 20
82.71572425
 30
0.0
 40
2.1
  0
CIRCLE
  5
10A
330
1F
100
AcDbEntity
  8
4
  6
Continuous
 62
     2
100
AcDbCircle
 10
361.01
 20
82.71572425
 30
0.0
 40
4.2
  0
CIRCLE
  5
10B
330
1F
100
AcDbEntity
  8
4
  6
Continuous
 62
     2
100
AcDbCircle
 10
393.01
 20
82.71572425
 30
0.0
 40
4.2
  0
CIRCLE
  5
10C
330
1F
100
AcDbEntity
  8
4
  6
Continuous
 62
     2
100
AcDbCircle
 10
393.01
 20
107.71572425
 30
0.0
 40
4.2
  0
CIRCLE
  5
10D
330
1F
100
AcDbEntity
  8
4
  6
Continuous
 62
     2
100
AcDbCircle
 10
361.01
 20
107.71572425
 30
0.0
 40
4.2
  0
CIRCLE
  5
10E
330
1F
100
AcDbEntity
  8
4
  6
Continuous
 62
     2
100
AcDbCircle
 10
361.01
 20
139.71572425
 30
0.0
 40
4.2
  0
CIRCLE
  5
10F
330
1F
100
AcDbEntity
  8
4
  6
Continuous
 62
     2
100
AcDbCircle
 10
393.01
 20
139.71572425
 30
0.0
 40
4.2
  0
CIRCLE
  5
110
330
1F
100
AcDbEntity
  8
4
  6
Continuous
 62
     2
100
AcDbCircle
 10
361.01
 20
164.71572425
 30
0.0
 40
4.2
  0
CIRCLE
  5
111
330
1F
100
AcDbEntity
  8
4
  6
Continuous
 62
     2
100
AcDbCircle
 10
393.01
 20
164.71572425
 30
0.0
 40
4.2
  0
LINE
  5
113
330
1F
100
AcDbEntity
  8
4
  6
LTYPE2
 62
     2
100
AcDbLine
 10
377.01
 20
283.81572425
 30
0.0
 11
377.01
 21
73.81572425
 31
0.0
  0
LINE
  5
114
330
1F
100
AcDbEntity
  8
4
  6
Continuous
 62
     1
100
AcDbLine
 10
349.51
 20
283.81572425
 30
0.0
 11
349.51
 21
76.81572425
 31
0.0
  0
LINE
  5
115
330
1F
100
AcDbEntity
  8
4
  6
Continuous
 62
     1
100
AcDbLine
 10
404.51
 20
283.81572425
 30
0.0
 11
404.51
 21
76.81572425
 31
0.0
  0
LINE
  5
116
330
1F
100
AcDbEntity
  8
4
  6
LTYPE1
 62
     2
100
AcDbLine
 10
349.51
 20
280.61572425
 30
0.0
 11
404.51
 21
280.61572425
 31
0.0
  0
LINE
  5
117
330
1F
100
AcDbEntity
  8
4
  6
Continuous
 62
     1
100
AcDbLine
 10
346.94144887
 20
283.81572425
 30
0.0
 11
404.51
 21
283.81572425
 31
0.0
  0
LWPOLYLINE
  5
11A
330
1F
100
AcDbEntity
  8
4
  6
Continuous
 62
     1
100
AcDbPolyline
 90
     3
 70
   128
 43
0.0
 10
349.51
 20
280.61572425
 42
0.0
 10
346.912438662
 20
280.61572425
 42
0.198912367
 10
345.073961031
 20
279.854201881
 42
0.0
  0
ARC
  5
11B
330
1F
100
AcDbEntity
  8
4
  6
Continuous
 62
     1
100
AcDbCircle
 10
346.941433611
 20
277.94572425
 30
0.0
 40
5.87
100
AcDbArc
 50
90.0
 51
135.0
  0
LINE
  5
11D
330
1F
100
AcDbEntity
  8
4
  6
LTYPE3
 62
     2
100
AcDbLine
 10
344.51
 20
283.81572425
 30
0.0
 11
346.94144887
 21
283.81572425
 31
0.0
  0
LINE
  5
11E
330
1F
100
AcDbEntity
  8
4
  6
LTYPE3
 62
     2
100
AcDbLine
 10
342.790716806
 20
282.096441056
 30
0.0
 11
344.51
 21
283.81572425
 31
0.0
  0
LINE
  5
11F
330
1F
100
AcDbEntity
  8
4
  6
LTYPE3
 62
     2
100
AcDbLine
 10
345.073961031
 20
279.854201881
 30
0.0
 11
345.8354834
 21
280.61572425
 31
0.0
  0
LINE
  5
120
330
1F
100
AcDbEntity
  8
4
  6
LTYPE3
 62
     2
100
AcDbLine
 10
346.912438662
 20
280.61572425
 30
0.0
 11
345.8354834
 21
280.61572425
 31
0.0
  0
CIRCLE
  5
121
330
1F
100
AcDbEntity
  8
4
  6
Continuous
 62
     1
100
AcDbCircle
 10
357.01
 20
93.81572425
 30
0.0
 40
3.6
  0
CIRCLE
  5
122
330
1F
100
AcDbEntity
  8
4
  6
Continuous
 62
     1
100
AcDbCircle
 10
397.01
 20
93.81572425
 30
0.0
 40
3.6
  0
CIRCLE
  5
123
330
1F
100
AcDbEntity
  8
4
  6
Continuous
 62
     1
100
AcDbCircle
 10
357.01
 20
153.81572425
 30
0.0
 40
3.6
  0
CIRCLE
  5
124
330
1F
100
AcDbEntity
  8
4
  6
Continuous
 62
     1
100
AcDbCircle
 10
397.01
 20
153.81572425
 30
0.0
 40
3.6
  0
CIRCLE
  5
125
330
1F
100
AcDbEntity
  8
4
  6
Continuous
 62
     1
100
AcDbCircle
 10
357.01
 20
258.81572425
 30
0.0
 40
3.6
  0
CIRCLE
  5
126
330
1F
100
AcDbEntity
  8
4
  6
Continuous
 62
     1
100
AcDbCircle
 10
397.01
 20
258.81572425
 30
0.0
 40
3.6
  0
LINE
  5
127
330
1F
100
AcDbEntity
  8
4
  6
Continuous
 62
     1
100
AcDbLine
 10
329.09507217
 20
263.875313021
 30
0.0
 11
326.83233047
 21
266.13805472
 31
0.0
  0
LINE
  5
128
330
1F
100
AcDbEntity
  8
4
  6
Continuous
 62
     1
100
AcDbLine
 10
326.83233047
 20
266.13805472
 30
0.0
 11
342.790716806
 21
282.096441056
 31
0.0
  0
LINE
  5
129
330
1F
100
AcDbEntity
  8
4
  6
Continuous
 62
     1
100
AcDbLine
 10
329.09507217
 20
263.875313021
 30
0.0
 11
345.073961031
 21
279.854201881
 31
0.0
  0
LINE
  5
12A
330
1F
100
AcDbEntity
  8
7
  6
Continuous
 62
     2
100
AcDbLine
 10
404.51
 20
285.81572425
 30
0.0
 11
404.51
 21
299.81572425
 31
0.0
  0
LINE
  5
12B
330
1F
100
AcDbEntity
  8
7
  6
Continuous
 62
     2
100
AcDbLine
 10
404.51
 20
295.81572425
 30
0.0
 11
399.680370869
 21
297.109819476
 31
0.0
  0
LINE
  5
12C
330
1F
100
AcDbEntity
  8
7
  6
Continuous
 62
     2
100
AcDbLine
 10
404.51
 20
295.81572425
 30
0.0
 11
399.680370869
 21
294.521629024
 31
0.0
  0
LWPOLYLINE
  5
12E
330
1F
100
AcDbEntity
  8
7
  6
Continuous
 62
     2
100
AcDbPolyline
 90
     3
 70
   128
 43
0.0
 10
404.51
 20
295.81572425
 10
326.83233047
 20
295.81572425
 10
331.661959602
 20
294.521629024
  0
LINE
  5
12F
330
1F
100
AcDbEntity
  8
7
  6
Continuous
 62
     2
100
AcDbLine
 10
326.83233047
 20
295.81572425
 30
0.0
 11
331.661959602
 21
297.109819476
 31
0.0
  0
LINE
  5
130
330
1F
100
AcDbEntity
  8
7
  6
Continuous
 62
     2
100
AcDbLine
 10
326.83233047
 20
268.13805472
 30
0.0
 11
326.83233047
 21
299.81572425
 31
0.0
  0
MTEXT
  5
131
330
1F
100
AcDbEntity
  8
7
  6
Continuous
 62
     2
100
AcDbMText
 10
357.571165235
 20
297.81572425
 30
0.0
 40
6.0
 41
32.4
 71
     7
 72
     1
  1
\T1.167;\W0.600;（７８）
  7
KANJI6
 73
     1
 44
1.0
  0
LINE
  5
133
330
1F
100
AcDbEntity
  8
7
  6
Continuous
 62
     2
100
AcDbLine
 10
361.01
 20
88.71572425
 30
0.0
 11
361.01
 21
57.81572425
 31
0.0
  0
LINE
  5
134
330
1F
100
AcDbEntity
  8
7
  6
Continuous
 62
     2
100
AcDbLine
 10
361.01
 20
61.81572425
 30
0.0
 11
365.839629131
 21
60.521629024
 31
0.0
  0
LINE
  5
135
330
1F
100
AcDbEntity
  8
7
  6
Continuous
 62
     2
100
AcDbLine
 10
361.01
 20
61.81572425
 30
0.0
 11
365.839629131
 21
63.109819476
 31
0.0
  0
LWPOLYLINE
  5
137
330
1F
100
AcDbEntity
  8
7
  6
Continuous
 62
     2
100
AcDbPolyline
 90
     3
 70
   128
 43
0.0
 10
361.01
 20
61.81572425
 10
393.01
 20
61.81572425
 10
388.180370869
 20
63.109819476
  0
LINE
  5
138
330
1F
100
AcDbEntity
  8
7
  6
Continuous
 62
     2
100
AcDbLine
 10
393.01
 20
61.81572425
 30
0.0
 11
388.180370869
 21
60.521629024
 31
0.0
  0
LINE
  5
139
330
1F
100
AcDbEntity
  8
7
  6
Continuous
 62
     2
100
AcDbLine
 10
393.01
 20
88.71572425
 30
0.0
 11
393.01
 21
57.81572425
 31
0.0
  0
MTEXT
  5
13A
330
1F
100
AcDbEntity
  8
7
  6
Continuous
 62
     2
100
AcDbMText
 10
373.11
 20
63.81572425
 30
0.0
 40
6.0
 41
15.6
 71
     7
 72
     1
  1
\T1.167;\W0.600;３２
  7
KANJI6
 73
     1
 44
1.0
  0
LINE
  5
13B
330
1F
100
AcDbEntity
  8
7
  6
Continuous
 62
     2
100
AcDbLine
 10
357.01
 20
99.81572425
 30
0.0
 11
357.01
 21
45.81572425
 31
0.0
  0
LINE
  5
13C
330
1F
100
AcDbEntity
  8
7
  6
Continuous
 62
     2
100
AcDbLine
 10
357.01
 20
49.81572425
 30
0.0
 11
361.839629131
 21
48.521629024
 31
0.0
  0
LINE
  5
13D
330
1F
100
AcDbEntity
  8
7
  6
Continuous
 62
     2
100
AcDbLine
 10
357.01
 20
49.81572425
 30
0.0
 11
361.839629131
 21
51.109819476
 31
0.0
  0
LWPOLYLINE
  5
13F
330
1F
100
AcDbEntity
  8
7
  6
Continuous
 62
     2
100
AcDbPolyline
 90
     3
 70
   128
 43
0.0
 10
357.01
 20
49.81572425
 10
397.01
 20
49.81572425
 10
392.180370869
 20
51.109819476
  0
LINE
  5
140
330
1F
100
AcDbEntity
  8
7
  6
Continuous
 62
     2
100
AcDbLine
 10
397.01
 20
49.81572425
 30
0.0
 11
392.180370869
 21
48.521629024
 31
0.0
  0
LINE
  5
141
330
1F
100
AcDbEntity
  8
7
  6
Continuous
 62
     2
100
AcDbLine
 10
397.01
 20
99.81572425
 30
0.0
 11
397.01
 21
45.81572425
 31
0.0
  0
MTEXT
  5
142
330
1F
100
AcDbEntity
  8
7
  6
Continuous
 62
     2
100
AcDbMText
 10
373.11
 20
51.81572425
 30
0.0
 40
6.0
 41
15.6
 71
     7
 72
     1
  1
\T1.167;\W0.600;４０
  7
KANJI6
 73
     1
 44
1.0
  0
LINE
  5
143
330
1F
100
AcDbEntity
  8
7
  6
Continuous
 62
     2
100
AcDbLine
 10
327.09507217
 20
263.875313021
 30
0.0
 11
310.83233047
 21
263.875313021
 31
0.0
  0
LINE
  5
144
330
1F
100
AcDbEntity
  8
7
  6
Continuous
 62
     2
100
AcDbLine
 10
314.83233047
 20
263.875313021
 30
0.0
 11
316.126425696
 21
268.704942152
 31
0.0
  0
LINE
  5
145
330
1F
100
AcDbEntity
  8
7
  6
Continuous
 62
     2
100
AcDbLine
 10
314.83233047
 20
263.875313021
 30
0.0
 11
313.538235245
 21
268.704942152
 31
0.0
  0
LWPOLYLINE
  5
147
330
1F
100
AcDbEntity
  8
7
  6
Continuous
 62
     2
100
AcDbPolyline
 90
     3
 70
   128
 43
0.0
 10
314.83233047
 20
263.875313021
 10
314.83233047
 20
283.81572425
 10
313.538235245
 20
278.986095119
  0
LINE
  5
148
330
1F
100
AcDbEntity
  8
7
  6
Continuous
 62
     2
100
AcDbLine
 10
314.83233047
 20
283.81572425
 30
0.0
 11
316.126425696
 21
278.986095119
 31
0.0
  0
LINE
  5
149
330
1F
100
AcDbEntity
  8
7
  6
Continuous
 62
     2
100
AcDbLine
 10
342.51
 20
283.81572425
 30
0.0
 11
310.83233047
 21
283.81572425
 31
0.0
  0
MTEXT
  5
14A
330
1F
100
AcDbEntity
  8
7
  6
Continuous
 62
     2
100
AcDbMText
 10
312.83233047
 20
265.745518635
 30
0.0
 40
6.0
 41
32.4
 71
     7
 72
     1
  1
\T1.167;\W0.600;（２０）
  7
KANJI6
 11
0.0
 21
1.0
 31
0.0
 73
     1
 44
1.0
  0
LINE
  5
14B
330
1F
100
AcDbEntity
  8
4
  6
LTYPE1
 62
     2
100
AcDbLine
 10
317.067821049
 20
309.383386601
 30
0.0
 11
292.319083707
 21
334.132123942
 31
0.0
  0
LINE
  5
14C
330
1F
100
AcDbEntity
  8
4
  6
Continuous
 62
     1
100
AcDbLine
 10
318.005079349
 20
310.320644901
 30
0.0
 11
293.256342007
 21
335.069382243
 31
0.0
  0
CIRCLE
  5
14D
330
1F
100
AcDbEntity
  8
4
  6
Continuous
 62
     1
100
AcDbCircle
 10
296.791875913
 20
313.856178807
 30
0.0
 40
5.0
  0
LINE
  5
14E
330
1F
100
AcDbEntity
  8
4
  6
Continuous
 62
     1
100
AcDbLine
 10
293.256342007
 20
299.714043183
 30
0.0
 11
282.649751079
 21
310.320634112
 31
0.0
  0
ARC
  5
14F
330
1F
100
AcDbEntity
  8
4
  6
Continuous
 62
     1
100
AcDbCircle
 10
289.720808101
 20
317.391712713
 30
0.0
 40
10.0
100
AcDbArc
 50
135.0
 51
225.0
  0
ARC
  5
150
330
1F
100
AcDbEntity
  8
4
  6
Continuous
 62
     1
100
AcDbCircle
 10
300.327409819
 20
306.785110995
 30
0.0
 40
10.0
100
AcDbArc
 50
225.0
 51
315.0
  0
LINE
  5
151
330
1F
100
AcDbEntity
  8
4
  6
LTYPE2
 62
     2
100
AcDbLine
 10
309.166244584
 20
301.481810136
 30
0.0
 11
284.417507243
 21
326.230547478
 31
0.0
  0
LINE
  5
152
330
1F
100
AcDbEntity
  8
4
  6
Continuous
 62
     1
100
AcDbLine
 10
282.649753504
 20
324.462793739
 30
0.0
 11
293.256342007
 21
335.069382243
 31
0.0
  0
LINE
  5
153
330
1F
100
AcDbEntity
  8
4
  6
Continuous
 62
     1
100
AcDbLine
 10
307.398488421
 20
299.714053973
 30
0.0
 11
318.005079349
 21
310.320644901
 31
0.0
  0
LINE
  5
154
330
1F
100
AcDbEntity
  8
4
  6
LTYPE2
 62
     2
100
AcDbLine
 10
287.953041148
 20
305.017344042
 30
0.0
 11
305.630710678
 21
322.695013572
 31
0.0
  0
LINE
  5
155
330
1F
100
AcDbEntity
  8
7
  6
Continuous
 62
     2
100
AcDbLine
 10
283.00329368
 20
327.64476104
 30
0.0
 11
274.518012306
 21
336.130042414
 31
0.0
  0
LINE
  5
156
330
1F
100
AcDbEntity
  8
7
  6
Continuous
 62
     2
100
AcDbLine
 10
277.346439431
 20
333.30161529
 30
0.0
 11
273.016312412
 21
330.80161529
 31
0.0
  0
LINE
  5
157
330
1F
100
AcDbEntity
  8
7
  6
Continuous
 62
     2
100
AcDbLine
 10
277.346439431
 20
333.30161529
 30
0.0
 11
274.846439431
 21
328.971488271
 31
0.0
  0
LINE
  5
158
330
1F
100
AcDbEntity
  8
7
  6
Continuous
 62
     2
100
AcDbLine
 10
277.346439431
 20
333.30161529
 30
0.0
 11
253.516940905
 21
309.472116764
 31
0.0
  0
LINE
  5
159
330
1F
100
AcDbEntity
  8
7
  6
Continuous
 62
     2
100
AcDbLine
 10
268.507604666
 20
324.462780525
 30
0.0
 11
272.837731685
 21
326.962780525
 31
0.0
  0
LINE
  5
15A
330
1F
100
AcDbEntity
  8
7
  6
Continuous
 62
     2
100
AcDbLine
 10
268.507604666
 20
324.462780525
 30
0.0
 11
271.007604666
 21
328.792907544
 31
0.0
  0
LINE
  5
15B
330
1F
100
AcDbEntity
  8
7
  6
Continuous
 62
     2
100
AcDbLine
 10
281.235537517
 20
311.734847674
 30
0.0
 11
265.679177541
 21
327.29120765
 31
0.0
  0
MTEXT
  5
15C
330
1F
100
AcDbEntity
  8
7
  6
Continuous
 62
     2
100
AcDbMText
 10
252.102727342
 20
310.886330326
 30
0.0
 40
6.0
 41
32.4
 71
     7
 72
     1
  1
\T1.167;\W0.600;１２．５
  7
KANJI6
 11
0.707106781
 21
0.707106781
 31
0.0
 73
     1
 44
1.0
  0
LINE
  5
15D
330
1F
100
AcDbEntity
  8
7
  6
Continuous
 62
     2
100
AcDbLine
 10
267.093391103
 20
325.876994087
 30
0.0
 11
257.193896167
 21
335.776489024
 31
0.0
  0
LINE
  5
15E
330
1F
100
AcDbEntity
  8
7
  6
Continuous
 62
     2
100
AcDbLine
 10
260.022323292
 20
332.948061899
 30
0.0
 11
264.352450311
 21
335.448061899
 31
0.0
  0
LINE
  5
15F
330
1F
100
AcDbEntity
  8
7
  6
Continuous
 62
     2
100
AcDbLine
 10
260.022323292
 20
332.948061899
 30
0.0
 11
262.522323292
 21
337.278188918
 31
0.0
  0
LWPOLYLINE
  5
161
330
1F
100
AcDbEntity
  8
7
  6
Continuous
 62
     2
100
AcDbPolyline
 90
     3
 70
   128
 43
0.0
 10
260.022323292
 20
332.948061899
 10
277.699992821
 20
350.625731429
 10
273.369865802
 20
348.125731429
  0
LINE
  5
162
330
1F
100
AcDbEntity
  8
7
  6
Continuous
 62
     2
100
AcDbLine
 10
277.699992821
 20
350.625731429
 30
0.0
 11
275.199992821
 21
346.29560441
 31
0.0
  0
LINE
  5
163
330
1F
100
AcDbEntity
  8
7
  6
Continuous
 62
     2
100
AcDbLine
 10
291.842128445
 20
336.483595805
 30
0.0
 11
274.871565697
 21
353.454158553
 31
0.0
  0
MTEXT
  5
164
330
1F
100
AcDbEntity
  8
7
  6
Continuous
 62
     2
100
AcDbMText
 10
264.689228047
 20
340.44339378
 30
0.0
 40
6.0
 41
15.6
 71
     7
 72
     1
  1
\T1.167;\W0.600;２５
  7
KANJI6
 11
0.707106781
 21
0.707106781
 31
0.0
 73
     1
 44
1.0
  0
LINE
  5
165
330
1F
100
AcDbEntity
  8
7
  6
Continuous
 62
     2
100
AcDbLine
 10
281.235526727
 20
323.048566962
 30
0.0
 11
264.264963979
 21
306.078004214
 31
0.0
  0
LINE
  5
166
330
1F
100
AcDbEntity
  8
7
  6
Continuous
 62
     2
100
AcDbLine
 10
267.093391103
 20
308.906431339
 30
0.0
 11
269.593391103
 21
304.57630432
 31
0.0
  0
LINE
  5
167
330
1F
100
AcDbEntity
  8
7
  6
Continuous
 62
     2
100
AcDbLine
 10
267.093391103
 20
308.906431339
 30
0.0
 11
271.423518122
 21
306.406431339
 31
0.0
  0
LWPOLYLINE
  5
169
330
1F
100
AcDbEntity
  8
7
  6
Continuous
 62
     2
100
AcDbPolyline
 90
     3
 70
   128
 43
0.0
 10
267.093391103
 20
308.906431339
 10
291.842128445
 20
284.157693997
 10
289.342128445
 20
288.487821016
  0
LINE
  5
16A
330
1F
100
AcDbEntity
  8
7
  6
Continuous
 62
     2
100
AcDbLine
 10
291.842128445
 20
284.157693997
 30
0.0
 11
287.512001426
 21
286.657693997
 31
0.0
  0
LINE
  5
16B
330
1F
100
AcDbEntity
  8
7
  6
Continuous
 62
     2
100
AcDbLine
 10
305.984264069
 20
298.299829621
 30
0.0
 11
289.01370132
 21
281.329266873
 31
0.0
  0
MTEXT
  5
16C
330
1F
100
AcDbEntity
  8
7
  6
Continuous
 62
     2
100
AcDbMText
 10
278.12425689
 20
300.703992677
 30
0.0
 40
6.0
 41
15.6
 71
     7
 72
     1
  1
\T1.167;\W0.600;３５
  7
KANJI6
 11
0.707106781
 21
-0.707106781
 31
0.0
 73
     1
 44
1.0
  0
LINE
  5
16D
330
1F
100
AcDbEntity
  8
7
  6
Continuous
 62
     2
100
AcDbLine
 10
400.83
 20
264.453491203
 30
0.0
 11
404.965496997
 21
267.263769585
 31
0.0
  0
LINE
  5
16E
330
1F
100
AcDbEntity
  8
7
  6
Continuous
 62
     2
100
AcDbLine
 10
400.83
 20
264.453491203
 30
0.0
 11
403.006306266
 21
268.955012172
 31
0.0
  0
LWPOLYLINE
  5
170
330
1F
100
AcDbEntity
  8
7
  6
Continuous
 62
     2
100
AcDbPolyline
 90
     3
 70
   128
 43
0.0
 10
400.83
 20
264.453491203
 10
430.18
 20
298.453491203
 10
452.08
 20
298.453491203
  0
MTEXT
  5
171
330
1F
100
AcDbEntity
  8
7
  6
Continuous
 62
     2
100
AcDbMText
 10
430.18
 20
300.453491203
 30
0.0
 40
6.0
 41
43.8
 71
     7
 72
     1
  1
\T1.111;\W0.557;６－φ７．２
  7
KANJI3
 73
     1
 44
1.0
  0
LWPOLYLINE
  5
173
330
1F
100
AcDbEntity
  8
3
  6
LTYPE1
 62
     2
100
AcDbPolyline
 90
     6
 70
   129
 43
0.0
 10
383.51
 20
202.568501
 10
377.01
 20
206.321277749
 10
370.51
 20
202.568501
 10
370.51
 20
195.0629475
 10
377.01
 20
191.310170751
 10
383.51
 20
195.0629475
  0
LWPOLYLINE
  5
175
330
1F
100
AcDbEntity
  8
3
  6
LTYPE1
 62
     2
100
AcDbPolyline
 90
     6
 70
   129
 43
0.0
 10
383.51
 20
262.568501
 10
377.01
 20
266.321277749
 10
370.51
 20
262.568501
 10
370.51
 20
255.0629475
 10
377.01
 20
251.310170751
 10
383.51
 20
255.0629475
  0
CIRCLE
  5
176
330
1F
100
AcDbEntity
  8
3
  6
Continuous
 62
     2
100
AcDbCircle
 10
377.01
 20
258.81572425
 30
0.0
 40
3.0
  0
CIRCLE
  5
177
330
1F
100
AcDbEntity
  8
3
  6
Continuous
 62
     2
100
AcDbCircle
 10
377.01
 20
198.81572425
 30
0.0
 40
3.0
  0
LINE
  5
178
330
1F
100
AcDbEntity
  8
7
  6
Continuous
 62
     2
100
AcDbLine
 10
403.51
 20
73.81572425
 30
0.0
 11
420.51
 21
73.81572425
 31
0.0
  0
LINE
  5
179
330
1F
100
AcDbEntity
  8
7
  6
Continuous
 62
     2
100
AcDbLine
 10
416.51
 20
73.81572425
 30
0.0
 11
415.215904774
 21
68.986095119
 31
0.0
  0
LINE
  5
17A
330
1F
100
AcDbEntity
  8
7
  6
Continuous
 62
     2
100
AcDbLine
 10
416.51
 20
73.81572425
 30
0.0
 11
417.804095226
 21
68.986095119
 31
0.0
  0
LWPOLYLINE
  5
17C
330
1F
100
AcDbEntity
  8
7
  6
Continuous
 62
     2
100
AcDbPolyline
 90
     4
 70
   128
 43
0.0
 10
416.51
 20
54.31572425
 10
416.51
 20
73.81572425
 10
416.51
 20
82.71572425
 10
416.51
 20
90.21572425
  0
LINE
  5
17D
330
1F
100
AcDbEntity
  8
7
  6
Continuous
 62
     2
100
AcDbLine
 10
416.51
 20
82.71572425
 30
0.0
 11
417.804095226
 21
87.545353381
 31
0.0
  0
LINE
  5
17E
330
1F
100
AcDbEntity
  8
7
  6
Continuous
 62
     2
100
AcDbLine
 10
416.51
 20
82.71572425
 30
0.0
 11
415.215904774
 21
87.545353381
 31
0.0
  0
LINE
  5
17F
330
1F
100
AcDbEntity
  8
7
  6
Continuous
 62
     2
100
AcDbLine
 10
387.01
 20
82.71572425
 30
0.0
 11
420.51
 21
82.71572425
 31
0.0
  0
MTEXT
  5
180
330
1F
100
AcDbEntity
  8
7
  6
Continuous
 62
     2
100
AcDbMText
 10
414.51
 20
54.31572425
 30
0.0
 40
6.0
 41
24.0
 71
     7
 72
     1
  1
\T1.167;\W0.600;８．９
  7
KANJI7
 11
0.0
 21
1.0
 31
0.0
 73
     1
 44
1.0
  0
LINE
  5
182
330
1F
100
AcDbEntity
  8
7
  6
Continuous
 62
     2
100
AcDbLine
 10
416.51
 20
82.71572425
 30
0.0
 11
417.804095226
 21
87.545353381
 31
0.0
  0
LINE
  5
183
330
1F
100
AcDbEntity
  8
7
  6
Continuous
 62
     2
100
AcDbLine
 10
416.51
 20
82.71572425
 30
0.0
 11
415.215904774
 21
87.545353381
 31
0.0
  0
LWPOLYLINE
  5
185
330
1F
100
AcDbEntity
  8
7
  6
Continuous
 62
     2
100
AcDbPolyline
 90
     3
 70
   128
 43
0.0
 10
416.51
 20
82.71572425
 10
416.51
 20
139.71572425
 10
415.215904774
 20
134.886095119
  0
LINE
  5
186
330
1F
100
AcDbEntity
  8
7
  6
Continuous
 62
     2
100
AcDbLine
 10
416.51
 20
139.71572425
 30
0.0
 11
417.804095226
 21
134.886095119
 31
0.0
  0
LINE
  5
187
330
1F
100
AcDbEntity
  8
7
  6
Continuous
 62
     2
100
AcDbLine
 10
387.01
 20
139.71572425
 30
0.0
 11
420.51
 21
139.71572425
 31
0.0
  0
MTEXT
  5
188
330
1F
100
AcDbEntity
  8
7
  6
Continuous
 62
     2
100
AcDbMText
 10
414.51
 20
107.31572425
 30
0.0
 40
6.0
 41
15.6
 71
     7
 72
     1
  1
\T1.167;\W0.600;５７
  7
KANJI7
 11
0.0
 21
1.0
 31
0.0
 73
     1
 44
1.0
  0
LINE
  5
189
330
1F
100
AcDbEntity
  8
7
  6
Continuous
 62
     2
100
AcDbLine
 10
367.01
 20
164.71572425
 30
0.0
 11
333.51
 21
164.71572425
 31
0.0
  0
LINE
  5
18A
330
1F
100
AcDbEntity
  8
7
  6
Continuous
 62
     2
100
AcDbLine
 10
337.51
 20
164.71572425
 30
0.0
 11
336.215904774
 21
159.886095119
 31
0.0
  0
LINE
  5
18B
330
1F
100
AcDbEntity
  8
7
  6
Continuous
 62
     2
100
AcDbLine
 10
337.51
 20
164.71572425
 30
0.0
 11
338.804095226
 21
159.886095119
 31
0.0
  0
LWPOLYLINE
  5
18D
330
1F
100
AcDbEntity
  8
7
  6
Continuous
 62
     2
100
AcDbPolyline
 90
     3
 70
   128
 43
0.0
 10
337.51
 20
164.71572425
 10
337.51
 20
107.71572425
 10
338.804095226
 20
112.545353381
  0
LINE
  5
18E
330
1F
100
AcDbEntity
  8
7
  6
Continuous
 62
     2
100
AcDbLine
 10
337.51
 20
107.71572425
 30
0.0
 11
336.215904774
 21
112.545353381
 31
0.0
  0
LINE
  5
18F
330
1F
100
AcDbEntity
  8
7
  6
Continuous
 62
     2
100
AcDbLine
 10
367.01
 20
107.71572425
 30
0.0
 11
333.51
 21
107.71572425
 31
0.0
  0
MTEXT
  5
190
330
1F
100
AcDbEntity
  8
7
  6
Continuous
 62
     2
100
AcDbMText
 10
335.51
 20
132.31572425
 30
0.0
 40
6.0
 41
15.6
 71
     7
 72
     1
  1
\T1.167;\W0.600;５７
  7
KANJI7
 11
0.0
 21
1.0
 31
0.0
 73
     1
 44
1.0
  0
LINE
  5
191
330
1F
100
AcDbEntity
  8
7
  6
Continuous
 62
     2
100
AcDbLine
 10
337.51
 20
107.71572425
 30
0.0
 11
336.215904774
 21
102.886095119
 31
0.0
  0
LINE
  5
192
330
1F
100
AcDbEntity
  8
7
  6
Continuous
 62
     2
100
AcDbLine
 10
337.51
 20
107.71572425
 30
0.0
 11
338.804095226
 21
102.886095119
 31
0.0
  0
LWPOLYLINE
  5
194
330
1F
100
AcDbEntity
  8
7
  6
Continuous
 62
     2
100
AcDbPolyline
 90
     3
 70
   128
 43
0.0
 10
337.51
 20
107.71572425
 10
337.51
 20
82.71572425
 10
338.804095226
 20
87.545353381
  0
LINE
  5
195
330
1F
100
AcDbEntity
  8
7
  6
Continuous
 62
     2
100
AcDbLine
 10
337.51
 20
82.71572425
 30
0.0
 11
336.215904774
 21
87.545353381
 31
0.0
  0
LINE
  5
196
330
1F
100
AcDbEntity
  8
7
  6
Continuous
 62
     2
100
AcDbLine
 10
367.01
 20
82.71572425
 30
0.0
 11
333.51
 21
82.71572425
 31
0.0
  0
MTEXT
  5
197
330
1F
100
AcDbEntity
  8
7
  6
Continuous
 62
     2
100
AcDbMText
 10
335.51
 20
91.31572425
 30
0.0
 40
6.0
 41
15.6
 71
     7
 72
     1
  1
\T1.167;\W0.600;２５
  7
KANJI7
 11
0.0
 21
1.0
 31
0.0
 73
     1
 44
1.0
  0
LINE
  5
198
330
1F
100
AcDbEntity
  8
7
  6
Continuous
 62
     2
100
AcDbLine
 10
418.51
 20
73.81572425
 30
0.0
 11
432.51
 21
73.81572425
 31
0.0
  0
LINE
  5
199
330
1F
100
AcDbEntity
  8
7
  6
Continuous
 62
     2
100
AcDbLine
 10
428.51
 20
73.81572425
 30
0.0
 11
429.804095226
 21
78.645353381
 31
0.0
  0
LINE
  5
19A
330
1F
100
AcDbEntity
  8
7
  6
Continuous
 62
     2
100
AcDbLine
 10
428.51
 20
73.81572425
 30
0.0
 11
427.215904774
 21
78.645353381
 31
0.0
  0
LWPOLYLINE
  5
19C
330
1F
100
AcDbEntity
  8
7
  6
Continuous
 62
     2
100
AcDbPolyline
 90
     3
 70
   128
 43
0.0
 10
428.51
 20
73.81572425
 10
428.51
 20
93.81572425
 10
427.215904774
 20
88.986095119
  0
LINE
  5
19D
330
1F
100
AcDbEntity
  8
7
  6
Continuous
 62
     2
100
AcDbLine
 10
428.51
 20
93.81572425
 30
0.0
 11
429.804095226
 21
88.986095119
 31
0.0
  0
LINE
  5
19E
330
1F
100
AcDbEntity
  8
7
  6
Continuous
 62
     2
100
AcDbLine
 10
391.01
 20
93.81572425
 30
0.0
 11
432.51
 21
93.81572425
 31
0.0
  0
MTEXT
  5
19F
330
1F
100
AcDbEntity
  8
7
  6
Continuous
 62
     2
100
AcDbMText
 10
426.51
 20
79.91572425
 30
0.0
 40
6.0
 41
15.6
 71
     7
 72
     1
  1
\T1.167;\W0.600;２０
  7
KANJI7
 11
0.0
 21
1.0
 31
0.0
 73
     1
 44
1.0
  0
LINE
  5
1A0
330
1F
100
AcDbEntity
  8
7
  6
Continuous
 62
     2
100
AcDbLine
 10
428.51
 20
93.81572425
 30
0.0
 11
429.804095226
 21
98.645353381
 31
0.0
  0
LINE
  5
1A1
330
1F
100
AcDbEntity
  8
7
  6
Continuous
 62
     2
100
AcDbLine
 10
428.51
 20
93.81572425
 30
0.0
 11
427.215904774
 21
98.645353381
 31
0.0
  0
LWPOLYLINE
  5
1A3
330
1F
100
AcDbEntity
  8
7
  6
Continuous
 62
     2
100
AcDbPolyline
 90
     3
 70
   128
 43
0.0
 10
428.51
 20
93.81572425
 10
428.51
 20
153.81572425
 10
427.215904774
 20
148.986095119
  0
LINE
  5
1A4
330
1F
100
AcDbEntity
  8
7
  6
Continuous
 62
     2
100
AcDbLine
 10
428.51
 20
153.81572425
 30
0.0
 11
429.804095226
 21
148.986095119
 31
0.0
  0
LINE
  5
1A5
330
1F
100
AcDbEntity
  8
7
  6
Continuous
 62
     2
100
AcDbLine
 10
391.01
 20
153.81572425
 30
0.0
 11
432.51
 21
153.81572425
 31
0.0
  0
MTEXT
  5
1A6
330
1F
100
AcDbEntity
  8
7
  6
Continuous
 62
     2
100
AcDbMText
 10
426.51
 20
119.91572425
 30
0.0
 40
6.0
 41
15.6
 71
     7
 72
     1
  1
\T1.167;\W0.600;６０
  7
KANJI7
 11
0.0
 21
1.0
 31
0.0
 73
     1
 44
1.0
  0
LINE
  5
1A7
330
1F
100
AcDbEntity
  8
7
  6
Continuous
 62
     2
100
AcDbLine
 10
371.01
 20
198.81572425
 30
0.0
 11
420.51
 21
198.81572425
 31
0.0
  0
LINE
  5
1A8
330
1F
100
AcDbEntity
  8
7
  6
Continuous
 62
     2
100
AcDbLine
 10
416.51
 20
198.81572425
 30
0.0
 11
417.804095226
 21
203.645353381
 31
0.0
  0
LINE
  5
1A9
330
1F
100
AcDbEntity
  8
7
  6
Continuous
 62
     2
100
AcDbLine
 10
416.51
 20
198.81572425
 30
0.0
 11
415.215904774
 21
203.645353381
 31
0.0
  0
LWPOLYLINE
  5
1AB
330
1F
100
AcDbEntity
  8
7
  6
Continuous
 62
     2
100
AcDbPolyline
 90
     3
 70
   128
 43
0.0
 10
416.51
 20
198.81572425
 10
416.51
 20
258.81572425
 10
415.215904774
 20
253.986095119
  0
LINE
  5
1AC
330
1F
100
AcDbEntity
  8
7
  6
Continuous
 62
     2
100
AcDbLine
 10
416.51
 20
258.81572425
 30
0.0
 11
417.804095226
 21
253.986095119
 31
0.0
  0
LINE
  5
1AD
330
1F
100
AcDbEntity
  8
7
  6
Continuous
 62
     2
100
AcDbLine
 10
371.01
 20
258.81572425
 30
0.0
 11
420.51
 21
258.81572425
 31
0.0
  0
MTEXT
  5
1AE
330
1F
100
AcDbEntity
  8
7
  6
Continuous
 62
     2
100
AcDbMText
 10
414.51
 20
224.91572425
 30
0.0
 40
6.0
 41
15.6
 71
     7
 72
     1
  1
\T1.167;\W0.600;６０
  7
KANJI7
 11
0.0
 21
1.0
 31
0.0
 73
     1
 44
1.0
  0
LINE
  5
1AF
330
1F
100
AcDbEntity
  8
7
  6
Continuous
 62
     2
100
AcDbLine
 10
428.51
 20
153.81572425
 30
0.0
 11
429.804095226
 21
158.645353381
 31
0.0
  0
LINE
  5
1B0
330
1F
100
AcDbEntity
  8
7
  6
Continuous
 62
     2
100
AcDbLine
 10
428.51
 20
153.81572425
 30
0.0
 11
427.215904774
 21
158.645353381
 31
0.0
  0
LWPOLYLINE
  5
1B2
330
1F
100
AcDbEntity
  8
7
  6
Continuous
 62
     2
100
AcDbPolyline
 90
     3
 70
   128
 43
0.0
 10
428.51
 20
153.81572425
 10
428.51
 20
258.81572425
 10
427.215904774
 20
253.986095119
  0
LINE
  5
1B3
330
1F
100
AcDbEntity
  8
7
  6
Continuous
 62
     2
100
AcDbLine
 10
428.51
 20
258.81572425
 30
0.0
 11
429.804095226
 21
253.986095119
 31
0.0
  0
LINE
  5
1B4
330
1F
100
AcDbEntity
  8
7
  6
Continuous
 62
     2
100
AcDbLine
 10
418.51
 20
258.81572425
 30
0.0
 11
432.51
 21
258.81572425
 31
0.0
  0
MTEXT
  5
1B5
330
1F
100
AcDbEntity
  8
7
  6
Continuous
 62
     2
100
AcDbMText
 10
426.51
 20
200.31572425
 30
0.0
 40
6.0
 41
24.0
 71
     7
 72
     1
  1
\T1.167;\W0.600;１０５
  7
KANJI7
 11
0.0
 21
1.0
 31
0.0
 73
     1
 44
1.0
  0
LINE
  5
1B6
330
1F
100
AcDbEntity
  8
7
  6
Continuous
 62
     2
100
AcDbLine
 10
327.680858608
 20
262.461099458
 30
0.0
 11
308.844075522
 21
243.624316373
 31
0.0
  0
LINE
  5
1B7
330
1F
100
AcDbEntity
  8
7
  6
Continuous
 62
     2
100
AcDbLine
 10
311.672502647
 20
246.452743497
 30
0.0
 11
316.002629666
 21
243.952743497
 31
0.0
  0
LINE
  5
1B8
330
1F
100
AcDbEntity
  8
7
  6
Continuous
 62
     2
100
AcDbLine
 10
311.672502647
 20
246.452743497
 30
0.0
 11
314.172502647
 21
242.122616478
 31
0.0
  0
LWPOLYLINE
  5
1BA
330
1F
100
AcDbEntity
  8
7
  6
Continuous
 62
     2
100
AcDbPolyline
 90
     3
 70
   128
 43
0.0
 10
311.672502647
 20
246.452743497
 42
0.198912367
 10
349.51
 20
230.779938927
 42
0.0
 10
344.680370869
 20
229.485843702
 42
0.0
  0
LINE
  5
1BB
330
1F
100
AcDbEntity
  8
7
  6
Continuous
 62
     2
100
AcDbLine
 10
349.51
 20
230.779938927
 30
0.0
 11
344.680370869
 21
232.074034153
 31
0.0
  0
MTEXT
  5
1BC
330
1F
100
AcDbEntity
  8
7
  6
Continuous
 62
     2
100
AcDbMText
 10
324.383719359
 20
239.308788932
 30
0.0
 40
6.0
 41
24.0
 71
     7
 72
     1
  1
\T1.167;\W0.600;４５゜
  7
KANJI7
 11
0.923879533
 21
-0.382683432
 31
0.0
 73
     1
 44
1.0
  0
LINE
  5
1BD
330
1F
100
AcDbEntity
  8
7
  6
Continuous
 62
     2
100
AcDbLine
 10
371.8
 20
251.31572425
 30
0.0
 11
367.808086724
 21
248.304972119
 31
0.0
  0
LINE
  5
1BE
330
1F
100
AcDbEntity
  8
7
  6
Continuous
 62
     2
100
AcDbLine
 10
371.8
 20
251.31572425
 30
0.0
 11
369.848277759
 21
246.712379782
 31
0.0
  0
LINE
  5
1BF
330
1F
100
AcDbEntity
  8
7
  6
Continuous
 62
     2
100
AcDbLine
 10
371.8
 20
251.31572425
 30
0.0
 11
343.62
 21
215.21572425
 31
0.0
  0
LINE
  5
1C0
330
1F
100
AcDbEntity
  8
7
  6
Continuous
 62
     2
100
AcDbLine
 10
356.24
 20
170.30572425
 30
0.0
 11
354.367009101
 21
174.941660519
 31
0.0
  0
LINE
  5
1C1
330
1F
100
AcDbEntity
  8
7
  6
Continuous
 62
     2
100
AcDbLine
 10
356.24
 20
170.30572425
 30
0.0
 11
352.299974166
 21
173.38406738
 31
0.0
  0
LWPOLYLINE
  5
1C3
330
1F
100
AcDbEntity
  8
7
  6
Continuous
 62
     2
100
AcDbPolyline
 90
     3
 70
   128
 43
0.0
 10
356.24
 20
170.30572425
 10
339.21
 20
192.90572425
 10
317.31
 20
192.90572425
  0
MTEXT
  5
1C4
330
1F
100
AcDbEntity
  8
7
  6
Continuous
 62
     2
100
AcDbMText
 10
317.31
 20
194.90572425
 30
0.0
 40
6.0
 41
43.8
 71
     7
 72
     1
  1
\T1.111;\W0.557;８－φ４．２
  7
KANJI3
 73
     1
 44
1.0
  0
MTEXT
  5
1C5
330
1F
100
AcDbEntity
  8
7
  6
Continuous
 62
     2
100
AcDbMText
 10
309.31
 20
184.90572425
 30
0.0
 40
6.0
 41
58.8
 71
     7
 72
     1
  1
\T1.111;\W0.900;皿モミ加工
  7
KANJI3
 73
     1
 44
1.0
  0
LINE
  5
1C6
330
1F
100
AcDbEntity
  8
3
  6
Continuous
 62
     2
100
AcDbLine
 10
210.51
 20
265.31572425
 30
0.0
 11
210.51
 21
252.31572425
 31
0.0
  0
LINE
  5
1C7
330
1F
100
AcDbEntity
  8
3
  6
Continuous
 62
     2
100
AcDbLine
 10
217.01
 20
265.31572425
 30
0.0
 11
210.51
 21
265.31572425
 31
0.0
  0
LINE
  5
1C8
330
1F
100
AcDbEntity
  8
3
  6
Continuous
 62
     2
100
AcDbLine
 10
217.01
 20
252.31572425
 30
0.0
 11
210.51
 21
252.31572425
 31
0.0
  0
LINE
  5
1C9
330
1F
100
AcDbEntity
  8
3
  6
Continuous
 62
     2
100
AcDbLine
 10
210.51
 20
205.31572425
 30
0.0
 11
210.51
 21
192.31572425
 31
0.0
  0
LINE
  5
1CA
330
1F
100
AcDbEntity
  8
3
  6
Continuous
 62
     2
100
AcDbLine
 10
217.01
 20
205.31572425
 30
0.0
 11
210.51
 21
205.31572425
 31
0.0
  0
LINE
  5
1CB
330
1F
100
AcDbEntity
  8
3
  6
Continuous
 62
     2
100
AcDbLine
 10
217.01
 20
192.31572425
 30
0.0
 11
210.51
 21
192.31572425
 31
0.0
  0
LINE
  5
1CC
330
1F
100
AcDbEntity
  8
7
  6
Continuous
 62
     2
100
AcDbLine
 10
217.01
 20
228.81572425
 30
0.0
 11
212.180370869
 21
230.109819476
 31
0.0
  0
LINE
  5
1CD
330
1F
100
AcDbEntity
  8
7
  6
Continuous
 62
     2
100
AcDbLine
 10
217.01
 20
228.81572425
 30
0.0
 11
212.180370869
 21
227.521629024
 31
0.0
  0
LWPOLYLINE
  5
1CF
330
1F
100
AcDbEntity
  8
7
  6
Continuous
 62
     2
100
AcDbPolyline
 90
     4
 70
   128
 43
0.0
 10
197.51
 20
228.81572425
 10
217.01
 20
228.81572425
 10
220.21
 20
228.81572425
 10
227.71
 20
228.81572425
  0
LINE
  5
1D0
330
1F
100
AcDbEntity
  8
7
  6
Continuous
 62
     2
100
AcDbLine
 10
220.21
 20
228.81572425
 30
0.0
 11
225.039629131
 21
227.521629024
 31
0.0
  0
LINE
  5
1D1
330
1F
100
AcDbEntity
  8
7
  6
Continuous
 62
     2
100
AcDbLine
 10
220.21
 20
228.81572425
 30
0.0
 11
225.039629131
 21
230.109819476
 31
0.0
  0
MTEXT
  5
1D2
330
1F
100
AcDbEntity
  8
7
  6
Continuous
 62
     2
100
AcDbMText
 10
197.51
 20
230.81572425
 30
0.0
 40
6.0
 41
24.0
 71
     7
 72
     1
  1
\T1.167;\W0.600;３．２
  7
KANJI6
 73
     1
 44
1.0
  0
LINE
  5
1D3
330
1F
100
AcDbEntity
  8
7
  6
Continuous
 62
     2
100
AcDbLine
 10
343.62
 20
215.21572425
 30
0.0
 11
307.62
 21
215.21572425
 31
0.0
  0
MTEXT
  5
1D4
330
1F
100
AcDbEntity
  8
7
  6
Continuous
 62
     2
100
AcDbMText
 10
307.62
 20
217.21572425
 30
0.0
 40
6.0
 41
72.0
 71
     7
 72
     1
  1
\T1.111;\W0.783;Ｍ６溶接ナット
  7
KANJI3
 73
     1
 44
1.0
  0
LINE
  5
1D5
330
1F
100
AcDbEntity
  8
7
  6
Continuous
 62
     2
100
AcDbLine
 10
428.51
 20
258.81572425
 30
0.0
 11
429.804095226
 21
263.645353381
 31
0.0
  0
LINE
  5
1D6
330
1F
100
AcDbEntity
  8
7
  6
Continuous
 62
     2
100
AcDbLine
 10
428.51
 20
258.81572425
 30
0.0
 11
427.215904774
 21
263.645353381
 31
0.0
  0
LWPOLYLINE
  5
1D8
330
1F
100
AcDbEntity
  8
7
  6
Continuous
 62
     2
100
AcDbPolyline
 90
     3
 70
   128
 43
0.0
 10
428.51
 20
258.81572425
 10
428.51
 20
283.81572425
 10
427.215904774
 20
278.986095119
  0
LINE
  5
1D9
330
1F
100
AcDbEntity
  8
7
  6
Continuous
 62
     2
100
AcDbLine
 10
428.51
 20
283.81572425
 30
0.0
 11
429.804095226
 21
278.986095119
 31
0.0
  0
LINE
  5
1DA
330
1F
100
AcDbEntity
  8
7
  6
Continuous
 62
     2
100
AcDbLine
 10
406.51
 20
283.81572425
 30
0.0
 11
432.51
 21
283.81572425
 31
0.0
  0
MTEXT
  5
1DB
330
1F
100
AcDbEntity
  8
7
  6
Continuous
 62
     2
100
AcDbMText
 10
426.51
 20
263.21572425
 30
0.0
 40
6.0
 41
32.4
 71
     7
 72
     1
  1
\T1.167;\W0.600;（２５）
  7
KANJI7
 11
0.0
 21
1.0
 31
0.0
 73
     1
 44
1.0
  0
LINE
  5
1DC
330
1F
100
AcDbEntity
  8
7
  6
Continuous
 62
     2
100
AcDbLine
 10
430.51
 20
73.81572425
 30
0.0
 11
444.51
 21
73.81572425
 31
0.0
  0
LINE
  5
1DD
330
1F
100
AcDbEntity
  8
7
  6
Continuous
 62
     2
100
AcDbLine
 10
440.51
 20
73.81572425
 30
0.0
 11
441.804095226
 21
78.645353381
 31
0.0
  0
LINE
  5
1DE
330
1F
100
AcDbEntity
  8
7
  6
Continuous
 62
     2
100
AcDbLine
 10
440.51
 20
73.81572425
 30
0.0
 11
439.215904774
 21
78.645353381
 31
0.0
  0
LWPOLYLINE
  5
1E0
330
1F
100
AcDbEntity
  8
7
  6
Continuous
 62
     2
100
AcDbPolyline
 90
     3
 70
   128
 43
0.0
 10
440.51
 20
73.81572425
 10
440.51
 20
283.81572425
 10
439.215904774
 20
278.986095119
  0
LINE
  5
1E1
330
1F
100
AcDbEntity
  8
7
  6
Continuous
 62
     2
100
AcDbLine
 10
440.51
 20
283.81572425
 30
0.0
 11
441.804095226
 21
278.986095119
 31
0.0
  0
LINE
  5
1E2
330
1F
100
AcDbEntity
  8
7
  6
Continuous
 62
     2
100
AcDbLine
 10
430.51
 20
283.81572425
 30
0.0
 11
444.51
 21
283.81572425
 31
0.0
  0
MTEXT
  5
1E3
330
1F
100
AcDbEntity
  8
7
  6
Continuous
 62
     2
100
AcDbMText
 10
438.51
 20
172.81572425
 30
0.0
 40
6.0
 41
24.0
 71
     7
 72
     1
  1
\T1.167;\W0.600;２１０
  7
KANJI7
 11
0.0
 21
1.0
 31
0.0
 73
     1
 44
1.0
  0
LINE
  5
1E4
330
1F
100
AcDbEntity
  8
7
  6
Continuous
 62
     2
100
AcDbLine
 10
297.9
 20
319.76572425
 30
0.0
 11
300.780884553
 21
323.852349287
 31
0.0
  0
LINE
  5
1E5
330
1F
100
AcDbEntity
  8
7
  6
Continuous
 62
     2
100
AcDbLine
 10
297.9
 20
319.76572425
 30
0.0
 11
298.35160669
 21
324.745287624
 31
0.0
  0
LWPOLYLINE
  5
1E7
330
1F
100
AcDbEntity
  8
7
  6
Continuous
 62
     2
100
AcDbPolyline
 90
     3
 70
   128
 43
0.0
 10
297.9
 20
319.76572425
 10
304.52
 20
337.77572425
 10
316.52
 20
337.77572425
  0
MTEXT
  5
1E8
330
1F
100
AcDbEntity
  8
7
  6
Continuous
 62
     2
100
AcDbMText
 10
304.52
 20
339.77572425
 30
0.0
 40
6.0
 41
24.0
 71
     7
 72
     1
  1
\T1.111;\W0.621;φ１０
  7
KANJI3
 73
     1
 44
1.0
  0
CIRCLE
  5
1E9
330
1F
100
AcDbEntity
  8
4
  6
Continuous
 62
     1
100
AcDbCircle
 10
377.01
 20
258.81572425
 30
0.0
 40
4.5
  0
CIRCLE
  5
1EA
330
1F
100
AcDbEntity
  8
4
  6
Continuous
 62
     1
100
AcDbCircle
 10
377.01
 20
198.81572425
 30
0.0
 40
4.5
  0
LINE
  5
1EB
330
1F
100
AcDbEntity
  8
4
  6
Continuous
 62
     1
100
AcDbLine
 10
220.21
 20
314.31572425
 30
0.0
 11
220.21
 21
369.31572425
 31
0.0
  0
LINE
  5
1EC
330
1F
100
AcDbEntity
  8
4
  6
LTYPE1
 62
     2
100
AcDbLine
 10
217.01
 20
314.31572425
 30
0.0
 11
217.01
 21
369.31572425
 31
0.0
  0
LINE
  5
1ED
330
1F
100
AcDbEntity
  8
4
  6
Continuous
 62
     1
100
AcDbLine
 10
220.21
 20
314.31572425
 30
0.0
 11
204.71
 21
314.31572425
 31
0.0
  0
LINE
  5
1EE
330
1F
100
AcDbEntity
  8
4
  6
Continuous
 62
     1
100
AcDbLine
 10
90.21
 20
319.31572425
 30
0.0
 11
90.21
 21
364.31572425
 31
0.0
  0
ARC
  5
1EF
330
1F
100
AcDbEntity
  8
4
  6
Continuous
 62
     1
100
AcDbCircle
 10
95.21
 20
319.31572425
 30
0.0
 40
5.0
100
AcDbArc
 50
180.0
 51
269.999912573
  0
LINE
  5
1F0
330
1F
100
AcDbEntity
  8
4
  6
Continuous
 62
     1
100
AcDbLine
 10
165.71
 20
314.31572425
 30
0.0
 11
95.209992371
 21
314.31572425
 31
0.0
  0
ARC
  5
1F1
330
1F
100
AcDbEntity
  8
4
  6
Continuous
 62
     1
100
AcDbCircle
 10
95.21
 20
364.31572425
 30
0.0
 40
5.0
100
AcDbArc
 50
90.000123638
 51
180.0
  0
LINE
  5
1F2
330
1F
100
AcDbEntity
  8
4
  6
Continuous
 62
     1
100
AcDbLine
 10
220.21
 20
369.31572425
 30
0.0
 11
95.20998921
 21
369.31572425
 31
0.0
  0
LINE
  5
1F3
330
1F
100
AcDbEntity
  8
4
  6
LTYPE2
 62
     2
100
AcDbLine
 10
220.21
 20
341.81572425
 30
0.0
 11
90.21
 21
341.81572425
 31
0.0
  0
CIRCLE
  5
1F4
330
1F
100
AcDbEntity
  8
4
  6
Continuous
 62
     1
100
AcDbCircle
 10
100.21
 20
321.81572425
 30
0.0
 40
3.6
  0
CIRCLE
  5
1F5
330
1F
100
AcDbEntity
  8
4
  6
Continuous
 62
     1
100
AcDbCircle
 10
100.21
 20
361.81572425
 30
0.0
 40
3.6
  0
LINE
  5
1F6
330
1F
100
AcDbEntity
  8
4
  6
Continuous
 62
     1
100
AcDbLine
 10
202.71
 20
311.083491203
 30
0.0
 11
167.71
 21
311.083491203
 31
0.0
  0
LINE
  5
1F7
330
1F
100
AcDbEntity
  8
4
  6
LTYPE1
 62
     2
100
AcDbLine
 10
202.71
 20
312.408974603
 30
0.0
 11
167.71
 21
312.408974603
 31
0.0
  0
ARC
  5
1F8
330
1F
100
AcDbEntity
  8
4
  6
Continuous
 62
     1
100
AcDbCircle
 10
165.71
 20
312.31572425
 30
0.0
 40
2.0
100
AcDbArc
 50
0.0
 51
90.0
  0
ARC
  5
1F9
330
1F
100
AcDbEntity
  8
4
  6
Continuous
 62
     1
100
AcDbCircle
 10
204.71
 20
312.31572425
 30
0.0
 40
2.0
100
AcDbArc
 50
90.0
 51
180.0
  0
ELLIPSE
  5
1FA
330
1F
100
AcDbEntity
  8
4
  6
Continuous
 62
     1
100
AcDbEllipse
 10
185.21
 20
300.476889485
 30
0.0
 11
5.0
 21
0.0
 31
0.0
 40
0.707106781
 41
0.0
 42
6.283185307
  0
ELLIPSE
  5
1FB
330
1F
100
AcDbEntity
  8
4
  6
Continuous
 62
     1
100
AcDbEllipse
 10
185.21
 20
302.739631185
 30
0.0
 11
5.0
 21
0.0
 31
0.0
 40
0.707106781
 41
3.467322141
 42
5.95745582
  0
LINE
  5
1FC
330
1F
100
AcDbEntity
  8
4
  6
Continuous
 62
     1
100
AcDbLine
 10
197.709984741
 20
291.63805472
 30
0.0
 11
172.709974696
 21
291.63805472
 31
0.0
  0
LINE
  5
1FD
330
1F
100
AcDbEntity
  8
4
  6
Continuous
 62
     1
100
AcDbLine
 10
167.71
 20
312.31572425
 30
0.0
 11
167.71
 21
295.173603885
 31
0.0
  0
ELLIPSE
  5
1FE
330
1F
100
AcDbEntity
  8
4
  6
Continuous
 62
     1
100
AcDbEllipse
 10
172.71
 20
295.173588626
 30
0.0
 11
5.0
 21
0.0
 31
0.0
 40
0.707106781
 41
3.141588338
 42
4.712384155
  0
ELLIPSE
  5
1FF
330
1F
100
AcDbEntity
  8
4
  6
Continuous
 62
     1
100
AcDbEllipse
 10
197.71
 20
295.173588626
 30
0.0
 11
5.0
 21
0.0
 31
0.0
 40
0.707106781
 41
4.712385929
 42
0.000003052
  0
LINE
  5
200
330
1F
100
AcDbEntity
  8
4
  6
Continuous
 62
     1
100
AcDbLine
 10
202.71
 20
312.31572425
 30
0.0
 11
202.71
 21
295.173599416
 31
0.0
  0
CIRCLE
  5
201
330
1F
100
AcDbEntity
  8
4
  6
Continuous
 62
     1
100
AcDbCircle
 10
195.21
 20
321.81572425
 30
0.0
 40
3.6
  0
CIRCLE
  5
202
330
1F
100
AcDbEntity
  8
4
  6
Continuous
 62
     1
100
AcDbCircle
 10
195.21
 20
361.81572425
 30
0.0
 40
3.6
  0
LINE
  5
203
330
1F
100
AcDbEntity
  8
7
  6
Continuous
 62
     2
100
AcDbLine
 10
222.21
 20
369.31572425
 30
0.0
 11
236.21
 21
369.31572425
 31
0.0
  0
LINE
  5
204
330
1F
100
AcDbEntity
  8
7
  6
Continuous
 62
     2
100
AcDbLine
 10
232.21
 20
369.31572425
 30
0.0
 11
230.915904774
 21
364.486095119
 31
0.0
  0
LINE
  5
205
330
1F
100
AcDbEntity
  8
7
  6
Continuous
 62
     2
100
AcDbLine
 10
232.21
 20
369.31572425
 30
0.0
 11
233.504095226
 21
364.486095119
 31
0.0
  0
LWPOLYLINE
  5
207
330
1F
100
AcDbEntity
  8
7
  6
Continuous
 62
     2
100
AcDbPolyline
 90
     3
 70
   128
 43
0.0
 10
232.21
 20
369.31572425
 10
232.21
 20
314.31572425
 10
233.504095226
 20
319.145353381
  0
LINE
  5
208
330
1F
100
AcDbEntity
  8
7
  6
Continuous
 62
     2
100
AcDbLine
 10
232.21
 20
314.31572425
 30
0.0
 11
230.915904774
 21
319.145353381
 31
0.0
  0
LINE
  5
209
330
1F
100
AcDbEntity
  8
7
  6
Continuous
 62
     2
100
AcDbLine
 10
222.21
 20
314.31572425
 30
0.0
 11
236.21
 21
314.31572425
 31
0.0
  0
MTEXT
  5
20A
330
1F
100
AcDbEntity
  8
7
  6
Continuous
 62
     2
100
AcDbMText
 10
230.21
 20
337.91572425
 30
0.0
 40
6.0
 41
15.6
 71
     7
 72
     1
  1
\T1.167;\W0.600;５５
  7
KANJI6
 11
0.0
 21
1.0
 31
0.0
 73
     1
 44
1.0
  0
LINE
  5
20B
330
1F
100
AcDbEntity
  8
7
  6
Continuous
 62
     2
100
AcDbLine
 10
106.21
 20
361.81572425
 30
0.0
 11
74.21
 21
361.81572425
 31
0.0
  0
LINE
  5
20C
330
1F
100
AcDbEntity
  8
7
  6
Continuous
 62
     2
100
AcDbLine
 10
78.21
 20
361.81572425
 30
0.0
 11
76.915904774
 21
356.986095119
 31
0.0
  0
LINE
  5
20D
330
1F
100
AcDbEntity
  8
7
  6
Continuous
 62
     2
100
AcDbLine
 10
78.21
 20
361.81572425
 30
0.0
 11
79.504095226
 21
356.986095119
 31
0.0
  0
LWPOLYLINE
  5
20F
330
1F
100
AcDbEntity
  8
7
  6
Continuous
 62
     2
100
AcDbPolyline
 90
     3
 70
   128
 43
0.0
 10
78.21
 20
361.81572425
 10
78.21
 20
321.81572425
 10
79.504095226
 20
326.645353381
  0
LINE
  5
210
330
1F
100
AcDbEntity
  8
7
  6
Continuous
 62
     2
100
AcDbLine
 10
78.21
 20
321.81572425
 30
0.0
 11
76.915904774
 21
326.645353381
 31
0.0
  0
LINE
  5
211
330
1F
100
AcDbEntity
  8
7
  6
Continuous
 62
     2
100
AcDbLine
 10
106.21
 20
321.81572425
 30
0.0
 11
74.21
 21
321.81572425
 31
0.0
  0
MTEXT
  5
212
330
1F
100
AcDbEntity
  8
7
  6
Continuous
 62
     2
100
AcDbMText
 10
76.21
 20
337.91572425
 30
0.0
 40
6.0
 41
15.6
 71
     7
 72
     1
  1
\T1.167;\W0.600;４０
  7
KANJI6
 11
0.0
 21
1.0
 31
0.0
 73
     1
 44
1.0
  0
LINE
  5
213
330
1F
100
AcDbEntity
  8
7
  6
Continuous
 62
     2
100
AcDbLine
 10
90.21
 20
366.31572425
 30
0.0
 11
90.21
 21
385.31572425
 31
0.0
  0
LINE
  5
214
330
1F
100
AcDbEntity
  8
7
  6
Continuous
 62
     2
100
AcDbLine
 10
90.21
 20
381.31572425
 30
0.0
 11
85.380370869
 21
382.609819476
 31
0.0
  0
LINE
  5
215
330
1F
100
AcDbEntity
  8
7
  6
Continuous
 62
     2
100
AcDbLine
 10
90.21
 20
381.31572425
 30
0.0
 11
85.380370869
 21
380.021629024
 31
0.0
  0
LWPOLYLINE
  5
217
330
1F
100
AcDbEntity
  8
7
  6
Continuous
 62
     2
100
AcDbPolyline
 90
     4
 70
   128
 43
0.0
 10
82.71
 20
381.31572425
 10
90.21
 20
381.31572425
 10
100.21
 20
381.31572425
 10
107.71
 20
381.31572425
  0
LINE
  5
218
330
1F
100
AcDbEntity
  8
7
  6
Continuous
 62
     2
100
AcDbLine
 10
100.21
 20
381.31572425
 30
0.0
 11
105.039629131
 21
380.021629024
 31
0.0
  0
LINE
  5
219
330
1F
100
AcDbEntity
  8
7
  6
Continuous
 62
     2
100
AcDbLine
 10
100.21
 20
381.31572425
 30
0.0
 11
105.039629131
 21
382.609819476
 31
0.0
  0
LINE
  5
21A
330
1F
100
AcDbEntity
  8
7
  6
Continuous
 62
     2
100
AcDbLine
 10
100.21
 20
355.81572425
 30
0.0
 11
100.21
 21
385.31572425
 31
0.0
  0
MTEXT
  5
21B
330
1F
100
AcDbEntity
  8
7
  6
Continuous
 62
     2
100
AcDbMText
 10
91.31
 20
383.31572425
 30
0.0
 40
6.0
 41
15.6
 71
     7
 72
     1
  1
\T1.167;\W0.600;１０
  7
KANJI6
 73
     1
 44
1.0
  0
LINE
  5
21C
330
1F
100
AcDbEntity
  8
7
  6
Continuous
 62
     2
100
AcDbLine
 10
100.21
 20
381.31572425
 30
0.0
 11
105.039629131
 21
380.021629024
 31
0.0
  0
LINE
  5
21D
330
1F
100
AcDbEntity
  8
7
  6
Continuous
 62
     2
100
AcDbLine
 10
100.21
 20
381.31572425
 30
0.0
 11
105.039629131
 21
382.609819476
 31
0.0
  0
LWPOLYLINE
  5
21F
330
1F
100
AcDbEntity
  8
7
  6
Continuous
 62
     2
100
AcDbPolyline
 90
     3
 70
   128
 43
0.0
 10
100.21
 20
381.31572425
 10
195.21
 20
381.31572425
 10
190.380370869
 20
382.609819476
  0
LINE
  5
220
330
1F
100
AcDbEntity
  8
7
  6
Continuous
 62
     2
100
AcDbLine
 10
195.21
 20
381.31572425
 30
0.0
 11
190.380370869
 21
380.021629024
 31
0.0
  0
LINE
  5
221
330
1F
100
AcDbEntity
  8
7
  6
Continuous
 62
     2
100
AcDbLine
 10
195.21
 20
355.81572425
 30
0.0
 11
195.21
 21
385.31572425
 31
0.0
  0
MTEXT
  5
222
330
1F
100
AcDbEntity
  8
7
  6
Continuous
 62
     2
100
AcDbMText
 10
143.81
 20
383.31572425
 30
0.0
 40
6.0
 41
15.6
 71
     7
 72
     1
  1
\T1.167;\W0.600;９５
  7
KANJI6
 73
     1
 44
1.0
  0
LINE
  5
223
330
1F
100
AcDbEntity
  8
7
  6
Continuous
 62
     2
100
AcDbLine
 10
195.21
 20
381.31572425
 30
0.0
 11
200.039629131
 21
380.021629024
 31
0.0
  0
LINE
  5
224
330
1F
100
AcDbEntity
  8
7
  6
Continuous
 62
     2
100
AcDbLine
 10
195.21
 20
381.31572425
 30
0.0
 11
200.039629131
 21
382.609819476
 31
0.0
  0
LWPOLYLINE
  5
226
330
1F
100
AcDbEntity
  8
7
  6
Continuous
 62
     2
100
AcDbPolyline
 90
     3
 70
   128
 43
0.0
 10
195.21
 20
381.31572425
 10
220.21
 20
381.31572425
 10
215.380370869
 20
382.609819476
  0
LINE
  5
227
330
1F
100
AcDbEntity
  8
7
  6
Continuous
 62
     2
100
AcDbLine
 10
220.21
 20
381.31572425
 30
0.0
 11
215.380370869
 21
380.021629024
 31
0.0
  0
LINE
  5
228
330
1F
100
AcDbEntity
  8
7
  6
Continuous
 62
     2
100
AcDbLine
 10
220.21
 20
371.31572425
 30
0.0
 11
220.21
 21
385.31572425
 31
0.0
  0
MTEXT
  5
229
330
1F
100
AcDbEntity
  8
7
  6
Continuous
 62
     2
100
AcDbMText
 10
199.61
 20
383.31572425
 30
0.0
 40
6.0
 41
32.4
 71
     7
 72
     1
  1
\T1.167;\W0.600;（２５）
  7
KANJI6
 73
     1
 44
1.0
  0
LINE
  5
22A
330
1F
100
AcDbEntity
  8
7
  6
Continuous
 62
     2
100
AcDbLine
 10
103.3
 20
326.853491203
 30
0.0
 11
107.127203611
 21
330.071023257
 31
0.0
  0
LINE
  5
22B
330
1F
100
AcDbEntity
  8
7
  6
Continuous
 62
     2
100
AcDbLine
 10
103.3
 20
326.853491203
 30
0.0
 11
105.005689526
 21
331.553557505
 31
0.0
  0
LWPOLYLINE
  5
22D
330
1F
100
AcDbEntity
  8
7
  6
Continuous
 62
     2
100
AcDbPolyline
 90
     3
 70
   128
 43
0.0
 10
103.3
 20
326.853491203
 10
120.91
 20
352.053491203
 10
142.81
 20
352.053491203
  0
MTEXT
  5
22E
330
1F
100
AcDbEntity
  8
7
  6
Continuous
 62
     2
100
AcDbMText
 10
120.91
 20
354.053491203
 30
0.0
 40
6.0
 41
43.8
 71
     7
 72
     1
  1
\T1.111;\W0.557;４－φ７．２
  7
KANJI3
 73
     1
 44
1.0
  0
LINE
  5
22F
330
1F
100
AcDbEntity
  8
7
  6
Continuous
 62
     2
100
AcDbLine
 10
220.21
 20
383.31572425
 30
0.0
 11
220.21
 21
397.31572425
 31
0.0
  0
LINE
  5
230
330
1F
100
AcDbEntity
  8
7
  6
Continuous
 62
     2
100
AcDbLine
 10
220.21
 20
393.31572425
 30
0.0
 11
215.380370869
 21
394.609819476
 31
0.0
  0
LINE
  5
231
330
1F
100
AcDbEntity
  8
7
  6
Continuous
 62
     2
100
AcDbLine
 10
220.21
 20
393.31572425
 30
0.0
 11
215.380370869
 21
392.021629024
 31
0.0
  0
LWPOLYLINE
  5
233
330
1F
100
AcDbEntity
  8
7
  6
Continuous
 62
     2
100
AcDbPolyline
 90
     3
 70
   128
 43
0.0
 10
220.21
 20
393.31572425
 10
90.21
 20
393.31572425
 10
95.039629131
 20
392.021629024
  0
LINE
  5
234
330
1F
100
AcDbEntity
  8
7
  6
Continuous
 62
     2
100
AcDbLine
 10
90.21
 20
393.31572425
 30
0.0
 11
95.039629131
 21
394.609819476
 31
0.0
  0
LINE
  5
235
330
1F
100
AcDbEntity
  8
7
  6
Continuous
 62
     2
100
AcDbLine
 10
90.21
 20
383.31572425
 30
0.0
 11
90.21
 21
397.31572425
 31
0.0
  0
MTEXT
  5
236
330
1F
100
AcDbEntity
  8
7
  6
Continuous
 62
     2
100
AcDbMText
 10
149.21
 20
395.31572425
 30
0.0
 40
6.0
 41
24.0
 71
     7
 72
     1
  1
\T1.167;\W0.600;１３０
  7
KANJI7
 73
     1
 44
1.0
  0
LINE
  5
237
330
1F
100
AcDbEntity
  8
7
  6
Continuous
 62
     2
100
AcDbLine
 10
167.71
 20
301.173603885
 30
0.0
 11
162.880370869
 21
302.46769911
 31
0.0
  0
LINE
  5
238
330
1F
100
AcDbEntity
  8
7
  6
Continuous
 62
     2
100
AcDbLine
 10
167.71
 20
301.173603885
 30
0.0
 11
162.880370869
 21
299.879508659
 31
0.0
  0
LWPOLYLINE
  5
23A
330
1F
100
AcDbEntity
  8
7
  6
Continuous
 62
     2
100
AcDbPolyline
 90
     3
 70
   128
 43
0.0
 10
167.71
 20
301.173603885
 10
90.21
 20
301.173603885
 10
95.039629131
 20
299.879508659
  0
LINE
  5
23B
330
1F
100
AcDbEntity
  8
7
  6
Continuous
 62
     2
100
AcDbLine
 10
90.21
 20
301.173603885
 30
0.0
 11
95.039629131
 21
302.46769911
 31
0.0
  0
LINE
  5
23C
330
1F
100
AcDbEntity
  8
7
  6
Continuous
 62
     2
100
AcDbLine
 10
90.21
 20
317.31572425
 30
0.0
 11
90.21
 21
297.173603885
 31
0.0
  0
MTEXT
  5
23D
330
1F
100
AcDbEntity
  8
7
  6
Continuous
 62
     2
100
AcDbMText
 10
120.86
 20
303.173603885
 30
0.0
 40
6.0
 41
32.4
 71
     7
 72
     1
  1
\T1.167;\W0.600;７７．５
  7
KANJI6
 73
     1
 44
1.0
  0
MTEXT
  5
23E
330
1F
100
AcDbEntity
  8
0
  6
Continuous
 62
     2
100
AcDbMText
 10
483.5
 20
86.9
 30
0.0
 40
6.0
 41
79.8
 71
     7
 72
     1
  1
\T1.111;\W0.672;ＣＴＬＢ１　全体図
  7
KANJI3
 73
     1
 44
1.0
  0
MTEXT
  5
23F
330
1F
100
AcDbEntity
  8
0
  6
Continuous
 62
     2
100
AcDbMText
 10
443.5
 20
26.9
 30
0.0
 40
6.0
 41
34.8
 71
     7
 72
     1
  1
\T1.111;\W0.900;１／２
  7
KANJI3
 73
     1
 44
1.0
  0
MTEXT
  5
240
330
1F
100
AcDbEntity
  8
0
  6
Continuous
 62
     2
100
AcDbMText
 10
483.5
 20
14.9
 30
0.0
 40
6.0
 41
194.0
 71
     7
 72
     1
  1
\T1.150;\W0.543;ＣＴＬＢ－１　Ｃｏｎｔｒｏｌ１ＰＲＯ用取付アダプター
  7
KANJI8
 73
     1
 44
1.0
  0
MTEXT
  5
242
330
1F
100
AcDbEntity
  8
0
  6
Continuous
 62
     2
100
AcDbMText
 10
393.5
 20
14.9
 30
0.0
 40
6.0
 41
58.2
 71
     7
 72
     1
  1
\T1.111;\W0.900;ＣＴＬＢ１－０００
  7
KANJI5
 73
     1
 44
1.0
  0
MTEXT
  5
243
330
1F
100
AcDbEntity
  8
0
  6
Continuous
 62
     2
100
AcDbMText
 10
483.5
 20
74.9
 30
0.0
 40
6.0
 41
31.8
 71
     7
 72
     1
  1
\T1.111;\W0.900;ＣＴＬＢ１
  7
KANJI5
 73
     1
 44
1.0
  0
MTEXT
  5
244
330
1F
100
AcDbEntity
  8
0
  6
Continuous
 62
     2
100
AcDbMText
 10
483.605
 20
100.24
 30
0.0
 40
8.0
 41
158.8
 71
     7
 72
     1
  1
\T1.081;\W0.925;２個入り１セット梱包
  7
KANJI9
 73
     1
 44
1.0
  0
MTEXT
  5
246
330
1F
100
AcDbEntity
  8
0
  6
Continuous
 62
     2
100
AcDbMText
 10
17.88
 20
57.86
 30
0.0
 40
8.0
 41
62.8
 71
     7
 72
     1
  1
\T1.081;\W0.925;添付ネジ
  7
KANJI9
 73
     1
 44
1.0
  0
MTEXT
  5
247
330
1F
100
AcDbEntity
  8
0
  6
Continuous
 62
     2
100
AcDbMText
 10
17.88
 20
47.86
 30
0.0
 40
8.0
 41
62.8
 71
     7
 72
     1
  1
\T1.081;\W0.925;皿小ネジ
  7
KANJI9
 73
     1
 44
1.0
  0
MTEXT
  5
248
330
1F
100
AcDbEntity
  8
0
  6
Continuous
 62
     2
100
AcDbMText
 10
17.88
 20
37.86
 30
0.0
 40
8.0
 41
78.8
 71
     7
 72
     1
  1
\T1.081;\W0.925;ワッシャー
  7
KANJI9
 73
     1
 44
1.0
  0
MTEXT
  5
249
330
1F
100
AcDbEntity
  8
0
  6
Continuous
 62
     2
100
AcDbMText
 10
17.88
 20
27.86
 30
0.0
 40
8.0
 41
158.8
 71
     7
 72
     1
  1
\T1.081;\W0.925;スプリングワッシャー
  7
KANJI9
 73
     1
 44
1.0
  0
MTEXT
  5
24A
330
1F
100
AcDbEntity
  8
0
  6
Continuous
 62
     2
100
AcDbMText
 10
17.88
 20
17.86
 30
0.0
 40
8.0
 41
46.8
 71
     7
 72
     1
  1
\T1.081;\W0.925;ナット
  7
KANJI9
 73
     1
 44
1.0
  0
MTEXT
  5
24B
330
1F
100
AcDbEntity
  8
0
  6
Continuous
 62
     2
100
AcDbMText
 10
102.88
 20
47.86
 30
0.0
 40
8.0
 41
41.8
 71
     7
 72
     1
  1
\T1.081;\W0.925;Ｍ４－１５
  7
KANJI10
 73
     1
 44
1.0
  0
MTEXT
  5
24D
330
1F
100
AcDbEntity
  8
0
  6
Continuous
 62
     2
100
AcDbMText
 10
102.88
 20
37.86
 30
0.0
 40
8.0
 41
16.0
 71
     7
 72
     1
  1
\T1.081;\W0.925;Ｍ４
  7
KANJI10
 73
     1
 44
1.0
  0
MTEXT
  5
24E
330
1F
100
AcDbEntity
  8
0
  6
Continuous
 62
     2
100
AcDbMText
 10
102.88
 20
27.86
 30
0.0
 40
8.0
 41
16.0
 71
     7
 72
     1
  1
\T1.081;\W0.925;Ｍ４
  7
KANJI10
 73
     1
 44
1.0
  0
MTEXT
  5
24F
330
1F
100
AcDbEntity
  8
0
  6
Continuous
 62
     2
100
AcDbMText
 10
102.88
 20
17.86
 30
0.0
 40
8.0
 41
16.0
 71
     7
 72
     1
  1
\T1.081;\W0.925;Ｍ４
  7
KANJI10
 73
     1
 44
1.0
  0
MTEXT
  5
250
330
1F
100
AcDbEntity
  8
0
  6
Continuous
 62
     2
100
AcDbMText
 10
127.88
 20
47.86
 30
0.0
 40
8.0
 41
30.8
 71
     7
 72
     1
  1
\T1.081;\W0.925;４個
  7
KANJI9
 73
     1
 44
1.0
  0
MTEXT
  5
251
330
1F
100
AcDbEntity
  8
0
  6
Continuous
 62
     2
100
AcDbMText
 10
127.88
 20
37.86
 30
0.0
 40
8.0
 41
30.8
 71
     7
 72
     1
  1
\T1.081;\W0.925;４個
  7
KANJI9
 73
     1
 44
1.0
  0
MTEXT
  5
252
330
1F
100
AcDbEntity
  8
0
  6
Continuous
 62
     2
100
AcDbMText
 10
127.88
 20
27.86
 30
0.0
 40
8.0
 41
30.8
 71
     7
 72
     1
  1
\T1.081;\W0.925;４個
  7
KANJI9
 73
     1
 44
1.0
  0
MTEXT
  5
253
330
1F
100
AcDbEntity
  8
0
  6
Continuous
 62
     2
100
AcDbMText
 10
127.88
 20
17.86
 30
0.0
 40
8.0
 41
30.8
 71
     7
 72
     1
  1
\T1.081;\W0.925;４個
  7
KANJI9
 73
     1
 44
1.0
  0
LINE
  5
254
330
1F
100
AcDbEntity
  8
4
  6
LTYPE1
 62
     2
100
AcDbLine
 10
217.56
 20
109.81572425
 30
0.0
 11
219.66
 21
111.91572425
 31
0.0
  0
LINE
  5
255
330
1F
100
AcDbEntity
  8
4
  6
LTYPE1
 62
     2
100
AcDbLine
 10
217.56
 20
105.61572425
 30
0.0
 11
219.66
 21
103.51572425
 31
0.0
  0
LINE
  5
256
330
1F
100
AcDbEntity
  8
4
  6
LTYPE1
 62
     2
100
AcDbLine
 10
217.56
 20
109.81572425
 30
0.0
 11
217.56
 21
105.61572425
 31
0.0
  0
LINE
  5
257
330
1F
100
AcDbEntity
  8
4
  6
LTYPE1
 62
     2
100
AcDbLine
 10
219.66
 20
111.91572425
 30
0.0
 11
219.66
 21
103.51572425
 31
0.0
  0
LINE
  5
258
330
1F
100
AcDbEntity
  8
4
  6
LTYPE1
 62
     2
100
AcDbLine
 10
217.01
 20
109.81572425
 30
0.0
 11
217.56
 21
109.81572425
 31
0.0
  0
LINE
  5
259
330
1F
100
AcDbEntity
  8
4
  6
LTYPE1
 62
     2
100
AcDbLine
 10
217.01
 20
105.61572425
 30
0.0
 11
217.56
 21
105.61572425
 31
0.0
  0
LINE
  5
25A
330
1F
100
AcDbEntity
  8
4
  6
LTYPE1
 62
     2
100
AcDbLine
 10
219.66
 20
103.51572425
 30
0.0
 11
220.21
 21
103.51572425
 31
0.0
  0
LINE
  5
25B
330
1F
100
AcDbEntity
  8
4
  6
LTYPE1
 62
     2
100
AcDbLine
 10
219.66
 20
111.91572425
 30
0.0
 11
220.21
 21
111.91572425
 31
0.0
  0
LINE
  5
25C
330
1F
100
AcDbEntity
  8
4
  6
LTYPE1
 62
     2
100
AcDbLine
 10
217.56
 20
166.81572425
 30
0.0
 11
219.66
 21
168.91572425
 31
0.0
  0
LINE
  5
25D
330
1F
100
AcDbEntity
  8
4
  6
LTYPE1
 62
     2
100
AcDbLine
 10
217.56
 20
162.61572425
 30
0.0
 11
219.66
 21
160.51572425
 31
0.0
  0
LINE
  5
25E
330
1F
100
AcDbEntity
  8
4
  6
LTYPE1
 62
     2
100
AcDbLine
 10
217.56
 20
166.81572425
 30
0.0
 11
217.56
 21
162.61572425
 31
0.0
  0
LINE
  5
25F
330
1F
100
AcDbEntity
  8
4
  6
LTYPE1
 62
     2
100
AcDbLine
 10
219.66
 20
168.91572425
 30
0.0
 11
219.66
 21
160.51572425
 31
0.0
  0
LINE
  5
260
330
1F
100
AcDbEntity
  8
4
  6
LTYPE1
 62
     2
100
AcDbLine
 10
217.01
 20
166.81572425
 30
0.0
 11
217.56
 21
166.81572425
 31
0.0
  0
LINE
  5
261
330
1F
100
AcDbEntity
  8
4
  6
LTYPE1
 62
     2
100
AcDbLine
 10
217.01
 20
162.61572425
 30
0.0
 11
217.56
 21
162.61572425
 31
0.0
  0
LINE
  5
262
330
1F
100
AcDbEntity
  8
4
  6
LTYPE1
 62
     2
100
AcDbLine
 10
219.66
 20
160.51572425
 30
0.0
 11
220.21
 21
160.51572425
 31
0.0
  0
LINE
  5
263
330
1F
100
AcDbEntity
  8
4
  6
LTYPE1
 62
     2
100
AcDbLine
 10
219.66
 20
168.91572425
 30
0.0
 11
220.21
 21
168.91572425
 31
0.0
  0
ENDSEC
  0
SECTION
  2
OBJECTS
  0
DICTIONARY
  5
C
330
0
100
AcDbDictionary
280
     0
281
     1
  3
ACAD_GROUP
350
D
  3
ACAD_LAYOUT
350
1A
  3
ACAD_MLINESTYLE
350
17
  3
ACAD_PLOTSETTINGS
350
19
  3
ACAD_PLOTSTYLENAME
350
E
  0
DICTIONARY
  5
D
102
{ACAD_REACTORS
330
C
102
}
330
C
100
AcDbDictionary
280
     0
281
     1
  0
DICTIONARY
  5
1A
102
{ACAD_REACTORS
330
C
102
}
330
C
100
AcDbDictionary
280
     0
281
     1
  3
Model
350
22
  3
ﾚｲｱｳﾄ1
350
1E
  3
ﾚｲｱｳﾄ2
350
26
  0
LAYOUT
  5
22
102
{ACAD_REACTORS
330
1A
102
}
330
1A
100
AcDbPlotSettings
  1

  2

  4

  6

 40
0.0
 41
0.0
 42
0.0
 43
0.0
 44
0.0
 45
0.0
 46
0.0
 47
0.0
 48
0.0
 49
0.0
140
0.0
141
0.0
142
1.0
143
1.0
 70
  1712
 72
     0
 73
     0
 74
     0
  7

 75
     0
147
1.0
148
0.0
149
0.0
100
AcDbLayout
  1
Model
 70
     1
 71
     0
 10
0.0
 20
0.0
 11
0.0
 21
0.0
 12
0.0
 22
0.0
 32
0.0
 14
0.0
 24
0.0
 34
0.0
 15
0.0
 25
0.0
 35
0.0
146
0.0
 13
0.0
 23
0.0
 33
0.0
 16
1.0
 26
0.0
 36
0.0
 17
0.0
 27
1.0
 37
0.0
 76
     0
330
1F
331
0
345
0
346
0
  0
LAYOUT
  5
1E
102
{ACAD_REACTORS
330
1A
102
}
330
1A
100
AcDbPlotSettings
  1

  2

  4

  6

 40
0.0
 41
0.0
 42
0.0
 43
0.0
 44
0.0
 45
0.0
 46
0.0
 47
0.0
 48
0.0
 49
0.0
140
0.0
141
0.0
142
1.0
143
1.0
 70
   688
 72
     0
 73
     0
 74
     5
  7

 75
    16
147
1.0
148
0.0
149
0.0
100
AcDbLayout
  1
ﾚｲｱｳﾄ1
 70
     1
 71
     1
 10
0.0
 20
0.0
 11
0.0
 21
0.0
 12
0.0
 22
0.0
 32
0.0
 14
0.0
 24
0.0
 34
0.0
 15
0.0
 25
0.0
 35
0.0
146
0.0
 13
0.0
 23
0.0
 33
0.0
 16
1.0
 26
0.0
 36
0.0
 17
0.0
 27
1.0
 37
0.0
 76
     0
330
1B
331
0
345
0
346
0
  0
LAYOUT
  5
26
102
{ACAD_REACTORS
330
1A
102
}
330
1A
100
AcDbPlotSettings
  1

  2

  4

  6

 40
0.0
 41
0.0
 42
0.0
 43
0.0
 44
0.0
 45
0.0
 46
0.0
 47
0.0
 48
0.0
 49
0.0
140
0.0
141
0.0
142
1.0
143
1.0
 70
   688
 72
     0
 73
     0
 74
     5
  7

 75
    16
147
1.0
148
0.0
149
0.0
100
AcDbLayout
  1
ﾚｲｱｳﾄ2
 70
     1
 71
     2
 10
0.0
 20
0.0
 11
0.0
 21
0.0
 12
0.0
 22
0.0
 32
0.0
 14
0.0
 24
0.0
 34
0.0
 15
0.0
 25
0.0
 35
0.0
146
0.0
 13
0.0
 23
0.0
 33
0.0
 16
1.0
 26
0.0
 36
0.0
 17
0.0
 27
1.0
 37
0.0
 76
     0
330
23
331
0
345
0
346
0
  0
DICTIONARY
  5
17
102
{ACAD_REACTORS
330
C
102
}
330
C
100
AcDbDictionary
280
     0
281
     1
  3
Standard
350
18
  0
MLINESTYLE
  5
18
102
{ACAD_REACTORS
330
17
102
}
330
17
100
AcDbMlineStyle
  2
STANDARD
 70
     0
  3

 62
   256
 51
90.0
 52
90.0
 71
     2
 49
0.5
 62
   256
  6
ByLayer
 49
-0.5
 62
   256
  6
ByLayer
  0
DICTIONARY
  5
19
102
{ACAD_REACTORS
330
C
102
}
330
C
100
AcDbDictionary
280
     0
281
     1
  0
ACDBDICTIONARYWDFLT
  5
E
330
C
100
AcDbDictionary
281
     0
  3
Normal
350
F
100
AcDbDictionaryWithDefault
340
F
  0
ACDBPLACEHOLDER
  5
F
102
{ACAD_REACTORS
330
E
102
}
330
E
  0
ENDSEC
  0
EOF
