  0
SECTION
  2
HEADER
  9
$ACADVER
  1
AC1015
  9
$ACADMAINTVER
 70
     6
  9
$DWGCODEPAGE
  3
ANSI_932
  9
$INSBASE
 10
0.0
 20
0.0
 30
0.0
  9
$EXTMIN
 10
-449.9999999999999
 20
-673.9009740195311
 30
0.0
  9
$EXTMAX
 10
449.9999999999999
 20
664.12726
 30
0.0
  9
$LIMMIN
 10
0.0
 20
0.0
  9
$LIMMAX
 10
12.0
 20
9.0
  9
$ORTHOMODE
 70
     0
  9
$REGENMODE
 70
     1
  9
$FILLMODE
 70
     1
  9
$QTEXTMODE
 70
     0
  9
$MIRRTEXT
 70
     1
  9
$LTSCALE
 40
63.5
  9
$ATTMODE
 70
     1
  9
$TEXTSIZE
 40
0.2
  9
$TRACEWID
 40
1.0
  9
$TEXTSTYLE
  7
STANDARD
  9
$CLAYER
  8
__
  9
$CELTYPE
  6
ByLayer
  9
$CECOLOR
 62
   256
  9
$CELTSCALE
 40
1.0
  9
$DISPSILH
 70
     0
  9
$DIMSCALE
 40
1.0
  9
$DIMASZ
 40
0.18
  9
$DIMEXO
 40
0.0625
  9
$DIMDLI
 40
0.38
  9
$DIMRND
 40
0.0
  9
$DIMDLE
 40
0.0
  9
$DIMEXE
 40
0.18
  9
$DIMTP
 40
0.0
  9
$DIMTM
 40
0.0
  9
$DIMTXT
 40
0.18
  9
$DIMCEN
 40
0.09
  9
$DIMTSZ
 40
0.0
  9
$DIMTOL
 70
     0
  9
$DIMLIM
 70
     0
  9
$DIMTIH
 70
     1
  9
$DIMTOH
 70
     1
  9
$DIMSE1
 70
     0
  9
$DIMSE2
 70
     0
  9
$DIMTAD
 70
     0
  9
$DIMZIN
 70
     0
  9
$DIMBLK
  1

  9
$DIMASO
 70
     1
  9
$DIMSHO
 70
     1
  9
$DIMPOST
  1

  9
$DIMAPOST
  1

  9
$DIMALT
 70
     0
  9
$DIMALTD
 70
     2
  9
$DIMALTF
 40
25.4
  9
$DIMLFAC
 40
1.0
  9
$DIMTOFL
 70
     0
  9
$DIMTVP
 40
0.0
  9
$DIMTIX
 70
     0
  9
$DIMSOXD
 70
     0
  9
$DIMSAH
 70
     0
  9
$DIMBLK1
  1

  9
$DIMBLK2
  1

  9
$DIMSTYLE
  2
STANDARD
  9
$DIMCLRD
 70
     0
  9
$DIMCLRE
 70
     0
  9
$DIMCLRT
 70
     0
  9
$DIMTFAC
 40
1.0
  9
$DIMGAP
 40
0.09
  9
$DIMJUST
 70
     0
  9
$DIMSD1
 70
     0
  9
$DIMSD2
 70
     0
  9
$DIMTOLJ
 70
     1
  9
$DIMTZIN
 70
     0
  9
$DIMALTZ
 70
     0
  9
$DIMALTTZ
 70
     0
  9
$DIMUPT
 70
     0
  9
$DIMDEC
 70
     2
  9
$DIMTDEC
 70
     2
  9
$DIMALTU
 70
     2
  9
$DIMALTTD
 70
     2
  9
$DIMTXSTY
  7
STANDARD
  9
$DIMAUNIT
 70
     0
  9
$DIMADEC
 70
     0
  9
$DIMALTRND
 40
0.0
  9
$DIMAZIN
 70
     0
  9
$DIMDSEP
 70
    46
  9
$DIMATFIT
 70
     3
  9
$DIMFRAC
 70
     0
  9
$DIMLDRBLK
  1

  9
$DIMLUNIT
 70
     2
  9
$DIMLWD
 70
    -2
  9
$DIMLWE
 70
    -2
  9
$DIMTMOVE
 70
     2
  9
$LUNITS
 70
     2
  9
$LUPREC
 70
     2
  9
$SKETCHINC
 40
0.1
  9
$FILLETRAD
 40
0.5
  9
$AUNITS
 70
     0
  9
$AUPREC
 70
     1
  9
$MENU
  1
.
  9
$ELEVATION
 40
0.0
  9
$PELEVATION
 40
0.0
  9
$THICKNESS
 40
0.0
  9
$LIMCHECK
 70
     0
  9
$CHAMFERA
 40
0.0
  9
$CHAMFERB
 40
0.0
  9
$CHAMFERC
 40
0.0
  9
$CHAMFERD
 40
0.0
  9
$SKPOLY
 70
     0
  9
$TDCREATE
 40
2460768.408679444
  9
$TDUCREATE
 40
2460768.033679444
  9
$TDUPDATE
 40
2460768.409413901
  9
$TDUUPDATE
 40
2460768.034413901
  9
$TDINDWG
 40
2460768.034414028
  9
$TDUSRTIMER
 40
0.0007345833
  9
$USRTIMER
 70
     1
  9
$ANGBASE
 50
0.0
  9
$ANGDIR
 70
     0
  9
$PDMODE
 70
     1
  9
$PDSIZE
 40
-2.0
  9
$PLINEWID
 40
0.0
  9
$SPLFRAME
 70
     0
  9
$SPLINETYPE
 70
     6
  9
$SPLINESEGS
 70
     8
  9
$HANDSEED
  5
596
  9
$SURFTAB1
 70
     6
  9
$SURFTAB2
 70
     6
  9
$SURFTYPE
 70
     6
  9
$SURFU
 70
     6
  9
$SURFV
 70
     6
  9
$UCSBASE
  2

  9
$UCSNAME
  2

  9
$UCSORG
 10
0.0
 20
0.0
 30
0.0
  9
$UCSXDIR
 10
1.0
 20
0.0
 30
0.0
  9
$UCSYDIR
 10
0.0
 20
1.0
 30
0.0
  9
$UCSORTHOREF
  2

  9
$UCSORTHOVIEW
 70
     0
  9
$UCSORGTOP
 10
0.0
 20
0.0
 30
0.0
  9
$UCSORGBOTTOM
 10
0.0
 20
0.0
 30
0.0
  9
$UCSORGLEFT
 10
0.0
 20
0.0
 30
0.0
  9
$UCSORGRIGHT
 10
0.0
 20
0.0
 30
0.0
  9
$UCSORGFRONT
 10
0.0
 20
0.0
 30
0.0
  9
$UCSORGBACK
 10
0.0
 20
0.0
 30
0.0
  9
$PUCSBASE
  2

  9
$PUCSNAME
  2

  9
$PUCSORG
 10
0.0
 20
0.0
 30
0.0
  9
$PUCSXDIR
 10
1.0
 20
0.0
 30
0.0
  9
$PUCSYDIR
 10
0.0
 20
1.0
 30
0.0
  9
$PUCSORTHOREF
  2

  9
$PUCSORTHOVIEW
 70
     0
  9
$PUCSORGTOP
 10
0.0
 20
0.0
 30
0.0
  9
$PUCSORGBOTTOM
 10
0.0
 20
0.0
 30
0.0
  9
$PUCSORGLEFT
 10
0.0
 20
0.0
 30
0.0
  9
$PUCSORGRIGHT
 10
0.0
 20
0.0
 30
0.0
  9
$PUCSORGFRONT
 10
0.0
 20
0.0
 30
0.0
  9
$PUCSORGBACK
 10
0.0
 20
0.0
 30
0.0
  9
$USERI1
 70
     0
  9
$USERI2
 70
     0
  9
$USERI3
 70
     0
  9
$USERI4
 70
     0
  9
$USERI5
 70
     0
  9
$USERR1
 40
0.0
  9
$USERR2
 40
0.0
  9
$USERR3
 40
0.0
  9
$USERR4
 40
0.0
  9
$USERR5
 40
0.0
  9
$WORLDVIEW
 70
     1
  9
$SHADEDGE
 70
     3
  9
$SHADEDIF
 70
    70
  9
$TILEMODE
 70
     1
  9
$MAXACTVP
 70
    64
  9
$PINSBASE
 10
0.0
 20
0.0
 30
0.0
  9
$PLIMCHECK
 70
     0
  9
$PEXTMIN
 10
1.000000000000000E+20
 20
1.000000000000000E+20
 30
1.000000000000000E+20
  9
$PEXTMAX
 10
-1.000000000000000E+20
 20
-1.000000000000000E+20
 30
-1.000000000000000E+20
  9
$PLIMMIN
 10
-20.0
 20
-7.5
  9
$PLIMMAX
 10
277.0
 20
202.5
  9
$UNITMODE
 70
     0
  9
$VISRETAIN
 70
     1
  9
$PLINEGEN
 70
     0
  9
$PSLTSCALE
 70
     1
  9
$TREEDEPTH
 70
  3020
  9
$CMLSTYLE
  2
Standard
  9
$CMLJUST
 70
     0
  9
$CMLSCALE
 40
1.0
  9
$PROXYGRAPHICS
 70
     1
  9
$MEASUREMENT
 70
     0
  9
$CELWEIGHT
370
    -1
  9
$ENDCAPS
280
     0
  9
$JOINSTYLE
280
     0
  9
$LWDISPLAY
290
     0
  9
$INSUNITS
 70
     4
  9
$HYPERLINKBASE
  1

  9
$STYLESHEET
  1

  9
$XEDIT
290
     1
  9
$CEPSNTYPE
380
     0
  9
$PSTYLEMODE
290
     1
  9
$FINGERPRINTGUID
  2
{B0F62DBB-00E4-4182-AAD8-1E3F06385B38}
  9
$VERSIONGUID
  2
{FAEB1C32-E019-11D5-929B-00C0DF256EC4}
  9
$EXTNAMES
290
     1
  9
$PSVPSCALE
 40
0.0
  9
$OLESTARTUP
290
     0
  0
ENDSEC
  0
SECTION
  2
CLASSES
  0
CLASS
  1
ACDBDICTIONARYWDFLT
  2
AcDbDictionaryWithDefault
  3
ObjectDBX Classes
 90
        0
280
     0
281
     0
  0
CLASS
  1
SCALE
  2
AcDbScale
  3
ObjectDBX Classes
 90
     1153
280
     0
281
     0
  0
CLASS
  1
VISUALSTYLE
  2
AcDbVisualStyle
  3
ObjectDBX Classes
 90
     4095
280
     0
281
     0
  0
CLASS
  1
MATERIAL
  2
AcDbMaterial
  3
ObjectDBX Classes
 90
     1153
280
     0
281
     0
  0
CLASS
  1
TABLESTYLE
  2
AcDbTableStyle
  3
ObjectDBX Classes
 90
     4095
280
     0
281
     0
  0
CLASS
  1
MLEADERSTYLE
  2
AcDbMLeaderStyle
  3
ACDB_MLEADERSTYLE_CLASS
 90
     4095
280
     0
281
     0
  0
CLASS
  1
DICTIONARYVAR
  2
AcDbDictionaryVar
  3
ObjectDBX Classes
 90
        0
280
     0
281
     0
  0
CLASS
  1
ACDBPLACEHOLDER
  2
AcDbPlaceHolder
  3
ObjectDBX Classes
 90
        0
280
     0
281
     0
  0
CLASS
  1
LAYOUT
  2
AcDbLayout
  3
ObjectDBX Classes
 90
        0
280
     0
281
     0
  0
ENDSEC
  0
SECTION
  2
TABLES
  0
TABLE
  2
VPORT
  5
4E4
102
{ACAD_XDICTIONARY
360
55A
102
}
330
0
100
AcDbSymbolTable
 70
     1
  0
VPORT
  5
506
330
4E4
100
AcDbSymbolTableRecord
100
AcDbViewportTableRecord
  2
*ACTIVE
 70
     0
 10
0.0
 20
0.0
 11
1.0
 21
1.0
 12
0.0
 22
-3.531814999999938
 13
0.0
 23
0.0
 14
0.5
 24
0.5
 15
0.5
 25
0.5
 16
0.0
 26
0.0
 36
1.0
 17
0.0
 27
0.0
 37
0.0
 40
1335.31815
 41
2.942508710801394
 42
2000.0
 43
0.0
 44
0.0
 50
0.0
 51
0.0
 71
     0
 72
   100
 73
     1
 74
     3
 75
     0
 76
     0
 77
     0
 78
     0
281
     0
 65
     0
110
0.0
120
0.0
130
0.0
111
1.0
121
0.0
131
0.0
112
0.0
122
1.0
132
0.0
 79
     0
146
0.0
  0
ENDTAB
  0
TABLE
  2
LTYPE
  5
4E1
330
0
100
AcDbSymbolTable
 70
    12
  0
LTYPE
  5
4EC
330
4E1
100
AcDbSymbolTableRecord
100
AcDbLinetypeTableRecord
  2
ByBlock
 70
     0
  3

 72
    65
 73
     0
 40
0.0
  0
LTYPE
  5
4ED
330
4E1
100
AcDbSymbolTableRecord
100
AcDbLinetypeTableRecord
  2
ByLayer
 70
     0
  3

 72
    65
 73
     0
 40
0.0
  0
LTYPE
  5
4F7
330
4E1
100
AcDbSymbolTableRecord
100
AcDbLinetypeTableRecord
  2
CONTINUOUS
 70
     0
  3
Solid line
 72
    65
 73
     0
 40
0.0
  0
LTYPE
  5
4F8
330
4E1
100
AcDbSymbolTableRecord
100
AcDbLinetypeTableRecord
  2
HIDDEN
 70
     0
  3

 72
    65
 73
     2
 40
5.999999999999999
 49
4.0
 74
     0
 49
-2.0
 74
     0
  0
LTYPE
  5
4FD
330
4E1
100
AcDbSymbolTableRecord
100
AcDbLinetypeTableRecord
  2
______-6
 70
     0
  3

 72
    65
 73
     4
 40
0.416656494140625
 49
0.25
 74
     0
 49
-0.08331298828125
 74
     0
 49
0.02777099609375
 74
     0
 49
-0.055572509765625
 74
     0
  0
LTYPE
  5
501
330
4E1
100
AcDbSymbolTableRecord
100
AcDbLinetypeTableRecord
  2
______-2
 70
     0
  3

 72
    65
 73
     2
 40
0.27777099609375
 49
0.194427490234375
 74
     0
 49
-0.083343505859375
 74
     0
  0
ENDTAB
  0
TABLE
  2
LAYER
  5
4DE
102
{ACAD_XDICTIONARY
360
54A
102
}
330
0
100
AcDbSymbolTable
 70
     3
  0
LAYER
  5
503
102
{ACAD_XDICTIONARY
360
544
102
}
330
4DE
100
AcDbSymbolTableRecord
100
AcDbLayerTableRecord
  2
0
 70
     0
 62
     7
  6
CONTINUOUS
370
    -3
390
4EB
1001
ACAECLAYERSTANDARD
1000

1000

1001
ACCMTRANSPARENCY
1071
 33554687
  0
LAYER
  5
504
102
{ACAD_XDICTIONARY
360
546
102
}
330
4DE
100
AcDbSymbolTableRecord
100
AcDbLayerTableRecord
  2
__
 70
     0
 62
     7
  6
CONTINUOUS
370
    -3
390
4EB
1001
ACAECLAYERSTANDARD
1000

1000

1001
ACCMTRANSPARENCY
1071
 33554687
  0
LAYER
  5
505
102
{ACAD_XDICTIONARY
360
548
102
}
330
4DE
100
AcDbSymbolTableRecord
100
AcDbLayerTableRecord
  2
__-1
 70
     0
 62
     7
  6
CONTINUOUS
370
    -3
390
4EB
1001
ACAECLAYERSTANDARD
1000

1000

1001
ACCMTRANSPARENCY
1071
 33554687
  0
ENDTAB
  0
TABLE
  2
STYLE
  5
4DF
330
0
100
AcDbSymbolTable
 70
     2
  0
STYLE
  5
50A
330
4DF
100
AcDbSymbolTableRecord
100
AcDbTextStyleTableRecord
  2
STANDARD
 70
     0
 40
0.0
 41
1.0
 50
0.0
 71
     0
 42
0.2
  3
txt
  4
BIGFONT.SHX
  0
ENDTAB
  0
TABLE
  2
VIEW
  5
4E2
330
0
100
AcDbSymbolTable
 70
     0
  0
ENDTAB
  0
TABLE
  2
UCS
  5
4E3
330
0
100
AcDbSymbolTable
 70
     0
  0
ENDTAB
  0
TABLE
  2
APPID
  5
4E5
330
0
100
AcDbSymbolTable
 70
     5
  0
APPID
  5
507
330
4E5
100
AcDbSymbolTableRecord
100
AcDbRegAppTableRecord
  2
ACAD
 70
     0
  0
APPID
  5
508
330
4E5
100
AcDbSymbolTableRecord
100
AcDbRegAppTableRecord
  2
ACCMTRANSPARENCY
 70
     0
  0
APPID
  5
509
330
4E5
100
AcDbSymbolTableRecord
100
AcDbRegAppTableRecord
  2
ACAECLAYERSTANDARD
 70
     0
  0
APPID
  5
54E
330
4E5
100
AcDbSymbolTableRecord
100
AcDbRegAppTableRecord
  2
ACAD_MLEADERVER
 70
     0
  0
APPID
  5
54F
330
4E5
100
AcDbSymbolTableRecord
100
AcDbRegAppTableRecord
  2
AcadAnnoPO
 70
     0
  0
ENDTAB
  0
TABLE
  2
DIMSTYLE
  5
4E6
330
0
100
AcDbSymbolTable
 70
     1
100
AcDbDimStyleTable
  0
DIMSTYLE
105
50C
330
4E6
100
AcDbSymbolTableRecord
100
AcDbDimStyleTableRecord
  2
STANDARD
 70
     0
178
     0
340
50A
  0
ENDTAB
  0
TABLE
  2
BLOCK_RECORD
  5
4DD
330
0
100
AcDbSymbolTable
 70
     0
  0
BLOCK_RECORD
  5
4F4
330
4DD
100
AcDbSymbolTableRecord
100
AcDbBlockTableRecord
  2
*Model_Space
340
4F5
  0
BLOCK_RECORD
  5
4F2
330
4DD
100
AcDbSymbolTableRecord
100
AcDbBlockTableRecord
  2
*Paper_Space
340
4F3
  0
ENDTAB
  0
ENDSEC
  0
SECTION
  2
BLOCKS
  0
BLOCK
  5
511
330
4F4
100
AcDbEntity
  8
__
100
AcDbBlockBegin
  2
*Model_Space
 70
     0
 10
0.0
 20
0.0
 30
0.0
  3
*Model_Space
  1
Acad:XRef
  0
ENDBLK
  5
512
330
4F4
100
AcDbEntity
  8
__
100
AcDbBlockEnd
  0
BLOCK
  5
50F
330
4F2
100
AcDbEntity
 67
     1
  8
__
100
AcDbBlockBegin
  2
*Paper_Space
 70
     0
 10
0.0
 20
0.0
 30
0.0
  3
*Paper_Space
  1
Acad:XRef
  0
ENDBLK
  5
510
330
4F2
100
AcDbEntity
 67
     1
  8
__
100
AcDbBlockEnd
  0
ENDSEC
  0
SECTION
  2
ENTITIES
  0
LINE
  5
7F
330
4F4
100
AcDbEntity
  8
__
  6
Continuous
 62
     7
100
AcDbLine
 10
-449.9999999999999
 20
664.12726
 30
0.0
 11
449.9999999999999
 21
664.12726
 31
0.0
  0
LINE
  5
80
330
4F4
100
AcDbEntity
  8
__
  6
Continuous
 62
     7
100
AcDbLine
 10
449.9999999999999
 20
-635.8727399999998
 30
0.0
 11
-449.9999999999999
 21
-635.8727399999998
 31
0.0
  0
LINE
  5
81
330
4F4
100
AcDbEntity
  8
__
  6
Continuous
 62
     7
100
AcDbLine
 10
-449.9999999999999
 20
-635.8727399999998
 30
0.0
 11
-449.9999999999999
 21
664.12726
 31
0.0
  0
LINE
  5
82
330
4F4
100
AcDbEntity
  8
__
  6
Continuous
 62
     7
100
AcDbLine
 10
449.9999999999999
 20
664.12726
 30
0.0
 11
449.9999999999999
 21
-635.8727399999998
 31
0.0
  0
LINE
  5
83
330
4F4
100
AcDbEntity
  8
__
  6
Continuous
 62
     7
100
AcDbLine
 10
0.0000000000000711
 20
-523.3727399999998
 30
0.0
 11
449.9999999999999
 21
-523.3727399999998
 31
0.0
  0
LINE
  5
84
330
4F4
100
AcDbEntity
  8
__
  6
Continuous
 62
     7
100
AcDbLine
 10
0.0000000000000711
 20
-635.8727399999998
 30
0.0
 11
0.0000000000000711
 21
-523.3727399999998
 31
0.0
  0
TEXT
  5
85
330
4F4
100
AcDbEntity
  8
__
 62
     7
100
AcDbText
 10
4.500000000000099
 20
-535.9162066666665
 30
0.0
 40
8.123535156249998
  1
NOTE
 41
0.7
 11
4.500000000000099
 21
-527.7926715104165
 31
0.0
100
AcDbText
 73
     3
  0
LINE
  5
86
330
4F4
100
AcDbEntity
  8
__
  6
Continuous
 62
     7
100
AcDbLine
 10
175.0000000000001
 20
-635.8727399999998
 30
0.0
 11
175.0000000000001
 21
-523.3727399999998
 31
0.0
  0
TEXT
  5
87
330
4F4
100
AcDbEntity
  8
__
 62
     7
100
AcDbText
 10
179.4999999999999
 20
-535.9162066666665
 30
0.0
 40
8.123535156249998
  1
TITLE
 41
0.7
 11
179.4999999999999
 21
-527.7926715104165
 31
0.0
100
AcDbText
 73
     3
  0
LINE
  5
88
330
4F4
100
AcDbEntity
  8
__
  6
Continuous
 62
     7
100
AcDbLine
 10
0.0000000000000711
 20
-585.8727399999998
 30
0.0
 11
449.9999999999999
 21
-585.8727399999998
 31
0.0
  0
TEXT
  5
89
330
4F4
100
AcDbEntity
  8
__
 62
     7
100
AcDbText
 10
241.9999999999999
 20
-598.1346066666667
 30
0.0
 40
8.123535156249998
  1
DRAWN
 41
0.7
 11
241.9999999999999
 21
-590.0110715104167
 31
0.0
100
AcDbText
 73
     3
  0
TEXT
  5
8A
330
4F4
100
AcDbEntity
  8
__
 62
     7
100
AcDbText
 10
117.0
 20
-598.1346066666667
 30
0.0
 40
8.123535156249998
  1
DATE
 41
0.7
 11
117.0
 21
-590.0110715104167
 31
0.0
100
AcDbText
 73
     3
  0
TEXT
  5
8B
330
4F4
100
AcDbEntity
  8
__
 62
     7
100
AcDbText
 10
66.99999999999996
 20
-598.1346066666667
 30
0.0
 40
8.123535156249998
  1
SCALE
 41
0.7
 11
66.99999999999996
 21
-590.0110715104167
 31
0.0
100
AcDbText
 73
     3
  0
TEXT
  5
8C
330
4F4
100
AcDbEntity
  8
__
 62
     7
100
AcDbText
 10
179.4999999999999
 20
-598.1346066666667
 30
0.0
 40
8.123535156249998
  1
DESIGN
 41
0.7
 11
179.4999999999999
 21
-590.0110715104167
 31
0.0
100
AcDbText
 73
     3
  0
TEXT
  5
8D
330
4F4
100
AcDbEntity
  8
__
 62
     7
100
AcDbText
 10
366.9999999999999
 20
-598.1346066666667
 30
0.0
 40
8.123535156249998
  1
DRAWING NO.
 41
0.7
 11
366.9999999999999
 21
-590.0110715104167
 31
0.0
100
AcDbText
 73
     3
  0
TEXT
  5
8E
330
4F4
100
AcDbEntity
  8
__
 62
     7
100
AcDbText
 10
304.4999999999999
 20
-598.1346066666667
 30
0.0
 40
8.123535156249998
  1
CHECK
 41
0.7
 11
304.4999999999999
 21
-590.0110715104167
 31
0.0
100
AcDbText
 73
     3
  0
LINE
  5
8F
330
4F4
100
AcDbEntity
  8
__
  6
Continuous
 62
     7
100
AcDbLine
 10
71.87500000000007
 20
-629.6227399999998
 30
0.0
 11
90.62500000000007
 21
-610.8727399999998
 31
0.0
  0
TEXT
  5
90
330
4F4
100
AcDbEntity
  8
__
 62
     7
100
AcDbText
 10
68.75000000000007
 20
-616.4174566666666
 30
0.0
 40
8.123535156249998
  1
1
 41
0.7
 11
68.75000000000007
 21
-608.2939215104166
 31
0.0
100
AcDbText
 73
     3
  0
LINE
  5
91
330
4F4
100
AcDbEntity
  8
__
  6
Continuous
 62
     7
100
AcDbLine
 10
62.50000000000007
 20
-635.8727399999998
 30
0.0
 11
62.50000000000007
 21
-585.8727399999998
 31
0.0
  0
LINE
  5
92
330
4F4
100
AcDbEntity
  8
__
  6
Continuous
 62
     7
100
AcDbLine
 10
112.4999999999999
 20
-635.8727399999998
 30
0.0
 11
112.4999999999999
 21
-585.8727399999998
 31
0.0
  0
LINE
  5
93
330
4F4
100
AcDbEntity
  8
__
  6
Continuous
 62
     7
100
AcDbLine
 10
237.4999999999999
 20
-585.8727399999998
 30
0.0
 11
237.4999999999999
 21
-635.8727399999998
 31
0.0
  0
LINE
  5
94
330
4F4
100
AcDbEntity
  8
__
  6
Continuous
 62
     7
100
AcDbLine
 10
362.5000000000001
 20
-585.8727399999998
 30
0.0
 11
362.5000000000001
 21
-635.8727399999998
 31
0.0
  0
LINE
  5
95
330
4F4
100
AcDbEntity
  8
__
  6
Continuous
 62
     7
100
AcDbLine
 10
299.9999999999999
 20
-635.8727399999998
 30
0.0
 11
299.9999999999999
 21
-585.8727399999998
 31
0.0
  0
TEXT
  5
96
330
4F4
100
AcDbEntity
  8
__
 62
     7
100
AcDbText
 10
116.7827
 20
-621.5545066666664
 30
0.0
 40
8.123535156249998
  1
'25.03.
 41
0.7
 11
116.7827
 21
-613.4309715104164
 31
0.0
100
AcDbText
 73
     3
  0
TEXT
  5
97
330
4F4
100
AcDbEntity
  8
__
 62
     7
100
AcDbText
 10
87.50000000000007
 20
-625.7924566666666
 30
0.0
 40
8.123535156249998
  1
5
 41
0.7
 11
87.50000000000007
 21
-617.6689215104166
 31
0.0
100
AcDbText
 73
     3
  0
TEXT
  5
98
330
4F4
100
AcDbEntity
  8
__
 62
     7
100
AcDbText
 10
245.0290500551731
 20
-621.5545066666664
 30
0.0
 40
8.123535156249998
  1
N.Sasaki
 41
0.7
 11
245.0290500551731
 21
-613.4309715104164
 31
0.0
100
AcDbText
 73
     3
  0
TEXT
  5
99
330
4F4
100
AcDbEntity
  8
__
 62
     7
100
AcDbText
 10
19.41666666666684
 20
-625.9927399999999
 30
0.0
 40
16.2470703125
  1
A4
 41
0.7
 11
19.41666666666684
 21
-609.7456696874999
 31
0.0
100
AcDbText
 73
     3
  0
TEXT
  5
9A
330
4F4
100
AcDbEntity
  8
__
 62
     7
100
AcDbText
 10
4.791666666666643
 20
-598.9700149999999
 30
0.0
 40
8.123535156249998
  1
PAPER SIZE
 41
0.7
 11
4.791666666666643
 21
-590.8464798437499
 31
0.0
100
AcDbText
 73
     3
  0
TEXT
  5
9B
330
4F4
100
AcDbEntity
  8
__
 62
     7
100
AcDbText
 10
-414.0799999999999
 20
-667.9161289999998
 30
0.0
 40
17.95453505859374
  1
Hibino Corporation
 41
0.7
 11
-414.0799999999999
 21
-649.9615939414061
 31
0.0
100
AcDbText
 73
     3
  0
TEXT
  5
9C
330
4F4
100
AcDbEntity
  8
__
 62
     7
100
AcDbText
 10
250.3419500000001
 20
-667.9161289999998
 30
0.0
 40
17.95453505859374
  1
ヒビノ株式会社
 41
0.7
 11
250.3419500000001
 21
-649.9615939414061
 31
0.0
100
AcDbText
 73
     3
  0
LINE
  5
9D
330
4F4
100
AcDbEntity
  8
__
  6
Continuous
 62
     7
100
AcDbLine
 10
-412.4999999999999
 20
614.1272600000002
 30
0.0
 11
387.5
 21
614.1272600000002
 31
0.0
  0
LINE
  5
9E
330
4F4
100
AcDbEntity
  8
__
  6
Continuous
 62
     7
100
AcDbLine
 10
-412.4999999999999
 20
595.37726
 30
0.0
 11
387.5
 21
595.37726
 31
0.0
  0
LINE
  5
9F
330
4F4
100
AcDbEntity
  8
__
  6
Continuous
 62
     7
100
AcDbLine
 10
-412.4999999999999
 20
614.1272600000002
 30
0.0
 11
-412.4999999999999
 21
557.87726
 31
0.0
  0
TEXT
  5
A0
330
4F4
100
AcDbEntity
  8
__
 62
     7
100
AcDbText
 10
-406.2499999999999
 20
621.09361
 30
0.0
 40
12.185302734375
  1
仕様
 41
0.7
 11
-406.2499999999999
 21
633.278912734375
 31
0.0
100
AcDbText
 73
     3
  0
LINE
  5
A1
330
4F4
100
AcDbEntity
  8
__
  6
Continuous
 62
     7
100
AcDbLine
 10
-249.9999999999999
 20
614.1272600000002
 30
0.0
 11
-249.9999999999999
 21
557.87726
 31
0.0
  0
LINE
  5
A2
330
4F4
100
AcDbEntity
  8
__
  6
Continuous
 62
     7
100
AcDbLine
 10
387.5
 20
614.1272600000002
 30
0.0
 11
387.5
 21
557.87726
 31
0.0
  0
TEXT
  5
A3
330
4F4
100
AcDbEntity
  8
__
 62
     7
100
AcDbText
 10
-408.0
 20
561.8168488888889
 30
0.0
 40
9.477457682291666
  1
付属品
 41
0.7
 11
-408.0
 21
571.2943065711805
 31
0.0
100
AcDbText
 73
     3
  0
TEXT
  5
A4
330
4F4
100
AcDbEntity
  8
__
 62
     7
100
AcDbText
 10
-408.0
 20
599.3168488888889
 30
0.0
 40
9.477457682291666
  1
寸法(W×H×D)
 41
0.7
 11
-408.0
 21
608.7943065711805
 31
0.0
100
AcDbText
 73
     3
  0
TEXT
  5
A5
330
4F4
100
AcDbEntity
  8
__
 62
     7
100
AcDbText
 10
-408.0
 20
580.5668488888889
 30
0.0
 40
9.477457682291666
  1
質量
 41
0.7
 11
-408.0
 21
590.0443065711805
 31
0.0
100
AcDbText
 73
     3
  0
LINE
  5
A6
330
4F4
100
AcDbEntity
  8
__
  6
Continuous
 62
     7
100
AcDbLine
 10
-412.4999999999999
 20
576.62726
 30
0.0
 11
387.5
 21
576.62726
 31
0.0
  0
LINE
  5
A7
330
4F4
100
AcDbEntity
  8
__
  6
Continuous
 62
     7
100
AcDbLine
 10
-412.4999999999999
 20
557.87726
 30
0.0
 11
387.5
 21
557.87726
 31
0.0
  0
TEXT
  5
A8
330
4F4
100
AcDbEntity
  8
__
 62
     7
100
AcDbText
 10
-245.4999999999999
 20
599.316848888889
 30
0.0
 40
9.477457682291666
  1
55×210×130mm(除突起部)-1セット
 41
0.7
 11
-245.4999999999999
 21
608.7943065711806
 31
0.0
100
AcDbText
 73
     3
  0
TEXT
  5
A9
330
4F4
100
AcDbEntity
  8
__
 62
     7
100
AcDbText
 10
-245.4999999999999
 20
580.566848888889
 30
0.0
 40
9.477457682291666
  1
490g-1セット
 41
0.7
 11
-245.4999999999999
 21
590.0443065711806
 31
0.0
100
AcDbText
 73
     3
  0
TEXT
  5
AA
330
4F4
100
AcDbEntity
  8
__
 62
     7
100
AcDbText
 10
-245.4999999999999
 20
561.8168488888889
 30
0.0
 40
9.477457682291666
  1
添付ネジ M4-15-4個、皿小ネジ M4-4個、ワッシャー M4-4個、スプリングワッシャー M4-4個、ナット M4-4個
 41
0.7
 11
-245.4999999999999
 21
571.2943065711805
 31
0.0
100
AcDbText
 73
     3
  0
TEXT
  5
AB
330
4F4
100
AcDbEntity
  8
__
 62
     7
100
AcDbText
 10
-99.99999999999997
 20
-574.5252899999997
 30
0.0
 40
12.185302734375
  1
(単位：mm)
 41
0.7
 11
-99.99999999999997
 21
-562.3399872656247
 31
0.0
100
AcDbText
 73
     3
  0
LINE
  5
AC
330
4F4
100
AcDbEntity
  8
__
  6
Continuous
 62
     7
100
AcDbLine
 10
134.0
 20
-277.1
 30
0.0
 11
134.0
 21
-342.5
 31
0.0
  0
LINE
  5
AD
330
4F4
100
AcDbEntity
  8
__
  6
Continuous
 62
     7
100
AcDbLine
 10
166.0
 20
-277.1
 30
0.0
 11
166.0
 21
-342.5
 31
0.0
  0
LINE
  5
AE
330
4F4
100
AcDbEntity
  8
__
  6
Continuous
 62
     7
100
AcDbLine
 10
134.0
 20
-337.5
 30
0.0
 11
88.61111111111111
 21
-337.5
 31
0.0
  0
LINE
  5
AF
330
4F4
100
AcDbEntity
  8
__
  6
Continuous
 62
     7
100
AcDbLine
 10
134.0
 20
-337.5
 30
0.0
 11
166.0
 21
-337.5
 31
0.0
  0
LWPOLYLINE
  5
B0
330
4F4
100
AcDbEntity
  8
__
  6
Continuous
 62
     7
100
AcDbPolyline
 90
        3
 70
   128
 43
0.0
 10
143.9993896484375
 20
-340.1793283811029
 10
134.0
 20
-337.5
 10
143.9993896484375
 20
-334.8206716188971
  0
LWPOLYLINE
  5
B5
330
4F4
100
AcDbEntity
  8
__
  6
Continuous
 62
     7
100
AcDbPolyline
 90
        3
 70
   128
 43
0.0
 10
156.0006103515625
 20
-334.8206716188971
 10
166.0
 20
-337.5
 10
156.0006103515625
 20
-340.1793283811029
  0
TEXT
  5
BA
330
4F4
100
AcDbEntity
  8
__
 62
     7
100
AcDbText
 10
88.61111111111111
 20
-332.5305555555556
 30
0.0
 40
13.53922526041667
  1
32.0
 41
0.7
 11
88.61111111111111
 21
-318.9913302951389
 31
0.0
100
AcDbText
 73
     3
  0
LINE
  5
BB
330
4F4
100
AcDbEntity
  8
__
  6
Continuous
 62
     7
100
AcDbLine
 10
130.0
 20
-266.0
 30
0.0
 11
130.0
 21
-367.5
 31
0.0
  0
LINE
  5
BC
330
4F4
100
AcDbEntity
  8
__
  6
Continuous
 62
     7
100
AcDbLine
 10
170.0
 20
-266.0
 30
0.0
 11
170.0
 21
-367.5
 31
0.0
  0
LINE
  5
BD
330
4F4
100
AcDbEntity
  8
__
  6
Continuous
 62
     7
100
AcDbLine
 10
130.0
 20
-362.5
 30
0.0
 11
170.0
 21
-362.5
 31
0.0
  0
LWPOLYLINE
  5
BE
330
4F4
100
AcDbEntity
  8
__
  6
Continuous
 62
     7
100
AcDbPolyline
 90
        3
 70
   128
 43
0.0
 10
139.9993896484375
 20
-365.1793283811029
 10
130.0
 20
-362.5
 10
139.9993896484375
 20
-359.8206716188971
  0
LWPOLYLINE
  5
C3
330
4F4
100
AcDbEntity
  8
__
  6
Continuous
 62
     7
100
AcDbPolyline
 90
        3
 70
   128
 43
0.0
 10
160.0006103515625
 20
-359.8206716188971
 10
170.0
 20
-362.5
 10
160.0006103515625
 20
-365.1793283811029
  0
TEXT
  5
C8
330
4F4
100
AcDbEntity
  8
__
 62
     7
100
AcDbText
 10
132.3611111111111
 20
-357.5305555555556
 30
0.0
 40
13.53922526041667
  1
40.0
 41
0.7
 11
132.3611111111111
 21
-343.9913302951389
 31
0.0
100
AcDbText
 73
     3
  0
LINE
  5
C9
330
4F4
100
AcDbEntity
  8
__
  6
Continuous
 62
     7
100
AcDbLine
 10
183.5
 20
-70.0
 30
0.0
 11
280.0
 21
-70.0
 31
0.0
  0
LINE
  5
CA
330
4F4
100
AcDbEntity
  8
__
  6
Continuous
 62
     7
100
AcDbLine
 10
180.5
 20
-280.0
 30
0.0
 11
280.0
 21
-280.0
 31
0.0
  0
LINE
  5
CB
330
4F4
100
AcDbEntity
  8
__
  6
Continuous
 62
     7
100
AcDbLine
 10
275.0
 20
-70.0
 30
0.0
 11
275.0
 21
-280.0
 31
0.0
  0
LWPOLYLINE
  5
CC
330
4F4
100
AcDbEntity
  8
__
  6
Continuous
 62
     7
100
AcDbPolyline
 90
        3
 70
   128
 43
0.0
 10
272.3206716188971
 20
-79.9993896484375
 10
275.0
 20
-70.0
 10
277.6793283811029
 20
-79.9993896484375
  0
LWPOLYLINE
  5
D1
330
4F4
100
AcDbEntity
  8
__
  6
Continuous
 62
     7
100
AcDbPolyline
 90
        3
 70
   128
 43
0.0
 10
277.6793283811029
 20
-270.0006103515625
 10
275.0
 20
-280.0
 10
272.3206716188971
 20
-270.0006103515625
  0
TEXT
  5
D6
330
4F4
100
AcDbEntity
  8
__
 62
     7
100
AcDbText
 10
270.0305555555556
 20
-163.2291666666667
 30
0.0
 40
13.53922526041667
  1
210
 50
90.0
 41
0.7
 11
256.4913302951389
 21
-163.2291666666667
 31
0.0
100
AcDbText
 73
     3
  0
LINE
  5
D7
330
4F4
100
AcDbEntity
  8
__
  6
Continuous
 62
     7
100
AcDbLine
 10
176.0
 20
-260.0
 30
0.0
 11
254.3611111111111
 21
-260.0
 31
0.0
  0
LINE
  5
D8
330
4F4
100
AcDbEntity
  8
__
  6
Continuous
 62
     7
100
AcDbLine
 10
180.5
 20
-280.0
 30
0.0
 11
254.3611111111111
 21
-280.0
 31
0.0
  0
LINE
  5
D9
330
4F4
100
AcDbEntity
  8
__
  6
Continuous
 62
     7
100
AcDbLine
 10
249.3611111111111
 20
-280.0
 30
0.0
 11
249.3611111111111
 21
-260.0
 31
0.0
  0
LINE
  5
DA
330
4F4
100
AcDbEntity
  8
__
  6
Continuous
 62
     7
100
AcDbLine
 10
249.3611111111111
 20
-260.0
 30
0.0
 11
249.3611111111111
 21
-242.5
 31
0.0
  0
LWPOLYLINE
  5
DB
330
4F4
100
AcDbEntity
  8
__
  6
Continuous
 62
     7
100
AcDbPolyline
 90
        3
 70
   128
 43
0.0
 10
252.0404394922141
 20
-250.0006103515625
 10
249.3611111111111
 20
-260.0
 10
246.6817827300082
 20
-250.0006103515625
  0
LINE
  5
E0
330
4F4
100
AcDbEntity
  8
__
  6
Continuous
 62
     7
100
AcDbLine
 10
249.3611111111111
 20
-280.0
 30
0.0
 11
249.3611111111111
 21
-330.1388888888889
 31
0.0
  0
LWPOLYLINE
  5
E1
330
4F4
100
AcDbEntity
  8
__
  6
Continuous
 62
     7
100
AcDbPolyline
 90
        3
 70
   128
 43
0.0
 10
246.6817827300082
 20
-289.9993896484375
 10
249.3611111111111
 20
-280.0
 10
252.0404394922141
 20
-289.9993896484375
  0
TEXT
  5
E6
330
4F4
100
AcDbEntity
  8
__
 62
     7
100
AcDbText
 10
244.3916666666667
 20
-330.1388888888889
 30
0.0
 40
13.53922526041667
  1
20.0
 50
90.0
 41
0.7
 11
230.85244140625
 21
-330.1388888888889
 31
0.0
100
AcDbText
 73
     3
  0
LINE
  5
E7
330
4F4
100
AcDbEntity
  8
__
  6
Continuous
 62
     7
100
AcDbLine
 10
176.0
 20
-260.0
 30
0.0
 11
254.3611111111111
 21
-260.0
 31
0.0
  0
LINE
  5
E8
330
4F4
100
AcDbEntity
  8
__
  6
Continuous
 62
     7
100
AcDbLine
 10
176.0
 20
-200.0
 30
0.0
 11
254.3611111111111
 21
-200.0
 31
0.0
  0
LINE
  5
E9
330
4F4
100
AcDbEntity
  8
__
  6
Continuous
 62
     7
100
AcDbLine
 10
249.3611111111111
 20
-260.0
 30
0.0
 11
249.3611111111111
 21
-200.0
 31
0.0
  0
LWPOLYLINE
  5
EA
330
4F4
100
AcDbEntity
  8
__
  6
Continuous
 62
     7
100
AcDbPolyline
 90
        3
 70
   128
 43
0.0
 10
252.0404394922141
 20
-250.0006103515625
 10
249.3611111111111
 20
-260.0
 10
246.6817827300082
 20
-250.0006103515625
  0
LWPOLYLINE
  5
EF
330
4F4
100
AcDbEntity
  8
__
  6
Continuous
 62
     7
100
AcDbPolyline
 90
        3
 70
   128
 43
0.0
 10
246.6817827300082
 20
-209.9993896484375
 10
249.3611111111111
 20
-200.0
 10
252.0404394922141
 20
-209.9993896484375
  0
TEXT
  5
F4
330
4F4
100
AcDbEntity
  8
__
 62
     7
100
AcDbText
 10
244.3916666666667
 20
-247.6388888888889
 30
0.0
 40
13.53922526041667
  1
60.0
 50
90.0
 41
0.7
 11
230.85244140625
 21
-247.6388888888889
 31
0.0
100
AcDbText
 73
     3
  0
LINE
  5
F5
330
4F4
100
AcDbEntity
  8
__
  6
Continuous
 62
     7
100
AcDbLine
 10
172.0
 20
-271.1
 30
0.0
 11
217.5
 21
-271.1
 31
0.0
  0
LINE
  5
F6
330
4F4
100
AcDbEntity
  8
__
  6
Continuous
 62
     7
100
AcDbLine
 10
180.5
 20
-280.0
 30
0.0
 11
217.5
 21
-280.0
 31
0.0
  0
LINE
  5
F7
330
4F4
100
AcDbEntity
  8
__
  6
Continuous
 62
     7
100
AcDbLine
 10
212.5
 20
-280.0
 30
0.0
 11
212.5
 21
-271.1
 31
0.0
  0
LINE
  5
F8
330
4F4
100
AcDbEntity
  8
__
  6
Continuous
 62
     7
100
AcDbLine
 10
212.5
 20
-271.1
 30
0.0
 11
212.5
 21
-253.6
 31
0.0
  0
LWPOLYLINE
  5
F9
330
4F4
100
AcDbEntity
  8
__
  6
Continuous
 62
     7
100
AcDbPolyline
 90
        3
 70
   128
 43
0.0
 10
215.1793283811029
 20
-261.1006103515625
 10
212.5
 20
-271.1
 10
209.8206716188971
 20
-261.1006103515625
  0
LINE
  5
FE
330
4F4
100
AcDbEntity
  8
__
  6
Continuous
 62
     7
100
AcDbLine
 10
212.5
 20
-280.0
 30
0.0
 11
212.5
 21
-323.7829307730333
 31
0.0
  0
LWPOLYLINE
  5
FF
330
4F4
100
AcDbEntity
  8
__
  6
Continuous
 62
     7
100
AcDbPolyline
 90
        3
 70
   128
 43
0.0
 10
209.8206716188971
 20
-289.9993896484375
 10
212.5
 20
-280.0
 10
215.1793283811029
 20
-289.9993896484375
  0
TEXT
  5
104
330
4F4
100
AcDbEntity
  8
__
 62
     7
100
AcDbText
 10
207.5305555555555
 20
-323.7829307730333
 30
0.0
 40
13.53922526041667
  1
8.9
 50
90.0
 41
0.7
 11
193.9913302951389
 21
-323.7829307730333
 31
0.0
100
AcDbText
 73
     3
  0
LINE
  5
105
330
4F4
100
AcDbEntity
  8
__
  6
Continuous
 62
     7
100
AcDbLine
 10
172.0
 20
-271.1
 30
0.0
 11
217.5
 21
-271.1
 31
0.0
  0
LINE
  5
106
330
4F4
100
AcDbEntity
  8
__
  6
Continuous
 62
     7
100
AcDbLine
 10
172.0
 20
-214.1
 30
0.0
 11
217.5
 21
-214.1
 31
0.0
  0
LINE
  5
107
330
4F4
100
AcDbEntity
  8
__
  6
Continuous
 62
     7
100
AcDbLine
 10
212.5
 20
-271.1
 30
0.0
 11
212.5
 21
-214.1
 31
0.0
  0
LWPOLYLINE
  5
108
330
4F4
100
AcDbEntity
  8
__
  6
Continuous
 62
     7
100
AcDbPolyline
 90
        3
 70
   128
 43
0.0
 10
215.1793283811029
 20
-261.1006103515625
 10
212.5
 20
-271.1
 10
209.8206716188971
 20
-261.1006103515625
  0
LWPOLYLINE
  5
10D
330
4F4
100
AcDbEntity
  8
__
  6
Continuous
 62
     7
100
AcDbPolyline
 90
        3
 70
   128
 43
0.0
 10
209.8206716188971
 20
-224.0993896484375
 10
212.5
 20
-214.1
 10
215.1793283811029
 20
-224.0993896484375
  0
TEXT
  5
112
330
4F4
100
AcDbEntity
  8
__
 62
     7
100
AcDbText
 10
207.5305555555555
 20
-255.1388888888889
 30
0.0
 40
13.53922526041667
  1
57.0
 50
90.0
 41
0.7
 11
193.9913302951389
 21
-255.1388888888889
 31
0.0
100
AcDbText
 73
     3
  0
LINE
  5
113
330
4F4
100
AcDbEntity
  8
__
  6
Continuous
 62
     7
100
AcDbLine
 10
176.0
 20
-95.0
 30
0.0
 11
255.0
 21
-95.0
 31
0.0
  0
LINE
  5
114
330
4F4
100
AcDbEntity
  8
__
  6
Continuous
 62
     7
100
AcDbLine
 10
176.0
 20
-200.0
 30
0.0
 11
255.0
 21
-200.0
 31
0.0
  0
LINE
  5
115
330
4F4
100
AcDbEntity
  8
__
  6
Continuous
 62
     7
100
AcDbLine
 10
250.0
 20
-95.0
 30
0.0
 11
250.0
 21
-200.0
 31
0.0
  0
LWPOLYLINE
  5
116
330
4F4
100
AcDbEntity
  8
__
  6
Continuous
 62
     7
100
AcDbPolyline
 90
        3
 70
   128
 43
0.0
 10
247.3206716188971
 20
-104.9993896484375
 10
250.0
 20
-95.0
 10
252.6793283811029
 20
-104.9993896484375
  0
LWPOLYLINE
  5
11B
330
4F4
100
AcDbEntity
  8
__
  6
Continuous
 62
     7
100
AcDbPolyline
 90
        3
 70
   128
 43
0.0
 10
252.6793283811029
 20
-190.0006103515625
 10
250.0
 20
-200.0
 10
247.3206716188971
 20
-190.0006103515625
  0
TEXT
  5
120
330
4F4
100
AcDbEntity
  8
__
 62
     7
100
AcDbText
 10
245.0305555555555
 20
-138.2291666666667
 30
0.0
 40
13.53922526041667
  1
105
 50
90.0
 41
0.7
 11
231.4913302951389
 21
-138.2291666666667
 31
0.0
100
AcDbText
 73
     3
  0
LINE
  5
121
330
4F4
100
AcDbEntity
  8
__
  6
Continuous
 62
     7
100
AcDbLine
 10
156.0
 20
-95.0
 30
0.0
 11
217.5
 21
-95.0
 31
0.0
  0
LINE
  5
122
330
4F4
100
AcDbEntity
  8
__
  6
Continuous
 62
     7
100
AcDbLine
 10
156.0
 20
-155.0
 30
0.0
 11
217.5
 21
-155.0
 31
0.0
  0
LINE
  5
123
330
4F4
100
AcDbEntity
  8
__
  6
Continuous
 62
     7
100
AcDbLine
 10
212.5
 20
-95.0
 30
0.0
 11
212.5
 21
-155.0
 31
0.0
  0
LWPOLYLINE
  5
124
330
4F4
100
AcDbEntity
  8
__
  6
Continuous
 62
     7
100
AcDbPolyline
 90
        3
 70
   128
 43
0.0
 10
209.8206716188971
 20
-104.9993896484375
 10
212.5
 20
-95.0
 10
215.1793283811029
 20
-104.9993896484375
  0
LWPOLYLINE
  5
129
330
4F4
100
AcDbEntity
  8
__
  6
Continuous
 62
     7
100
AcDbPolyline
 90
        3
 70
   128
 43
0.0
 10
215.1793283811029
 20
-145.0006103515625
 10
212.5
 20
-155.0
 10
209.8206716188971
 20
-145.0006103515625
  0
TEXT
  5
12E
330
4F4
100
AcDbEntity
  8
__
 62
     7
100
AcDbText
 10
207.5305555555555
 20
-142.6388888888889
 30
0.0
 40
13.53922526041667
  1
60.0
 50
90.0
 41
0.7
 11
193.9913302951389
 21
-142.6388888888889
 31
0.0
100
AcDbText
 73
     3
  0
LINE
  5
12F
330
4F4
100
AcDbEntity
  8
__
  6
Continuous
 62
     7
100
AcDbLine
 10
128.0
 20
-189.1
 30
0.0
 11
94.90358968629994
 21
-189.1
 31
0.0
  0
LINE
  5
130
330
4F4
100
AcDbEntity
  8
__
  6
Continuous
 62
     7
100
AcDbLine
 10
128.0
 20
-246.1
 30
0.0
 11
94.90358968629994
 21
-246.1
 31
0.0
  0
LINE
  5
131
330
4F4
100
AcDbEntity
  8
__
  6
Continuous
 62
     7
100
AcDbLine
 10
99.90358968629994
 20
-189.1
 30
0.0
 11
99.90358968629994
 21
-246.1
 31
0.0
  0
LWPOLYLINE
  5
132
330
4F4
100
AcDbEntity
  8
__
  6
Continuous
 62
     7
100
AcDbPolyline
 90
        3
 70
   128
 43
0.0
 10
97.22426130519699
 20
-199.0993896484375
 10
99.90358968629994
 20
-189.1
 10
102.5829180674029
 20
-199.0993896484375
  0
LWPOLYLINE
  5
137
330
4F4
100
AcDbEntity
  8
__
  6
Continuous
 62
     7
100
AcDbPolyline
 90
        3
 70
   128
 43
0.0
 10
102.5829180674029
 20
-236.1006103515625
 10
99.90358968629994
 20
-246.1
 10
97.22426130519699
 20
-236.1006103515625
  0
TEXT
  5
13C
330
4F4
100
AcDbEntity
  8
__
 62
     7
100
AcDbText
 10
94.9341452418555
 20
-235.2388888888889
 30
0.0
 40
13.53922526041667
  1
57.0
 50
90.0
 41
0.7
 11
81.39491998143883
 21
-235.2388888888889
 31
0.0
100
AcDbText
 73
     3
  0
LINE
  5
13D
330
4F4
100
AcDbEntity
  8
__
  6
Continuous
 62
     7
100
AcDbLine
 10
128.0
 20
-246.1
 30
0.0
 11
94.90358968629994
 21
-246.1
 31
0.0
  0
LINE
  5
13E
330
4F4
100
AcDbEntity
  8
__
  6
Continuous
 62
     7
100
AcDbLine
 10
128.0
 20
-271.1
 30
0.0
 11
94.90358968629994
 21
-271.1
 31
0.0
  0
LINE
  5
13F
330
4F4
100
AcDbEntity
  8
__
  6
Continuous
 62
     7
100
AcDbLine
 10
99.90358968629994
 20
-271.1
 30
0.0
 11
99.90358968629994
 21
-311.3888888888889
 31
0.0
  0
LINE
  5
140
330
4F4
100
AcDbEntity
  8
__
  6
Continuous
 62
     7
100
AcDbLine
 10
99.90358968629994
 20
-246.1
 30
0.0
 11
99.90358968629994
 21
-271.1
 31
0.0
  0
LWPOLYLINE
  5
141
330
4F4
100
AcDbEntity
  8
__
  6
Continuous
 62
     7
100
AcDbPolyline
 90
        3
 70
   128
 43
0.0
 10
97.22426130519699
 20
-256.0993896484375
 10
99.90358968629994
 20
-246.1
 10
102.5829180674029
 20
-256.0993896484375
  0
LWPOLYLINE
  5
146
330
4F4
100
AcDbEntity
  8
__
  6
Continuous
 62
     7
100
AcDbPolyline
 90
        3
 70
   128
 43
0.0
 10
102.5829180674029
 20
-261.1006103515625
 10
99.90358968629994
 20
-271.1
 10
97.22426130519699
 20
-261.1006103515625
  0
TEXT
  5
14B
330
4F4
100
AcDbEntity
  8
__
 62
     7
100
AcDbText
 10
94.9341452418555
 20
-311.3888888888889
 30
0.0
 40
13.53922526041667
  1
25.0
 50
90.0
 41
0.7
 11
81.39491998143883
 21
-311.3888888888889
 31
0.0
100
AcDbText
 73
     3
  0
LINE
  5
14C
330
4F4
100
AcDbEntity
  8
__
  6
Continuous
 62
     7
100
AcDbLine
 10
172.7862462771157
 20
-92.72034395508702
 30
0.0
 11
225.0
 21
-49.99999999999999
 31
0.0
  0
LWPOLYLINE
  5
14D
330
4F4
100
AcDbEntity
  8
__
  6
Continuous
 62
     7
100
AcDbPolyline
 90
        3
 70
   128
 43
0.0
 10
182.2433875439801
 20
-88.50975338206383
 10
172.7862462771157
 20
-92.72034395508702
 10
178.8710755748868
 20
-84.34529492048142
  0
LINE
  5
152
330
4F4
100
AcDbEntity
  8
__
  6
Continuous
 62
     7
100
AcDbLine
 10
225.0
 20
-49.99999999999999
 30
0.0
 11
235.0
 21
-49.99999999999999
 31
0.0
  0
TEXT
  5
153
330
4F4
100
AcDbEntity
  8
__
 62
     7
100
AcDbText
 10
235.0
 20
-56.34999999999999
 30
0.0
 40
13.53922526041667
  1
Φ7.2
 41
0.7
 11
235.0
 21
-42.81077473958332
 31
0.0
100
AcDbText
 73
     3
  0
TEXT
  5
154
330
4F4
100
AcDbEntity
  8
__
 62
     7
100
AcDbText
 10
279.0972222222222
 20
-56.34999999999999
 30
0.0
 40
13.53922526041667
  1
(6ヵ所)
 41
0.7
 11
279.0972222222222
 21
-42.81077473958332
 31
0.0
100
AcDbText
 73
     3
  0
LINE
  5
155
330
4F4
100
AcDbEntity
  8
__
  6
Continuous
 62
     7
100
AcDbLine
 10
176.0
 20
-95.0
 30
0.0
 11
217.5
 21
-95.0
 31
0.0
  0
LINE
  5
156
330
4F4
100
AcDbEntity
  8
__
  6
Continuous
 62
     7
100
AcDbLine
 10
183.5
 20
-70.0
 30
0.0
 11
217.5
 21
-70.0
 31
0.0
  0
LINE
  5
157
330
4F4
100
AcDbEntity
  8
__
  6
Continuous
 62
     7
100
AcDbLine
 10
212.5
 20
-70.0
 30
0.0
 11
212.5
 21
-9.722222222222221
 31
0.0
  0
LINE
  5
158
330
4F4
100
AcDbEntity
  8
__
  6
Continuous
 62
     7
100
AcDbLine
 10
212.5
 20
-95.0
 30
0.0
 11
212.5
 21
-70.0
 31
0.0
  0
LWPOLYLINE
  5
159
330
4F4
100
AcDbEntity
  8
__
  6
Continuous
 62
     7
100
AcDbPolyline
 90
        3
 70
   128
 43
0.0
 10
215.1793283811029
 20
-85.0006103515625
 10
212.5
 20
-95.0
 10
209.8206716188971
 20
-85.0006103515625
  0
LWPOLYLINE
  5
15E
330
4F4
100
AcDbEntity
  8
__
  6
Continuous
 62
     7
100
AcDbPolyline
 90
        3
 70
   128
 43
0.0
 10
209.8206716188971
 20
-79.9993896484375
 10
212.5
 20
-70.0
 10
215.1793283811029
 20
-79.9993896484375
  0
TEXT
  5
163
330
4F4
100
AcDbEntity
  8
__
 62
     7
100
AcDbText
 10
207.5305555555555
 20
-62.63888888888889
 30
0.0
 40
13.53922526041667
  1
(25.0
 50
90.0
 41
0.7
 11
193.9913302951389
 21
-62.63888888888889
 31
0.0
100
AcDbText
 73
     3
  0
TEXT
  5
164
330
4F4
100
AcDbEntity
  8
__
 62
     7
100
AcDbText
 10
207.5305555555555
 20
-18.54166666666666
 30
0.0
 40
13.53922526041667
  1
)
 50
90.0
 41
0.7
 11
193.9913302951389
 21
-18.54166666666666
 31
0.0
100
AcDbText
 73
     3
  0
LINE
  5
165
330
4F4
100
AcDbEntity
  8
__
  6
Continuous
 62
     7
100
AcDbLine
 10
99.65958877059984
 20
-81.8149278299
 30
0.0
 11
99.65958877059984
 21
-13.75
 31
0.0
  0
LINE
  5
166
330
4F4
100
AcDbEntity
  8
__
  6
Continuous
 62
     7
100
AcDbLine
 10
177.5
 20
-64.0
 30
0.0
 11
177.5
 21
-13.75
 31
0.0
  0
LINE
  5
167
330
4F4
100
AcDbEntity
  8
__
  6
Continuous
 62
     7
100
AcDbLine
 10
99.65958877059984
 20
-18.75
 30
0.0
 11
177.5
 21
-18.75
 31
0.0
  0
LWPOLYLINE
  5
168
330
4F4
100
AcDbEntity
  8
__
  6
Continuous
 62
     7
100
AcDbPolyline
 90
        3
 70
   128
 43
0.0
 10
109.6589784190373
 20
-21.42932838110296
 10
99.65958877059984
 20
-18.75
 10
109.6589784190373
 20
-16.07067161889704
  0
LWPOLYLINE
  5
16D
330
4F4
100
AcDbEntity
  8
__
  6
Continuous
 62
     7
100
AcDbPolyline
 90
        3
 70
   128
 43
0.0
 10
167.5006103515625
 20
-16.07067161889704
 10
177.5
 20
-18.75
 10
167.5006103515625
 20
-21.42932838110296
  0
TEXT
  5
172
330
4F4
100
AcDbEntity
  8
__
 62
     7
100
AcDbText
 10
112.1214610519665
 20
-13.78055555555556
 30
0.0
 40
13.53922526041667
  1
(78.0)
 41
0.7
 11
112.1214610519665
 21
-0.2413302951388889
 31
0.0
100
AcDbText
 73
     3
  0
LINE
  5
173
330
4F4
100
AcDbEntity
  8
__
  6
Continuous
 62
     7
100
AcDbLine
 10
130.2224485283
 20
-186.3035549571
 30
0.0
 11
99.79746640336919
 21
-163.7805553153
 31
0.0
  0
LWPOLYLINE
  5
174
330
4F4
100
AcDbEntity
  8
__
  6
Continuous
 62
     7
100
AcDbPolyline
 90
        3
 70
   128
 43
0.0
 10
123.8490409479639
 20
-178.1459652560929
 10
130.2224485283
 20
-186.3035549571
 10
120.6241208045531
 20
-182.4255788325456
  0
LINE
  5
179
330
4F4
100
AcDbEntity
  8
__
  6
Continuous
 62
     7
100
AcDbLine
 10
99.79746640336919
 20
-163.7805553153
 30
0.0
 11
89.79746640336919
 21
-163.7805553153
 31
0.0
  0
TEXT
  5
17A
330
4F4
100
AcDbEntity
  8
__
 62
     7
100
AcDbText
 10
-16.03586692996414
 20
-170.1305553153
 30
0.0
 40
13.53922526041667
  1
φ4.2(8ヵ所)
 41
0.7
 11
-16.03586692996414
 21
-156.5913300548833
 31
0.0
100
AcDbText
 73
     3
  0
LINE
  5
17B
330
4F4
100
AcDbEntity
  8
__
  6
Continuous
 62
     7
100
AcDbLine
 10
49.29002507653055
 20
-2.090025076530766
 30
0.0
 11
26.31446609406715
 21
20.88553390593264
 31
0.0
  0
LINE
  5
17C
330
4F4
100
AcDbEntity
  8
__
  6
Continuous
 62
     7
100
AcDbLine
 10
38.68342335873055
 20
-26.83876241803074
 30
0.0
 11
8.636796564417164
 21
3.207864376282647
 31
0.0
  0
LINE
  5
17D
330
4F4
100
AcDbEntity
  8
__
  6
Continuous
 62
     7
100
AcDbLine
 10
29.84999999999989
 20
17.3499999999999
 30
0.0
 11
57.97663387186043
 21
45.47663387186044
 31
0.0
  0
LINE
  5
17E
330
4F4
100
AcDbEntity
  8
__
  6
Continuous
 62
     7
100
AcDbLine
 10
29.84999999999989
 20
17.3499999999999
 30
0.0
 11
12.1723304703499
 21
-0.3276695296500911
 31
0.0
  0
LWPOLYLINE
  5
17F
330
4F4
100
AcDbEntity
  8
__
  6
Continuous
 62
     7
100
AcDbPolyline
 90
        3
 70
   128
 43
0.0
 10
20.88479250455969
 20
12.17393503916665
 10
29.84999999999989
 20
17.3499999999999
 10
24.67393503916664
 20
8.3847925045597
  0
LWPOLYLINE
  5
184
330
4F4
100
AcDbEntity
  8
__
  6
Continuous
 62
     7
100
AcDbPolyline
 90
        3
 70
   128
 43
0.0
 10
21.1375379657901
 20
4.848395431183157
 10
12.1723304703499
 20
-0.3276695296500911
 10
17.34839543118315
 20
8.637537965790107
  0
TEXT
  5
189
330
4F4
100
AcDbEntity
  8
__
 62
     7
100
AcDbText
 10
29.51755011460519
 20
24.04540584539815
 30
0.0
 40
13.53922526041667
  1
25.0
 50
45.0
 41
0.7
 11
19.94387212095236
 21
33.61908383905098
 31
0.0
100
AcDbText
 73
     3
  0
LINE
  5
18A
330
4F4
100
AcDbEntity
  8
__
  6
Continuous
 62
     7
100
AcDbLine
 10
52.82555898243046
 20
-23.30322851213077
 30
0.0
 11
29.97563132921711
 21
-0.4533008589174159
 31
0.0
  0
LINE
  5
18B
330
4F4
100
AcDbEntity
  8
__
  6
Continuous
 62
     7
100
AcDbLine
 10
38.68342335873055
 20
-26.83876241803074
 30
0.0
 11
21.13679656441716
 21
-9.292135623717353
 31
0.0
  0
LINE
  5
18C
330
4F4
100
AcDbEntity
  8
__
  6
Continuous
 62
     7
100
AcDbLine
 10
24.6723304703499
 20
-12.82766952965009
 30
0.0
 11
33.51116523514985
 21
-3.988834764850154
 31
0.0
  0
LINE
  5
18D
330
4F4
100
AcDbEntity
  8
__
  6
Continuous
 62
     7
100
AcDbLine
 10
33.51116523514985
 20
-3.988834764850154
 30
0.0
 11
45.88553390591443
 21
8.385533905914428
 31
0.0
  0
LWPOLYLINE
  5
18E
330
4F4
100
AcDbEntity
  8
__
  6
Continuous
 62
     7
100
AcDbPolyline
 90
        3
 70
   128
 43
0.0
 10
42.47637273059004
 20
1.187230195983094
 10
33.51116523514985
 20
-3.988834764850154
 10
38.6872301959831
 20
4.976372730590045
  0
LINE
  5
193
330
4F4
100
AcDbEntity
  8
__
  6
Continuous
 62
     7
100
AcDbLine
 10
24.6723304703499
 20
-12.82766952965009
 30
0.0
 11
-7.976633871860447
 21
-45.47663387186044
 31
0.0
  0
LWPOLYLINE
  5
194
330
4F4
100
AcDbEntity
  8
__
  6
Continuous
 62
     7
100
AcDbPolyline
 90
        3
 70
   128
 43
0.0
 10
15.7071229749097
 20
-18.00373449048334
 10
24.6723304703499
 20
-12.82766952965009
 10
19.49626550951665
 20
-21.79287702509029
  0
TEXT
  5
199
330
4F4
100
AcDbEntity
  8
__
 62
     7
100
AcDbText
 10
-11.49056173725693
 20
-41.96270600646395
 30
0.0
 40
13.53922526041667
  1
12.5
 50
45.0
 41
0.7
 11
-21.06423973090976
 21
-32.38902801281112
 31
0.0
100
AcDbText
 73
     3
  0
LINE
  5
19A
330
4F4
100
AcDbEntity
  8
__
  6
Continuous
 62
     7
100
AcDbLine
 10
38.68342335873056
 20
-21.18190816856935
 30
0.0
 11
6.437012922717201
 21
-53.42831860458278
 31
0.0
  0
LINE
  5
19B
330
4F4
100
AcDbEntity
  8
__
  6
Continuous
 62
     7
100
AcDbLine
 10
63.43216070023048
 20
-45.93064551006933
 30
0.0
 11
31.18575026421717
 21
-78.1770559460827
 31
0.0
  0
LINE
  5
19C
330
4F4
100
AcDbEntity
  8
__
  6
Continuous
 62
     7
100
AcDbLine
 10
34.72128417014991
 20
-74.64152204014997
 30
0.0
 11
62.94449344537932
 21
-102.8647313153793
 31
0.0
  0
LINE
  5
19D
330
4F4
100
AcDbEntity
  8
__
  6
Continuous
 62
     7
100
AcDbLine
 10
9.97254682864994
 20
-49.89278469865004
 30
0.0
 11
34.72128417014991
 21
-74.64152204014997
 31
0.0
  0
LWPOLYLINE
  5
19E
330
4F4
100
AcDbEntity
  8
__
  6
Continuous
 62
     7
100
AcDbPolyline
 90
        3
 70
   128
 43
0.0
 10
15.30428789472382
 20
-58.76629196012248
 10
9.97254682864994
 20
-49.89278469865004
 10
19.02672366900687
 20
-54.91159687471391
  0
LWPOLYLINE
  5
1A3
330
4F4
100
AcDbEntity
  8
__
  6
Continuous
 62
     7
100
AcDbPolyline
 90
        3
 70
   128
 43
0.0
 10
29.54521920931666
 20
-65.67631454470977
 10
34.72128417014991
 20
-74.64152204014997
 10
25.75607667470971
 20
-69.46545707931672
  0
TEXT
  5
1A8
330
4F4
100
AcDbEntity
  8
__
 62
     7
100
AcDbText
 10
41.51326541891701
 20
-74.4056475581241
 30
0.0
 40
13.53922526041667
  1
35.0
 50
315.0000000000001
 41
0.7
 11
51.08694341256982
 21
-64.83196956447127
 31
0.0
100
AcDbText
 73
     3
  0
LINE
  5
1A9
330
4F4
100
AcDbEntity
  8
__
  6
Continuous
 62
     7
100
AcDbLine
 10
58.29150277705019
 20
-22.69782531459481
 30
0.0
 11
68.75
 21
18.75
 31
0.0
  0
LWPOLYLINE
  5
1AA
330
4F4
100
AcDbEntity
  8
__
  6
Continuous
 62
     7
100
AcDbPolyline
 90
        3
 70
   128
 43
0.0
 10
63.46756773788344
 20
-13.73261781915461
 10
58.29150277705019
 20
-22.69782531459481
 10
58.29150277705019
 20
-12.34569539292831
  0
LINE
  5
1AF
330
4F4
100
AcDbEntity
  8
__
  6
Continuous
 62
     7
100
AcDbLine
 10
68.75
 20
18.75
 30
0.0
 11
78.75
 21
18.75
 31
0.0
  0
TEXT
  5
1B0
330
4F4
100
AcDbEntity
  8
__
 62
     7
100
AcDbText
 10
78.75
 20
12.4
 30
0.0
 40
13.53922526041667
  1
φ10.0
 41
0.7
 11
78.75
 21
25.93922526041666
 31
0.0
100
AcDbText
 73
     3
  0
LINE
  5
1B1
330
4F4
100
AcDbEntity
  8
__
  6
Continuous
 62
     7
100
AcDbLine
 10
-129.0
 20
-8.749999999999986
 30
0.0
 11
-95.0
 21
-8.749999999999986
 31
0.0
  0
LINE
  5
1B2
330
4F4
100
AcDbEntity
  8
__
  6
Continuous
 62
     7
100
AcDbLine
 10
-129.0
 20
46.25
 30
0.0
 11
-95.0
 21
46.25
 31
0.0
  0
LINE
  5
1B3
330
4F4
100
AcDbEntity
  8
__
  6
Continuous
 62
     7
100
AcDbLine
 10
-100.0
 20
-8.749999999999986
 30
0.0
 11
-100.0
 21
46.25
 31
0.0
  0
LWPOLYLINE
  5
1B4
330
4F4
100
AcDbEntity
  8
__
  6
Continuous
 62
     7
100
AcDbPolyline
 90
        3
 70
   128
 43
0.0
 10
-97.32067161889704
 20
1.249389648437514
 10
-100.0
 20
-8.749999999999986
 10
-102.6793283811029
 20
1.249389648437514
  0
LWPOLYLINE
  5
1B9
330
4F4
100
AcDbEntity
  8
__
  6
Continuous
 62
     7
100
AcDbPolyline
 90
        3
 70
   128
 43
0.0
 10
-102.6793283811029
 20
36.2506103515625
 10
-100.0
 20
46.25
 10
-97.32067161889704
 20
36.2506103515625
  0
TEXT
  5
1BE
330
4F4
100
AcDbEntity
  8
__
 62
     7
100
AcDbText
 10
-104.9694444444444
 20
1.111111111111117
 30
0.0
 40
13.53922526041667
  1
55.0
 50
90.0
 41
0.7
 11
-118.5086697048611
 21
1.111111111111118
 31
0.0
100
AcDbText
 73
     3
  0
LINE
  5
1BF
330
4F4
100
AcDbEntity
  8
__
  6
Continuous
 62
     7
100
AcDbLine
 10
-261.0
 20
-1.249999999999986
 30
0.0
 11
-290.0
 21
-1.249999999999986
 31
0.0
  0
LINE
  5
1C0
330
4F4
100
AcDbEntity
  8
__
  6
Continuous
 62
     7
100
AcDbLine
 10
-261.0
 20
38.75
 30
0.0
 11
-290.0
 21
38.75
 31
0.0
  0
LINE
  5
1C1
330
4F4
100
AcDbEntity
  8
__
  6
Continuous
 62
     7
100
AcDbLine
 10
-285.0
 20
-1.249999999999986
 30
0.0
 11
-285.0
 21
38.75
 31
0.0
  0
LWPOLYLINE
  5
1C2
330
4F4
100
AcDbEntity
  8
__
  6
Continuous
 62
     7
100
AcDbPolyline
 90
        3
 70
   128
 43
0.0
 10
-282.3206716188971
 20
8.749389648437514
 10
-285.0
 20
-1.249999999999986
 10
-287.6793283811029
 20
8.749389648437514
  0
LWPOLYLINE
  5
1C7
330
4F4
100
AcDbEntity
  8
__
  6
Continuous
 62
     7
100
AcDbPolyline
 90
        3
 70
   128
 43
0.0
 10
-287.6793283811029
 20
28.7506103515625
 10
-285.0
 20
38.75
 10
-282.3206716188971
 20
28.7506103515625
  0
TEXT
  5
1CC
330
4F4
100
AcDbEntity
  8
__
 62
     7
100
AcDbText
 10
-289.9694444444444
 20
1.111111111111117
 30
0.0
 40
13.53922526041667
  1
40.0
 50
90.0
 41
0.7
 11
-303.5086697048611
 21
1.111111111111118
 31
0.0
100
AcDbText
 73
     3
  0
LINE
  5
1CD
330
4F4
100
AcDbEntity
  8
__
  6
Continuous
 62
     7
100
AcDbLine
 10
-157.2666762314791
 20
41.09284894449263
 30
0.0
 11
-125.0
 21
68.75000000000001
 31
0.0
  0
LWPOLYLINE
  5
1CE
330
4F4
100
AcDbEntity
  8
__
  6
Continuous
 62
     7
100
AcDbPolyline
 90
        3
 70
   128
 43
0.0
 10
-147.8844602710576
 20
45.46784809730121
 10
-157.2666762314791
 20
41.09284894449263
 10
-151.3289384423666
 20
49.57281733257098
  0
LINE
  5
1D3
330
4F4
100
AcDbEntity
  8
__
  6
Continuous
 62
     7
100
AcDbLine
 10
-125.0
 20
68.75000000000001
 30
0.0
 11
-115.0
 21
68.75000000000001
 31
0.0
  0
TEXT
  5
1D4
330
4F4
100
AcDbEntity
  8
__
 62
     7
100
AcDbText
 10
-115.0
 20
62.40000000000001
 30
0.0
 40
13.53922526041667
  1
φ7.2
 41
0.7
 11
-115.0
 21
75.93922526041668
 31
0.0
100
AcDbText
 73
     3
  0
TEXT
  5
1D5
330
4F4
100
AcDbEntity
  8
__
 62
     7
100
AcDbText
 10
-70.9027777777778
 20
62.40000000000001
 30
0.0
 40
13.53922526041667
  1
(4ヵ所)
 41
0.7
 11
-70.9027777777778
 21
75.93922526041668
 31
0.0
100
AcDbText
 73
     3
  0
LINE
  5
1D6
330
4F4
100
AcDbEntity
  8
__
  6
Continuous
 62
     7
100
AcDbLine
 10
-138.2
 20
-286.0
 30
0.0
 11
-138.2
 21
-305.0
 31
0.0
  0
LINE
  5
1D7
330
4F4
100
AcDbEntity
  8
__
  6
Continuous
 62
     7
100
AcDbLine
 10
-135.0
 20
-286.0
 30
0.0
 11
-135.0
 21
-305.0
 31
0.0
  0
LINE
  5
1D8
330
4F4
100
AcDbEntity
  8
__
  6
Continuous
 62
     7
100
AcDbLine
 10
-135.0
 20
-300.0
 30
0.0
 11
-138.2
 21
-300.0
 31
0.0
  0
LINE
  5
1D9
330
4F4
100
AcDbEntity
  8
__
  6
Continuous
 62
     7
100
AcDbLine
 10
-138.2
 20
-300.0
 30
0.0
 11
-155.7
 21
-300.0
 31
0.0
  0
LWPOLYLINE
  5
1DA
330
4F4
100
AcDbEntity
  8
__
  6
Continuous
 62
     7
100
AcDbPolyline
 90
        3
 70
   128
 43
0.0
 10
-148.1993896484375
 20
-297.3206716188971
 10
-138.2
 20
-300.0
 10
-148.1993896484375
 20
-302.6793283811029
  0
LINE
  5
1DF
330
4F4
100
AcDbEntity
  8
__
  6
Continuous
 62
     7
100
AcDbLine
 10
-135.0
 20
-300.0
 30
0.0
 11
-70.90277777777779
 21
-300.0
 31
0.0
  0
LWPOLYLINE
  5
1E0
330
4F4
100
AcDbEntity
  8
__
  6
Continuous
 62
     7
100
AcDbPolyline
 90
        3
 70
   128
 43
0.0
 10
-125.0006103515625
 20
-302.6793283811029
 10
-135.0
 20
-300.0
 10
-125.0006103515625
 20
-297.3206716188971
  0
TEXT
  5
1E5
330
4F4
100
AcDbEntity
  8
__
 62
     7
100
AcDbText
 10
-115.0
 20
-295.0305555555556
 30
0.0
 40
13.53922526041667
  1
(3.2
 41
0.7
 11
-115.0
 21
-281.4913302951389
 31
0.0
100
AcDbText
 73
     3
  0
TEXT
  5
1E6
330
4F4
100
AcDbEntity
  8
__
 62
     7
100
AcDbText
 10
-79.72222222222223
 20
-295.0305555555556
 30
0.0
 40
13.53922526041667
  1
)
 41
0.7
 11
-79.72222222222223
 21
-281.4913302951389
 31
0.0
100
AcDbText
 73
     3
  0
LINE
  5
1E7
330
4F4
100
AcDbEntity
  8
__-1
  6
Continuous
 62
     7
100
AcDbLine
 10
122.5
 20
-64.0
 30
0.0
 11
122.5
 21
-38.75
 31
0.0
  0
LINE
  5
1E8
330
4F4
100
AcDbEntity
  8
__-1
  6
Continuous
 62
     7
100
AcDbLine
 10
177.5
 20
-64.0
 30
0.0
 11
177.5
 21
-38.75
 31
0.0
  0
LINE
  5
1E9
330
4F4
100
AcDbEntity
  8
__-1
  6
Continuous
 62
     7
100
AcDbLine
 10
122.5
 20
-43.75
 30
0.0
 11
177.5
 21
-43.75
 31
0.0
  0
LWPOLYLINE
  5
1EA
330
4F4
100
AcDbEntity
  8
__-1
  6
Continuous
 62
     7
100
AcDbPolyline
 90
        3
 70
   128
 43
0.0
 10
132.4993896484375
 20
-46.42932838110296
 10
122.5
 20
-43.75
 10
132.4993896484375
 20
-41.07067161889704
  0
LWPOLYLINE
  5
1EF
330
4F4
100
AcDbEntity
  8
__-1
  6
Continuous
 62
     7
100
AcDbPolyline
 90
        3
 70
   128
 43
0.0
 10
167.5006103515625
 20
-41.07067161889704
 10
177.5
 20
-43.75
 10
167.5006103515625
 20
-46.42932838110296
  0
TEXT
  5
1F4
330
4F4
100
AcDbEntity
  8
__-1
 62
     7
100
AcDbText
 10
132.3611111111111
 20
-38.78055555555555
 30
0.0
 40
13.53922526041668
  1
55.0
 41
0.7
 11
132.3611111111111
 21
-25.24133029513887
 31
0.0
100
AcDbText
 73
     3
  0
LINE
  5
1F5
330
4F4
100
AcDbEntity
  8
__
  6
Continuous
 62
     7
100
AcDbLine
 10
56.25
 20
-131.25
 30
0.0
 11
-118.75
 21
-131.25
 31
0.0
  0
LINE
  5
1F6
330
4F4
100
AcDbEntity
  8
__
  6
Continuous
 62
     7
100
AcDbLine
 10
-141.95
 20
-102.5055534995
 30
0.0
 11
-118.75
 21
-131.25
 31
0.0
  0
LWPOLYLINE
  5
1F7
330
4F4
100
AcDbEntity
  8
__
  6
Continuous
 62
     7
100
AcDbPolyline
 90
        3
 70
   128
 43
0.0
 10
-135.2652794623633
 20
-117.519681650305
 10
-141.95
 20
-102.5055534995
 10
-128.6537981218045
 20
-112.1658096249538
  0
TEXT
  5
1FC
330
4F4
100
AcDbEntity
  8
__
 62
     7
100
AcDbText
 10
-114.3194444444445
 20
-125.7805555555555
 30
0.0
 40
13.53922526041668
  1
M6溶接ナット(2ヵ所)
 41
0.7
 11
-114.3194444444445
 21
-112.2413302951389
 31
0.0
100
AcDbText
 73
     3
  0
TEXT
  5
1FD
330
4F4
100
AcDbEntity
  8
__
 62
     7
100
AcDbText
 10
-16.03586692996413
 20
-187.7694442041889
 30
0.0
 40
13.53922526041668
  1
皿モミ加工
 41
0.7
 11
-16.03586692996413
 21
-174.2302189437722
 31
0.0
100
AcDbText
 73
     3
  0
LINE
  5
1FE
330
4F4
100
AcDbEntity
  8
__
  6
Continuous
 62
     7
100
AcDbLine
 10
-141.95
 20
-147.4944465006
 30
0.0
 11
-118.75
 21
-131.25
 31
0.0
  0
LWPOLYLINE
  5
1FF
330
4F4
100
AcDbEntity
  8
__
  6
Continuous
 62
     7
100
AcDbPolyline
 90
        3
 70
   128
 43
0.0
 10
-126.4103933561798
 20
-142.1437308334731
 10
-141.95
 20
-147.4944465006
 10
-131.1676637151977
 20
-135.0907874825306
  0
LINE
  5
204
330
4F4
100
AcDbEntity
  8
__-1
  6
Continuous
 62
     7
100
AcDbLine
 10
-265.0
 20
47.25
 30
0.0
 11
-265.0
 21
98.75
 31
0.0
  0
LINE
  5
205
330
4F4
100
AcDbEntity
  8
__-1
  6
Continuous
 62
     7
100
AcDbLine
 10
-255.0
 20
50.84999999999999
 30
0.0
 11
-255.0
 21
98.75
 31
0.0
  0
LINE
  5
206
330
4F4
100
AcDbEntity
  8
__-1
  6
Continuous
 62
     7
100
AcDbLine
 10
-255.0
 20
93.75
 30
0.0
 11
-265.0
 21
93.75
 31
0.0
  0
LINE
  5
207
330
4F4
100
AcDbEntity
  8
__-1
  6
Continuous
 62
     7
100
AcDbLine
 10
-265.0
 20
93.75
 30
0.0
 11
-311.3888888888889
 21
93.75
 31
0.0
  0
LWPOLYLINE
  5
208
330
4F4
100
AcDbEntity
  8
__-1
  6
Continuous
 62
     7
100
AcDbPolyline
 90
        3
 70
   128
 43
0.0
 10
-274.9993896484375
 20
96.42932838110296
 10
-265.0
 20
93.75
 10
-274.9993896484375
 20
91.07067161889704
  0
LINE
  5
20D
330
4F4
100
AcDbEntity
  8
__-1
  6
Continuous
 62
     7
100
AcDbLine
 10
-255.0
 20
93.75
 30
0.0
 11
-237.5
 21
93.75
 31
0.0
  0
LWPOLYLINE
  5
20E
330
4F4
100
AcDbEntity
  8
__-1
  6
Continuous
 62
     7
100
AcDbPolyline
 90
        3
 70
   128
 43
0.0
 10
-245.0006103515625
 20
91.07067161889704
 10
-255.0
 20
93.75
 10
-245.0006103515625
 20
96.42932838110296
  0
TEXT
  5
213
330
4F4
100
AcDbEntity
  8
__-1
 62
     7
100
AcDbText
 10
-311.388888888889
 20
98.71944444444446
 30
0.0
 40
13.53922526041668
  1
10.0
 41
0.7
 11
-311.388888888889
 21
112.2586697048611
 31
0.0
100
AcDbText
 73
     3
  0
LINE
  5
214
330
4F4
100
AcDbEntity
  8
__-1
  6
Continuous
 62
     7
100
AcDbLine
 10
-255.0
 20
50.84999999999999
 30
0.0
 11
-255.0
 21
98.75
 31
0.0
  0
LINE
  5
215
330
4F4
100
AcDbEntity
  8
__-1
  6
Continuous
 62
     7
100
AcDbLine
 10
-160.0
 20
50.84999999999999
 30
0.0
 11
-160.0
 21
98.75
 31
0.0
  0
LINE
  5
216
330
4F4
100
AcDbEntity
  8
__-1
  6
Continuous
 62
     7
100
AcDbLine
 10
-255.0
 20
93.75
 30
0.0
 11
-160.0
 21
93.75
 31
0.0
  0
LWPOLYLINE
  5
217
330
4F4
100
AcDbEntity
  8
__-1
  6
Continuous
 62
     7
100
AcDbPolyline
 90
        3
 70
   128
 43
0.0
 10
-245.0006103515625
 20
91.07067161889704
 10
-255.0
 20
93.75
 10
-245.0006103515625
 20
96.42932838110296
  0
LWPOLYLINE
  5
21C
330
4F4
100
AcDbEntity
  8
__-1
  6
Continuous
 62
     7
100
AcDbPolyline
 90
        3
 70
   128
 43
0.0
 10
-169.9993896484375
 20
96.42932838110296
 10
-160.0
 20
93.75
 10
-169.9993896484375
 20
91.07067161889704
  0
TEXT
  5
221
330
4F4
100
AcDbEntity
  8
__-1
 62
     7
100
AcDbText
 10
-225.1388888888889
 20
98.71944444444446
 30
0.0
 40
13.53922526041668
  1
95.0
 41
0.7
 11
-225.1388888888889
 21
112.2586697048611
 31
0.0
100
AcDbText
 73
     3
  0
LINE
  5
222
330
4F4
100
AcDbEntity
  8
__-1
  6
Continuous
 62
     7
100
AcDbLine
 10
-160.0
 20
50.84999999999999
 30
0.0
 11
-160.0
 21
98.75
 31
0.0
  0
LINE
  5
223
330
4F4
100
AcDbEntity
  8
__-1
  6
Continuous
 62
     7
100
AcDbLine
 10
-135.0
 20
52.25000000000006
 30
0.0
 11
-135.0
 21
98.75
 31
0.0
  0
LINE
  5
224
330
4F4
100
AcDbEntity
  8
__-1
  6
Continuous
 62
     7
100
AcDbLine
 10
-135.0
 20
93.75
 30
0.0
 11
-94.86111111111111
 21
93.75
 31
0.0
  0
LINE
  5
225
330
4F4
100
AcDbEntity
  8
__-1
  6
Continuous
 62
     7
100
AcDbLine
 10
-160.0
 20
93.75
 30
0.0
 11
-135.0
 21
93.75
 31
0.0
  0
LWPOLYLINE
  5
226
330
4F4
100
AcDbEntity
  8
__-1
  6
Continuous
 62
     7
100
AcDbPolyline
 90
        3
 70
   128
 43
0.0
 10
-150.0006103515625
 20
91.07067161889704
 10
-160.0
 20
93.75
 10
-150.0006103515625
 20
96.42932838110296
  0
LWPOLYLINE
  5
22B
330
4F4
100
AcDbEntity
  8
__-1
  6
Continuous
 62
     7
100
AcDbPolyline
 90
        3
 70
   128
 43
0.0
 10
-144.9993896484375
 20
96.42932838110296
 10
-135.0
 20
93.75
 10
-144.9993896484375
 20
91.07067161889704
  0
TEXT
  5
230
330
4F4
100
AcDbEntity
  8
__-1
 62
     7
100
AcDbText
 10
-130.1388888888889
 20
98.71944444444446
 30
0.0
 40
13.53922526041668
  1
25.0
 41
0.7
 11
-130.1388888888889
 21
112.2586697048611
 31
0.0
100
AcDbText
 73
     3
  0
LINE
  5
231
330
4F4
100
AcDbEntity
  8
__-1
  6
Continuous
 62
     7
100
AcDbLine
 10
-265.0
 20
47.25
 30
0.0
 11
-265.0
 21
130.0
 31
0.0
  0
LINE
  5
232
330
4F4
100
AcDbEntity
  8
__-1
  6
Continuous
 62
     7
100
AcDbLine
 10
-135.0
 20
52.25000000000006
 30
0.0
 11
-135.0
 21
130.0
 31
0.0
  0
LINE
  5
233
330
4F4
100
AcDbEntity
  8
__-1
  6
Continuous
 62
     7
100
AcDbLine
 10
-265.0
 20
125.0
 30
0.0
 11
-135.0
 21
125.0
 31
0.0
  0
LWPOLYLINE
  5
234
330
4F4
100
AcDbEntity
  8
__-1
  6
Continuous
 62
     7
100
AcDbPolyline
 90
        3
 70
   128
 43
0.0
 10
-255.0006103515625
 20
122.320671618897
 10
-265.0
 20
125.0
 10
-255.0006103515625
 20
127.679328381103
  0
LWPOLYLINE
  5
239
330
4F4
100
AcDbEntity
  8
__-1
  6
Continuous
 62
     7
100
AcDbPolyline
 90
        3
 70
   128
 43
0.0
 10
-144.9993896484375
 20
127.679328381103
 10
-135.0
 20
125.0
 10
-144.9993896484375
 20
122.320671618897
  0
TEXT
  5
23E
330
4F4
100
AcDbEntity
  8
__-1
 62
     7
100
AcDbText
 10
-213.2291666666667
 20
129.9694444444444
 30
0.0
 40
13.53922526041668
  1
130
 41
0.7
 11
-213.2291666666667
 21
143.5086697048611
 31
0.0
100
AcDbText
 73
     3
  0
LINE
  5
23F
330
4F4
100
AcDbEntity
  8
__-1
  6
Continuous
 62
     7
100
AcDbLine
 10
-155.0768516172
 20
-31.51843795479999
 30
0.0
 11
-95.0
 21
-31.51843795479999
 31
0.0
  0
LINE
  5
240
330
4F4
100
AcDbEntity
  8
__-1
  6
Continuous
 62
     7
100
AcDbLine
 10
-129.0
 20
-8.75
 30
0.0
 11
-95.0
 21
-8.75
 31
0.0
  0
LINE
  5
241
330
4F4
100
AcDbEntity
  8
__-1
  6
Continuous
 62
     7
100
AcDbLine
 10
-100.0
 20
-31.51843795479999
 30
0.0
 11
-100.0
 21
-84.43510462156667
 31
0.0
  0
LINE
  5
242
330
4F4
100
AcDbEntity
  8
__-1
  6
Continuous
 62
     7
100
AcDbLine
 10
-100.0
 20
-31.51843795479999
 30
0.0
 11
-100.0
 21
-8.75
 31
0.0
  0
LWPOLYLINE
  5
243
330
4F4
100
AcDbEntity
  8
__-1
  6
Continuous
 62
     7
100
AcDbPolyline
 90
        3
 70
   128
 43
0.0
 10
-97.32067161889704
 20
-21.51904830636249
 10
-100.0
 20
-31.51843795479999
 10
-102.6793283811029
 20
-21.51904830636249
  0
LWPOLYLINE
  5
248
330
4F4
100
AcDbEntity
  8
__-1
  6
Continuous
 62
     7
100
AcDbPolyline
 90
        3
 70
   128
 43
0.0
 10
-102.6793283811029
 20
-18.7493896484375
 10
-100.0
 20
-8.75
 10
-97.32067161889704
 20
-18.7493896484375
  0
TEXT
  5
24D
330
4F4
100
AcDbEntity
  8
__-1
 62
     7
100
AcDbText
 10
-104.9694444444445
 20
-84.43510462156667
 30
0.0
 40
13.53922526041668
  1
(23.0)
 50
90.0
 41
0.7
 11
-118.5086697048611
 21
-84.43510462156667
 31
0.0
100
AcDbText
 73
     3
  0
TEXT
  5
24E
330
4F4
100
AcDbEntity
  8
__
 62
     7
100
AcDbText
 10
-439.9999999999999
 20
-596.491351111111
 30
0.0
 40
9.477457682291666
  1
※仕様及び外観は予告なく変更されることがあります。 
 41
0.7
 11
-439.9999999999999
 21
-587.0138934288194
 31
0.0
100
AcDbText
 73
     3
  0
TEXT
  5
24F
330
4F4
100
AcDbEntity
  8
__
 62
     7
100
AcDbText
 10
-439.9999999999999
 20
-608.8385733333333
 30
0.0
 40
9.477457682291666
  1
　また、同一商品でも若干の個体差があることがあります。ご了承ください。
 41
0.7
 11
-439.9999999999999
 21
-599.3611156510417
 31
0.0
100
AcDbText
 73
     3
  0
TEXT
  5
250
330
4F4
100
AcDbEntity
  8
__
 62
     7
100
AcDbText
 10
249.9999999999999
 20
-543.9682899999997
 30
0.0
 40
12.185302734375
  1
JBL PROFESSIONAL
 41
0.7
 11
249.9999999999999
 21
-531.7829872656247
 31
0.0
100
AcDbText
 73
     3
  0
TEXT
  5
251
330
4F4
100
AcDbEntity
  8
__
 62
     7
100
AcDbText
 10
275.0
 20
-497.5305555555556
 30
0.0
 40
13.53922526041667
  1
2個入り1セット梱包
 41
0.7
 11
275.0
 21
-483.9913302951389
 31
0.0
100
AcDbText
 73
     3
  0
TEXT
  5
252
330
4F4
100
AcDbEntity
  8
__
 62
     7
100
AcDbText
 10
237.4999999999999
 20
-561.9880649999998
 30
0.0
 40
9.477457682291666
  1
壁/天井取付金具
 41
0.7
 11
237.4999999999999
 21
-552.5106073177081
 31
0.0
100
AcDbText
 73
     3
  0
TEXT
  5
253
330
4F4
100
AcDbEntity
  8
__
 62
     7
100
AcDbText
 10
249.9999999999999
 20
-580.2182899999997
 30
0.0
 40
12.185302734375
  1
CTLB-1T
 41
0.7
 11
249.9999999999999
 21
-568.0329872656247
 31
0.0
100
AcDbText
 73
     3
  0
LINE
  5
254
330
4F4
100
AcDbEntity
  8
__
  6
______-6
 62
     7
100
AcDbLine
 10
-5.557431659700882
 20
35.07976213000052
 30
0.0
 11
115.9712841701499
 21
-86.44895369985016
 31
0.0
  0
LINE
  5
255
330
4F4
100
AcDbEntity
  8
__
  6
______-6
 62
     7
100
AcDbLine
 10
-276.2132562712
 20
18.75
 30
0.0
 11
-123.7828329993999
 21
18.75
 31
0.0
  0
LINE
  5
256
330
4F4
100
AcDbEntity
  8
__
  6
Continuous
 62
     7
100
AcDbLine
 10
-150.5
 20
-8.75
 30
0.0
 11
-135.0
 21
-8.75
 31
0.0
  0
ARC
  5
257
330
4F4
100
AcDbEntity
  8
__
  6
Continuous
 62
     7
100
AcDbCircle
 10
-150.5
 20
-10.75
 30
0.0
 40
2.0
100
AcDbArc
 50
90.0
 51
180.0
  0
LINE
  5
258
330
4F4
100
AcDbEntity
  8
__
  6
Continuous
 62
     7
100
AcDbLine
 10
-152.5
 20
-12.44999999999999
 30
0.0
 11
-152.5
 21
-10.75
 31
0.0
  0
LINE
  5
259
330
4F4
100
AcDbEntity
  8
__
  6
Continuous
 62
     7
100
AcDbLine
 10
-187.5
 20
-12.44999999999999
 30
0.0
 11
-187.5
 21
-10.75
 31
0.0
  0
ARC
  5
25A
330
4F4
100
AcDbEntity
  8
__
  6
Continuous
 62
     7
100
AcDbCircle
 10
-189.5
 20
-10.75
 30
0.0
 40
2.0
100
AcDbArc
 50
0.0
 51
90.0
  0
LINE
  5
25B
330
4F4
100
AcDbEntity
  8
__
  6
Continuous
 62
     7
100
AcDbLine
 10
-260.0
 20
-8.75
 30
0.0
 11
-189.5
 21
-8.75
 31
0.0
  0
ARC
  5
25C
330
4F4
100
AcDbEntity
  8
__
  6
Continuous
 62
     7
100
AcDbCircle
 10
-260.0
 20
-3.75
 30
0.0
 40
5.0
100
AcDbArc
 50
180.0
 51
270.0
  0
LINE
  5
25D
330
4F4
100
AcDbEntity
  8
__
  6
Continuous
 62
     7
100
AcDbLine
 10
-265.0
 20
41.25
 30
0.0
 11
-265.0
 21
-3.75
 31
0.0
  0
ARC
  5
25E
330
4F4
100
AcDbEntity
  8
__
  6
Continuous
 62
     7
100
AcDbCircle
 10
-260.0
 20
41.25
 30
0.0
 40
5.000000000000057
100
AcDbArc
 50
90.0
 51
180.0
  0
CIRCLE
  5
25F
330
4F4
100
AcDbEntity
  8
__
  6
Continuous
 62
     7
100
AcDbCircle
 10
-160.0
 20
-1.25
 30
0.0
 40
3.600000000000023
  0
CIRCLE
  5
260
330
4F4
100
AcDbEntity
  8
__
  6
Continuous
 62
     7
100
AcDbCircle
 10
-160.0
 20
38.75
 30
0.0
 40
3.600000000000023
  0
CIRCLE
  5
261
330
4F4
100
AcDbEntity
  8
__
  6
Continuous
 62
     7
100
AcDbCircle
 10
-255.0
 20
38.75
 30
0.0
 40
3.599999999999909
  0
CIRCLE
  5
262
330
4F4
100
AcDbEntity
  8
__
  6
Continuous
 62
     7
100
AcDbCircle
 10
-255.0
 20
-1.25
 30
0.0
 40
3.599999999999909
  0
LINE
  5
263
330
4F4
100
AcDbEntity
  8
__
  6
Continuous
 62
     7
100
AcDbLine
 10
-187.5
 20
-12.44999999999999
 30
0.0
 11
-187.5
 21
-14.71274169980001
 31
0.0
  0
LINE
  5
264
330
4F4
100
AcDbEntity
  8
__
  6
Continuous
 62
     7
100
AcDbLine
 10
-152.5
 20
-12.44999999999999
 30
0.0
 11
-152.5
 21
-14.71274169980001
 31
0.0
  0
LINE
  5
265
330
4F4
100
AcDbEntity
  8
__
  6
Continuous
 62
     7
100
AcDbLine
 10
-135.0
 20
-8.75
 30
0.0
 11
-135.0
 21
46.25000000000006
 31
0.0
  0
LINE
  5
266
330
4F4
100
AcDbEntity
  8
__
  6
Continuous
 62
     7
100
AcDbLine
 10
-152.5
 20
-24.5193434176
 30
0.0
 11
-152.5
 21
-14.71274169980001
 31
0.0
  0
LWPOLYLINE
  5
267
330
4F4
100
AcDbEntity
  8
__
  6
Continuous
 62
     7
100
AcDbPolyline
 90
       12
 70
   128
 43
0.0
 10
-162.5
 20
-31.59041122949998
 10
-161.0768516172
 20
-31.51843795479999
 10
-159.6826744315999
 20
-31.30398329899998
 10
-158.3458498699999
 20
-30.95141294059999
 10
-157.0935918253999
 20
-30.46790419519999
 10
-155.9513926605
 20
-29.86329990659999
 10
-154.9425042564001
 20
-29.14990807459998
 10
-154.0874646717
 20
-28.34225129969997
 10
-153.4036800464
 20
-27.4567711446
 10
-152.9050702638
 20
-26.51149343179998
 10
-152.6017855812
 20
-25.5256612897
 10
-152.5
 20
-24.5193434176
  0
LINE
  5
275
330
4F4
100
AcDbEntity
  8
__
  6
Continuous
 62
     7
100
AcDbLine
 10
-177.5
 20
-31.59041122949998
 30
0.0
 11
-162.5
 21
-31.59041122949998
 31
0.0
  0
LWPOLYLINE
  5
276
330
4F4
100
AcDbEntity
  8
__
  6
Continuous
 62
     7
100
AcDbPolyline
 90
       12
 70
   128
 43
0.0
 10
-187.5
 20
-24.5193434176
 10
-187.3982144188001
 20
-25.5256612897
 10
-187.0949297361001
 20
-26.51149343179998
 10
-186.5963199535
 20
-27.4567711446
 10
-185.9125353283
 20
-28.34225129969997
 10
-185.0574957435
 20
-29.14990807459998
 10
-184.0486073394
 20
-29.86329990659999
 10
-182.9064081745
 20
-30.46790419519999
 10
-181.6541501300001
 20
-30.95141294059999
 10
-180.3173255684001
 20
-31.30398329899998
 10
-178.9231483827
 20
-31.51843795479999
 10
-177.5
 20
-31.59041122949998
  0
LINE
  5
284
330
4F4
100
AcDbEntity
  8
__
  6
Continuous
 62
     7
100
AcDbLine
 10
-187.5
 20
-14.71274169980001
 30
0.0
 11
-187.5
 21
-24.5193434176
 31
0.0
  0
LWPOLYLINE
  5
285
330
4F4
100
AcDbEntity
  8
__
  6
______-2
 62
     7
100
AcDbPolyline
 90
       34
 70
   128
 43
0.0
 10
-170.0
 20
-26.28711037059998
 10
-169.0537437782
 20
-26.22321866699997
 10
-168.1416877217
 20
-26.03385276899996
 10
-167.2967959127
 20
-25.72585685339999
 10
-166.5496049426
 20
-25.31036269520001
 10
-165.9271202397
 20
-24.80238733580001
 10
-165.4518400232
 20
-24.22029032809996
 10
-165.1409421584
 20
-23.58511017469999
 10
-165.0056633040999
 20
-22.91980394130002
 10
-165.0508927906001
 20
-22.24841752859999
 10
-165.2749959064
 20
-21.59521659079996
 10
-165.6698729811001
 20
-20.98380951169997
 10
-166.2212521281999
 20
-20.4362941361
 10
-166.9092050689001
 20
-19.97245909629999
 10
-167.7088673913
 20
-19.6090685991
 10
-168.5913372158
 20
-19.3592565239
 10
-169.5247197835
 20
-19.23205172999997
 10
-170.4752802165
 20
-19.23205172999997
 10
-171.4086627842
 20
-19.3592565239
 10
-172.2911326086
 20
-19.6090685991
 10
-173.0907949310999
 20
-19.97245909629999
 10
-173.7787478717
 20
-20.4362941361
 10
-174.3301270188999
 20
-20.98380951169997
 10
-174.7250040935
 20
-21.59521659079996
 10
-174.9491072093999
 20
-22.24841752859999
 10
-174.9943366959001
 20
-22.91980394130002
 10
-174.8590578416
 20
-23.58511017469999
 10
-174.5481599766999
 20
-24.22029032809996
 10
-174.0728797602001
 20
-24.80238733580001
 10
-173.4503950574
 20
-25.31036269520001
 10
-172.7032040873
 20
-25.72585685339999
 10
-171.8583122783
 20
-26.03385276899996
 10
-170.9462562218
 20
-26.22321866699997
 10
-170.0
 20
-26.28711037059998
  0
LWPOLYLINE
  5
2A9
330
4F4
100
AcDbEntity
  8
__
  6
Continuous
 62
     7
100
AcDbPolyline
 90
       16
 70
   128
 43
0.0
 10
-165.2629122870001
 20
-21.62020561470001
 10
-165.2749959064
 20
-21.64519463869999
 10
-165.6698729811001
 20
-22.25660171779998
 10
-166.2212521281999
 20
-22.80411709340001
 10
-166.9092050689001
 20
-23.26795213319997
 10
-167.7088673913
 20
-23.63134263029997
 10
-168.5913372158
 20
-23.88115470549997
 10
-169.5247197835
 20
-24.00835949949999
 10
-170.4752802165
 20
-24.00835949949999
 10
-171.4086627842
 20
-23.88115470549997
 10
-172.2911326086
 20
-23.63134263029997
 10
-173.0907949310999
 20
-23.26795213319997
 10
-173.7787478717
 20
-22.80411709340001
 10
-174.3301270188999
 20
-22.25660171779998
 10
-174.7250040935
 20
-21.64519463869999
 10
-174.7370877129
 20
-21.62020561470001
  0
LINE
  5
2BB
330
4F4
100
AcDbEntity
  8
__
  6
______-2
 62
     7
100
AcDbLine
 10
-187.5
 20
-12.44999999999999
 30
0.0
 11
-152.5
 21
-12.44999999999999
 31
0.0
  0
LINE
  5
2BC
330
4F4
100
AcDbEntity
  8
__
  6
______-2
 62
     7
100
AcDbLine
 10
-138.2
 20
-8.75
 30
0.0
 11
-138.2
 21
46.25
 31
0.0
  0
LWPOLYLINE
  5
2BD
330
4F4
100
AcDbEntity
  8
__
  6
HIDDEN
 62
     7
100
AcDbPolyline
 90
       11
 70
   128
 43
0.0
 10
-170.0
 20
-16.95330085889998
 10
-169.0537437782
 20
-17.0171925624
 10
-168.1416877217
 20
-17.20655846049999
 10
-167.2967959127
 20
-17.51455437599998
 10
-166.5496049426
 20
-17.93004853420001
 10
-165.9271202397
 20
-18.43802389370001
 10
-165.4518400232
 20
-19.0201209013
 10
-165.1409421584
 20
-19.65530105469998
 10
-165.0056633040999
 20
-20.32060728810001
 10
-165.0508927906001
 20
-20.99199370089997
 10
-165.2629122870001
 20
-21.62020561470001
  0
LWPOLYLINE
  5
2CA
330
4F4
100
AcDbEntity
  8
__
  6
HIDDEN
 62
     7
100
AcDbPolyline
 90
       11
 70
   128
 43
0.0
 10
-174.7370877129
 20
-21.62020561470001
 10
-174.9491072093999
 20
-20.99199370089997
 10
-174.9943366959001
 20
-20.32060728810001
 10
-174.8590578416
 20
-19.65530105469998
 10
-174.5481599766999
 20
-19.0201209013
 10
-174.0728797602001
 20
-18.43802389370001
 10
-173.4503950574
 20
-17.93004853420001
 10
-172.7032040873
 20
-17.51455437599998
 10
-171.8583122783
 20
-17.20655846049999
 10
-170.9462562218
 20
-17.0171925624
 10
-170.0
 20
-16.95330085889998
  0
LWPOLYLINE
  5
2D7
330
4F4
100
AcDbEntity
  8
__
  6
______-2
 62
     7
100
AcDbPolyline
 90
       12
 70
   128
 43
0.0
 10
-152.5
 20
-22.25660171779998
 10
-152.6017855812
 20
-23.26291958989998
 10
-152.9050702638
 20
-24.24875173200002
 10
-153.4036800464
 20
-25.19402944479998
 10
-154.0874646717
 20
-26.07950959990001
 10
-154.9425042564001
 20
-26.88716637480002
 10
-155.9513926605
 20
-27.60055820679997
 10
-157.0935918253999
 20
-28.20516249539997
 10
-158.3458498699999
 20
-28.68867124079998
 10
-159.6826744315999
 20
-29.04124159919996
 10
-161.0768516172
 20
-29.25569625499998
 10
-162.5
 20
-29.32766952970002
  0
LWPOLYLINE
  5
2E5
330
4F4
100
AcDbEntity
  8
__
  6
______-2
 62
     7
100
AcDbPolyline
 90
       12
 70
   128
 43
0.0
 10
-177.5
 20
-29.32766952970002
 10
-178.9231483827
 20
-29.25569625499998
 10
-180.3173255684001
 20
-29.04124159919996
 10
-181.6541501300001
 20
-28.68867124079998
 10
-182.9064081745
 20
-28.20516249539997
 10
-184.0486073394
 20
-27.60055820679997
 10
-185.0574957435
 20
-26.88716637480002
 10
-185.9125353283
 20
-26.07950959990001
 10
-186.5963199535
 20
-25.19402944479998
 10
-187.0949297361001
 20
-24.24875173200002
 10
-187.3982144188001
 20
-23.26291958989998
 10
-187.5
 20
-22.25660171779998
  0
LINE
  5
2F3
330
4F4
100
AcDbEntity
  8
__
  6
______-2
 62
     7
100
AcDbLine
 10
-177.5
 20
-29.32766952970002
 30
0.0
 11
-162.5
 21
-29.32766952970002
 31
0.0
  0
LINE
  5
2F4
330
4F4
100
AcDbEntity
  8
__
  6
______-2
 62
     7
100
AcDbLine
 10
-137.6
 20
36.85000000000002
 30
0.0
 11
-137.6
 21
32.65000000000003
 31
0.0
  0
LINE
  5
2F5
330
4F4
100
AcDbEntity
  8
__
  6
______-2
 62
     7
100
AcDbLine
 10
-137.6
 20
4.850000000000023
 30
0.0
 11
-137.6
 21
0.6500000000000341
 31
0.0
  0
LINE
  5
2F6
330
4F4
100
AcDbEntity
  8
__
  6
______-2
 62
     7
100
AcDbLine
 10
-138.2
 20
25.25
 30
0.0
 11
-145.7
 21
25.25
 31
0.0
  0
LINE
  5
2F7
330
4F4
100
AcDbEntity
  8
__
  6
______-2
 62
     7
100
AcDbLine
 10
-138.2
 20
18.75
 30
0.0
 11
-145.7
 21
18.75
 31
0.0
  0
LINE
  5
2F8
330
4F4
100
AcDbEntity
  8
__
  6
______-2
 62
     7
100
AcDbLine
 10
-145.7
 20
25.25
 30
0.0
 11
-145.7
 21
18.75
 31
0.0
  0
LINE
  5
2F9
330
4F4
100
AcDbEntity
  8
__
  6
______-2
 62
     7
100
AcDbLine
 10
-138.2
 20
12.25
 30
0.0
 11
-145.7
 21
12.25
 31
0.0
  0
LINE
  5
2FA
330
4F4
100
AcDbEntity
  8
__
  6
______-2
 62
     7
100
AcDbLine
 10
-145.7
 20
18.75
 30
0.0
 11
-145.7
 21
12.25
 31
0.0
  0
LINE
  5
2FB
330
4F4
100
AcDbEntity
  8
__
  6
______-2
 62
     7
100
AcDbLine
 10
-165.0
 20
-22.75157646459996
 30
0.0
 11
-165.0
 21
-20.4888347648
 31
0.0
  0
LINE
  5
2FC
330
4F4
100
AcDbEntity
  8
__
  6
______-2
 62
     7
100
AcDbLine
 10
-175.0
 20
-20.4888347648
 30
0.0
 11
-175.0
 21
-22.75157646459996
 31
0.0
  0
LINE
  5
2FD
330
4F4
100
AcDbEntity
  8
__
  6
______-2
 62
     7
100
AcDbLine
 10
-135.0
 20
23.25
 30
0.0
 11
-138.2
 21
23.25
 31
0.0
  0
LINE
  5
2FE
330
4F4
100
AcDbEntity
  8
__
  6
______-2
 62
     7
100
AcDbLine
 10
-138.2
 20
14.25
 30
0.0
 11
-135.0
 21
14.25
 31
0.0
  0
LINE
  5
2FF
330
4F4
100
AcDbEntity
  8
__
  6
______-2
 62
     7
100
AcDbLine
 10
-135.0
 20
42.35000000000002
 30
0.0
 11
-138.2
 21
42.35000000000002
 31
0.0
  0
LINE
  5
300
330
4F4
100
AcDbEntity
  8
__
  6
______-2
 62
     7
100
AcDbLine
 10
-138.2
 20
35.15000000000003
 30
0.0
 11
-135.0
 21
35.15000000000003
 31
0.0
  0
LINE
  5
301
330
4F4
100
AcDbEntity
  8
__
  6
______-2
 62
     7
100
AcDbLine
 10
-135.0
 20
2.350000000000023
 30
0.0
 11
-138.2
 21
2.350000000000023
 31
0.0
  0
LINE
  5
302
330
4F4
100
AcDbEntity
  8
__
  6
______-2
 62
     7
100
AcDbLine
 10
-138.2
 20
-4.849999999999966
 30
0.0
 11
-135.0
 21
-4.849999999999966
 31
0.0
  0
LINE
  5
303
330
4F4
100
AcDbEntity
  8
__
  6
______-2
 62
     7
100
AcDbLine
 10
-135.0
 20
39.44999999999999
 30
0.0
 11
-137.6
 21
36.85000000000002
 31
0.0
  0
LINE
  5
304
330
4F4
100
AcDbEntity
  8
__
  6
______-2
 62
     7
100
AcDbLine
 10
-137.6
 20
32.65000000000003
 30
0.0
 11
-135.0
 21
30.05000000000001
 31
0.0
  0
LINE
  5
305
330
4F4
100
AcDbEntity
  8
__
  6
______-2
 62
     7
100
AcDbLine
 10
-135.0
 20
7.449999999999989
 30
0.0
 11
-137.6
 21
4.850000000000023
 31
0.0
  0
LINE
  5
306
330
4F4
100
AcDbEntity
  8
__
  6
______-2
 62
     7
100
AcDbLine
 10
-137.6
 20
0.6500000000000341
 30
0.0
 11
-135.0
 21
-1.949999999999989
 31
0.0
  0
LINE
  5
307
330
4F4
100
AcDbEntity
  8
__
  6
______-2
 62
     7
100
AcDbLine
 10
-137.6
 20
36.85000000000002
 30
0.0
 11
-138.2
 21
36.85000000000002
 31
0.0
  0
LINE
  5
308
330
4F4
100
AcDbEntity
  8
__
  6
______-2
 62
     7
100
AcDbLine
 10
-138.2
 20
32.65000000000003
 30
0.0
 11
-137.6
 21
32.65000000000003
 31
0.0
  0
LINE
  5
309
330
4F4
100
AcDbEntity
  8
__
  6
______-2
 62
     7
100
AcDbLine
 10
-137.6
 20
4.850000000000023
 30
0.0
 11
-138.2
 21
4.850000000000023
 31
0.0
  0
LINE
  5
30A
330
4F4
100
AcDbEntity
  8
__
  6
______-2
 62
     7
100
AcDbLine
 10
-138.2
 20
0.6500000000000341
 30
0.0
 11
-137.6
 21
0.6500000000000341
 31
0.0
  0
LINE
  5
30B
330
4F4
100
AcDbEntity
  8
__
  6
______-2
 62
     7
100
AcDbLine
 10
-138.2
 20
21.25
 30
0.0
 11
-145.7
 21
21.25
 31
0.0
  0
LINE
  5
30C
330
4F4
100
AcDbEntity
  8
__
  6
______-2
 62
     7
100
AcDbLine
 10
-145.7
 20
16.25
 30
0.0
 11
-138.2
 21
16.25
 31
0.0
  0
LINE
  5
30D
330
4F4
100
AcDbEntity
  8
__
  6
______-6
 62
     7
100
AcDbLine
 10
-160.0
 20
-1.25
 30
0.0
 11
-160.0
 21
1.25
 31
0.0
  0
LINE
  5
30E
330
4F4
100
AcDbEntity
  8
__
  6
______-6
 62
     7
100
AcDbLine
 10
-160.0
 20
-1.25
 30
0.0
 11
-162.5
 21
-1.25
 31
0.0
  0
LINE
  5
30F
330
4F4
100
AcDbEntity
  8
__
  6
______-6
 62
     7
100
AcDbLine
 10
-160.0
 20
-1.25
 30
0.0
 11
-160.0
 21
-3.75
 31
0.0
  0
LINE
  5
310
330
4F4
100
AcDbEntity
  8
__
  6
______-6
 62
     7
100
AcDbLine
 10
-160.0
 20
-1.25
 30
0.0
 11
-157.5
 21
-1.25
 31
0.0
  0
LINE
  5
311
330
4F4
100
AcDbEntity
  8
__
  6
______-6
 62
     7
100
AcDbLine
 10
-160.0
 20
3.75
 30
0.0
 11
-160.0
 21
4.849999999999994
 31
0.0
  0
LINE
  5
312
330
4F4
100
AcDbEntity
  8
__
  6
______-6
 62
     7
100
AcDbLine
 10
-165.0
 20
-1.25
 30
0.0
 11
-166.1
 21
-1.25
 31
0.0
  0
LINE
  5
313
330
4F4
100
AcDbEntity
  8
__
  6
______-6
 62
     7
100
AcDbLine
 10
-160.0
 20
-6.25
 30
0.0
 11
-160.0
 21
-7.349999999999994
 31
0.0
  0
LINE
  5
314
330
4F4
100
AcDbEntity
  8
__
  6
______-6
 62
     7
100
AcDbLine
 10
-155.0
 20
-1.25
 30
0.0
 11
-153.9
 21
-1.25
 31
0.0
  0
LINE
  5
315
330
4F4
100
AcDbEntity
  8
__
  6
______-2
 62
     7
100
AcDbLine
 10
-160.0
 20
38.75
 30
0.0
 11
-160.0
 21
41.25
 31
0.0
  0
LINE
  5
316
330
4F4
100
AcDbEntity
  8
__
  6
______-2
 62
     7
100
AcDbLine
 10
-160.0
 20
38.75
 30
0.0
 11
-162.5
 21
38.75
 31
0.0
  0
LINE
  5
317
330
4F4
100
AcDbEntity
  8
__
  6
______-2
 62
     7
100
AcDbLine
 10
-160.0
 20
38.75
 30
0.0
 11
-160.0
 21
36.25
 31
0.0
  0
LINE
  5
318
330
4F4
100
AcDbEntity
  8
__
  6
______-2
 62
     7
100
AcDbLine
 10
-160.0
 20
38.75
 30
0.0
 11
-157.5
 21
38.75
 31
0.0
  0
LINE
  5
319
330
4F4
100
AcDbEntity
  8
__
  6
______-2
 62
     7
100
AcDbLine
 10
-160.0
 20
43.75
 30
0.0
 11
-160.0
 21
44.84999999999999
 31
0.0
  0
LINE
  5
31A
330
4F4
100
AcDbEntity
  8
__
  6
______-2
 62
     7
100
AcDbLine
 10
-165.0
 20
38.75
 30
0.0
 11
-166.1
 21
38.75
 31
0.0
  0
LINE
  5
31B
330
4F4
100
AcDbEntity
  8
__
  6
______-2
 62
     7
100
AcDbLine
 10
-160.0
 20
33.75
 30
0.0
 11
-160.0
 21
32.65000000000001
 31
0.0
  0
LINE
  5
31C
330
4F4
100
AcDbEntity
  8
__
  6
______-2
 62
     7
100
AcDbLine
 10
-155.0
 20
38.75
 30
0.0
 11
-153.9
 21
38.75
 31
0.0
  0
LINE
  5
31D
330
4F4
100
AcDbEntity
  8
__
  6
______-2
 62
     7
100
AcDbLine
 10
-255.0
 20
38.75
 30
0.0
 11
-255.0
 21
41.25
 31
0.0
  0
LINE
  5
31E
330
4F4
100
AcDbEntity
  8
__
  6
______-2
 62
     7
100
AcDbLine
 10
-255.0
 20
38.75
 30
0.0
 11
-257.5
 21
38.75
 31
0.0
  0
LINE
  5
31F
330
4F4
100
AcDbEntity
  8
__
  6
______-2
 62
     7
100
AcDbLine
 10
-255.0
 20
38.75
 30
0.0
 11
-255.0
 21
36.25
 31
0.0
  0
LINE
  5
320
330
4F4
100
AcDbEntity
  8
__
  6
______-2
 62
     7
100
AcDbLine
 10
-255.0
 20
38.75
 30
0.0
 11
-252.5
 21
38.75
 31
0.0
  0
LINE
  5
321
330
4F4
100
AcDbEntity
  8
__
  6
______-2
 62
     7
100
AcDbLine
 10
-255.0
 20
43.75
 30
0.0
 11
-255.0
 21
44.84999999999999
 31
0.0
  0
LINE
  5
322
330
4F4
100
AcDbEntity
  8
__
  6
______-2
 62
     7
100
AcDbLine
 10
-260.0
 20
38.75
 30
0.0
 11
-261.1
 21
38.75
 31
0.0
  0
LINE
  5
323
330
4F4
100
AcDbEntity
  8
__
  6
______-2
 62
     7
100
AcDbLine
 10
-255.0
 20
33.75
 30
0.0
 11
-255.0
 21
32.65000000000001
 31
0.0
  0
LINE
  5
324
330
4F4
100
AcDbEntity
  8
__
  6
______-2
 62
     7
100
AcDbLine
 10
-250.0
 20
38.75
 30
0.0
 11
-248.9
 21
38.75
 31
0.0
  0
LINE
  5
325
330
4F4
100
AcDbEntity
  8
__
  6
______-6
 62
     7
100
AcDbLine
 10
-255.0
 20
-1.25
 30
0.0
 11
-255.0
 21
1.25
 31
0.0
  0
LINE
  5
326
330
4F4
100
AcDbEntity
  8
__
  6
______-6
 62
     7
100
AcDbLine
 10
-255.0
 20
-1.25
 30
0.0
 11
-257.5
 21
-1.25
 31
0.0
  0
LINE
  5
327
330
4F4
100
AcDbEntity
  8
__
  6
______-6
 62
     7
100
AcDbLine
 10
-255.0
 20
-1.25
 30
0.0
 11
-255.0
 21
-3.75
 31
0.0
  0
LINE
  5
328
330
4F4
100
AcDbEntity
  8
__
  6
______-6
 62
     7
100
AcDbLine
 10
-255.0
 20
-1.25
 30
0.0
 11
-252.5
 21
-1.25
 31
0.0
  0
LINE
  5
329
330
4F4
100
AcDbEntity
  8
__
  6
______-6
 62
     7
100
AcDbLine
 10
-255.0
 20
3.75
 30
0.0
 11
-255.0
 21
4.849999999999994
 31
0.0
  0
LINE
  5
32A
330
4F4
100
AcDbEntity
  8
__
  6
______-6
 62
     7
100
AcDbLine
 10
-260.0
 20
-1.25
 30
0.0
 11
-261.1
 21
-1.25
 31
0.0
  0
LINE
  5
32B
330
4F4
100
AcDbEntity
  8
__
  6
______-6
 62
     7
100
AcDbLine
 10
-255.0
 20
-6.25
 30
0.0
 11
-255.0
 21
-7.349999999999994
 31
0.0
  0
LINE
  5
32C
330
4F4
100
AcDbEntity
  8
__
  6
______-6
 62
     7
100
AcDbLine
 10
-250.0
 20
-1.25
 30
0.0
 11
-248.9
 21
-1.25
 31
0.0
  0
LINE
  5
32D
330
4F4
100
AcDbEntity
  8
__
  6
Continuous
 62
     7
100
AcDbLine
 10
-152.5
 20
-80.74386001799996
 30
0.0
 11
-152.5
 21
-83.00660171779998
 31
0.0
  0
LWPOLYLINE
  5
32E
330
4F4
100
AcDbEntity
  8
__
  6
Continuous
 62
     7
100
AcDbPolyline
 90
       12
 70
   128
 43
0.0
 10
-152.5
 20
-83.00660171779998
 10
-152.6017855812
 20
-84.01291958989998
 10
-152.9050702638
 20
-84.9987517321
 10
-153.4036800464
 20
-85.94402944479998
 10
-154.0874646717
 20
-86.8295095999
 10
-154.9425042564001
 20
-87.6371663749
 10
-155.9513926605
 20
-88.35055820689996
 10
-157.0935918253999
 20
-88.95516249539997
 10
-158.3458498699999
 20
-89.43867124079998
 10
-159.6826744315999
 20
-89.79124159930001
 10
-161.0768516172
 20
-90.00569625499998
 10
-162.5
 20
-90.07766952969996
  0
LWPOLYLINE
  5
33C
330
4F4
100
AcDbEntity
  8
__
  6
Continuous
 62
     7
100
AcDbPolyline
 90
       12
 70
   128
 43
0.0
 10
-162.5
 20
-87.8149278299
 10
-161.0768516172
 20
-87.74295455519996
 10
-159.6826744315999
 20
-87.52849989949999
 10
-158.3458498699999
 20
-87.17592954099996
 10
-157.0935918253999
 20
-86.69242079559996
 10
-155.9513926605
 20
-86.0878165071
 10
-154.9425042564001
 20
-85.37442467509999
 10
-154.0874646717
 20
-84.56676790009999
 10
-153.4036800464
 20
-83.68128774499996
 10
-152.9050702638
 20
-82.73601003229999
 10
-152.6017855812
 20
-81.75017789009996
 10
-152.5
 20
-80.74386001799996
  0
LINE
  5
34A
330
4F4
100
AcDbEntity
  8
__
  6
Continuous
 62
     7
100
AcDbLine
 10
-152.5
 20
-80.74386001799996
 30
0.0
 11
-152.5
 21
-70.0
 31
0.0
  0
LINE
  5
34B
330
4F4
100
AcDbEntity
  8
__
  6
Continuous
 62
     7
100
AcDbLine
 10
-177.5
 20
-87.8149278299
 30
0.0
 11
-162.5
 21
-87.8149278299
 31
0.0
  0
LWPOLYLINE
  5
34C
330
4F4
100
AcDbEntity
  8
__
  6
Continuous
 62
     7
100
AcDbPolyline
 90
       12
 70
   128
 43
0.0
 10
-187.5
 20
-80.74386001799996
 10
-187.3982144188001
 20
-81.75017789009996
 10
-187.0949297361001
 20
-82.73601003229999
 10
-186.5963199535
 20
-83.68128774499996
 10
-185.9125353283
 20
-84.56676790009999
 10
-185.0574957435
 20
-85.37442467509999
 10
-184.0486073394
 20
-86.0878165071
 10
-182.9064081745
 20
-86.69242079559996
 10
-181.6541501300001
 20
-87.17592954099996
 10
-180.3173255684001
 20
-87.52849989949999
 10
-178.9231483827
 20
-87.74295455519996
 10
-177.5
 20
-87.8149278299
  0
LINE
  5
35A
330
4F4
100
AcDbEntity
  8
__
  6
Continuous
 62
     7
100
AcDbLine
 10
-187.5
 20
-70.0
 30
0.0
 11
-187.5
 21
-80.74386001799996
 31
0.0
  0
LWPOLYLINE
  5
35B
330
4F4
100
AcDbEntity
  8
__
  6
Continuous
 62
     7
100
AcDbPolyline
 90
       34
 70
   128
 43
0.0
 10
-170.0
 20
-82.511626971
 10
-169.0537437782
 20
-82.44773526739999
 10
-168.1416877217
 20
-82.25836936939999
 10
-167.2967959127
 20
-81.9503734539
 10
-166.5496049426
 20
-81.53487929559998
 10
-165.9271202397
 20
-81.02690393619997
 10
-165.4518400232
 20
-80.44480692859997
 10
-165.1409421584
 20
-79.8096267752
 10
-165.0056633040999
 20
-79.14432054179997
 10
-165.0508927906001
 20
-78.47293412900001
 10
-165.2749959064
 20
-77.81973319119999
 10
-165.6698729811001
 20
-77.2083261121
 10
-166.2212521281999
 20
-76.66081073649997
 10
-166.9092050689001
 20
-76.19697569670001
 10
-167.7088673913
 20
-75.83358519949996
 10
-168.5913372158
 20
-75.58377312429997
 10
-169.5247197835
 20
-75.45656833039999
 10
-170.4752802165
 20
-75.45656833039999
 10
-171.4086627842
 20
-75.58377312429997
 10
-172.2911326086
 20
-75.83358519949996
 10
-173.0907949310999
 20
-76.19697569670001
 10
-173.7787478717
 20
-76.66081073649997
 10
-174.3301270188999
 20
-77.2083261121
 10
-174.7250040935
 20
-77.81973319119999
 10
-174.9491072093999
 20
-78.47293412900001
 10
-174.9943366959001
 20
-79.14432054179997
 10
-174.8590578416
 20
-79.8096267752
 10
-174.5481599766999
 20
-80.44480692859997
 10
-174.0728797602001
 20
-81.02690393619997
 10
-173.4503950574
 20
-81.53487929559998
 10
-172.7032040873
 20
-81.9503734539
 10
-171.8583122783
 20
-82.25836936939999
 10
-170.9462562218
 20
-82.44773526739999
 10
-170.0
 20
-82.511626971
  0
LWPOLYLINE
  5
37F
330
4F4
100
AcDbEntity
  8
__
  6
Continuous
 62
     7
100
AcDbPolyline
 90
       12
 70
   128
 43
0.0
 10
-177.5
 20
-90.07766952969996
 10
-178.9231483827
 20
-90.00569625499998
 10
-180.3173255684001
 20
-89.79124159930001
 10
-181.6541501300001
 20
-89.43867124079998
 10
-182.9064081745
 20
-88.95516249539997
 10
-184.0486073394
 20
-88.35055820689996
 10
-185.0574957435
 20
-87.6371663749
 10
-185.9125353283
 20
-86.8295095999
 10
-186.5963199535
 20
-85.94402944479998
 10
-187.0949297361001
 20
-84.9987517321
 10
-187.3982144188001
 20
-84.01291958989998
 10
-187.5
 20
-83.00660171779998
  0
LINE
  5
38D
330
4F4
100
AcDbEntity
  8
__
  6
Continuous
 62
     7
100
AcDbLine
 10
-187.5
 20
-83.00660171779998
 30
0.0
 11
-187.5
 21
-80.74386001799996
 31
0.0
  0
LINE
  5
38E
330
4F4
100
AcDbEntity
  8
__
  6
Continuous
 62
     7
100
AcDbLine
 10
-177.5
 20
-90.07766952969996
 30
0.0
 11
-162.5
 21
-90.07766952969996
 31
0.0
  0
ARC
  5
38F
330
4F4
100
AcDbEntity
  8
__
  6
______-2
 62
     7
100
AcDbCircle
 10
-169.5366698496
 20
-82.6593559017
 30
0.0
 40
4.977665759704923
100
AcDbArc
 50
30.84173517139987
 51
95.34092651449987
  0
ARC
  5
390
330
4F4
100
AcDbEntity
  8
__
  6
______-2
 62
     7
100
AcDbCircle
 10
-170.3365874911001
 20
-82.90908567459996
 30
0.0
 40
5.216654740996389
100
AcDbArc
 50
86.30060842930003
 51
147.5167298848001
  0
ARC
  5
391
330
4F4
100
AcDbEntity
  8
__
  6
Continuous
 62
     7
100
AcDbCircle
 10
-138.2
 20
-73.19999999999999
 30
0.0
 40
3.200000000000045
100
AcDbArc
 50
0.0
 51
90.0
  0
LINE
  5
392
330
4F4
100
AcDbEntity
  8
__
  6
Continuous
 62
     7
100
AcDbLine
 10
-265.0
 20
-73.19999999999999
 30
0.0
 11
-265.0
 21
-70.0
 31
0.0
  0
LINE
  5
393
330
4F4
100
AcDbEntity
  8
__
  6
Continuous
 62
     7
100
AcDbLine
 10
-265.0
 20
-70.0
 30
0.0
 11
-138.2
 21
-70.0
 31
0.0
  0
LINE
  5
394
330
4F4
100
AcDbEntity
  8
__
  6
Continuous
 62
     7
100
AcDbLine
 10
-138.2
 20
-73.19999999999999
 30
0.0
 11
-152.5
 21
-73.19999999999999
 31
0.0
  0
LINE
  5
395
330
4F4
100
AcDbEntity
  8
__
  6
______-2
 62
     7
100
AcDbLine
 10
-152.5
 20
-73.19999999999999
 30
0.0
 11
-187.5
 21
-73.19999999999999
 31
0.0
  0
LINE
  5
396
330
4F4
100
AcDbEntity
  8
__
  6
Continuous
 62
     7
100
AcDbLine
 10
-187.5
 20
-73.19999999999999
 30
0.0
 11
-265.0
 21
-73.19999999999999
 31
0.0
  0
LINE
  5
397
330
4F4
100
AcDbEntity
  8
__
  6
Continuous
 62
     7
100
AcDbLine
 10
-135.0
 20
-73.19999999999999
 30
0.0
 11
-135.0
 21
-277.0
 31
0.0
  0
LINE
  5
398
330
4F4
100
AcDbEntity
  8
__
  6
Continuous
 62
     7
100
AcDbLine
 10
-138.2
 20
-73.19999999999999
 30
0.0
 11
-138.2
 21
-277.0
 31
0.0
  0
LINE
  5
399
330
4F4
100
AcDbEntity
  8
__
  6
Continuous
 62
     7
100
AcDbLine
 10
-135.0
 20
-280.0
 30
0.0
 11
-138.2
 21
-280.0
 31
0.0
  0
LINE
  5
39A
330
4F4
100
AcDbEntity
  8
__
  6
Continuous
 62
     7
100
AcDbLine
 10
-135.0
 20
-277.0
 30
0.0
 11
-135.0
 21
-280.0
 31
0.0
  0
LINE
  5
39B
330
4F4
100
AcDbEntity
  8
__
  6
Continuous
 62
     7
100
AcDbLine
 10
-138.2
 20
-280.0
 30
0.0
 11
-138.2
 21
-277.0
 31
0.0
  0
LINE
  5
39C
330
4F4
100
AcDbEntity
  8
__
  6
Continuous
 62
     7
100
AcDbLine
 10
-138.2
 20
-98.75277674969999
 30
0.0
 11
-145.7
 21
-98.75277674969999
 31
0.0
  0
LINE
  5
39D
330
4F4
100
AcDbEntity
  8
__
  6
Continuous
 62
     7
100
AcDbLine
 10
-138.2
 20
-102.5055534995
 30
0.0
 11
-145.7
 21
-102.5055534995
 31
0.0
  0
LINE
  5
39E
330
4F4
100
AcDbEntity
  8
__
  6
Continuous
 62
     7
100
AcDbLine
 10
-145.7
 20
-98.75277674969999
 30
0.0
 11
-145.7
 21
-102.5055534995
 31
0.0
  0
LINE
  5
39F
330
4F4
100
AcDbEntity
  8
__
  6
Continuous
 62
     7
100
AcDbLine
 10
-138.2
 20
-87.49444650059996
 30
0.0
 11
-145.7
 21
-87.49444650059996
 31
0.0
  0
LINE
  5
3A0
330
4F4
100
AcDbEntity
  8
__
  6
Continuous
 62
     7
100
AcDbLine
 10
-138.2
 20
-91.24722325030001
 30
0.0
 11
-145.7
 21
-91.24722325030001
 31
0.0
  0
LINE
  5
3A1
330
4F4
100
AcDbEntity
  8
__
  6
Continuous
 62
     7
100
AcDbLine
 10
-145.7
 20
-87.49444650059996
 30
0.0
 11
-145.7
 21
-91.24722325030001
 31
0.0
  0
LINE
  5
3A2
330
4F4
100
AcDbEntity
  8
__
  6
Continuous
 62
     7
100
AcDbLine
 10
-145.7
 20
-91.24722325030001
 30
0.0
 11
-145.7
 21
-98.75277674969999
 31
0.0
  0
LINE
  5
3A3
330
4F4
100
AcDbEntity
  8
__
  6
Continuous
 62
     7
100
AcDbLine
 10
-138.2
 20
-151.2472232503
 30
0.0
 11
-145.7
 21
-151.2472232503
 31
0.0
  0
LINE
  5
3A4
330
4F4
100
AcDbEntity
  8
__
  6
Continuous
 62
     7
100
AcDbLine
 10
-138.2
 20
-158.7527767497
 30
0.0
 11
-145.7
 21
-158.7527767497
 31
0.0
  0
LINE
  5
3A5
330
4F4
100
AcDbEntity
  8
__
  6
Continuous
 62
     7
100
AcDbLine
 10
-145.7
 20
-151.2472232503
 30
0.0
 11
-145.7
 21
-158.7527767497
 31
0.0
  0
LINE
  5
3A6
330
4F4
100
AcDbEntity
  8
__
  6
Continuous
 62
     7
100
AcDbLine
 10
-138.2
 20
-147.4944465006
 30
0.0
 11
-145.7
 21
-147.4944465006
 31
0.0
  0
LINE
  5
3A7
330
4F4
100
AcDbEntity
  8
__
  6
Continuous
 62
     7
100
AcDbLine
 10
-145.7
 20
-147.4944465006
 30
0.0
 11
-145.7
 21
-151.2472232503
 31
0.0
  0
LINE
  5
3A8
330
4F4
100
AcDbEntity
  8
__
  6
Continuous
 62
     7
100
AcDbLine
 10
-138.2
 20
-162.5055534995
 30
0.0
 11
-145.7
 21
-162.5055534995
 31
0.0
  0
LINE
  5
3A9
330
4F4
100
AcDbEntity
  8
__
  6
Continuous
 62
     7
100
AcDbLine
 10
-145.7
 20
-158.7527767497
 30
0.0
 11
-145.7
 21
-162.5055534995
 31
0.0
  0
LWPOLYLINE
  5
3AA
330
4F4
100
AcDbEntity
  8
__
  6
______-2
 62
     7
100
AcDbPolyline
 90
       22
 70
   128
 43
0.0
 10
-165.2629122870001
 20
-80.10746391499998
 10
-165.1409421584
 20
-80.40530105469998
 10
-165.0056633040999
 20
-81.0706072881
 10
-165.0508927906001
 20
-81.74199370089997
 10
-165.2749959064
 20
-82.39519463869999
 10
-165.6698729811001
 20
-83.00660171779998
 10
-166.2212521281999
 20
-83.55411709340001
 10
-166.9092050689001
 20
-84.01795213319997
 10
-167.7088673913
 20
-84.38134263039996
 10
-168.5913372158
 20
-84.63115470560001
 10
-169.5247197835
 20
-84.75835949949999
 10
-170.4752802165
 20
-84.75835949949999
 10
-171.4086627842
 20
-84.63115470560001
 10
-172.2911326086
 20
-84.38134263039996
 10
-173.0907949310999
 20
-84.01795213319997
 10
-173.7787478717
 20
-83.55411709340001
 10
-174.3301270188999
 20
-83.00660171779998
 10
-174.7250040935
 20
-82.39519463869999
 10
-174.9491072093999
 20
-81.74199370089997
 10
-174.9943366959001
 20
-81.0706072881
 10
-174.8590578416
 20
-80.40530105469998
 10
-174.7370877129
 20
-80.10746391499998
  0
LINE
  5
3C2
330
4F4
100
AcDbEntity
  8
__
  6
______-2
 62
     7
100
AcDbLine
 10
-137.6
 20
-212.0
 30
0.0
 11
-137.6
 21
-216.2
 31
0.0
  0
LINE
  5
3C3
330
4F4
100
AcDbEntity
  8
__
  6
______-2
 62
     7
100
AcDbLine
 10
-137.6
 20
-244.0
 30
0.0
 11
-137.6
 21
-248.2
 31
0.0
  0
LINE
  5
3C4
330
4F4
100
AcDbEntity
  8
__
  6
______-2
 62
     7
100
AcDbLine
 10
-137.6
 20
-269.0
 30
0.0
 11
-137.6
 21
-273.2
 31
0.0
  0
LINE
  5
3C5
330
4F4
100
AcDbEntity
  8
__
  6
______-2
 62
     7
100
AcDbLine
 10
-137.6
 20
-187.0
 30
0.0
 11
-137.6
 21
-191.2
 31
0.0
  0
LINE
  5
3C6
330
4F4
100
AcDbEntity
  8
__
  6
______-2
 62
     7
100
AcDbLine
 10
-175.0
 20
-78.97609306509997
 30
0.0
 11
-175.0
 21
-81.2388347648
 31
0.0
  0
LINE
  5
3C7
330
4F4
100
AcDbEntity
  8
__
  6
______-2
 62
     7
100
AcDbLine
 10
-165.0
 20
-81.2388347648
 30
0.0
 11
-165.0
 21
-78.97609306509997
 31
0.0
  0
LINE
  5
3C8
330
4F4
100
AcDbEntity
  8
__
  6
______-2
 62
     7
100
AcDbLine
 10
-135.0
 20
-91.39999999999998
 30
0.0
 11
-138.2
 21
-91.39999999999998
 31
0.0
  0
LINE
  5
3C9
330
4F4
100
AcDbEntity
  8
__
  6
______-2
 62
     7
100
AcDbLine
 10
-138.2
 20
-98.59999999999997
 30
0.0
 11
-135.0
 21
-98.59999999999997
 31
0.0
  0
LINE
  5
3CA
330
4F4
100
AcDbEntity
  8
__
  6
______-2
 62
     7
100
AcDbLine
 10
-258.6
 20
-70.0
 30
0.0
 11
-258.6
 21
-73.19999999999999
 31
0.0
  0
LINE
  5
3CB
330
4F4
100
AcDbEntity
  8
__
  6
______-2
 62
     7
100
AcDbLine
 10
-251.4
 20
-73.19999999999999
 30
0.0
 11
-251.4
 21
-70.0
 31
0.0
  0
LINE
  5
3CC
330
4F4
100
AcDbEntity
  8
__
  6
______-2
 62
     7
100
AcDbLine
 10
-135.0
 20
-196.4
 30
0.0
 11
-138.2
 21
-196.4
 31
0.0
  0
LINE
  5
3CD
330
4F4
100
AcDbEntity
  8
__
  6
______-2
 62
     7
100
AcDbLine
 10
-138.2
 20
-203.6
 30
0.0
 11
-135.0
 21
-203.6
 31
0.0
  0
LINE
  5
3CE
330
4F4
100
AcDbEntity
  8
__
  6
______-2
 62
     7
100
AcDbLine
 10
-163.6
 20
-70.0
 30
0.0
 11
-163.6
 21
-73.19999999999999
 31
0.0
  0
LINE
  5
3CF
330
4F4
100
AcDbEntity
  8
__
  6
______-2
 62
     7
100
AcDbLine
 10
-156.4000000000001
 20
-73.19999999999999
 30
0.0
 11
-156.4000000000001
 21
-70.0
 31
0.0
  0
LINE
  5
3D0
330
4F4
100
AcDbEntity
  8
__
  6
______-2
 62
     7
100
AcDbLine
 10
-135.0
 20
-256.4
 30
0.0
 11
-138.2
 21
-256.4
 31
0.0
  0
LINE
  5
3D1
330
4F4
100
AcDbEntity
  8
__
  6
______-2
 62
     7
100
AcDbLine
 10
-138.2
 20
-263.6
 30
0.0
 11
-135.0
 21
-263.6
 31
0.0
  0
LINE
  5
3D2
330
4F4
100
AcDbEntity
  8
__
  6
______-2
 62
     7
100
AcDbLine
 10
-135.0
 20
-209.4
 30
0.0
 11
-137.6
 21
-212.0
 31
0.0
  0
LINE
  5
3D3
330
4F4
100
AcDbEntity
  8
__
  6
______-2
 62
     7
100
AcDbLine
 10
-137.6
 20
-216.2
 30
0.0
 11
-135.0
 21
-218.8
 31
0.0
  0
LINE
  5
3D4
330
4F4
100
AcDbEntity
  8
__
  6
______-2
 62
     7
100
AcDbLine
 10
-135.0
 20
-241.4
 30
0.0
 11
-137.6
 21
-244.0
 31
0.0
  0
LINE
  5
3D5
330
4F4
100
AcDbEntity
  8
__
  6
______-2
 62
     7
100
AcDbLine
 10
-137.6
 20
-248.2
 30
0.0
 11
-135.0
 21
-250.8
 31
0.0
  0
LINE
  5
3D6
330
4F4
100
AcDbEntity
  8
__
  6
______-2
 62
     7
100
AcDbLine
 10
-135.0
 20
-266.4
 30
0.0
 11
-137.6
 21
-269.0
 31
0.0
  0
LINE
  5
3D7
330
4F4
100
AcDbEntity
  8
__
  6
______-2
 62
     7
100
AcDbLine
 10
-137.6
 20
-273.2
 30
0.0
 11
-135.0
 21
-275.8
 31
0.0
  0
LINE
  5
3D8
330
4F4
100
AcDbEntity
  8
__
  6
______-2
 62
     7
100
AcDbLine
 10
-135.0
 20
-184.4
 30
0.0
 11
-137.6
 21
-187.0
 31
0.0
  0
LINE
  5
3D9
330
4F4
100
AcDbEntity
  8
__
  6
______-2
 62
     7
100
AcDbLine
 10
-137.6
 20
-191.2
 30
0.0
 11
-135.0
 21
-193.8
 31
0.0
  0
LINE
  5
3DA
330
4F4
100
AcDbEntity
  8
__
  6
______-2
 62
     7
100
AcDbLine
 10
-137.6
 20
-212.0
 30
0.0
 11
-138.2
 21
-212.0
 31
0.0
  0
LINE
  5
3DB
330
4F4
100
AcDbEntity
  8
__
  6
______-2
 62
     7
100
AcDbLine
 10
-138.2
 20
-216.2
 30
0.0
 11
-137.6
 21
-216.2
 31
0.0
  0
LINE
  5
3DC
330
4F4
100
AcDbEntity
  8
__
  6
______-2
 62
     7
100
AcDbLine
 10
-137.6
 20
-269.0
 30
0.0
 11
-138.2
 21
-269.0
 31
0.0
  0
LINE
  5
3DD
330
4F4
100
AcDbEntity
  8
__
  6
______-2
 62
     7
100
AcDbLine
 10
-138.2
 20
-273.2
 30
0.0
 11
-137.6
 21
-273.2
 31
0.0
  0
LINE
  5
3DE
330
4F4
100
AcDbEntity
  8
__
  6
______-2
 62
     7
100
AcDbLine
 10
-137.6
 20
-187.0
 30
0.0
 11
-138.2
 21
-187.0
 31
0.0
  0
LINE
  5
3DF
330
4F4
100
AcDbEntity
  8
__
  6
______-2
 62
     7
100
AcDbLine
 10
-138.2
 20
-191.2
 30
0.0
 11
-137.6
 21
-191.2
 31
0.0
  0
LINE
  5
3E0
330
4F4
100
AcDbEntity
  8
__
  6
______-2
 62
     7
100
AcDbLine
 10
-137.6
 20
-244.0
 30
0.0
 11
-138.2
 21
-244.0
 31
0.0
  0
LINE
  5
3E1
330
4F4
100
AcDbEntity
  8
__
  6
______-2
 62
     7
100
AcDbLine
 10
-138.2
 20
-248.2
 30
0.0
 11
-137.6
 21
-248.2
 31
0.0
  0
LINE
  5
3E2
330
4F4
100
AcDbEntity
  8
__
  6
______-2
 62
     7
100
AcDbLine
 10
-135.0
 20
-90.5
 30
0.0
 11
-138.2
 21
-90.5
 31
0.0
  0
LINE
  5
3E3
330
4F4
100
AcDbEntity
  8
__
  6
______-2
 62
     7
100
AcDbLine
 10
-138.2
 20
-99.5
 30
0.0
 11
-135.0
 21
-99.5
 31
0.0
  0
LINE
  5
3E4
330
4F4
100
AcDbEntity
  8
__
  6
______-2
 62
     7
100
AcDbLine
 10
-138.2
 20
-92.5
 30
0.0
 11
-145.7
 21
-92.5
 31
0.0
  0
LINE
  5
3E5
330
4F4
100
AcDbEntity
  8
__
  6
______-2
 62
     7
100
AcDbLine
 10
-145.7
 20
-97.5
 30
0.0
 11
-138.2
 21
-97.5
 31
0.0
  0
LINE
  5
3E6
330
4F4
100
AcDbEntity
  8
__
  6
______-2
 62
     7
100
AcDbLine
 10
-138.2
 20
-152.5
 30
0.0
 11
-145.7
 21
-152.5
 31
0.0
  0
LINE
  5
3E7
330
4F4
100
AcDbEntity
  8
__
  6
______-2
 62
     7
100
AcDbLine
 10
-145.7
 20
-157.5
 30
0.0
 11
-138.2
 21
-157.5
 31
0.0
  0
LINE
  5
3E8
330
4F4
100
AcDbEntity
  8
__
  6
______-6
 62
     7
100
AcDbLine
 10
-160.0
 20
-77.19999999999999
 30
0.0
 11
-160.0
 21
-66.0
 31
0.0
  0
LINE
  5
3E9
330
4F4
100
AcDbEntity
  8
__
  6
______-6
 62
     7
100
AcDbLine
 10
-255.0
 20
-77.19999999999999
 30
0.0
 11
-255.0
 21
-66.0
 31
0.0
  0
LINE
  5
3EA
330
4F4
100
AcDbEntity
  8
__
  6
______-6
 62
     7
100
AcDbLine
 10
-170.0
 20
-85.2388347648
 30
0.0
 11
-170.0
 21
-74.97609306509997
 31
0.0
  0
LINE
  5
3EB
330
4F4
100
AcDbEntity
  8
__
  6
______-6
 62
     7
100
AcDbLine
 10
-142.2
 20
-260.0
 30
0.0
 11
-131.0
 21
-260.0
 31
0.0
  0
LINE
  5
3EC
330
4F4
100
AcDbEntity
  8
__
  6
______-6
 62
     7
100
AcDbLine
 10
-142.2
 20
-200.0
 30
0.0
 11
-131.0
 21
-200.0
 31
0.0
  0
LINE
  5
3ED
330
4F4
100
AcDbEntity
  8
__
  6
______-6
 62
     7
100
AcDbLine
 10
-142.2
 20
-95.0
 30
0.0
 11
-131.0
 21
-95.0
 31
0.0
  0
LINE
  5
3EE
330
4F4
100
AcDbEntity
  8
__
  6
______-6
 62
     7
100
AcDbLine
 10
-142.2
 20
-155.0
 30
0.0
 11
-131.0
 21
-155.0
 31
0.0
  0
LINE
  5
3EF
330
4F4
100
AcDbEntity
  8
__
  6
______-6
 62
     7
100
AcDbLine
 10
-142.2
 20
-271.1
 30
0.0
 11
-137.6
 21
-271.1
 31
0.0
  0
LINE
  5
3F0
330
4F4
100
AcDbEntity
  8
__
  6
______-6
 62
     7
100
AcDbLine
 10
-131.0
 20
-271.1
 30
0.0
 11
-137.6
 21
-271.1
 31
0.0
  0
LINE
  5
3F1
330
4F4
100
AcDbEntity
  8
__
  6
______-6
 62
     7
100
AcDbLine
 10
-142.2
 20
-246.1
 30
0.0
 11
-137.6
 21
-246.1
 31
0.0
  0
LINE
  5
3F2
330
4F4
100
AcDbEntity
  8
__
  6
______-6
 62
     7
100
AcDbLine
 10
-131.0
 20
-246.1
 30
0.0
 11
-137.6
 21
-246.1
 31
0.0
  0
LINE
  5
3F3
330
4F4
100
AcDbEntity
  8
__
  6
______-6
 62
     7
100
AcDbLine
 10
-142.2
 20
-214.1
 30
0.0
 11
-137.6
 21
-214.1
 31
0.0
  0
LINE
  5
3F4
330
4F4
100
AcDbEntity
  8
__
  6
______-6
 62
     7
100
AcDbLine
 10
-131.0
 20
-214.1
 30
0.0
 11
-137.6
 21
-214.1
 31
0.0
  0
LINE
  5
3F5
330
4F4
100
AcDbEntity
  8
__
  6
______-6
 62
     7
100
AcDbLine
 10
-142.2
 20
-189.1
 30
0.0
 11
-137.6
 21
-189.1
 31
0.0
  0
LINE
  5
3F6
330
4F4
100
AcDbEntity
  8
__
  6
______-6
 62
     7
100
AcDbLine
 10
-131.0
 20
-189.1
 30
0.0
 11
-137.6
 21
-189.1
 31
0.0
  0
LINE
  5
3F7
330
4F4
100
AcDbEntity
  8
__
  6
Continuous
 62
     7
100
AcDbLine
 10
67.67480138734982
 20
-41.68800482295003
 30
0.0
 11
77.48140310514987
 21
-31.88140310515004
 31
0.0
  0
ARC
  5
3F8
330
4F4
100
AcDbEntity
  8
__
  6
Continuous
 62
     7
100
AcDbCircle
 10
60.60373357554977
 20
-34.61693701115004
 30
0.0
 40
10.00000000000004
100
AcDbArc
 50
224.9999999999998
 51
315.0
  0
LINE
  5
3F9
330
4F4
100
AcDbEntity
  8
__
  6
Continuous
 62
     7
100
AcDbLine
 10
42.9260640458499
 20
-31.08140310515003
 30
0.0
 11
53.5326657636499
 21
-41.68800482295003
 31
0.0
  0
ARC
  5
3FA
330
4F4
100
AcDbEntity
  8
__
  6
Continuous
 62
     7
100
AcDbCircle
 10
49.99713185774976
 20
-24.01033529335004
 30
0.0
 40
9.999999999999961
100
AcDbArc
 50
134.9999999999998
 51
225.0000000000002
  0
LINE
  5
3FB
330
4F4
100
AcDbEntity
  8
__
  6
Continuous
 62
     7
100
AcDbLine
 10
52.73266576364972
 20
-7.132665763650067
 30
0.0
 11
42.9260640458499
 21
-16.93926748145006
 31
0.0
  0
CIRCLE
  5
3FC
330
4F4
100
AcDbEntity
  8
__
  6
Continuous
 62
     7
100
AcDbCircle
 10
57.06819966954981
 20
-27.54586919925006
 30
0.0
 40
5.0
  0
LINE
  5
3FD
330
4F4
100
AcDbEntity
  8
__
  6
Continuous
 62
     7
100
AcDbLine
 10
54.33266576364986
 20
-5.532665763650044
 30
0.0
 11
52.73266576364972
 21
-7.132665763650067
 31
0.0
  0
LINE
  5
3FE
330
4F4
100
AcDbEntity
  8
__
  6
Continuous
 62
     7
100
AcDbLine
 10
79.08140310514978
 20
-30.28140310515002
 30
0.0
 11
77.48140310514987
 21
-31.88140310515004
 31
0.0
  0
LINE
  5
3FF
330
4F4
100
AcDbEntity
  8
__
  6
Continuous
 62
     7
100
AcDbLine
 10
79.08140310514978
 20
-30.28140310515002
 30
0.0
 11
54.33266576364986
 21
-5.532665763650044
 31
0.0
  0
LINE
  5
400
330
4F4
100
AcDbEntity
  8
__
  6
______-2
 62
     7
100
AcDbLine
 10
52.73266576364972
 20
-7.132665763650067
 30
0.0
 11
77.48140310514987
 21
-31.88140310515004
 31
0.0
  0
LINE
  5
401
330
4F4
100
AcDbEntity
  8
__
  6
______-6
 62
     7
100
AcDbLine
 10
57.06819966954981
 20
-27.54586919925006
 30
0.0
 11
58.8359666225499
 21
-25.77810224625006
 31
0.0
  0
LINE
  5
402
330
4F4
100
AcDbEntity
  8
__
  6
______-6
 62
     7
100
AcDbLine
 10
57.06819966954981
 20
-27.54586919925006
 30
0.0
 11
55.30043271654972
 21
-25.77810224625006
 31
0.0
  0
LINE
  5
403
330
4F4
100
AcDbEntity
  8
__
  6
______-6
 62
     7
100
AcDbLine
 10
57.06819966954981
 20
-27.54586919925006
 30
0.0
 11
55.30043271654972
 21
-29.31363615225007
 31
0.0
  0
LINE
  5
404
330
4F4
100
AcDbEntity
  8
__
  6
______-6
 62
     7
100
AcDbLine
 10
57.06819966954981
 20
-27.54586919925006
 30
0.0
 11
58.8359666225499
 21
-29.31363615225007
 31
0.0
  0
LINE
  5
405
330
4F4
100
AcDbEntity
  8
__
  6
______-6
 62
     7
100
AcDbLine
 10
60.60373357544972
 20
-24.01033529335007
 30
0.0
 11
62.37150052844981
 21
-22.24256834035006
 31
0.0
  0
LINE
  5
406
330
4F4
100
AcDbEntity
  8
__
  6
______-6
 62
     7
100
AcDbLine
 10
53.5326657636499
 20
-24.01033529335007
 30
0.0
 11
51.76489881064981
 21
-22.24256834035006
 31
0.0
  0
LINE
  5
407
330
4F4
100
AcDbEntity
  8
__
  6
______-6
 62
     7
100
AcDbLine
 10
53.5326657636499
 20
-31.08140310515006
 30
0.0
 11
51.76489881064981
 21
-32.84917005815007
 31
0.0
  0
LINE
  5
408
330
4F4
100
AcDbEntity
  8
__
  6
______-6
 62
     7
100
AcDbLine
 10
60.60373357544972
 20
-31.08140310515006
 30
0.0
 11
62.37150052844981
 21
-32.84917005815007
 31
0.0
  0
ARC
  5
409
330
4F4
100
AcDbEntity
  8
__
  6
Continuous
 62
     7
100
AcDbCircle
 10
125.5
 20
-277.0
 30
0.0
 40
3.0
100
AcDbArc
 50
180.0
 51
270.0
  0
LINE
  5
40A
330
4F4
100
AcDbEntity
  8
__
  6
Continuous
 62
     7
100
AcDbLine
 10
122.5
 20
-70.0
 30
0.0
 11
122.5
 21
-277.0
 31
0.0
  0
LINE
  5
40B
330
4F4
100
AcDbEntity
  8
__
  6
Continuous
 62
     7
100
AcDbLine
 10
177.5
 20
-277.0
 30
0.0
 11
177.5
 21
-69.99999999999994
 31
0.0
  0
ARC
  5
40C
330
4F4
100
AcDbEntity
  8
__
  6
Continuous
 62
     7
100
AcDbCircle
 10
174.5
 20
-277.0
 30
0.0
 40
3.0
100
AcDbArc
 50
270.0
 51
0.0
  0
LINE
  5
40D
330
4F4
100
AcDbEntity
  8
__
  6
Continuous
 62
     7
100
AcDbLine
 10
125.5
 20
-280.0
 30
0.0
 11
174.5
 21
-280.0
 31
0.0
  0
LINE
  5
40E
330
4F4
100
AcDbEntity
  8
__
  6
Continuous
 62
     7
100
AcDbLine
 10
118.8
 20
-69.99999999999994
 30
0.0
 11
177.5
 21
-69.99999999999994
 31
0.0
  0
LINE
  5
40F
330
4F4
100
AcDbEntity
  8
__
  6
Continuous
 62
     7
100
AcDbLine
 10
106.7306565823999
 20
-80.74386001799996
 30
0.0
 11
116.5372583001999
 21
-70.93725830019997
 31
0.0
  0
LINE
  5
410
330
4F4
100
AcDbEntity
  8
__
  6
Continuous
 62
     7
100
AcDbLine
 10
108.9933982821999
 20
-83.00660171779998
 30
0.0
 11
118.214213562373
 21
-73.7857864376269
 31
0.0
  0
LINE
  5
411
330
4F4
100
AcDbEntity
  8
__
  6
Continuous
 62
     7
100
AcDbLine
 10
101.9223304703999
 20
-90.07766952969996
 30
0.0
 11
99.65958877059984
 21
-87.8149278299
 31
0.0
  0
LINE
  5
412
330
4F4
100
AcDbEntity
  8
__
  6
Continuous
 62
     7
100
AcDbLine
 10
99.65958877059984
 20
-87.8149278299
 30
0.0
 11
106.7306565823999
 21
-80.74386001799996
 31
0.0
  0
LINE
  5
413
330
4F4
100
AcDbEntity
  8
__
  6
Continuous
 62
     7
100
AcDbLine
 10
108.9933982821999
 20
-83.00660171779998
 30
0.0
 11
101.9223304703999
 21
-90.07766952969996
 31
0.0
  0
ARC
  5
414
330
4F4
100
AcDbEntity
  8
__
  6
Continuous
 62
     7
100
AcDbCircle
 10
118.8
 20
-73.19999999999999
 30
0.0
 40
3.200000000000045
100
AcDbArc
 50
90.0
 51
135.0000000000014
  0
LINE
  5
415
330
4F4
100
AcDbEntity
  8
__
  6
______-2
 62
     7
100
AcDbLine
 10
119.6284271247461
 20
-73.19999999999999
 30
0.0
 11
177.5
 21
-73.19999999999999
 31
0.0
  0
LINE
  5
416
330
4F4
100
AcDbEntity
  8
__
  6
______-2
 62
     7
100
AcDbLine
 10
126.3999999999999
 20
-70.0
 30
0.0
 11
126.3999999999999
 21
-73.19999999999999
 31
0.0
  0
LINE
  5
417
330
4F4
100
AcDbEntity
  8
__
  6
______-2
 62
     7
100
AcDbLine
 10
133.5999999999999
 20
-73.19999999999999
 30
0.0
 11
133.5999999999999
 21
-70.0
 31
0.0
  0
LINE
  5
418
330
4F4
100
AcDbEntity
  8
__
  6
______-2
 62
     7
100
AcDbLine
 10
166.3999999999999
 20
-70.0
 30
0.0
 11
166.3999999999999
 21
-73.19999999999999
 31
0.0
  0
LINE
  5
419
330
4F4
100
AcDbEntity
  8
__
  6
______-2
 62
     7
100
AcDbLine
 10
173.5999999999999
 20
-73.19999999999999
 30
0.0
 11
173.5999999999999
 21
-70.0
 31
0.0
  0
LINE
  5
41A
330
4F4
100
AcDbEntity
  8
__
  6
______-2
 62
     7
100
AcDbLine
 10
104.9628896294998
 20
-82.511626971
 30
0.0
 11
107.2256313292999
 21
-84.77436867079996
 31
0.0
  0
LINE
  5
41B
330
4F4
100
AcDbEntity
  8
__
  6
______-2
 62
     7
100
AcDbLine
 10
114.2966991410999
 20
-77.70330085889998
 30
0.0
 11
112.0339574412999
 21
-75.44055915909996
 31
0.0
  0
LINE
  5
41C
330
4F4
100
AcDbEntity
  8
__
  6
Continuous
 62
     7
100
AcDbLine
 10
175.0
 20
-260.0
 30
0.0
 11
176.0999999999999
 21
-260.0
 31
0.0
  0
LINE
  5
41D
330
4F4
100
AcDbEntity
  8
__
  6
Continuous
 62
     7
100
AcDbLine
 10
175.0
 20
-200.0
 30
0.0
 11
176.0999999999999
 21
-200.0
 31
0.0
  0
LINE
  5
41E
330
4F4
100
AcDbEntity
  8
__
  6
______-6
 62
     7
100
AcDbLine
 10
175.0
 20
-95.0
 30
0.0
 11
176.0999999999999
 21
-95.0
 31
0.0
  0
ARC
  5
41F
330
4F4
100
AcDbEntity
  8
__
  6
Continuous
 62
     7
100
AcDbCircle
 10
119.6284271247462
 20
-75.19999999999997
 30
0.0
 40
1.999999999999986
100
AcDbArc
 50
90.00000000000043
 51
135.0000000000006
  0
LINE
  5
420
330
4F4
100
AcDbEntity
  8
__
  6
______-2
 62
     7
100
AcDbLine
 10
-135.0
 20
-151.4
 30
0.0
 11
-138.2
 21
-151.4
 31
0.0
  0
LINE
  5
421
330
4F4
100
AcDbEntity
  8
__
  6
______-2
 62
     7
100
AcDbLine
 10
-138.2
 20
-158.6
 30
0.0
 11
-135.0
 21
-158.6
 31
0.0
  0
LINE
  5
422
330
4F4
100
AcDbEntity
  8
__
  6
______-2
 62
     7
100
AcDbLine
 10
-135.0
 20
-150.5
 30
0.0
 11
-138.2
 21
-150.5
 31
0.0
  0
LINE
  5
423
330
4F4
100
AcDbEntity
  8
__
  6
______-2
 62
     7
100
AcDbLine
 10
-138.2
 20
-159.5
 30
0.0
 11
-135.0
 21
-159.5
 31
0.0
  0
CIRCLE
  5
424
330
4F4
100
AcDbEntity
  8
__
  6
Continuous
 62
     7
100
AcDbCircle
 10
134.0
 20
-271.1
 30
0.0
 40
4.699999999999818
  0
CIRCLE
  5
425
330
4F4
100
AcDbEntity
  8
__
  6
Continuous
 62
     7
100
AcDbCircle
 10
170.0
 20
-260.0
 30
0.0
 40
3.599999999999909
  0
CIRCLE
  5
426
330
4F4
100
AcDbEntity
  8
__
  6
Continuous
 62
     7
100
AcDbCircle
 10
130.0
 20
-260.0
 30
0.0
 40
3.600000000000136
  0
CIRCLE
  5
427
330
4F4
100
AcDbEntity
  8
__
  6
Continuous
 62
     7
100
AcDbCircle
 10
130.0
 20
-200.0
 30
0.0
 40
3.600000000000136
  0
CIRCLE
  5
428
330
4F4
100
AcDbEntity
  8
__
  6
Continuous
 62
     7
100
AcDbCircle
 10
170.0
 20
-200.0
 30
0.0
 40
3.599999999999909
  0
CIRCLE
  5
429
330
4F4
100
AcDbEntity
  8
__
  6
Continuous
 62
     7
100
AcDbCircle
 10
170.0
 20
-95.0
 30
0.0
 40
3.599999999999909
  0
CIRCLE
  5
42A
330
4F4
100
AcDbEntity
  8
__
  6
Continuous
 62
     7
100
AcDbCircle
 10
130.0
 20
-95.0
 30
0.0
 40
3.599999999999909
  0
CIRCLE
  5
42B
330
4F4
100
AcDbEntity
  8
__
  6
Continuous
 62
     7
100
AcDbCircle
 10
150.0
 20
-155.0
 30
0.0
 40
4.499999999999773
  0
CIRCLE
  5
42C
330
4F4
100
AcDbEntity
  8
__
  6
Continuous
 62
     7
100
AcDbCircle
 10
150.0
 20
-95.0
 30
0.0
 40
4.499999999999773
  0
CIRCLE
  5
42D
330
4F4
100
AcDbEntity
  8
__
  6
Continuous
 62
     7
100
AcDbCircle
 10
166.0
 20
-271.1
 30
0.0
 40
4.700000000000045
  0
CIRCLE
  5
42E
330
4F4
100
AcDbEntity
  8
__
  6
Continuous
 62
     7
100
AcDbCircle
 10
166.0
 20
-246.1
 30
0.0
 40
4.700000000000045
  0
CIRCLE
  5
42F
330
4F4
100
AcDbEntity
  8
__
  6
Continuous
 62
     7
100
AcDbCircle
 10
134.0
 20
-246.1
 30
0.0
 40
4.699999999999818
  0
CIRCLE
  5
430
330
4F4
100
AcDbEntity
  8
__
  6
Continuous
 62
     7
100
AcDbCircle
 10
134.0
 20
-214.1
 30
0.0
 40
4.699999999999818
  0
CIRCLE
  5
431
330
4F4
100
AcDbEntity
  8
__
  6
Continuous
 62
     7
100
AcDbCircle
 10
166.0
 20
-214.1
 30
0.0
 40
4.700000000000045
  0
CIRCLE
  5
432
330
4F4
100
AcDbEntity
  8
__
  6
Continuous
 62
     7
100
AcDbCircle
 10
166.0
 20
-189.1
 30
0.0
 40
4.699999999999818
  0
CIRCLE
  5
433
330
4F4
100
AcDbEntity
  8
__
  6
Continuous
 62
     7
100
AcDbCircle
 10
134.0
 20
-189.1
 30
0.0
 40
4.699999999999818
  0
CIRCLE
  5
434
330
4F4
100
AcDbEntity
  8
__
  6
Continuous
 62
     7
100
AcDbCircle
 10
166.0
 20
-271.1
 30
0.0
 40
2.099999999999909
  0
CIRCLE
  5
435
330
4F4
100
AcDbEntity
  8
__
  6
Continuous
 62
     7
100
AcDbCircle
 10
166.0
 20
-189.1
 30
0.0
 40
2.099999999999909
  0
CIRCLE
  5
436
330
4F4
100
AcDbEntity
  8
__
  6
Continuous
 62
     7
100
AcDbCircle
 10
134.0
 20
-246.1
 30
0.0
 40
2.099999999999909
  0
CIRCLE
  5
437
330
4F4
100
AcDbEntity
  8
__
  6
Continuous
 62
     7
100
AcDbCircle
 10
166.0
 20
-214.1
 30
0.0
 40
2.099999999999909
  0
CIRCLE
  5
438
330
4F4
100
AcDbEntity
  8
__
  6
Continuous
 62
     7
100
AcDbCircle
 10
134.0
 20
-271.1
 30
0.0
 40
2.099999999999909
  0
CIRCLE
  5
439
330
4F4
100
AcDbEntity
  8
__
  6
Continuous
 62
     7
100
AcDbCircle
 10
134.0
 20
-189.1
 30
0.0
 40
2.099999999999909
  0
CIRCLE
  5
43A
330
4F4
100
AcDbEntity
  8
__
  6
Continuous
 62
     7
100
AcDbCircle
 10
166.0
 20
-246.1
 30
0.0
 40
2.099999999999909
  0
CIRCLE
  5
43B
330
4F4
100
AcDbEntity
  8
__
  6
Continuous
 62
     7
100
AcDbCircle
 10
134.0
 20
-214.1
 30
0.0
 40
2.099999999999909
  0
CIRCLE
  5
43C
330
4F4
100
AcDbEntity
  8
__
  6
Continuous
 62
     7
100
AcDbCircle
 10
150.0
 20
-95.0
 30
0.0
 40
2.499999999999773
  0
CIRCLE
  5
43D
330
4F4
100
AcDbEntity
  8
__
  6
Continuous
 62
     7
100
AcDbCircle
 10
150.0
 20
-155.0
 30
0.0
 40
2.5
  0
LINE
  5
43E
330
4F4
100
AcDbEntity
  8
__
  6
______-2
 62
     7
100
AcDbLine
 10
156.5
 20
-98.75277674969999
 30
0.0
 11
156.5
 21
-91.24722325030001
 31
0.0
  0
LINE
  5
43F
330
4F4
100
AcDbEntity
  8
__
  6
______-2
 62
     7
100
AcDbLine
 10
150.0
 20
-102.5055534995
 30
0.0
 11
156.5
 21
-98.75277674969999
 31
0.0
  0
LINE
  5
440
330
4F4
100
AcDbEntity
  8
__
  6
______-2
 62
     7
100
AcDbLine
 10
156.5
 20
-91.24722325030001
 30
0.0
 11
150.0
 21
-87.49444650059996
 31
0.0
  0
LINE
  5
441
330
4F4
100
AcDbEntity
  8
__
  6
______-2
 62
     7
100
AcDbLine
 10
143.5
 20
-91.24722325030001
 30
0.0
 11
143.5
 21
-98.75277674969999
 31
0.0
  0
LINE
  5
442
330
4F4
100
AcDbEntity
  8
__
  6
______-2
 62
     7
100
AcDbLine
 10
150.0
 20
-87.49444650059996
 30
0.0
 11
143.5
 21
-91.24722325030001
 31
0.0
  0
LINE
  5
443
330
4F4
100
AcDbEntity
  8
__
  6
______-2
 62
     7
100
AcDbLine
 10
143.5
 20
-98.75277674969999
 30
0.0
 11
150.0
 21
-102.5055534995
 31
0.0
  0
LINE
  5
444
330
4F4
100
AcDbEntity
  8
__
  6
______-2
 62
     7
100
AcDbLine
 10
150.0
 20
-162.5055534995
 30
0.0
 11
156.5
 21
-158.7527767497
 31
0.0
  0
LINE
  5
445
330
4F4
100
AcDbEntity
  8
__
  6
______-2
 62
     7
100
AcDbLine
 10
143.5
 20
-151.2472232503
 30
0.0
 11
143.5
 21
-158.7527767497
 31
0.0
  0
LINE
  5
446
330
4F4
100
AcDbEntity
  8
__
  6
______-2
 62
     7
100
AcDbLine
 10
150.0
 20
-147.4944465006
 30
0.0
 11
143.5
 21
-151.2472232503
 31
0.0
  0
LINE
  5
447
330
4F4
100
AcDbEntity
  8
__
  6
______-2
 62
     7
100
AcDbLine
 10
143.5
 20
-158.7527767497
 30
0.0
 11
150.0
 21
-162.5055534995
 31
0.0
  0
LINE
  5
448
330
4F4
100
AcDbEntity
  8
__
  6
______-2
 62
     7
100
AcDbLine
 10
156.5
 20
-158.7527767497
 30
0.0
 11
156.5
 21
-151.2472232503
 31
0.0
  0
LINE
  5
449
330
4F4
100
AcDbEntity
  8
__
  6
______-2
 62
     7
100
AcDbLine
 10
156.5
 20
-151.2472232503
 30
0.0
 11
150.0
 21
-147.4944465006
 31
0.0
  0
LINE
  5
44A
330
4F4
100
AcDbEntity
  8
__
  6
______-6
 62
     7
100
AcDbLine
 10
170.0
 20
-260.0
 30
0.0
 11
170.0
 21
-257.5
 31
0.0
  0
LINE
  5
44B
330
4F4
100
AcDbEntity
  8
__
  6
______-6
 62
     7
100
AcDbLine
 10
170.0
 20
-260.0
 30
0.0
 11
167.5
 21
-260.0
 31
0.0
  0
LINE
  5
44C
330
4F4
100
AcDbEntity
  8
__
  6
______-6
 62
     7
100
AcDbLine
 10
170.0
 20
-260.0
 30
0.0
 11
170.0
 21
-262.5
 31
0.0
  0
LINE
  5
44D
330
4F4
100
AcDbEntity
  8
__
  6
______-6
 62
     7
100
AcDbLine
 10
170.0
 20
-260.0
 30
0.0
 11
172.5
 21
-260.0
 31
0.0
  0
LINE
  5
44E
330
4F4
100
AcDbEntity
  8
__
  6
______-6
 62
     7
100
AcDbLine
 10
170.0
 20
-255.0
 30
0.0
 11
170.0
 21
-253.9
 31
0.0
  0
LINE
  5
44F
330
4F4
100
AcDbEntity
  8
__
  6
______-6
 62
     7
100
AcDbLine
 10
165.0
 20
-260.0
 30
0.0
 11
163.8999999999999
 21
-260.0
 31
0.0
  0
LINE
  5
450
330
4F4
100
AcDbEntity
  8
__
  6
______-6
 62
     7
100
AcDbLine
 10
170.0
 20
-265.0
 30
0.0
 11
170.0
 21
-266.1
 31
0.0
  0
LINE
  5
451
330
4F4
100
AcDbEntity
  8
__
  6
______-6
 62
     7
100
AcDbLine
 10
130.0
 20
-260.0
 30
0.0
 11
130.0
 21
-257.5
 31
0.0
  0
LINE
  5
452
330
4F4
100
AcDbEntity
  8
__
  6
______-6
 62
     7
100
AcDbLine
 10
130.0
 20
-260.0
 30
0.0
 11
127.5
 21
-260.0
 31
0.0
  0
LINE
  5
453
330
4F4
100
AcDbEntity
  8
__
  6
______-6
 62
     7
100
AcDbLine
 10
130.0
 20
-260.0
 30
0.0
 11
130.0
 21
-262.5
 31
0.0
  0
LINE
  5
454
330
4F4
100
AcDbEntity
  8
__
  6
______-6
 62
     7
100
AcDbLine
 10
130.0
 20
-260.0
 30
0.0
 11
132.5
 21
-260.0
 31
0.0
  0
LINE
  5
455
330
4F4
100
AcDbEntity
  8
__
  6
______-6
 62
     7
100
AcDbLine
 10
130.0
 20
-255.0
 30
0.0
 11
130.0
 21
-253.9
 31
0.0
  0
LINE
  5
456
330
4F4
100
AcDbEntity
  8
__
  6
______-6
 62
     7
100
AcDbLine
 10
125.0
 20
-260.0
 30
0.0
 11
123.8999999999999
 21
-260.0
 31
0.0
  0
LINE
  5
457
330
4F4
100
AcDbEntity
  8
__
  6
______-6
 62
     7
100
AcDbLine
 10
130.0
 20
-265.0
 30
0.0
 11
130.0
 21
-266.1
 31
0.0
  0
LINE
  5
458
330
4F4
100
AcDbEntity
  8
__
  6
______-6
 62
     7
100
AcDbLine
 10
135.0
 20
-260.0
 30
0.0
 11
136.0999999999999
 21
-260.0
 31
0.0
  0
LINE
  5
459
330
4F4
100
AcDbEntity
  8
__
  6
______-6
 62
     7
100
AcDbLine
 10
130.0
 20
-200.0
 30
0.0
 11
130.0
 21
-197.5
 31
0.0
  0
LINE
  5
45A
330
4F4
100
AcDbEntity
  8
__
  6
______-6
 62
     7
100
AcDbLine
 10
130.0
 20
-200.0
 30
0.0
 11
127.5
 21
-200.0
 31
0.0
  0
LINE
  5
45B
330
4F4
100
AcDbEntity
  8
__
  6
______-6
 62
     7
100
AcDbLine
 10
130.0
 20
-200.0
 30
0.0
 11
130.0
 21
-202.5
 31
0.0
  0
LINE
  5
45C
330
4F4
100
AcDbEntity
  8
__
  6
______-6
 62
     7
100
AcDbLine
 10
130.0
 20
-200.0
 30
0.0
 11
132.5
 21
-200.0
 31
0.0
  0
LINE
  5
45D
330
4F4
100
AcDbEntity
  8
__
  6
______-6
 62
     7
100
AcDbLine
 10
130.0
 20
-195.0
 30
0.0
 11
130.0
 21
-193.9
 31
0.0
  0
LINE
  5
45E
330
4F4
100
AcDbEntity
  8
__
  6
______-6
 62
     7
100
AcDbLine
 10
125.0
 20
-200.0
 30
0.0
 11
123.8999999999999
 21
-200.0
 31
0.0
  0
LINE
  5
45F
330
4F4
100
AcDbEntity
  8
__
  6
______-6
 62
     7
100
AcDbLine
 10
130.0
 20
-205.0
 30
0.0
 11
130.0
 21
-206.1
 31
0.0
  0
LINE
  5
460
330
4F4
100
AcDbEntity
  8
__
  6
______-6
 62
     7
100
AcDbLine
 10
135.0
 20
-200.0
 30
0.0
 11
136.0999999999999
 21
-200.0
 31
0.0
  0
LINE
  5
461
330
4F4
100
AcDbEntity
  8
__
  6
______-6
 62
     7
100
AcDbLine
 10
170.0
 20
-200.0
 30
0.0
 11
170.0
 21
-197.5
 31
0.0
  0
LINE
  5
462
330
4F4
100
AcDbEntity
  8
__
  6
______-6
 62
     7
100
AcDbLine
 10
170.0
 20
-200.0
 30
0.0
 11
167.5
 21
-200.0
 31
0.0
  0
LINE
  5
463
330
4F4
100
AcDbEntity
  8
__
  6
______-6
 62
     7
100
AcDbLine
 10
170.0
 20
-200.0
 30
0.0
 11
170.0
 21
-202.5
 31
0.0
  0
LINE
  5
464
330
4F4
100
AcDbEntity
  8
__
  6
______-6
 62
     7
100
AcDbLine
 10
170.0
 20
-200.0
 30
0.0
 11
172.5
 21
-200.0
 31
0.0
  0
LINE
  5
465
330
4F4
100
AcDbEntity
  8
__
  6
______-6
 62
     7
100
AcDbLine
 10
170.0
 20
-195.0
 30
0.0
 11
170.0
 21
-193.9
 31
0.0
  0
LINE
  5
466
330
4F4
100
AcDbEntity
  8
__
  6
______-6
 62
     7
100
AcDbLine
 10
165.0
 20
-200.0
 30
0.0
 11
163.8999999999999
 21
-200.0
 31
0.0
  0
LINE
  5
467
330
4F4
100
AcDbEntity
  8
__
  6
______-6
 62
     7
100
AcDbLine
 10
170.0
 20
-205.0
 30
0.0
 11
170.0
 21
-206.1
 31
0.0
  0
LINE
  5
468
330
4F4
100
AcDbEntity
  8
__
  6
______-6
 62
     7
100
AcDbLine
 10
170.0
 20
-95.0
 30
0.0
 11
170.0
 21
-92.5
 31
0.0
  0
LINE
  5
469
330
4F4
100
AcDbEntity
  8
__
  6
______-6
 62
     7
100
AcDbLine
 10
170.0
 20
-95.0
 30
0.0
 11
167.5
 21
-95.0
 31
0.0
  0
LINE
  5
46A
330
4F4
100
AcDbEntity
  8
__
  6
______-6
 62
     7
100
AcDbLine
 10
170.0
 20
-95.0
 30
0.0
 11
170.0
 21
-97.5
 31
0.0
  0
LINE
  5
46B
330
4F4
100
AcDbEntity
  8
__
  6
______-6
 62
     7
100
AcDbLine
 10
170.0
 20
-95.0
 30
0.0
 11
172.5
 21
-95.0
 31
0.0
  0
LINE
  5
46C
330
4F4
100
AcDbEntity
  8
__
  6
______-6
 62
     7
100
AcDbLine
 10
170.0
 20
-90.0
 30
0.0
 11
170.0
 21
-88.9
 31
0.0
  0
LINE
  5
46D
330
4F4
100
AcDbEntity
  8
__
  6
______-6
 62
     7
100
AcDbLine
 10
165.0
 20
-95.0
 30
0.0
 11
163.8999999999999
 21
-95.0
 31
0.0
  0
LINE
  5
46E
330
4F4
100
AcDbEntity
  8
__
  6
______-6
 62
     7
100
AcDbLine
 10
170.0
 20
-100.0
 30
0.0
 11
170.0
 21
-101.1
 31
0.0
  0
LINE
  5
46F
330
4F4
100
AcDbEntity
  8
__
  6
______-6
 62
     7
100
AcDbLine
 10
130.0
 20
-95.0
 30
0.0
 11
130.0
 21
-92.5
 31
0.0
  0
LINE
  5
470
330
4F4
100
AcDbEntity
  8
__
  6
______-6
 62
     7
100
AcDbLine
 10
130.0
 20
-95.0
 30
0.0
 11
127.5
 21
-95.0
 31
0.0
  0
LINE
  5
471
330
4F4
100
AcDbEntity
  8
__
  6
______-6
 62
     7
100
AcDbLine
 10
130.0
 20
-95.0
 30
0.0
 11
130.0
 21
-97.5
 31
0.0
  0
LINE
  5
472
330
4F4
100
AcDbEntity
  8
__
  6
______-6
 62
     7
100
AcDbLine
 10
130.0
 20
-95.0
 30
0.0
 11
132.5
 21
-95.0
 31
0.0
  0
LINE
  5
473
330
4F4
100
AcDbEntity
  8
__
  6
______-6
 62
     7
100
AcDbLine
 10
130.0
 20
-90.0
 30
0.0
 11
130.0
 21
-88.9
 31
0.0
  0
LINE
  5
474
330
4F4
100
AcDbEntity
  8
__
  6
______-6
 62
     7
100
AcDbLine
 10
125.0
 20
-95.0
 30
0.0
 11
123.8999999999999
 21
-95.0
 31
0.0
  0
LINE
  5
475
330
4F4
100
AcDbEntity
  8
__
  6
______-6
 62
     7
100
AcDbLine
 10
130.0
 20
-100.0
 30
0.0
 11
130.0
 21
-101.1
 31
0.0
  0
LINE
  5
476
330
4F4
100
AcDbEntity
  8
__
  6
______-6
 62
     7
100
AcDbLine
 10
135.0
 20
-95.0
 30
0.0
 11
136.0999999999999
 21
-95.0
 31
0.0
  0
LINE
  5
477
330
4F4
100
AcDbEntity
  8
__
  6
______-6
 62
     7
100
AcDbLine
 10
150.0
 20
-155.0
 30
0.0
 11
150.0
 21
-152.5
 31
0.0
  0
LINE
  5
478
330
4F4
100
AcDbEntity
  8
__
  6
______-6
 62
     7
100
AcDbLine
 10
150.0
 20
-155.0
 30
0.0
 11
147.5
 21
-155.0
 31
0.0
  0
LINE
  5
479
330
4F4
100
AcDbEntity
  8
__
  6
______-6
 62
     7
100
AcDbLine
 10
150.0
 20
-155.0
 30
0.0
 11
150.0
 21
-157.5
 31
0.0
  0
LINE
  5
47A
330
4F4
100
AcDbEntity
  8
__
  6
______-6
 62
     7
100
AcDbLine
 10
150.0
 20
-155.0
 30
0.0
 11
152.5
 21
-155.0
 31
0.0
  0
LINE
  5
47B
330
4F4
100
AcDbEntity
  8
__
  6
______-6
 62
     7
100
AcDbLine
 10
150.0
 20
-150.0
 30
0.0
 11
150.0
 21
-148.0
 31
0.0
  0
LINE
  5
47C
330
4F4
100
AcDbEntity
  8
__
  6
______-6
 62
     7
100
AcDbLine
 10
145.0
 20
-155.0
 30
0.0
 11
143.0
 21
-155.0
 31
0.0
  0
LINE
  5
47D
330
4F4
100
AcDbEntity
  8
__
  6
______-6
 62
     7
100
AcDbLine
 10
150.0
 20
-160.0
 30
0.0
 11
150.0
 21
-162.0
 31
0.0
  0
LINE
  5
47E
330
4F4
100
AcDbEntity
  8
__
  6
______-6
 62
     7
100
AcDbLine
 10
155.0
 20
-155.0
 30
0.0
 11
157.0
 21
-155.0
 31
0.0
  0
LINE
  5
47F
330
4F4
100
AcDbEntity
  8
__
  6
______-6
 62
     7
100
AcDbLine
 10
150.0
 20
-95.0
 30
0.0
 11
150.0
 21
-92.5
 31
0.0
  0
LINE
  5
480
330
4F4
100
AcDbEntity
  8
__
  6
______-6
 62
     7
100
AcDbLine
 10
150.0
 20
-95.0
 30
0.0
 11
147.5
 21
-95.0
 31
0.0
  0
LINE
  5
481
330
4F4
100
AcDbEntity
  8
__
  6
______-6
 62
     7
100
AcDbLine
 10
150.0
 20
-95.0
 30
0.0
 11
150.0
 21
-97.5
 31
0.0
  0
LINE
  5
482
330
4F4
100
AcDbEntity
  8
__
  6
______-6
 62
     7
100
AcDbLine
 10
150.0
 20
-95.0
 30
0.0
 11
152.5
 21
-95.0
 31
0.0
  0
LINE
  5
483
330
4F4
100
AcDbEntity
  8
__
  6
______-6
 62
     7
100
AcDbLine
 10
150.0
 20
-90.0
 30
0.0
 11
150.0
 21
-88.0
 31
0.0
  0
LINE
  5
484
330
4F4
100
AcDbEntity
  8
__
  6
______-6
 62
     7
100
AcDbLine
 10
145.0
 20
-95.0
 30
0.0
 11
143.0
 21
-95.0
 31
0.0
  0
LINE
  5
485
330
4F4
100
AcDbEntity
  8
__
  6
______-6
 62
     7
100
AcDbLine
 10
150.0
 20
-100.0
 30
0.0
 11
150.0
 21
-102.0
 31
0.0
  0
LINE
  5
486
330
4F4
100
AcDbEntity
  8
__
  6
______-6
 62
     7
100
AcDbLine
 10
155.0
 20
-95.0
 30
0.0
 11
157.0
 21
-95.0
 31
0.0
  0
LINE
  5
487
330
4F4
100
AcDbEntity
  8
__
  6
______-6
 62
     7
100
AcDbLine
 10
134.0
 20
-271.1
 30
0.0
 11
134.0
 21
-268.6
 31
0.0
  0
LINE
  5
488
330
4F4
100
AcDbEntity
  8
__
  6
______-6
 62
     7
100
AcDbLine
 10
134.0
 20
-271.1
 30
0.0
 11
131.5
 21
-271.1
 31
0.0
  0
LINE
  5
489
330
4F4
100
AcDbEntity
  8
__
  6
______-6
 62
     7
100
AcDbLine
 10
134.0
 20
-271.1
 30
0.0
 11
134.0
 21
-273.6
 31
0.0
  0
LINE
  5
48A
330
4F4
100
AcDbEntity
  8
__
  6
______-6
 62
     7
100
AcDbLine
 10
134.0
 20
-271.1
 30
0.0
 11
136.5
 21
-271.1
 31
0.0
  0
LINE
  5
48B
330
4F4
100
AcDbEntity
  8
__
  6
______-6
 62
     7
100
AcDbLine
 10
134.0
 20
-268.6
 30
0.0
 11
134.0
 21
-266.5
 31
0.0
  0
LINE
  5
48C
330
4F4
100
AcDbEntity
  8
__
  6
______-6
 62
     7
100
AcDbLine
 10
131.5
 20
-271.1
 30
0.0
 11
129.3999999999999
 21
-271.1
 31
0.0
  0
LINE
  5
48D
330
4F4
100
AcDbEntity
  8
__
  6
______-6
 62
     7
100
AcDbLine
 10
134.0
 20
-273.6
 30
0.0
 11
134.0
 21
-275.7
 31
0.0
  0
LINE
  5
48E
330
4F4
100
AcDbEntity
  8
__
  6
______-6
 62
     7
100
AcDbLine
 10
136.5
 20
-271.1
 30
0.0
 11
138.5999999999999
 21
-271.1
 31
0.0
  0
LINE
  5
48F
330
4F4
100
AcDbEntity
  8
__
  6
______-6
 62
     7
100
AcDbLine
 10
166.0
 20
-271.1
 30
0.0
 11
166.0
 21
-268.6
 31
0.0
  0
LINE
  5
490
330
4F4
100
AcDbEntity
  8
__
  6
______-6
 62
     7
100
AcDbLine
 10
166.0
 20
-271.1
 30
0.0
 11
163.5
 21
-271.1
 31
0.0
  0
LINE
  5
491
330
4F4
100
AcDbEntity
  8
__
  6
______-6
 62
     7
100
AcDbLine
 10
166.0
 20
-271.1
 30
0.0
 11
166.0
 21
-273.6
 31
0.0
  0
LINE
  5
492
330
4F4
100
AcDbEntity
  8
__
  6
______-6
 62
     7
100
AcDbLine
 10
166.0
 20
-271.1
 30
0.0
 11
168.5
 21
-271.1
 31
0.0
  0
LINE
  5
493
330
4F4
100
AcDbEntity
  8
__
  6
______-6
 62
     7
100
AcDbLine
 10
166.0
 20
-268.6
 30
0.0
 11
166.0
 21
-266.5
 31
0.0
  0
LINE
  5
494
330
4F4
100
AcDbEntity
  8
__
  6
______-6
 62
     7
100
AcDbLine
 10
163.5
 20
-271.1
 30
0.0
 11
161.3999999999999
 21
-271.1
 31
0.0
  0
LINE
  5
495
330
4F4
100
AcDbEntity
  8
__
  6
______-6
 62
     7
100
AcDbLine
 10
166.0
 20
-273.6
 30
0.0
 11
166.0
 21
-275.7
 31
0.0
  0
LINE
  5
496
330
4F4
100
AcDbEntity
  8
__
  6
______-6
 62
     7
100
AcDbLine
 10
168.5
 20
-271.1
 30
0.0
 11
170.5999999999999
 21
-271.1
 31
0.0
  0
LINE
  5
497
330
4F4
100
AcDbEntity
  8
__
  6
______-6
 62
     7
100
AcDbLine
 10
166.0
 20
-246.1
 30
0.0
 11
166.0
 21
-243.6
 31
0.0
  0
LINE
  5
498
330
4F4
100
AcDbEntity
  8
__
  6
______-6
 62
     7
100
AcDbLine
 10
166.0
 20
-246.1
 30
0.0
 11
163.5
 21
-246.1
 31
0.0
  0
LINE
  5
499
330
4F4
100
AcDbEntity
  8
__
  6
______-6
 62
     7
100
AcDbLine
 10
166.0
 20
-246.1
 30
0.0
 11
166.0
 21
-248.6
 31
0.0
  0
LINE
  5
49A
330
4F4
100
AcDbEntity
  8
__
  6
______-6
 62
     7
100
AcDbLine
 10
166.0
 20
-246.1
 30
0.0
 11
168.5
 21
-246.1
 31
0.0
  0
LINE
  5
49B
330
4F4
100
AcDbEntity
  8
__
  6
______-6
 62
     7
100
AcDbLine
 10
166.0
 20
-243.6
 30
0.0
 11
166.0
 21
-241.5
 31
0.0
  0
LINE
  5
49C
330
4F4
100
AcDbEntity
  8
__
  6
______-6
 62
     7
100
AcDbLine
 10
163.5
 20
-246.1
 30
0.0
 11
161.3999999999999
 21
-246.1
 31
0.0
  0
LINE
  5
49D
330
4F4
100
AcDbEntity
  8
__
  6
______-6
 62
     7
100
AcDbLine
 10
166.0
 20
-248.6
 30
0.0
 11
166.0
 21
-250.7
 31
0.0
  0
LINE
  5
49E
330
4F4
100
AcDbEntity
  8
__
  6
______-6
 62
     7
100
AcDbLine
 10
168.5
 20
-246.1
 30
0.0
 11
170.5999999999999
 21
-246.1
 31
0.0
  0
LINE
  5
49F
330
4F4
100
AcDbEntity
  8
__
  6
______-6
 62
     7
100
AcDbLine
 10
134.0
 20
-246.1
 30
0.0
 11
134.0
 21
-243.6
 31
0.0
  0
LINE
  5
4A0
330
4F4
100
AcDbEntity
  8
__
  6
______-6
 62
     7
100
AcDbLine
 10
134.0
 20
-246.1
 30
0.0
 11
131.5
 21
-246.1
 31
0.0
  0
LINE
  5
4A1
330
4F4
100
AcDbEntity
  8
__
  6
______-6
 62
     7
100
AcDbLine
 10
134.0
 20
-246.1
 30
0.0
 11
134.0
 21
-248.6
 31
0.0
  0
LINE
  5
4A2
330
4F4
100
AcDbEntity
  8
__
  6
______-6
 62
     7
100
AcDbLine
 10
134.0
 20
-246.1
 30
0.0
 11
136.5
 21
-246.1
 31
0.0
  0
LINE
  5
4A3
330
4F4
100
AcDbEntity
  8
__
  6
______-6
 62
     7
100
AcDbLine
 10
134.0
 20
-243.6
 30
0.0
 11
134.0
 21
-241.5
 31
0.0
  0
LINE
  5
4A4
330
4F4
100
AcDbEntity
  8
__
  6
______-6
 62
     7
100
AcDbLine
 10
131.5
 20
-246.1
 30
0.0
 11
129.3999999999999
 21
-246.1
 31
0.0
  0
LINE
  5
4A5
330
4F4
100
AcDbEntity
  8
__
  6
______-6
 62
     7
100
AcDbLine
 10
134.0
 20
-248.6
 30
0.0
 11
134.0
 21
-250.7
 31
0.0
  0
LINE
  5
4A6
330
4F4
100
AcDbEntity
  8
__
  6
______-6
 62
     7
100
AcDbLine
 10
136.5
 20
-246.1
 30
0.0
 11
138.5999999999999
 21
-246.1
 31
0.0
  0
LINE
  5
4A7
330
4F4
100
AcDbEntity
  8
__
  6
______-6
 62
     7
100
AcDbLine
 10
134.0
 20
-214.1
 30
0.0
 11
134.0
 21
-211.6
 31
0.0
  0
LINE
  5
4A8
330
4F4
100
AcDbEntity
  8
__
  6
______-6
 62
     7
100
AcDbLine
 10
134.0
 20
-214.1
 30
0.0
 11
131.5
 21
-214.1
 31
0.0
  0
LINE
  5
4A9
330
4F4
100
AcDbEntity
  8
__
  6
______-6
 62
     7
100
AcDbLine
 10
134.0
 20
-214.1
 30
0.0
 11
134.0
 21
-216.6
 31
0.0
  0
LINE
  5
4AA
330
4F4
100
AcDbEntity
  8
__
  6
______-6
 62
     7
100
AcDbLine
 10
134.0
 20
-214.1
 30
0.0
 11
136.5
 21
-214.1
 31
0.0
  0
LINE
  5
4AB
330
4F4
100
AcDbEntity
  8
__
  6
______-6
 62
     7
100
AcDbLine
 10
134.0
 20
-211.6
 30
0.0
 11
134.0
 21
-209.5
 31
0.0
  0
LINE
  5
4AC
330
4F4
100
AcDbEntity
  8
__
  6
______-6
 62
     7
100
AcDbLine
 10
131.5
 20
-214.1
 30
0.0
 11
129.3999999999999
 21
-214.1
 31
0.0
  0
LINE
  5
4AD
330
4F4
100
AcDbEntity
  8
__
  6
______-6
 62
     7
100
AcDbLine
 10
134.0
 20
-216.6
 30
0.0
 11
134.0
 21
-218.7
 31
0.0
  0
LINE
  5
4AE
330
4F4
100
AcDbEntity
  8
__
  6
______-6
 62
     7
100
AcDbLine
 10
136.5
 20
-214.1
 30
0.0
 11
138.5999999999999
 21
-214.1
 31
0.0
  0
LINE
  5
4AF
330
4F4
100
AcDbEntity
  8
__
  6
______-6
 62
     7
100
AcDbLine
 10
166.0
 20
-214.1
 30
0.0
 11
166.0
 21
-211.6
 31
0.0
  0
LINE
  5
4B0
330
4F4
100
AcDbEntity
  8
__
  6
______-6
 62
     7
100
AcDbLine
 10
166.0
 20
-214.1
 30
0.0
 11
163.5
 21
-214.1
 31
0.0
  0
LINE
  5
4B1
330
4F4
100
AcDbEntity
  8
__
  6
______-6
 62
     7
100
AcDbLine
 10
166.0
 20
-214.1
 30
0.0
 11
166.0
 21
-216.6
 31
0.0
  0
LINE
  5
4B2
330
4F4
100
AcDbEntity
  8
__
  6
______-6
 62
     7
100
AcDbLine
 10
166.0
 20
-214.1
 30
0.0
 11
168.5
 21
-214.1
 31
0.0
  0
LINE
  5
4B3
330
4F4
100
AcDbEntity
  8
__
  6
______-6
 62
     7
100
AcDbLine
 10
166.0
 20
-211.6
 30
0.0
 11
166.0
 21
-209.5
 31
0.0
  0
LINE
  5
4B4
330
4F4
100
AcDbEntity
  8
__
  6
______-6
 62
     7
100
AcDbLine
 10
163.5
 20
-214.1
 30
0.0
 11
161.3999999999999
 21
-214.1
 31
0.0
  0
LINE
  5
4B5
330
4F4
100
AcDbEntity
  8
__
  6
______-6
 62
     7
100
AcDbLine
 10
166.0
 20
-216.6
 30
0.0
 11
166.0
 21
-218.7
 31
0.0
  0
LINE
  5
4B6
330
4F4
100
AcDbEntity
  8
__
  6
______-6
 62
     7
100
AcDbLine
 10
168.5
 20
-214.1
 30
0.0
 11
170.5999999999999
 21
-214.1
 31
0.0
  0
LINE
  5
4B7
330
4F4
100
AcDbEntity
  8
__
  6
______-6
 62
     7
100
AcDbLine
 10
166.0
 20
-189.1
 30
0.0
 11
166.0
 21
-186.6
 31
0.0
  0
LINE
  5
4B8
330
4F4
100
AcDbEntity
  8
__
  6
______-6
 62
     7
100
AcDbLine
 10
166.0
 20
-189.1
 30
0.0
 11
163.5
 21
-189.1
 31
0.0
  0
LINE
  5
4B9
330
4F4
100
AcDbEntity
  8
__
  6
______-6
 62
     7
100
AcDbLine
 10
166.0
 20
-189.1
 30
0.0
 11
166.0
 21
-191.6
 31
0.0
  0
LINE
  5
4BA
330
4F4
100
AcDbEntity
  8
__
  6
______-6
 62
     7
100
AcDbLine
 10
166.0
 20
-189.1
 30
0.0
 11
168.5
 21
-189.1
 31
0.0
  0
LINE
  5
4BB
330
4F4
100
AcDbEntity
  8
__
  6
______-6
 62
     7
100
AcDbLine
 10
166.0
 20
-186.6
 30
0.0
 11
166.0
 21
-184.5
 31
0.0
  0
LINE
  5
4BC
330
4F4
100
AcDbEntity
  8
__
  6
______-6
 62
     7
100
AcDbLine
 10
163.5
 20
-189.1
 30
0.0
 11
161.3999999999999
 21
-189.1
 31
0.0
  0
LINE
  5
4BD
330
4F4
100
AcDbEntity
  8
__
  6
______-6
 62
     7
100
AcDbLine
 10
166.0
 20
-191.6
 30
0.0
 11
166.0
 21
-193.7
 31
0.0
  0
LINE
  5
4BE
330
4F4
100
AcDbEntity
  8
__
  6
______-6
 62
     7
100
AcDbLine
 10
168.5
 20
-189.1
 30
0.0
 11
170.5999999999999
 21
-189.1
 31
0.0
  0
LINE
  5
4BF
330
4F4
100
AcDbEntity
  8
__
  6
______-6
 62
     7
100
AcDbLine
 10
134.0
 20
-189.1
 30
0.0
 11
134.0
 21
-186.6
 31
0.0
  0
LINE
  5
4C0
330
4F4
100
AcDbEntity
  8
__
  6
______-6
 62
     7
100
AcDbLine
 10
134.0
 20
-189.1
 30
0.0
 11
131.5
 21
-189.1
 31
0.0
  0
LINE
  5
4C1
330
4F4
100
AcDbEntity
  8
__
  6
______-6
 62
     7
100
AcDbLine
 10
134.0
 20
-189.1
 30
0.0
 11
134.0
 21
-191.6
 31
0.0
  0
LINE
  5
4C2
330
4F4
100
AcDbEntity
  8
__
  6
______-6
 62
     7
100
AcDbLine
 10
134.0
 20
-189.1
 30
0.0
 11
136.5
 21
-189.1
 31
0.0
  0
LINE
  5
4C3
330
4F4
100
AcDbEntity
  8
__
  6
______-6
 62
     7
100
AcDbLine
 10
134.0
 20
-186.6
 30
0.0
 11
134.0
 21
-184.5
 31
0.0
  0
LINE
  5
4C4
330
4F4
100
AcDbEntity
  8
__
  6
______-6
 62
     7
100
AcDbLine
 10
131.5
 20
-189.1
 30
0.0
 11
129.3999999999999
 21
-189.1
 31
0.0
  0
LINE
  5
4C5
330
4F4
100
AcDbEntity
  8
__
  6
______-6
 62
     7
100
AcDbLine
 10
134.0
 20
-191.6
 30
0.0
 11
134.0
 21
-193.7
 31
0.0
  0
LINE
  5
4C6
330
4F4
100
AcDbEntity
  8
__
  6
______-6
 62
     7
100
AcDbLine
 10
136.5
 20
-189.1
 30
0.0
 11
138.5999999999999
 21
-189.1
 31
0.0
  0
LINE
  5
4C7
330
4F4
100
AcDbEntity
  8
__
  6
Continuous
 62
     7
100
AcDbLine
 10
-260.0
 20
46.25000000000006
 30
0.0
 11
-135.0
 21
46.25000000000006
 31
0.0
  0
VIEWPORT
  5
4C8
102
{ACAD_XDICTIONARY
360
558
102
}
330
4F2
100
AcDbEntity
 67
     1
  8
0
100
AcDbViewport
 10
128.5
 20
97.5
 30
0.0
 40
314.226
 41
222.18
 68
     1
 69
     1
 12
128.5
 22
97.5
 13
0.0
 23
0.0
 14
10.0
 24
10.0
 15
10.0
 25
10.0
 16
0.0
 26
0.0
 36
1.0
 17
0.0
 27
0.0
 37
0.0
 42
50.0
 43
0.0
 44
0.0
 45
222.18
 50
0.0
 51
0.0
 72
   100
 90
   557152
  1

281
     0
 71
     0
 74
     0
110
0.0
120
0.0
130
0.0
111
1.0
121
0.0
131
0.0
112
0.0
122
1.0
132
0.0
 79
     0
146
0.0
  0
ENDSEC
  0
SECTION
  2
OBJECTS
  0
DICTIONARY
  5
4E8
330
0
100
AcDbDictionary
281
     1
  3
ACAD_GROUP
350
4E9
  3
ACAD_LAYOUT
350
4F1
  3
ACAD_MATERIAL
350
53E
  3
ACAD_MLEADERSTYLE
350
54C
  3
ACAD_MLINESTYLE
350
4EE
  3
ACAD_PLOTSETTINGS
350
4F0
  3
ACAD_PLOTSTYLENAME
350
4EA
  3
ACAD_SCALELIST
350
513
  3
ACAD_TABLESTYLE
350
542
  3
ACAD_VISUALSTYLE
350
525
  3
AcDbVariableDictionary
350
550
  3
DWGPROPS
350
557
  0
DICTIONARY
  5
55A
330
4E4
100
AcDbDictionary
280
     1
281
     1
  3
ACAD_XREC_ROUNDTRIP
360
55B
  0
DICTIONARY
  5
54A
330
4DE
100
AcDbDictionary
280
     1
281
     1
  3
ACLYDICTIONARY
360
54B
  0
DICTIONARY
  5
544
330
503
100
AcDbDictionary
280
     1
281
     1
  3
ADSK_XREC_LAYER_RECONCILED
360
545
  0
DICTIONARY
  5
546
330
504
100
AcDbDictionary
280
     1
281
     1
  3
ADSK_XREC_LAYER_RECONCILED
360
547
  0
DICTIONARY
  5
548
330
505
100
AcDbDictionary
280
     1
281
     1
  3
ADSK_XREC_LAYER_RECONCILED
360
549
  0
DICTIONARY
  5
558
330
4C8
100
AcDbDictionary
280
     1
281
     1
  3
ACAD_XREC_ROUNDTRIP
360
559
  0
DICTIONARY
  5
4E9
102
{ACAD_REACTORS
330
4E8
102
}
330
4E8
100
AcDbDictionary
281
     1
  0
DICTIONARY
  5
4F1
102
{ACAD_REACTORS
330
4E8
102
}
330
4E8
100
AcDbDictionary
281
     1
  3
Model
350
4F5
  3
レイアウト 1
350
4F3
  0
DICTIONARY
  5
53E
102
{ACAD_REACTORS
330
4E8
102
}
330
4E8
100
AcDbDictionary
281
     1
  3
ByBlock
350
540
  3
ByLayer
350
53F
  3
Global
350
541
  0
DICTIONARY
  5
54C
102
{ACAD_REACTORS
330
4E8
102
}
330
4E8
100
AcDbDictionary
281
     1
  3
Standard
350
54D
  0
DICTIONARY
  5
4EE
102
{ACAD_REACTORS
330
4E8
102
}
330
4E8
100
AcDbDictionary
281
     1
  3
Standard
350
4EF
  0
DICTIONARY
  5
4F0
102
{ACAD_REACTORS
330
4E8
102
}
330
4E8
100
AcDbDictionary
281
     1
  0
ACDBDICTIONARYWDFLT
  5
4EA
102
{ACAD_REACTORS
330
4E8
102
}
330
4E8
100
AcDbDictionary
281
     1
  3
Normal
350
4EB
100
AcDbDictionaryWithDefault
340
4EB
  0
DICTIONARY
  5
513
102
{ACAD_REACTORS
330
4E8
102
}
330
4E8
100
AcDbDictionary
281
     1
  3
A0
350
514
  3
B7
350
515
  3
B8
350
516
  3
B9
350
517
  3
C0
350
518
  3
C1
350
519
  3
C2
350
51A
  3
C3
350
51B
  3
C4
350
51C
  3
C5
350
51D
  3
C6
350
51E
  3
C7
350
51F
  3
C8
350
520
  3
C9
350
521
  3
D0
350
522
  3
D1
350
523
  3
D2
350
524
  0
DICTIONARY
  5
542
102
{ACAD_REACTORS
330
4E8
102
}
330
4E8
100
AcDbDictionary
281
     1
  3
Standard
350
543
  0
DICTIONARY
  5
525
102
{ACAD_REACTORS
330
4E8
102
}
330
4E8
100
AcDbDictionary
281
     1
  3
2dWireframe
350
52A
  3
Basic
350
52D
  3
Brighten
350
531
  3
ColorChange
350
535
  3
Conceptual
350
52F
  3
Dim
350
530
  3
EdgeColorOff
350
538
  3
Facepattern
350
534
  3
Flat
350
526
  3
FlatWithEdges
350
527
  3
Gouraud
350
528
  3
GouraudWithEdges
350
529
  3
Hidden
350
52C
  3
JitterOff
350
536
  3
Linepattern
350
533
  3
OverhangOff
350
537
  3
Realistic
350
52E
  3
Shaded
350
53D
  3
Shaded with edges
350
53C
  3
Shades of Gray
350
539
  3
Sketchy
350
53A
  3
Thicken
350
532
  3
Wireframe
350
52B
  3
X-Ray
350
53B
  0
DICTIONARY
  5
550
102
{ACAD_REACTORS
330
4E8
102
}
330
4E8
100
AcDbDictionary
281
     1
  3
CANNOSCALE
350
55C
  3
CMLEADERSTYLE
350
552
  3
CTABLESTYLE
350
551
  3
DIMASSOC
350
555
  3
HIDETEXT
350
556
  3
MSLTSCALE
350
55D
  0
XRECORD
  5
557
102
{ACAD_REACTORS
330
4E8
102
}
330
4E8
100
AcDbXrecord
280
     1
  1
DWGPROPS COOKIE
  2

  3

  4

  6

  7

  8
sasaki_n
  9

300
=
301
=
302
=
303
=
304
=
305
=
306
=
307
=
308
=
309
=
 40
0.0
 41
2460768.033679444
 42
2460768.034413901
  1

 90
        0
  0
XRECORD
  5
55B
102
{ACAD_REACTORS
330
55A
102
}
330
55A
100
AcDbXrecord
280
     1
102
VTR_0.000_0.000_1.000_1.000_VISUALSTYLE
340
52A
102
VTR_0.000_0.000_1.000_1.000_GRIDDISPLAY
 70
     3
102
VTR_0.000_0.000_1.000_1.000_GRIDMAJOR
 70
     5
102
VTR_0.000_0.000_1.000_1.000_DEFAULTLIGHTING
280
     1
102
VTR_0.000_0.000_1.000_1.000_DEFAULTLIGHTINGTYPE
 70
     1
102
VTR_0.000_0.000_1.000_1.000_BRIGHTNESS
141
0.0
102
VTR_0.000_0.000_1.000_1.000_CONTRAST
142
0.0
  0
DICTIONARY
  5
54B
102
{ACAD_REACTORS
330
54A
102
}
330
54A
100
AcDbDictionary
281
     1
1001
ACAD
1000
All
  0
XRECORD
  5
545
102
{ACAD_REACTORS
330
544
102
}
330
544
100
AcDbXrecord
280
     1
290
     0
  0
XRECORD
  5
547
102
{ACAD_REACTORS
330
546
102
}
330
546
100
AcDbXrecord
280
     1
290
     0
  0
XRECORD
  5
549
102
{ACAD_REACTORS
330
548
102
}
330
548
100
AcDbXrecord
280
     1
290
     0
  0
XRECORD
  5
559
102
{ACAD_REACTORS
330
558
102
}
330
558
100
AcDbXrecord
280
     1
102
VISUALSTYLE
340
52A
102
GRIDDISPLAY
 70
     2
102
GRIDMAJOR
 70
     5
102
DEFAULTLIGHTING
280
     1
102
DEFAULTLIGHTINGTYPE
 70
     1
102
BRIGHTNESS
141
0.0
102
CONTRAST
142
0.0
  0
LAYOUT
  5
4F5
102
{ACAD_REACTORS
330
4F1
102
}
330
4F1
100
AcDbPlotSettings
  1

  2
none_device
  4
ISO_A4_(210.00_x_297.00_MM)
  6

 40
7.5
 41
20.0
 42
7.5
 43
20.0
 44
210.0
 45
297.0
 46
0.0
 47
0.0
 48
0.0
 49
0.0
140
0.0
141
0.0
142
1.0
143
1.0
 70
  1712
 72
     0
 73
     1
 74
     0
  7

 75
     0
147
1.0
148
0.0
149
0.0
100
AcDbLayout
  1
Model
 70
     1
 71
     0
 10
0.0
 20
0.0
 11
12.0
 21
9.0
 12
0.0
 22
0.0
 32
0.0
 14
-449.9999999999999
 24
-673.9009740195311
 34
0.0
 15
449.9999999999999
 25
664.12726
 35
0.0
146
0.0
 13
0.0
 23
0.0
 33
0.0
 16
1.0
 26
0.0
 36
0.0
 17
0.0
 27
1.0
 37
0.0
 76
     0
330
4F4
331
506
  0
LAYOUT
  5
4F3
102
{ACAD_REACTORS
330
4F1
102
}
330
4F1
100
AcDbPlotSettings
  1

  2
none_device
  4
ISO_A4_(210.00_x_297.00_MM)
  6

 40
7.5
 41
20.0
 42
7.5
 43
20.0
 44
210.0
 45
297.0
 46
0.0
 47
0.0
 48
0.0
 49
0.0
140
0.0
141
0.0
142
1.0
143
1.0
 70
   688
 72
     0
 73
     1
 74
     5
  7

 75
    16
147
1.0
148
0.0
149
0.0
100
AcDbLayout
  1
レイアウト 1
 70
     1
 71
     1
 10
0.0
 20
0.0
 11
277.0
 21
202.5
 12
0.0
 22
0.0
 32
0.0
 14
1.000000000000000E+20
 24
1.000000000000000E+20
 34
1.000000000000000E+20
 15
-1.000000000000000E+20
 25
-1.000000000000000E+20
 35
-1.000000000000000E+20
146
0.0
 13
0.0
 23
0.0
 33
0.0
 16
1.0
 26
0.0
 36
0.0
 17
0.0
 27
1.0
 37
0.0
 76
     0
330
4F2
331
4C8
  0
MATERIAL
  5
540
102
{ACAD_REACTORS
330
53E
102
}
102
{ACAD_XDICTIONARY
360
590
102
}
330
53E
100
AcDbMaterial
  1
ByBlock
  0
MATERIAL
  5
53F
102
{ACAD_REACTORS
330
53E
102
}
102
{ACAD_XDICTIONARY
360
58E
102
}
330
53E
100
AcDbMaterial
  1
ByLayer
  0
MATERIAL
  5
541
102
{ACAD_REACTORS
330
53E
102
}
102
{ACAD_XDICTIONARY
360
592
102
}
330
53E
100
AcDbMaterial
  1
Global
1001
ACAD
1070
    -1
1070
     3
1070
     0
1000

1071
        0
  0
MLEADERSTYLE
  5
54D
102
{ACAD_REACTORS
330
54C
102
}
102
{ACAD_XDICTIONARY
360
594
102
}
330
54C
100
AcDbMLeaderStyle
170
     2
171
     1
172
     0
 90
        2
 40
0.0
 41
0.0
173
     1
 91
-1056964608
340
4ED
 92
       -2
290
     1
 42
0.09
291
     1
 43
0.36
  3
Standard
341
0
 44
0.18
300

342
50A
174
     1
178
     6
175
     1
176
     0
 93
-1056964608
 45
0.18
292
     0
297
     0
 46
0.18
343
0
 94
-1056964608
 47
1.0
 49
1.0
140
1.0
293
     1
141
0.0
294
     1
177
     0
142
1.0
295
     0
296
     0
143
0.125
1001
ACAD_MLEADERVER
1070
     2
  0
MLINESTYLE
  5
4EF
102
{ACAD_REACTORS
330
4EE
102
}
330
4EE
100
AcDbMlineStyle
  2
Standard
 70
     0
  3

 62
   256
 51
90.0
 52
90.0
 71
     2
 49
0.5
 62
   256
  6
BYLAYER
 49
-0.5
 62
   256
  6
BYLAYER
  0
ACDBPLACEHOLDER
  5
4EB
102
{ACAD_REACTORS
330
4EA
102
}
330
4EA
  0
SCALE
  5
514
102
{ACAD_REACTORS
330
513
102
}
330
513
100
AcDbScale
 70
     0
300
1:1
140
1.0
141
1.0
290
     1
  0
SCALE
  5
515
102
{ACAD_REACTORS
330
513
102
}
330
513
100
AcDbScale
 70
     0
300
1/128" = 1'-0"
140
0.0078125
141
12.0
290
     0
  0
SCALE
  5
516
102
{ACAD_REACTORS
330
513
102
}
330
513
100
AcDbScale
 70
     0
300
1/64" = 1'-0"
140
0.015625
141
12.0
290
     0
  0
SCALE
  5
517
102
{ACAD_REACTORS
330
513
102
}
330
513
100
AcDbScale
 70
     0
300
1/32" = 1'-0"
140
0.03125
141
12.0
290
     0
  0
SCALE
  5
518
102
{ACAD_REACTORS
330
513
102
}
330
513
100
AcDbScale
 70
     0
300
1/16" = 1'-0"
140
0.0625
141
12.0
290
     0
  0
SCALE
  5
519
102
{ACAD_REACTORS
330
513
102
}
330
513
100
AcDbScale
 70
     0
300
3/32" = 1'-0"
140
0.09375
141
12.0
290
     0
  0
SCALE
  5
51A
102
{ACAD_REACTORS
330
513
102
}
330
513
100
AcDbScale
 70
     0
300
1/8" = 1'-0"
140
0.125
141
12.0
290
     0
  0
SCALE
  5
51B
102
{ACAD_REACTORS
330
513
102
}
330
513
100
AcDbScale
 70
     0
300
3/16" = 1'-0"
140
0.1875
141
12.0
290
     0
  0
SCALE
  5
51C
102
{ACAD_REACTORS
330
513
102
}
330
513
100
AcDbScale
 70
     0
300
1/4" = 1'-0"
140
0.25
141
12.0
290
     0
  0
SCALE
  5
51D
102
{ACAD_REACTORS
330
513
102
}
330
513
100
AcDbScale
 70
     0
300
3/8" = 1'-0"
140
0.375
141
12.0
290
     0
  0
SCALE
  5
51E
102
{ACAD_REACTORS
330
513
102
}
330
513
100
AcDbScale
 70
     0
300
1/2" = 1'-0"
140
0.5
141
12.0
290
     0
  0
SCALE
  5
51F
102
{ACAD_REACTORS
330
513
102
}
330
513
100
AcDbScale
 70
     0
300
3/4" = 1'-0"
140
0.75
141
12.0
290
     0
  0
SCALE
  5
520
102
{ACAD_REACTORS
330
513
102
}
330
513
100
AcDbScale
 70
     0
300
1" = 1'-0"
140
1.0
141
12.0
290
     0
  0
SCALE
  5
521
102
{ACAD_REACTORS
330
513
102
}
330
513
100
AcDbScale
 70
     0
300
1-1/2" = 1'-0"
140
1.5
141
12.0
290
     0
  0
SCALE
  5
522
102
{ACAD_REACTORS
330
513
102
}
330
513
100
AcDbScale
 70
     0
300
3" = 1'-0"
140
3.0
141
12.0
290
     0
  0
SCALE
  5
523
102
{ACAD_REACTORS
330
513
102
}
330
513
100
AcDbScale
 70
     0
300
6" = 1'-0"
140
6.0
141
12.0
290
     0
  0
SCALE
  5
524
102
{ACAD_REACTORS
330
513
102
}
330
513
100
AcDbScale
 70
     0
300
1'-0" = 1'-0"
140
12.0
141
12.0
290
     0
  0
TABLESTYLE
  5
543
102
{ACAD_REACTORS
330
542
102
}
330
542
100
AcDbTableStyle
  3
Standard
 70
     0
 71
     0
 40
0.06
 41
0.06
280
     0
281
     0
  7
STANDARD
140
0.18
170
     2
 62
     0
 63
   257
283
     0
274
    -2
284
     1
 64
     0
275
    -2
285
     1
 65
     0
276
    -2
286
     1
 66
     0
277
    -2
287
     1
 67
     0
278
    -2
288
     1
 68
     0
279
    -2
289
     1
 69
     0
  7
STANDARD
140
0.25
170
     5
 62
     0
 63
   257
283
     0
274
    -2
284
     1
 64
     0
275
    -2
285
     1
 65
     0
276
    -2
286
     1
 66
     0
277
    -2
287
     1
 67
     0
278
    -2
288
     1
 68
     0
279
    -2
289
     1
 69
     0
  7
STANDARD
140
0.18
170
     5
 62
     0
 63
   257
283
     0
274
    -2
284
     1
 64
     0
275
    -2
285
     1
 65
     0
276
    -2
286
     1
 66
     0
277
    -2
287
     1
 67
     0
278
    -2
288
     1
 68
     0
279
    -2
289
     1
 69
     0
  0
VISUALSTYLE
  5
52A
102
{ACAD_REACTORS
330
525
102
}
102
{ACAD_XDICTIONARY
360
566
102
}
330
525
100
AcDbVisualStyle
  2
2dWireframe
 70
     4
 71
     0
 72
     2
 73
     0
 90
        0
 40
0.6
 41
30.0
 62
     5
 63
     7
 74
     1
 91
        4
 64
     7
 65
   257
 75
     1
175
     1
 42
1.0
 92
        0
 66
   257
 43
1.0
 76
     1
 77
     6
 78
     2
 67
     7
 79
     5
170
     0
171
     0
290
     0
174
     0
 93
        1
 44
0.0
173
     0
291
     0
 45
0.0
1001
ACAD
1000
AcDbSavedByObjectVersion
1070
     0
  0
VISUALSTYLE
  5
52D
102
{ACAD_REACTORS
330
525
102
}
102
{ACAD_XDICTIONARY
360
56C
102
}
330
525
100
AcDbVisualStyle
  2
Basic
 70
     7
 71
     1
 72
     0
 73
     1
 90
        0
 40
0.6
 41
30.0
 62
     5
 63
     7
 74
     0
 91
        4
 64
     7
 65
   257
 75
     1
175
     1
 42
1.0
 92
        8
 66
     7
 43
1.0
 76
     1
 77
     6
 78
     2
 67
     7
 79
     5
170
     0
171
     0
290
     0
174
     0
 93
        1
 44
0.0
173
     0
291
     1
 45
0.0
1001
ACAD
1000
AcDbSavedByObjectVersion
1070
     0
  0
VISUALSTYLE
  5
531
102
{ACAD_REACTORS
330
525
102
}
102
{ACAD_XDICTIONARY
360
574
102
}
330
525
100
AcDbVisualStyle
  2
Brighten
 70
    12
 71
     2
 72
     2
 73
     0
 90
        0
 40
0.6
 41
30.0
 62
     5
 63
     7
 74
     1
 91
        4
 64
     7
 65
   257
 75
     1
175
     1
 42
1.0
 92
        8
 66
     7
 43
1.0
 76
     1
 77
     6
 78
     2
 67
     7
 79
     5
170
     0
171
     0
290
     0
174
     0
 93
        1
 44
50.0
173
     0
291
     1
 45
0.0
1001
ACAD
1000
AcDbSavedByObjectVersion
1070
     0
  0
VISUALSTYLE
  5
535
102
{ACAD_REACTORS
330
525
102
}
102
{ACAD_XDICTIONARY
360
57C
102
}
330
525
100
AcDbVisualStyle
  2
ColorChange
 70
    16
 71
     2
 72
     2
 73
     3
 90
        0
 40
0.6
 41
30.0
 62
     5
 63
     8
 74
     1
 91
        4
 64
     7
 65
   257
 75
     1
175
     1
 42
1.0
 92
        8
 66
     8
 43
1.0
 76
     1
 77
     6
 78
     2
 67
     7
 79
     5
170
     0
171
     0
290
     0
174
     0
 93
        1
 44
0.0
173
     0
291
     1
 45
0.0
1001
ACAD
1000
AcDbSavedByObjectVersion
1070
     0
  0
VISUALSTYLE
  5
52F
102
{ACAD_REACTORS
330
525
102
}
102
{ACAD_XDICTIONARY
360
570
102
}
330
525
100
AcDbVisualStyle
  2
Conceptual
 70
     9
 71
     3
 72
     2
 73
     0
 90
        0
 40
0.6
 41
30.0
 62
     5
 63
     7
 74
     2
 91
        2
 64
     7
 65
   257
 75
     1
175
     1
 42
40.0
 92
        8
 66
     7
 43
1.0
 76
     1
 77
     6
 78
     2
 67
     7
 79
     3
170
     0
171
     0
290
     0
174
     0
 93
        1
 44
0.0
173
     0
291
     0
 45
0.0
1001
ACAD
1000
AcDbSavedByObjectVersion
1070
     0
  0
VISUALSTYLE
  5
530
102
{ACAD_REACTORS
330
525
102
}
102
{ACAD_XDICTIONARY
360
572
102
}
330
525
100
AcDbVisualStyle
  2
Dim
 70
    11
 71
     2
 72
     2
 73
     0
 90
        0
 40
0.6
 41
30.0
 62
     5
 63
     7
 74
     1
 91
        4
 64
     7
 65
   257
 75
     1
175
     1
 42
1.0
 92
        8
 66
     7
 43
1.0
 76
     1
 77
     6
 78
     2
 67
     7
 79
     5
170
     0
171
     0
290
     0
174
     0
 93
        1
 44
-50.0
173
     0
291
     1
 45
0.0
1001
ACAD
1000
AcDbSavedByObjectVersion
1070
     0
  0
VISUALSTYLE
  5
538
102
{ACAD_REACTORS
330
525
102
}
102
{ACAD_XDICTIONARY
360
582
102
}
330
525
100
AcDbVisualStyle
  2
EdgeColorOff
 70
    22
 71
     2
 72
     2
 73
     0
 90
        0
 40
0.6
 41
30.0
 62
     5
 63
     7
 74
     1
 91
        4
 64
     7
 65
   257
 75
     1
175
     1
 42
1.0
 92
        8
 66
     7
 43
1.0
 76
     1
 77
     6
 78
     2
 67
     7
 79
     5
170
     0
171
     0
290
     0
174
     0
 93
        1
 44
0.0
173
     0
291
     1
 45
0.0
1001
ACAD
1000
AcDbSavedByObjectVersion
1070
     0
  0
VISUALSTYLE
  5
534
102
{ACAD_REACTORS
330
525
102
}
102
{ACAD_XDICTIONARY
360
57A
102
}
330
525
100
AcDbVisualStyle
  2
Facepattern
 70
    15
 71
     2
 72
     2
 73
     0
 90
        0
 40
0.6
 41
30.0
 62
     5
 63
     7
 74
     1
 91
        4
 64
     7
 65
   257
 75
     1
175
     1
 42
1.0
 92
        8
 66
     7
 43
1.0
 76
     1
 77
     6
 78
     2
 67
     7
 79
     5
170
     0
171
     0
290
     0
174
     0
 93
        1
 44
0.0
173
     0
291
     1
 45
0.0
1001
ACAD
1000
AcDbSavedByObjectVersion
1070
     0
  0
VISUALSTYLE
  5
526
102
{ACAD_REACTORS
330
525
102
}
102
{ACAD_XDICTIONARY
360
55E
102
}
330
525
100
AcDbVisualStyle
  2
Flat
 70
     0
 71
     2
 72
     1
 73
     1
 90
        2
 40
0.6
 41
30.0
 62
     5
 63
     7
 74
     0
 91
        4
 64
     7
 65
   257
 75
     1
175
     1
 42
1.0
 92
        8
 66
     7
 43
1.0
 76
     1
 77
     6
 78
     2
 67
     7
 79
     5
170
     0
171
     0
290
     0
174
     0
 93
       13
 44
0.0
173
     0
291
     1
 45
0.0
1001
ACAD
1000
AcDbSavedByObjectVersion
1070
     0
  0
VISUALSTYLE
  5
527
102
{ACAD_REACTORS
330
525
102
}
102
{ACAD_XDICTIONARY
360
560
102
}
330
525
100
AcDbVisualStyle
  2
FlatWithEdges
 70
     1
 71
     2
 72
     1
 73
     1
 90
        2
 40
0.6
 41
30.0
 62
     5
 63
     7
 74
     1
 91
        4
 64
     7
 65
   257
 75
     1
175
     1
 42
1.0
 92
        0
 66
   257
 43
1.0
 76
     1
 77
     6
 78
     2
 67
     7
 79
     5
170
     0
171
     0
290
     0
174
     0
 93
       13
 44
0.0
173
     0
291
     1
 45
0.0
1001
ACAD
1000
AcDbSavedByObjectVersion
1070
     0
  0
VISUALSTYLE
  5
528
102
{ACAD_REACTORS
330
525
102
}
102
{ACAD_XDICTIONARY
360
562
102
}
330
525
100
AcDbVisualStyle
  2
Gouraud
 70
     2
 71
     2
 72
     2
 73
     1
 90
        2
 40
0.6
 41
30.0
 62
     5
 63
     7
 74
     0
 91
        4
 64
     7
 65
   257
 75
     1
175
     1
 42
1.0
 92
        0
 66
     7
 43
1.0
 76
     1
 77
     6
 78
     2
 67
     7
 79
     5
170
     0
171
     0
290
     0
174
     0
 93
       13
 44
0.0
173
     0
291
     1
 45
0.0
1001
ACAD
1000
AcDbSavedByObjectVersion
1070
     0
  0
VISUALSTYLE
  5
529
102
{ACAD_REACTORS
330
525
102
}
102
{ACAD_XDICTIONARY
360
564
102
}
330
525
100
AcDbVisualStyle
  2
GouraudWithEdges
 70
     3
 71
     2
 72
     2
 73
     1
 90
        2
 40
0.6
 41
30.0
 62
     5
 63
     7
 74
     1
 91
        4
 64
     7
 65
   257
 75
     1
175
     1
 42
1.0
 92
        0
 66
   257
 43
1.0
 76
     1
 77
     6
 78
     2
 67
     7
 79
     5
170
     0
171
     0
290
     0
174
     0
 93
       13
 44
0.0
173
     0
291
     1
 45
0.0
1001
ACAD
1000
AcDbSavedByObjectVersion
1070
     0
  0
VISUALSTYLE
  5
52C
102
{ACAD_REACTORS
330
525
102
}
102
{ACAD_XDICTIONARY
360
56A
102
}
330
525
100
AcDbVisualStyle
  2
Hidden
 70
     6
 71
     1
 72
     2
 73
     2
 90
        0
 40
0.6
 41
30.0
 62
     5
 63
     7
 74
     2
 91
        2
 64
     7
 65
   257
 75
     2
175
     1
 42
40.0
 92
        0
 66
   257
 43
1.0
 76
     1
 77
     6
 78
     2
 67
     7
 79
     3
170
     0
171
     0
290
     0
174
     0
 93
        1
 44
0.0
173
     0
291
     0
 45
0.0
1001
ACAD
1000
AcDbSavedByObjectVersion
1070
     0
  0
VISUALSTYLE
  5
536
102
{ACAD_REACTORS
330
525
102
}
102
{ACAD_XDICTIONARY
360
57E
102
}
330
525
100
AcDbVisualStyle
  2
JitterOff
 70
    20
 71
     2
 72
     2
 73
     0
 90
        0
 40
0.6
 41
30.0
 62
     5
 63
     7
 74
     1
 91
        4
 64
     7
 65
   257
 75
     1
175
     1
 42
1.0
 92
       10
 66
     7
 43
1.0
 76
     1
 77
     6
 78
     2
 67
     7
 79
     5
170
     0
171
     0
290
     0
174
     0
 93
        1
 44
0.0
173
     0
291
     1
 45
0.0
1001
ACAD
1000
AcDbSavedByObjectVersion
1070
     0
  0
VISUALSTYLE
  5
533
102
{ACAD_REACTORS
330
525
102
}
102
{ACAD_XDICTIONARY
360
578
102
}
330
525
100
AcDbVisualStyle
  2
Linepattern
 70
    14
 71
     2
 72
     2
 73
     0
 90
        0
 40
0.6
 41
30.0
 62
     5
 63
     7
 74
     1
 91
        4
 64
     7
 65
   257
 75
     7
175
     7
 42
1.0
 92
        8
 66
     7
 43
1.0
 76
     1
 77
     6
 78
     2
 67
     7
 79
     5
170
     0
171
     0
290
     0
174
     0
 93
        1
 44
0.0
173
     0
291
     1
 45
0.0
1001
ACAD
1000
AcDbSavedByObjectVersion
1070
     0
  0
VISUALSTYLE
  5
537
102
{ACAD_REACTORS
330
525
102
}
102
{ACAD_XDICTIONARY
360
580
102
}
330
525
100
AcDbVisualStyle
  2
OverhangOff
 70
    21
 71
     2
 72
     2
 73
     0
 90
        0
 40
0.6
 41
30.0
 62
     5
 63
     7
 74
     1
 91
        4
 64
     7
 65
   257
 75
     1
175
     1
 42
1.0
 92
        9
 66
     7
 43
1.0
 76
     1
 77
     6
 78
     2
 67
     7
 79
     5
170
     0
171
     0
290
     0
174
     0
 93
        1
 44
0.0
173
     0
291
     1
 45
0.0
1001
ACAD
1000
AcDbSavedByObjectVersion
1070
     0
  0
VISUALSTYLE
  5
52E
102
{ACAD_REACTORS
330
525
102
}
102
{ACAD_XDICTIONARY
360
56E
102
}
330
525
100
AcDbVisualStyle
  2
Realistic
 70
     8
 71
     2
 72
     3
 73
     0
 90
        2
 40
0.6
 41
30.0
 62
     5
 63
     7
 74
     0
 91
        0
 64
     7
 65
   257
 75
     1
175
     1
 42
1.0
 92
        8
 66
   257
 43
1.0
 76
     1
 77
     6
 78
     2
 67
     7
 79
     3
170
     0
171
     0
290
     0
174
     0
 93
       13
 44
0.0
173
     0
291
     0
 45
0.0
1001
ACAD
1000
AcDbSavedByObjectVersion
1070
     0
  0
VISUALSTYLE
  5
53D
102
{ACAD_REACTORS
330
525
102
}
102
{ACAD_XDICTIONARY
360
58C
102
}
330
525
100
AcDbVisualStyle
  2
Shaded
 70
    27
 71
     2
 72
     2
 73
     1
 90
        2
 40
0.6
 41
30.0
 62
     5
 63
     7
 74
     0
 91
        4
 64
     7
 65
   257
 75
     1
175
     1
 42
1.0
 92
        8
 66
   257
 43
1.0
 76
     1
 77
     6
 78
     2
 67
   251
 79
     3
170
     0
171
     0
290
     0
174
     0
 93
        5
 44
0.0
173
     0
291
     0
 45
0.0
1001
ACAD
1000
AcDbSavedByObjectVersion
1070
     0
  0
VISUALSTYLE
  5
53C
102
{ACAD_REACTORS
330
525
102
}
102
{ACAD_XDICTIONARY
360
58A
102
}
330
525
100
AcDbVisualStyle
  2
Shaded with edges
 70
    26
 71
     2
 72
     2
 73
     1
 90
        2
 40
0.6
 41
30.0
 62
     5
 63
     7
 74
     1
 91
       10
 64
     7
 65
   257
 75
     2
175
     1
 42
1.0
 92
        8
 66
   257
 43
1.0
 76
     1
 77
     6
 78
     2
 67
     7
 79
     3
170
     0
171
     0
290
     0
174
     0
 93
        5
 44
0.0
173
     0
291
     0
 45
0.0
1001
ACAD
1000
AcDbSavedByObjectVersion
1070
     0
  0
VISUALSTYLE
  5
539
102
{ACAD_REACTORS
330
525
102
}
102
{ACAD_XDICTIONARY
360
584
102
}
330
525
100
AcDbVisualStyle
  2
Shades of Gray
 70
    23
 71
     2
 72
     2
 73
     3
 90
        0
 40
0.6
 41
30.0
 62
     5
 63
     7
 74
     2
 91
        2
 64
     7
 65
     7
 75
     1
175
     1
 42
40.0
 92
        8
 66
     7
 43
1.0
 76
     1
 77
     6
 78
     2
 67
     7
 79
     3
170
     0
171
     0
290
     0
174
     0
 93
        1
 44
0.0
173
     0
291
     0
 45
0.0
1001
ACAD
1000
AcDbSavedByObjectVersion
1070
     0
  0
VISUALSTYLE
  5
53A
102
{ACAD_REACTORS
330
525
102
}
102
{ACAD_XDICTIONARY
360
586
102
}
330
525
100
AcDbVisualStyle
  2
Sketchy
 70
    24
 71
     1
 72
     2
 73
     2
 90
        0
 40
0.6
 41
30.0
 62
     5
 63
     7
 74
     2
 91
        2
 64
     7
 65
     7
 75
     1
175
     1
 42
40.0
 92
       11
 66
     7
 43
1.0
 76
     1
 77
     6
 78
     2
 67
     7
 79
     6
170
     0
171
     0
290
     0
174
     0
 93
        1
 44
0.0
173
     0
291
     0
 45
0.0
1001
ACAD
1000
AcDbSavedByObjectVersion
1070
     0
  0
VISUALSTYLE
  5
532
102
{ACAD_REACTORS
330
525
102
}
102
{ACAD_XDICTIONARY
360
576
102
}
330
525
100
AcDbVisualStyle
  2
Thicken
 70
    13
 71
     2
 72
     2
 73
     0
 90
        0
 40
0.6
 41
30.0
 62
     5
 63
     7
 74
     1
 91
        4
 64
     7
 65
   257
 75
     1
175
     1
 42
1.0
 92
       12
 66
     7
 43
1.0
 76
     1
 77
     6
 78
     2
 67
     7
 79
     5
170
     0
171
     0
290
     0
174
     0
 93
        1
 44
0.0
173
     0
291
     1
 45
0.0
1001
ACAD
1000
AcDbSavedByObjectVersion
1070
     0
  0
VISUALSTYLE
  5
52B
102
{ACAD_REACTORS
330
525
102
}
102
{ACAD_XDICTIONARY
360
568
102
}
330
525
100
AcDbVisualStyle
  2
Wireframe
 70
     5
 71
     0
 72
     2
 73
     0
 90
        0
 40
0.6
 41
30.0
 62
     5
 63
     7
 74
     1
 91
        4
 64
     7
 65
   257
 75
     1
175
     1
 42
1.0
 92
        0
 66
   257
 43
1.0
 76
     1
 77
     6
 78
     2
 67
     7
 79
     5
170
     0
171
     0
290
     0
174
     0
 93
        1
 44
0.0
173
     0
291
     0
 45
0.0
1001
ACAD
1000
AcDbSavedByObjectVersion
1070
     0
  0
VISUALSTYLE
  5
53B
102
{ACAD_REACTORS
330
525
102
}
102
{ACAD_XDICTIONARY
360
588
102
}
330
525
100
AcDbVisualStyle
  2
X-Ray
 70
    25
 71
     2
 72
     2
 73
     1
 90
        1
 40
0.5
 41
30.0
 62
     5
 63
     7
 74
     1
 91
        0
 64
     7
 65
   257
 75
     1
175
     1
 42
1.0
 92
        8
 66
     7
 43
1.0
 76
     1
 77
     6
 78
     2
 67
     7
 79
     3
170
     0
171
     0
290
     0
174
     0
 93
       13
 44
0.0
173
     0
291
     0
 45
0.0
1001
ACAD
1000
AcDbSavedByObjectVersion
1070
     0
  0
DICTIONARYVAR
  5
55C
102
{ACAD_REACTORS
330
550
102
}
330
550
100
DictionaryVariables
280
     0
  1
1:1
  0
DICTIONARYVAR
  5
552
102
{ACAD_REACTORS
330
550
102
}
330
550
100
DictionaryVariables
280
     0
  1
Standard
  0
DICTIONARYVAR
  5
551
102
{ACAD_REACTORS
330
550
102
}
330
550
100
DictionaryVariables
280
     0
  1
Standard
  0
DICTIONARYVAR
  5
555
102
{ACAD_REACTORS
330
550
102
}
330
550
100
DictionaryVariables
280
     0
  1
2
  0
DICTIONARYVAR
  5
556
102
{ACAD_REACTORS
330
550
102
}
330
550
100
DictionaryVariables
280
     0
  1
1
  0
DICTIONARYVAR
  5
55D
102
{ACAD_REACTORS
330
550
102
}
330
550
100
DictionaryVariables
280
     0
  1
1
  0
DICTIONARY
  5
590
330
540
100
AcDbDictionary
280
     1
281
     1
  3
ACAD_XREC_ROUNDTRIP
360
591
  0
DICTIONARY
  5
58E
330
53F
100
AcDbDictionary
280
     1
281
     1
  3
ACAD_XREC_ROUNDTRIP
360
58F
  0
DICTIONARY
  5
592
330
541
100
AcDbDictionary
280
     1
281
     1
  3
ACAD_XREC_ROUNDTRIP
360
593
  0
DICTIONARY
  5
594
330
54D
100
AcDbDictionary
280
     1
281
     1
  3
ACAD_XREC_ROUNDTRIP
360
595
  0
DICTIONARY
  5
566
330
52A
100
AcDbDictionary
280
     1
281
     1
  3
ACAD_XREC_ROUNDTRIP
360
567
  0
DICTIONARY
  5
56C
330
52D
100
AcDbDictionary
280
     1
281
     1
  3
ACAD_XREC_ROUNDTRIP
360
56D
  0
DICTIONARY
  5
574
330
531
100
AcDbDictionary
280
     1
281
     1
  3
ACAD_XREC_ROUNDTRIP
360
575
  0
DICTIONARY
  5
57C
330
535
100
AcDbDictionary
280
     1
281
     1
  3
ACAD_XREC_ROUNDTRIP
360
57D
  0
DICTIONARY
  5
570
330
52F
100
AcDbDictionary
280
     1
281
     1
  3
ACAD_XREC_ROUNDTRIP
360
571
  0
DICTIONARY
  5
572
330
530
100
AcDbDictionary
280
     1
281
     1
  3
ACAD_XREC_ROUNDTRIP
360
573
  0
DICTIONARY
  5
582
330
538
100
AcDbDictionary
280
     1
281
     1
  3
ACAD_XREC_ROUNDTRIP
360
583
  0
DICTIONARY
  5
57A
330
534
100
AcDbDictionary
280
     1
281
     1
  3
ACAD_XREC_ROUNDTRIP
360
57B
  0
DICTIONARY
  5
55E
330
526
100
AcDbDictionary
280
     1
281
     1
  3
ACAD_XREC_ROUNDTRIP
360
55F
  0
DICTIONARY
  5
560
330
527
100
AcDbDictionary
280
     1
281
     1
  3
ACAD_XREC_ROUNDTRIP
360
561
  0
DICTIONARY
  5
562
330
528
100
AcDbDictionary
280
     1
281
     1
  3
ACAD_XREC_ROUNDTRIP
360
563
  0
DICTIONARY
  5
564
330
529
100
AcDbDictionary
280
     1
281
     1
  3
ACAD_XREC_ROUNDTRIP
360
565
  0
DICTIONARY
  5
56A
330
52C
100
AcDbDictionary
280
     1
281
     1
  3
ACAD_XREC_ROUNDTRIP
360
56B
  0
DICTIONARY
  5
57E
330
536
100
AcDbDictionary
280
     1
281
     1
  3
ACAD_XREC_ROUNDTRIP
360
57F
  0
DICTIONARY
  5
578
330
533
100
AcDbDictionary
280
     1
281
     1
  3
ACAD_XREC_ROUNDTRIP
360
579
  0
DICTIONARY
  5
580
330
537
100
AcDbDictionary
280
     1
281
     1
  3
ACAD_XREC_ROUNDTRIP
360
581
  0
DICTIONARY
  5
56E
330
52E
100
AcDbDictionary
280
     1
281
     1
  3
ACAD_XREC_ROUNDTRIP
360
56F
  0
DICTIONARY
  5
58C
330
53D
100
AcDbDictionary
280
     1
281
     1
  3
ACAD_XREC_ROUNDTRIP
360
58D
  0
DICTIONARY
  5
58A
330
53C
100
AcDbDictionary
280
     1
281
     1
  3
ACAD_XREC_ROUNDTRIP
360
58B
  0
DICTIONARY
  5
584
330
539
100
AcDbDictionary
280
     1
281
     1
  3
ACAD_XREC_ROUNDTRIP
360
585
  0
DICTIONARY
  5
586
330
53A
100
AcDbDictionary
280
     1
281
     1
  3
ACAD_XREC_ROUNDTRIP
360
587
  0
DICTIONARY
  5
576
330
532
100
AcDbDictionary
280
     1
281
     1
  3
ACAD_XREC_ROUNDTRIP
360
577
  0
DICTIONARY
  5
568
330
52B
100
AcDbDictionary
280
     1
281
     1
  3
ACAD_XREC_ROUNDTRIP
360
569
  0
DICTIONARY
  5
588
330
53B
100
AcDbDictionary
280
     1
281
     1
  3
ACAD_XREC_ROUNDTRIP
360
589
  0
XRECORD
  5
591
102
{ACAD_REACTORS
330
590
102
}
330
590
100
AcDbXrecord
280
     1
102
MATERIAL
148
0.0
149
0.0
149
0.0
 93
        0
 94
      127
282
     0
 72
     1
 77
     1
171
     1
175
     1
179
     1
273
     0
  0
XRECORD
  5
58F
102
{ACAD_REACTORS
330
58E
102
}
330
58E
100
AcDbXrecord
280
     1
102
MATERIAL
148
0.0
149
0.0
149
0.0
 93
        0
 94
      127
282
     0
 72
     1
 77
     1
171
     1
175
     1
179
     1
273
     0
  0
XRECORD
  5
593
102
{ACAD_REACTORS
330
592
102
}
330
592
100
AcDbXrecord
280
     1
102
MATERIAL
148
0.0
149
0.0
149
0.0
 93
        0
 94
      127
282
     0
 72
     1
 77
     1
171
     1
175
     1
179
     1
273
     0
  0
XRECORD
  5
595
102
{ACAD_REACTORS
330
594
102
}
330
594
100
AcDbXrecord
280
     1
102
ACAD_ROUNDTRIP_2010_MLEADER_STYLE
  0
XRECORD
  5
567
102
{ACAD_REACTORS
330
566
102
}
330
566
100
AcDbXrecord
280
     1
102
RTVSPropertyOp0
 70
     1
102
RTVSPropertyOp1
 70
     1
102
RTVSPropertyOp2
 70
     1
102
RTVSPropertyOp3
 70
     1
102
RTVSPropertyOp4
 70
     1
102
RTVSPropertyOp5
 70
     1
102
RTVSPropertyOp6
 70
     1
102
RTVSPropertyOp7
 70
     1
102
RTVSPropertyOp8
 70
     1
102
RTVSPropertyOp9
 70
     1
102
RTVSPropertyOp10
 70
     1
102
RTVSPropertyOp11
 70
     1
102
RTVSPropertyOp12
 70
     1
102
RTVSPropertyOp13
 70
     1
102
RTVSPropertyOp14
 70
     1
102
RTVSPropertyOp15
 70
     1
102
RTVSPropertyOp16
 70
     1
102
RTVSPropertyOp17
 70
     1
102
RTVSPropertyOp18
 70
     1
102
RTVSPropertyOp19
 70
     1
102
RTVSPropertyOp20
 70
     1
102
RTVSPropertyOp21
 70
     1
102
RTVSPropertyOp22
 70
     1
102
RTVSPropertyOp23
 70
     1
102
RTVSPropertyOp24
 70
     1
102
RTVSPropertyOp25
 70
     1
102
RTVSPropertyOp26
 70
     1
102
RTVSPropertyOp27
 70
     1
102
RTVSPropertyOp28
 70
     1
102
RTVSPropertyOp29
 70
     1
102
RTVSPropertyOp30
 70
     1
102
RTVSPropertyOp31
 70
     1
102
RTVSPropertyOp32
 70
     1
102
RTVSPropertyOp33
 70
     1
102
RTVSPropertyOp34
 70
     1
102
RTVSPropertyOp35
 70
     1
102
RTVSPropertyOp36
 70
     1
102
RTVSPropertyOp37
 70
     1
102
RTVSPropertyOp38
 70
     1
102
RTVSPropertyOp39
 70
     1
102
RTVSPropertyOp40
 70
     1
102
RTVSPropertyOp41
 70
     1
102
RTVSPropertyOp42
 70
     1
102
RTVSPropertyOp43
 70
     1
102
RTVSPropertyOp44
 70
     1
102
RTVSPropertyOp45
 70
     1
102
RTVSPropertyOp46
 70
     1
102
RTVSPropertyOp47
 70
     1
102
RTVSPropertyOp48
 70
     1
102
RTVSPropertyOp49
 70
     1
102
RTVSPropertyOp50
 70
     1
102
RTVSPropertyOp51
 70
     0
102
RTVSPropertyOp52
 70
     0
102
RTVSPropertyOp53
 70
     1
102
RTVSPropertyOp54
 70
     1
102
RTVSPropertyOp55
 70
     1
102
RTVSPropertyOp56
 70
     1
102
RTVSPropertyOp57
 70
     1
102
RTVSPost2010Prop28
280
     1
102
RTVSPost2010PropOp28
 70
     1
102
RTVSPost2010Prop29
280
     1
102
RTVSPost2010PropOp29
 70
     1
102
RTVSPost2010Prop30
280
     0
102
RTVSPost2010PropOp30
 70
     1
102
RTVSPost2010Prop31
280
     0
102
RTVSPost2010PropOp31
 70
     1
102
RTVSPost2010Prop32
280
     0
102
RTVSPost2010PropOp32
 70
     1
102
RTVSPost2010Prop33
280
     0
102
RTVSPost2010PropOp33
 70
     1
102
RTVSPost2010Prop34
280
     0
102
RTVSPost2010PropOp34
 70
     1
102
RTVSPost2010Prop35
280
     0
102
RTVSPost2010PropOp35
 70
     1
102
RTVSPost2010Prop36
280
     0
102
RTVSPost2010PropOp36
 70
     1
102
RTVSPost2010Prop37
 90
       50
102
RTVSPost2010PropOp37
 70
     1
102
RTVSPost2010Prop38
140
0.0
102
RTVSPost2010PropOp38
 70
     1
102
RTVSPost2010Prop39
140
1.0
102
RTVSPost2010PropOp39
 70
     1
102
RTVSPost2010Prop40
 90
        0
102
RTVSPost2010PropOp40
 70
     1
102
RTVSPost2010Prop41ColorIndex
 90
       18
102
RTVSPost2010Prop41ColorRGB
 90
        0
102
RTVSPost2010PropOp41
 70
     1
102
RTVSPost2010Prop42
 90
       50
102
RTVSPost2010PropOp42
 70
     1
102
RTVSPost2010Prop43
 90
        3
102
RTVSPost2010PropOp43
 70
     1
102
RTVSPost2010Prop44ColorIndex
 90
        5
102
RTVSPost2010Prop44ColorRGB
 90
      255
102
RTVSPost2010PropOp44
 70
     1
102
RTVSPost2010Prop45
280
     0
102
RTVSPost2010PropOp45
 70
     1
102
RTVSPost2010Prop46
 90
       50
102
RTVSPost2010PropOp46
 70
     1
102
RTVSPost2010Prop47
 90
       50
102
RTVSPost2010PropOp47
 70
     1
102
RTVSPost2010Prop48
 90
       50
102
RTVSPost2010PropOp48
 70
     1
102
RTVSPost2010Prop49
280
     0
102
RTVSPost2010PropOp49
 70
     1
102
RTVSPost2010Prop50
 90
       50
102
RTVSPost2010PropOp50
 70
     1
102
RTVSPost2010Prop51ColorIndex
 90
      256
102
RTVSPost2010Prop51ColorRGB
 90
-16777216
102
RTVSPost2010PropOp51
 70
     0
102
RTVSPost2010Prop52
140
1.0
102
RTVSPost2010PropOp52
 70
     0
102
RTVSPost2010Prop53
 90
        2
102
RTVSPost2010PropOp53
 70
     1
102
RTVSPost2010Prop54
  1
strokes_ogs.tif
102
RTVSPost2010PropOp54
 70
     1
102
RTVSPost2010Prop55
280
     0
102
RTVSPost2010PropOp55
 70
     1
102
RTVSPost2010Prop56
140
1.0
102
RTVSPost2010PropOp56
 70
     1
102
RTVSPost2010Prop57
140
1.0
102
RTVSPost2010PropOp57
 70
     1
  0
XRECORD
  5
56D
102
{ACAD_REACTORS
330
56C
102
}
330
56C
100
AcDbXrecord
280
     1
102
RTVSPropertyOp0
 70
     1
102
RTVSPropertyOp1
 70
     1
102
RTVSPropertyOp2
 70
     1
102
RTVSPropertyOp3
 70
     1
102
RTVSPropertyOp4
 70
     1
102
RTVSPropertyOp5
 70
     1
102
RTVSPropertyOp6
 70
     1
102
RTVSPropertyOp7
 70
     1
102
RTVSPropertyOp8
 70
     1
102
RTVSPropertyOp9
 70
     1
102
RTVSPropertyOp10
 70
     1
102
RTVSPropertyOp11
 70
     1
102
RTVSPropertyOp12
 70
     1
102
RTVSPropertyOp13
 70
     1
102
RTVSPropertyOp14
 70
     1
102
RTVSPropertyOp15
 70
     1
102
RTVSPropertyOp16
 70
     1
102
RTVSPropertyOp17
 70
     1
102
RTVSPropertyOp18
 70
     1
102
RTVSPropertyOp19
 70
     1
102
RTVSPropertyOp20
 70
     1
102
RTVSPropertyOp21
 70
     1
102
RTVSPropertyOp22
 70
     1
102
RTVSPropertyOp23
 70
     1
102
RTVSPropertyOp24
 70
     1
102
RTVSPropertyOp25
 70
     1
102
RTVSPropertyOp26
 70
     1
102
RTVSPropertyOp27
 70
     1
102
RTVSPropertyOp28
 70
     1
102
RTVSPropertyOp29
 70
     1
102
RTVSPropertyOp30
 70
     1
102
RTVSPropertyOp31
 70
     1
102
RTVSPropertyOp32
 70
     1
102
RTVSPropertyOp33
 70
     1
102
RTVSPropertyOp34
 70
     1
102
RTVSPropertyOp35
 70
     1
102
RTVSPropertyOp36
 70
     1
102
RTVSPropertyOp37
 70
     1
102
RTVSPropertyOp38
 70
     1
102
RTVSPropertyOp39
 70
     1
102
RTVSPropertyOp40
 70
     1
102
RTVSPropertyOp41
 70
     1
102
RTVSPropertyOp42
 70
     1
102
RTVSPropertyOp43
 70
     1
102
RTVSPropertyOp44
 70
     1
102
RTVSPropertyOp45
 70
     1
102
RTVSPropertyOp46
 70
     1
102
RTVSPropertyOp47
 70
     1
102
RTVSPropertyOp48
 70
     1
102
RTVSPropertyOp49
 70
     1
102
RTVSPropertyOp50
 70
     1
102
RTVSPropertyOp51
 70
     0
102
RTVSPropertyOp52
 70
     0
102
RTVSPropertyOp53
 70
     1
102
RTVSPropertyOp54
 70
     1
102
RTVSPropertyOp55
 70
     1
102
RTVSPropertyOp56
 70
     1
102
RTVSPropertyOp57
 70
     1
102
RTVSPost2010Prop28
280
     0
102
RTVSPost2010PropOp28
 70
     1
102
RTVSPost2010Prop29
280
     1
102
RTVSPost2010PropOp29
 70
     1
102
RTVSPost2010Prop30
280
     1
102
RTVSPost2010PropOp30
 70
     1
102
RTVSPost2010Prop31
280
     0
102
RTVSPost2010PropOp31
 70
     1
102
RTVSPost2010Prop32
280
     0
102
RTVSPost2010PropOp32
 70
     1
102
RTVSPost2010Prop33
280
     0
102
RTVSPost2010PropOp33
 70
     1
102
RTVSPost2010Prop34
280
     0
102
RTVSPost2010PropOp34
 70
     1
102
RTVSPost2010Prop35
280
     0
102
RTVSPost2010PropOp35
 70
     1
102
RTVSPost2010Prop36
280
     0
102
RTVSPost2010PropOp36
 70
     1
102
RTVSPost2010Prop37
 90
       50
102
RTVSPost2010PropOp37
 70
     1
102
RTVSPost2010Prop38
140
0.0
102
RTVSPost2010PropOp38
 70
     1
102
RTVSPost2010Prop39
140
1.0
102
RTVSPost2010PropOp39
 70
     1
102
RTVSPost2010Prop40
 90
        0
102
RTVSPost2010PropOp40
 70
     1
102
RTVSPost2010Prop41ColorIndex
 90
       18
102
RTVSPost2010Prop41ColorRGB
 90
        0
102
RTVSPost2010PropOp41
 70
     1
102
RTVSPost2010Prop42
 90
       50
102
RTVSPost2010PropOp42
 70
     1
102
RTVSPost2010Prop43
 90
        3
102
RTVSPost2010PropOp43
 70
     1
102
RTVSPost2010Prop44ColorIndex
 90
        5
102
RTVSPost2010Prop44ColorRGB
 90
      255
102
RTVSPost2010PropOp44
 70
     1
102
RTVSPost2010Prop45
280
     0
102
RTVSPost2010PropOp45
 70
     1
102
RTVSPost2010Prop46
 90
       50
102
RTVSPost2010PropOp46
 70
     1
102
RTVSPost2010Prop47
 90
       50
102
RTVSPost2010PropOp47
 70
     1
102
RTVSPost2010Prop48
 90
       50
102
RTVSPost2010PropOp48
 70
     1
102
RTVSPost2010Prop49
280
     0
102
RTVSPost2010PropOp49
 70
     1
102
RTVSPost2010Prop50
 90
       50
102
RTVSPost2010PropOp50
 70
     1
102
RTVSPost2010Prop51ColorIndex
 90
      256
102
RTVSPost2010Prop51ColorRGB
 90
-16777216
102
RTVSPost2010PropOp51
 70
     0
102
RTVSPost2010Prop52
140
1.0
102
RTVSPost2010PropOp52
 70
     0
102
RTVSPost2010Prop53
 90
        2
102
RTVSPost2010PropOp53
 70
     1
102
RTVSPost2010Prop54
  1
strokes_ogs.tif
102
RTVSPost2010PropOp54
 70
     1
102
RTVSPost2010Prop55
280
     0
102
RTVSPost2010PropOp55
 70
     1
102
RTVSPost2010Prop56
140
1.0
102
RTVSPost2010PropOp56
 70
     1
102
RTVSPost2010Prop57
140
1.0
102
RTVSPost2010PropOp57
 70
     1
  0
XRECORD
  5
575
102
{ACAD_REACTORS
330
574
102
}
330
574
100
AcDbXrecord
280
     1
102
RTVSPropertyOp0
 70
     1
102
RTVSPropertyOp1
 70
     1
102
RTVSPropertyOp2
 70
     1
102
RTVSPropertyOp3
 70
     1
102
RTVSPropertyOp4
 70
     1
102
RTVSPropertyOp5
 70
     1
102
RTVSPropertyOp6
 70
     1
102
RTVSPropertyOp7
 70
     1
102
RTVSPropertyOp8
 70
     1
102
RTVSPropertyOp9
 70
     1
102
RTVSPropertyOp10
 70
     1
102
RTVSPropertyOp11
 70
     1
102
RTVSPropertyOp12
 70
     1
102
RTVSPropertyOp13
 70
     1
102
RTVSPropertyOp14
 70
     1
102
RTVSPropertyOp15
 70
     1
102
RTVSPropertyOp16
 70
     1
102
RTVSPropertyOp17
 70
     1
102
RTVSPropertyOp18
 70
     1
102
RTVSPropertyOp19
 70
     1
102
RTVSPropertyOp20
 70
     1
102
RTVSPropertyOp21
 70
     1
102
RTVSPropertyOp22
 70
     1
102
RTVSPropertyOp23
 70
     1
102
RTVSPropertyOp24
 70
     1
102
RTVSPropertyOp25
 70
     1
102
RTVSPropertyOp26
 70
     1
102
RTVSPropertyOp27
 70
     1
102
RTVSPropertyOp28
 70
     1
102
RTVSPropertyOp29
 70
     1
102
RTVSPropertyOp30
 70
     1
102
RTVSPropertyOp31
 70
     1
102
RTVSPropertyOp32
 70
     1
102
RTVSPropertyOp33
 70
     1
102
RTVSPropertyOp34
 70
     1
102
RTVSPropertyOp35
 70
     1
102
RTVSPropertyOp36
 70
     1
102
RTVSPropertyOp37
 70
     1
102
RTVSPropertyOp38
 70
     1
102
RTVSPropertyOp39
 70
     1
102
RTVSPropertyOp40
 70
     1
102
RTVSPropertyOp41
 70
     1
102
RTVSPropertyOp42
 70
     1
102
RTVSPropertyOp43
 70
     1
102
RTVSPropertyOp44
 70
     1
102
RTVSPropertyOp45
 70
     1
102
RTVSPropertyOp46
 70
     1
102
RTVSPropertyOp47
 70
     1
102
RTVSPropertyOp48
 70
     1
102
RTVSPropertyOp49
 70
     1
102
RTVSPropertyOp50
 70
     1
102
RTVSPropertyOp51
 70
     0
102
RTVSPropertyOp52
 70
     0
102
RTVSPropertyOp53
 70
     1
102
RTVSPropertyOp54
 70
     1
102
RTVSPropertyOp55
 70
     1
102
RTVSPropertyOp56
 70
     1
102
RTVSPropertyOp57
 70
     1
102
RTVSPost2010Prop28
280
     0
102
RTVSPost2010PropOp28
 70
     1
102
RTVSPost2010Prop29
280
     1
102
RTVSPost2010PropOp29
 70
     1
102
RTVSPost2010Prop30
280
     1
102
RTVSPost2010PropOp30
 70
     1
102
RTVSPost2010Prop31
280
     0
102
RTVSPost2010PropOp31
 70
     1
102
RTVSPost2010Prop32
280
     0
102
RTVSPost2010PropOp32
 70
     1
102
RTVSPost2010Prop33
280
     0
102
RTVSPost2010PropOp33
 70
     1
102
RTVSPost2010Prop34
280
     0
102
RTVSPost2010PropOp34
 70
     1
102
RTVSPost2010Prop35
280
     0
102
RTVSPost2010PropOp35
 70
     1
102
RTVSPost2010Prop36
280
     0
102
RTVSPost2010PropOp36
 70
     1
102
RTVSPost2010Prop37
 90
       50
102
RTVSPost2010PropOp37
 70
     1
102
RTVSPost2010Prop38
140
0.0
102
RTVSPost2010PropOp38
 70
     1
102
RTVSPost2010Prop39
140
1.0
102
RTVSPost2010PropOp39
 70
     1
102
RTVSPost2010Prop40
 90
        0
102
RTVSPost2010PropOp40
 70
     1
102
RTVSPost2010Prop41ColorIndex
 90
       18
102
RTVSPost2010Prop41ColorRGB
 90
        0
102
RTVSPost2010PropOp41
 70
     1
102
RTVSPost2010Prop42
 90
       50
102
RTVSPost2010PropOp42
 70
     1
102
RTVSPost2010Prop43
 90
        3
102
RTVSPost2010PropOp43
 70
     1
102
RTVSPost2010Prop44ColorIndex
 90
        5
102
RTVSPost2010Prop44ColorRGB
 90
      255
102
RTVSPost2010PropOp44
 70
     1
102
RTVSPost2010Prop45
280
     0
102
RTVSPost2010PropOp45
 70
     1
102
RTVSPost2010Prop46
 90
       50
102
RTVSPost2010PropOp46
 70
     1
102
RTVSPost2010Prop47
 90
       50
102
RTVSPost2010PropOp47
 70
     1
102
RTVSPost2010Prop48
 90
       50
102
RTVSPost2010PropOp48
 70
     1
102
RTVSPost2010Prop49
280
     0
102
RTVSPost2010PropOp49
 70
     1
102
RTVSPost2010Prop50
 90
       50
102
RTVSPost2010PropOp50
 70
     1
102
RTVSPost2010Prop51ColorIndex
 90
      256
102
RTVSPost2010Prop51ColorRGB
 90
-16777216
102
RTVSPost2010PropOp51
 70
     0
102
RTVSPost2010Prop52
140
1.0
102
RTVSPost2010PropOp52
 70
     0
102
RTVSPost2010Prop53
 90
        2
102
RTVSPost2010PropOp53
 70
     1
102
RTVSPost2010Prop54
  1
strokes_ogs.tif
102
RTVSPost2010PropOp54
 70
     1
102
RTVSPost2010Prop55
280
     0
102
RTVSPost2010PropOp55
 70
     1
102
RTVSPost2010Prop56
140
1.0
102
RTVSPost2010PropOp56
 70
     1
102
RTVSPost2010Prop57
140
1.0
102
RTVSPost2010PropOp57
 70
     1
  0
XRECORD
  5
57D
102
{ACAD_REACTORS
330
57C
102
}
330
57C
100
AcDbXrecord
280
     1
102
RTVSPropertyOp0
 70
     1
102
RTVSPropertyOp1
 70
     1
102
RTVSPropertyOp2
 70
     1
102
RTVSPropertyOp3
 70
     1
102
RTVSPropertyOp4
 70
     1
102
RTVSPropertyOp5
 70
     1
102
RTVSPropertyOp6
 70
     1
102
RTVSPropertyOp7
 70
     1
102
RTVSPropertyOp8
 70
     1
102
RTVSPropertyOp9
 70
     1
102
RTVSPropertyOp10
 70
     1
102
RTVSPropertyOp11
 70
     1
102
RTVSPropertyOp12
 70
     1
102
RTVSPropertyOp13
 70
     1
102
RTVSPropertyOp14
 70
     1
102
RTVSPropertyOp15
 70
     1
102
RTVSPropertyOp16
 70
     1
102
RTVSPropertyOp17
 70
     1
102
RTVSPropertyOp18
 70
     1
102
RTVSPropertyOp19
 70
     1
102
RTVSPropertyOp20
 70
     1
102
RTVSPropertyOp21
 70
     1
102
RTVSPropertyOp22
 70
     1
102
RTVSPropertyOp23
 70
     1
102
RTVSPropertyOp24
 70
     1
102
RTVSPropertyOp25
 70
     1
102
RTVSPropertyOp26
 70
     1
102
RTVSPropertyOp27
 70
     1
102
RTVSPropertyOp28
 70
     1
102
RTVSPropertyOp29
 70
     1
102
RTVSPropertyOp30
 70
     1
102
RTVSPropertyOp31
 70
     1
102
RTVSPropertyOp32
 70
     1
102
RTVSPropertyOp33
 70
     1
102
RTVSPropertyOp34
 70
     1
102
RTVSPropertyOp35
 70
     1
102
RTVSPropertyOp36
 70
     1
102
RTVSPropertyOp37
 70
     1
102
RTVSPropertyOp38
 70
     1
102
RTVSPropertyOp39
 70
     1
102
RTVSPropertyOp40
 70
     1
102
RTVSPropertyOp41
 70
     1
102
RTVSPropertyOp42
 70
     1
102
RTVSPropertyOp43
 70
     1
102
RTVSPropertyOp44
 70
     1
102
RTVSPropertyOp45
 70
     1
102
RTVSPropertyOp46
 70
     1
102
RTVSPropertyOp47
 70
     1
102
RTVSPropertyOp48
 70
     1
102
RTVSPropertyOp49
 70
     1
102
RTVSPropertyOp50
 70
     1
102
RTVSPropertyOp51
 70
     0
102
RTVSPropertyOp52
 70
     0
102
RTVSPropertyOp53
 70
     1
102
RTVSPropertyOp54
 70
     1
102
RTVSPropertyOp55
 70
     1
102
RTVSPropertyOp56
 70
     1
102
RTVSPropertyOp57
 70
     1
102
RTVSPost2010Prop28
280
     0
102
RTVSPost2010PropOp28
 70
     1
102
RTVSPost2010Prop29
280
     1
102
RTVSPost2010PropOp29
 70
     1
102
RTVSPost2010Prop30
280
     1
102
RTVSPost2010PropOp30
 70
     1
102
RTVSPost2010Prop31
280
     0
102
RTVSPost2010PropOp31
 70
     1
102
RTVSPost2010Prop32
280
     0
102
RTVSPost2010PropOp32
 70
     1
102
RTVSPost2010Prop33
280
     0
102
RTVSPost2010PropOp33
 70
     1
102
RTVSPost2010Prop34
280
     0
102
RTVSPost2010PropOp34
 70
     1
102
RTVSPost2010Prop35
280
     0
102
RTVSPost2010PropOp35
 70
     1
102
RTVSPost2010Prop36
280
     0
102
RTVSPost2010PropOp36
 70
     1
102
RTVSPost2010Prop37
 90
       50
102
RTVSPost2010PropOp37
 70
     1
102
RTVSPost2010Prop38
140
0.0
102
RTVSPost2010PropOp38
 70
     1
102
RTVSPost2010Prop39
140
1.0
102
RTVSPost2010PropOp39
 70
     1
102
RTVSPost2010Prop40
 90
        0
102
RTVSPost2010PropOp40
 70
     1
102
RTVSPost2010Prop41ColorIndex
 90
       18
102
RTVSPost2010Prop41ColorRGB
 90
        0
102
RTVSPost2010PropOp41
 70
     1
102
RTVSPost2010Prop42
 90
       50
102
RTVSPost2010PropOp42
 70
     1
102
RTVSPost2010Prop43
 90
        3
102
RTVSPost2010PropOp43
 70
     1
102
RTVSPost2010Prop44ColorIndex
 90
        5
102
RTVSPost2010Prop44ColorRGB
 90
      255
102
RTVSPost2010PropOp44
 70
     1
102
RTVSPost2010Prop45
280
     0
102
RTVSPost2010PropOp45
 70
     1
102
RTVSPost2010Prop46
 90
       50
102
RTVSPost2010PropOp46
 70
     1
102
RTVSPost2010Prop47
 90
       50
102
RTVSPost2010PropOp47
 70
     1
102
RTVSPost2010Prop48
 90
       50
102
RTVSPost2010PropOp48
 70
     1
102
RTVSPost2010Prop49
280
     0
102
RTVSPost2010PropOp49
 70
     1
102
RTVSPost2010Prop50
 90
       50
102
RTVSPost2010PropOp50
 70
     1
102
RTVSPost2010Prop51ColorIndex
 90
      256
102
RTVSPost2010Prop51ColorRGB
 90
-16777216
102
RTVSPost2010PropOp51
 70
     0
102
RTVSPost2010Prop52
140
1.0
102
RTVSPost2010PropOp52
 70
     0
102
RTVSPost2010Prop53
 90
        2
102
RTVSPost2010PropOp53
 70
     1
102
RTVSPost2010Prop54
  1
strokes_ogs.tif
102
RTVSPost2010PropOp54
 70
     1
102
RTVSPost2010Prop55
280
     0
102
RTVSPost2010PropOp55
 70
     1
102
RTVSPost2010Prop56
140
1.0
102
RTVSPost2010PropOp56
 70
     1
102
RTVSPost2010Prop57
140
1.0
102
RTVSPost2010PropOp57
 70
     1
  0
XRECORD
  5
571
102
{ACAD_REACTORS
330
570
102
}
330
570
100
AcDbXrecord
280
     1
102
RTVSPropertyOp0
 70
     1
102
RTVSPropertyOp1
 70
     1
102
RTVSPropertyOp2
 70
     1
102
RTVSPropertyOp3
 70
     1
102
RTVSPropertyOp4
 70
     1
102
RTVSPropertyOp5
 70
     1
102
RTVSPropertyOp6
 70
     1
102
RTVSPropertyOp7
 70
     1
102
RTVSPropertyOp8
 70
     1
102
RTVSPropertyOp9
 70
     1
102
RTVSPropertyOp10
 70
     1
102
RTVSPropertyOp11
 70
     1
102
RTVSPropertyOp12
 70
     1
102
RTVSPropertyOp13
 70
     1
102
RTVSPropertyOp14
 70
     1
102
RTVSPropertyOp15
 70
     1
102
RTVSPropertyOp16
 70
     1
102
RTVSPropertyOp17
 70
     1
102
RTVSPropertyOp18
 70
     1
102
RTVSPropertyOp19
 70
     1
102
RTVSPropertyOp20
 70
     1
102
RTVSPropertyOp21
 70
     1
102
RTVSPropertyOp22
 70
     1
102
RTVSPropertyOp23
 70
     1
102
RTVSPropertyOp24
 70
     1
102
RTVSPropertyOp25
 70
     1
102
RTVSPropertyOp26
 70
     1
102
RTVSPropertyOp27
 70
     1
102
RTVSPropertyOp28
 70
     1
102
RTVSPropertyOp29
 70
     1
102
RTVSPropertyOp30
 70
     1
102
RTVSPropertyOp31
 70
     1
102
RTVSPropertyOp32
 70
     1
102
RTVSPropertyOp33
 70
     1
102
RTVSPropertyOp34
 70
     1
102
RTVSPropertyOp35
 70
     1
102
RTVSPropertyOp36
 70
     1
102
RTVSPropertyOp37
 70
     1
102
RTVSPropertyOp38
 70
     1
102
RTVSPropertyOp39
 70
     1
102
RTVSPropertyOp40
 70
     1
102
RTVSPropertyOp41
 70
     1
102
RTVSPropertyOp42
 70
     1
102
RTVSPropertyOp43
 70
     1
102
RTVSPropertyOp44
 70
     1
102
RTVSPropertyOp45
 70
     1
102
RTVSPropertyOp46
 70
     1
102
RTVSPropertyOp47
 70
     1
102
RTVSPropertyOp48
 70
     1
102
RTVSPropertyOp49
 70
     1
102
RTVSPropertyOp50
 70
     1
102
RTVSPropertyOp51
 70
     0
102
RTVSPropertyOp52
 70
     0
102
RTVSPropertyOp53
 70
     1
102
RTVSPropertyOp54
 70
     1
102
RTVSPropertyOp55
 70
     1
102
RTVSPropertyOp56
 70
     1
102
RTVSPropertyOp57
 70
     1
102
RTVSPost2010Prop28
280
     0
102
RTVSPost2010PropOp28
 70
     1
102
RTVSPost2010Prop29
280
     1
102
RTVSPost2010PropOp29
 70
     1
102
RTVSPost2010Prop30
280
     1
102
RTVSPost2010PropOp30
 70
     1
102
RTVSPost2010Prop31
280
     0
102
RTVSPost2010PropOp31
 70
     1
102
RTVSPost2010Prop32
280
     0
102
RTVSPost2010PropOp32
 70
     1
102
RTVSPost2010Prop33
280
     0
102
RTVSPost2010PropOp33
 70
     1
102
RTVSPost2010Prop34
280
     0
102
RTVSPost2010PropOp34
 70
     1
102
RTVSPost2010Prop35
280
     0
102
RTVSPost2010PropOp35
 70
     1
102
RTVSPost2010Prop36
280
     0
102
RTVSPost2010PropOp36
 70
     1
102
RTVSPost2010Prop37
 90
       50
102
RTVSPost2010PropOp37
 70
     1
102
RTVSPost2010Prop38
140
0.0
102
RTVSPost2010PropOp38
 70
     1
102
RTVSPost2010Prop39
140
1.0
102
RTVSPost2010PropOp39
 70
     1
102
RTVSPost2010Prop40
 90
        0
102
RTVSPost2010PropOp40
 70
     1
102
RTVSPost2010Prop41ColorIndex
 90
       18
102
RTVSPost2010Prop41ColorRGB
 90
        0
102
RTVSPost2010PropOp41
 70
     1
102
RTVSPost2010Prop42
 90
       50
102
RTVSPost2010PropOp42
 70
     1
102
RTVSPost2010Prop43
 90
        3
102
RTVSPost2010PropOp43
 70
     1
102
RTVSPost2010Prop44ColorIndex
 90
        5
102
RTVSPost2010Prop44ColorRGB
 90
      255
102
RTVSPost2010PropOp44
 70
     1
102
RTVSPost2010Prop45
280
     0
102
RTVSPost2010PropOp45
 70
     1
102
RTVSPost2010Prop46
 90
       50
102
RTVSPost2010PropOp46
 70
     1
102
RTVSPost2010Prop47
 90
       50
102
RTVSPost2010PropOp47
 70
     1
102
RTVSPost2010Prop48
 90
       50
102
RTVSPost2010PropOp48
 70
     1
102
RTVSPost2010Prop49
280
     0
102
RTVSPost2010PropOp49
 70
     1
102
RTVSPost2010Prop50
 90
       50
102
RTVSPost2010PropOp50
 70
     1
102
RTVSPost2010Prop51ColorIndex
 90
      256
102
RTVSPost2010Prop51ColorRGB
 90
-16777216
102
RTVSPost2010PropOp51
 70
     0
102
RTVSPost2010Prop52
140
1.0
102
RTVSPost2010PropOp52
 70
     0
102
RTVSPost2010Prop53
 90
        2
102
RTVSPost2010PropOp53
 70
     1
102
RTVSPost2010Prop54
  1
strokes_ogs.tif
102
RTVSPost2010PropOp54
 70
     1
102
RTVSPost2010Prop55
280
     0
102
RTVSPost2010PropOp55
 70
     1
102
RTVSPost2010Prop56
140
1.0
102
RTVSPost2010PropOp56
 70
     1
102
RTVSPost2010Prop57
140
1.0
102
RTVSPost2010PropOp57
 70
     1
  0
XRECORD
  5
573
102
{ACAD_REACTORS
330
572
102
}
330
572
100
AcDbXrecord
280
     1
102
RTVSPropertyOp0
 70
     1
102
RTVSPropertyOp1
 70
     1
102
RTVSPropertyOp2
 70
     1
102
RTVSPropertyOp3
 70
     1
102
RTVSPropertyOp4
 70
     1
102
RTVSPropertyOp5
 70
     1
102
RTVSPropertyOp6
 70
     1
102
RTVSPropertyOp7
 70
     1
102
RTVSPropertyOp8
 70
     1
102
RTVSPropertyOp9
 70
     1
102
RTVSPropertyOp10
 70
     1
102
RTVSPropertyOp11
 70
     1
102
RTVSPropertyOp12
 70
     1
102
RTVSPropertyOp13
 70
     1
102
RTVSPropertyOp14
 70
     1
102
RTVSPropertyOp15
 70
     1
102
RTVSPropertyOp16
 70
     1
102
RTVSPropertyOp17
 70
     1
102
RTVSPropertyOp18
 70
     1
102
RTVSPropertyOp19
 70
     1
102
RTVSPropertyOp20
 70
     1
102
RTVSPropertyOp21
 70
     1
102
RTVSPropertyOp22
 70
     1
102
RTVSPropertyOp23
 70
     1
102
RTVSPropertyOp24
 70
     1
102
RTVSPropertyOp25
 70
     1
102
RTVSPropertyOp26
 70
     1
102
RTVSPropertyOp27
 70
     1
102
RTVSPropertyOp28
 70
     1
102
RTVSPropertyOp29
 70
     1
102
RTVSPropertyOp30
 70
     1
102
RTVSPropertyOp31
 70
     1
102
RTVSPropertyOp32
 70
     1
102
RTVSPropertyOp33
 70
     1
102
RTVSPropertyOp34
 70
     1
102
RTVSPropertyOp35
 70
     1
102
RTVSPropertyOp36
 70
     1
102
RTVSPropertyOp37
 70
     1
102
RTVSPropertyOp38
 70
     1
102
RTVSPropertyOp39
 70
     1
102
RTVSPropertyOp40
 70
     1
102
RTVSPropertyOp41
 70
     1
102
RTVSPropertyOp42
 70
     1
102
RTVSPropertyOp43
 70
     1
102
RTVSPropertyOp44
 70
     1
102
RTVSPropertyOp45
 70
     1
102
RTVSPropertyOp46
 70
     1
102
RTVSPropertyOp47
 70
     1
102
RTVSPropertyOp48
 70
     1
102
RTVSPropertyOp49
 70
     1
102
RTVSPropertyOp50
 70
     1
102
RTVSPropertyOp51
 70
     0
102
RTVSPropertyOp52
 70
     0
102
RTVSPropertyOp53
 70
     1
102
RTVSPropertyOp54
 70
     1
102
RTVSPropertyOp55
 70
     1
102
RTVSPropertyOp56
 70
     1
102
RTVSPropertyOp57
 70
     1
102
RTVSPost2010Prop28
280
     0
102
RTVSPost2010PropOp28
 70
     1
102
RTVSPost2010Prop29
280
     1
102
RTVSPost2010PropOp29
 70
     1
102
RTVSPost2010Prop30
280
     1
102
RTVSPost2010PropOp30
 70
     1
102
RTVSPost2010Prop31
280
     0
102
RTVSPost2010PropOp31
 70
     1
102
RTVSPost2010Prop32
280
     0
102
RTVSPost2010PropOp32
 70
     1
102
RTVSPost2010Prop33
280
     0
102
RTVSPost2010PropOp33
 70
     1
102
RTVSPost2010Prop34
280
     0
102
RTVSPost2010PropOp34
 70
     1
102
RTVSPost2010Prop35
280
     0
102
RTVSPost2010PropOp35
 70
     1
102
RTVSPost2010Prop36
280
     0
102
RTVSPost2010PropOp36
 70
     1
102
RTVSPost2010Prop37
 90
       50
102
RTVSPost2010PropOp37
 70
     1
102
RTVSPost2010Prop38
140
0.0
102
RTVSPost2010PropOp38
 70
     1
102
RTVSPost2010Prop39
140
1.0
102
RTVSPost2010PropOp39
 70
     1
102
RTVSPost2010Prop40
 90
        0
102
RTVSPost2010PropOp40
 70
     1
102
RTVSPost2010Prop41ColorIndex
 90
       18
102
RTVSPost2010Prop41ColorRGB
 90
        0
102
RTVSPost2010PropOp41
 70
     1
102
RTVSPost2010Prop42
 90
       50
102
RTVSPost2010PropOp42
 70
     1
102
RTVSPost2010Prop43
 90
        3
102
RTVSPost2010PropOp43
 70
     1
102
RTVSPost2010Prop44ColorIndex
 90
        5
102
RTVSPost2010Prop44ColorRGB
 90
      255
102
RTVSPost2010PropOp44
 70
     1
102
RTVSPost2010Prop45
280
     0
102
RTVSPost2010PropOp45
 70
     1
102
RTVSPost2010Prop46
 90
       50
102
RTVSPost2010PropOp46
 70
     1
102
RTVSPost2010Prop47
 90
       50
102
RTVSPost2010PropOp47
 70
     1
102
RTVSPost2010Prop48
 90
       50
102
RTVSPost2010PropOp48
 70
     1
102
RTVSPost2010Prop49
280
     0
102
RTVSPost2010PropOp49
 70
     1
102
RTVSPost2010Prop50
 90
       50
102
RTVSPost2010PropOp50
 70
     1
102
RTVSPost2010Prop51ColorIndex
 90
      256
102
RTVSPost2010Prop51ColorRGB
 90
-16777216
102
RTVSPost2010PropOp51
 70
     0
102
RTVSPost2010Prop52
140
1.0
102
RTVSPost2010PropOp52
 70
     0
102
RTVSPost2010Prop53
 90
        2
102
RTVSPost2010PropOp53
 70
     1
102
RTVSPost2010Prop54
  1
strokes_ogs.tif
102
RTVSPost2010PropOp54
 70
     1
102
RTVSPost2010Prop55
280
     0
102
RTVSPost2010PropOp55
 70
     1
102
RTVSPost2010Prop56
140
1.0
102
RTVSPost2010PropOp56
 70
     1
102
RTVSPost2010Prop57
140
1.0
102
RTVSPost2010PropOp57
 70
     1
  0
XRECORD
  5
583
102
{ACAD_REACTORS
330
582
102
}
330
582
100
AcDbXrecord
280
     1
102
RTVSPropertyOp0
 70
     0
102
RTVSPropertyOp1
 70
     0
102
RTVSPropertyOp2
 70
     0
102
RTVSPropertyOp3
 70
     0
102
RTVSPropertyOp4
 70
     0
102
RTVSPropertyOp5
 70
     0
102
RTVSPropertyOp6
 70
     0
102
RTVSPropertyOp7
 70
     0
102
RTVSPropertyOp8
 70
     0
102
RTVSPropertyOp9
 70
     0
102
RTVSPropertyOp10
 70
     0
102
RTVSPropertyOp11
 70
     0
102
RTVSPropertyOp12
 70
     0
102
RTVSPropertyOp13
 70
     0
102
RTVSPropertyOp14
 70
     0
102
RTVSPropertyOp15
 70
     0
102
RTVSPropertyOp16
 70
     0
102
RTVSPropertyOp17
 70
     0
102
RTVSPropertyOp18
 70
     0
102
RTVSPropertyOp19
 70
     0
102
RTVSPropertyOp20
 70
     0
102
RTVSPropertyOp21
 70
     0
102
RTVSPropertyOp22
 70
     0
102
RTVSPropertyOp23
 70
     0
102
RTVSPropertyOp24
 70
     0
102
RTVSPropertyOp25
 70
     0
102
RTVSPropertyOp26
 70
     0
102
RTVSPropertyOp27
 70
     0
102
RTVSPropertyOp28
 70
     1
102
RTVSPropertyOp29
 70
     1
102
RTVSPropertyOp30
 70
     1
102
RTVSPropertyOp31
 70
     1
102
RTVSPropertyOp32
 70
     1
102
RTVSPropertyOp33
 70
     1
102
RTVSPropertyOp34
 70
     1
102
RTVSPropertyOp35
 70
     1
102
RTVSPropertyOp36
 70
     1
102
RTVSPropertyOp37
 70
     1
102
RTVSPropertyOp38
 70
     1
102
RTVSPropertyOp39
 70
     1
102
RTVSPropertyOp40
 70
     1
102
RTVSPropertyOp41
 70
     1
102
RTVSPropertyOp42
 70
     1
102
RTVSPropertyOp43
 70
     1
102
RTVSPropertyOp44
 70
     1
102
RTVSPropertyOp45
 70
     1
102
RTVSPropertyOp46
 70
     1
102
RTVSPropertyOp47
 70
     1
102
RTVSPropertyOp48
 70
     1
102
RTVSPropertyOp49
 70
     1
102
RTVSPropertyOp50
 70
     1
102
RTVSPropertyOp51
 70
     0
102
RTVSPropertyOp52
 70
     0
102
RTVSPropertyOp53
 70
     1
102
RTVSPropertyOp54
 70
     1
102
RTVSPropertyOp55
 70
     1
102
RTVSPropertyOp56
 70
     1
102
RTVSPropertyOp57
 70
     1
102
RTVSPost2010Prop28
280
     0
102
RTVSPost2010PropOp28
 70
     1
102
RTVSPost2010Prop29
280
     1
102
RTVSPost2010PropOp29
 70
     1
102
RTVSPost2010Prop30
280
     1
102
RTVSPost2010PropOp30
 70
     1
102
RTVSPost2010Prop31
280
     0
102
RTVSPost2010PropOp31
 70
     1
102
RTVSPost2010Prop32
280
     0
102
RTVSPost2010PropOp32
 70
     1
102
RTVSPost2010Prop33
280
     0
102
RTVSPost2010PropOp33
 70
     1
102
RTVSPost2010Prop34
280
     0
102
RTVSPost2010PropOp34
 70
     1
102
RTVSPost2010Prop35
280
     0
102
RTVSPost2010PropOp35
 70
     1
102
RTVSPost2010Prop36
280
     0
102
RTVSPost2010PropOp36
 70
     1
102
RTVSPost2010Prop37
 90
       50
102
RTVSPost2010PropOp37
 70
     1
102
RTVSPost2010Prop38
140
0.0
102
RTVSPost2010PropOp38
 70
     1
102
RTVSPost2010Prop39
140
1.0
102
RTVSPost2010PropOp39
 70
     1
102
RTVSPost2010Prop40
 90
        0
102
RTVSPost2010PropOp40
 70
     1
102
RTVSPost2010Prop41ColorIndex
 90
       18
102
RTVSPost2010Prop41ColorRGB
 90
        0
102
RTVSPost2010PropOp41
 70
     1
102
RTVSPost2010Prop42
 90
       50
102
RTVSPost2010PropOp42
 70
     1
102
RTVSPost2010Prop43
 90
        3
102
RTVSPost2010PropOp43
 70
     1
102
RTVSPost2010Prop44ColorIndex
 90
        5
102
RTVSPost2010Prop44ColorRGB
 90
      255
102
RTVSPost2010PropOp44
 70
     1
102
RTVSPost2010Prop45
280
     0
102
RTVSPost2010PropOp45
 70
     1
102
RTVSPost2010Prop46
 90
       50
102
RTVSPost2010PropOp46
 70
     1
102
RTVSPost2010Prop47
 90
       50
102
RTVSPost2010PropOp47
 70
     1
102
RTVSPost2010Prop48
 90
       50
102
RTVSPost2010PropOp48
 70
     1
102
RTVSPost2010Prop49
280
     0
102
RTVSPost2010PropOp49
 70
     1
102
RTVSPost2010Prop50
 90
       50
102
RTVSPost2010PropOp50
 70
     1
102
RTVSPost2010Prop51ColorIndex
 90
      256
102
RTVSPost2010Prop51ColorRGB
 90
-16777216
102
RTVSPost2010PropOp51
 70
     0
102
RTVSPost2010Prop52
140
1.0
102
RTVSPost2010PropOp52
 70
     0
102
RTVSPost2010Prop53
 90
        2
102
RTVSPost2010PropOp53
 70
     1
102
RTVSPost2010Prop54
  1
strokes_ogs.tif
102
RTVSPost2010PropOp54
 70
     1
102
RTVSPost2010Prop55
280
     0
102
RTVSPost2010PropOp55
 70
     1
102
RTVSPost2010Prop56
140
1.0
102
RTVSPost2010PropOp56
 70
     1
102
RTVSPost2010Prop57
140
1.0
102
RTVSPost2010PropOp57
 70
     1
  0
XRECORD
  5
57B
102
{ACAD_REACTORS
330
57A
102
}
330
57A
100
AcDbXrecord
280
     1
102
RTVSPropertyOp0
 70
     1
102
RTVSPropertyOp1
 70
     1
102
RTVSPropertyOp2
 70
     1
102
RTVSPropertyOp3
 70
     1
102
RTVSPropertyOp4
 70
     1
102
RTVSPropertyOp5
 70
     1
102
RTVSPropertyOp6
 70
     1
102
RTVSPropertyOp7
 70
     1
102
RTVSPropertyOp8
 70
     1
102
RTVSPropertyOp9
 70
     1
102
RTVSPropertyOp10
 70
     1
102
RTVSPropertyOp11
 70
     1
102
RTVSPropertyOp12
 70
     1
102
RTVSPropertyOp13
 70
     1
102
RTVSPropertyOp14
 70
     1
102
RTVSPropertyOp15
 70
     1
102
RTVSPropertyOp16
 70
     1
102
RTVSPropertyOp17
 70
     1
102
RTVSPropertyOp18
 70
     1
102
RTVSPropertyOp19
 70
     1
102
RTVSPropertyOp20
 70
     1
102
RTVSPropertyOp21
 70
     1
102
RTVSPropertyOp22
 70
     1
102
RTVSPropertyOp23
 70
     1
102
RTVSPropertyOp24
 70
     1
102
RTVSPropertyOp25
 70
     1
102
RTVSPropertyOp26
 70
     1
102
RTVSPropertyOp27
 70
     1
102
RTVSPropertyOp28
 70
     1
102
RTVSPropertyOp29
 70
     1
102
RTVSPropertyOp30
 70
     1
102
RTVSPropertyOp31
 70
     1
102
RTVSPropertyOp32
 70
     1
102
RTVSPropertyOp33
 70
     1
102
RTVSPropertyOp34
 70
     1
102
RTVSPropertyOp35
 70
     1
102
RTVSPropertyOp36
 70
     1
102
RTVSPropertyOp37
 70
     1
102
RTVSPropertyOp38
 70
     1
102
RTVSPropertyOp39
 70
     1
102
RTVSPropertyOp40
 70
     1
102
RTVSPropertyOp41
 70
     1
102
RTVSPropertyOp42
 70
     1
102
RTVSPropertyOp43
 70
     1
102
RTVSPropertyOp44
 70
     1
102
RTVSPropertyOp45
 70
     1
102
RTVSPropertyOp46
 70
     1
102
RTVSPropertyOp47
 70
     1
102
RTVSPropertyOp48
 70
     1
102
RTVSPropertyOp49
 70
     1
102
RTVSPropertyOp50
 70
     1
102
RTVSPropertyOp51
 70
     0
102
RTVSPropertyOp52
 70
     0
102
RTVSPropertyOp53
 70
     1
102
RTVSPropertyOp54
 70
     1
102
RTVSPropertyOp55
 70
     1
102
RTVSPropertyOp56
 70
     1
102
RTVSPropertyOp57
 70
     1
102
RTVSPost2010Prop28
280
     0
102
RTVSPost2010PropOp28
 70
     1
102
RTVSPost2010Prop29
280
     1
102
RTVSPost2010PropOp29
 70
     1
102
RTVSPost2010Prop30
280
     1
102
RTVSPost2010PropOp30
 70
     1
102
RTVSPost2010Prop31
280
     0
102
RTVSPost2010PropOp31
 70
     1
102
RTVSPost2010Prop32
280
     0
102
RTVSPost2010PropOp32
 70
     1
102
RTVSPost2010Prop33
280
     0
102
RTVSPost2010PropOp33
 70
     1
102
RTVSPost2010Prop34
280
     0
102
RTVSPost2010PropOp34
 70
     1
102
RTVSPost2010Prop35
280
     0
102
RTVSPost2010PropOp35
 70
     1
102
RTVSPost2010Prop36
280
     0
102
RTVSPost2010PropOp36
 70
     1
102
RTVSPost2010Prop37
 90
       50
102
RTVSPost2010PropOp37
 70
     1
102
RTVSPost2010Prop38
140
0.0
102
RTVSPost2010PropOp38
 70
     1
102
RTVSPost2010Prop39
140
1.0
102
RTVSPost2010PropOp39
 70
     1
102
RTVSPost2010Prop40
 90
        0
102
RTVSPost2010PropOp40
 70
     1
102
RTVSPost2010Prop41ColorIndex
 90
       18
102
RTVSPost2010Prop41ColorRGB
 90
        0
102
RTVSPost2010PropOp41
 70
     1
102
RTVSPost2010Prop42
 90
       50
102
RTVSPost2010PropOp42
 70
     1
102
RTVSPost2010Prop43
 90
        3
102
RTVSPost2010PropOp43
 70
     1
102
RTVSPost2010Prop44ColorIndex
 90
        5
102
RTVSPost2010Prop44ColorRGB
 90
      255
102
RTVSPost2010PropOp44
 70
     1
102
RTVSPost2010Prop45
280
     0
102
RTVSPost2010PropOp45
 70
     1
102
RTVSPost2010Prop46
 90
       50
102
RTVSPost2010PropOp46
 70
     1
102
RTVSPost2010Prop47
 90
       50
102
RTVSPost2010PropOp47
 70
     1
102
RTVSPost2010Prop48
 90
       50
102
RTVSPost2010PropOp48
 70
     1
102
RTVSPost2010Prop49
280
     0
102
RTVSPost2010PropOp49
 70
     1
102
RTVSPost2010Prop50
 90
       50
102
RTVSPost2010PropOp50
 70
     1
102
RTVSPost2010Prop51ColorIndex
 90
      256
102
RTVSPost2010Prop51ColorRGB
 90
-16777216
102
RTVSPost2010PropOp51
 70
     0
102
RTVSPost2010Prop52
140
1.0
102
RTVSPost2010PropOp52
 70
     0
102
RTVSPost2010Prop53
 90
        2
102
RTVSPost2010PropOp53
 70
     1
102
RTVSPost2010Prop54
  1
strokes_ogs.tif
102
RTVSPost2010PropOp54
 70
     1
102
RTVSPost2010Prop55
280
     0
102
RTVSPost2010PropOp55
 70
     1
102
RTVSPost2010Prop56
140
1.0
102
RTVSPost2010PropOp56
 70
     1
102
RTVSPost2010Prop57
140
1.0
102
RTVSPost2010PropOp57
 70
     1
  0
XRECORD
  5
55F
102
{ACAD_REACTORS
330
55E
102
}
330
55E
100
AcDbXrecord
280
     1
102
RTVSPropertyOp0
 70
     1
102
RTVSPropertyOp1
 70
     1
102
RTVSPropertyOp2
 70
     1
102
RTVSPropertyOp3
 70
     1
102
RTVSPropertyOp4
 70
     1
102
RTVSPropertyOp5
 70
     1
102
RTVSPropertyOp6
 70
     1
102
RTVSPropertyOp7
 70
     1
102
RTVSPropertyOp8
 70
     1
102
RTVSPropertyOp9
 70
     1
102
RTVSPropertyOp10
 70
     1
102
RTVSPropertyOp11
 70
     1
102
RTVSPropertyOp12
 70
     1
102
RTVSPropertyOp13
 70
     1
102
RTVSPropertyOp14
 70
     1
102
RTVSPropertyOp15
 70
     1
102
RTVSPropertyOp16
 70
     1
102
RTVSPropertyOp17
 70
     1
102
RTVSPropertyOp18
 70
     1
102
RTVSPropertyOp19
 70
     1
102
RTVSPropertyOp20
 70
     1
102
RTVSPropertyOp21
 70
     1
102
RTVSPropertyOp22
 70
     1
102
RTVSPropertyOp23
 70
     1
102
RTVSPropertyOp24
 70
     1
102
RTVSPropertyOp25
 70
     1
102
RTVSPropertyOp26
 70
     1
102
RTVSPropertyOp27
 70
     1
102
RTVSPropertyOp28
 70
     1
102
RTVSPropertyOp29
 70
     1
102
RTVSPropertyOp30
 70
     1
102
RTVSPropertyOp31
 70
     1
102
RTVSPropertyOp32
 70
     1
102
RTVSPropertyOp33
 70
     1
102
RTVSPropertyOp34
 70
     1
102
RTVSPropertyOp35
 70
     1
102
RTVSPropertyOp36
 70
     1
102
RTVSPropertyOp37
 70
     1
102
RTVSPropertyOp38
 70
     1
102
RTVSPropertyOp39
 70
     1
102
RTVSPropertyOp40
 70
     1
102
RTVSPropertyOp41
 70
     1
102
RTVSPropertyOp42
 70
     1
102
RTVSPropertyOp43
 70
     1
102
RTVSPropertyOp44
 70
     1
102
RTVSPropertyOp45
 70
     1
102
RTVSPropertyOp46
 70
     1
102
RTVSPropertyOp47
 70
     1
102
RTVSPropertyOp48
 70
     1
102
RTVSPropertyOp49
 70
     1
102
RTVSPropertyOp50
 70
     1
102
RTVSPropertyOp51
 70
     0
102
RTVSPropertyOp52
 70
     0
102
RTVSPropertyOp53
 70
     1
102
RTVSPropertyOp54
 70
     1
102
RTVSPropertyOp55
 70
     1
102
RTVSPropertyOp56
 70
     1
102
RTVSPropertyOp57
 70
     1
102
RTVSPost2010Prop28
280
     0
102
RTVSPost2010PropOp28
 70
     1
102
RTVSPost2010Prop29
280
     1
102
RTVSPost2010PropOp29
 70
     1
102
RTVSPost2010Prop30
280
     1
102
RTVSPost2010PropOp30
 70
     1
102
RTVSPost2010Prop31
280
     0
102
RTVSPost2010PropOp31
 70
     1
102
RTVSPost2010Prop32
280
     0
102
RTVSPost2010PropOp32
 70
     1
102
RTVSPost2010Prop33
280
     0
102
RTVSPost2010PropOp33
 70
     1
102
RTVSPost2010Prop34
280
     0
102
RTVSPost2010PropOp34
 70
     1
102
RTVSPost2010Prop35
280
     0
102
RTVSPost2010PropOp35
 70
     1
102
RTVSPost2010Prop36
280
     0
102
RTVSPost2010PropOp36
 70
     1
102
RTVSPost2010Prop37
 90
       50
102
RTVSPost2010PropOp37
 70
     1
102
RTVSPost2010Prop38
140
0.0
102
RTVSPost2010PropOp38
 70
     1
102
RTVSPost2010Prop39
140
1.0
102
RTVSPost2010PropOp39
 70
     1
102
RTVSPost2010Prop40
 90
        0
102
RTVSPost2010PropOp40
 70
     1
102
RTVSPost2010Prop41ColorIndex
 90
       18
102
RTVSPost2010Prop41ColorRGB
 90
        0
102
RTVSPost2010PropOp41
 70
     1
102
RTVSPost2010Prop42
 90
       50
102
RTVSPost2010PropOp42
 70
     1
102
RTVSPost2010Prop43
 90
        3
102
RTVSPost2010PropOp43
 70
     1
102
RTVSPost2010Prop44ColorIndex
 90
        5
102
RTVSPost2010Prop44ColorRGB
 90
      255
102
RTVSPost2010PropOp44
 70
     1
102
RTVSPost2010Prop45
280
     0
102
RTVSPost2010PropOp45
 70
     1
102
RTVSPost2010Prop46
 90
       50
102
RTVSPost2010PropOp46
 70
     1
102
RTVSPost2010Prop47
 90
       50
102
RTVSPost2010PropOp47
 70
     1
102
RTVSPost2010Prop48
 90
       50
102
RTVSPost2010PropOp48
 70
     1
102
RTVSPost2010Prop49
280
     0
102
RTVSPost2010PropOp49
 70
     1
102
RTVSPost2010Prop50
 90
       50
102
RTVSPost2010PropOp50
 70
     1
102
RTVSPost2010Prop51ColorIndex
 90
      256
102
RTVSPost2010Prop51ColorRGB
 90
-16777216
102
RTVSPost2010PropOp51
 70
     0
102
RTVSPost2010Prop52
140
1.0
102
RTVSPost2010PropOp52
 70
     0
102
RTVSPost2010Prop53
 90
        2
102
RTVSPost2010PropOp53
 70
     1
102
RTVSPost2010Prop54
  1
strokes_ogs.tif
102
RTVSPost2010PropOp54
 70
     1
102
RTVSPost2010Prop55
280
     0
102
RTVSPost2010PropOp55
 70
     1
102
RTVSPost2010Prop56
140
1.0
102
RTVSPost2010PropOp56
 70
     1
102
RTVSPost2010Prop57
140
1.0
102
RTVSPost2010PropOp57
 70
     1
  0
XRECORD
  5
561
102
{ACAD_REACTORS
330
560
102
}
330
560
100
AcDbXrecord
280
     1
102
RTVSPropertyOp0
 70
     1
102
RTVSPropertyOp1
 70
     1
102
RTVSPropertyOp2
 70
     1
102
RTVSPropertyOp3
 70
     1
102
RTVSPropertyOp4
 70
     1
102
RTVSPropertyOp5
 70
     1
102
RTVSPropertyOp6
 70
     1
102
RTVSPropertyOp7
 70
     1
102
RTVSPropertyOp8
 70
     1
102
RTVSPropertyOp9
 70
     1
102
RTVSPropertyOp10
 70
     1
102
RTVSPropertyOp11
 70
     1
102
RTVSPropertyOp12
 70
     1
102
RTVSPropertyOp13
 70
     1
102
RTVSPropertyOp14
 70
     1
102
RTVSPropertyOp15
 70
     1
102
RTVSPropertyOp16
 70
     1
102
RTVSPropertyOp17
 70
     1
102
RTVSPropertyOp18
 70
     1
102
RTVSPropertyOp19
 70
     1
102
RTVSPropertyOp20
 70
     1
102
RTVSPropertyOp21
 70
     1
102
RTVSPropertyOp22
 70
     1
102
RTVSPropertyOp23
 70
     1
102
RTVSPropertyOp24
 70
     1
102
RTVSPropertyOp25
 70
     1
102
RTVSPropertyOp26
 70
     1
102
RTVSPropertyOp27
 70
     1
102
RTVSPropertyOp28
 70
     1
102
RTVSPropertyOp29
 70
     1
102
RTVSPropertyOp30
 70
     1
102
RTVSPropertyOp31
 70
     1
102
RTVSPropertyOp32
 70
     1
102
RTVSPropertyOp33
 70
     1
102
RTVSPropertyOp34
 70
     1
102
RTVSPropertyOp35
 70
     1
102
RTVSPropertyOp36
 70
     1
102
RTVSPropertyOp37
 70
     1
102
RTVSPropertyOp38
 70
     1
102
RTVSPropertyOp39
 70
     1
102
RTVSPropertyOp40
 70
     1
102
RTVSPropertyOp41
 70
     1
102
RTVSPropertyOp42
 70
     1
102
RTVSPropertyOp43
 70
     1
102
RTVSPropertyOp44
 70
     1
102
RTVSPropertyOp45
 70
     1
102
RTVSPropertyOp46
 70
     1
102
RTVSPropertyOp47
 70
     1
102
RTVSPropertyOp48
 70
     1
102
RTVSPropertyOp49
 70
     1
102
RTVSPropertyOp50
 70
     1
102
RTVSPropertyOp51
 70
     0
102
RTVSPropertyOp52
 70
     0
102
RTVSPropertyOp53
 70
     1
102
RTVSPropertyOp54
 70
     1
102
RTVSPropertyOp55
 70
     1
102
RTVSPropertyOp56
 70
     1
102
RTVSPropertyOp57
 70
     1
102
RTVSPost2010Prop28
280
     0
102
RTVSPost2010PropOp28
 70
     1
102
RTVSPost2010Prop29
280
     1
102
RTVSPost2010PropOp29
 70
     1
102
RTVSPost2010Prop30
280
     1
102
RTVSPost2010PropOp30
 70
     1
102
RTVSPost2010Prop31
280
     0
102
RTVSPost2010PropOp31
 70
     1
102
RTVSPost2010Prop32
280
     0
102
RTVSPost2010PropOp32
 70
     1
102
RTVSPost2010Prop33
280
     0
102
RTVSPost2010PropOp33
 70
     1
102
RTVSPost2010Prop34
280
     0
102
RTVSPost2010PropOp34
 70
     1
102
RTVSPost2010Prop35
280
     0
102
RTVSPost2010PropOp35
 70
     1
102
RTVSPost2010Prop36
280
     0
102
RTVSPost2010PropOp36
 70
     1
102
RTVSPost2010Prop37
 90
       50
102
RTVSPost2010PropOp37
 70
     1
102
RTVSPost2010Prop38
140
0.0
102
RTVSPost2010PropOp38
 70
     1
102
RTVSPost2010Prop39
140
1.0
102
RTVSPost2010PropOp39
 70
     1
102
RTVSPost2010Prop40
 90
        0
102
RTVSPost2010PropOp40
 70
     1
102
RTVSPost2010Prop41ColorIndex
 90
       18
102
RTVSPost2010Prop41ColorRGB
 90
        0
102
RTVSPost2010PropOp41
 70
     1
102
RTVSPost2010Prop42
 90
       50
102
RTVSPost2010PropOp42
 70
     1
102
RTVSPost2010Prop43
 90
        3
102
RTVSPost2010PropOp43
 70
     1
102
RTVSPost2010Prop44ColorIndex
 90
        5
102
RTVSPost2010Prop44ColorRGB
 90
      255
102
RTVSPost2010PropOp44
 70
     1
102
RTVSPost2010Prop45
280
     0
102
RTVSPost2010PropOp45
 70
     1
102
RTVSPost2010Prop46
 90
       50
102
RTVSPost2010PropOp46
 70
     1
102
RTVSPost2010Prop47
 90
       50
102
RTVSPost2010PropOp47
 70
     1
102
RTVSPost2010Prop48
 90
       50
102
RTVSPost2010PropOp48
 70
     1
102
RTVSPost2010Prop49
280
     0
102
RTVSPost2010PropOp49
 70
     1
102
RTVSPost2010Prop50
 90
       50
102
RTVSPost2010PropOp50
 70
     1
102
RTVSPost2010Prop51ColorIndex
 90
      256
102
RTVSPost2010Prop51ColorRGB
 90
-16777216
102
RTVSPost2010PropOp51
 70
     0
102
RTVSPost2010Prop52
140
1.0
102
RTVSPost2010PropOp52
 70
     0
102
RTVSPost2010Prop53
 90
        2
102
RTVSPost2010PropOp53
 70
     1
102
RTVSPost2010Prop54
  1
strokes_ogs.tif
102
RTVSPost2010PropOp54
 70
     1
102
RTVSPost2010Prop55
280
     0
102
RTVSPost2010PropOp55
 70
     1
102
RTVSPost2010Prop56
140
1.0
102
RTVSPost2010PropOp56
 70
     1
102
RTVSPost2010Prop57
140
1.0
102
RTVSPost2010PropOp57
 70
     1
  0
XRECORD
  5
563
102
{ACAD_REACTORS
330
562
102
}
330
562
100
AcDbXrecord
280
     1
102
RTVSPropertyOp0
 70
     1
102
RTVSPropertyOp1
 70
     1
102
RTVSPropertyOp2
 70
     1
102
RTVSPropertyOp3
 70
     1
102
RTVSPropertyOp4
 70
     1
102
RTVSPropertyOp5
 70
     1
102
RTVSPropertyOp6
 70
     1
102
RTVSPropertyOp7
 70
     1
102
RTVSPropertyOp8
 70
     1
102
RTVSPropertyOp9
 70
     1
102
RTVSPropertyOp10
 70
     1
102
RTVSPropertyOp11
 70
     1
102
RTVSPropertyOp12
 70
     1
102
RTVSPropertyOp13
 70
     1
102
RTVSPropertyOp14
 70
     1
102
RTVSPropertyOp15
 70
     1
102
RTVSPropertyOp16
 70
     1
102
RTVSPropertyOp17
 70
     1
102
RTVSPropertyOp18
 70
     1
102
RTVSPropertyOp19
 70
     1
102
RTVSPropertyOp20
 70
     1
102
RTVSPropertyOp21
 70
     1
102
RTVSPropertyOp22
 70
     1
102
RTVSPropertyOp23
 70
     1
102
RTVSPropertyOp24
 70
     1
102
RTVSPropertyOp25
 70
     1
102
RTVSPropertyOp26
 70
     1
102
RTVSPropertyOp27
 70
     1
102
RTVSPropertyOp28
 70
     1
102
RTVSPropertyOp29
 70
     1
102
RTVSPropertyOp30
 70
     1
102
RTVSPropertyOp31
 70
     1
102
RTVSPropertyOp32
 70
     1
102
RTVSPropertyOp33
 70
     1
102
RTVSPropertyOp34
 70
     1
102
RTVSPropertyOp35
 70
     1
102
RTVSPropertyOp36
 70
     1
102
RTVSPropertyOp37
 70
     1
102
RTVSPropertyOp38
 70
     1
102
RTVSPropertyOp39
 70
     1
102
RTVSPropertyOp40
 70
     1
102
RTVSPropertyOp41
 70
     1
102
RTVSPropertyOp42
 70
     1
102
RTVSPropertyOp43
 70
     1
102
RTVSPropertyOp44
 70
     1
102
RTVSPropertyOp45
 70
     1
102
RTVSPropertyOp46
 70
     1
102
RTVSPropertyOp47
 70
     1
102
RTVSPropertyOp48
 70
     1
102
RTVSPropertyOp49
 70
     1
102
RTVSPropertyOp50
 70
     1
102
RTVSPropertyOp51
 70
     0
102
RTVSPropertyOp52
 70
     0
102
RTVSPropertyOp53
 70
     1
102
RTVSPropertyOp54
 70
     1
102
RTVSPropertyOp55
 70
     1
102
RTVSPropertyOp56
 70
     1
102
RTVSPropertyOp57
 70
     1
102
RTVSPost2010Prop28
280
     0
102
RTVSPost2010PropOp28
 70
     1
102
RTVSPost2010Prop29
280
     1
102
RTVSPost2010PropOp29
 70
     1
102
RTVSPost2010Prop30
280
     1
102
RTVSPost2010PropOp30
 70
     1
102
RTVSPost2010Prop31
280
     0
102
RTVSPost2010PropOp31
 70
     1
102
RTVSPost2010Prop32
280
     0
102
RTVSPost2010PropOp32
 70
     1
102
RTVSPost2010Prop33
280
     0
102
RTVSPost2010PropOp33
 70
     1
102
RTVSPost2010Prop34
280
     0
102
RTVSPost2010PropOp34
 70
     1
102
RTVSPost2010Prop35
280
     0
102
RTVSPost2010PropOp35
 70
     1
102
RTVSPost2010Prop36
280
     0
102
RTVSPost2010PropOp36
 70
     1
102
RTVSPost2010Prop37
 90
       50
102
RTVSPost2010PropOp37
 70
     1
102
RTVSPost2010Prop38
140
0.0
102
RTVSPost2010PropOp38
 70
     1
102
RTVSPost2010Prop39
140
1.0
102
RTVSPost2010PropOp39
 70
     1
102
RTVSPost2010Prop40
 90
        0
102
RTVSPost2010PropOp40
 70
     1
102
RTVSPost2010Prop41ColorIndex
 90
       18
102
RTVSPost2010Prop41ColorRGB
 90
        0
102
RTVSPost2010PropOp41
 70
     1
102
RTVSPost2010Prop42
 90
       50
102
RTVSPost2010PropOp42
 70
     1
102
RTVSPost2010Prop43
 90
        3
102
RTVSPost2010PropOp43
 70
     1
102
RTVSPost2010Prop44ColorIndex
 90
        5
102
RTVSPost2010Prop44ColorRGB
 90
      255
102
RTVSPost2010PropOp44
 70
     1
102
RTVSPost2010Prop45
280
     0
102
RTVSPost2010PropOp45
 70
     1
102
RTVSPost2010Prop46
 90
       50
102
RTVSPost2010PropOp46
 70
     1
102
RTVSPost2010Prop47
 90
       50
102
RTVSPost2010PropOp47
 70
     1
102
RTVSPost2010Prop48
 90
       50
102
RTVSPost2010PropOp48
 70
     1
102
RTVSPost2010Prop49
280
     0
102
RTVSPost2010PropOp49
 70
     1
102
RTVSPost2010Prop50
 90
       50
102
RTVSPost2010PropOp50
 70
     1
102
RTVSPost2010Prop51ColorIndex
 90
      256
102
RTVSPost2010Prop51ColorRGB
 90
-16777216
102
RTVSPost2010PropOp51
 70
     0
102
RTVSPost2010Prop52
140
1.0
102
RTVSPost2010PropOp52
 70
     0
102
RTVSPost2010Prop53
 90
        2
102
RTVSPost2010PropOp53
 70
     1
102
RTVSPost2010Prop54
  1
strokes_ogs.tif
102
RTVSPost2010PropOp54
 70
     1
102
RTVSPost2010Prop55
280
     0
102
RTVSPost2010PropOp55
 70
     1
102
RTVSPost2010Prop56
140
1.0
102
RTVSPost2010PropOp56
 70
     1
102
RTVSPost2010Prop57
140
1.0
102
RTVSPost2010PropOp57
 70
     1
  0
XRECORD
  5
565
102
{ACAD_REACTORS
330
564
102
}
330
564
100
AcDbXrecord
280
     1
102
RTVSPropertyOp0
 70
     1
102
RTVSPropertyOp1
 70
     1
102
RTVSPropertyOp2
 70
     1
102
RTVSPropertyOp3
 70
     1
102
RTVSPropertyOp4
 70
     1
102
RTVSPropertyOp5
 70
     1
102
RTVSPropertyOp6
 70
     1
102
RTVSPropertyOp7
 70
     1
102
RTVSPropertyOp8
 70
     1
102
RTVSPropertyOp9
 70
     1
102
RTVSPropertyOp10
 70
     1
102
RTVSPropertyOp11
 70
     1
102
RTVSPropertyOp12
 70
     1
102
RTVSPropertyOp13
 70
     1
102
RTVSPropertyOp14
 70
     1
102
RTVSPropertyOp15
 70
     1
102
RTVSPropertyOp16
 70
     1
102
RTVSPropertyOp17
 70
     1
102
RTVSPropertyOp18
 70
     1
102
RTVSPropertyOp19
 70
     1
102
RTVSPropertyOp20
 70
     1
102
RTVSPropertyOp21
 70
     1
102
RTVSPropertyOp22
 70
     1
102
RTVSPropertyOp23
 70
     1
102
RTVSPropertyOp24
 70
     1
102
RTVSPropertyOp25
 70
     1
102
RTVSPropertyOp26
 70
     1
102
RTVSPropertyOp27
 70
     1
102
RTVSPropertyOp28
 70
     1
102
RTVSPropertyOp29
 70
     1
102
RTVSPropertyOp30
 70
     1
102
RTVSPropertyOp31
 70
     1
102
RTVSPropertyOp32
 70
     1
102
RTVSPropertyOp33
 70
     1
102
RTVSPropertyOp34
 70
     1
102
RTVSPropertyOp35
 70
     1
102
RTVSPropertyOp36
 70
     1
102
RTVSPropertyOp37
 70
     1
102
RTVSPropertyOp38
 70
     1
102
RTVSPropertyOp39
 70
     1
102
RTVSPropertyOp40
 70
     1
102
RTVSPropertyOp41
 70
     1
102
RTVSPropertyOp42
 70
     1
102
RTVSPropertyOp43
 70
     1
102
RTVSPropertyOp44
 70
     1
102
RTVSPropertyOp45
 70
     1
102
RTVSPropertyOp46
 70
     1
102
RTVSPropertyOp47
 70
     1
102
RTVSPropertyOp48
 70
     1
102
RTVSPropertyOp49
 70
     1
102
RTVSPropertyOp50
 70
     1
102
RTVSPropertyOp51
 70
     0
102
RTVSPropertyOp52
 70
     0
102
RTVSPropertyOp53
 70
     1
102
RTVSPropertyOp54
 70
     1
102
RTVSPropertyOp55
 70
     1
102
RTVSPropertyOp56
 70
     1
102
RTVSPropertyOp57
 70
     1
102
RTVSPost2010Prop28
280
     0
102
RTVSPost2010PropOp28
 70
     1
102
RTVSPost2010Prop29
280
     1
102
RTVSPost2010PropOp29
 70
     1
102
RTVSPost2010Prop30
280
     1
102
RTVSPost2010PropOp30
 70
     1
102
RTVSPost2010Prop31
280
     0
102
RTVSPost2010PropOp31
 70
     1
102
RTVSPost2010Prop32
280
     0
102
RTVSPost2010PropOp32
 70
     1
102
RTVSPost2010Prop33
280
     0
102
RTVSPost2010PropOp33
 70
     1
102
RTVSPost2010Prop34
280
     0
102
RTVSPost2010PropOp34
 70
     1
102
RTVSPost2010Prop35
280
     0
102
RTVSPost2010PropOp35
 70
     1
102
RTVSPost2010Prop36
280
     0
102
RTVSPost2010PropOp36
 70
     1
102
RTVSPost2010Prop37
 90
       50
102
RTVSPost2010PropOp37
 70
     1
102
RTVSPost2010Prop38
140
0.0
102
RTVSPost2010PropOp38
 70
     1
102
RTVSPost2010Prop39
140
1.0
102
RTVSPost2010PropOp39
 70
     1
102
RTVSPost2010Prop40
 90
        0
102
RTVSPost2010PropOp40
 70
     1
102
RTVSPost2010Prop41ColorIndex
 90
       18
102
RTVSPost2010Prop41ColorRGB
 90
        0
102
RTVSPost2010PropOp41
 70
     1
102
RTVSPost2010Prop42
 90
       50
102
RTVSPost2010PropOp42
 70
     1
102
RTVSPost2010Prop43
 90
        3
102
RTVSPost2010PropOp43
 70
     1
102
RTVSPost2010Prop44ColorIndex
 90
        5
102
RTVSPost2010Prop44ColorRGB
 90
      255
102
RTVSPost2010PropOp44
 70
     1
102
RTVSPost2010Prop45
280
     0
102
RTVSPost2010PropOp45
 70
     1
102
RTVSPost2010Prop46
 90
       50
102
RTVSPost2010PropOp46
 70
     1
102
RTVSPost2010Prop47
 90
       50
102
RTVSPost2010PropOp47
 70
     1
102
RTVSPost2010Prop48
 90
       50
102
RTVSPost2010PropOp48
 70
     1
102
RTVSPost2010Prop49
280
     0
102
RTVSPost2010PropOp49
 70
     1
102
RTVSPost2010Prop50
 90
       50
102
RTVSPost2010PropOp50
 70
     1
102
RTVSPost2010Prop51ColorIndex
 90
      256
102
RTVSPost2010Prop51ColorRGB
 90
-16777216
102
RTVSPost2010PropOp51
 70
     0
102
RTVSPost2010Prop52
140
1.0
102
RTVSPost2010PropOp52
 70
     0
102
RTVSPost2010Prop53
 90
        2
102
RTVSPost2010PropOp53
 70
     1
102
RTVSPost2010Prop54
  1
strokes_ogs.tif
102
RTVSPost2010PropOp54
 70
     1
102
RTVSPost2010Prop55
280
     0
102
RTVSPost2010PropOp55
 70
     1
102
RTVSPost2010Prop56
140
1.0
102
RTVSPost2010PropOp56
 70
     1
102
RTVSPost2010Prop57
140
1.0
102
RTVSPost2010PropOp57
 70
     1
  0
XRECORD
  5
56B
102
{ACAD_REACTORS
330
56A
102
}
330
56A
100
AcDbXrecord
280
     1
102
RTVSPropertyOp0
 70
     1
102
RTVSPropertyOp1
 70
     1
102
RTVSPropertyOp2
 70
     1
102
RTVSPropertyOp3
 70
     1
102
RTVSPropertyOp4
 70
     1
102
RTVSPropertyOp5
 70
     1
102
RTVSPropertyOp6
 70
     1
102
RTVSPropertyOp7
 70
     1
102
RTVSPropertyOp8
 70
     1
102
RTVSPropertyOp9
 70
     1
102
RTVSPropertyOp10
 70
     1
102
RTVSPropertyOp11
 70
     1
102
RTVSPropertyOp12
 70
     1
102
RTVSPropertyOp13
 70
     1
102
RTVSPropertyOp14
 70
     1
102
RTVSPropertyOp15
 70
     1
102
RTVSPropertyOp16
 70
     1
102
RTVSPropertyOp17
 70
     1
102
RTVSPropertyOp18
 70
     1
102
RTVSPropertyOp19
 70
     1
102
RTVSPropertyOp20
 70
     1
102
RTVSPropertyOp21
 70
     1
102
RTVSPropertyOp22
 70
     1
102
RTVSPropertyOp23
 70
     1
102
RTVSPropertyOp24
 70
     1
102
RTVSPropertyOp25
 70
     1
102
RTVSPropertyOp26
 70
     1
102
RTVSPropertyOp27
 70
     1
102
RTVSPropertyOp28
 70
     1
102
RTVSPropertyOp29
 70
     1
102
RTVSPropertyOp30
 70
     1
102
RTVSPropertyOp31
 70
     1
102
RTVSPropertyOp32
 70
     1
102
RTVSPropertyOp33
 70
     1
102
RTVSPropertyOp34
 70
     1
102
RTVSPropertyOp35
 70
     1
102
RTVSPropertyOp36
 70
     1
102
RTVSPropertyOp37
 70
     1
102
RTVSPropertyOp38
 70
     1
102
RTVSPropertyOp39
 70
     1
102
RTVSPropertyOp40
 70
     1
102
RTVSPropertyOp41
 70
     1
102
RTVSPropertyOp42
 70
     1
102
RTVSPropertyOp43
 70
     1
102
RTVSPropertyOp44
 70
     1
102
RTVSPropertyOp45
 70
     1
102
RTVSPropertyOp46
 70
     1
102
RTVSPropertyOp47
 70
     1
102
RTVSPropertyOp48
 70
     1
102
RTVSPropertyOp49
 70
     1
102
RTVSPropertyOp50
 70
     1
102
RTVSPropertyOp51
 70
     0
102
RTVSPropertyOp52
 70
     0
102
RTVSPropertyOp53
 70
     1
102
RTVSPropertyOp54
 70
     1
102
RTVSPropertyOp55
 70
     1
102
RTVSPropertyOp56
 70
     1
102
RTVSPropertyOp57
 70
     1
102
RTVSPost2010Prop28
280
     0
102
RTVSPost2010PropOp28
 70
     1
102
RTVSPost2010Prop29
280
     1
102
RTVSPost2010PropOp29
 70
     1
102
RTVSPost2010Prop30
280
     1
102
RTVSPost2010PropOp30
 70
     1
102
RTVSPost2010Prop31
280
     0
102
RTVSPost2010PropOp31
 70
     1
102
RTVSPost2010Prop32
280
     0
102
RTVSPost2010PropOp32
 70
     1
102
RTVSPost2010Prop33
280
     0
102
RTVSPost2010PropOp33
 70
     1
102
RTVSPost2010Prop34
280
     0
102
RTVSPost2010PropOp34
 70
     1
102
RTVSPost2010Prop35
280
     0
102
RTVSPost2010PropOp35
 70
     1
102
RTVSPost2010Prop36
280
     0
102
RTVSPost2010PropOp36
 70
     1
102
RTVSPost2010Prop37
 90
       50
102
RTVSPost2010PropOp37
 70
     1
102
RTVSPost2010Prop38
140
0.0
102
RTVSPost2010PropOp38
 70
     1
102
RTVSPost2010Prop39
140
1.0
102
RTVSPost2010PropOp39
 70
     1
102
RTVSPost2010Prop40
 90
        0
102
RTVSPost2010PropOp40
 70
     1
102
RTVSPost2010Prop41ColorIndex
 90
       18
102
RTVSPost2010Prop41ColorRGB
 90
        0
102
RTVSPost2010PropOp41
 70
     1
102
RTVSPost2010Prop42
 90
       50
102
RTVSPost2010PropOp42
 70
     1
102
RTVSPost2010Prop43
 90
        3
102
RTVSPost2010PropOp43
 70
     1
102
RTVSPost2010Prop44ColorIndex
 90
        5
102
RTVSPost2010Prop44ColorRGB
 90
      255
102
RTVSPost2010PropOp44
 70
     1
102
RTVSPost2010Prop45
280
     0
102
RTVSPost2010PropOp45
 70
     1
102
RTVSPost2010Prop46
 90
       50
102
RTVSPost2010PropOp46
 70
     1
102
RTVSPost2010Prop47
 90
       50
102
RTVSPost2010PropOp47
 70
     1
102
RTVSPost2010Prop48
 90
       50
102
RTVSPost2010PropOp48
 70
     1
102
RTVSPost2010Prop49
280
     0
102
RTVSPost2010PropOp49
 70
     1
102
RTVSPost2010Prop50
 90
       50
102
RTVSPost2010PropOp50
 70
     1
102
RTVSPost2010Prop51ColorIndex
 90
      256
102
RTVSPost2010Prop51ColorRGB
 90
-16777216
102
RTVSPost2010PropOp51
 70
     0
102
RTVSPost2010Prop52
140
1.0
102
RTVSPost2010PropOp52
 70
     0
102
RTVSPost2010Prop53
 90
        2
102
RTVSPost2010PropOp53
 70
     1
102
RTVSPost2010Prop54
  1
strokes_ogs.tif
102
RTVSPost2010PropOp54
 70
     1
102
RTVSPost2010Prop55
280
     0
102
RTVSPost2010PropOp55
 70
     1
102
RTVSPost2010Prop56
140
1.0
102
RTVSPost2010PropOp56
 70
     1
102
RTVSPost2010Prop57
140
1.0
102
RTVSPost2010PropOp57
 70
     1
  0
XRECORD
  5
57F
102
{ACAD_REACTORS
330
57E
102
}
330
57E
100
AcDbXrecord
280
     1
102
RTVSPropertyOp0
 70
     0
102
RTVSPropertyOp1
 70
     0
102
RTVSPropertyOp2
 70
     0
102
RTVSPropertyOp3
 70
     0
102
RTVSPropertyOp4
 70
     0
102
RTVSPropertyOp5
 70
     0
102
RTVSPropertyOp6
 70
     0
102
RTVSPropertyOp7
 70
     0
102
RTVSPropertyOp8
 70
     0
102
RTVSPropertyOp9
 70
     0
102
RTVSPropertyOp10
 70
     0
102
RTVSPropertyOp11
 70
     0
102
RTVSPropertyOp12
 70
     0
102
RTVSPropertyOp13
 70
     0
102
RTVSPropertyOp14
 70
     0
102
RTVSPropertyOp15
 70
     0
102
RTVSPropertyOp16
 70
     0
102
RTVSPropertyOp17
 70
     0
102
RTVSPropertyOp18
 70
     0
102
RTVSPropertyOp19
 70
     0
102
RTVSPropertyOp20
 70
     0
102
RTVSPropertyOp21
 70
     0
102
RTVSPropertyOp22
 70
     0
102
RTVSPropertyOp23
 70
     0
102
RTVSPropertyOp24
 70
     0
102
RTVSPropertyOp25
 70
     0
102
RTVSPropertyOp26
 70
     0
102
RTVSPropertyOp27
 70
     0
102
RTVSPropertyOp28
 70
     1
102
RTVSPropertyOp29
 70
     1
102
RTVSPropertyOp30
 70
     1
102
RTVSPropertyOp31
 70
     1
102
RTVSPropertyOp32
 70
     1
102
RTVSPropertyOp33
 70
     1
102
RTVSPropertyOp34
 70
     1
102
RTVSPropertyOp35
 70
     1
102
RTVSPropertyOp36
 70
     1
102
RTVSPropertyOp37
 70
     1
102
RTVSPropertyOp38
 70
     1
102
RTVSPropertyOp39
 70
     1
102
RTVSPropertyOp40
 70
     1
102
RTVSPropertyOp41
 70
     1
102
RTVSPropertyOp42
 70
     1
102
RTVSPropertyOp43
 70
     1
102
RTVSPropertyOp44
 70
     1
102
RTVSPropertyOp45
 70
     1
102
RTVSPropertyOp46
 70
     1
102
RTVSPropertyOp47
 70
     1
102
RTVSPropertyOp48
 70
     1
102
RTVSPropertyOp49
 70
     1
102
RTVSPropertyOp50
 70
     1
102
RTVSPropertyOp51
 70
     0
102
RTVSPropertyOp52
 70
     0
102
RTVSPropertyOp53
 70
     1
102
RTVSPropertyOp54
 70
     1
102
RTVSPropertyOp55
 70
     1
102
RTVSPropertyOp56
 70
     1
102
RTVSPropertyOp57
 70
     1
102
RTVSPost2010Prop28
280
     0
102
RTVSPost2010PropOp28
 70
     1
102
RTVSPost2010Prop29
280
     1
102
RTVSPost2010PropOp29
 70
     1
102
RTVSPost2010Prop30
280
     1
102
RTVSPost2010PropOp30
 70
     1
102
RTVSPost2010Prop31
280
     0
102
RTVSPost2010PropOp31
 70
     1
102
RTVSPost2010Prop32
280
     0
102
RTVSPost2010PropOp32
 70
     1
102
RTVSPost2010Prop33
280
     0
102
RTVSPost2010PropOp33
 70
     1
102
RTVSPost2010Prop34
280
     0
102
RTVSPost2010PropOp34
 70
     1
102
RTVSPost2010Prop35
280
     0
102
RTVSPost2010PropOp35
 70
     1
102
RTVSPost2010Prop36
280
     0
102
RTVSPost2010PropOp36
 70
     1
102
RTVSPost2010Prop37
 90
       50
102
RTVSPost2010PropOp37
 70
     1
102
RTVSPost2010Prop38
140
0.0
102
RTVSPost2010PropOp38
 70
     1
102
RTVSPost2010Prop39
140
1.0
102
RTVSPost2010PropOp39
 70
     1
102
RTVSPost2010Prop40
 90
        0
102
RTVSPost2010PropOp40
 70
     1
102
RTVSPost2010Prop41ColorIndex
 90
       18
102
RTVSPost2010Prop41ColorRGB
 90
        0
102
RTVSPost2010PropOp41
 70
     1
102
RTVSPost2010Prop42
 90
       50
102
RTVSPost2010PropOp42
 70
     1
102
RTVSPost2010Prop43
 90
        3
102
RTVSPost2010PropOp43
 70
     1
102
RTVSPost2010Prop44ColorIndex
 90
        5
102
RTVSPost2010Prop44ColorRGB
 90
      255
102
RTVSPost2010PropOp44
 70
     1
102
RTVSPost2010Prop45
280
     0
102
RTVSPost2010PropOp45
 70
     1
102
RTVSPost2010Prop46
 90
       50
102
RTVSPost2010PropOp46
 70
     1
102
RTVSPost2010Prop47
 90
       50
102
RTVSPost2010PropOp47
 70
     1
102
RTVSPost2010Prop48
 90
       50
102
RTVSPost2010PropOp48
 70
     1
102
RTVSPost2010Prop49
280
     0
102
RTVSPost2010PropOp49
 70
     1
102
RTVSPost2010Prop50
 90
       50
102
RTVSPost2010PropOp50
 70
     1
102
RTVSPost2010Prop51ColorIndex
 90
      256
102
RTVSPost2010Prop51ColorRGB
 90
-16777216
102
RTVSPost2010PropOp51
 70
     0
102
RTVSPost2010Prop52
140
1.0
102
RTVSPost2010PropOp52
 70
     0
102
RTVSPost2010Prop53
 90
        2
102
RTVSPost2010PropOp53
 70
     1
102
RTVSPost2010Prop54
  1
strokes_ogs.tif
102
RTVSPost2010PropOp54
 70
     1
102
RTVSPost2010Prop55
280
     0
102
RTVSPost2010PropOp55
 70
     1
102
RTVSPost2010Prop56
140
1.0
102
RTVSPost2010PropOp56
 70
     1
102
RTVSPost2010Prop57
140
1.0
102
RTVSPost2010PropOp57
 70
     1
  0
XRECORD
  5
579
102
{ACAD_REACTORS
330
578
102
}
330
578
100
AcDbXrecord
280
     1
102
RTVSPropertyOp0
 70
     1
102
RTVSPropertyOp1
 70
     1
102
RTVSPropertyOp2
 70
     1
102
RTVSPropertyOp3
 70
     1
102
RTVSPropertyOp4
 70
     1
102
RTVSPropertyOp5
 70
     1
102
RTVSPropertyOp6
 70
     1
102
RTVSPropertyOp7
 70
     1
102
RTVSPropertyOp8
 70
     1
102
RTVSPropertyOp9
 70
     1
102
RTVSPropertyOp10
 70
     1
102
RTVSPropertyOp11
 70
     1
102
RTVSPropertyOp12
 70
     1
102
RTVSPropertyOp13
 70
     1
102
RTVSPropertyOp14
 70
     1
102
RTVSPropertyOp15
 70
     1
102
RTVSPropertyOp16
 70
     1
102
RTVSPropertyOp17
 70
     1
102
RTVSPropertyOp18
 70
     1
102
RTVSPropertyOp19
 70
     1
102
RTVSPropertyOp20
 70
     1
102
RTVSPropertyOp21
 70
     1
102
RTVSPropertyOp22
 70
     1
102
RTVSPropertyOp23
 70
     1
102
RTVSPropertyOp24
 70
     1
102
RTVSPropertyOp25
 70
     1
102
RTVSPropertyOp26
 70
     1
102
RTVSPropertyOp27
 70
     1
102
RTVSPropertyOp28
 70
     1
102
RTVSPropertyOp29
 70
     1
102
RTVSPropertyOp30
 70
     1
102
RTVSPropertyOp31
 70
     1
102
RTVSPropertyOp32
 70
     1
102
RTVSPropertyOp33
 70
     1
102
RTVSPropertyOp34
 70
     1
102
RTVSPropertyOp35
 70
     1
102
RTVSPropertyOp36
 70
     1
102
RTVSPropertyOp37
 70
     1
102
RTVSPropertyOp38
 70
     1
102
RTVSPropertyOp39
 70
     1
102
RTVSPropertyOp40
 70
     1
102
RTVSPropertyOp41
 70
     1
102
RTVSPropertyOp42
 70
     1
102
RTVSPropertyOp43
 70
     1
102
RTVSPropertyOp44
 70
     1
102
RTVSPropertyOp45
 70
     1
102
RTVSPropertyOp46
 70
     1
102
RTVSPropertyOp47
 70
     1
102
RTVSPropertyOp48
 70
     1
102
RTVSPropertyOp49
 70
     1
102
RTVSPropertyOp50
 70
     1
102
RTVSPropertyOp51
 70
     0
102
RTVSPropertyOp52
 70
     0
102
RTVSPropertyOp53
 70
     1
102
RTVSPropertyOp54
 70
     1
102
RTVSPropertyOp55
 70
     1
102
RTVSPropertyOp56
 70
     1
102
RTVSPropertyOp57
 70
     1
102
RTVSPost2010Prop28
280
     0
102
RTVSPost2010PropOp28
 70
     1
102
RTVSPost2010Prop29
280
     1
102
RTVSPost2010PropOp29
 70
     1
102
RTVSPost2010Prop30
280
     1
102
RTVSPost2010PropOp30
 70
     1
102
RTVSPost2010Prop31
280
     0
102
RTVSPost2010PropOp31
 70
     1
102
RTVSPost2010Prop32
280
     0
102
RTVSPost2010PropOp32
 70
     1
102
RTVSPost2010Prop33
280
     0
102
RTVSPost2010PropOp33
 70
     1
102
RTVSPost2010Prop34
280
     0
102
RTVSPost2010PropOp34
 70
     1
102
RTVSPost2010Prop35
280
     0
102
RTVSPost2010PropOp35
 70
     1
102
RTVSPost2010Prop36
280
     0
102
RTVSPost2010PropOp36
 70
     1
102
RTVSPost2010Prop37
 90
       50
102
RTVSPost2010PropOp37
 70
     1
102
RTVSPost2010Prop38
140
0.0
102
RTVSPost2010PropOp38
 70
     1
102
RTVSPost2010Prop39
140
1.0
102
RTVSPost2010PropOp39
 70
     1
102
RTVSPost2010Prop40
 90
        0
102
RTVSPost2010PropOp40
 70
     1
102
RTVSPost2010Prop41ColorIndex
 90
       18
102
RTVSPost2010Prop41ColorRGB
 90
        0
102
RTVSPost2010PropOp41
 70
     1
102
RTVSPost2010Prop42
 90
       50
102
RTVSPost2010PropOp42
 70
     1
102
RTVSPost2010Prop43
 90
        3
102
RTVSPost2010PropOp43
 70
     1
102
RTVSPost2010Prop44ColorIndex
 90
        5
102
RTVSPost2010Prop44ColorRGB
 90
      255
102
RTVSPost2010PropOp44
 70
     1
102
RTVSPost2010Prop45
280
     0
102
RTVSPost2010PropOp45
 70
     1
102
RTVSPost2010Prop46
 90
       50
102
RTVSPost2010PropOp46
 70
     1
102
RTVSPost2010Prop47
 90
       50
102
RTVSPost2010PropOp47
 70
     1
102
RTVSPost2010Prop48
 90
       50
102
RTVSPost2010PropOp48
 70
     1
102
RTVSPost2010Prop49
280
     0
102
RTVSPost2010PropOp49
 70
     1
102
RTVSPost2010Prop50
 90
       50
102
RTVSPost2010PropOp50
 70
     1
102
RTVSPost2010Prop51ColorIndex
 90
      256
102
RTVSPost2010Prop51ColorRGB
 90
-16777216
102
RTVSPost2010PropOp51
 70
     0
102
RTVSPost2010Prop52
140
1.0
102
RTVSPost2010PropOp52
 70
     0
102
RTVSPost2010Prop53
 90
        2
102
RTVSPost2010PropOp53
 70
     1
102
RTVSPost2010Prop54
  1
strokes_ogs.tif
102
RTVSPost2010PropOp54
 70
     1
102
RTVSPost2010Prop55
280
     0
102
RTVSPost2010PropOp55
 70
     1
102
RTVSPost2010Prop56
140
1.0
102
RTVSPost2010PropOp56
 70
     1
102
RTVSPost2010Prop57
140
1.0
102
RTVSPost2010PropOp57
 70
     1
  0
XRECORD
  5
581
102
{ACAD_REACTORS
330
580
102
}
330
580
100
AcDbXrecord
280
     1
102
RTVSPropertyOp0
 70
     0
102
RTVSPropertyOp1
 70
     0
102
RTVSPropertyOp2
 70
     0
102
RTVSPropertyOp3
 70
     0
102
RTVSPropertyOp4
 70
     0
102
RTVSPropertyOp5
 70
     0
102
RTVSPropertyOp6
 70
     0
102
RTVSPropertyOp7
 70
     0
102
RTVSPropertyOp8
 70
     0
102
RTVSPropertyOp9
 70
     0
102
RTVSPropertyOp10
 70
     0
102
RTVSPropertyOp11
 70
     0
102
RTVSPropertyOp12
 70
     0
102
RTVSPropertyOp13
 70
     0
102
RTVSPropertyOp14
 70
     0
102
RTVSPropertyOp15
 70
     0
102
RTVSPropertyOp16
 70
     0
102
RTVSPropertyOp17
 70
     0
102
RTVSPropertyOp18
 70
     0
102
RTVSPropertyOp19
 70
     0
102
RTVSPropertyOp20
 70
     0
102
RTVSPropertyOp21
 70
     0
102
RTVSPropertyOp22
 70
     0
102
RTVSPropertyOp23
 70
     0
102
RTVSPropertyOp24
 70
     0
102
RTVSPropertyOp25
 70
     0
102
RTVSPropertyOp26
 70
     0
102
RTVSPropertyOp27
 70
     0
102
RTVSPropertyOp28
 70
     1
102
RTVSPropertyOp29
 70
     1
102
RTVSPropertyOp30
 70
     1
102
RTVSPropertyOp31
 70
     1
102
RTVSPropertyOp32
 70
     1
102
RTVSPropertyOp33
 70
     1
102
RTVSPropertyOp34
 70
     1
102
RTVSPropertyOp35
 70
     1
102
RTVSPropertyOp36
 70
     1
102
RTVSPropertyOp37
 70
     1
102
RTVSPropertyOp38
 70
     1
102
RTVSPropertyOp39
 70
     1
102
RTVSPropertyOp40
 70
     1
102
RTVSPropertyOp41
 70
     1
102
RTVSPropertyOp42
 70
     1
102
RTVSPropertyOp43
 70
     1
102
RTVSPropertyOp44
 70
     1
102
RTVSPropertyOp45
 70
     1
102
RTVSPropertyOp46
 70
     1
102
RTVSPropertyOp47
 70
     1
102
RTVSPropertyOp48
 70
     1
102
RTVSPropertyOp49
 70
     1
102
RTVSPropertyOp50
 70
     1
102
RTVSPropertyOp51
 70
     0
102
RTVSPropertyOp52
 70
     0
102
RTVSPropertyOp53
 70
     1
102
RTVSPropertyOp54
 70
     1
102
RTVSPropertyOp55
 70
     1
102
RTVSPropertyOp56
 70
     1
102
RTVSPropertyOp57
 70
     1
102
RTVSPost2010Prop28
280
     0
102
RTVSPost2010PropOp28
 70
     1
102
RTVSPost2010Prop29
280
     1
102
RTVSPost2010PropOp29
 70
     1
102
RTVSPost2010Prop30
280
     1
102
RTVSPost2010PropOp30
 70
     1
102
RTVSPost2010Prop31
280
     0
102
RTVSPost2010PropOp31
 70
     1
102
RTVSPost2010Prop32
280
     0
102
RTVSPost2010PropOp32
 70
     1
102
RTVSPost2010Prop33
280
     0
102
RTVSPost2010PropOp33
 70
     1
102
RTVSPost2010Prop34
280
     0
102
RTVSPost2010PropOp34
 70
     1
102
RTVSPost2010Prop35
280
     0
102
RTVSPost2010PropOp35
 70
     1
102
RTVSPost2010Prop36
280
     0
102
RTVSPost2010PropOp36
 70
     1
102
RTVSPost2010Prop37
 90
       50
102
RTVSPost2010PropOp37
 70
     1
102
RTVSPost2010Prop38
140
0.0
102
RTVSPost2010PropOp38
 70
     1
102
RTVSPost2010Prop39
140
1.0
102
RTVSPost2010PropOp39
 70
     1
102
RTVSPost2010Prop40
 90
        0
102
RTVSPost2010PropOp40
 70
     1
102
RTVSPost2010Prop41ColorIndex
 90
       18
102
RTVSPost2010Prop41ColorRGB
 90
        0
102
RTVSPost2010PropOp41
 70
     1
102
RTVSPost2010Prop42
 90
       50
102
RTVSPost2010PropOp42
 70
     1
102
RTVSPost2010Prop43
 90
        3
102
RTVSPost2010PropOp43
 70
     1
102
RTVSPost2010Prop44ColorIndex
 90
        5
102
RTVSPost2010Prop44ColorRGB
 90
      255
102
RTVSPost2010PropOp44
 70
     1
102
RTVSPost2010Prop45
280
     0
102
RTVSPost2010PropOp45
 70
     1
102
RTVSPost2010Prop46
 90
       50
102
RTVSPost2010PropOp46
 70
     1
102
RTVSPost2010Prop47
 90
       50
102
RTVSPost2010PropOp47
 70
     1
102
RTVSPost2010Prop48
 90
       50
102
RTVSPost2010PropOp48
 70
     1
102
RTVSPost2010Prop49
280
     0
102
RTVSPost2010PropOp49
 70
     1
102
RTVSPost2010Prop50
 90
       50
102
RTVSPost2010PropOp50
 70
     1
102
RTVSPost2010Prop51ColorIndex
 90
      256
102
RTVSPost2010Prop51ColorRGB
 90
-16777216
102
RTVSPost2010PropOp51
 70
     0
102
RTVSPost2010Prop52
140
1.0
102
RTVSPost2010PropOp52
 70
     0
102
RTVSPost2010Prop53
 90
        2
102
RTVSPost2010PropOp53
 70
     1
102
RTVSPost2010Prop54
  1
strokes_ogs.tif
102
RTVSPost2010PropOp54
 70
     1
102
RTVSPost2010Prop55
280
     0
102
RTVSPost2010PropOp55
 70
     1
102
RTVSPost2010Prop56
140
1.0
102
RTVSPost2010PropOp56
 70
     1
102
RTVSPost2010Prop57
140
1.0
102
RTVSPost2010PropOp57
 70
     1
  0
XRECORD
  5
56F
102
{ACAD_REACTORS
330
56E
102
}
330
56E
100
AcDbXrecord
280
     1
102
RTVSPropertyOp0
 70
     1
102
RTVSPropertyOp1
 70
     1
102
RTVSPropertyOp2
 70
     1
102
RTVSPropertyOp3
 70
     1
102
RTVSPropertyOp4
 70
     1
102
RTVSPropertyOp5
 70
     1
102
RTVSPropertyOp6
 70
     1
102
RTVSPropertyOp7
 70
     1
102
RTVSPropertyOp8
 70
     1
102
RTVSPropertyOp9
 70
     1
102
RTVSPropertyOp10
 70
     1
102
RTVSPropertyOp11
 70
     1
102
RTVSPropertyOp12
 70
     1
102
RTVSPropertyOp13
 70
     1
102
RTVSPropertyOp14
 70
     1
102
RTVSPropertyOp15
 70
     1
102
RTVSPropertyOp16
 70
     1
102
RTVSPropertyOp17
 70
     1
102
RTVSPropertyOp18
 70
     1
102
RTVSPropertyOp19
 70
     1
102
RTVSPropertyOp20
 70
     1
102
RTVSPropertyOp21
 70
     1
102
RTVSPropertyOp22
 70
     1
102
RTVSPropertyOp23
 70
     1
102
RTVSPropertyOp24
 70
     1
102
RTVSPropertyOp25
 70
     1
102
RTVSPropertyOp26
 70
     1
102
RTVSPropertyOp27
 70
     1
102
RTVSPropertyOp28
 70
     1
102
RTVSPropertyOp29
 70
     1
102
RTVSPropertyOp30
 70
     1
102
RTVSPropertyOp31
 70
     1
102
RTVSPropertyOp32
 70
     1
102
RTVSPropertyOp33
 70
     1
102
RTVSPropertyOp34
 70
     1
102
RTVSPropertyOp35
 70
     1
102
RTVSPropertyOp36
 70
     1
102
RTVSPropertyOp37
 70
     1
102
RTVSPropertyOp38
 70
     1
102
RTVSPropertyOp39
 70
     1
102
RTVSPropertyOp40
 70
     1
102
RTVSPropertyOp41
 70
     1
102
RTVSPropertyOp42
 70
     1
102
RTVSPropertyOp43
 70
     1
102
RTVSPropertyOp44
 70
     1
102
RTVSPropertyOp45
 70
     1
102
RTVSPropertyOp46
 70
     1
102
RTVSPropertyOp47
 70
     1
102
RTVSPropertyOp48
 70
     1
102
RTVSPropertyOp49
 70
     1
102
RTVSPropertyOp50
 70
     1
102
RTVSPropertyOp51
 70
     0
102
RTVSPropertyOp52
 70
     0
102
RTVSPropertyOp53
 70
     1
102
RTVSPropertyOp54
 70
     1
102
RTVSPropertyOp55
 70
     1
102
RTVSPropertyOp56
 70
     1
102
RTVSPropertyOp57
 70
     1
102
RTVSPost2010Prop28
280
     0
102
RTVSPost2010PropOp28
 70
     1
102
RTVSPost2010Prop29
280
     1
102
RTVSPost2010PropOp29
 70
     1
102
RTVSPost2010Prop30
280
     1
102
RTVSPost2010PropOp30
 70
     1
102
RTVSPost2010Prop31
280
     0
102
RTVSPost2010PropOp31
 70
     1
102
RTVSPost2010Prop32
280
     0
102
RTVSPost2010PropOp32
 70
     1
102
RTVSPost2010Prop33
280
     0
102
RTVSPost2010PropOp33
 70
     1
102
RTVSPost2010Prop34
280
     0
102
RTVSPost2010PropOp34
 70
     1
102
RTVSPost2010Prop35
280
     0
102
RTVSPost2010PropOp35
 70
     1
102
RTVSPost2010Prop36
280
     0
102
RTVSPost2010PropOp36
 70
     1
102
RTVSPost2010Prop37
 90
       50
102
RTVSPost2010PropOp37
 70
     1
102
RTVSPost2010Prop38
140
0.0
102
RTVSPost2010PropOp38
 70
     1
102
RTVSPost2010Prop39
140
1.0
102
RTVSPost2010PropOp39
 70
     1
102
RTVSPost2010Prop40
 90
        0
102
RTVSPost2010PropOp40
 70
     1
102
RTVSPost2010Prop41ColorIndex
 90
       18
102
RTVSPost2010Prop41ColorRGB
 90
        0
102
RTVSPost2010PropOp41
 70
     1
102
RTVSPost2010Prop42
 90
       50
102
RTVSPost2010PropOp42
 70
     1
102
RTVSPost2010Prop43
 90
        3
102
RTVSPost2010PropOp43
 70
     1
102
RTVSPost2010Prop44ColorIndex
 90
        5
102
RTVSPost2010Prop44ColorRGB
 90
      255
102
RTVSPost2010PropOp44
 70
     1
102
RTVSPost2010Prop45
280
     0
102
RTVSPost2010PropOp45
 70
     1
102
RTVSPost2010Prop46
 90
       50
102
RTVSPost2010PropOp46
 70
     1
102
RTVSPost2010Prop47
 90
       50
102
RTVSPost2010PropOp47
 70
     1
102
RTVSPost2010Prop48
 90
       50
102
RTVSPost2010PropOp48
 70
     1
102
RTVSPost2010Prop49
280
     0
102
RTVSPost2010PropOp49
 70
     1
102
RTVSPost2010Prop50
 90
       50
102
RTVSPost2010PropOp50
 70
     1
102
RTVSPost2010Prop51ColorIndex
 90
      256
102
RTVSPost2010Prop51ColorRGB
 90
-16777216
102
RTVSPost2010PropOp51
 70
     0
102
RTVSPost2010Prop52
140
1.0
102
RTVSPost2010PropOp52
 70
     0
102
RTVSPost2010Prop53
 90
        2
102
RTVSPost2010PropOp53
 70
     1
102
RTVSPost2010Prop54
  1
strokes_ogs.tif
102
RTVSPost2010PropOp54
 70
     1
102
RTVSPost2010Prop55
280
     0
102
RTVSPost2010PropOp55
 70
     1
102
RTVSPost2010Prop56
140
1.0
102
RTVSPost2010PropOp56
 70
     1
102
RTVSPost2010Prop57
140
1.0
102
RTVSPost2010PropOp57
 70
     1
  0
XRECORD
  5
58D
102
{ACAD_REACTORS
330
58C
102
}
330
58C
100
AcDbXrecord
280
     1
102
RTVSPropertyOp0
 70
     1
102
RTVSPropertyOp1
 70
     1
102
RTVSPropertyOp2
 70
     1
102
RTVSPropertyOp3
 70
     1
102
RTVSPropertyOp4
 70
     1
102
RTVSPropertyOp5
 70
     1
102
RTVSPropertyOp6
 70
     1
102
RTVSPropertyOp7
 70
     1
102
RTVSPropertyOp8
 70
     1
102
RTVSPropertyOp9
 70
     1
102
RTVSPropertyOp10
 70
     1
102
RTVSPropertyOp11
 70
     1
102
RTVSPropertyOp12
 70
     1
102
RTVSPropertyOp13
 70
     1
102
RTVSPropertyOp14
 70
     1
102
RTVSPropertyOp15
 70
     1
102
RTVSPropertyOp16
 70
     1
102
RTVSPropertyOp17
 70
     1
102
RTVSPropertyOp18
 70
     1
102
RTVSPropertyOp19
 70
     1
102
RTVSPropertyOp20
 70
     1
102
RTVSPropertyOp21
 70
     1
102
RTVSPropertyOp22
 70
     1
102
RTVSPropertyOp23
 70
     1
102
RTVSPropertyOp24
 70
     1
102
RTVSPropertyOp25
 70
     1
102
RTVSPropertyOp26
 70
     1
102
RTVSPropertyOp27
 70
     1
102
RTVSPropertyOp28
 70
     1
102
RTVSPropertyOp29
 70
     1
102
RTVSPropertyOp30
 70
     1
102
RTVSPropertyOp31
 70
     1
102
RTVSPropertyOp32
 70
     1
102
RTVSPropertyOp33
 70
     1
102
RTVSPropertyOp34
 70
     1
102
RTVSPropertyOp35
 70
     1
102
RTVSPropertyOp36
 70
     1
102
RTVSPropertyOp37
 70
     1
102
RTVSPropertyOp38
 70
     1
102
RTVSPropertyOp39
 70
     1
102
RTVSPropertyOp40
 70
     1
102
RTVSPropertyOp41
 70
     1
102
RTVSPropertyOp42
 70
     1
102
RTVSPropertyOp43
 70
     1
102
RTVSPropertyOp44
 70
     1
102
RTVSPropertyOp45
 70
     1
102
RTVSPropertyOp46
 70
     1
102
RTVSPropertyOp47
 70
     1
102
RTVSPropertyOp48
 70
     1
102
RTVSPropertyOp49
 70
     1
102
RTVSPropertyOp50
 70
     1
102
RTVSPropertyOp51
 70
     0
102
RTVSPropertyOp52
 70
     0
102
RTVSPropertyOp53
 70
     1
102
RTVSPropertyOp54
 70
     1
102
RTVSPropertyOp55
 70
     1
102
RTVSPropertyOp56
 70
     1
102
RTVSPropertyOp57
 70
     1
102
RTVSPost2010Prop28
280
     0
102
RTVSPost2010PropOp28
 70
     1
102
RTVSPost2010Prop29
280
     1
102
RTVSPost2010PropOp29
 70
     1
102
RTVSPost2010Prop30
280
     1
102
RTVSPost2010PropOp30
 70
     1
102
RTVSPost2010Prop31
280
     0
102
RTVSPost2010PropOp31
 70
     1
102
RTVSPost2010Prop32
280
     0
102
RTVSPost2010PropOp32
 70
     1
102
RTVSPost2010Prop33
280
     0
102
RTVSPost2010PropOp33
 70
     1
102
RTVSPost2010Prop34
280
     0
102
RTVSPost2010PropOp34
 70
     1
102
RTVSPost2010Prop35
280
     0
102
RTVSPost2010PropOp35
 70
     1
102
RTVSPost2010Prop36
280
     0
102
RTVSPost2010PropOp36
 70
     1
102
RTVSPost2010Prop37
 90
       50
102
RTVSPost2010PropOp37
 70
     1
102
RTVSPost2010Prop38
140
0.0
102
RTVSPost2010PropOp38
 70
     1
102
RTVSPost2010Prop39
140
1.0
102
RTVSPost2010PropOp39
 70
     1
102
RTVSPost2010Prop40
 90
        0
102
RTVSPost2010PropOp40
 70
     1
102
RTVSPost2010Prop41ColorIndex
 90
       18
102
RTVSPost2010Prop41ColorRGB
 90
        0
102
RTVSPost2010PropOp41
 70
     1
102
RTVSPost2010Prop42
 90
       50
102
RTVSPost2010PropOp42
 70
     1
102
RTVSPost2010Prop43
 90
        3
102
RTVSPost2010PropOp43
 70
     1
102
RTVSPost2010Prop44ColorIndex
 90
        5
102
RTVSPost2010Prop44ColorRGB
 90
      255
102
RTVSPost2010PropOp44
 70
     1
102
RTVSPost2010Prop45
280
     0
102
RTVSPost2010PropOp45
 70
     1
102
RTVSPost2010Prop46
 90
       50
102
RTVSPost2010PropOp46
 70
     1
102
RTVSPost2010Prop47
 90
       50
102
RTVSPost2010PropOp47
 70
     1
102
RTVSPost2010Prop48
 90
       50
102
RTVSPost2010PropOp48
 70
     1
102
RTVSPost2010Prop49
280
     0
102
RTVSPost2010PropOp49
 70
     1
102
RTVSPost2010Prop50
 90
       50
102
RTVSPost2010PropOp50
 70
     1
102
RTVSPost2010Prop51ColorIndex
 90
      256
102
RTVSPost2010Prop51ColorRGB
 90
-16777216
102
RTVSPost2010PropOp51
 70
     0
102
RTVSPost2010Prop52
140
1.0
102
RTVSPost2010PropOp52
 70
     0
102
RTVSPost2010Prop53
 90
        2
102
RTVSPost2010PropOp53
 70
     1
102
RTVSPost2010Prop54
  1
strokes_ogs.tif
102
RTVSPost2010PropOp54
 70
     1
102
RTVSPost2010Prop55
280
     0
102
RTVSPost2010PropOp55
 70
     1
102
RTVSPost2010Prop56
140
1.0
102
RTVSPost2010PropOp56
 70
     1
102
RTVSPost2010Prop57
140
1.0
102
RTVSPost2010PropOp57
 70
     1
  0
XRECORD
  5
58B
102
{ACAD_REACTORS
330
58A
102
}
330
58A
100
AcDbXrecord
280
     1
102
RTVSPropertyOp0
 70
     1
102
RTVSPropertyOp1
 70
     1
102
RTVSPropertyOp2
 70
     1
102
RTVSPropertyOp3
 70
     1
102
RTVSPropertyOp4
 70
     1
102
RTVSPropertyOp5
 70
     1
102
RTVSPropertyOp6
 70
     1
102
RTVSPropertyOp7
 70
     1
102
RTVSPropertyOp8
 70
     1
102
RTVSPropertyOp9
 70
     1
102
RTVSPropertyOp10
 70
     1
102
RTVSPropertyOp11
 70
     1
102
RTVSPropertyOp12
 70
     1
102
RTVSPropertyOp13
 70
     1
102
RTVSPropertyOp14
 70
     1
102
RTVSPropertyOp15
 70
     1
102
RTVSPropertyOp16
 70
     1
102
RTVSPropertyOp17
 70
     1
102
RTVSPropertyOp18
 70
     1
102
RTVSPropertyOp19
 70
     1
102
RTVSPropertyOp20
 70
     1
102
RTVSPropertyOp21
 70
     1
102
RTVSPropertyOp22
 70
     1
102
RTVSPropertyOp23
 70
     1
102
RTVSPropertyOp24
 70
     1
102
RTVSPropertyOp25
 70
     1
102
RTVSPropertyOp26
 70
     1
102
RTVSPropertyOp27
 70
     1
102
RTVSPropertyOp28
 70
     1
102
RTVSPropertyOp29
 70
     1
102
RTVSPropertyOp30
 70
     1
102
RTVSPropertyOp31
 70
     1
102
RTVSPropertyOp32
 70
     1
102
RTVSPropertyOp33
 70
     1
102
RTVSPropertyOp34
 70
     1
102
RTVSPropertyOp35
 70
     1
102
RTVSPropertyOp36
 70
     1
102
RTVSPropertyOp37
 70
     1
102
RTVSPropertyOp38
 70
     1
102
RTVSPropertyOp39
 70
     1
102
RTVSPropertyOp40
 70
     1
102
RTVSPropertyOp41
 70
     1
102
RTVSPropertyOp42
 70
     1
102
RTVSPropertyOp43
 70
     1
102
RTVSPropertyOp44
 70
     1
102
RTVSPropertyOp45
 70
     1
102
RTVSPropertyOp46
 70
     1
102
RTVSPropertyOp47
 70
     1
102
RTVSPropertyOp48
 70
     1
102
RTVSPropertyOp49
 70
     1
102
RTVSPropertyOp50
 70
     1
102
RTVSPropertyOp51
 70
     0
102
RTVSPropertyOp52
 70
     0
102
RTVSPropertyOp53
 70
     1
102
RTVSPropertyOp54
 70
     1
102
RTVSPropertyOp55
 70
     1
102
RTVSPropertyOp56
 70
     1
102
RTVSPropertyOp57
 70
     1
102
RTVSPost2010Prop28
280
     0
102
RTVSPost2010PropOp28
 70
     1
102
RTVSPost2010Prop29
280
     1
102
RTVSPost2010PropOp29
 70
     1
102
RTVSPost2010Prop30
280
     1
102
RTVSPost2010PropOp30
 70
     1
102
RTVSPost2010Prop31
280
     0
102
RTVSPost2010PropOp31
 70
     1
102
RTVSPost2010Prop32
280
     0
102
RTVSPost2010PropOp32
 70
     1
102
RTVSPost2010Prop33
280
     0
102
RTVSPost2010PropOp33
 70
     1
102
RTVSPost2010Prop34
280
     0
102
RTVSPost2010PropOp34
 70
     1
102
RTVSPost2010Prop35
280
     0
102
RTVSPost2010PropOp35
 70
     1
102
RTVSPost2010Prop36
280
     0
102
RTVSPost2010PropOp36
 70
     1
102
RTVSPost2010Prop37
 90
       50
102
RTVSPost2010PropOp37
 70
     1
102
RTVSPost2010Prop38
140
0.0
102
RTVSPost2010PropOp38
 70
     1
102
RTVSPost2010Prop39
140
1.0
102
RTVSPost2010PropOp39
 70
     1
102
RTVSPost2010Prop40
 90
        0
102
RTVSPost2010PropOp40
 70
     1
102
RTVSPost2010Prop41ColorIndex
 90
       18
102
RTVSPost2010Prop41ColorRGB
 90
        0
102
RTVSPost2010PropOp41
 70
     1
102
RTVSPost2010Prop42
 90
       50
102
RTVSPost2010PropOp42
 70
     1
102
RTVSPost2010Prop43
 90
        3
102
RTVSPost2010PropOp43
 70
     1
102
RTVSPost2010Prop44ColorIndex
 90
        5
102
RTVSPost2010Prop44ColorRGB
 90
      255
102
RTVSPost2010PropOp44
 70
     1
102
RTVSPost2010Prop45
280
     0
102
RTVSPost2010PropOp45
 70
     1
102
RTVSPost2010Prop46
 90
       50
102
RTVSPost2010PropOp46
 70
     1
102
RTVSPost2010Prop47
 90
       50
102
RTVSPost2010PropOp47
 70
     1
102
RTVSPost2010Prop48
 90
       50
102
RTVSPost2010PropOp48
 70
     1
102
RTVSPost2010Prop49
280
     0
102
RTVSPost2010PropOp49
 70
     1
102
RTVSPost2010Prop50
 90
       50
102
RTVSPost2010PropOp50
 70
     1
102
RTVSPost2010Prop51ColorIndex
 90
      256
102
RTVSPost2010Prop51ColorRGB
 90
-16777216
102
RTVSPost2010PropOp51
 70
     0
102
RTVSPost2010Prop52
140
1.0
102
RTVSPost2010PropOp52
 70
     0
102
RTVSPost2010Prop53
 90
        2
102
RTVSPost2010PropOp53
 70
     1
102
RTVSPost2010Prop54
  1
strokes_ogs.tif
102
RTVSPost2010PropOp54
 70
     1
102
RTVSPost2010Prop55
280
     0
102
RTVSPost2010PropOp55
 70
     1
102
RTVSPost2010Prop56
140
1.0
102
RTVSPost2010PropOp56
 70
     1
102
RTVSPost2010Prop57
140
1.0
102
RTVSPost2010PropOp57
 70
     1
  0
XRECORD
  5
585
102
{ACAD_REACTORS
330
584
102
}
330
584
100
AcDbXrecord
280
     1
102
RTVSPropertyOp0
 70
     1
102
RTVSPropertyOp1
 70
     1
102
RTVSPropertyOp2
 70
     1
102
RTVSPropertyOp3
 70
     1
102
RTVSPropertyOp4
 70
     1
102
RTVSPropertyOp5
 70
     1
102
RTVSPropertyOp6
 70
     1
102
RTVSPropertyOp7
 70
     1
102
RTVSPropertyOp8
 70
     1
102
RTVSPropertyOp9
 70
     1
102
RTVSPropertyOp10
 70
     1
102
RTVSPropertyOp11
 70
     1
102
RTVSPropertyOp12
 70
     1
102
RTVSPropertyOp13
 70
     1
102
RTVSPropertyOp14
 70
     1
102
RTVSPropertyOp15
 70
     1
102
RTVSPropertyOp16
 70
     1
102
RTVSPropertyOp17
 70
     1
102
RTVSPropertyOp18
 70
     1
102
RTVSPropertyOp19
 70
     1
102
RTVSPropertyOp20
 70
     1
102
RTVSPropertyOp21
 70
     1
102
RTVSPropertyOp22
 70
     1
102
RTVSPropertyOp23
 70
     1
102
RTVSPropertyOp24
 70
     1
102
RTVSPropertyOp25
 70
     1
102
RTVSPropertyOp26
 70
     1
102
RTVSPropertyOp27
 70
     1
102
RTVSPropertyOp28
 70
     1
102
RTVSPropertyOp29
 70
     1
102
RTVSPropertyOp30
 70
     1
102
RTVSPropertyOp31
 70
     1
102
RTVSPropertyOp32
 70
     1
102
RTVSPropertyOp33
 70
     1
102
RTVSPropertyOp34
 70
     1
102
RTVSPropertyOp35
 70
     1
102
RTVSPropertyOp36
 70
     1
102
RTVSPropertyOp37
 70
     1
102
RTVSPropertyOp38
 70
     1
102
RTVSPropertyOp39
 70
     1
102
RTVSPropertyOp40
 70
     1
102
RTVSPropertyOp41
 70
     1
102
RTVSPropertyOp42
 70
     1
102
RTVSPropertyOp43
 70
     1
102
RTVSPropertyOp44
 70
     1
102
RTVSPropertyOp45
 70
     1
102
RTVSPropertyOp46
 70
     1
102
RTVSPropertyOp47
 70
     1
102
RTVSPropertyOp48
 70
     1
102
RTVSPropertyOp49
 70
     1
102
RTVSPropertyOp50
 70
     1
102
RTVSPropertyOp51
 70
     0
102
RTVSPropertyOp52
 70
     0
102
RTVSPropertyOp53
 70
     1
102
RTVSPropertyOp54
 70
     1
102
RTVSPropertyOp55
 70
     1
102
RTVSPropertyOp56
 70
     1
102
RTVSPropertyOp57
 70
     1
102
RTVSPost2010Prop28
280
     0
102
RTVSPost2010PropOp28
 70
     1
102
RTVSPost2010Prop29
280
     1
102
RTVSPost2010PropOp29
 70
     1
102
RTVSPost2010Prop30
280
     1
102
RTVSPost2010PropOp30
 70
     1
102
RTVSPost2010Prop31
280
     0
102
RTVSPost2010PropOp31
 70
     1
102
RTVSPost2010Prop32
280
     0
102
RTVSPost2010PropOp32
 70
     1
102
RTVSPost2010Prop33
280
     0
102
RTVSPost2010PropOp33
 70
     1
102
RTVSPost2010Prop34
280
     0
102
RTVSPost2010PropOp34
 70
     1
102
RTVSPost2010Prop35
280
     0
102
RTVSPost2010PropOp35
 70
     1
102
RTVSPost2010Prop36
280
     0
102
RTVSPost2010PropOp36
 70
     1
102
RTVSPost2010Prop37
 90
       50
102
RTVSPost2010PropOp37
 70
     1
102
RTVSPost2010Prop38
140
0.0
102
RTVSPost2010PropOp38
 70
     1
102
RTVSPost2010Prop39
140
1.0
102
RTVSPost2010PropOp39
 70
     1
102
RTVSPost2010Prop40
 90
        0
102
RTVSPost2010PropOp40
 70
     1
102
RTVSPost2010Prop41ColorIndex
 90
       18
102
RTVSPost2010Prop41ColorRGB
 90
        0
102
RTVSPost2010PropOp41
 70
     1
102
RTVSPost2010Prop42
 90
       50
102
RTVSPost2010PropOp42
 70
     1
102
RTVSPost2010Prop43
 90
        3
102
RTVSPost2010PropOp43
 70
     1
102
RTVSPost2010Prop44ColorIndex
 90
        5
102
RTVSPost2010Prop44ColorRGB
 90
      255
102
RTVSPost2010PropOp44
 70
     1
102
RTVSPost2010Prop45
280
     0
102
RTVSPost2010PropOp45
 70
     1
102
RTVSPost2010Prop46
 90
       50
102
RTVSPost2010PropOp46
 70
     1
102
RTVSPost2010Prop47
 90
       50
102
RTVSPost2010PropOp47
 70
     1
102
RTVSPost2010Prop48
 90
       50
102
RTVSPost2010PropOp48
 70
     1
102
RTVSPost2010Prop49
280
     0
102
RTVSPost2010PropOp49
 70
     1
102
RTVSPost2010Prop50
 90
       50
102
RTVSPost2010PropOp50
 70
     1
102
RTVSPost2010Prop51ColorIndex
 90
      256
102
RTVSPost2010Prop51ColorRGB
 90
-16777216
102
RTVSPost2010PropOp51
 70
     0
102
RTVSPost2010Prop52
140
1.0
102
RTVSPost2010PropOp52
 70
     0
102
RTVSPost2010Prop53
 90
        2
102
RTVSPost2010PropOp53
 70
     1
102
RTVSPost2010Prop54
  1
strokes_ogs.tif
102
RTVSPost2010PropOp54
 70
     1
102
RTVSPost2010Prop55
280
     0
102
RTVSPost2010PropOp55
 70
     1
102
RTVSPost2010Prop56
140
1.0
102
RTVSPost2010PropOp56
 70
     1
102
RTVSPost2010Prop57
140
1.0
102
RTVSPost2010PropOp57
 70
     1
  0
XRECORD
  5
587
102
{ACAD_REACTORS
330
586
102
}
330
586
100
AcDbXrecord
280
     1
102
RTVSPropertyOp0
 70
     1
102
RTVSPropertyOp1
 70
     1
102
RTVSPropertyOp2
 70
     1
102
RTVSPropertyOp3
 70
     1
102
RTVSPropertyOp4
 70
     1
102
RTVSPropertyOp5
 70
     1
102
RTVSPropertyOp6
 70
     1
102
RTVSPropertyOp7
 70
     1
102
RTVSPropertyOp8
 70
     1
102
RTVSPropertyOp9
 70
     1
102
RTVSPropertyOp10
 70
     1
102
RTVSPropertyOp11
 70
     1
102
RTVSPropertyOp12
 70
     1
102
RTVSPropertyOp13
 70
     1
102
RTVSPropertyOp14
 70
     1
102
RTVSPropertyOp15
 70
     1
102
RTVSPropertyOp16
 70
     1
102
RTVSPropertyOp17
 70
     1
102
RTVSPropertyOp18
 70
     1
102
RTVSPropertyOp19
 70
     1
102
RTVSPropertyOp20
 70
     1
102
RTVSPropertyOp21
 70
     1
102
RTVSPropertyOp22
 70
     1
102
RTVSPropertyOp23
 70
     1
102
RTVSPropertyOp24
 70
     1
102
RTVSPropertyOp25
 70
     1
102
RTVSPropertyOp26
 70
     1
102
RTVSPropertyOp27
 70
     1
102
RTVSPropertyOp28
 70
     1
102
RTVSPropertyOp29
 70
     1
102
RTVSPropertyOp30
 70
     1
102
RTVSPropertyOp31
 70
     1
102
RTVSPropertyOp32
 70
     1
102
RTVSPropertyOp33
 70
     1
102
RTVSPropertyOp34
 70
     1
102
RTVSPropertyOp35
 70
     1
102
RTVSPropertyOp36
 70
     1
102
RTVSPropertyOp37
 70
     1
102
RTVSPropertyOp38
 70
     1
102
RTVSPropertyOp39
 70
     1
102
RTVSPropertyOp40
 70
     1
102
RTVSPropertyOp41
 70
     1
102
RTVSPropertyOp42
 70
     1
102
RTVSPropertyOp43
 70
     1
102
RTVSPropertyOp44
 70
     1
102
RTVSPropertyOp45
 70
     1
102
RTVSPropertyOp46
 70
     1
102
RTVSPropertyOp47
 70
     1
102
RTVSPropertyOp48
 70
     1
102
RTVSPropertyOp49
 70
     1
102
RTVSPropertyOp50
 70
     1
102
RTVSPropertyOp51
 70
     0
102
RTVSPropertyOp52
 70
     0
102
RTVSPropertyOp53
 70
     1
102
RTVSPropertyOp54
 70
     1
102
RTVSPropertyOp55
 70
     1
102
RTVSPropertyOp56
 70
     1
102
RTVSPropertyOp57
 70
     1
102
RTVSPost2010Prop28
280
     0
102
RTVSPost2010PropOp28
 70
     1
102
RTVSPost2010Prop29
280
     1
102
RTVSPost2010PropOp29
 70
     1
102
RTVSPost2010Prop30
280
     1
102
RTVSPost2010PropOp30
 70
     1
102
RTVSPost2010Prop31
280
     0
102
RTVSPost2010PropOp31
 70
     1
102
RTVSPost2010Prop32
280
     0
102
RTVSPost2010PropOp32
 70
     1
102
RTVSPost2010Prop33
280
     0
102
RTVSPost2010PropOp33
 70
     1
102
RTVSPost2010Prop34
280
     0
102
RTVSPost2010PropOp34
 70
     1
102
RTVSPost2010Prop35
280
     0
102
RTVSPost2010PropOp35
 70
     1
102
RTVSPost2010Prop36
280
     0
102
RTVSPost2010PropOp36
 70
     1
102
RTVSPost2010Prop37
 90
       50
102
RTVSPost2010PropOp37
 70
     1
102
RTVSPost2010Prop38
140
0.0
102
RTVSPost2010PropOp38
 70
     1
102
RTVSPost2010Prop39
140
1.0
102
RTVSPost2010PropOp39
 70
     1
102
RTVSPost2010Prop40
 90
        0
102
RTVSPost2010PropOp40
 70
     1
102
RTVSPost2010Prop41ColorIndex
 90
       18
102
RTVSPost2010Prop41ColorRGB
 90
        0
102
RTVSPost2010PropOp41
 70
     1
102
RTVSPost2010Prop42
 90
       50
102
RTVSPost2010PropOp42
 70
     1
102
RTVSPost2010Prop43
 90
        3
102
RTVSPost2010PropOp43
 70
     1
102
RTVSPost2010Prop44ColorIndex
 90
        5
102
RTVSPost2010Prop44ColorRGB
 90
      255
102
RTVSPost2010PropOp44
 70
     1
102
RTVSPost2010Prop45
280
     0
102
RTVSPost2010PropOp45
 70
     1
102
RTVSPost2010Prop46
 90
       50
102
RTVSPost2010PropOp46
 70
     1
102
RTVSPost2010Prop47
 90
       50
102
RTVSPost2010PropOp47
 70
     1
102
RTVSPost2010Prop48
 90
       50
102
RTVSPost2010PropOp48
 70
     1
102
RTVSPost2010Prop49
280
     0
102
RTVSPost2010PropOp49
 70
     1
102
RTVSPost2010Prop50
 90
       50
102
RTVSPost2010PropOp50
 70
     1
102
RTVSPost2010Prop51ColorIndex
 90
      256
102
RTVSPost2010Prop51ColorRGB
 90
-16777216
102
RTVSPost2010PropOp51
 70
     0
102
RTVSPost2010Prop52
140
1.0
102
RTVSPost2010PropOp52
 70
     0
102
RTVSPost2010Prop53
 90
        2
102
RTVSPost2010PropOp53
 70
     1
102
RTVSPost2010Prop54
  1
strokes_ogs.tif
102
RTVSPost2010PropOp54
 70
     1
102
RTVSPost2010Prop55
280
     0
102
RTVSPost2010PropOp55
 70
     1
102
RTVSPost2010Prop56
140
1.0
102
RTVSPost2010PropOp56
 70
     1
102
RTVSPost2010Prop57
140
1.0
102
RTVSPost2010PropOp57
 70
     1
  0
XRECORD
  5
577
102
{ACAD_REACTORS
330
576
102
}
330
576
100
AcDbXrecord
280
     1
102
RTVSPropertyOp0
 70
     1
102
RTVSPropertyOp1
 70
     1
102
RTVSPropertyOp2
 70
     1
102
RTVSPropertyOp3
 70
     1
102
RTVSPropertyOp4
 70
     1
102
RTVSPropertyOp5
 70
     1
102
RTVSPropertyOp6
 70
     1
102
RTVSPropertyOp7
 70
     1
102
RTVSPropertyOp8
 70
     1
102
RTVSPropertyOp9
 70
     1
102
RTVSPropertyOp10
 70
     1
102
RTVSPropertyOp11
 70
     1
102
RTVSPropertyOp12
 70
     1
102
RTVSPropertyOp13
 70
     1
102
RTVSPropertyOp14
 70
     1
102
RTVSPropertyOp15
 70
     1
102
RTVSPropertyOp16
 70
     1
102
RTVSPropertyOp17
 70
     1
102
RTVSPropertyOp18
 70
     1
102
RTVSPropertyOp19
 70
     1
102
RTVSPropertyOp20
 70
     1
102
RTVSPropertyOp21
 70
     1
102
RTVSPropertyOp22
 70
     1
102
RTVSPropertyOp23
 70
     1
102
RTVSPropertyOp24
 70
     1
102
RTVSPropertyOp25
 70
     1
102
RTVSPropertyOp26
 70
     1
102
RTVSPropertyOp27
 70
     1
102
RTVSPropertyOp28
 70
     1
102
RTVSPropertyOp29
 70
     1
102
RTVSPropertyOp30
 70
     1
102
RTVSPropertyOp31
 70
     1
102
RTVSPropertyOp32
 70
     1
102
RTVSPropertyOp33
 70
     1
102
RTVSPropertyOp34
 70
     1
102
RTVSPropertyOp35
 70
     1
102
RTVSPropertyOp36
 70
     1
102
RTVSPropertyOp37
 70
     1
102
RTVSPropertyOp38
 70
     1
102
RTVSPropertyOp39
 70
     1
102
RTVSPropertyOp40
 70
     1
102
RTVSPropertyOp41
 70
     1
102
RTVSPropertyOp42
 70
     1
102
RTVSPropertyOp43
 70
     1
102
RTVSPropertyOp44
 70
     1
102
RTVSPropertyOp45
 70
     1
102
RTVSPropertyOp46
 70
     1
102
RTVSPropertyOp47
 70
     1
102
RTVSPropertyOp48
 70
     1
102
RTVSPropertyOp49
 70
     1
102
RTVSPropertyOp50
 70
     1
102
RTVSPropertyOp51
 70
     0
102
RTVSPropertyOp52
 70
     0
102
RTVSPropertyOp53
 70
     1
102
RTVSPropertyOp54
 70
     1
102
RTVSPropertyOp55
 70
     1
102
RTVSPropertyOp56
 70
     1
102
RTVSPropertyOp57
 70
     1
102
RTVSPost2010Prop28
280
     0
102
RTVSPost2010PropOp28
 70
     1
102
RTVSPost2010Prop29
280
     1
102
RTVSPost2010PropOp29
 70
     1
102
RTVSPost2010Prop30
280
     1
102
RTVSPost2010PropOp30
 70
     1
102
RTVSPost2010Prop31
280
     0
102
RTVSPost2010PropOp31
 70
     1
102
RTVSPost2010Prop32
280
     0
102
RTVSPost2010PropOp32
 70
     1
102
RTVSPost2010Prop33
280
     0
102
RTVSPost2010PropOp33
 70
     1
102
RTVSPost2010Prop34
280
     0
102
RTVSPost2010PropOp34
 70
     1
102
RTVSPost2010Prop35
280
     0
102
RTVSPost2010PropOp35
 70
     1
102
RTVSPost2010Prop36
280
     0
102
RTVSPost2010PropOp36
 70
     1
102
RTVSPost2010Prop37
 90
       50
102
RTVSPost2010PropOp37
 70
     1
102
RTVSPost2010Prop38
140
0.0
102
RTVSPost2010PropOp38
 70
     1
102
RTVSPost2010Prop39
140
1.0
102
RTVSPost2010PropOp39
 70
     1
102
RTVSPost2010Prop40
 90
        0
102
RTVSPost2010PropOp40
 70
     1
102
RTVSPost2010Prop41ColorIndex
 90
       18
102
RTVSPost2010Prop41ColorRGB
 90
        0
102
RTVSPost2010PropOp41
 70
     1
102
RTVSPost2010Prop42
 90
       50
102
RTVSPost2010PropOp42
 70
     1
102
RTVSPost2010Prop43
 90
        3
102
RTVSPost2010PropOp43
 70
     1
102
RTVSPost2010Prop44ColorIndex
 90
        5
102
RTVSPost2010Prop44ColorRGB
 90
      255
102
RTVSPost2010PropOp44
 70
     1
102
RTVSPost2010Prop45
280
     0
102
RTVSPost2010PropOp45
 70
     1
102
RTVSPost2010Prop46
 90
       50
102
RTVSPost2010PropOp46
 70
     1
102
RTVSPost2010Prop47
 90
       50
102
RTVSPost2010PropOp47
 70
     1
102
RTVSPost2010Prop48
 90
       50
102
RTVSPost2010PropOp48
 70
     1
102
RTVSPost2010Prop49
280
     0
102
RTVSPost2010PropOp49
 70
     1
102
RTVSPost2010Prop50
 90
       50
102
RTVSPost2010PropOp50
 70
     1
102
RTVSPost2010Prop51ColorIndex
 90
      256
102
RTVSPost2010Prop51ColorRGB
 90
-16777216
102
RTVSPost2010PropOp51
 70
     0
102
RTVSPost2010Prop52
140
1.0
102
RTVSPost2010PropOp52
 70
     0
102
RTVSPost2010Prop53
 90
        2
102
RTVSPost2010PropOp53
 70
     1
102
RTVSPost2010Prop54
  1
strokes_ogs.tif
102
RTVSPost2010PropOp54
 70
     1
102
RTVSPost2010Prop55
280
     0
102
RTVSPost2010PropOp55
 70
     1
102
RTVSPost2010Prop56
140
1.0
102
RTVSPost2010PropOp56
 70
     1
102
RTVSPost2010Prop57
140
1.0
102
RTVSPost2010PropOp57
 70
     1
  0
XRECORD
  5
569
102
{ACAD_REACTORS
330
568
102
}
330
568
100
AcDbXrecord
280
     1
102
RTVSPropertyOp0
 70
     1
102
RTVSPropertyOp1
 70
     1
102
RTVSPropertyOp2
 70
     1
102
RTVSPropertyOp3
 70
     1
102
RTVSPropertyOp4
 70
     1
102
RTVSPropertyOp5
 70
     1
102
RTVSPropertyOp6
 70
     1
102
RTVSPropertyOp7
 70
     1
102
RTVSPropertyOp8
 70
     1
102
RTVSPropertyOp9
 70
     1
102
RTVSPropertyOp10
 70
     1
102
RTVSPropertyOp11
 70
     1
102
RTVSPropertyOp12
 70
     1
102
RTVSPropertyOp13
 70
     1
102
RTVSPropertyOp14
 70
     1
102
RTVSPropertyOp15
 70
     1
102
RTVSPropertyOp16
 70
     1
102
RTVSPropertyOp17
 70
     1
102
RTVSPropertyOp18
 70
     1
102
RTVSPropertyOp19
 70
     1
102
RTVSPropertyOp20
 70
     1
102
RTVSPropertyOp21
 70
     1
102
RTVSPropertyOp22
 70
     1
102
RTVSPropertyOp23
 70
     1
102
RTVSPropertyOp24
 70
     1
102
RTVSPropertyOp25
 70
     1
102
RTVSPropertyOp26
 70
     1
102
RTVSPropertyOp27
 70
     1
102
RTVSPropertyOp28
 70
     1
102
RTVSPropertyOp29
 70
     1
102
RTVSPropertyOp30
 70
     1
102
RTVSPropertyOp31
 70
     1
102
RTVSPropertyOp32
 70
     1
102
RTVSPropertyOp33
 70
     1
102
RTVSPropertyOp34
 70
     1
102
RTVSPropertyOp35
 70
     1
102
RTVSPropertyOp36
 70
     1
102
RTVSPropertyOp37
 70
     1
102
RTVSPropertyOp38
 70
     1
102
RTVSPropertyOp39
 70
     1
102
RTVSPropertyOp40
 70
     1
102
RTVSPropertyOp41
 70
     1
102
RTVSPropertyOp42
 70
     1
102
RTVSPropertyOp43
 70
     1
102
RTVSPropertyOp44
 70
     1
102
RTVSPropertyOp45
 70
     1
102
RTVSPropertyOp46
 70
     1
102
RTVSPropertyOp47
 70
     1
102
RTVSPropertyOp48
 70
     1
102
RTVSPropertyOp49
 70
     1
102
RTVSPropertyOp50
 70
     1
102
RTVSPropertyOp51
 70
     0
102
RTVSPropertyOp52
 70
     0
102
RTVSPropertyOp53
 70
     1
102
RTVSPropertyOp54
 70
     1
102
RTVSPropertyOp55
 70
     1
102
RTVSPropertyOp56
 70
     1
102
RTVSPropertyOp57
 70
     1
102
RTVSPost2010Prop28
280
     0
102
RTVSPost2010PropOp28
 70
     1
102
RTVSPost2010Prop29
280
     1
102
RTVSPost2010PropOp29
 70
     1
102
RTVSPost2010Prop30
280
     1
102
RTVSPost2010PropOp30
 70
     1
102
RTVSPost2010Prop31
280
     0
102
RTVSPost2010PropOp31
 70
     1
102
RTVSPost2010Prop32
280
     0
102
RTVSPost2010PropOp32
 70
     1
102
RTVSPost2010Prop33
280
     0
102
RTVSPost2010PropOp33
 70
     1
102
RTVSPost2010Prop34
280
     0
102
RTVSPost2010PropOp34
 70
     1
102
RTVSPost2010Prop35
280
     0
102
RTVSPost2010PropOp35
 70
     1
102
RTVSPost2010Prop36
280
     0
102
RTVSPost2010PropOp36
 70
     1
102
RTVSPost2010Prop37
 90
       50
102
RTVSPost2010PropOp37
 70
     1
102
RTVSPost2010Prop38
140
0.0
102
RTVSPost2010PropOp38
 70
     1
102
RTVSPost2010Prop39
140
1.0
102
RTVSPost2010PropOp39
 70
     1
102
RTVSPost2010Prop40
 90
        0
102
RTVSPost2010PropOp40
 70
     1
102
RTVSPost2010Prop41ColorIndex
 90
       18
102
RTVSPost2010Prop41ColorRGB
 90
        0
102
RTVSPost2010PropOp41
 70
     1
102
RTVSPost2010Prop42
 90
       50
102
RTVSPost2010PropOp42
 70
     1
102
RTVSPost2010Prop43
 90
        3
102
RTVSPost2010PropOp43
 70
     1
102
RTVSPost2010Prop44ColorIndex
 90
        5
102
RTVSPost2010Prop44ColorRGB
 90
      255
102
RTVSPost2010PropOp44
 70
     1
102
RTVSPost2010Prop45
280
     0
102
RTVSPost2010PropOp45
 70
     1
102
RTVSPost2010Prop46
 90
       50
102
RTVSPost2010PropOp46
 70
     1
102
RTVSPost2010Prop47
 90
       50
102
RTVSPost2010PropOp47
 70
     1
102
RTVSPost2010Prop48
 90
       50
102
RTVSPost2010PropOp48
 70
     1
102
RTVSPost2010Prop49
280
     0
102
RTVSPost2010PropOp49
 70
     1
102
RTVSPost2010Prop50
 90
       50
102
RTVSPost2010PropOp50
 70
     1
102
RTVSPost2010Prop51ColorIndex
 90
      256
102
RTVSPost2010Prop51ColorRGB
 90
-16777216
102
RTVSPost2010PropOp51
 70
     0
102
RTVSPost2010Prop52
140
1.0
102
RTVSPost2010PropOp52
 70
     0
102
RTVSPost2010Prop53
 90
        2
102
RTVSPost2010PropOp53
 70
     1
102
RTVSPost2010Prop54
  1
strokes_ogs.tif
102
RTVSPost2010PropOp54
 70
     1
102
RTVSPost2010Prop55
280
     0
102
RTVSPost2010PropOp55
 70
     1
102
RTVSPost2010Prop56
140
1.0
102
RTVSPost2010PropOp56
 70
     1
102
RTVSPost2010Prop57
140
1.0
102
RTVSPost2010PropOp57
 70
     1
  0
XRECORD
  5
589
102
{ACAD_REACTORS
330
588
102
}
330
588
100
AcDbXrecord
280
     1
102
RTVSPropertyOp0
 70
     1
102
RTVSPropertyOp1
 70
     1
102
RTVSPropertyOp2
 70
     1
102
RTVSPropertyOp3
 70
     1
102
RTVSPropertyOp4
 70
     1
102
RTVSPropertyOp5
 70
     1
102
RTVSPropertyOp6
 70
     1
102
RTVSPropertyOp7
 70
     1
102
RTVSPropertyOp8
 70
     1
102
RTVSPropertyOp9
 70
     1
102
RTVSPropertyOp10
 70
     1
102
RTVSPropertyOp11
 70
     1
102
RTVSPropertyOp12
 70
     1
102
RTVSPropertyOp13
 70
     1
102
RTVSPropertyOp14
 70
     1
102
RTVSPropertyOp15
 70
     1
102
RTVSPropertyOp16
 70
     1
102
RTVSPropertyOp17
 70
     1
102
RTVSPropertyOp18
 70
     1
102
RTVSPropertyOp19
 70
     1
102
RTVSPropertyOp20
 70
     1
102
RTVSPropertyOp21
 70
     1
102
RTVSPropertyOp22
 70
     1
102
RTVSPropertyOp23
 70
     1
102
RTVSPropertyOp24
 70
     1
102
RTVSPropertyOp25
 70
     1
102
RTVSPropertyOp26
 70
     1
102
RTVSPropertyOp27
 70
     1
102
RTVSPropertyOp28
 70
     1
102
RTVSPropertyOp29
 70
     1
102
RTVSPropertyOp30
 70
     1
102
RTVSPropertyOp31
 70
     1
102
RTVSPropertyOp32
 70
     1
102
RTVSPropertyOp33
 70
     1
102
RTVSPropertyOp34
 70
     1
102
RTVSPropertyOp35
 70
     1
102
RTVSPropertyOp36
 70
     1
102
RTVSPropertyOp37
 70
     1
102
RTVSPropertyOp38
 70
     1
102
RTVSPropertyOp39
 70
     1
102
RTVSPropertyOp40
 70
     1
102
RTVSPropertyOp41
 70
     1
102
RTVSPropertyOp42
 70
     1
102
RTVSPropertyOp43
 70
     1
102
RTVSPropertyOp44
 70
     1
102
RTVSPropertyOp45
 70
     1
102
RTVSPropertyOp46
 70
     1
102
RTVSPropertyOp47
 70
     1
102
RTVSPropertyOp48
 70
     1
102
RTVSPropertyOp49
 70
     1
102
RTVSPropertyOp50
 70
     1
102
RTVSPropertyOp51
 70
     0
102
RTVSPropertyOp52
 70
     0
102
RTVSPropertyOp53
 70
     1
102
RTVSPropertyOp54
 70
     1
102
RTVSPropertyOp55
 70
     1
102
RTVSPropertyOp56
 70
     1
102
RTVSPropertyOp57
 70
     1
102
RTVSPost2010Prop28
280
     0
102
RTVSPost2010PropOp28
 70
     1
102
RTVSPost2010Prop29
280
     1
102
RTVSPost2010PropOp29
 70
     1
102
RTVSPost2010Prop30
280
     1
102
RTVSPost2010PropOp30
 70
     1
102
RTVSPost2010Prop31
280
     0
102
RTVSPost2010PropOp31
 70
     1
102
RTVSPost2010Prop32
280
     0
102
RTVSPost2010PropOp32
 70
     1
102
RTVSPost2010Prop33
280
     0
102
RTVSPost2010PropOp33
 70
     1
102
RTVSPost2010Prop34
280
     0
102
RTVSPost2010PropOp34
 70
     1
102
RTVSPost2010Prop35
280
     0
102
RTVSPost2010PropOp35
 70
     1
102
RTVSPost2010Prop36
280
     0
102
RTVSPost2010PropOp36
 70
     1
102
RTVSPost2010Prop37
 90
       50
102
RTVSPost2010PropOp37
 70
     1
102
RTVSPost2010Prop38
140
0.0
102
RTVSPost2010PropOp38
 70
     1
102
RTVSPost2010Prop39
140
1.0
102
RTVSPost2010PropOp39
 70
     1
102
RTVSPost2010Prop40
 90
        0
102
RTVSPost2010PropOp40
 70
     1
102
RTVSPost2010Prop41ColorIndex
 90
       18
102
RTVSPost2010Prop41ColorRGB
 90
        0
102
RTVSPost2010PropOp41
 70
     1
102
RTVSPost2010Prop42
 90
       50
102
RTVSPost2010PropOp42
 70
     1
102
RTVSPost2010Prop43
 90
        3
102
RTVSPost2010PropOp43
 70
     1
102
RTVSPost2010Prop44ColorIndex
 90
        5
102
RTVSPost2010Prop44ColorRGB
 90
      255
102
RTVSPost2010PropOp44
 70
     1
102
RTVSPost2010Prop45
280
     0
102
RTVSPost2010PropOp45
 70
     1
102
RTVSPost2010Prop46
 90
       50
102
RTVSPost2010PropOp46
 70
     1
102
RTVSPost2010Prop47
 90
       50
102
RTVSPost2010PropOp47
 70
     1
102
RTVSPost2010Prop48
 90
       50
102
RTVSPost2010PropOp48
 70
     1
102
RTVSPost2010Prop49
280
     0
102
RTVSPost2010PropOp49
 70
     1
102
RTVSPost2010Prop50
 90
       50
102
RTVSPost2010PropOp50
 70
     1
102
RTVSPost2010Prop51ColorIndex
 90
      256
102
RTVSPost2010Prop51ColorRGB
 90
-16777216
102
RTVSPost2010PropOp51
 70
     0
102
RTVSPost2010Prop52
140
1.0
102
RTVSPost2010PropOp52
 70
     0
102
RTVSPost2010Prop53
 90
        2
102
RTVSPost2010PropOp53
 70
     1
102
RTVSPost2010Prop54
  1
strokes_ogs.tif
102
RTVSPost2010PropOp54
 70
     1
102
RTVSPost2010Prop55
280
     0
102
RTVSPost2010PropOp55
 70
     1
102
RTVSPost2010Prop56
140
1.0
102
RTVSPost2010PropOp56
 70
     1
102
RTVSPost2010Prop57
140
1.0
102
RTVSPost2010PropOp57
 70
     1
  0
ENDSEC
  0
EOF
