  0
SECTION
  2
HEADER
  9
$ACADVER
  1
AC1015
  9
$ACADMAINTVER
 70
     6
  9
$DWGCODEPAGE
  3
ANSI_932
  9
$INSBASE
 10
0.0
 20
0.0
 30
0.0
  9
$EXTMIN
 10
0.0
 20
0.0
 30
0.0
  9
$EXTMAX
 10
420.0
 20
297.0
 30
0.0
  9
$LIMMIN
 10
0.0
 20
0.0
  9
$LIMMAX
 10
420.0
 20
297.0
  9
$ORTHOMODE
 70
     0
  9
$REGENMODE
 70
     1
  9
$FILLMODE
 70
     1
  9
$QTEXTMODE
 70
     0
  9
$MIRRTEXT
 70
     1
  9
$LTSCALE
 40
1.0
  9
$ATTMODE
 70
     1
  9
$TEXTSIZE
 40
2.5
  9
$TRACEWID
 40
1.0
  9
$TEXTSTYLE
  7
Standard
  9
$CLAYER
  8
0
  9
$CELTYPE
  6
ByLayer
  9
$CECOLOR
 62
   256
  9
$CELTSCALE
 40
1.0
  9
$DISPSILH
 70
     0
  9
$DIMSCALE
 40
1.0
  9
$DIMASZ
 40
2.5
  9
$DIMEXO
 40
0.625
  9
$DIMDLI
 40
3.75
  9
$DIMRND
 40
0.0
  9
$DIMDLE
 40
0.0
  9
$DIMEXE
 40
1.25
  9
$DIMTP
 40
0.0
  9
$DIMTM
 40
0.0
  9
$DIMTXT
 40
2.5
  9
$DIMCEN
 40
2.5
  9
$DIMTSZ
 40
0.0
  9
$DIMTOL
 70
     0
  9
$DIMLIM
 70
     0
  9
$DIMTIH
 70
     0
  9
$DIMTOH
 70
     0
  9
$DIMSE1
 70
     0
  9
$DIMSE2
 70
     0
  9
$DIMTAD
 70
     1
  9
$DIMZIN
 70
     8
  9
$DIMBLK
  1

  9
$DIMASO
 70
     1
  9
$DIMSHO
 70
     1
  9
$DIMPOST
  1

  9
$DIMAPOST
  1

  9
$DIMALT
 70
     0
  9
$DIMALTD
 70
     3
  9
$DIMALTF
 40
0.03937007874016
  9
$DIMLFAC
 40
1.0
  9
$DIMTOFL
 70
     1
  9
$DIMTVP
 40
0.0
  9
$DIMTIX
 70
     0
  9
$DIMSOXD
 70
     0
  9
$DIMSAH
 70
     0
  9
$DIMBLK1
  1

  9
$DIMBLK2
  1

  9
$DIMSTYLE
  2
ISO-25
  9
$DIMCLRD
 70
     0
  9
$DIMCLRE
 70
     0
  9
$DIMCLRT
 70
     0
  9
$DIMTFAC
 40
1.0
  9
$DIMGAP
 40
0.625
  9
$DIMJUST
 70
     0
  9
$DIMSD1
 70
     0
  9
$DIMSD2
 70
     0
  9
$DIMTOLJ
 70
     0
  9
$DIMTZIN
 70
     8
  9
$DIMALTZ
 70
     0
  9
$DIMALTTZ
 70
     0
  9
$DIMUPT
 70
     0
  9
$DIMDEC
 70
     2
  9
$DIMTDEC
 70
     2
  9
$DIMALTU
 70
     2
  9
$DIMALTTD
 70
     3
  9
$DIMTXSTY
  7
Standard
  9
$DIMAUNIT
 70
     0
  9
$DIMADEC
 70
     0
  9
$DIMALTRND
 40
0.0
  9
$DIMAZIN
 70
     0
  9
$DIMDSEP
 70
    46
  9
$DIMATFIT
 70
     3
  9
$DIMFRAC
 70
     0
  9
$DIMLDRBLK
  1

  9
$DIMLUNIT
 70
     2
  9
$DIMLWD
 70
    -2
  9
$DIMLWE
 70
    -2
  9
$DIMTMOVE
 70
     0
  9
$LUNITS
 70
     2
  9
$LUPREC
 70
     4
  9
$SKETCHINC
 40
1.0
  9
$FILLETRAD
 40
10.0
  9
$AUNITS
 70
     0
  9
$AUPREC
 70
     0
  9
$MENU
  1
.
  9
$ELEVATION
 40
0.0
  9
$PELEVATION
 40
0.0
  9
$THICKNESS
 40
0.0
  9
$LIMCHECK
 70
     0
  9
$CHAMFERA
 40
10.0
  9
$CHAMFERB
 40
10.0
  9
$CHAMFERC
 40
20.0
  9
$CHAMFERD
 40
0.0
  9
$SKPOLY
 70
     0
  9
$TDCREATE
 40
2457770.000000
  9
$TDUCREATE
 40
0.000000000
  9
$TDUPDATE
 40
2457770.000000
  9
$TDUUPDATE
 40
2457770.000000
  9
$TDINDWG
 40
0.0
  9
$TDUSRTIMER
 40
0.0
  9
$USRTIMER
 70
     1
  9
$ANGBASE
 50
0.0
  9
$ANGDIR
 70
     0
  9
$PDMODE
 70
     0
  9
$PDSIZE
 40
0.0
  9
$PLINEWID
 40
0.0
  9
$SPLFRAME
 70
     0
  9
$SPLINETYPE
 70
     6
  9
$SPLINESEGS
 70
     8
  9
$HANDSEED
  5
022F
  9
$SURFTAB1
 70
     6
  9
$SURFTAB2
 70
     6
  9
$SURFTYPE
 70
     6
  9
$SURFU
 70
     6
  9
$SURFV
 70
     6
  9
$UCSBASE
  2

  9
$UCSNAME
  2

  9
$UCSORG
 10
0.0
 20
0.0
 30
0.0
  9
$UCSXDIR
 10
1.0
 20
0.0
 30
0.0
  9
$UCSYDIR
 10
0.0
 20
1.0
 30
0.0
  9
$UCSORTHOREF
  2

  9
$UCSORTHOVIEW
 70
     0
  9
$UCSORGTOP
 10
0.0
 20
0.0
 30
0.0
  9
$UCSORGBOTTOM
 10
0.0
 20
0.0
 30
0.0
  9
$UCSORGLEFT
 10
0.0
 20
0.0
 30
0.0
  9
$UCSORGRIGHT
 10
0.0
 20
0.0
 30
0.0
  9
$UCSORGFRONT
 10
0.0
 20
0.0
 30
0.0
  9
$UCSORGBACK
 10
0.0
 20
0.0
 30
0.0
  9
$PUCSBASE
  2

  9
$PUCSNAME
  2

  9
$PUCSORG
 10
0.0
 20
0.0
 30
0.0
  9
$PUCSXDIR
 10
1.0
 20
0.0
 30
0.0
  9
$PUCSYDIR
 10
0.0
 20
1.0
 30
0.0
  9
$PUCSORTHOREF
  2

  9
$PUCSORTHOVIEW
 70
     0
  9
$PUCSORGTOP
 10
0.0
 20
0.0
 30
0.0
  9
$PUCSORGBOTTOM
 10
0.0
 20
0.0
 30
0.0
  9
$PUCSORGLEFT
 10
0.0
 20
0.0
 30
0.0
  9
$PUCSORGRIGHT
 10
0.0
 20
0.0
 30
0.0
  9
$PUCSORGFRONT
 10
0.0
 20
0.0
 30
0.0
  9
$PUCSORGBACK
 10
0.0
 20
0.0
 30
0.0
  9
$USERI1
 70
     0
  9
$USERI2
 70
     0
  9
$USERI3
 70
     0
  9
$USERI4
 70
     0
  9
$USERI5
 70
     0
  9
$USERR1
 40
0.0
  9
$USERR2
 40
0.0
  9
$USERR3
 40
0.0
  9
$USERR4
 40
0.0
  9
$USERR5
 40
0.0
  9
$WORLDVIEW
 70
     1
  9
$SHADEDGE
 70
     3
  9
$SHADEDIF
 70
    70
  9
$TILEMODE
 70
     1
  9
$MAXACTVP
 70
    64
  9
$PINSBASE
 10
0.0
 20
0.0
 30
0.0
  9
$PLIMCHECK
 70
     0
  9
$PEXTMIN
 10
1.000000E+20
 20
1.000000E+20
 30
1.000000E+20
  9
$PEXTMAX
 10
-1.000000E+20
 20
-1.000000E+20
 30
-1.000000E+20
  9
$PLIMMIN
 10
0.0
 20
0.0
  9
$PLIMMAX
 10
0.0
 20
0.0
  9
$UNITMODE
 70
     0
  9
$VISRETAIN
 70
     0
  9
$PLINEGEN
 70
     0
  9
$PSLTSCALE
 70
     1
  9
$TREEDEPTH
 70
  3020
  9
$CMLSTYLE
  2
STANDARD
  9
$CMLJUST
 70
     0
  9
$CMLSCALE
 40
20.0
  9
$PROXYGRAPHICS
 70
     1
  9
$MEASUREMENT
 70
     1
  9
$CELWEIGHT
370
    -1
  9
$ENDCAPS
280
     0
  9
$JOINSTYLE
280
     0
  9
$LWDISPLAY
290
     0
  9
$INSUNITS
 70
     4
  9
$HYPERLINKBASE
  1

  9
$STYLESHEET
  1

  9
$XEDIT
290
     1
  9
$CEPSNTYPE
380
     0
  9
$PSTYLEMODE
290
     1
  9
$FINGERPRINTGUID
  2
{921C1AFE-ACC2-958A-4F46-FCB7DF9266D1}
  9
$VERSIONGUID
  2
{5C785EAE-A541-5703-2581-9590EF0F6202}
  9
$EXTNAMES
290
     1
  9
$PSVPSCALE
 40
0.0
  0
ENDSEC
  0
SECTION
  2
CLASSES
  0
ENDSEC
  0
SECTION
  2
TABLES
  0
TABLE
  2
VPORT
  5
8
330
0
100
AcDbSymbolTable
 70
     3
  0
VPORT
  5
29
330
8
100
AcDbSymbolTableRecord
100
AcDbViewportTableRecord
  2
*Active
 70
     0
 10
0.0
 20
0.0
 11
1.0
 21
1.0
 12
210.0
 22
148.5
 13
0.0
 23
0.0
 14
10.0
 24
10.0
 15
0.0
 25
0.0
 16
0.0
 26
0.0
 36
1.0
 17
0.0
 27
0.0
 37
0.0
 40
297.0
 41
1.414141414
 42
50.0
 43
0.0
 44
0.0
 50
0.0
 51
0.0
 71
     0
 72
  1000
 73
     1
 74
     3
 75
     0
 76
     0
 77
     0
 78
     0
281
     0
 65
     0
110
0.0
120
0.0
130
0.0
111
1.0
121
0.0
131
0.0
112
0.0
122
1.0
132
0.0
 79
     0
146
0.0
  0
ENDTAB
  0
TABLE
  2
LTYPE
  5
5
330
0
100
AcDbSymbolTable
 70
     5
  0
LTYPE
  5
14
330
5
100
AcDbSymbolTableRecord
100
AcDbLinetypeTableRecord
  2
ByBlock
 70
     0
  3

 72
    65
 73
     0
 40
0.0
  0
LTYPE
  5
15
330
5
100
AcDbSymbolTableRecord
100
AcDbLinetypeTableRecord
  2
ByLayer
 70
     0
  3

 72
    65
 73
     0
 40
0.0
  0
LTYPE
  5
16
330
5
100
AcDbSymbolTableRecord
100
AcDbLinetypeTableRecord
  2
Continuous
 70
     0
  3
Solid line
 72
    65
 73
     0
 40
0.0
  0
LTYPE
  5
EE
330
5
100
AcDbSymbolTableRecord
100
AcDbLinetypeTableRecord
  2
LTYPE1
 70
     0
  3
CENTER
 72
    65
 73
     4
 40
12.0
 49
8.4
 74
     0
 49
-1.2
 74
     0
 49
1.2
 74
     0
 49
-1.2
 74
     0
  0
LTYPE
  5
152
330
5
100
AcDbSymbolTableRecord
100
AcDbLinetypeTableRecord
  2
LTYPE2
 70
     0
  3
HIDDEN
 72
    65
 73
     2
 40
2.0
 49
1.2
 74
     0
 49
-0.8
 74
     0
  0
ENDTAB
  0
TABLE
  2
LAYER
  5
2
330
0
100
AcDbSymbolTable
 70
   128
  0
LAYER
  5
10
330
2
100
AcDbSymbolTableRecord
100
AcDbLayerTableRecord
  2
0
 70
     0
 62
     7
  6
Continuous
290
     1
370
    -3
390
F
  0
LAYER
  5
2A
330
2
100
AcDbSymbolTableRecord
100
AcDbLayerTableRecord
  2
2
 70
     0
 62
     7
  6
Continuous
290
     1
370
    -3
390
F
  0
LAYER
  5
2B
330
2
100
AcDbSymbolTableRecord
100
AcDbLayerTableRecord
  2
3
 70
     0
 62
     7
  6
Continuous
290
     1
370
    -3
390
F
  0
LAYER
  5
2C
330
2
100
AcDbSymbolTableRecord
100
AcDbLayerTableRecord
  2
4
 70
     0
 62
     7
  6
Continuous
290
     1
370
    -3
390
F
  0
LAYER
  5
2D
330
2
100
AcDbSymbolTableRecord
100
AcDbLayerTableRecord
  2
5
 70
     0
 62
     7
  6
Continuous
290
     1
370
    -3
390
F
  0
LAYER
  5
2E
330
2
100
AcDbSymbolTableRecord
100
AcDbLayerTableRecord
  2
6
 70
     0
 62
     7
  6
Continuous
290
     1
370
    -3
390
F
  0
LAYER
  5
2F
330
2
100
AcDbSymbolTableRecord
100
AcDbLayerTableRecord
  2
7
 70
     0
 62
     7
  6
Continuous
290
     1
370
    -3
390
F
  0
LAYER
  5
30
330
2
100
AcDbSymbolTableRecord
100
AcDbLayerTableRecord
  2
8
 70
     0
 62
     7
  6
Continuous
290
     1
370
    -3
390
F
  0
LAYER
  5
31
330
2
100
AcDbSymbolTableRecord
100
AcDbLayerTableRecord
  2
9
 70
     0
 62
     7
  6
Continuous
290
     1
370
    -3
390
F
  0
LAYER
  5
32
330
2
100
AcDbSymbolTableRecord
100
AcDbLayerTableRecord
  2
10
 70
     0
 62
     7
  6
Continuous
290
     1
370
    -3
390
F
  0
LAYER
  5
33
330
2
100
AcDbSymbolTableRecord
100
AcDbLayerTableRecord
  2
11
 70
     0
 62
     7
  6
Continuous
290
     1
370
    -3
390
F
  0
LAYER
  5
34
330
2
100
AcDbSymbolTableRecord
100
AcDbLayerTableRecord
  2
12
 70
     0
 62
     7
  6
Continuous
290
     1
370
    -3
390
F
  0
LAYER
  5
35
330
2
100
AcDbSymbolTableRecord
100
AcDbLayerTableRecord
  2
13
 70
     0
 62
     7
  6
Continuous
290
     1
370
    -3
390
F
  0
LAYER
  5
36
330
2
100
AcDbSymbolTableRecord
100
AcDbLayerTableRecord
  2
14
 70
     0
 62
     7
  6
Continuous
290
     1
370
    -3
390
F
  0
LAYER
  5
37
330
2
100
AcDbSymbolTableRecord
100
AcDbLayerTableRecord
  2
15
 70
     0
 62
     7
  6
Continuous
290
     1
370
    -3
390
F
  0
LAYER
  5
38
330
2
100
AcDbSymbolTableRecord
100
AcDbLayerTableRecord
  2
16
 70
     0
 62
     7
  6
Continuous
290
     1
370
    -3
390
F
  0
LAYER
  5
39
330
2
100
AcDbSymbolTableRecord
100
AcDbLayerTableRecord
  2
17
 70
     0
 62
     7
  6
Continuous
290
     1
370
    -3
390
F
  0
LAYER
  5
3A
330
2
100
AcDbSymbolTableRecord
100
AcDbLayerTableRecord
  2
18
 70
     0
 62
     7
  6
Continuous
290
     1
370
    -3
390
F
  0
LAYER
  5
3B
330
2
100
AcDbSymbolTableRecord
100
AcDbLayerTableRecord
  2
19
 70
     0
 62
     7
  6
Continuous
290
     1
370
    -3
390
F
  0
LAYER
  5
3C
330
2
100
AcDbSymbolTableRecord
100
AcDbLayerTableRecord
  2
20
 70
     0
 62
     7
  6
Continuous
290
     1
370
    -3
390
F
  0
LAYER
  5
3D
330
2
100
AcDbSymbolTableRecord
100
AcDbLayerTableRecord
  2
21
 70
     0
 62
     7
  6
Continuous
290
     1
370
    -3
390
F
  0
LAYER
  5
3E
330
2
100
AcDbSymbolTableRecord
100
AcDbLayerTableRecord
  2
22
 70
     0
 62
     7
  6
Continuous
290
     1
370
    -3
390
F
  0
LAYER
  5
3F
330
2
100
AcDbSymbolTableRecord
100
AcDbLayerTableRecord
  2
23
 70
     0
 62
     7
  6
Continuous
290
     1
370
    -3
390
F
  0
LAYER
  5
40
330
2
100
AcDbSymbolTableRecord
100
AcDbLayerTableRecord
  2
24
 70
     0
 62
     7
  6
Continuous
290
     1
370
    -3
390
F
  0
LAYER
  5
41
330
2
100
AcDbSymbolTableRecord
100
AcDbLayerTableRecord
  2
25
 70
     0
 62
     7
  6
Continuous
290
     1
370
    -3
390
F
  0
LAYER
  5
42
330
2
100
AcDbSymbolTableRecord
100
AcDbLayerTableRecord
  2
26
 70
     0
 62
     7
  6
Continuous
290
     1
370
    -3
390
F
  0
LAYER
  5
43
330
2
100
AcDbSymbolTableRecord
100
AcDbLayerTableRecord
  2
27
 70
     0
 62
     7
  6
Continuous
290
     1
370
    -3
390
F
  0
LAYER
  5
44
330
2
100
AcDbSymbolTableRecord
100
AcDbLayerTableRecord
  2
28
 70
     0
 62
     7
  6
Continuous
290
     1
370
    -3
390
F
  0
LAYER
  5
45
330
2
100
AcDbSymbolTableRecord
100
AcDbLayerTableRecord
  2
29
 70
     0
 62
     7
  6
Continuous
290
     1
370
    -3
390
F
  0
LAYER
  5
46
330
2
100
AcDbSymbolTableRecord
100
AcDbLayerTableRecord
  2
30
 70
     0
 62
     7
  6
Continuous
290
     1
370
    -3
390
F
  0
LAYER
  5
47
330
2
100
AcDbSymbolTableRecord
100
AcDbLayerTableRecord
  2
31
 70
     0
 62
     7
  6
Continuous
290
     1
370
    -3
390
F
  0
LAYER
  5
48
330
2
100
AcDbSymbolTableRecord
100
AcDbLayerTableRecord
  2
32
 70
     0
 62
     7
  6
Continuous
290
     1
370
    -3
390
F
  0
LAYER
  5
49
330
2
100
AcDbSymbolTableRecord
100
AcDbLayerTableRecord
  2
33
 70
     0
 62
     7
  6
Continuous
290
     1
370
    -3
390
F
  0
LAYER
  5
4A
330
2
100
AcDbSymbolTableRecord
100
AcDbLayerTableRecord
  2
34
 70
     0
 62
     7
  6
Continuous
290
     1
370
    -3
390
F
  0
LAYER
  5
4B
330
2
100
AcDbSymbolTableRecord
100
AcDbLayerTableRecord
  2
35
 70
     0
 62
     7
  6
Continuous
290
     1
370
    -3
390
F
  0
LAYER
  5
4C
330
2
100
AcDbSymbolTableRecord
100
AcDbLayerTableRecord
  2
36
 70
     0
 62
     7
  6
Continuous
290
     1
370
    -3
390
F
  0
LAYER
  5
4D
330
2
100
AcDbSymbolTableRecord
100
AcDbLayerTableRecord
  2
37
 70
     0
 62
     7
  6
Continuous
290
     1
370
    -3
390
F
  0
LAYER
  5
4E
330
2
100
AcDbSymbolTableRecord
100
AcDbLayerTableRecord
  2
38
 70
     0
 62
     7
  6
Continuous
290
     1
370
    -3
390
F
  0
LAYER
  5
4F
330
2
100
AcDbSymbolTableRecord
100
AcDbLayerTableRecord
  2
39
 70
     0
 62
     7
  6
Continuous
290
     1
370
    -3
390
F
  0
LAYER
  5
50
330
2
100
AcDbSymbolTableRecord
100
AcDbLayerTableRecord
  2
40
 70
     0
 62
     7
  6
Continuous
290
     1
370
    -3
390
F
  0
LAYER
  5
51
330
2
100
AcDbSymbolTableRecord
100
AcDbLayerTableRecord
  2
41
 70
     0
 62
     7
  6
Continuous
290
     1
370
    -3
390
F
  0
LAYER
  5
52
330
2
100
AcDbSymbolTableRecord
100
AcDbLayerTableRecord
  2
42
 70
     0
 62
     7
  6
Continuous
290
     1
370
    -3
390
F
  0
LAYER
  5
53
330
2
100
AcDbSymbolTableRecord
100
AcDbLayerTableRecord
  2
43
 70
     0
 62
     7
  6
Continuous
290
     1
370
    -3
390
F
  0
LAYER
  5
54
330
2
100
AcDbSymbolTableRecord
100
AcDbLayerTableRecord
  2
44
 70
     0
 62
     7
  6
Continuous
290
     1
370
    -3
390
F
  0
LAYER
  5
55
330
2
100
AcDbSymbolTableRecord
100
AcDbLayerTableRecord
  2
45
 70
     0
 62
     7
  6
Continuous
290
     1
370
    -3
390
F
  0
LAYER
  5
56
330
2
100
AcDbSymbolTableRecord
100
AcDbLayerTableRecord
  2
46
 70
     0
 62
     7
  6
Continuous
290
     1
370
    -3
390
F
  0
LAYER
  5
57
330
2
100
AcDbSymbolTableRecord
100
AcDbLayerTableRecord
  2
47
 70
     0
 62
     7
  6
Continuous
290
     1
370
    -3
390
F
  0
LAYER
  5
58
330
2
100
AcDbSymbolTableRecord
100
AcDbLayerTableRecord
  2
48
 70
     0
 62
     7
  6
Continuous
290
     1
370
    -3
390
F
  0
LAYER
  5
59
330
2
100
AcDbSymbolTableRecord
100
AcDbLayerTableRecord
  2
49
 70
     0
 62
     7
  6
Continuous
290
     1
370
    -3
390
F
  0
LAYER
  5
5A
330
2
100
AcDbSymbolTableRecord
100
AcDbLayerTableRecord
  2
50
 70
     0
 62
     7
  6
Continuous
290
     1
370
    -3
390
F
  0
LAYER
  5
5B
330
2
100
AcDbSymbolTableRecord
100
AcDbLayerTableRecord
  2
51
 70
     0
 62
     7
  6
Continuous
290
     1
370
    -3
390
F
  0
LAYER
  5
5C
330
2
100
AcDbSymbolTableRecord
100
AcDbLayerTableRecord
  2
52
 70
     0
 62
     7
  6
Continuous
290
     1
370
    -3
390
F
  0
LAYER
  5
5D
330
2
100
AcDbSymbolTableRecord
100
AcDbLayerTableRecord
  2
53
 70
     0
 62
     7
  6
Continuous
290
     1
370
    -3
390
F
  0
LAYER
  5
5E
330
2
100
AcDbSymbolTableRecord
100
AcDbLayerTableRecord
  2
54
 70
     0
 62
     7
  6
Continuous
290
     1
370
    -3
390
F
  0
LAYER
  5
5F
330
2
100
AcDbSymbolTableRecord
100
AcDbLayerTableRecord
  2
55
 70
     0
 62
     7
  6
Continuous
290
     1
370
    -3
390
F
  0
LAYER
  5
60
330
2
100
AcDbSymbolTableRecord
100
AcDbLayerTableRecord
  2
56
 70
     0
 62
     7
  6
Continuous
290
     1
370
    -3
390
F
  0
LAYER
  5
61
330
2
100
AcDbSymbolTableRecord
100
AcDbLayerTableRecord
  2
57
 70
     0
 62
     7
  6
Continuous
290
     1
370
    -3
390
F
  0
LAYER
  5
62
330
2
100
AcDbSymbolTableRecord
100
AcDbLayerTableRecord
  2
58
 70
     0
 62
     7
  6
Continuous
290
     1
370
    -3
390
F
  0
LAYER
  5
63
330
2
100
AcDbSymbolTableRecord
100
AcDbLayerTableRecord
  2
59
 70
     0
 62
     7
  6
Continuous
290
     1
370
    -3
390
F
  0
LAYER
  5
64
330
2
100
AcDbSymbolTableRecord
100
AcDbLayerTableRecord
  2
60
 70
     0
 62
     7
  6
Continuous
290
     1
370
    -3
390
F
  0
LAYER
  5
65
330
2
100
AcDbSymbolTableRecord
100
AcDbLayerTableRecord
  2
61
 70
     0
 62
     7
  6
Continuous
290
     1
370
    -3
390
F
  0
LAYER
  5
66
330
2
100
AcDbSymbolTableRecord
100
AcDbLayerTableRecord
  2
62
 70
     0
 62
     7
  6
Continuous
290
     1
370
    -3
390
F
  0
LAYER
  5
67
330
2
100
AcDbSymbolTableRecord
100
AcDbLayerTableRecord
  2
63
 70
     0
 62
     7
  6
Continuous
290
     1
370
    -3
390
F
  0
LAYER
  5
68
330
2
100
AcDbSymbolTableRecord
100
AcDbLayerTableRecord
  2
64
 70
     0
 62
     7
  6
Continuous
290
     1
370
    -3
390
F
  0
LAYER
  5
69
330
2
100
AcDbSymbolTableRecord
100
AcDbLayerTableRecord
  2
65
 70
     0
 62
     7
  6
Continuous
290
     1
370
    -3
390
F
  0
LAYER
  5
6A
330
2
100
AcDbSymbolTableRecord
100
AcDbLayerTableRecord
  2
66
 70
     0
 62
     7
  6
Continuous
290
     1
370
    -3
390
F
  0
LAYER
  5
6B
330
2
100
AcDbSymbolTableRecord
100
AcDbLayerTableRecord
  2
67
 70
     0
 62
     7
  6
Continuous
290
     1
370
    -3
390
F
  0
LAYER
  5
6C
330
2
100
AcDbSymbolTableRecord
100
AcDbLayerTableRecord
  2
68
 70
     0
 62
     7
  6
Continuous
290
     1
370
    -3
390
F
  0
LAYER
  5
6D
330
2
100
AcDbSymbolTableRecord
100
AcDbLayerTableRecord
  2
69
 70
     0
 62
     7
  6
Continuous
290
     1
370
    -3
390
F
  0
LAYER
  5
6E
330
2
100
AcDbSymbolTableRecord
100
AcDbLayerTableRecord
  2
70
 70
     0
 62
     7
  6
Continuous
290
     1
370
    -3
390
F
  0
LAYER
  5
6F
330
2
100
AcDbSymbolTableRecord
100
AcDbLayerTableRecord
  2
71
 70
     0
 62
     7
  6
Continuous
290
     1
370
    -3
390
F
  0
LAYER
  5
70
330
2
100
AcDbSymbolTableRecord
100
AcDbLayerTableRecord
  2
72
 70
     0
 62
     7
  6
Continuous
290
     1
370
    -3
390
F
  0
LAYER
  5
71
330
2
100
AcDbSymbolTableRecord
100
AcDbLayerTableRecord
  2
73
 70
     0
 62
     7
  6
Continuous
290
     1
370
    -3
390
F
  0
LAYER
  5
72
330
2
100
AcDbSymbolTableRecord
100
AcDbLayerTableRecord
  2
74
 70
     0
 62
     7
  6
Continuous
290
     1
370
    -3
390
F
  0
LAYER
  5
73
330
2
100
AcDbSymbolTableRecord
100
AcDbLayerTableRecord
  2
75
 70
     0
 62
     7
  6
Continuous
290
     1
370
    -3
390
F
  0
LAYER
  5
74
330
2
100
AcDbSymbolTableRecord
100
AcDbLayerTableRecord
  2
76
 70
     0
 62
     7
  6
Continuous
290
     1
370
    -3
390
F
  0
LAYER
  5
75
330
2
100
AcDbSymbolTableRecord
100
AcDbLayerTableRecord
  2
77
 70
     0
 62
     7
  6
Continuous
290
     1
370
    -3
390
F
  0
LAYER
  5
76
330
2
100
AcDbSymbolTableRecord
100
AcDbLayerTableRecord
  2
78
 70
     0
 62
     7
  6
Continuous
290
     1
370
    -3
390
F
  0
LAYER
  5
77
330
2
100
AcDbSymbolTableRecord
100
AcDbLayerTableRecord
  2
79
 70
     0
 62
     7
  6
Continuous
290
     1
370
    -3
390
F
  0
LAYER
  5
78
330
2
100
AcDbSymbolTableRecord
100
AcDbLayerTableRecord
  2
80
 70
     0
 62
     7
  6
Continuous
290
     1
370
    -3
390
F
  0
LAYER
  5
79
330
2
100
AcDbSymbolTableRecord
100
AcDbLayerTableRecord
  2
81
 70
     0
 62
     7
  6
Continuous
290
     1
370
    -3
390
F
  0
LAYER
  5
7A
330
2
100
AcDbSymbolTableRecord
100
AcDbLayerTableRecord
  2
82
 70
     0
 62
     7
  6
Continuous
290
     1
370
    -3
390
F
  0
LAYER
  5
7B
330
2
100
AcDbSymbolTableRecord
100
AcDbLayerTableRecord
  2
83
 70
     0
 62
     7
  6
Continuous
290
     1
370
    -3
390
F
  0
LAYER
  5
7C
330
2
100
AcDbSymbolTableRecord
100
AcDbLayerTableRecord
  2
84
 70
     0
 62
     7
  6
Continuous
290
     1
370
    -3
390
F
  0
LAYER
  5
7D
330
2
100
AcDbSymbolTableRecord
100
AcDbLayerTableRecord
  2
85
 70
     0
 62
     7
  6
Continuous
290
     1
370
    -3
390
F
  0
LAYER
  5
7E
330
2
100
AcDbSymbolTableRecord
100
AcDbLayerTableRecord
  2
86
 70
     0
 62
     7
  6
Continuous
290
     1
370
    -3
390
F
  0
LAYER
  5
7F
330
2
100
AcDbSymbolTableRecord
100
AcDbLayerTableRecord
  2
87
 70
     0
 62
     7
  6
Continuous
290
     1
370
    -3
390
F
  0
LAYER
  5
80
330
2
100
AcDbSymbolTableRecord
100
AcDbLayerTableRecord
  2
88
 70
     0
 62
     7
  6
Continuous
290
     1
370
    -3
390
F
  0
LAYER
  5
81
330
2
100
AcDbSymbolTableRecord
100
AcDbLayerTableRecord
  2
89
 70
     0
 62
     7
  6
Continuous
290
     1
370
    -3
390
F
  0
LAYER
  5
82
330
2
100
AcDbSymbolTableRecord
100
AcDbLayerTableRecord
  2
90
 70
     0
 62
     7
  6
Continuous
290
     1
370
    -3
390
F
  0
LAYER
  5
83
330
2
100
AcDbSymbolTableRecord
100
AcDbLayerTableRecord
  2
91
 70
     0
 62
     7
  6
Continuous
290
     1
370
    -3
390
F
  0
LAYER
  5
84
330
2
100
AcDbSymbolTableRecord
100
AcDbLayerTableRecord
  2
92
 70
     0
 62
     7
  6
Continuous
290
     1
370
    -3
390
F
  0
LAYER
  5
85
330
2
100
AcDbSymbolTableRecord
100
AcDbLayerTableRecord
  2
93
 70
     0
 62
     7
  6
Continuous
290
     1
370
    -3
390
F
  0
LAYER
  5
86
330
2
100
AcDbSymbolTableRecord
100
AcDbLayerTableRecord
  2
94
 70
     0
 62
     7
  6
Continuous
290
     1
370
    -3
390
F
  0
LAYER
  5
87
330
2
100
AcDbSymbolTableRecord
100
AcDbLayerTableRecord
  2
95
 70
     0
 62
     7
  6
Continuous
290
     1
370
    -3
390
F
  0
LAYER
  5
88
330
2
100
AcDbSymbolTableRecord
100
AcDbLayerTableRecord
  2
96
 70
     0
 62
     7
  6
Continuous
290
     1
370
    -3
390
F
  0
LAYER
  5
89
330
2
100
AcDbSymbolTableRecord
100
AcDbLayerTableRecord
  2
97
 70
     0
 62
     7
  6
Continuous
290
     1
370
    -3
390
F
  0
LAYER
  5
8A
330
2
100
AcDbSymbolTableRecord
100
AcDbLayerTableRecord
  2
98
 70
     0
 62
     7
  6
Continuous
290
     1
370
    -3
390
F
  0
LAYER
  5
8B
330
2
100
AcDbSymbolTableRecord
100
AcDbLayerTableRecord
  2
99
 70
     0
 62
     7
  6
Continuous
290
     1
370
    -3
390
F
  0
LAYER
  5
8C
330
2
100
AcDbSymbolTableRecord
100
AcDbLayerTableRecord
  2
100
 70
     0
 62
     7
  6
Continuous
290
     1
370
    -3
390
F
  0
LAYER
  5
8D
330
2
100
AcDbSymbolTableRecord
100
AcDbLayerTableRecord
  2
101
 70
     0
 62
     7
  6
Continuous
290
     1
370
    -3
390
F
  0
LAYER
  5
8E
330
2
100
AcDbSymbolTableRecord
100
AcDbLayerTableRecord
  2
102
 70
     0
 62
     7
  6
Continuous
290
     1
370
    -3
390
F
  0
LAYER
  5
8F
330
2
100
AcDbSymbolTableRecord
100
AcDbLayerTableRecord
  2
103
 70
     0
 62
     7
  6
Continuous
290
     1
370
    -3
390
F
  0
LAYER
  5
90
330
2
100
AcDbSymbolTableRecord
100
AcDbLayerTableRecord
  2
104
 70
     0
 62
     7
  6
Continuous
290
     1
370
    -3
390
F
  0
LAYER
  5
91
330
2
100
AcDbSymbolTableRecord
100
AcDbLayerTableRecord
  2
105
 70
     0
 62
     7
  6
Continuous
290
     1
370
    -3
390
F
  0
LAYER
  5
92
330
2
100
AcDbSymbolTableRecord
100
AcDbLayerTableRecord
  2
106
 70
     0
 62
     7
  6
Continuous
290
     1
370
    -3
390
F
  0
LAYER
  5
93
330
2
100
AcDbSymbolTableRecord
100
AcDbLayerTableRecord
  2
107
 70
     0
 62
     7
  6
Continuous
290
     1
370
    -3
390
F
  0
LAYER
  5
94
330
2
100
AcDbSymbolTableRecord
100
AcDbLayerTableRecord
  2
108
 70
     0
 62
     7
  6
Continuous
290
     1
370
    -3
390
F
  0
LAYER
  5
95
330
2
100
AcDbSymbolTableRecord
100
AcDbLayerTableRecord
  2
109
 70
     0
 62
     7
  6
Continuous
290
     1
370
    -3
390
F
  0
LAYER
  5
96
330
2
100
AcDbSymbolTableRecord
100
AcDbLayerTableRecord
  2
110
 70
     0
 62
     7
  6
Continuous
290
     1
370
    -3
390
F
  0
LAYER
  5
97
330
2
100
AcDbSymbolTableRecord
100
AcDbLayerTableRecord
  2
111
 70
     0
 62
     7
  6
Continuous
290
     1
370
    -3
390
F
  0
LAYER
  5
98
330
2
100
AcDbSymbolTableRecord
100
AcDbLayerTableRecord
  2
112
 70
     0
 62
     7
  6
Continuous
290
     1
370
    -3
390
F
  0
LAYER
  5
99
330
2
100
AcDbSymbolTableRecord
100
AcDbLayerTableRecord
  2
113
 70
     0
 62
     7
  6
Continuous
290
     1
370
    -3
390
F
  0
LAYER
  5
9A
330
2
100
AcDbSymbolTableRecord
100
AcDbLayerTableRecord
  2
114
 70
     0
 62
     7
  6
Continuous
290
     1
370
    -3
390
F
  0
LAYER
  5
9B
330
2
100
AcDbSymbolTableRecord
100
AcDbLayerTableRecord
  2
115
 70
     0
 62
     7
  6
Continuous
290
     1
370
    -3
390
F
  0
LAYER
  5
9C
330
2
100
AcDbSymbolTableRecord
100
AcDbLayerTableRecord
  2
116
 70
     0
 62
     7
  6
Continuous
290
     1
370
    -3
390
F
  0
LAYER
  5
9D
330
2
100
AcDbSymbolTableRecord
100
AcDbLayerTableRecord
  2
117
 70
     0
 62
     7
  6
Continuous
290
     1
370
    -3
390
F
  0
LAYER
  5
9E
330
2
100
AcDbSymbolTableRecord
100
AcDbLayerTableRecord
  2
118
 70
     0
 62
     7
  6
Continuous
290
     1
370
    -3
390
F
  0
LAYER
  5
9F
330
2
100
AcDbSymbolTableRecord
100
AcDbLayerTableRecord
  2
119
 70
     0
 62
     7
  6
Continuous
290
     1
370
    -3
390
F
  0
LAYER
  5
A0
330
2
100
AcDbSymbolTableRecord
100
AcDbLayerTableRecord
  2
120
 70
     0
 62
     7
  6
Continuous
290
     1
370
    -3
390
F
  0
LAYER
  5
A1
330
2
100
AcDbSymbolTableRecord
100
AcDbLayerTableRecord
  2
121
 70
     0
 62
     7
  6
Continuous
290
     1
370
    -3
390
F
  0
LAYER
  5
A2
330
2
100
AcDbSymbolTableRecord
100
AcDbLayerTableRecord
  2
122
 70
     0
 62
     7
  6
Continuous
290
     1
370
    -3
390
F
  0
LAYER
  5
A3
330
2
100
AcDbSymbolTableRecord
100
AcDbLayerTableRecord
  2
123
 70
     0
 62
     7
  6
Continuous
290
     1
370
    -3
390
F
  0
LAYER
  5
A4
330
2
100
AcDbSymbolTableRecord
100
AcDbLayerTableRecord
  2
124
 70
     0
 62
     7
  6
Continuous
290
     1
370
    -3
390
F
  0
LAYER
  5
A5
330
2
100
AcDbSymbolTableRecord
100
AcDbLayerTableRecord
  2
125
 70
     0
 62
     7
  6
Continuous
290
     1
370
    -3
390
F
  0
LAYER
  5
A6
330
2
100
AcDbSymbolTableRecord
100
AcDbLayerTableRecord
  2
126
 70
     0
 62
     7
  6
Continuous
290
     1
370
    -3
390
F
  0
LAYER
  5
A7
330
2
100
AcDbSymbolTableRecord
100
AcDbLayerTableRecord
  2
127
 70
     0
 62
     7
  6
Continuous
290
     1
370
    -3
390
F
  0
LAYER
  5
A8
330
2
100
AcDbSymbolTableRecord
100
AcDbLayerTableRecord
  2
128
 70
     0
 62
     7
  6
Continuous
290
     1
370
    -3
390
F
  0
ENDTAB
  0
TABLE
  2
STYLE
  5
3
330
0
100
AcDbSymbolTable
 70
    10
  0
STYLE
  5
11
330
3
100
AcDbSymbolTableRecord
100
AcDbTextStyleTableRecord
  2
Standard
 70
     0
 40
0.0
 41
1.0
 50
0.0
 71
     0
 42
2.5
  3
txt.shx
  4
extfont.shx
  0
STYLE
  5
B1
330
3
100
AcDbSymbolTableRecord
100
AcDbTextStyleTableRecord
  2
KANJI0
 70
     0
 40
3.0
 41
0.6
 50
0.0
 71
     0
 42
3.0
  3
txt.shx
  4
extfont.shx
  0
STYLE
  5
14C
330
3
100
AcDbSymbolTableRecord
100
AcDbTextStyleTableRecord
  2
KANJI1
 70
     0
 40
3.0
 41
0.666666667
 50
0.0
 71
     0
 42
3.0
  3
txt.shx
  4
extfont.shx
  0
STYLE
  5
18B
330
3
100
AcDbSymbolTableRecord
100
AcDbTextStyleTableRecord
  2
KANJI2
 70
     0
 40
3.0
 41
1.0
 50
0.0
 71
     0
 42
3.0
  3
txt.shx
  4
extfont.shx
  0
STYLE
  5
18E
330
3
100
AcDbSymbolTableRecord
100
AcDbTextStyleTableRecord
  2
KANJI3
 70
     4
 40
2.5
 41
1.0
 50
0.0
 71
     0
 42
2.5
  3
txt.shx
  4
extfont.shx
  0
STYLE
  5
194
330
3
100
AcDbSymbolTableRecord
100
AcDbTextStyleTableRecord
  2
KANJI4
 70
     4
 40
2.5
 41
1.0
 50
0.0
 71
     0
 42
2.5
  3
txt.shx
  4
extfont.shx
  0
STYLE
  5
19D
330
3
100
AcDbSymbolTableRecord
100
AcDbTextStyleTableRecord
  2
KANJI5
 70
     0
 40
3.0
 41
0.45
 50
0.0
 71
     0
 42
3.0
  3
txt.shx
  4
extfont.shx
  0
STYLE
  5
1A7
330
3
100
AcDbSymbolTableRecord
100
AcDbTextStyleTableRecord
  2
KANJI6
 70
     4
 40
1.666666667
 41
1.5
 50
0.0
 71
     0
 42
1.666666667
  3
txt.shx
  4
extfont.shx
  0
STYLE
  5
1AD
330
3
100
AcDbSymbolTableRecord
100
AcDbTextStyleTableRecord
  2
KANJI7
 70
     0
 40
3.0
 41
0.9
 50
0.0
 71
     0
 42
3.0
  3
txt.shx
  4
extfont.shx
  0
STYLE
  5
22D
330
3
100
AcDbSymbolTableRecord
100
AcDbTextStyleTableRecord
  2
KANJI8
 70
     0
 40
3.0
 41
0.333333333
 50
0.0
 71
     0
 42
3.0
  3
txt.shx
  4
extfont.shx
  0
ENDTAB
  0
TABLE
  2
VIEW
  5
6
330
0
100
AcDbSymbolTable
 70
     0
  0
ENDTAB
  0
TABLE
  2
UCS
  5
7
330
0
100
AcDbSymbolTable
 70
     0
  0
ENDTAB
  0
TABLE
  2
APPID
  5
9
330
0
100
AcDbSymbolTable
 70
     1
  0
APPID
  5
12
330
9
100
AcDbSymbolTableRecord
100
AcDbRegAppTableRecord
  2
ACAD
 70
     0
  0
ENDTAB
  0
TABLE
  2
DIMSTYLE
  5
A
330
0
100
AcDbSymbolTable
 70
     1
100
AcDbDimStyleTable
 71
     0
  0
DIMSTYLE
105
27
330
A
100
AcDbSymbolTableRecord
100
AcDbDimStyleTableRecord
  2
ISO-25
 70
    64
  3

  4

 40
1.0
 41
2.5
 42
0.625
 43
3.75
 44
1.25
 45
0.0
 46
0.0
 47
0.0
 48
0.0
 71
     0
 72
     0
 73
     0
 74
     0
 75
     0
 76
     0
 77
     1
 78
     8
 79
     0
140
2.5
141
2.5
142
0.0
143
0.039370079
144
1.0
145
0.0
146
1.0
147
0.625
148
0.0
170
     0
171
     3
172
     1
173
     0
174
     0
175
     0
176
     0
177
     0
178
     0
179
     0
270
     2
271
     2
272
     2
273
     2
274
     3
275
     0
276
     0
277
     2
278
    46
279
     0
280
     0
281
     0
282
     0
283
     1
284
     8
285
     0
286
     0
288
     0
289
     3
340
11
341
0
342
0
343
0
344
0
371
    -2
372
    -2
  0
ENDTAB
  0
TABLE
  2
BLOCK_RECORD
  5
1
330
0
100
AcDbSymbolTable
 70
     3
  0
BLOCK_RECORD
  5
1F
330
1
100
AcDbSymbolTableRecord
100
AcDbBlockTableRecord
  2
*Model_Space
340
22
  0
BLOCK_RECORD
  5
1B
330
1
100
AcDbSymbolTableRecord
100
AcDbBlockTableRecord
  2
*Paper_Space
340
1E
  0
BLOCK_RECORD
  5
23
330
1
100
AcDbSymbolTableRecord
100
AcDbBlockTableRecord
  2
*Paper_Space0
340
26
  0
ENDTAB
  0
ENDSEC
  0
SECTION
  2
BLOCKS
  0
BLOCK
  5
1C
330
1B
100
AcDbEntity
 67
     1
  8
0
100
AcDbBlockBegin
  2
*Paper_Space
 70
     0
 10
0.0
 20
0.0
 30
0.0
  3
*Paper_Space
  1

  0
ENDBLK
  5
1D
330
1B
100
AcDbEntity
  8
0
100
AcDbBlockEnd
  0
BLOCK
  5
20
330
1F
100
AcDbEntity
  8
0
100
AcDbBlockBegin
  2
*Model_Space
 70
     0
 10
0.0
 20
0.0
 30
0.0
  3
*Model_Space
  1

  0
ENDBLK
  5
21
330
1F
100
AcDbEntity
  8
0
100
AcDbBlockEnd
  0
BLOCK
  5
24
330
23
100
AcDbEntity
 67
     1
  8
0
100
AcDbBlockBegin
  2
*Paper_Space0
 70
     0
 10
0.0
 20
0.0
 30
0.0
  3
*Paper_Space0
  1

  0
ENDBLK
  5
25
330
23
100
AcDbEntity
  8
0
100
AcDbBlockEnd
  0
ENDSEC
  0
SECTION
  2
ENTITIES
  0
LINE
  5
A9
330
1F
100
AcDbEntity
  8
7
  6
Continuous
 62
     2
100
AcDbLine
 10
320.390365785
 20
176.260286789
 30
0.0
 11
320.390365785
 21
160.260286789
 31
0.0
  0
LINE
  5
AA
330
1F
100
AcDbEntity
  8
7
  6
Continuous
 62
     2
100
AcDbLine
 10
320.390365785
 20
162.260286789
 30
0.0
 11
317.975551219
 21
162.907334402
 31
0.0
  0
LINE
  5
AB
330
1F
100
AcDbEntity
  8
7
  6
Continuous
 62
     2
100
AcDbLine
 10
320.390365785
 20
162.260286789
 30
0.0
 11
317.975551219
 21
161.613239176
 31
0.0
  0
LWPOLYLINE
  5
AD
330
1F
100
AcDbEntity
  8
7
  6
Continuous
 62
     2
100
AcDbPolyline
 90
     3
 70
   128
 43
0.0
 10
320.390365785
 20
162.260286789
 10
309.390365785
 20
162.260286789
 10
311.80518035
 20
161.613239176
  0
LINE
  5
AE
330
1F
100
AcDbEntity
  8
7
  6
Continuous
 62
     2
100
AcDbLine
 10
309.390365785
 20
162.260286789
 30
0.0
 11
311.80518035
 21
162.907334402
 31
0.0
  0
LINE
  5
AF
330
1F
100
AcDbEntity
  8
7
  6
Continuous
 62
     2
100
AcDbLine
 10
309.390365785
 20
213.260286789
 30
0.0
 11
309.390365785
 21
160.260286789
 31
0.0
  0
TEXT
  5
B0
330
1F
100
AcDbEntity
  8
7
  6
Continuous
 62
     2
100
AcDbText
 10
312.940365785
 20
163.260286789
 30
0.0
 40
3.0
  1
１１
 41
0.6
  7
KANJI0
 72
     5
 11
316.840365785
 21
163.260286789
 31
0.0
100
AcDbText
  0
LINE
  5
B2
330
1F
100
AcDbEntity
  8
7
  6
Continuous
 62
     2
100
AcDbLine
 10
309.390365785
 20
162.260286789
 30
0.0
 11
306.975551219
 21
162.907334402
 31
0.0
  0
LINE
  5
B3
330
1F
100
AcDbEntity
  8
7
  6
Continuous
 62
     2
100
AcDbLine
 10
309.390365785
 20
162.260286789
 30
0.0
 11
306.975551219
 21
161.613239176
 31
0.0
  0
LWPOLYLINE
  5
B5
330
1F
100
AcDbEntity
  8
7
  6
Continuous
 62
     2
100
AcDbPolyline
 90
     3
 70
   128
 43
0.0
 10
309.390365785
 20
162.260286789
 10
281.390365785
 20
162.260286789
 10
283.80518035
 20
161.613239176
  0
LINE
  5
B6
330
1F
100
AcDbEntity
  8
7
  6
Continuous
 62
     2
100
AcDbLine
 10
281.390365785
 20
162.260286789
 30
0.0
 11
283.80518035
 21
162.907334402
 31
0.0
  0
LINE
  5
B7
330
1F
100
AcDbEntity
  8
7
  6
Continuous
 62
     2
100
AcDbLine
 10
281.390365785
 20
213.260286789
 30
0.0
 11
281.390365785
 21
160.260286789
 31
0.0
  0
TEXT
  5
B8
330
1F
100
AcDbEntity
  8
7
  6
Continuous
 62
     2
100
AcDbText
 10
293.440365785
 20
163.260286789
 30
0.0
 40
3.0
  1
２８
 41
0.6
  7
KANJI0
 72
     5
 11
297.340365785
 21
163.260286789
 31
0.0
100
AcDbText
  0
LINE
  5
B9
330
1F
100
AcDbEntity
  8
7
  6
Continuous
 62
     2
100
AcDbLine
 10
281.390365785
 20
162.260286789
 30
0.0
 11
278.975551219
 21
162.907334402
 31
0.0
  0
LINE
  5
BA
330
1F
100
AcDbEntity
  8
7
  6
Continuous
 62
     2
100
AcDbLine
 10
281.390365785
 20
162.260286789
 30
0.0
 11
278.975551219
 21
161.613239176
 31
0.0
  0
LWPOLYLINE
  5
BC
330
1F
100
AcDbEntity
  8
7
  6
Continuous
 62
     2
100
AcDbPolyline
 90
     3
 70
   128
 43
0.0
 10
281.390365785
 20
162.260286789
 10
265.890365785
 20
162.260286789
 10
268.30518035
 20
161.613239176
  0
LINE
  5
BD
330
1F
100
AcDbEntity
  8
7
  6
Continuous
 62
     2
100
AcDbLine
 10
265.890365785
 20
162.260286789
 30
0.0
 11
268.30518035
 21
162.907334402
 31
0.0
  0
TEXT
  5
BE
330
1F
100
AcDbEntity
  8
7
  6
Continuous
 62
     2
100
AcDbText
 10
269.590365785
 20
163.260286789
 30
0.0
 40
3.0
  1
１５．５
 41
0.6
  7
KANJI0
 72
     5
 11
277.690365785
 21
163.260286789
 31
0.0
100
AcDbText
  0
LINE
  5
BF
330
1F
100
AcDbEntity
  8
7
  6
Continuous
 62
     2
100
AcDbLine
 10
294.890365785
 20
201.260286789
 30
0.0
 11
332.390365785
 21
201.260286789
 31
0.0
  0
LINE
  5
C0
330
1F
100
AcDbEntity
  8
7
  6
Continuous
 62
     2
100
AcDbLine
 10
330.390365785
 20
201.260286789
 30
0.0
 11
331.037413397
 21
203.675101355
 31
0.0
  0
LINE
  5
C1
330
1F
100
AcDbEntity
  8
7
  6
Continuous
 62
     2
100
AcDbLine
 10
330.390365785
 20
201.260286789
 30
0.0
 11
329.743318172
 21
203.675101355
 31
0.0
  0
LWPOLYLINE
  5
C3
330
1F
100
AcDbEntity
  8
7
  6
Continuous
 62
     2
100
AcDbPolyline
 90
     3
 70
   128
 43
0.0
 10
330.390365785
 20
201.260286789
 10
330.390365785
 20
227.260286789
 10
329.743318172
 20
224.845472223
  0
LINE
  5
C4
330
1F
100
AcDbEntity
  8
7
  6
Continuous
 62
     2
100
AcDbLine
 10
330.390365785
 20
227.260286789
 30
0.0
 11
331.037413397
 21
224.845472223
 31
0.0
  0
LINE
  5
C5
330
1F
100
AcDbEntity
  8
7
  6
Continuous
 62
     2
100
AcDbLine
 10
294.890365785
 20
227.260286789
 30
0.0
 11
332.390365785
 21
227.260286789
 31
0.0
  0
TEXT
  5
C6
330
1F
100
AcDbEntity
  8
7
  6
Continuous
 62
     2
100
AcDbText
 10
329.390365785
 20
212.310286789
 30
0.0
 40
3.0
  1
２６
 50
90.0
 41
0.6
  7
KANJI0
 72
     5
 11
329.390365785
 21
216.210286789
 31
0.0
100
AcDbText
  0
LINE
  5
C7
330
1F
100
AcDbEntity
  8
7
  6
Continuous
 62
     2
100
AcDbLine
 10
283.390365785
 20
186.260286789
 30
0.0
 11
340.390365785
 21
186.260286789
 31
0.0
  0
LINE
  5
C8
330
1F
100
AcDbEntity
  8
7
  6
Continuous
 62
     2
100
AcDbLine
 10
338.390365785
 20
186.260286789
 30
0.0
 11
339.037413397
 21
188.675101355
 31
0.0
  0
LINE
  5
C9
330
1F
100
AcDbEntity
  8
7
  6
Continuous
 62
     2
100
AcDbLine
 10
338.390365785
 20
186.260286789
 30
0.0
 11
337.743318172
 21
188.675101355
 31
0.0
  0
LWPOLYLINE
  5
CB
330
1F
100
AcDbEntity
  8
7
  6
Continuous
 62
     2
100
AcDbPolyline
 90
     3
 70
   128
 43
0.0
 10
338.390365785
 20
186.260286789
 10
338.390365785
 20
242.260286789
 10
337.743318172
 20
239.845472223
  0
LINE
  5
CC
330
1F
100
AcDbEntity
  8
7
  6
Continuous
 62
     2
100
AcDbLine
 10
338.390365785
 20
242.260286789
 30
0.0
 11
339.037413397
 21
239.845472223
 31
0.0
  0
LINE
  5
CD
330
1F
100
AcDbEntity
  8
7
  6
Continuous
 62
     2
100
AcDbLine
 10
283.390365785
 20
242.260286789
 30
0.0
 11
340.390365785
 21
242.260286789
 31
0.0
  0
TEXT
  5
CE
330
1F
100
AcDbEntity
  8
7
  6
Continuous
 62
     2
100
AcDbText
 10
337.390365785
 20
212.310286789
 30
0.0
 40
3.0
  1
５６
 50
90.0
 41
0.6
  7
KANJI0
 72
     5
 11
337.390365785
 21
216.210286789
 31
0.0
100
AcDbText
  0
LINE
  5
CF
330
1F
100
AcDbEntity
  8
7
  6
Continuous
 62
     2
100
AcDbLine
 10
266.890365785
 20
173.760286789
 30
0.0
 11
348.390365785
 21
173.760286789
 31
0.0
  0
LINE
  5
D0
330
1F
100
AcDbEntity
  8
7
  6
Continuous
 62
     2
100
AcDbLine
 10
346.390365785
 20
173.760286789
 30
0.0
 11
347.037413397
 21
176.175101355
 31
0.0
  0
LINE
  5
D1
330
1F
100
AcDbEntity
  8
7
  6
Continuous
 62
     2
100
AcDbLine
 10
346.390365785
 20
173.760286789
 30
0.0
 11
345.743318172
 21
176.175101355
 31
0.0
  0
LWPOLYLINE
  5
D3
330
1F
100
AcDbEntity
  8
7
  6
Continuous
 62
     2
100
AcDbPolyline
 90
     3
 70
   128
 43
0.0
 10
346.390365785
 20
173.760286789
 10
346.390365785
 20
254.760286789
 10
345.743318172
 20
252.345472223
  0
LINE
  5
D4
330
1F
100
AcDbEntity
  8
7
  6
Continuous
 62
     2
100
AcDbLine
 10
346.390365785
 20
254.760286789
 30
0.0
 11
347.037413397
 21
252.345472223
 31
0.0
  0
LINE
  5
D5
330
1F
100
AcDbEntity
  8
7
  6
Continuous
 62
     2
100
AcDbLine
 10
266.890365785
 20
254.760286789
 30
0.0
 11
348.390365785
 21
254.760286789
 31
0.0
  0
TEXT
  5
D6
330
1F
100
AcDbEntity
  8
7
  6
Continuous
 62
     2
100
AcDbText
 10
345.390365785
 20
212.310286789
 30
0.0
 40
3.0
  1
８１
 50
90.0
 41
0.6
  7
KANJI0
 72
     5
 11
345.390365785
 21
216.210286789
 31
0.0
100
AcDbText
  0
LINE
  5
D7
330
1F
100
AcDbEntity
  8
7
  6
Continuous
 62
     2
100
AcDbLine
 10
320.390365785
 20
252.260286789
 30
0.0
 11
320.390365785
 21
266.260286789
 31
0.0
  0
LINE
  5
D8
330
1F
100
AcDbEntity
  8
7
  6
Continuous
 62
     2
100
AcDbLine
 10
320.390365785
 20
264.260286789
 30
0.0
 11
317.975551219
 21
264.907334402
 31
0.0
  0
LINE
  5
D9
330
1F
100
AcDbEntity
  8
7
  6
Continuous
 62
     2
100
AcDbLine
 10
320.390365785
 20
264.260286789
 30
0.0
 11
317.975551219
 21
263.613239176
 31
0.0
  0
LWPOLYLINE
  5
DB
330
1F
100
AcDbEntity
  8
7
  6
Continuous
 62
     2
100
AcDbPolyline
 90
     3
 70
   128
 43
0.0
 10
320.390365785
 20
264.260286789
 10
308.390365785
 20
264.260286789
 10
310.80518035
 20
263.613239176
  0
LINE
  5
DC
330
1F
100
AcDbEntity
  8
7
  6
Continuous
 62
     2
100
AcDbLine
 10
308.390365785
 20
264.260286789
 30
0.0
 11
310.80518035
 21
264.907334402
 31
0.0
  0
LINE
  5
DD
330
1F
100
AcDbEntity
  8
7
  6
Continuous
 62
     2
100
AcDbLine
 10
308.390365785
 20
187.260286789
 30
0.0
 11
308.390365785
 21
266.260286789
 31
0.0
  0
TEXT
  5
DE
330
1F
100
AcDbEntity
  8
7
  6
Continuous
 62
     2
100
AcDbText
 10
312.440365785
 20
265.260286789
 30
0.0
 40
3.0
  1
１２
 41
0.6
  7
KANJI0
 72
     5
 11
316.340365785
 21
265.260286789
 31
0.0
100
AcDbText
  0
LINE
  5
DF
330
1F
100
AcDbEntity
  8
7
  6
Continuous
 62
     2
100
AcDbLine
 10
308.390365785
 20
264.260286789
 30
0.0
 11
305.975551219
 21
264.907334402
 31
0.0
  0
LINE
  5
E0
330
1F
100
AcDbEntity
  8
7
  6
Continuous
 62
     2
100
AcDbLine
 10
308.390365785
 20
264.260286789
 30
0.0
 11
305.975551219
 21
263.613239176
 31
0.0
  0
LWPOLYLINE
  5
E2
330
1F
100
AcDbEntity
  8
7
  6
Continuous
 62
     2
100
AcDbPolyline
 90
     3
 70
   128
 43
0.0
 10
308.390365785
 20
264.260286789
 10
293.890365785
 20
264.260286789
 10
296.30518035
 20
263.613239176
  0
LINE
  5
E3
330
1F
100
AcDbEntity
  8
7
  6
Continuous
 62
     2
100
AcDbLine
 10
293.890365785
 20
264.260286789
 30
0.0
 11
296.30518035
 21
264.907334402
 31
0.0
  0
LINE
  5
E4
330
1F
100
AcDbEntity
  8
7
  6
Continuous
 62
     2
100
AcDbLine
 10
293.890365785
 20
202.260286789
 30
0.0
 11
293.890365785
 21
266.260286789
 31
0.0
  0
TEXT
  5
E5
330
1F
100
AcDbEntity
  8
7
  6
Continuous
 62
     2
100
AcDbText
 10
297.090365785
 20
265.260286789
 30
0.0
 40
3.0
  1
１４．５
 41
0.6
  7
KANJI0
 72
     5
 11
305.190365785
 21
265.260286789
 31
0.0
100
AcDbText
  0
LINE
  5
E6
330
1F
100
AcDbEntity
  8
7
  6
Continuous
 62
     2
100
AcDbLine
 10
293.890365785
 20
264.260286789
 30
0.0
 11
291.475551219
 21
264.907334402
 31
0.0
  0
LINE
  5
E7
330
1F
100
AcDbEntity
  8
7
  6
Continuous
 62
     2
100
AcDbLine
 10
293.890365785
 20
264.260286789
 30
0.0
 11
291.475551219
 21
263.613239176
 31
0.0
  0
LWPOLYLINE
  5
E9
330
1F
100
AcDbEntity
  8
7
  6
Continuous
 62
     2
100
AcDbPolyline
 90
     3
 70
   128
 43
0.0
 10
293.890365785
 20
264.260286789
 10
282.390365785
 20
264.260286789
 10
284.80518035
 20
263.613239176
  0
LINE
  5
EA
330
1F
100
AcDbEntity
  8
7
  6
Continuous
 62
     2
100
AcDbLine
 10
282.390365785
 20
264.260286789
 30
0.0
 11
284.80518035
 21
264.907334402
 31
0.0
  0
LINE
  5
EB
330
1F
100
AcDbEntity
  8
7
  6
Continuous
 62
     2
100
AcDbLine
 10
282.390365785
 20
187.260286789
 30
0.0
 11
282.390365785
 21
266.260286789
 31
0.0
  0
TEXT
  5
EC
330
1F
100
AcDbEntity
  8
7
  6
Continuous
 62
     2
100
AcDbText
 10
284.090365785
 20
265.260286789
 30
0.0
 40
3.0
  1
１１．５
 41
0.6
  7
KANJI0
 72
     5
 11
292.190365785
 21
265.260286789
 31
0.0
100
AcDbText
  0
LINE
  5
ED
330
1F
100
AcDbEntity
  8
7
  6
Continuous
 62
     2
100
AcDbLine
 10
265.890365785
 20
172.760286789
 30
0.0
 11
265.890365785
 21
160.260286789
 31
0.0
  0
LINE
  5
EF
330
1F
100
AcDbEntity
  8
7
  6
LTYPE1
 62
     2
100
AcDbLine
 10
265.890365785
 20
253.760286789
 30
0.0
 11
265.890365785
 21
173.760286789
 31
0.0
  0
LINE
  5
F0
330
1F
100
AcDbEntity
  8
7
  6
Continuous
 62
     2
100
AcDbLine
 10
279.890365785
 20
256.260286789
 30
0.0
 11
279.890365785
 21
266.260286789
 31
0.0
  0
LINE
  5
F1
330
1F
100
AcDbEntity
  8
7
  6
Continuous
 62
     2
100
AcDbLine
 10
279.890365785
 20
264.260286789
 30
0.0
 11
277.475551219
 21
264.907334402
 31
0.0
  0
LINE
  5
F2
330
1F
100
AcDbEntity
  8
7
  6
Continuous
 62
     2
100
AcDbLine
 10
279.890365785
 20
264.260286789
 30
0.0
 11
277.475551219
 21
263.613239176
 31
0.0
  0
LWPOLYLINE
  5
F4
330
1F
100
AcDbEntity
  8
7
  6
Continuous
 62
     2
100
AcDbPolyline
 90
     3
 70
   128
 43
0.0
 10
279.890365785
 20
264.260286789
 10
251.890365785
 20
264.260286789
 10
254.30518035
 20
263.613239176
  0
LINE
  5
F5
330
1F
100
AcDbEntity
  8
7
  6
Continuous
 62
     2
100
AcDbLine
 10
251.890365785
 20
264.260286789
 30
0.0
 11
254.30518035
 21
264.907334402
 31
0.0
  0
LINE
  5
F6
330
1F
100
AcDbEntity
  8
7
  6
Continuous
 62
     2
100
AcDbLine
 10
251.890365785
 20
256.260286789
 30
0.0
 11
251.890365785
 21
266.260286789
 31
0.0
  0
TEXT
  5
F7
330
1F
100
AcDbEntity
  8
7
  6
Continuous
 62
     2
100
AcDbText
 10
263.940365785
 20
265.260286789
 30
0.0
 40
3.0
  1
２８
 41
0.6
  7
KANJI0
 72
     5
 11
267.840365785
 21
265.260286789
 31
0.0
100
AcDbText
  0
LINE
  5
F8
330
1F
100
AcDbEntity
  8
7
  6
Continuous
 62
     2
100
AcDbLine
 10
320.390365785
 20
161.260286789
 30
0.0
 11
320.390365785
 21
152.260286789
 31
0.0
  0
LINE
  5
F9
330
1F
100
AcDbEntity
  8
7
  6
Continuous
 62
     2
100
AcDbLine
 10
320.390365785
 20
154.260286789
 30
0.0
 11
317.975551219
 21
154.907334402
 31
0.0
  0
LINE
  5
FA
330
1F
100
AcDbEntity
  8
7
  6
Continuous
 62
     2
100
AcDbLine
 10
320.390365785
 20
154.260286789
 30
0.0
 11
317.975551219
 21
153.613239176
 31
0.0
  0
LWPOLYLINE
  5
FC
330
1F
100
AcDbEntity
  8
7
  6
Continuous
 62
     2
100
AcDbPolyline
 90
     3
 70
   128
 43
0.0
 10
320.390365785
 20
154.260286789
 10
258.390365785
 20
154.260286789
 10
260.80518035
 20
153.613239176
  0
LINE
  5
FD
330
1F
100
AcDbEntity
  8
7
  6
Continuous
 62
     2
100
AcDbLine
 10
258.390365785
 20
154.260286789
 30
0.0
 11
260.80518035
 21
154.907334402
 31
0.0
  0
LINE
  5
FE
330
1F
100
AcDbEntity
  8
7
  6
Continuous
 62
     2
100
AcDbLine
 10
258.390365785
 20
197.260286789
 30
0.0
 11
258.390365785
 21
152.260286789
 31
0.0
  0
TEXT
  5
FF
330
1F
100
AcDbEntity
  8
7
  6
Continuous
 62
     2
100
AcDbText
 10
287.440365785
 20
155.260286789
 30
0.0
 40
3.0
  1
６２
 41
0.6
  7
KANJI0
 72
     5
 11
291.340365785
 21
155.260286789
 31
0.0
100
AcDbText
  0
LINE
  5
100
330
1F
100
AcDbEntity
  8
7
  6
Continuous
 62
     2
100
AcDbLine
 10
258.390365785
 20
154.260286789
 30
0.0
 11
255.975551219
 21
154.907334402
 31
0.0
  0
LINE
  5
101
330
1F
100
AcDbEntity
  8
7
  6
Continuous
 62
     2
100
AcDbLine
 10
258.390365785
 20
154.260286789
 30
0.0
 11
255.975551219
 21
153.613239176
 31
0.0
  0
LWPOLYLINE
  5
103
330
1F
100
AcDbEntity
  8
7
  6
Continuous
 62
     2
100
AcDbPolyline
 90
     3
 70
   128
 43
0.0
 10
258.390365785
 20
154.260286789
 10
216.390365785
 20
154.260286789
 10
218.80518035
 20
153.613239176
  0
LINE
  5
104
330
1F
100
AcDbEntity
  8
7
  6
Continuous
 62
     2
100
AcDbLine
 10
216.390365785
 20
154.260286789
 30
0.0
 11
218.80518035
 21
154.907334402
 31
0.0
  0
LINE
  5
105
330
1F
100
AcDbEntity
  8
7
  6
Continuous
 62
     2
100
AcDbLine
 10
216.390365785
 20
193.260286789
 30
0.0
 11
216.390365785
 21
152.260286789
 31
0.0
  0
TEXT
  5
106
330
1F
100
AcDbEntity
  8
7
  6
Continuous
 62
     2
100
AcDbText
 10
235.440365785
 20
155.260286789
 30
0.0
 40
3.0
  1
４２
 41
0.6
  7
KANJI0
 72
     5
 11
239.340365785
 21
155.260286789
 31
0.0
100
AcDbText
  0
LINE
  5
107
330
1F
100
AcDbEntity
  8
7
  6
Continuous
 62
     2
100
AcDbLine
 10
264.890365785
 20
200.260286789
 30
0.0
 11
170.390365785
 21
200.260286789
 31
0.0
  0
LINE
  5
108
330
1F
100
AcDbEntity
  8
7
  6
Continuous
 62
     2
100
AcDbLine
 10
172.390365785
 20
200.260286789
 30
0.0
 11
173.037413397
 21
202.675101355
 31
0.0
  0
LINE
  5
109
330
1F
100
AcDbEntity
  8
7
  6
Continuous
 62
     2
100
AcDbLine
 10
172.390365785
 20
200.260286789
 30
0.0
 11
171.743318172
 21
202.675101355
 31
0.0
  0
LWPOLYLINE
  5
10B
330
1F
100
AcDbEntity
  8
7
  6
Continuous
 62
     2
100
AcDbPolyline
 90
     3
 70
   128
 43
0.0
 10
172.390365785
 20
200.260286789
 10
172.390365785
 20
228.260286789
 10
171.743318172
 20
225.845472223
  0
LINE
  5
10C
330
1F
100
AcDbEntity
  8
7
  6
Continuous
 62
     2
100
AcDbLine
 10
172.390365785
 20
228.260286789
 30
0.0
 11
173.037413397
 21
225.845472223
 31
0.0
  0
LINE
  5
10D
330
1F
100
AcDbEntity
  8
7
  6
Continuous
 62
     2
100
AcDbLine
 10
264.890365785
 20
228.260286789
 30
0.0
 11
170.390365785
 21
228.260286789
 31
0.0
  0
TEXT
  5
10E
330
1F
100
AcDbEntity
  8
7
  6
Continuous
 62
     2
100
AcDbText
 10
171.390365785
 20
212.310286789
 30
0.0
 40
3.0
  1
２８
 50
90.0
 41
0.6
  7
KANJI0
 72
     5
 11
171.390365785
 21
216.210286789
 31
0.0
100
AcDbText
  0
LINE
  5
10F
330
1F
100
AcDbEntity
  8
7
  6
Continuous
 62
     2
100
AcDbLine
 10
227.318567107
 20
233.260286789
 30
0.0
 11
162.390365785
 21
233.260286789
 31
0.0
  0
LINE
  5
110
330
1F
100
AcDbEntity
  8
7
  6
Continuous
 62
     2
100
AcDbLine
 10
164.390365785
 20
233.260286789
 30
0.0
 11
163.743318172
 21
230.845472223
 31
0.0
  0
LINE
  5
111
330
1F
100
AcDbEntity
  8
7
  6
Continuous
 62
     2
100
AcDbLine
 10
164.390365785
 20
233.260286789
 30
0.0
 11
165.037413397
 21
230.845472223
 31
0.0
  0
LWPOLYLINE
  5
113
330
1F
100
AcDbEntity
  8
7
  6
Continuous
 62
     2
100
AcDbPolyline
 90
     3
 70
   128
 43
0.0
 10
164.390365785
 20
233.260286789
 10
164.390365785
 20
195.260286789
 10
165.037413397
 20
197.675101355
  0
LINE
  5
114
330
1F
100
AcDbEntity
  8
7
  6
Continuous
 62
     2
100
AcDbLine
 10
164.390365785
 20
195.260286789
 30
0.0
 11
163.743318172
 21
197.675101355
 31
0.0
  0
LINE
  5
115
330
1F
100
AcDbEntity
  8
7
  6
Continuous
 62
     2
100
AcDbLine
 10
227.318567107
 20
195.260286789
 30
0.0
 11
162.390365785
 21
195.260286789
 31
0.0
  0
TEXT
  5
116
330
1F
100
AcDbEntity
  8
7
  6
Continuous
 62
     2
100
AcDbText
 10
163.390365785
 20
212.310286789
 30
0.0
 40
3.0
  1
３８
 50
90.0
 41
0.6
  7
KANJI0
 72
     5
 11
163.390365785
 21
216.210286789
 31
0.0
100
AcDbText
  0
LINE
  5
117
330
1F
100
AcDbEntity
  8
7
  6
Continuous
 62
     2
100
AcDbLine
 10
220.390365785
 20
189.260286789
 30
0.0
 11
154.390365785
 21
189.260286789
 31
0.0
  0
LINE
  5
118
330
1F
100
AcDbEntity
  8
7
  6
Continuous
 62
     2
100
AcDbLine
 10
156.390365785
 20
189.260286789
 30
0.0
 11
157.037413397
 21
191.675101355
 31
0.0
  0
LINE
  5
119
330
1F
100
AcDbEntity
  8
7
  6
Continuous
 62
     2
100
AcDbLine
 10
156.390365785
 20
189.260286789
 30
0.0
 11
155.743318172
 21
191.675101355
 31
0.0
  0
LWPOLYLINE
  5
11B
330
1F
100
AcDbEntity
  8
7
  6
Continuous
 62
     2
100
AcDbPolyline
 90
     3
 70
   128
 43
0.0
 10
156.390365785
 20
189.260286789
 10
156.390365785
 20
239.260286789
 10
155.743318172
 20
236.845472223
  0
LINE
  5
11C
330
1F
100
AcDbEntity
  8
7
  6
Continuous
 62
     2
100
AcDbLine
 10
156.390365785
 20
239.260286789
 30
0.0
 11
157.037413397
 21
236.845472223
 31
0.0
  0
LINE
  5
11D
330
1F
100
AcDbEntity
  8
7
  6
Continuous
 62
     2
100
AcDbLine
 10
220.390365785
 20
239.260286789
 30
0.0
 11
154.390365785
 21
239.260286789
 31
0.0
  0
TEXT
  5
11E
330
1F
100
AcDbEntity
  8
7
  6
Continuous
 62
     2
100
AcDbText
 10
155.390365785
 20
212.310286789
 30
0.0
 40
3.0
  1
５０
 50
90.0
 41
0.6
  7
KANJI0
 72
     5
 11
155.390365785
 21
216.210286789
 31
0.0
100
AcDbText
  0
LINE
  5
11F
330
1F
100
AcDbEntity
  8
7
  6
Continuous
 62
     2
100
AcDbLine
 10
264.890365785
 20
184.760286789
 30
0.0
 11
146.390365785
 21
184.760286789
 31
0.0
  0
LINE
  5
120
330
1F
100
AcDbEntity
  8
7
  6
Continuous
 62
     2
100
AcDbLine
 10
148.390365785
 20
184.760286789
 30
0.0
 11
149.037413397
 21
187.175101355
 31
0.0
  0
LINE
  5
121
330
1F
100
AcDbEntity
  8
7
  6
Continuous
 62
     2
100
AcDbLine
 10
148.390365785
 20
184.760286789
 30
0.0
 11
147.743318172
 21
187.175101355
 31
0.0
  0
LWPOLYLINE
  5
123
330
1F
100
AcDbEntity
  8
7
  6
Continuous
 62
     2
100
AcDbPolyline
 90
     3
 70
   128
 43
0.0
 10
148.390365785
 20
184.760286789
 10
148.390365785
 20
243.760286789
 10
147.743318172
 20
241.345472223
  0
LINE
  5
124
330
1F
100
AcDbEntity
  8
7
  6
Continuous
 62
     2
100
AcDbLine
 10
148.390365785
 20
243.760286789
 30
0.0
 11
149.037413397
 21
241.345472223
 31
0.0
  0
LINE
  5
125
330
1F
100
AcDbEntity
  8
7
  6
Continuous
 62
     2
100
AcDbLine
 10
264.890365785
 20
243.760286789
 30
0.0
 11
146.390365785
 21
243.760286789
 31
0.0
  0
TEXT
  5
126
330
1F
100
AcDbEntity
  8
7
  6
Continuous
 62
     2
100
AcDbText
 10
147.390365785
 20
212.310286789
 30
0.0
 40
3.0
  1
５９
 50
90.0
 41
0.6
  7
KANJI0
 72
     5
 11
147.390365785
 21
216.210286789
 31
0.0
100
AcDbText
  0
LINE
  5
127
330
1F
100
AcDbEntity
  8
7
  6
Continuous
 62
     2
100
AcDbLine
 10
262.847581402
 20
221.855200852
 30
0.0
 11
260.653993112
 21
220.655963422
 31
0.0
  0
LINE
  5
128
330
1F
100
AcDbEntity
  8
7
  6
Continuous
 62
     2
100
AcDbLine
 10
262.847581402
 20
221.855200852
 30
0.0
 11
261.547496932
 21
219.719836627
 31
0.0
  0
LINE
  5
129
330
1F
100
AcDbEntity
  8
7
  6
Continuous
 62
     2
100
AcDbLine
 10
262.847581402
 20
221.855200852
 30
0.0
 11
254.890365785
 21
214.260286789
 31
0.0
  0
TEXT
  5
12A
330
1F
100
AcDbEntity
  8
7
  6
Continuous
 62
     2
100
AcDbText
 10
255.789619624
 20
216.500989629
 30
0.0
 40
3.0
  1
Ｒ１１
 50
43.665482064
 41
0.6
  7
KANJI0
 72
     5
 11
260.129919052
 21
220.643670027
 31
0.0
100
AcDbText
  0
LINE
  5
12B
330
1F
100
AcDbEntity
  8
7
  6
Continuous
 62
     2
100
AcDbLine
 10
225.615482163
 20
236.933934408
 30
0.0
 11
228.002052139
 21
237.678436758
 31
0.0
  0
LINE
  5
12C
330
1F
100
AcDbEntity
  8
7
  6
Continuous
 62
     2
100
AcDbLine
 10
225.615482163
 20
236.933934408
 30
0.0
 11
227.310061215
 21
238.771977344
 31
0.0
  0
LINE
  5
12D
330
1F
100
AcDbEntity
  8
7
  6
Continuous
 62
     2
100
AcDbLine
 10
221.390365785
 20
234.260286789
 30
0.0
 11
230.29595656
 21
239.895731932
 31
0.0
  0
TEXT
  5
12E
330
1F
100
AcDbEntity
  8
7
  6
Continuous
 62
     2
100
AcDbText
 10
226.465636261
 20
238.655310065
 30
0.0
 40
3.0
  1
Ｒ５
 50
32.325570244
 41
0.6
  7
KANJI0
 72
     5
 11
229.761227036
 21
240.740755208
 31
0.0
100
AcDbText
  0
LINE
  5
12F
330
1F
100
AcDbEntity
  8
7
  6
Continuous
 62
     2
100
AcDbLine
 10
257.714164011
 20
232.15764332
 30
0.0
 11
259.993904617
 21
233.18369535
 31
0.0
  0
LINE
  5
130
330
1F
100
AcDbEntity
  8
7
  6
Continuous
 62
     2
100
AcDbLine
 10
257.714164011
 20
232.15764332
 30
0.0
 11
259.175451274
 21
234.186100747
 31
0.0
  0
LINE
  5
131
330
1F
100
AcDbEntity
  8
7
  6
Continuous
 62
     2
100
AcDbLine
 10
255.390365785
 20
230.260286789
 30
0.0
 11
262.171303479
 21
235.796850279
 31
0.0
  0
TEXT
  5
132
330
1F
100
AcDbEntity
  8
7
  6
Continuous
 62
     2
100
AcDbText
 10
258.517913608
 20
234.104886198
 30
0.0
 40
3.0
  1
Ｒ３
 50
39.231272304
 41
0.6
  7
KANJI0
 72
     5
 11
261.538851302
 21
236.571449687
 31
0.0
100
AcDbText
  0
LINE
  5
133
330
1F
100
AcDbEntity
  8
7
  6
Continuous
 62
     2
100
AcDbLine
 10
227.063874763
 20
194.81776627
 30
0.0
 11
226.052829476
 21
197.104201799
 31
0.0
  0
LINE
  5
134
330
1F
100
AcDbEntity
  8
7
  6
Continuous
 62
     2
100
AcDbLine
 10
227.063874763
 20
194.81776627
 30
0.0
 11
225.045066095
 21
196.292354879
 31
0.0
  0
LINE
  5
135
330
1F
100
AcDbEntity
  8
7
  6
Continuous
 62
     2
100
AcDbLine
 10
228.318569015
 20
193.260286789
 30
0.0
 11
219.821913316
 21
203.807371777
 31
0.0
  0
TEXT
  5
136
330
1F
100
AcDbEntity
  8
7
  6
Continuous
 62
     2
100
AcDbText
 10
220.600653057
 20
204.434718903
 30
0.0
 40
3.0
  1
Ｒ２
 50
308.854668371
 41
0.6
  7
KANJI0
 72
     5
 11
223.047306848
 21
201.397633915
 31
0.0
100
AcDbText
  0
LINE
  5
137
330
1F
100
AcDbEntity
  8
7
  6
Continuous
 62
     2
100
AcDbLine
 10
271.161926995
 20
245.105720905
 30
0.0
 11
270.57257436
 21
247.535260671
 31
0.0
  0
LINE
  5
138
330
1F
100
AcDbEntity
  8
7
  6
Continuous
 62
     2
100
AcDbLine
 10
271.161926995
 20
245.105720905
 30
0.0
 11
269.436762759
 21
246.915087744
 31
0.0
  0
LINE
  5
139
330
1F
100
AcDbEntity
  8
7
  6
Continuous
 62
     2
100
AcDbLine
 10
271.161926995
 20
245.105720905
 30
0.0
 11
265.890365785
 21
254.760286789
 31
0.0
  0
TEXT
  5
13A
330
1F
100
AcDbEntity
  8
7
  6
Continuous
 62
     2
100
AcDbText
 10
268.320857891
 20
252.395646472
 30
0.0
 40
3.0
  1
Ｒ１１
 50
298.635309393
 41
0.6
  7
KANJI0
 72
     5
 11
271.196254915
 21
247.129519626
 31
0.0
100
AcDbText
  0
LINE
  5
13B
330
1F
100
AcDbEntity
  8
7
  6
Continuous
 62
     2
100
AcDbLine
 10
248.393437143
 20
253.318254329
 30
0.0
 11
245.968181721
 21
252.711512094
 31
0.0
  0
LINE
  5
13C
330
1F
100
AcDbEntity
  8
7
  6
Continuous
 62
     2
100
AcDbLine
 10
248.393437143
 20
253.318254329
 30
0.0
 11
246.596475455
 21
251.580172429
 31
0.0
  0
LINE
  5
13D
330
1F
100
AcDbEntity
  8
7
  6
Continuous
 62
     2
100
AcDbLine
 10
251.890365785
 20
255.260286789
 30
0.0
 11
243.529061682
 21
250.616805141
 31
0.0
  0
TEXT
  5
13E
330
1F
100
AcDbEntity
  8
7
  6
Continuous
 62
     2
100
AcDbText
 10
243.043553567
 20
251.491037301
 30
0.0
 40
3.0
  1
Ｒ４
 50
29.045768079
 41
0.6
  7
KANJI0
 72
     5
 11
246.453058993
 21
253.38451895
 31
0.0
100
AcDbText
  0
LINE
  5
13F
330
1F
100
AcDbEntity
  8
7
  6
Continuous
 62
     2
100
AcDbLine
 10
246.931888345
 20
256.016133523
 30
0.0
 11
248.656162608
 21
257.826348501
 31
0.0
  0
LINE
  5
140
330
1F
100
AcDbEntity
  8
7
  6
Continuous
 62
     2
100
AcDbLine
 10
246.931888345
 20
256.016133523
 30
0.0
 11
247.520046171
 21
258.445962811
 31
0.0
  0
LINE
  5
141
330
1F
100
AcDbEntity
  8
7
  6
Continuous
 62
     2
100
AcDbLine
 10
245.974286001
 20
254.260286789
 30
0.0
 11
249.755891678
 21
261.194187919
 31
0.0
  0
TEXT
  5
142
330
1F
100
AcDbEntity
  8
7
  6
Continuous
 62
     2
100
AcDbText
 10
247.010643741
 20
258.249087961
 30
0.0
 40
3.0
  1
Ｒ２
 50
61.392866102
 41
0.6
  7
KANJI0
 72
     5
 11
248.877968311
 21
261.672989091
 31
0.0
100
AcDbText
  0
LINE
  5
143
330
1F
100
AcDbEntity
  8
7
  6
Continuous
 62
     2
100
AcDbLine
 10
319.419634215
 20
174.299713211
 30
0.0
 11
317.856773409
 21
176.250986155
 31
0.0
  0
LINE
  5
144
330
1F
100
AcDbEntity
  8
7
  6
Continuous
 62
     2
100
AcDbLine
 10
319.419634215
 20
174.299713211
 30
0.0
 11
317.090520583
 21
175.208134747
 31
0.0
  0
LINE
  5
145
330
1F
100
AcDbEntity
  8
7
  6
Continuous
 62
     2
100
AcDbLine
 10
319.419634215
 20
174.299713211
 30
0.0
 11
315.390365785
 21
177.260286789
 31
0.0
  0
TEXT
  5
146
330
1F
100
AcDbEntity
  8
7
  6
Continuous
 62
     2
100
AcDbText
 10
315.629651124
 20
178.325387866
 30
0.0
 40
3.0
  1
Ｒ５
 50
323.692781117
 41
0.6
  7
KANJI0
 72
     5
 11
318.7724805
 21
176.016140475
 31
0.0
100
AcDbText
  0
LINE
  5
147
330
1F
100
AcDbEntity
  8
7
  6
Continuous
 62
     2
100
AcDbLine
 10
312.899634215
 20
217.619713211
 30
0.0
 11
314.733265448
 21
219.319065
 31
0.0
  0
LINE
  5
148
330
1F
100
AcDbEntity
  8
7
  6
Continuous
 62
     2
100
AcDbLine
 10
312.899634215
 20
217.619713211
 30
0.0
 11
313.63792955
 21
220.008210646
 31
0.0
  0
LWPOLYLINE
  5
14A
330
1F
100
AcDbEntity
  8
7
  6
Continuous
 62
     2
100
AcDbPolyline
 90
     3
 70
   128
 43
0.0
 10
312.899634215
 20
217.619713211
 10
339.909634215
 20
260.549713211
 10
348.409634215
 20
260.549713211
  0
TEXT
  5
14B
330
1F
100
AcDbEntity
  8
7
  6
Continuous
 62
     2
100
AcDbText
 10
339.909634215
 20
261.549713211
 30
0.0
 40
3.0
  1
4-φ6.2
 41
0.666666667
  7
KANJI1
 72
     5
 11
348.409634215
 21
261.549713211
 31
0.0
100
AcDbText
  0
LINE
  5
14D
330
1F
100
AcDbEntity
  8
7
  6
Continuous
 62
     2
100
AcDbLine
 10
310.259634215
 20
243.959713211
 30
0.0
 11
312.126097069
 21
245.622937915
 31
0.0
  0
LINE
  5
14E
330
1F
100
AcDbEntity
  8
7
  6
Continuous
 62
     2
100
AcDbLine
 10
310.259634215
 20
243.959713211
 30
0.0
 11
311.044426109
 21
246.333339484
 31
0.0
  0
LWPOLYLINE
  5
150
330
1F
100
AcDbEntity
  8
7
  6
Continuous
 62
     2
100
AcDbPolyline
 90
     3
 70
   128
 43
0.0
 10
310.259634215
 20
243.959713211
 10
327.059634215
 20
269.539713211
 10
341.159634215
 20
269.539713211
  0
TEXT
  5
151
330
1F
100
AcDbEntity
  8
7
  6
Continuous
 62
     2
100
AcDbText
 10
327.059634215
 20
270.539713211
 30
0.0
 40
3.0
  1
6-M4　タップ
 41
0.666666667
  7
KANJI1
 72
     5
 11
341.159634215
 21
270.539713211
 31
0.0
100
AcDbText
  0
LINE
  5
153
330
1F
100
AcDbEntity
  8
0
  6
LTYPE2
 62
     2
100
AcDbLine
 10
182.990365785
 20
256.260286789
 30
0.0
 11
182.990365785
 21
172.260286789
 31
0.0
  0
LINE
  5
154
330
1F
100
AcDbEntity
  8
0
  6
Continuous
 62
     1
100
AcDbLine
 10
320.390365785
 20
177.260286789
 30
0.0
 11
320.390365785
 21
251.260286789
 31
0.0
  0
LINE
  5
155
330
1F
100
AcDbEntity
  8
0
  6
Continuous
 62
     1
100
AcDbLine
 10
180.390365785
 20
256.260286789
 30
0.0
 11
180.390365785
 21
172.260286789
 31
0.0
  0
ARC
  5
156
330
1F
100
AcDbEntity
  8
0
  6
Continuous
 62
     1
100
AcDbCircle
 10
315.390365785
 20
251.260286789
 30
0.0
 40
5.0
100
AcDbArc
 50
0.0
 51
90.0
  0
ARC
  5
157
330
1F
100
AcDbEntity
  8
0
  6
Continuous
 62
     1
100
AcDbCircle
 10
315.390365785
 20
177.260286789
 30
0.0
 40
5.0
100
AcDbArc
 50
270.0
 51
0.0
  0
CIRCLE
  5
158
330
1F
100
AcDbEntity
  8
0
  6
Continuous
 62
     1
100
AcDbCircle
 10
281.390365785
 20
214.260286789
 30
0.0
 40
3.1
  0
LINE
  5
159
330
1F
100
AcDbEntity
  8
0
  6
Continuous
 62
     1
100
AcDbLine
 10
216.390365785
 20
234.260286789
 30
0.0
 11
216.390365785
 21
194.260286789
 31
0.0
  0
CIRCLE
  5
15A
330
1F
100
AcDbEntity
  8
0
  6
Continuous
 62
     1
100
AcDbCircle
 10
309.390365785
 20
214.260286789
 30
0.0
 40
3.1
  0
CIRCLE
  5
15B
330
1F
100
AcDbEntity
  8
0
  6
Continuous
 62
     1
100
AcDbCircle
 10
265.890365785
 20
200.260286789
 30
0.0
 40
3.1
  0
CIRCLE
  5
15C
330
1F
100
AcDbEntity
  8
0
  6
Continuous
 62
     1
100
AcDbCircle
 10
265.890365785
 20
228.260286789
 30
0.0
 40
3.1
  0
CIRCLE
  5
15D
330
1F
100
AcDbEntity
  8
0
  6
Continuous
 62
     1
100
AcDbCircle
 10
308.390365785
 20
186.260286789
 30
0.0
 40
1.625
  0
CIRCLE
  5
15E
330
1F
100
AcDbEntity
  8
0
  6
Continuous
 62
     1
100
AcDbCircle
 10
282.390365785
 20
186.260286789
 30
0.0
 40
1.625
  0
CIRCLE
  5
15F
330
1F
100
AcDbEntity
  8
0
  6
Continuous
 62
     1
100
AcDbCircle
 10
293.890365785
 20
201.260286789
 30
0.0
 40
1.625
  0
CIRCLE
  5
160
330
1F
100
AcDbEntity
  8
0
  6
Continuous
 62
     1
100
AcDbCircle
 10
293.890365785
 20
227.260286789
 30
0.0
 40
1.625
  0
CIRCLE
  5
161
330
1F
100
AcDbEntity
  8
0
  6
Continuous
 62
     1
100
AcDbCircle
 10
282.390365785
 20
242.260286789
 30
0.0
 40
1.625
  0
CIRCLE
  5
162
330
1F
100
AcDbEntity
  8
0
  6
Continuous
 62
     1
100
AcDbCircle
 10
308.390365785
 20
242.260286789
 30
0.0
 40
1.625
  0
ARC
  5
163
330
1F
100
AcDbEntity
  8
0
  6
Continuous
 62
     1
100
AcDbCircle
 10
265.890365785
 20
173.760286789
 30
0.0
 40
11.0
100
AcDbArc
 50
57.975665882
 51
122.024334118
  0
ARC
  5
164
330
1F
100
AcDbEntity
  8
0
  6
Continuous
 62
     1
100
AcDbCircle
 10
251.890365785
 20
173.260286789
 30
0.0
 40
4.0
100
AcDbArc
 50
122.024230529
 51
170.405824019
  0
LINE
  5
165
330
1F
100
AcDbEntity
  8
0
  6
Continuous
 62
     1
100
AcDbLine
 10
260.05729248
 20
183.086339321
 30
0.0
 11
249.769254351
 21
176.651582454
 31
0.0
  0
ARC
  5
166
330
1F
100
AcDbEntity
  8
0
  6
Continuous
 62
     1
100
AcDbCircle
 10
279.890365785
 20
173.260286789
 30
0.0
 40
4.0
100
AcDbArc
 50
9.594068227
 51
57.975619556
  0
LINE
  5
167
330
1F
100
AcDbEntity
  8
0
  6
Continuous
 62
     1
100
AcDbLine
 10
271.723439089
 20
183.086339321
 30
0.0
 11
282.011486092
 21
176.651576904
 31
0.0
  0
ARC
  5
168
330
1F
100
AcDbEntity
  8
0
  6
Continuous
 62
     1
100
AcDbCircle
 10
265.890365785
 20
254.760286789
 30
0.0
 40
11.0
100
AcDbArc
 50
237.975665882
 51
302.024334118
  0
ARC
  5
169
330
1F
100
AcDbEntity
  8
0
  6
Continuous
 62
     1
100
AcDbCircle
 10
251.890365785
 20
255.260286789
 30
0.0
 40
4.0
100
AcDbArc
 50
189.594175981
 51
237.975769471
  0
LINE
  5
16A
330
1F
100
AcDbEntity
  8
0
  6
Continuous
 62
     1
100
AcDbLine
 10
260.05729248
 20
245.434234258
 30
0.0
 11
249.769254351
 21
251.868991125
 31
0.0
  0
ARC
  5
16B
330
1F
100
AcDbEntity
  8
0
  6
Continuous
 62
     1
100
AcDbCircle
 10
279.890365785
 20
255.260286789
 30
0.0
 40
4.0
100
AcDbArc
 50
302.024380444
 51
350.405931773
  0
LINE
  5
16C
330
1F
100
AcDbEntity
  8
0
  6
Continuous
 62
     1
100
AcDbLine
 10
271.723439089
 20
245.434234258
 30
0.0
 11
282.011486092
 21
251.868996674
 31
0.0
  0
ARC
  5
16D
330
1F
100
AcDbEntity
  8
0
  6
Continuous
 62
     1
100
AcDbCircle
 10
245.974286001
 20
174.260286789
 30
0.0
 40
2.0
100
AcDbArc
 50
269.999922725
 51
350.406147282
  0
ARC
  5
16E
330
1F
100
AcDbEntity
  8
0
  6
Continuous
 62
     1
100
AcDbCircle
 10
285.806445568
 20
174.260286789
 30
0.0
 40
2.0
100
AcDbArc
 50
189.594068227
 51
269.999683739
  0
LINE
  5
16F
330
1F
100
AcDbEntity
  8
0
  6
Continuous
 62
     1
100
AcDbLine
 10
315.390365785
 20
172.260286789
 30
0.0
 11
285.806434528
 21
172.260286789
 31
0.0
  0
ARC
  5
170
330
1F
100
AcDbEntity
  8
0
  6
Continuous
 62
     1
100
AcDbCircle
 10
255.390365785
 20
198.260286789
 30
0.0
 40
3.0
100
AcDbArc
 50
269.999948483
 51
0.0
  0
ARC
  5
171
330
1F
100
AcDbEntity
  8
0
  6
Continuous
 62
     1
100
AcDbCircle
 10
255.390365785
 20
230.260286789
 30
0.0
 40
3.0
100
AcDbArc
 50
0.0
 51
90.000036423
  0
ARC
  5
172
330
1F
100
AcDbEntity
  8
0
  6
Continuous
 62
     1
100
AcDbCircle
 10
245.974286001
 20
254.260286789
 30
0.0
 40
2.0
100
AcDbArc
 50
9.593852718
 51
90.000231824
  0
ARC
  5
173
330
1F
100
AcDbEntity
  8
0
  6
Continuous
 62
     1
100
AcDbCircle
 10
285.806445568
 20
254.260286789
 30
0.0
 40
2.0
100
AcDbArc
 50
90.000231824
 51
170.405931773
  0
LINE
  5
174
330
1F
100
AcDbEntity
  8
0
  6
Continuous
 62
     1
100
AcDbLine
 10
315.390365785
 20
256.260286789
 30
0.0
 11
285.806437475
 21
256.260286789
 31
0.0
  0
ARC
  5
175
330
1F
100
AcDbEntity
  8
0
  6
Continuous
 62
     1
100
AcDbCircle
 10
260.390365785
 20
202.4810678
 30
0.0
 40
2.0
100
AcDbArc
 50
115.028999488
 51
180.0
  0
ARC
  5
176
330
1F
100
AcDbEntity
  8
0
  6
Continuous
 62
     1
100
AcDbCircle
 10
260.390365785
 20
226.039505779
 30
0.0
 40
2.0
100
AcDbArc
 50
180.0
 51
244.971000512
  0
LINE
  5
177
330
1F
100
AcDbEntity
  8
0
  6
Continuous
 62
     1
100
AcDbLine
 10
258.390365785
 20
198.260286789
 30
0.0
 11
258.390365785
 21
202.4810678
 31
0.0
  0
LINE
  5
178
330
1F
100
AcDbEntity
  8
0
  6
Continuous
 62
     1
100
AcDbLine
 10
258.390365785
 20
226.039508476
 30
0.0
 11
258.390365785
 21
230.260286789
 31
0.0
  0
ARC
  5
179
330
1F
100
AcDbEntity
  8
0
  6
Continuous
 62
     1
100
AcDbCircle
 10
254.890365785
 20
214.260286789
 30
0.0
 40
11.0
100
AcDbArc
 50
295.028990486
 51
64.971009514
  0
ARC
  5
17A
330
1F
100
AcDbEntity
  8
0
  6
Continuous
 62
     1
100
AcDbCircle
 10
221.390365785
 20
194.260286789
 30
0.0
 40
5.0
100
AcDbArc
 50
180.0
 51
351.786810931
  0
ARC
  5
17B
330
1F
100
AcDbEntity
  8
0
  6
Continuous
 62
     1
100
AcDbCircle
 10
228.318569015
 20
193.260286789
 30
0.0
 40
2.0
100
AcDbArc
 50
90.000054642
 51
171.786735217
  0
LINE
  5
17C
330
1F
100
AcDbEntity
  8
0
  6
Continuous
 62
     1
100
AcDbLine
 10
255.390363087
 20
195.260286789
 30
0.0
 11
228.318567107
 21
195.260286789
 31
0.0
  0
ARC
  5
17D
330
1F
100
AcDbEntity
  8
0
  6
Continuous
 62
     1
100
AcDbCircle
 10
221.390365785
 20
234.260286789
 30
0.0
 40
5.0
100
AcDbArc
 50
8.213241295
 51
180.0
  0
LWPOLYLINE
  5
17F
330
1F
100
AcDbEntity
  8
0
  6
Continuous
 62
     1
100
AcDbPolyline
 90
     3
 70
   128
 43
0.0
 10
226.339081996
 20
234.974575146
 42
0.372824802
 10
228.318567107
 20
233.260286789
 42
0.0
 10
255.390363877
 20
233.260286789
 42
0.0
  0
LINE
  5
180
330
1F
100
AcDbEntity
  8
0
  6
Continuous
 62
     1
100
AcDbLine
 10
245.974277909
 20
256.260286789
 30
0.0
 11
180.390365785
 21
256.260286789
 31
0.0
  0
LINE
  5
181
330
1F
100
AcDbEntity
  8
0
  6
Continuous
 62
     1
100
AcDbLine
 10
245.974283304
 20
172.260286789
 30
0.0
 11
180.390365785
 21
172.260286789
 31
0.0
  0
LINE
  5
182
330
1F
100
AcDbEntity
  8
0
  6
LTYPE1
 62
     2
100
AcDbLine
 10
320.390365785
 20
214.260286789
 30
0.0
 11
180.390365785
 21
214.260286789
 31
0.0
  0
CIRCLE
  5
183
330
1F
100
AcDbEntity
  8
0
  6
Continuous
 62
     2
100
AcDbCircle
 10
282.390365785
 20
186.260286789
 30
0.0
 40
2.0
  0
CIRCLE
  5
184
330
1F
100
AcDbEntity
  8
0
  6
Continuous
 62
     2
100
AcDbCircle
 10
308.390365785
 20
186.260286789
 30
0.0
 40
2.0
  0
CIRCLE
  5
185
330
1F
100
AcDbEntity
  8
0
  6
Continuous
 62
     2
100
AcDbCircle
 10
293.890365785
 20
201.260286789
 30
0.0
 40
2.0
  0
CIRCLE
  5
186
330
1F
100
AcDbEntity
  8
0
  6
Continuous
 62
     2
100
AcDbCircle
 10
293.890365785
 20
227.260286789
 30
0.0
 40
2.0
  0
CIRCLE
  5
187
330
1F
100
AcDbEntity
  8
0
  6
Continuous
 62
     2
100
AcDbCircle
 10
282.390365785
 20
242.260286789
 30
0.0
 40
2.0
  0
CIRCLE
  5
188
330
1F
100
AcDbEntity
  8
0
  6
Continuous
 62
     2
100
AcDbCircle
 10
308.390365785
 20
242.260286789
 30
0.0
 40
2.0
  0
LINE
  5
189
330
1F
100
AcDbEntity
  8
2
  6
Continuous
 62
     2
100
AcDbLine
 10
222.5
 20
10.0
 30
0.0
 11
407.5
 21
10.0
 31
0.0
  0
TEXT
  5
18A
330
1F
100
AcDbEntity
  8
2
  6
Continuous
 62
     2
100
AcDbText
 10
223.5
 20
11.5
 30
0.0
 40
3.0
  1
オオハシ産業株式会社
 41
1.0
  7
KANJI2
 72
     5
 11
263.5
 21
11.5
 31
0.0
100
AcDbText
  0
LINE
  5
18C
330
1F
100
AcDbEntity
  8
2
  6
Continuous
 62
     2
100
AcDbLine
 10
407.5
 20
16.0
 30
0.0
 11
222.5
 21
16.0
 31
0.0
  0
TEXT
  5
18D
330
1F
100
AcDbEntity
  8
2
  6
Continuous
 62
     2
100
AcDbText
 10
354.25
 20
27.5
 30
0.0
 40
2.5
  1
仕上
 41
1.0
  7
KANJI3
 72
     5
 11
358.0
 21
27.5
 31
0.0
100
AcDbText
  0
LINE
  5
18F
330
1F
100
AcDbEntity
  8
2
  6
Continuous
 62
     2
100
AcDbLine
 10
352.5
 20
34.0
 30
0.0
 11
407.5
 21
34.0
 31
0.0
  0
LINE
  5
190
330
1F
100
AcDbEntity
  8
2
  6
Continuous
 62
     2
100
AcDbLine
 10
352.5
 20
28.0
 30
0.0
 11
407.5
 21
28.0
 31
0.0
  0
TEXT
  5
191
330
1F
100
AcDbEntity
  8
2
  6
Continuous
 62
     2
100
AcDbText
 10
354.25
 20
33.5
 30
0.0
 40
2.5
  1
規格
 41
1.0
  7
KANJI3
 72
     5
 11
358.0
 21
33.5
 31
0.0
100
AcDbText
  0
TEXT
  5
192
330
1F
100
AcDbEntity
  8
2
  6
Continuous
 62
     2
100
AcDbText
 10
354.25
 20
39.5
 30
0.0
 40
2.5
  1
材質
 41
1.0
  7
KANJI3
 72
     5
 11
358.0
 21
39.5
 31
0.0
100
AcDbText
  0
TEXT
  5
193
330
1F
100
AcDbEntity
  8
2
  6
Continuous
 62
     2
100
AcDbText
 10
354.25
 20
45.5
 30
0.0
 40
2.5
  1
品番
 41
1.0
  7
KANJI4
 72
     5
 11
358.0
 21
45.5
 31
0.0
100
AcDbText
  0
TEXT
  5
195
330
1F
100
AcDbEntity
  8
2
  6
Continuous
 62
     2
100
AcDbText
 10
354.25
 20
51.5
 30
0.0
 40
2.5
  1
図名
 41
1.0
  7
KANJI3
 72
     5
 11
358.0
 21
51.5
 31
0.0
100
AcDbText
  0
LINE
  5
196
330
1F
100
AcDbEntity
  8
2
  6
Continuous
 62
     2
100
AcDbLine
 10
352.5
 20
40.0
 30
0.0
 11
407.5
 21
40.0
 31
0.0
  0
LINE
  5
197
330
1F
100
AcDbEntity
  8
2
  6
Continuous
 62
     2
100
AcDbLine
 10
352.5
 20
46.0
 30
0.0
 11
407.5
 21
46.0
 31
0.0
  0
LINE
  5
198
330
1F
100
AcDbEntity
  8
2
  6
Continuous
 62
     2
100
AcDbLine
 10
352.5
 20
52.0
 30
0.0
 11
407.5
 21
52.0
 31
0.0
  0
LINE
  5
199
330
1F
100
AcDbEntity
  8
2
  6
Continuous
 62
     2
100
AcDbLine
 10
265.5
 20
16.0
 30
0.0
 11
265.5
 21
10.0
 31
0.0
  0
TEXT
  5
19A
330
1F
100
AcDbEntity
  8
2
  6
Continuous
 62
     2
100
AcDbText
 10
267.25
 20
15.5
 30
0.0
 40
2.5
  1
作図
 41
1.0
  7
KANJI3
 72
     5
 11
271.0
 21
15.5
 31
0.0
100
AcDbText
  0
LINE
  5
19B
330
1F
100
AcDbEntity
  8
2
  6
Continuous
 62
     2
100
AcDbLine
 10
285.5
 20
10.0
 30
0.0
 11
285.5
 21
16.0
 31
0.0
  0
TEXT
  5
19C
330
1F
100
AcDbEntity
  8
2
  6
Continuous
 62
     2
100
AcDbText
 10
286.5
 20
11.5
 30
0.0
 40
3.0
  1
FD=
 41
0.9
  7
KANJI5
 72
     5
 11
291.15
 21
11.5
 31
0.0
100
AcDbText
  0
LINE
  5
19E
330
1F
100
AcDbEntity
  8
2
  6
Continuous
 62
     2
100
AcDbLine
 10
305.5
 20
10.0
 30
0.0
 11
305.5
 21
16.0
 31
0.0
  0
TEXT
  5
19F
330
1F
100
AcDbEntity
  8
2
  6
Continuous
 62
     2
100
AcDbText
 10
306.5
 20
11.5
 30
0.0
 40
3.0
  1
NO=
 41
0.9
  7
KANJI5
 72
     5
 11
311.15
 21
11.5
 31
0.0
100
AcDbText
  0
LINE
  5
1A0
330
1F
100
AcDbEntity
  8
2
  6
Continuous
 62
     2
100
AcDbLine
 10
330.5
 20
16.0
 30
0.0
 11
330.5
 21
10.0
 31
0.0
  0
TEXT
  5
1A1
330
1F
100
AcDbEntity
  8
2
  6
Continuous
 62
     2
100
AcDbText
 10
332.25
 20
15.5
 30
0.0
 40
2.5
  1
日付
 41
1.0
  7
KANJI3
 72
     5
 11
336.0
 21
15.5
 31
0.0
100
AcDbText
  0
LINE
  5
1A2
330
1F
100
AcDbEntity
  8
2
  6
Continuous
 62
     2
100
AcDbLine
 10
352.5
 20
10.0
 30
0.0
 11
352.5
 21
52.0
 31
0.0
  0
TEXT
  5
1A3
330
1F
100
AcDbEntity
  8
2
  6
Continuous
 62
     2
100
AcDbText
 10
332.25
 20
21.5
 30
0.0
 40
2.5
  1
尺度
 41
1.0
  7
KANJI3
 72
     5
 11
336.0
 21
21.5
 31
0.0
100
AcDbText
  0
LINE
  5
1A4
330
1F
100
AcDbEntity
  8
2
  6
Continuous
 62
     2
100
AcDbLine
 10
330.5
 20
22.0
 30
0.0
 11
407.5
 21
22.0
 31
0.0
  0
TEXT
  5
1A5
330
1F
100
AcDbEntity
  8
2
  6
Continuous
 62
     2
100
AcDbText
 10
354.25
 20
15.5
 30
0.0
 40
2.5
  1
品名
 41
1.0
  7
KANJI3
 72
     5
 11
358.0
 21
15.5
 31
0.0
100
AcDbText
  0
TEXT
  5
1A6
330
1F
100
AcDbEntity
  8
2
  6
Continuous
 62
     2
100
AcDbText
 10
354.25
 20
21.5
 30
0.0
 40
1.666666667
  1
その他
 41
1.5
  7
KANJI6
 72
     5
 11
360.5
 21
21.5
 31
0.0
100
AcDbText
  0
LINE
  5
1A8
330
1F
100
AcDbEntity
  8
2
  6
Continuous
 62
     2
100
AcDbLine
 10
407.5
 20
10.0
 30
0.0
 11
407.5
 21
52.0
 31
0.0
  0
LINE
  5
1A9
330
1F
100
AcDbEntity
  8
2
  6
Continuous
 62
     2
100
AcDbLine
 10
222.5
 20
10.0
 30
0.0
 11
222.5
 21
16.0
 31
0.0
  0
LWPOLYLINE
  5
1AB
330
1F
100
AcDbEntity
  8
2
  6
Continuous
 62
     2
100
AcDbPolyline
 90
     5
 70
   128
 43
0.0
 10
407.5
 20
50.0
 10
407.5
 20
287.0
 10
12.5
 20
287.0
 10
12.5
 20
10.0
 10
222.5
 20
10.0
  0
TEXT
  5
1AC
330
1F
100
AcDbEntity
  8
2
  6
Continuous
 62
     2
100
AcDbText
 10
358.5
 20
29.2
 30
0.0
 40
3.0
  1
－－－
 41
0.9
  7
KANJI7
 72
     5
 11
367.2
 21
29.2
 31
0.0
100
AcDbText
  0
TEXT
  5
1AE
330
1F
100
AcDbEntity
  8
2
  6
Continuous
 62
     2
100
AcDbText
 10
358.5
 20
17.2
 30
0.0
 40
3.0
  1
－－－
 41
0.9
  7
KANJI7
 72
     5
 11
367.2
 21
17.2
 31
0.0
100
AcDbText
  0
TEXT
  5
1AF
330
1F
100
AcDbEntity
  8
2
  6
Continuous
 62
     2
100
AcDbText
 10
237.5
 20
18.5
 30
0.0
 40
3.0
  1
特記　　寸法指示無い公差は±０．５以内とする．
 41
0.9
  7
KANJI7
 72
     5
 11
306.2
 21
18.5
 31
0.0
100
AcDbText
  0
LINE
  5
1B0
330
1F
100
AcDbEntity
  8
2
  6
Continuous
 62
     2
100
AcDbLine
 10
330.5
 20
28.0
 30
0.0
 11
330.5
 21
16.0
 31
0.0
  0
TEXT
  5
1B1
330
1F
100
AcDbEntity
  8
2
  6
Continuous
 62
     2
100
AcDbText
 10
332.25
 20
27.5
 30
0.0
 40
2.5
  1
用紙
 41
1.0
  7
KANJI3
 72
     5
 11
336.0
 21
27.5
 31
0.0
100
AcDbText
  0
LINE
  5
1B2
330
1F
100
AcDbEntity
  8
2
  6
Continuous
 62
     2
100
AcDbLine
 10
330.5
 20
28.0
 30
0.0
 11
352.5
 21
28.0
 31
0.0
  0
TEXT
  5
1B3
330
1F
100
AcDbEntity
  8
2
  6
Continuous
 62
     2
100
AcDbText
 10
270.5
 20
11.2
 30
0.0
 40
3.0
  1
大橋　一之
 41
0.9
  7
KANJI7
 72
     5
 11
285.2
 21
11.2
 31
0.0
100
AcDbText
  0
LINE
  5
1B4
330
1F
100
AcDbEntity
  8
7
  6
Continuous
 62
     2
100
AcDbLine
 10
320.390365785
 20
134.460286789
 30
0.0
 11
320.390365785
 21
143.460286789
 31
0.0
  0
LINE
  5
1B5
330
1F
100
AcDbEntity
  8
7
  6
Continuous
 62
     2
100
AcDbLine
 10
320.390365785
 20
141.460286789
 30
0.0
 11
317.975551219
 21
142.107334402
 31
0.0
  0
LINE
  5
1B6
330
1F
100
AcDbEntity
  8
7
  6
Continuous
 62
     2
100
AcDbLine
 10
320.390365785
 20
141.460286789
 30
0.0
 11
317.975551219
 21
140.813239176
 31
0.0
  0
LWPOLYLINE
  5
1B8
330
1F
100
AcDbEntity
  8
7
  6
Continuous
 62
     2
100
AcDbPolyline
 90
     3
 70
   128
 43
0.0
 10
320.390365785
 20
141.460286789
 10
180.390365785
 20
141.460286789
 10
182.80518035
 20
140.813239176
  0
LINE
  5
1B9
330
1F
100
AcDbEntity
  8
7
  6
Continuous
 62
     2
100
AcDbLine
 10
180.390365785
 20
141.460286789
 30
0.0
 11
182.80518035
 21
142.107334402
 31
0.0
  0
LINE
  5
1BA
330
1F
100
AcDbEntity
  8
7
  6
Continuous
 62
     2
100
AcDbLine
 10
180.390365785
 20
129.260286789
 30
0.0
 11
180.390365785
 21
143.460286789
 31
0.0
  0
TEXT
  5
1BB
330
1F
100
AcDbEntity
  8
7
  6
Continuous
 62
     2
100
AcDbText
 10
247.390365785
 20
142.460286789
 30
0.0
 40
3.0
  1
１４０
 41
0.6
  7
KANJI0
 72
     5
 11
253.390365785
 21
142.460286789
 31
0.0
100
AcDbText
  0
LINE
  5
1BC
330
1F
100
AcDbEntity
  8
7
  6
Continuous
 62
     2
100
AcDbLine
 10
150.590365785
 20
134.460286789
 30
0.0
 11
150.590365785
 21
143.460286789
 31
0.0
  0
LINE
  5
1BD
330
1F
100
AcDbEntity
  8
7
  6
Continuous
 62
     2
100
AcDbLine
 10
150.590365785
 20
141.460286789
 30
0.0
 11
148.175551219
 21
142.107334402
 31
0.0
  0
LINE
  5
1BE
330
1F
100
AcDbEntity
  8
7
  6
Continuous
 62
     2
100
AcDbLine
 10
150.590365785
 20
141.460286789
 30
0.0
 11
148.175551219
 21
140.813239176
 31
0.0
  0
LWPOLYLINE
  5
1C0
330
1F
100
AcDbEntity
  8
7
  6
Continuous
 62
     2
100
AcDbPolyline
 90
     3
 70
   128
 43
0.0
 10
150.590365785
 20
141.460286789
 10
66.590365785
 20
141.460286789
 10
69.00518035
 20
140.813239176
  0
LINE
  5
1C1
330
1F
100
AcDbEntity
  8
7
  6
Continuous
 62
     2
100
AcDbLine
 10
66.590365785
 20
141.460286789
 30
0.0
 11
69.00518035
 21
142.107334402
 31
0.0
  0
LINE
  5
1C2
330
1F
100
AcDbEntity
  8
7
  6
Continuous
 62
     2
100
AcDbLine
 10
66.590365785
 20
134.460286789
 30
0.0
 11
66.590365785
 21
143.460286789
 31
0.0
  0
TEXT
  5
1C3
330
1F
100
AcDbEntity
  8
7
  6
Continuous
 62
     2
100
AcDbText
 10
106.640365785
 20
142.460286789
 30
0.0
 40
3.0
  1
８４
 41
0.6
  7
KANJI0
 72
     5
 11
110.540365785
 21
142.460286789
 31
0.0
100
AcDbText
  0
LINE
  5
1C4
330
1F
100
AcDbEntity
  8
7
  6
Continuous
 62
     2
100
AcDbLine
 10
184.590365785
 20
133.460286789
 30
0.0
 11
170.390365785
 21
133.460286789
 31
0.0
  0
LINE
  5
1C5
330
1F
100
AcDbEntity
  8
7
  6
Continuous
 62
     2
100
AcDbLine
 10
172.390365785
 20
133.460286789
 30
0.0
 11
171.743318172
 21
131.045472223
 31
0.0
  0
LINE
  5
1C6
330
1F
100
AcDbEntity
  8
7
  6
Continuous
 62
     2
100
AcDbLine
 10
172.390365785
 20
133.460286789
 30
0.0
 11
173.037413397
 21
131.045472223
 31
0.0
  0
LWPOLYLINE
  5
1C8
330
1F
100
AcDbEntity
  8
7
  6
Continuous
 62
     2
100
AcDbPolyline
 90
     3
 70
   128
 43
0.0
 10
172.390365785
 20
133.460286789
 10
172.390365785
 20
33.460286789
 10
173.037413397
 20
35.875101355
  0
LINE
  5
1C9
330
1F
100
AcDbEntity
  8
7
  6
Continuous
 62
     2
100
AcDbLine
 10
172.390365785
 20
33.460286789
 30
0.0
 11
171.743318172
 21
35.875101355
 31
0.0
  0
LINE
  5
1CA
330
1F
100
AcDbEntity
  8
7
  6
Continuous
 62
     2
100
AcDbLine
 10
179.390365785
 20
33.460286789
 30
0.0
 11
170.390365785
 21
33.460286789
 31
0.0
  0
TEXT
  5
1CB
330
1F
100
AcDbEntity
  8
7
  6
Continuous
 62
     2
100
AcDbText
 10
171.390365785
 20
80.460286789
 30
0.0
 40
3.0
  1
１００
 50
90.0
 41
0.6
  7
KANJI0
 72
     5
 11
171.390365785
 21
86.460286789
 31
0.0
100
AcDbText
  0
LINE
  5
1CC
330
1F
100
AcDbEntity
  8
7
  6
Continuous
 62
     2
100
AcDbLine
 10
146.590365785
 20
33.460286789
 30
0.0
 11
160.590365785
 21
33.460286789
 31
0.0
  0
LINE
  5
1CD
330
1F
100
AcDbEntity
  8
7
  6
Continuous
 62
     2
100
AcDbLine
 10
158.590365785
 20
33.460286789
 30
0.0
 11
159.237413397
 21
35.875101355
 31
0.0
  0
LINE
  5
1CE
330
1F
100
AcDbEntity
  8
7
  6
Continuous
 62
     2
100
AcDbLine
 10
158.590365785
 20
33.460286789
 30
0.0
 11
157.943318172
 21
35.875101355
 31
0.0
  0
LWPOLYLINE
  5
1D0
330
1F
100
AcDbEntity
  8
7
  6
Continuous
 62
     2
100
AcDbPolyline
 90
     3
 70
   128
 43
0.0
 10
158.590365785
 20
33.460286789
 10
158.590365785
 20
43.460286789
 10
157.943318172
 20
41.045472223
  0
LINE
  5
1D1
330
1F
100
AcDbEntity
  8
7
  6
Continuous
 62
     2
100
AcDbLine
 10
158.590365785
 20
43.460286789
 30
0.0
 11
159.237413397
 21
41.045472223
 31
0.0
  0
LINE
  5
1D2
330
1F
100
AcDbEntity
  8
7
  6
Continuous
 62
     2
100
AcDbLine
 10
109.590365785
 20
43.460286789
 30
0.0
 11
160.590365785
 21
43.460286789
 31
0.0
  0
TEXT
  5
1D3
330
1F
100
AcDbEntity
  8
7
  6
Continuous
 62
     2
100
AcDbText
 10
157.590365785
 20
36.510286789
 30
0.0
 40
3.0
  1
１０
 50
90.0
 41
0.6
  7
KANJI0
 72
     5
 11
157.590365785
 21
40.410286789
 31
0.0
100
AcDbText
  0
LINE
  5
1D4
330
1F
100
AcDbEntity
  8
7
  6
Continuous
 62
     2
100
AcDbLine
 10
158.590365785
 20
43.460286789
 30
0.0
 11
159.237413397
 21
45.875101355
 31
0.0
  0
LINE
  5
1D5
330
1F
100
AcDbEntity
  8
7
  6
Continuous
 62
     2
100
AcDbLine
 10
158.590365785
 20
43.460286789
 30
0.0
 11
157.943318172
 21
45.875101355
 31
0.0
  0
LWPOLYLINE
  5
1D7
330
1F
100
AcDbEntity
  8
7
  6
Continuous
 62
     2
100
AcDbPolyline
 90
     3
 70
   128
 43
0.0
 10
158.590365785
 20
43.460286789
 10
158.590365785
 20
73.460286789
 10
157.943318172
 20
71.045472223
  0
LINE
  5
1D8
330
1F
100
AcDbEntity
  8
7
  6
Continuous
 62
     2
100
AcDbLine
 10
158.590365785
 20
73.460286789
 30
0.0
 11
159.237413397
 21
71.045472223
 31
0.0
  0
LINE
  5
1D9
330
1F
100
AcDbEntity
  8
7
  6
Continuous
 62
     2
100
AcDbLine
 10
109.590365785
 20
73.460286789
 30
0.0
 11
160.590365785
 21
73.460286789
 31
0.0
  0
TEXT
  5
1DA
330
1F
100
AcDbEntity
  8
7
  6
Continuous
 62
     2
100
AcDbText
 10
157.590365785
 20
56.510286789
 30
0.0
 40
3.0
  1
３０
 50
90.0
 41
0.6
  7
KANJI0
 72
     5
 11
157.590365785
 21
60.410286789
 31
0.0
100
AcDbText
  0
LINE
  5
1DB
330
1F
100
AcDbEntity
  8
7
  6
Continuous
 62
     2
100
AcDbLine
 10
158.590365785
 20
73.460286789
 30
0.0
 11
159.237413397
 21
75.875101355
 31
0.0
  0
LINE
  5
1DC
330
1F
100
AcDbEntity
  8
7
  6
Continuous
 62
     2
100
AcDbLine
 10
158.590365785
 20
73.460286789
 30
0.0
 11
157.943318172
 21
75.875101355
 31
0.0
  0
LWPOLYLINE
  5
1DE
330
1F
100
AcDbEntity
  8
7
  6
Continuous
 62
     2
100
AcDbPolyline
 90
     3
 70
   128
 43
0.0
 10
158.590365785
 20
73.460286789
 10
158.590365785
 20
103.460286789
 10
157.943318172
 20
101.045472223
  0
LINE
  5
1DF
330
1F
100
AcDbEntity
  8
7
  6
Continuous
 62
     2
100
AcDbLine
 10
158.590365785
 20
103.460286789
 30
0.0
 11
159.237413397
 21
101.045472223
 31
0.0
  0
LINE
  5
1E0
330
1F
100
AcDbEntity
  8
7
  6
Continuous
 62
     2
100
AcDbLine
 10
109.590365785
 20
103.460286789
 30
0.0
 11
160.590365785
 21
103.460286789
 31
0.0
  0
TEXT
  5
1E1
330
1F
100
AcDbEntity
  8
7
  6
Continuous
 62
     2
100
AcDbText
 10
157.590365785
 20
86.510286789
 30
0.0
 40
3.0
  1
３０
 50
90.0
 41
0.6
  7
KANJI0
 72
     5
 11
157.590365785
 21
90.410286789
 31
0.0
100
AcDbText
  0
LINE
  5
1E2
330
1F
100
AcDbEntity
  8
7
  6
Continuous
 62
     2
100
AcDbLine
 10
103.649634215
 20
49.769713211
 30
0.0
 11
102.574332024
 21
52.026641477
 31
0.0
  0
LINE
  5
1E3
330
1F
100
AcDbEntity
  8
7
  6
Continuous
 62
     2
100
AcDbLine
 10
103.649634215
 20
49.769713211
 30
0.0
 11
101.589931068
 21
51.186619328
 31
0.0
  0
LWPOLYLINE
  5
1E5
330
1F
100
AcDbEntity
  8
7
  6
Continuous
 62
     2
100
AcDbPolyline
 90
     3
 70
   128
 43
0.0
 10
103.649634215
 20
49.769713211
 10
96.609634215
 20
58.019713211
 10
80.209634215
 20
58.019713211
  0
TEXT
  5
1E6
330
1F
100
AcDbEntity
  8
7
  6
Continuous
 62
     2
100
AcDbText
 10
80.209634215
 20
59.019713211
 30
0.0
 40
3.0
  1
2-M6溶接ナット
 41
0.666666667
  7
KANJI1
 72
     5
 11
96.609634215
 21
59.019713211
 31
0.0
100
AcDbText
  0
LINE
  5
1E7
330
1F
100
AcDbEntity
  8
7
  6
Continuous
 62
     2
100
AcDbLine
 10
103.180365785
 20
79.930286789
 30
0.0
 11
102.294577029
 21
82.268101641
 31
0.0
  0
LINE
  5
1E8
330
1F
100
AcDbEntity
  8
7
  6
Continuous
 62
     2
100
AcDbLine
 10
103.180365785
 20
79.930286789
 30
0.0
 11
101.244342794
 21
81.511999462
 31
0.0
  0
LWPOLYLINE
  5
1EA
330
1F
100
AcDbEntity
  8
7
  6
Continuous
 62
     2
100
AcDbPolyline
 90
     3
 70
   128
 43
0.0
 10
103.180365785
 20
79.930286789
 10
94.080365785
 20
92.570286789
 10
75.080365785
 20
92.570286789
  0
TEXT
  5
1EB
330
1F
100
AcDbEntity
  8
7
  6
Continuous
 62
     2
100
AcDbText
 10
75.080365785
 20
93.570286789
 30
0.0
 40
3.0
  1
"5/16"ナット溶接
 41
0.666666667
  7
KANJI1
 72
     5
 11
94.080365785
 21
93.570286789
 31
0.0
100
AcDbText
  0
LINE
  5
1EC
330
1F
100
AcDbEntity
  8
0
  6
Continuous
 62
     1
100
AcDbLine
 10
182.990365785
 20
33.460286789
 30
0.0
 11
180.390365785
 21
33.460286789
 31
0.0
  0
LINE
  5
1ED
330
1F
100
AcDbEntity
  8
0
  6
Continuous
 62
     1
100
AcDbLine
 10
320.390365785
 20
133.460286789
 30
0.0
 11
320.390365785
 21
130.860286789
 31
0.0
  0
LINE
  5
1EE
330
1F
100
AcDbEntity
  8
0
  6
Continuous
 62
     1
100
AcDbLine
 10
182.990365785
 20
128.260286789
 30
0.0
 11
182.990365785
 21
33.460286789
 31
0.0
  0
LINE
  5
1EF
330
1F
100
AcDbEntity
  8
0
  6
Continuous
 62
     1
100
AcDbLine
 10
320.390365785
 20
130.860286789
 30
0.0
 11
185.590365785
 21
130.860286789
 31
0.0
  0
ARC
  5
1F0
330
1F
100
AcDbEntity
  8
0
  6
Continuous
 62
     1
100
AcDbCircle
 10
185.590365785
 20
128.260286789
 30
0.0
 40
2.6
100
AcDbArc
 50
90.0
 51
180.0
  0
LINE
  5
1F1
330
1F
100
AcDbEntity
  8
0
  6
Continuous
 62
     1
100
AcDbLine
 10
180.390365785
 20
128.260286789
 30
0.0
 11
180.390365785
 21
33.460286789
 31
0.0
  0
LINE
  5
1F2
330
1F
100
AcDbEntity
  8
0
  6
Continuous
 62
     1
100
AcDbLine
 10
320.390365785
 20
133.460286789
 30
0.0
 11
185.590365785
 21
133.460286789
 31
0.0
  0
ARC
  5
1F3
330
1F
100
AcDbEntity
  8
0
  6
Continuous
 62
     1
100
AcDbCircle
 10
185.590365785
 20
128.260286789
 30
0.0
 40
5.2
100
AcDbArc
 50
90.0
 51
180.0
  0
LWPOLYLINE
  5
1F6
330
1F
100
AcDbEntity
  8
0
  6
Continuous
 62
     2
100
AcDbPolyline
 90
     4
 70
   128
 43
0.0
 10
188.490365785
 20
35.95473329
 42
0.53293871
 10
188.490365785
 20
39.707510039
 42
0.266469355
 10
188.490365785
 20
47.213063539
 42
0.53293871
 10
188.490365785
 20
50.965840289
 42
0.0
  0
LINE
  5
1F8
330
1F
100
AcDbEntity
  8
0
  6
Continuous
 62
     2
100
AcDbLine
 10
189.490365785
 20
49.089451914
 30
0.0
 11
189.490365785
 21
37.831121665
 31
0.0
  0
LINE
  5
1F9
330
1F
100
AcDbEntity
  8
0
  6
Continuous
 62
     2
100
AcDbLine
 10
182.990365785
 20
39.707510039
 30
0.0
 11
188.490365785
 21
39.707510039
 31
0.0
  0
LINE
  5
1FA
330
1F
100
AcDbEntity
  8
0
  6
Continuous
 62
     2
100
AcDbLine
 10
182.990365785
 20
47.213063539
 30
0.0
 11
188.490365785
 21
47.213063539
 31
0.0
  0
LINE
  5
1FB
330
1F
100
AcDbEntity
  8
0
  6
Continuous
 62
     2
100
AcDbLine
 10
182.990365785
 20
50.965840289
 30
0.0
 11
188.490365785
 21
50.965840289
 31
0.0
  0
LINE
  5
1FC
330
1F
100
AcDbEntity
  8
0
  6
Continuous
 62
     2
100
AcDbLine
 10
182.990365785
 20
35.95473329
 30
0.0
 11
188.490365785
 21
35.95473329
 31
0.0
  0
LWPOLYLINE
  5
1FF
330
1F
100
AcDbEntity
  8
0
  6
Continuous
 62
     2
100
AcDbPolyline
 90
     4
 70
   128
 43
0.0
 10
188.490365785
 20
95.95473329
 42
0.53293871
 10
188.490365785
 20
99.707510039
 42
0.266469355
 10
188.490365785
 20
107.213063539
 42
0.53293871
 10
188.490365785
 20
110.965840289
 42
0.0
  0
LINE
  5
201
330
1F
100
AcDbEntity
  8
0
  6
Continuous
 62
     2
100
AcDbLine
 10
189.490365785
 20
109.089451914
 30
0.0
 11
189.490365785
 21
97.831121665
 31
0.0
  0
LINE
  5
202
330
1F
100
AcDbEntity
  8
0
  6
Continuous
 62
     2
100
AcDbLine
 10
182.990365785
 20
99.707510039
 30
0.0
 11
188.490365785
 21
99.707510039
 31
0.0
  0
LINE
  5
203
330
1F
100
AcDbEntity
  8
0
  6
Continuous
 62
     2
100
AcDbLine
 10
182.990365785
 20
107.213063539
 30
0.0
 11
188.490365785
 21
107.213063539
 31
0.0
  0
LINE
  5
204
330
1F
100
AcDbEntity
  8
0
  6
Continuous
 62
     2
100
AcDbLine
 10
182.990365785
 20
110.965840289
 30
0.0
 11
188.490365785
 21
110.965840289
 31
0.0
  0
LINE
  5
205
330
1F
100
AcDbEntity
  8
0
  6
Continuous
 62
     2
100
AcDbLine
 10
182.990365785
 20
95.95473329
 30
0.0
 11
188.490365785
 21
95.95473329
 31
0.0
  0
LWPOLYLINE
  5
208
330
1F
100
AcDbEntity
  8
0
  6
Continuous
 62
     2
100
AcDbPolyline
 90
     4
 70
   128
 43
0.0
 10
189.990365785
 20
64.800032751
 42
0.692820323
 10
189.990365785
 20
69.13015977
 42
0.346410162
 10
189.990365785
 20
77.790413808
 42
0.692820323
 10
189.990365785
 20
82.120540827
 42
0.0
  0
LINE
  5
20A
330
1F
100
AcDbEntity
  8
0
  6
Continuous
 62
     2
100
AcDbLine
 10
191.490365785
 20
79.955477317
 30
0.0
 11
191.490365785
 21
66.965096261
 31
0.0
  0
LINE
  5
20B
330
1F
100
AcDbEntity
  8
0
  6
Continuous
 62
     2
100
AcDbLine
 10
182.990365785
 20
64.800032751
 30
0.0
 11
189.990365785
 21
64.800032751
 31
0.0
  0
LINE
  5
20C
330
1F
100
AcDbEntity
  8
0
  6
Continuous
 62
     2
100
AcDbLine
 10
182.990365785
 20
69.13015977
 30
0.0
 11
189.990365785
 21
69.13015977
 31
0.0
  0
LINE
  5
20D
330
1F
100
AcDbEntity
  8
0
  6
Continuous
 62
     2
100
AcDbLine
 10
182.990365785
 20
77.790413808
 30
0.0
 11
189.990365785
 21
77.790413808
 31
0.0
  0
LINE
  5
20E
330
1F
100
AcDbEntity
  8
0
  6
Continuous
 62
     2
100
AcDbLine
 10
182.990365785
 20
82.120540827
 30
0.0
 11
189.990365785
 21
82.120540827
 31
0.0
  0
CIRCLE
  5
20F
330
1F
100
AcDbEntity
  8
0
  6
Continuous
 62
     1
100
AcDbCircle
 10
108.590365785
 20
43.460286789
 30
0.0
 40
4.6
  0
CIRCLE
  5
210
330
1F
100
AcDbEntity
  8
0
  6
Continuous
 62
     1
100
AcDbCircle
 10
108.590365785
 20
103.460286789
 30
0.0
 40
4.6
  0
CIRCLE
  5
211
330
1F
100
AcDbEntity
  8
0
  6
Continuous
 62
     1
100
AcDbCircle
 10
108.590365785
 20
73.460286789
 30
0.0
 40
4.1
  0
LWPOLYLINE
  5
213
330
1F
100
AcDbEntity
  8
0
  6
Continuous
 62
     1
100
AcDbPolyline
 90
     5
 70
   128
 43
0.0
 10
150.590365785
 20
133.460286789
 42
0.0
 10
66.590365785
 20
133.460286789
 42
0.0
 10
66.590365785
 20
38.460286789
 42
0.414213562
 10
71.590365785
 20
33.460286789
 42
0.0
 10
145.590365785
 20
33.460286789
 42
0.0
  0
LINE
  5
215
330
1F
100
AcDbEntity
  8
0
  6
Continuous
 62
     1
100
AcDbLine
 10
150.590365785
 20
133.460286789
 30
0.0
 11
150.590365785
 21
38.460286789
 31
0.0
  0
ARC
  5
216
330
1F
100
AcDbEntity
  8
0
  6
Continuous
 62
     1
100
AcDbCircle
 10
145.590365785
 20
38.460286789
 30
0.0
 40
5.0
100
AcDbArc
 50
270.0
 51
0.0
  0
CIRCLE
  5
217
330
1F
100
AcDbEntity
  8
0
  6
Continuous
 62
     2
100
AcDbCircle
 10
108.590365785
 20
103.460286789
 30
0.0
 40
3.0
  0
CIRCLE
  5
218
330
1F
100
AcDbEntity
  8
0
  6
Continuous
 62
     2
100
AcDbCircle
 10
108.590365785
 20
43.460286789
 30
0.0
 40
3.0
  0
LINE
  5
219
330
1F
100
AcDbEntity
  8
0
  6
LTYPE2
 62
     2
100
AcDbLine
 10
150.590365785
 20
130.860286789
 30
0.0
 11
66.590365785
 21
130.860286789
 31
0.0
  0
LWPOLYLINE
  5
21B
330
1F
100
AcDbEntity
  8
0
  6
LTYPE2
 62
     2
100
AcDbPolyline
 90
     6
 70
   129
 43
0.0
 10
108.590365785
 20
50.965840289
 10
102.090365785
 20
47.213063539
 10
102.090365785
 20
39.707510039
 10
108.590365785
 20
35.95473329
 10
115.090365785
 20
39.707510039
 10
115.090365785
 20
47.213063539
  0
LWPOLYLINE
  5
21D
330
1F
100
AcDbEntity
  8
0
  6
LTYPE2
 62
     2
100
AcDbPolyline
 90
     6
 70
   129
 43
0.0
 10
108.590365785
 20
110.965840289
 10
102.090365785
 20
107.213063539
 10
102.090365785
 20
99.707510039
 10
108.590365785
 20
95.95473329
 10
115.090365785
 20
99.707510039
 10
115.090365785
 20
107.213063539
  0
LINE
  5
21E
330
1F
100
AcDbEntity
  8
0
  6
LTYPE2
 62
     2
100
AcDbLine
 10
108.590365785
 20
82.120540827
 30
0.0
 11
101.090365785
 21
77.790413808
 31
0.0
  0
LINE
  5
21F
330
1F
100
AcDbEntity
  8
0
  6
LTYPE2
 62
     2
100
AcDbLine
 10
101.090365785
 20
69.13015977
 30
0.0
 11
108.590365785
 21
64.800032751
 31
0.0
  0
LINE
  5
220
330
1F
100
AcDbEntity
  8
0
  6
LTYPE2
 62
     2
100
AcDbLine
 10
101.090365785
 20
77.790413808
 30
0.0
 11
101.090365785
 21
69.13015977
 31
0.0
  0
LWPOLYLINE
  5
222
330
1F
100
AcDbEntity
  8
0
  6
LTYPE2
 62
     2
100
AcDbPolyline
 90
     4
 70
   128
 43
0.0
 10
108.590365785
 20
64.800032751
 10
116.090365785
 20
69.13015977
 10
116.090365785
 20
77.790413808
 10
108.590365785
 20
82.120540827
  0
LINE
  5
223
330
1F
100
AcDbEntity
  8
0
  6
LTYPE1
 62
     2
100
AcDbLine
 10
108.590365785
 20
133.460286789
 30
0.0
 11
108.590365785
 21
33.460286789
 31
0.0
  0
TEXT
  5
224
330
1F
100
AcDbEntity
  8
2
  6
Continuous
 62
     2
100
AcDbText
 10
358.5
 20
47.2
 30
0.0
 40
3.0
  1
アダプター
 41
0.9
  7
KANJI7
 72
     5
 11
373.2
 21
47.2
 31
0.0
100
AcDbText
  0
TEXT
  5
225
330
1F
100
AcDbEntity
  8
2
  6
Continuous
 62
     2
100
AcDbText
 10
358.5
 20
41.2
 30
0.0
 40
3.0
  1
C23B-001
 41
0.9
  7
KANJI5
 72
     5
 11
371.4
 21
41.2
 31
0.0
100
AcDbText
  0
TEXT
  5
226
330
1F
100
AcDbEntity
  8
2
  6
Continuous
 62
     2
100
AcDbText
 10
358.5
 20
35.2
 30
0.0
 40
3.0
  1
SPCC t=2.6
 41
0.9
  7
KANJI5
 72
     5
 11
374.7
 21
35.2
 31
0.0
100
AcDbText
  0
TEXT
  5
227
330
1F
100
AcDbEntity
  8
2
  6
Continuous
 62
     2
100
AcDbText
 10
358.5
 20
23.2
 30
0.0
 40
3.0
  1
黒色半艶塗装
 41
0.9
  7
KANJI7
 72
     5
 11
376.2
 21
23.2
 31
0.0
100
AcDbText
  0
TEXT
  5
228
330
1F
100
AcDbEntity
  8
2
  6
Continuous
 62
     2
100
AcDbText
 10
338.5
 20
23.2
 30
0.0
 40
3.0
  1
A3
 41
0.9
  7
KANJI5
 72
     5
 11
341.5
 21
23.2
 31
0.0
100
AcDbText
  0
TEXT
  5
229
330
1F
100
AcDbEntity
  8
2
  6
Continuous
 62
     2
100
AcDbText
 10
338.5
 20
17.2
 30
0.0
 40
3.0
  1
１／１
 41
0.9
  7
KANJI7
 72
     5
 11
347.2
 21
17.2
 31
0.0
100
AcDbText
  0
TEXT
  5
22A
330
1F
100
AcDbEntity
  8
2
  6
Continuous
 62
     2
100
AcDbText
 10
334.5
 20
11.2
 30
0.0
 40
3.0
  1
2016/10/24
 41
0.9
  7
KANJI5
 72
     5
 11
350.7
 21
11.2
 31
0.0
100
AcDbText
  0
TEXT
  5
22B
330
1F
100
AcDbEntity
  8
2
  6
Continuous
 62
     2
100
AcDbText
 10
293.5
 20
11.2
 30
0.0
 40
3.0
  1
ヒビノ
 41
0.9
  7
KANJI7
 72
     5
 11
302.2
 21
11.2
 31
0.0
100
AcDbText
  0
TEXT
  5
22C
330
1F
100
AcDbEntity
  8
2
  6
Continuous
 62
     2
100
AcDbText
 10
311.5
 20
11.2
 30
0.0
 40
3.0
  1
CTLB-C23B-001
 41
0.666666667
  7
KANJI8
 72
     5
 11
328.1
 21
11.2
 31
0.0
100
AcDbText
  0
TEXT
  5
22E
330
1F
100
AcDbEntity
  8
2
  6
Continuous
 62
     2
100
AcDbText
 10
358.5
 20
11.2
 30
0.0
 40
3.0
  1
ヒビノ（株）　新　CTLB-23-1　アダプター
 41
0.666666667
  7
KANJI1
 72
     5
 11
404.4
 21
11.2
 31
0.0
100
AcDbText
  0
ENDSEC
  0
SECTION
  2
OBJECTS
  0
DICTIONARY
  5
C
330
0
100
AcDbDictionary
280
     0
281
     1
  3
ACAD_GROUP
350
D
  3
ACAD_LAYOUT
350
1A
  3
ACAD_MLINESTYLE
350
17
  3
ACAD_PLOTSETTINGS
350
19
  3
ACAD_PLOTSTYLENAME
350
E
  0
DICTIONARY
  5
D
102
{ACAD_REACTORS
330
C
102
}
330
C
100
AcDbDictionary
280
     0
281
     1
  0
DICTIONARY
  5
1A
102
{ACAD_REACTORS
330
C
102
}
330
C
100
AcDbDictionary
280
     0
281
     1
  3
Model
350
22
  3
ﾚｲｱｳﾄ1
350
1E
  3
ﾚｲｱｳﾄ2
350
26
  0
LAYOUT
  5
22
102
{ACAD_REACTORS
330
1A
102
}
330
1A
100
AcDbPlotSettings
  1

  2

  4

  6

 40
0.0
 41
0.0
 42
0.0
 43
0.0
 44
0.0
 45
0.0
 46
0.0
 47
0.0
 48
0.0
 49
0.0
140
0.0
141
0.0
142
1.0
143
1.0
 70
  1712
 72
     0
 73
     0
 74
     0
  7

 75
     0
147
1.0
148
0.0
149
0.0
100
AcDbLayout
  1
Model
 70
     1
 71
     0
 10
0.0
 20
0.0
 11
0.0
 21
0.0
 12
0.0
 22
0.0
 32
0.0
 14
0.0
 24
0.0
 34
0.0
 15
0.0
 25
0.0
 35
0.0
146
0.0
 13
0.0
 23
0.0
 33
0.0
 16
1.0
 26
0.0
 36
0.0
 17
0.0
 27
1.0
 37
0.0
 76
     0
330
1F
331
0
345
0
346
0
  0
LAYOUT
  5
1E
102
{ACAD_REACTORS
330
1A
102
}
330
1A
100
AcDbPlotSettings
  1

  2

  4

  6

 40
0.0
 41
0.0
 42
0.0
 43
0.0
 44
0.0
 45
0.0
 46
0.0
 47
0.0
 48
0.0
 49
0.0
140
0.0
141
0.0
142
1.0
143
1.0
 70
   688
 72
     0
 73
     0
 74
     5
  7

 75
    16
147
1.0
148
0.0
149
0.0
100
AcDbLayout
  1
ﾚｲｱｳﾄ1
 70
     1
 71
     1
 10
0.0
 20
0.0
 11
0.0
 21
0.0
 12
0.0
 22
0.0
 32
0.0
 14
0.0
 24
0.0
 34
0.0
 15
0.0
 25
0.0
 35
0.0
146
0.0
 13
0.0
 23
0.0
 33
0.0
 16
1.0
 26
0.0
 36
0.0
 17
0.0
 27
1.0
 37
0.0
 76
     0
330
1B
331
0
345
0
346
0
  0
LAYOUT
  5
26
102
{ACAD_REACTORS
330
1A
102
}
330
1A
100
AcDbPlotSettings
  1

  2

  4

  6

 40
0.0
 41
0.0
 42
0.0
 43
0.0
 44
0.0
 45
0.0
 46
0.0
 47
0.0
 48
0.0
 49
0.0
140
0.0
141
0.0
142
1.0
143
1.0
 70
   688
 72
     0
 73
     0
 74
     5
  7

 75
    16
147
1.0
148
0.0
149
0.0
100
AcDbLayout
  1
ﾚｲｱｳﾄ2
 70
     1
 71
     2
 10
0.0
 20
0.0
 11
0.0
 21
0.0
 12
0.0
 22
0.0
 32
0.0
 14
0.0
 24
0.0
 34
0.0
 15
0.0
 25
0.0
 35
0.0
146
0.0
 13
0.0
 23
0.0
 33
0.0
 16
1.0
 26
0.0
 36
0.0
 17
0.0
 27
1.0
 37
0.0
 76
     0
330
23
331
0
345
0
346
0
  0
DICTIONARY
  5
17
102
{ACAD_REACTORS
330
C
102
}
330
C
100
AcDbDictionary
280
     0
281
     1
  3
Standard
350
18
  0
MLINESTYLE
  5
18
102
{ACAD_REACTORS
330
17
102
}
330
17
100
AcDbMlineStyle
  2
STANDARD
 70
     0
  3

 62
   256
 51
90.0
 52
90.0
 71
     2
 49
0.5
 62
   256
  6
ByLayer
 49
-0.5
 62
   256
  6
ByLayer
  0
DICTIONARY
  5
19
102
{ACAD_REACTORS
330
C
102
}
330
C
100
AcDbDictionary
280
     0
281
     1
  0
ACDBDICTIONARYWDFLT
  5
E
330
C
100
AcDbDictionary
281
     0
  3
Normal
350
F
100
AcDbDictionaryWithDefault
340
F
  0
ACDBPLACEHOLDER
  5
F
102
{ACAD_REACTORS
330
E
102
}
330
E
  0
ENDSEC
  0
EOF
