  0
SECTION
  2
HEADER
  9
$ACADVER
  1
AC1015
  9
$ACADMAINTVER
 70
     6
  9
$DWGCODEPAGE
  3
ANSI_932
  9
$INSBASE
 10
0.0
 20
0.0
 30
0.0
  9
$EXTMIN
 10
0.0
 20
0.0
 30
0.0
  9
$EXTMAX
 10
1188.0
 20
840.0
 30
0.0
  9
$LIMMIN
 10
0.0
 20
0.0
  9
$LIMMAX
 10
1188.0
 20
840.0
  9
$ORTHOMODE
 70
     0
  9
$REGENMODE
 70
     1
  9
$FILLMODE
 70
     1
  9
$QTEXTMODE
 70
     0
  9
$MIRRTEXT
 70
     1
  9
$LTSCALE
 40
4.0
  9
$ATTMODE
 70
     1
  9
$TEXTSIZE
 40
2.5
  9
$TRACEWID
 40
1.0
  9
$TEXTSTYLE
  7
Standard
  9
$CLAYER
  8
0
  9
$CELTYPE
  6
ByLayer
  9
$CECOLOR
 62
   256
  9
$CELTSCALE
 40
1.0
  9
$DISPSILH
 70
     0
  9
$DIMSCALE
 40
1.0
  9
$DIMASZ
 40
2.5
  9
$DIMEXO
 40
0.625
  9
$DIMDLI
 40
3.75
  9
$DIMRND
 40
0.0
  9
$DIMDLE
 40
0.0
  9
$DIMEXE
 40
1.25
  9
$DIMTP
 40
0.0
  9
$DIMTM
 40
0.0
  9
$DIMTXT
 40
2.5
  9
$DIMCEN
 40
2.5
  9
$DIMTSZ
 40
0.0
  9
$DIMTOL
 70
     0
  9
$DIMLIM
 70
     0
  9
$DIMTIH
 70
     0
  9
$DIMTOH
 70
     0
  9
$DIMSE1
 70
     0
  9
$DIMSE2
 70
     0
  9
$DIMTAD
 70
     1
  9
$DIMZIN
 70
     8
  9
$DIMBLK
  1

  9
$DIMASO
 70
     1
  9
$DIMSHO
 70
     1
  9
$DIMPOST
  1

  9
$DIMAPOST
  1

  9
$DIMALT
 70
     0
  9
$DIMALTD
 70
     3
  9
$DIMALTF
 40
0.03937007874016
  9
$DIMLFAC
 40
1.0
  9
$DIMTOFL
 70
     1
  9
$DIMTVP
 40
0.0
  9
$DIMTIX
 70
     0
  9
$DIMSOXD
 70
     0
  9
$DIMSAH
 70
     0
  9
$DIMBLK1
  1

  9
$DIMBLK2
  1

  9
$DIMSTYLE
  2
ISO-25
  9
$DIMCLRD
 70
     0
  9
$DIMCLRE
 70
     0
  9
$DIMCLRT
 70
     0
  9
$DIMTFAC
 40
1.0
  9
$DIMGAP
 40
0.625
  9
$DIMJUST
 70
     0
  9
$DIMSD1
 70
     0
  9
$DIMSD2
 70
     0
  9
$DIMTOLJ
 70
     0
  9
$DIMTZIN
 70
     8
  9
$DIMALTZ
 70
     0
  9
$DIMALTTZ
 70
     0
  9
$DIMUPT
 70
     0
  9
$DIMDEC
 70
     2
  9
$DIMTDEC
 70
     2
  9
$DIMALTU
 70
     2
  9
$DIMALTTD
 70
     3
  9
$DIMTXSTY
  7
Standard
  9
$DIMAUNIT
 70
     0
  9
$DIMADEC
 70
     0
  9
$DIMALTRND
 40
0.0
  9
$DIMAZIN
 70
     0
  9
$DIMDSEP
 70
    46
  9
$DIMATFIT
 70
     3
  9
$DIMFRAC
 70
     0
  9
$DIMLDRBLK
  1

  9
$DIMLUNIT
 70
     2
  9
$DIMLWD
 70
    -2
  9
$DIMLWE
 70
    -2
  9
$DIMTMOVE
 70
     0
  9
$LUNITS
 70
     2
  9
$LUPREC
 70
     4
  9
$SKETCHINC
 40
1.0
  9
$FILLETRAD
 40
10.0
  9
$AUNITS
 70
     0
  9
$AUPREC
 70
     0
  9
$MENU
  1
.
  9
$ELEVATION
 40
0.0
  9
$PELEVATION
 40
0.0
  9
$THICKNESS
 40
0.0
  9
$LIMCHECK
 70
     0
  9
$CHAMFERA
 40
10.0
  9
$CHAMFERB
 40
10.0
  9
$CHAMFERC
 40
20.0
  9
$CHAMFERD
 40
0.0
  9
$SKPOLY
 70
     0
  9
$TDCREATE
 40
2457071.000000
  9
$TDUCREATE
 40
0.000000000
  9
$TDUPDATE
 40
2457071.000000
  9
$TDUUPDATE
 40
2457071.000000
  9
$TDINDWG
 40
0.0
  9
$TDUSRTIMER
 40
0.0
  9
$USRTIMER
 70
     1
  9
$ANGBASE
 50
0.0
  9
$ANGDIR
 70
     0
  9
$PDMODE
 70
     0
  9
$PDSIZE
 40
0.0
  9
$PLINEWID
 40
0.0
  9
$SPLFRAME
 70
     0
  9
$SPLINETYPE
 70
     6
  9
$SPLINESEGS
 70
     8
  9
$HANDSEED
  5
042B
  9
$SURFTAB1
 70
     6
  9
$SURFTAB2
 70
     6
  9
$SURFTYPE
 70
     6
  9
$SURFU
 70
     6
  9
$SURFV
 70
     6
  9
$UCSBASE
  2

  9
$UCSNAME
  2

  9
$UCSORG
 10
0.0
 20
0.0
 30
0.0
  9
$UCSXDIR
 10
1.0
 20
0.0
 30
0.0
  9
$UCSYDIR
 10
0.0
 20
1.0
 30
0.0
  9
$UCSORTHOREF
  2

  9
$UCSORTHOVIEW
 70
     0
  9
$UCSORGTOP
 10
0.0
 20
0.0
 30
0.0
  9
$UCSORGBOTTOM
 10
0.0
 20
0.0
 30
0.0
  9
$UCSORGLEFT
 10
0.0
 20
0.0
 30
0.0
  9
$UCSORGRIGHT
 10
0.0
 20
0.0
 30
0.0
  9
$UCSORGFRONT
 10
0.0
 20
0.0
 30
0.0
  9
$UCSORGBACK
 10
0.0
 20
0.0
 30
0.0
  9
$PUCSBASE
  2

  9
$PUCSNAME
  2

  9
$PUCSORG
 10
0.0
 20
0.0
 30
0.0
  9
$PUCSXDIR
 10
1.0
 20
0.0
 30
0.0
  9
$PUCSYDIR
 10
0.0
 20
1.0
 30
0.0
  9
$PUCSORTHOREF
  2

  9
$PUCSORTHOVIEW
 70
     0
  9
$PUCSORGTOP
 10
0.0
 20
0.0
 30
0.0
  9
$PUCSORGBOTTOM
 10
0.0
 20
0.0
 30
0.0
  9
$PUCSORGLEFT
 10
0.0
 20
0.0
 30
0.0
  9
$PUCSORGRIGHT
 10
0.0
 20
0.0
 30
0.0
  9
$PUCSORGFRONT
 10
0.0
 20
0.0
 30
0.0
  9
$PUCSORGBACK
 10
0.0
 20
0.0
 30
0.0
  9
$USERI1
 70
     0
  9
$USERI2
 70
     0
  9
$USERI3
 70
     0
  9
$USERI4
 70
     0
  9
$USERI5
 70
     0
  9
$USERR1
 40
0.0
  9
$USERR2
 40
0.0
  9
$USERR3
 40
0.0
  9
$USERR4
 40
0.0
  9
$USERR5
 40
0.0
  9
$WORLDVIEW
 70
     1
  9
$SHADEDGE
 70
     3
  9
$SHADEDIF
 70
    70
  9
$TILEMODE
 70
     1
  9
$MAXACTVP
 70
    64
  9
$PINSBASE
 10
0.0
 20
0.0
 30
0.0
  9
$PLIMCHECK
 70
     0
  9
$PEXTMIN
 10
1.000000E+20
 20
1.000000E+20
 30
1.000000E+20
  9
$PEXTMAX
 10
-1.000000E+20
 20
-1.000000E+20
 30
-1.000000E+20
  9
$PLIMMIN
 10
0.0
 20
0.0
  9
$PLIMMAX
 10
0.0
 20
0.0
  9
$UNITMODE
 70
     0
  9
$VISRETAIN
 70
     0
  9
$PLINEGEN
 70
     0
  9
$PSLTSCALE
 70
     1
  9
$TREEDEPTH
 70
  3020
  9
$CMLSTYLE
  2
STANDARD
  9
$CMLJUST
 70
     0
  9
$CMLSCALE
 40
20.0
  9
$PROXYGRAPHICS
 70
     1
  9
$MEASUREMENT
 70
     1
  9
$CELWEIGHT
370
    -1
  9
$ENDCAPS
280
     0
  9
$JOINSTYLE
280
     0
  9
$LWDISPLAY
290
     0
  9
$INSUNITS
 70
     4
  9
$HYPERLINKBASE
  1

  9
$STYLESHEET
  1

  9
$XEDIT
290
     1
  9
$CEPSNTYPE
380
     0
  9
$PSTYLEMODE
290
     1
  9
$FINGERPRINTGUID
  2
{711AC5C3-F934-A0F5-548E-8F6E5A704C4E}
  9
$VERSIONGUID
  2
{B1E3C3EE-7A65-E5CC-4CDF-DFE2448D505F}
  9
$EXTNAMES
290
     1
  9
$PSVPSCALE
 40
0.0
  0
ENDSEC
  0
SECTION
  2
CLASSES
  0
ENDSEC
  0
SECTION
  2
TABLES
  0
TABLE
  2
VPORT
  5
8
330
0
100
AcDbSymbolTable
 70
     3
  0
VPORT
  5
29
330
8
100
AcDbSymbolTableRecord
100
AcDbViewportTableRecord
  2
*Active
 70
     0
 10
0.0
 20
0.0
 11
1.0
 21
1.0
 12
594.0
 22
420.0
 13
0.0
 23
0.0
 14
10.0
 24
10.0
 15
0.0
 25
0.0
 16
0.0
 26
0.0
 36
1.0
 17
0.0
 27
0.0
 37
0.0
 40
840.0
 41
1.414285714
 42
50.0
 43
0.0
 44
0.0
 50
0.0
 51
0.0
 71
     0
 72
  1000
 73
     1
 74
     3
 75
     0
 76
     0
 77
     0
 78
     0
281
     0
 65
     0
110
0.0
120
0.0
130
0.0
111
1.0
121
0.0
131
0.0
112
0.0
122
1.0
132
0.0
 79
     0
146
0.0
  0
ENDTAB
  0
TABLE
  2
LTYPE
  5
5
330
0
100
AcDbSymbolTable
 70
     6
  0
LTYPE
  5
14
330
5
100
AcDbSymbolTableRecord
100
AcDbLinetypeTableRecord
  2
ByBlock
 70
     0
  3

 72
    65
 73
     0
 40
0.0
  0
LTYPE
  5
15
330
5
100
AcDbSymbolTableRecord
100
AcDbLinetypeTableRecord
  2
ByLayer
 70
     0
  3

 72
    65
 73
     0
 40
0.0
  0
LTYPE
  5
16
330
5
100
AcDbSymbolTableRecord
100
AcDbLinetypeTableRecord
  2
Continuous
 70
     0
  3
Solid line
 72
    65
 73
     0
 40
0.0
  0
LTYPE
  5
A9
330
5
100
AcDbSymbolTableRecord
100
AcDbLinetypeTableRecord
  2
LTYPE1
 70
     0
  3
PHANTOM
 72
    65
 73
     6
 40
12.0
 49
9.0
 74
     0
 49
-0.6
 74
     0
 49
0.6
 74
     0
 49
-0.6
 74
     0
 49
0.6
 74
     0
 49
-0.6
 74
     0
  0
LTYPE
  5
F7
330
5
100
AcDbSymbolTableRecord
100
AcDbLinetypeTableRecord
  2
LTYPE2
 70
     0
  3
HIDDEN
 72
    65
 73
     2
 40
2.0
 49
1.2
 74
     0
 49
-0.8
 74
     0
  0
LTYPE
  5
2C9
330
5
100
AcDbSymbolTableRecord
100
AcDbLinetypeTableRecord
  2
LTYPE3
 70
     0
  3
CENTER
 72
    65
 73
     4
 40
12.0
 49
8.4
 74
     0
 49
-1.2
 74
     0
 49
1.2
 74
     0
 49
-1.2
 74
     0
  0
ENDTAB
  0
TABLE
  2
LAYER
  5
2
330
0
100
AcDbSymbolTable
 70
   128
  0
LAYER
  5
10
330
2
100
AcDbSymbolTableRecord
100
AcDbLayerTableRecord
  2
0
 70
     0
 62
     7
  6
Continuous
290
     1
370
    -3
390
F
  0
LAYER
  5
2A
330
2
100
AcDbSymbolTableRecord
100
AcDbLayerTableRecord
  2
2
 70
     0
 62
     7
  6
Continuous
290
     1
370
    -3
390
F
  0
LAYER
  5
2B
330
2
100
AcDbSymbolTableRecord
100
AcDbLayerTableRecord
  2
3
 70
     0
 62
     7
  6
Continuous
290
     1
370
    -3
390
F
  0
LAYER
  5
2C
330
2
100
AcDbSymbolTableRecord
100
AcDbLayerTableRecord
  2
4
 70
     0
 62
     7
  6
Continuous
290
     1
370
    -3
390
F
  0
LAYER
  5
2D
330
2
100
AcDbSymbolTableRecord
100
AcDbLayerTableRecord
  2
5
 70
     0
 62
     7
  6
Continuous
290
     1
370
    -3
390
F
  0
LAYER
  5
2E
330
2
100
AcDbSymbolTableRecord
100
AcDbLayerTableRecord
  2
6
 70
     0
 62
     7
  6
Continuous
290
     1
370
    -3
390
F
  0
LAYER
  5
2F
330
2
100
AcDbSymbolTableRecord
100
AcDbLayerTableRecord
  2
7
 70
     0
 62
     7
  6
Continuous
290
     1
370
    -3
390
F
  0
LAYER
  5
30
330
2
100
AcDbSymbolTableRecord
100
AcDbLayerTableRecord
  2
8
 70
     0
 62
     7
  6
Continuous
290
     1
370
    -3
390
F
  0
LAYER
  5
31
330
2
100
AcDbSymbolTableRecord
100
AcDbLayerTableRecord
  2
9
 70
     0
 62
     7
  6
Continuous
290
     1
370
    -3
390
F
  0
LAYER
  5
32
330
2
100
AcDbSymbolTableRecord
100
AcDbLayerTableRecord
  2
10
 70
     0
 62
     7
  6
Continuous
290
     1
370
    -3
390
F
  0
LAYER
  5
33
330
2
100
AcDbSymbolTableRecord
100
AcDbLayerTableRecord
  2
11
 70
     0
 62
     7
  6
Continuous
290
     1
370
    -3
390
F
  0
LAYER
  5
34
330
2
100
AcDbSymbolTableRecord
100
AcDbLayerTableRecord
  2
12
 70
     0
 62
     7
  6
Continuous
290
     1
370
    -3
390
F
  0
LAYER
  5
35
330
2
100
AcDbSymbolTableRecord
100
AcDbLayerTableRecord
  2
13
 70
     0
 62
     7
  6
Continuous
290
     1
370
    -3
390
F
  0
LAYER
  5
36
330
2
100
AcDbSymbolTableRecord
100
AcDbLayerTableRecord
  2
14
 70
     0
 62
     7
  6
Continuous
290
     1
370
    -3
390
F
  0
LAYER
  5
37
330
2
100
AcDbSymbolTableRecord
100
AcDbLayerTableRecord
  2
15
 70
     0
 62
     7
  6
Continuous
290
     1
370
    -3
390
F
  0
LAYER
  5
38
330
2
100
AcDbSymbolTableRecord
100
AcDbLayerTableRecord
  2
16
 70
     0
 62
     7
  6
Continuous
290
     1
370
    -3
390
F
  0
LAYER
  5
39
330
2
100
AcDbSymbolTableRecord
100
AcDbLayerTableRecord
  2
17
 70
     0
 62
     7
  6
Continuous
290
     1
370
    -3
390
F
  0
LAYER
  5
3A
330
2
100
AcDbSymbolTableRecord
100
AcDbLayerTableRecord
  2
18
 70
     0
 62
     7
  6
Continuous
290
     1
370
    -3
390
F
  0
LAYER
  5
3B
330
2
100
AcDbSymbolTableRecord
100
AcDbLayerTableRecord
  2
19
 70
     0
 62
     7
  6
Continuous
290
     1
370
    -3
390
F
  0
LAYER
  5
3C
330
2
100
AcDbSymbolTableRecord
100
AcDbLayerTableRecord
  2
20
 70
     0
 62
     7
  6
Continuous
290
     1
370
    -3
390
F
  0
LAYER
  5
3D
330
2
100
AcDbSymbolTableRecord
100
AcDbLayerTableRecord
  2
21
 70
     0
 62
     7
  6
Continuous
290
     1
370
    -3
390
F
  0
LAYER
  5
3E
330
2
100
AcDbSymbolTableRecord
100
AcDbLayerTableRecord
  2
22
 70
     0
 62
     7
  6
Continuous
290
     1
370
    -3
390
F
  0
LAYER
  5
3F
330
2
100
AcDbSymbolTableRecord
100
AcDbLayerTableRecord
  2
23
 70
     0
 62
     7
  6
Continuous
290
     1
370
    -3
390
F
  0
LAYER
  5
40
330
2
100
AcDbSymbolTableRecord
100
AcDbLayerTableRecord
  2
24
 70
     0
 62
     7
  6
Continuous
290
     1
370
    -3
390
F
  0
LAYER
  5
41
330
2
100
AcDbSymbolTableRecord
100
AcDbLayerTableRecord
  2
25
 70
     0
 62
     7
  6
Continuous
290
     1
370
    -3
390
F
  0
LAYER
  5
42
330
2
100
AcDbSymbolTableRecord
100
AcDbLayerTableRecord
  2
26
 70
     0
 62
     7
  6
Continuous
290
     1
370
    -3
390
F
  0
LAYER
  5
43
330
2
100
AcDbSymbolTableRecord
100
AcDbLayerTableRecord
  2
27
 70
     0
 62
     7
  6
Continuous
290
     1
370
    -3
390
F
  0
LAYER
  5
44
330
2
100
AcDbSymbolTableRecord
100
AcDbLayerTableRecord
  2
28
 70
     0
 62
     7
  6
Continuous
290
     1
370
    -3
390
F
  0
LAYER
  5
45
330
2
100
AcDbSymbolTableRecord
100
AcDbLayerTableRecord
  2
29
 70
     0
 62
     7
  6
Continuous
290
     1
370
    -3
390
F
  0
LAYER
  5
46
330
2
100
AcDbSymbolTableRecord
100
AcDbLayerTableRecord
  2
30
 70
     0
 62
     7
  6
Continuous
290
     1
370
    -3
390
F
  0
LAYER
  5
47
330
2
100
AcDbSymbolTableRecord
100
AcDbLayerTableRecord
  2
31
 70
     0
 62
     7
  6
Continuous
290
     1
370
    -3
390
F
  0
LAYER
  5
48
330
2
100
AcDbSymbolTableRecord
100
AcDbLayerTableRecord
  2
32
 70
     0
 62
     7
  6
Continuous
290
     1
370
    -3
390
F
  0
LAYER
  5
49
330
2
100
AcDbSymbolTableRecord
100
AcDbLayerTableRecord
  2
33
 70
     0
 62
     7
  6
Continuous
290
     1
370
    -3
390
F
  0
LAYER
  5
4A
330
2
100
AcDbSymbolTableRecord
100
AcDbLayerTableRecord
  2
34
 70
     0
 62
     7
  6
Continuous
290
     1
370
    -3
390
F
  0
LAYER
  5
4B
330
2
100
AcDbSymbolTableRecord
100
AcDbLayerTableRecord
  2
35
 70
     0
 62
     7
  6
Continuous
290
     1
370
    -3
390
F
  0
LAYER
  5
4C
330
2
100
AcDbSymbolTableRecord
100
AcDbLayerTableRecord
  2
36
 70
     0
 62
     7
  6
Continuous
290
     1
370
    -3
390
F
  0
LAYER
  5
4D
330
2
100
AcDbSymbolTableRecord
100
AcDbLayerTableRecord
  2
37
 70
     0
 62
     7
  6
Continuous
290
     1
370
    -3
390
F
  0
LAYER
  5
4E
330
2
100
AcDbSymbolTableRecord
100
AcDbLayerTableRecord
  2
38
 70
     0
 62
     7
  6
Continuous
290
     1
370
    -3
390
F
  0
LAYER
  5
4F
330
2
100
AcDbSymbolTableRecord
100
AcDbLayerTableRecord
  2
39
 70
     0
 62
     7
  6
Continuous
290
     1
370
    -3
390
F
  0
LAYER
  5
50
330
2
100
AcDbSymbolTableRecord
100
AcDbLayerTableRecord
  2
40
 70
     0
 62
     7
  6
Continuous
290
     1
370
    -3
390
F
  0
LAYER
  5
51
330
2
100
AcDbSymbolTableRecord
100
AcDbLayerTableRecord
  2
41
 70
     0
 62
     7
  6
Continuous
290
     1
370
    -3
390
F
  0
LAYER
  5
52
330
2
100
AcDbSymbolTableRecord
100
AcDbLayerTableRecord
  2
42
 70
     0
 62
     7
  6
Continuous
290
     1
370
    -3
390
F
  0
LAYER
  5
53
330
2
100
AcDbSymbolTableRecord
100
AcDbLayerTableRecord
  2
43
 70
     0
 62
     7
  6
Continuous
290
     1
370
    -3
390
F
  0
LAYER
  5
54
330
2
100
AcDbSymbolTableRecord
100
AcDbLayerTableRecord
  2
44
 70
     0
 62
     7
  6
Continuous
290
     1
370
    -3
390
F
  0
LAYER
  5
55
330
2
100
AcDbSymbolTableRecord
100
AcDbLayerTableRecord
  2
45
 70
     0
 62
     7
  6
Continuous
290
     1
370
    -3
390
F
  0
LAYER
  5
56
330
2
100
AcDbSymbolTableRecord
100
AcDbLayerTableRecord
  2
46
 70
     0
 62
     7
  6
Continuous
290
     1
370
    -3
390
F
  0
LAYER
  5
57
330
2
100
AcDbSymbolTableRecord
100
AcDbLayerTableRecord
  2
47
 70
     0
 62
     7
  6
Continuous
290
     1
370
    -3
390
F
  0
LAYER
  5
58
330
2
100
AcDbSymbolTableRecord
100
AcDbLayerTableRecord
  2
48
 70
     0
 62
     7
  6
Continuous
290
     1
370
    -3
390
F
  0
LAYER
  5
59
330
2
100
AcDbSymbolTableRecord
100
AcDbLayerTableRecord
  2
49
 70
     0
 62
     7
  6
Continuous
290
     1
370
    -3
390
F
  0
LAYER
  5
5A
330
2
100
AcDbSymbolTableRecord
100
AcDbLayerTableRecord
  2
50
 70
     0
 62
     7
  6
Continuous
290
     1
370
    -3
390
F
  0
LAYER
  5
5B
330
2
100
AcDbSymbolTableRecord
100
AcDbLayerTableRecord
  2
51
 70
     0
 62
     7
  6
Continuous
290
     1
370
    -3
390
F
  0
LAYER
  5
5C
330
2
100
AcDbSymbolTableRecord
100
AcDbLayerTableRecord
  2
52
 70
     0
 62
     7
  6
Continuous
290
     1
370
    -3
390
F
  0
LAYER
  5
5D
330
2
100
AcDbSymbolTableRecord
100
AcDbLayerTableRecord
  2
53
 70
     0
 62
     7
  6
Continuous
290
     1
370
    -3
390
F
  0
LAYER
  5
5E
330
2
100
AcDbSymbolTableRecord
100
AcDbLayerTableRecord
  2
54
 70
     0
 62
     7
  6
Continuous
290
     1
370
    -3
390
F
  0
LAYER
  5
5F
330
2
100
AcDbSymbolTableRecord
100
AcDbLayerTableRecord
  2
55
 70
     0
 62
     7
  6
Continuous
290
     1
370
    -3
390
F
  0
LAYER
  5
60
330
2
100
AcDbSymbolTableRecord
100
AcDbLayerTableRecord
  2
56
 70
     0
 62
     7
  6
Continuous
290
     1
370
    -3
390
F
  0
LAYER
  5
61
330
2
100
AcDbSymbolTableRecord
100
AcDbLayerTableRecord
  2
57
 70
     0
 62
     7
  6
Continuous
290
     1
370
    -3
390
F
  0
LAYER
  5
62
330
2
100
AcDbSymbolTableRecord
100
AcDbLayerTableRecord
  2
58
 70
     0
 62
     7
  6
Continuous
290
     1
370
    -3
390
F
  0
LAYER
  5
63
330
2
100
AcDbSymbolTableRecord
100
AcDbLayerTableRecord
  2
59
 70
     0
 62
     7
  6
Continuous
290
     1
370
    -3
390
F
  0
LAYER
  5
64
330
2
100
AcDbSymbolTableRecord
100
AcDbLayerTableRecord
  2
60
 70
     0
 62
     7
  6
Continuous
290
     1
370
    -3
390
F
  0
LAYER
  5
65
330
2
100
AcDbSymbolTableRecord
100
AcDbLayerTableRecord
  2
61
 70
     0
 62
     7
  6
Continuous
290
     1
370
    -3
390
F
  0
LAYER
  5
66
330
2
100
AcDbSymbolTableRecord
100
AcDbLayerTableRecord
  2
62
 70
     0
 62
     7
  6
Continuous
290
     1
370
    -3
390
F
  0
LAYER
  5
67
330
2
100
AcDbSymbolTableRecord
100
AcDbLayerTableRecord
  2
63
 70
     0
 62
     7
  6
Continuous
290
     1
370
    -3
390
F
  0
LAYER
  5
68
330
2
100
AcDbSymbolTableRecord
100
AcDbLayerTableRecord
  2
64
 70
     0
 62
     7
  6
Continuous
290
     1
370
    -3
390
F
  0
LAYER
  5
69
330
2
100
AcDbSymbolTableRecord
100
AcDbLayerTableRecord
  2
65
 70
     0
 62
     7
  6
Continuous
290
     1
370
    -3
390
F
  0
LAYER
  5
6A
330
2
100
AcDbSymbolTableRecord
100
AcDbLayerTableRecord
  2
66
 70
     0
 62
     7
  6
Continuous
290
     1
370
    -3
390
F
  0
LAYER
  5
6B
330
2
100
AcDbSymbolTableRecord
100
AcDbLayerTableRecord
  2
67
 70
     0
 62
     7
  6
Continuous
290
     1
370
    -3
390
F
  0
LAYER
  5
6C
330
2
100
AcDbSymbolTableRecord
100
AcDbLayerTableRecord
  2
68
 70
     0
 62
     7
  6
Continuous
290
     1
370
    -3
390
F
  0
LAYER
  5
6D
330
2
100
AcDbSymbolTableRecord
100
AcDbLayerTableRecord
  2
69
 70
     0
 62
     7
  6
Continuous
290
     1
370
    -3
390
F
  0
LAYER
  5
6E
330
2
100
AcDbSymbolTableRecord
100
AcDbLayerTableRecord
  2
70
 70
     0
 62
     7
  6
Continuous
290
     1
370
    -3
390
F
  0
LAYER
  5
6F
330
2
100
AcDbSymbolTableRecord
100
AcDbLayerTableRecord
  2
71
 70
     0
 62
     7
  6
Continuous
290
     1
370
    -3
390
F
  0
LAYER
  5
70
330
2
100
AcDbSymbolTableRecord
100
AcDbLayerTableRecord
  2
72
 70
     0
 62
     7
  6
Continuous
290
     1
370
    -3
390
F
  0
LAYER
  5
71
330
2
100
AcDbSymbolTableRecord
100
AcDbLayerTableRecord
  2
73
 70
     0
 62
     7
  6
Continuous
290
     1
370
    -3
390
F
  0
LAYER
  5
72
330
2
100
AcDbSymbolTableRecord
100
AcDbLayerTableRecord
  2
74
 70
     0
 62
     7
  6
Continuous
290
     1
370
    -3
390
F
  0
LAYER
  5
73
330
2
100
AcDbSymbolTableRecord
100
AcDbLayerTableRecord
  2
75
 70
     0
 62
     7
  6
Continuous
290
     1
370
    -3
390
F
  0
LAYER
  5
74
330
2
100
AcDbSymbolTableRecord
100
AcDbLayerTableRecord
  2
76
 70
     0
 62
     7
  6
Continuous
290
     1
370
    -3
390
F
  0
LAYER
  5
75
330
2
100
AcDbSymbolTableRecord
100
AcDbLayerTableRecord
  2
77
 70
     0
 62
     7
  6
Continuous
290
     1
370
    -3
390
F
  0
LAYER
  5
76
330
2
100
AcDbSymbolTableRecord
100
AcDbLayerTableRecord
  2
78
 70
     0
 62
     7
  6
Continuous
290
     1
370
    -3
390
F
  0
LAYER
  5
77
330
2
100
AcDbSymbolTableRecord
100
AcDbLayerTableRecord
  2
79
 70
     0
 62
     7
  6
Continuous
290
     1
370
    -3
390
F
  0
LAYER
  5
78
330
2
100
AcDbSymbolTableRecord
100
AcDbLayerTableRecord
  2
80
 70
     0
 62
     7
  6
Continuous
290
     1
370
    -3
390
F
  0
LAYER
  5
79
330
2
100
AcDbSymbolTableRecord
100
AcDbLayerTableRecord
  2
81
 70
     0
 62
     7
  6
Continuous
290
     1
370
    -3
390
F
  0
LAYER
  5
7A
330
2
100
AcDbSymbolTableRecord
100
AcDbLayerTableRecord
  2
82
 70
     0
 62
     7
  6
Continuous
290
     1
370
    -3
390
F
  0
LAYER
  5
7B
330
2
100
AcDbSymbolTableRecord
100
AcDbLayerTableRecord
  2
83
 70
     0
 62
     7
  6
Continuous
290
     1
370
    -3
390
F
  0
LAYER
  5
7C
330
2
100
AcDbSymbolTableRecord
100
AcDbLayerTableRecord
  2
84
 70
     0
 62
     7
  6
Continuous
290
     1
370
    -3
390
F
  0
LAYER
  5
7D
330
2
100
AcDbSymbolTableRecord
100
AcDbLayerTableRecord
  2
85
 70
     0
 62
     7
  6
Continuous
290
     1
370
    -3
390
F
  0
LAYER
  5
7E
330
2
100
AcDbSymbolTableRecord
100
AcDbLayerTableRecord
  2
86
 70
     0
 62
     7
  6
Continuous
290
     1
370
    -3
390
F
  0
LAYER
  5
7F
330
2
100
AcDbSymbolTableRecord
100
AcDbLayerTableRecord
  2
87
 70
     0
 62
     7
  6
Continuous
290
     1
370
    -3
390
F
  0
LAYER
  5
80
330
2
100
AcDbSymbolTableRecord
100
AcDbLayerTableRecord
  2
88
 70
     0
 62
     7
  6
Continuous
290
     1
370
    -3
390
F
  0
LAYER
  5
81
330
2
100
AcDbSymbolTableRecord
100
AcDbLayerTableRecord
  2
89
 70
     0
 62
     7
  6
Continuous
290
     1
370
    -3
390
F
  0
LAYER
  5
82
330
2
100
AcDbSymbolTableRecord
100
AcDbLayerTableRecord
  2
90
 70
     0
 62
     7
  6
Continuous
290
     1
370
    -3
390
F
  0
LAYER
  5
83
330
2
100
AcDbSymbolTableRecord
100
AcDbLayerTableRecord
  2
91
 70
     0
 62
     7
  6
Continuous
290
     1
370
    -3
390
F
  0
LAYER
  5
84
330
2
100
AcDbSymbolTableRecord
100
AcDbLayerTableRecord
  2
92
 70
     0
 62
     7
  6
Continuous
290
     1
370
    -3
390
F
  0
LAYER
  5
85
330
2
100
AcDbSymbolTableRecord
100
AcDbLayerTableRecord
  2
93
 70
     0
 62
     7
  6
Continuous
290
     1
370
    -3
390
F
  0
LAYER
  5
86
330
2
100
AcDbSymbolTableRecord
100
AcDbLayerTableRecord
  2
94
 70
     0
 62
     7
  6
Continuous
290
     1
370
    -3
390
F
  0
LAYER
  5
87
330
2
100
AcDbSymbolTableRecord
100
AcDbLayerTableRecord
  2
95
 70
     0
 62
     7
  6
Continuous
290
     1
370
    -3
390
F
  0
LAYER
  5
88
330
2
100
AcDbSymbolTableRecord
100
AcDbLayerTableRecord
  2
96
 70
     0
 62
     7
  6
Continuous
290
     1
370
    -3
390
F
  0
LAYER
  5
89
330
2
100
AcDbSymbolTableRecord
100
AcDbLayerTableRecord
  2
97
 70
     0
 62
     7
  6
Continuous
290
     1
370
    -3
390
F
  0
LAYER
  5
8A
330
2
100
AcDbSymbolTableRecord
100
AcDbLayerTableRecord
  2
98
 70
     0
 62
     7
  6
Continuous
290
     1
370
    -3
390
F
  0
LAYER
  5
8B
330
2
100
AcDbSymbolTableRecord
100
AcDbLayerTableRecord
  2
99
 70
     0
 62
     7
  6
Continuous
290
     1
370
    -3
390
F
  0
LAYER
  5
8C
330
2
100
AcDbSymbolTableRecord
100
AcDbLayerTableRecord
  2
100
 70
     0
 62
     7
  6
Continuous
290
     1
370
    -3
390
F
  0
LAYER
  5
8D
330
2
100
AcDbSymbolTableRecord
100
AcDbLayerTableRecord
  2
101
 70
     0
 62
     7
  6
Continuous
290
     1
370
    -3
390
F
  0
LAYER
  5
8E
330
2
100
AcDbSymbolTableRecord
100
AcDbLayerTableRecord
  2
102
 70
     0
 62
     7
  6
Continuous
290
     1
370
    -3
390
F
  0
LAYER
  5
8F
330
2
100
AcDbSymbolTableRecord
100
AcDbLayerTableRecord
  2
103
 70
     0
 62
     7
  6
Continuous
290
     1
370
    -3
390
F
  0
LAYER
  5
90
330
2
100
AcDbSymbolTableRecord
100
AcDbLayerTableRecord
  2
104
 70
     0
 62
     7
  6
Continuous
290
     1
370
    -3
390
F
  0
LAYER
  5
91
330
2
100
AcDbSymbolTableRecord
100
AcDbLayerTableRecord
  2
105
 70
     0
 62
     7
  6
Continuous
290
     1
370
    -3
390
F
  0
LAYER
  5
92
330
2
100
AcDbSymbolTableRecord
100
AcDbLayerTableRecord
  2
106
 70
     0
 62
     7
  6
Continuous
290
     1
370
    -3
390
F
  0
LAYER
  5
93
330
2
100
AcDbSymbolTableRecord
100
AcDbLayerTableRecord
  2
107
 70
     0
 62
     7
  6
Continuous
290
     1
370
    -3
390
F
  0
LAYER
  5
94
330
2
100
AcDbSymbolTableRecord
100
AcDbLayerTableRecord
  2
108
 70
     0
 62
     7
  6
Continuous
290
     1
370
    -3
390
F
  0
LAYER
  5
95
330
2
100
AcDbSymbolTableRecord
100
AcDbLayerTableRecord
  2
109
 70
     0
 62
     7
  6
Continuous
290
     1
370
    -3
390
F
  0
LAYER
  5
96
330
2
100
AcDbSymbolTableRecord
100
AcDbLayerTableRecord
  2
110
 70
     0
 62
     7
  6
Continuous
290
     1
370
    -3
390
F
  0
LAYER
  5
97
330
2
100
AcDbSymbolTableRecord
100
AcDbLayerTableRecord
  2
111
 70
     0
 62
     7
  6
Continuous
290
     1
370
    -3
390
F
  0
LAYER
  5
98
330
2
100
AcDbSymbolTableRecord
100
AcDbLayerTableRecord
  2
112
 70
     0
 62
     7
  6
Continuous
290
     1
370
    -3
390
F
  0
LAYER
  5
99
330
2
100
AcDbSymbolTableRecord
100
AcDbLayerTableRecord
  2
113
 70
     0
 62
     7
  6
Continuous
290
     1
370
    -3
390
F
  0
LAYER
  5
9A
330
2
100
AcDbSymbolTableRecord
100
AcDbLayerTableRecord
  2
114
 70
     0
 62
     7
  6
Continuous
290
     1
370
    -3
390
F
  0
LAYER
  5
9B
330
2
100
AcDbSymbolTableRecord
100
AcDbLayerTableRecord
  2
115
 70
     0
 62
     7
  6
Continuous
290
     1
370
    -3
390
F
  0
LAYER
  5
9C
330
2
100
AcDbSymbolTableRecord
100
AcDbLayerTableRecord
  2
116
 70
     0
 62
     7
  6
Continuous
290
     1
370
    -3
390
F
  0
LAYER
  5
9D
330
2
100
AcDbSymbolTableRecord
100
AcDbLayerTableRecord
  2
117
 70
     0
 62
     7
  6
Continuous
290
     1
370
    -3
390
F
  0
LAYER
  5
9E
330
2
100
AcDbSymbolTableRecord
100
AcDbLayerTableRecord
  2
118
 70
     0
 62
     7
  6
Continuous
290
     1
370
    -3
390
F
  0
LAYER
  5
9F
330
2
100
AcDbSymbolTableRecord
100
AcDbLayerTableRecord
  2
119
 70
     0
 62
     7
  6
Continuous
290
     1
370
    -3
390
F
  0
LAYER
  5
A0
330
2
100
AcDbSymbolTableRecord
100
AcDbLayerTableRecord
  2
120
 70
     0
 62
     7
  6
Continuous
290
     1
370
    -3
390
F
  0
LAYER
  5
A1
330
2
100
AcDbSymbolTableRecord
100
AcDbLayerTableRecord
  2
121
 70
     0
 62
     7
  6
Continuous
290
     1
370
    -3
390
F
  0
LAYER
  5
A2
330
2
100
AcDbSymbolTableRecord
100
AcDbLayerTableRecord
  2
122
 70
     0
 62
     7
  6
Continuous
290
     1
370
    -3
390
F
  0
LAYER
  5
A3
330
2
100
AcDbSymbolTableRecord
100
AcDbLayerTableRecord
  2
123
 70
     0
 62
     7
  6
Continuous
290
     1
370
    -3
390
F
  0
LAYER
  5
A4
330
2
100
AcDbSymbolTableRecord
100
AcDbLayerTableRecord
  2
124
 70
     0
 62
     7
  6
Continuous
290
     1
370
    -3
390
F
  0
LAYER
  5
A5
330
2
100
AcDbSymbolTableRecord
100
AcDbLayerTableRecord
  2
125
 70
     0
 62
     7
  6
Continuous
290
     1
370
    -3
390
F
  0
LAYER
  5
A6
330
2
100
AcDbSymbolTableRecord
100
AcDbLayerTableRecord
  2
126
 70
     0
 62
     7
  6
Continuous
290
     1
370
    -3
390
F
  0
LAYER
  5
A7
330
2
100
AcDbSymbolTableRecord
100
AcDbLayerTableRecord
  2
127
 70
     0
 62
     7
  6
Continuous
290
     1
370
    -3
390
F
  0
LAYER
  5
A8
330
2
100
AcDbSymbolTableRecord
100
AcDbLayerTableRecord
  2
128
 70
     0
 62
     7
  6
Continuous
290
     1
370
    -3
390
F
  0
ENDTAB
  0
TABLE
  2
STYLE
  5
3
330
0
100
AcDbSymbolTable
 70
     9
  0
STYLE
  5
11
330
3
100
AcDbSymbolTableRecord
100
AcDbTextStyleTableRecord
  2
Standard
 70
     0
 40
0.0
 41
1.0
 50
0.0
 71
     0
 42
2.5
  3
txt.shx
  4
extfont.shx
  0
STYLE
  5
B0
330
3
100
AcDbSymbolTableRecord
100
AcDbTextStyleTableRecord
  2
KANJI0
 70
     4
 40
10.0
 41
1.0
 50
0.0
 71
     0
 42
10.0
  3
txt.shx
  4
extfont.shx
  0
STYLE
  5
B6
330
3
100
AcDbSymbolTableRecord
100
AcDbTextStyleTableRecord
  2
KANJI1
 70
     4
 40
10.0
 41
1.0
 50
0.0
 71
     0
 42
10.0
  3
txt.shx
  4
extfont.shx
  0
STYLE
  5
C2
330
3
100
AcDbSymbolTableRecord
100
AcDbTextStyleTableRecord
  2
KANJI2
 70
     4
 40
6.666666667
 41
1.5
 50
0.0
 71
     0
 42
6.666666667
  3
txt.shx
  4
extfont.shx
  0
STYLE
  5
C4
330
3
100
AcDbSymbolTableRecord
100
AcDbTextStyleTableRecord
  2
KANJI3
 70
     0
 40
12.0
 41
0.9
 50
0.0
 71
     0
 42
12.0
  3
txt.shx
  4
extfont.shx
  0
STYLE
  5
CD
330
3
100
AcDbSymbolTableRecord
100
AcDbTextStyleTableRecord
  2
KANJI4
 70
     0
 40
12.0
 41
1.0
 50
0.0
 71
     0
 42
12.0
  3
txt.shx
  4
extfont.shx
  0
STYLE
  5
D2
330
3
100
AcDbSymbolTableRecord
100
AcDbTextStyleTableRecord
  2
KANJI5
 70
     0
 40
12.0
 41
0.45
 50
0.0
 71
     0
 42
12.0
  3
txt.shx
  4
extfont.shx
  0
STYLE
  5
17A
330
3
100
AcDbSymbolTableRecord
100
AcDbTextStyleTableRecord
  2
KANJI6
 70
     0
 40
12.0
 41
0.6
 50
0.0
 71
     0
 42
12.0
  3
txt.shx
  4
extfont.shx
  0
STYLE
  5
231
330
3
100
AcDbSymbolTableRecord
100
AcDbTextStyleTableRecord
  2
KANJI7
 70
     0
 40
12.0
 41
0.9
 50
0.0
 71
     0
 42
12.0
  3
txt.shx
  4
extfont.shx
  0
ENDTAB
  0
TABLE
  2
VIEW
  5
6
330
0
100
AcDbSymbolTable
 70
     0
  0
ENDTAB
  0
TABLE
  2
UCS
  5
7
330
0
100
AcDbSymbolTable
 70
     0
  0
ENDTAB
  0
TABLE
  2
APPID
  5
9
330
0
100
AcDbSymbolTable
 70
     1
  0
APPID
  5
12
330
9
100
AcDbSymbolTableRecord
100
AcDbRegAppTableRecord
  2
ACAD
 70
     0
  0
ENDTAB
  0
TABLE
  2
DIMSTYLE
  5
A
330
0
100
AcDbSymbolTable
 70
     1
100
AcDbDimStyleTable
 71
     0
  0
DIMSTYLE
105
27
330
A
100
AcDbSymbolTableRecord
100
AcDbDimStyleTableRecord
  2
ISO-25
 70
    64
  3

  4

 40
1.0
 41
2.5
 42
0.625
 43
3.75
 44
1.25
 45
0.0
 46
0.0
 47
0.0
 48
0.0
 71
     0
 72
     0
 73
     0
 74
     0
 75
     0
 76
     0
 77
     1
 78
     8
 79
     0
140
2.5
141
2.5
142
0.0
143
0.039370079
144
1.0
145
0.0
146
1.0
147
0.625
148
0.0
170
     0
171
     3
172
     1
173
     0
174
     0
175
     0
176
     0
177
     0
178
     0
179
     0
270
     2
271
     2
272
     2
273
     2
274
     3
275
     0
276
     0
277
     2
278
    46
279
     0
280
     0
281
     0
282
     0
283
     1
284
     8
285
     0
286
     0
288
     0
289
     3
340
11
341
0
342
0
343
0
344
0
371
    -2
372
    -2
  0
ENDTAB
  0
TABLE
  2
BLOCK_RECORD
  5
1
330
0
100
AcDbSymbolTable
 70
     3
  0
BLOCK_RECORD
  5
1F
330
1
100
AcDbSymbolTableRecord
100
AcDbBlockTableRecord
  2
*Model_Space
340
22
  0
BLOCK_RECORD
  5
1B
330
1
100
AcDbSymbolTableRecord
100
AcDbBlockTableRecord
  2
*Paper_Space
340
1E
  0
BLOCK_RECORD
  5
23
330
1
100
AcDbSymbolTableRecord
100
AcDbBlockTableRecord
  2
*Paper_Space0
340
26
  0
ENDTAB
  0
ENDSEC
  0
SECTION
  2
BLOCKS
  0
BLOCK
  5
1C
330
1B
100
AcDbEntity
 67
     1
  8
0
100
AcDbBlockBegin
  2
*Paper_Space
 70
     0
 10
0.0
 20
0.0
 30
0.0
  3
*Paper_Space
  1

  0
ENDBLK
  5
1D
330
1B
100
AcDbEntity
  8
0
100
AcDbBlockEnd
  0
BLOCK
  5
20
330
1F
100
AcDbEntity
  8
0
100
AcDbBlockBegin
  2
*Model_Space
 70
     0
 10
0.0
 20
0.0
 30
0.0
  3
*Model_Space
  1

  0
ENDBLK
  5
21
330
1F
100
AcDbEntity
  8
0
100
AcDbBlockEnd
  0
BLOCK
  5
24
330
23
100
AcDbEntity
 67
     1
  8
0
100
AcDbBlockBegin
  2
*Paper_Space0
 70
     0
 10
0.0
 20
0.0
 30
0.0
  3
*Paper_Space0
  1

  0
ENDBLK
  5
25
330
23
100
AcDbEntity
  8
0
100
AcDbBlockEnd
  0
ENDSEC
  0
SECTION
  2
ENTITIES
  0
LINE
  5
AA
330
1F
100
AcDbEntity
  8
10
  6
LTYPE1
 62
     2
100
AcDbLine
 10
1125.514
 20
1108.720446501
 30
0.0
 11
1125.514
 21
1108.720446501
 31
0.0
  0
LINE
  5
AB
330
1F
100
AcDbEntity
  8
10
  6
LTYPE1
 62
     2
100
AcDbLine
 10
1125.514
 20
1108.72
 30
0.0
 11
1125.514
 21
1108.72
 31
0.0
  0
LINE
  5
AC
330
1F
100
AcDbEntity
  8
10
  6
LTYPE1
 62
     2
100
AcDbLine
 10
1125.514
 20
1108.72
 30
0.0
 11
1125.514
 21
1108.72
 31
0.0
  0
LINE
  5
AD
330
1F
100
AcDbEntity
  8
10
  6
LTYPE1
 62
     2
100
AcDbLine
 10
1125.514
 20
1108.72
 30
0.0
 11
1125.514
 21
1108.72
 31
0.0
  0
LINE
  5
AE
330
1F
100
AcDbEntity
  8
10
  6
Continuous
 62
     2
100
AcDbLine
 10
1161.333333333
 20
50.666666667
 30
0.0
 11
421.333333333
 21
50.666666667
 31
0.0
  0
MTEXT
  5
AF
330
1F
100
AcDbEntity
  8
10
  6
Continuous
 62
     2
100
AcDbMText
 10
943.333333333
 20
96.666666667
 30
0.0
 40
10.0
 41
40.0
 71
     1
 72
     3
  1
\W1.000;仕上
  7
KANJI0
 73
     1
 44
1.0
  0
LINE
  5
B1
330
1F
100
AcDbEntity
  8
10
  6
Continuous
 62
     2
100
AcDbLine
 10
941.333333333
 20
122.666666667
 30
0.0
 11
1161.333333333
 21
122.666666667
 31
0.0
  0
LINE
  5
B2
330
1F
100
AcDbEntity
  8
10
  6
Continuous
 62
     2
100
AcDbLine
 10
941.333333333
 20
98.666666667
 30
0.0
 11
1161.333333333
 21
98.666666667
 31
0.0
  0
MTEXT
  5
B3
330
1F
100
AcDbEntity
  8
10
  6
Continuous
 62
     2
100
AcDbMText
 10
943.333333333
 20
120.666666667
 30
0.0
 40
10.0
 41
40.0
 71
     1
 72
     3
  1
\W1.000;規格
  7
KANJI0
 73
     1
 44
1.0
  0
MTEXT
  5
B4
330
1F
100
AcDbEntity
  8
10
  6
Continuous
 62
     2
100
AcDbMText
 10
943.333333333
 20
144.666666667
 30
0.0
 40
10.0
 41
40.0
 71
     1
 72
     3
  1
\W1.000;材質
  7
KANJI0
 73
     1
 44
1.0
  0
MTEXT
  5
B5
330
1F
100
AcDbEntity
  8
10
  6
Continuous
 62
     2
100
AcDbMText
 10
943.333333333
 20
168.666666667
 30
0.0
 40
10.0
 41
40.0
 71
     1
 72
     3
  1
\W1.000;品番
  7
KANJI1
 73
     1
 44
1.0
  0
MTEXT
  5
B7
330
1F
100
AcDbEntity
  8
10
  6
Continuous
 62
     2
100
AcDbMText
 10
943.333333333
 20
192.666666667
 30
0.0
 40
10.0
 41
40.0
 71
     1
 72
     3
  1
\W1.000;図名
  7
KANJI0
 73
     1
 44
1.0
  0
LINE
  5
B8
330
1F
100
AcDbEntity
  8
10
  6
Continuous
 62
     2
100
AcDbLine
 10
941.333333333
 20
146.666666667
 30
0.0
 11
1161.333333333
 21
146.666666667
 31
0.0
  0
LINE
  5
B9
330
1F
100
AcDbEntity
  8
10
  6
Continuous
 62
     2
100
AcDbLine
 10
941.333333333
 20
170.666666667
 30
0.0
 11
1161.333333333
 21
170.666666667
 31
0.0
  0
LINE
  5
BA
330
1F
100
AcDbEntity
  8
10
  6
Continuous
 62
     2
100
AcDbLine
 10
941.333333333
 20
194.666666667
 30
0.0
 11
1161.333333333
 21
194.666666667
 31
0.0
  0
LINE
  5
BB
330
1F
100
AcDbEntity
  8
10
  6
Continuous
 62
     2
100
AcDbLine
 10
853.333333333
 20
50.666666667
 30
0.0
 11
853.333333333
 21
26.666666667
 31
0.0
  0
MTEXT
  5
BC
330
1F
100
AcDbEntity
  8
10
  6
Continuous
 62
     2
100
AcDbMText
 10
855.333333333
 20
48.666666667
 30
0.0
 40
10.0
 41
40.0
 71
     1
 72
     3
  1
\W1.000;日付
  7
KANJI0
 73
     1
 44
1.0
  0
LINE
  5
BD
330
1F
100
AcDbEntity
  8
10
  6
Continuous
 62
     2
100
AcDbLine
 10
941.333333333
 20
26.666666667
 30
0.0
 11
941.333333333
 21
194.666666667
 31
0.0
  0
MTEXT
  5
BE
330
1F
100
AcDbEntity
  8
10
  6
Continuous
 62
     2
100
AcDbMText
 10
855.333333333
 20
72.666666667
 30
0.0
 40
10.0
 41
40.0
 71
     1
 72
     3
  1
\W1.000;尺度
  7
KANJI0
 73
     1
 44
1.0
  0
LINE
  5
BF
330
1F
100
AcDbEntity
  8
10
  6
Continuous
 62
     2
100
AcDbLine
 10
853.333333333
 20
74.666666667
 30
0.0
 11
1161.333333333
 21
74.666666667
 31
0.0
  0
MTEXT
  5
C0
330
1F
100
AcDbEntity
  8
10
  6
Continuous
 62
     2
100
AcDbMText
 10
943.333333333
 20
48.666666667
 30
0.0
 40
10.0
 41
40.0
 71
     1
 72
     3
  1
\W1.000;品名
  7
KANJI0
 73
     1
 44
1.0
  0
MTEXT
  5
C1
330
1F
100
AcDbEntity
  8
10
  6
Continuous
 62
     2
100
AcDbMText
 10
943.333333333
 20
72.666666667
 30
0.0
 40
6.666666667
 41
40.0
 71
     1
 72
     3
  1
\W1.500;その他
  7
KANJI2
 73
     1
 44
1.0
  0
MTEXT
  5
C3
330
1F
100
AcDbEntity
  8
10
  6
Continuous
 62
     2
100
AcDbMText
 10
965.333333333
 20
127.466666667
 30
0.0
 40
12.0
 41
69.6
 71
     7
 72
     1
  1
\T1.111;\W0.900;－－－
  7
KANJI3
 73
     1
 44
1.0
  0
MTEXT
  5
C5
330
1F
100
AcDbEntity
  8
10
  6
Continuous
 62
     2
100
AcDbMText
 10
965.333333333
 20
103.466666667
 30
0.0
 40
12.0
 41
69.6
 71
     7
 72
     1
  1
\T1.111;\W0.900;－－－
  7
KANJI3
 73
     1
 44
1.0
  0
MTEXT
  5
C6
330
1F
100
AcDbEntity
  8
10
  6
Continuous
 62
     2
100
AcDbMText
 10
965.333333333
 20
79.466666667
 30
0.0
 40
12.0
 41
69.6
 71
     7
 72
     1
  1
\T1.111;\W0.900;－－－
  7
KANJI3
 73
     1
 44
1.0
  0
MTEXT
  5
C7
330
1F
100
AcDbEntity
  8
10
  6
Continuous
 62
     2
100
AcDbMText
 10
965.333333333
 20
55.466666667
 30
0.0
 40
12.0
 41
69.6
 71
     7
 72
     1
  1
\T1.111;\W0.900;－－－
  7
KANJI3
 73
     1
 44
1.0
  0
POINT
  5
C8
330
1F
100
AcDbEntity
  8
10
  6
Continuous
 62
     2
100
AcDbPoint
 10
1161.333333333
 20
194.666666667
 30
0.0
  0
LINE
  5
C9
330
1F
100
AcDbEntity
  8
10
  6
Continuous
 62
     2
100
AcDbLine
 10
853.333333333
 20
98.666666667
 30
0.0
 11
941.333333333
 21
98.666666667
 31
0.0
  0
LINE
  5
CA
330
1F
100
AcDbEntity
  8
10
  6
Continuous
 62
     2
100
AcDbLine
 10
853.333333333
 20
98.666666667
 30
0.0
 11
853.333333333
 21
50.666666667
 31
0.0
  0
MTEXT
  5
CB
330
1F
100
AcDbEntity
  8
10
  6
Continuous
 62
     2
100
AcDbMText
 10
855.333333333
 20
96.666666667
 30
0.0
 40
10.0
 41
40.0
 71
     1
 72
     3
  1
\W1.000;用紙
  7
KANJI0
 73
     1
 44
1.0
  0
MTEXT
  5
CC
330
1F
100
AcDbEntity
  8
10
  6
Continuous
 62
     2
100
AcDbMText
 10
425.333333333
 20
32.666666667
 30
0.0
 40
12.0
 41
320.0
 71
     7
 72
     1
  1
\T1.370;\W1.000;オオハシ産業株式会社
  7
KANJI4
 73
     1
 44
1.0
  0
LINE
  5
CE
330
1F
100
AcDbEntity
  8
10
  6
Continuous
 62
     2
100
AcDbLine
 10
593.333333333
 20
50.666666667
 30
0.0
 11
593.333333333
 21
26.666666667
 31
0.0
  0
MTEXT
  5
CF
330
1F
100
AcDbEntity
  8
10
  6
Continuous
 62
     2
100
AcDbMText
 10
595.333333333
 20
48.666666667
 30
0.0
 40
10.0
 41
40.0
 71
     1
 72
     3
  1
\W1.000;作図
  7
KANJI0
 73
     1
 44
1.0
  0
LINE
  5
D0
330
1F
100
AcDbEntity
  8
10
  6
Continuous
 62
     2
100
AcDbLine
 10
673.333333333
 20
26.666666667
 30
0.0
 11
673.333333333
 21
50.666666667
 31
0.0
  0
MTEXT
  5
D1
330
1F
100
AcDbEntity
  8
10
  6
Continuous
 62
     2
100
AcDbMText
 10
677.333333333
 20
32.666666667
 30
0.0
 40
12.0
 41
37.2
 71
     7
 72
     1
  1
\T1.111;\W0.900;ＦＤ＝
  7
KANJI5
 73
     1
 44
1.0
  0
LINE
  5
D3
330
1F
100
AcDbEntity
  8
10
  6
Continuous
 62
     2
100
AcDbLine
 10
753.333333333
 20
26.666666667
 30
0.0
 11
753.333333333
 21
50.666666667
 31
0.0
  0
MTEXT
  5
D4
330
1F
100
AcDbEntity
  8
10
  6
Continuous
 62
     2
100
AcDbMText
 10
757.333333333
 20
32.666666667
 30
0.0
 40
12.0
 41
37.2
 71
     7
 72
     1
  1
\T1.111;\W0.900;ＮＯ＝
  7
KANJI5
 73
     1
 44
1.0
  0
LINE
  5
D5
330
1F
100
AcDbEntity
  8
10
  6
Continuous
 62
     2
100
AcDbLine
 10
421.333333333
 20
26.666666667
 30
0.0
 11
421.333333333
 21
50.666666667
 31
0.0
  0
MTEXT
  5
D6
330
1F
100
AcDbEntity
  8
10
  6
Continuous
 62
     2
100
AcDbMText
 10
609.333333333
 20
31.466666667
 30
0.0
 40
12.0
 41
117.6
 71
     7
 72
     1
  1
\T1.111;\W0.900;大橋　一之
  7
KANJI3
 73
     1
 44
1.0
  0
MTEXT
  5
D7
330
1F
100
AcDbEntity
  8
10
  6
Continuous
 62
     2
100
AcDbMText
 10
869.333333333
 20
31.466666667
 30
0.0
 40
12.0
 41
129.6
 71
     7
 72
     1
  1
\T1.111;\W0.900;２０１５／０２／１７
  7
KANJI5
 73
     1
 44
1.0
  0
MTEXT
  5
D8
330
1F
100
AcDbEntity
  8
10
  6
Continuous
 62
     2
100
AcDbMText
 10
703.733333333
 20
31.466666667
 30
0.0
 40
12.0
 41
69.6
 71
     7
 72
     1
  1
\T1.111;\W0.900;ヒビノ
  7
KANJI3
 73
     1
 44
1.0
  0
MTEXT
  5
D9
330
1F
100
AcDbEntity
  8
10
  6
Continuous
 62
     2
100
AcDbMText
 10
885.333333333
 20
79.466666667
 30
0.0
 40
12.0
 41
45.6
 71
     7
 72
     1
  1
\T1.111;\W0.900;Ａ４
  7
KANJI3
 73
     1
 44
1.0
  0
LINE
  5
DA
330
1F
100
AcDbEntity
  8
10
  6
Continuous
 62
     2
100
AcDbLine
 10
26.666666667
 20
26.666666667
 30
0.0
 11
26.666666667
 21
813.333333333
 31
0.0
  0
LINE
  5
DB
330
1F
100
AcDbEntity
  8
10
  6
Continuous
 62
     2
100
AcDbLine
 10
26.666666667
 20
26.666666667
 30
0.0
 11
1161.333333333
 21
26.666666667
 31
0.0
  0
LINE
  5
DC
330
1F
100
AcDbEntity
  8
10
  6
Continuous
 62
     2
100
AcDbLine
 10
1161.333333333
 20
26.666666667
 30
0.0
 11
1161.333333333
 21
813.333333333
 31
0.0
  0
LINE
  5
DD
330
1F
100
AcDbEntity
  8
10
  6
Continuous
 62
     2
100
AcDbLine
 10
26.666666667
 20
813.333333333
 30
0.0
 11
1161.333333333
 21
813.333333333
 31
0.0
  0
MTEXT
  5
DE
330
1F
100
AcDbEntity
  8
10
  6
Continuous
 62
     2
100
AcDbMText
 10
965.333333333
 20
175.466666667
 30
0.0
 40
12.0
 41
146.4
 71
     7
 72
     1
  1
\T1.111;\W0.695;ＣＶ７０　全体図
  7
KANJI3
 73
     1
 44
1.0
  0
MTEXT
  5
DF
330
1F
100
AcDbEntity
  8
10
  6
Continuous
 62
     2
100
AcDbMText
 10
965.333333333
 20
151.466666667
 30
0.0
 40
12.0
 41
50.4
 71
     7
 72
     1
  1
\T1.111;\W0.900;ＣＶ７０
  7
KANJI5
 73
     1
 44
1.0
  0
MTEXT
  5
E0
330
1F
100
AcDbEntity
  8
10
  6
Continuous
 62
     2
100
AcDbMText
 10
785.333333333
 20
31.466666667
 30
0.0
 40
12.0
 41
103.2
 71
     7
 72
     1
  1
\T1.111;\W0.900;ＣＶ７０－０００
  7
KANJI5
 73
     1
 44
1.0
  0
MTEXT
  5
E1
330
1F
100
AcDbEntity
  8
10
  6
Continuous
 62
     2
100
AcDbMText
 10
885.333333333
 20
55.466666667
 30
0.0
 40
12.0
 41
69.6
 71
     7
 72
     1
  1
\T1.111;\W0.900;１／４
  7
KANJI3
 73
     1
 44
1.0
  0
MTEXT
  5
E2
330
1F
100
AcDbEntity
  8
10
  6
Continuous
 62
     2
100
AcDbMText
 10
965.333333333
 20
31.466666667
 30
0.0
 40
12.0
 41
292.8
 71
     7
 72
     1
  1
\T1.111;\W0.737;ＣＶ７０　ＣＢＴ７０Ｊ用壁金具
  7
KANJI3
 73
     1
 44
1.0
  0
MTEXT
  5
E3
330
1F
100
AcDbEntity
  8
10
  6
Continuous
 62
     2
100
AcDbMText
 10
73.403333333
 20
33.796666667
 30
0.0
 40
12.0
 41
549.6
 71
     7
 72
     1
  1
\T1.111;\W0.900;特記　　寸法指示無い公差は±０．５以内とする．
  7
KANJI3
 73
     1
 44
1.0
  0
LINE
  5
E4
330
1F
100
AcDbEntity
  8
0
  6
Continuous
 62
     1
100
AcDbLine
 10
476.725
 20
569.5
 30
0.0
 11
511.725
 21
569.5
 31
0.0
  0
ARC
  5
E5
330
1F
100
AcDbEntity
  8
0
  6
Continuous
 62
     1
100
AcDbCircle
 10
511.725
 20
554.5
 30
0.0
 40
15.0
100
AcDbArc
 50
0.0
 51
90.0
  0
LINE
  5
E6
330
1F
100
AcDbEntity
  8
0
  6
Continuous
 62
     1
100
AcDbLine
 10
526.725
 20
554.5
 30
0.0
 11
526.725
 21
548.541580299
 31
0.0
  0
LINE
  5
E7
330
1F
100
AcDbEntity
  8
0
  6
Continuous
 62
     1
100
AcDbLine
 10
476.725
 20
280.5
 30
0.0
 11
510.564596896
 21
280.5
 31
0.0
  0
LINE
  5
E8
330
1F
100
AcDbEntity
  8
0
  6
Continuous
 62
     1
100
AcDbLine
 10
567.753788275
 20
509.660672877
 30
0.0
 11
530.260742764
 21
297.027045509
 31
0.0
  0
ARC
  5
E9
330
1F
100
AcDbEntity
  8
0
  6
Continuous
 62
     1
100
AcDbCircle
 10
546.725
 20
548.541565041
 30
0.0
 40
20.0
100
AcDbArc
 50
179.99995629
 51
263.322594673
  0
ARC
  5
EA
330
1F
100
AcDbEntity
  8
0
  6
Continuous
 62
     1
100
AcDbCircle
 10
521.725
 20
335.0
 30
0.0
 40
195.0
100
AcDbArc
 50
79.999995585
 51
83.322594673
  0
ARC
  5
EB
330
1F
100
AcDbEntity
  8
0
  6
Continuous
 62
     1
100
AcDbCircle
 10
552.98167198
 20
512.265395542
 30
0.0
 40
15.0
100
AcDbArc
 50
350.0
 51
79.999942601
  0
ARC
  5
EC
330
1F
100
AcDbEntity
  8
0
  6
Continuous
 62
     1
100
AcDbCircle
 10
510.564586106
 20
300.5
 30
0.0
 40
20.0
100
AcDbArc
 50
270.00003091
 51
350.000026362
  0
LINE
  5
ED
330
1F
100
AcDbEntity
  8
0
  6
Continuous
 62
     1
100
AcDbLine
 10
476.725
 20
524.5
 30
0.0
 11
491.725
 21
524.5
 31
0.0
  0
LWPOLYLINE
  5
F0
330
1F
100
AcDbEntity
  8
0
  6
Continuous
 62
     1
100
AcDbPolyline
 90
     3
 70
   128
 43
0.0
 10
476.725
 20
325.5
 42
0.0
 10
491.725
 20
325.5
 42
0.41421398
 10
501.725
 20
335.500014272
 42
0.0
  0
ARC
  5
F1
330
1F
100
AcDbEntity
  8
0
  6
Continuous
 62
     1
100
AcDbCircle
 10
491.725
 20
514.5
 30
0.0
 40
10.0
100
AcDbArc
 50
0.000097745
 51
90.0
  0
LINE
  5
F2
330
1F
100
AcDbEntity
  8
0
  6
Continuous
 62
     1
100
AcDbLine
 10
501.725
 20
514.50001706
 30
0.0
 11
501.725
 21
335.500014273
 31
0.0
  0
LINE
  5
F3
330
1F
100
AcDbEntity
  8
0
  6
Continuous
 62
     1
100
AcDbLine
 10
476.725
 20
524.5
 30
0.0
 11
476.725
 21
569.5
 31
0.0
  0
LINE
  5
F4
330
1F
100
AcDbEntity
  8
0
  6
Continuous
 62
     1
100
AcDbLine
 10
479.325
 20
524.5
 30
0.0
 11
479.325
 21
569.5
 31
0.0
  0
LINE
  5
F5
330
1F
100
AcDbEntity
  8
0
  6
Continuous
 62
     1
100
AcDbLine
 10
476.725
 20
325.5
 30
0.0
 11
476.725
 21
280.5
 31
0.0
  0
LINE
  5
F6
330
1F
100
AcDbEntity
  8
0
  6
Continuous
 62
     1
100
AcDbLine
 10
479.325
 20
325.5
 30
0.0
 11
479.325
 21
280.5
 31
0.0
  0
LINE
  5
F8
330
1F
100
AcDbEntity
  8
0
  6
LTYPE2
 62
     2
100
AcDbLine
 10
484.725
 20
527.0
 30
0.0
 11
484.725
 21
567.0
 31
0.0
  0
LINE
  5
F9
330
1F
100
AcDbEntity
  8
0
  6
LTYPE2
 62
     2
100
AcDbLine
 10
499.725
 20
529.0
 30
0.0
 11
499.725
 21
565.0
 31
0.0
  0
LINE
  5
FA
330
1F
100
AcDbEntity
  8
0
  6
LTYPE2
 62
     2
100
AcDbLine
 10
484.725
 20
567.0
 30
0.0
 11
497.725
 21
567.0
 31
0.0
  0
ARC
  5
FB
330
1F
100
AcDbEntity
  8
0
  6
LTYPE2
 62
     2
100
AcDbCircle
 10
497.725
 20
565.0
 30
0.0
 40
2.0
100
AcDbArc
 50
0.0
 51
90.0
  0
ARC
  5
FC
330
1F
100
AcDbEntity
  8
0
  6
LTYPE2
 62
     2
100
AcDbCircle
 10
497.725
 20
529.0
 30
0.0
 40
2.0
100
AcDbArc
 50
270.0
 51
0.0
  0
LINE
  5
FD
330
1F
100
AcDbEntity
  8
0
  6
LTYPE2
 62
     2
100
AcDbLine
 10
484.725
 20
527.0
 30
0.0
 11
497.725
 21
527.0
 31
0.0
  0
LINE
  5
FE
330
1F
100
AcDbEntity
  8
0
  6
LTYPE2
 62
     2
100
AcDbLine
 10
484.725
 20
323.0
 30
0.0
 11
484.725
 21
283.0
 31
0.0
  0
LINE
  5
FF
330
1F
100
AcDbEntity
  8
0
  6
LTYPE2
 62
     2
100
AcDbLine
 10
499.725
 20
321.0
 30
0.0
 11
499.725
 21
285.0
 31
0.0
  0
LINE
  5
100
330
1F
100
AcDbEntity
  8
0
  6
LTYPE2
 62
     2
100
AcDbLine
 10
484.725
 20
283.0
 30
0.0
 11
497.725
 21
283.0
 31
0.0
  0
ARC
  5
101
330
1F
100
AcDbEntity
  8
0
  6
LTYPE2
 62
     2
100
AcDbCircle
 10
497.725
 20
285.0
 30
0.0
 40
2.0
100
AcDbArc
 50
270.0
 51
0.0
  0
ARC
  5
102
330
1F
100
AcDbEntity
  8
0
  6
LTYPE2
 62
     2
100
AcDbCircle
 10
497.725
 20
321.0
 30
0.0
 40
2.0
100
AcDbArc
 50
0.0
 51
90.0
  0
LINE
  5
103
330
1F
100
AcDbEntity
  8
0
  6
LTYPE2
 62
     2
100
AcDbLine
 10
484.725
 20
323.0
 30
0.0
 11
497.725
 21
323.0
 31
0.0
  0
CIRCLE
  5
104
330
1F
100
AcDbEntity
  8
0
  6
Continuous
 62
     2
100
AcDbCircle
 10
492.725
 20
559.0
 30
0.0
 40
1.7
  0
CIRCLE
  5
105
330
1F
100
AcDbEntity
  8
0
  6
Continuous
 62
     2
100
AcDbCircle
 10
492.725
 20
559.0
 30
0.0
 40
3.2
  0
CIRCLE
  5
106
330
1F
100
AcDbEntity
  8
0
  6
Continuous
 62
     2
100
AcDbCircle
 10
492.725
 20
535.0
 30
0.0
 40
1.7
  0
CIRCLE
  5
107
330
1F
100
AcDbEntity
  8
0
  6
Continuous
 62
     2
100
AcDbCircle
 10
492.725
 20
535.0
 30
0.0
 40
3.2
  0
CIRCLE
  5
108
330
1F
100
AcDbEntity
  8
0
  6
Continuous
 62
     2
100
AcDbCircle
 10
492.725
 20
315.0
 30
0.0
 40
1.7
  0
CIRCLE
  5
109
330
1F
100
AcDbEntity
  8
0
  6
Continuous
 62
     2
100
AcDbCircle
 10
492.725
 20
315.0
 30
0.0
 40
3.2
  0
CIRCLE
  5
10A
330
1F
100
AcDbEntity
  8
0
  6
Continuous
 62
     2
100
AcDbCircle
 10
492.725
 20
291.0
 30
0.0
 40
1.7
  0
CIRCLE
  5
10B
330
1F
100
AcDbEntity
  8
0
  6
Continuous
 62
     2
100
AcDbCircle
 10
492.725
 20
291.0
 30
0.0
 40
3.2
  0
LINE
  5
10C
330
1F
100
AcDbEntity
  8
2
  6
Continuous
 62
     1
100
AcDbLine
 10
554.225
 20
315.5
 30
0.0
 11
554.225
 21
335.5
 31
0.0
  0
LINE
  5
10D
330
1F
100
AcDbEntity
  8
2
  6
Continuous
 62
     1
100
AcDbLine
 10
557.425
 20
335.5
 30
0.0
 11
554.225
 21
335.5
 31
0.0
  0
ARC
  5
10E
330
1F
100
AcDbEntity
  8
2
  6
LTYPE2
 62
     2
100
AcDbCircle
 10
539.1
 20
327.392183911
 30
0.0
 40
2.257816089
100
AcDbArc
 50
33.855030887
 51
146.144969113
  0
ARC
  5
10F
330
1F
100
AcDbEntity
  8
2
  6
LTYPE2
 62
     2
100
AcDbCircle
 10
544.725008081
 20
322.119869028
 30
0.0
 40
7.530130972
100
AcDbArc
 50
60.137148058
 51
119.86287385
  0
ARC
  5
110
330
1F
100
AcDbEntity
  8
2
  6
LTYPE2
 62
     2
100
AcDbCircle
 10
550.350026952
 20
327.392183911
 30
0.0
 40
2.257816089
100
AcDbArc
 50
33.855030887
 51
146.144969113
  0
LINE
  5
111
330
1F
100
AcDbEntity
  8
2
  6
LTYPE2
 62
     2
100
AcDbLine
 10
550.350032347
 20
329.65
 30
0.0
 11
539.1
 21
329.65
 31
0.0
  0
LINE
  5
112
330
1F
100
AcDbEntity
  8
2
  6
LTYPE2
 62
     2
100
AcDbLine
 10
537.225
 20
322.15
 30
0.0
 11
537.225
 21
328.65
 31
0.0
  0
LINE
  5
113
330
1F
100
AcDbEntity
  8
2
  6
LTYPE2
 62
     2
100
AcDbLine
 10
552.225
 20
322.15
 30
0.0
 11
552.225
 21
328.65
 31
0.0
  0
LINE
  5
114
330
1F
100
AcDbEntity
  8
2
  6
LTYPE2
 62
     2
100
AcDbLine
 10
540.975
 20
322.15
 30
0.0
 11
540.975
 21
328.65
 31
0.0
  0
LINE
  5
115
330
1F
100
AcDbEntity
  8
2
  6
LTYPE2
 62
     2
100
AcDbLine
 10
548.475
 20
322.15
 30
0.0
 11
548.475
 21
328.65
 31
0.0
  0
LINE
  5
116
330
1F
100
AcDbEntity
  8
2
  6
Continuous
 62
     1
100
AcDbLine
 10
554.225
 20
534.5
 30
0.0
 11
532.48300396
 21
534.5
 31
0.0
  0
LINE
  5
117
330
1F
100
AcDbEntity
  8
2
  6
LTYPE2
 62
     2
100
AcDbLine
 10
532.48300396
 20
534.5
 30
0.0
 11
511.125
 21
534.5
 31
0.0
  0
LINE
  5
118
330
1F
100
AcDbEntity
  8
2
  6
LTYPE2
 62
     2
100
AcDbLine
 10
507.925
 20
531.3
 30
0.0
 11
507.925
 21
318.7
 31
0.0
  0
LINE
  5
119
330
1F
100
AcDbEntity
  8
2
  6
Continuous
 62
     1
100
AcDbLine
 10
554.225
 20
315.5
 30
0.0
 11
533.518023054
 21
315.5
 31
0.0
  0
LINE
  5
11A
330
1F
100
AcDbEntity
  8
2
  6
LTYPE2
 62
     2
100
AcDbLine
 10
511.125
 20
318.7
 30
0.0
 11
507.925
 21
318.7
 31
0.0
  0
LINE
  5
11B
330
1F
100
AcDbEntity
  8
2
  6
LTYPE2
 62
     2
100
AcDbLine
 10
511.125
 20
315.5
 30
0.0
 11
511.125
 21
318.7
 31
0.0
  0
LINE
  5
11C
330
1F
100
AcDbEntity
  8
2
  6
LTYPE2
 62
     2
100
AcDbLine
 10
533.518023054
 20
315.5
 30
0.0
 11
511.125
 21
315.5
 31
0.0
  0
LINE
  5
11D
330
1F
100
AcDbEntity
  8
2
  6
LTYPE2
 62
     2
100
AcDbLine
 10
554.225
 20
322.15
 30
0.0
 11
534.690597476
 21
322.15
 31
0.0
  0
LINE
  5
11E
330
1F
100
AcDbEntity
  8
2
  6
LTYPE2
 62
     2
100
AcDbLine
 10
554.225
 20
318.95
 30
0.0
 11
534.126351138
 21
318.95
 31
0.0
  0
LINE
  5
11F
330
1F
100
AcDbEntity
  8
2
  6
LTYPE2
 62
     2
100
AcDbLine
 10
554.225
 20
318.7
 30
0.0
 11
534.082269393
 21
318.7
 31
0.0
  0
LINE
  5
120
330
1F
100
AcDbEntity
  8
2
  6
LTYPE2
 62
     2
100
AcDbLine
 10
554.225
 20
531.05
 30
0.0
 11
537.027312006
 21
531.05
 31
0.0
  0
LINE
  5
121
330
1F
100
AcDbEntity
  8
2
  6
LTYPE2
 62
     2
100
AcDbLine
 10
554.225
 20
531.3
 30
0.0
 11
536.589496315
 21
531.3
 31
0.0
  0
LINE
  5
122
330
1F
100
AcDbEntity
  8
2
  6
LTYPE2
 62
     2
100
AcDbLine
 10
554.225
 20
527.85
 30
0.0
 11
550.601937164
 21
527.85
 31
0.0
  0
LINE
  5
123
330
1F
100
AcDbEntity
  8
2
  6
LTYPE2
 62
     2
100
AcDbLine
 10
511.125
 20
531.3
 30
0.0
 11
507.925
 21
531.3
 31
0.0
  0
LINE
  5
124
330
1F
100
AcDbEntity
  8
2
  6
LTYPE2
 62
     2
100
AcDbLine
 10
511.125
 20
534.5
 30
0.0
 11
511.125
 21
531.3
 31
0.0
  0
LINE
  5
125
330
1F
100
AcDbEntity
  8
2
  6
LTYPE2
 62
     2
100
AcDbLine
 10
554.225
 20
335.5
 30
0.0
 11
554.225
 21
432.93510189
 31
0.0
  0
LINE
  5
126
330
1F
100
AcDbEntity
  8
2
  6
Continuous
 62
     1
100
AcDbLine
 10
557.425
 20
335.5
 30
0.0
 11
557.425
 21
451.083203713
 31
0.0
  0
LINE
  5
127
330
1F
100
AcDbEntity
  8
2
  6
Continuous
 62
     1
100
AcDbLine
 10
554.225
 20
527.272592951
 30
0.0
 11
554.225
 21
534.5
 31
0.0
  0
LINE
  5
128
330
1F
100
AcDbEntity
  8
2
  6
LTYPE2
 62
     2
100
AcDbLine
 10
557.425
 20
514.5
 30
0.0
 11
554.225
 21
514.5
 31
0.0
  0
LINE
  5
129
330
1F
100
AcDbEntity
  8
2
  6
LTYPE2
 62
     2
100
AcDbLine
 10
557.425
 20
451.083203713
 30
0.0
 11
557.425
 21
514.5
 31
0.0
  0
LINE
  5
12A
330
1F
100
AcDbEntity
  8
2
  6
LTYPE2
 62
     2
100
AcDbLine
 10
554.225
 20
514.5
 30
0.0
 11
554.225
 21
527.272592951
 31
0.0
  0
LINE
  5
12B
330
1F
100
AcDbEntity
  8
3
  6
Continuous
 62
     1
100
AcDbLine
 10
564.525
 20
535.0
 30
0.0
 11
564.525
 21
527.0
 31
0.0
  0
LINE
  5
12C
330
1F
100
AcDbEntity
  8
3
  6
Continuous
 62
     1
100
AcDbLine
 10
564.525
 20
315.0
 30
0.0
 11
564.525
 21
323.0
 31
0.0
  0
LINE
  5
12D
330
1F
100
AcDbEntity
  8
3
  6
Continuous
 62
     1
100
AcDbLine
 10
564.525
 20
527.0
 30
0.0
 11
576.525
 21
515.0
 31
0.0
  0
LINE
  5
12E
330
1F
100
AcDbEntity
  8
3
  6
Continuous
 62
     1
100
AcDbLine
 10
564.525
 20
323.0
 30
0.0
 11
576.525
 21
335.0
 31
0.0
  0
LINE
  5
12F
330
1F
100
AcDbEntity
  8
3
  6
Continuous
 62
     1
100
AcDbLine
 10
576.525
 20
515.0
 30
0.0
 11
576.525
 21
335.0
 31
0.0
  0
LINE
  5
130
330
1F
100
AcDbEntity
  8
3
  6
Continuous
 62
     1
100
AcDbLine
 10
529.725
 20
538.2
 30
0.0
 11
581.325
 21
538.2
 31
0.0
  0
LINE
  5
131
330
1F
100
AcDbEntity
  8
3
  6
Continuous
 62
     1
100
AcDbLine
 10
529.725
 20
538.2
 30
0.0
 11
529.725
 21
538.005911288
 31
0.0
  0
LINE
  5
132
330
1F
100
AcDbEntity
  8
3
  6
Continuous
 62
     1
100
AcDbLine
 10
532.006779447
 20
535.0
 30
0.0
 11
581.325
 21
535.0
 31
0.0
  0
LINE
  5
133
330
1F
100
AcDbEntity
  8
3
  6
LTYPE2
 62
     2
100
AcDbLine
 10
529.725
 20
538.005911288
 30
0.0
 11
529.725
 21
535.0
 31
0.0
  0
LINE
  5
134
330
1F
100
AcDbEntity
  8
3
  6
LTYPE2
 62
     2
100
AcDbLine
 10
529.725
 20
535.0
 30
0.0
 11
532.006779447
 21
535.0
 31
0.0
  0
LINE
  5
135
330
1F
100
AcDbEntity
  8
3
  6
Continuous
 62
     1
100
AcDbLine
 10
532.865613226
 20
311.8
 30
0.0
 11
581.325
 21
311.8
 31
0.0
  0
LINE
  5
136
330
1F
100
AcDbEntity
  8
3
  6
Continuous
 62
     1
100
AcDbLine
 10
533.429859564
 20
315.0
 30
0.0
 11
581.325
 21
315.0
 31
0.0
  0
LINE
  5
137
330
1F
100
AcDbEntity
  8
3
  6
LTYPE2
 62
     2
100
AcDbLine
 10
529.725
 20
311.8
 30
0.0
 11
529.725
 21
315.0
 31
0.0
  0
LINE
  5
138
330
1F
100
AcDbEntity
  8
3
  6
LTYPE2
 62
     2
100
AcDbLine
 10
529.725
 20
311.8
 30
0.0
 11
532.865613226
 21
311.8
 31
0.0
  0
LINE
  5
139
330
1F
100
AcDbEntity
  8
3
  6
LTYPE2
 62
     2
100
AcDbLine
 10
529.725
 20
315.0
 30
0.0
 11
533.429859564
 21
315.0
 31
0.0
  0
LINE
  5
13A
330
1F
100
AcDbEntity
  8
4
  6
Continuous
 62
     1
100
AcDbLine
 10
591.925
 20
545.0
 30
0.0
 11
591.925
 21
305.0
 31
0.0
  0
LINE
  5
13B
330
1F
100
AcDbEntity
  8
4
  6
Continuous
 62
     1
100
AcDbLine
 10
589.925
 20
305.0
 30
0.0
 11
591.925
 21
305.0
 31
0.0
  0
LINE
  5
13C
330
1F
100
AcDbEntity
  8
4
  6
Continuous
 62
     1
100
AcDbLine
 10
589.925
 20
545.0
 30
0.0
 11
591.925
 21
545.0
 31
0.0
  0
LINE
  5
13D
330
1F
100
AcDbEntity
  8
4
  6
Continuous
 62
     1
100
AcDbLine
 10
586.325
 20
545.0
 30
0.0
 11
589.925
 21
545.0
 31
0.0
  0
LINE
  5
13E
330
1F
100
AcDbEntity
  8
4
  6
Continuous
 62
     1
100
AcDbLine
 10
586.325
 20
305.0
 30
0.0
 11
589.925
 21
305.0
 31
0.0
  0
LINE
  5
13F
330
1F
100
AcDbEntity
  8
4
  6
Continuous
 62
     1
100
AcDbLine
 10
584.325
 20
545.0
 30
0.0
 11
584.325
 21
305.0
 31
0.0
  0
LINE
  5
140
330
1F
100
AcDbEntity
  8
4
  6
Continuous
 62
     1
100
AcDbLine
 10
583.436
 20
305.0
 30
0.0
 11
586.325
 21
305.0
 31
0.0
  0
LINE
  5
141
330
1F
100
AcDbEntity
  8
4
  6
Continuous
 62
     1
100
AcDbLine
 10
581.900006814
 20
545.0
 30
0.0
 11
586.325
 21
545.0
 31
0.0
  0
LINE
  5
142
330
1F
100
AcDbEntity
  8
4
  6
Continuous
 62
     1
100
AcDbLine
 10
581.900006814
 20
545.0
 30
0.0
 11
581.900006814
 21
541.5
 31
0.0
  0
LINE
  5
143
330
1F
100
AcDbEntity
  8
4
  6
Continuous
 62
     1
100
AcDbLine
 10
581.900006814
 20
533.5
 30
0.0
 11
581.900006814
 21
466.5
 31
0.0
  0
LINE
  5
144
330
1F
100
AcDbEntity
  8
4
  6
Continuous
 62
     1
100
AcDbLine
 10
581.900006814
 20
458.5
 30
0.0
 11
581.900006814
 21
391.5
 31
0.0
  0
LINE
  5
145
330
1F
100
AcDbEntity
  8
4
  6
Continuous
 62
     1
100
AcDbLine
 10
583.21520098
 20
316.5
 30
0.0
 11
581.928806686
 21
383.5
 31
0.0
  0
LINE
  5
146
330
1F
100
AcDbEntity
  8
4
  6
Continuous
 62
     1
100
AcDbLine
 10
583.436
 20
305.0
 30
0.0
 11
583.368800298
 21
308.5
 31
0.0
  0
LINE
  5
147
330
1F
100
AcDbEntity
  8
4
  6
Continuous
 62
     2
100
AcDbLine
 10
589.925
 20
545.0
 30
0.0
 11
589.925
 21
305.0
 31
0.0
  0
LINE
  5
148
330
1F
100
AcDbEntity
  8
4
  6
Continuous
 62
     2
100
AcDbLine
 10
586.325
 20
545.0
 30
0.0
 11
586.325
 21
305.0
 31
0.0
  0
LINE
  5
149
330
1F
100
AcDbEntity
  8
4
  6
Continuous
 62
     2
100
AcDbLine
 10
588.325
 20
545.0
 30
0.0
 11
588.325
 21
305.0
 31
0.0
  0
LINE
  5
14A
330
1F
100
AcDbEntity
  8
4
  6
Continuous
 62
     2
100
AcDbLine
 10
584.325
 20
391.5
 30
0.0
 11
581.325
 21
391.5
 31
0.0
  0
LINE
  5
14B
330
1F
100
AcDbEntity
  8
4
  6
Continuous
 62
     2
100
AcDbLine
 10
581.325
 20
391.5
 30
0.0
 11
581.325
 21
383.5
 31
0.0
  0
LINE
  5
14C
330
1F
100
AcDbEntity
  8
4
  6
Continuous
 62
     2
100
AcDbLine
 10
584.325
 20
383.5
 30
0.0
 11
581.325
 21
383.5
 31
0.0
  0
LINE
  5
14D
330
1F
100
AcDbEntity
  8
4
  6
Continuous
 62
     2
100
AcDbLine
 10
584.325
 20
316.5
 30
0.0
 11
581.325
 21
316.5
 31
0.0
  0
LINE
  5
14E
330
1F
100
AcDbEntity
  8
4
  6
Continuous
 62
     2
100
AcDbLine
 10
581.325
 20
316.5
 30
0.0
 11
581.325
 21
308.5
 31
0.0
  0
LINE
  5
14F
330
1F
100
AcDbEntity
  8
4
  6
Continuous
 62
     2
100
AcDbLine
 10
584.325
 20
308.5
 30
0.0
 11
581.325
 21
308.5
 31
0.0
  0
LINE
  5
150
330
1F
100
AcDbEntity
  8
4
  6
Continuous
 62
     2
100
AcDbLine
 10
584.325
 20
466.5
 30
0.0
 11
581.325
 21
466.5
 31
0.0
  0
LINE
  5
151
330
1F
100
AcDbEntity
  8
4
  6
Continuous
 62
     2
100
AcDbLine
 10
581.325
 20
466.5
 30
0.0
 11
581.325
 21
458.5
 31
0.0
  0
LINE
  5
152
330
1F
100
AcDbEntity
  8
4
  6
Continuous
 62
     2
100
AcDbLine
 10
584.325
 20
458.5
 30
0.0
 11
581.325
 21
458.5
 31
0.0
  0
LINE
  5
153
330
1F
100
AcDbEntity
  8
4
  6
Continuous
 62
     2
100
AcDbLine
 10
584.325
 20
541.5
 30
0.0
 11
581.325
 21
541.5
 31
0.0
  0
LINE
  5
154
330
1F
100
AcDbEntity
  8
4
  6
Continuous
 62
     2
100
AcDbLine
 10
581.325
 20
541.5
 30
0.0
 11
581.325
 21
533.5
 31
0.0
  0
LINE
  5
155
330
1F
100
AcDbEntity
  8
4
  6
Continuous
 62
     2
100
AcDbLine
 10
584.325
 20
533.5
 30
0.0
 11
581.325
 21
533.5
 31
0.0
  0
LWPOLYLINE
  5
157
330
1F
100
AcDbEntity
  8
5
  6
Continuous
 62
     2
100
AcDbPolyline
 90
     4
 70
   129
 43
0.0
 10
536.225
 20
538.2
 10
553.225
 20
538.2
 10
553.225
 20
539.8
 10
536.225
 20
539.8
  0
LWPOLYLINE
  5
159
330
1F
100
AcDbEntity
  8
5
  6
Continuous
 62
     2
100
AcDbPolyline
 90
     4
 70
   129
 43
0.0
 10
552.425
 20
539.8
 10
552.425
 20
541.8
 10
537.025
 20
541.8
 10
537.025
 20
539.8
  0
LINE
  5
15A
330
1F
100
AcDbEntity
  8
5
  6
Continuous
 62
     2
100
AcDbLine
 10
537.225
 20
541.8
 30
0.0
 11
537.225
 21
546.4
 31
0.0
  0
LINE
  5
15B
330
1F
100
AcDbEntity
  8
5
  6
Continuous
 62
     2
100
AcDbLine
 10
552.225
 20
541.8
 30
0.0
 11
552.225
 21
546.4
 31
0.0
  0
LINE
  5
15C
330
1F
100
AcDbEntity
  8
5
  6
Continuous
 62
     2
100
AcDbLine
 10
548.525
 20
541.8
 30
0.0
 11
548.525
 21
546.4
 31
0.0
  0
LINE
  5
15D
330
1F
100
AcDbEntity
  8
5
  6
Continuous
 62
     2
100
AcDbLine
 10
540.925
 20
541.8
 30
0.0
 11
540.925
 21
546.4
 31
0.0
  0
LINE
  5
15E
330
1F
100
AcDbEntity
  8
5
  6
Continuous
 62
     2
100
AcDbLine
 10
539.025
 20
547.1
 30
0.0
 11
550.425
 21
547.1
 31
0.0
  0
ARC
  5
15F
330
1F
100
AcDbEntity
  8
5
  6
Continuous
 62
     2
100
AcDbCircle
 10
550.425
 20
544.3
 30
0.0
 40
2.8
100
AcDbArc
 50
48.5
 51
131.5
  0
ARC
  5
160
330
1F
100
AcDbEntity
  8
5
  6
Continuous
 62
     2
100
AcDbCircle
 10
544.725
 20
536.4
 30
0.0
 40
10.7
100
AcDbArc
 50
69.1
 51
110.9
  0
ARC
  5
161
330
1F
100
AcDbEntity
  8
5
  6
Continuous
 62
     2
100
AcDbCircle
 10
539.025
 20
544.3
 30
0.0
 40
2.8
100
AcDbArc
 50
48.5
 51
131.5
  0
LINE
  5
162
330
1F
100
AcDbEntity
  8
5
  6
Continuous
 62
     2
100
AcDbLine
 10
544.725
 20
541.8
 30
0.0
 11
545.879700538
 21
539.8
 31
0.0
  0
LINE
  5
163
330
1F
100
AcDbEntity
  8
5
  6
Continuous
 62
     2
100
AcDbLine
 10
544.725
 20
539.8
 30
0.0
 11
543.570299462
 21
541.8
 31
0.0
  0
LWPOLYLINE
  5
165
330
1F
100
AcDbEntity
  8
5
  6
Continuous
 62
     2
100
AcDbPolyline
 90
     4
 70
   129
 43
0.0
 10
553.225
 20
311.8
 10
536.225
 20
311.8
 10
536.225
 20
310.2
 10
553.225
 20
310.2
  0
LWPOLYLINE
  5
167
330
1F
100
AcDbEntity
  8
5
  6
Continuous
 62
     2
100
AcDbPolyline
 90
     4
 70
   129
 43
0.0
 10
537.025
 20
310.2
 10
537.025
 20
308.2
 10
552.425
 20
308.2
 10
552.425
 20
310.2
  0
LINE
  5
168
330
1F
100
AcDbEntity
  8
5
  6
Continuous
 62
     2
100
AcDbLine
 10
552.225
 20
308.2
 30
0.0
 11
552.225
 21
303.6
 31
0.0
  0
LINE
  5
169
330
1F
100
AcDbEntity
  8
5
  6
Continuous
 62
     2
100
AcDbLine
 10
537.225
 20
308.2
 30
0.0
 11
537.225
 21
303.6
 31
0.0
  0
LINE
  5
16A
330
1F
100
AcDbEntity
  8
5
  6
Continuous
 62
     2
100
AcDbLine
 10
540.925
 20
308.2
 30
0.0
 11
540.925
 21
303.6
 31
0.0
  0
LINE
  5
16B
330
1F
100
AcDbEntity
  8
5
  6
Continuous
 62
     2
100
AcDbLine
 10
548.525
 20
308.2
 30
0.0
 11
548.525
 21
303.6
 31
0.0
  0
LINE
  5
16C
330
1F
100
AcDbEntity
  8
5
  6
Continuous
 62
     2
100
AcDbLine
 10
550.425
 20
302.9
 30
0.0
 11
539.025
 21
302.9
 31
0.0
  0
ARC
  5
16D
330
1F
100
AcDbEntity
  8
5
  6
Continuous
 62
     2
100
AcDbCircle
 10
539.025
 20
305.7
 30
0.0
 40
2.8
100
AcDbArc
 50
228.5
 51
311.5
  0
ARC
  5
16E
330
1F
100
AcDbEntity
  8
5
  6
Continuous
 62
     2
100
AcDbCircle
 10
544.725
 20
313.6
 30
0.0
 40
10.7
100
AcDbArc
 50
249.1
 51
290.9
  0
ARC
  5
16F
330
1F
100
AcDbEntity
  8
5
  6
Continuous
 62
     2
100
AcDbCircle
 10
550.425
 20
305.7
 30
0.0
 40
2.8
100
AcDbArc
 50
228.5
 51
311.5
  0
LINE
  5
170
330
1F
100
AcDbEntity
  8
5
  6
Continuous
 62
     2
100
AcDbLine
 10
544.725
 20
308.2
 30
0.0
 11
543.570299462
 21
310.2
 31
0.0
  0
LINE
  5
171
330
1F
100
AcDbEntity
  8
5
  6
Continuous
 62
     2
100
AcDbLine
 10
544.725
 20
310.2
 30
0.0
 11
545.879700538
 21
308.2
 31
0.0
  0
LINE
  5
172
330
1F
100
AcDbEntity
  8
7
  6
Continuous
 62
     2
100
AcDbLine
 10
521.725
 20
519.0
 30
0.0
 11
521.725
 21
602.500019268
 31
0.0
  0
LINE
  5
173
330
1F
100
AcDbEntity
  8
7
  6
Continuous
 62
     2
100
AcDbLine
 10
566.78670545
 20
590.557630882
 30
0.0
 11
557.72362758
 21
594.783813499
 31
0.0
  0
LINE
  5
174
330
1F
100
AcDbEntity
  8
7
  6
Continuous
 62
     2
100
AcDbLine
 10
566.78670545
 20
590.557630882
 30
0.0
 11
556.824758469
 21
589.686073454
 31
0.0
  0
LWPOLYLINE
  5
176
330
1F
100
AcDbEntity
  8
7
  6
Continuous
 62
     2
100
AcDbPolyline
 90
     3
 70
   128
 43
0.0
 10
566.78670545
 20
590.557630882
 42
0.043660943
 10
521.725
 20
594.500019268
 42
0.0
 10
531.384258263
 20
591.911828817
 42
0.0
  0
LINE
  5
177
330
1F
100
AcDbEntity
  8
7
  6
Continuous
 62
     2
100
AcDbLine
 10
521.725
 20
594.500019268
 30
0.0
 11
531.384258263
 21
597.088209719
 31
0.0
  0
LINE
  5
178
330
1F
100
AcDbEntity
  8
7
  6
Continuous
 62
     2
100
AcDbLine
 10
551.071542026
 20
501.432510259
 30
0.0
 11
568.175890872
 21
598.436092906
 31
0.0
  0
MTEXT
  5
179
330
1F
100
AcDbEntity
  8
7
  6
Continuous
 62
     2
100
AcDbMText
 10
532.736203516
 20
598.543191055
 30
0.0
 40
12.0
 41
48.0
 71
     7
 72
     1
  1
\T1.167;\W0.600;１０゜
  7
KANJI6
 11
0.996194698
 21
-0.087155743
 31
0.0
 73
     1
 44
1.0
  0
LINE
  5
17B
330
1F
100
AcDbEntity
  8
7
  6
Continuous
 62
     2
100
AcDbLine
 10
476.725
 20
573.5
 30
0.0
 11
476.725
 21
627.5
 31
0.0
  0
LINE
  5
17C
330
1F
100
AcDbEntity
  8
7
  6
Continuous
 62
     2
100
AcDbLine
 10
476.725
 20
619.5
 30
0.0
 11
486.384258263
 21
616.911809549
 31
0.0
  0
LINE
  5
17D
330
1F
100
AcDbEntity
  8
7
  6
Continuous
 62
     2
100
AcDbLine
 10
476.725
 20
619.5
 30
0.0
 11
486.384258263
 21
622.088190451
 31
0.0
  0
LWPOLYLINE
  5
17F
330
1F
100
AcDbEntity
  8
7
  6
Continuous
 62
     2
100
AcDbPolyline
 90
     3
 70
   128
 43
0.0
 10
476.725
 20
619.5
 10
591.925
 20
619.5
 10
582.265741737
 20
622.088190451
  0
LINE
  5
180
330
1F
100
AcDbEntity
  8
7
  6
Continuous
 62
     2
100
AcDbLine
 10
591.925
 20
619.5
 30
0.0
 11
582.265741737
 21
616.911809549
 31
0.0
  0
LINE
  5
181
330
1F
100
AcDbEntity
  8
7
  6
Continuous
 62
     2
100
AcDbLine
 10
591.925
 20
549.0
 30
0.0
 11
591.925
 21
627.5
 31
0.0
  0
MTEXT
  5
182
330
1F
100
AcDbEntity
  8
7
  6
Continuous
 62
     2
100
AcDbMText
 10
505.525
 20
623.5
 30
0.0
 40
12.0
 41
115.2
 71
     7
 72
     1
  1
\T1.167;\W0.600;（１１５．５）
  7
KANJI6
 73
     1
 44
1.0
  0
ARC
  5
183
330
1F
100
AcDbEntity
  8
0
  6
Continuous
 62
     1
100
AcDbCircle
 10
481.925
 20
739.16
 30
0.0
 40
2.6
100
AcDbArc
 50
180.0
 51
270.0
  0
ARC
  5
184
330
1F
100
AcDbEntity
  8
0
  6
Continuous
 62
     1
100
AcDbCircle
 10
481.925
 20
739.16
 30
0.0
 40
5.2
100
AcDbArc
 50
180.0
 51
270.0
  0
ARC
  5
185
330
1F
100
AcDbEntity
  8
0
  6
Continuous
 62
     1
100
AcDbCircle
 10
481.925
 20
698.76
 30
0.0
 40
2.6
100
AcDbArc
 50
90.0
 51
180.0
  0
ARC
  5
186
330
1F
100
AcDbEntity
  8
0
  6
Continuous
 62
     1
100
AcDbCircle
 10
481.925
 20
698.76
 30
0.0
 40
5.2
100
AcDbArc
 50
90.0
 51
180.0
  0
LINE
  5
187
330
1F
100
AcDbEntity
  8
0
  6
Continuous
 62
     1
100
AcDbLine
 10
499.725
 20
731.96
 30
0.0
 11
499.725
 21
733.96
 31
0.0
  0
LINE
  5
188
330
1F
100
AcDbEntity
  8
0
  6
Continuous
 62
     1
100
AcDbLine
 10
499.725
 20
703.96
 30
0.0
 11
499.725
 21
705.96
 31
0.0
  0
LINE
  5
189
330
1F
100
AcDbEntity
  8
0
  6
Continuous
 62
     1
100
AcDbLine
 10
488.725
 20
731.96
 30
0.0
 11
499.725
 21
731.96
 31
0.0
  0
ARC
  5
18A
330
1F
100
AcDbEntity
  8
0
  6
Continuous
 62
     1
100
AcDbCircle
 10
488.725
 20
729.96
 30
0.0
 40
2.0
100
AcDbArc
 50
90.0
 51
180.0
  0
LINE
  5
18B
330
1F
100
AcDbEntity
  8
0
  6
Continuous
 62
     1
100
AcDbLine
 10
488.725
 20
705.96
 30
0.0
 11
499.725
 21
705.96
 31
0.0
  0
LINE
  5
18C
330
1F
100
AcDbEntity
  8
0
  6
Continuous
 62
     1
100
AcDbLine
 10
486.725
 20
707.96
 30
0.0
 11
486.725
 21
729.96
 31
0.0
  0
ARC
  5
18D
330
1F
100
AcDbEntity
  8
0
  6
Continuous
 62
     1
100
AcDbCircle
 10
488.725
 20
707.96
 30
0.0
 40
2.0
100
AcDbArc
 50
180.0
 51
270.0
  0
ARC
  5
18E
330
1F
100
AcDbEntity
  8
0
  6
Continuous
 62
     1
100
AcDbCircle
 10
488.725
 20
707.96
 30
0.0
 40
4.0
100
AcDbArc
 50
180.0
 51
270.0
  0
LINE
  5
18F
330
1F
100
AcDbEntity
  8
0
  6
Continuous
 62
     1
100
AcDbLine
 10
484.725
 20
707.96
 30
0.0
 11
484.725
 21
729.96
 31
0.0
  0
ARC
  5
190
330
1F
100
AcDbEntity
  8
0
  6
Continuous
 62
     1
100
AcDbCircle
 10
488.725
 20
729.96
 30
0.0
 40
4.0
100
AcDbArc
 50
90.0
 51
180.0
  0
ARC
  5
191
330
1F
100
AcDbEntity
  8
0
  6
Continuous
 62
     2
100
AcDbCircle
 10
492.725
 20
731.760005395
 30
0.0
 40
6.0
100
AcDbArc
 50
53.130102354
 51
126.869897646
  0
ARC
  5
192
330
1F
100
AcDbEntity
  8
0
  6
Continuous
 62
     2
100
AcDbCircle
 10
491.725
 20
729.46
 30
0.0
 40
1.0
100
AcDbArc
 50
180.0
 51
270.0
  0
LINE
  5
193
330
1F
100
AcDbEntity
  8
0
  6
Continuous
 62
     2
100
AcDbLine
 10
491.725
 20
728.46
 30
0.0
 11
493.725007629
 21
728.46
 31
0.0
  0
ARC
  5
194
330
1F
100
AcDbEntity
  8
0
  6
Continuous
 62
     2
100
AcDbCircle
 10
493.725
 20
729.46
 30
0.0
 40
1.0
100
AcDbArc
 50
270.000437132
 51
0.0
  0
LINE
  5
195
330
1F
100
AcDbEntity
  8
0
  6
Continuous
 62
     2
100
AcDbLine
 10
490.725
 20
731.559992371
 30
0.0
 11
490.725
 21
729.46
 31
0.0
  0
ARC
  5
196
330
1F
100
AcDbEntity
  8
0
  6
Continuous
 62
     2
100
AcDbCircle
 10
491.125
 20
731.56
 30
0.0
 40
0.4
100
AcDbArc
 50
90.0
 51
180.00109283
  0
LWPOLYLINE
  5
198
330
1F
100
AcDbEntity
  8
0
  6
Continuous
 62
     2
100
AcDbPolyline
 90
     3
 70
   128
 43
0.0
 10
494.325
 20
731.96
 42
-0.414217513
 10
494.725
 20
731.559994605
 42
0.0
 10
494.725
 20
729.46
 42
0.0
  0
ARC
  5
199
330
1F
100
AcDbEntity
  8
0
  6
Continuous
 62
     2
100
AcDbCircle
 10
492.725
 20
706.159994605
 30
0.0
 40
6.0
100
AcDbArc
 50
233.130102354
 51
306.869897646
  0
ARC
  5
19A
330
1F
100
AcDbEntity
  8
0
  6
Continuous
 62
     2
100
AcDbCircle
 10
491.725
 20
708.46
 30
0.0
 40
1.0
100
AcDbArc
 50
90.0
 51
180.0
  0
LINE
  5
19B
330
1F
100
AcDbEntity
  8
0
  6
Continuous
 62
     2
100
AcDbLine
 10
491.725
 20
709.46
 30
0.0
 11
493.725007629
 21
709.46
 31
0.0
  0
ARC
  5
19C
330
1F
100
AcDbEntity
  8
0
  6
Continuous
 62
     2
100
AcDbCircle
 10
493.725
 20
708.46
 30
0.0
 40
1.0
100
AcDbArc
 50
0.0
 51
89.999562868
  0
LINE
  5
19D
330
1F
100
AcDbEntity
  8
0
  6
Continuous
 62
     2
100
AcDbLine
 10
490.725
 20
706.360007629
 30
0.0
 11
490.725
 21
708.46
 31
0.0
  0
ARC
  5
19E
330
1F
100
AcDbEntity
  8
0
  6
Continuous
 62
     2
100
AcDbCircle
 10
491.125
 20
706.36
 30
0.0
 40
0.4
100
AcDbArc
 50
179.99890717
 51
270.0
  0
LWPOLYLINE
  5
1A0
330
1F
100
AcDbEntity
  8
0
  6
Continuous
 62
     2
100
AcDbPolyline
 90
     3
 70
   128
 43
0.0
 10
494.325
 20
705.96
 42
0.414217513
 10
494.725
 20
706.360005395
 42
0.0
 10
494.725
 20
708.46
 42
0.0
  0
LINE
  5
1A1
330
1F
100
AcDbEntity
  8
0
  6
Continuous
 62
     1
100
AcDbLine
 10
481.925
 20
736.56
 30
0.0
 11
545.209094213
 21
736.56
 31
0.0
  0
LINE
  5
1A2
330
1F
100
AcDbEntity
  8
0
  6
Continuous
 62
     1
100
AcDbLine
 10
481.925
 20
733.96
 30
0.0
 11
540.705762114
 21
733.96
 31
0.0
  0
LINE
  5
1A3
330
1F
100
AcDbEntity
  8
0
  6
LTYPE2
 62
     2
100
AcDbLine
 10
567.98167198
 20
733.96
 30
0.0
 11
567.98167198
 21
736.56
 31
0.0
  0
LINE
  5
1A4
330
1F
100
AcDbEntity
  8
0
  6
LTYPE2
 62
     2
100
AcDbLine
 10
545.209094213
 20
736.56
 30
0.0
 11
567.98167198
 21
736.56
 31
0.0
  0
LINE
  5
1A5
330
1F
100
AcDbEntity
  8
0
  6
LTYPE2
 62
     2
100
AcDbLine
 10
540.705762114
 20
733.96
 30
0.0
 11
567.98167198
 21
733.96
 31
0.0
  0
LINE
  5
1A6
330
1F
100
AcDbEntity
  8
0
  6
Continuous
 62
     1
100
AcDbLine
 10
481.925
 20
703.96
 30
0.0
 11
540.705762114
 21
703.96
 31
0.0
  0
LINE
  5
1A7
330
1F
100
AcDbEntity
  8
0
  6
Continuous
 62
     1
100
AcDbLine
 10
481.925
 20
701.36
 30
0.0
 11
545.209094213
 21
701.36
 31
0.0
  0
LINE
  5
1A8
330
1F
100
AcDbEntity
  8
0
  6
LTYPE2
 62
     2
100
AcDbLine
 10
567.98167198
 20
701.36
 30
0.0
 11
567.98167198
 21
703.96
 31
0.0
  0
LINE
  5
1A9
330
1F
100
AcDbEntity
  8
0
  6
LTYPE2
 62
     2
100
AcDbLine
 10
540.705762114
 20
703.96
 30
0.0
 11
567.98167198
 21
703.96
 31
0.0
  0
LINE
  5
1AA
330
1F
100
AcDbEntity
  8
0
  6
LTYPE2
 62
     2
100
AcDbLine
 10
545.209094213
 20
701.36
 30
0.0
 11
567.98167198
 21
701.36
 31
0.0
  0
ARC
  5
1AB
330
1F
100
AcDbEntity
  8
2
  6
Continuous
 62
     1
100
AcDbCircle
 10
513.725
 20
710.01
 30
0.0
 40
5.8
100
AcDbArc
 50
180.0
 51
270.0
  0
LINE
  5
1AC
330
1F
100
AcDbEntity
  8
2
  6
Continuous
 62
     1
100
AcDbLine
 10
511.125
 20
710.01
 30
0.0
 11
507.925
 21
710.01
 31
0.0
  0
LINE
  5
1AD
330
1F
100
AcDbEntity
  8
2
  6
Continuous
 62
     1
100
AcDbLine
 10
513.725
 20
707.41
 30
0.0
 11
513.725
 21
704.21
 31
0.0
  0
ARC
  5
1AE
330
1F
100
AcDbEntity
  8
2
  6
Continuous
 62
     1
100
AcDbCircle
 10
511.125
 20
707.41
 30
0.0
 40
2.6
100
AcDbArc
 50
360.0
 51
90.0
  0
ARC
  5
1AF
330
1F
100
AcDbEntity
  8
2
  6
Continuous
 62
     1
100
AcDbCircle
 10
513.725
 20
710.01
 30
0.0
 40
2.6
100
AcDbArc
 50
179.999831874
 51
270.0
  0
LINE
  5
1B0
330
1F
100
AcDbEntity
  8
2
  6
Continuous
 62
     1
100
AcDbLine
 10
511.125
 20
724.71
 30
0.0
 11
511.125
 21
710.010007629
 31
0.0
  0
ARC
  5
1B1
330
1F
100
AcDbEntity
  8
2
  6
Continuous
 62
     1
100
AcDbCircle
 10
514.125
 20
724.71
 30
0.0
 40
3.0
100
AcDbArc
 50
90.0
 51
180.0
  0
LINE
  5
1B2
330
1F
100
AcDbEntity
  8
2
  6
Continuous
 62
     1
100
AcDbLine
 10
507.925
 20
718.21
 30
0.0
 11
511.125
 21
718.21
 31
0.0
  0
LINE
  5
1B3
330
1F
100
AcDbEntity
  8
2
  6
Continuous
 62
     1
100
AcDbLine
 10
507.925
 20
718.21
 30
0.0
 11
507.925
 21
710.01
 31
0.0
  0
LINE
  5
1B4
330
1F
100
AcDbEntity
  8
2
  6
Continuous
 62
     1
100
AcDbLine
 10
511.125
 20
727.91
 30
0.0
 11
507.925
 21
727.91
 31
0.0
  0
LINE
  5
1B5
330
1F
100
AcDbEntity
  8
2
  6
Continuous
 62
     1
100
AcDbLine
 10
513.725
 20
730.51
 30
0.0
 11
513.725
 21
733.71
 31
0.0
  0
ARC
  5
1B6
330
1F
100
AcDbEntity
  8
2
  6
Continuous
 62
     1
100
AcDbCircle
 10
511.125
 20
730.51
 30
0.0
 40
2.6
100
AcDbArc
 50
270.0
 51
0.0
  0
ARC
  5
1B7
330
1F
100
AcDbEntity
  8
2
  6
LTYPE2
 62
     2
100
AcDbCircle
 10
514.125
 20
713.21
 30
0.0
 40
3.0
100
AcDbArc
 50
180.0
 51
270.0
  0
ARC
  5
1B8
330
1F
100
AcDbEntity
  8
2
  6
Continuous
 62
     1
100
AcDbCircle
 10
513.725
 20
727.91
 30
0.0
 40
2.6
100
AcDbArc
 50
90.0
 51
179.999881117
  0
ARC
  5
1B9
330
1F
100
AcDbEntity
  8
2
  6
Continuous
 62
     1
100
AcDbCircle
 10
513.725
 20
727.91
 30
0.0
 40
5.8
100
AcDbArc
 50
90.0
 51
179.999946716
  0
LINE
  5
1BA
330
1F
100
AcDbEntity
  8
2
  6
Continuous
 62
     1
100
AcDbLine
 10
507.925
 20
719.71
 30
0.0
 11
511.125
 21
719.71
 31
0.0
  0
LINE
  5
1BB
330
1F
100
AcDbEntity
  8
2
  6
Continuous
 62
     1
100
AcDbLine
 10
507.925
 20
719.71
 30
0.0
 11
507.925
 21
727.910005395
 31
0.0
  0
ARC
  5
1BC
330
1F
100
AcDbEntity
  8
2
  6
LTYPE2
 62
     2
100
AcDbCircle
 10
516.09582462
 20
711.149591189
 30
0.0
 40
2.260408811
100
AcDbArc
 50
33.890242925
 51
146.109757075
  0
ARC
  5
1BD
330
1F
100
AcDbEntity
  8
2
  6
LTYPE2
 62
     2
100
AcDbCircle
 10
527.354151055
 20
711.149592903
 30
0.0
 40
2.260407097
100
AcDbArc
 50
33.890242926
 51
146.109757074
  0
ARC
  5
1BE
330
1F
100
AcDbEntity
  8
2
  6
LTYPE2
 62
     2
100
AcDbCircle
 10
521.72498921
 20
705.869231538
 30
0.0
 40
7.540768462
100
AcDbArc
 50
60.158440064
 51
119.841571518
  0
LINE
  5
1BF
330
1F
100
AcDbEntity
  8
2
  6
LTYPE2
 62
     2
100
AcDbLine
 10
525.47776268
 20
707.41
 30
0.0
 11
525.47776268
 21
712.41
 31
0.0
  0
LINE
  5
1C0
330
1F
100
AcDbEntity
  8
2
  6
LTYPE2
 62
     2
100
AcDbLine
 10
517.972209181
 20
707.41
 30
0.0
 11
517.972209181
 21
712.41
 31
0.0
  0
LINE
  5
1C1
330
1F
100
AcDbEntity
  8
2
  6
LTYPE2
 62
     2
100
AcDbLine
 10
514.219432431
 20
707.41
 30
0.0
 11
514.219432431
 21
712.41
 31
0.0
  0
LINE
  5
1C2
330
1F
100
AcDbEntity
  8
2
  6
LTYPE2
 62
     2
100
AcDbLine
 10
529.23053943
 20
707.41
 30
0.0
 11
529.23053943
 21
712.41
 31
0.0
  0
LINE
  5
1C3
330
1F
100
AcDbEntity
  8
2
  6
LTYPE2
 62
     2
100
AcDbLine
 10
516.095830015
 20
713.41
 30
0.0
 11
527.354151055
 21
713.41
 31
0.0
  0
ARC
  5
1C4
330
1F
100
AcDbEntity
  8
2
  6
LTYPE2
 62
     2
100
AcDbCircle
 10
516.09582462
 20
726.770422287
 30
0.0
 40
2.260422288
100
AcDbArc
 50
213.890242925
 51
326.109757075
  0
LWPOLYLINE
  5
1C7
330
1F
100
AcDbEntity
  8
2
  6
LTYPE2
 62
     2
100
AcDbPolyline
 90
     3
 70
   128
 43
0.0
 10
517.973788006
 20
725.509584769
 42
0.266469936
 10
525.47619986
 20
725.509582439
 42
0.532605582
 10
529.230539509
 20
725.509999943
 42
0.0
  0
LINE
  5
1C8
330
1F
100
AcDbEntity
  8
2
  6
LTYPE2
 62
     2
100
AcDbLine
 10
514.219432431
 20
725.51
 30
0.0
 11
514.219432431
 21
730.51
 31
0.0
  0
LINE
  5
1C9
330
1F
100
AcDbEntity
  8
2
  6
LTYPE2
 62
     2
100
AcDbLine
 10
517.972209181
 20
725.51
 30
0.0
 11
517.972209181
 21
730.51
 31
0.0
  0
LINE
  5
1CA
330
1F
100
AcDbEntity
  8
2
  6
LTYPE2
 62
     2
100
AcDbLine
 10
525.47776268
 20
725.51
 30
0.0
 11
525.47776268
 21
730.51
 31
0.0
  0
LINE
  5
1CB
330
1F
100
AcDbEntity
  8
2
  6
LTYPE2
 62
     2
100
AcDbLine
 10
529.23053943
 20
725.51
 30
0.0
 11
529.23053943
 21
730.51
 31
0.0
  0
LINE
  5
1CC
330
1F
100
AcDbEntity
  8
2
  6
LTYPE2
 62
     2
100
AcDbLine
 10
516.095830015
 20
724.51
 30
0.0
 11
527.353233058
 21
724.51
 31
0.0
  0
LINE
  5
1CD
330
1F
100
AcDbEntity
  8
2
  6
Continuous
 62
     1
100
AcDbLine
 10
511.125
 20
727.910005395
 30
0.0
 11
511.125
 21
724.71
 31
0.0
  0
LINE
  5
1CE
330
1F
100
AcDbEntity
  8
2
  6
Continuous
 62
     1
100
AcDbLine
 10
514.125
 20
727.71
 30
0.0
 11
532.541507069
 21
727.71
 31
0.0
  0
LINE
  5
1CF
330
1F
100
AcDbEntity
  8
2
  6
LTYPE2
 62
     2
100
AcDbLine
 10
514.125
 20
710.21
 30
0.0
 11
532.541507069
 21
710.21
 31
0.0
  0
LINE
  5
1D0
330
1F
100
AcDbEntity
  8
2
  6
LTYPE2
 62
     2
100
AcDbLine
 10
513.725
 20
707.41
 30
0.0
 11
535.154341715
 21
707.41
 31
0.0
  0
LINE
  5
1D1
330
1F
100
AcDbEntity
  8
2
  6
LTYPE2
 62
     2
100
AcDbLine
 10
513.725
 20
730.51
 30
0.0
 11
535.154341715
 21
730.51
 31
0.0
  0
LINE
  5
1D2
330
1F
100
AcDbEntity
  8
2
  6
Continuous
 62
     1
100
AcDbLine
 10
513.725
 20
704.21
 30
0.0
 11
540.272749412
 21
704.21
 31
0.0
  0
LINE
  5
1D3
330
1F
100
AcDbEntity
  8
2
  6
LTYPE2
 62
     2
100
AcDbLine
 10
540.272749412
 20
704.21
 30
0.0
 11
554.225
 21
704.21
 31
0.0
  0
LINE
  5
1D4
330
1F
100
AcDbEntity
  8
2
  6
Continuous
 62
     1
100
AcDbLine
 10
513.725
 20
733.71
 30
0.0
 11
540.272749412
 21
733.71
 31
0.0
  0
LINE
  5
1D5
330
1F
100
AcDbEntity
  8
2
  6
LTYPE2
 62
     2
100
AcDbLine
 10
540.272749412
 20
733.71
 30
0.0
 11
554.225
 21
733.71
 31
0.0
  0
ARC
  5
1D6
330
1F
100
AcDbEntity
  8
2
  6
LTYPE2
 62
     2
100
AcDbCircle
 10
551.625
 20
710.01
 30
0.0
 40
5.8
100
AcDbArc
 50
296.633118749
 51
0.0
  0
LINE
  5
1D7
330
1F
100
AcDbEntity
  8
2
  6
LTYPE2
 62
     2
100
AcDbLine
 10
554.225
 20
718.21
 30
0.0
 11
557.425
 21
718.21
 31
0.0
  0
LINE
  5
1D8
330
1F
100
AcDbEntity
  8
2
  6
LTYPE2
 62
     2
100
AcDbLine
 10
554.225
 20
719.71
 30
0.0
 11
557.425
 21
719.71
 31
0.0
  0
LINE
  5
1D9
330
1F
100
AcDbEntity
  8
2
  6
LTYPE2
 62
     2
100
AcDbLine
 10
554.225
 20
724.71
 30
0.0
 11
554.225
 21
704.21
 31
0.0
  0
LINE
  5
1DA
330
1F
100
AcDbEntity
  8
2
  6
LTYPE2
 62
     2
100
AcDbLine
 10
557.425
 20
718.21
 30
0.0
 11
557.425
 21
710.01
 31
0.0
  0
LINE
  5
1DB
330
1F
100
AcDbEntity
  8
2
  6
LTYPE2
 62
     2
100
AcDbLine
 10
554.225
 20
733.71
 30
0.0
 11
554.225
 21
724.71
 31
0.0
  0
ARC
  5
1DC
330
1F
100
AcDbEntity
  8
2
  6
LTYPE2
 62
     2
100
AcDbCircle
 10
551.625
 20
727.91
 30
0.0
 40
5.8
100
AcDbArc
 50
0.0
 51
63.366881251
  0
LINE
  5
1DD
330
1F
100
AcDbEntity
  8
2
  6
LTYPE2
 62
     2
100
AcDbLine
 10
557.425
 20
719.71
 30
0.0
 11
557.425
 21
727.91
 31
0.0
  0
ARC
  5
1DE
330
1F
100
AcDbEntity
  8
3
  6
Continuous
 62
     1
100
AcDbCircle
 10
544.725
 20
718.96
 30
0.0
 40
15.0
100
AcDbArc
 50
120.000050476
 51
239.999928617
  0
LINE
  5
1DF
330
1F
100
AcDbEntity
  8
3
  6
Continuous
 62
     1
100
AcDbLine
 10
537.224988556
 20
731.950374449
 30
0.0
 11
575.346778265
 21
753.96
 31
0.0
  0
LINE
  5
1E0
330
1F
100
AcDbEntity
  8
3
  6
Continuous
 62
     1
100
AcDbLine
 10
537.224983816
 20
705.969628287
 30
0.0
 11
575.346778265
 21
683.96
 31
0.0
  0
LINE
  5
1E1
330
1F
100
AcDbEntity
  8
3
  6
LTYPE2
 62
     2
100
AcDbLine
 10
564.525
 20
717.36
 30
0.0
 11
564.525
 21
720.56
 31
0.0
  0
LINE
  5
1E2
330
1F
100
AcDbEntity
  8
3
  6
LTYPE2
 62
     2
100
AcDbLine
 10
586.525
 20
683.96
 30
0.0
 11
586.525
 21
753.96
 31
0.0
  0
LINE
  5
1E3
330
1F
100
AcDbEntity
  8
3
  6
Continuous
 62
     1
100
AcDbLine
 10
589.725
 20
756.56
 30
0.0
 11
586.525
 21
756.56
 31
0.0
  0
LINE
  5
1E4
330
1F
100
AcDbEntity
  8
3
  6
Continuous
 62
     1
100
AcDbLine
 10
589.725
 20
681.36
 30
0.0
 11
586.525
 21
681.36
 31
0.0
  0
LINE
  5
1E5
330
1F
100
AcDbEntity
  8
3
  6
Continuous
 62
     1
100
AcDbLine
 10
589.725
 20
753.96
 30
0.0
 11
575.346778265
 21
753.96
 31
0.0
  0
LINE
  5
1E6
330
1F
100
AcDbEntity
  8
3
  6
Continuous
 62
     1
100
AcDbLine
 10
589.725
 20
683.96
 30
0.0
 11
575.346778265
 21
683.96
 31
0.0
  0
LINE
  5
1E7
330
1F
100
AcDbEntity
  8
3
  6
Continuous
 62
     1
100
AcDbLine
 10
586.525
 20
683.96
 30
0.0
 11
586.525
 21
660.21
 31
0.0
  0
LINE
  5
1E8
330
1F
100
AcDbEntity
  8
3
  6
Continuous
 62
     1
100
AcDbLine
 10
589.725
 20
660.21
 30
0.0
 11
586.525
 21
660.21
 31
0.0
  0
LINE
  5
1E9
330
1F
100
AcDbEntity
  8
3
  6
Continuous
 62
     1
100
AcDbLine
 10
586.525
 20
753.96
 30
0.0
 11
586.525
 21
777.71
 31
0.0
  0
LINE
  5
1EA
330
1F
100
AcDbEntity
  8
3
  6
Continuous
 62
     1
100
AcDbLine
 10
589.725
 20
777.71
 30
0.0
 11
586.525
 21
777.71
 31
0.0
  0
LINE
  5
1EB
330
1F
100
AcDbEntity
  8
3
  6
Continuous
 62
     1
100
AcDbLine
 10
589.725
 20
660.21
 30
0.0
 11
589.725
 21
777.71
 31
0.0
  0
LINE
  5
1EC
330
1F
100
AcDbEntity
  8
3
  6
Continuous
 62
     2
100
AcDbLine
 10
569.525015259
 20
717.26
 30
0.0
 11
580.676471862
 21
717.26
 31
0.0
  0
LINE
  5
1ED
330
1F
100
AcDbEntity
  8
3
  6
Continuous
 62
     2
100
AcDbLine
 10
569.525015259
 20
720.66
 30
0.0
 11
580.676471862
 21
720.66
 31
0.0
  0
ARC
  5
1EE
330
1F
100
AcDbEntity
  8
3
  6
Continuous
 62
     2
100
AcDbCircle
 10
581.525
 20
718.96
 30
0.0
 40
1.9
100
AcDbArc
 50
243.474647973
 51
116.525352027
  0
ARC
  5
1EF
330
1F
100
AcDbEntity
  8
3
  6
Continuous
 62
     2
100
AcDbCircle
 10
569.525
 20
718.96
 30
0.0
 40
1.7
100
AcDbArc
 50
89.999375526
 51
270.000624474
  0
LINE
  5
1F0
330
1F
100
AcDbEntity
  8
3
  6
LTYPE2
 62
     2
100
AcDbLine
 10
564.525
 20
720.56
 30
0.0
 11
586.525
 21
720.56
 31
0.0
  0
LINE
  5
1F1
330
1F
100
AcDbEntity
  8
3
  6
LTYPE2
 62
     2
100
AcDbLine
 10
564.525
 20
717.36
 30
0.0
 11
586.525
 21
717.36
 31
0.0
  0
LINE
  5
1F2
330
1F
100
AcDbEntity
  8
4
  6
Continuous
 62
     1
100
AcDbLine
 10
588.325
 20
638.96
 30
0.0
 11
588.325
 21
658.96
 31
0.0
  0
LINE
  5
1F3
330
1F
100
AcDbEntity
  8
4
  6
Continuous
 62
     1
100
AcDbLine
 10
586.325
 20
638.96
 30
0.0
 11
584.325
 21
638.96
 31
0.0
  0
LWPOLYLINE
  5
1F5
330
1F
100
AcDbEntity
  8
4
  6
Continuous
 62
     1
100
AcDbPolyline
 90
     3
 70
   128
 43
0.0
 10
583.66962232
 20
674.194372488
 10
581.700006814
 20
673.847076132
 10
584.325
 20
658.96
  0
LWPOLYLINE
  5
1F7
330
1F
100
AcDbEntity
  8
4
  6
Continuous
 62
     1
100
AcDbPolyline
 90
     3
 70
   128
 43
0.0
 10
583.66962232
 20
674.194372488
 10
586.325
 20
659.134977327
 10
586.325
 20
638.96
  0
LINE
  5
1F8
330
1F
100
AcDbEntity
  8
4
  6
Continuous
 62
     1
100
AcDbLine
 10
584.325
 20
658.96
 30
0.0
 11
584.325
 21
638.96
 31
0.0
  0
LINE
  5
1F9
330
1F
100
AcDbEntity
  8
4
  6
Continuous
 62
     1
100
AcDbLine
 10
586.325
 20
798.96
 30
0.0
 11
584.325
 21
798.96
 31
0.0
  0
LWPOLYLINE
  5
1FB
330
1F
100
AcDbEntity
  8
4
  6
Continuous
 62
     1
100
AcDbPolyline
 90
     3
 70
   128
 43
0.0
 10
583.66962232
 20
763.725627512
 10
581.700006814
 20
764.072923868
 10
584.325
 20
778.96
  0
LWPOLYLINE
  5
1FD
330
1F
100
AcDbEntity
  8
4
  6
Continuous
 62
     1
100
AcDbPolyline
 90
     3
 70
   128
 43
0.0
 10
583.66962232
 20
763.725627512
 10
586.325
 20
778.785022673
 10
586.325
 20
798.96
  0
LINE
  5
1FE
330
1F
100
AcDbEntity
  8
4
  6
Continuous
 62
     1
100
AcDbLine
 10
584.325
 20
778.96
 30
0.0
 11
584.325
 21
798.96
 31
0.0
  0
LINE
  5
1FF
330
1F
100
AcDbEntity
  8
4
  6
Continuous
 62
     1
100
AcDbLine
 10
586.325
 20
638.96
 30
0.0
 11
589.925
 21
638.96
 31
0.0
  0
LINE
  5
200
330
1F
100
AcDbEntity
  8
4
  6
Continuous
 62
     1
100
AcDbLine
 10
589.925
 20
658.96
 30
0.0
 11
586.325
 21
658.96
 31
0.0
  0
LINE
  5
201
330
1F
100
AcDbEntity
  8
4
  6
Continuous
 62
     1
100
AcDbLine
 10
591.925
 20
638.96
 30
0.0
 11
591.925
 21
798.96
 31
0.0
  0
LINE
  5
202
330
1F
100
AcDbEntity
  8
4
  6
Continuous
 62
     1
100
AcDbLine
 10
589.925
 20
798.96
 30
0.0
 11
591.925
 21
798.96
 31
0.0
  0
LINE
  5
203
330
1F
100
AcDbEntity
  8
4
  6
Continuous
 62
     1
100
AcDbLine
 10
589.925
 20
638.96
 30
0.0
 11
591.925
 21
638.96
 31
0.0
  0
LINE
  5
204
330
1F
100
AcDbEntity
  8
4
  6
Continuous
 62
     1
100
AcDbLine
 10
589.925
 20
638.96
 30
0.0
 11
589.925
 21
798.96
 31
0.0
  0
LINE
  5
205
330
1F
100
AcDbEntity
  8
4
  6
Continuous
 62
     1
100
AcDbLine
 10
588.325
 20
798.96
 30
0.0
 11
588.325
 21
778.96
 31
0.0
  0
LINE
  5
206
330
1F
100
AcDbEntity
  8
4
  6
Continuous
 62
     1
100
AcDbLine
 10
586.325
 20
798.96
 30
0.0
 11
589.925
 21
798.96
 31
0.0
  0
LINE
  5
207
330
1F
100
AcDbEntity
  8
4
  6
Continuous
 62
     1
100
AcDbLine
 10
589.925
 20
778.96
 30
0.0
 11
586.325
 21
778.96
 31
0.0
  0
CIRCLE
  5
208
330
1F
100
AcDbEntity
  8
5
  6
Continuous
 62
     2
100
AcDbCircle
 10
544.725
 20
718.96
 30
0.0
 40
6.5
  0
LWPOLYLINE
  5
20A
330
1F
100
AcDbEntity
  8
5
  6
Continuous
 62
     2
100
AcDbPolyline
 90
     6
 70
   129
 43
0.0
 10
548.525
 20
725.46
 10
540.925
 20
725.46
 10
537.225
 20
718.96
 10
540.925
 20
712.46
 10
548.525
 20
712.46
 10
552.225
 20
718.96
  0
CIRCLE
  5
20B
330
1F
100
AcDbEntity
  8
5
  6
Continuous
 62
     2
100
AcDbCircle
 10
544.725
 20
718.96
 30
0.0
 40
7.7
  0
CIRCLE
  5
20C
330
1F
100
AcDbEntity
  8
5
  6
Continuous
 62
     2
100
AcDbCircle
 10
544.725
 20
718.96
 30
0.0
 40
8.5
  0
LINE
  5
20D
330
1F
100
AcDbEntity
  8
7
  6
Continuous
 62
     2
100
AcDbLine
 10
558.040728753
 20
267.715728753
 30
0.0
 11
558.040728753
 21
237.30151519
 31
0.0
  0
LINE
  5
20E
330
1F
100
AcDbEntity
  8
7
  6
Continuous
 62
     2
100
AcDbLine
 10
558.040728753
 20
245.30151519
 30
0.0
 11
567.699987015
 21
242.713324739
 31
0.0
  0
LINE
  5
20F
330
1F
100
AcDbEntity
  8
7
  6
Continuous
 62
     2
100
AcDbLine
 10
558.040728753
 20
245.30151519
 30
0.0
 11
567.699987015
 21
247.889705641
 31
0.0
  0
LWPOLYLINE
  5
211
330
1F
100
AcDbEntity
  8
7
  6
Continuous
 62
     2
100
AcDbPolyline
 90
     3
 70
   128
 43
0.0
 10
558.040728753
 20
245.30151519
 10
591.925
 20
245.30151519
 10
582.265741737
 20
247.889705641
  0
LINE
  5
212
330
1F
100
AcDbEntity
  8
7
  6
Continuous
 62
     2
100
AcDbLine
 10
591.925
 20
245.30151519
 30
0.0
 11
582.265741737
 21
242.713324739
 31
0.0
  0
LINE
  5
213
330
1F
100
AcDbEntity
  8
7
  6
Continuous
 62
     2
100
AcDbLine
 10
591.925
 20
301.0
 30
0.0
 11
591.925
 21
237.30151519
 31
0.0
  0
MTEXT
  5
214
330
1F
100
AcDbEntity
  8
7
  6
Continuous
 62
     2
100
AcDbMText
 10
558.782864376
 20
249.30151519
 30
0.0
 40
12.0
 41
64.8
 71
     7
 72
     1
  1
\T1.167;\W0.600;（３４）
  7
KANJI6
 73
     1
 44
1.0
  0
LINE
  5
215
330
1F
100
AcDbEntity
  8
7
  6
Continuous
 62
     2
100
AcDbLine
 10
515.725
 20
569.5
 30
0.0
 11
629.925
 21
569.5
 31
0.0
  0
LINE
  5
216
330
1F
100
AcDbEntity
  8
7
  6
Continuous
 62
     2
100
AcDbLine
 10
621.925
 20
569.5
 30
0.0
 11
619.336809549
 21
559.840741737
 31
0.0
  0
LINE
  5
217
330
1F
100
AcDbEntity
  8
7
  6
Continuous
 62
     2
100
AcDbLine
 10
621.925
 20
569.5
 30
0.0
 11
624.513190451
 21
559.840741737
 31
0.0
  0
LWPOLYLINE
  5
219
330
1F
100
AcDbEntity
  8
7
  6
Continuous
 62
     2
100
AcDbPolyline
 90
     3
 70
   128
 43
0.0
 10
621.925
 20
628.7
 10
621.925
 20
545.0
 10
624.513190451
 20
554.659258263
  0
LINE
  5
21A
330
1F
100
AcDbEntity
  8
7
  6
Continuous
 62
     2
100
AcDbLine
 10
621.925
 20
545.0
 30
0.0
 11
619.336809549
 21
554.659258263
 31
0.0
  0
LINE
  5
21B
330
1F
100
AcDbEntity
  8
7
  6
Continuous
 62
     2
100
AcDbLine
 10
595.925
 20
545.0
 30
0.0
 11
629.925
 21
545.0
 31
0.0
  0
MTEXT
  5
21C
330
1F
100
AcDbEntity
  8
7
  6
Continuous
 62
     2
100
AcDbMText
 10
617.925
 20
579.5
 30
0.0
 40
12.0
 41
98.4
 71
     7
 72
     1
  1
\T1.167;\W0.600;（２４．５）
  7
KANJI6
 11
0.0
 21
1.0
 31
0.0
 73
     1
 44
1.0
  0
LINE
  5
21D
330
1F
100
AcDbEntity
  8
7
  6
Continuous
 62
     2
100
AcDbLine
 10
595.925
 20
305.0
 30
0.0
 11
629.925
 21
305.0
 31
0.0
  0
LINE
  5
21E
330
1F
100
AcDbEntity
  8
7
  6
Continuous
 62
     2
100
AcDbLine
 10
621.925
 20
305.0
 30
0.0
 11
619.336809549
 21
295.340741737
 31
0.0
  0
LINE
  5
21F
330
1F
100
AcDbEntity
  8
7
  6
Continuous
 62
     2
100
AcDbLine
 10
621.925
 20
305.0
 30
0.0
 11
624.513190451
 21
295.340741737
 31
0.0
  0
LINE
  5
220
330
1F
100
AcDbEntity
  8
7
  6
Continuous
 62
     2
100
AcDbLine
 10
621.925
 20
305.0
 30
0.0
 11
621.925
 21
221.3
 31
0.0
  0
LINE
  5
221
330
1F
100
AcDbEntity
  8
7
  6
Continuous
 62
     2
100
AcDbLine
 10
621.925
 20
280.5
 30
0.0
 11
624.513190451
 21
290.159258263
 31
0.0
  0
LINE
  5
222
330
1F
100
AcDbEntity
  8
7
  6
Continuous
 62
     2
100
AcDbLine
 10
621.925
 20
280.5
 30
0.0
 11
619.336809549
 21
290.159258263
 31
0.0
  0
LINE
  5
223
330
1F
100
AcDbEntity
  8
7
  6
Continuous
 62
     2
100
AcDbLine
 10
514.564596896
 20
280.5
 30
0.0
 11
629.925
 21
280.5
 31
0.0
  0
MTEXT
  5
224
330
1F
100
AcDbEntity
  8
7
  6
Continuous
 62
     2
100
AcDbMText
 10
617.925
 20
221.3
 30
0.0
 40
12.0
 41
98.4
 71
     7
 72
     1
  1
\T1.167;\W0.600;（２４．５）
  7
KANJI6
 11
0.0
 21
1.0
 31
0.0
 73
     1
 44
1.0
  0
LINE
  5
225
330
1F
100
AcDbEntity
  8
7
  6
Continuous
 62
     2
100
AcDbLine
 10
501.725
 20
355.500003815
 30
0.0
 11
492.065741737
 21
358.088194266
 31
0.0
  0
LINE
  5
226
330
1F
100
AcDbEntity
  8
7
  6
Continuous
 62
     2
100
AcDbLine
 10
501.725
 20
355.500003815
 30
0.0
 11
492.065741737
 21
352.911813364
 31
0.0
  0
LWPOLYLINE
  5
228
330
1F
100
AcDbEntity
  8
7
  6
Continuous
 62
     2
100
AcDbPolyline
 90
     3
 70
   128
 43
0.0
 10
501.725
 20
355.500003815
 10
476.725
 20
355.500003815
 10
486.384258263
 20
352.911813364
  0
LINE
  5
229
330
1F
100
AcDbEntity
  8
7
  6
Continuous
 62
     2
100
AcDbLine
 10
476.725
 20
355.500003815
 30
0.0
 11
486.384258263
 21
358.088194266
 31
0.0
  0
LINE
  5
22A
330
1F
100
AcDbEntity
  8
7
  6
Continuous
 62
     2
100
AcDbLine
 10
476.725
 20
329.5
 30
0.0
 11
476.725
 21
363.500003815
 31
0.0
  0
MTEXT
  5
22B
330
1F
100
AcDbEntity
  8
7
  6
Continuous
 62
     2
100
AcDbMText
 10
481.425
 20
359.500003815
 30
0.0
 40
12.0
 41
31.2
 71
     7
 72
     1
  1
\T1.167;\W0.600;２５
  7
KANJI6
 73
     1
 44
1.0
  0
LINE
  5
22C
330
1F
100
AcDbEntity
  8
7
  6
Continuous
 62
     2
100
AcDbLine
 10
506.945
 20
292.791572875
 30
0.0
 11
500.599218876
 21
285.062985558
 31
0.0
  0
LINE
  5
22D
330
1F
100
AcDbEntity
  8
7
  6
Continuous
 62
     2
100
AcDbLine
 10
506.945
 20
292.791572875
 30
0.0
 11
505.313685998
 21
282.925529361
 31
0.0
  0
LINE
  5
22E
330
1F
100
AcDbEntity
  8
7
  6
Continuous
 62
     2
100
AcDbLine
 10
506.945
 20
292.791572875
 30
0.0
 11
476.115
 21
224.791572875
 31
0.0
  0
LINE
  5
22F
330
1F
100
AcDbEntity
  8
7
  6
Continuous
 62
     2
100
AcDbLine
 10
476.115
 20
224.791572875
 30
0.0
 11
393.315
 21
224.791572875
 31
0.0
  0
MTEXT
  5
230
330
1F
100
AcDbEntity
  8
7
  6
Continuous
 62
     2
100
AcDbMText
 10
393.315
 20
228.791572875
 30
0.0
 40
12.0
 41
165.6
 71
     7
 72
     1
  1
\T1.111;\W0.900;ワイヤー通し穴
  7
KANJI7
 73
     1
 44
1.0
  0
MTEXT
  5
232
330
1F
100
AcDbEntity
  8
7
  6
Continuous
 62
     2
100
AcDbMText
 10
393.315
 20
208.791572875
 30
0.0
 40
12.0
 41
48.0
 71
     7
 72
     1
  1
\T1.111;\W0.621;φ２０
  7
KANJI7
 73
     1
 44
1.0
  0
LINE
  5
233
330
1F
100
AcDbEntity
  8
3
  6
LTYPE2
 62
     2
100
AcDbLine
 10
822.725
 20
535.0
 30
0.0
 11
820.125
 21
535.0
 31
0.0
  0
LINE
  5
234
330
1F
100
AcDbEntity
  8
3
  6
LTYPE2
 62
     2
100
AcDbLine
 10
822.725
 20
538.2
 30
0.0
 11
822.725
 21
535.0
 31
0.0
  0
ARC
  5
235
330
1F
100
AcDbEntity
  8
3
  6
LTYPE2
 62
     2
100
AcDbCircle
 10
822.725
 20
535.0
 30
0.0
 40
2.6
100
AcDbArc
 50
180.0
 51
360.0
  0
LINE
  5
236
330
1F
100
AcDbEntity
  8
3
  6
LTYPE2
 62
     2
100
AcDbLine
 10
752.725
 20
538.2
 30
0.0
 11
822.725
 21
538.2
 31
0.0
  0
LINE
  5
237
330
1F
100
AcDbEntity
  8
3
  6
LTYPE2
 62
     2
100
AcDbLine
 10
752.725
 20
535.0
 30
0.0
 11
755.325
 21
535.0
 31
0.0
  0
LINE
  5
238
330
1F
100
AcDbEntity
  8
3
  6
LTYPE2
 62
     2
100
AcDbLine
 10
752.725
 20
538.2
 30
0.0
 11
752.725
 21
535.0
 31
0.0
  0
LWPOLYLINE
  5
23A
330
1F
100
AcDbEntity
  8
3
  6
LTYPE2
 62
     2
100
AcDbPolyline
 90
     3
 70
   128
 43
0.0
 10
755.325
 20
535.0
 42
-1.0
 10
750.125
 20
535.0
 42
0.0
 10
728.975
 20
535.0
 42
0.0
  0
LINE
  5
23B
330
1F
100
AcDbEntity
  8
3
  6
LTYPE2
 62
     2
100
AcDbLine
 10
825.325
 20
535.0
 30
0.0
 11
846.475
 21
535.0
 31
0.0
  0
ARC
  5
23C
330
1F
100
AcDbEntity
  8
4
  6
Continuous
 62
     1
100
AcDbCircle
 10
862.725
 20
540.0
 30
0.0
 40
5.0
100
AcDbArc
 50
0.0
 51
90.0
  0
LINE
  5
23D
330
1F
100
AcDbEntity
  8
4
  6
Continuous
 62
     1
100
AcDbLine
 10
712.725
 20
545.0
 30
0.0
 11
862.725
 21
545.0
 31
0.0
  0
LWPOLYLINE
  5
23F
330
1F
100
AcDbEntity
  8
4
  6
Continuous
 62
     1
100
AcDbPolyline
 90
     5
 70
   128
 43
0.0
 10
712.725
 20
545.0
 42
0.414213562
 10
707.725
 20
540.0
 42
0.0
 10
707.725
 20
310.0
 42
0.414213562
 10
712.725
 20
305.0
 42
0.0
 10
862.725
 20
305.0
 42
0.0
  0
LINE
  5
241
330
1F
100
AcDbEntity
  8
4
  6
Continuous
 62
     1
100
AcDbLine
 10
867.725
 20
540.0
 30
0.0
 11
867.725
 21
310.0
 31
0.0
  0
ARC
  5
242
330
1F
100
AcDbEntity
  8
4
  6
Continuous
 62
     1
100
AcDbCircle
 10
862.725
 20
310.0
 30
0.0
 40
5.0
100
AcDbArc
 50
270.0
 51
0.0
  0
CIRCLE
  5
243
330
1F
100
AcDbEntity
  8
4
  6
Continuous
 62
     1
100
AcDbCircle
 10
717.725
 20
425.0
 30
0.0
 40
4.75
  0
CIRCLE
  5
244
330
1F
100
AcDbEntity
  8
4
  6
Continuous
 62
     1
100
AcDbCircle
 10
857.725
 20
425.0
 30
0.0
 40
4.75
  0
CIRCLE
  5
245
330
1F
100
AcDbEntity
  8
4
  6
Continuous
 62
     1
100
AcDbCircle
 10
717.725
 20
325.0
 30
0.0
 40
4.75
  0
CIRCLE
  5
246
330
1F
100
AcDbEntity
  8
4
  6
Continuous
 62
     1
100
AcDbCircle
 10
857.725
 20
325.0
 30
0.0
 40
4.75
  0
CIRCLE
  5
247
330
1F
100
AcDbEntity
  8
4
  6
Continuous
 62
     1
100
AcDbCircle
 10
717.725
 20
525.0
 30
0.0
 40
4.75
  0
CIRCLE
  5
248
330
1F
100
AcDbEntity
  8
4
  6
Continuous
 62
     1
100
AcDbCircle
 10
857.725
 20
525.0
 30
0.0
 40
4.75
  0
CIRCLE
  5
249
330
1F
100
AcDbEntity
  8
4
  6
LTYPE2
 62
     2
100
AcDbCircle
 10
720.600242252
 20
537.5
 30
0.0
 40
2.2
  0
CIRCLE
  5
24A
330
1F
100
AcDbEntity
  8
4
  6
LTYPE2
 62
     2
100
AcDbCircle
 10
852.725
 20
537.5
 30
0.0
 40
2.2
  0
CIRCLE
  5
24B
330
1F
100
AcDbEntity
  8
4
  6
LTYPE2
 62
     2
100
AcDbCircle
 10
729.975242252
 20
462.5
 30
0.0
 40
2.2
  0
CIRCLE
  5
24C
330
1F
100
AcDbEntity
  8
4
  6
LTYPE2
 62
     2
100
AcDbCircle
 10
847.725
 20
462.5
 30
0.0
 40
2.2
  0
CIRCLE
  5
24D
330
1F
100
AcDbEntity
  8
4
  6
LTYPE2
 62
     2
100
AcDbCircle
 10
739.350242252
 20
387.5
 30
0.0
 40
2.2
  0
CIRCLE
  5
24E
330
1F
100
AcDbEntity
  8
4
  6
LTYPE2
 62
     2
100
AcDbCircle
 10
842.725
 20
387.5
 30
0.0
 40
2.2
  0
CIRCLE
  5
24F
330
1F
100
AcDbEntity
  8
4
  6
LTYPE2
 62
     2
100
AcDbCircle
 10
748.725242252
 20
312.5
 30
0.0
 40
2.2
  0
CIRCLE
  5
250
330
1F
100
AcDbEntity
  8
4
  6
LTYPE2
 62
     2
100
AcDbCircle
 10
837.725
 20
312.5
 30
0.0
 40
2.2
  0
LINE
  5
251
330
1F
100
AcDbEntity
  8
4
  6
LTYPE2
 62
     2
100
AcDbLine
 10
762.841733278
 20
385.0
 30
0.0
 11
742.841733278
 21
545.0
 31
0.0
  0
LINE
  5
252
330
1F
100
AcDbEntity
  8
4
  6
LTYPE2
 62
     2
100
AcDbLine
 10
812.608266722
 20
385.0
 30
0.0
 11
832.608266722
 21
545.0
 31
0.0
  0
LINE
  5
253
330
1F
100
AcDbEntity
  8
7
  6
Continuous
 62
     2
100
AcDbLine
 10
717.725
 20
521.0
 30
0.0
 11
717.725
 21
578.0
 31
0.0
  0
LINE
  5
254
330
1F
100
AcDbEntity
  8
7
  6
Continuous
 62
     2
100
AcDbLine
 10
717.725
 20
570.0
 30
0.0
 11
727.384258263
 21
567.411809549
 31
0.0
  0
LINE
  5
255
330
1F
100
AcDbEntity
  8
7
  6
Continuous
 62
     2
100
AcDbLine
 10
717.725
 20
570.0
 30
0.0
 11
727.384258263
 21
572.588190451
 31
0.0
  0
LWPOLYLINE
  5
257
330
1F
100
AcDbEntity
  8
7
  6
Continuous
 62
     2
100
AcDbPolyline
 90
     3
 70
   128
 43
0.0
 10
717.725
 20
570.0
 10
857.725
 20
570.0
 10
848.065741737
 20
572.588190451
  0
LINE
  5
258
330
1F
100
AcDbEntity
  8
7
  6
Continuous
 62
     2
100
AcDbLine
 10
857.725
 20
570.0
 30
0.0
 11
848.065741737
 21
567.411809549
 31
0.0
  0
LINE
  5
259
330
1F
100
AcDbEntity
  8
7
  6
Continuous
 62
     2
100
AcDbLine
 10
857.725
 20
521.0
 30
0.0
 11
857.725
 21
578.0
 31
0.0
  0
MTEXT
  5
25A
330
1F
100
AcDbEntity
  8
7
  6
Continuous
 62
     2
100
AcDbMText
 10
775.725
 20
574.0
 30
0.0
 40
12.0
 41
48.0
 71
     7
 72
     1
  1
\T1.167;\W0.600;１４０
  7
KANJI6
 73
     1
 44
1.0
  0
LINE
  5
25B
330
1F
100
AcDbEntity
  8
7
  6
Continuous
 62
     2
100
AcDbLine
 10
707.725
 20
544.0
 30
0.0
 11
707.725
 21
603.0
 31
0.0
  0
LINE
  5
25C
330
1F
100
AcDbEntity
  8
7
  6
Continuous
 62
     2
100
AcDbLine
 10
707.725
 20
595.0
 30
0.0
 11
717.384258263
 21
592.411809549
 31
0.0
  0
LINE
  5
25D
330
1F
100
AcDbEntity
  8
7
  6
Continuous
 62
     2
100
AcDbLine
 10
707.725
 20
595.0
 30
0.0
 11
717.384258263
 21
597.588190451
 31
0.0
  0
LWPOLYLINE
  5
25F
330
1F
100
AcDbEntity
  8
7
  6
Continuous
 62
     2
100
AcDbPolyline
 90
     3
 70
   128
 43
0.0
 10
707.725
 20
595.0
 10
867.725
 20
595.0
 10
858.065741737
 20
597.588190451
  0
LINE
  5
260
330
1F
100
AcDbEntity
  8
7
  6
Continuous
 62
     2
100
AcDbLine
 10
867.725
 20
595.0
 30
0.0
 11
858.065741737
 21
592.411809549
 31
0.0
  0
LINE
  5
261
330
1F
100
AcDbEntity
  8
7
  6
Continuous
 62
     2
100
AcDbLine
 10
867.725
 20
544.0
 30
0.0
 11
867.725
 21
603.0
 31
0.0
  0
MTEXT
  5
262
330
1F
100
AcDbEntity
  8
7
  6
Continuous
 62
     2
100
AcDbMText
 10
775.725
 20
599.0
 30
0.0
 40
12.0
 41
48.0
 71
     7
 72
     1
  1
\T1.167;\W0.600;１６０
  7
KANJI6
 73
     1
 44
1.0
  0
LINE
  5
263
330
1F
100
AcDbEntity
  8
7
  6
Continuous
 62
     2
100
AcDbLine
 10
853.725
 20
525.0
 30
0.0
 11
900.725
 21
525.0
 31
0.0
  0
LINE
  5
264
330
1F
100
AcDbEntity
  8
7
  6
Continuous
 62
     2
100
AcDbLine
 10
892.725
 20
525.0
 30
0.0
 11
890.136809549
 21
515.340741737
 31
0.0
  0
LINE
  5
265
330
1F
100
AcDbEntity
  8
7
  6
Continuous
 62
     2
100
AcDbLine
 10
892.725
 20
525.0
 30
0.0
 11
895.313190451
 21
515.340741737
 31
0.0
  0
LWPOLYLINE
  5
267
330
1F
100
AcDbEntity
  8
7
  6
Continuous
 62
     2
100
AcDbPolyline
 90
     3
 70
   128
 43
0.0
 10
892.725
 20
525.0
 10
892.725
 20
425.0
 10
895.313190451
 20
434.659258263
  0
LINE
  5
268
330
1F
100
AcDbEntity
  8
7
  6
Continuous
 62
     2
100
AcDbLine
 10
892.725
 20
425.0
 30
0.0
 11
890.136809549
 21
434.659258263
 31
0.0
  0
LINE
  5
269
330
1F
100
AcDbEntity
  8
7
  6
Continuous
 62
     2
100
AcDbLine
 10
853.725
 20
425.0
 30
0.0
 11
900.725
 21
425.0
 31
0.0
  0
MTEXT
  5
26A
330
1F
100
AcDbEntity
  8
7
  6
Continuous
 62
     2
100
AcDbMText
 10
888.725
 20
463.0
 30
0.0
 40
12.0
 41
48.0
 71
     7
 72
     1
  1
\T1.167;\W0.600;１００
  7
KANJI6
 11
0.0
 21
1.0
 31
0.0
 73
     1
 44
1.0
  0
LINE
  5
26B
330
1F
100
AcDbEntity
  8
7
  6
Continuous
 62
     2
100
AcDbLine
 10
892.725
 20
425.0
 30
0.0
 11
890.136809549
 21
415.340741737
 31
0.0
  0
LINE
  5
26C
330
1F
100
AcDbEntity
  8
7
  6
Continuous
 62
     2
100
AcDbLine
 10
892.725
 20
425.0
 30
0.0
 11
895.313190451
 21
415.340741737
 31
0.0
  0
LWPOLYLINE
  5
26E
330
1F
100
AcDbEntity
  8
7
  6
Continuous
 62
     2
100
AcDbPolyline
 90
     3
 70
   128
 43
0.0
 10
892.725
 20
425.0
 10
892.725
 20
325.0
 10
895.313190451
 20
334.659258263
  0
LINE
  5
26F
330
1F
100
AcDbEntity
  8
7
  6
Continuous
 62
     2
100
AcDbLine
 10
892.725
 20
325.0
 30
0.0
 11
890.136809549
 21
334.659258263
 31
0.0
  0
LINE
  5
270
330
1F
100
AcDbEntity
  8
7
  6
Continuous
 62
     2
100
AcDbLine
 10
853.725
 20
325.0
 30
0.0
 11
900.725
 21
325.0
 31
0.0
  0
MTEXT
  5
271
330
1F
100
AcDbEntity
  8
7
  6
Continuous
 62
     2
100
AcDbMText
 10
888.725
 20
363.0
 30
0.0
 40
12.0
 41
48.0
 71
     7
 72
     1
  1
\T1.167;\W0.600;１００
  7
KANJI6
 11
0.0
 21
1.0
 31
0.0
 73
     1
 44
1.0
  0
LINE
  5
272
330
1F
100
AcDbEntity
  8
7
  6
Continuous
 62
     2
100
AcDbLine
 10
866.725
 20
305.0
 30
0.0
 11
925.725
 21
305.0
 31
0.0
  0
LINE
  5
273
330
1F
100
AcDbEntity
  8
7
  6
Continuous
 62
     2
100
AcDbLine
 10
917.725
 20
305.0
 30
0.0
 11
920.313190451
 21
314.659258263
 31
0.0
  0
LINE
  5
274
330
1F
100
AcDbEntity
  8
7
  6
Continuous
 62
     2
100
AcDbLine
 10
917.725
 20
305.0
 30
0.0
 11
915.136809549
 21
314.659258263
 31
0.0
  0
LWPOLYLINE
  5
276
330
1F
100
AcDbEntity
  8
7
  6
Continuous
 62
     2
100
AcDbPolyline
 90
     3
 70
   128
 43
0.0
 10
917.725
 20
305.0
 10
917.725
 20
545.0
 10
915.136809549
 20
535.340741737
  0
LINE
  5
277
330
1F
100
AcDbEntity
  8
7
  6
Continuous
 62
     2
100
AcDbLine
 10
917.725
 20
545.0
 30
0.0
 11
920.313190451
 21
535.340741737
 31
0.0
  0
LINE
  5
278
330
1F
100
AcDbEntity
  8
7
  6
Continuous
 62
     2
100
AcDbLine
 10
866.725
 20
545.0
 30
0.0
 11
925.725
 21
545.0
 31
0.0
  0
MTEXT
  5
279
330
1F
100
AcDbEntity
  8
7
  6
Continuous
 62
     2
100
AcDbMText
 10
913.725
 20
413.0
 30
0.0
 40
12.0
 41
48.0
 71
     7
 72
     1
  1
\T1.167;\W0.600;２４０
  7
KANJI6
 11
0.0
 21
1.0
 31
0.0
 73
     1
 44
1.0
  0
LINE
  5
27A
330
1F
100
AcDbEntity
  8
7
  6
Continuous
 62
     2
100
AcDbLine
 10
917.725
 20
305.0
 30
0.0
 11
915.136809549
 21
295.340741737
 31
0.0
  0
LINE
  5
27B
330
1F
100
AcDbEntity
  8
7
  6
Continuous
 62
     2
100
AcDbLine
 10
917.725
 20
305.0
 30
0.0
 11
920.313190451
 21
295.340741737
 31
0.0
  0
LWPOLYLINE
  5
27D
330
1F
100
AcDbEntity
  8
7
  6
Continuous
 62
     2
100
AcDbPolyline
 90
     3
 70
   128
 43
0.0
 10
917.725
 20
305.0
 10
917.725
 20
270.30151519
 10
920.313190451
 20
279.960773453
  0
LINE
  5
27E
330
1F
100
AcDbEntity
  8
7
  6
Continuous
 62
     2
100
AcDbLine
 10
917.725
 20
270.30151519
 30
0.0
 11
915.136809549
 21
279.960773453
 31
0.0
  0
LINE
  5
27F
330
1F
100
AcDbEntity
  8
7
  6
Continuous
 62
     2
100
AcDbLine
 10
751.725
 20
270.30151519
 30
0.0
 11
925.725
 21
270.30151519
 31
0.0
  0
MTEXT
  5
280
330
1F
100
AcDbEntity
  8
7
  6
Continuous
 62
     2
100
AcDbMText
 10
913.725
 20
271.450757595
 30
0.0
 40
12.0
 41
64.8
 71
     7
 72
     1
  1
\T1.167;\W0.600;（３５）
  7
KANJI6
 11
0.0
 21
1.0
 31
0.0
 73
     1
 44
1.0
  0
LINE
  5
281
330
1F
100
AcDbEntity
  8
7
  6
Continuous
 62
     2
100
AcDbLine
 10
856.555
 20
318.66
 30
0.0
 11
850.81528287
 21
310.471248736
 31
0.0
  0
LINE
  5
282
330
1F
100
AcDbEntity
  8
7
  6
Continuous
 62
     2
100
AcDbLine
 10
856.555
 20
318.66
 30
0.0
 11
855.678634787
 21
308.698474815
 31
0.0
  0
LWPOLYLINE
  5
284
330
1F
100
AcDbEntity
  8
7
  6
Continuous
 62
     2
100
AcDbPolyline
 90
     3
 70
   128
 43
0.0
 10
856.555
 20
318.66
 10
825.695
 20
234.0
 10
781.895
 20
234.0
  0
MTEXT
  5
285
330
1F
100
AcDbEntity
  8
7
  6
Continuous
 62
     2
100
AcDbMText
 10
781.895
 20
238.0
 30
0.0
 40
12.0
 41
87.6
 71
     7
 72
     1
  1
\T1.111;\W0.557;６－φ９．５
  7
KANJI7
 73
     1
 44
1.0
  0
LINE
  5
286
330
1F
100
AcDbEntity
  8
7
  6
Continuous
 62
     2
100
AcDbLine
 10
707.725
 20
276.301528404
 30
0.0
 11
707.725
 21
237.30151519
 31
0.0
  0
LINE
  5
287
330
1F
100
AcDbEntity
  8
7
  6
Continuous
 62
     2
100
AcDbLine
 10
707.725
 20
245.30151519
 30
0.0
 11
717.384258263
 21
242.713324739
 31
0.0
  0
LINE
  5
288
330
1F
100
AcDbEntity
  8
7
  6
Continuous
 62
     2
100
AcDbLine
 10
707.725
 20
245.30151519
 30
0.0
 11
717.384258263
 21
247.889705641
 31
0.0
  0
LWPOLYLINE
  5
28A
330
1F
100
AcDbEntity
  8
7
  6
Continuous
 62
     2
100
AcDbPolyline
 90
     3
 70
   128
 43
0.0
 10
707.725
 20
245.30151519
 10
757.725
 20
245.30151519
 10
748.065741737
 20
247.889705641
  0
LINE
  5
28B
330
1F
100
AcDbEntity
  8
7
  6
Continuous
 62
     2
100
AcDbLine
 10
757.725
 20
245.30151519
 30
0.0
 11
748.065741737
 21
242.713324739
 31
0.0
  0
LINE
  5
28C
330
1F
100
AcDbEntity
  8
7
  6
Continuous
 62
     2
100
AcDbLine
 10
757.725
 20
276.301519455
 30
0.0
 11
757.725
 21
237.30151519
 31
0.0
  0
MTEXT
  5
28D
330
1F
100
AcDbEntity
  8
7
  6
Continuous
 62
     2
100
AcDbMText
 10
724.925
 20
249.30151519
 30
0.0
 40
12.0
 41
31.2
 71
     7
 72
     1
  1
\T1.167;\W0.600;５０
  7
KANJI6
 73
     1
 44
1.0
  0
LINE
  5
28E
330
1F
100
AcDbEntity
  8
7
  6
Continuous
 62
     2
100
AcDbLine
 10
723.035
 20
279.511519455
 30
0.0
 11
715.677087001
 21
272.739435854
 31
0.0
  0
LINE
  5
28F
330
1F
100
AcDbEntity
  8
7
  6
Continuous
 62
     2
100
AcDbLine
 10
723.035
 20
279.511519455
 30
0.0
 11
720.048902225
 21
269.967766521
 31
0.0
  0
MTEXT
  5
290
330
1F
100
AcDbEntity
  8
7
  6
Continuous
 62
     2
100
AcDbMText
 10
696.585
 20
218.131519455
 30
0.0
 40
12.0
 41
165.6
 71
     7
 72
     1
  1
\T1.111;\W0.900;ワイヤー通し穴
  7
KANJI7
 73
     1
 44
1.0
  0
MTEXT
  5
291
330
1F
100
AcDbEntity
  8
7
  6
Continuous
 62
     2
100
AcDbMText
 10
696.585
 20
198.131519455
 30
0.0
 40
12.0
 41
48.0
 71
     7
 72
     1
  1
\T1.111;\W0.621;φ２０
  7
KANJI7
 73
     1
 44
1.0
  0
LINE
  5
292
330
1F
100
AcDbEntity
  8
7
  6
Continuous
 62
     2
100
AcDbLine
 10
681.585
 20
214.131519455
 30
0.0
 11
779.385
 21
214.131519455
 31
0.0
  0
LINE
  5
293
330
1F
100
AcDbEntity
  8
7
  6
Continuous
 62
     2
100
AcDbLine
 10
723.035
 20
279.511519455
 30
0.0
 11
681.585
 21
214.131519455
 31
0.0
  0
LINE
  5
294
330
1F
100
AcDbEntity
  8
0
  6
Continuous
 62
     1
100
AcDbLine
 10
352.515
 20
569.5
 30
0.0
 11
377.615
 21
569.5
 31
0.0
  0
LINE
  5
295
330
1F
100
AcDbEntity
  8
0
  6
Continuous
 62
     1
100
AcDbLine
 10
322.515
 20
569.5
 30
0.0
 11
297.415
 21
569.5
 31
0.0
  0
LINE
  5
296
330
1F
100
AcDbEntity
  8
0
  6
Continuous
 62
     1
100
AcDbLine
 10
352.515
 20
280.5
 30
0.0
 11
377.615
 21
280.5
 31
0.0
  0
LINE
  5
297
330
1F
100
AcDbEntity
  8
0
  6
Continuous
 62
     1
100
AcDbLine
 10
322.515
 20
280.5
 30
0.0
 11
297.415
 21
280.5
 31
0.0
  0
ARC
  5
298
330
1F
100
AcDbEntity
  8
0
  6
Continuous
 62
     1
100
AcDbCircle
 10
377.615
 20
529.5
 30
0.0
 40
5.0
100
AcDbArc
 50
270.0
 51
0.0
  0
LINE
  5
299
330
1F
100
AcDbEntity
  8
0
  6
Continuous
 62
     1
100
AcDbLine
 10
352.515
 20
524.5
 30
0.0
 11
377.615
 21
524.5
 31
0.0
  0
ARC
  5
29A
330
1F
100
AcDbEntity
  8
0
  6
Continuous
 62
     1
100
AcDbCircle
 10
297.415
 20
529.5
 30
0.0
 40
5.0
100
AcDbArc
 50
180.0
 51
270.0
  0
LINE
  5
29B
330
1F
100
AcDbEntity
  8
0
  6
Continuous
 62
     1
100
AcDbLine
 10
322.515
 20
524.5
 30
0.0
 11
297.415
 21
524.5
 31
0.0
  0
ARC
  5
29C
330
1F
100
AcDbEntity
  8
0
  6
Continuous
 62
     1
100
AcDbCircle
 10
377.615
 20
320.5
 30
0.0
 40
5.0
100
AcDbArc
 50
0.0
 51
90.0
  0
LINE
  5
29D
330
1F
100
AcDbEntity
  8
0
  6
Continuous
 62
     1
100
AcDbLine
 10
352.515
 20
325.5
 30
0.0
 11
377.615
 21
325.5
 31
0.0
  0
ARC
  5
29E
330
1F
100
AcDbEntity
  8
0
  6
Continuous
 62
     1
100
AcDbCircle
 10
297.415
 20
320.5
 30
0.0
 40
5.0
100
AcDbArc
 50
90.0
 51
180.0
  0
LINE
  5
29F
330
1F
100
AcDbEntity
  8
0
  6
Continuous
 62
     1
100
AcDbLine
 10
322.515
 20
325.5
 30
0.0
 11
297.415
 21
325.5
 31
0.0
  0
LINE
  5
2A0
330
1F
100
AcDbEntity
  8
0
  6
Continuous
 62
     1
100
AcDbLine
 10
355.115
 20
524.5
 30
0.0
 11
355.115
 21
325.5
 31
0.0
  0
LINE
  5
2A1
330
1F
100
AcDbEntity
  8
0
  6
Continuous
 62
     1
100
AcDbLine
 10
319.915
 20
524.5
 30
0.0
 11
319.915
 21
325.5
 31
0.0
  0
LINE
  5
2A2
330
1F
100
AcDbEntity
  8
0
  6
Continuous
 62
     1
100
AcDbLine
 10
352.515
 20
569.5
 30
0.0
 11
352.515
 21
280.5
 31
0.0
  0
LINE
  5
2A3
330
1F
100
AcDbEntity
  8
0
  6
Continuous
 62
     1
100
AcDbLine
 10
322.515
 20
569.5
 30
0.0
 11
322.515
 21
280.5
 31
0.0
  0
LWPOLYLINE
  5
2A6
330
1F
100
AcDbEntity
  8
0
  6
Continuous
 62
     1
100
AcDbPolyline
 90
     3
 70
   128
 43
0.0
 10
292.415
 20
320.5
 42
0.0
 10
292.415
 20
285.50001079
 42
0.414214194
 10
297.415
 20
280.5
 42
0.0
  0
ARC
  5
2A7
330
1F
100
AcDbEntity
  8
0
  6
Continuous
 62
     1
100
AcDbCircle
 10
377.615
 20
285.5
 30
0.0
 40
5.0
100
AcDbArc
 50
270.0
 51
0.000123638
  0
LINE
  5
2A8
330
1F
100
AcDbEntity
  8
0
  6
Continuous
 62
     1
100
AcDbLine
 10
382.615
 20
320.5
 30
0.0
 11
382.615
 21
285.50001079
 31
0.0
  0
ARC
  5
2A9
330
1F
100
AcDbEntity
  8
0
  6
Continuous
 62
     1
100
AcDbCircle
 10
297.415
 20
564.5
 30
0.0
 40
5.0
100
AcDbArc
 50
90.0
 51
180.0
  0
LINE
  5
2AA
330
1F
100
AcDbEntity
  8
0
  6
Continuous
 62
     1
100
AcDbLine
 10
292.415
 20
529.5
 30
0.0
 11
292.415
 21
564.5
 31
0.0
  0
ARC
  5
2AB
330
1F
100
AcDbEntity
  8
0
  6
Continuous
 62
     1
100
AcDbCircle
 10
377.615
 20
564.5
 30
0.0
 40
5.0
100
AcDbArc
 50
0.000123638
 51
90.0
  0
LINE
  5
2AC
330
1F
100
AcDbEntity
  8
0
  6
Continuous
 62
     1
100
AcDbLine
 10
382.615
 20
529.5
 30
0.0
 11
382.615
 21
564.50001079
 31
0.0
  0
LINE
  5
2AD
330
1F
100
AcDbEntity
  8
0
  6
LTYPE2
 62
     2
100
AcDbLine
 10
355.115
 20
524.5
 30
0.0
 11
355.115
 21
569.5
 31
0.0
  0
LINE
  5
2AE
330
1F
100
AcDbEntity
  8
0
  6
LTYPE2
 62
     2
100
AcDbLine
 10
319.915
 20
524.5
 30
0.0
 11
319.915
 21
569.5
 31
0.0
  0
LINE
  5
2AF
330
1F
100
AcDbEntity
  8
0
  6
LTYPE2
 62
     2
100
AcDbLine
 10
355.115
 20
325.5
 30
0.0
 11
355.115
 21
280.5
 31
0.0
  0
LWPOLYLINE
  5
2B1
330
1F
100
AcDbEntity
  8
0
  6
Continuous
 62
     1
100
AcDbPolyline
 90
     4
 70
   129
 43
0.0
 10
305.765
 20
553.75
 42
1.0
 10
299.265
 20
553.75
 42
0.0
 10
299.265
 20
550.25
 42
1.0
 10
305.765
 20
550.25
 42
0.0
  0
LWPOLYLINE
  5
2B4
330
1F
100
AcDbEntity
  8
0
  6
Continuous
 62
     1
100
AcDbPolyline
 90
     4
 70
   129
 43
0.0
 10
375.765
 20
553.75
 42
1.0
 10
369.265
 20
553.75
 42
0.0
 10
369.265
 20
550.25
 42
1.0
 10
375.765
 20
550.25
 42
0.0
  0
LWPOLYLINE
  5
2B7
330
1F
100
AcDbEntity
  8
0
  6
Continuous
 62
     1
100
AcDbPolyline
 90
     4
 70
   129
 43
0.0
 10
305.765
 20
299.75
 42
1.0
 10
299.265
 20
299.75
 42
0.0
 10
299.265
 20
296.25
 42
1.0
 10
305.765
 20
296.25
 42
0.0
  0
LWPOLYLINE
  5
2BA
330
1F
100
AcDbEntity
  8
0
  6
Continuous
 62
     1
100
AcDbPolyline
 90
     4
 70
   129
 43
0.0
 10
375.765
 20
299.75
 42
1.0
 10
369.265
 20
299.75
 42
0.0
 10
369.265
 20
296.25
 42
1.0
 10
375.765
 20
296.25
 42
0.0
  0
LINE
  5
2BC
330
1F
100
AcDbEntity
  8
0
  6
Continuous
 62
     1
100
AcDbLine
 10
352.515
 20
527.0
 30
0.0
 11
322.515
 21
527.0
 31
0.0
  0
LINE
  5
2BD
330
1F
100
AcDbEntity
  8
0
  6
Continuous
 62
     1
100
AcDbLine
 10
352.515
 20
567.0
 30
0.0
 11
322.515
 21
567.0
 31
0.0
  0
LINE
  5
2BE
330
1F
100
AcDbEntity
  8
0
  6
LTYPE2
 62
     2
100
AcDbLine
 10
324.515
 20
527.0
 30
0.0
 11
324.515
 21
567.0
 31
0.0
  0
LINE
  5
2BF
330
1F
100
AcDbEntity
  8
0
  6
LTYPE2
 62
     2
100
AcDbLine
 10
350.515
 20
527.0
 30
0.0
 11
350.515
 21
567.0
 31
0.0
  0
LINE
  5
2C0
330
1F
100
AcDbEntity
  8
0
  6
Continuous
 62
     1
100
AcDbLine
 10
352.515
 20
323.0
 30
0.0
 11
322.515
 21
323.0
 31
0.0
  0
LINE
  5
2C1
330
1F
100
AcDbEntity
  8
0
  6
Continuous
 62
     1
100
AcDbLine
 10
352.515
 20
283.0
 30
0.0
 11
322.515
 21
283.0
 31
0.0
  0
LINE
  5
2C2
330
1F
100
AcDbEntity
  8
0
  6
LTYPE2
 62
     2
100
AcDbLine
 10
350.515
 20
323.0
 30
0.0
 11
350.515
 21
283.0
 31
0.0
  0
LINE
  5
2C3
330
1F
100
AcDbEntity
  8
0
  6
Continuous
 62
     1
100
AcDbLine
 10
369.265
 20
553.75
 30
0.0
 11
369.265
 21
550.25
 31
0.0
  0
LINE
  5
2C4
330
1F
100
AcDbEntity
  8
0
  6
Continuous
 62
     1
100
AcDbLine
 10
375.765
 20
550.25
 30
0.0
 11
375.765
 21
553.75
 31
0.0
  0
LINE
  5
2C5
330
1F
100
AcDbEntity
  8
0
  6
Continuous
 62
     1
100
AcDbLine
 10
369.265
 20
299.75
 30
0.0
 11
369.265
 21
296.25
 31
0.0
  0
LINE
  5
2C6
330
1F
100
AcDbEntity
  8
0
  6
Continuous
 62
     1
100
AcDbLine
 10
375.765
 20
296.25
 30
0.0
 11
375.765
 21
299.75
 31
0.0
  0
LINE
  5
2C7
330
1F
100
AcDbEntity
  8
0
  6
Continuous
 62
     1
100
AcDbLine
 10
299.265
 20
299.75
 30
0.0
 11
299.265
 21
296.25
 31
0.0
  0
LINE
  5
2C8
330
1F
100
AcDbEntity
  8
0
  6
Continuous
 62
     1
100
AcDbLine
 10
305.765
 20
296.25
 30
0.0
 11
305.765
 21
299.75
 31
0.0
  0
LINE
  5
2CA
330
1F
100
AcDbEntity
  8
0
  6
LTYPE3
 62
     2
100
AcDbLine
 10
307.465
 20
552.0
 30
0.0
 11
297.565
 21
552.0
 31
0.0
  0
LINE
  5
2CB
330
1F
100
AcDbEntity
  8
0
  6
LTYPE3
 62
     2
100
AcDbLine
 10
302.515
 20
557.81
 30
0.0
 11
302.515
 21
546.19
 31
0.0
  0
LINE
  5
2CC
330
1F
100
AcDbEntity
  8
0
  6
LTYPE3
 62
     2
100
AcDbLine
 10
372.515
 20
557.81
 30
0.0
 11
372.515
 21
546.19
 31
0.0
  0
LINE
  5
2CD
330
1F
100
AcDbEntity
  8
0
  6
LTYPE3
 62
     2
100
AcDbLine
 10
372.515
 20
303.81
 30
0.0
 11
372.515
 21
292.19
 31
0.0
  0
LINE
  5
2CE
330
1F
100
AcDbEntity
  8
0
  6
LTYPE3
 62
     2
100
AcDbLine
 10
302.515
 20
303.81
 30
0.0
 11
302.515
 21
292.19
 31
0.0
  0
LINE
  5
2CF
330
1F
100
AcDbEntity
  8
0
  6
LTYPE3
 62
     2
100
AcDbLine
 10
377.465
 20
552.0
 30
0.0
 11
367.565
 21
552.0
 31
0.0
  0
LINE
  5
2D0
330
1F
100
AcDbEntity
  8
0
  6
LTYPE3
 62
     2
100
AcDbLine
 10
377.465
 20
298.0
 30
0.0
 11
367.565
 21
298.0
 31
0.0
  0
LINE
  5
2D1
330
1F
100
AcDbEntity
  8
0
  6
LTYPE3
 62
     2
100
AcDbLine
 10
307.465
 20
298.0
 30
0.0
 11
297.565
 21
298.0
 31
0.0
  0
LINE
  5
2D2
330
1F
100
AcDbEntity
  8
7
  6
Continuous
 62
     2
100
AcDbLine
 10
381.465
 20
552.0
 30
0.0
 11
415.615
 21
552.0
 31
0.0
  0
LINE
  5
2D3
330
1F
100
AcDbEntity
  8
7
  6
Continuous
 62
     2
100
AcDbLine
 10
407.615
 20
552.0
 30
0.0
 11
405.026809549
 21
542.340741737
 31
0.0
  0
LINE
  5
2D4
330
1F
100
AcDbEntity
  8
7
  6
Continuous
 62
     2
100
AcDbLine
 10
407.615
 20
552.0
 30
0.0
 11
410.203190451
 21
542.340741737
 31
0.0
  0
LWPOLYLINE
  5
2D6
330
1F
100
AcDbEntity
  8
7
  6
Continuous
 62
     2
100
AcDbPolyline
 90
     3
 70
   128
 43
0.0
 10
407.615
 20
552.0
 10
407.615
 20
298.0
 10
410.203190451
 20
307.659258263
  0
LINE
  5
2D7
330
1F
100
AcDbEntity
  8
7
  6
Continuous
 62
     2
100
AcDbLine
 10
407.615
 20
298.0
 30
0.0
 11
405.026809549
 21
307.659258263
 31
0.0
  0
LINE
  5
2D8
330
1F
100
AcDbEntity
  8
7
  6
Continuous
 62
     2
100
AcDbLine
 10
381.465
 20
298.0
 30
0.0
 11
415.615
 21
298.0
 31
0.0
  0
MTEXT
  5
2D9
330
1F
100
AcDbEntity
  8
7
  6
Continuous
 62
     2
100
AcDbMText
 10
403.615
 20
413.0
 30
0.0
 40
12.0
 41
48.0
 71
     7
 72
     1
  1
\T1.167;\W0.600;２５４
  7
KANJI6
 11
0.0
 21
1.0
 31
0.0
 73
     1
 44
1.0
  0
LINE
  5
2DA
330
1F
100
AcDbEntity
  8
7
  6
Continuous
 62
     2
100
AcDbLine
 10
293.415
 20
569.5
 30
0.0
 11
259.415
 21
569.5
 31
0.0
  0
LINE
  5
2DB
330
1F
100
AcDbEntity
  8
7
  6
Continuous
 62
     2
100
AcDbLine
 10
267.415
 20
569.5
 30
0.0
 11
264.826809549
 21
559.840741737
 31
0.0
  0
LINE
  5
2DC
330
1F
100
AcDbEntity
  8
7
  6
Continuous
 62
     2
100
AcDbLine
 10
267.415
 20
569.5
 30
0.0
 11
270.003190451
 21
559.840741737
 31
0.0
  0
LWPOLYLINE
  5
2DE
330
1F
100
AcDbEntity
  8
7
  6
Continuous
 62
     2
100
AcDbPolyline
 90
     3
 70
   128
 43
0.0
 10
267.415
 20
569.5
 10
267.415
 20
524.5
 10
270.003190451
 20
534.159258263
  0
LINE
  5
2DF
330
1F
100
AcDbEntity
  8
7
  6
Continuous
 62
     2
100
AcDbLine
 10
267.415
 20
524.5
 30
0.0
 11
264.826809549
 21
534.159258263
 31
0.0
  0
LINE
  5
2E0
330
1F
100
AcDbEntity
  8
7
  6
Continuous
 62
     2
100
AcDbLine
 10
293.415
 20
524.5
 30
0.0
 11
259.415
 21
524.5
 31
0.0
  0
MTEXT
  5
2E1
330
1F
100
AcDbEntity
  8
7
  6
Continuous
 62
     2
100
AcDbMText
 10
263.415
 20
539.2
 30
0.0
 40
12.0
 41
31.2
 71
     7
 72
     1
  1
\T1.167;\W0.600;４５
  7
KANJI6
 11
0.0
 21
1.0
 31
0.0
 73
     1
 44
1.0
  0
LINE
  5
2E2
330
1F
100
AcDbEntity
  8
7
  6
Continuous
 62
     2
100
AcDbLine
 10
293.415
 20
325.5
 30
0.0
 11
259.415
 21
325.5
 31
0.0
  0
LINE
  5
2E3
330
1F
100
AcDbEntity
  8
7
  6
Continuous
 62
     2
100
AcDbLine
 10
267.415
 20
325.5
 30
0.0
 11
264.826809549
 21
315.840741737
 31
0.0
  0
LINE
  5
2E4
330
1F
100
AcDbEntity
  8
7
  6
Continuous
 62
     2
100
AcDbLine
 10
267.415
 20
325.5
 30
0.0
 11
270.003190451
 21
315.840741737
 31
0.0
  0
LWPOLYLINE
  5
2E6
330
1F
100
AcDbEntity
  8
7
  6
Continuous
 62
     2
100
AcDbPolyline
 90
     3
 70
   128
 43
0.0
 10
267.415
 20
325.5
 10
267.415
 20
280.5
 10
270.003190451
 20
290.159258263
  0
LINE
  5
2E7
330
1F
100
AcDbEntity
  8
7
  6
Continuous
 62
     2
100
AcDbLine
 10
267.415
 20
280.5
 30
0.0
 11
264.826809549
 21
290.159258263
 31
0.0
  0
LINE
  5
2E8
330
1F
100
AcDbEntity
  8
7
  6
Continuous
 62
     2
100
AcDbLine
 10
293.415
 20
280.5
 30
0.0
 11
259.415
 21
280.5
 31
0.0
  0
MTEXT
  5
2E9
330
1F
100
AcDbEntity
  8
7
  6
Continuous
 62
     2
100
AcDbMText
 10
263.415
 20
295.2
 30
0.0
 40
12.0
 41
31.2
 71
     7
 72
     1
  1
\T1.167;\W0.600;４５
  7
KANJI6
 11
0.0
 21
1.0
 31
0.0
 73
     1
 44
1.0
  0
LINE
  5
2EA
330
1F
100
AcDbEntity
  8
7
  6
Continuous
 62
     2
100
AcDbLine
 10
263.415
 20
280.5
 30
0.0
 11
234.415
 21
280.5
 31
0.0
  0
LINE
  5
2EB
330
1F
100
AcDbEntity
  8
7
  6
Continuous
 62
     2
100
AcDbLine
 10
242.415
 20
280.5
 30
0.0
 11
245.003190451
 21
290.159258263
 31
0.0
  0
LINE
  5
2EC
330
1F
100
AcDbEntity
  8
7
  6
Continuous
 62
     2
100
AcDbLine
 10
242.415
 20
280.5
 30
0.0
 11
239.826809549
 21
290.159258263
 31
0.0
  0
LWPOLYLINE
  5
2EE
330
1F
100
AcDbEntity
  8
7
  6
Continuous
 62
     2
100
AcDbPolyline
 90
     3
 70
   128
 43
0.0
 10
242.415
 20
280.5
 10
242.415
 20
569.5
 10
239.826809549
 20
559.840741737
  0
LINE
  5
2EF
330
1F
100
AcDbEntity
  8
7
  6
Continuous
 62
     2
100
AcDbLine
 10
242.415
 20
569.5
 30
0.0
 11
245.003190451
 21
559.840741737
 31
0.0
  0
LINE
  5
2F0
330
1F
100
AcDbEntity
  8
7
  6
Continuous
 62
     2
100
AcDbLine
 10
263.415
 20
569.5
 30
0.0
 11
234.415
 21
569.5
 31
0.0
  0
MTEXT
  5
2F1
330
1F
100
AcDbEntity
  8
7
  6
Continuous
 62
     2
100
AcDbMText
 10
238.415
 20
413.0
 30
0.0
 40
12.0
 41
48.0
 71
     7
 72
     1
  1
\T1.167;\W0.600;２８９
  7
KANJI6
 11
0.0
 21
1.0
 31
0.0
 73
     1
 44
1.0
  0
LINE
  5
2F2
330
1F
100
AcDbEntity
  8
7
  6
Continuous
 62
     2
100
AcDbLine
 10
302.515
 20
561.81
 30
0.0
 11
302.515
 21
602.5
 31
0.0
  0
LINE
  5
2F3
330
1F
100
AcDbEntity
  8
7
  6
Continuous
 62
     2
100
AcDbLine
 10
302.515
 20
594.5
 30
0.0
 11
312.174258263
 21
591.911809549
 31
0.0
  0
LINE
  5
2F4
330
1F
100
AcDbEntity
  8
7
  6
Continuous
 62
     2
100
AcDbLine
 10
302.515
 20
594.5
 30
0.0
 11
312.174258263
 21
597.088190451
 31
0.0
  0
LWPOLYLINE
  5
2F6
330
1F
100
AcDbEntity
  8
7
  6
Continuous
 62
     2
100
AcDbPolyline
 90
     3
 70
   128
 43
0.0
 10
302.515
 20
594.5
 10
372.515
 20
594.5
 10
362.855741737
 20
597.088190451
  0
LINE
  5
2F7
330
1F
100
AcDbEntity
  8
7
  6
Continuous
 62
     2
100
AcDbLine
 10
372.515
 20
594.5
 30
0.0
 11
362.855741737
 21
591.911809549
 31
0.0
  0
LINE
  5
2F8
330
1F
100
AcDbEntity
  8
7
  6
Continuous
 62
     2
100
AcDbLine
 10
372.515
 20
561.81
 30
0.0
 11
372.515
 21
602.5
 31
0.0
  0
MTEXT
  5
2F9
330
1F
100
AcDbEntity
  8
7
  6
Continuous
 62
     2
100
AcDbMText
 10
329.715
 20
598.5
 30
0.0
 40
12.0
 41
31.2
 71
     7
 72
     1
  1
\T1.167;\W0.600;７０
  7
KANJI6
 73
     1
 44
1.0
  0
LINE
  5
2FA
330
1F
100
AcDbEntity
  8
7
  6
Continuous
 62
     2
100
AcDbLine
 10
292.415
 20
568.5
 30
0.0
 11
292.415
 21
627.5
 31
0.0
  0
LINE
  5
2FB
330
1F
100
AcDbEntity
  8
7
  6
Continuous
 62
     2
100
AcDbLine
 10
292.415
 20
619.5
 30
0.0
 11
302.074258263
 21
616.911809549
 31
0.0
  0
LINE
  5
2FC
330
1F
100
AcDbEntity
  8
7
  6
Continuous
 62
     2
100
AcDbLine
 10
292.415
 20
619.5
 30
0.0
 11
302.074258263
 21
622.088190451
 31
0.0
  0
LWPOLYLINE
  5
2FE
330
1F
100
AcDbEntity
  8
7
  6
Continuous
 62
     2
100
AcDbPolyline
 90
     3
 70
   128
 43
0.0
 10
292.415
 20
619.5
 10
382.615
 20
619.5
 10
372.955741737
 20
622.088190451
  0
LINE
  5
2FF
330
1F
100
AcDbEntity
  8
7
  6
Continuous
 62
     2
100
AcDbLine
 10
382.615
 20
619.5
 30
0.0
 11
372.955741737
 21
616.911809549
 31
0.0
  0
LINE
  5
300
330
1F
100
AcDbEntity
  8
7
  6
Continuous
 62
     2
100
AcDbLine
 10
382.615
 20
568.500010789
 30
0.0
 11
382.615
 21
627.5
 31
0.0
  0
MTEXT
  5
301
330
1F
100
AcDbEntity
  8
7
  6
Continuous
 62
     2
100
AcDbMText
 10
321.315
 20
623.5
 30
0.0
 40
12.0
 41
64.8
 71
     7
 72
     1
  1
\T1.167;\W0.600;９０．２
  7
KANJI6
 73
     1
 44
1.0
  0
LINE
  5
302
330
1F
100
AcDbEntity
  8
7
  6
Continuous
 62
     2
100
AcDbLine
 10
305.845
 20
291.98
 30
0.0
 11
308.440354884
 21
282.322664289
 31
0.0
  0
LINE
  5
303
330
1F
100
AcDbEntity
  8
7
  6
Continuous
 62
     2
100
AcDbLine
 10
305.845
 20
291.98
 30
0.0
 11
312.921311117
 21
284.914179384
 31
0.0
  0
LWPOLYLINE
  5
305
330
1F
100
AcDbEntity
  8
7
  6
Continuous
 62
     2
100
AcDbPolyline
 90
     3
 70
   128
 43
0.0
 10
305.845
 20
291.98
 10
326.885
 20
255.6
 10
409.085
 20
255.6
  0
MTEXT
  5
306
330
1F
100
AcDbEntity
  8
7
  6
Continuous
 62
     2
100
AcDbMText
 10
326.885
 20
259.6
 30
0.0
 40
12.0
 41
164.4
 71
     7
 72
     1
  1
\T1.111;\W0.566;４－長丸６．．５＊１０
  7
KANJI7
 73
     1
 44
1.0
  0
LINE
  5
307
330
1F
100
AcDbEntity
  8
7
  6
Continuous
 62
     2
100
AcDbLine
 10
355.115
 20
425.0
 30
0.0
 11
364.774258263
 21
422.411809549
 31
0.0
  0
LINE
  5
308
330
1F
100
AcDbEntity
  8
7
  6
Continuous
 62
     2
100
AcDbLine
 10
355.115
 20
425.0
 30
0.0
 11
364.774258263
 21
427.588190451
 31
0.0
  0
LWPOLYLINE
  5
30A
330
1F
100
AcDbEntity
  8
7
  6
Continuous
 62
     2
100
AcDbPolyline
 90
     4
 70
   128
 43
0.0
 10
370.115
 20
425.0
 10
355.115
 20
425.0
 10
319.915
 20
425.0
 10
272.515
 20
425.0
  0
LINE
  5
30B
330
1F
100
AcDbEntity
  8
7
  6
Continuous
 62
     2
100
AcDbLine
 10
319.915
 20
425.0
 30
0.0
 11
310.255741737
 21
427.588190451
 31
0.0
  0
LINE
  5
30C
330
1F
100
AcDbEntity
  8
7
  6
Continuous
 62
     2
100
AcDbLine
 10
319.915
 20
425.0
 30
0.0
 11
310.255741737
 21
422.411809549
 31
0.0
  0
MTEXT
  5
30D
330
1F
100
AcDbEntity
  8
7
  6
Continuous
 62
     2
100
AcDbMText
 10
272.515
 20
429.0
 30
0.0
 40
12.0
 41
64.8
 71
     7
 72
     1
  1
\T1.167;\W0.600;３５．２
  7
KANJI6
 73
     1
 44
1.0
  0
LINE
  5
30E
330
1F
100
AcDbEntity
  8
0
  6
Continuous
 62
     1
100
AcDbLine
 10
479.325
 20
764.06
 30
0.0
 11
479.325
 21
739.16
 31
0.0
  0
LINE
  5
30F
330
1F
100
AcDbEntity
  8
0
  6
Continuous
 62
     1
100
AcDbLine
 10
476.725
 20
764.06
 30
0.0
 11
476.725
 21
739.16
 31
0.0
  0
LINE
  5
310
330
1F
100
AcDbEntity
  8
0
  6
Continuous
 62
     1
100
AcDbLine
 10
479.325
 20
764.06
 30
0.0
 11
476.725
 21
764.06
 31
0.0
  0
LINE
  5
311
330
1F
100
AcDbEntity
  8
0
  6
Continuous
 62
     1
100
AcDbLine
 10
479.325
 20
673.86
 30
0.0
 11
476.725
 21
673.86
 31
0.0
  0
LINE
  5
312
330
1F
100
AcDbEntity
  8
0
  6
Continuous
 62
     1
100
AcDbLine
 10
479.325
 20
673.86
 30
0.0
 11
479.325
 21
698.76
 31
0.0
  0
LINE
  5
313
330
1F
100
AcDbEntity
  8
0
  6
Continuous
 62
     1
100
AcDbLine
 10
476.725
 20
673.86
 30
0.0
 11
476.725
 21
698.76
 31
0.0
  0
CIRCLE
  5
314
330
1F
100
AcDbEntity
  8
0
  6
Continuous
 62
     1
100
AcDbCircle
 10
509.725
 20
303.0
 30
0.0
 40
10.0
  0
LINE
  5
315
330
1F
100
AcDbEntity
  8
4
  6
Continuous
 62
     1
100
AcDbLine
 10
707.725
 20
310.000007629
 30
0.0
 11
707.725
 21
280.301528405
 31
0.0
  0
LINE
  5
316
330
1F
100
AcDbEntity
  8
4
  6
Continuous
 62
     1
100
AcDbLine
 10
757.725
 20
305.0
 30
0.0
 11
757.725
 21
280.301519455
 31
0.0
  0
LINE
  5
317
330
1F
100
AcDbEntity
  8
4
  6
Continuous
 62
     1
100
AcDbLine
 10
757.725
 20
299.171572875
 30
0.0
 11
707.725
 21
299.171572875
 31
0.0
  0
ARC
  5
318
330
1F
100
AcDbEntity
  8
4
  6
Continuous
 62
     1
100
AcDbCircle
 10
717.725
 20
280.30151519
 30
0.0
 40
10.0
100
AcDbArc
 50
179.999924288
 51
270.000087426
  0
LINE
  5
319
330
1F
100
AcDbEntity
  8
4
  6
Continuous
 62
     1
100
AcDbLine
 10
747.725
 20
270.30151519
 30
0.0
 11
717.725015259
 21
270.30151519
 31
0.0
  0
ARC
  5
31A
330
1F
100
AcDbEntity
  8
4
  6
Continuous
 62
     1
100
AcDbCircle
 10
747.725
 20
280.30151519
 30
0.0
 40
10.0
100
AcDbArc
 50
270.0
 51
0.000024433
  0
ELLIPSE
  5
31B
330
1F
100
AcDbEntity
  8
4
  6
Continuous
 62
     1
100
AcDbEllipse
 10
732.725
 20
285.857864376
 30
0.0
 11
10.0
 21
0.0
 31
0.0
 40
0.707106781
 41
3.338988213
 42
6.183017886
  0
ELLIPSE
  5
31C
330
1F
100
AcDbEntity
  8
4
  6
Continuous
 62
     1
100
AcDbEllipse
 10
732.725
 20
284.443650814
 30
0.0
 11
10.0
 21
0.0
 31
0.0
 40
0.707106781
 41
0.0
 42
6.283185307
  0
CIRCLE
  5
31D
330
1F
100
AcDbEntity
  8
0
  6
Continuous
 62
     1
100
AcDbCircle
 10
534.281165274
 20
514.561529047
 30
0.0
 40
4.25
  0
CIRCLE
  5
31E
330
1F
100
AcDbEntity
  8
0
  6
Continuous
 62
     1
100
AcDbCircle
 10
546.776158173
 20
513.248252373
 30
0.0
 40
4.25
  0
CIRCLE
  5
31F
330
1F
100
AcDbEntity
  8
0
  6
Continuous
 62
     1
100
AcDbCircle
 10
550.376949315
 20
497.493279247
 30
0.0
 40
4.25
  0
CIRCLE
  5
320
330
1F
100
AcDbEntity
  8
0
  6
Continuous
 62
     1
100
AcDbCircle
 10
538.972196439
 20
499.096112736
 30
0.0
 40
4.25
  0
CIRCLE
  5
321
330
1F
100
AcDbEntity
  8
0
  6
Continuous
 62
     1
100
AcDbCircle
 10
527.483416956
 20
499.899486458
 30
0.0
 40
4.25
  0
LWPOLYLINE
  5
323
330
1F
100
AcDbEntity
  8
2
  6
LTYPE2
 62
     2
100
AcDbPolyline
 90
     6
 70
   129
 43
0.0
 10
530.385254038
 20
350.0
 10
526.055127019
 20
357.5
 10
517.394872981
 20
357.5
 10
513.064745962
 20
350.0
 10
517.394872981
 20
342.5
 10
526.055127019
 20
342.5
  0
LWPOLYLINE
  5
325
330
1F
100
AcDbEntity
  8
2
  6
LTYPE2
 62
     2
100
AcDbPolyline
 90
     6
 70
   129
 43
0.0
 10
530.385254038
 20
500.0
 10
526.055127019
 20
507.5
 10
517.394872981
 20
507.5
 10
513.064745962
 20
500.0
 10
517.394872981
 20
492.5
 10
526.055127019
 20
492.5
  0
LWPOLYLINE
  5
327
330
1F
100
AcDbEntity
  8
2
  6
LTYPE2
 62
     2
100
AcDbPolyline
 90
     6
 70
   129
 43
0.0
 10
530.385254038
 20
515.0
 10
526.055127019
 20
522.5
 10
517.394872981
 20
522.5
 10
513.064745962
 20
515.0
 10
517.394872981
 20
507.5
 10
526.055127019
 20
507.5
  0
CIRCLE
  5
328
330
1F
100
AcDbEntity
  8
2
  6
LTYPE2
 62
     2
100
AcDbCircle
 10
521.725
 20
500.0
 30
0.0
 40
4.0
  0
CIRCLE
  5
329
330
1F
100
AcDbEntity
  8
2
  6
LTYPE2
 62
     2
100
AcDbCircle
 10
521.725
 20
350.0
 30
0.0
 40
4.0
  0
LINE
  5
32A
330
1F
100
AcDbEntity
  8
4
  6
Continuous
 62
     1
100
AcDbLine
 10
559.454942315
 20
270.30151519
 30
0.0
 11
558.040728753
 21
271.715728753
 31
0.0
  0
LINE
  5
32B
330
1F
100
AcDbEntity
  8
4
  6
Continuous
 62
     1
100
AcDbLine
 10
586.325
 20
305.0
 30
0.0
 11
586.325
 21
300.828427125
 31
0.0
  0
ARC
  5
32C
330
1F
100
AcDbEntity
  8
4
  6
Continuous
 62
     1
100
AcDbCircle
 10
584.325
 20
300.828427125
 30
0.0
 40
2.0
100
AcDbArc
 50
315.0
 51
0.0
  0
LINE
  5
32D
330
1F
100
AcDbEntity
  8
4
  6
Continuous
 62
     1
100
AcDbLine
 10
588.325
 20
305.0
 30
0.0
 11
588.325
 21
300.828430141
 31
0.0
  0
ARC
  5
32E
330
1F
100
AcDbEntity
  8
4
  6
Continuous
 62
     1
100
AcDbCircle
 10
584.325
 20
300.828427125
 30
0.0
 40
4.0
100
AcDbArc
 50
315.000077275
 51
0.000043198
  0
LINE
  5
32F
330
1F
100
AcDbEntity
  8
4
  6
Continuous
 62
     1
100
AcDbLine
 10
585.739213562
 20
299.414213562
 30
0.0
 11
558.040728753
 21
271.715728753
 31
0.0
  0
LINE
  5
330
330
1F
100
AcDbEntity
  8
4
  6
Continuous
 62
     1
100
AcDbLine
 10
587.153430939
 20
298.000003815
 30
0.0
 11
559.454942315
 21
270.30151519
 31
0.0
  0
CIRCLE
  5
331
330
1F
100
AcDbEntity
  8
5
  6
Continuous
 62
     2
100
AcDbCircle
 10
521.725
 20
335.0
 30
0.0
 40
6.5
  0
LWPOLYLINE
  5
333
330
1F
100
AcDbEntity
  8
5
  6
Continuous
 62
     2
100
AcDbPolyline
 90
     6
 70
   129
 43
0.0
 10
525.525
 20
341.5
 10
517.925
 20
341.5
 10
514.225
 20
335.0
 10
517.925
 20
328.5
 10
525.525
 20
328.5
 10
529.225
 20
335.0
  0
CIRCLE
  5
334
330
1F
100
AcDbEntity
  8
5
  6
Continuous
 62
     2
100
AcDbCircle
 10
521.725
 20
335.0
 30
0.0
 40
7.7
  0
CIRCLE
  5
335
330
1F
100
AcDbEntity
  8
5
  6
Continuous
 62
     2
100
AcDbCircle
 10
521.725
 20
335.0
 30
0.0
 40
8.5
  0
LWPOLYLINE
  5
337
330
1F
100
AcDbEntity
  8
5
  6
Continuous
 62
     2
100
AcDbPolyline
 90
     3
 70
   128
 43
0.0
 10
517.925
 20
521.5
 10
514.225
 20
515.0
 10
517.925
 20
508.5
  0
LWPOLYLINE
  5
339
330
1F
100
AcDbEntity
  8
5
  6
Continuous
 62
     2
100
AcDbPolyline
 90
     3
 70
   128
 43
0.0
 10
525.525
 20
508.5
 10
529.225
 20
515.0
 10
525.525
 20
521.5
  0
CIRCLE
  5
33A
330
1F
100
AcDbEntity
  8
5
  6
Continuous
 62
     2
100
AcDbCircle
 10
521.725
 20
515.0
 30
0.0
 40
6.5
  0
LINE
  5
33B
330
1F
100
AcDbEntity
  8
5
  6
Continuous
 62
     2
100
AcDbLine
 10
525.525
 20
521.5
 30
0.0
 11
517.925
 21
521.5
 31
0.0
  0
LINE
  5
33C
330
1F
100
AcDbEntity
  8
5
  6
Continuous
 62
     2
100
AcDbLine
 10
517.925
 20
508.5
 30
0.0
 11
525.525
 21
508.5
 31
0.0
  0
CIRCLE
  5
33D
330
1F
100
AcDbEntity
  8
5
  6
Continuous
 62
     2
100
AcDbCircle
 10
521.725
 20
515.0
 30
0.0
 40
7.7
  0
CIRCLE
  5
33E
330
1F
100
AcDbEntity
  8
5
  6
Continuous
 62
     2
100
AcDbCircle
 10
521.725
 20
515.0
 30
0.0
 40
8.5
  0
LINE
  5
33F
330
1F
100
AcDbEntity
  8
4
  6
Continuous
 62
     1
100
AcDbLine
 10
558.040729016
 20
678.960018688
 30
0.0
 11
558.040729016
 21
648.96
 31
0.0
  0
ARC
  5
340
330
1F
100
AcDbEntity
  8
4
  6
Continuous
 62
     1
100
AcDbCircle
 10
568.040729016
 20
678.96
 30
0.0
 40
10.0
100
AcDbArc
 50
97.03048774
 51
179.999892927
  0
LINE
  5
341
330
1F
100
AcDbEntity
  8
4
  6
Continuous
 62
     1
100
AcDbLine
 10
584.325
 20
638.96
 30
0.0
 11
568.040734411
 21
638.96
 31
0.0
  0
ELLIPSE
  5
342
330
1F
100
AcDbEntity
  8
4
  6
Continuous
 62
     1
100
AcDbEllipse
 10
572.18286464
 20
663.96
 30
0.0
 11
0.0
 21
10.0
 31
0.0
 40
0.707106781
 41
0.0
 42
6.283185307
  0
ELLIPSE
  5
343
330
1F
100
AcDbEntity
  8
4
  6
Continuous
 62
     1
100
AcDbEllipse
 10
573.597078202
 20
663.96
 30
0.0
 11
0.0
 21
10.0
 31
0.0
 40
0.707106781
 41
0.19739556
 42
3.041425232
  0
ARC
  5
344
330
1F
100
AcDbEntity
  8
4
  6
Continuous
 62
     1
100
AcDbCircle
 10
568.040729016
 20
648.96
 30
0.0
 40
10.0
100
AcDbArc
 50
180.0
 51
270.00003091
  0
LINE
  5
345
330
1F
100
AcDbEntity
  8
3
  6
LTYPE2
 62
     2
100
AcDbLine
 10
767.725
 20
315.0
 30
0.0
 11
770.325
 21
315.0
 31
0.0
  0
LINE
  5
346
330
1F
100
AcDbEntity
  8
3
  6
LTYPE2
 62
     2
100
AcDbLine
 10
767.725
 20
311.8
 30
0.0
 11
767.725
 21
315.0
 31
0.0
  0
ARC
  5
347
330
1F
100
AcDbEntity
  8
3
  6
LTYPE2
 62
     2
100
AcDbCircle
 10
767.725
 20
315.0
 30
0.0
 40
2.6
100
AcDbArc
 50
0.0
 51
180.0
  0
LINE
  5
348
330
1F
100
AcDbEntity
  8
3
  6
LTYPE2
 62
     2
100
AcDbLine
 10
756.475
 20
315.0
 30
0.0
 11
765.125
 21
315.0
 31
0.0
  0
LINE
  5
349
330
1F
100
AcDbEntity
  8
4
  6
LTYPE2
 62
     2
100
AcDbLine
 10
757.725
 20
305.0
 30
0.0
 11
727.725
 21
545.0
 31
0.0
  0
LINE
  5
34A
330
1F
100
AcDbEntity
  8
4
  6
LTYPE2
 62
     2
100
AcDbLine
 10
762.841733278
 20
305.0
 30
0.0
 11
762.841733278
 21
385.0
 31
0.0
  0
LINE
  5
34B
330
1F
100
AcDbEntity
  8
3
  6
LTYPE2
 62
     2
100
AcDbLine
 10
807.725
 20
315.0
 30
0.0
 11
805.125
 21
315.0
 31
0.0
  0
LINE
  5
34C
330
1F
100
AcDbEntity
  8
3
  6
LTYPE2
 62
     2
100
AcDbLine
 10
807.725
 20
311.8
 30
0.0
 11
807.725
 21
315.0
 31
0.0
  0
ARC
  5
34D
330
1F
100
AcDbEntity
  8
3
  6
LTYPE2
 62
     2
100
AcDbCircle
 10
807.725
 20
315.0
 30
0.0
 40
2.6
100
AcDbArc
 50
0.0
 51
180.0
  0
LINE
  5
34E
330
1F
100
AcDbEntity
  8
3
  6
LTYPE2
 62
     2
100
AcDbLine
 10
818.975
 20
315.0
 30
0.0
 11
810.325
 21
315.0
 31
0.0
  0
LINE
  5
34F
330
1F
100
AcDbEntity
  8
4
  6
LTYPE2
 62
     2
100
AcDbLine
 10
817.725
 20
305.0
 30
0.0
 11
847.725
 21
545.0
 31
0.0
  0
LINE
  5
350
330
1F
100
AcDbEntity
  8
4
  6
LTYPE2
 62
     2
100
AcDbLine
 10
812.608266722
 20
305.0
 30
0.0
 11
812.608266722
 21
385.0
 31
0.0
  0
LINE
  5
351
330
1F
100
AcDbEntity
  8
3
  6
LTYPE2
 62
     2
100
AcDbLine
 10
767.725
 20
311.8
 30
0.0
 11
807.725
 21
311.8
 31
0.0
  0
LINE
  5
352
330
1F
100
AcDbEntity
  8
0
  6
LTYPE2
 62
     2
100
AcDbLine
 10
319.915
 20
325.5
 30
0.0
 11
319.915
 21
280.5
 31
0.0
  0
LINE
  5
353
330
1F
100
AcDbEntity
  8
0
  6
LTYPE2
 62
     2
100
AcDbLine
 10
324.515
 20
323.0
 30
0.0
 11
324.515
 21
283.0
 31
0.0
  0
LINE
  5
354
330
1F
100
AcDbEntity
  8
6
  6
LTYPE3
 62
     2
100
AcDbLine
 10
521.725
 20
335.0
 30
0.0
 11
521.725
 21
515.0
 31
0.0
  0
LINE
  5
355
330
1F
100
AcDbEntity
  8
6
  6
LTYPE3
 62
     2
100
AcDbLine
 10
550.376949315
 20
497.493279247
 30
0.0
 11
521.725
 21
335.0
 31
0.0
  0
LWPOLYLINE
  5
357
330
1F
100
AcDbEntity
  8
5
  6
Continuous
 62
     2
100
AcDbPolyline
 90
     4
 70
   129
 43
0.0
 10
513.225
 20
736.56
 10
530.225
 20
736.56
 10
530.225
 20
738.16
 10
513.225
 20
738.16
  0
LWPOLYLINE
  5
359
330
1F
100
AcDbEntity
  8
5
  6
Continuous
 62
     2
100
AcDbPolyline
 90
     4
 70
   129
 43
0.0
 10
529.425
 20
738.16
 10
529.425
 20
740.16
 10
514.025
 20
740.16
 10
514.025
 20
738.16
  0
LINE
  5
35A
330
1F
100
AcDbEntity
  8
5
  6
Continuous
 62
     2
100
AcDbLine
 10
514.225
 20
740.16
 30
0.0
 11
514.225
 21
744.76
 31
0.0
  0
LINE
  5
35B
330
1F
100
AcDbEntity
  8
5
  6
Continuous
 62
     2
100
AcDbLine
 10
529.225
 20
740.16
 30
0.0
 11
529.225
 21
744.76
 31
0.0
  0
LINE
  5
35C
330
1F
100
AcDbEntity
  8
5
  6
Continuous
 62
     2
100
AcDbLine
 10
525.525
 20
740.16
 30
0.0
 11
525.525
 21
744.76
 31
0.0
  0
LINE
  5
35D
330
1F
100
AcDbEntity
  8
5
  6
Continuous
 62
     2
100
AcDbLine
 10
517.925
 20
740.16
 30
0.0
 11
517.925
 21
744.76
 31
0.0
  0
LINE
  5
35E
330
1F
100
AcDbEntity
  8
5
  6
Continuous
 62
     2
100
AcDbLine
 10
516.025
 20
745.46
 30
0.0
 11
527.425
 21
745.46
 31
0.0
  0
ARC
  5
35F
330
1F
100
AcDbEntity
  8
5
  6
Continuous
 62
     2
100
AcDbCircle
 10
527.425
 20
742.66
 30
0.0
 40
2.8
100
AcDbArc
 50
48.5
 51
131.5
  0
ARC
  5
360
330
1F
100
AcDbEntity
  8
5
  6
Continuous
 62
     2
100
AcDbCircle
 10
521.725
 20
734.76
 30
0.0
 40
10.7
100
AcDbArc
 50
69.1
 51
110.9
  0
ARC
  5
361
330
1F
100
AcDbEntity
  8
5
  6
Continuous
 62
     2
100
AcDbCircle
 10
516.025
 20
742.66
 30
0.0
 40
2.8
100
AcDbArc
 50
48.5
 51
131.5
  0
LINE
  5
362
330
1F
100
AcDbEntity
  8
5
  6
Continuous
 62
     2
100
AcDbLine
 10
521.725
 20
740.16
 30
0.0
 11
522.879700538
 21
738.16
 31
0.0
  0
LINE
  5
363
330
1F
100
AcDbEntity
  8
5
  6
Continuous
 62
     2
100
AcDbLine
 10
521.725
 20
738.16
 30
0.0
 11
520.570299462
 21
740.16
 31
0.0
  0
LWPOLYLINE
  5
365
330
1F
100
AcDbEntity
  8
5
  6
Continuous
 62
     2
100
AcDbPolyline
 90
     4
 70
   129
 43
0.0
 10
530.225
 20
701.36
 10
513.225
 20
701.36
 10
513.225
 20
699.76
 10
530.225
 20
699.76
  0
LWPOLYLINE
  5
367
330
1F
100
AcDbEntity
  8
5
  6
Continuous
 62
     2
100
AcDbPolyline
 90
     4
 70
   129
 43
0.0
 10
514.025
 20
699.76
 10
514.025
 20
697.76
 10
529.425
 20
697.76
 10
529.425
 20
699.76
  0
LINE
  5
368
330
1F
100
AcDbEntity
  8
5
  6
Continuous
 62
     2
100
AcDbLine
 10
529.225
 20
697.76
 30
0.0
 11
529.225
 21
693.16
 31
0.0
  0
LINE
  5
369
330
1F
100
AcDbEntity
  8
5
  6
Continuous
 62
     2
100
AcDbLine
 10
514.225
 20
697.76
 30
0.0
 11
514.225
 21
693.16
 31
0.0
  0
LINE
  5
36A
330
1F
100
AcDbEntity
  8
5
  6
Continuous
 62
     2
100
AcDbLine
 10
517.925
 20
697.76
 30
0.0
 11
517.925
 21
693.16
 31
0.0
  0
LINE
  5
36B
330
1F
100
AcDbEntity
  8
5
  6
Continuous
 62
     2
100
AcDbLine
 10
525.525
 20
697.76
 30
0.0
 11
525.525
 21
693.16
 31
0.0
  0
LINE
  5
36C
330
1F
100
AcDbEntity
  8
5
  6
Continuous
 62
     2
100
AcDbLine
 10
527.425
 20
692.46
 30
0.0
 11
516.025
 21
692.46
 31
0.0
  0
ARC
  5
36D
330
1F
100
AcDbEntity
  8
5
  6
Continuous
 62
     2
100
AcDbCircle
 10
516.025
 20
695.26
 30
0.0
 40
2.8
100
AcDbArc
 50
228.5
 51
311.5
  0
ARC
  5
36E
330
1F
100
AcDbEntity
  8
5
  6
Continuous
 62
     2
100
AcDbCircle
 10
521.725
 20
703.16
 30
0.0
 40
10.7
100
AcDbArc
 50
249.1
 51
290.9
  0
ARC
  5
36F
330
1F
100
AcDbEntity
  8
5
  6
Continuous
 62
     2
100
AcDbCircle
 10
527.425
 20
695.26
 30
0.0
 40
2.8
100
AcDbArc
 50
228.5
 51
311.5
  0
LINE
  5
370
330
1F
100
AcDbEntity
  8
5
  6
Continuous
 62
     2
100
AcDbLine
 10
521.725
 20
697.76
 30
0.0
 11
520.570299462
 21
699.76
 31
0.0
  0
LINE
  5
371
330
1F
100
AcDbEntity
  8
5
  6
Continuous
 62
     2
100
AcDbLine
 10
521.725
 20
699.76
 30
0.0
 11
522.879700538
 21
697.76
 31
0.0
  0
ARC
  5
372
330
1F
100
AcDbEntity
  8
0
  6
Continuous
 62
     1
100
AcDbCircle
 10
481.925
 20
128.84
 30
0.0
 40
2.6
100
AcDbArc
 50
90.0
 51
180.0
  0
ARC
  5
373
330
1F
100
AcDbEntity
  8
0
  6
Continuous
 62
     1
100
AcDbCircle
 10
481.925
 20
128.84
 30
0.0
 40
5.2
100
AcDbArc
 50
90.0
 51
180.0
  0
ARC
  5
374
330
1F
100
AcDbEntity
  8
0
  6
Continuous
 62
     1
100
AcDbCircle
 10
481.925
 20
169.24
 30
0.0
 40
2.6
100
AcDbArc
 50
180.0
 51
270.0
  0
ARC
  5
375
330
1F
100
AcDbEntity
  8
0
  6
Continuous
 62
     1
100
AcDbCircle
 10
481.925
 20
169.24
 30
0.0
 40
5.2
100
AcDbArc
 50
180.0
 51
270.0
  0
LINE
  5
376
330
1F
100
AcDbEntity
  8
0
  6
Continuous
 62
     1
100
AcDbLine
 10
499.725
 20
136.04
 30
0.0
 11
499.725
 21
134.04
 31
0.0
  0
LINE
  5
377
330
1F
100
AcDbEntity
  8
0
  6
Continuous
 62
     1
100
AcDbLine
 10
499.725
 20
164.04
 30
0.0
 11
499.725
 21
162.04
 31
0.0
  0
LINE
  5
378
330
1F
100
AcDbEntity
  8
0
  6
Continuous
 62
     1
100
AcDbLine
 10
488.725
 20
136.04
 30
0.0
 11
499.725
 21
136.04
 31
0.0
  0
ARC
  5
379
330
1F
100
AcDbEntity
  8
0
  6
Continuous
 62
     1
100
AcDbCircle
 10
488.725
 20
138.04
 30
0.0
 40
2.0
100
AcDbArc
 50
180.0
 51
270.0
  0
LINE
  5
37A
330
1F
100
AcDbEntity
  8
0
  6
Continuous
 62
     1
100
AcDbLine
 10
488.725
 20
162.04
 30
0.0
 11
499.725
 21
162.04
 31
0.0
  0
LINE
  5
37B
330
1F
100
AcDbEntity
  8
0
  6
Continuous
 62
     1
100
AcDbLine
 10
486.725
 20
160.04
 30
0.0
 11
486.725
 21
138.04
 31
0.0
  0
ARC
  5
37C
330
1F
100
AcDbEntity
  8
0
  6
Continuous
 62
     1
100
AcDbCircle
 10
488.725
 20
160.04
 30
0.0
 40
2.0
100
AcDbArc
 50
90.0
 51
180.0
  0
ARC
  5
37D
330
1F
100
AcDbEntity
  8
0
  6
Continuous
 62
     1
100
AcDbCircle
 10
488.725
 20
160.04
 30
0.0
 40
4.0
100
AcDbArc
 50
90.0
 51
180.0
  0
LINE
  5
37E
330
1F
100
AcDbEntity
  8
0
  6
Continuous
 62
     1
100
AcDbLine
 10
484.725
 20
160.04
 30
0.0
 11
484.725
 21
138.04
 31
0.0
  0
ARC
  5
37F
330
1F
100
AcDbEntity
  8
0
  6
Continuous
 62
     1
100
AcDbCircle
 10
488.725
 20
138.04
 30
0.0
 40
4.0
100
AcDbArc
 50
180.0
 51
270.0
  0
ARC
  5
380
330
1F
100
AcDbEntity
  8
0
  6
Continuous
 62
     2
100
AcDbCircle
 10
492.725
 20
161.840005395
 30
0.0
 40
6.0
100
AcDbArc
 50
53.130102354
 51
126.869897646
  0
ARC
  5
381
330
1F
100
AcDbEntity
  8
0
  6
Continuous
 62
     2
100
AcDbCircle
 10
491.725
 20
159.54
 30
0.0
 40
1.0
100
AcDbArc
 50
180.0
 51
270.0
  0
LINE
  5
382
330
1F
100
AcDbEntity
  8
0
  6
Continuous
 62
     2
100
AcDbLine
 10
491.725
 20
158.54
 30
0.0
 11
493.725007629
 21
158.54
 31
0.0
  0
ARC
  5
383
330
1F
100
AcDbEntity
  8
0
  6
Continuous
 62
     2
100
AcDbCircle
 10
493.725
 20
159.54
 30
0.0
 40
1.0
100
AcDbArc
 50
270.000437132
 51
0.0
  0
LINE
  5
384
330
1F
100
AcDbEntity
  8
0
  6
Continuous
 62
     2
100
AcDbLine
 10
490.725
 20
161.639992371
 30
0.0
 11
490.725
 21
159.54
 31
0.0
  0
ARC
  5
385
330
1F
100
AcDbEntity
  8
0
  6
Continuous
 62
     2
100
AcDbCircle
 10
491.125
 20
161.64
 30
0.0
 40
0.4
100
AcDbArc
 50
90.0
 51
180.00109283
  0
LWPOLYLINE
  5
387
330
1F
100
AcDbEntity
  8
0
  6
Continuous
 62
     2
100
AcDbPolyline
 90
     3
 70
   128
 43
0.0
 10
494.325
 20
162.04
 42
-0.414217513
 10
494.725
 20
161.639994605
 42
0.0
 10
494.725
 20
159.54
 42
0.0
  0
ARC
  5
388
330
1F
100
AcDbEntity
  8
0
  6
Continuous
 62
     2
100
AcDbCircle
 10
492.725
 20
136.239994605
 30
0.0
 40
6.0
100
AcDbArc
 50
233.130102354
 51
306.869897646
  0
ARC
  5
389
330
1F
100
AcDbEntity
  8
0
  6
Continuous
 62
     2
100
AcDbCircle
 10
491.725
 20
138.54
 30
0.0
 40
1.0
100
AcDbArc
 50
90.0
 51
180.0
  0
LINE
  5
38A
330
1F
100
AcDbEntity
  8
0
  6
Continuous
 62
     2
100
AcDbLine
 10
491.725
 20
139.54
 30
0.0
 11
493.725007629
 21
139.54
 31
0.0
  0
ARC
  5
38B
330
1F
100
AcDbEntity
  8
0
  6
Continuous
 62
     2
100
AcDbCircle
 10
493.725
 20
138.54
 30
0.0
 40
1.0
100
AcDbArc
 50
0.0
 51
89.999562868
  0
LINE
  5
38C
330
1F
100
AcDbEntity
  8
0
  6
Continuous
 62
     2
100
AcDbLine
 10
490.725
 20
136.440007629
 30
0.0
 11
490.725
 21
138.54
 31
0.0
  0
ARC
  5
38D
330
1F
100
AcDbEntity
  8
0
  6
Continuous
 62
     2
100
AcDbCircle
 10
491.125
 20
136.44
 30
0.0
 40
0.4
100
AcDbArc
 50
179.99890717
 51
270.0
  0
LWPOLYLINE
  5
38F
330
1F
100
AcDbEntity
  8
0
  6
Continuous
 62
     2
100
AcDbPolyline
 90
     3
 70
   128
 43
0.0
 10
494.325
 20
136.04
 42
0.414217513
 10
494.725
 20
136.440005395
 42
0.0
 10
494.725
 20
138.54
 42
0.0
  0
LINE
  5
390
330
1F
100
AcDbEntity
  8
0
  6
Continuous
 62
     1
100
AcDbLine
 10
481.925
 20
166.64
 30
0.0
 11
545.209094213
 21
166.64
 31
0.0
  0
LINE
  5
391
330
1F
100
AcDbEntity
  8
0
  6
Continuous
 62
     1
100
AcDbLine
 10
481.925
 20
164.04
 30
0.0
 11
540.705762114
 21
164.04
 31
0.0
  0
LINE
  5
392
330
1F
100
AcDbEntity
  8
0
  6
LTYPE2
 62
     2
100
AcDbLine
 10
567.98167198
 20
166.64
 30
0.0
 11
567.98167198
 21
164.04
 31
0.0
  0
LINE
  5
393
330
1F
100
AcDbEntity
  8
0
  6
LTYPE2
 62
     2
100
AcDbLine
 10
545.209094213
 20
166.64
 30
0.0
 11
567.98167198
 21
166.64
 31
0.0
  0
LINE
  5
394
330
1F
100
AcDbEntity
  8
0
  6
LTYPE2
 62
     2
100
AcDbLine
 10
540.705762114
 20
164.04
 30
0.0
 11
567.98167198
 21
164.04
 31
0.0
  0
LINE
  5
395
330
1F
100
AcDbEntity
  8
0
  6
Continuous
 62
     1
100
AcDbLine
 10
481.925
 20
134.04
 30
0.0
 11
540.705762114
 21
134.04
 31
0.0
  0
LINE
  5
396
330
1F
100
AcDbEntity
  8
0
  6
Continuous
 62
     1
100
AcDbLine
 10
481.925
 20
131.44
 30
0.0
 11
545.209094213
 21
131.44
 31
0.0
  0
LINE
  5
397
330
1F
100
AcDbEntity
  8
0
  6
LTYPE2
 62
     2
100
AcDbLine
 10
545.209094213
 20
131.44
 30
0.0
 11
567.98167198
 21
131.44
 31
0.0
  0
LINE
  5
398
330
1F
100
AcDbEntity
  8
0
  6
LTYPE2
 62
     2
100
AcDbLine
 10
567.98167198
 20
134.04
 30
0.0
 11
567.98167198
 21
131.44
 31
0.0
  0
LINE
  5
399
330
1F
100
AcDbEntity
  8
0
  6
LTYPE2
 62
     2
100
AcDbLine
 10
540.705762114
 20
134.04
 30
0.0
 11
567.98167198
 21
134.04
 31
0.0
  0
ARC
  5
39A
330
1F
100
AcDbEntity
  8
2
  6
Continuous
 62
     1
100
AcDbCircle
 10
513.725
 20
157.99
 30
0.0
 40
5.8
100
AcDbArc
 50
90.0
 51
180.0
  0
LINE
  5
39B
330
1F
100
AcDbEntity
  8
2
  6
Continuous
 62
     1
100
AcDbLine
 10
511.125
 20
157.99
 30
0.0
 11
507.925
 21
157.99
 31
0.0
  0
LINE
  5
39C
330
1F
100
AcDbEntity
  8
2
  6
Continuous
 62
     1
100
AcDbLine
 10
513.725
 20
160.59
 30
0.0
 11
513.725
 21
163.79
 31
0.0
  0
ARC
  5
39D
330
1F
100
AcDbEntity
  8
2
  6
Continuous
 62
     1
100
AcDbCircle
 10
511.125
 20
160.59
 30
0.0
 40
2.6
100
AcDbArc
 50
270.0
 51
0.0
  0
ARC
  5
39E
330
1F
100
AcDbEntity
  8
2
  6
Continuous
 62
     1
100
AcDbCircle
 10
513.725
 20
157.99
 30
0.0
 40
2.6
100
AcDbArc
 50
90.0
 51
180.000168126
  0
LINE
  5
39F
330
1F
100
AcDbEntity
  8
2
  6
Continuous
 62
     1
100
AcDbLine
 10
511.125
 20
143.29
 30
0.0
 11
511.125
 21
157.989992371
 31
0.0
  0
ARC
  5
3A0
330
1F
100
AcDbEntity
  8
2
  6
Continuous
 62
     1
100
AcDbCircle
 10
514.125
 20
143.29
 30
0.0
 40
3.0
100
AcDbArc
 50
180.0
 51
270.0
  0
LINE
  5
3A1
330
1F
100
AcDbEntity
  8
2
  6
Continuous
 62
     1
100
AcDbLine
 10
507.925
 20
149.79
 30
0.0
 11
511.125
 21
149.79
 31
0.0
  0
LINE
  5
3A2
330
1F
100
AcDbEntity
  8
2
  6
Continuous
 62
     1
100
AcDbLine
 10
507.925
 20
149.79
 30
0.0
 11
507.925
 21
157.99
 31
0.0
  0
LINE
  5
3A3
330
1F
100
AcDbEntity
  8
2
  6
Continuous
 62
     1
100
AcDbLine
 10
511.125
 20
140.09
 30
0.0
 11
507.925
 21
140.09
 31
0.0
  0
LINE
  5
3A4
330
1F
100
AcDbEntity
  8
2
  6
Continuous
 62
     1
100
AcDbLine
 10
513.725
 20
137.49
 30
0.0
 11
513.725
 21
134.29
 31
0.0
  0
ARC
  5
3A5
330
1F
100
AcDbEntity
  8
2
  6
Continuous
 62
     1
100
AcDbCircle
 10
511.125
 20
137.49
 30
0.0
 40
2.6
100
AcDbArc
 50
360.0
 51
90.0
  0
ARC
  5
3A6
330
1F
100
AcDbEntity
  8
2
  6
LTYPE2
 62
     2
100
AcDbCircle
 10
514.125
 20
154.79
 30
0.0
 40
3.0
100
AcDbArc
 50
90.0
 51
180.0
  0
ARC
  5
3A7
330
1F
100
AcDbEntity
  8
2
  6
Continuous
 62
     1
100
AcDbCircle
 10
513.725
 20
140.09
 30
0.0
 40
2.6
100
AcDbArc
 50
180.000118883
 51
270.0
  0
ARC
  5
3A8
330
1F
100
AcDbEntity
  8
2
  6
Continuous
 62
     1
100
AcDbCircle
 10
513.725
 20
140.09
 30
0.0
 40
5.8
100
AcDbArc
 50
180.000053284
 51
270.0
  0
LINE
  5
3A9
330
1F
100
AcDbEntity
  8
2
  6
Continuous
 62
     1
100
AcDbLine
 10
507.925
 20
148.29
 30
0.0
 11
511.125
 21
148.29
 31
0.0
  0
LINE
  5
3AA
330
1F
100
AcDbEntity
  8
2
  6
Continuous
 62
     1
100
AcDbLine
 10
507.925
 20
148.29
 30
0.0
 11
507.925
 21
140.089994605
 31
0.0
  0
ARC
  5
3AB
330
1F
100
AcDbEntity
  8
2
  6
LTYPE2
 62
     2
100
AcDbCircle
 10
516.09582462
 20
156.850408811
 30
0.0
 40
2.260408811
100
AcDbArc
 50
213.890242925
 51
326.109757075
  0
ARC
  5
3AC
330
1F
100
AcDbEntity
  8
2
  6
LTYPE2
 62
     2
100
AcDbCircle
 10
527.354151055
 20
156.850407097
 30
0.0
 40
2.260407097
100
AcDbArc
 50
213.890242926
 51
326.109757074
  0
ARC
  5
3AD
330
1F
100
AcDbEntity
  8
2
  6
LTYPE2
 62
     2
100
AcDbCircle
 10
521.72498921
 20
162.130768462
 30
0.0
 40
7.540768462
100
AcDbArc
 50
240.158428482
 51
299.841559936
  0
LINE
  5
3AE
330
1F
100
AcDbEntity
  8
2
  6
LTYPE2
 62
     2
100
AcDbLine
 10
525.47776268
 20
160.59
 30
0.0
 11
525.47776268
 21
155.59
 31
0.0
  0
LINE
  5
3AF
330
1F
100
AcDbEntity
  8
2
  6
LTYPE2
 62
     2
100
AcDbLine
 10
517.972209181
 20
160.59
 30
0.0
 11
517.972209181
 21
155.59
 31
0.0
  0
LINE
  5
3B0
330
1F
100
AcDbEntity
  8
2
  6
LTYPE2
 62
     2
100
AcDbLine
 10
514.219432431
 20
160.59
 30
0.0
 11
514.219432431
 21
155.59
 31
0.0
  0
LINE
  5
3B1
330
1F
100
AcDbEntity
  8
2
  6
LTYPE2
 62
     2
100
AcDbLine
 10
529.23053943
 20
160.59
 30
0.0
 11
529.23053943
 21
155.59
 31
0.0
  0
LINE
  5
3B2
330
1F
100
AcDbEntity
  8
2
  6
LTYPE2
 62
     2
100
AcDbLine
 10
516.095830015
 20
154.59
 30
0.0
 11
527.354151055
 21
154.59
 31
0.0
  0
ARC
  5
3B3
330
1F
100
AcDbEntity
  8
2
  6
LTYPE2
 62
     2
100
AcDbCircle
 10
516.09582462
 20
141.229577713
 30
0.0
 40
2.260422288
100
AcDbArc
 50
33.890242925
 51
146.109757075
  0
LWPOLYLINE
  5
3B6
330
1F
100
AcDbEntity
  8
2
  6
LTYPE2
 62
     2
100
AcDbPolyline
 90
     3
 70
   128
 43
0.0
 10
517.973788006
 20
142.490415231
 42
-0.266469936
 10
525.47619986
 20
142.490417561
 42
-0.532605582
 10
529.230539509
 20
142.490000057
 42
0.0
  0
LINE
  5
3B7
330
1F
100
AcDbEntity
  8
2
  6
LTYPE2
 62
     2
100
AcDbLine
 10
514.219432431
 20
142.49
 30
0.0
 11
514.219432431
 21
137.49
 31
0.0
  0
LINE
  5
3B8
330
1F
100
AcDbEntity
  8
2
  6
LTYPE2
 62
     2
100
AcDbLine
 10
517.972209181
 20
142.49
 30
0.0
 11
517.972209181
 21
137.49
 31
0.0
  0
LINE
  5
3B9
330
1F
100
AcDbEntity
  8
2
  6
LTYPE2
 62
     2
100
AcDbLine
 10
525.47776268
 20
142.49
 30
0.0
 11
525.47776268
 21
137.49
 31
0.0
  0
LINE
  5
3BA
330
1F
100
AcDbEntity
  8
2
  6
LTYPE2
 62
     2
100
AcDbLine
 10
529.23053943
 20
142.49
 30
0.0
 11
529.23053943
 21
137.49
 31
0.0
  0
LINE
  5
3BB
330
1F
100
AcDbEntity
  8
2
  6
LTYPE2
 62
     2
100
AcDbLine
 10
516.095830015
 20
143.49
 30
0.0
 11
527.353233058
 21
143.49
 31
0.0
  0
LINE
  5
3BC
330
1F
100
AcDbEntity
  8
2
  6
Continuous
 62
     1
100
AcDbLine
 10
511.125
 20
140.089994605
 30
0.0
 11
511.125
 21
143.29
 31
0.0
  0
LINE
  5
3BD
330
1F
100
AcDbEntity
  8
2
  6
LTYPE2
 62
     2
100
AcDbLine
 10
513.725
 20
160.59
 30
0.0
 11
535.154341715
 21
160.59
 31
0.0
  0
LINE
  5
3BE
330
1F
100
AcDbEntity
  8
2
  6
LTYPE2
 62
     2
100
AcDbLine
 10
514.125
 20
157.79
 30
0.0
 11
532.541507069
 21
157.79
 31
0.0
  0
LINE
  5
3BF
330
1F
100
AcDbEntity
  8
2
  6
LTYPE2
 62
     2
100
AcDbLine
 10
513.725
 20
137.49
 30
0.0
 11
535.154341715
 21
137.49
 31
0.0
  0
LINE
  5
3C0
330
1F
100
AcDbEntity
  8
2
  6
Continuous
 62
     1
100
AcDbLine
 10
514.125
 20
140.29
 30
0.0
 11
532.541507069
 21
140.29
 31
0.0
  0
LINE
  5
3C1
330
1F
100
AcDbEntity
  8
2
  6
Continuous
 62
     1
100
AcDbLine
 10
513.725
 20
134.29
 30
0.0
 11
540.272749412
 21
134.29
 31
0.0
  0
LINE
  5
3C2
330
1F
100
AcDbEntity
  8
2
  6
LTYPE2
 62
     2
100
AcDbLine
 10
540.272749412
 20
134.29
 30
0.0
 11
554.225
 21
134.29
 31
0.0
  0
LINE
  5
3C3
330
1F
100
AcDbEntity
  8
2
  6
Continuous
 62
     1
100
AcDbLine
 10
513.725
 20
163.79
 30
0.0
 11
540.272749412
 21
163.79
 31
0.0
  0
LINE
  5
3C4
330
1F
100
AcDbEntity
  8
2
  6
LTYPE2
 62
     2
100
AcDbLine
 10
540.272749412
 20
163.79
 30
0.0
 11
554.225
 21
163.79
 31
0.0
  0
ARC
  5
3C5
330
1F
100
AcDbEntity
  8
2
  6
LTYPE2
 62
     2
100
AcDbCircle
 10
551.625
 20
157.99
 30
0.0
 40
5.8
100
AcDbArc
 50
360.0
 51
63.366881251
  0
LINE
  5
3C6
330
1F
100
AcDbEntity
  8
2
  6
LTYPE2
 62
     2
100
AcDbLine
 10
554.225
 20
134.29
 30
0.0
 11
554.225
 21
143.29
 31
0.0
  0
LINE
  5
3C7
330
1F
100
AcDbEntity
  8
2
  6
LTYPE2
 62
     2
100
AcDbLine
 10
554.225
 20
149.79
 30
0.0
 11
557.425
 21
149.79
 31
0.0
  0
LINE
  5
3C8
330
1F
100
AcDbEntity
  8
2
  6
LTYPE2
 62
     2
100
AcDbLine
 10
557.425
 20
149.79
 30
0.0
 11
557.425
 21
157.99
 31
0.0
  0
LINE
  5
3C9
330
1F
100
AcDbEntity
  8
2
  6
LTYPE2
 62
     2
100
AcDbLine
 10
554.225
 20
148.29
 30
0.0
 11
557.425
 21
148.29
 31
0.0
  0
LINE
  5
3CA
330
1F
100
AcDbEntity
  8
2
  6
LTYPE2
 62
     2
100
AcDbLine
 10
554.225
 20
143.29
 30
0.0
 11
554.225
 21
163.79
 31
0.0
  0
ARC
  5
3CB
330
1F
100
AcDbEntity
  8
2
  6
LTYPE2
 62
     2
100
AcDbCircle
 10
551.625
 20
140.09
 30
0.0
 40
5.8
100
AcDbArc
 50
296.633118749
 51
0.000044191
  0
LINE
  5
3CC
330
1F
100
AcDbEntity
  8
2
  6
LTYPE2
 62
     2
100
AcDbLine
 10
557.425
 20
148.29
 30
0.0
 11
557.425
 21
140.090004473
 31
0.0
  0
LWPOLYLINE
  5
3CE
330
1F
100
AcDbEntity
  8
3
  6
Continuous
 62
     1
100
AcDbPolyline
 90
     3
 70
   128
 43
0.0
 10
537.224988556
 20
136.049625551
 42
-0.57734956
 10
537.224983816
 20
162.030371713
 42
0.0
 10
549.366016151
 20
169.04
 42
0.0
  0
LINE
  5
3CF
330
1F
100
AcDbEntity
  8
3
  6
Continuous
 62
     1
100
AcDbLine
 10
537.224988556
 20
136.049625551
 30
0.0
 11
549.366016151
 21
129.04
 31
0.0
  0
LINE
  5
3D0
330
1F
100
AcDbEntity
  8
3
  6
LTYPE2
 62
     2
100
AcDbLine
 10
564.525
 20
150.64
 30
0.0
 11
564.525
 21
147.44
 31
0.0
  0
LINE
  5
3D1
330
1F
100
AcDbEntity
  8
3
  6
Continuous
 62
     1
100
AcDbLine
 10
589.725
 20
171.64
 30
0.0
 11
586.525
 21
171.64
 31
0.0
  0
LINE
  5
3D2
330
1F
100
AcDbEntity
  8
3
  6
Continuous
 62
     1
100
AcDbLine
 10
589.725
 20
126.44
 30
0.0
 11
586.525
 21
126.44
 31
0.0
  0
LINE
  5
3D3
330
1F
100
AcDbEntity
  8
3
  6
LTYPE2
 62
     2
100
AcDbLine
 10
586.525
 20
169.04
 30
0.0
 11
586.525
 21
129.04
 31
0.0
  0
LINE
  5
3D4
330
1F
100
AcDbEntity
  8
3
  6
Continuous
 62
     1
100
AcDbLine
 10
589.725
 20
169.04
 30
0.0
 11
549.366016151
 21
169.04
 31
0.0
  0
LINE
  5
3D5
330
1F
100
AcDbEntity
  8
3
  6
Continuous
 62
     1
100
AcDbLine
 10
589.725
 20
129.04
 30
0.0
 11
549.366016151
 21
129.04
 31
0.0
  0
LINE
  5
3D6
330
1F
100
AcDbEntity
  8
3
  6
LTYPE2
 62
     2
100
AcDbLine
 10
564.525
 20
147.44
 30
0.0
 11
586.525
 21
147.44
 31
0.0
  0
LINE
  5
3D7
330
1F
100
AcDbEntity
  8
3
  6
LTYPE2
 62
     2
100
AcDbLine
 10
564.525
 20
150.64
 30
0.0
 11
586.525
 21
150.64
 31
0.0
  0
ARC
  5
3D8
330
1F
100
AcDbEntity
  8
3
  6
Continuous
 62
     2
100
AcDbCircle
 10
569.525
 20
149.04
 30
0.0
 40
1.7
100
AcDbArc
 50
89.999375526
 51
270.000624474
  0
LINE
  5
3D9
330
1F
100
AcDbEntity
  8
3
  6
Continuous
 62
     2
100
AcDbLine
 10
569.525015259
 20
150.74
 30
0.0
 11
580.676471862
 21
150.74
 31
0.0
  0
ARC
  5
3DA
330
1F
100
AcDbEntity
  8
3
  6
Continuous
 62
     2
100
AcDbCircle
 10
581.525
 20
149.04
 30
0.0
 40
1.9
100
AcDbArc
 50
243.47464798
 51
116.52535202
  0
LINE
  5
3DB
330
1F
100
AcDbEntity
  8
3
  6
Continuous
 62
     2
100
AcDbLine
 10
569.525015259
 20
147.34
 30
0.0
 11
580.676471862
 21
147.34
 31
0.0
  0
LINE
  5
3DC
330
1F
100
AcDbEntity
  8
3
  6
Continuous
 62
     1
100
AcDbLine
 10
586.525
 20
169.04
 30
0.0
 11
586.525
 21
179.04
 31
0.0
  0
LINE
  5
3DD
330
1F
100
AcDbEntity
  8
3
  6
Continuous
 62
     1
100
AcDbLine
 10
586.525
 20
129.04
 30
0.0
 11
586.525
 21
119.04
 31
0.0
  0
LINE
  5
3DE
330
1F
100
AcDbEntity
  8
3
  6
Continuous
 62
     1
100
AcDbLine
 10
589.725
 20
179.04
 30
0.0
 11
589.725
 21
119.04
 31
0.0
  0
LINE
  5
3DF
330
1F
100
AcDbEntity
  8
4
  6
Continuous
 62
     1
100
AcDbLine
 10
583.436488591
 20
174.001001398
 30
0.0
 11
584.325
 21
179.04
 31
0.0
  0
LINE
  5
3E0
330
1F
100
AcDbEntity
  8
4
  6
Continuous
 62
     1
100
AcDbLine
 10
581.700006814
 20
174.307189986
 30
0.0
 11
585.406104097
 21
173.653705042
 31
0.0
  0
LINE
  5
3E1
330
1F
100
AcDbEntity
  8
4
  6
Continuous
 62
     1
100
AcDbLine
 10
581.700006814
 20
103.927076132
 30
0.0
 11
584.325
 21
89.04
 31
0.0
  0
LINE
  5
3E2
330
1F
100
AcDbEntity
  8
4
  6
Continuous
 62
     1
100
AcDbLine
 10
583.436488591
 20
124.078998602
 30
0.0
 11
584.325
 21
119.04
 31
0.0
  0
LINE
  5
3E3
330
1F
100
AcDbEntity
  8
4
  6
Continuous
 62
     1
100
AcDbLine
 10
581.700006814
 20
123.772810014
 30
0.0
 11
585.406104097
 21
124.426294958
 31
0.0
  0
LINE
  5
3E4
330
1F
100
AcDbEntity
  8
4
  6
Continuous
 62
     1
100
AcDbLine
 10
581.700006814
 20
103.927076132
 30
0.0
 11
581.700006814
 21
123.772810014
 31
0.0
  0
LWPOLYLINE
  5
3E6
330
1F
100
AcDbEntity
  8
4
  6
Continuous
 62
     1
100
AcDbPolyline
 90
     3
 70
   128
 43
0.0
 10
591.925
 20
229.04
 10
591.925
 20
69.04
 10
589.925
 20
69.04
  0
LINE
  5
3E7
330
1F
100
AcDbEntity
  8
4
  6
Continuous
 62
     1
100
AcDbLine
 10
589.925
 20
119.04
 30
0.0
 11
586.325
 21
119.04
 31
0.0
  0
LWPOLYLINE
  5
3E9
330
1F
100
AcDbEntity
  8
4
  6
Continuous
 62
     1
100
AcDbPolyline
 90
     3
 70
   128
 43
0.0
 10
589.925
 20
69.04
 10
586.325
 20
69.04
 10
584.325
 20
69.04
  0
LINE
  5
3EA
330
1F
100
AcDbEntity
  8
4
  6
Continuous
 62
     1
100
AcDbLine
 10
584.325
 20
119.04
 30
0.0
 11
584.325
 21
69.04
 31
0.0
  0
LINE
  5
3EB
330
1F
100
AcDbEntity
  8
4
  6
Continuous
 62
     1
100
AcDbLine
 10
585.406104097
 20
173.653705042
 30
0.0
 11
586.325
 21
178.865022673
 31
0.0
  0
LINE
  5
3EC
330
1F
100
AcDbEntity
  8
4
  6
Continuous
 62
     1
100
AcDbLine
 10
585.406104097
 20
124.426294958
 30
0.0
 11
586.325
 21
119.214977327
 31
0.0
  0
LINE
  5
3ED
330
1F
100
AcDbEntity
  8
4
  6
Continuous
 62
     2
100
AcDbLine
 10
588.325
 20
119.04
 30
0.0
 11
588.325
 21
69.04
 31
0.0
  0
LINE
  5
3EE
330
1F
100
AcDbEntity
  8
4
  6
Continuous
 62
     2
100
AcDbLine
 10
586.325
 20
119.214977327
 30
0.0
 11
586.325
 21
69.04
 31
0.0
  0
LINE
  5
3EF
330
1F
100
AcDbEntity
  8
4
  6
Continuous
 62
     2
100
AcDbLine
 10
589.925
 20
119.04
 30
0.0
 11
589.925
 21
69.04
 31
0.0
  0
LINE
  5
3F0
330
1F
100
AcDbEntity
  8
4
  6
Continuous
 62
     1
100
AcDbLine
 10
589.925
 20
179.04
 30
0.0
 11
589.925
 21
119.04
 31
0.0
  0
LINE
  5
3F1
330
1F
100
AcDbEntity
  8
4
  6
Continuous
 62
     2
100
AcDbLine
 10
589.925
 20
229.04
 30
0.0
 11
589.925
 21
179.04
 31
0.0
  0
LINE
  5
3F2
330
1F
100
AcDbEntity
  8
4
  6
Continuous
 62
     1
100
AcDbLine
 10
581.700006814
 20
179.04
 30
0.0
 11
581.700006814
 21
174.307189986
 31
0.0
  0
CIRCLE
  5
3F3
330
1F
100
AcDbEntity
  8
5
  6
Continuous
 62
     2
100
AcDbCircle
 10
544.725
 20
149.04
 30
0.0
 40
6.5
  0
LWPOLYLINE
  5
3F5
330
1F
100
AcDbEntity
  8
5
  6
Continuous
 62
     2
100
AcDbPolyline
 90
     6
 70
   129
 43
0.0
 10
548.525
 20
155.54
 10
540.925
 20
155.54
 10
537.225
 20
149.04
 10
540.925
 20
142.54
 10
548.525
 20
142.54
 10
552.225
 20
149.04
  0
CIRCLE
  5
3F6
330
1F
100
AcDbEntity
  8
5
  6
Continuous
 62
     2
100
AcDbCircle
 10
544.725
 20
149.04
 30
0.0
 40
7.7
  0
CIRCLE
  5
3F7
330
1F
100
AcDbEntity
  8
5
  6
Continuous
 62
     2
100
AcDbCircle
 10
544.725
 20
149.04
 30
0.0
 40
8.5
  0
LINE
  5
3F8
330
1F
100
AcDbEntity
  8
4
  6
Continuous
 62
     2
100
AcDbLine
 10
588.325
 20
179.04
 30
0.0
 11
588.325
 21
229.04
 31
0.0
  0
LINE
  5
3F9
330
1F
100
AcDbEntity
  8
4
  6
Continuous
 62
     1
100
AcDbLine
 10
589.925
 20
179.04
 30
0.0
 11
586.325
 21
179.04
 31
0.0
  0
LINE
  5
3FA
330
1F
100
AcDbEntity
  8
4
  6
Continuous
 62
     1
100
AcDbLine
 10
591.925
 20
229.04
 30
0.0
 11
584.325
 21
229.04
 31
0.0
  0
LINE
  5
3FB
330
1F
100
AcDbEntity
  8
4
  6
LTYPE2
 62
     2
100
AcDbLine
 10
584.325
 20
179.04
 30
0.0
 11
584.325
 21
229.04
 31
0.0
  0
LINE
  5
3FC
330
1F
100
AcDbEntity
  8
4
  6
LTYPE2
 62
     2
100
AcDbLine
 10
586.325
 20
178.865022673
 30
0.0
 11
586.325
 21
229.04
 31
0.0
  0
LINE
  5
3FD
330
1F
100
AcDbEntity
  8
4
  6
LTYPE2
 62
     2
100
AcDbLine
 10
581.700006814
 20
194.152923868
 30
0.0
 11
581.700006814
 21
179.04
 31
0.0
  0
LINE
  5
3FE
330
1F
100
AcDbEntity
  8
4
  6
LTYPE2
 62
     2
100
AcDbLine
 10
581.700006814
 20
194.152923868
 30
0.0
 11
584.325
 21
209.04
 31
0.0
  0
LINE
  5
3FF
330
1F
100
AcDbEntity
  8
0
  6
Continuous
 62
     1
100
AcDbLine
 10
479.325
 20
194.14
 30
0.0
 11
476.725
 21
194.14
 31
0.0
  0
LINE
  5
400
330
1F
100
AcDbEntity
  8
0
  6
Continuous
 62
     1
100
AcDbLine
 10
479.325
 20
194.14
 30
0.0
 11
479.325
 21
169.24
 31
0.0
  0
LINE
  5
401
330
1F
100
AcDbEntity
  8
0
  6
Continuous
 62
     1
100
AcDbLine
 10
476.725
 20
194.14
 30
0.0
 11
476.725
 21
169.24
 31
0.0
  0
LINE
  5
402
330
1F
100
AcDbEntity
  8
0
  6
Continuous
 62
     1
100
AcDbLine
 10
479.325
 20
103.94
 30
0.0
 11
476.725
 21
103.94
 31
0.0
  0
LINE
  5
403
330
1F
100
AcDbEntity
  8
0
  6
Continuous
 62
     1
100
AcDbLine
 10
479.325
 20
103.94
 30
0.0
 11
479.325
 21
128.84
 31
0.0
  0
LINE
  5
404
330
1F
100
AcDbEntity
  8
0
  6
Continuous
 62
     1
100
AcDbLine
 10
476.725
 20
103.94
 30
0.0
 11
476.725
 21
128.84
 31
0.0
  0
LINE
  5
405
330
1F
100
AcDbEntity
  8
4
  6
Continuous
 62
     1
100
AcDbLine
 10
558.040729016
 20
189.039981312
 30
0.0
 11
558.040729016
 21
219.04
 31
0.0
  0
ELLIPSE
  5
406
330
1F
100
AcDbEntity
  8
4
  6
Continuous
 62
     1
100
AcDbEllipse
 10
573.597078202
 20
204.04
 30
0.0
 11
0.0
 21
-10.0
 31
0.0
 40
0.707106781
 41
0.0
 42
6.283185307
  0
ELLIPSE
  5
407
330
1F
100
AcDbEntity
  8
4
  6
Continuous
 62
     1
100
AcDbEllipse
 10
572.18286464
 20
204.04
 30
0.0
 11
0.0
 21
-10.0
 31
0.0
 40
0.707106781
 41
0.100167421
 42
3.041425232
  0
LWPOLYLINE
  5
409
330
1F
100
AcDbEntity
  8
4
  6
Continuous
 62
     1
100
AcDbPolyline
 90
     3
 70
   128
 43
0.0
 10
569.454947973
 20
179.04
 42
-0.414213173
 10
559.454942578
 20
189.039981312
 42
0.0
 10
559.454942578
 20
219.04
 42
0.0
  0
ARC
  5
40A
330
1F
100
AcDbEntity
  8
4
  6
Continuous
 62
     1
100
AcDbCircle
 10
568.040729016
 20
189.04
 30
0.0
 40
10.0
100
AcDbArc
 50
180.000107073
 51
270.000057824
  0
LINE
  5
40B
330
1F
100
AcDbEntity
  8
4
  6
Continuous
 62
     1
100
AcDbLine
 10
586.325
 20
179.04
 30
0.0
 11
568.040739109
 21
179.04
 31
0.0
  0
ARC
  5
40C
330
1F
100
AcDbEntity
  8
4
  6
Continuous
 62
     1
100
AcDbCircle
 10
569.454942578
 20
219.04
 30
0.0
 40
10.0
100
AcDbArc
 50
89.99996909
 51
180.0
  0
ARC
  5
40D
330
1F
100
AcDbEntity
  8
4
  6
Continuous
 62
     1
100
AcDbCircle
 10
568.040729016
 20
219.04
 30
0.0
 40
10.0
100
AcDbArc
 50
90.0
 51
180.0
  0
LINE
  5
40E
330
1F
100
AcDbEntity
  8
4
  6
Continuous
 62
     1
100
AcDbLine
 10
584.325
 20
229.04
 30
0.0
 11
568.040729016
 21
229.04
 31
0.0
  0
LWPOLYLINE
  5
410
330
1F
100
AcDbEntity
  8
5
  6
Continuous
 62
     2
100
AcDbPolyline
 90
     4
 70
   129
 43
0.0
 10
513.225
 20
166.64
 10
530.225
 20
166.64
 10
530.225
 20
168.24
 10
513.225
 20
168.24
  0
LWPOLYLINE
  5
412
330
1F
100
AcDbEntity
  8
5
  6
Continuous
 62
     2
100
AcDbPolyline
 90
     4
 70
   129
 43
0.0
 10
529.425
 20
168.24
 10
529.425
 20
170.24
 10
514.025
 20
170.24
 10
514.025
 20
168.24
  0
LINE
  5
413
330
1F
100
AcDbEntity
  8
5
  6
Continuous
 62
     2
100
AcDbLine
 10
514.225
 20
170.24
 30
0.0
 11
514.225
 21
174.84
 31
0.0
  0
LINE
  5
414
330
1F
100
AcDbEntity
  8
5
  6
Continuous
 62
     2
100
AcDbLine
 10
529.225
 20
170.24
 30
0.0
 11
529.225
 21
174.84
 31
0.0
  0
LINE
  5
415
330
1F
100
AcDbEntity
  8
5
  6
Continuous
 62
     2
100
AcDbLine
 10
525.525
 20
170.24
 30
0.0
 11
525.525
 21
174.84
 31
0.0
  0
LINE
  5
416
330
1F
100
AcDbEntity
  8
5
  6
Continuous
 62
     2
100
AcDbLine
 10
517.925
 20
170.24
 30
0.0
 11
517.925
 21
174.84
 31
0.0
  0
LINE
  5
417
330
1F
100
AcDbEntity
  8
5
  6
Continuous
 62
     2
100
AcDbLine
 10
516.025
 20
175.54
 30
0.0
 11
527.425
 21
175.54
 31
0.0
  0
ARC
  5
418
330
1F
100
AcDbEntity
  8
5
  6
Continuous
 62
     2
100
AcDbCircle
 10
527.425
 20
172.74
 30
0.0
 40
2.8
100
AcDbArc
 50
48.5
 51
131.5
  0
ARC
  5
419
330
1F
100
AcDbEntity
  8
5
  6
Continuous
 62
     2
100
AcDbCircle
 10
521.725
 20
164.84
 30
0.0
 40
10.7
100
AcDbArc
 50
69.1
 51
110.9
  0
ARC
  5
41A
330
1F
100
AcDbEntity
  8
5
  6
Continuous
 62
     2
100
AcDbCircle
 10
516.025
 20
172.74
 30
0.0
 40
2.8
100
AcDbArc
 50
48.5
 51
131.5
  0
LINE
  5
41B
330
1F
100
AcDbEntity
  8
5
  6
Continuous
 62
     2
100
AcDbLine
 10
521.725
 20
170.24
 30
0.0
 11
522.879700538
 21
168.24
 31
0.0
  0
LINE
  5
41C
330
1F
100
AcDbEntity
  8
5
  6
Continuous
 62
     2
100
AcDbLine
 10
521.725
 20
168.24
 30
0.0
 11
520.570299462
 21
170.24
 31
0.0
  0
LWPOLYLINE
  5
41E
330
1F
100
AcDbEntity
  8
5
  6
Continuous
 62
     2
100
AcDbPolyline
 90
     4
 70
   129
 43
0.0
 10
530.225
 20
131.44
 10
513.225
 20
131.44
 10
513.225
 20
129.84
 10
530.225
 20
129.84
  0
LWPOLYLINE
  5
420
330
1F
100
AcDbEntity
  8
5
  6
Continuous
 62
     2
100
AcDbPolyline
 90
     4
 70
   129
 43
0.0
 10
514.025
 20
129.84
 10
514.025
 20
127.84
 10
529.425
 20
127.84
 10
529.425
 20
129.84
  0
LINE
  5
421
330
1F
100
AcDbEntity
  8
5
  6
Continuous
 62
     2
100
AcDbLine
 10
529.225
 20
127.84
 30
0.0
 11
529.225
 21
123.24
 31
0.0
  0
LINE
  5
422
330
1F
100
AcDbEntity
  8
5
  6
Continuous
 62
     2
100
AcDbLine
 10
514.225
 20
127.84
 30
0.0
 11
514.225
 21
123.24
 31
0.0
  0
LINE
  5
423
330
1F
100
AcDbEntity
  8
5
  6
Continuous
 62
     2
100
AcDbLine
 10
517.925
 20
127.84
 30
0.0
 11
517.925
 21
123.24
 31
0.0
  0
LINE
  5
424
330
1F
100
AcDbEntity
  8
5
  6
Continuous
 62
     2
100
AcDbLine
 10
525.525
 20
127.84
 30
0.0
 11
525.525
 21
123.24
 31
0.0
  0
LINE
  5
425
330
1F
100
AcDbEntity
  8
5
  6
Continuous
 62
     2
100
AcDbLine
 10
527.425
 20
122.54
 30
0.0
 11
516.025
 21
122.54
 31
0.0
  0
ARC
  5
426
330
1F
100
AcDbEntity
  8
5
  6
Continuous
 62
     2
100
AcDbCircle
 10
516.025
 20
125.34
 30
0.0
 40
2.8
100
AcDbArc
 50
228.5
 51
311.5
  0
ARC
  5
427
330
1F
100
AcDbEntity
  8
5
  6
Continuous
 62
     2
100
AcDbCircle
 10
521.725
 20
133.24
 30
0.0
 40
10.7
100
AcDbArc
 50
249.1
 51
290.9
  0
ARC
  5
428
330
1F
100
AcDbEntity
  8
5
  6
Continuous
 62
     2
100
AcDbCircle
 10
527.425
 20
125.34
 30
0.0
 40
2.8
100
AcDbArc
 50
228.5
 51
311.5
  0
LINE
  5
429
330
1F
100
AcDbEntity
  8
5
  6
Continuous
 62
     2
100
AcDbLine
 10
521.725
 20
127.84
 30
0.0
 11
520.570299462
 21
129.84
 31
0.0
  0
LINE
  5
42A
330
1F
100
AcDbEntity
  8
5
  6
Continuous
 62
     2
100
AcDbLine
 10
521.725
 20
129.84
 30
0.0
 11
522.879700538
 21
127.84
 31
0.0
  0
ENDSEC
  0
SECTION
  2
OBJECTS
  0
DICTIONARY
  5
C
330
0
100
AcDbDictionary
280
     0
281
     1
  3
ACAD_GROUP
350
D
  3
ACAD_LAYOUT
350
1A
  3
ACAD_MLINESTYLE
350
17
  3
ACAD_PLOTSETTINGS
350
19
  3
ACAD_PLOTSTYLENAME
350
E
  0
DICTIONARY
  5
D
102
{ACAD_REACTORS
330
C
102
}
330
C
100
AcDbDictionary
280
     0
281
     1
  0
DICTIONARY
  5
1A
102
{ACAD_REACTORS
330
C
102
}
330
C
100
AcDbDictionary
280
     0
281
     1
  3
Model
350
22
  3
ﾚｲｱｳﾄ1
350
1E
  3
ﾚｲｱｳﾄ2
350
26
  0
LAYOUT
  5
22
102
{ACAD_REACTORS
330
1A
102
}
330
1A
100
AcDbPlotSettings
  1

  2

  4

  6

 40
0.0
 41
0.0
 42
0.0
 43
0.0
 44
0.0
 45
0.0
 46
0.0
 47
0.0
 48
0.0
 49
0.0
140
0.0
141
0.0
142
1.0
143
1.0
 70
  1712
 72
     0
 73
     0
 74
     0
  7

 75
     0
147
1.0
148
0.0
149
0.0
100
AcDbLayout
  1
Model
 70
     1
 71
     0
 10
0.0
 20
0.0
 11
0.0
 21
0.0
 12
0.0
 22
0.0
 32
0.0
 14
0.0
 24
0.0
 34
0.0
 15
0.0
 25
0.0
 35
0.0
146
0.0
 13
0.0
 23
0.0
 33
0.0
 16
1.0
 26
0.0
 36
0.0
 17
0.0
 27
1.0
 37
0.0
 76
     0
330
1F
331
0
345
0
346
0
  0
LAYOUT
  5
1E
102
{ACAD_REACTORS
330
1A
102
}
330
1A
100
AcDbPlotSettings
  1

  2

  4

  6

 40
0.0
 41
0.0
 42
0.0
 43
0.0
 44
0.0
 45
0.0
 46
0.0
 47
0.0
 48
0.0
 49
0.0
140
0.0
141
0.0
142
1.0
143
1.0
 70
   688
 72
     0
 73
     0
 74
     5
  7

 75
    16
147
1.0
148
0.0
149
0.0
100
AcDbLayout
  1
ﾚｲｱｳﾄ1
 70
     1
 71
     1
 10
0.0
 20
0.0
 11
0.0
 21
0.0
 12
0.0
 22
0.0
 32
0.0
 14
0.0
 24
0.0
 34
0.0
 15
0.0
 25
0.0
 35
0.0
146
0.0
 13
0.0
 23
0.0
 33
0.0
 16
1.0
 26
0.0
 36
0.0
 17
0.0
 27
1.0
 37
0.0
 76
     0
330
1B
331
0
345
0
346
0
  0
LAYOUT
  5
26
102
{ACAD_REACTORS
330
1A
102
}
330
1A
100
AcDbPlotSettings
  1

  2

  4

  6

 40
0.0
 41
0.0
 42
0.0
 43
0.0
 44
0.0
 45
0.0
 46
0.0
 47
0.0
 48
0.0
 49
0.0
140
0.0
141
0.0
142
1.0
143
1.0
 70
   688
 72
     0
 73
     0
 74
     5
  7

 75
    16
147
1.0
148
0.0
149
0.0
100
AcDbLayout
  1
ﾚｲｱｳﾄ2
 70
     1
 71
     2
 10
0.0
 20
0.0
 11
0.0
 21
0.0
 12
0.0
 22
0.0
 32
0.0
 14
0.0
 24
0.0
 34
0.0
 15
0.0
 25
0.0
 35
0.0
146
0.0
 13
0.0
 23
0.0
 33
0.0
 16
1.0
 26
0.0
 36
0.0
 17
0.0
 27
1.0
 37
0.0
 76
     0
330
23
331
0
345
0
346
0
  0
DICTIONARY
  5
17
102
{ACAD_REACTORS
330
C
102
}
330
C
100
AcDbDictionary
280
     0
281
     1
  3
Standard
350
18
  0
MLINESTYLE
  5
18
102
{ACAD_REACTORS
330
17
102
}
330
17
100
AcDbMlineStyle
  2
STANDARD
 70
     0
  3

 62
   256
 51
90.0
 52
90.0
 71
     2
 49
0.5
 62
   256
  6
ByLayer
 49
-0.5
 62
   256
  6
ByLayer
  0
DICTIONARY
  5
19
102
{ACAD_REACTORS
330
C
102
}
330
C
100
AcDbDictionary
280
     0
281
     1
  0
ACDBDICTIONARYWDFLT
  5
E
330
C
100
AcDbDictionary
281
     0
  3
Normal
350
F
100
AcDbDictionaryWithDefault
340
F
  0
ACDBPLACEHOLDER
  5
F
102
{ACAD_REACTORS
330
E
102
}
330
E
  0
ENDSEC
  0
EOF
