  0
SECTION
  2
HEADER
  9
$ACADVER
  1
AC1015
  9
$ACADMAINTVER
 70
    20
  9
$DWGCODEPAGE
  3
ANSI_932
  9
$INSBASE
 10
0.0
 20
0.0
 30
0.0
  9
$EXTMIN
 10
-900.0550457122972
 20
-1326.086925265625
 30
-0.0015258207003583
  9
$EXTMAX
 10
903.9305773593341
 20
1350.081507570083
 30
0.0000000349246037
  9
$LIMMIN
 10
0.0
 20
0.0
  9
$LIMMAX
 10
0.0
 20
0.0
  9
$ORTHOMODE
 70
     0
  9
$REGENMODE
 70
     1
  9
$FILLMODE
 70
     1
  9
$QTEXTMODE
 70
     0
  9
$MIRRTEXT
 70
     1
  9
$LTSCALE
 40
127.0
  9
$ATTMODE
 70
     1
  9
$TEXTSIZE
 40
0.0
  9
$TRACEWID
 40
1.0
  9
$TEXTSTYLE
  7
STANDARD
  9
$CLAYER
  8
DATA
  9
$CELTYPE
  6
ByLayer
  9
$CECOLOR
 62
   256
  9
$CELTSCALE
 40
1.0
  9
$DISPSILH
 70
     0
  9
$DIMSCALE
 40
1.0
  9
$DIMASZ
 40
0.18
  9
$DIMEXO
 40
0.0625
  9
$DIMDLI
 40
0.38
  9
$DIMRND
 40
0.0
  9
$DIMDLE
 40
0.0
  9
$DIMEXE
 40
0.18
  9
$DIMTP
 40
0.0
  9
$DIMTM
 40
0.0
  9
$DIMTXT
 40
0.18
  9
$DIMCEN
 40
0.09
  9
$DIMTSZ
 40
0.0
  9
$DIMTOL
 70
     0
  9
$DIMLIM
 70
     0
  9
$DIMTIH
 70
     1
  9
$DIMTOH
 70
     1
  9
$DIMSE1
 70
     0
  9
$DIMSE2
 70
     0
  9
$DIMTAD
 70
     0
  9
$DIMZIN
 70
     0
  9
$DIMBLK
  1

  9
$DIMASO
 70
     1
  9
$DIMSHO
 70
     1
  9
$DIMPOST
  1

  9
$DIMAPOST
  1

  9
$DIMALT
 70
     0
  9
$DIMALTD
 70
     2
  9
$DIMALTF
 40
25.4
  9
$DIMLFAC
 40
1.0
  9
$DIMTOFL
 70
     0
  9
$DIMTVP
 40
0.0
  9
$DIMTIX
 70
     0
  9
$DIMSOXD
 70
     0
  9
$DIMSAH
 70
     0
  9
$DIMBLK1
  1

  9
$DIMBLK2
  1

  9
$DIMSTYLE
  2
STANDARD
  9
$DIMCLRD
 70
     0
  9
$DIMCLRE
 70
     0
  9
$DIMCLRT
 70
     0
  9
$DIMTFAC
 40
1.0
  9
$DIMGAP
 40
0.09
  9
$DIMJUST
 70
     0
  9
$DIMSD1
 70
     0
  9
$DIMSD2
 70
     0
  9
$DIMTOLJ
 70
     1
  9
$DIMTZIN
 70
     0
  9
$DIMALTZ
 70
     0
  9
$DIMALTTZ
 70
     0
  9
$DIMUPT
 70
     0
  9
$DIMDEC
 70
     4
  9
$DIMTDEC
 70
     4
  9
$DIMALTU
 70
     2
  9
$DIMALTTD
 70
     2
  9
$DIMTXSTY
  7
STANDARD
  9
$DIMAUNIT
 70
     0
  9
$DIMADEC
 70
     0
  9
$DIMALTRND
 40
0.0
  9
$DIMAZIN
 70
     0
  9
$DIMDSEP
 70
    46
  9
$DIMATFIT
 70
     3
  9
$DIMFRAC
 70
     0
  9
$DIMLDRBLK
  1

  9
$DIMLUNIT
 70
     2
  9
$DIMLWD
 70
    -2
  9
$DIMLWE
 70
    -2
  9
$DIMTMOVE
 70
     0
  9
$LUNITS
 70
     2
  9
$LUPREC
 70
     4
  9
$SKETCHINC
 40
0.1
  9
$FILLETRAD
 40
0.0
  9
$AUNITS
 70
     0
  9
$AUPREC
 70
     0
  9
$MENU
  1
acad
  9
$ELEVATION
 40
0.0
  9
$PELEVATION
 40
0.0
  9
$THICKNESS
 40
0.0
  9
$LIMCHECK
 70
     0
  9
$CHAMFERA
 40
0.0
  9
$CHAMFERB
 40
0.0
  9
$CHAMFERC
 40
0.0
  9
$CHAMFERD
 40
0.0
  9
$SKPOLY
 70
     0
  9
$TDCREATE
 40
2457812.439201389
  9
$TDUCREATE
 40
2457812.064201389
  9
$TDUPDATE
 40
2457812.494155093
  9
$TDUUPDATE
 40
2457812.119155093
  9
$TDINDWG
 40
0.0003009259
  9
$TDUSRTIMER
 40
0.0003009259
  9
$USRTIMER
 70
     1
  9
$ANGBASE
 50
0.0
  9
$ANGDIR
 70
     0
  9
$PDMODE
 70
     1
  9
$PDSIZE
 40
-2.0
  9
$PLINEWID
 40
0.0
  9
$SPLFRAME
 70
     0
  9
$SPLINETYPE
 70
     6
  9
$SPLINESEGS
 70
     8
  9
$HANDSEED
  5
393
  9
$SURFTAB1
 70
     6
  9
$SURFTAB2
 70
     6
  9
$SURFTYPE
 70
     6
  9
$SURFU
 70
     6
  9
$SURFV
 70
     6
  9
$UCSBASE
  2

  9
$UCSNAME
  2

  9
$UCSORG
 10
0.0
 20
0.0
 30
0.0
  9
$UCSXDIR
 10
1.0
 20
0.0
 30
0.0
  9
$UCSYDIR
 10
0.0
 20
1.0
 30
0.0
  9
$UCSORTHOREF
  2

  9
$UCSORTHOVIEW
 70
     0
  9
$UCSORGTOP
 10
0.0
 20
0.0
 30
0.0
  9
$UCSORGBOTTOM
 10
0.0
 20
0.0
 30
0.0
  9
$UCSORGLEFT
 10
0.0
 20
0.0
 30
0.0
  9
$UCSORGRIGHT
 10
0.0
 20
0.0
 30
0.0
  9
$UCSORGFRONT
 10
0.0
 20
0.0
 30
0.0
  9
$UCSORGBACK
 10
0.0
 20
0.0
 30
0.0
  9
$PUCSBASE
  2

  9
$PUCSNAME
  2

  9
$PUCSORG
 10
0.0
 20
0.0
 30
0.0
  9
$PUCSXDIR
 10
1.0
 20
0.0
 30
0.0
  9
$PUCSYDIR
 10
0.0
 20
1.0
 30
0.0
  9
$PUCSORTHOREF
  2

  9
$PUCSORTHOVIEW
 70
     0
  9
$PUCSORGTOP
 10
0.0
 20
0.0
 30
0.0
  9
$PUCSORGBOTTOM
 10
0.0
 20
0.0
 30
0.0
  9
$PUCSORGLEFT
 10
0.0
 20
0.0
 30
0.0
  9
$PUCSORGRIGHT
 10
0.0
 20
0.0
 30
0.0
  9
$PUCSORGFRONT
 10
0.0
 20
0.0
 30
0.0
  9
$PUCSORGBACK
 10
0.0
 20
0.0
 30
0.0
  9
$USERI1
 70
     0
  9
$USERI2
 70
     0
  9
$USERI3
 70
     0
  9
$USERI4
 70
     0
  9
$USERI5
 70
     0
  9
$USERR1
 40
0.0
  9
$USERR2
 40
0.0
  9
$USERR3
 40
0.0
  9
$USERR4
 40
0.0
  9
$USERR5
 40
0.0
  9
$WORLDVIEW
 70
     1
  9
$SHADEDGE
 70
     3
  9
$SHADEDIF
 70
    70
  9
$TILEMODE
 70
     1
  9
$MAXACTVP
 70
    64
  9
$PINSBASE
 10
0.0
 20
0.0
 30
0.0
  9
$PLIMCHECK
 70
     0
  9
$PEXTMIN
 10
1.000000000000000E+20
 20
1.000000000000000E+20
 30
1.000000000000000E+20
  9
$PEXTMAX
 10
-1.000000000000000E+20
 20
-1.000000000000000E+20
 30
-1.000000000000000E+20
  9
$PLIMMIN
 10
0.0
 20
0.0
  9
$PLIMMAX
 10
12.0
 20
9.0
  9
$UNITMODE
 70
     0
  9
$VISRETAIN
 70
     0
  9
$PLINEGEN
 70
     1
  9
$PSLTSCALE
 70
     0
  9
$TREEDEPTH
 70
  3020
  9
$CMLSTYLE
  2
Standard
  9
$CMLJUST
 70
     0
  9
$CMLSCALE
 40
1.0
  9
$PROXYGRAPHICS
 70
     1
  9
$MEASUREMENT
 70
     0
  9
$CELWEIGHT
370
    -1
  9
$ENDCAPS
280
     0
  9
$JOINSTYLE
280
     0
  9
$LWDISPLAY
290
     0
  9
$INSUNITS
 70
     0
  9
$HYPERLINKBASE
  1

  9
$STYLESHEET
  1

  9
$XEDIT
290
     1
  9
$CEPSNTYPE
380
     0
  9
$PSTYLEMODE
290
     1
  9
$FINGERPRINTGUID
  2
{9E101612-87DC-C34A-87B6-D8144B664F92}
  9
$VERSIONGUID
  2
{69F720B2-23A2-0E4A-997C-471DC0AEFEC3}
  9
$EXTNAMES
290
     1
  9
$PSVPSCALE
 40
0.0
  9
$OLESTARTUP
290
     0
  0
ENDSEC
  0
SECTION
  2
CLASSES
  0
CLASS
  1
ACDBDICTIONARYWDFLT
  2
AcDbDictionaryWithDefault
  3
ObjectDBX Classes
 90
        0
280
     0
281
     0
  0
CLASS
  1
MATERIAL
  2
AcDbMaterial
  3
ObjectDBX Classes
 90
     1153
280
     0
281
     0
  0
CLASS
  1
VISUALSTYLE
  2
AcDbVisualStyle
  3
ObjectDBX Classes
 90
     4095
280
     0
281
     0
  0
CLASS
  1
SCALE
  2
AcDbScale
  3
ObjectDBX Classes
 90
     1153
280
     0
281
     0
  0
CLASS
  1
TABLESTYLE
  2
AcDbTableStyle
  3
ObjectDBX Classes
 90
     4095
280
     0
281
     0
  0
CLASS
  1
MLEADERSTYLE
  2
AcDbMLeaderStyle
  3
ACDB_MLEADERSTYLE_CLASS
 90
     4095
280
     0
281
     0
  0
CLASS
  1
ACDBSECTIONVIEWSTYLE
  2
AcDbSectionViewStyle
  3
ObjectDBX Classes
 90
     1025
280
     0
281
     0
  0
CLASS
  1
ACDBDETAILVIEWSTYLE
  2
AcDbDetailViewStyle
  3
ObjectDBX Classes
 90
     1025
280
     0
281
     0
  0
CLASS
  1
DICTIONARYVAR
  2
AcDbDictionaryVar
  3
ObjectDBX Classes
 90
        0
280
     0
281
     0
  0
CLASS
  1
CELLSTYLEMAP
  2
AcDbCellStyleMap
  3
ObjectDBX Classes
 90
     1152
280
     0
281
     0
  0
CLASS
  1
ACDBPLACEHOLDER
  2
AcDbPlaceHolder
  3
ObjectDBX Classes
 90
        0
280
     0
281
     0
  0
CLASS
  1
LAYOUT
  2
AcDbLayout
  3
ObjectDBX Classes
 90
        0
280
     0
281
     0
  0
ENDSEC
  0
SECTION
  2
TABLES
  0
TABLE
  2
VPORT
  5
2BB
330
0
100
AcDbSymbolTable
 70
     1
  0
VPORT
  5
327
330
2BB
100
AcDbSymbolTableRecord
100
AcDbViewportTableRecord
  2
*ACTIVE
 70
     0
 10
0.0
 20
0.0
 11
1.0
 21
1.0
 12
1.937765823518475
 22
14.68185621805924
 13
0.0
 23
0.0
 14
1.0
 24
1.0
 15
0.0
 25
0.0
 16
0.0
 26
0.0
 36
1.0
 17
0.0
 27
0.0
 37
0.0
 40
2685.664604945443
 41
2.358402971216341
 42
50.0
 43
0.0
 44
0.0
 50
0.0
 51
0.0
 71
     0
 72
  2000
 73
     1
 74
     1
 75
     0
 76
     0
 77
     0
 78
     0
281
     0
 65
     1
110
0.0
120
0.0
130
0.0
111
1.0
121
0.0
131
0.0
112
0.0
122
1.0
132
0.0
 79
     0
146
0.0
1001
ACAD_NAV_VCDISPLAY
1070
     3
  0
ENDTAB
  0
TABLE
  2
LTYPE
  5
2B8
330
0
100
AcDbSymbolTable
 70
    13
  0
LTYPE
  5
30D
330
2B8
100
AcDbSymbolTableRecord
100
AcDbLinetypeTableRecord
  2
ByBlock
 70
     0
  3

 72
    65
 73
     0
 40
0.0
  0
LTYPE
  5
30E
330
2B8
100
AcDbSymbolTableRecord
100
AcDbLinetypeTableRecord
  2
ByLayer
 70
     0
  3

 72
    65
 73
     0
 40
0.0
  0
LTYPE
  5
30F
330
2B8
100
AcDbSymbolTableRecord
100
AcDbLinetypeTableRecord
  2
CONTINUOUS
 70
     0
  3
Solid line
 72
    65
 73
     0
 40
0.0
  0
ENDTAB
  0
TABLE
  2
LAYER
  5
2B5
330
0
100
AcDbSymbolTable
 70
     5
  0
LAYER
  5
307
102
{ACAD_XDICTIONARY
360
33D
102
}
330
2B5
100
AcDbSymbolTableRecord
100
AcDbLayerTableRecord
  2
0
 70
     0
 62
     7
  6
CONTINUOUS
370
    -3
390
2C2
  0
LAYER
  5
326
102
{ACAD_XDICTIONARY
360
33F
102
}
330
2B5
100
AcDbSymbolTableRecord
100
AcDbLayerTableRecord
  2
DATA
 70
     0
 62
     7
  6
CONTINUOUS
370
    -3
390
2C2
  0
LAYER
  5
334
102
{ACAD_XDICTIONARY
360
341
102
}
330
2B5
100
AcDbSymbolTableRecord
100
AcDbLayerTableRecord
  2
HIBINO-BASE
 70
     0
 62
     7
  6
CONTINUOUS
370
    -3
390
2C2
  0
LAYER
  5
335
102
{ACAD_XDICTIONARY
360
343
102
}
330
2B5
100
AcDbSymbolTableRecord
100
AcDbLayerTableRecord
  2
SPEC
 70
     0
 62
     7
  6
CONTINUOUS
370
    -3
390
2C2
  0
LAYER
  5
336
102
{ACAD_XDICTIONARY
360
345
102
}
330
2B5
100
AcDbSymbolTableRecord
100
AcDbLayerTableRecord
  2
DIMNSIONS
 70
     0
 62
     7
  6
CONTINUOUS
370
    -3
390
2C2
  0
ENDTAB
  0
TABLE
  2
STYLE
  5
2B6
330
0
100
AcDbSymbolTable
 70
     3
  0
STYLE
  5
308
330
2B6
100
AcDbSymbolTableRecord
100
AcDbTextStyleTableRecord
  2
STANDARD
 70
     0
 40
0.0
 41
1.0
 50
0.0
 71
     0
 42
0.0
  3
txt
  4
BIGFONT.SHX
  0
ENDTAB
  0
TABLE
  2
VIEW
  5
2B9
330
0
100
AcDbSymbolTable
 70
     0
  0
ENDTAB
  0
TABLE
  2
UCS
  5
2BA
330
0
100
AcDbSymbolTable
 70
     0
  0
ENDTAB
  0
TABLE
  2
APPID
  5
2BC
330
0
100
AcDbSymbolTable
 70
     4
  0
APPID
  5
309
330
2BC
100
AcDbSymbolTableRecord
100
AcDbRegAppTableRecord
  2
ACAD
 70
     0
  0
APPID
  5
310
330
2BC
100
AcDbSymbolTableRecord
100
AcDbRegAppTableRecord
  2
AcadAnnotative
 70
     0
  0
APPID
  5
351
330
2BC
100
AcDbSymbolTableRecord
100
AcDbRegAppTableRecord
  2
ACAD_NAV_VCDISPLAY
 70
     0
  0
APPID
  5
38A
330
2BC
100
AcDbSymbolTableRecord
100
AcDbRegAppTableRecord
  2
ACAD_MLEADERVER
 70
     0
  0
ENDTAB
  0
TABLE
  2
DIMSTYLE
  5
2BD
330
0
100
AcDbSymbolTable
 70
     2
100
AcDbDimStyleTable
 71
     0
  0
DIMSTYLE
105
30A
330
2BD
100
AcDbSymbolTableRecord
100
AcDbDimStyleTableRecord
  2
STANDARD
 70
     0
279
     2
340
308
  0
ENDTAB
  0
TABLE
  2
BLOCK_RECORD
  5
2B4
330
0
100
AcDbSymbolTable
 70
     0
  0
BLOCK_RECORD
  5
322
330
2B4
100
AcDbSymbolTableRecord
100
AcDbBlockTableRecord
  2
*Model_Space
340
325
  0
BLOCK_RECORD
  5
31E
330
2B4
100
AcDbSymbolTableRecord
100
AcDbBlockTableRecord
  2
*Paper_Space
340
321
  0
ENDTAB
  0
ENDSEC
  0
SECTION
  2
BLOCKS
  0
BLOCK
  5
323
330
322
100
AcDbEntity
  8
0
100
AcDbBlockBegin
  2
*Model_Space
 70
     0
 10
0.0
 20
0.0
 30
0.0
  3
*Model_Space
  1

  0
ENDBLK
  5
324
330
322
100
AcDbEntity
  8
0
100
AcDbBlockEnd
  0
BLOCK
  5
31F
330
31E
100
AcDbEntity
 67
     1
  8
0
100
AcDbBlockBegin
  2
*Paper_Space
 70
     0
 10
0.0
 20
0.0
 30
0.0
  3
*Paper_Space
  1

  0
ENDBLK
  5
320
330
31E
100
AcDbEntity
 67
     1
  8
0
100
AcDbBlockEnd
  0
ENDSEC
  0
SECTION
  2
ENTITIES
  0
LINE
  5
2E
330
322
100
AcDbEntity
  8
HIBINO-BASE
  6
Continuous
 62
     7
100
AcDbLine
 10
-899.9999999999996
 20
1350.0
 30
0.0
 11
900.0
 21
1350.0
 31
0.0
  0
LINE
  5
2F
330
322
100
AcDbEntity
  8
HIBINO-BASE
  6
Continuous
 62
     7
100
AcDbLine
 10
900.0
 20
-1250.0
 30
0.0
 11
-899.9999999999996
 21
-1250.0
 31
0.0
  0
LINE
  5
30
330
322
100
AcDbEntity
  8
HIBINO-BASE
  6
Continuous
 62
     7
100
AcDbLine
 10
-899.9999999999996
 20
-1250.0
 30
0.0
 11
-899.9999999999996
 21
1350.0
 31
0.0
  0
LINE
  5
31
330
322
100
AcDbEntity
  8
HIBINO-BASE
  6
Continuous
 62
     7
100
AcDbLine
 10
900.0
 20
1350.0
 30
0.0
 11
900.0
 21
-1250.0
 31
0.0
  0
LINE
  5
32
330
322
100
AcDbEntity
  8
HIBINO-BASE
  6
Continuous
 62
     7
100
AcDbLine
 10
0.0000000000002226
 20
-1025.0
 30
0.0
 11
900.0
 21
-1025.0
 31
0.0
  0
LINE
  5
33
330
322
100
AcDbEntity
  8
HIBINO-BASE
  6
Continuous
 62
     7
100
AcDbLine
 10
0.0000000000002226
 20
-1250.0
 30
0.0
 11
0.0000000000002226
 21
-1025.0
 31
0.0
  0
TEXT
  5
34
330
322
100
AcDbEntity
  8
HIBINO-BASE
 62
     7
100
AcDbText
 10
9.000000000000278
 20
-1050.086933333333
 30
0.0
 40
16.28841145833333
  1
NOTE
 41
0.7
 11
9.00000000000028
 21
-1033.798521875
 31
0.0
100
AcDbText
 73
     3
  0
LINE
  5
35
330
322
100
AcDbEntity
  8
HIBINO-BASE
  6
Continuous
 62
     7
100
AcDbLine
 10
350.0000000000004
 20
-1250.0
 30
0.0
 11
350.0000000000004
 21
-1025.0
 31
0.0
  0
TEXT
  5
36
330
322
100
AcDbEntity
  8
HIBINO-BASE
 62
     7
100
AcDbText
 10
359.0000000000001
 20
-1050.086933333333
 30
0.0
 40
16.28841145833333
  1
TITLE
 41
0.7
 11
359.0000000000001
 21
-1033.798521875
 31
0.0
100
AcDbText
 73
     3
  0
LINE
  5
37
330
322
100
AcDbEntity
  8
HIBINO-BASE
  6
Continuous
 62
     7
100
AcDbLine
 10
0.0000000000002226
 20
-1150.0
 30
0.0
 11
900.0
 21
-1150.0
 31
0.0
  0
TEXT
  5
38
330
322
100
AcDbEntity
  8
HIBINO-BASE
 62
     7
100
AcDbText
 10
484.0
 20
-1174.523733333333
 30
0.0
 40
16.28841145833333
  1
DRAWN
 41
0.7
 11
484.0
 21
-1158.235321875
 31
0.0
100
AcDbText
 73
     3
  0
TEXT
  5
39
330
322
100
AcDbEntity
  8
HIBINO-BASE
 62
     7
100
AcDbText
 10
234.0000000000001
 20
-1174.523733333333
 30
0.0
 40
16.28841145833333
  1
DATE
 41
0.7
 11
234.0000000000001
 21
-1158.235321875
 31
0.0
100
AcDbText
 73
     3
  0
TEXT
  5
3A
330
322
100
AcDbEntity
  8
HIBINO-BASE
 62
     7
100
AcDbText
 10
134.0000000000001
 20
-1174.523733333333
 30
0.0
 40
16.28841145833333
  1
SCALE
 41
0.7
 11
134.0000000000001
 21
-1158.235321875
 31
0.0
100
AcDbText
 73
     3
  0
TEXT
  5
3B
330
322
100
AcDbEntity
  8
HIBINO-BASE
 62
     7
100
AcDbText
 10
359.0000000000001
 20
-1174.523733333333
 30
0.0
 40
16.28841145833333
  1
DESIGN
 41
0.7
 11
359.0000000000001
 21
-1158.235321875
 31
0.0
100
AcDbText
 73
     3
  0
TEXT
  5
3C
330
322
100
AcDbEntity
  8
HIBINO-BASE
 62
     7
100
AcDbText
 10
734.0
 20
-1174.523733333333
 30
0.0
 40
16.28841145833333
  1
DRAWING NO.
 41
0.7
 11
734.0
 21
-1158.235321875
 31
0.0
100
AcDbText
 73
     3
  0
TEXT
  5
3D
330
322
100
AcDbEntity
  8
HIBINO-BASE
 62
     7
100
AcDbText
 10
609.0
 20
-1174.523733333333
 30
0.0
 40
16.28841145833333
  1
CHECK
 41
0.7
 11
609.0
 21
-1158.235321875
 31
0.0
100
AcDbText
 73
     3
  0
LINE
  5
3E
330
322
100
AcDbEntity
  8
HIBINO-BASE
  6
Continuous
 62
     7
100
AcDbLine
 10
143.7500000000002
 20
-1237.5
 30
0.0
 11
181.2500000000004
 21
-1200.0
 31
0.0
  0
TEXT
  5
3F
330
322
100
AcDbEntity
  8
HIBINO-BASE
 62
     7
100
AcDbText
 10
137.5000000000002
 20
-1211.089433333333
 30
0.0
 40
16.28841145833333
  1
1
 41
0.7
 11
137.5000000000002
 21
-1194.801021875
 31
0.0
100
AcDbText
 73
     3
  0
LINE
  5
40
330
322
100
AcDbEntity
  8
HIBINO-BASE
  6
Continuous
 62
     7
100
AcDbLine
 10
125.0000000000002
 20
-1250.0
 30
0.0
 11
125.0000000000002
 21
-1150.0
 31
0.0
  0
LINE
  5
41
330
322
100
AcDbEntity
  8
HIBINO-BASE
  6
Continuous
 62
     7
100
AcDbLine
 10
225.0000000000001
 20
-1250.0
 30
0.0
 11
225.0000000000001
 21
-1150.0
 31
0.0
  0
LINE
  5
42
330
322
100
AcDbEntity
  8
HIBINO-BASE
  6
Continuous
 62
     7
100
AcDbLine
 10
475.0
 20
-1150.0
 30
0.0
 11
475.0
 21
-1250.0
 31
0.0
  0
LINE
  5
43
330
322
100
AcDbEntity
  8
HIBINO-BASE
  6
Continuous
 62
     7
100
AcDbLine
 10
725.0000000000003
 20
-1150.0
 30
0.0
 11
725.0000000000003
 21
-1250.0
 31
0.0
  0
LINE
  5
44
330
322
100
AcDbEntity
  8
HIBINO-BASE
  6
Continuous
 62
     7
100
AcDbLine
 10
600.0
 20
-1250.0
 30
0.0
 11
600.0
 21
-1150.0
 31
0.0
  0
TEXT
  5
45
330
322
100
AcDbEntity
  8
HIBINO-BASE
 62
     7
100
AcDbText
 10
233.5654000000003
 20
-1221.363533333333
 30
0.0
 40
16.28841145833333
  1
'17.01.
 41
0.7
 11
233.5654000000003
 21
-1205.075121874999
 31
0.0
100
AcDbText
 73
     3
  0
TEXT
  5
46
330
322
100
AcDbEntity
  8
HIBINO-BASE
 62
     7
100
AcDbText
 10
175.0000000000002
 20
-1229.839433333333
 30
0.0
 40
16.28841145833333
  1
10
 41
0.7
 11
175.0000000000002
 21
-1213.551021875
 31
0.0
100
AcDbText
 73
     3
  0
TEXT
  5
47
330
322
100
AcDbEntity
  8
HIBINO-BASE
 62
     7
100
AcDbText
 10
490.0581001103463
 20
-1221.363533333333
 30
0.0
 40
16.28841145833333
  1
N.Sasaki
 41
0.7
 11
490.0581001103463
 21
-1205.075121874999
 31
0.0
100
AcDbText
 73
     3
  0
TEXT
  5
48
330
322
100
AcDbEntity
  8
HIBINO-BASE
 62
     7
100
AcDbText
 10
38.83333333333376
 20
-1230.24
 30
0.0
 40
32.57682291666667
  1
A4
 41
0.7
 11
38.83333333333376
 21
-1197.663177083333
 31
0.0
100
AcDbText
 73
     3
  0
TEXT
  5
49
330
322
100
AcDbEntity
  8
HIBINO-BASE
 62
     7
100
AcDbText
 10
9.583333333333506
 20
-1176.19455
 30
0.0
 40
16.28841145833333
  1
PAPER SIZE
 41
0.7
 11
9.583333333333508
 21
-1159.906138541666
 31
0.0
100
AcDbText
 73
     3
  0
TEXT
  5
4A
330
322
100
AcDbEntity
  8
HIBINO-BASE
 62
     7
100
AcDbText
 10
-828.1599999999993
 20
-1314.086778
 30
0.0
 40
36.00044179687499
  1
Hibino Corporation
 41
0.7
 11
-828.1599999999993
 21
-1278.086336203125
 31
0.0
100
AcDbText
 73
     3
  0
TEXT
  5
4B
330
322
100
AcDbEntity
  8
HIBINO-BASE
 62
     7
100
AcDbText
 10
500.6839000000002
 20
-1314.086778
 30
0.0
 40
36.00044179687499
  1
ヒビノ株式会社
 41
0.7
 11
500.6839000000002
 21
-1278.086336203125
 31
0.0
100
AcDbText
 73
     3
  0
TEXT
  5
4C
330
322
100
AcDbEntity
  8
SPEC
 62
     7
100
AcDbText
 10
-812.4999999999996
 20
1251.790256666666
 30
0.0
 40
24.4326171875
  1
仕様
 41
0.7
 11
-812.4999999999996
 21
1276.222873854166
 31
0.0
100
AcDbText
 73
     3
  0
LINE
  5
4D
330
322
100
AcDbEntity
  8
SPEC
  6
Continuous
 62
     7
100
AcDbLine
 10
-824.9999999999996
 20
1237.857556666666
 30
0.0
 11
650.0000000000003
 21
1237.857556666666
 31
0.0
  0
LINE
  5
4E
330
322
100
AcDbEntity
  8
SPEC
  6
Continuous
 62
     7
100
AcDbLine
 10
-824.9999999999996
 20
1125.357556666666
 30
0.0
 11
650.0000000000003
 21
1125.357556666666
 31
0.0
  0
LINE
  5
4F
330
322
100
AcDbEntity
  8
SPEC
  6
Continuous
 62
     7
100
AcDbLine
 10
-824.9999999999996
 20
1162.857556666666
 30
0.0
 11
650.0000000000003
 21
1162.857556666666
 31
0.0
  0
LINE
  5
50
330
322
100
AcDbEntity
  8
SPEC
  6
Continuous
 62
     7
100
AcDbLine
 10
-824.9999999999996
 20
1200.357556666666
 30
0.0
 11
650.0000000000003
 21
1200.357556666666
 31
0.0
  0
LINE
  5
51
330
322
100
AcDbEntity
  8
SPEC
  6
Continuous
 62
     7
100
AcDbLine
 10
-824.9999999999996
 20
1237.857556666666
 30
0.0
 11
-824.9999999999996
 21
637.8575566666665
 31
0.0
  0
LINE
  5
52
330
322
100
AcDbEntity
  8
SPEC
  6
Continuous
 62
     7
100
AcDbLine
 10
650.0000000000003
 20
1237.857556666666
 30
0.0
 11
650.0000000000003
 21
637.5
 31
0.0
  0
LINE
  5
53
330
322
100
AcDbEntity
  8
SPEC
  6
Continuous
 62
     7
100
AcDbLine
 10
-824.9999999999996
 20
862.8575566666658
 30
0.0
 11
650.0000000000003
 21
862.8575566666658
 31
0.0
  0
LINE
  5
54
330
322
100
AcDbEntity
  8
SPEC
  6
Continuous
 62
     7
100
AcDbLine
 10
-824.9999999999996
 20
787.8575566666662
 30
0.0
 11
650.0000000000003
 21
787.8575566666662
 31
0.0
  0
LINE
  5
55
330
322
100
AcDbEntity
  8
SPEC
  6
Continuous
 62
     7
100
AcDbLine
 10
-824.9999999999996
 20
750.3575566666662
 30
0.0
 11
650.0000000000003
 21
750.3575566666662
 31
0.0
  0
LINE
  5
56
330
322
100
AcDbEntity
  8
SPEC
  6
Continuous
 62
     7
100
AcDbLine
 10
-824.9999999999996
 20
712.8575566666666
 30
0.0
 11
650.0000000000003
 21
712.8575566666666
 31
0.0
  0
LINE
  5
57
330
322
100
AcDbEntity
  8
SPEC
  6
Continuous
 62
     7
100
AcDbLine
 10
-824.9999999999996
 20
1050.357556666666
 30
0.0
 11
650.0000000000003
 21
1050.357556666666
 31
0.0
  0
LINE
  5
58
330
322
100
AcDbEntity
  8
SPEC
  6
Continuous
 62
     7
100
AcDbLine
 10
-824.9999999999996
 20
1012.857556666666
 30
0.0
 11
650.0000000000003
 21
1012.857556666666
 31
0.0
  0
LINE
  5
59
330
322
100
AcDbEntity
  8
SPEC
  6
Continuous
 62
     7
100
AcDbLine
 10
-824.9999999999996
 20
825.3575566666663
 30
0.0
 11
650.0000000000003
 21
825.3575566666663
 31
0.0
  0
LINE
  5
5A
330
322
100
AcDbEntity
  8
SPEC
  6
Continuous
 62
     7
100
AcDbLine
 10
-824.9999999999996
 20
712.8575566666666
 30
0.0
 11
650.0
 21
712.8575566666666
 31
0.0
  0
LINE
  5
5B
330
322
100
AcDbEntity
  8
SPEC
  6
Continuous
 62
     7
100
AcDbLine
 10
-824.9999999999996
 20
675.3575566666665
 30
0.0
 11
650.0
 21
675.3575566666665
 31
0.0
  0
LINE
  5
5C
330
322
100
AcDbEntity
  8
SPEC
  6
Continuous
 62
     7
100
AcDbLine
 10
-824.9999999999996
 20
675.3575566666665
 30
0.0
 11
650.0000000000003
 21
675.3575566666665
 31
0.0
  0
LINE
  5
5D
330
322
100
AcDbEntity
  8
SPEC
  6
Continuous
 62
     7
100
AcDbLine
 10
-824.9999999999996
 20
675.3575566666665
 30
0.0
 11
650.0
 21
675.3575566666665
 31
0.0
  0
LINE
  5
5E
330
322
100
AcDbEntity
  8
SPEC
  6
Continuous
 62
     7
100
AcDbLine
 10
-500.0
 20
1237.857556666666
 30
0.0
 11
-500.0
 21
637.8575566666665
 31
0.0
  0
TEXT
  5
5F
330
322
100
AcDbEntity
  8
SPEC
 62
     7
100
AcDbText
 10
-809.6909620693919
 20
592.1108564354815
 30
0.0
 40
19.00314670138889
  1
※1 IEC ピンクノイズ、クレストファクター6dB、100時間。
 41
0.7
 11
-809.6909620693919
 21
611.1140031368704
 31
0.0
100
AcDbText
 73
     3
  0
TEXT
  5
60
330
322
100
AcDbEntity
  8
SPEC
 62
     7
100
AcDbText
 10
-816.0
 20
1208.236734444444
 30
0.0
 40
19.00314670138889
  1
周波数レンジ(-10dB)
 41
0.7
 11
-816.0
 21
1227.239881145833
 31
0.0
100
AcDbText
 73
     3
  0
TEXT
  5
61
330
322
100
AcDbEntity
  8
SPEC
 62
     7
100
AcDbText
 10
-491.0000000000002
 20
1208.236734444444
 30
0.0
 40
19.00314670138889
  1
71Hz～20kHz
 41
0.7
 11
-491.0000000000002
 21
1227.239881145833
 31
0.0
100
AcDbText
 73
     3
  0
TEXT
  5
62
330
322
100
AcDbEntity
  8
SPEC
 62
     7
100
AcDbText
 10
-816.0
 20
1170.736734444444
 30
0.0
 40
19.00314670138889
  1
指向角度(水平×垂直)
 41
0.7
 11
-816.0
 21
1189.739881145833
 31
0.0
100
AcDbText
 73
     3
  0
TEXT
  5
63
330
322
100
AcDbEntity
  8
SPEC
 62
     7
100
AcDbText
 10
-491.0000000000002
 20
1170.736734444444
 30
0.0
 40
19.00314670138889
  1
160°×60°
 41
0.7
 11
-491.0000000000002
 21
1189.739881145833
 31
0.0
100
AcDbText
 73
     3
  0
TEXT
  5
64
330
322
100
AcDbEntity
  8
SPEC
 62
     7
100
AcDbText
 10
-816.0
 20
1133.236734444444
 30
0.0
 40
19.00314670138889
  1
最大音圧レベル(1m)
 41
0.7
 11
-816.0
 21
1152.239881145833
 31
0.0
100
AcDbText
 73
     3
  0
TEXT
  5
65
330
322
100
AcDbEntity
  8
SPEC
 62
     7
100
AcDbText
 10
-491.0000000000002
 20
1133.236734444444
 30
0.0
 40
19.00314670138889
  1
129dB SPL(ピーク)
 41
0.7
 11
-491.0000000000002
 21
1152.239881145833
 31
0.0
100
AcDbText
 73
     3
  0
LINE
  5
66
330
322
100
AcDbEntity
  8
SPEC
  6
Continuous
 62
     7
100
AcDbLine
 10
-824.9999999999996
 20
1087.857556666666
 30
0.0
 11
650.0000000000003
 21
1087.857556666666
 31
0.0
  0
LINE
  5
67
330
322
100
AcDbEntity
  8
SPEC
  6
Continuous
 62
     7
100
AcDbLine
 10
-824.9999999999996
 20
937.8575566666658
 30
0.0
 11
650.0000000000003
 21
937.8575566666658
 31
0.0
  0
TEXT
  5
68
330
322
100
AcDbEntity
  8
SPEC
 62
     7
100
AcDbText
 10
-816.0
 20
1095.736734444444
 30
0.0
 40
19.00314670138889
  1
感度(1W、1m)
 41
0.7
 11
-816.0
 21
1114.739881145833
 31
0.0
100
AcDbText
 73
     3
  0
TEXT
  5
69
330
322
100
AcDbEntity
  8
SPEC
 62
     7
100
AcDbText
 10
-491.0000000000002
 20
1095.736734444444
 30
0.0
 40
19.00314670138889
  1
94dB SPL
 41
0.7
 11
-491.0000000000002
 21
1114.739881145833
 31
0.0
100
AcDbText
 73
     3
  0
TEXT
  5
6A
330
322
100
AcDbEntity
  8
SPEC
 62
     7
100
AcDbText
 10
-816.0
 20
1058.236734444444
 30
0.0
 40
19.00314670138889
  1
公称インピーダンス
 41
0.7
 11
-816.0
 21
1077.239881145833
 31
0.0
100
AcDbText
 73
     3
  0
TEXT
  5
6B
330
322
100
AcDbEntity
  8
SPEC
 62
     7
100
AcDbText
 10
-491.0000000000002
 20
1058.236734444444
 30
0.0
 40
19.00314670138889
  1
8Ω
 41
0.7
 11
-491.0000000000002
 21
1077.239881145833
 31
0.0
100
AcDbText
 73
     3
  0
TEXT
  5
6C
330
322
100
AcDbEntity
  8
SPEC
 62
     7
100
AcDbText
 10
-816.0
 20
1020.736734444444
 30
0.0
 40
19.00314670138889
  1
許容入力※1
 41
0.7
 11
-816.0
 21
1039.739881145833
 31
0.0
100
AcDbText
 73
     3
  0
TEXT
  5
6D
330
322
100
AcDbEntity
  8
SPEC
 62
     7
100
AcDbText
 10
-491.0000000000002
 20
1020.736734444444
 30
0.0
 40
19.00314670138889
  1
450W
 41
0.7
 11
-491.0000000000002
 21
1039.739881145833
 31
0.0
100
AcDbText
 73
     3
  0
TEXT
  5
6E
330
322
100
AcDbEntity
  8
SPEC
 62
     7
100
AcDbText
 10
-816.0
 20
983.2367344444438
 30
0.0
 40
19.00314670138889
  1
トランスタップ
 41
0.7
 11
-816.0
 21
1002.239881145833
 31
0.0
100
AcDbText
 73
     3
  0
TEXT
  5
6F
330
322
100
AcDbEntity
  8
SPEC
 62
     7
100
AcDbText
 10
-491.0000000000002
 20
983.2367344444438
 30
0.0
 40
19.00314670138889
  1
110W/55W
 41
0.7
 11
-491.0000000000002
 21
1002.239881145833
 31
0.0
100
AcDbText
 73
     3
  0
TEXT
  5
70
330
322
100
AcDbEntity
  8
SPEC
 62
     7
100
AcDbText
 10
-491.0000000000002
 20
945.7367344444433
 30
0.0
 40
19.00314670138889
  1
110W/55W/28W
 41
0.7
 11
-491.0000000000002
 21
964.7398811458323
 31
0.0
100
AcDbText
 73
     3
  0
TEXT
  5
71
330
322
100
AcDbEntity
  8
SPEC
 62
     7
100
AcDbText
 10
-816.0
 20
908.2367344444438
 30
0.0
 40
19.00314670138889
  1
ドライバー構成
 41
0.7
 11
-816.0
 21
927.2398811458328
 31
0.0
100
AcDbText
 73
     3
  0
TEXT
  5
72
330
322
100
AcDbEntity
  8
SPEC
 62
     7
100
AcDbText
 10
-491.0000000000002
 20
908.2367344444438
 30
0.0
 40
19.00314670138889
  1
203mm(228J)×2
 41
0.7
 11
-491.0000000000002
 21
927.2398811458328
 31
0.0
100
AcDbText
 73
     3
  0
TEXT
  5
73
330
322
100
AcDbEntity
  8
SPEC
 62
     7
100
AcDbText
 10
-491.0000000000002
 20
870.7367344444438
 30
0.0
 40
19.00314670138889
  1
25mm(2408H-1)×2
 41
0.7
 11
-491.0000000000002
 21
889.7398811458328
 31
0.0
100
AcDbText
 73
     3
  0
TEXT
  5
74
330
322
100
AcDbEntity
  8
SPEC
 62
     7
100
AcDbText
 10
-816.0
 20
833.2367344444438
 30
0.0
 40
19.00314670138889
  1
クロスオーバー周波数
 41
0.7
 11
-816.0
 21
852.2398811458327
 31
0.0
100
AcDbText
 73
     3
  0
TEXT
  5
75
330
322
100
AcDbEntity
  8
SPEC
 62
     7
100
AcDbText
 10
-491.0000000000002
 20
833.2367344444438
 30
0.0
 40
19.00314670138889
  1
1.5kHz
 41
0.7
 11
-491.0000000000002
 21
852.2398811458327
 31
0.0
100
AcDbText
 73
     3
  0
TEXT
  5
76
330
322
100
AcDbEntity
  8
SPEC
 62
     7
100
AcDbText
 10
-816.0
 20
795.7367344444438
 30
0.0
 40
19.00314670138889
  1
入力端子
 41
0.7
 11
-816.0
 21
814.7398811458327
 31
0.0
100
AcDbText
 73
     3
  0
TEXT
  5
77
330
322
100
AcDbEntity
  8
SPEC
 62
     7
100
AcDbText
 10
-491.0000000000002
 20
795.7367344444438
 30
0.0
 40
19.00314670138889
  1
ねじ止め端子
 41
0.7
 11
-491.0000000000002
 21
814.7398811458327
 31
0.0
100
AcDbText
 73
     3
  0
TEXT
  5
78
330
322
100
AcDbEntity
  8
SPEC
 62
     7
100
AcDbText
 10
-491.0000000000002
 20
720.7367344444438
 30
0.0
 40
19.00314670138889
  1
12/15mm堅木合板、黒/白(-WH)、DuraFlex仕上げ
 41
0.7
 11
-491.0000000000002
 21
739.7398811458328
 31
0.0
100
AcDbText
 73
     3
  0
TEXT
  5
79
330
322
100
AcDbEntity
  8
SPEC
 62
     7
100
AcDbText
 10
-816.0
 20
720.7367344444438
 30
0.0
 40
19.00314670138889
  1
エンクロージャー
 41
0.7
 11
-816.0
 21
739.7398811458328
 31
0.0
100
AcDbText
 73
     3
  0
TEXT
  5
7A
330
322
100
AcDbEntity
  8
SPEC
 62
     7
100
AcDbText
 10
-491.1295337678033
 20
683.461093511575
 30
0.0
 40
19.00314670138889
  1
258×810×300
 41
0.7
 11
-491.1295337678033
 21
702.4642402129639
 31
0.0
100
AcDbText
 73
     3
  0
TEXT
  5
7B
330
322
100
AcDbEntity
  8
SPEC
 62
     7
100
AcDbText
 10
-816.0
 20
645.7367504444439
 30
0.0
 40
19.00311249999999
  1
質量
 41
0.7
 11
-816.0
 21
664.7398629444439
 31
0.0
100
AcDbText
 73
     3
  0
TEXT
  5
7C
330
322
100
AcDbEntity
  8
SPEC
 62
     7
100
AcDbText
 10
-816.0
 20
683.2367344444438
 30
0.0
 40
19.00314670138889
  1
寸法(W×H×D)
 41
0.7
 11
-816.0
 21
702.2398811458328
 31
0.0
100
AcDbText
 73
     3
  0
TEXT
  5
7D
330
322
100
AcDbEntity
  8
SPEC
 62
     7
100
AcDbText
 10
-491.0000000000002
 20
645.7367504444439
 30
0.0
 40
19.00311249999999
  1
27kg
 41
0.7
 11
-491.0000000000002
 21
664.7398629444439
 31
0.0
100
AcDbText
 73
     3
  0
TEXT
  5
7E
330
322
100
AcDbEntity
  8
SPEC
 62
     7
100
AcDbText
 10
-592.3543805678863
 20
983.2367344444438
 30
0.0
 40
19.00314670138889
  1
100V
 41
0.7
 11
-592.3543805678863
 21
1002.239881145833
 31
0.0
100
AcDbText
 73
     3
  0
TEXT
  5
7F
330
322
100
AcDbEntity
  8
SPEC
 62
     7
100
AcDbText
 10
-591.4121906712564
 20
945.7367344444433
 30
0.0
 40
19.00314670138889
  1
70V
 41
0.7
 11
-591.4121906712564
 21
964.7398811458323
 31
0.0
100
AcDbText
 73
     3
  0
TEXT
  5
80
330
322
100
AcDbEntity
  8
SPEC
 62
     7
100
AcDbText
 10
-591.2775921707534
 20
908.2367344444438
 30
0.0
 40
19.00314670138889
  1
LF
 41
0.7
 11
-591.2775921707534
 21
927.2398811458328
 31
0.0
100
AcDbText
 73
     3
  0
TEXT
  5
81
330
322
100
AcDbEntity
  8
SPEC
 62
     7
100
AcDbText
 10
-591.098127447258
 20
870.7367344444438
 30
0.0
 40
19.00314670138889
  1
HF
 41
0.7
 11
-591.098127447258
 21
889.7398811458328
 31
0.0
100
AcDbText
 73
     3
  0
LINE
  5
82
330
322
100
AcDbEntity
  8
SPEC
  6
Continuous
 62
     7
100
AcDbLine
 10
-600.0
 20
862.8575566666658
 30
0.0
 11
-600.0
 21
1012.857556666666
 31
0.0
  0
LINE
  5
83
330
322
100
AcDbEntity
  8
SPEC
  6
Continuous
 62
     7
100
AcDbLine
 10
-600.0
 20
1012.857556666666
 30
0.0
 11
650.0000000000006
 21
1012.857556666666
 31
0.0
  0
LINE
  5
84
330
322
100
AcDbEntity
  8
SPEC
  6
Continuous
 62
     7
100
AcDbLine
 10
-600.0
 20
975.3575566666663
 30
0.0
 11
650.0000000000006
 21
975.3575566666663
 31
0.0
  0
LINE
  5
85
330
322
100
AcDbEntity
  8
SPEC
  6
Continuous
 62
     7
100
AcDbLine
 10
-600.0
 20
900.3575566666658
 30
0.0
 11
650.0000000000006
 21
900.3575566666658
 31
0.0
  0
LINE
  5
86
330
322
100
AcDbEntity
  8
SPEC
  6
Continuous
 62
     7
100
AcDbLine
 10
-824.9999999999996
 20
637.8575566666665
 30
0.0
 11
650.0
 21
637.8575566666665
 31
0.0
  0
TEXT
  5
87
330
322
100
AcDbEntity
  8
SPEC
 62
     7
100
AcDbText
 10
-816.0
 20
758.2367344444438
 30
0.0
 40
19.00314670138889
  1
適合ケーブル
 41
0.7
 11
-816.0
 21
777.2398811458328
 31
0.0
100
AcDbText
 73
     3
  0
TEXT
  5
88
330
322
100
AcDbEntity
  8
SPEC
 62
     7
100
AcDbText
 10
-491.0000000000002
 20
758.2367344444438
 30
0.0
 40
19.00314670138889
  1
φ2.6～9.5mm※2
 41
0.7
 11
-491.0000000000002
 21
777.2398811458328
 31
0.0
100
AcDbText
 73
     3
  0
TEXT
  5
89
330
322
100
AcDbEntity
  8
SPEC
 62
     7
100
AcDbText
 10
-809.6909620693919
 20
562.1108564354815
 30
0.0
 40
19.00314670138889
  1
※2 断面が円形のケーブルに限る
 41
0.7
 11
-809.6909620693919
 21
581.1140031368704
 31
0.0
100
AcDbText
 73
     3
  0
TEXT
  5
8A
330
322
100
AcDbEntity
  8
SPEC
 62
     7
100
AcDbText
 10
-809.6909620693919
 20
532.1108564354816
 30
0.0
 40
19.00314670138889
  1
※  本機の入力端子は、工場出荷時には8Ωの端子とハイ・インピーダンス接続用の70Vの端子がジャンパーで接続された状態になっています。 
 41
0.7
 11
-809.6909620693919
 21
551.1140031368706
 31
0.0
100
AcDbText
 73
     3
  0
TEXT
  5
8B
330
322
100
AcDbEntity
  8
SPEC
 62
     7
100
AcDbText
 10
-775.3466989751338
 20
502.1108564354817
 30
0.0
 40
19.00314670138889
  1
 ロー・インピーダンスで駆動する時はジャンパーを外して、ハイ・インピーダンスで駆動する時はジャンパーを付けたままで配線を行ってください。 
 41
0.7
 11
-775.3466989751338
 21
521.1140031368706
 31
0.0
100
AcDbText
 73
     3
  0
TEXT
  5
8C
330
322
100
AcDbEntity
  8
DIMNSIONS
 62
     7
100
AcDbText
 10
-199.9999999999997
 20
-1127.305099999999
 30
0.0
 40
24.4326171875
  1
(単位：mm)
 41
0.7
 11
-199.9999999999997
 21
-1102.872482812499
 31
0.0
100
AcDbText
 73
     3
  0
LINE
  5
8D
330
322
100
AcDbEntity
  8
DIMNSIONS
  6
Continuous
 62
     7
100
AcDbLine
 10
-729.0
 20
-910.0
 30
0.0
 11
-729.0
 21
-970.0
 31
0.0
  0
LINE
  5
8E
330
322
100
AcDbEntity
  8
DIMNSIONS
  6
Continuous
 62
     7
100
AcDbLine
 10
-471.0
 20
-910.0
 30
0.0
 11
-471.0
 21
-970.0
 31
0.0
  0
LINE
  5
8F
330
322
100
AcDbEntity
  8
DIMNSIONS
  6
Continuous
 62
     7
100
AcDbLine
 10
-729.0
 20
-950.0
 30
0.0
 11
-471.0
 21
-950.0
 31
0.0
  0
LINE
  5
90
330
322
100
AcDbEntity
  8
DIMNSIONS
  6
Continuous
 62
     7
100
AcDbLine
 10
-729.0
 20
-950.0
 30
0.0
 11
-703.9937744140624
 21
-943.2996020484976
 31
0.0
  0
LINE
  5
91
330
322
100
AcDbEntity
  8
DIMNSIONS
  6
Continuous
 62
     7
100
AcDbLine
 10
-729.0
 20
-950.0
 30
0.0
 11
-703.9937744140624
 21
-956.7003979515023
 31
0.0
  0
LINE
  5
92
330
322
100
AcDbEntity
  8
DIMNSIONS
  6
Continuous
 62
     7
100
AcDbLine
 10
-471.0
 20
-950.0
 30
0.0
 11
-496.0062255859375
 21
-956.7003979515023
 31
0.0
  0
LINE
  5
93
330
322
100
AcDbEntity
  8
DIMNSIONS
  6
Continuous
 62
     7
100
AcDbLine
 10
-471.0
 20
-950.0
 30
0.0
 11
-496.0062255859375
 21
-943.2996020484976
 31
0.0
  0
TEXT
  5
94
330
322
100
AcDbEntity
  8
DIMNSIONS
 62
     7
100
AcDbText
 10
-626.4583333333334
 20
-940.0611111111111
 30
0.0
 40
27.14735243055557
  1
258
 41
0.7
 11
-626.4583333333334
 21
-912.9137586805555
 31
0.0
100
AcDbText
 73
     3
  0
LINE
  5
95
330
322
100
AcDbEntity
  8
DIMNSIONS
  6
Continuous
 62
     7
100
AcDbLine
 10
-435.0
 20
-910.0
 30
0.0
 11
-435.0
 21
-970.0
 31
0.0
  0
LINE
  5
96
330
322
100
AcDbEntity
  8
DIMNSIONS
  6
Continuous
 62
     7
100
AcDbLine
 10
-135.0
 20
-910.0
 30
0.0
 11
-135.0
 21
-970.0
 31
0.0
  0
LINE
  5
97
330
322
100
AcDbEntity
  8
DIMNSIONS
  6
Continuous
 62
     7
100
AcDbLine
 10
-435.0
 20
-950.0
 30
0.0
 11
-135.0
 21
-950.0
 31
0.0
  0
LINE
  5
98
330
322
100
AcDbEntity
  8
DIMNSIONS
  6
Continuous
 62
     7
100
AcDbLine
 10
-435.0
 20
-950.0
 30
0.0
 11
-409.9937744140625
 21
-943.2996020484976
 31
0.0
  0
LINE
  5
99
330
322
100
AcDbEntity
  8
DIMNSIONS
  6
Continuous
 62
     7
100
AcDbLine
 10
-435.0
 20
-950.0
 30
0.0
 11
-409.9937744140625
 21
-956.7003979515023
 31
0.0
  0
LINE
  5
9A
330
322
100
AcDbEntity
  8
DIMNSIONS
  6
Continuous
 62
     7
100
AcDbLine
 10
-135.0
 20
-950.0
 30
0.0
 11
-160.0062255859375
 21
-956.7003979515023
 31
0.0
  0
LINE
  5
9B
330
322
100
AcDbEntity
  8
DIMNSIONS
  6
Continuous
 62
     7
100
AcDbLine
 10
-135.0
 20
-950.0
 30
0.0
 11
-160.0062255859375
 21
-943.2996020484976
 31
0.0
  0
TEXT
  5
9C
330
322
100
AcDbEntity
  8
DIMNSIONS
 62
     7
100
AcDbText
 10
-311.4583333333333
 20
-940.0611111111111
 30
0.0
 40
27.14735243055557
  1
300
 41
0.7
 11
-311.4583333333333
 21
-912.9137586805555
 31
0.0
100
AcDbText
 73
     3
  0
LINE
  5
9D
330
322
100
AcDbEntity
  8
DIMNSIONS
  6
Continuous
 62
     7
100
AcDbLine
 10
-684.8578643762701
 20
0.0
 30
0.0
 11
-770.0
 21
0.0
 31
0.0
  0
LINE
  5
9E
330
322
100
AcDbEntity
  8
DIMNSIONS
  6
Continuous
 62
     7
100
AcDbLine
 10
-701.5332386367937
 20
300.0
 30
0.0
 11
-770.0
 21
300.0
 31
0.0
  0
LINE
  5
9F
330
322
100
AcDbEntity
  8
DIMNSIONS
  6
Continuous
 62
     7
100
AcDbLine
 10
-750.0
 20
0.0
 30
0.0
 11
-750.0
 21
300.0
 31
0.0
  0
LINE
  5
A0
330
322
100
AcDbEntity
  8
DIMNSIONS
  6
Continuous
 62
     7
100
AcDbLine
 10
-750.0
 20
0.0
 30
0.0
 11
-756.7003979515024
 21
25.0062255859375
 31
0.0
  0
LINE
  5
A1
330
322
100
AcDbEntity
  8
DIMNSIONS
  6
Continuous
 62
     7
100
AcDbLine
 10
-750.0
 20
0.0
 30
0.0
 11
-743.2996020484976
 21
25.0062255859375
 31
0.0
  0
LINE
  5
A2
330
322
100
AcDbEntity
  8
DIMNSIONS
  6
Continuous
 62
     7
100
AcDbLine
 10
-750.0
 20
300.0
 30
0.0
 11
-743.2996020484976
 21
274.9937744140625
 31
0.0
  0
LINE
  5
A3
330
322
100
AcDbEntity
  8
DIMNSIONS
  6
Continuous
 62
     7
100
AcDbLine
 10
-750.0
 20
300.0
 30
0.0
 11
-756.7003979515024
 21
274.9937744140625
 31
0.0
  0
TEXT
  5
A4
330
322
100
AcDbEntity
  8
DIMNSIONS
 62
     7
100
AcDbText
 10
-759.9388888888888
 20
123.5416666666666
 30
0.0
 40
27.14735243055557
  1
300
 50
90.0
 41
0.7
 11
-787.0862413194444
 21
123.5416666666666
 31
0.0
100
AcDbText
 73
     3
  0
LINE
  5
A5
330
322
100
AcDbEntity
  8
DIMNSIONS
  6
Continuous
 62
     7
100
AcDbLine
 10
-729.0
 20
44.14213562373015
 30
0.0
 11
-729.0
 21
-70.0
 31
0.0
  0
LINE
  5
A6
330
322
100
AcDbEntity
  8
DIMNSIONS
  6
Continuous
 62
     7
100
AcDbLine
 10
-471.0
 20
44.14213562373015
 30
0.0
 11
-471.0
 21
-70.0
 31
0.0
  0
LINE
  5
A7
330
322
100
AcDbEntity
  8
DIMNSIONS
  6
Continuous
 62
     7
100
AcDbLine
 10
-729.0
 20
-50.0
 30
0.0
 11
-471.0
 21
-50.0
 31
0.0
  0
LINE
  5
A8
330
322
100
AcDbEntity
  8
DIMNSIONS
  6
Continuous
 62
     7
100
AcDbLine
 10
-729.0
 20
-50.0
 30
0.0
 11
-703.9937744140624
 21
-43.29960204849757
 31
0.0
  0
LINE
  5
A9
330
322
100
AcDbEntity
  8
DIMNSIONS
  6
Continuous
 62
     7
100
AcDbLine
 10
-729.0
 20
-50.0
 30
0.0
 11
-703.9937744140624
 21
-56.70039795150243
 31
0.0
  0
LINE
  5
AA
330
322
100
AcDbEntity
  8
DIMNSIONS
  6
Continuous
 62
     7
100
AcDbLine
 10
-471.0
 20
-50.0
 30
0.0
 11
-496.0062255859375
 21
-56.70039795150244
 31
0.0
  0
LINE
  5
AB
330
322
100
AcDbEntity
  8
DIMNSIONS
  6
Continuous
 62
     7
100
AcDbLine
 10
-471.0
 20
-50.0
 30
0.0
 11
-496.0062255859375
 21
-43.29960204849757
 31
0.0
  0
TEXT
  5
AC
330
322
100
AcDbEntity
  8
DIMNSIONS
 62
     7
100
AcDbText
 10
-626.4583333333334
 20
-40.06111111111109
 30
0.0
 40
27.14735243055557
  1
258
 41
0.7
 11
-626.4583333333334
 21
-12.91375868055552
 31
0.0
100
AcDbText
 73
     3
  0
LINE
  5
AD
330
322
100
AcDbEntity
  8
DIMNSIONS
  6
Continuous
 62
     7
100
AcDbLine
 10
-739.0
 20
-90.0
 30
0.0
 11
-770.0
 21
-90.0
 31
0.0
  0
LINE
  5
AE
330
322
100
AcDbEntity
  8
DIMNSIONS
  6
Continuous
 62
     7
100
AcDbLine
 10
-739.0
 20
-900.0
 30
0.0
 11
-770.0
 21
-900.0
 31
0.0
  0
LINE
  5
AF
330
322
100
AcDbEntity
  8
DIMNSIONS
  6
Continuous
 62
     7
100
AcDbLine
 10
-750.0
 20
-90.0
 30
0.0
 11
-750.0
 21
-900.0
 31
0.0
  0
LINE
  5
B0
330
322
100
AcDbEntity
  8
DIMNSIONS
  6
Continuous
 62
     7
100
AcDbLine
 10
-750.0
 20
-90.0
 30
0.0
 11
-743.2996020484976
 21
-115.0062255859375
 31
0.0
  0
LINE
  5
B1
330
322
100
AcDbEntity
  8
DIMNSIONS
  6
Continuous
 62
     7
100
AcDbLine
 10
-750.0
 20
-90.0
 30
0.0
 11
-756.7003979515024
 21
-115.0062255859375
 31
0.0
  0
LINE
  5
B2
330
322
100
AcDbEntity
  8
DIMNSIONS
  6
Continuous
 62
     7
100
AcDbLine
 10
-750.0
 20
-900.0
 30
0.0
 11
-756.7003979515024
 21
-874.9937744140625
 31
0.0
  0
LINE
  5
B3
330
322
100
AcDbEntity
  8
DIMNSIONS
  6
Continuous
 62
     7
100
AcDbLine
 10
-750.0
 20
-900.0
 30
0.0
 11
-743.2996020484976
 21
-874.9937744140625
 31
0.0
  0
TEXT
  5
B4
330
322
100
AcDbEntity
  8
DIMNSIONS
 62
     7
100
AcDbText
 10
-759.9388888888888
 20
-521.4583333333333
 30
0.0
 40
27.14735243055556
  1
810
 50
90.0
 41
0.7
 11
-787.0862413194444
 21
-521.4583333333333
 31
0.0
100
AcDbText
 73
     3
  0
LINE
  5
B5
330
322
100
AcDbEntity
  8
DIMNSIONS
  6
Continuous
 62
     7
100
AcDbLine
 10
-135.0
 20
-80.0
 30
0.0
 11
-135.0
 21
-30.0
 31
0.0
  0
LINE
  5
B6
330
322
100
AcDbEntity
  8
DIMNSIONS
  6
Continuous
 62
     7
100
AcDbLine
 10
-313.0
 20
-218.0
 30
0.0
 11
-313.0
 21
-30.0
 31
0.0
  0
LINE
  5
B7
330
322
100
AcDbEntity
  8
DIMNSIONS
  6
Continuous
 62
     7
100
AcDbLine
 10
-135.0
 20
-50.0
 30
0.0
 11
-313.0
 21
-50.0
 31
0.0
  0
LINE
  5
B8
330
322
100
AcDbEntity
  8
DIMNSIONS
  6
Continuous
 62
     7
100
AcDbLine
 10
-135.0
 20
-50.0
 30
0.0
 11
-160.0062255859375
 21
-56.70039795150244
 31
0.0
  0
LINE
  5
B9
330
322
100
AcDbEntity
  8
DIMNSIONS
  6
Continuous
 62
     7
100
AcDbLine
 10
-135.0
 20
-50.0
 30
0.0
 11
-160.0062255859375
 21
-43.29960204849757
 31
0.0
  0
LINE
  5
BA
330
322
100
AcDbEntity
  8
DIMNSIONS
  6
Continuous
 62
     7
100
AcDbLine
 10
-313.0
 20
-50.0
 30
0.0
 11
-287.9937744140625
 21
-43.29960204849757
 31
0.0
  0
LINE
  5
BB
330
322
100
AcDbEntity
  8
DIMNSIONS
  6
Continuous
 62
     7
100
AcDbLine
 10
-313.0
 20
-50.0
 30
0.0
 11
-287.9937744140625
 21
-56.70039795150243
 31
0.0
  0
TEXT
  5
BC
330
322
100
AcDbEntity
  8
DIMNSIONS
 62
     7
100
AcDbText
 10
-250.4583333333333
 20
-40.06111111111111
 30
0.0
 40
27.14735243055556
  1
178
 41
0.7
 11
-250.4583333333333
 21
-12.91375868055555
 31
0.0
100
AcDbText
 73
     3
  0
LINE
  5
BD
330
322
100
AcDbEntity
  8
DIMNSIONS
  6
Continuous
 62
     7
100
AcDbLine
 10
-515.1421356237297
 20
0.0
 30
0.0
 11
-405.0
 21
0.0
 31
0.0
  0
LINE
  5
BE
330
322
100
AcDbEntity
  8
DIMNSIONS
  6
Continuous
 62
     7
100
AcDbLine
 10
-580.0
 20
167.0000000000009
 30
0.0
 11
-405.0
 21
167.0000000000009
 31
0.0
  0
LINE
  5
BF
330
322
100
AcDbEntity
  8
DIMNSIONS
  6
Continuous
 62
     7
100
AcDbLine
 10
-425.0
 20
0.0
 30
0.0
 11
-425.0
 21
167.0000000000009
 31
0.0
  0
LINE
  5
C0
330
322
100
AcDbEntity
  8
DIMNSIONS
  6
Continuous
 62
     7
100
AcDbLine
 10
-425.0
 20
0.0
 30
0.0
 11
-431.7003979515025
 21
25.0062255859375
 31
0.0
  0
LINE
  5
C1
330
322
100
AcDbEntity
  8
DIMNSIONS
  6
Continuous
 62
     7
100
AcDbLine
 10
-425.0
 20
0.0
 30
0.0
 11
-418.2996020484976
 21
25.0062255859375
 31
0.0
  0
LINE
  5
C2
330
322
100
AcDbEntity
  8
DIMNSIONS
  6
Continuous
 62
     7
100
AcDbLine
 10
-425.0
 20
167.0000000000009
 30
0.0
 11
-418.2996020484976
 21
141.9937744140634
 31
0.0
  0
LINE
  5
C3
330
322
100
AcDbEntity
  8
DIMNSIONS
  6
Continuous
 62
     7
100
AcDbLine
 10
-425.0
 20
167.0000000000009
 30
0.0
 11
-431.7003979515025
 21
141.9937744140634
 31
0.0
  0
TEXT
  5
C4
330
322
100
AcDbEntity
  8
DIMNSIONS
 62
     7
100
AcDbText
 10
-434.9388888888888
 20
57.04166666666714
 30
0.0
 40
27.14735243055556
  1
167
 50
90.0
 41
0.7
 11
-462.0862413194443
 21
57.04166666666714
 31
0.0
100
AcDbText
 73
     3
  0
LINE
  5
C5
330
322
100
AcDbEntity
  8
DIMNSIONS
  6
Continuous
 62
     7
100
AcDbLine
 10
11.0
 20
-90.0
 30
0.0
 11
-20.0
 21
-90.0
 31
0.0
  0
LINE
  5
C6
330
322
100
AcDbEntity
  8
DIMNSIONS
  6
Continuous
 62
     7
100
AcDbLine
 10
130.0
 20
-494.0
 30
0.0
 11
-20.0
 21
-494.0
 31
0.0
  0
LINE
  5
C7
330
322
100
AcDbEntity
  8
DIMNSIONS
  6
Continuous
 62
     7
100
AcDbLine
 10
0.0
 20
-90.0
 30
0.0
 11
0.0
 21
-494.0
 31
0.0
  0
LINE
  5
C8
330
322
100
AcDbEntity
  8
DIMNSIONS
  6
Continuous
 62
     7
100
AcDbLine
 10
0.0
 20
-90.0
 30
0.0
 11
6.700397951502431
 21
-115.0062255859375
 31
0.0
  0
LINE
  5
C9
330
322
100
AcDbEntity
  8
DIMNSIONS
  6
Continuous
 62
     7
100
AcDbLine
 10
0.0
 20
-90.0
 30
0.0
 11
-6.700397951502433
 21
-115.0062255859375
 31
0.0
  0
LINE
  5
CA
330
322
100
AcDbEntity
  8
DIMNSIONS
  6
Continuous
 62
     7
100
AcDbLine
 10
0.0
 20
-494.0
 30
0.0
 11
-6.700397951502433
 21
-468.9937744140625
 31
0.0
  0
LINE
  5
CB
330
322
100
AcDbEntity
  8
DIMNSIONS
  6
Continuous
 62
     7
100
AcDbLine
 10
0.0
 20
-494.0
 30
0.0
 11
6.700397951502431
 21
-468.9937744140625
 31
0.0
  0
TEXT
  5
CC
330
322
100
AcDbEntity
  8
DIMNSIONS
 62
     7
100
AcDbText
 10
-9.938888888888897
 20
-318.4583333333334
 30
0.0
 40
27.14735243055556
  1
404
 50
90.0
 41
0.7
 11
-37.08624131944445
 21
-318.4583333333334
 31
0.0
100
AcDbText
 73
     3
  0
LINE
  5
CD
330
322
100
AcDbEntity
  8
DIMNSIONS
  6
Continuous
 62
     7
100
AcDbLine
 10
289.0
 20
-90.0
 30
0.0
 11
345.0
 21
-90.0
 31
0.0
  0
LINE
  5
CE
330
322
100
AcDbEntity
  8
DIMNSIONS
  6
Continuous
 62
     7
100
AcDbLine
 10
205.0
 20
-180.0
 30
0.0
 11
345.0
 21
-180.0
 31
0.0
  0
LINE
  5
CF
330
322
100
AcDbEntity
  8
DIMNSIONS
  6
Continuous
 62
     7
100
AcDbLine
 10
325.0
 20
-90.0
 30
0.0
 11
325.0
 21
-180.0
 31
0.0
  0
LINE
  5
D0
330
322
100
AcDbEntity
  8
DIMNSIONS
  6
Continuous
 62
     7
100
AcDbLine
 10
325.0
 20
-90.0
 30
0.0
 11
331.7003979515024
 21
-115.0062255859375
 31
0.0
  0
LINE
  5
D1
330
322
100
AcDbEntity
  8
DIMNSIONS
  6
Continuous
 62
     7
100
AcDbLine
 10
325.0
 20
-90.0
 30
0.0
 11
318.2996020484976
 21
-115.0062255859375
 31
0.0
  0
LINE
  5
D2
330
322
100
AcDbEntity
  8
DIMNSIONS
  6
Continuous
 62
     7
100
AcDbLine
 10
325.0
 20
-180.0
 30
0.0
 11
318.2996020484976
 21
-154.9937744140625
 31
0.0
  0
LINE
  5
D3
330
322
100
AcDbEntity
  8
DIMNSIONS
  6
Continuous
 62
     7
100
AcDbLine
 10
325.0
 20
-180.0
 30
0.0
 11
331.7003979515024
 21
-154.9937744140625
 31
0.0
  0
TEXT
  5
D4
330
322
100
AcDbEntity
  8
DIMNSIONS
 62
     7
100
AcDbText
 10
315.0611111111111
 20
-170.2777777777777
 30
0.0
 40
27.14735243055556
  1
90.0
 50
90.0
 41
0.7
 11
287.9137586805556
 21
-170.2777777777777
 31
0.0
100
AcDbText
 73
     3
  0
LINE
  5
D5
330
322
100
AcDbEntity
  8
DIMNSIONS
  6
Continuous
 62
     7
100
AcDbLine
 10
205.0
 20
-180.0
 30
0.0
 11
345.0
 21
-180.0
 31
0.0
  0
LINE
  5
D6
330
322
100
AcDbEntity
  8
DIMNSIONS
  6
Continuous
 62
     7
100
AcDbLine
 10
205.0
 20
-307.0
 30
0.0
 11
345.0
 21
-307.0
 31
0.0
  0
LINE
  5
D7
330
322
100
AcDbEntity
  8
DIMNSIONS
  6
Continuous
 62
     7
100
AcDbLine
 10
325.0
 20
-180.0
 30
0.0
 11
325.0
 21
-307.0
 31
0.0
  0
LINE
  5
D8
330
322
100
AcDbEntity
  8
DIMNSIONS
  6
Continuous
 62
     7
100
AcDbLine
 10
325.0
 20
-180.0
 30
0.0
 11
331.7003979515024
 21
-205.0062255859375
 31
0.0
  0
LINE
  5
D9
330
322
100
AcDbEntity
  8
DIMNSIONS
  6
Continuous
 62
     7
100
AcDbLine
 10
325.0
 20
-180.0
 30
0.0
 11
318.2996020484976
 21
-205.0062255859375
 31
0.0
  0
LINE
  5
DA
330
322
100
AcDbEntity
  8
DIMNSIONS
  6
Continuous
 62
     7
100
AcDbLine
 10
325.0
 20
-307.0
 30
0.0
 11
318.2996020484976
 21
-281.9937744140625
 31
0.0
  0
LINE
  5
DB
330
322
100
AcDbEntity
  8
DIMNSIONS
  6
Continuous
 62
     7
100
AcDbLine
 10
325.0
 20
-307.0
 30
0.0
 11
331.7003979515024
 21
-281.9937744140625
 31
0.0
  0
TEXT
  5
DC
330
322
100
AcDbEntity
  8
DIMNSIONS
 62
     7
100
AcDbText
 10
315.0611111111111
 20
-269.9583333333334
 30
0.0
 40
27.14735243055556
  1
127
 50
90.0
 41
0.7
 11
287.9137586805556
 21
-269.9583333333334
 31
0.0
100
AcDbText
 73
     3
  0
LINE
  5
DD
330
322
100
AcDbEntity
  8
DIMNSIONS
  6
Continuous
 62
     7
100
AcDbLine
 10
115.0
 20
-160.0
 30
0.0
 11
115.0
 21
-30.0
 31
0.0
  0
LINE
  5
DE
330
322
100
AcDbEntity
  8
DIMNSIONS
  6
Continuous
 62
     7
100
AcDbLine
 10
185.0
 20
-160.0
 30
0.0
 11
185.0
 21
-30.0
 31
0.0
  0
LINE
  5
DF
330
322
100
AcDbEntity
  8
DIMNSIONS
  6
Continuous
 62
     7
100
AcDbLine
 10
115.0
 20
-50.0
 30
0.0
 11
185.0
 21
-50.0
 31
0.0
  0
LINE
  5
E0
330
322
100
AcDbEntity
  8
DIMNSIONS
  6
Continuous
 62
     7
100
AcDbLine
 10
115.0
 20
-50.0
 30
0.0
 11
140.0062255859375
 21
-43.29960204849757
 31
0.0
  0
LINE
  5
E1
330
322
100
AcDbEntity
  8
DIMNSIONS
  6
Continuous
 62
     7
100
AcDbLine
 10
115.0
 20
-50.0
 30
0.0
 11
140.0062255859375
 21
-56.70039795150243
 31
0.0
  0
LINE
  5
E2
330
322
100
AcDbEntity
  8
DIMNSIONS
  6
Continuous
 62
     7
100
AcDbLine
 10
185.0
 20
-50.0
 30
0.0
 11
159.9937744140625
 21
-56.70039795150244
 31
0.0
  0
LINE
  5
E3
330
322
100
AcDbEntity
  8
DIMNSIONS
  6
Continuous
 62
     7
100
AcDbLine
 10
185.0
 20
-50.0
 30
0.0
 11
159.9937744140625
 21
-43.29960204849757
 31
0.0
  0
TEXT
  5
E4
330
322
100
AcDbEntity
  8
DIMNSIONS
 62
     7
100
AcDbText
 10
114.7222222222222
 20
-40.06111111111111
 30
0.0
 40
27.14735243055556
  1
70.0
 41
0.7
 11
114.7222222222222
 21
-12.91375868055555
 31
0.0
100
AcDbText
 73
     3
  0
LINE
  5
E5
330
322
100
AcDbEntity
  8
DIMNSIONS
  6
Continuous
 62
     7
100
AcDbLine
 10
-125.0
 20
-90.0
 30
0.0
 11
-65.0
 21
-90.0
 31
0.0
  0
LINE
  5
E6
330
322
100
AcDbEntity
  8
DIMNSIONS
  6
Continuous
 62
     7
100
AcDbLine
 10
-293.0
 20
-238.0
 30
0.0
 11
-65.0
 21
-238.0
 31
0.0
  0
LINE
  5
E7
330
322
100
AcDbEntity
  8
DIMNSIONS
  6
Continuous
 62
     7
100
AcDbLine
 10
-85.0
 20
-90.0
 30
0.0
 11
-85.0
 21
-238.0
 31
0.0
  0
LINE
  5
E8
330
322
100
AcDbEntity
  8
DIMNSIONS
  6
Continuous
 62
     7
100
AcDbLine
 10
-85.0
 20
-90.0
 30
0.0
 11
-78.29960204849756
 21
-115.0062255859375
 31
0.0
  0
LINE
  5
E9
330
322
100
AcDbEntity
  8
DIMNSIONS
  6
Continuous
 62
     7
100
AcDbLine
 10
-85.0
 20
-90.0
 30
0.0
 11
-91.70039795150243
 21
-115.0062255859375
 31
0.0
  0
LINE
  5
EA
330
322
100
AcDbEntity
  8
DIMNSIONS
  6
Continuous
 62
     7
100
AcDbLine
 10
-85.0
 20
-238.0
 30
0.0
 11
-91.70039795150243
 21
-212.9937744140625
 31
0.0
  0
LINE
  5
EB
330
322
100
AcDbEntity
  8
DIMNSIONS
  6
Continuous
 62
     7
100
AcDbLine
 10
-85.0
 20
-238.0
 30
0.0
 11
-78.29960204849756
 21
-212.9937744140625
 31
0.0
  0
TEXT
  5
EC
330
322
100
AcDbEntity
  8
DIMNSIONS
 62
     7
100
AcDbText
 10
-94.93888888888887
 20
-190.4583333333333
 30
0.0
 40
27.14735243055556
  1
148
 50
90.0
 41
0.7
 11
-122.0862413194444
 21
-190.4583333333333
 31
0.0
100
AcDbText
 73
     3
  0
LINE
  5
ED
330
322
100
AcDbEntity
  8
DIMNSIONS
  6
Continuous
 62
     7
100
AcDbLine
 10
-590.6729691495598
 20
170.6064519288377
 30
0.0
 11
-450.0
 21
225.0
 31
0.0
  0
LINE
  5
EE
330
322
100
AcDbEntity
  8
DIMNSIONS
  6
Continuous
 62
     7
100
AcDbLine
 10
-590.6729691495598
 20
170.6064519288377
 30
0.0
 11
-569.7288542769724
 21
185.823242095202
 31
0.0
  0
LINE
  5
EF
330
322
100
AcDbEntity
  8
DIMNSIONS
  6
Continuous
 62
     7
100
AcDbLine
 10
-590.6729691495598
 20
170.6064519288377
 30
0.0
 11
-564.9264385269376
 21
173.3125213406727
 31
0.0
  0
LINE
  5
F0
330
322
100
AcDbEntity
  8
DIMNSIONS
  6
Continuous
 62
     7
100
AcDbLine
 10
-450.0
 20
225.0
 30
0.0
 11
-430.0
 21
225.0
 31
0.0
  0
TEXT
  5
F1
330
322
100
AcDbEntity
  8
DIMNSIONS
 62
     7
100
AcDbText
 10
-430.0
 20
212.3
 30
0.0
 40
27.14735243055556
  1
M10(2ヵ所)
 41
0.7
 11
-430.0
 21
239.4473524305556
 31
0.0
100
AcDbText
 73
     3
  0
LINE
  5
F2
330
322
100
AcDbEntity
  8
DIMNSIONS
  6
Continuous
 62
     7
100
AcDbLine
 10
-310.6704662363194
 20
-228.2751209547937
 30
0.0
 11
-250.0
 21
25.00000000000003
 31
0.0
  0
LINE
  5
F3
330
322
100
AcDbEntity
  8
DIMNSIONS
  6
Continuous
 62
     7
100
AcDbLine
 10
-310.6704662363194
 20
-228.2751209547937
 30
0.0
 11
-311.1222802374677
 21
-202.3907141647654
 31
0.0
  0
LINE
  5
F4
330
322
100
AcDbEntity
  8
DIMNSIONS
  6
Continuous
 62
     7
100
AcDbLine
 10
-310.6704662363194
 20
-228.2751209547937
 30
0.0
 11
-298.1195452440852
 21
-205.6326601121647
 31
0.0
  0
LINE
  5
F5
330
322
100
AcDbEntity
  8
DIMNSIONS
  6
Continuous
 62
     7
100
AcDbLine
 10
-250.0
 20
25.00000000000003
 30
0.0
 11
-230.0
 21
25.00000000000003
 31
0.0
  0
TEXT
  5
F6
330
322
100
AcDbEntity
  8
DIMNSIONS
 62
     7
100
AcDbText
 10
-230.0
 20
12.30000000000003
 30
0.0
 40
27.14735243055556
  1
M10(2ヵ所)
 41
0.7
 11
-230.0
 21
39.44735243055559
 31
0.0
100
AcDbText
 73
     3
  0
LINE
  5
F7
330
322
100
AcDbEntity
  8
DIMNSIONS
  6
Continuous
 62
     7
100
AcDbLine
 10
-600.0
 20
187.0000000000008
 30
0.0
 11
-600.0
 21
345.0
 31
0.0
  0
LINE
  5
F8
330
322
100
AcDbEntity
  8
DIMNSIONS
  6
Continuous
 62
     7
100
AcDbLine
 10
-471.0
 20
183.5496803991773
 30
0.0
 11
-471.0
 21
345.0
 31
0.0
  0
LINE
  5
F9
330
322
100
AcDbEntity
  8
DIMNSIONS
  6
Continuous
 62
     7
100
AcDbLine
 10
-600.0
 20
325.0
 30
0.0
 11
-471.0
 21
325.0
 31
0.0
  0
LINE
  5
FA
330
322
100
AcDbEntity
  8
DIMNSIONS
  6
Continuous
 62
     7
100
AcDbLine
 10
-600.0
 20
325.0
 30
0.0
 11
-574.9937744140624
 21
331.7003979515024
 31
0.0
  0
LINE
  5
FB
330
322
100
AcDbEntity
  8
DIMNSIONS
  6
Continuous
 62
     7
100
AcDbLine
 10
-600.0
 20
325.0
 30
0.0
 11
-574.9937744140624
 21
318.2996020484976
 31
0.0
  0
LINE
  5
FC
330
322
100
AcDbEntity
  8
DIMNSIONS
  6
Continuous
 62
     7
100
AcDbLine
 10
-471.0
 20
325.0
 30
0.0
 11
-496.0062255859375
 21
318.2996020484976
 31
0.0
  0
LINE
  5
FD
330
322
100
AcDbEntity
  8
DIMNSIONS
  6
Continuous
 62
     7
100
AcDbLine
 10
-471.0
 20
325.0
 30
0.0
 11
-496.0062255859375
 21
331.7003979515024
 31
0.0
  0
TEXT
  5
FE
330
322
100
AcDbEntity
  8
DIMNSIONS
 62
     7
100
AcDbText
 10
-561.9583333333333
 20
334.9388888888888
 30
0.0
 40
27.14735243055556
  1
129
 41
0.7
 11
-561.9583333333333
 21
362.0862413194444
 31
0.0
100
AcDbText
 73
     3
  0
LINE
  5
FF
330
322
100
AcDbEntity
  8
DIMNSIONS
  6
Continuous
 62
     7
100
AcDbLine
 10
21.0
 20
-80.0
 30
0.0
 11
21.0
 21
-30.0
 31
0.0
  0
LINE
  5
100
330
322
100
AcDbEntity
  8
DIMNSIONS
  6
Continuous
 62
     7
100
AcDbLine
 10
115.0
 20
-160.0
 30
0.0
 11
115.0
 21
-30.0
 31
0.0
  0
LINE
  5
101
330
322
100
AcDbEntity
  8
DIMNSIONS
  6
Continuous
 62
     7
100
AcDbLine
 10
21.0
 20
-50.0
 30
0.0
 11
115.0
 21
-50.0
 31
0.0
  0
LINE
  5
102
330
322
100
AcDbEntity
  8
DIMNSIONS
  6
Continuous
 62
     7
100
AcDbLine
 10
21.0
 20
-50.0
 30
0.0
 11
46.0062255859375
 21
-43.29960204849757
 31
0.0
  0
LINE
  5
103
330
322
100
AcDbEntity
  8
DIMNSIONS
  6
Continuous
 62
     7
100
AcDbLine
 10
21.0
 20
-50.0
 30
0.0
 11
46.0062255859375
 21
-56.70039795150243
 31
0.0
  0
LINE
  5
104
330
322
100
AcDbEntity
  8
DIMNSIONS
  6
Continuous
 62
     7
100
AcDbLine
 10
115.0
 20
-50.0
 30
0.0
 11
89.99377441406251
 21
-56.70039795150244
 31
0.0
  0
LINE
  5
105
330
322
100
AcDbEntity
  8
DIMNSIONS
  6
Continuous
 62
     7
100
AcDbLine
 10
115.0
 20
-50.0
 30
0.0
 11
89.99377441406251
 21
-43.29960204849757
 31
0.0
  0
TEXT
  5
106
330
322
100
AcDbEntity
  8
DIMNSIONS
 62
     7
100
AcDbText
 10
32.72222222222222
 20
-40.06111111111111
 30
0.0
 40
27.14735243055556
  1
94.0
 41
0.7
 11
32.72222222222222
 21
-12.91375868055555
 31
0.0
100
AcDbText
 73
     3
  0
LINE
  5
107
330
322
100
AcDbEntity
  8
DIMNSIONS
  6
Continuous
 62
     7
100
AcDbLine
 10
-95.0
 20
-520.75
 30
0.0
 11
-95.0
 21
-570.0
 31
0.0
  0
LINE
  5
108
330
322
100
AcDbEntity
  8
DIMNSIONS
  6
Continuous
 62
     7
100
AcDbLine
 10
-135.0
 20
-528.8999999999999
 30
0.0
 11
-135.0
 21
-570.0
 31
0.0
  0
LINE
  5
109
330
322
100
AcDbEntity
  8
DIMNSIONS
  6
Continuous
 62
     7
100
AcDbLine
 10
-135.0
 20
-550.0
 30
0.0
 11
-95.0
 21
-550.0
 31
0.0
  0
LINE
  5
10A
330
322
100
AcDbEntity
  8
DIMNSIONS
  6
Continuous
 62
     7
100
AcDbLine
 10
-95.0
 20
-550.0
 30
0.0
 11
-14.44444444444444
 21
-550.0
 31
0.0
  0
LINE
  5
10B
330
322
100
AcDbEntity
  8
DIMNSIONS
  6
Continuous
 62
     7
100
AcDbLine
 10
-95.0
 20
-550.0
 30
0.0
 11
-69.9937744140625
 21
-543.2996020484976
 31
0.0
  0
LINE
  5
10C
330
322
100
AcDbEntity
  8
DIMNSIONS
  6
Continuous
 62
     7
100
AcDbLine
 10
-95.0
 20
-550.0
 30
0.0
 11
-69.9937744140625
 21
-556.7003979515024
 31
0.0
  0
LINE
  5
10D
330
322
100
AcDbEntity
  8
DIMNSIONS
  6
Continuous
 62
     7
100
AcDbLine
 10
-135.0
 20
-550.0
 30
0.0
 11
-185.0
 21
-550.0
 31
0.0
  0
LINE
  5
10E
330
322
100
AcDbEntity
  8
DIMNSIONS
  6
Continuous
 62
     7
100
AcDbLine
 10
-135.0
 20
-550.0
 30
0.0
 11
-160.0062255859375
 21
-556.7003979515024
 31
0.0
  0
LINE
  5
10F
330
322
100
AcDbEntity
  8
DIMNSIONS
  6
Continuous
 62
     7
100
AcDbLine
 10
-135.0
 20
-550.0
 30
0.0
 11
-160.0062255859375
 21
-543.2996020484976
 31
0.0
  0
TEXT
  5
110
330
322
100
AcDbEntity
  8
DIMNSIONS
 62
     7
100
AcDbText
 10
-85.0
 20
-540.0611111111112
 30
0.0
 40
27.14735243055556
  1
40.0
 41
0.7
 11
-85.0
 21
-512.9137586805557
 31
0.0
100
AcDbText
 73
     3
  0
LINE
  5
111
330
322
100
AcDbEntity
  8
DIMNSIONS
  6
Continuous
 62
     7
100
AcDbLine
 10
185.7737127289029
 20
-173.2944896828412
 30
0.0
 11
200.0
 21
-50.00000000000002
 31
0.0
  0
LINE
  5
112
330
322
100
AcDbEntity
  8
DIMNSIONS
  6
Continuous
 62
     7
100
AcDbLine
 10
185.7737127289029
 20
-173.2944896828412
 30
0.0
 11
182.170750820873
 21
-147.6580836115414
 31
0.0
  0
LINE
  5
113
330
322
100
AcDbEntity
  8
DIMNSIONS
  6
Continuous
 62
     7
100
AcDbLine
 10
185.7737127289029
 20
-173.2944896828412
 30
0.0
 11
195.4716592233313
 21
-149.291229809347
 31
0.0
  0
LINE
  5
114
330
322
100
AcDbEntity
  8
DIMNSIONS
  6
Continuous
 62
     7
100
AcDbLine
 10
200.0
 20
-50.00000000000002
 30
0.0
 11
220.0
 21
-50.00000000000002
 31
0.0
  0
TEXT
  5
115
330
322
100
AcDbEntity
  8
DIMNSIONS
 62
     7
100
AcDbText
 10
220.0
 20
-62.70000000000003
 30
0.0
 40
27.14735243055556
  1
M8(4ヵ所)
 41
0.7
 11
220.0
 21
-35.55264756944447
 31
0.0
100
AcDbText
 73
     3
  0
TEXT
  5
116
330
322
100
AcDbEntity
  8
DATA
 62
     7
100
AcDbText
 10
-874.9999999999996
 20
-1171.237222222222
 30
0.0
 40
19.00314670138889
  1
※仕様及び外観は予告なく変更されることがあります。
 41
0.7
 11
-874.9999999999996
 21
-1152.234075520833
 31
0.0
100
AcDbText
 73
     3
  0
TEXT
  5
117
330
322
100
AcDbEntity
  8
DATA
 62
     7
100
AcDbText
 10
-874.9999999999996
 20
-1195.931666666666
 30
0.0
 40
19.00314670138889
  1
　また、同一商品でも若干の個体差があることがあります。ご了承ください。
 41
0.7
 11
-874.9999999999996
 21
-1176.928519965277
 31
0.0
100
AcDbText
 73
     3
  0
TEXT
  5
118
330
322
100
AcDbEntity
  8
DATA
 62
     7
100
AcDbText
 10
500.0
 20
-1138.691099999999
 30
0.0
 40
24.4326171875
  1
CWT128
 41
0.7
 11
500.0
 21
-1114.258482812499
 31
0.0
100
AcDbText
 73
     3
  0
TEXT
  5
119
330
322
100
AcDbEntity
  8
DATA
 62
     7
100
AcDbText
 10
500.0
 20
-1066.1911
 30
0.0
 40
24.4326171875
  1
JBL PROFESSIONAL
 41
0.7
 11
500.0
 21
-1041.758482812499
 31
0.0
100
AcDbText
 73
     3
  0
LINE
  5
11A
330
322
100
AcDbEntity
  8
DATA
  6
Continuous
 62
     7
100
AcDbLine
 10
550.0
 20
-425.0
 30
0.0
 11
750.0
 21
-425.0
 31
0.0
  0
LINE
  5
11B
330
322
100
AcDbEntity
  8
DATA
  6
Continuous
 62
     7
100
AcDbLine
 10
-729.0
 20
-890.0
 30
0.0
 11
-729.0
 21
-100.0
 31
0.0
  0
LINE
  5
11C
330
322
100
AcDbEntity
  8
DATA
  6
Continuous
 62
     7
100
AcDbLine
 10
-669.0
 20
-900.0
 30
0.0
 11
-669.0
 21
-90.0
 31
0.0
  0
LINE
  5
11D
330
322
100
AcDbEntity
  8
DATA
  6
Continuous
 62
     7
100
AcDbLine
 10
-481.0
 20
-900.0
 30
0.0
 11
-719.0
 21
-900.0
 31
0.0
  0
LINE
  5
11E
330
322
100
AcDbEntity
  8
DATA
  6
Continuous
 62
     7
100
AcDbLine
 10
-471.0
 20
-890.0
 30
0.0
 11
-729.0
 21
-890.0
 31
0.0
  0
LINE
  5
11F
330
322
100
AcDbEntity
  8
DATA
  6
Continuous
 62
     7
100
AcDbLine
 10
-471.0
 20
-882.0
 30
0.0
 11
-729.0
 21
-882.0
 31
0.0
  0
LINE
  5
120
330
322
100
AcDbEntity
  8
DATA
  6
Continuous
 62
     7
100
AcDbLine
 10
-471.0
 20
-100.0
 30
0.0
 11
-471.0
 21
-890.0
 31
0.0
  0
LINE
  5
121
330
322
100
AcDbEntity
  8
DATA
  6
Continuous
 62
     7
100
AcDbLine
 10
-531.0
 20
-90.0
 30
0.0
 11
-531.0
 21
-900.0
 31
0.0
  0
LINE
  5
122
330
322
100
AcDbEntity
  8
DATA
  6
Continuous
 62
     7
100
AcDbLine
 10
-719.0
 20
-90.0
 30
0.0
 11
-481.0
 21
-90.0
 31
0.0
  0
LINE
  5
123
330
322
100
AcDbEntity
  8
DATA
  6
Continuous
 62
     7
100
AcDbLine
 10
-729.0
 20
-100.0
 30
0.0
 11
-471.0
 21
-100.0
 31
0.0
  0
LINE
  5
124
330
322
100
AcDbEntity
  8
DATA
  6
Continuous
 62
     7
100
AcDbLine
 10
-729.0
 20
-108.0
 30
0.0
 11
-471.0
 21
-108.0
 31
0.0
  0
LINE
  5
125
330
322
100
AcDbEntity
  8
DATA
  6
Continuous
 62
     7
100
AcDbLine
 10
-620.0
 20
-830.0
 30
0.0
 11
-620.0
 21
-790.0
 31
0.0
  0
LINE
  5
126
330
322
100
AcDbEntity
  8
DATA
  6
Continuous
 62
     7
100
AcDbLine
 10
-580.0
 20
-830.0
 30
0.0
 11
-620.0
 21
-830.0
 31
0.0
  0
LINE
  5
127
330
322
100
AcDbEntity
  8
DATA
  6
Continuous
 62
     7
100
AcDbLine
 10
-580.0
 20
-790.0
 30
0.0
 11
-580.0
 21
-830.0
 31
0.0
  0
LINE
  5
128
330
322
100
AcDbEntity
  8
DATA
  6
Continuous
 62
     7
100
AcDbLine
 10
-620.0
 20
-790.0
 30
0.0
 11
-580.0
 21
-790.0
 31
0.0
  0
ARC
  5
129
330
322
100
AcDbEntity
  8
DATA
  6
Continuous
 62
     7
100
AcDbCircle
 10
-719.0
 20
-100.0
 30
0.0
 40
10.0
100
AcDbArc
 50
90.0
 51
180.0
  0
ARC
  5
12A
330
322
100
AcDbEntity
  8
DATA
  6
Continuous
 62
     7
100
AcDbCircle
 10
-481.0
 20
-100.0
 30
0.0
 40
10.0
100
AcDbArc
 50
0.0
 51
90.0
  0
ARC
  5
12B
330
322
100
AcDbEntity
  8
DATA
  6
Continuous
 62
     7
100
AcDbCircle
 10
-719.0
 20
-890.0
 30
0.0
 40
10.0
100
AcDbArc
 50
180.0
 51
270.0
  0
ARC
  5
12C
330
322
100
AcDbEntity
  8
DATA
  6
Continuous
 62
     7
100
AcDbCircle
 10
-481.0
 20
-890.0
 30
0.0
 40
10.0
100
AcDbArc
 50
270.0
 51
0.0
  0
CIRCLE
  5
12D
330
322
100
AcDbEntity
  8
DATA
  6
Continuous
 62
     7
100
AcDbCircle
 10
-600.0
 20
-112.0
 30
0.0
 40
2.99999999999997
  0
CIRCLE
  5
12E
330
322
100
AcDbEntity
  8
DATA
  6
Continuous
 62
     7
100
AcDbCircle
 10
-501.0
 20
-112.0
 30
0.0
 40
2.999999999999945
  0
LINE
  5
12F
330
322
100
AcDbEntity
  8
DATA
  6
Continuous
 62
     7
100
AcDbLine
 10
-531.0
 20
-108.0
 30
0.0
 11
-471.0
 21
-108.0
 31
0.0
  0
CIRCLE
  5
130
330
322
100
AcDbEntity
  8
DATA
  6
Continuous
 62
     7
100
AcDbCircle
 10
-699.0
 20
-112.0
 30
0.0
 40
2.999999999999945
  0
CIRCLE
  5
131
330
322
100
AcDbEntity
  8
DATA
  6
Continuous
 62
     7
100
AcDbCircle
 10
-600.0
 20
-878.0
 30
0.0
 40
2.99999999999997
  0
CIRCLE
  5
132
330
322
100
AcDbEntity
  8
DATA
  6
Continuous
 62
     7
100
AcDbCircle
 10
-501.0
 20
-878.0
 30
0.0
 40
2.999999999999945
  0
CIRCLE
  5
133
330
322
100
AcDbEntity
  8
DATA
  6
Continuous
 62
     7
100
AcDbCircle
 10
-699.0
 20
-878.0
 30
0.0
 40
2.999999999999945
  0
LINE
  5
134
330
322
100
AcDbEntity
  8
DATA
  6
Continuous
 62
     7
100
AcDbLine
 10
-681.5332386367936
 20
300.0
 30
0.0
 11
-518.4667613632064
 21
300.0
 31
0.0
  0
LINE
  5
135
330
322
100
AcDbEntity
  8
DATA
  6
Continuous
 62
     7
100
AcDbLine
 10
-729.0
 20
64.14213562373015
 30
0.0
 11
-729.0
 21
163.5496803991764
 31
0.0
  0
LINE
  5
136
330
322
100
AcDbEntity
  8
DATA
  6
Continuous
 62
     7
100
AcDbLine
 10
-671.9289321881352
 20
2.928932188134694
 30
0.0
 11
-726.0710678118647
 21
57.07106781186485
 31
0.0
  0
LINE
  5
137
330
322
100
AcDbEntity
  8
DATA
  6
Continuous
 62
     7
100
AcDbLine
 10
-535.1421356237296
 20
0.0
 30
0.0
 11
-664.8578643762702
 21
0.0
 31
0.0
  0
LINE
  5
138
330
322
100
AcDbEntity
  8
DATA
  6
Continuous
 62
     7
100
AcDbLine
 10
-473.9289321881352
 20
57.07106781186485
 30
0.0
 11
-528.0710678118648
 21
2.928932188134694
 31
0.0
  0
LINE
  5
139
330
322
100
AcDbEntity
  8
DATA
  6
Continuous
 62
     7
100
AcDbLine
 10
-471.0
 20
163.5496803991773
 30
0.0
 11
-471.0
 21
64.14213562373015
 31
0.0
  0
LINE
  5
13A
330
322
100
AcDbEntity
  8
DATA
  6
Continuous
 62
     7
100
AcDbLine
 10
-728.5879811270842
 20
166.3905636960903
 30
0.0
 11
-691.1212197638779
 21
292.840883296914
 31
0.0
  0
LINE
  5
13B
330
322
100
AcDbEntity
  8
DATA
  6
Continuous
 62
     7
100
AcDbLine
 10
-471.4120188729157
 20
166.3905636960908
 30
0.0
 11
-508.878780236122
 21
292.840883296914
 31
0.0
  0
LINE
  5
13C
330
322
100
AcDbEntity
  8
DATA
  6
Continuous
 62
     7
100
AcDbLine
 10
21.0
 20
-890.0
 30
0.0
 11
21.0
 21
-100.0
 31
0.0
  0
LINE
  5
13D
330
322
100
AcDbEntity
  8
DATA
  6
Continuous
 62
     7
100
AcDbLine
 10
269.0
 20
-900.0
 30
0.0
 11
31.0
 21
-900.0
 31
0.0
  0
LINE
  5
13E
330
322
100
AcDbEntity
  8
DATA
  6
Continuous
 62
     7
100
AcDbLine
 10
279.0
 20
-100.0
 30
0.0
 11
279.0
 21
-890.0
 31
0.0
  0
LINE
  5
13F
330
322
100
AcDbEntity
  8
DATA
  6
Continuous
 62
     7
100
AcDbLine
 10
31.0
 20
-90.0
 30
0.0
 11
269.0
 21
-90.0
 31
0.0
  0
LINE
  5
140
330
322
100
AcDbEntity
  8
DATA
  6
Continuous
 62
     7
100
AcDbLine
 10
239.0
 20
-900.0
 30
0.0
 11
239.0
 21
-90.0
 31
0.0
  0
LINE
  5
141
330
322
100
AcDbEntity
  8
DATA
  6
Continuous
 62
     7
100
AcDbLine
 10
61.0
 20
-900.0
 30
0.0
 11
61.0
 21
-90.0
 31
0.0
  0
LINE
  5
142
330
322
100
AcDbEntity
  8
DATA
  6
Continuous
 62
     7
100
AcDbLine
 10
72.0
 20
-589.0
 30
0.0
 11
72.0
 21
-399.0
 31
0.0
  0
ARC
  5
143
330
322
100
AcDbEntity
  8
DATA
  6
Continuous
 62
     7
100
AcDbCircle
 10
87.0
 20
-589.0
 30
0.0
 40
15.0
100
AcDbArc
 50
180.0
 51
270.0
  0
LINE
  5
144
330
322
100
AcDbEntity
  8
DATA
  6
Continuous
 62
     7
100
AcDbLine
 10
213.0
 20
-604.0
 30
0.0
 11
87.0
 21
-604.0
 31
0.0
  0
ARC
  5
145
330
322
100
AcDbEntity
  8
DATA
  6
Continuous
 62
     7
100
AcDbCircle
 10
213.0
 20
-589.0
 30
0.0
 40
15.0
100
AcDbArc
 50
270.0
 51
0.0
  0
LINE
  5
146
330
322
100
AcDbEntity
  8
DATA
  6
Continuous
 62
     7
100
AcDbLine
 10
228.0
 20
-399.0
 30
0.0
 11
228.0
 21
-589.0
 31
0.0
  0
ARC
  5
147
330
322
100
AcDbEntity
  8
DATA
  6
Continuous
 62
     7
100
AcDbCircle
 10
213.0
 20
-399.0
 30
0.0
 40
15.0
100
AcDbArc
 50
0.0
 51
90.0
  0
LINE
  5
148
330
322
100
AcDbEntity
  8
DATA
  6
Continuous
 62
     7
100
AcDbLine
 10
87.0
 20
-384.0
 30
0.0
 11
213.0
 21
-384.0
 31
0.0
  0
ARC
  5
149
330
322
100
AcDbEntity
  8
DATA
  6
Continuous
 62
     7
100
AcDbCircle
 10
87.0
 20
-399.0
 30
0.0
 40
15.0
100
AcDbArc
 50
90.0
 51
180.0
  0
CIRCLE
  5
14A
330
322
100
AcDbEntity
  8
DATA
  6
Continuous
 62
     7
100
AcDbCircle
 10
115.0
 20
-180.0
 30
0.0
 40
6.749999999999864
  0
LINE
  5
14B
330
322
100
AcDbEntity
  8
DATA
  6
Continuous
 62
     7
100
AcDbLine
 10
117.5015975224869
 20
-178.5557019969883
 30
0.0
 11
115.0
 21
-177.1114039939766
 31
0.0
  0
LINE
  5
14C
330
322
100
AcDbEntity
  8
DATA
  6
Continuous
 62
     7
100
AcDbLine
 10
117.5015975224869
 20
-181.4442980030121
 30
0.0
 11
117.5015975224869
 21
-178.5557019969883
 31
0.0
  0
LINE
  5
14D
330
322
100
AcDbEntity
  8
DATA
  6
Continuous
 62
     7
100
AcDbLine
 10
115.0
 20
-182.8885960060233
 30
0.0
 11
117.5015975224869
 21
-181.4442980030121
 31
0.0
  0
LINE
  5
14E
330
322
100
AcDbEntity
  8
DATA
  6
Continuous
 62
     7
100
AcDbLine
 10
112.4984024775131
 20
-181.4442980030117
 30
0.0
 11
115.0
 21
-182.8885960060233
 31
0.0
  0
LINE
  5
14F
330
322
100
AcDbEntity
  8
DATA
  6
Continuous
 62
     7
100
AcDbLine
 10
112.4984024775131
 20
-178.5557019969878
 30
0.0
 11
112.4984024775131
 21
-181.4442980030117
 31
0.0
  0
LINE
  5
150
330
322
100
AcDbEntity
  8
DATA
  6
Continuous
 62
     7
100
AcDbLine
 10
115.0
 20
-177.1114039939766
 30
0.0
 11
112.4984024775131
 21
-178.5557019969878
 31
0.0
  0
CIRCLE
  5
151
330
322
100
AcDbEntity
  8
DATA
  6
Continuous
 62
     7
100
AcDbCircle
 10
185.0
 20
-180.0
 30
0.0
 40
6.749999999999864
  0
LINE
  5
152
330
322
100
AcDbEntity
  8
DATA
  6
Continuous
 62
     7
100
AcDbLine
 10
187.5015975224869
 20
-178.5557019969883
 30
0.0
 11
185.0
 21
-177.1114039939766
 31
0.0
  0
LINE
  5
153
330
322
100
AcDbEntity
  8
DATA
  6
Continuous
 62
     7
100
AcDbLine
 10
187.5015975224869
 20
-181.4442980030121
 30
0.0
 11
187.5015975224869
 21
-178.5557019969883
 31
0.0
  0
LINE
  5
154
330
322
100
AcDbEntity
  8
DATA
  6
Continuous
 62
     7
100
AcDbLine
 10
185.0
 20
-182.8885960060233
 30
0.0
 11
187.5015975224869
 21
-181.4442980030121
 31
0.0
  0
LINE
  5
155
330
322
100
AcDbEntity
  8
DATA
  6
Continuous
 62
     7
100
AcDbLine
 10
182.498402477513
 20
-181.4442980030117
 30
0.0
 11
185.0
 21
-182.8885960060233
 31
0.0
  0
LINE
  5
156
330
322
100
AcDbEntity
  8
DATA
  6
Continuous
 62
     7
100
AcDbLine
 10
182.498402477513
 20
-178.5557019969878
 30
0.0
 11
182.498402477513
 21
-181.4442980030117
 31
0.0
  0
LINE
  5
157
330
322
100
AcDbEntity
  8
DATA
  6
Continuous
 62
     7
100
AcDbLine
 10
185.0
 20
-177.1114039939766
 30
0.0
 11
182.498402477513
 21
-178.5557019969878
 31
0.0
  0
CIRCLE
  5
158
330
322
100
AcDbEntity
  8
DATA
  6
Continuous
 62
     7
100
AcDbCircle
 10
115.0
 20
-307.0
 30
0.0
 40
6.749999999999864
  0
LINE
  5
159
330
322
100
AcDbEntity
  8
DATA
  6
Continuous
 62
     7
100
AcDbLine
 10
117.5015975224869
 20
-308.4442980030117
 30
0.0
 11
115.0
 21
-309.8885960060234
 31
0.0
  0
LINE
  5
15A
330
322
100
AcDbEntity
  8
DATA
  6
Continuous
 62
     7
100
AcDbLine
 10
117.5015975224869
 20
-305.5557019969878
 30
0.0
 11
117.5015975224869
 21
-308.4442980030117
 31
0.0
  0
LINE
  5
15B
330
322
100
AcDbEntity
  8
DATA
  6
Continuous
 62
     7
100
AcDbLine
 10
115.0
 20
-304.1114039939766
 30
0.0
 11
117.5015975224869
 21
-305.5557019969878
 31
0.0
  0
LINE
  5
15C
330
322
100
AcDbEntity
  8
DATA
  6
Continuous
 62
     7
100
AcDbLine
 10
112.4984024775131
 20
-305.5557019969883
 30
0.0
 11
115.0
 21
-304.1114039939766
 31
0.0
  0
LINE
  5
15D
330
322
100
AcDbEntity
  8
DATA
  6
Continuous
 62
     7
100
AcDbLine
 10
112.4984024775131
 20
-308.4442980030122
 30
0.0
 11
112.4984024775131
 21
-305.5557019969883
 31
0.0
  0
LINE
  5
15E
330
322
100
AcDbEntity
  8
DATA
  6
Continuous
 62
     7
100
AcDbLine
 10
115.0
 20
-309.8885960060234
 30
0.0
 11
112.4984024775131
 21
-308.4442980030122
 31
0.0
  0
CIRCLE
  5
15F
330
322
100
AcDbEntity
  8
DATA
  6
Continuous
 62
     7
100
AcDbCircle
 10
185.0
 20
-307.0
 30
0.0
 40
6.749999999999864
  0
LINE
  5
160
330
322
100
AcDbEntity
  8
DATA
  6
Continuous
 62
     7
100
AcDbLine
 10
187.5015975224869
 20
-308.4442980030117
 30
0.0
 11
185.0
 21
-309.8885960060234
 31
0.0
  0
LINE
  5
161
330
322
100
AcDbEntity
  8
DATA
  6
Continuous
 62
     7
100
AcDbLine
 10
187.5015975224869
 20
-305.5557019969878
 30
0.0
 11
187.5015975224869
 21
-308.4442980030117
 31
0.0
  0
LINE
  5
162
330
322
100
AcDbEntity
  8
DATA
  6
Continuous
 62
     7
100
AcDbLine
 10
185.0
 20
-304.1114039939766
 30
0.0
 11
187.5015975224869
 21
-305.5557019969878
 31
0.0
  0
LINE
  5
163
330
322
100
AcDbEntity
  8
DATA
  6
Continuous
 62
     7
100
AcDbLine
 10
182.498402477513
 20
-305.5557019969883
 30
0.0
 11
185.0
 21
-304.1114039939766
 31
0.0
  0
LINE
  5
164
330
322
100
AcDbEntity
  8
DATA
  6
Continuous
 62
     7
100
AcDbLine
 10
182.498402477513
 20
-308.4442980030122
 30
0.0
 11
182.498402477513
 21
-305.5557019969883
 31
0.0
  0
LINE
  5
165
330
322
100
AcDbEntity
  8
DATA
  6
Continuous
 62
     7
100
AcDbLine
 10
185.0
 20
-309.8885960060234
 30
0.0
 11
182.498402477513
 21
-308.4442980030122
 31
0.0
  0
LINE
  5
166
330
322
100
AcDbEntity
  8
DATA
  6
Continuous
 62
     7
100
AcDbLine
 10
73.5
 20
-592.0
 30
0.0
 11
73.5
 21
-396.0
 31
0.0
  0
LINE
  5
167
330
322
100
AcDbEntity
  8
DATA
  6
Continuous
 62
     7
100
AcDbLine
 10
216.5
 20
-602.0
 30
0.0
 11
83.49999999999999
 21
-602.0
 31
0.0
  0
LINE
  5
168
330
322
100
AcDbEntity
  8
DATA
  6
Continuous
 62
     7
100
AcDbLine
 10
226.5
 20
-396.0
 30
0.0
 11
226.5
 21
-592.0
 31
0.0
  0
LINE
  5
169
330
322
100
AcDbEntity
  8
DATA
  6
Continuous
 62
     7
100
AcDbLine
 10
83.49999999999999
 20
-386.0
 30
0.0
 11
216.5
 21
-386.0
 31
0.0
  0
ARC
  5
16A
330
322
100
AcDbEntity
  8
DATA
  6
Continuous
 62
     7
100
AcDbCircle
 10
83.49999999999999
 20
-396.0
 30
0.0
 40
10.0
100
AcDbArc
 50
90.0
 51
180.0
  0
ARC
  5
16B
330
322
100
AcDbEntity
  8
DATA
  6
Continuous
 62
     7
100
AcDbCircle
 10
216.5
 20
-396.0
 30
0.0
 40
10.0
100
AcDbArc
 50
0.0
 51
90.0
  0
ARC
  5
16C
330
322
100
AcDbEntity
  8
DATA
  6
Continuous
 62
     7
100
AcDbCircle
 10
83.49999999999999
 20
-592.0
 30
0.0
 40
10.0
100
AcDbArc
 50
180.0
 51
270.0
  0
ARC
  5
16D
330
322
100
AcDbEntity
  8
DATA
  6
Continuous
 62
     7
100
AcDbCircle
 10
216.5
 20
-592.0
 30
0.0
 40
10.0
100
AcDbArc
 50
270.0
 51
0.0
  0
CIRCLE
  5
16E
330
322
100
AcDbEntity
  8
DATA
  6
Continuous
 62
     7
100
AcDbCircle
 10
187.5
 20
-594.0
 30
0.0
 40
5.000000000000129
  0
CIRCLE
  5
16F
330
322
100
AcDbEntity
  8
DATA
  6
Continuous
 62
     7
100
AcDbCircle
 10
112.5
 20
-594.0
 30
0.0
 40
5.000000000000129
  0
CIRCLE
  5
170
330
322
100
AcDbEntity
  8
DATA
  6
Continuous
 62
     7
100
AcDbCircle
 10
187.5
 20
-394.0
 30
0.0
 40
5.000000000000016
  0
CIRCLE
  5
171
330
322
100
AcDbEntity
  8
DATA
  6
Continuous
 62
     7
100
AcDbCircle
 10
112.5
 20
-394.0
 30
0.0
 40
5.000000000000016
  0
CIRCLE
  5
172
330
322
100
AcDbEntity
  8
DATA
  6
Continuous
 62
     7
100
AcDbCircle
 10
112.5
 20
-394.0
 30
0.0
 40
5.000000000000016
  0
CIRCLE
  5
173
330
322
100
AcDbEntity
  8
DATA
  6
Continuous
 62
     7
100
AcDbCircle
 10
81.5
 20
-449.0
 30
0.0
 40
5.000000000000016
  0
CIRCLE
  5
174
330
322
100
AcDbEntity
  8
DATA
  6
Continuous
 62
     7
100
AcDbCircle
 10
81.5
 20
-539.0
 30
0.0
 40
5.000000000000016
  0
CIRCLE
  5
175
330
322
100
AcDbEntity
  8
DATA
  6
Continuous
 62
     7
100
AcDbCircle
 10
218.5
 20
-449.0
 30
0.0
 40
5.000000000000016
  0
CIRCLE
  5
176
330
322
100
AcDbEntity
  8
DATA
  6
Continuous
 62
     7
100
AcDbCircle
 10
218.5
 20
-539.0
 30
0.0
 40
5.000000000000016
  0
ARC
  5
177
330
322
100
AcDbEntity
  8
DATA
  6
Continuous
 62
     7
100
AcDbCircle
 10
31.0
 20
-100.0
 30
0.0
 40
10.0
100
AcDbArc
 50
90.0
 51
180.0
  0
ARC
  5
178
330
322
100
AcDbEntity
  8
DATA
  6
Continuous
 62
     7
100
AcDbCircle
 10
269.0
 20
-100.0
 30
0.0
 40
10.0
100
AcDbArc
 50
0.0
 51
90.0
  0
ARC
  5
179
330
322
100
AcDbEntity
  8
DATA
  6
Continuous
 62
     7
100
AcDbCircle
 10
31.0
 20
-890.0
 30
0.0
 40
10.0
100
AcDbArc
 50
180.0
 51
270.0
  0
ARC
  5
17A
330
322
100
AcDbEntity
  8
DATA
  6
Continuous
 62
     7
100
AcDbCircle
 10
269.0
 20
-890.0
 30
0.0
 40
10.0
100
AcDbArc
 50
270.0
 51
0.0
  0
CIRCLE
  5
17B
330
322
100
AcDbEntity
  8
DATA
  6
Continuous
 62
     7
100
AcDbCircle
 10
150.0
 20
-494.0
 30
0.0
 40
5.749999999999363
  0
CIRCLE
  5
17C
330
322
100
AcDbEntity
  8
DATA
  6
Continuous
 62
     7
100
AcDbCircle
 10
150.0
 20
-494.0
 30
0.0
 40
11.75000000000005
  0
LINE
  5
17D
330
322
100
AcDbEntity
  8
DATA
  6
Continuous
 62
     7
100
AcDbLine
 10
162.0377531126032
 20
-487.0499999999997
 30
0.0
 11
150.0
 21
-480.0999999999999
 31
0.0
  0
LINE
  5
17E
330
322
100
AcDbEntity
  8
DATA
  6
Continuous
 62
     7
100
AcDbLine
 10
162.0377531126032
 20
-500.9500000000001
 30
0.0
 11
162.0377531126032
 21
-487.0499999999997
 31
0.0
  0
LINE
  5
17F
330
322
100
AcDbEntity
  8
DATA
  6
Continuous
 62
     7
100
AcDbLine
 10
150.0
 20
-507.9
 30
0.0
 11
162.0377531126032
 21
-500.9500000000001
 31
0.0
  0
LINE
  5
180
330
322
100
AcDbEntity
  8
DATA
  6
Continuous
 62
     7
100
AcDbLine
 10
137.9622468873968
 20
-500.9500000000001
 30
0.0
 11
150.0
 21
-507.9
 31
0.0
  0
LINE
  5
181
330
322
100
AcDbEntity
  8
DATA
  6
Continuous
 62
     7
100
AcDbLine
 10
137.9622468873968
 20
-487.0499999999997
 30
0.0
 11
137.9622468873968
 21
-500.9500000000001
 31
0.0
  0
LINE
  5
182
330
322
100
AcDbEntity
  8
DATA
  6
Continuous
 62
     7
100
AcDbLine
 10
150.0
 20
-480.0999999999999
 30
0.0
 11
137.9622468873968
 21
-487.0499999999997
 31
0.0
  0
CIRCLE
  5
183
330
322
100
AcDbEntity
  8
DATA
  6
Continuous
 62
     7
100
AcDbCircle
 10
150.0
 20
-493.9999999999995
 30
0.0
 40
14.89999999999974
  0
LINE
  5
184
330
322
100
AcDbEntity
  8
DATA
  6
Continuous
 62
     7
100
AcDbLine
 10
21.0
 20
-890.0
 30
0.0
 11
279.0
 21
-890.0
 31
0.0
  0
LINE
  5
185
330
322
100
AcDbEntity
  8
DATA
  6
Continuous
 62
     7
100
AcDbLine
 10
21.0
 20
-100.0
 30
0.0
 11
279.0
 21
-100.0
 31
0.0
  0
LINE
  5
186
330
322
100
AcDbEntity
  8
DATA
  6
Continuous
 62
     7
100
AcDbLine
 10
31.0
 20
-900.0
 30
0.0
 11
269.0
 21
-900.0
 31
0.0
  0
LINE
  5
187
330
322
100
AcDbEntity
  8
DATA
  6
Continuous
 62
     7
100
AcDbLine
 10
-435.0
 20
-890.0
 30
0.0
 11
-435.0
 21
-100.0
 31
0.0
  0
LINE
  5
188
330
322
100
AcDbEntity
  8
DATA
  6
Continuous
 62
     7
100
AcDbLine
 10
-375.0
 20
-900.0
 30
0.0
 11
-375.0
 21
-90.0
 31
0.0
  0
LINE
  5
189
330
322
100
AcDbEntity
  8
DATA
  6
Continuous
 62
     7
100
AcDbLine
 10
-353.0
 20
-877.0
 30
0.0
 11
-353.0
 21
-611.0
 31
0.0
  0
LINE
  5
18A
330
322
100
AcDbEntity
  8
DATA
  6
Continuous
 62
     7
100
AcDbLine
 10
-353.0
 20
-379.0
 30
0.0
 11
-353.0
 21
-113.0
 31
0.0
  0
LINE
  5
18B
330
322
100
AcDbEntity
  8
DATA
  6
Continuous
 62
     7
100
AcDbLine
 10
-295.0
 20
-601.0
 30
0.0
 11
-295.0
 21
-389.0
 31
0.0
  0
LINE
  5
18C
330
322
100
AcDbEntity
  8
DATA
  6
Continuous
 62
     7
100
AcDbLine
 10
-145.0
 20
-900.0
 30
0.0
 11
-425.0
 21
-900.0
 31
0.0
  0
LINE
  5
18D
330
322
100
AcDbEntity
  8
DATA
  6
Continuous
 62
     7
100
AcDbLine
 10
-135.0
 20
-890.0
 30
0.0
 11
-435.0
 21
-890.0
 31
0.0
  0
LINE
  5
18E
330
322
100
AcDbEntity
  8
DATA
  6
Continuous
 62
     7
100
AcDbLine
 10
-358.0
 20
-882.0
 30
0.0
 11
-435.0
 21
-882.0
 31
0.0
  0
LINE
  5
18F
330
322
100
AcDbEntity
  8
DATA
  6
Continuous
 62
     7
100
AcDbLine
 10
-305.0
 20
-611.0
 30
0.0
 11
-353.0
 21
-611.0
 31
0.0
  0
LINE
  5
190
330
322
100
AcDbEntity
  8
DATA
  6
Continuous
 62
     7
100
AcDbLine
 10
-135.0
 20
-100.0
 30
0.0
 11
-135.0
 21
-890.0
 31
0.0
  0
LINE
  5
191
330
322
100
AcDbEntity
  8
DATA
  6
Continuous
 62
     7
100
AcDbLine
 10
-270.0
 20
-90.0
 30
0.0
 11
-270.0
 21
-900.0
 31
0.0
  0
LINE
  5
192
330
322
100
AcDbEntity
  8
DATA
  6
Continuous
 62
     7
100
AcDbLine
 10
-425.0
 20
-90.0
 30
0.0
 11
-145.0
 21
-90.0
 31
0.0
  0
LINE
  5
193
330
322
100
AcDbEntity
  8
DATA
  6
Continuous
 62
     7
100
AcDbLine
 10
-435.0
 20
-100.0
 30
0.0
 11
-135.0
 21
-100.0
 31
0.0
  0
LINE
  5
194
330
322
100
AcDbEntity
  8
DATA
  6
Continuous
 62
     7
100
AcDbLine
 10
-435.0
 20
-108.0
 30
0.0
 11
-358.0
 21
-108.0
 31
0.0
  0
LINE
  5
195
330
322
100
AcDbEntity
  8
DATA
  6
Continuous
 62
     7
100
AcDbLine
 10
-353.0
 20
-379.0
 30
0.0
 11
-305.0
 21
-379.0
 31
0.0
  0
ARC
  5
196
330
322
100
AcDbEntity
  8
DATA
  6
Continuous
 62
     7
100
AcDbCircle
 10
-145.0
 20
-100.0
 30
0.0
 40
10.0
100
AcDbArc
 50
0.0
 51
90.0
  0
ARC
  5
197
330
322
100
AcDbEntity
  8
DATA
  6
Continuous
 62
     7
100
AcDbCircle
 10
-425.0
 20
-100.0
 30
0.0
 40
10.0
100
AcDbArc
 50
90.0
 51
180.0
  0
ARC
  5
198
330
322
100
AcDbEntity
  8
DATA
  6
Continuous
 62
     7
100
AcDbCircle
 10
-425.0
 20
-890.0
 30
0.0
 40
10.0
100
AcDbArc
 50
180.0
 51
270.0
  0
ARC
  5
199
330
322
100
AcDbEntity
  8
DATA
  6
Continuous
 62
     7
100
AcDbCircle
 10
-145.0
 20
-890.0
 30
0.0
 40
10.0
100
AcDbArc
 50
270.0
 51
0.0
  0
ARC
  5
19A
330
322
100
AcDbEntity
  8
DATA
  6
Continuous
 62
     7
100
AcDbCircle
 10
-305.0
 20
-389.0
 30
0.0
 40
10.0
100
AcDbArc
 50
0.0
 51
90.0
  0
ARC
  5
19B
330
322
100
AcDbEntity
  8
DATA
  6
Continuous
 62
     7
100
AcDbCircle
 10
-305.0
 20
-601.0
 30
0.0
 40
10.0
100
AcDbArc
 50
270.0
 51
0.0
  0
CIRCLE
  5
19C
330
322
100
AcDbEntity
  8
DATA
  6
Continuous
 62
     7
100
AcDbCircle
 10
-363.9300000000002
 20
-112.0
 30
0.0
 40
3.000000000000247
  0
CIRCLE
  5
19D
330
322
100
AcDbEntity
  8
DATA
  6
Continuous
 62
     7
100
AcDbCircle
 10
-363.9300000000002
 20
-239.0
 30
0.0
 40
3.000000000000164
  0
CIRCLE
  5
19E
330
322
100
AcDbEntity
  8
DATA
  6
Continuous
 62
     7
100
AcDbCircle
 10
-363.9300000000002
 20
-878.0
 30
0.0
 40
3.000000000000031
  0
CIRCLE
  5
19F
330
322
100
AcDbEntity
  8
DATA
  6
Continuous
 62
     7
100
AcDbCircle
 10
-363.9300000000002
 20
-743.0
 30
0.0
 40
3.000000000000005
  0
CIRCLE
  5
1A0
330
322
100
AcDbEntity
  8
DATA
  6
Continuous
 62
     7
100
AcDbCircle
 10
-363.9300000000002
 20
-623.0
 30
0.0
 40
3.0
  0
CIRCLE
  5
1A1
330
322
100
AcDbEntity
  8
DATA
  6
Continuous
 62
     7
100
AcDbCircle
 10
-363.9300000000002
 20
-623.0
 30
0.0
 40
3.0
  0
CIRCLE
  5
1A2
330
322
100
AcDbEntity
  8
DATA
  6
Continuous
 62
     7
100
AcDbCircle
 10
-305.0
 20
-601.0
 30
0.0
 40
2.999999999999769
  0
CIRCLE
  5
1A3
330
322
100
AcDbEntity
  8
DATA
  6
Continuous
 62
     7
100
AcDbCircle
 10
-305.0
 20
-491.0
 30
0.0
 40
2.999999999999827
  0
CIRCLE
  5
1A4
330
322
100
AcDbEntity
  8
DATA
  6
Continuous
 62
     7
100
AcDbCircle
 10
-305.0
 20
-384.0
 30
0.0
 40
2.999999999999949
  0
ARC
  5
1A5
330
322
100
AcDbEntity
  8
DATA
  6
Continuous
 62
     7
100
AcDbCircle
 10
-358.0
 20
-113.0
 30
0.0
 40
5.0
100
AcDbArc
 50
0.0
 51
90.0
  0
ARC
  5
1A6
330
322
100
AcDbEntity
  8
DATA
  6
Continuous
 62
     7
100
AcDbCircle
 10
-358.0
 20
-877.0
 30
0.0
 40
5.0
100
AcDbArc
 50
270.0
 51
0.0
  0
CIRCLE
  5
1A7
330
322
100
AcDbEntity
  8
DATA
  6
Continuous
 62
     7
100
AcDbCircle
 10
-313.0
 20
-238.0
 30
0.0
 40
9.999999999999298
  0
LINE
  5
1A8
330
322
100
AcDbEntity
  8
DATA
  6
Continuous
 62
     7
100
AcDbLine
 10
-310.0022197561303
 20
-236.2692307692309
 30
0.0
 11
-313.0
 21
-234.5384615384614
 31
0.0
  0
LINE
  5
1A9
330
322
100
AcDbEntity
  8
DATA
  6
Continuous
 62
     7
100
AcDbLine
 10
-310.0022197561303
 20
-239.7307692307691
 30
0.0
 11
-310.0022197561303
 21
-236.2692307692309
 31
0.0
  0
LINE
  5
1AA
330
322
100
AcDbEntity
  8
DATA
  6
Continuous
 62
     7
100
AcDbLine
 10
-313.0
 20
-241.4615384615385
 30
0.0
 11
-310.0022197561303
 21
-239.7307692307691
 31
0.0
  0
LINE
  5
1AB
330
322
100
AcDbEntity
  8
DATA
  6
Continuous
 62
     7
100
AcDbLine
 10
-315.9977802438697
 20
-239.7307692307691
 30
0.0
 11
-313.0
 21
-241.4615384615385
 31
0.0
  0
LINE
  5
1AC
330
322
100
AcDbEntity
  8
DATA
  6
Continuous
 62
     7
100
AcDbLine
 10
-315.9977802438697
 20
-236.2692307692309
 30
0.0
 11
-315.9977802438697
 21
-239.7307692307691
 31
0.0
  0
LINE
  5
1AD
330
322
100
AcDbEntity
  8
DATA
  6
Continuous
 62
     7
100
AcDbLine
 10
-313.0
 20
-234.5384615384614
 30
0.0
 11
-315.9977802438697
 21
-236.2692307692309
 31
0.0
  0
LINE
  5
1AE
330
322
100
AcDbEntity
  8
DATA
  6
Continuous
 62
     7
100
AcDbLine
 10
-135.0
 20
-508.8999999999999
 30
0.0
 11
-135.0
 21
-479.0999999999999
 31
0.0
  0
LINE
  5
1AF
330
322
100
AcDbEntity
  8
DATA
  6
Continuous
 62
     7
100
AcDbLine
 10
-130.0
 20
-508.8999999999999
 30
0.0
 11
-135.0
 21
-508.8999999999999
 31
0.0
  0
LINE
  5
1B0
330
322
100
AcDbEntity
  8
DATA
  6
Continuous
 62
     7
100
AcDbLine
 10
-130.0
 20
-479.0999999999999
 30
0.0
 11
-130.0
 21
-508.8999999999999
 31
0.0
  0
LINE
  5
1B1
330
322
100
AcDbEntity
  8
DATA
  6
Continuous
 62
     7
100
AcDbLine
 10
-135.0
 20
-479.0999999999999
 30
0.0
 11
-130.0
 21
-479.0999999999999
 31
0.0
  0
LINE
  5
1B2
330
322
100
AcDbEntity
  8
DATA
  6
Continuous
 62
     7
100
AcDbLine
 10
-124.7000000000007
 20
-506.0
 30
0.0
 11
-124.7000000000007
 21
-482.0
 31
0.0
  0
LINE
  5
1B3
330
322
100
AcDbEntity
  8
DATA
  6
Continuous
 62
     7
100
AcDbLine
 10
-121.7000000000007
 20
-506.0
 30
0.0
 11
-124.7000000000007
 21
-506.0
 31
0.0
  0
LINE
  5
1B4
330
322
100
AcDbEntity
  8
DATA
  6
Continuous
 62
     7
100
AcDbLine
 10
-121.7000000000007
 20
-482.0
 30
0.0
 11
-121.7000000000007
 21
-506.0
 31
0.0
  0
LINE
  5
1B5
330
322
100
AcDbEntity
  8
DATA
  6
Continuous
 62
     7
100
AcDbLine
 10
-124.7000000000007
 20
-482.0
 30
0.0
 11
-121.7000000000007
 21
-482.0
 31
0.0
  0
LINE
  5
1B6
330
322
100
AcDbEntity
  8
DATA
  6
Continuous
 62
     7
100
AcDbLine
 10
-130.0
 20
-501.4999999999999
 30
0.0
 11
-130.0
 21
-486.5
 31
0.0
  0
LINE
  5
1B7
330
322
100
AcDbEntity
  8
DATA
  6
Continuous
 62
     7
100
AcDbLine
 10
-115.0
 20
-501.4999999999999
 30
0.0
 11
-121.7000000000007
 21
-501.4999999999999
 31
0.0
  0
LINE
  5
1B8
330
322
100
AcDbEntity
  8
DATA
  6
Continuous
 62
     7
100
AcDbLine
 10
-124.7000000000007
 20
-501.4999999999999
 30
0.0
 11
-130.0
 21
-501.4999999999999
 31
0.0
  0
LINE
  5
1B9
330
322
100
AcDbEntity
  8
DATA
  6
Continuous
 62
     7
100
AcDbLine
 10
-115.0
 20
-486.5
 30
0.0
 11
-115.0
 21
-501.4999999999999
 31
0.0
  0
LINE
  5
1BA
330
322
100
AcDbEntity
  8
DATA
  6
Continuous
 62
     7
100
AcDbLine
 10
-130.0
 20
-486.5
 30
0.0
 11
-124.7000000000007
 21
-486.5
 31
0.0
  0
LINE
  5
1BB
330
322
100
AcDbEntity
  8
DATA
  6
Continuous
 62
     7
100
AcDbLine
 10
-121.7000000000007
 20
-486.5
 30
0.0
 11
-115.0
 21
-486.5
 31
0.0
  0
LINE
  5
1BC
330
322
100
AcDbEntity
  8
DATA
  6
Continuous
 62
     7
100
AcDbLine
 10
-115.0
 20
-506.0
 30
0.0
 11
-115.0
 21
-482.0
 31
0.0
  0
LINE
  5
1BD
330
322
100
AcDbEntity
  8
DATA
  6
Continuous
 62
     7
100
AcDbLine
 10
-105.0
 20
-506.0
 30
0.0
 11
-115.0
 21
-506.0
 31
0.0
  0
LINE
  5
1BE
330
322
100
AcDbEntity
  8
DATA
  6
Continuous
 62
     7
100
AcDbLine
 10
-105.0
 20
-482.0
 30
0.0
 11
-105.0
 21
-506.0
 31
0.0
  0
LINE
  5
1BF
330
322
100
AcDbEntity
  8
DATA
  6
Continuous
 62
     7
100
AcDbLine
 10
-115.0
 20
-482.0
 30
0.0
 11
-105.0
 21
-482.0
 31
0.0
  0
LINE
  5
1C0
330
322
100
AcDbEntity
  8
DATA
  6
Continuous
 62
     7
100
AcDbLine
 10
-100.0
 20
-505.75
 30
0.0
 11
-105.0
 21
-505.75
 31
0.0
  0
LINE
  5
1C1
330
322
100
AcDbEntity
  8
DATA
  6
Continuous
 62
     7
100
AcDbLine
 10
-105.0
 20
-482.2499999999999
 30
0.0
 11
-100.0
 21
-482.2499999999999
 31
0.0
  0
LINE
  5
1C2
330
322
100
AcDbEntity
  8
DATA
  6
Continuous
 62
     7
100
AcDbLine
 10
-95.0
 20
-487.25
 30
0.0
 11
-95.0
 21
-500.75
 31
0.0
  0
ARC
  5
1C3
330
322
100
AcDbEntity
  8
DATA
  6
Continuous
 62
     7
100
AcDbCircle
 10
-100.0
 20
-487.25
 30
0.0
 40
5.0
100
AcDbArc
 50
0.0
 51
90.0
  0
ARC
  5
1C4
330
322
100
AcDbEntity
  8
DATA
  6
Continuous
 62
     7
100
AcDbCircle
 10
-100.0
 20
-500.75
 30
0.0
 40
5.0
100
AcDbArc
 50
270.0
 51
0.0
  0
LINE
  5
1C5
330
322
100
AcDbEntity
  8
DATA
  6
Continuous
 62
     7
100
AcDbLine
 10
-115.0
 20
-482.0
 30
0.0
 11
-115.0
 21
-494.0
 31
0.0
  0
LINE
  5
1C6
330
322
100
AcDbEntity
  8
DATA
  6
Continuous
 62
     7
100
AcDbLine
 10
-115.0
 20
-488.0
 30
0.0
 11
-105.0
 21
-488.0
 31
0.0
  0
LINE
  5
1C7
330
322
100
AcDbEntity
  8
DATA
  6
Continuous
 62
     7
100
AcDbLine
 10
-115.0
 20
-500.0
 30
0.0
 11
-105.0
 21
-500.0
 31
0.0
  0
LINE
  5
1C8
330
322
100
AcDbEntity
  8
DATA
  6
Continuous
 62
     7
100
AcDbLine
 10
-124.7000000000007
 20
-488.0
 30
0.0
 11
-121.7000000000007
 21
-488.0
 31
0.0
  0
LINE
  5
1C9
330
322
100
AcDbEntity
  8
DATA
  6
Continuous
 62
     7
100
AcDbLine
 10
-124.7000000000007
 20
-500.0
 30
0.0
 11
-121.7000000000007
 21
-500.0
 31
0.0
  0
LINE
  5
1CA
330
322
100
AcDbEntity
  8
DATA
  6
Continuous
 62
     7
100
AcDbLine
 10
-115.8000000000011
 20
-501.4999999999999
 30
0.0
 11
-117.1000000000003
 21
-486.5
 31
0.0
  0
LINE
  5
1CB
330
322
100
AcDbEntity
  8
DATA
  6
Continuous
 62
     7
100
AcDbLine
 10
-115.0
 20
-499.1490554251996
 30
0.0
 11
-116.0962514701823
 21
-486.5
 31
0.0
  0
LINE
  5
1CC
330
322
100
AcDbEntity
  8
DATA
  6
Continuous
 62
     7
100
AcDbLine
 10
-114.9625029403651
 20
-488.0
 30
0.0
 11
-115.0925029403643
 21
-486.5
 31
0.0
  0
LINE
  5
1CD
330
322
100
AcDbEntity
  8
DATA
  6
Continuous
 62
     7
100
AcDbLine
 10
-116.8037485298191
 20
-501.4999999999999
 30
0.0
 11
-118.1037485298184
 21
-486.5
 31
0.0
  0
LINE
  5
1CE
330
322
100
AcDbEntity
  8
DATA
  6
Continuous
 62
     7
100
AcDbLine
 10
-117.8074970596372
 20
-501.4999999999999
 30
0.0
 11
-119.1074970596364
 21
-486.5
 31
0.0
  0
LINE
  5
1CF
330
322
100
AcDbEntity
  8
DATA
  6
Continuous
 62
     7
100
AcDbLine
 10
-118.8112455894552
 20
-501.4999999999999
 30
0.0
 11
-120.111078228223
 21
-486.5019310911252
 31
0.0
  0
LINE
  5
1D0
330
322
100
AcDbEntity
  8
DATA
  6
Continuous
 62
     7
100
AcDbLine
 10
-119.8149941192714
 20
-501.4999999999999
 30
0.0
 11
-121.1149941192707
 21
-486.5
 31
0.0
  0
LINE
  5
1D1
330
322
100
AcDbEntity
  8
DATA
  6
Continuous
 62
     7
100
AcDbLine
 10
-120.8187426490895
 20
-501.4999999999999
 30
0.0
 11
-121.7000000000007
 21
-491.3316459510247
 31
0.0
  0
LINE
  5
1D2
330
322
100
AcDbEntity
  8
DATA
  6
Continuous
 62
     7
100
AcDbLine
 10
-125.5374970596367
 20
-501.4999999999999
 30
0.0
 11
-126.837497059636
 21
-486.5
 31
0.0
  0
LINE
  5
1D3
330
322
100
AcDbEntity
  8
DATA
  6
Continuous
 62
     7
100
AcDbLine
 10
-124.7374970596356
 20
-499.1490554251996
 30
0.0
 11
-125.8337485298179
 21
-486.5
 31
0.0
  0
LINE
  5
1D4
330
322
100
AcDbEntity
  8
DATA
  6
Continuous
 62
     7
100
AcDbLine
 10
-124.7000000000007
 20
-488.0
 30
0.0
 11
-124.8299999999999
 21
-486.5
 31
0.0
  0
LINE
  5
1D5
330
322
100
AcDbEntity
  8
DATA
  6
Continuous
 62
     7
100
AcDbLine
 10
-126.5412455894547
 20
-501.4999999999999
 30
0.0
 11
-127.841245589454
 21
-486.5
 31
0.0
  0
LINE
  5
1D6
330
322
100
AcDbEntity
  8
DATA
  6
Continuous
 62
     7
100
AcDbLine
 10
-127.5449941192728
 20
-501.4999999999999
 30
0.0
 11
-128.8449941192721
 21
-486.5
 31
0.0
  0
LINE
  5
1D7
330
322
100
AcDbEntity
  8
DATA
  6
Continuous
 62
     7
100
AcDbLine
 10
-128.5487426490908
 20
-501.4999999999999
 30
0.0
 11
-129.8485752878587
 21
-486.5019310911252
 31
0.0
  0
LINE
  5
1D8
330
322
100
AcDbEntity
  8
DATA
  6
Continuous
 62
     7
100
AcDbLine
 10
-129.5524911789071
 20
-501.4999999999999
 30
0.0
 11
-130.0
 21
-496.336436679694
 31
0.0
  0
LINE
  5
1D9
330
322
100
AcDbEntity
  8
DATA
  6
Continuous
 62
     7
100
AcDbLine
 10
-135.0
 20
-173.25
 30
0.0
 11
-135.0
 21
-186.75
 31
0.0
  0
LINE
  5
1DA
330
322
100
AcDbEntity
  8
DATA
  6
Continuous
 62
     7
100
AcDbLine
 10
-132.0
 20
-183.75
 30
0.0
 11
-132.0
 21
-176.25
 31
0.0
  0
ARC
  5
1DB
330
322
100
AcDbEntity
  8
DATA
  6
Continuous
 62
     7
100
AcDbCircle
 10
-135.0
 20
-176.25
 30
0.0
 40
3.0
100
AcDbArc
 50
0.0
 51
90.0
  0
ARC
  5
1DC
330
322
100
AcDbEntity
  8
DATA
  6
Continuous
 62
     7
100
AcDbCircle
 10
-135.0
 20
-183.75
 30
0.0
 40
3.0
100
AcDbArc
 50
270.0
 51
0.0
  0
LINE
  5
1DD
330
322
100
AcDbEntity
  8
DATA
  6
Continuous
 62
     7
100
AcDbLine
 10
-135.0
 20
-300.25
 30
0.0
 11
-135.0
 21
-313.75
 31
0.0
  0
LINE
  5
1DE
330
322
100
AcDbEntity
  8
DATA
  6
Continuous
 62
     7
100
AcDbLine
 10
-132.0
 20
-310.75
 30
0.0
 11
-132.0
 21
-303.25
 31
0.0
  0
ARC
  5
1DF
330
322
100
AcDbEntity
  8
DATA
  6
Continuous
 62
     7
100
AcDbCircle
 10
-135.0
 20
-303.25
 30
0.0
 40
3.0
100
AcDbArc
 50
0.0
 51
90.0
  0
ARC
  5
1E0
330
322
100
AcDbEntity
  8
DATA
  6
Continuous
 62
     7
100
AcDbCircle
 10
-135.0
 20
-310.75
 30
0.0
 40
3.0
100
AcDbArc
 50
270.0
 51
0.0
  0
CIRCLE
  5
1E1
330
322
100
AcDbEntity
  8
DATA
  6
Continuous
 62
     7
100
AcDbCircle
 10
-600.0
 20
167.0000000000009
 30
0.0
 40
9.999999999999298
  0
LINE
  5
1E2
330
322
100
AcDbEntity
  8
DATA
  6
Continuous
 62
     7
100
AcDbLine
 10
-597.0022197561302
 20
168.7307692307699
 30
0.0
 11
-600.0
 21
170.4615384615394
 31
0.0
  0
LINE
  5
1E3
330
322
100
AcDbEntity
  8
DATA
  6
Continuous
 62
     7
100
AcDbLine
 10
-597.0022197561302
 20
165.2692307692318
 30
0.0
 11
-597.0022197561302
 21
168.7307692307699
 31
0.0
  0
LINE
  5
1E4
330
322
100
AcDbEntity
  8
DATA
  6
Continuous
 62
     7
100
AcDbLine
 10
-600.0
 20
163.5384615384623
 30
0.0
 11
-597.0022197561302
 21
165.2692307692318
 31
0.0
  0
LINE
  5
1E5
330
322
100
AcDbEntity
  8
DATA
  6
Continuous
 62
     7
100
AcDbLine
 10
-602.9977802438698
 20
165.2692307692318
 30
0.0
 11
-600.0
 21
163.5384615384623
 31
0.0
  0
LINE
  5
1E6
330
322
100
AcDbEntity
  8
DATA
  6
Continuous
 62
     7
100
AcDbLine
 10
-602.9977802438698
 20
168.7307692307699
 30
0.0
 11
-602.9977802438698
 21
165.2692307692318
 31
0.0
  0
LINE
  5
1E7
330
322
100
AcDbEntity
  8
DATA
  6
Continuous
 62
     7
100
AcDbLine
 10
-600.0
 20
170.4615384615394
 30
0.0
 11
-602.9977802438698
 21
168.7307692307699
 31
0.0
  0
ARC
  5
1E8
330
322
100
AcDbEntity
  8
DATA
  6
Continuous
 62
     7
100
AcDbCircle
 10
-518.4667613632082
 20
290.0
 30
0.0
 40
10.00000000000219
100
AcDbArc
 50
16.50436138175252
 51
89.99999999998953
  0
ARC
  5
1E9
330
322
100
AcDbEntity
  8
DATA
  6
Continuous
 62
     7
100
AcDbCircle
 10
-480.9999999999981
 20
163.5496803991723
 30
0.0
 40
9.999999999998179
100
AcDbArc
 50
0.0000000000286606
 51
16.50436138178342
  0
ARC
  5
1EA
330
322
100
AcDbEntity
  8
DATA
  6
Continuous
 62
     7
100
AcDbCircle
 10
-481.0
 20
64.14213562373243
 30
0.0
 40
10.00000000000104
100
AcDbArc
 50
314.9999999999888
 51
359.9999999999869
  0
ARC
  5
1EB
330
322
100
AcDbEntity
  8
DATA
  6
Continuous
 62
     7
100
AcDbCircle
 10
-535.1421356237296
 20
10.00000000000045
 30
0.0
 40
10.00000000000045
100
AcDbArc
 50
270.0
 51
314.9999999999963
  0
ARC
  5
1EC
330
322
100
AcDbEntity
  8
DATA
  6
Continuous
 62
     7
100
AcDbCircle
 10
-664.8578643762666
 20
10.0
 30
0.0
 40
10.00000000000201
100
AcDbArc
 50
224.9999999999871
 51
269.9999999999792
  0
ARC
  5
1ED
330
322
100
AcDbEntity
  8
DATA
  6
Continuous
 62
     7
100
AcDbCircle
 10
-718.9999999999981
 20
64.14213562372925
 30
0.0
 40
10.00000000000182
100
AcDbArc
 50
179.9999999999948
 51
224.9999999999908
  0
ARC
  5
1EE
330
322
100
AcDbEntity
  8
DATA
  6
Continuous
 62
     7
100
AcDbCircle
 10
-719.0
 20
163.5496803991846
 30
0.0
 40
9.99999999999812
100
AcDbArc
 50
163.4956386182894
 51
180.0000000000469
  0
ARC
  5
1EF
330
322
100
AcDbEntity
  8
DATA
  6
Continuous
 62
     7
100
AcDbCircle
 10
-681.5332386367936
 20
290.0000000000004
 30
0.0
 40
9.999999999999543
100
AcDbArc
 50
90.0
 51
163.495638618247
  0
LINE
  5
1F0
330
322
100
AcDbEntity
  8
DATA
  6
Continuous
 62
     7
100
AcDbLine
 10
-471.0
 20
-100.0
 30
0.0
 11
-471.0
 21
-890.0
 31
0.0
  0
LINE
  5
1F1
330
322
100
AcDbEntity
  8
DATA
  6
Continuous
 62
     7
100
AcDbLine
 10
479.0
 20
149.25
 30
0.0
 11
479.0
 21
198.75
 31
0.0
  0
LINE
  5
1F2
330
322
100
AcDbEntity
  8
DATA
  6
Continuous
 62
     7
100
AcDbLine
 10
560.0
 20
149.25
 30
0.0
 11
479.0
 21
149.25
 31
0.0
  0
LINE
  5
1F3
330
322
100
AcDbEntity
  8
DATA
  6
Continuous
 62
     7
100
AcDbLine
 10
560.0
 20
198.75
 30
0.0
 11
560.0
 21
149.25
 31
0.0
  0
LINE
  5
1F4
330
322
100
AcDbEntity
  8
DATA
  6
Continuous
 62
     7
100
AcDbLine
 10
479.0
 20
198.75
 30
0.0
 11
560.0
 21
198.75
 31
0.0
  0
LINE
  5
1F5
330
322
100
AcDbEntity
  8
DATA
  6
Continuous
 62
     7
100
AcDbLine
 10
479.0
 20
198.75
 30
0.0
 11
479.0
 21
207.75
 31
0.0
  0
LINE
  5
1F6
330
322
100
AcDbEntity
  8
DATA
  6
Continuous
 62
     7
100
AcDbLine
 10
560.0
 20
198.75
 30
0.0
 11
479.0
 21
198.75
 31
0.0
  0
LINE
  5
1F7
330
322
100
AcDbEntity
  8
DATA
  6
Continuous
 62
     7
100
AcDbLine
 10
560.0
 20
207.75
 30
0.0
 11
560.0
 21
198.75
 31
0.0
  0
LINE
  5
1F8
330
322
100
AcDbEntity
  8
DATA
  6
Continuous
 62
     7
100
AcDbLine
 10
479.0
 20
207.75
 30
0.0
 11
560.0
 21
207.75
 31
0.0
  0
LINE
  5
1F9
330
322
100
AcDbEntity
  8
DATA
  6
Continuous
 62
     7
100
AcDbLine
 10
499.2499999999999
 20
158.25
 30
0.0
 11
499.2499999999999
 21
189.75
 31
0.0
  0
ARC
  5
1FA
330
322
100
AcDbEntity
  8
DATA
  6
Continuous
 62
     7
100
AcDbCircle
 10
503.75
 20
158.25
 30
0.0
 40
4.5
100
AcDbArc
 50
180.0
 51
270.0
  0
LINE
  5
1FB
330
322
100
AcDbEntity
  8
DATA
  6
Continuous
 62
     7
100
AcDbLine
 10
535.25
 20
153.75
 30
0.0
 11
503.75
 21
153.75
 31
0.0
  0
ARC
  5
1FC
330
322
100
AcDbEntity
  8
DATA
  6
Continuous
 62
     7
100
AcDbCircle
 10
535.25
 20
158.25
 30
0.0
 40
4.5
100
AcDbArc
 50
270.0
 51
0.0
  0
LINE
  5
1FD
330
322
100
AcDbEntity
  8
DATA
  6
Continuous
 62
     7
100
AcDbLine
 10
539.7499999999999
 20
189.75
 30
0.0
 11
539.7499999999999
 21
158.25
 31
0.0
  0
ARC
  5
1FE
330
322
100
AcDbEntity
  8
DATA
  6
Continuous
 62
     7
100
AcDbCircle
 10
535.25
 20
189.75
 30
0.0
 40
4.5
100
AcDbArc
 50
0.0
 51
90.0
  0
LINE
  5
1FF
330
322
100
AcDbEntity
  8
DATA
  6
Continuous
 62
     7
100
AcDbLine
 10
503.75
 20
194.25
 30
0.0
 11
535.25
 21
194.25
 31
0.0
  0
ARC
  5
200
330
322
100
AcDbEntity
  8
DATA
  6
Continuous
 62
     7
100
AcDbCircle
 10
503.75
 20
189.75
 30
0.0
 40
4.5
100
AcDbArc
 50
90.0
 51
180.0
  0
CIRCLE
  5
201
330
322
100
AcDbEntity
  8
DATA
  6
Continuous
 62
     7
100
AcDbCircle
 10
519.5
 20
174.0
 30
0.0
 40
13.49999999999951
  0
LINE
  5
202
330
322
100
AcDbEntity
  8
DATA
  6
Continuous
 62
     7
100
AcDbLine
 10
511.1749999999984
 20
174.0
 30
0.0
 11
529.1749999999983
 21
174.0
 31
0.0
  0
LINE
  5
203
330
322
100
AcDbEntity
  8
DATA
  6
Continuous
 62
     7
100
AcDbLine
 10
519.5
 20
183.0
 30
0.0
 11
519.5
 21
165.0
 31
0.0
  0
LINE
  5
204
330
322
100
AcDbEntity
  8
DATA
  6
Continuous
 62
     7
100
AcDbLine
 10
479.0
 20
90.75000000000001
 30
0.0
 11
479.0
 21
140.25
 31
0.0
  0
LINE
  5
205
330
322
100
AcDbEntity
  8
DATA
  6
Continuous
 62
     7
100
AcDbLine
 10
560.0
 20
90.75000000000001
 30
0.0
 11
479.0
 21
90.75000000000001
 31
0.0
  0
LINE
  5
206
330
322
100
AcDbEntity
  8
DATA
  6
Continuous
 62
     7
100
AcDbLine
 10
560.0
 20
140.25
 30
0.0
 11
560.0
 21
90.75000000000001
 31
0.0
  0
LINE
  5
207
330
322
100
AcDbEntity
  8
DATA
  6
Continuous
 62
     7
100
AcDbLine
 10
479.0
 20
140.25
 30
0.0
 11
560.0
 21
140.25
 31
0.0
  0
LINE
  5
208
330
322
100
AcDbEntity
  8
DATA
  6
Continuous
 62
     7
100
AcDbLine
 10
479.0
 20
140.25
 30
0.0
 11
479.0
 21
149.25
 31
0.0
  0
LINE
  5
209
330
322
100
AcDbEntity
  8
DATA
  6
Continuous
 62
     7
100
AcDbLine
 10
560.0
 20
140.25
 30
0.0
 11
479.0
 21
140.25
 31
0.0
  0
LINE
  5
20A
330
322
100
AcDbEntity
  8
DATA
  6
Continuous
 62
     7
100
AcDbLine
 10
560.0
 20
149.25
 30
0.0
 11
560.0
 21
140.25
 31
0.0
  0
LINE
  5
20B
330
322
100
AcDbEntity
  8
DATA
  6
Continuous
 62
     7
100
AcDbLine
 10
479.0
 20
149.25
 30
0.0
 11
560.0
 21
149.25
 31
0.0
  0
CIRCLE
  5
20C
330
322
100
AcDbEntity
  8
DATA
  6
Continuous
 62
     7
100
AcDbCircle
 10
519.5
 20
115.5
 30
0.0
 40
13.49999999999951
  0
LINE
  5
20D
330
322
100
AcDbEntity
  8
DATA
  6
Continuous
 62
     7
100
AcDbLine
 10
511.1749999999984
 20
115.5
 30
0.0
 11
529.1749999999983
 21
115.5
 31
0.0
  0
LINE
  5
20E
330
322
100
AcDbEntity
  8
DATA
  6
Continuous
 62
     7
100
AcDbLine
 10
519.5
 20
124.5
 30
0.0
 11
519.5
 21
106.5
 31
0.0
  0
LINE
  5
20F
330
322
100
AcDbEntity
  8
DATA
  6
Continuous
 62
     7
100
AcDbLine
 10
479.0
 20
32.25
 30
0.0
 11
479.0
 21
81.75
 31
0.0
  0
LINE
  5
210
330
322
100
AcDbEntity
  8
DATA
  6
Continuous
 62
     7
100
AcDbLine
 10
560.0
 20
32.25
 30
0.0
 11
479.0
 21
32.25
 31
0.0
  0
LINE
  5
211
330
322
100
AcDbEntity
  8
DATA
  6
Continuous
 62
     7
100
AcDbLine
 10
560.0
 20
81.75
 30
0.0
 11
560.0
 21
32.25
 31
0.0
  0
LINE
  5
212
330
322
100
AcDbEntity
  8
DATA
  6
Continuous
 62
     7
100
AcDbLine
 10
479.0
 20
81.75
 30
0.0
 11
560.0
 21
81.75
 31
0.0
  0
LINE
  5
213
330
322
100
AcDbEntity
  8
DATA
  6
Continuous
 62
     7
100
AcDbLine
 10
479.0
 20
81.75
 30
0.0
 11
479.0
 21
90.75000000000001
 31
0.0
  0
LINE
  5
214
330
322
100
AcDbEntity
  8
DATA
  6
Continuous
 62
     7
100
AcDbLine
 10
560.0
 20
81.75
 30
0.0
 11
479.0
 21
81.75
 31
0.0
  0
LINE
  5
215
330
322
100
AcDbEntity
  8
DATA
  6
Continuous
 62
     7
100
AcDbLine
 10
560.0
 20
90.75000000000001
 30
0.0
 11
560.0
 21
81.75
 31
0.0
  0
LINE
  5
216
330
322
100
AcDbEntity
  8
DATA
  6
Continuous
 62
     7
100
AcDbLine
 10
479.0
 20
90.75000000000001
 30
0.0
 11
560.0
 21
90.75000000000001
 31
0.0
  0
CIRCLE
  5
217
330
322
100
AcDbEntity
  8
DATA
  6
Continuous
 62
     7
100
AcDbCircle
 10
519.5
 20
57.0
 30
0.0
 40
13.49999999999951
  0
LINE
  5
218
330
322
100
AcDbEntity
  8
DATA
  6
Continuous
 62
     7
100
AcDbLine
 10
511.1749999999984
 20
57.0
 30
0.0
 11
529.1749999999983
 21
57.0
 31
0.0
  0
LINE
  5
219
330
322
100
AcDbEntity
  8
DATA
  6
Continuous
 62
     7
100
AcDbLine
 10
519.5
 20
66.0
 30
0.0
 11
519.5
 21
48.0
 31
0.0
  0
LINE
  5
21A
330
322
100
AcDbEntity
  8
DATA
  6
Continuous
 62
     7
100
AcDbLine
 10
479.0
 20
-26.25
 30
0.0
 11
479.0
 21
23.25
 31
0.0
  0
LINE
  5
21B
330
322
100
AcDbEntity
  8
DATA
  6
Continuous
 62
     7
100
AcDbLine
 10
560.0
 20
-26.25
 30
0.0
 11
479.0
 21
-26.25
 31
0.0
  0
LINE
  5
21C
330
322
100
AcDbEntity
  8
DATA
  6
Continuous
 62
     7
100
AcDbLine
 10
560.0
 20
23.25
 30
0.0
 11
560.0
 21
-26.25
 31
0.0
  0
LINE
  5
21D
330
322
100
AcDbEntity
  8
DATA
  6
Continuous
 62
     7
100
AcDbLine
 10
479.0
 20
23.25
 30
0.0
 11
560.0
 21
23.25
 31
0.0
  0
LINE
  5
21E
330
322
100
AcDbEntity
  8
DATA
  6
Continuous
 62
     7
100
AcDbLine
 10
479.0
 20
23.25
 30
0.0
 11
479.0
 21
32.25
 31
0.0
  0
LINE
  5
21F
330
322
100
AcDbEntity
  8
DATA
  6
Continuous
 62
     7
100
AcDbLine
 10
560.0
 20
23.25
 30
0.0
 11
479.0
 21
23.25
 31
0.0
  0
LINE
  5
220
330
322
100
AcDbEntity
  8
DATA
  6
Continuous
 62
     7
100
AcDbLine
 10
560.0
 20
32.25
 30
0.0
 11
560.0
 21
23.25
 31
0.0
  0
LINE
  5
221
330
322
100
AcDbEntity
  8
DATA
  6
Continuous
 62
     7
100
AcDbLine
 10
479.0
 20
32.25
 30
0.0
 11
560.0
 21
32.25
 31
0.0
  0
CIRCLE
  5
222
330
322
100
AcDbEntity
  8
DATA
  6
Continuous
 62
     7
100
AcDbCircle
 10
519.5
 20
-1.5
 30
0.0
 40
13.49999999999951
  0
LINE
  5
223
330
322
100
AcDbEntity
  8
DATA
  6
Continuous
 62
     7
100
AcDbLine
 10
511.1749999999984
 20
-1.5
 30
0.0
 11
529.1749999999983
 21
-1.5
 31
0.0
  0
LINE
  5
224
330
322
100
AcDbEntity
  8
DATA
  6
Continuous
 62
     7
100
AcDbLine
 10
519.5
 20
7.5
 30
0.0
 11
519.5
 21
-10.5
 31
0.0
  0
LINE
  5
225
330
322
100
AcDbEntity
  8
DATA
  6
Continuous
 62
     7
100
AcDbLine
 10
479.0
 20
-84.74999999999999
 30
0.0
 11
479.0
 21
-35.25
 31
0.0
  0
LINE
  5
226
330
322
100
AcDbEntity
  8
DATA
  6
Continuous
 62
     7
100
AcDbLine
 10
560.0
 20
-84.74999999999999
 30
0.0
 11
479.0
 21
-84.74999999999999
 31
0.0
  0
LINE
  5
227
330
322
100
AcDbEntity
  8
DATA
  6
Continuous
 62
     7
100
AcDbLine
 10
560.0
 20
-35.25
 30
0.0
 11
560.0
 21
-84.74999999999999
 31
0.0
  0
LINE
  5
228
330
322
100
AcDbEntity
  8
DATA
  6
Continuous
 62
     7
100
AcDbLine
 10
479.0
 20
-35.25
 30
0.0
 11
560.0
 21
-35.25
 31
0.0
  0
LINE
  5
229
330
322
100
AcDbEntity
  8
DATA
  6
Continuous
 62
     7
100
AcDbLine
 10
479.0
 20
-35.25
 30
0.0
 11
479.0
 21
-26.25
 31
0.0
  0
LINE
  5
22A
330
322
100
AcDbEntity
  8
DATA
  6
Continuous
 62
     7
100
AcDbLine
 10
560.0
 20
-35.25
 30
0.0
 11
479.0
 21
-35.25
 31
0.0
  0
LINE
  5
22B
330
322
100
AcDbEntity
  8
DATA
  6
Continuous
 62
     7
100
AcDbLine
 10
560.0
 20
-26.25
 30
0.0
 11
560.0
 21
-35.25
 31
0.0
  0
LINE
  5
22C
330
322
100
AcDbEntity
  8
DATA
  6
Continuous
 62
     7
100
AcDbLine
 10
479.0
 20
-26.25
 30
0.0
 11
560.0
 21
-26.25
 31
0.0
  0
CIRCLE
  5
22D
330
322
100
AcDbEntity
  8
DATA
  6
Continuous
 62
     7
100
AcDbCircle
 10
519.5
 20
-60.0
 30
0.0
 40
13.49999999999951
  0
LINE
  5
22E
330
322
100
AcDbEntity
  8
DATA
  6
Continuous
 62
     7
100
AcDbLine
 10
511.1749999999984
 20
-60.0
 30
0.0
 11
529.1749999999983
 21
-60.0
 31
0.0
  0
LINE
  5
22F
330
322
100
AcDbEntity
  8
DATA
  6
Continuous
 62
     7
100
AcDbLine
 10
519.5
 20
-51.0
 30
0.0
 11
519.5
 21
-69.0
 31
0.0
  0
LINE
  5
230
330
322
100
AcDbEntity
  8
DATA
  6
Continuous
 62
     7
100
AcDbLine
 10
479.0
 20
-143.25
 30
0.0
 11
479.0
 21
-93.75
 31
0.0
  0
LINE
  5
231
330
322
100
AcDbEntity
  8
DATA
  6
Continuous
 62
     7
100
AcDbLine
 10
560.0
 20
-143.25
 30
0.0
 11
479.0
 21
-143.25
 31
0.0
  0
LINE
  5
232
330
322
100
AcDbEntity
  8
DATA
  6
Continuous
 62
     7
100
AcDbLine
 10
560.0
 20
-93.75
 30
0.0
 11
560.0
 21
-143.25
 31
0.0
  0
LINE
  5
233
330
322
100
AcDbEntity
  8
DATA
  6
Continuous
 62
     7
100
AcDbLine
 10
479.0
 20
-93.75
 30
0.0
 11
560.0
 21
-93.75
 31
0.0
  0
LINE
  5
234
330
322
100
AcDbEntity
  8
DATA
  6
Continuous
 62
     7
100
AcDbLine
 10
479.0
 20
-93.75
 30
0.0
 11
479.0
 21
-84.74999999999999
 31
0.0
  0
LINE
  5
235
330
322
100
AcDbEntity
  8
DATA
  6
Continuous
 62
     7
100
AcDbLine
 10
560.0
 20
-93.75
 30
0.0
 11
479.0
 21
-93.75
 31
0.0
  0
LINE
  5
236
330
322
100
AcDbEntity
  8
DATA
  6
Continuous
 62
     7
100
AcDbLine
 10
560.0
 20
-84.74999999999999
 30
0.0
 11
560.0
 21
-93.75
 31
0.0
  0
LINE
  5
237
330
322
100
AcDbEntity
  8
DATA
  6
Continuous
 62
     7
100
AcDbLine
 10
479.0
 20
-84.74999999999999
 30
0.0
 11
560.0
 21
-84.74999999999999
 31
0.0
  0
CIRCLE
  5
238
330
322
100
AcDbEntity
  8
DATA
  6
Continuous
 62
     7
100
AcDbCircle
 10
519.5
 20
-118.5
 30
0.0
 40
13.49999999999951
  0
LINE
  5
239
330
322
100
AcDbEntity
  8
DATA
  6
Continuous
 62
     7
100
AcDbLine
 10
511.1749999999984
 20
-118.5
 30
0.0
 11
529.1749999999983
 21
-118.5
 31
0.0
  0
LINE
  5
23A
330
322
100
AcDbEntity
  8
DATA
  6
Continuous
 62
     7
100
AcDbLine
 10
519.5
 20
-109.5
 30
0.0
 11
519.5
 21
-127.5
 31
0.0
  0
LINE
  5
23B
330
322
100
AcDbEntity
  8
DATA
  6
Continuous
 62
     7
100
AcDbLine
 10
479.0
 20
-201.75
 30
0.0
 11
479.0
 21
-152.25
 31
0.0
  0
LINE
  5
23C
330
322
100
AcDbEntity
  8
DATA
  6
Continuous
 62
     7
100
AcDbLine
 10
560.0
 20
-201.75
 30
0.0
 11
479.0
 21
-201.75
 31
0.0
  0
LINE
  5
23D
330
322
100
AcDbEntity
  8
DATA
  6
Continuous
 62
     7
100
AcDbLine
 10
560.0
 20
-152.25
 30
0.0
 11
560.0
 21
-201.75
 31
0.0
  0
LINE
  5
23E
330
322
100
AcDbEntity
  8
DATA
  6
Continuous
 62
     7
100
AcDbLine
 10
479.0
 20
-152.25
 30
0.0
 11
560.0
 21
-152.25
 31
0.0
  0
LINE
  5
23F
330
322
100
AcDbEntity
  8
DATA
  6
Continuous
 62
     7
100
AcDbLine
 10
479.0
 20
-152.25
 30
0.0
 11
479.0
 21
-143.25
 31
0.0
  0
LINE
  5
240
330
322
100
AcDbEntity
  8
DATA
  6
Continuous
 62
     7
100
AcDbLine
 10
560.0
 20
-152.25
 30
0.0
 11
479.0
 21
-152.25
 31
0.0
  0
LINE
  5
241
330
322
100
AcDbEntity
  8
DATA
  6
Continuous
 62
     7
100
AcDbLine
 10
560.0
 20
-143.25
 30
0.0
 11
560.0
 21
-152.25
 31
0.0
  0
LINE
  5
242
330
322
100
AcDbEntity
  8
DATA
  6
Continuous
 62
     7
100
AcDbLine
 10
479.0
 20
-143.25
 30
0.0
 11
560.0
 21
-143.25
 31
0.0
  0
CIRCLE
  5
243
330
322
100
AcDbEntity
  8
DATA
  6
Continuous
 62
     7
100
AcDbCircle
 10
519.5
 20
-177.0
 30
0.0
 40
13.49999999999951
  0
LINE
  5
244
330
322
100
AcDbEntity
  8
DATA
  6
Continuous
 62
     7
100
AcDbLine
 10
511.1749999999984
 20
-177.0
 30
0.0
 11
529.1749999999983
 21
-177.0
 31
0.0
  0
LINE
  5
245
330
322
100
AcDbEntity
  8
DATA
  6
Continuous
 62
     7
100
AcDbLine
 10
519.5
 20
-168.0
 30
0.0
 11
519.5
 21
-186.0
 31
0.0
  0
LINE
  5
246
330
322
100
AcDbEntity
  8
DATA
  6
Continuous
 62
     7
100
AcDbLine
 10
479.0
 20
-260.25
 30
0.0
 11
479.0
 21
-210.75
 31
0.0
  0
LINE
  5
247
330
322
100
AcDbEntity
  8
DATA
  6
Continuous
 62
     7
100
AcDbLine
 10
560.0
 20
-260.25
 30
0.0
 11
479.0
 21
-260.25
 31
0.0
  0
LINE
  5
248
330
322
100
AcDbEntity
  8
DATA
  6
Continuous
 62
     7
100
AcDbLine
 10
560.0
 20
-210.75
 30
0.0
 11
560.0
 21
-260.25
 31
0.0
  0
LINE
  5
249
330
322
100
AcDbEntity
  8
DATA
  6
Continuous
 62
     7
100
AcDbLine
 10
479.0
 20
-210.75
 30
0.0
 11
560.0
 21
-210.75
 31
0.0
  0
LINE
  5
24A
330
322
100
AcDbEntity
  8
DATA
  6
Continuous
 62
     7
100
AcDbLine
 10
479.0
 20
-210.75
 30
0.0
 11
479.0
 21
-201.75
 31
0.0
  0
LINE
  5
24B
330
322
100
AcDbEntity
  8
DATA
  6
Continuous
 62
     7
100
AcDbLine
 10
560.0
 20
-210.75
 30
0.0
 11
479.0
 21
-210.75
 31
0.0
  0
LINE
  5
24C
330
322
100
AcDbEntity
  8
DATA
  6
Continuous
 62
     7
100
AcDbLine
 10
560.0
 20
-201.75
 30
0.0
 11
560.0
 21
-210.75
 31
0.0
  0
LINE
  5
24D
330
322
100
AcDbEntity
  8
DATA
  6
Continuous
 62
     7
100
AcDbLine
 10
479.0
 20
-201.75
 30
0.0
 11
560.0
 21
-201.75
 31
0.0
  0
LINE
  5
24E
330
322
100
AcDbEntity
  8
DATA
  6
Continuous
 62
     7
100
AcDbLine
 10
499.2499999999999
 20
-251.25
 30
0.0
 11
499.2499999999999
 21
-219.75
 31
0.0
  0
ARC
  5
24F
330
322
100
AcDbEntity
  8
DATA
  6
Continuous
 62
     7
100
AcDbCircle
 10
503.75
 20
-251.25
 30
0.0
 40
4.5
100
AcDbArc
 50
180.0
 51
270.0
  0
LINE
  5
250
330
322
100
AcDbEntity
  8
DATA
  6
Continuous
 62
     7
100
AcDbLine
 10
535.25
 20
-255.75
 30
0.0
 11
503.75
 21
-255.75
 31
0.0
  0
ARC
  5
251
330
322
100
AcDbEntity
  8
DATA
  6
Continuous
 62
     7
100
AcDbCircle
 10
535.25
 20
-251.25
 30
0.0
 40
4.5
100
AcDbArc
 50
270.0
 51
0.0
  0
LINE
  5
252
330
322
100
AcDbEntity
  8
DATA
  6
Continuous
 62
     7
100
AcDbLine
 10
539.7499999999999
 20
-219.75
 30
0.0
 11
539.7499999999999
 21
-251.25
 31
0.0
  0
ARC
  5
253
330
322
100
AcDbEntity
  8
DATA
  6
Continuous
 62
     7
100
AcDbCircle
 10
535.25
 20
-219.75
 30
0.0
 40
4.5
100
AcDbArc
 50
0.0
 51
90.0
  0
LINE
  5
254
330
322
100
AcDbEntity
  8
DATA
  6
Continuous
 62
     7
100
AcDbLine
 10
503.75
 20
-215.25
 30
0.0
 11
535.25
 21
-215.25
 31
0.0
  0
ARC
  5
255
330
322
100
AcDbEntity
  8
DATA
  6
Continuous
 62
     7
100
AcDbCircle
 10
503.75
 20
-219.75
 30
0.0
 40
4.5
100
AcDbArc
 50
90.0
 51
180.0
  0
CIRCLE
  5
256
330
322
100
AcDbEntity
  8
DATA
  6
Continuous
 62
     7
100
AcDbCircle
 10
519.5
 20
-235.5
 30
0.0
 40
13.49999999999951
  0
LINE
  5
257
330
322
100
AcDbEntity
  8
DATA
  6
Continuous
 62
     7
100
AcDbLine
 10
511.1749999999984
 20
-235.5
 30
0.0
 11
529.1749999999983
 21
-235.5
 31
0.0
  0
LINE
  5
258
330
322
100
AcDbEntity
  8
DATA
  6
Continuous
 62
     7
100
AcDbLine
 10
519.5
 20
-226.5
 30
0.0
 11
519.5
 21
-244.5
 31
0.0
  0
LINE
  5
259
330
322
100
AcDbEntity
  8
DATA
  6
Continuous
 62
     7
100
AcDbLine
 10
479.0
 20
-269.25
 30
0.0
 11
560.0
 21
-269.25
 31
0.0
  0
LINE
  5
25A
330
322
100
AcDbEntity
  8
DATA
  6
Continuous
 62
     7
100
AcDbLine
 10
479.0
 20
-269.25
 30
0.0
 11
479.0
 21
-260.25
 31
0.0
  0
LINE
  5
25B
330
322
100
AcDbEntity
  8
DATA
  6
Continuous
 62
     7
100
AcDbLine
 10
560.0
 20
-269.25
 30
0.0
 11
479.0
 21
-269.25
 31
0.0
  0
LINE
  5
25C
330
322
100
AcDbEntity
  8
DATA
  6
Continuous
 62
     7
100
AcDbLine
 10
560.0
 20
-260.25
 30
0.0
 11
560.0
 21
-269.25
 31
0.0
  0
LINE
  5
25D
330
322
100
AcDbEntity
  8
DATA
  6
Continuous
 62
     7
100
AcDbLine
 10
479.0
 20
-260.25
 30
0.0
 11
560.0
 21
-260.25
 31
0.0
  0
LINE
  5
25E
330
322
100
AcDbEntity
  8
DATA
  6
Continuous
 62
     7
100
AcDbLine
 10
499.2499999999999
 20
95.25
 30
0.0
 11
499.2499999999999
 21
135.75
 31
0.0
  0
ARC
  5
25F
330
322
100
AcDbEntity
  8
DATA
  6
Continuous
 62
     7
100
AcDbCircle
 10
501.4999999999999
 20
95.25
 30
0.0
 40
2.25
100
AcDbArc
 50
180.0
 51
270.0
  0
LINE
  5
260
330
322
100
AcDbEntity
  8
DATA
  6
Continuous
 62
     7
100
AcDbLine
 10
537.5
 20
93.0
 30
0.0
 11
501.4999999999999
 21
93.0
 31
0.0
  0
ARC
  5
261
330
322
100
AcDbEntity
  8
DATA
  6
Continuous
 62
     7
100
AcDbCircle
 10
537.5
 20
95.25
 30
0.0
 40
2.25
100
AcDbArc
 50
270.0
 51
0.0
  0
LINE
  5
262
330
322
100
AcDbEntity
  8
DATA
  6
Continuous
 62
     7
100
AcDbLine
 10
539.7499999999999
 20
135.75
 30
0.0
 11
539.7499999999999
 21
95.25
 31
0.0
  0
ARC
  5
263
330
322
100
AcDbEntity
  8
DATA
  6
Continuous
 62
     7
100
AcDbCircle
 10
537.5
 20
135.75
 30
0.0
 40
2.25
100
AcDbArc
 50
0.0
 51
90.0
  0
LINE
  5
264
330
322
100
AcDbEntity
  8
DATA
  6
Continuous
 62
     7
100
AcDbLine
 10
501.4999999999999
 20
138.0
 30
0.0
 11
537.5
 21
138.0
 31
0.0
  0
ARC
  5
265
330
322
100
AcDbEntity
  8
DATA
  6
Continuous
 62
     7
100
AcDbCircle
 10
501.4999999999999
 20
135.75
 30
0.0
 40
2.25
100
AcDbArc
 50
90.0
 51
180.0
  0
LINE
  5
266
330
322
100
AcDbEntity
  8
DATA
  6
Continuous
 62
     7
100
AcDbLine
 10
499.2499999999999
 20
36.75
 30
0.0
 11
499.2499999999999
 21
77.25
 31
0.0
  0
ARC
  5
267
330
322
100
AcDbEntity
  8
DATA
  6
Continuous
 62
     7
100
AcDbCircle
 10
501.4999999999999
 20
36.75
 30
0.0
 40
2.25
100
AcDbArc
 50
180.0
 51
270.0
  0
LINE
  5
268
330
322
100
AcDbEntity
  8
DATA
  6
Continuous
 62
     7
100
AcDbLine
 10
537.5
 20
34.5
 30
0.0
 11
501.4999999999999
 21
34.5
 31
0.0
  0
ARC
  5
269
330
322
100
AcDbEntity
  8
DATA
  6
Continuous
 62
     7
100
AcDbCircle
 10
537.5
 20
36.75
 30
0.0
 40
2.25
100
AcDbArc
 50
270.0
 51
0.0
  0
LINE
  5
26A
330
322
100
AcDbEntity
  8
DATA
  6
Continuous
 62
     7
100
AcDbLine
 10
539.7499999999999
 20
77.25
 30
0.0
 11
539.7499999999999
 21
36.75
 31
0.0
  0
ARC
  5
26B
330
322
100
AcDbEntity
  8
DATA
  6
Continuous
 62
     7
100
AcDbCircle
 10
537.5
 20
77.25
 30
0.0
 40
2.25
100
AcDbArc
 50
0.0
 51
90.0
  0
LINE
  5
26C
330
322
100
AcDbEntity
  8
DATA
  6
Continuous
 62
     7
100
AcDbLine
 10
501.4999999999999
 20
79.5
 30
0.0
 11
537.5
 21
79.5
 31
0.0
  0
ARC
  5
26D
330
322
100
AcDbEntity
  8
DATA
  6
Continuous
 62
     7
100
AcDbCircle
 10
501.4999999999999
 20
77.25
 30
0.0
 40
2.25
100
AcDbArc
 50
90.0
 51
180.0
  0
LINE
  5
26E
330
322
100
AcDbEntity
  8
DATA
  6
Continuous
 62
     7
100
AcDbLine
 10
499.2499999999999
 20
-21.75
 30
0.0
 11
499.2499999999999
 21
18.75
 31
0.0
  0
ARC
  5
26F
330
322
100
AcDbEntity
  8
DATA
  6
Continuous
 62
     7
100
AcDbCircle
 10
501.4999999999999
 20
-21.75
 30
0.0
 40
2.25
100
AcDbArc
 50
180.0
 51
270.0
  0
LINE
  5
270
330
322
100
AcDbEntity
  8
DATA
  6
Continuous
 62
     7
100
AcDbLine
 10
537.5
 20
-24.0
 30
0.0
 11
501.4999999999999
 21
-24.0
 31
0.0
  0
ARC
  5
271
330
322
100
AcDbEntity
  8
DATA
  6
Continuous
 62
     7
100
AcDbCircle
 10
537.5
 20
-21.75
 30
0.0
 40
2.25
100
AcDbArc
 50
270.0
 51
0.0
  0
LINE
  5
272
330
322
100
AcDbEntity
  8
DATA
  6
Continuous
 62
     7
100
AcDbLine
 10
539.7499999999999
 20
18.75
 30
0.0
 11
539.7499999999999
 21
-21.75
 31
0.0
  0
ARC
  5
273
330
322
100
AcDbEntity
  8
DATA
  6
Continuous
 62
     7
100
AcDbCircle
 10
537.5
 20
18.75
 30
0.0
 40
2.25
100
AcDbArc
 50
0.0
 51
90.0
  0
LINE
  5
274
330
322
100
AcDbEntity
  8
DATA
  6
Continuous
 62
     7
100
AcDbLine
 10
501.4999999999999
 20
21.0
 30
0.0
 11
537.5
 21
21.0
 31
0.0
  0
ARC
  5
275
330
322
100
AcDbEntity
  8
DATA
  6
Continuous
 62
     7
100
AcDbCircle
 10
501.4999999999999
 20
18.75
 30
0.0
 40
2.25
100
AcDbArc
 50
90.0
 51
180.0
  0
LINE
  5
276
330
322
100
AcDbEntity
  8
DATA
  6
Continuous
 62
     7
100
AcDbLine
 10
499.2499999999999
 20
-80.25
 30
0.0
 11
499.2499999999999
 21
-39.75
 31
0.0
  0
ARC
  5
277
330
322
100
AcDbEntity
  8
DATA
  6
Continuous
 62
     7
100
AcDbCircle
 10
501.4999999999999
 20
-80.25
 30
0.0
 40
2.25
100
AcDbArc
 50
180.0
 51
270.0
  0
LINE
  5
278
330
322
100
AcDbEntity
  8
DATA
  6
Continuous
 62
     7
100
AcDbLine
 10
537.5
 20
-82.5
 30
0.0
 11
501.4999999999999
 21
-82.5
 31
0.0
  0
ARC
  5
279
330
322
100
AcDbEntity
  8
DATA
  6
Continuous
 62
     7
100
AcDbCircle
 10
537.5
 20
-80.25
 30
0.0
 40
2.25
100
AcDbArc
 50
270.0
 51
0.0
  0
LINE
  5
27A
330
322
100
AcDbEntity
  8
DATA
  6
Continuous
 62
     7
100
AcDbLine
 10
539.7499999999999
 20
-39.75
 30
0.0
 11
539.7499999999999
 21
-80.25
 31
0.0
  0
ARC
  5
27B
330
322
100
AcDbEntity
  8
DATA
  6
Continuous
 62
     7
100
AcDbCircle
 10
537.5
 20
-39.75
 30
0.0
 40
2.25
100
AcDbArc
 50
0.0
 51
90.0
  0
LINE
  5
27C
330
322
100
AcDbEntity
  8
DATA
  6
Continuous
 62
     7
100
AcDbLine
 10
501.4999999999999
 20
-37.5
 30
0.0
 11
537.5
 21
-37.5
 31
0.0
  0
ARC
  5
27D
330
322
100
AcDbEntity
  8
DATA
  6
Continuous
 62
     7
100
AcDbCircle
 10
501.4999999999999
 20
-39.75
 30
0.0
 40
2.25
100
AcDbArc
 50
90.0
 51
180.0
  0
LINE
  5
27E
330
322
100
AcDbEntity
  8
DATA
  6
Continuous
 62
     7
100
AcDbLine
 10
499.2499999999999
 20
-138.75
 30
0.0
 11
499.2499999999999
 21
-98.25000000000001
 31
0.0
  0
ARC
  5
27F
330
322
100
AcDbEntity
  8
DATA
  6
Continuous
 62
     7
100
AcDbCircle
 10
501.4999999999999
 20
-138.75
 30
0.0
 40
2.25
100
AcDbArc
 50
180.0
 51
270.0
  0
LINE
  5
280
330
322
100
AcDbEntity
  8
DATA
  6
Continuous
 62
     7
100
AcDbLine
 10
537.5
 20
-141.0
 30
0.0
 11
501.4999999999999
 21
-141.0
 31
0.0
  0
ARC
  5
281
330
322
100
AcDbEntity
  8
DATA
  6
Continuous
 62
     7
100
AcDbCircle
 10
537.5
 20
-138.75
 30
0.0
 40
2.25
100
AcDbArc
 50
270.0
 51
0.0
  0
LINE
  5
282
330
322
100
AcDbEntity
  8
DATA
  6
Continuous
 62
     7
100
AcDbLine
 10
539.7499999999999
 20
-98.25000000000001
 30
0.0
 11
539.7499999999999
 21
-138.75
 31
0.0
  0
ARC
  5
283
330
322
100
AcDbEntity
  8
DATA
  6
Continuous
 62
     7
100
AcDbCircle
 10
537.5
 20
-98.25000000000001
 30
0.0
 40
2.25
100
AcDbArc
 50
0.0
 51
90.0
  0
LINE
  5
284
330
322
100
AcDbEntity
  8
DATA
  6
Continuous
 62
     7
100
AcDbLine
 10
501.4999999999999
 20
-96.0
 30
0.0
 11
537.5
 21
-96.0
 31
0.0
  0
ARC
  5
285
330
322
100
AcDbEntity
  8
DATA
  6
Continuous
 62
     7
100
AcDbCircle
 10
501.4999999999999
 20
-98.25000000000001
 30
0.0
 40
2.25
100
AcDbArc
 50
90.0
 51
180.0
  0
LINE
  5
286
330
322
100
AcDbEntity
  8
DATA
  6
Continuous
 62
     7
100
AcDbLine
 10
499.2499999999999
 20
-197.25
 30
0.0
 11
499.2499999999999
 21
-156.75
 31
0.0
  0
ARC
  5
287
330
322
100
AcDbEntity
  8
DATA
  6
Continuous
 62
     7
100
AcDbCircle
 10
501.4999999999999
 20
-197.25
 30
0.0
 40
2.25
100
AcDbArc
 50
180.0
 51
270.0
  0
LINE
  5
288
330
322
100
AcDbEntity
  8
DATA
  6
Continuous
 62
     7
100
AcDbLine
 10
537.5
 20
-199.5
 30
0.0
 11
501.4999999999999
 21
-199.5
 31
0.0
  0
ARC
  5
289
330
322
100
AcDbEntity
  8
DATA
  6
Continuous
 62
     7
100
AcDbCircle
 10
537.5
 20
-197.25
 30
0.0
 40
2.25
100
AcDbArc
 50
270.0
 51
0.0
  0
LINE
  5
28A
330
322
100
AcDbEntity
  8
DATA
  6
Continuous
 62
     7
100
AcDbLine
 10
539.7499999999999
 20
-156.75
 30
0.0
 11
539.7499999999999
 21
-197.25
 31
0.0
  0
ARC
  5
28B
330
322
100
AcDbEntity
  8
DATA
  6
Continuous
 62
     7
100
AcDbCircle
 10
537.5
 20
-156.75
 30
0.0
 40
2.25
100
AcDbArc
 50
0.0
 51
90.0
  0
LINE
  5
28C
330
322
100
AcDbEntity
  8
DATA
  6
Continuous
 62
     7
100
AcDbLine
 10
501.4999999999999
 20
-154.5
 30
0.0
 11
537.5
 21
-154.5
 31
0.0
  0
ARC
  5
28D
330
322
100
AcDbEntity
  8
DATA
  6
Continuous
 62
     7
100
AcDbCircle
 10
501.4999999999999
 20
-156.75
 30
0.0
 40
2.25
100
AcDbArc
 50
90.0
 51
180.0
  0
TEXT
  5
28E
330
322
100
AcDbEntity
  8
DATA
 62
     7
100
AcDbText
 10
573.5
 20
106.3377685546875
 30
0.0
 40
18.324462890625
  1
com
 41
0.7
 11
573.5
 21
115.5
 31
0.0
100
AcDbText
 73
     2
  0
TEXT
  5
28F
330
322
100
AcDbEntity
  8
DATA
 62
     7
100
AcDbText
 10
573.5
 20
47.8377685546875
 30
0.0
 40
18.324462890625
  1
8Ω
 41
0.7
 11
573.5
 21
57.0
 31
0.0
100
AcDbText
 73
     2
  0
TEXT
  5
290
330
322
100
AcDbEntity
  8
DATA
 62
     7
100
AcDbText
 10
573.5
 20
-69.1622314453125
 30
0.0
 40
18.324462890625
  1
110W(70V)
 41
0.7
 11
573.5
 21
-60.0
 31
0.0
100
AcDbText
 73
     2
  0
TEXT
  5
291
330
322
100
AcDbEntity
  8
DATA
 62
     7
100
AcDbText
 10
573.5
 20
1.244018554687496
 30
0.0
 40
18.324462890625
  1
70V
 41
0.7
 11
573.5
 21
10.40624999999999
 31
0.0
100
AcDbText
 73
     2
  0
TEXT
  5
292
330
322
100
AcDbEntity
  8
DATA
 62
     7
100
AcDbText
 10
573.5
 20
-22.56848144531249
 30
0.0
 40
18.324462890625
  1
Jumper
 41
0.7
 11
573.5
 21
-13.40624999999999
 31
0.0
100
AcDbText
 73
     2
  0
TEXT
  5
293
330
322
100
AcDbEntity
  8
DATA
 62
     7
100
AcDbText
 10
573.5
 20
-115.7559814453125
 30
0.0
 40
18.324462890625
  1
55W(70V)
 41
0.7
 11
573.5
 21
-106.59375
 31
0.0
100
AcDbText
 73
     2
  0
TEXT
  5
294
330
322
100
AcDbEntity
  8
DATA
 62
     7
100
AcDbText
 10
573.5
 20
-139.5684814453125
 30
0.0
 40
18.324462890625
  1
110W(100V)
 41
0.7
 11
573.5
 21
-130.40625
 31
0.0
100
AcDbText
 73
     2
  0
TEXT
  5
295
330
322
100
AcDbEntity
  8
DATA
 62
     7
100
AcDbText
 10
573.5
 20
-174.2559814453125
 30
0.0
 40
18.324462890625
  1
28W(70V)
 41
0.7
 11
573.5
 21
-165.09375
 31
0.0
100
AcDbText
 73
     2
  0
TEXT
  5
296
330
322
100
AcDbEntity
  8
DATA
 62
     7
100
AcDbText
 10
573.5
 20
-198.0684814453125
 30
0.0
 40
18.324462890625
  1
55W(100V)
 41
0.7
 11
573.5
 21
-188.90625
 31
0.0
100
AcDbText
 73
     2
  0
LWPOLYLINE
  5
297
330
322
100
AcDbEntity
  8
DATA
  6
Continuous
 62
     7
100
AcDbPolyline
 90
       11
 70
   129
 43
0.0
 10
434.0
 20
277.5
 10
434.0
 20
277.5
 42
-0.4142135623730951
 10
456.5
 20
300.0
 10
843.5
 20
300.0
 10
843.5
 20
300.0
 42
-0.4142135623730951
 10
866.0
 20
277.5
 10
866.0
 20
-339.0
 10
866.0
 20
-339.0
 42
-0.4142135623730951
 10
843.5
 20
-361.5
 10
456.5
 20
-361.5
 42
-0.4142135623730951
 10
434.0
 20
-339.0
  0
LINE
  5
2A4
330
322
100
AcDbEntity
  8
DATA
  6
Continuous
 62
     7
100
AcDbLine
 10
434.0
 20
-339.0
 30
0.0
 11
434.0
 21
277.5
 31
0.0
  0
LINE
  5
2A5
330
322
100
AcDbEntity
  8
DATA
  6
Continuous
 62
     7
100
AcDbLine
 10
843.5
 20
-361.5
 30
0.0
 11
456.5
 21
-361.5
 31
0.0
  0
LINE
  5
2A6
330
322
100
AcDbEntity
  8
DATA
  6
Continuous
 62
     7
100
AcDbLine
 10
866.0
 20
277.5
 30
0.0
 11
866.0
 21
-339.0
 31
0.0
  0
LINE
  5
2A7
330
322
100
AcDbEntity
  8
DATA
  6
Continuous
 62
     7
100
AcDbLine
 10
456.5
 20
300.0
 30
0.0
 11
843.5
 21
300.0
 31
0.0
  0
ARC
  5
2A8
330
322
100
AcDbEntity
  8
DATA
  6
Continuous
 62
     7
100
AcDbCircle
 10
456.5
 20
277.5
 30
0.0
 40
22.5
100
AcDbArc
 50
90.0
 51
180.0
  0
ARC
  5
2A9
330
322
100
AcDbEntity
  8
DATA
  6
Continuous
 62
     7
100
AcDbCircle
 10
843.5
 20
277.5
 30
0.0
 40
22.5
100
AcDbArc
 50
0.0
 51
90.0
  0
ARC
  5
2AA
330
322
100
AcDbEntity
  8
DATA
  6
Continuous
 62
     7
100
AcDbCircle
 10
843.5
 20
-339.0
 30
0.0
 40
22.5
100
AcDbArc
 50
270.0
 51
0.0
  0
ARC
  5
2AB
330
322
100
AcDbEntity
  8
DATA
  6
Continuous
 62
     7
100
AcDbCircle
 10
456.5
 20
-339.0
 30
0.0
 40
22.5
100
AcDbArc
 50
180.0
 51
270.0
  0
LINE
  5
2AC
330
322
100
AcDbEntity
  8
DATA
  6
Continuous
 62
     7
100
AcDbLine
 10
-95.0
 20
-490.0
 30
0.0
 11
-57.75378874876462
 21
-490.0
 31
0.0
  0
LINE
  5
2AD
330
322
100
AcDbEntity
  8
DATA
  6
Continuous
 62
     7
100
AcDbLine
 10
-95.0
 20
-498.0
 30
0.0
 11
-62.2462112512353
 21
-498.0
 31
0.0
  0
ARC
  5
2AE
330
322
100
AcDbEntity
  8
DATA
  6
Continuous
 62
     7
100
AcDbCircle
 10
-66.0
 20
-488.0
 30
0.0
 40
8.485281374238569
100
AcDbArc
 50
315.0
 51
45.0
  0
ARC
  5
2AF
330
322
100
AcDbEntity
  8
DATA
  6
Continuous
 62
     7
100
AcDbCircle
 10
-54.0
 20
-500.0
 30
0.0
 40
8.485281374238569
100
AcDbArc
 50
135.0
 51
225.0
  0
TEXT
  5
2B0
330
322
100
AcDbEntity
  8
DATA
 62
     7
100
AcDbText
 10
475.0
 20
-1100.96065
 30
0.0
 40
16.28841145833333
  1
2-Wayフルレンジ・スピーカー
 41
0.7
 11
475.0
 21
-1084.672238541666
 31
0.0
100
AcDbText
 73
     3
  0
TEXT
  5
2B1
330
322
100
AcDbEntity
  8
DATA
 62
     7
100
AcDbText
 10
596.1577510127315
 20
-406.2125651041666
 30
0.0
 40
27.14735243055556
  1
端子拡大図
 41
0.7
 72
     1
 11
650.0
 21
-392.6388888888888
 31
0.0
100
AcDbText
 73
     2
  0
ENDSEC
  0
SECTION
  2
OBJECTS
  0
DICTIONARY
  5
2BF
330
0
100
AcDbDictionary
281
     1
  3
ACAD_CIP_PREVIOUS_PRODUCT_INFO
350
33C
  3
ACAD_COLOR
350
315
  3
ACAD_DETAILVIEWSTYLE
350
31C
  3
ACAD_GROUP
350
2C0
  3
ACAD_LAYOUT
350
314
  3
ACAD_MATERIAL
350
2C3
  3
ACAD_MLEADERSTYLE
350
318
  3
ACAD_MLINESTYLE
350
311
  3
ACAD_PLOTSETTINGS
350
313
  3
ACAD_PLOTSTYLENAME
350
2C1
  3
ACAD_SCALELIST
350
2F5
  3
ACAD_SECTIONVIEWSTYLE
350
31A
  3
ACAD_TABLESTYLE
350
316
  3
ACAD_VISUALSTYLE
350
2DC
  3
ACDB_RECOMPOSE_DATA
350
354
  3
AcDbVariableDictionary
350
347
  3
DWGPROPS
350
355
  0
DICTIONARY
  5
33D
330
307
100
AcDbDictionary
280
     1
281
     1
  3
ADSK_XREC_LAYER_RECONCILED
360
33E
  0
DICTIONARY
  5
33F
330
326
100
AcDbDictionary
280
     1
281
     1
  3
ADSK_XREC_LAYER_RECONCILED
360
340
  0
DICTIONARY
  5
341
330
334
100
AcDbDictionary
280
     1
281
     1
  3
ADSK_XREC_LAYER_RECONCILED
360
342
  0
DICTIONARY
  5
343
330
335
100
AcDbDictionary
280
     1
281
     1
  3
ADSK_XREC_LAYER_RECONCILED
360
344
  0
DICTIONARY
  5
345
330
336
100
AcDbDictionary
280
     1
281
     1
  3
ADSK_XREC_LAYER_RECONCILED
360
346
  0
XRECORD
  5
33C
102
{ACAD_REACTORS
330
2BF
102
}
330
2BF
100
AcDbXrecord
280
     1
300
ACDLT
300
2017
300
ACDLT_F_S
  0
DICTIONARY
  5
315
102
{ACAD_REACTORS
330
2BF
102
}
330
2BF
100
AcDbDictionary
281
     1
  0
DICTIONARY
  5
31C
102
{ACAD_REACTORS
330
2BF
102
}
330
2BF
100
AcDbDictionary
281
     1
  3
Imperial24
350
31D
  0
DICTIONARY
  5
2C0
102
{ACAD_REACTORS
330
2BF
102
}
330
2BF
100
AcDbDictionary
281
     1
  0
DICTIONARY
  5
314
102
{ACAD_REACTORS
330
2BF
102
}
330
2BF
100
AcDbDictionary
281
     1
  3
Model
350
325
  3
レイアウト1
350
321
  0
DICTIONARY
  5
2C3
102
{ACAD_REACTORS
330
2BF
102
}
330
2BF
100
AcDbDictionary
281
     1
  3
ByBlock
350
2CC
  3
ByLayer
350
2C4
  3
Global
350
2D4
  0
DICTIONARY
  5
318
102
{ACAD_REACTORS
330
2BF
102
}
330
2BF
100
AcDbDictionary
281
     1
  3
Standard
350
319
  0
DICTIONARY
  5
311
102
{ACAD_REACTORS
330
2BF
102
}
330
2BF
100
AcDbDictionary
281
     1
  3
Standard
350
312
  0
DICTIONARY
  5
313
102
{ACAD_REACTORS
330
2BF
102
}
330
2BF
100
AcDbDictionary
281
     1
  0
ACDBDICTIONARYWDFLT
  5
2C1
102
{ACAD_REACTORS
330
2BF
102
}
330
2BF
100
AcDbDictionary
281
     1
  3
Normal
350
2C2
100
AcDbDictionaryWithDefault
340
2C2
  0
DICTIONARY
  5
2F5
102
{ACAD_REACTORS
330
2BF
102
}
330
2BF
100
AcDbDictionary
281
     1
  3
A0
350
2F6
  3
A1
350
2F7
  3
A2
350
2F8
  3
A3
350
2F9
  3
A4
350
2FA
  3
A5
350
2FB
  3
A6
350
2FC
  3
A7
350
2FD
  3
A8
350
2FE
  3
A9
350
2FF
  3
B0
350
300
  3
B1
350
301
  3
B2
350
302
  3
B3
350
303
  3
B4
350
304
  3
B5
350
305
  3
B6
350
306
  0
DICTIONARY
  5
31A
102
{ACAD_REACTORS
330
2BF
102
}
330
2BF
100
AcDbDictionary
281
     1
  3
Imperial24
350
31B
  0
DICTIONARY
  5
316
102
{ACAD_REACTORS
330
2BF
102
}
330
2BF
100
AcDbDictionary
281
     1
  3
Standard
350
317
  0
DICTIONARY
  5
2DC
102
{ACAD_REACTORS
330
2BF
102
}
330
2BF
100
AcDbDictionary
281
     1
  3
2dWireframe
350
2E2
  3
Basic
350
2E1
  3
Brighten
350
2E8
  3
ColorChange
350
2EC
  3
Conceptual
350
2E5
  3
Dim
350
2E7
  3
EdgeColorOff
350
2F4
  3
Facepattern
350
2EB
  3
Flat
350
2DD
  3
FlatWithEdges
350
2DE
  3
Gouraud
350
2DF
  3
GouraudWithEdges
350
2E0
  3
Hidden
350
2E4
  3
JitterOff
350
2F2
  3
Linepattern
350
2EA
  3
OverhangOff
350
2F3
  3
Realistic
350
2E6
  3
Shaded
350
2F1
  3
Shaded with edges
350
2F0
  3
Shades of Gray
350
2ED
  3
Sketchy
350
2EE
  3
Thicken
350
2E9
  3
Wireframe
350
2E3
  3
X-Ray
350
2EF
  0
XRECORD
  5
354
102
{ACAD_REACTORS
330
2BF
102
}
330
2BF
100
AcDbXrecord
280
     1
 90
        1
330
317
  0
DICTIONARY
  5
347
102
{ACAD_REACTORS
330
2BF
102
}
330
2BF
100
AcDbDictionary
281
     1
  3
CANNOSCALE
350
34C
  3
CMLEADERSTYLE
350
349
  3
CTABLESTYLE
350
348
  3
CVIEWDETAILSTYLE
350
34A
  3
CVIEWSECTIONSTYLE
350
34B
  3
DIMASSOC
350
34F
  3
INDEXCTL
350
34E
  3
SORTENTS
350
34D
  3
XCLIPFRAME
350
350
  0
XRECORD
  5
355
102
{ACAD_REACTORS
330
2BF
102
}
330
2BF
100
AcDbXrecord
280
     1
  1
DWGPROPS COOKIE
  2

  3

  4

  6

  7

  8
sasaki_n
  9

300
=
301
=
302
=
303
=
304
=
305
=
306
=
307
=
308
=
309
=
 40
0.0003009259259259
 41
2457812.439201389
 42
2457812.494155093
  1

 90
        0
  0
XRECORD
  5
33E
102
{ACAD_REACTORS
330
33D
102
}
330
33D
100
AcDbXrecord
280
     1
290
     1
  0
XRECORD
  5
340
102
{ACAD_REACTORS
330
33F
102
}
330
33F
100
AcDbXrecord
280
     1
290
     1
  0
XRECORD
  5
342
102
{ACAD_REACTORS
330
341
102
}
330
341
100
AcDbXrecord
280
     1
290
     1
  0
XRECORD
  5
344
102
{ACAD_REACTORS
330
343
102
}
330
343
100
AcDbXrecord
280
     1
290
     1
  0
XRECORD
  5
346
102
{ACAD_REACTORS
330
345
102
}
330
345
100
AcDbXrecord
280
     1
290
     1
  0
ACDBDETAILVIEWSTYLE
  5
31D
102
{ACAD_XDICTIONARY
360
38D
102
}
102
{ACAD_REACTORS
330
31C
102
}
330
31C
100
AcDbModelDocViewStyle
 70
     0
  3
Imperial24
290
     0
100
AcDbDetailViewStyle
 70
     0
 71
     0
 90
        3
 71
     1
340
308
 40
0.24
340
0
 40
0.24
300

 40
0.36
280
     3
 71
     2
340
30F
 90
       25
 71
     3
340
308
 40
0.24
 90
        1
 40
0.75
 90
        1
300
%<\AcVar ViewType \f "%tc1">% %<\AcVar ViewDetailId>%\PSCALE %<\AcVar ViewScale \f "%sn">%
 71
     4
340
30F
 90
       25
340
30F
 90
       25
280
     0
  0
LAYOUT
  5
325
102
{ACAD_XDICTIONARY
360
391
102
}
102
{ACAD_REACTORS
330
314
102
}
330
314
100
AcDbPlotSettings
  1

  2
DocuPrint 3000-2
  4

  6

 40
0.0
 41
0.0
 42
0.0
 43
0.0
 44
0.0
 45
0.0
 46
0.0
 47
0.0
 48
0.0
 49
0.0
140
0.0
141
0.0
142
1.0
143
1.0
 70
  1712
 72
     0
 73
     0
 74
     0
  7

 75
     0
147
1.0
148
0.0
149
0.0
100
AcDbLayout
  1
Model
 70
     1
 71
     0
 10
0.0
 20
0.0
 11
12.0
 21
9.0
 12
0.0
 22
0.0
 32
0.0
 14
0.0
 24
0.0
 34
0.0
 15
0.0
 25
0.0
 35
0.0
146
0.0
 13
0.0
 23
0.0
 33
0.0
 16
1.0
 26
0.0
 36
0.0
 17
0.0
 27
1.0
 37
0.0
 76
     0
330
322
331
327
  0
LAYOUT
  5
321
102
{ACAD_XDICTIONARY
360
38F
102
}
102
{ACAD_REACTORS
330
314
102
}
330
314
100
AcDbPlotSettings
  1

  2
DocuPrint 3000-2
  4

  6

 40
0.0
 41
0.0
 42
0.0
 43
0.0
 44
0.0
 45
0.0
 46
0.0
 47
0.0
 48
0.0
 49
0.0
140
0.0
141
0.0
142
1.0
143
1.0
 70
   688
 72
     0
 73
     0
 74
     5
  7

 75
    16
147
1.0
148
0.0
149
0.0
100
AcDbLayout
  1
レイアウト1
 70
     0
 71
     1
 10
0.0
 20
0.0
 11
12.0
 21
9.0
 12
0.0
 22
0.0
 32
0.0
 14
1.000000000000000E+20
 24
1.000000000000000E+20
 34
1.000000000000000E+20
 15
-1.000000000000000E+20
 25
-1.000000000000000E+20
 35
-1.000000000000000E+20
146
0.0
 13
0.0
 23
0.0
 33
0.0
 16
1.0
 26
0.0
 36
0.0
 17
0.0
 27
1.0
 37
0.0
 76
     0
330
31E
  0
MATERIAL
  5
2CC
102
{ACAD_XDICTIONARY
360
2CD
102
}
102
{ACAD_REACTORS
330
2C3
102
}
330
2C3
100
AcDbMaterial
  1
ByBlock
 72
     0
 43
0.0208333333333333
 43
0.0
 43
0.0
 43
0.0
 43
0.0
 43
0.0208333333333333
 43
0.0
 43
0.0
 43
0.0
 43
0.0
 43
1.0
 43
0.0
 43
0.0
 43
0.0
 43
0.0
 43
1.0
 77
     0
 47
0.0208333333333333
 47
0.0
 47
0.0
 47
0.0
 47
0.0
 47
0.0208333333333333
 47
0.0
 47
0.0
 47
0.0
 47
0.0
 47
1.0
 47
0.0
 47
0.0
 47
0.0
 47
0.0
 47
1.0
171
     0
 49
0.0208333333333333
 49
0.0
 49
0.0
 49
0.0
 49
0.0
 49
0.0208333333333333
 49
0.0
 49
0.0
 49
0.0
 49
0.0
 49
1.0
 49
0.0
 49
0.0
 49
0.0
 49
0.0
 49
1.0
175
     0
142
0.0208333333333333
142
0.0
142
0.0
142
0.0
142
0.0
142
0.0208333333333333
142
0.0
142
0.0
142
0.0
142
0.0
142
1.0
142
0.0
142
0.0
142
0.0
142
0.0
142
1.0
179
     0
144
0.0208333333333333
144
0.0
144
0.0
144
0.0
144
0.0
144
0.0208333333333333
144
0.0
144
0.0
144
0.0
144
0.0
144
1.0
144
0.0
144
0.0
144
0.0
144
0.0
144
1.0
147
0.0208333333333333
147
0.0
147
0.0
147
0.0
147
0.0
147
0.0208333333333333
147
0.0
147
0.0
147
0.0
147
0.0
147
1.0
147
0.0
147
0.0
147
0.0
147
0.0
147
1.0
  0
MATERIAL
  5
2C4
102
{ACAD_XDICTIONARY
360
2C5
102
}
102
{ACAD_REACTORS
330
2C3
102
}
330
2C3
100
AcDbMaterial
  1
ByLayer
 72
     0
 43
0.0208333333333333
 43
0.0
 43
0.0
 43
0.0
 43
0.0
 43
0.0208333333333333
 43
0.0
 43
0.0
 43
0.0
 43
0.0
 43
1.0
 43
0.0
 43
0.0
 43
0.0
 43
0.0
 43
1.0
 77
     0
 47
0.0208333333333333
 47
0.0
 47
0.0
 47
0.0
 47
0.0
 47
0.0208333333333333
 47
0.0
 47
0.0
 47
0.0
 47
0.0
 47
1.0
 47
0.0
 47
0.0
 47
0.0
 47
0.0
 47
1.0
171
     0
 49
0.0208333333333333
 49
0.0
 49
0.0
 49
0.0
 49
0.0
 49
0.0208333333333333
 49
0.0
 49
0.0
 49
0.0
 49
0.0
 49
1.0
 49
0.0
 49
0.0
 49
0.0
 49
0.0
 49
1.0
175
     0
142
0.0208333333333333
142
0.0
142
0.0
142
0.0
142
0.0
142
0.0208333333333333
142
0.0
142
0.0
142
0.0
142
0.0
142
1.0
142
0.0
142
0.0
142
0.0
142
0.0
142
1.0
179
     0
144
0.0208333333333333
144
0.0
144
0.0
144
0.0
144
0.0
144
0.0208333333333333
144
0.0
144
0.0
144
0.0
144
0.0
144
1.0
144
0.0
144
0.0
144
0.0
144
0.0
144
1.0
147
0.0208333333333333
147
0.0
147
0.0
147
0.0
147
0.0
147
0.0208333333333333
147
0.0
147
0.0
147
0.0
147
0.0
147
1.0
147
0.0
147
0.0
147
0.0
147
0.0
147
1.0
  0
MATERIAL
  5
2D4
102
{ACAD_XDICTIONARY
360
2D5
102
}
102
{ACAD_REACTORS
330
2C3
102
}
330
2C3
100
AcDbMaterial
  1
Global
 72
     0
 43
0.0208333333333333
 43
0.0
 43
0.0
 43
0.0
 43
0.0
 43
0.0208333333333333
 43
0.0
 43
0.0
 43
0.0
 43
0.0
 43
1.0
 43
0.0
 43
0.0
 43
0.0
 43
0.0
 43
1.0
 77
     0
 47
0.0208333333333333
 47
0.0
 47
0.0
 47
0.0
 47
0.0
 47
0.0208333333333333
 47
0.0
 47
0.0
 47
0.0
 47
0.0
 47
1.0
 47
0.0
 47
0.0
 47
0.0
 47
0.0
 47
1.0
171
     0
 49
0.0208333333333333
 49
0.0
 49
0.0
 49
0.0
 49
0.0
 49
0.0208333333333333
 49
0.0
 49
0.0
 49
0.0
 49
0.0
 49
1.0
 49
0.0
 49
0.0
 49
0.0
 49
0.0
 49
1.0
175
     0
142
0.0208333333333333
142
0.0
142
0.0
142
0.0
142
0.0
142
0.0208333333333333
142
0.0
142
0.0
142
0.0
142
0.0
142
1.0
142
0.0
142
0.0
142
0.0
142
0.0
142
1.0
179
     0
144
0.0208333333333333
144
0.0
144
0.0
144
0.0
144
0.0
144
0.0208333333333333
144
0.0
144
0.0
144
0.0
144
0.0
144
1.0
144
0.0
144
0.0
144
0.0
144
0.0
144
1.0
147
0.0208333333333333
147
0.0
147
0.0
147
0.0
147
0.0
147
0.0208333333333333
147
0.0
147
0.0
147
0.0
147
0.0
147
1.0
147
0.0
147
0.0
147
0.0
147
0.0
147
1.0
  0
MLEADERSTYLE
  5
319
102
{ACAD_REACTORS
330
318
102
}
330
318
100
AcDbMLeaderStyle
170
     2
171
     1
172
     0
 90
        2
 40
0.0
 41
0.0
173
     1
 91
-1056964608
340
30D
 92
       -2
290
     1
 42
0.09
291
     1
 43
0.36
  3
Standard
 44
0.18
300

342
308
174
     1
178
     6
175
     1
176
     0
 93
-1056964608
 45
0.18
292
     0
297
     0
 46
0.18
 94
-1056964608
 47
1.0
 49
1.0
140
1.0
293
     1
141
0.0
294
     1
177
     0
142
1.0
295
     0
296
     0
143
0.125
1001
ACAD_MLEADERVER
1070
     2
  0
MLINESTYLE
  5
312
102
{ACAD_REACTORS
330
311
102
}
330
311
100
AcDbMlineStyle
  2
STANDARD
 70
     0
  3

 62
   256
 51
90.0
 52
90.0
 71
     2
 49
0.5
 62
   256
  6
BYLAYER
 49
-0.5
 62
   256
  6
BYLAYER
  0
ACDBPLACEHOLDER
  5
2C2
102
{ACAD_REACTORS
330
2C1
102
}
330
2C1
  0
SCALE
  5
2F6
102
{ACAD_REACTORS
330
2F5
102
}
330
2F5
100
AcDbScale
 70
     0
300
1:1
140
1.0
141
1.0
290
     1
  0
SCALE
  5
2F7
102
{ACAD_REACTORS
330
2F5
102
}
330
2F5
100
AcDbScale
 70
     0
300
1/128" = 1'-0"
140
0.0078125
141
12.0
290
     0
  0
SCALE
  5
2F8
102
{ACAD_REACTORS
330
2F5
102
}
330
2F5
100
AcDbScale
 70
     0
300
1/64" = 1'-0"
140
0.015625
141
12.0
290
     0
  0
SCALE
  5
2F9
102
{ACAD_REACTORS
330
2F5
102
}
330
2F5
100
AcDbScale
 70
     0
300
1/32" = 1'-0"
140
0.03125
141
12.0
290
     0
  0
SCALE
  5
2FA
102
{ACAD_REACTORS
330
2F5
102
}
330
2F5
100
AcDbScale
 70
     0
300
1/16" = 1'-0"
140
0.0625
141
12.0
290
     0
  0
SCALE
  5
2FB
102
{ACAD_REACTORS
330
2F5
102
}
330
2F5
100
AcDbScale
 70
     0
300
3/32" = 1'-0"
140
0.09375
141
12.0
290
     0
  0
SCALE
  5
2FC
102
{ACAD_REACTORS
330
2F5
102
}
330
2F5
100
AcDbScale
 70
     0
300
1/8" = 1'-0"
140
0.125
141
12.0
290
     0
  0
SCALE
  5
2FD
102
{ACAD_REACTORS
330
2F5
102
}
330
2F5
100
AcDbScale
 70
     0
300
3/16" = 1'-0"
140
0.1875
141
12.0
290
     0
  0
SCALE
  5
2FE
102
{ACAD_REACTORS
330
2F5
102
}
330
2F5
100
AcDbScale
 70
     0
300
1/4" = 1'-0"
140
0.25
141
12.0
290
     0
  0
SCALE
  5
2FF
102
{ACAD_REACTORS
330
2F5
102
}
330
2F5
100
AcDbScale
 70
     0
300
3/8" = 1'-0"
140
0.375
141
12.0
290
     0
  0
SCALE
  5
300
102
{ACAD_REACTORS
330
2F5
102
}
330
2F5
100
AcDbScale
 70
     0
300
1/2" = 1'-0"
140
0.5
141
12.0
290
     0
  0
SCALE
  5
301
102
{ACAD_REACTORS
330
2F5
102
}
330
2F5
100
AcDbScale
 70
     0
300
3/4" = 1'-0"
140
0.75
141
12.0
290
     0
  0
SCALE
  5
302
102
{ACAD_REACTORS
330
2F5
102
}
330
2F5
100
AcDbScale
 70
     0
300
1" = 1'-0"
140
1.0
141
12.0
290
     0
  0
SCALE
  5
303
102
{ACAD_REACTORS
330
2F5
102
}
330
2F5
100
AcDbScale
 70
     0
300
1-1/2" = 1'-0"
140
1.5
141
12.0
290
     0
  0
SCALE
  5
304
102
{ACAD_REACTORS
330
2F5
102
}
330
2F5
100
AcDbScale
 70
     0
300
3" = 1'-0"
140
3.0
141
12.0
290
     0
  0
SCALE
  5
305
102
{ACAD_REACTORS
330
2F5
102
}
330
2F5
100
AcDbScale
 70
     0
300
6" = 1'-0"
140
6.0
141
12.0
290
     0
  0
SCALE
  5
306
102
{ACAD_REACTORS
330
2F5
102
}
330
2F5
100
AcDbScale
 70
     0
300
1'-0" = 1'-0"
140
12.0
141
12.0
290
     0
  0
ACDBSECTIONVIEWSTYLE
  5
31B
102
{ACAD_XDICTIONARY
360
38B
102
}
102
{ACAD_REACTORS
330
31A
102
}
330
31A
100
AcDbModelDocViewStyle
 70
     0
  3
Imperial24
290
     0
100
AcDbSectionViewStyle
 70
     0
 71
     0
 90
       78
 71
     1
340
308
 40
0.24
340
0
340
0
 40
0.24
300
I, O, Q, S, X, Z
 40
0.48
 90
        3
 40
0.18
 90
        1
 71
     2
340
30F
 90
       25
340
30F
 90
       50
 40
0.24
 40
0.0
 40
0.24
 71
     3
340
308
 40
0.24
 90
        1
 40
0.75
 90
        1
300
%<\AcVar ViewType \f "%tc1">% %<\AcVar ViewSectionStartId>%-%<\AcVar ViewSectionEndId>%\PSCALE %<\AcVar ViewScale \f "%sn">%
 71
     4
300
ANSI31
 40
1.0
 90
        0
290
     0
290
     0
 90
        6
 40
0.0
 40
1.570796326794896
 40
0.2617993877991494
 40
1.308996938995747
 40
-0.2617993877991494
 40
1.832595714594046
  0
TABLESTYLE
  5
317
102
{ACAD_XDICTIONARY
360
352
102
}
102
{ACAD_REACTORS
330
316
102
}
330
316
100
AcDbTableStyle
  3
Standard
 70
     0
 71
     0
 40
0.06
 41
0.06
280
     0
281
     0
  7
STANDARD
140
0.18
170
     2
 62
     0
 63
     7
283
     0
274
    -2
284
     1
 64
     0
275
    -2
285
     1
 65
     0
276
    -2
286
     1
 66
     0
277
    -2
287
     1
 67
     0
278
    -2
288
     1
 68
     0
279
    -2
289
     1
 69
     0
  7
STANDARD
140
0.25
170
     5
 62
     0
 63
     7
283
     0
274
    -2
284
     1
 64
     0
275
    -2
285
     1
 65
     0
276
    -2
286
     1
 66
     0
277
    -2
287
     1
 67
     0
278
    -2
288
     1
 68
     0
279
    -2
289
     1
 69
     0
  7
STANDARD
140
0.18
170
     5
 62
     0
 63
     7
283
     0
274
    -2
284
     1
 64
     0
275
    -2
285
     1
 65
     0
276
    -2
286
     1
 66
     0
277
    -2
287
     1
 67
     0
278
    -2
288
     1
 68
     0
279
    -2
289
     1
 69
     0
  0
VISUALSTYLE
  5
2E2
102
{ACAD_XDICTIONARY
360
363
102
}
102
{ACAD_REACTORS
330
2DC
102
}
330
2DC
100
AcDbVisualStyle
  2
2dWireframe
 70
     4
 71
     0
 72
     2
 73
     0
 90
        0
 40
-0.6
 41
-30.0
 62
     5
 63
     7
 74
     1
 91
        4
 64
     7
 65
   257
 75
     1
175
     1
 42
1.0
 92
        0
 66
   257
 43
1.0
 76
     1
 77
     6
 78
     2
 67
     7
 79
     5
170
     0
171
     0
290
     0
174
     0
 93
        1
 44
0.0
173
     0
291
     0
 45
0.0
1001
ACAD
1000
AcDbSavedByObjectVersion
1070
     0
  0
VISUALSTYLE
  5
2E1
102
{ACAD_XDICTIONARY
360
361
102
}
102
{ACAD_REACTORS
330
2DC
102
}
330
2DC
100
AcDbVisualStyle
  2
Basic
 70
     7
 71
     1
 72
     0
 73
     1
 90
        0
 40
-0.6
 41
-30.0
 62
     5
 63
     7
 74
     0
 91
        4
 64
     7
 65
   257
 75
     1
175
     1
 42
1.0
 92
        8
 66
     7
 43
1.0
 76
     1
 77
     6
 78
     2
 67
     7
 79
     5
170
     0
171
     0
290
     0
174
     0
 93
        1
 44
0.0
173
     0
291
     1
 45
0.0
1001
ACAD
1000
AcDbSavedByObjectVersion
1070
     0
  0
VISUALSTYLE
  5
2E8
102
{ACAD_XDICTIONARY
360
36F
102
}
102
{ACAD_REACTORS
330
2DC
102
}
330
2DC
100
AcDbVisualStyle
  2
Brighten
 70
    12
 71
     2
 72
     2
 73
     0
 90
        0
 40
-0.6
 41
-30.0
 62
     5
 63
     7
 74
     1
 91
        4
 64
     7
 65
   257
 75
     1
175
     1
 42
1.0
 92
        8
 66
     7
 43
1.0
 76
     1
 77
     6
 78
     2
 67
     7
 79
     5
170
     0
171
     0
290
     0
174
     0
 93
        1
 44
50.0
173
     0
291
     1
 45
0.0
1001
ACAD
1000
AcDbSavedByObjectVersion
1070
     0
  0
VISUALSTYLE
  5
2EC
102
{ACAD_XDICTIONARY
360
377
102
}
102
{ACAD_REACTORS
330
2DC
102
}
330
2DC
100
AcDbVisualStyle
  2
ColorChange
 70
    16
 71
     2
 72
     2
 73
     3
 90
        0
 40
-0.6
 41
-30.0
 62
     5
 63
     8
 74
     1
 91
        4
 64
     7
 65
   257
 75
     1
175
     1
 42
1.0
 92
        8
 66
     8
 43
1.0
 76
     1
 77
     6
 78
     2
 67
     7
 79
     5
170
     0
171
     0
290
     0
174
     0
 93
        1
 44
0.0
173
     0
291
     1
 45
0.0
1001
ACAD
1000
AcDbSavedByObjectVersion
1070
     0
  0
VISUALSTYLE
  5
2E5
102
{ACAD_XDICTIONARY
360
369
102
}
102
{ACAD_REACTORS
330
2DC
102
}
330
2DC
100
AcDbVisualStyle
  2
Conceptual
 70
     9
 71
     3
 72
     2
 73
     0
 90
        0
 40
-0.6
 41
-30.0
 62
     5
 63
     7
 74
     2
 91
        2
 64
     7
 65
   257
 75
     1
175
     1
 42
179.0
 92
        8
 66
     7
 43
1.0
 76
     1
 77
     6
 78
     2
 67
     7
 79
     3
170
     0
171
     0
290
     0
174
     0
 93
        1
 44
0.0
173
     0
291
     0
 45
0.0
1001
ACAD
1000
AcDbSavedByObjectVersion
1070
     0
  0
VISUALSTYLE
  5
2E7
102
{ACAD_XDICTIONARY
360
36D
102
}
102
{ACAD_REACTORS
330
2DC
102
}
330
2DC
100
AcDbVisualStyle
  2
Dim
 70
    11
 71
     2
 72
     2
 73
     0
 90
        0
 40
-0.6
 41
-30.0
 62
     5
 63
     7
 74
     1
 91
        4
 64
     7
 65
   257
 75
     1
175
     1
 42
1.0
 92
        8
 66
     7
 43
1.0
 76
     1
 77
     6
 78
     2
 67
     7
 79
     5
170
     0
171
     0
290
     0
174
     0
 93
        1
 44
-50.0
173
     0
291
     1
 45
0.0
1001
ACAD
1000
AcDbSavedByObjectVersion
1070
     0
  0
VISUALSTYLE
  5
2F4
102
{ACAD_XDICTIONARY
360
387
102
}
102
{ACAD_REACTORS
330
2DC
102
}
330
2DC
100
AcDbVisualStyle
  2
EdgeColorOff
 70
    22
 71
     2
 72
     2
 73
     0
 90
        0
 40
-0.6
 41
-30.0
 62
     5
 63
     7
 74
     1
 91
        4
 64
     7
 65
   257
 75
     1
175
     1
 42
1.0
 92
        8
 66
     7
 43
1.0
 76
     1
 77
     6
 78
     2
 67
     7
 79
     5
170
     0
171
     0
290
     0
174
     0
 93
        1
 44
0.0
173
     0
291
     1
 45
0.0
1001
ACAD
1000
AcDbSavedByObjectVersion
1070
     0
  0
VISUALSTYLE
  5
2EB
102
{ACAD_XDICTIONARY
360
375
102
}
102
{ACAD_REACTORS
330
2DC
102
}
330
2DC
100
AcDbVisualStyle
  2
Facepattern
 70
    15
 71
     2
 72
     2
 73
     0
 90
        0
 40
-0.6
 41
-30.0
 62
     5
 63
     7
 74
     1
 91
        4
 64
     7
 65
   257
 75
     1
175
     1
 42
1.0
 92
        8
 66
     7
 43
1.0
 76
     1
 77
     6
 78
     2
 67
     7
 79
     5
170
     0
171
     0
290
     0
174
     0
 93
        1
 44
0.0
173
     0
291
     1
 45
0.0
1001
ACAD
1000
AcDbSavedByObjectVersion
1070
     0
  0
VISUALSTYLE
  5
2DD
102
{ACAD_XDICTIONARY
360
359
102
}
102
{ACAD_REACTORS
330
2DC
102
}
330
2DC
100
AcDbVisualStyle
  2
Flat
 70
     0
 71
     2
 72
     1
 73
     1
 90
        2
 40
-0.6
 41
30.0
 62
     5
 63
     7
 74
     0
 91
        0
 64
     7
 65
   257
 75
     1
175
     1
 42
1.0
 92
        8
 66
     7
 43
1.0
 76
     1
 77
     6
 78
     2
 67
     7
 79
     5
170
     0
171
     0
290
     0
174
     0
 93
       13
 44
0.0
173
     0
291
     1
 45
0.0
1001
ACAD
1000
AcDbSavedByObjectVersion
1070
     0
  0
VISUALSTYLE
  5
2DE
102
{ACAD_XDICTIONARY
360
35B
102
}
102
{ACAD_REACTORS
330
2DC
102
}
330
2DC
100
AcDbVisualStyle
  2
FlatWithEdges
 70
     1
 71
     2
 72
     1
 73
     1
 90
        2
 40
-0.6
 41
30.0
 62
     5
 63
     7
 74
     1
 91
        0
 64
     7
 65
   257
 75
     1
175
     1
 42
1.0
 92
        0
 66
   257
 43
1.0
 76
     1
 77
     6
 78
     2
 67
     7
 79
     5
170
     0
171
     0
290
     0
174
     0
 93
       13
 44
0.0
173
     0
291
     1
 45
0.0
1001
ACAD
1000
AcDbSavedByObjectVersion
1070
     0
  0
VISUALSTYLE
  5
2DF
102
{ACAD_XDICTIONARY
360
35D
102
}
102
{ACAD_REACTORS
330
2DC
102
}
330
2DC
100
AcDbVisualStyle
  2
Gouraud
 70
     2
 71
     2
 72
     2
 73
     1
 90
        2
 40
-0.6
 41
30.0
 62
     5
 63
     7
 74
     0
 91
        0
 64
     7
 65
   257
 75
     1
175
     1
 42
1.0
 92
        0
 66
     7
 43
1.0
 76
     1
 77
     6
 78
     2
 67
     7
 79
     5
170
     0
171
     0
290
     0
174
     0
 93
       13
 44
0.0
173
     0
291
     1
 45
0.0
1001
ACAD
1000
AcDbSavedByObjectVersion
1070
     0
  0
VISUALSTYLE
  5
2E0
102
{ACAD_XDICTIONARY
360
35F
102
}
102
{ACAD_REACTORS
330
2DC
102
}
330
2DC
100
AcDbVisualStyle
  2
GouraudWithEdges
 70
     3
 71
     2
 72
     2
 73
     1
 90
        2
 40
-0.6
 41
30.0
 62
     5
 63
     7
 74
     1
 91
        0
 64
     7
 65
   257
 75
     1
175
     1
 42
1.0
 92
        0
 66
   257
 43
1.0
 76
     1
 77
     6
 78
     2
 67
     7
 79
     5
170
     0
171
     0
290
     0
174
     0
 93
       13
 44
0.0
173
     0
291
     1
 45
0.0
1001
ACAD
1000
AcDbSavedByObjectVersion
1070
     0
  0
VISUALSTYLE
  5
2E4
102
{ACAD_XDICTIONARY
360
367
102
}
102
{ACAD_REACTORS
330
2DC
102
}
330
2DC
100
AcDbVisualStyle
  2
Hidden
 70
     6
 71
     1
 72
     2
 73
     2
 90
        0
 40
-0.6
 41
-30.0
 62
     5
 63
     7
 74
     2
 91
        2
 64
     7
 65
   257
 75
     2
175
     1
 42
40.0
 92
        0
 66
   257
 43
1.0
 76
     1
 77
     6
 78
     2
 67
     7
 79
     3
170
     0
171
     0
290
     0
174
     0
 93
        1
 44
0.0
173
     0
291
     0
 45
0.0
1001
ACAD
1000
AcDbSavedByObjectVersion
1070
     0
  0
VISUALSTYLE
  5
2F2
102
{ACAD_XDICTIONARY
360
383
102
}
102
{ACAD_REACTORS
330
2DC
102
}
330
2DC
100
AcDbVisualStyle
  2
JitterOff
 70
    20
 71
     2
 72
     2
 73
     0
 90
        0
 40
-0.6
 41
-30.0
 62
     5
 63
     7
 74
     1
 91
        4
 64
     7
 65
   257
 75
     1
175
     1
 42
1.0
 92
       10
 66
     7
 43
1.0
 76
     1
 77
     6
 78
     2
 67
     7
 79
     5
170
     0
171
     0
290
     0
174
     0
 93
        1
 44
0.0
173
     0
291
     1
 45
0.0
1001
ACAD
1000
AcDbSavedByObjectVersion
1070
     0
  0
VISUALSTYLE
  5
2EA
102
{ACAD_XDICTIONARY
360
373
102
}
102
{ACAD_REACTORS
330
2DC
102
}
330
2DC
100
AcDbVisualStyle
  2
Linepattern
 70
    14
 71
     2
 72
     2
 73
     0
 90
        0
 40
-0.6
 41
-30.0
 62
     5
 63
     7
 74
     1
 91
        4
 64
     7
 65
   257
 75
     7
175
     7
 42
1.0
 92
        8
 66
     7
 43
1.0
 76
     1
 77
     6
 78
     2
 67
     7
 79
     5
170
     0
171
     0
290
     0
174
     0
 93
        1
 44
0.0
173
     0
291
     1
 45
0.0
1001
ACAD
1000
AcDbSavedByObjectVersion
1070
     0
  0
VISUALSTYLE
  5
2F3
102
{ACAD_XDICTIONARY
360
385
102
}
102
{ACAD_REACTORS
330
2DC
102
}
330
2DC
100
AcDbVisualStyle
  2
OverhangOff
 70
    21
 71
     2
 72
     2
 73
     0
 90
        0
 40
-0.6
 41
-30.0
 62
     5
 63
     7
 74
     1
 91
        4
 64
     7
 65
   257
 75
     1
175
     1
 42
1.0
 92
        9
 66
     7
 43
1.0
 76
     1
 77
     6
 78
     2
 67
     7
 79
     5
170
     0
171
     0
290
     0
174
     0
 93
        1
 44
0.0
173
     0
291
     1
 45
0.0
1001
ACAD
1000
AcDbSavedByObjectVersion
1070
     0
  0
VISUALSTYLE
  5
2E6
102
{ACAD_XDICTIONARY
360
36B
102
}
102
{ACAD_REACTORS
330
2DC
102
}
330
2DC
100
AcDbVisualStyle
  2
Realistic
 70
     8
 71
     2
 72
     3
 73
     0
 90
        2
 40
-0.6
 41
30.0
 62
     5
 63
     7
 74
     0
 91
        0
 64
     7
 65
   257
 75
     1
175
     1
 42
1.0
 92
        8
 66
   257
 43
1.0
 76
     1
 77
     6
 78
     2
 67
     7
 79
     3
170
     0
171
     0
290
     0
174
     0
 93
       13
 44
0.0
173
     0
291
     0
 45
0.0
1001
ACAD
1000
AcDbSavedByObjectVersion
1070
     0
  0
VISUALSTYLE
  5
2F1
102
{ACAD_XDICTIONARY
360
381
102
}
102
{ACAD_REACTORS
330
2DC
102
}
330
2DC
100
AcDbVisualStyle
  2
Shaded
 70
    27
 71
     2
 72
     2
 73
     1
 90
        2
 40
-0.6
 41
30.0
 62
     5
 63
     7
 74
     0
 91
        4
 64
     7
 65
   257
 75
     1
175
     1
 42
1.0
 92
        8
 66
   257
 43
1.0
 76
     1
 77
     6
 78
     2
 67
     8
 79
     3
170
     0
171
     0
290
     0
174
     0
 93
        5
 44
0.0
173
     0
291
     0
 45
0.0
1001
ACAD
1000
AcDbSavedByObjectVersion
1070
     0
  0
VISUALSTYLE
  5
2F0
102
{ACAD_XDICTIONARY
360
37F
102
}
102
{ACAD_REACTORS
330
2DC
102
}
330
2DC
100
AcDbVisualStyle
  2
Shaded with edges
 70
    26
 71
     2
 72
     2
 73
     1
 90
        2
 40
-0.6
 41
30.0
 62
     5
 63
     7
 74
     1
 91
        2
 64
     7
 65
   257
 75
     2
175
     1
 42
1.0
 92
        8
 66
   257
 43
1.0
 76
     1
 77
     6
 78
     2
 67
     7
 79
     3
170
     0
171
     0
290
     0
174
     0
 93
        5
 44
0.0
173
     0
291
     0
 45
0.0
1001
ACAD
1000
AcDbSavedByObjectVersion
1070
     0
  0
VISUALSTYLE
  5
2ED
102
{ACAD_XDICTIONARY
360
379
102
}
102
{ACAD_REACTORS
330
2DC
102
}
330
2DC
100
AcDbVisualStyle
  2
Shades of Gray
 70
    23
 71
     2
 72
     2
 73
     3
 90
        0
 40
-0.6
 41
-30.0
 62
     5
 63
     7
 74
     2
 91
        2
 64
     7
 65
     7
 75
     1
175
     1
 42
40.0
 92
        8
 66
     7
 43
1.0
 76
     1
 77
     6
 78
     2
 67
     7
 79
     3
170
     0
171
     0
290
     0
174
     0
 93
        1
 44
0.0
173
     0
291
     0
 45
0.0
1001
ACAD
1000
AcDbSavedByObjectVersion
1070
     0
  0
VISUALSTYLE
  5
2EE
102
{ACAD_XDICTIONARY
360
37B
102
}
102
{ACAD_REACTORS
330
2DC
102
}
330
2DC
100
AcDbVisualStyle
  2
Sketchy
 70
    24
 71
     1
 72
     2
 73
     2
 90
        0
 40
-0.6
 41
-30.0
 62
     5
 63
     7
 74
     2
 91
        2
 64
     7
 65
     7
 75
     1
175
     1
 42
40.0
 92
       11
 66
     7
 43
1.0
 76
     1
 77
     6
 78
     2
 67
     7
 79
     6
170
     0
171
     0
290
     0
174
     0
 93
        1
 44
0.0
173
     0
291
     0
 45
0.0
1001
ACAD
1000
AcDbSavedByObjectVersion
1070
     0
  0
VISUALSTYLE
  5
2E9
102
{ACAD_XDICTIONARY
360
371
102
}
102
{ACAD_REACTORS
330
2DC
102
}
330
2DC
100
AcDbVisualStyle
  2
Thicken
 70
    13
 71
     2
 72
     2
 73
     0
 90
        0
 40
-0.6
 41
-30.0
 62
     5
 63
     7
 74
     1
 91
        4
 64
     7
 65
   257
 75
     1
175
     1
 42
1.0
 92
       12
 66
     7
 43
1.0
 76
     1
 77
     6
 78
     2
 67
     7
 79
     5
170
     0
171
     0
290
     0
174
     0
 93
        1
 44
0.0
173
     0
291
     1
 45
0.0
1001
ACAD
1000
AcDbSavedByObjectVersion
1070
     0
  0
VISUALSTYLE
  5
2E3
102
{ACAD_XDICTIONARY
360
365
102
}
102
{ACAD_REACTORS
330
2DC
102
}
330
2DC
100
AcDbVisualStyle
  2
Wireframe
 70
     5
 71
     0
 72
     2
 73
     0
 90
        0
 40
-0.6
 41
-30.0
 62
     5
 63
     7
 74
     1
 91
        4
 64
     7
 65
   257
 75
     1
175
     1
 42
1.0
 92
        0
 66
   257
 43
1.0
 76
     1
 77
     6
 78
     2
 67
     7
 79
     3
170
     0
171
     0
290
     0
174
     0
 93
        1
 44
0.0
173
     0
291
     0
 45
0.0
1001
ACAD
1000
AcDbSavedByObjectVersion
1070
     0
  0
VISUALSTYLE
  5
2EF
102
{ACAD_XDICTIONARY
360
37D
102
}
102
{ACAD_REACTORS
330
2DC
102
}
330
2DC
100
AcDbVisualStyle
  2
X-Ray
 70
    25
 71
     2
 72
     2
 73
     1
 90
        1
 40
0.5
 41
-30.0
 62
     5
 63
     7
 74
     1
 91
        0
 64
     7
 65
   257
 75
     1
175
     1
 42
1.0
 92
        8
 66
     7
 43
1.0
 76
     1
 77
     6
 78
     2
 67
     7
 79
     3
170
     0
171
     0
290
     0
174
     0
 93
       13
 44
0.0
173
     0
291
     0
 45
0.0
1001
ACAD
1000
AcDbSavedByObjectVersion
1070
     0
  0
DICTIONARYVAR
  5
34C
102
{ACAD_REACTORS
330
347
102
}
330
347
100
DictionaryVariables
280
     0
  1
1:1
  0
DICTIONARYVAR
  5
349
102
{ACAD_REACTORS
330
347
102
}
330
347
100
DictionaryVariables
280
     0
  1
STANDARD
  0
DICTIONARYVAR
  5
348
102
{ACAD_REACTORS
330
347
102
}
330
347
100
DictionaryVariables
280
     0
  1
STANDARD
  0
DICTIONARYVAR
  5
34A
102
{ACAD_REACTORS
330
347
102
}
330
347
100
DictionaryVariables
280
     0
  1
Imperial24
  0
DICTIONARYVAR
  5
34B
102
{ACAD_REACTORS
330
347
102
}
330
347
100
DictionaryVariables
280
     0
  1
Imperial24
  0
DICTIONARYVAR
  5
34F
102
{ACAD_REACTORS
330
347
102
}
330
347
100
DictionaryVariables
280
     0
  1
1
  0
DICTIONARYVAR
  5
34E
102
{ACAD_REACTORS
330
347
102
}
330
347
100
DictionaryVariables
280
     0
  1
0
  0
DICTIONARYVAR
  5
34D
102
{ACAD_REACTORS
330
347
102
}
330
347
100
DictionaryVariables
280
     0
  1
127
  0
DICTIONARYVAR
  5
350
102
{ACAD_REACTORS
330
347
102
}
330
347
100
DictionaryVariables
280
     0
  1
2
  0
DICTIONARY
  5
38D
330
31D
100
AcDbDictionary
280
     1
281
     1
  3
ACAD_XREC_ROUNDTRIP
360
38E
  0
DICTIONARY
  5
391
330
325
100
AcDbDictionary
280
     1
281
     1
  3
ACAD_XREC_ROUNDTRIP
360
392
  0
DICTIONARY
  5
38F
330
321
100
AcDbDictionary
280
     1
281
     1
  3
ACAD_XREC_ROUNDTRIP
360
390
  0
DICTIONARY
  5
2CD
330
2CC
100
AcDbDictionary
280
     1
281
     1
  3
ACAD_XREC_ROUNDTRIP
360
357
  3
BUMPTILE
360
2CF
  3
DIFFUSETILE
360
2CE
  3
OPACITYTILE
360
2D2
  3
REFLECTIONTILE
360
2D1
  3
REFRACTIONTILE
360
2D3
  3
SPECULARTILE
360
2D0
  0
DICTIONARY
  5
2C5
330
2C4
100
AcDbDictionary
280
     1
281
     1
  3
ACAD_XREC_ROUNDTRIP
360
356
  3
BUMPTILE
360
2C7
  3
DIFFUSETILE
360
2C6
  3
OPACITYTILE
360
2CA
  3
REFLECTIONTILE
360
2C9
  3
REFRACTIONTILE
360
2CB
  3
SPECULARTILE
360
2C8
  0
DICTIONARY
  5
2D5
330
2D4
100
AcDbDictionary
280
     1
281
     1
  3
ACAD_XREC_ROUNDTRIP
360
358
  3
BUMPTILE
360
2D7
  3
DIFFUSETILE
360
2D6
  3
OPACITYTILE
360
2DA
  3
REFLECTIONTILE
360
2D9
  3
REFRACTIONTILE
360
2DB
  3
SPECULARTILE
360
2D8
  0
DICTIONARY
  5
38B
330
31B
100
AcDbDictionary
280
     1
281
     1
  3
ACAD_XREC_ROUNDTRIP
360
38C
  0
DICTIONARY
  5
352
330
317
100
AcDbDictionary
280
     1
281
     1
  3
ACAD_ROUNDTRIP_2008_TABLESTYLE_CELLSTYLEMAP
360
353
  3
ACAD_XREC_ROUNDTRIP
360
389
  0
DICTIONARY
  5
363
330
2E2
100
AcDbDictionary
280
     1
281
     1
  3
ACAD_XREC_ROUNDTRIP
360
364
  0
DICTIONARY
  5
361
330
2E1
100
AcDbDictionary
280
     1
281
     1
  3
ACAD_XREC_ROUNDTRIP
360
362
  0
DICTIONARY
  5
36F
330
2E8
100
AcDbDictionary
280
     1
281
     1
  3
ACAD_XREC_ROUNDTRIP
360
370
  0
DICTIONARY
  5
377
330
2EC
100
AcDbDictionary
280
     1
281
     1
  3
ACAD_XREC_ROUNDTRIP
360
378
  0
DICTIONARY
  5
369
330
2E5
100
AcDbDictionary
280
     1
281
     1
  3
ACAD_XREC_ROUNDTRIP
360
36A
  0
DICTIONARY
  5
36D
330
2E7
100
AcDbDictionary
280
     1
281
     1
  3
ACAD_XREC_ROUNDTRIP
360
36E
  0
DICTIONARY
  5
387
330
2F4
100
AcDbDictionary
280
     1
281
     1
  3
ACAD_XREC_ROUNDTRIP
360
388
  0
DICTIONARY
  5
375
330
2EB
100
AcDbDictionary
280
     1
281
     1
  3
ACAD_XREC_ROUNDTRIP
360
376
  0
DICTIONARY
  5
359
330
2DD
100
AcDbDictionary
280
     1
281
     1
  3
ACAD_XREC_ROUNDTRIP
360
35A
  0
DICTIONARY
  5
35B
330
2DE
100
AcDbDictionary
280
     1
281
     1
  3
ACAD_XREC_ROUNDTRIP
360
35C
  0
DICTIONARY
  5
35D
330
2DF
100
AcDbDictionary
280
     1
281
     1
  3
ACAD_XREC_ROUNDTRIP
360
35E
  0
DICTIONARY
  5
35F
330
2E0
100
AcDbDictionary
280
     1
281
     1
  3
ACAD_XREC_ROUNDTRIP
360
360
  0
DICTIONARY
  5
367
330
2E4
100
AcDbDictionary
280
     1
281
     1
  3
ACAD_XREC_ROUNDTRIP
360
368
  0
DICTIONARY
  5
383
330
2F2
100
AcDbDictionary
280
     1
281
     1
  3
ACAD_XREC_ROUNDTRIP
360
384
  0
DICTIONARY
  5
373
330
2EA
100
AcDbDictionary
280
     1
281
     1
  3
ACAD_XREC_ROUNDTRIP
360
374
  0
DICTIONARY
  5
385
330
2F3
100
AcDbDictionary
280
     1
281
     1
  3
ACAD_XREC_ROUNDTRIP
360
386
  0
DICTIONARY
  5
36B
330
2E6
100
AcDbDictionary
280
     1
281
     1
  3
ACAD_XREC_ROUNDTRIP
360
36C
  0
DICTIONARY
  5
381
330
2F1
100
AcDbDictionary
280
     1
281
     1
  3
ACAD_XREC_ROUNDTRIP
360
382
  0
DICTIONARY
  5
37F
330
2F0
100
AcDbDictionary
280
     1
281
     1
  3
ACAD_XREC_ROUNDTRIP
360
380
  0
DICTIONARY
  5
379
330
2ED
100
AcDbDictionary
280
     1
281
     1
  3
ACAD_XREC_ROUNDTRIP
360
37A
  0
DICTIONARY
  5
37B
330
2EE
100
AcDbDictionary
280
     1
281
     1
  3
ACAD_XREC_ROUNDTRIP
360
37C
  0
DICTIONARY
  5
371
330
2E9
100
AcDbDictionary
280
     1
281
     1
  3
ACAD_XREC_ROUNDTRIP
360
372
  0
DICTIONARY
  5
365
330
2E3
100
AcDbDictionary
280
     1
281
     1
  3
ACAD_XREC_ROUNDTRIP
360
366
  0
DICTIONARY
  5
37D
330
2EF
100
AcDbDictionary
280
     1
281
     1
  3
ACAD_XREC_ROUNDTRIP
360
37E
  0
XRECORD
  5
38E
102
{ACAD_REACTORS
330
38D
102
}
330
38D
100
AcDbXrecord
280
     1
102
DISPLAYNAME
  1
Imperial24
102
FLAGS
 90
        0
  0
XRECORD
  5
392
102
{ACAD_REACTORS
330
391
102
}
330
391
100
AcDbXrecord
280
     1
102
SHADEPLOT
 70
     0
102
SHADEPLOTRESLEVEL
 70
     2
102
SHADEPLOTCUSTOMDPI
 70
   300
  0
XRECORD
  5
390
102
{ACAD_REACTORS
330
38F
102
}
330
38F
100
AcDbXrecord
280
     1
102
SHADEPLOT
 70
     0
102
SHADEPLOTRESLEVEL
 70
     2
102
SHADEPLOTCUSTOMDPI
 70
   300
  0
XRECORD
  5
357
102
{ACAD_REACTORS
330
2CD
102
}
330
2CD
100
AcDbXrecord
280
     1
102
MATERIAL
148
0.0
149
0.0
149
0.0
 93
        0
 94
      127
282
     0
 72
     0
 77
     0
171
     0
175
     0
179
     0
273
     0
  0
XRECORD
  5
2CF
102
{ACAD_REACTORS
330
2CD
102
}
330
2CD
100
AcDbXrecord
280
     1
270
     1
271
     1
  0
XRECORD
  5
2CE
102
{ACAD_REACTORS
330
2CD
102
}
330
2CD
100
AcDbXrecord
280
     1
270
     1
271
     1
  0
XRECORD
  5
2D2
102
{ACAD_REACTORS
330
2CD
102
}
330
2CD
100
AcDbXrecord
280
     1
270
     1
271
     1
  0
XRECORD
  5
2D1
102
{ACAD_REACTORS
330
2CD
102
}
330
2CD
100
AcDbXrecord
280
     1
270
     1
271
     1
  0
XRECORD
  5
2D3
102
{ACAD_REACTORS
330
2CD
102
}
330
2CD
100
AcDbXrecord
280
     1
270
     1
271
     1
  0
XRECORD
  5
2D0
102
{ACAD_REACTORS
330
2CD
102
}
330
2CD
100
AcDbXrecord
280
     1
270
     1
271
     1
  0
XRECORD
  5
356
102
{ACAD_REACTORS
330
2C5
102
}
330
2C5
100
AcDbXrecord
280
     1
102
MATERIAL
148
0.0
149
0.0
149
0.0
 93
        0
 94
      127
282
     0
 72
     0
 77
     0
171
     0
175
     0
179
     0
273
     0
  0
XRECORD
  5
2C7
102
{ACAD_REACTORS
330
2C5
102
}
330
2C5
100
AcDbXrecord
280
     1
270
     1
271
     1
  0
XRECORD
  5
2C6
102
{ACAD_REACTORS
330
2C5
102
}
330
2C5
100
AcDbXrecord
280
     1
270
     1
271
     1
  0
XRECORD
  5
2CA
102
{ACAD_REACTORS
330
2C5
102
}
330
2C5
100
AcDbXrecord
280
     1
270
     1
271
     1
  0
XRECORD
  5
2C9
102
{ACAD_REACTORS
330
2C5
102
}
330
2C5
100
AcDbXrecord
280
     1
270
     1
271
     1
  0
XRECORD
  5
2CB
102
{ACAD_REACTORS
330
2C5
102
}
330
2C5
100
AcDbXrecord
280
     1
270
     1
271
     1
  0
XRECORD
  5
2C8
102
{ACAD_REACTORS
330
2C5
102
}
330
2C5
100
AcDbXrecord
280
     1
270
     1
271
     1
  0
XRECORD
  5
358
102
{ACAD_REACTORS
330
2D5
102
}
330
2D5
100
AcDbXrecord
280
     1
102
MATERIAL
148
0.0
149
0.0
149
0.0
 93
        0
 94
      127
282
     0
 72
     0
 77
     0
171
     0
175
     0
179
     0
273
     0
  0
XRECORD
  5
2D7
102
{ACAD_REACTORS
330
2D5
102
}
330
2D5
100
AcDbXrecord
280
     1
270
     1
271
     1
  0
XRECORD
  5
2D6
102
{ACAD_REACTORS
330
2D5
102
}
330
2D5
100
AcDbXrecord
280
     1
270
     1
271
     1
  0
XRECORD
  5
2DA
102
{ACAD_REACTORS
330
2D5
102
}
330
2D5
100
AcDbXrecord
280
     1
270
     1
271
     1
  0
XRECORD
  5
2D9
102
{ACAD_REACTORS
330
2D5
102
}
330
2D5
100
AcDbXrecord
280
     1
270
     1
271
     1
  0
XRECORD
  5
2DB
102
{ACAD_REACTORS
330
2D5
102
}
330
2D5
100
AcDbXrecord
280
     1
270
     1
271
     1
  0
XRECORD
  5
2D8
102
{ACAD_REACTORS
330
2D5
102
}
330
2D5
100
AcDbXrecord
280
     1
270
     1
271
     1
  0
XRECORD
  5
38C
102
{ACAD_REACTORS
330
38B
102
}
330
38B
100
AcDbXrecord
280
     1
102
DISPLAYNAME
  1
Imperial24
102
FLAGS
 90
        0
  0
CELLSTYLEMAP
  5
353
102
{ACAD_REACTORS
330
352
102
}
330
352
100
AcDbCellStyleMap
 90
        3
300
CELLSTYLE
  1
TABLEFORMAT_BEGIN
 90
        5
170
     1
 91
        0
 92
    32768
 62
   257
 93
        1
300
CONTENTFORMAT
  1
CONTENTFORMAT_BEGIN
 90
        0
 91
        0
 92
      512
 93
        0
300

 40
0.0
140
1.0
 94
        5
 62
     0
340
308
144
0.25
309
CONTENTFORMAT_END
171
     0
 94
        0
309
TABLEFORMAT_END
  1
CELLSTYLE_BEGIN
 90
        1
 91
        1
300
_TITLE
309
CELLSTYLE_END
300
CELLSTYLE
  1
TABLEFORMAT_BEGIN
 90
        5
170
     1
 91
        0
 92
        0
 62
   257
 93
        1
300
CONTENTFORMAT
  1
CONTENTFORMAT_BEGIN
 90
        0
 91
        0
 92
      512
 93
        0
300

 40
0.0
140
1.0
 94
        5
 62
     0
340
308
144
0.18
309
CONTENTFORMAT_END
171
     0
 94
        0
309
TABLEFORMAT_END
  1
CELLSTYLE_BEGIN
 90
        2
 91
        1
300
_HEADER
309
CELLSTYLE_END
300
CELLSTYLE
  1
TABLEFORMAT_BEGIN
 90
        5
170
     1
 91
        0
 92
        0
 62
   257
 93
        1
300
CONTENTFORMAT
  1
CONTENTFORMAT_BEGIN
 90
        0
 91
        0
 92
      512
 93
        0
300

 40
0.0
140
1.0
 94
        2
 62
     0
340
308
144
0.18
309
CONTENTFORMAT_END
171
     0
 94
        0
309
TABLEFORMAT_END
  1
CELLSTYLE_BEGIN
 90
        3
 91
        2
300
_DATA
309
CELLSTYLE_END
  0
XRECORD
  5
389
102
{ACAD_REACTORS
330
352
102
}
330
352
100
AcDbXrecord
280
     1
102
ACAD_ROUNDTRIP_PRE2007_TABLESTYLE
 90
      512
 91
        0
  1

 92
      512
 93
        0
  2

 94
      512
 95
        0
  3

  0
XRECORD
  5
364
102
{ACAD_REACTORS
330
363
102
}
330
363
100
AcDbXrecord
280
     1
102
RTVSPost2010Prop28
280
     1
102
RTVSPost2010PropOp28
 70
     1
102
RTVSPost2010Prop29
280
     1
102
RTVSPost2010PropOp29
 70
     1
102
RTVSPost2010Prop30
280
     0
102
RTVSPost2010PropOp30
 70
     1
102
RTVSPost2010Prop31
280
     0
102
RTVSPost2010PropOp31
 70
     1
102
RTVSPost2010Prop32
280
     0
102
RTVSPost2010PropOp32
 70
     1
102
RTVSPost2010Prop33
280
     0
102
RTVSPost2010PropOp33
 70
     1
102
RTVSPost2010Prop34
280
     0
102
RTVSPost2010PropOp34
 70
     1
102
RTVSPost2010Prop35
280
     0
102
RTVSPost2010PropOp35
 70
     1
102
RTVSPost2010Prop36
280
     0
102
RTVSPost2010PropOp36
 70
     1
102
RTVSPost2010Prop37
 90
       50
102
RTVSPost2010PropOp37
 70
     1
102
RTVSPost2010Prop38
140
0.0
102
RTVSPost2010PropOp38
 70
     1
102
RTVSPost2010Prop39
140
1.0
102
RTVSPost2010PropOp39
 70
     1
102
RTVSPost2010Prop40
 90
        0
102
RTVSPost2010PropOp40
 70
     1
102
RTVSPost2010Prop41ColorIndex
 90
       18
102
RTVSPost2010Prop41ColorRGB
 90
        0
102
RTVSPost2010PropOp41
 70
     1
102
RTVSPost2010Prop42
 90
       50
102
RTVSPost2010PropOp42
 70
     1
102
RTVSPost2010Prop43
 90
        3
102
RTVSPost2010PropOp43
 70
     1
102
RTVSPost2010Prop44ColorIndex
 90
        5
102
RTVSPost2010Prop44ColorRGB
 90
      255
102
RTVSPost2010PropOp44
 70
     1
102
RTVSPost2010Prop45
280
     0
102
RTVSPost2010PropOp45
 70
     1
102
RTVSPost2010Prop46
 90
       50
102
RTVSPost2010PropOp46
 70
     1
102
RTVSPost2010Prop47
 90
       50
102
RTVSPost2010PropOp47
 70
     1
102
RTVSPost2010Prop48
 90
       50
102
RTVSPost2010PropOp48
 70
     1
102
RTVSPost2010Prop49
280
     0
102
RTVSPost2010PropOp49
 70
     1
102
RTVSPost2010Prop50
 90
       50
102
RTVSPost2010PropOp50
 70
     1
102
RTVSPost2010Prop51ColorIndex
 90
      256
102
RTVSPost2010Prop51ColorRGB
 90
-16777216
102
RTVSPost2010PropOp51
 70
     0
102
RTVSPost2010Prop52
140
1.0
102
RTVSPost2010PropOp52
 70
     0
102
RTVSPost2010Prop53
 90
        2
102
RTVSPost2010PropOp53
 70
     1
102
RTVSPost2010Prop54
  1
strokes_ogs.tif
102
RTVSPost2010PropOp54
 70
     1
102
RTVSPost2010Prop55
280
     0
102
RTVSPost2010PropOp55
 70
     1
102
RTVSPost2010Prop56
140
1.0
102
RTVSPost2010PropOp56
 70
     1
102
RTVSPost2010Prop57
140
1.0
102
RTVSPost2010PropOp57
 70
     1
102
RTVSPropertyOp0
 70
     1
102
RTVSPropertyOp1
 70
     1
102
RTVSPropertyOp2
 70
     1
102
RTVSPropertyOp3
 70
     1
102
RTVSPropertyOp4
 70
     1
102
RTVSPropertyOp5
 70
     1
102
RTVSPropertyOp6
 70
     1
102
RTVSPropertyOp7
 70
     1
102
RTVSPropertyOp8
 70
     1
102
RTVSPropertyOp9
 70
     1
102
RTVSPropertyOp10
 70
     1
102
RTVSPropertyOp11
 70
     1
102
RTVSPropertyOp12
 70
     1
102
RTVSPropertyOp13
 70
     1
102
RTVSPropertyOp14
 70
     1
102
RTVSPropertyOp15
 70
     1
102
RTVSPropertyOp16
 70
     1
102
RTVSPropertyOp17
 70
     1
102
RTVSPropertyOp18
 70
     1
102
RTVSPropertyOp19
 70
     1
102
RTVSPropertyOp20
 70
     1
102
RTVSPropertyOp21
 70
     1
102
RTVSPropertyOp22
 70
     1
102
RTVSPropertyOp23
 70
     1
102
RTVSPropertyOp24
 70
     1
102
RTVSPropertyOp25
 70
     1
102
RTVSPropertyOp26
 70
     1
102
RTVSPropertyOp27
 70
     1
102
RTVSPropertyOp28
 70
     1
102
RTVSPropertyOp29
 70
     1
102
RTVSPropertyOp30
 70
     1
102
RTVSPropertyOp31
 70
     1
102
RTVSPropertyOp32
 70
     1
102
RTVSPropertyOp33
 70
     1
102
RTVSPropertyOp34
 70
     1
102
RTVSPropertyOp35
 70
     1
102
RTVSPropertyOp36
 70
     1
102
RTVSPropertyOp37
 70
     1
102
RTVSPropertyOp38
 70
     1
102
RTVSPropertyOp39
 70
     1
102
RTVSPropertyOp40
 70
     1
102
RTVSPropertyOp41
 70
     1
102
RTVSPropertyOp42
 70
     1
102
RTVSPropertyOp43
 70
     1
102
RTVSPropertyOp44
 70
     1
102
RTVSPropertyOp45
 70
     1
102
RTVSPropertyOp46
 70
     1
102
RTVSPropertyOp47
 70
     1
102
RTVSPropertyOp48
 70
     1
102
RTVSPropertyOp49
 70
     1
102
RTVSPropertyOp50
 70
     1
102
RTVSPropertyOp51
 70
     0
102
RTVSPropertyOp52
 70
     0
102
RTVSPropertyOp53
 70
     1
102
RTVSPropertyOp54
 70
     1
102
RTVSPropertyOp55
 70
     1
102
RTVSPropertyOp56
 70
     1
102
RTVSPropertyOp57
 70
     1
102
RTVSPropertyOp58
 70
     1
102
RTVSPropertyOp59
 70
     1
102
RTVSPropertyOp60
 70
     1
102
RTVSPropertyOp61
 70
     1
102
RTVSPropertyOp62
 70
     1
  0
XRECORD
  5
362
102
{ACAD_REACTORS
330
361
102
}
330
361
100
AcDbXrecord
280
     1
102
RTVSPost2010Prop28
280
     0
102
RTVSPost2010PropOp28
 70
     1
102
RTVSPost2010Prop29
280
     1
102
RTVSPost2010PropOp29
 70
     1
102
RTVSPost2010Prop30
280
     1
102
RTVSPost2010PropOp30
 70
     1
102
RTVSPost2010Prop31
280
     0
102
RTVSPost2010PropOp31
 70
     1
102
RTVSPost2010Prop32
280
     0
102
RTVSPost2010PropOp32
 70
     1
102
RTVSPost2010Prop33
280
     0
102
RTVSPost2010PropOp33
 70
     1
102
RTVSPost2010Prop34
280
     0
102
RTVSPost2010PropOp34
 70
     1
102
RTVSPost2010Prop35
280
     0
102
RTVSPost2010PropOp35
 70
     1
102
RTVSPost2010Prop36
280
     0
102
RTVSPost2010PropOp36
 70
     1
102
RTVSPost2010Prop37
 90
       50
102
RTVSPost2010PropOp37
 70
     1
102
RTVSPost2010Prop38
140
0.0
102
RTVSPost2010PropOp38
 70
     1
102
RTVSPost2010Prop39
140
1.0
102
RTVSPost2010PropOp39
 70
     1
102
RTVSPost2010Prop40
 90
        0
102
RTVSPost2010PropOp40
 70
     1
102
RTVSPost2010Prop41ColorIndex
 90
       18
102
RTVSPost2010Prop41ColorRGB
 90
        0
102
RTVSPost2010PropOp41
 70
     1
102
RTVSPost2010Prop42
 90
       50
102
RTVSPost2010PropOp42
 70
     1
102
RTVSPost2010Prop43
 90
        3
102
RTVSPost2010PropOp43
 70
     1
102
RTVSPost2010Prop44ColorIndex
 90
        5
102
RTVSPost2010Prop44ColorRGB
 90
      255
102
RTVSPost2010PropOp44
 70
     1
102
RTVSPost2010Prop45
280
     0
102
RTVSPost2010PropOp45
 70
     1
102
RTVSPost2010Prop46
 90
       50
102
RTVSPost2010PropOp46
 70
     1
102
RTVSPost2010Prop47
 90
       50
102
RTVSPost2010PropOp47
 70
     1
102
RTVSPost2010Prop48
 90
       50
102
RTVSPost2010PropOp48
 70
     1
102
RTVSPost2010Prop49
280
     0
102
RTVSPost2010PropOp49
 70
     1
102
RTVSPost2010Prop50
 90
       50
102
RTVSPost2010PropOp50
 70
     1
102
RTVSPost2010Prop51ColorIndex
 90
      256
102
RTVSPost2010Prop51ColorRGB
 90
-16777216
102
RTVSPost2010PropOp51
 70
     0
102
RTVSPost2010Prop52
140
1.0
102
RTVSPost2010PropOp52
 70
     0
102
RTVSPost2010Prop53
 90
        2
102
RTVSPost2010PropOp53
 70
     1
102
RTVSPost2010Prop54
  1
strokes_ogs.tif
102
RTVSPost2010PropOp54
 70
     1
102
RTVSPost2010Prop55
280
     0
102
RTVSPost2010PropOp55
 70
     1
102
RTVSPost2010Prop56
140
1.0
102
RTVSPost2010PropOp56
 70
     1
102
RTVSPost2010Prop57
140
1.0
102
RTVSPost2010PropOp57
 70
     1
102
RTVSPropertyOp0
 70
     1
102
RTVSPropertyOp1
 70
     1
102
RTVSPropertyOp2
 70
     1
102
RTVSPropertyOp3
 70
     1
102
RTVSPropertyOp4
 70
     1
102
RTVSPropertyOp5
 70
     1
102
RTVSPropertyOp6
 70
     1
102
RTVSPropertyOp7
 70
     1
102
RTVSPropertyOp8
 70
     1
102
RTVSPropertyOp9
 70
     1
102
RTVSPropertyOp10
 70
     1
102
RTVSPropertyOp11
 70
     1
102
RTVSPropertyOp12
 70
     1
102
RTVSPropertyOp13
 70
     1
102
RTVSPropertyOp14
 70
     1
102
RTVSPropertyOp15
 70
     1
102
RTVSPropertyOp16
 70
     1
102
RTVSPropertyOp17
 70
     1
102
RTVSPropertyOp18
 70
     1
102
RTVSPropertyOp19
 70
     1
102
RTVSPropertyOp20
 70
     1
102
RTVSPropertyOp21
 70
     1
102
RTVSPropertyOp22
 70
     1
102
RTVSPropertyOp23
 70
     1
102
RTVSPropertyOp24
 70
     1
102
RTVSPropertyOp25
 70
     1
102
RTVSPropertyOp26
 70
     1
102
RTVSPropertyOp27
 70
     1
102
RTVSPropertyOp28
 70
     1
102
RTVSPropertyOp29
 70
     1
102
RTVSPropertyOp30
 70
     1
102
RTVSPropertyOp31
 70
     1
102
RTVSPropertyOp32
 70
     1
102
RTVSPropertyOp33
 70
     1
102
RTVSPropertyOp34
 70
     1
102
RTVSPropertyOp35
 70
     1
102
RTVSPropertyOp36
 70
     1
102
RTVSPropertyOp37
 70
     1
102
RTVSPropertyOp38
 70
     1
102
RTVSPropertyOp39
 70
     1
102
RTVSPropertyOp40
 70
     1
102
RTVSPropertyOp41
 70
     1
102
RTVSPropertyOp42
 70
     1
102
RTVSPropertyOp43
 70
     1
102
RTVSPropertyOp44
 70
     1
102
RTVSPropertyOp45
 70
     1
102
RTVSPropertyOp46
 70
     1
102
RTVSPropertyOp47
 70
     1
102
RTVSPropertyOp48
 70
     1
102
RTVSPropertyOp49
 70
     1
102
RTVSPropertyOp50
 70
     1
102
RTVSPropertyOp51
 70
     0
102
RTVSPropertyOp52
 70
     0
102
RTVSPropertyOp53
 70
     1
102
RTVSPropertyOp54
 70
     1
102
RTVSPropertyOp55
 70
     1
102
RTVSPropertyOp56
 70
     1
102
RTVSPropertyOp57
 70
     1
102
RTVSPropertyOp58
 70
     1
102
RTVSPropertyOp59
 70
     1
102
RTVSPropertyOp60
 70
     1
102
RTVSPropertyOp61
 70
     1
102
RTVSPropertyOp62
 70
     1
  0
XRECORD
  5
370
102
{ACAD_REACTORS
330
36F
102
}
330
36F
100
AcDbXrecord
280
     1
102
RTVSPost2010Prop28
280
     0
102
RTVSPost2010PropOp28
 70
     1
102
RTVSPost2010Prop29
280
     1
102
RTVSPost2010PropOp29
 70
     1
102
RTVSPost2010Prop30
280
     1
102
RTVSPost2010PropOp30
 70
     1
102
RTVSPost2010Prop31
280
     0
102
RTVSPost2010PropOp31
 70
     1
102
RTVSPost2010Prop32
280
     0
102
RTVSPost2010PropOp32
 70
     1
102
RTVSPost2010Prop33
280
     0
102
RTVSPost2010PropOp33
 70
     1
102
RTVSPost2010Prop34
280
     0
102
RTVSPost2010PropOp34
 70
     1
102
RTVSPost2010Prop35
280
     0
102
RTVSPost2010PropOp35
 70
     1
102
RTVSPost2010Prop36
280
     0
102
RTVSPost2010PropOp36
 70
     1
102
RTVSPost2010Prop37
 90
       50
102
RTVSPost2010PropOp37
 70
     1
102
RTVSPost2010Prop38
140
0.0
102
RTVSPost2010PropOp38
 70
     1
102
RTVSPost2010Prop39
140
1.0
102
RTVSPost2010PropOp39
 70
     1
102
RTVSPost2010Prop40
 90
        0
102
RTVSPost2010PropOp40
 70
     1
102
RTVSPost2010Prop41ColorIndex
 90
       18
102
RTVSPost2010Prop41ColorRGB
 90
        0
102
RTVSPost2010PropOp41
 70
     1
102
RTVSPost2010Prop42
 90
       50
102
RTVSPost2010PropOp42
 70
     1
102
RTVSPost2010Prop43
 90
        3
102
RTVSPost2010PropOp43
 70
     1
102
RTVSPost2010Prop44ColorIndex
 90
        5
102
RTVSPost2010Prop44ColorRGB
 90
      255
102
RTVSPost2010PropOp44
 70
     1
102
RTVSPost2010Prop45
280
     0
102
RTVSPost2010PropOp45
 70
     1
102
RTVSPost2010Prop46
 90
       50
102
RTVSPost2010PropOp46
 70
     1
102
RTVSPost2010Prop47
 90
       50
102
RTVSPost2010PropOp47
 70
     1
102
RTVSPost2010Prop48
 90
       50
102
RTVSPost2010PropOp48
 70
     1
102
RTVSPost2010Prop49
280
     0
102
RTVSPost2010PropOp49
 70
     1
102
RTVSPost2010Prop50
 90
       50
102
RTVSPost2010PropOp50
 70
     1
102
RTVSPost2010Prop51ColorIndex
 90
      256
102
RTVSPost2010Prop51ColorRGB
 90
-16777216
102
RTVSPost2010PropOp51
 70
     0
102
RTVSPost2010Prop52
140
1.0
102
RTVSPost2010PropOp52
 70
     0
102
RTVSPost2010Prop53
 90
        2
102
RTVSPost2010PropOp53
 70
     1
102
RTVSPost2010Prop54
  1
strokes_ogs.tif
102
RTVSPost2010PropOp54
 70
     1
102
RTVSPost2010Prop55
280
     0
102
RTVSPost2010PropOp55
 70
     1
102
RTVSPost2010Prop56
140
1.0
102
RTVSPost2010PropOp56
 70
     1
102
RTVSPost2010Prop57
140
1.0
102
RTVSPost2010PropOp57
 70
     1
102
RTVSPropertyOp0
 70
     1
102
RTVSPropertyOp1
 70
     1
102
RTVSPropertyOp2
 70
     1
102
RTVSPropertyOp3
 70
     1
102
RTVSPropertyOp4
 70
     1
102
RTVSPropertyOp5
 70
     1
102
RTVSPropertyOp6
 70
     1
102
RTVSPropertyOp7
 70
     1
102
RTVSPropertyOp8
 70
     1
102
RTVSPropertyOp9
 70
     1
102
RTVSPropertyOp10
 70
     1
102
RTVSPropertyOp11
 70
     1
102
RTVSPropertyOp12
 70
     1
102
RTVSPropertyOp13
 70
     1
102
RTVSPropertyOp14
 70
     1
102
RTVSPropertyOp15
 70
     1
102
RTVSPropertyOp16
 70
     1
102
RTVSPropertyOp17
 70
     1
102
RTVSPropertyOp18
 70
     1
102
RTVSPropertyOp19
 70
     1
102
RTVSPropertyOp20
 70
     1
102
RTVSPropertyOp21
 70
     1
102
RTVSPropertyOp22
 70
     1
102
RTVSPropertyOp23
 70
     1
102
RTVSPropertyOp24
 70
     1
102
RTVSPropertyOp25
 70
     1
102
RTVSPropertyOp26
 70
     1
102
RTVSPropertyOp27
 70
     1
102
RTVSPropertyOp28
 70
     1
102
RTVSPropertyOp29
 70
     1
102
RTVSPropertyOp30
 70
     1
102
RTVSPropertyOp31
 70
     1
102
RTVSPropertyOp32
 70
     1
102
RTVSPropertyOp33
 70
     1
102
RTVSPropertyOp34
 70
     1
102
RTVSPropertyOp35
 70
     1
102
RTVSPropertyOp36
 70
     1
102
RTVSPropertyOp37
 70
     1
102
RTVSPropertyOp38
 70
     1
102
RTVSPropertyOp39
 70
     1
102
RTVSPropertyOp40
 70
     1
102
RTVSPropertyOp41
 70
     1
102
RTVSPropertyOp42
 70
     1
102
RTVSPropertyOp43
 70
     1
102
RTVSPropertyOp44
 70
     1
102
RTVSPropertyOp45
 70
     1
102
RTVSPropertyOp46
 70
     1
102
RTVSPropertyOp47
 70
     1
102
RTVSPropertyOp48
 70
     1
102
RTVSPropertyOp49
 70
     1
102
RTVSPropertyOp50
 70
     1
102
RTVSPropertyOp51
 70
     0
102
RTVSPropertyOp52
 70
     0
102
RTVSPropertyOp53
 70
     1
102
RTVSPropertyOp54
 70
     1
102
RTVSPropertyOp55
 70
     1
102
RTVSPropertyOp56
 70
     1
102
RTVSPropertyOp57
 70
     1
102
RTVSPropertyOp58
 70
     1
102
RTVSPropertyOp59
 70
     1
102
RTVSPropertyOp60
 70
     1
102
RTVSPropertyOp61
 70
     1
102
RTVSPropertyOp62
 70
     1
  0
XRECORD
  5
378
102
{ACAD_REACTORS
330
377
102
}
330
377
100
AcDbXrecord
280
     1
102
RTVSPost2010Prop28
280
     0
102
RTVSPost2010PropOp28
 70
     1
102
RTVSPost2010Prop29
280
     1
102
RTVSPost2010PropOp29
 70
     1
102
RTVSPost2010Prop30
280
     1
102
RTVSPost2010PropOp30
 70
     1
102
RTVSPost2010Prop31
280
     0
102
RTVSPost2010PropOp31
 70
     1
102
RTVSPost2010Prop32
280
     0
102
RTVSPost2010PropOp32
 70
     1
102
RTVSPost2010Prop33
280
     0
102
RTVSPost2010PropOp33
 70
     1
102
RTVSPost2010Prop34
280
     0
102
RTVSPost2010PropOp34
 70
     1
102
RTVSPost2010Prop35
280
     0
102
RTVSPost2010PropOp35
 70
     1
102
RTVSPost2010Prop36
280
     0
102
RTVSPost2010PropOp36
 70
     1
102
RTVSPost2010Prop37
 90
       50
102
RTVSPost2010PropOp37
 70
     1
102
RTVSPost2010Prop38
140
0.0
102
RTVSPost2010PropOp38
 70
     1
102
RTVSPost2010Prop39
140
1.0
102
RTVSPost2010PropOp39
 70
     1
102
RTVSPost2010Prop40
 90
        0
102
RTVSPost2010PropOp40
 70
     1
102
RTVSPost2010Prop41ColorIndex
 90
       18
102
RTVSPost2010Prop41ColorRGB
 90
        0
102
RTVSPost2010PropOp41
 70
     1
102
RTVSPost2010Prop42
 90
       50
102
RTVSPost2010PropOp42
 70
     1
102
RTVSPost2010Prop43
 90
        3
102
RTVSPost2010PropOp43
 70
     1
102
RTVSPost2010Prop44ColorIndex
 90
        5
102
RTVSPost2010Prop44ColorRGB
 90
      255
102
RTVSPost2010PropOp44
 70
     1
102
RTVSPost2010Prop45
280
     0
102
RTVSPost2010PropOp45
 70
     1
102
RTVSPost2010Prop46
 90
       50
102
RTVSPost2010PropOp46
 70
     1
102
RTVSPost2010Prop47
 90
       50
102
RTVSPost2010PropOp47
 70
     1
102
RTVSPost2010Prop48
 90
       50
102
RTVSPost2010PropOp48
 70
     1
102
RTVSPost2010Prop49
280
     0
102
RTVSPost2010PropOp49
 70
     1
102
RTVSPost2010Prop50
 90
       50
102
RTVSPost2010PropOp50
 70
     1
102
RTVSPost2010Prop51ColorIndex
 90
      256
102
RTVSPost2010Prop51ColorRGB
 90
-16777216
102
RTVSPost2010PropOp51
 70
     0
102
RTVSPost2010Prop52
140
1.0
102
RTVSPost2010PropOp52
 70
     0
102
RTVSPost2010Prop53
 90
        2
102
RTVSPost2010PropOp53
 70
     1
102
RTVSPost2010Prop54
  1
strokes_ogs.tif
102
RTVSPost2010PropOp54
 70
     1
102
RTVSPost2010Prop55
280
     0
102
RTVSPost2010PropOp55
 70
     1
102
RTVSPost2010Prop56
140
1.0
102
RTVSPost2010PropOp56
 70
     1
102
RTVSPost2010Prop57
140
1.0
102
RTVSPost2010PropOp57
 70
     1
102
RTVSPropertyOp0
 70
     1
102
RTVSPropertyOp1
 70
     1
102
RTVSPropertyOp2
 70
     1
102
RTVSPropertyOp3
 70
     1
102
RTVSPropertyOp4
 70
     1
102
RTVSPropertyOp5
 70
     1
102
RTVSPropertyOp6
 70
     1
102
RTVSPropertyOp7
 70
     1
102
RTVSPropertyOp8
 70
     1
102
RTVSPropertyOp9
 70
     1
102
RTVSPropertyOp10
 70
     1
102
RTVSPropertyOp11
 70
     1
102
RTVSPropertyOp12
 70
     1
102
RTVSPropertyOp13
 70
     1
102
RTVSPropertyOp14
 70
     1
102
RTVSPropertyOp15
 70
     1
102
RTVSPropertyOp16
 70
     1
102
RTVSPropertyOp17
 70
     1
102
RTVSPropertyOp18
 70
     1
102
RTVSPropertyOp19
 70
     1
102
RTVSPropertyOp20
 70
     1
102
RTVSPropertyOp21
 70
     1
102
RTVSPropertyOp22
 70
     1
102
RTVSPropertyOp23
 70
     1
102
RTVSPropertyOp24
 70
     1
102
RTVSPropertyOp25
 70
     1
102
RTVSPropertyOp26
 70
     1
102
RTVSPropertyOp27
 70
     1
102
RTVSPropertyOp28
 70
     1
102
RTVSPropertyOp29
 70
     1
102
RTVSPropertyOp30
 70
     1
102
RTVSPropertyOp31
 70
     1
102
RTVSPropertyOp32
 70
     1
102
RTVSPropertyOp33
 70
     1
102
RTVSPropertyOp34
 70
     1
102
RTVSPropertyOp35
 70
     1
102
RTVSPropertyOp36
 70
     1
102
RTVSPropertyOp37
 70
     1
102
RTVSPropertyOp38
 70
     1
102
RTVSPropertyOp39
 70
     1
102
RTVSPropertyOp40
 70
     1
102
RTVSPropertyOp41
 70
     1
102
RTVSPropertyOp42
 70
     1
102
RTVSPropertyOp43
 70
     1
102
RTVSPropertyOp44
 70
     1
102
RTVSPropertyOp45
 70
     1
102
RTVSPropertyOp46
 70
     1
102
RTVSPropertyOp47
 70
     1
102
RTVSPropertyOp48
 70
     1
102
RTVSPropertyOp49
 70
     1
102
RTVSPropertyOp50
 70
     1
102
RTVSPropertyOp51
 70
     0
102
RTVSPropertyOp52
 70
     0
102
RTVSPropertyOp53
 70
     1
102
RTVSPropertyOp54
 70
     1
102
RTVSPropertyOp55
 70
     1
102
RTVSPropertyOp56
 70
     1
102
RTVSPropertyOp57
 70
     1
102
RTVSPropertyOp58
 70
     1
102
RTVSPropertyOp59
 70
     1
102
RTVSPropertyOp60
 70
     1
102
RTVSPropertyOp61
 70
     1
102
RTVSPropertyOp62
 70
     1
  0
XRECORD
  5
36A
102
{ACAD_REACTORS
330
369
102
}
330
369
100
AcDbXrecord
280
     1
102
RTVSPost2010Prop28
280
     0
102
RTVSPost2010PropOp28
 70
     1
102
RTVSPost2010Prop29
280
     1
102
RTVSPost2010PropOp29
 70
     1
102
RTVSPost2010Prop30
280
     1
102
RTVSPost2010PropOp30
 70
     1
102
RTVSPost2010Prop31
280
     0
102
RTVSPost2010PropOp31
 70
     1
102
RTVSPost2010Prop32
280
     0
102
RTVSPost2010PropOp32
 70
     1
102
RTVSPost2010Prop33
280
     0
102
RTVSPost2010PropOp33
 70
     1
102
RTVSPost2010Prop34
280
     0
102
RTVSPost2010PropOp34
 70
     1
102
RTVSPost2010Prop35
280
     0
102
RTVSPost2010PropOp35
 70
     1
102
RTVSPost2010Prop36
280
     0
102
RTVSPost2010PropOp36
 70
     1
102
RTVSPost2010Prop37
 90
       50
102
RTVSPost2010PropOp37
 70
     1
102
RTVSPost2010Prop38
140
0.0
102
RTVSPost2010PropOp38
 70
     1
102
RTVSPost2010Prop39
140
1.0
102
RTVSPost2010PropOp39
 70
     1
102
RTVSPost2010Prop40
 90
        0
102
RTVSPost2010PropOp40
 70
     1
102
RTVSPost2010Prop41ColorIndex
 90
       18
102
RTVSPost2010Prop41ColorRGB
 90
        0
102
RTVSPost2010PropOp41
 70
     1
102
RTVSPost2010Prop42
 90
       50
102
RTVSPost2010PropOp42
 70
     1
102
RTVSPost2010Prop43
 90
        3
102
RTVSPost2010PropOp43
 70
     1
102
RTVSPost2010Prop44ColorIndex
 90
        5
102
RTVSPost2010Prop44ColorRGB
 90
      255
102
RTVSPost2010PropOp44
 70
     1
102
RTVSPost2010Prop45
280
     0
102
RTVSPost2010PropOp45
 70
     1
102
RTVSPost2010Prop46
 90
       50
102
RTVSPost2010PropOp46
 70
     1
102
RTVSPost2010Prop47
 90
       50
102
RTVSPost2010PropOp47
 70
     1
102
RTVSPost2010Prop48
 90
       50
102
RTVSPost2010PropOp48
 70
     1
102
RTVSPost2010Prop49
280
     0
102
RTVSPost2010PropOp49
 70
     1
102
RTVSPost2010Prop50
 90
       50
102
RTVSPost2010PropOp50
 70
     1
102
RTVSPost2010Prop51ColorIndex
 90
      256
102
RTVSPost2010Prop51ColorRGB
 90
-16777216
102
RTVSPost2010PropOp51
 70
     0
102
RTVSPost2010Prop52
140
1.0
102
RTVSPost2010PropOp52
 70
     0
102
RTVSPost2010Prop53
 90
        2
102
RTVSPost2010PropOp53
 70
     1
102
RTVSPost2010Prop54
  1
strokes_ogs.tif
102
RTVSPost2010PropOp54
 70
     1
102
RTVSPost2010Prop55
280
     0
102
RTVSPost2010PropOp55
 70
     1
102
RTVSPost2010Prop56
140
1.0
102
RTVSPost2010PropOp56
 70
     1
102
RTVSPost2010Prop57
140
1.0
102
RTVSPost2010PropOp57
 70
     1
102
RTVSPropertyOp0
 70
     1
102
RTVSPropertyOp1
 70
     1
102
RTVSPropertyOp2
 70
     1
102
RTVSPropertyOp3
 70
     1
102
RTVSPropertyOp4
 70
     1
102
RTVSPropertyOp5
 70
     1
102
RTVSPropertyOp6
 70
     1
102
RTVSPropertyOp7
 70
     1
102
RTVSPropertyOp8
 70
     1
102
RTVSPropertyOp9
 70
     1
102
RTVSPropertyOp10
 70
     1
102
RTVSPropertyOp11
 70
     1
102
RTVSPropertyOp12
 70
     1
102
RTVSPropertyOp13
 70
     1
102
RTVSPropertyOp14
 70
     1
102
RTVSPropertyOp15
 70
     1
102
RTVSPropertyOp16
 70
     1
102
RTVSPropertyOp17
 70
     1
102
RTVSPropertyOp18
 70
     1
102
RTVSPropertyOp19
 70
     1
102
RTVSPropertyOp20
 70
     1
102
RTVSPropertyOp21
 70
     1
102
RTVSPropertyOp22
 70
     1
102
RTVSPropertyOp23
 70
     1
102
RTVSPropertyOp24
 70
     1
102
RTVSPropertyOp25
 70
     1
102
RTVSPropertyOp26
 70
     1
102
RTVSPropertyOp27
 70
     1
102
RTVSPropertyOp28
 70
     1
102
RTVSPropertyOp29
 70
     1
102
RTVSPropertyOp30
 70
     1
102
RTVSPropertyOp31
 70
     1
102
RTVSPropertyOp32
 70
     1
102
RTVSPropertyOp33
 70
     1
102
RTVSPropertyOp34
 70
     1
102
RTVSPropertyOp35
 70
     1
102
RTVSPropertyOp36
 70
     1
102
RTVSPropertyOp37
 70
     1
102
RTVSPropertyOp38
 70
     1
102
RTVSPropertyOp39
 70
     1
102
RTVSPropertyOp40
 70
     1
102
RTVSPropertyOp41
 70
     1
102
RTVSPropertyOp42
 70
     1
102
RTVSPropertyOp43
 70
     1
102
RTVSPropertyOp44
 70
     1
102
RTVSPropertyOp45
 70
     1
102
RTVSPropertyOp46
 70
     1
102
RTVSPropertyOp47
 70
     1
102
RTVSPropertyOp48
 70
     1
102
RTVSPropertyOp49
 70
     1
102
RTVSPropertyOp50
 70
     1
102
RTVSPropertyOp51
 70
     0
102
RTVSPropertyOp52
 70
     0
102
RTVSPropertyOp53
 70
     1
102
RTVSPropertyOp54
 70
     1
102
RTVSPropertyOp55
 70
     1
102
RTVSPropertyOp56
 70
     1
102
RTVSPropertyOp57
 70
     1
102
RTVSPropertyOp58
 70
     1
102
RTVSPropertyOp59
 70
     1
102
RTVSPropertyOp60
 70
     1
102
RTVSPropertyOp61
 70
     1
102
RTVSPropertyOp62
 70
     1
  0
XRECORD
  5
36E
102
{ACAD_REACTORS
330
36D
102
}
330
36D
100
AcDbXrecord
280
     1
102
RTVSPost2010Prop28
280
     0
102
RTVSPost2010PropOp28
 70
     1
102
RTVSPost2010Prop29
280
     1
102
RTVSPost2010PropOp29
 70
     1
102
RTVSPost2010Prop30
280
     1
102
RTVSPost2010PropOp30
 70
     1
102
RTVSPost2010Prop31
280
     0
102
RTVSPost2010PropOp31
 70
     1
102
RTVSPost2010Prop32
280
     0
102
RTVSPost2010PropOp32
 70
     1
102
RTVSPost2010Prop33
280
     0
102
RTVSPost2010PropOp33
 70
     1
102
RTVSPost2010Prop34
280
     0
102
RTVSPost2010PropOp34
 70
     1
102
RTVSPost2010Prop35
280
     0
102
RTVSPost2010PropOp35
 70
     1
102
RTVSPost2010Prop36
280
     0
102
RTVSPost2010PropOp36
 70
     1
102
RTVSPost2010Prop37
 90
       50
102
RTVSPost2010PropOp37
 70
     1
102
RTVSPost2010Prop38
140
0.0
102
RTVSPost2010PropOp38
 70
     1
102
RTVSPost2010Prop39
140
1.0
102
RTVSPost2010PropOp39
 70
     1
102
RTVSPost2010Prop40
 90
        0
102
RTVSPost2010PropOp40
 70
     1
102
RTVSPost2010Prop41ColorIndex
 90
       18
102
RTVSPost2010Prop41ColorRGB
 90
        0
102
RTVSPost2010PropOp41
 70
     1
102
RTVSPost2010Prop42
 90
       50
102
RTVSPost2010PropOp42
 70
     1
102
RTVSPost2010Prop43
 90
        3
102
RTVSPost2010PropOp43
 70
     1
102
RTVSPost2010Prop44ColorIndex
 90
        5
102
RTVSPost2010Prop44ColorRGB
 90
      255
102
RTVSPost2010PropOp44
 70
     1
102
RTVSPost2010Prop45
280
     0
102
RTVSPost2010PropOp45
 70
     1
102
RTVSPost2010Prop46
 90
       50
102
RTVSPost2010PropOp46
 70
     1
102
RTVSPost2010Prop47
 90
       50
102
RTVSPost2010PropOp47
 70
     1
102
RTVSPost2010Prop48
 90
       50
102
RTVSPost2010PropOp48
 70
     1
102
RTVSPost2010Prop49
280
     0
102
RTVSPost2010PropOp49
 70
     1
102
RTVSPost2010Prop50
 90
       50
102
RTVSPost2010PropOp50
 70
     1
102
RTVSPost2010Prop51ColorIndex
 90
      256
102
RTVSPost2010Prop51ColorRGB
 90
-16777216
102
RTVSPost2010PropOp51
 70
     0
102
RTVSPost2010Prop52
140
1.0
102
RTVSPost2010PropOp52
 70
     0
102
RTVSPost2010Prop53
 90
        2
102
RTVSPost2010PropOp53
 70
     1
102
RTVSPost2010Prop54
  1
strokes_ogs.tif
102
RTVSPost2010PropOp54
 70
     1
102
RTVSPost2010Prop55
280
     0
102
RTVSPost2010PropOp55
 70
     1
102
RTVSPost2010Prop56
140
1.0
102
RTVSPost2010PropOp56
 70
     1
102
RTVSPost2010Prop57
140
1.0
102
RTVSPost2010PropOp57
 70
     1
102
RTVSPropertyOp0
 70
     1
102
RTVSPropertyOp1
 70
     1
102
RTVSPropertyOp2
 70
     1
102
RTVSPropertyOp3
 70
     1
102
RTVSPropertyOp4
 70
     1
102
RTVSPropertyOp5
 70
     1
102
RTVSPropertyOp6
 70
     1
102
RTVSPropertyOp7
 70
     1
102
RTVSPropertyOp8
 70
     1
102
RTVSPropertyOp9
 70
     1
102
RTVSPropertyOp10
 70
     1
102
RTVSPropertyOp11
 70
     1
102
RTVSPropertyOp12
 70
     1
102
RTVSPropertyOp13
 70
     1
102
RTVSPropertyOp14
 70
     1
102
RTVSPropertyOp15
 70
     1
102
RTVSPropertyOp16
 70
     1
102
RTVSPropertyOp17
 70
     1
102
RTVSPropertyOp18
 70
     1
102
RTVSPropertyOp19
 70
     1
102
RTVSPropertyOp20
 70
     1
102
RTVSPropertyOp21
 70
     1
102
RTVSPropertyOp22
 70
     1
102
RTVSPropertyOp23
 70
     1
102
RTVSPropertyOp24
 70
     1
102
RTVSPropertyOp25
 70
     1
102
RTVSPropertyOp26
 70
     1
102
RTVSPropertyOp27
 70
     1
102
RTVSPropertyOp28
 70
     1
102
RTVSPropertyOp29
 70
     1
102
RTVSPropertyOp30
 70
     1
102
RTVSPropertyOp31
 70
     1
102
RTVSPropertyOp32
 70
     1
102
RTVSPropertyOp33
 70
     1
102
RTVSPropertyOp34
 70
     1
102
RTVSPropertyOp35
 70
     1
102
RTVSPropertyOp36
 70
     1
102
RTVSPropertyOp37
 70
     1
102
RTVSPropertyOp38
 70
     1
102
RTVSPropertyOp39
 70
     1
102
RTVSPropertyOp40
 70
     1
102
RTVSPropertyOp41
 70
     1
102
RTVSPropertyOp42
 70
     1
102
RTVSPropertyOp43
 70
     1
102
RTVSPropertyOp44
 70
     1
102
RTVSPropertyOp45
 70
     1
102
RTVSPropertyOp46
 70
     1
102
RTVSPropertyOp47
 70
     1
102
RTVSPropertyOp48
 70
     1
102
RTVSPropertyOp49
 70
     1
102
RTVSPropertyOp50
 70
     1
102
RTVSPropertyOp51
 70
     0
102
RTVSPropertyOp52
 70
     0
102
RTVSPropertyOp53
 70
     1
102
RTVSPropertyOp54
 70
     1
102
RTVSPropertyOp55
 70
     1
102
RTVSPropertyOp56
 70
     1
102
RTVSPropertyOp57
 70
     1
102
RTVSPropertyOp58
 70
     1
102
RTVSPropertyOp59
 70
     1
102
RTVSPropertyOp60
 70
     1
102
RTVSPropertyOp61
 70
     1
102
RTVSPropertyOp62
 70
     1
  0
XRECORD
  5
388
102
{ACAD_REACTORS
330
387
102
}
330
387
100
AcDbXrecord
280
     1
102
RTVSPost2010Prop28
280
     0
102
RTVSPost2010PropOp28
 70
     1
102
RTVSPost2010Prop29
280
     1
102
RTVSPost2010PropOp29
 70
     1
102
RTVSPost2010Prop30
280
     1
102
RTVSPost2010PropOp30
 70
     1
102
RTVSPost2010Prop31
280
     0
102
RTVSPost2010PropOp31
 70
     1
102
RTVSPost2010Prop32
280
     0
102
RTVSPost2010PropOp32
 70
     1
102
RTVSPost2010Prop33
280
     0
102
RTVSPost2010PropOp33
 70
     1
102
RTVSPost2010Prop34
280
     0
102
RTVSPost2010PropOp34
 70
     1
102
RTVSPost2010Prop35
280
     0
102
RTVSPost2010PropOp35
 70
     1
102
RTVSPost2010Prop36
280
     0
102
RTVSPost2010PropOp36
 70
     1
102
RTVSPost2010Prop37
 90
       50
102
RTVSPost2010PropOp37
 70
     0
102
RTVSPost2010Prop38
140
0.0
102
RTVSPost2010PropOp38
 70
     0
102
RTVSPost2010Prop39
140
1.0
102
RTVSPost2010PropOp39
 70
     0
102
RTVSPost2010Prop40
 90
        0
102
RTVSPost2010PropOp40
 70
     0
102
RTVSPost2010Prop41ColorIndex
 90
       18
102
RTVSPost2010Prop41ColorRGB
 90
        0
102
RTVSPost2010PropOp41
 70
     0
102
RTVSPost2010Prop42
 90
       50
102
RTVSPost2010PropOp42
 70
     0
102
RTVSPost2010Prop43
 90
        3
102
RTVSPost2010PropOp43
 70
     0
102
RTVSPost2010Prop44ColorIndex
 90
        5
102
RTVSPost2010Prop44ColorRGB
 90
      255
102
RTVSPost2010PropOp44
 70
     0
102
RTVSPost2010Prop45
280
     0
102
RTVSPost2010PropOp45
 70
     1
102
RTVSPost2010Prop46
 90
       50
102
RTVSPost2010PropOp46
 70
     0
102
RTVSPost2010Prop47
 90
       50
102
RTVSPost2010PropOp47
 70
     0
102
RTVSPost2010Prop48
 90
       50
102
RTVSPost2010PropOp48
 70
     0
102
RTVSPost2010Prop49
280
     0
102
RTVSPost2010PropOp49
 70
     1
102
RTVSPost2010Prop50
 90
       50
102
RTVSPost2010PropOp50
 70
     0
102
RTVSPost2010Prop51ColorIndex
 90
      256
102
RTVSPost2010Prop51ColorRGB
 90
-16777216
102
RTVSPost2010PropOp51
 70
     0
102
RTVSPost2010Prop52
140
1.0
102
RTVSPost2010PropOp52
 70
     0
102
RTVSPost2010Prop53
 90
        2
102
RTVSPost2010PropOp53
 70
     0
102
RTVSPost2010Prop54
  1
strokes_ogs.tif
102
RTVSPost2010PropOp54
 70
     0
102
RTVSPost2010Prop55
280
     0
102
RTVSPost2010PropOp55
 70
     1
102
RTVSPost2010Prop56
140
1.0
102
RTVSPost2010PropOp56
 70
     0
102
RTVSPost2010Prop57
140
1.0
102
RTVSPost2010PropOp57
 70
     0
102
RTVSPropertyOp0
 70
     0
102
RTVSPropertyOp1
 70
     0
102
RTVSPropertyOp2
 70
     0
102
RTVSPropertyOp3
 70
     0
102
RTVSPropertyOp4
 70
     0
102
RTVSPropertyOp5
 70
     0
102
RTVSPropertyOp6
 70
     0
102
RTVSPropertyOp7
 70
     0
102
RTVSPropertyOp8
 70
     0
102
RTVSPropertyOp9
 70
     0
102
RTVSPropertyOp10
 70
     0
102
RTVSPropertyOp11
 70
     0
102
RTVSPropertyOp12
 70
     0
102
RTVSPropertyOp13
 70
     0
102
RTVSPropertyOp14
 70
     2
102
RTVSPropertyOp15
 70
     0
102
RTVSPropertyOp16
 70
     0
102
RTVSPropertyOp17
 70
     0
102
RTVSPropertyOp18
 70
     0
102
RTVSPropertyOp19
 70
     0
102
RTVSPropertyOp20
 70
     0
102
RTVSPropertyOp21
 70
     0
102
RTVSPropertyOp22
 70
     0
102
RTVSPropertyOp23
 70
     0
102
RTVSPropertyOp24
 70
     0
102
RTVSPropertyOp25
 70
     0
102
RTVSPropertyOp26
 70
     0
102
RTVSPropertyOp27
 70
     0
102
RTVSPropertyOp28
 70
     1
102
RTVSPropertyOp29
 70
     1
102
RTVSPropertyOp30
 70
     1
102
RTVSPropertyOp31
 70
     1
102
RTVSPropertyOp32
 70
     1
102
RTVSPropertyOp33
 70
     1
102
RTVSPropertyOp34
 70
     1
102
RTVSPropertyOp35
 70
     1
102
RTVSPropertyOp36
 70
     1
102
RTVSPropertyOp37
 70
     0
102
RTVSPropertyOp38
 70
     0
102
RTVSPropertyOp39
 70
     0
102
RTVSPropertyOp40
 70
     0
102
RTVSPropertyOp41
 70
     0
102
RTVSPropertyOp42
 70
     0
102
RTVSPropertyOp43
 70
     0
102
RTVSPropertyOp44
 70
     0
102
RTVSPropertyOp45
 70
     1
102
RTVSPropertyOp46
 70
     0
102
RTVSPropertyOp47
 70
     0
102
RTVSPropertyOp48
 70
     0
102
RTVSPropertyOp49
 70
     1
102
RTVSPropertyOp50
 70
     0
102
RTVSPropertyOp51
 70
     0
102
RTVSPropertyOp52
 70
     0
102
RTVSPropertyOp53
 70
     0
102
RTVSPropertyOp54
 70
     0
102
RTVSPropertyOp55
 70
     1
102
RTVSPropertyOp56
 70
     0
102
RTVSPropertyOp57
 70
     0
102
RTVSPropertyOp58
 70
     0
102
RTVSPropertyOp59
 70
     0
102
RTVSPropertyOp60
 70
     0
102
RTVSPropertyOp61
 70
     0
102
RTVSPropertyOp62
 70
     0
  0
XRECORD
  5
376
102
{ACAD_REACTORS
330
375
102
}
330
375
100
AcDbXrecord
280
     1
102
RTVSPost2010Prop28
280
     0
102
RTVSPost2010PropOp28
 70
     1
102
RTVSPost2010Prop29
280
     1
102
RTVSPost2010PropOp29
 70
     1
102
RTVSPost2010Prop30
280
     1
102
RTVSPost2010PropOp30
 70
     1
102
RTVSPost2010Prop31
280
     0
102
RTVSPost2010PropOp31
 70
     1
102
RTVSPost2010Prop32
280
     0
102
RTVSPost2010PropOp32
 70
     1
102
RTVSPost2010Prop33
280
     0
102
RTVSPost2010PropOp33
 70
     1
102
RTVSPost2010Prop34
280
     0
102
RTVSPost2010PropOp34
 70
     1
102
RTVSPost2010Prop35
280
     0
102
RTVSPost2010PropOp35
 70
     1
102
RTVSPost2010Prop36
280
     0
102
RTVSPost2010PropOp36
 70
     1
102
RTVSPost2010Prop37
 90
       50
102
RTVSPost2010PropOp37
 70
     1
102
RTVSPost2010Prop38
140
0.0
102
RTVSPost2010PropOp38
 70
     1
102
RTVSPost2010Prop39
140
1.0
102
RTVSPost2010PropOp39
 70
     1
102
RTVSPost2010Prop40
 90
        0
102
RTVSPost2010PropOp40
 70
     1
102
RTVSPost2010Prop41ColorIndex
 90
       18
102
RTVSPost2010Prop41ColorRGB
 90
        0
102
RTVSPost2010PropOp41
 70
     1
102
RTVSPost2010Prop42
 90
       50
102
RTVSPost2010PropOp42
 70
     1
102
RTVSPost2010Prop43
 90
        3
102
RTVSPost2010PropOp43
 70
     1
102
RTVSPost2010Prop44ColorIndex
 90
        5
102
RTVSPost2010Prop44ColorRGB
 90
      255
102
RTVSPost2010PropOp44
 70
     1
102
RTVSPost2010Prop45
280
     0
102
RTVSPost2010PropOp45
 70
     1
102
RTVSPost2010Prop46
 90
       50
102
RTVSPost2010PropOp46
 70
     1
102
RTVSPost2010Prop47
 90
       50
102
RTVSPost2010PropOp47
 70
     1
102
RTVSPost2010Prop48
 90
       50
102
RTVSPost2010PropOp48
 70
     1
102
RTVSPost2010Prop49
280
     0
102
RTVSPost2010PropOp49
 70
     1
102
RTVSPost2010Prop50
 90
       50
102
RTVSPost2010PropOp50
 70
     1
102
RTVSPost2010Prop51ColorIndex
 90
      256
102
RTVSPost2010Prop51ColorRGB
 90
-16777216
102
RTVSPost2010PropOp51
 70
     0
102
RTVSPost2010Prop52
140
1.0
102
RTVSPost2010PropOp52
 70
     0
102
RTVSPost2010Prop53
 90
        2
102
RTVSPost2010PropOp53
 70
     1
102
RTVSPost2010Prop54
  1
strokes_ogs.tif
102
RTVSPost2010PropOp54
 70
     1
102
RTVSPost2010Prop55
280
     0
102
RTVSPost2010PropOp55
 70
     1
102
RTVSPost2010Prop56
140
1.0
102
RTVSPost2010PropOp56
 70
     1
102
RTVSPost2010Prop57
140
1.0
102
RTVSPost2010PropOp57
 70
     1
102
RTVSPropertyOp0
 70
     1
102
RTVSPropertyOp1
 70
     1
102
RTVSPropertyOp2
 70
     1
102
RTVSPropertyOp3
 70
     1
102
RTVSPropertyOp4
 70
     1
102
RTVSPropertyOp5
 70
     1
102
RTVSPropertyOp6
 70
     1
102
RTVSPropertyOp7
 70
     1
102
RTVSPropertyOp8
 70
     1
102
RTVSPropertyOp9
 70
     1
102
RTVSPropertyOp10
 70
     1
102
RTVSPropertyOp11
 70
     1
102
RTVSPropertyOp12
 70
     1
102
RTVSPropertyOp13
 70
     1
102
RTVSPropertyOp14
 70
     1
102
RTVSPropertyOp15
 70
     1
102
RTVSPropertyOp16
 70
     1
102
RTVSPropertyOp17
 70
     1
102
RTVSPropertyOp18
 70
     1
102
RTVSPropertyOp19
 70
     1
102
RTVSPropertyOp20
 70
     1
102
RTVSPropertyOp21
 70
     1
102
RTVSPropertyOp22
 70
     1
102
RTVSPropertyOp23
 70
     1
102
RTVSPropertyOp24
 70
     1
102
RTVSPropertyOp25
 70
     1
102
RTVSPropertyOp26
 70
     1
102
RTVSPropertyOp27
 70
     1
102
RTVSPropertyOp28
 70
     1
102
RTVSPropertyOp29
 70
     1
102
RTVSPropertyOp30
 70
     1
102
RTVSPropertyOp31
 70
     1
102
RTVSPropertyOp32
 70
     1
102
RTVSPropertyOp33
 70
     1
102
RTVSPropertyOp34
 70
     1
102
RTVSPropertyOp35
 70
     1
102
RTVSPropertyOp36
 70
     1
102
RTVSPropertyOp37
 70
     1
102
RTVSPropertyOp38
 70
     1
102
RTVSPropertyOp39
 70
     1
102
RTVSPropertyOp40
 70
     1
102
RTVSPropertyOp41
 70
     1
102
RTVSPropertyOp42
 70
     1
102
RTVSPropertyOp43
 70
     1
102
RTVSPropertyOp44
 70
     1
102
RTVSPropertyOp45
 70
     1
102
RTVSPropertyOp46
 70
     1
102
RTVSPropertyOp47
 70
     1
102
RTVSPropertyOp48
 70
     1
102
RTVSPropertyOp49
 70
     1
102
RTVSPropertyOp50
 70
     1
102
RTVSPropertyOp51
 70
     0
102
RTVSPropertyOp52
 70
     0
102
RTVSPropertyOp53
 70
     1
102
RTVSPropertyOp54
 70
     1
102
RTVSPropertyOp55
 70
     1
102
RTVSPropertyOp56
 70
     1
102
RTVSPropertyOp57
 70
     1
102
RTVSPropertyOp58
 70
     1
102
RTVSPropertyOp59
 70
     1
102
RTVSPropertyOp60
 70
     1
102
RTVSPropertyOp61
 70
     1
102
RTVSPropertyOp62
 70
     1
  0
XRECORD
  5
35A
102
{ACAD_REACTORS
330
359
102
}
330
359
100
AcDbXrecord
280
     1
102
RTVSPost2010Prop28
280
     0
102
RTVSPost2010PropOp28
 70
     1
102
RTVSPost2010Prop29
280
     1
102
RTVSPost2010PropOp29
 70
     1
102
RTVSPost2010Prop30
280
     1
102
RTVSPost2010PropOp30
 70
     1
102
RTVSPost2010Prop31
280
     0
102
RTVSPost2010PropOp31
 70
     1
102
RTVSPost2010Prop32
280
     0
102
RTVSPost2010PropOp32
 70
     1
102
RTVSPost2010Prop33
280
     0
102
RTVSPost2010PropOp33
 70
     1
102
RTVSPost2010Prop34
280
     0
102
RTVSPost2010PropOp34
 70
     1
102
RTVSPost2010Prop35
280
     0
102
RTVSPost2010PropOp35
 70
     1
102
RTVSPost2010Prop36
280
     0
102
RTVSPost2010PropOp36
 70
     1
102
RTVSPost2010Prop37
 90
       50
102
RTVSPost2010PropOp37
 70
     1
102
RTVSPost2010Prop38
140
0.0
102
RTVSPost2010PropOp38
 70
     1
102
RTVSPost2010Prop39
140
1.0
102
RTVSPost2010PropOp39
 70
     1
102
RTVSPost2010Prop40
 90
        0
102
RTVSPost2010PropOp40
 70
     1
102
RTVSPost2010Prop41ColorIndex
 90
       18
102
RTVSPost2010Prop41ColorRGB
 90
        0
102
RTVSPost2010PropOp41
 70
     1
102
RTVSPost2010Prop42
 90
       50
102
RTVSPost2010PropOp42
 70
     1
102
RTVSPost2010Prop43
 90
        3
102
RTVSPost2010PropOp43
 70
     1
102
RTVSPost2010Prop44ColorIndex
 90
        5
102
RTVSPost2010Prop44ColorRGB
 90
      255
102
RTVSPost2010PropOp44
 70
     1
102
RTVSPost2010Prop45
280
     0
102
RTVSPost2010PropOp45
 70
     1
102
RTVSPost2010Prop46
 90
       50
102
RTVSPost2010PropOp46
 70
     1
102
RTVSPost2010Prop47
 90
       50
102
RTVSPost2010PropOp47
 70
     1
102
RTVSPost2010Prop48
 90
       50
102
RTVSPost2010PropOp48
 70
     1
102
RTVSPost2010Prop49
280
     0
102
RTVSPost2010PropOp49
 70
     1
102
RTVSPost2010Prop50
 90
       50
102
RTVSPost2010PropOp50
 70
     1
102
RTVSPost2010Prop51ColorIndex
 90
      256
102
RTVSPost2010Prop51ColorRGB
 90
-16777216
102
RTVSPost2010PropOp51
 70
     0
102
RTVSPost2010Prop52
140
1.0
102
RTVSPost2010PropOp52
 70
     0
102
RTVSPost2010Prop53
 90
        2
102
RTVSPost2010PropOp53
 70
     1
102
RTVSPost2010Prop54
  1
strokes_ogs.tif
102
RTVSPost2010PropOp54
 70
     1
102
RTVSPost2010Prop55
280
     0
102
RTVSPost2010PropOp55
 70
     1
102
RTVSPost2010Prop56
140
1.0
102
RTVSPost2010PropOp56
 70
     1
102
RTVSPost2010Prop57
140
1.0
102
RTVSPost2010PropOp57
 70
     1
102
RTVSPropertyOp0
 70
     1
102
RTVSPropertyOp1
 70
     1
102
RTVSPropertyOp2
 70
     1
102
RTVSPropertyOp3
 70
     1
102
RTVSPropertyOp4
 70
     1
102
RTVSPropertyOp5
 70
     1
102
RTVSPropertyOp6
 70
     1
102
RTVSPropertyOp7
 70
     1
102
RTVSPropertyOp8
 70
     1
102
RTVSPropertyOp9
 70
     1
102
RTVSPropertyOp10
 70
     1
102
RTVSPropertyOp11
 70
     1
102
RTVSPropertyOp12
 70
     1
102
RTVSPropertyOp13
 70
     1
102
RTVSPropertyOp14
 70
     1
102
RTVSPropertyOp15
 70
     1
102
RTVSPropertyOp16
 70
     1
102
RTVSPropertyOp17
 70
     1
102
RTVSPropertyOp18
 70
     1
102
RTVSPropertyOp19
 70
     1
102
RTVSPropertyOp20
 70
     1
102
RTVSPropertyOp21
 70
     1
102
RTVSPropertyOp22
 70
     1
102
RTVSPropertyOp23
 70
     1
102
RTVSPropertyOp24
 70
     1
102
RTVSPropertyOp25
 70
     1
102
RTVSPropertyOp26
 70
     1
102
RTVSPropertyOp27
 70
     1
102
RTVSPropertyOp28
 70
     1
102
RTVSPropertyOp29
 70
     1
102
RTVSPropertyOp30
 70
     1
102
RTVSPropertyOp31
 70
     1
102
RTVSPropertyOp32
 70
     1
102
RTVSPropertyOp33
 70
     1
102
RTVSPropertyOp34
 70
     1
102
RTVSPropertyOp35
 70
     1
102
RTVSPropertyOp36
 70
     1
102
RTVSPropertyOp37
 70
     1
102
RTVSPropertyOp38
 70
     1
102
RTVSPropertyOp39
 70
     1
102
RTVSPropertyOp40
 70
     1
102
RTVSPropertyOp41
 70
     1
102
RTVSPropertyOp42
 70
     1
102
RTVSPropertyOp43
 70
     1
102
RTVSPropertyOp44
 70
     1
102
RTVSPropertyOp45
 70
     1
102
RTVSPropertyOp46
 70
     1
102
RTVSPropertyOp47
 70
     1
102
RTVSPropertyOp48
 70
     1
102
RTVSPropertyOp49
 70
     1
102
RTVSPropertyOp50
 70
     1
102
RTVSPropertyOp51
 70
     0
102
RTVSPropertyOp52
 70
     0
102
RTVSPropertyOp53
 70
     1
102
RTVSPropertyOp54
 70
     1
102
RTVSPropertyOp55
 70
     1
102
RTVSPropertyOp56
 70
     1
102
RTVSPropertyOp57
 70
     1
102
RTVSPropertyOp58
 70
     1
102
RTVSPropertyOp59
 70
     1
102
RTVSPropertyOp60
 70
     1
102
RTVSPropertyOp61
 70
     1
102
RTVSPropertyOp62
 70
     1
  0
XRECORD
  5
35C
102
{ACAD_REACTORS
330
35B
102
}
330
35B
100
AcDbXrecord
280
     1
102
RTVSPost2010Prop28
280
     0
102
RTVSPost2010PropOp28
 70
     1
102
RTVSPost2010Prop29
280
     1
102
RTVSPost2010PropOp29
 70
     1
102
RTVSPost2010Prop30
280
     1
102
RTVSPost2010PropOp30
 70
     1
102
RTVSPost2010Prop31
280
     0
102
RTVSPost2010PropOp31
 70
     1
102
RTVSPost2010Prop32
280
     0
102
RTVSPost2010PropOp32
 70
     1
102
RTVSPost2010Prop33
280
     0
102
RTVSPost2010PropOp33
 70
     1
102
RTVSPost2010Prop34
280
     0
102
RTVSPost2010PropOp34
 70
     1
102
RTVSPost2010Prop35
280
     0
102
RTVSPost2010PropOp35
 70
     1
102
RTVSPost2010Prop36
280
     0
102
RTVSPost2010PropOp36
 70
     1
102
RTVSPost2010Prop37
 90
       50
102
RTVSPost2010PropOp37
 70
     1
102
RTVSPost2010Prop38
140
0.0
102
RTVSPost2010PropOp38
 70
     1
102
RTVSPost2010Prop39
140
1.0
102
RTVSPost2010PropOp39
 70
     1
102
RTVSPost2010Prop40
 90
        0
102
RTVSPost2010PropOp40
 70
     1
102
RTVSPost2010Prop41ColorIndex
 90
       18
102
RTVSPost2010Prop41ColorRGB
 90
        0
102
RTVSPost2010PropOp41
 70
     1
102
RTVSPost2010Prop42
 90
       50
102
RTVSPost2010PropOp42
 70
     1
102
RTVSPost2010Prop43
 90
        3
102
RTVSPost2010PropOp43
 70
     1
102
RTVSPost2010Prop44ColorIndex
 90
        5
102
RTVSPost2010Prop44ColorRGB
 90
      255
102
RTVSPost2010PropOp44
 70
     1
102
RTVSPost2010Prop45
280
     0
102
RTVSPost2010PropOp45
 70
     1
102
RTVSPost2010Prop46
 90
       50
102
RTVSPost2010PropOp46
 70
     1
102
RTVSPost2010Prop47
 90
       50
102
RTVSPost2010PropOp47
 70
     1
102
RTVSPost2010Prop48
 90
       50
102
RTVSPost2010PropOp48
 70
     1
102
RTVSPost2010Prop49
280
     0
102
RTVSPost2010PropOp49
 70
     1
102
RTVSPost2010Prop50
 90
       50
102
RTVSPost2010PropOp50
 70
     1
102
RTVSPost2010Prop51ColorIndex
 90
      256
102
RTVSPost2010Prop51ColorRGB
 90
-16777216
102
RTVSPost2010PropOp51
 70
     0
102
RTVSPost2010Prop52
140
1.0
102
RTVSPost2010PropOp52
 70
     0
102
RTVSPost2010Prop53
 90
        2
102
RTVSPost2010PropOp53
 70
     1
102
RTVSPost2010Prop54
  1
strokes_ogs.tif
102
RTVSPost2010PropOp54
 70
     1
102
RTVSPost2010Prop55
280
     0
102
RTVSPost2010PropOp55
 70
     1
102
RTVSPost2010Prop56
140
1.0
102
RTVSPost2010PropOp56
 70
     1
102
RTVSPost2010Prop57
140
1.0
102
RTVSPost2010PropOp57
 70
     1
102
RTVSPropertyOp0
 70
     1
102
RTVSPropertyOp1
 70
     1
102
RTVSPropertyOp2
 70
     1
102
RTVSPropertyOp3
 70
     1
102
RTVSPropertyOp4
 70
     1
102
RTVSPropertyOp5
 70
     1
102
RTVSPropertyOp6
 70
     1
102
RTVSPropertyOp7
 70
     1
102
RTVSPropertyOp8
 70
     1
102
RTVSPropertyOp9
 70
     1
102
RTVSPropertyOp10
 70
     1
102
RTVSPropertyOp11
 70
     1
102
RTVSPropertyOp12
 70
     1
102
RTVSPropertyOp13
 70
     1
102
RTVSPropertyOp14
 70
     1
102
RTVSPropertyOp15
 70
     1
102
RTVSPropertyOp16
 70
     1
102
RTVSPropertyOp17
 70
     1
102
RTVSPropertyOp18
 70
     1
102
RTVSPropertyOp19
 70
     1
102
RTVSPropertyOp20
 70
     1
102
RTVSPropertyOp21
 70
     1
102
RTVSPropertyOp22
 70
     1
102
RTVSPropertyOp23
 70
     1
102
RTVSPropertyOp24
 70
     1
102
RTVSPropertyOp25
 70
     1
102
RTVSPropertyOp26
 70
     1
102
RTVSPropertyOp27
 70
     1
102
RTVSPropertyOp28
 70
     1
102
RTVSPropertyOp29
 70
     1
102
RTVSPropertyOp30
 70
     1
102
RTVSPropertyOp31
 70
     1
102
RTVSPropertyOp32
 70
     1
102
RTVSPropertyOp33
 70
     1
102
RTVSPropertyOp34
 70
     1
102
RTVSPropertyOp35
 70
     1
102
RTVSPropertyOp36
 70
     1
102
RTVSPropertyOp37
 70
     1
102
RTVSPropertyOp38
 70
     1
102
RTVSPropertyOp39
 70
     1
102
RTVSPropertyOp40
 70
     1
102
RTVSPropertyOp41
 70
     1
102
RTVSPropertyOp42
 70
     1
102
RTVSPropertyOp43
 70
     1
102
RTVSPropertyOp44
 70
     1
102
RTVSPropertyOp45
 70
     1
102
RTVSPropertyOp46
 70
     1
102
RTVSPropertyOp47
 70
     1
102
RTVSPropertyOp48
 70
     1
102
RTVSPropertyOp49
 70
     1
102
RTVSPropertyOp50
 70
     1
102
RTVSPropertyOp51
 70
     0
102
RTVSPropertyOp52
 70
     0
102
RTVSPropertyOp53
 70
     1
102
RTVSPropertyOp54
 70
     1
102
RTVSPropertyOp55
 70
     1
102
RTVSPropertyOp56
 70
     1
102
RTVSPropertyOp57
 70
     1
102
RTVSPropertyOp58
 70
     1
102
RTVSPropertyOp59
 70
     1
102
RTVSPropertyOp60
 70
     1
102
RTVSPropertyOp61
 70
     1
102
RTVSPropertyOp62
 70
     1
  0
XRECORD
  5
35E
102
{ACAD_REACTORS
330
35D
102
}
330
35D
100
AcDbXrecord
280
     1
102
RTVSPost2010Prop28
280
     0
102
RTVSPost2010PropOp28
 70
     1
102
RTVSPost2010Prop29
280
     1
102
RTVSPost2010PropOp29
 70
     1
102
RTVSPost2010Prop30
280
     1
102
RTVSPost2010PropOp30
 70
     1
102
RTVSPost2010Prop31
280
     0
102
RTVSPost2010PropOp31
 70
     1
102
RTVSPost2010Prop32
280
     0
102
RTVSPost2010PropOp32
 70
     1
102
RTVSPost2010Prop33
280
     0
102
RTVSPost2010PropOp33
 70
     1
102
RTVSPost2010Prop34
280
     0
102
RTVSPost2010PropOp34
 70
     1
102
RTVSPost2010Prop35
280
     0
102
RTVSPost2010PropOp35
 70
     1
102
RTVSPost2010Prop36
280
     0
102
RTVSPost2010PropOp36
 70
     1
102
RTVSPost2010Prop37
 90
       50
102
RTVSPost2010PropOp37
 70
     1
102
RTVSPost2010Prop38
140
0.0
102
RTVSPost2010PropOp38
 70
     1
102
RTVSPost2010Prop39
140
1.0
102
RTVSPost2010PropOp39
 70
     1
102
RTVSPost2010Prop40
 90
        0
102
RTVSPost2010PropOp40
 70
     1
102
RTVSPost2010Prop41ColorIndex
 90
       18
102
RTVSPost2010Prop41ColorRGB
 90
        0
102
RTVSPost2010PropOp41
 70
     1
102
RTVSPost2010Prop42
 90
       50
102
RTVSPost2010PropOp42
 70
     1
102
RTVSPost2010Prop43
 90
        3
102
RTVSPost2010PropOp43
 70
     1
102
RTVSPost2010Prop44ColorIndex
 90
        5
102
RTVSPost2010Prop44ColorRGB
 90
      255
102
RTVSPost2010PropOp44
 70
     1
102
RTVSPost2010Prop45
280
     0
102
RTVSPost2010PropOp45
 70
     1
102
RTVSPost2010Prop46
 90
       50
102
RTVSPost2010PropOp46
 70
     1
102
RTVSPost2010Prop47
 90
       50
102
RTVSPost2010PropOp47
 70
     1
102
RTVSPost2010Prop48
 90
       50
102
RTVSPost2010PropOp48
 70
     1
102
RTVSPost2010Prop49
280
     0
102
RTVSPost2010PropOp49
 70
     1
102
RTVSPost2010Prop50
 90
       50
102
RTVSPost2010PropOp50
 70
     1
102
RTVSPost2010Prop51ColorIndex
 90
      256
102
RTVSPost2010Prop51ColorRGB
 90
-16777216
102
RTVSPost2010PropOp51
 70
     0
102
RTVSPost2010Prop52
140
1.0
102
RTVSPost2010PropOp52
 70
     0
102
RTVSPost2010Prop53
 90
        2
102
RTVSPost2010PropOp53
 70
     1
102
RTVSPost2010Prop54
  1
strokes_ogs.tif
102
RTVSPost2010PropOp54
 70
     1
102
RTVSPost2010Prop55
280
     0
102
RTVSPost2010PropOp55
 70
     1
102
RTVSPost2010Prop56
140
1.0
102
RTVSPost2010PropOp56
 70
     1
102
RTVSPost2010Prop57
140
1.0
102
RTVSPost2010PropOp57
 70
     1
102
RTVSPropertyOp0
 70
     1
102
RTVSPropertyOp1
 70
     1
102
RTVSPropertyOp2
 70
     1
102
RTVSPropertyOp3
 70
     1
102
RTVSPropertyOp4
 70
     1
102
RTVSPropertyOp5
 70
     1
102
RTVSPropertyOp6
 70
     1
102
RTVSPropertyOp7
 70
     1
102
RTVSPropertyOp8
 70
     1
102
RTVSPropertyOp9
 70
     1
102
RTVSPropertyOp10
 70
     1
102
RTVSPropertyOp11
 70
     1
102
RTVSPropertyOp12
 70
     1
102
RTVSPropertyOp13
 70
     1
102
RTVSPropertyOp14
 70
     1
102
RTVSPropertyOp15
 70
     1
102
RTVSPropertyOp16
 70
     1
102
RTVSPropertyOp17
 70
     1
102
RTVSPropertyOp18
 70
     1
102
RTVSPropertyOp19
 70
     1
102
RTVSPropertyOp20
 70
     1
102
RTVSPropertyOp21
 70
     1
102
RTVSPropertyOp22
 70
     1
102
RTVSPropertyOp23
 70
     1
102
RTVSPropertyOp24
 70
     1
102
RTVSPropertyOp25
 70
     1
102
RTVSPropertyOp26
 70
     1
102
RTVSPropertyOp27
 70
     1
102
RTVSPropertyOp28
 70
     1
102
RTVSPropertyOp29
 70
     1
102
RTVSPropertyOp30
 70
     1
102
RTVSPropertyOp31
 70
     1
102
RTVSPropertyOp32
 70
     1
102
RTVSPropertyOp33
 70
     1
102
RTVSPropertyOp34
 70
     1
102
RTVSPropertyOp35
 70
     1
102
RTVSPropertyOp36
 70
     1
102
RTVSPropertyOp37
 70
     1
102
RTVSPropertyOp38
 70
     1
102
RTVSPropertyOp39
 70
     1
102
RTVSPropertyOp40
 70
     1
102
RTVSPropertyOp41
 70
     1
102
RTVSPropertyOp42
 70
     1
102
RTVSPropertyOp43
 70
     1
102
RTVSPropertyOp44
 70
     1
102
RTVSPropertyOp45
 70
     1
102
RTVSPropertyOp46
 70
     1
102
RTVSPropertyOp47
 70
     1
102
RTVSPropertyOp48
 70
     1
102
RTVSPropertyOp49
 70
     1
102
RTVSPropertyOp50
 70
     1
102
RTVSPropertyOp51
 70
     0
102
RTVSPropertyOp52
 70
     0
102
RTVSPropertyOp53
 70
     1
102
RTVSPropertyOp54
 70
     1
102
RTVSPropertyOp55
 70
     1
102
RTVSPropertyOp56
 70
     1
102
RTVSPropertyOp57
 70
     1
102
RTVSPropertyOp58
 70
     1
102
RTVSPropertyOp59
 70
     1
102
RTVSPropertyOp60
 70
     1
102
RTVSPropertyOp61
 70
     1
102
RTVSPropertyOp62
 70
     1
  0
XRECORD
  5
360
102
{ACAD_REACTORS
330
35F
102
}
330
35F
100
AcDbXrecord
280
     1
102
RTVSPost2010Prop28
280
     0
102
RTVSPost2010PropOp28
 70
     1
102
RTVSPost2010Prop29
280
     1
102
RTVSPost2010PropOp29
 70
     1
102
RTVSPost2010Prop30
280
     1
102
RTVSPost2010PropOp30
 70
     1
102
RTVSPost2010Prop31
280
     0
102
RTVSPost2010PropOp31
 70
     1
102
RTVSPost2010Prop32
280
     0
102
RTVSPost2010PropOp32
 70
     1
102
RTVSPost2010Prop33
280
     0
102
RTVSPost2010PropOp33
 70
     1
102
RTVSPost2010Prop34
280
     0
102
RTVSPost2010PropOp34
 70
     1
102
RTVSPost2010Prop35
280
     0
102
RTVSPost2010PropOp35
 70
     1
102
RTVSPost2010Prop36
280
     0
102
RTVSPost2010PropOp36
 70
     1
102
RTVSPost2010Prop37
 90
       50
102
RTVSPost2010PropOp37
 70
     1
102
RTVSPost2010Prop38
140
0.0
102
RTVSPost2010PropOp38
 70
     1
102
RTVSPost2010Prop39
140
1.0
102
RTVSPost2010PropOp39
 70
     1
102
RTVSPost2010Prop40
 90
        0
102
RTVSPost2010PropOp40
 70
     1
102
RTVSPost2010Prop41ColorIndex
 90
       18
102
RTVSPost2010Prop41ColorRGB
 90
        0
102
RTVSPost2010PropOp41
 70
     1
102
RTVSPost2010Prop42
 90
       50
102
RTVSPost2010PropOp42
 70
     1
102
RTVSPost2010Prop43
 90
        3
102
RTVSPost2010PropOp43
 70
     1
102
RTVSPost2010Prop44ColorIndex
 90
        5
102
RTVSPost2010Prop44ColorRGB
 90
      255
102
RTVSPost2010PropOp44
 70
     1
102
RTVSPost2010Prop45
280
     0
102
RTVSPost2010PropOp45
 70
     1
102
RTVSPost2010Prop46
 90
       50
102
RTVSPost2010PropOp46
 70
     1
102
RTVSPost2010Prop47
 90
       50
102
RTVSPost2010PropOp47
 70
     1
102
RTVSPost2010Prop48
 90
       50
102
RTVSPost2010PropOp48
 70
     1
102
RTVSPost2010Prop49
280
     0
102
RTVSPost2010PropOp49
 70
     1
102
RTVSPost2010Prop50
 90
       50
102
RTVSPost2010PropOp50
 70
     1
102
RTVSPost2010Prop51ColorIndex
 90
      256
102
RTVSPost2010Prop51ColorRGB
 90
-16777216
102
RTVSPost2010PropOp51
 70
     0
102
RTVSPost2010Prop52
140
1.0
102
RTVSPost2010PropOp52
 70
     0
102
RTVSPost2010Prop53
 90
        2
102
RTVSPost2010PropOp53
 70
     1
102
RTVSPost2010Prop54
  1
strokes_ogs.tif
102
RTVSPost2010PropOp54
 70
     1
102
RTVSPost2010Prop55
280
     0
102
RTVSPost2010PropOp55
 70
     1
102
RTVSPost2010Prop56
140
1.0
102
RTVSPost2010PropOp56
 70
     1
102
RTVSPost2010Prop57
140
1.0
102
RTVSPost2010PropOp57
 70
     1
102
RTVSPropertyOp0
 70
     1
102
RTVSPropertyOp1
 70
     1
102
RTVSPropertyOp2
 70
     1
102
RTVSPropertyOp3
 70
     1
102
RTVSPropertyOp4
 70
     1
102
RTVSPropertyOp5
 70
     1
102
RTVSPropertyOp6
 70
     1
102
RTVSPropertyOp7
 70
     1
102
RTVSPropertyOp8
 70
     1
102
RTVSPropertyOp9
 70
     1
102
RTVSPropertyOp10
 70
     1
102
RTVSPropertyOp11
 70
     1
102
RTVSPropertyOp12
 70
     1
102
RTVSPropertyOp13
 70
     1
102
RTVSPropertyOp14
 70
     1
102
RTVSPropertyOp15
 70
     1
102
RTVSPropertyOp16
 70
     1
102
RTVSPropertyOp17
 70
     1
102
RTVSPropertyOp18
 70
     1
102
RTVSPropertyOp19
 70
     1
102
RTVSPropertyOp20
 70
     1
102
RTVSPropertyOp21
 70
     1
102
RTVSPropertyOp22
 70
     1
102
RTVSPropertyOp23
 70
     1
102
RTVSPropertyOp24
 70
     1
102
RTVSPropertyOp25
 70
     1
102
RTVSPropertyOp26
 70
     1
102
RTVSPropertyOp27
 70
     1
102
RTVSPropertyOp28
 70
     1
102
RTVSPropertyOp29
 70
     1
102
RTVSPropertyOp30
 70
     1
102
RTVSPropertyOp31
 70
     1
102
RTVSPropertyOp32
 70
     1
102
RTVSPropertyOp33
 70
     1
102
RTVSPropertyOp34
 70
     1
102
RTVSPropertyOp35
 70
     1
102
RTVSPropertyOp36
 70
     1
102
RTVSPropertyOp37
 70
     1
102
RTVSPropertyOp38
 70
     1
102
RTVSPropertyOp39
 70
     1
102
RTVSPropertyOp40
 70
     1
102
RTVSPropertyOp41
 70
     1
102
RTVSPropertyOp42
 70
     1
102
RTVSPropertyOp43
 70
     1
102
RTVSPropertyOp44
 70
     1
102
RTVSPropertyOp45
 70
     1
102
RTVSPropertyOp46
 70
     1
102
RTVSPropertyOp47
 70
     1
102
RTVSPropertyOp48
 70
     1
102
RTVSPropertyOp49
 70
     1
102
RTVSPropertyOp50
 70
     1
102
RTVSPropertyOp51
 70
     0
102
RTVSPropertyOp52
 70
     0
102
RTVSPropertyOp53
 70
     1
102
RTVSPropertyOp54
 70
     1
102
RTVSPropertyOp55
 70
     1
102
RTVSPropertyOp56
 70
     1
102
RTVSPropertyOp57
 70
     1
102
RTVSPropertyOp58
 70
     1
102
RTVSPropertyOp59
 70
     1
102
RTVSPropertyOp60
 70
     1
102
RTVSPropertyOp61
 70
     1
102
RTVSPropertyOp62
 70
     1
  0
XRECORD
  5
368
102
{ACAD_REACTORS
330
367
102
}
330
367
100
AcDbXrecord
280
     1
102
RTVSPost2010Prop28
280
     0
102
RTVSPost2010PropOp28
 70
     1
102
RTVSPost2010Prop29
280
     1
102
RTVSPost2010PropOp29
 70
     1
102
RTVSPost2010Prop30
280
     1
102
RTVSPost2010PropOp30
 70
     1
102
RTVSPost2010Prop31
280
     0
102
RTVSPost2010PropOp31
 70
     1
102
RTVSPost2010Prop32
280
     0
102
RTVSPost2010PropOp32
 70
     1
102
RTVSPost2010Prop33
280
     0
102
RTVSPost2010PropOp33
 70
     1
102
RTVSPost2010Prop34
280
     0
102
RTVSPost2010PropOp34
 70
     1
102
RTVSPost2010Prop35
280
     0
102
RTVSPost2010PropOp35
 70
     1
102
RTVSPost2010Prop36
280
     0
102
RTVSPost2010PropOp36
 70
     1
102
RTVSPost2010Prop37
 90
       50
102
RTVSPost2010PropOp37
 70
     1
102
RTVSPost2010Prop38
140
0.0
102
RTVSPost2010PropOp38
 70
     1
102
RTVSPost2010Prop39
140
1.0
102
RTVSPost2010PropOp39
 70
     1
102
RTVSPost2010Prop40
 90
        0
102
RTVSPost2010PropOp40
 70
     1
102
RTVSPost2010Prop41ColorIndex
 90
       18
102
RTVSPost2010Prop41ColorRGB
 90
        0
102
RTVSPost2010PropOp41
 70
     1
102
RTVSPost2010Prop42
 90
       50
102
RTVSPost2010PropOp42
 70
     1
102
RTVSPost2010Prop43
 90
        3
102
RTVSPost2010PropOp43
 70
     1
102
RTVSPost2010Prop44ColorIndex
 90
        5
102
RTVSPost2010Prop44ColorRGB
 90
      255
102
RTVSPost2010PropOp44
 70
     1
102
RTVSPost2010Prop45
280
     0
102
RTVSPost2010PropOp45
 70
     1
102
RTVSPost2010Prop46
 90
       50
102
RTVSPost2010PropOp46
 70
     1
102
RTVSPost2010Prop47
 90
       50
102
RTVSPost2010PropOp47
 70
     1
102
RTVSPost2010Prop48
 90
       50
102
RTVSPost2010PropOp48
 70
     1
102
RTVSPost2010Prop49
280
     0
102
RTVSPost2010PropOp49
 70
     1
102
RTVSPost2010Prop50
 90
       50
102
RTVSPost2010PropOp50
 70
     1
102
RTVSPost2010Prop51ColorIndex
 90
      256
102
RTVSPost2010Prop51ColorRGB
 90
-16777216
102
RTVSPost2010PropOp51
 70
     0
102
RTVSPost2010Prop52
140
1.0
102
RTVSPost2010PropOp52
 70
     0
102
RTVSPost2010Prop53
 90
        2
102
RTVSPost2010PropOp53
 70
     1
102
RTVSPost2010Prop54
  1
strokes_ogs.tif
102
RTVSPost2010PropOp54
 70
     1
102
RTVSPost2010Prop55
280
     0
102
RTVSPost2010PropOp55
 70
     1
102
RTVSPost2010Prop56
140
1.0
102
RTVSPost2010PropOp56
 70
     1
102
RTVSPost2010Prop57
140
1.0
102
RTVSPost2010PropOp57
 70
     1
102
RTVSPropertyOp0
 70
     1
102
RTVSPropertyOp1
 70
     1
102
RTVSPropertyOp2
 70
     1
102
RTVSPropertyOp3
 70
     1
102
RTVSPropertyOp4
 70
     1
102
RTVSPropertyOp5
 70
     1
102
RTVSPropertyOp6
 70
     1
102
RTVSPropertyOp7
 70
     1
102
RTVSPropertyOp8
 70
     1
102
RTVSPropertyOp9
 70
     1
102
RTVSPropertyOp10
 70
     1
102
RTVSPropertyOp11
 70
     1
102
RTVSPropertyOp12
 70
     1
102
RTVSPropertyOp13
 70
     1
102
RTVSPropertyOp14
 70
     1
102
RTVSPropertyOp15
 70
     1
102
RTVSPropertyOp16
 70
     1
102
RTVSPropertyOp17
 70
     1
102
RTVSPropertyOp18
 70
     1
102
RTVSPropertyOp19
 70
     1
102
RTVSPropertyOp20
 70
     1
102
RTVSPropertyOp21
 70
     1
102
RTVSPropertyOp22
 70
     1
102
RTVSPropertyOp23
 70
     1
102
RTVSPropertyOp24
 70
     1
102
RTVSPropertyOp25
 70
     1
102
RTVSPropertyOp26
 70
     1
102
RTVSPropertyOp27
 70
     1
102
RTVSPropertyOp28
 70
     1
102
RTVSPropertyOp29
 70
     1
102
RTVSPropertyOp30
 70
     1
102
RTVSPropertyOp31
 70
     1
102
RTVSPropertyOp32
 70
     1
102
RTVSPropertyOp33
 70
     1
102
RTVSPropertyOp34
 70
     1
102
RTVSPropertyOp35
 70
     1
102
RTVSPropertyOp36
 70
     1
102
RTVSPropertyOp37
 70
     1
102
RTVSPropertyOp38
 70
     1
102
RTVSPropertyOp39
 70
     1
102
RTVSPropertyOp40
 70
     1
102
RTVSPropertyOp41
 70
     1
102
RTVSPropertyOp42
 70
     1
102
RTVSPropertyOp43
 70
     1
102
RTVSPropertyOp44
 70
     1
102
RTVSPropertyOp45
 70
     1
102
RTVSPropertyOp46
 70
     1
102
RTVSPropertyOp47
 70
     1
102
RTVSPropertyOp48
 70
     1
102
RTVSPropertyOp49
 70
     1
102
RTVSPropertyOp50
 70
     1
102
RTVSPropertyOp51
 70
     0
102
RTVSPropertyOp52
 70
     0
102
RTVSPropertyOp53
 70
     1
102
RTVSPropertyOp54
 70
     1
102
RTVSPropertyOp55
 70
     1
102
RTVSPropertyOp56
 70
     1
102
RTVSPropertyOp57
 70
     1
102
RTVSPropertyOp58
 70
     1
102
RTVSPropertyOp59
 70
     1
102
RTVSPropertyOp60
 70
     1
102
RTVSPropertyOp61
 70
     1
102
RTVSPropertyOp62
 70
     1
  0
XRECORD
  5
384
102
{ACAD_REACTORS
330
383
102
}
330
383
100
AcDbXrecord
280
     1
102
RTVSPost2010Prop28
280
     0
102
RTVSPost2010PropOp28
 70
     1
102
RTVSPost2010Prop29
280
     1
102
RTVSPost2010PropOp29
 70
     1
102
RTVSPost2010Prop30
280
     1
102
RTVSPost2010PropOp30
 70
     1
102
RTVSPost2010Prop31
280
     0
102
RTVSPost2010PropOp31
 70
     1
102
RTVSPost2010Prop32
280
     0
102
RTVSPost2010PropOp32
 70
     1
102
RTVSPost2010Prop33
280
     0
102
RTVSPost2010PropOp33
 70
     1
102
RTVSPost2010Prop34
280
     0
102
RTVSPost2010PropOp34
 70
     1
102
RTVSPost2010Prop35
280
     0
102
RTVSPost2010PropOp35
 70
     1
102
RTVSPost2010Prop36
280
     0
102
RTVSPost2010PropOp36
 70
     1
102
RTVSPost2010Prop37
 90
       50
102
RTVSPost2010PropOp37
 70
     0
102
RTVSPost2010Prop38
140
0.0
102
RTVSPost2010PropOp38
 70
     0
102
RTVSPost2010Prop39
140
1.0
102
RTVSPost2010PropOp39
 70
     0
102
RTVSPost2010Prop40
 90
        0
102
RTVSPost2010PropOp40
 70
     0
102
RTVSPost2010Prop41ColorIndex
 90
       18
102
RTVSPost2010Prop41ColorRGB
 90
        0
102
RTVSPost2010PropOp41
 70
     0
102
RTVSPost2010Prop42
 90
       50
102
RTVSPost2010PropOp42
 70
     0
102
RTVSPost2010Prop43
 90
        3
102
RTVSPost2010PropOp43
 70
     0
102
RTVSPost2010Prop44ColorIndex
 90
        5
102
RTVSPost2010Prop44ColorRGB
 90
      255
102
RTVSPost2010PropOp44
 70
     0
102
RTVSPost2010Prop45
280
     0
102
RTVSPost2010PropOp45
 70
     1
102
RTVSPost2010Prop46
 90
       50
102
RTVSPost2010PropOp46
 70
     0
102
RTVSPost2010Prop47
 90
       50
102
RTVSPost2010PropOp47
 70
     0
102
RTVSPost2010Prop48
 90
       50
102
RTVSPost2010PropOp48
 70
     0
102
RTVSPost2010Prop49
280
     0
102
RTVSPost2010PropOp49
 70
     1
102
RTVSPost2010Prop50
 90
       50
102
RTVSPost2010PropOp50
 70
     0
102
RTVSPost2010Prop51ColorIndex
 90
      256
102
RTVSPost2010Prop51ColorRGB
 90
-16777216
102
RTVSPost2010PropOp51
 70
     0
102
RTVSPost2010Prop52
140
1.0
102
RTVSPost2010PropOp52
 70
     0
102
RTVSPost2010Prop53
 90
        2
102
RTVSPost2010PropOp53
 70
     0
102
RTVSPost2010Prop54
  1
strokes_ogs.tif
102
RTVSPost2010PropOp54
 70
     0
102
RTVSPost2010Prop55
280
     0
102
RTVSPost2010PropOp55
 70
     1
102
RTVSPost2010Prop56
140
1.0
102
RTVSPost2010PropOp56
 70
     0
102
RTVSPost2010Prop57
140
1.0
102
RTVSPost2010PropOp57
 70
     0
102
RTVSPropertyOp0
 70
     0
102
RTVSPropertyOp1
 70
     0
102
RTVSPropertyOp2
 70
     0
102
RTVSPropertyOp3
 70
     0
102
RTVSPropertyOp4
 70
     0
102
RTVSPropertyOp5
 70
     0
102
RTVSPropertyOp6
 70
     0
102
RTVSPropertyOp7
 70
     0
102
RTVSPropertyOp8
 70
     0
102
RTVSPropertyOp9
 70
     0
102
RTVSPropertyOp10
 70
     0
102
RTVSPropertyOp11
 70
     0
102
RTVSPropertyOp12
 70
     0
102
RTVSPropertyOp13
 70
     0
102
RTVSPropertyOp14
 70
     2
102
RTVSPropertyOp15
 70
     0
102
RTVSPropertyOp16
 70
     0
102
RTVSPropertyOp17
 70
     0
102
RTVSPropertyOp18
 70
     0
102
RTVSPropertyOp19
 70
     0
102
RTVSPropertyOp20
 70
     0
102
RTVSPropertyOp21
 70
     0
102
RTVSPropertyOp22
 70
     0
102
RTVSPropertyOp23
 70
     0
102
RTVSPropertyOp24
 70
     0
102
RTVSPropertyOp25
 70
     0
102
RTVSPropertyOp26
 70
     0
102
RTVSPropertyOp27
 70
     0
102
RTVSPropertyOp28
 70
     1
102
RTVSPropertyOp29
 70
     1
102
RTVSPropertyOp30
 70
     1
102
RTVSPropertyOp31
 70
     1
102
RTVSPropertyOp32
 70
     1
102
RTVSPropertyOp33
 70
     1
102
RTVSPropertyOp34
 70
     1
102
RTVSPropertyOp35
 70
     1
102
RTVSPropertyOp36
 70
     1
102
RTVSPropertyOp37
 70
     0
102
RTVSPropertyOp38
 70
     0
102
RTVSPropertyOp39
 70
     0
102
RTVSPropertyOp40
 70
     0
102
RTVSPropertyOp41
 70
     0
102
RTVSPropertyOp42
 70
     0
102
RTVSPropertyOp43
 70
     0
102
RTVSPropertyOp44
 70
     0
102
RTVSPropertyOp45
 70
     1
102
RTVSPropertyOp46
 70
     0
102
RTVSPropertyOp47
 70
     0
102
RTVSPropertyOp48
 70
     0
102
RTVSPropertyOp49
 70
     1
102
RTVSPropertyOp50
 70
     0
102
RTVSPropertyOp51
 70
     0
102
RTVSPropertyOp52
 70
     0
102
RTVSPropertyOp53
 70
     0
102
RTVSPropertyOp54
 70
     0
102
RTVSPropertyOp55
 70
     1
102
RTVSPropertyOp56
 70
     0
102
RTVSPropertyOp57
 70
     0
102
RTVSPropertyOp58
 70
     0
102
RTVSPropertyOp59
 70
     0
102
RTVSPropertyOp60
 70
     0
102
RTVSPropertyOp61
 70
     0
102
RTVSPropertyOp62
 70
     0
  0
XRECORD
  5
374
102
{ACAD_REACTORS
330
373
102
}
330
373
100
AcDbXrecord
280
     1
102
RTVSPost2010Prop28
280
     0
102
RTVSPost2010PropOp28
 70
     1
102
RTVSPost2010Prop29
280
     1
102
RTVSPost2010PropOp29
 70
     1
102
RTVSPost2010Prop30
280
     1
102
RTVSPost2010PropOp30
 70
     1
102
RTVSPost2010Prop31
280
     0
102
RTVSPost2010PropOp31
 70
     1
102
RTVSPost2010Prop32
280
     0
102
RTVSPost2010PropOp32
 70
     1
102
RTVSPost2010Prop33
280
     0
102
RTVSPost2010PropOp33
 70
     1
102
RTVSPost2010Prop34
280
     0
102
RTVSPost2010PropOp34
 70
     1
102
RTVSPost2010Prop35
280
     0
102
RTVSPost2010PropOp35
 70
     1
102
RTVSPost2010Prop36
280
     0
102
RTVSPost2010PropOp36
 70
     1
102
RTVSPost2010Prop37
 90
       50
102
RTVSPost2010PropOp37
 70
     1
102
RTVSPost2010Prop38
140
0.0
102
RTVSPost2010PropOp38
 70
     1
102
RTVSPost2010Prop39
140
1.0
102
RTVSPost2010PropOp39
 70
     1
102
RTVSPost2010Prop40
 90
        0
102
RTVSPost2010PropOp40
 70
     1
102
RTVSPost2010Prop41ColorIndex
 90
       18
102
RTVSPost2010Prop41ColorRGB
 90
        0
102
RTVSPost2010PropOp41
 70
     1
102
RTVSPost2010Prop42
 90
       50
102
RTVSPost2010PropOp42
 70
     1
102
RTVSPost2010Prop43
 90
        3
102
RTVSPost2010PropOp43
 70
     1
102
RTVSPost2010Prop44ColorIndex
 90
        5
102
RTVSPost2010Prop44ColorRGB
 90
      255
102
RTVSPost2010PropOp44
 70
     1
102
RTVSPost2010Prop45
280
     0
102
RTVSPost2010PropOp45
 70
     1
102
RTVSPost2010Prop46
 90
       50
102
RTVSPost2010PropOp46
 70
     1
102
RTVSPost2010Prop47
 90
       50
102
RTVSPost2010PropOp47
 70
     1
102
RTVSPost2010Prop48
 90
       50
102
RTVSPost2010PropOp48
 70
     1
102
RTVSPost2010Prop49
280
     0
102
RTVSPost2010PropOp49
 70
     1
102
RTVSPost2010Prop50
 90
       50
102
RTVSPost2010PropOp50
 70
     1
102
RTVSPost2010Prop51ColorIndex
 90
      256
102
RTVSPost2010Prop51ColorRGB
 90
-16777216
102
RTVSPost2010PropOp51
 70
     0
102
RTVSPost2010Prop52
140
1.0
102
RTVSPost2010PropOp52
 70
     0
102
RTVSPost2010Prop53
 90
        2
102
RTVSPost2010PropOp53
 70
     1
102
RTVSPost2010Prop54
  1
strokes_ogs.tif
102
RTVSPost2010PropOp54
 70
     1
102
RTVSPost2010Prop55
280
     0
102
RTVSPost2010PropOp55
 70
     1
102
RTVSPost2010Prop56
140
1.0
102
RTVSPost2010PropOp56
 70
     1
102
RTVSPost2010Prop57
140
1.0
102
RTVSPost2010PropOp57
 70
     1
102
RTVSPropertyOp0
 70
     1
102
RTVSPropertyOp1
 70
     1
102
RTVSPropertyOp2
 70
     1
102
RTVSPropertyOp3
 70
     1
102
RTVSPropertyOp4
 70
     1
102
RTVSPropertyOp5
 70
     1
102
RTVSPropertyOp6
 70
     1
102
RTVSPropertyOp7
 70
     1
102
RTVSPropertyOp8
 70
     1
102
RTVSPropertyOp9
 70
     1
102
RTVSPropertyOp10
 70
     1
102
RTVSPropertyOp11
 70
     1
102
RTVSPropertyOp12
 70
     1
102
RTVSPropertyOp13
 70
     1
102
RTVSPropertyOp14
 70
     1
102
RTVSPropertyOp15
 70
     1
102
RTVSPropertyOp16
 70
     1
102
RTVSPropertyOp17
 70
     1
102
RTVSPropertyOp18
 70
     1
102
RTVSPropertyOp19
 70
     1
102
RTVSPropertyOp20
 70
     1
102
RTVSPropertyOp21
 70
     1
102
RTVSPropertyOp22
 70
     1
102
RTVSPropertyOp23
 70
     1
102
RTVSPropertyOp24
 70
     1
102
RTVSPropertyOp25
 70
     1
102
RTVSPropertyOp26
 70
     1
102
RTVSPropertyOp27
 70
     1
102
RTVSPropertyOp28
 70
     1
102
RTVSPropertyOp29
 70
     1
102
RTVSPropertyOp30
 70
     1
102
RTVSPropertyOp31
 70
     1
102
RTVSPropertyOp32
 70
     1
102
RTVSPropertyOp33
 70
     1
102
RTVSPropertyOp34
 70
     1
102
RTVSPropertyOp35
 70
     1
102
RTVSPropertyOp36
 70
     1
102
RTVSPropertyOp37
 70
     1
102
RTVSPropertyOp38
 70
     1
102
RTVSPropertyOp39
 70
     1
102
RTVSPropertyOp40
 70
     1
102
RTVSPropertyOp41
 70
     1
102
RTVSPropertyOp42
 70
     1
102
RTVSPropertyOp43
 70
     1
102
RTVSPropertyOp44
 70
     1
102
RTVSPropertyOp45
 70
     1
102
RTVSPropertyOp46
 70
     1
102
RTVSPropertyOp47
 70
     1
102
RTVSPropertyOp48
 70
     1
102
RTVSPropertyOp49
 70
     1
102
RTVSPropertyOp50
 70
     1
102
RTVSPropertyOp51
 70
     0
102
RTVSPropertyOp52
 70
     0
102
RTVSPropertyOp53
 70
     1
102
RTVSPropertyOp54
 70
     1
102
RTVSPropertyOp55
 70
     1
102
RTVSPropertyOp56
 70
     1
102
RTVSPropertyOp57
 70
     1
102
RTVSPropertyOp58
 70
     1
102
RTVSPropertyOp59
 70
     1
102
RTVSPropertyOp60
 70
     1
102
RTVSPropertyOp61
 70
     1
102
RTVSPropertyOp62
 70
     1
  0
XRECORD
  5
386
102
{ACAD_REACTORS
330
385
102
}
330
385
100
AcDbXrecord
280
     1
102
RTVSPost2010Prop28
280
     0
102
RTVSPost2010PropOp28
 70
     1
102
RTVSPost2010Prop29
280
     1
102
RTVSPost2010PropOp29
 70
     1
102
RTVSPost2010Prop30
280
     1
102
RTVSPost2010PropOp30
 70
     1
102
RTVSPost2010Prop31
280
     0
102
RTVSPost2010PropOp31
 70
     1
102
RTVSPost2010Prop32
280
     0
102
RTVSPost2010PropOp32
 70
     1
102
RTVSPost2010Prop33
280
     0
102
RTVSPost2010PropOp33
 70
     1
102
RTVSPost2010Prop34
280
     0
102
RTVSPost2010PropOp34
 70
     1
102
RTVSPost2010Prop35
280
     0
102
RTVSPost2010PropOp35
 70
     1
102
RTVSPost2010Prop36
280
     0
102
RTVSPost2010PropOp36
 70
     1
102
RTVSPost2010Prop37
 90
       50
102
RTVSPost2010PropOp37
 70
     0
102
RTVSPost2010Prop38
140
0.0
102
RTVSPost2010PropOp38
 70
     0
102
RTVSPost2010Prop39
140
1.0
102
RTVSPost2010PropOp39
 70
     0
102
RTVSPost2010Prop40
 90
        0
102
RTVSPost2010PropOp40
 70
     0
102
RTVSPost2010Prop41ColorIndex
 90
       18
102
RTVSPost2010Prop41ColorRGB
 90
        0
102
RTVSPost2010PropOp41
 70
     0
102
RTVSPost2010Prop42
 90
       50
102
RTVSPost2010PropOp42
 70
     0
102
RTVSPost2010Prop43
 90
        3
102
RTVSPost2010PropOp43
 70
     0
102
RTVSPost2010Prop44ColorIndex
 90
        5
102
RTVSPost2010Prop44ColorRGB
 90
      255
102
RTVSPost2010PropOp44
 70
     0
102
RTVSPost2010Prop45
280
     0
102
RTVSPost2010PropOp45
 70
     1
102
RTVSPost2010Prop46
 90
       50
102
RTVSPost2010PropOp46
 70
     0
102
RTVSPost2010Prop47
 90
       50
102
RTVSPost2010PropOp47
 70
     0
102
RTVSPost2010Prop48
 90
       50
102
RTVSPost2010PropOp48
 70
     0
102
RTVSPost2010Prop49
280
     0
102
RTVSPost2010PropOp49
 70
     1
102
RTVSPost2010Prop50
 90
       50
102
RTVSPost2010PropOp50
 70
     0
102
RTVSPost2010Prop51ColorIndex
 90
      256
102
RTVSPost2010Prop51ColorRGB
 90
-16777216
102
RTVSPost2010PropOp51
 70
     0
102
RTVSPost2010Prop52
140
1.0
102
RTVSPost2010PropOp52
 70
     0
102
RTVSPost2010Prop53
 90
        2
102
RTVSPost2010PropOp53
 70
     0
102
RTVSPost2010Prop54
  1
strokes_ogs.tif
102
RTVSPost2010PropOp54
 70
     0
102
RTVSPost2010Prop55
280
     0
102
RTVSPost2010PropOp55
 70
     1
102
RTVSPost2010Prop56
140
1.0
102
RTVSPost2010PropOp56
 70
     0
102
RTVSPost2010Prop57
140
1.0
102
RTVSPost2010PropOp57
 70
     0
102
RTVSPropertyOp0
 70
     0
102
RTVSPropertyOp1
 70
     0
102
RTVSPropertyOp2
 70
     0
102
RTVSPropertyOp3
 70
     0
102
RTVSPropertyOp4
 70
     0
102
RTVSPropertyOp5
 70
     0
102
RTVSPropertyOp6
 70
     0
102
RTVSPropertyOp7
 70
     0
102
RTVSPropertyOp8
 70
     0
102
RTVSPropertyOp9
 70
     0
102
RTVSPropertyOp10
 70
     0
102
RTVSPropertyOp11
 70
     0
102
RTVSPropertyOp12
 70
     0
102
RTVSPropertyOp13
 70
     0
102
RTVSPropertyOp14
 70
     2
102
RTVSPropertyOp15
 70
     0
102
RTVSPropertyOp16
 70
     0
102
RTVSPropertyOp17
 70
     0
102
RTVSPropertyOp18
 70
     0
102
RTVSPropertyOp19
 70
     0
102
RTVSPropertyOp20
 70
     0
102
RTVSPropertyOp21
 70
     0
102
RTVSPropertyOp22
 70
     0
102
RTVSPropertyOp23
 70
     0
102
RTVSPropertyOp24
 70
     0
102
RTVSPropertyOp25
 70
     0
102
RTVSPropertyOp26
 70
     0
102
RTVSPropertyOp27
 70
     0
102
RTVSPropertyOp28
 70
     1
102
RTVSPropertyOp29
 70
     1
102
RTVSPropertyOp30
 70
     1
102
RTVSPropertyOp31
 70
     1
102
RTVSPropertyOp32
 70
     1
102
RTVSPropertyOp33
 70
     1
102
RTVSPropertyOp34
 70
     1
102
RTVSPropertyOp35
 70
     1
102
RTVSPropertyOp36
 70
     1
102
RTVSPropertyOp37
 70
     0
102
RTVSPropertyOp38
 70
     0
102
RTVSPropertyOp39
 70
     0
102
RTVSPropertyOp40
 70
     0
102
RTVSPropertyOp41
 70
     0
102
RTVSPropertyOp42
 70
     0
102
RTVSPropertyOp43
 70
     0
102
RTVSPropertyOp44
 70
     0
102
RTVSPropertyOp45
 70
     1
102
RTVSPropertyOp46
 70
     0
102
RTVSPropertyOp47
 70
     0
102
RTVSPropertyOp48
 70
     0
102
RTVSPropertyOp49
 70
     1
102
RTVSPropertyOp50
 70
     0
102
RTVSPropertyOp51
 70
     0
102
RTVSPropertyOp52
 70
     0
102
RTVSPropertyOp53
 70
     0
102
RTVSPropertyOp54
 70
     0
102
RTVSPropertyOp55
 70
     1
102
RTVSPropertyOp56
 70
     0
102
RTVSPropertyOp57
 70
     0
102
RTVSPropertyOp58
 70
     0
102
RTVSPropertyOp59
 70
     0
102
RTVSPropertyOp60
 70
     0
102
RTVSPropertyOp61
 70
     0
102
RTVSPropertyOp62
 70
     0
  0
XRECORD
  5
36C
102
{ACAD_REACTORS
330
36B
102
}
330
36B
100
AcDbXrecord
280
     1
102
RTVSPost2010Prop28
280
     0
102
RTVSPost2010PropOp28
 70
     1
102
RTVSPost2010Prop29
280
     1
102
RTVSPost2010PropOp29
 70
     1
102
RTVSPost2010Prop30
280
     1
102
RTVSPost2010PropOp30
 70
     1
102
RTVSPost2010Prop31
280
     0
102
RTVSPost2010PropOp31
 70
     1
102
RTVSPost2010Prop32
280
     0
102
RTVSPost2010PropOp32
 70
     1
102
RTVSPost2010Prop33
280
     0
102
RTVSPost2010PropOp33
 70
     1
102
RTVSPost2010Prop34
280
     0
102
RTVSPost2010PropOp34
 70
     1
102
RTVSPost2010Prop35
280
     0
102
RTVSPost2010PropOp35
 70
     1
102
RTVSPost2010Prop36
280
     0
102
RTVSPost2010PropOp36
 70
     1
102
RTVSPost2010Prop37
 90
       50
102
RTVSPost2010PropOp37
 70
     1
102
RTVSPost2010Prop38
140
0.0
102
RTVSPost2010PropOp38
 70
     1
102
RTVSPost2010Prop39
140
1.0
102
RTVSPost2010PropOp39
 70
     1
102
RTVSPost2010Prop40
 90
        0
102
RTVSPost2010PropOp40
 70
     1
102
RTVSPost2010Prop41ColorIndex
 90
       18
102
RTVSPost2010Prop41ColorRGB
 90
        0
102
RTVSPost2010PropOp41
 70
     1
102
RTVSPost2010Prop42
 90
       50
102
RTVSPost2010PropOp42
 70
     1
102
RTVSPost2010Prop43
 90
        3
102
RTVSPost2010PropOp43
 70
     1
102
RTVSPost2010Prop44ColorIndex
 90
        5
102
RTVSPost2010Prop44ColorRGB
 90
      255
102
RTVSPost2010PropOp44
 70
     1
102
RTVSPost2010Prop45
280
     0
102
RTVSPost2010PropOp45
 70
     1
102
RTVSPost2010Prop46
 90
       50
102
RTVSPost2010PropOp46
 70
     1
102
RTVSPost2010Prop47
 90
       50
102
RTVSPost2010PropOp47
 70
     1
102
RTVSPost2010Prop48
 90
       50
102
RTVSPost2010PropOp48
 70
     1
102
RTVSPost2010Prop49
280
     0
102
RTVSPost2010PropOp49
 70
     1
102
RTVSPost2010Prop50
 90
       50
102
RTVSPost2010PropOp50
 70
     1
102
RTVSPost2010Prop51ColorIndex
 90
      256
102
RTVSPost2010Prop51ColorRGB
 90
-16777216
102
RTVSPost2010PropOp51
 70
     0
102
RTVSPost2010Prop52
140
1.0
102
RTVSPost2010PropOp52
 70
     0
102
RTVSPost2010Prop53
 90
        2
102
RTVSPost2010PropOp53
 70
     1
102
RTVSPost2010Prop54
  1
strokes_ogs.tif
102
RTVSPost2010PropOp54
 70
     1
102
RTVSPost2010Prop55
280
     0
102
RTVSPost2010PropOp55
 70
     1
102
RTVSPost2010Prop56
140
1.0
102
RTVSPost2010PropOp56
 70
     1
102
RTVSPost2010Prop57
140
1.0
102
RTVSPost2010PropOp57
 70
     1
102
RTVSPropertyOp0
 70
     1
102
RTVSPropertyOp1
 70
     1
102
RTVSPropertyOp2
 70
     1
102
RTVSPropertyOp3
 70
     1
102
RTVSPropertyOp4
 70
     1
102
RTVSPropertyOp5
 70
     1
102
RTVSPropertyOp6
 70
     1
102
RTVSPropertyOp7
 70
     1
102
RTVSPropertyOp8
 70
     1
102
RTVSPropertyOp9
 70
     1
102
RTVSPropertyOp10
 70
     1
102
RTVSPropertyOp11
 70
     1
102
RTVSPropertyOp12
 70
     1
102
RTVSPropertyOp13
 70
     1
102
RTVSPropertyOp14
 70
     1
102
RTVSPropertyOp15
 70
     1
102
RTVSPropertyOp16
 70
     1
102
RTVSPropertyOp17
 70
     1
102
RTVSPropertyOp18
 70
     1
102
RTVSPropertyOp19
 70
     1
102
RTVSPropertyOp20
 70
     1
102
RTVSPropertyOp21
 70
     1
102
RTVSPropertyOp22
 70
     1
102
RTVSPropertyOp23
 70
     1
102
RTVSPropertyOp24
 70
     1
102
RTVSPropertyOp25
 70
     1
102
RTVSPropertyOp26
 70
     1
102
RTVSPropertyOp27
 70
     1
102
RTVSPropertyOp28
 70
     1
102
RTVSPropertyOp29
 70
     1
102
RTVSPropertyOp30
 70
     1
102
RTVSPropertyOp31
 70
     1
102
RTVSPropertyOp32
 70
     1
102
RTVSPropertyOp33
 70
     1
102
RTVSPropertyOp34
 70
     1
102
RTVSPropertyOp35
 70
     1
102
RTVSPropertyOp36
 70
     1
102
RTVSPropertyOp37
 70
     1
102
RTVSPropertyOp38
 70
     1
102
RTVSPropertyOp39
 70
     1
102
RTVSPropertyOp40
 70
     1
102
RTVSPropertyOp41
 70
     1
102
RTVSPropertyOp42
 70
     1
102
RTVSPropertyOp43
 70
     1
102
RTVSPropertyOp44
 70
     1
102
RTVSPropertyOp45
 70
     1
102
RTVSPropertyOp46
 70
     1
102
RTVSPropertyOp47
 70
     1
102
RTVSPropertyOp48
 70
     1
102
RTVSPropertyOp49
 70
     1
102
RTVSPropertyOp50
 70
     1
102
RTVSPropertyOp51
 70
     0
102
RTVSPropertyOp52
 70
     0
102
RTVSPropertyOp53
 70
     1
102
RTVSPropertyOp54
 70
     1
102
RTVSPropertyOp55
 70
     1
102
RTVSPropertyOp56
 70
     1
102
RTVSPropertyOp57
 70
     1
102
RTVSPropertyOp58
 70
     1
102
RTVSPropertyOp59
 70
     1
102
RTVSPropertyOp60
 70
     1
102
RTVSPropertyOp61
 70
     1
102
RTVSPropertyOp62
 70
     1
  0
XRECORD
  5
382
102
{ACAD_REACTORS
330
381
102
}
330
381
100
AcDbXrecord
280
     1
102
RTVSPost2010Prop28
280
     0
102
RTVSPost2010PropOp28
 70
     1
102
RTVSPost2010Prop29
280
     1
102
RTVSPost2010PropOp29
 70
     1
102
RTVSPost2010Prop30
280
     1
102
RTVSPost2010PropOp30
 70
     1
102
RTVSPost2010Prop31
280
     0
102
RTVSPost2010PropOp31
 70
     1
102
RTVSPost2010Prop32
280
     0
102
RTVSPost2010PropOp32
 70
     1
102
RTVSPost2010Prop33
280
     0
102
RTVSPost2010PropOp33
 70
     1
102
RTVSPost2010Prop34
280
     0
102
RTVSPost2010PropOp34
 70
     1
102
RTVSPost2010Prop35
280
     0
102
RTVSPost2010PropOp35
 70
     1
102
RTVSPost2010Prop36
280
     0
102
RTVSPost2010PropOp36
 70
     1
102
RTVSPost2010Prop37
 90
       50
102
RTVSPost2010PropOp37
 70
     1
102
RTVSPost2010Prop38
140
0.0
102
RTVSPost2010PropOp38
 70
     1
102
RTVSPost2010Prop39
140
1.0
102
RTVSPost2010PropOp39
 70
     1
102
RTVSPost2010Prop40
 90
        0
102
RTVSPost2010PropOp40
 70
     1
102
RTVSPost2010Prop41ColorIndex
 90
       18
102
RTVSPost2010Prop41ColorRGB
 90
        0
102
RTVSPost2010PropOp41
 70
     1
102
RTVSPost2010Prop42
 90
       50
102
RTVSPost2010PropOp42
 70
     1
102
RTVSPost2010Prop43
 90
        3
102
RTVSPost2010PropOp43
 70
     1
102
RTVSPost2010Prop44ColorIndex
 90
        5
102
RTVSPost2010Prop44ColorRGB
 90
      255
102
RTVSPost2010PropOp44
 70
     1
102
RTVSPost2010Prop45
280
     0
102
RTVSPost2010PropOp45
 70
     1
102
RTVSPost2010Prop46
 90
       50
102
RTVSPost2010PropOp46
 70
     1
102
RTVSPost2010Prop47
 90
       50
102
RTVSPost2010PropOp47
 70
     1
102
RTVSPost2010Prop48
 90
       50
102
RTVSPost2010PropOp48
 70
     1
102
RTVSPost2010Prop49
280
     0
102
RTVSPost2010PropOp49
 70
     1
102
RTVSPost2010Prop50
 90
       50
102
RTVSPost2010PropOp50
 70
     1
102
RTVSPost2010Prop51ColorIndex
 90
      256
102
RTVSPost2010Prop51ColorRGB
 90
-16777216
102
RTVSPost2010PropOp51
 70
     0
102
RTVSPost2010Prop52
140
1.0
102
RTVSPost2010PropOp52
 70
     0
102
RTVSPost2010Prop53
 90
        2
102
RTVSPost2010PropOp53
 70
     1
102
RTVSPost2010Prop54
  1
strokes_ogs.tif
102
RTVSPost2010PropOp54
 70
     1
102
RTVSPost2010Prop55
280
     0
102
RTVSPost2010PropOp55
 70
     1
102
RTVSPost2010Prop56
140
1.0
102
RTVSPost2010PropOp56
 70
     1
102
RTVSPost2010Prop57
140
1.0
102
RTVSPost2010PropOp57
 70
     1
102
RTVSPropertyOp0
 70
     1
102
RTVSPropertyOp1
 70
     1
102
RTVSPropertyOp2
 70
     1
102
RTVSPropertyOp3
 70
     1
102
RTVSPropertyOp4
 70
     1
102
RTVSPropertyOp5
 70
     1
102
RTVSPropertyOp6
 70
     1
102
RTVSPropertyOp7
 70
     1
102
RTVSPropertyOp8
 70
     1
102
RTVSPropertyOp9
 70
     1
102
RTVSPropertyOp10
 70
     1
102
RTVSPropertyOp11
 70
     1
102
RTVSPropertyOp12
 70
     1
102
RTVSPropertyOp13
 70
     1
102
RTVSPropertyOp14
 70
     1
102
RTVSPropertyOp15
 70
     1
102
RTVSPropertyOp16
 70
     1
102
RTVSPropertyOp17
 70
     1
102
RTVSPropertyOp18
 70
     1
102
RTVSPropertyOp19
 70
     1
102
RTVSPropertyOp20
 70
     1
102
RTVSPropertyOp21
 70
     1
102
RTVSPropertyOp22
 70
     1
102
RTVSPropertyOp23
 70
     1
102
RTVSPropertyOp24
 70
     1
102
RTVSPropertyOp25
 70
     1
102
RTVSPropertyOp26
 70
     1
102
RTVSPropertyOp27
 70
     1
102
RTVSPropertyOp28
 70
     1
102
RTVSPropertyOp29
 70
     1
102
RTVSPropertyOp30
 70
     1
102
RTVSPropertyOp31
 70
     1
102
RTVSPropertyOp32
 70
     1
102
RTVSPropertyOp33
 70
     1
102
RTVSPropertyOp34
 70
     1
102
RTVSPropertyOp35
 70
     1
102
RTVSPropertyOp36
 70
     1
102
RTVSPropertyOp37
 70
     1
102
RTVSPropertyOp38
 70
     1
102
RTVSPropertyOp39
 70
     1
102
RTVSPropertyOp40
 70
     1
102
RTVSPropertyOp41
 70
     1
102
RTVSPropertyOp42
 70
     1
102
RTVSPropertyOp43
 70
     1
102
RTVSPropertyOp44
 70
     1
102
RTVSPropertyOp45
 70
     1
102
RTVSPropertyOp46
 70
     1
102
RTVSPropertyOp47
 70
     1
102
RTVSPropertyOp48
 70
     1
102
RTVSPropertyOp49
 70
     1
102
RTVSPropertyOp50
 70
     1
102
RTVSPropertyOp51
 70
     0
102
RTVSPropertyOp52
 70
     0
102
RTVSPropertyOp53
 70
     1
102
RTVSPropertyOp54
 70
     1
102
RTVSPropertyOp55
 70
     1
102
RTVSPropertyOp56
 70
     1
102
RTVSPropertyOp57
 70
     1
102
RTVSPropertyOp58
 70
     1
102
RTVSPropertyOp59
 70
     1
102
RTVSPropertyOp60
 70
     1
102
RTVSPropertyOp61
 70
     1
102
RTVSPropertyOp62
 70
     1
  0
XRECORD
  5
380
102
{ACAD_REACTORS
330
37F
102
}
330
37F
100
AcDbXrecord
280
     1
102
RTVSPost2010Prop28
280
     0
102
RTVSPost2010PropOp28
 70
     1
102
RTVSPost2010Prop29
280
     1
102
RTVSPost2010PropOp29
 70
     1
102
RTVSPost2010Prop30
280
     1
102
RTVSPost2010PropOp30
 70
     1
102
RTVSPost2010Prop31
280
     0
102
RTVSPost2010PropOp31
 70
     1
102
RTVSPost2010Prop32
280
     0
102
RTVSPost2010PropOp32
 70
     1
102
RTVSPost2010Prop33
280
     0
102
RTVSPost2010PropOp33
 70
     1
102
RTVSPost2010Prop34
280
     0
102
RTVSPost2010PropOp34
 70
     1
102
RTVSPost2010Prop35
280
     0
102
RTVSPost2010PropOp35
 70
     1
102
RTVSPost2010Prop36
280
     0
102
RTVSPost2010PropOp36
 70
     1
102
RTVSPost2010Prop37
 90
       50
102
RTVSPost2010PropOp37
 70
     1
102
RTVSPost2010Prop38
140
0.0
102
RTVSPost2010PropOp38
 70
     1
102
RTVSPost2010Prop39
140
1.0
102
RTVSPost2010PropOp39
 70
     1
102
RTVSPost2010Prop40
 90
        0
102
RTVSPost2010PropOp40
 70
     1
102
RTVSPost2010Prop41ColorIndex
 90
       18
102
RTVSPost2010Prop41ColorRGB
 90
        0
102
RTVSPost2010PropOp41
 70
     1
102
RTVSPost2010Prop42
 90
       50
102
RTVSPost2010PropOp42
 70
     1
102
RTVSPost2010Prop43
 90
        3
102
RTVSPost2010PropOp43
 70
     1
102
RTVSPost2010Prop44ColorIndex
 90
        5
102
RTVSPost2010Prop44ColorRGB
 90
      255
102
RTVSPost2010PropOp44
 70
     1
102
RTVSPost2010Prop45
280
     0
102
RTVSPost2010PropOp45
 70
     1
102
RTVSPost2010Prop46
 90
       50
102
RTVSPost2010PropOp46
 70
     1
102
RTVSPost2010Prop47
 90
       50
102
RTVSPost2010PropOp47
 70
     1
102
RTVSPost2010Prop48
 90
       50
102
RTVSPost2010PropOp48
 70
     1
102
RTVSPost2010Prop49
280
     0
102
RTVSPost2010PropOp49
 70
     1
102
RTVSPost2010Prop50
 90
       50
102
RTVSPost2010PropOp50
 70
     1
102
RTVSPost2010Prop51ColorIndex
 90
      256
102
RTVSPost2010Prop51ColorRGB
 90
-16777216
102
RTVSPost2010PropOp51
 70
     0
102
RTVSPost2010Prop52
140
1.0
102
RTVSPost2010PropOp52
 70
     0
102
RTVSPost2010Prop53
 90
        2
102
RTVSPost2010PropOp53
 70
     1
102
RTVSPost2010Prop54
  1
strokes_ogs.tif
102
RTVSPost2010PropOp54
 70
     1
102
RTVSPost2010Prop55
280
     0
102
RTVSPost2010PropOp55
 70
     1
102
RTVSPost2010Prop56
140
1.0
102
RTVSPost2010PropOp56
 70
     1
102
RTVSPost2010Prop57
140
1.0
102
RTVSPost2010PropOp57
 70
     1
102
RTVSPropertyOp0
 70
     1
102
RTVSPropertyOp1
 70
     1
102
RTVSPropertyOp2
 70
     1
102
RTVSPropertyOp3
 70
     1
102
RTVSPropertyOp4
 70
     1
102
RTVSPropertyOp5
 70
     1
102
RTVSPropertyOp6
 70
     1
102
RTVSPropertyOp7
 70
     1
102
RTVSPropertyOp8
 70
     1
102
RTVSPropertyOp9
 70
     1
102
RTVSPropertyOp10
 70
     1
102
RTVSPropertyOp11
 70
     1
102
RTVSPropertyOp12
 70
     1
102
RTVSPropertyOp13
 70
     1
102
RTVSPropertyOp14
 70
     1
102
RTVSPropertyOp15
 70
     1
102
RTVSPropertyOp16
 70
     1
102
RTVSPropertyOp17
 70
     1
102
RTVSPropertyOp18
 70
     1
102
RTVSPropertyOp19
 70
     1
102
RTVSPropertyOp20
 70
     1
102
RTVSPropertyOp21
 70
     1
102
RTVSPropertyOp22
 70
     1
102
RTVSPropertyOp23
 70
     1
102
RTVSPropertyOp24
 70
     1
102
RTVSPropertyOp25
 70
     1
102
RTVSPropertyOp26
 70
     1
102
RTVSPropertyOp27
 70
     1
102
RTVSPropertyOp28
 70
     1
102
RTVSPropertyOp29
 70
     1
102
RTVSPropertyOp30
 70
     1
102
RTVSPropertyOp31
 70
     1
102
RTVSPropertyOp32
 70
     1
102
RTVSPropertyOp33
 70
     1
102
RTVSPropertyOp34
 70
     1
102
RTVSPropertyOp35
 70
     1
102
RTVSPropertyOp36
 70
     1
102
RTVSPropertyOp37
 70
     1
102
RTVSPropertyOp38
 70
     1
102
RTVSPropertyOp39
 70
     1
102
RTVSPropertyOp40
 70
     1
102
RTVSPropertyOp41
 70
     1
102
RTVSPropertyOp42
 70
     1
102
RTVSPropertyOp43
 70
     1
102
RTVSPropertyOp44
 70
     1
102
RTVSPropertyOp45
 70
     1
102
RTVSPropertyOp46
 70
     1
102
RTVSPropertyOp47
 70
     1
102
RTVSPropertyOp48
 70
     1
102
RTVSPropertyOp49
 70
     1
102
RTVSPropertyOp50
 70
     1
102
RTVSPropertyOp51
 70
     0
102
RTVSPropertyOp52
 70
     0
102
RTVSPropertyOp53
 70
     1
102
RTVSPropertyOp54
 70
     1
102
RTVSPropertyOp55
 70
     1
102
RTVSPropertyOp56
 70
     1
102
RTVSPropertyOp57
 70
     1
102
RTVSPropertyOp58
 70
     1
102
RTVSPropertyOp59
 70
     1
102
RTVSPropertyOp60
 70
     1
102
RTVSPropertyOp61
 70
     1
102
RTVSPropertyOp62
 70
     1
  0
XRECORD
  5
37A
102
{ACAD_REACTORS
330
379
102
}
330
379
100
AcDbXrecord
280
     1
102
RTVSPost2010Prop28
280
     0
102
RTVSPost2010PropOp28
 70
     1
102
RTVSPost2010Prop29
280
     1
102
RTVSPost2010PropOp29
 70
     1
102
RTVSPost2010Prop30
280
     1
102
RTVSPost2010PropOp30
 70
     1
102
RTVSPost2010Prop31
280
     0
102
RTVSPost2010PropOp31
 70
     1
102
RTVSPost2010Prop32
280
     0
102
RTVSPost2010PropOp32
 70
     1
102
RTVSPost2010Prop33
280
     0
102
RTVSPost2010PropOp33
 70
     1
102
RTVSPost2010Prop34
280
     0
102
RTVSPost2010PropOp34
 70
     1
102
RTVSPost2010Prop35
280
     0
102
RTVSPost2010PropOp35
 70
     1
102
RTVSPost2010Prop36
280
     0
102
RTVSPost2010PropOp36
 70
     1
102
RTVSPost2010Prop37
 90
       50
102
RTVSPost2010PropOp37
 70
     1
102
RTVSPost2010Prop38
140
0.0
102
RTVSPost2010PropOp38
 70
     1
102
RTVSPost2010Prop39
140
1.0
102
RTVSPost2010PropOp39
 70
     1
102
RTVSPost2010Prop40
 90
        0
102
RTVSPost2010PropOp40
 70
     1
102
RTVSPost2010Prop41ColorIndex
 90
       18
102
RTVSPost2010Prop41ColorRGB
 90
        0
102
RTVSPost2010PropOp41
 70
     1
102
RTVSPost2010Prop42
 90
       50
102
RTVSPost2010PropOp42
 70
     1
102
RTVSPost2010Prop43
 90
        3
102
RTVSPost2010PropOp43
 70
     1
102
RTVSPost2010Prop44ColorIndex
 90
        5
102
RTVSPost2010Prop44ColorRGB
 90
      255
102
RTVSPost2010PropOp44
 70
     1
102
RTVSPost2010Prop45
280
     0
102
RTVSPost2010PropOp45
 70
     1
102
RTVSPost2010Prop46
 90
       50
102
RTVSPost2010PropOp46
 70
     1
102
RTVSPost2010Prop47
 90
       50
102
RTVSPost2010PropOp47
 70
     1
102
RTVSPost2010Prop48
 90
       50
102
RTVSPost2010PropOp48
 70
     1
102
RTVSPost2010Prop49
280
     0
102
RTVSPost2010PropOp49
 70
     1
102
RTVSPost2010Prop50
 90
       50
102
RTVSPost2010PropOp50
 70
     1
102
RTVSPost2010Prop51ColorIndex
 90
      256
102
RTVSPost2010Prop51ColorRGB
 90
-16777216
102
RTVSPost2010PropOp51
 70
     0
102
RTVSPost2010Prop52
140
1.0
102
RTVSPost2010PropOp52
 70
     0
102
RTVSPost2010Prop53
 90
        2
102
RTVSPost2010PropOp53
 70
     1
102
RTVSPost2010Prop54
  1
strokes_ogs.tif
102
RTVSPost2010PropOp54
 70
     1
102
RTVSPost2010Prop55
280
     0
102
RTVSPost2010PropOp55
 70
     1
102
RTVSPost2010Prop56
140
1.0
102
RTVSPost2010PropOp56
 70
     1
102
RTVSPost2010Prop57
140
1.0
102
RTVSPost2010PropOp57
 70
     1
102
RTVSPropertyOp0
 70
     1
102
RTVSPropertyOp1
 70
     1
102
RTVSPropertyOp2
 70
     1
102
RTVSPropertyOp3
 70
     1
102
RTVSPropertyOp4
 70
     1
102
RTVSPropertyOp5
 70
     1
102
RTVSPropertyOp6
 70
     1
102
RTVSPropertyOp7
 70
     1
102
RTVSPropertyOp8
 70
     1
102
RTVSPropertyOp9
 70
     1
102
RTVSPropertyOp10
 70
     1
102
RTVSPropertyOp11
 70
     1
102
RTVSPropertyOp12
 70
     1
102
RTVSPropertyOp13
 70
     1
102
RTVSPropertyOp14
 70
     1
102
RTVSPropertyOp15
 70
     1
102
RTVSPropertyOp16
 70
     1
102
RTVSPropertyOp17
 70
     1
102
RTVSPropertyOp18
 70
     1
102
RTVSPropertyOp19
 70
     1
102
RTVSPropertyOp20
 70
     1
102
RTVSPropertyOp21
 70
     1
102
RTVSPropertyOp22
 70
     1
102
RTVSPropertyOp23
 70
     1
102
RTVSPropertyOp24
 70
     1
102
RTVSPropertyOp25
 70
     1
102
RTVSPropertyOp26
 70
     1
102
RTVSPropertyOp27
 70
     1
102
RTVSPropertyOp28
 70
     1
102
RTVSPropertyOp29
 70
     1
102
RTVSPropertyOp30
 70
     1
102
RTVSPropertyOp31
 70
     1
102
RTVSPropertyOp32
 70
     1
102
RTVSPropertyOp33
 70
     1
102
RTVSPropertyOp34
 70
     1
102
RTVSPropertyOp35
 70
     1
102
RTVSPropertyOp36
 70
     1
102
RTVSPropertyOp37
 70
     1
102
RTVSPropertyOp38
 70
     1
102
RTVSPropertyOp39
 70
     1
102
RTVSPropertyOp40
 70
     1
102
RTVSPropertyOp41
 70
     1
102
RTVSPropertyOp42
 70
     1
102
RTVSPropertyOp43
 70
     1
102
RTVSPropertyOp44
 70
     1
102
RTVSPropertyOp45
 70
     1
102
RTVSPropertyOp46
 70
     1
102
RTVSPropertyOp47
 70
     1
102
RTVSPropertyOp48
 70
     1
102
RTVSPropertyOp49
 70
     1
102
RTVSPropertyOp50
 70
     1
102
RTVSPropertyOp51
 70
     0
102
RTVSPropertyOp52
 70
     0
102
RTVSPropertyOp53
 70
     1
102
RTVSPropertyOp54
 70
     1
102
RTVSPropertyOp55
 70
     1
102
RTVSPropertyOp56
 70
     1
102
RTVSPropertyOp57
 70
     1
102
RTVSPropertyOp58
 70
     1
102
RTVSPropertyOp59
 70
     1
102
RTVSPropertyOp60
 70
     1
102
RTVSPropertyOp61
 70
     1
102
RTVSPropertyOp62
 70
     1
  0
XRECORD
  5
37C
102
{ACAD_REACTORS
330
37B
102
}
330
37B
100
AcDbXrecord
280
     1
102
RTVSPost2010Prop28
280
     0
102
RTVSPost2010PropOp28
 70
     1
102
RTVSPost2010Prop29
280
     1
102
RTVSPost2010PropOp29
 70
     1
102
RTVSPost2010Prop30
280
     1
102
RTVSPost2010PropOp30
 70
     1
102
RTVSPost2010Prop31
280
     0
102
RTVSPost2010PropOp31
 70
     1
102
RTVSPost2010Prop32
280
     0
102
RTVSPost2010PropOp32
 70
     1
102
RTVSPost2010Prop33
280
     0
102
RTVSPost2010PropOp33
 70
     1
102
RTVSPost2010Prop34
280
     0
102
RTVSPost2010PropOp34
 70
     1
102
RTVSPost2010Prop35
280
     0
102
RTVSPost2010PropOp35
 70
     1
102
RTVSPost2010Prop36
280
     0
102
RTVSPost2010PropOp36
 70
     1
102
RTVSPost2010Prop37
 90
       50
102
RTVSPost2010PropOp37
 70
     1
102
RTVSPost2010Prop38
140
0.0
102
RTVSPost2010PropOp38
 70
     1
102
RTVSPost2010Prop39
140
1.0
102
RTVSPost2010PropOp39
 70
     1
102
RTVSPost2010Prop40
 90
        0
102
RTVSPost2010PropOp40
 70
     1
102
RTVSPost2010Prop41ColorIndex
 90
       18
102
RTVSPost2010Prop41ColorRGB
 90
        0
102
RTVSPost2010PropOp41
 70
     1
102
RTVSPost2010Prop42
 90
       50
102
RTVSPost2010PropOp42
 70
     1
102
RTVSPost2010Prop43
 90
        3
102
RTVSPost2010PropOp43
 70
     1
102
RTVSPost2010Prop44ColorIndex
 90
        5
102
RTVSPost2010Prop44ColorRGB
 90
      255
102
RTVSPost2010PropOp44
 70
     1
102
RTVSPost2010Prop45
280
     0
102
RTVSPost2010PropOp45
 70
     1
102
RTVSPost2010Prop46
 90
       50
102
RTVSPost2010PropOp46
 70
     1
102
RTVSPost2010Prop47
 90
       50
102
RTVSPost2010PropOp47
 70
     1
102
RTVSPost2010Prop48
 90
       50
102
RTVSPost2010PropOp48
 70
     1
102
RTVSPost2010Prop49
280
     0
102
RTVSPost2010PropOp49
 70
     1
102
RTVSPost2010Prop50
 90
       50
102
RTVSPost2010PropOp50
 70
     1
102
RTVSPost2010Prop51ColorIndex
 90
      256
102
RTVSPost2010Prop51ColorRGB
 90
-16777216
102
RTVSPost2010PropOp51
 70
     0
102
RTVSPost2010Prop52
140
1.0
102
RTVSPost2010PropOp52
 70
     0
102
RTVSPost2010Prop53
 90
        2
102
RTVSPost2010PropOp53
 70
     1
102
RTVSPost2010Prop54
  1
strokes_ogs.tif
102
RTVSPost2010PropOp54
 70
     1
102
RTVSPost2010Prop55
280
     0
102
RTVSPost2010PropOp55
 70
     1
102
RTVSPost2010Prop56
140
1.0
102
RTVSPost2010PropOp56
 70
     1
102
RTVSPost2010Prop57
140
1.0
102
RTVSPost2010PropOp57
 70
     1
102
RTVSPropertyOp0
 70
     1
102
RTVSPropertyOp1
 70
     1
102
RTVSPropertyOp2
 70
     1
102
RTVSPropertyOp3
 70
     1
102
RTVSPropertyOp4
 70
     1
102
RTVSPropertyOp5
 70
     1
102
RTVSPropertyOp6
 70
     1
102
RTVSPropertyOp7
 70
     1
102
RTVSPropertyOp8
 70
     1
102
RTVSPropertyOp9
 70
     1
102
RTVSPropertyOp10
 70
     1
102
RTVSPropertyOp11
 70
     1
102
RTVSPropertyOp12
 70
     1
102
RTVSPropertyOp13
 70
     1
102
RTVSPropertyOp14
 70
     1
102
RTVSPropertyOp15
 70
     1
102
RTVSPropertyOp16
 70
     1
102
RTVSPropertyOp17
 70
     1
102
RTVSPropertyOp18
 70
     1
102
RTVSPropertyOp19
 70
     1
102
RTVSPropertyOp20
 70
     1
102
RTVSPropertyOp21
 70
     1
102
RTVSPropertyOp22
 70
     1
102
RTVSPropertyOp23
 70
     1
102
RTVSPropertyOp24
 70
     1
102
RTVSPropertyOp25
 70
     1
102
RTVSPropertyOp26
 70
     1
102
RTVSPropertyOp27
 70
     1
102
RTVSPropertyOp28
 70
     1
102
RTVSPropertyOp29
 70
     1
102
RTVSPropertyOp30
 70
     1
102
RTVSPropertyOp31
 70
     1
102
RTVSPropertyOp32
 70
     1
102
RTVSPropertyOp33
 70
     1
102
RTVSPropertyOp34
 70
     1
102
RTVSPropertyOp35
 70
     1
102
RTVSPropertyOp36
 70
     1
102
RTVSPropertyOp37
 70
     1
102
RTVSPropertyOp38
 70
     1
102
RTVSPropertyOp39
 70
     1
102
RTVSPropertyOp40
 70
     1
102
RTVSPropertyOp41
 70
     1
102
RTVSPropertyOp42
 70
     1
102
RTVSPropertyOp43
 70
     1
102
RTVSPropertyOp44
 70
     1
102
RTVSPropertyOp45
 70
     1
102
RTVSPropertyOp46
 70
     1
102
RTVSPropertyOp47
 70
     1
102
RTVSPropertyOp48
 70
     1
102
RTVSPropertyOp49
 70
     1
102
RTVSPropertyOp50
 70
     1
102
RTVSPropertyOp51
 70
     0
102
RTVSPropertyOp52
 70
     0
102
RTVSPropertyOp53
 70
     1
102
RTVSPropertyOp54
 70
     1
102
RTVSPropertyOp55
 70
     1
102
RTVSPropertyOp56
 70
     1
102
RTVSPropertyOp57
 70
     1
102
RTVSPropertyOp58
 70
     1
102
RTVSPropertyOp59
 70
     1
102
RTVSPropertyOp60
 70
     1
102
RTVSPropertyOp61
 70
     1
102
RTVSPropertyOp62
 70
     1
  0
XRECORD
  5
372
102
{ACAD_REACTORS
330
371
102
}
330
371
100
AcDbXrecord
280
     1
102
RTVSPost2010Prop28
280
     0
102
RTVSPost2010PropOp28
 70
     1
102
RTVSPost2010Prop29
280
     1
102
RTVSPost2010PropOp29
 70
     1
102
RTVSPost2010Prop30
280
     1
102
RTVSPost2010PropOp30
 70
     1
102
RTVSPost2010Prop31
280
     0
102
RTVSPost2010PropOp31
 70
     1
102
RTVSPost2010Prop32
280
     0
102
RTVSPost2010PropOp32
 70
     1
102
RTVSPost2010Prop33
280
     0
102
RTVSPost2010PropOp33
 70
     1
102
RTVSPost2010Prop34
280
     0
102
RTVSPost2010PropOp34
 70
     1
102
RTVSPost2010Prop35
280
     0
102
RTVSPost2010PropOp35
 70
     1
102
RTVSPost2010Prop36
280
     0
102
RTVSPost2010PropOp36
 70
     1
102
RTVSPost2010Prop37
 90
       50
102
RTVSPost2010PropOp37
 70
     1
102
RTVSPost2010Prop38
140
0.0
102
RTVSPost2010PropOp38
 70
     1
102
RTVSPost2010Prop39
140
1.0
102
RTVSPost2010PropOp39
 70
     1
102
RTVSPost2010Prop40
 90
        0
102
RTVSPost2010PropOp40
 70
     1
102
RTVSPost2010Prop41ColorIndex
 90
       18
102
RTVSPost2010Prop41ColorRGB
 90
        0
102
RTVSPost2010PropOp41
 70
     1
102
RTVSPost2010Prop42
 90
       50
102
RTVSPost2010PropOp42
 70
     1
102
RTVSPost2010Prop43
 90
        3
102
RTVSPost2010PropOp43
 70
     1
102
RTVSPost2010Prop44ColorIndex
 90
        5
102
RTVSPost2010Prop44ColorRGB
 90
      255
102
RTVSPost2010PropOp44
 70
     1
102
RTVSPost2010Prop45
280
     0
102
RTVSPost2010PropOp45
 70
     1
102
RTVSPost2010Prop46
 90
       50
102
RTVSPost2010PropOp46
 70
     1
102
RTVSPost2010Prop47
 90
       50
102
RTVSPost2010PropOp47
 70
     1
102
RTVSPost2010Prop48
 90
       50
102
RTVSPost2010PropOp48
 70
     1
102
RTVSPost2010Prop49
280
     0
102
RTVSPost2010PropOp49
 70
     1
102
RTVSPost2010Prop50
 90
       50
102
RTVSPost2010PropOp50
 70
     1
102
RTVSPost2010Prop51ColorIndex
 90
      256
102
RTVSPost2010Prop51ColorRGB
 90
-16777216
102
RTVSPost2010PropOp51
 70
     0
102
RTVSPost2010Prop52
140
1.0
102
RTVSPost2010PropOp52
 70
     0
102
RTVSPost2010Prop53
 90
        2
102
RTVSPost2010PropOp53
 70
     1
102
RTVSPost2010Prop54
  1
strokes_ogs.tif
102
RTVSPost2010PropOp54
 70
     1
102
RTVSPost2010Prop55
280
     0
102
RTVSPost2010PropOp55
 70
     1
102
RTVSPost2010Prop56
140
1.0
102
RTVSPost2010PropOp56
 70
     1
102
RTVSPost2010Prop57
140
1.0
102
RTVSPost2010PropOp57
 70
     1
102
RTVSPropertyOp0
 70
     1
102
RTVSPropertyOp1
 70
     1
102
RTVSPropertyOp2
 70
     1
102
RTVSPropertyOp3
 70
     1
102
RTVSPropertyOp4
 70
     1
102
RTVSPropertyOp5
 70
     1
102
RTVSPropertyOp6
 70
     1
102
RTVSPropertyOp7
 70
     1
102
RTVSPropertyOp8
 70
     1
102
RTVSPropertyOp9
 70
     1
102
RTVSPropertyOp10
 70
     1
102
RTVSPropertyOp11
 70
     1
102
RTVSPropertyOp12
 70
     1
102
RTVSPropertyOp13
 70
     1
102
RTVSPropertyOp14
 70
     1
102
RTVSPropertyOp15
 70
     1
102
RTVSPropertyOp16
 70
     1
102
RTVSPropertyOp17
 70
     1
102
RTVSPropertyOp18
 70
     1
102
RTVSPropertyOp19
 70
     1
102
RTVSPropertyOp20
 70
     1
102
RTVSPropertyOp21
 70
     1
102
RTVSPropertyOp22
 70
     1
102
RTVSPropertyOp23
 70
     1
102
RTVSPropertyOp24
 70
     1
102
RTVSPropertyOp25
 70
     1
102
RTVSPropertyOp26
 70
     1
102
RTVSPropertyOp27
 70
     1
102
RTVSPropertyOp28
 70
     1
102
RTVSPropertyOp29
 70
     1
102
RTVSPropertyOp30
 70
     1
102
RTVSPropertyOp31
 70
     1
102
RTVSPropertyOp32
 70
     1
102
RTVSPropertyOp33
 70
     1
102
RTVSPropertyOp34
 70
     1
102
RTVSPropertyOp35
 70
     1
102
RTVSPropertyOp36
 70
     1
102
RTVSPropertyOp37
 70
     1
102
RTVSPropertyOp38
 70
     1
102
RTVSPropertyOp39
 70
     1
102
RTVSPropertyOp40
 70
     1
102
RTVSPropertyOp41
 70
     1
102
RTVSPropertyOp42
 70
     1
102
RTVSPropertyOp43
 70
     1
102
RTVSPropertyOp44
 70
     1
102
RTVSPropertyOp45
 70
     1
102
RTVSPropertyOp46
 70
     1
102
RTVSPropertyOp47
 70
     1
102
RTVSPropertyOp48
 70
     1
102
RTVSPropertyOp49
 70
     1
102
RTVSPropertyOp50
 70
     1
102
RTVSPropertyOp51
 70
     0
102
RTVSPropertyOp52
 70
     0
102
RTVSPropertyOp53
 70
     1
102
RTVSPropertyOp54
 70
     1
102
RTVSPropertyOp55
 70
     1
102
RTVSPropertyOp56
 70
     1
102
RTVSPropertyOp57
 70
     1
102
RTVSPropertyOp58
 70
     1
102
RTVSPropertyOp59
 70
     1
102
RTVSPropertyOp60
 70
     1
102
RTVSPropertyOp61
 70
     1
102
RTVSPropertyOp62
 70
     1
  0
XRECORD
  5
366
102
{ACAD_REACTORS
330
365
102
}
330
365
100
AcDbXrecord
280
     1
102
RTVSPost2010Prop28
280
     0
102
RTVSPost2010PropOp28
 70
     1
102
RTVSPost2010Prop29
280
     1
102
RTVSPost2010PropOp29
 70
     1
102
RTVSPost2010Prop30
280
     1
102
RTVSPost2010PropOp30
 70
     1
102
RTVSPost2010Prop31
280
     0
102
RTVSPost2010PropOp31
 70
     1
102
RTVSPost2010Prop32
280
     0
102
RTVSPost2010PropOp32
 70
     1
102
RTVSPost2010Prop33
280
     0
102
RTVSPost2010PropOp33
 70
     1
102
RTVSPost2010Prop34
280
     0
102
RTVSPost2010PropOp34
 70
     1
102
RTVSPost2010Prop35
280
     0
102
RTVSPost2010PropOp35
 70
     1
102
RTVSPost2010Prop36
280
     0
102
RTVSPost2010PropOp36
 70
     1
102
RTVSPost2010Prop37
 90
       50
102
RTVSPost2010PropOp37
 70
     1
102
RTVSPost2010Prop38
140
0.0
102
RTVSPost2010PropOp38
 70
     1
102
RTVSPost2010Prop39
140
1.0
102
RTVSPost2010PropOp39
 70
     1
102
RTVSPost2010Prop40
 90
        0
102
RTVSPost2010PropOp40
 70
     1
102
RTVSPost2010Prop41ColorIndex
 90
       18
102
RTVSPost2010Prop41ColorRGB
 90
        0
102
RTVSPost2010PropOp41
 70
     1
102
RTVSPost2010Prop42
 90
       50
102
RTVSPost2010PropOp42
 70
     1
102
RTVSPost2010Prop43
 90
        3
102
RTVSPost2010PropOp43
 70
     1
102
RTVSPost2010Prop44ColorIndex
 90
        5
102
RTVSPost2010Prop44ColorRGB
 90
      255
102
RTVSPost2010PropOp44
 70
     1
102
RTVSPost2010Prop45
280
     0
102
RTVSPost2010PropOp45
 70
     1
102
RTVSPost2010Prop46
 90
       50
102
RTVSPost2010PropOp46
 70
     1
102
RTVSPost2010Prop47
 90
       50
102
RTVSPost2010PropOp47
 70
     1
102
RTVSPost2010Prop48
 90
       50
102
RTVSPost2010PropOp48
 70
     1
102
RTVSPost2010Prop49
280
     0
102
RTVSPost2010PropOp49
 70
     1
102
RTVSPost2010Prop50
 90
       50
102
RTVSPost2010PropOp50
 70
     1
102
RTVSPost2010Prop51ColorIndex
 90
      256
102
RTVSPost2010Prop51ColorRGB
 90
-16777216
102
RTVSPost2010PropOp51
 70
     0
102
RTVSPost2010Prop52
140
1.0
102
RTVSPost2010PropOp52
 70
     0
102
RTVSPost2010Prop53
 90
        2
102
RTVSPost2010PropOp53
 70
     1
102
RTVSPost2010Prop54
  1
strokes_ogs.tif
102
RTVSPost2010PropOp54
 70
     1
102
RTVSPost2010Prop55
280
     0
102
RTVSPost2010PropOp55
 70
     1
102
RTVSPost2010Prop56
140
1.0
102
RTVSPost2010PropOp56
 70
     1
102
RTVSPost2010Prop57
140
1.0
102
RTVSPost2010PropOp57
 70
     1
102
RTVSPropertyOp0
 70
     1
102
RTVSPropertyOp1
 70
     1
102
RTVSPropertyOp2
 70
     1
102
RTVSPropertyOp3
 70
     1
102
RTVSPropertyOp4
 70
     1
102
RTVSPropertyOp5
 70
     1
102
RTVSPropertyOp6
 70
     1
102
RTVSPropertyOp7
 70
     1
102
RTVSPropertyOp8
 70
     1
102
RTVSPropertyOp9
 70
     1
102
RTVSPropertyOp10
 70
     1
102
RTVSPropertyOp11
 70
     1
102
RTVSPropertyOp12
 70
     1
102
RTVSPropertyOp13
 70
     1
102
RTVSPropertyOp14
 70
     1
102
RTVSPropertyOp15
 70
     1
102
RTVSPropertyOp16
 70
     1
102
RTVSPropertyOp17
 70
     1
102
RTVSPropertyOp18
 70
     1
102
RTVSPropertyOp19
 70
     1
102
RTVSPropertyOp20
 70
     1
102
RTVSPropertyOp21
 70
     1
102
RTVSPropertyOp22
 70
     1
102
RTVSPropertyOp23
 70
     1
102
RTVSPropertyOp24
 70
     1
102
RTVSPropertyOp25
 70
     1
102
RTVSPropertyOp26
 70
     1
102
RTVSPropertyOp27
 70
     1
102
RTVSPropertyOp28
 70
     1
102
RTVSPropertyOp29
 70
     1
102
RTVSPropertyOp30
 70
     1
102
RTVSPropertyOp31
 70
     1
102
RTVSPropertyOp32
 70
     1
102
RTVSPropertyOp33
 70
     1
102
RTVSPropertyOp34
 70
     1
102
RTVSPropertyOp35
 70
     1
102
RTVSPropertyOp36
 70
     1
102
RTVSPropertyOp37
 70
     1
102
RTVSPropertyOp38
 70
     1
102
RTVSPropertyOp39
 70
     1
102
RTVSPropertyOp40
 70
     1
102
RTVSPropertyOp41
 70
     1
102
RTVSPropertyOp42
 70
     1
102
RTVSPropertyOp43
 70
     1
102
RTVSPropertyOp44
 70
     1
102
RTVSPropertyOp45
 70
     1
102
RTVSPropertyOp46
 70
     1
102
RTVSPropertyOp47
 70
     1
102
RTVSPropertyOp48
 70
     1
102
RTVSPropertyOp49
 70
     1
102
RTVSPropertyOp50
 70
     1
102
RTVSPropertyOp51
 70
     0
102
RTVSPropertyOp52
 70
     0
102
RTVSPropertyOp53
 70
     1
102
RTVSPropertyOp54
 70
     1
102
RTVSPropertyOp55
 70
     1
102
RTVSPropertyOp56
 70
     1
102
RTVSPropertyOp57
 70
     1
102
RTVSPropertyOp58
 70
     1
102
RTVSPropertyOp59
 70
     1
102
RTVSPropertyOp60
 70
     1
102
RTVSPropertyOp61
 70
     1
102
RTVSPropertyOp62
 70
     1
  0
XRECORD
  5
37E
102
{ACAD_REACTORS
330
37D
102
}
330
37D
100
AcDbXrecord
280
     1
102
RTVSPost2010Prop28
280
     0
102
RTVSPost2010PropOp28
 70
     1
102
RTVSPost2010Prop29
280
     1
102
RTVSPost2010PropOp29
 70
     1
102
RTVSPost2010Prop30
280
     1
102
RTVSPost2010PropOp30
 70
     1
102
RTVSPost2010Prop31
280
     0
102
RTVSPost2010PropOp31
 70
     1
102
RTVSPost2010Prop32
280
     0
102
RTVSPost2010PropOp32
 70
     1
102
RTVSPost2010Prop33
280
     0
102
RTVSPost2010PropOp33
 70
     1
102
RTVSPost2010Prop34
280
     0
102
RTVSPost2010PropOp34
 70
     1
102
RTVSPost2010Prop35
280
     0
102
RTVSPost2010PropOp35
 70
     1
102
RTVSPost2010Prop36
280
     0
102
RTVSPost2010PropOp36
 70
     1
102
RTVSPost2010Prop37
 90
       50
102
RTVSPost2010PropOp37
 70
     1
102
RTVSPost2010Prop38
140
0.0
102
RTVSPost2010PropOp38
 70
     1
102
RTVSPost2010Prop39
140
1.0
102
RTVSPost2010PropOp39
 70
     1
102
RTVSPost2010Prop40
 90
        0
102
RTVSPost2010PropOp40
 70
     1
102
RTVSPost2010Prop41ColorIndex
 90
       18
102
RTVSPost2010Prop41ColorRGB
 90
        0
102
RTVSPost2010PropOp41
 70
     1
102
RTVSPost2010Prop42
 90
       50
102
RTVSPost2010PropOp42
 70
     1
102
RTVSPost2010Prop43
 90
        3
102
RTVSPost2010PropOp43
 70
     1
102
RTVSPost2010Prop44ColorIndex
 90
        5
102
RTVSPost2010Prop44ColorRGB
 90
      255
102
RTVSPost2010PropOp44
 70
     1
102
RTVSPost2010Prop45
280
     0
102
RTVSPost2010PropOp45
 70
     1
102
RTVSPost2010Prop46
 90
       50
102
RTVSPost2010PropOp46
 70
     1
102
RTVSPost2010Prop47
 90
       50
102
RTVSPost2010PropOp47
 70
     1
102
RTVSPost2010Prop48
 90
       50
102
RTVSPost2010PropOp48
 70
     1
102
RTVSPost2010Prop49
280
     0
102
RTVSPost2010PropOp49
 70
     1
102
RTVSPost2010Prop50
 90
       50
102
RTVSPost2010PropOp50
 70
     1
102
RTVSPost2010Prop51ColorIndex
 90
      256
102
RTVSPost2010Prop51ColorRGB
 90
-16777216
102
RTVSPost2010PropOp51
 70
     0
102
RTVSPost2010Prop52
140
1.0
102
RTVSPost2010PropOp52
 70
     0
102
RTVSPost2010Prop53
 90
        2
102
RTVSPost2010PropOp53
 70
     1
102
RTVSPost2010Prop54
  1
strokes_ogs.tif
102
RTVSPost2010PropOp54
 70
     1
102
RTVSPost2010Prop55
280
     0
102
RTVSPost2010PropOp55
 70
     1
102
RTVSPost2010Prop56
140
1.0
102
RTVSPost2010PropOp56
 70
     1
102
RTVSPost2010Prop57
140
1.0
102
RTVSPost2010PropOp57
 70
     1
102
RTVSPropertyOp0
 70
     1
102
RTVSPropertyOp1
 70
     1
102
RTVSPropertyOp2
 70
     1
102
RTVSPropertyOp3
 70
     1
102
RTVSPropertyOp4
 70
     1
102
RTVSPropertyOp5
 70
     1
102
RTVSPropertyOp6
 70
     1
102
RTVSPropertyOp7
 70
     1
102
RTVSPropertyOp8
 70
     1
102
RTVSPropertyOp9
 70
     1
102
RTVSPropertyOp10
 70
     1
102
RTVSPropertyOp11
 70
     1
102
RTVSPropertyOp12
 70
     1
102
RTVSPropertyOp13
 70
     1
102
RTVSPropertyOp14
 70
     1
102
RTVSPropertyOp15
 70
     1
102
RTVSPropertyOp16
 70
     1
102
RTVSPropertyOp17
 70
     1
102
RTVSPropertyOp18
 70
     1
102
RTVSPropertyOp19
 70
     1
102
RTVSPropertyOp20
 70
     1
102
RTVSPropertyOp21
 70
     1
102
RTVSPropertyOp22
 70
     1
102
RTVSPropertyOp23
 70
     1
102
RTVSPropertyOp24
 70
     1
102
RTVSPropertyOp25
 70
     1
102
RTVSPropertyOp26
 70
     1
102
RTVSPropertyOp27
 70
     1
102
RTVSPropertyOp28
 70
     1
102
RTVSPropertyOp29
 70
     1
102
RTVSPropertyOp30
 70
     1
102
RTVSPropertyOp31
 70
     1
102
RTVSPropertyOp32
 70
     1
102
RTVSPropertyOp33
 70
     1
102
RTVSPropertyOp34
 70
     1
102
RTVSPropertyOp35
 70
     1
102
RTVSPropertyOp36
 70
     1
102
RTVSPropertyOp37
 70
     1
102
RTVSPropertyOp38
 70
     1
102
RTVSPropertyOp39
 70
     1
102
RTVSPropertyOp40
 70
     1
102
RTVSPropertyOp41
 70
     1
102
RTVSPropertyOp42
 70
     1
102
RTVSPropertyOp43
 70
     1
102
RTVSPropertyOp44
 70
     1
102
RTVSPropertyOp45
 70
     1
102
RTVSPropertyOp46
 70
     1
102
RTVSPropertyOp47
 70
     1
102
RTVSPropertyOp48
 70
     1
102
RTVSPropertyOp49
 70
     1
102
RTVSPropertyOp50
 70
     1
102
RTVSPropertyOp51
 70
     0
102
RTVSPropertyOp52
 70
     0
102
RTVSPropertyOp53
 70
     1
102
RTVSPropertyOp54
 70
     1
102
RTVSPropertyOp55
 70
     1
102
RTVSPropertyOp56
 70
     1
102
RTVSPropertyOp57
 70
     1
102
RTVSPropertyOp58
 70
     1
102
RTVSPropertyOp59
 70
     1
102
RTVSPropertyOp60
 70
     1
102
RTVSPropertyOp61
 70
     1
102
RTVSPropertyOp62
 70
     1
  0
ENDSEC
  0
EOF
