  0
SECTION
  2
HEADER
  9
$ACADVER
  1
AC1015
  9
$ACADMAINTVER
 70
    20
  9
$DWGCODEPAGE
  3
ANSI_932
  9
$INSBASE
 10
0.0
 20
0.0
 30
0.0
  9
$EXTMIN
 10
-1250.082391174605
 20
-1874.883294593336
 30
-0.0015258207003583
  9
$EXTMAX
 10
1450.082403747461
 20
2139.567671355122
 30
0.0000000349246037
  9
$LIMMIN
 10
0.0
 20
0.0
  9
$LIMMAX
 10
0.0
 20
0.0
  9
$ORTHOMODE
 70
     0
  9
$REGENMODE
 70
     1
  9
$FILLMODE
 70
     1
  9
$QTEXTMODE
 70
     0
  9
$MIRRTEXT
 70
     1
  9
$LTSCALE
 40
76.2
  9
$ATTMODE
 70
     1
  9
$TEXTSIZE
 40
0.0
  9
$TRACEWID
 40
1.0
  9
$TEXTSTYLE
  7
STANDARD
  9
$CLAYER
  8
DATA
  9
$CELTYPE
  6
ByLayer
  9
$CECOLOR
 62
   256
  9
$CELTSCALE
 40
1.0
  9
$DISPSILH
 70
     0
  9
$DIMSCALE
 40
1.0
  9
$DIMASZ
 40
0.18
  9
$DIMEXO
 40
0.0625
  9
$DIMDLI
 40
0.38
  9
$DIMRND
 40
0.0
  9
$DIMDLE
 40
0.0
  9
$DIMEXE
 40
0.18
  9
$DIMTP
 40
0.0
  9
$DIMTM
 40
0.0
  9
$DIMTXT
 40
0.18
  9
$DIMCEN
 40
0.09
  9
$DIMTSZ
 40
0.0
  9
$DIMTOL
 70
     0
  9
$DIMLIM
 70
     0
  9
$DIMTIH
 70
     1
  9
$DIMTOH
 70
     1
  9
$DIMSE1
 70
     0
  9
$DIMSE2
 70
     0
  9
$DIMTAD
 70
     0
  9
$DIMZIN
 70
     0
  9
$DIMBLK
  1

  9
$DIMASO
 70
     1
  9
$DIMSHO
 70
     1
  9
$DIMPOST
  1

  9
$DIMAPOST
  1

  9
$DIMALT
 70
     0
  9
$DIMALTD
 70
     2
  9
$DIMALTF
 40
25.4
  9
$DIMLFAC
 40
1.0
  9
$DIMTOFL
 70
     0
  9
$DIMTVP
 40
0.0
  9
$DIMTIX
 70
     0
  9
$DIMSOXD
 70
     0
  9
$DIMSAH
 70
     0
  9
$DIMBLK1
  1

  9
$DIMBLK2
  1

  9
$DIMSTYLE
  2
STANDARD
  9
$DIMCLRD
 70
     0
  9
$DIMCLRE
 70
     0
  9
$DIMCLRT
 70
     0
  9
$DIMTFAC
 40
1.0
  9
$DIMGAP
 40
0.09
  9
$DIMJUST
 70
     0
  9
$DIMSD1
 70
     0
  9
$DIMSD2
 70
     0
  9
$DIMTOLJ
 70
     1
  9
$DIMTZIN
 70
     0
  9
$DIMALTZ
 70
     0
  9
$DIMALTTZ
 70
     0
  9
$DIMUPT
 70
     0
  9
$DIMDEC
 70
     4
  9
$DIMTDEC
 70
     4
  9
$DIMALTU
 70
     2
  9
$DIMALTTD
 70
     2
  9
$DIMTXSTY
  7
STANDARD
  9
$DIMAUNIT
 70
     0
  9
$DIMADEC
 70
     0
  9
$DIMALTRND
 40
0.0
  9
$DIMAZIN
 70
     0
  9
$DIMDSEP
 70
    46
  9
$DIMATFIT
 70
     3
  9
$DIMFRAC
 70
     0
  9
$DIMLDRBLK
  1

  9
$DIMLUNIT
 70
     2
  9
$DIMLWD
 70
    -2
  9
$DIMLWE
 70
    -2
  9
$DIMTMOVE
 70
     0
  9
$LUNITS
 70
     2
  9
$LUPREC
 70
     4
  9
$SKETCHINC
 40
0.1
  9
$FILLETRAD
 40
0.0
  9
$AUNITS
 70
     0
  9
$AUPREC
 70
     0
  9
$MENU
  1
acad
  9
$ELEVATION
 40
0.0
  9
$PELEVATION
 40
0.0
  9
$THICKNESS
 40
0.0
  9
$LIMCHECK
 70
     0
  9
$CHAMFERA
 40
0.0
  9
$CHAMFERB
 40
0.0
  9
$CHAMFERC
 40
0.0
  9
$CHAMFERD
 40
0.0
  9
$SKPOLY
 70
     0
  9
$TDCREATE
 40
2457823.474444444
  9
$TDUCREATE
 40
2457823.099444444
  9
$TDUPDATE
 40
2457823.477326389
  9
$TDUUPDATE
 40
2457823.102326389
  9
$TDINDWG
 40
0.0003703704
  9
$TDUSRTIMER
 40
0.0003703704
  9
$USRTIMER
 70
     1
  9
$ANGBASE
 50
0.0
  9
$ANGDIR
 70
     0
  9
$PDMODE
 70
     1
  9
$PDSIZE
 40
-2.0
  9
$PLINEWID
 40
0.0
  9
$SPLFRAME
 70
     0
  9
$SPLINETYPE
 70
     6
  9
$SPLINESEGS
 70
     8
  9
$HANDSEED
  5
3FB
  9
$SURFTAB1
 70
     6
  9
$SURFTAB2
 70
     6
  9
$SURFTYPE
 70
     6
  9
$SURFU
 70
     6
  9
$SURFV
 70
     6
  9
$UCSBASE
  2

  9
$UCSNAME
  2

  9
$UCSORG
 10
0.0
 20
0.0
 30
0.0
  9
$UCSXDIR
 10
1.0
 20
0.0
 30
0.0
  9
$UCSYDIR
 10
0.0
 20
1.0
 30
0.0
  9
$UCSORTHOREF
  2

  9
$UCSORTHOVIEW
 70
     0
  9
$UCSORGTOP
 10
0.0
 20
0.0
 30
0.0
  9
$UCSORGBOTTOM
 10
0.0
 20
0.0
 30
0.0
  9
$UCSORGLEFT
 10
0.0
 20
0.0
 30
0.0
  9
$UCSORGRIGHT
 10
0.0
 20
0.0
 30
0.0
  9
$UCSORGFRONT
 10
0.0
 20
0.0
 30
0.0
  9
$UCSORGBACK
 10
0.0
 20
0.0
 30
0.0
  9
$PUCSBASE
  2

  9
$PUCSNAME
  2

  9
$PUCSORG
 10
0.0
 20
0.0
 30
0.0
  9
$PUCSXDIR
 10
1.0
 20
0.0
 30
0.0
  9
$PUCSYDIR
 10
0.0
 20
1.0
 30
0.0
  9
$PUCSORTHOREF
  2

  9
$PUCSORTHOVIEW
 70
     0
  9
$PUCSORGTOP
 10
0.0
 20
0.0
 30
0.0
  9
$PUCSORGBOTTOM
 10
0.0
 20
0.0
 30
0.0
  9
$PUCSORGLEFT
 10
0.0
 20
0.0
 30
0.0
  9
$PUCSORGRIGHT
 10
0.0
 20
0.0
 30
0.0
  9
$PUCSORGFRONT
 10
0.0
 20
0.0
 30
0.0
  9
$PUCSORGBACK
 10
0.0
 20
0.0
 30
0.0
  9
$USERI1
 70
     0
  9
$USERI2
 70
     0
  9
$USERI3
 70
     0
  9
$USERI4
 70
     0
  9
$USERI5
 70
     0
  9
$USERR1
 40
0.0
  9
$USERR2
 40
0.0
  9
$USERR3
 40
0.0
  9
$USERR4
 40
0.0
  9
$USERR5
 40
0.0
  9
$WORLDVIEW
 70
     1
  9
$SHADEDGE
 70
     3
  9
$SHADEDIF
 70
    70
  9
$TILEMODE
 70
     1
  9
$MAXACTVP
 70
    64
  9
$PINSBASE
 10
0.0
 20
0.0
 30
0.0
  9
$PLIMCHECK
 70
     0
  9
$PEXTMIN
 10
1.000000000000000E+20
 20
1.000000000000000E+20
 30
1.000000000000000E+20
  9
$PEXTMAX
 10
-1.000000000000000E+20
 20
-1.000000000000000E+20
 30
-1.000000000000000E+20
  9
$PLIMMIN
 10
0.0
 20
0.0
  9
$PLIMMAX
 10
12.0
 20
9.0
  9
$UNITMODE
 70
     0
  9
$VISRETAIN
 70
     0
  9
$PLINEGEN
 70
     1
  9
$PSLTSCALE
 70
     0
  9
$TREEDEPTH
 70
  3020
  9
$CMLSTYLE
  2
Standard
  9
$CMLJUST
 70
     0
  9
$CMLSCALE
 40
1.0
  9
$PROXYGRAPHICS
 70
     1
  9
$MEASUREMENT
 70
     0
  9
$CELWEIGHT
370
    -1
  9
$ENDCAPS
280
     0
  9
$JOINSTYLE
280
     0
  9
$LWDISPLAY
290
     0
  9
$INSUNITS
 70
     0
  9
$HYPERLINKBASE
  1

  9
$STYLESHEET
  1

  9
$XEDIT
290
     1
  9
$CEPSNTYPE
380
     0
  9
$PSTYLEMODE
290
     1
  9
$FINGERPRINTGUID
  2
{2A717C95-0A0B-2340-8FF7-3EE83F3EA077}
  9
$VERSIONGUID
  2
{FEE46D76-9C92-444F-AF6E-0D93AA249609}
  9
$EXTNAMES
290
     1
  9
$PSVPSCALE
 40
0.0
  9
$OLESTARTUP
290
     0
  0
ENDSEC
  0
SECTION
  2
CLASSES
  0
CLASS
  1
ACDBDICTIONARYWDFLT
  2
AcDbDictionaryWithDefault
  3
ObjectDBX Classes
 90
        0
280
     0
281
     0
  0
CLASS
  1
MATERIAL
  2
AcDbMaterial
  3
ObjectDBX Classes
 90
     1153
280
     0
281
     0
  0
CLASS
  1
VISUALSTYLE
  2
AcDbVisualStyle
  3
ObjectDBX Classes
 90
     4095
280
     0
281
     0
  0
CLASS
  1
SCALE
  2
AcDbScale
  3
ObjectDBX Classes
 90
     1153
280
     0
281
     0
  0
CLASS
  1
TABLESTYLE
  2
AcDbTableStyle
  3
ObjectDBX Classes
 90
     4095
280
     0
281
     0
  0
CLASS
  1
MLEADERSTYLE
  2
AcDbMLeaderStyle
  3
ACDB_MLEADERSTYLE_CLASS
 90
     4095
280
     0
281
     0
  0
CLASS
  1
ACDBSECTIONVIEWSTYLE
  2
AcDbSectionViewStyle
  3
ObjectDBX Classes
 90
     1025
280
     0
281
     0
  0
CLASS
  1
ACDBDETAILVIEWSTYLE
  2
AcDbDetailViewStyle
  3
ObjectDBX Classes
 90
     1025
280
     0
281
     0
  0
CLASS
  1
DICTIONARYVAR
  2
AcDbDictionaryVar
  3
ObjectDBX Classes
 90
        0
280
     0
281
     0
  0
CLASS
  1
CELLSTYLEMAP
  2
AcDbCellStyleMap
  3
ObjectDBX Classes
 90
     1152
280
     0
281
     0
  0
CLASS
  1
ACDBPLACEHOLDER
  2
AcDbPlaceHolder
  3
ObjectDBX Classes
 90
        0
280
     0
281
     0
  0
CLASS
  1
LAYOUT
  2
AcDbLayout
  3
ObjectDBX Classes
 90
        0
280
     0
281
     0
  0
ENDSEC
  0
SECTION
  2
TABLES
  0
TABLE
  2
VPORT
  5
323
330
0
100
AcDbSymbolTable
 70
     1
  0
VPORT
  5
38F
330
323
100
AcDbSymbolTableRecord
100
AcDbViewportTableRecord
  2
*ACTIVE
 70
     0
 10
0.0
 20
0.0
 11
1.0
 21
1.0
 12
100.0000062864287
 22
132.342188380893
 13
0.0
 23
0.0
 14
1.0
 24
1.0
 15
0.0
 25
0.0
 16
0.0
 26
0.0
 36
1.0
 17
0.0
 27
0.0
 37
0.0
 40
4036.794848875816
 41
2.358402971216341
 42
50.0
 43
0.0
 44
0.0
 50
0.0
 51
0.0
 71
     0
 72
  2000
 73
     1
 74
     1
 75
     0
 76
     0
 77
     0
 78
     0
281
     0
 65
     1
110
0.0
120
0.0
130
0.0
111
1.0
121
0.0
131
0.0
112
0.0
122
1.0
132
0.0
 79
     0
146
0.0
1001
ACAD_NAV_VCDISPLAY
1070
     3
  0
ENDTAB
  0
TABLE
  2
LTYPE
  5
320
330
0
100
AcDbSymbolTable
 70
    12
  0
LTYPE
  5
375
330
320
100
AcDbSymbolTableRecord
100
AcDbLinetypeTableRecord
  2
ByBlock
 70
     0
  3

 72
    65
 73
     0
 40
0.0
  0
LTYPE
  5
376
330
320
100
AcDbSymbolTableRecord
100
AcDbLinetypeTableRecord
  2
ByLayer
 70
     0
  3

 72
    65
 73
     0
 40
0.0
  0
LTYPE
  5
377
330
320
100
AcDbSymbolTableRecord
100
AcDbLinetypeTableRecord
  2
CONTINUOUS
 70
     0
  3
Solid line
 72
    65
 73
     0
 40
0.0
  0
ENDTAB
  0
TABLE
  2
LAYER
  5
31D
330
0
100
AcDbSymbolTable
 70
     6
  0
LAYER
  5
36F
102
{ACAD_XDICTIONARY
360
3A5
102
}
330
31D
100
AcDbSymbolTableRecord
100
AcDbLayerTableRecord
  2
0
 70
     0
 62
     7
  6
CONTINUOUS
370
    -3
390
32A
  0
LAYER
  5
38E
102
{ACAD_XDICTIONARY
360
3A7
102
}
330
31D
100
AcDbSymbolTableRecord
100
AcDbLayerTableRecord
  2
DATA
 70
     0
 62
     7
  6
CONTINUOUS
370
    -3
390
32A
  0
LAYER
  5
39B
102
{ACAD_XDICTIONARY
360
3A9
102
}
330
31D
100
AcDbSymbolTableRecord
100
AcDbLayerTableRecord
  2
HIBINO-BASE
 70
     0
 62
     7
  6
CONTINUOUS
370
    -3
390
32A
  0
LAYER
  5
39D
102
{ACAD_XDICTIONARY
360
3AB
102
}
330
31D
100
AcDbSymbolTableRecord
100
AcDbLayerTableRecord
  2
SPEC
 70
     0
 62
     7
  6
CONTINUOUS
370
    -3
390
32A
  0
LAYER
  5
39E
102
{ACAD_XDICTIONARY
360
3AD
102
}
330
31D
100
AcDbSymbolTableRecord
100
AcDbLayerTableRecord
  2
DIMNSIONS
 70
     0
 62
     7
  6
CONTINUOUS
370
    -3
390
32A
  0
ENDTAB
  0
TABLE
  2
STYLE
  5
31E
330
0
100
AcDbSymbolTable
 70
     3
  0
STYLE
  5
370
330
31E
100
AcDbSymbolTableRecord
100
AcDbTextStyleTableRecord
  2
STANDARD
 70
     0
 40
0.0
 41
1.0
 50
0.0
 71
     0
 42
0.0
  3
txt
  4
BIGFONT.SHX
  0
ENDTAB
  0
TABLE
  2
VIEW
  5
321
330
0
100
AcDbSymbolTable
 70
     0
  0
ENDTAB
  0
TABLE
  2
UCS
  5
322
330
0
100
AcDbSymbolTable
 70
     0
  0
ENDTAB
  0
TABLE
  2
APPID
  5
324
330
0
100
AcDbSymbolTable
 70
     4
  0
APPID
  5
371
330
324
100
AcDbSymbolTableRecord
100
AcDbRegAppTableRecord
  2
ACAD
 70
     0
  0
APPID
  5
378
330
324
100
AcDbSymbolTableRecord
100
AcDbRegAppTableRecord
  2
AcadAnnotative
 70
     0
  0
APPID
  5
3B9
330
324
100
AcDbSymbolTableRecord
100
AcDbRegAppTableRecord
  2
ACAD_NAV_VCDISPLAY
 70
     0
  0
APPID
  5
3F2
330
324
100
AcDbSymbolTableRecord
100
AcDbRegAppTableRecord
  2
ACAD_MLEADERVER
 70
     0
  0
ENDTAB
  0
TABLE
  2
DIMSTYLE
  5
325
330
0
100
AcDbSymbolTable
 70
     2
100
AcDbDimStyleTable
 71
     0
  0
DIMSTYLE
105
372
330
325
100
AcDbSymbolTableRecord
100
AcDbDimStyleTableRecord
  2
STANDARD
 70
     0
279
     2
340
370
  0
ENDTAB
  0
TABLE
  2
BLOCK_RECORD
  5
31C
330
0
100
AcDbSymbolTable
 70
     0
  0
BLOCK_RECORD
  5
38A
330
31C
100
AcDbSymbolTableRecord
100
AcDbBlockTableRecord
  2
*Model_Space
340
38D
  0
BLOCK_RECORD
  5
386
330
31C
100
AcDbSymbolTableRecord
100
AcDbBlockTableRecord
  2
*Paper_Space
340
389
  0
ENDTAB
  0
ENDSEC
  0
SECTION
  2
BLOCKS
  0
BLOCK
  5
38B
330
38A
100
AcDbEntity
  8
0
100
AcDbBlockBegin
  2
*Model_Space
 70
     0
 10
0.0
 20
0.0
 30
0.0
  3
*Model_Space
  1

  0
ENDBLK
  5
38C
330
38A
100
AcDbEntity
  8
0
100
AcDbBlockEnd
  0
BLOCK
  5
387
330
386
100
AcDbEntity
 67
     1
  8
0
100
AcDbBlockBegin
  2
*Paper_Space
 70
     0
 10
0.0
 20
0.0
 30
0.0
  3
*Paper_Space
  1

  0
ENDBLK
  5
388
330
386
100
AcDbEntity
 67
     1
  8
0
100
AcDbBlockEnd
  0
ENDSEC
  0
SECTION
  2
ENTITIES
  0
LINE
  5
2E
330
38A
100
AcDbEntity
  8
HIBINO-BASE
  6
Continuous
 62
     7
100
AcDbLine
 10
-1249.999999999999
 20
2139.445409999999
 30
0.0
 11
1450.0
 21
2139.445409999999
 31
0.0
  0
LINE
  5
2F
330
38A
100
AcDbEntity
  8
HIBINO-BASE
  6
Continuous
 62
     7
100
AcDbLine
 10
1450.0
 20
-1760.55459
 30
0.0
 11
-1249.999999999999
 21
-1760.55459
 31
0.0
  0
LINE
  5
30
330
38A
100
AcDbEntity
  8
HIBINO-BASE
  6
Continuous
 62
     7
100
AcDbLine
 10
-1249.999999999999
 20
-1760.55459
 30
0.0
 11
-1249.999999999999
 21
2139.445409999999
 31
0.0
  0
LINE
  5
31
330
38A
100
AcDbEntity
  8
HIBINO-BASE
  6
Continuous
 62
     7
100
AcDbLine
 10
1450.0
 20
2139.445409999999
 30
0.0
 11
1450.0
 21
-1760.55459
 31
0.0
  0
LINE
  5
32
330
38A
100
AcDbEntity
  8
HIBINO-BASE
  6
Continuous
 62
     7
100
AcDbLine
 10
100.0000000000004
 20
-1423.05459
 30
0.0
 11
1450.0
 21
-1423.05459
 31
0.0
  0
LINE
  5
33
330
38A
100
AcDbEntity
  8
HIBINO-BASE
  6
Continuous
 62
     7
100
AcDbLine
 10
100.0000000000004
 20
-1760.55459
 30
0.0
 11
100.0000000000004
 21
-1423.05459
 31
0.0
  0
TEXT
  5
34
330
38A
100
AcDbEntity
  8
HIBINO-BASE
 62
     7
100
AcDbText
 10
113.5000000000004
 20
-1460.68499
 30
0.0
 40
24.4326171875
  1
NOTE
 41
0.7
 11
113.5000000000004
 21
-1436.2523728125
 31
0.0
100
AcDbText
 73
     3
  0
LINE
  5
35
330
38A
100
AcDbEntity
  8
HIBINO-BASE
  6
Continuous
 62
     7
100
AcDbLine
 10
625.0000000000007
 20
-1760.55459
 30
0.0
 11
625.0000000000007
 21
-1423.05459
 31
0.0
  0
TEXT
  5
36
330
38A
100
AcDbEntity
  8
HIBINO-BASE
 62
     7
100
AcDbText
 10
638.5000000000007
 20
-1460.68499
 30
0.0
 40
24.4326171875
  1
TITLE
 41
0.7
 11
638.5000000000007
 21
-1436.2523728125
 31
0.0
100
AcDbText
 73
     3
  0
LINE
  5
37
330
38A
100
AcDbEntity
  8
HIBINO-BASE
  6
Continuous
 62
     7
100
AcDbLine
 10
100.0000000000004
 20
-1610.55459
 30
0.0
 11
1450.0
 21
-1610.55459
 31
0.0
  0
TEXT
  5
38
330
38A
100
AcDbEntity
  8
HIBINO-BASE
 62
     7
100
AcDbText
 10
826.0
 20
-1647.34019
 30
0.0
 40
24.4326171875
  1
DRAWN
 41
0.7
 11
826.0
 21
-1622.907572812501
 31
0.0
100
AcDbText
 73
     3
  0
TEXT
  5
39
330
38A
100
AcDbEntity
  8
HIBINO-BASE
 62
     7
100
AcDbText
 10
451.0000000000005
 20
-1647.34019
 30
0.0
 40
24.4326171875
  1
DATE
 41
0.7
 11
451.0000000000005
 21
-1622.907572812501
 31
0.0
100
AcDbText
 73
     3
  0
TEXT
  5
3A
330
38A
100
AcDbEntity
  8
HIBINO-BASE
 62
     7
100
AcDbText
 10
301.0000000000004
 20
-1647.34019
 30
0.0
 40
24.4326171875
  1
SCALE
 41
0.7
 11
301.0000000000004
 21
-1622.907572812501
 31
0.0
100
AcDbText
 73
     3
  0
TEXT
  5
3B
330
38A
100
AcDbEntity
  8
HIBINO-BASE
 62
     7
100
AcDbText
 10
638.5000000000007
 20
-1647.34019
 30
0.0
 40
24.4326171875
  1
DESIGN
 41
0.7
 11
638.5000000000007
 21
-1622.907572812501
 31
0.0
100
AcDbText
 73
     3
  0
TEXT
  5
3C
330
38A
100
AcDbEntity
  8
HIBINO-BASE
 62
     7
100
AcDbText
 10
1201.0
 20
-1647.34019
 30
0.0
 40
24.4326171875
  1
DRAWING NO.
 41
0.7
 11
1201.0
 21
-1622.907572812501
 31
0.0
100
AcDbText
 73
     3
  0
TEXT
  5
3D
330
38A
100
AcDbEntity
  8
HIBINO-BASE
 62
     7
100
AcDbText
 10
1013.5
 20
-1647.34019
 30
0.0
 40
24.4326171875
  1
CHECK
 41
0.7
 11
1013.5
 21
-1622.907572812501
 31
0.0
100
AcDbText
 73
     3
  0
LINE
  5
3E
330
38A
100
AcDbEntity
  8
HIBINO-BASE
  6
Continuous
 62
     7
100
AcDbLine
 10
315.6250000000004
 20
-1741.80459
 30
0.0
 11
371.8750000000008
 21
-1685.55459
 31
0.0
  0
TEXT
  5
3F
330
38A
100
AcDbEntity
  8
HIBINO-BASE
 62
     7
100
AcDbText
 10
306.2500000000004
 20
-1702.18874
 30
0.0
 40
24.4326171875
  1
1
 41
0.7
 11
306.2500000000004
 21
-1677.7561228125
 31
0.0
100
AcDbText
 73
     3
  0
LINE
  5
40
330
38A
100
AcDbEntity
  8
HIBINO-BASE
  6
Continuous
 62
     7
100
AcDbLine
 10
287.5000000000004
 20
-1760.55459
 30
0.0
 11
287.5000000000004
 21
-1610.55459
 31
0.0
  0
LINE
  5
41
330
38A
100
AcDbEntity
  8
HIBINO-BASE
  6
Continuous
 62
     7
100
AcDbLine
 10
437.5000000000005
 20
-1760.55459
 30
0.0
 11
437.5000000000005
 21
-1610.55459
 31
0.0
  0
LINE
  5
42
330
38A
100
AcDbEntity
  8
HIBINO-BASE
  6
Continuous
 62
     7
100
AcDbLine
 10
812.5
 20
-1610.55459
 30
0.0
 11
812.5
 21
-1760.55459
 31
0.0
  0
LINE
  5
43
330
38A
100
AcDbEntity
  8
HIBINO-BASE
  6
Continuous
 62
     7
100
AcDbLine
 10
1187.5
 20
-1610.55459
 30
0.0
 11
1187.5
 21
-1760.55459
 31
0.0
  0
LINE
  5
44
330
38A
100
AcDbEntity
  8
HIBINO-BASE
  6
Continuous
 62
     7
100
AcDbLine
 10
1000.0
 20
-1760.55459
 30
0.0
 11
1000.0
 21
-1610.55459
 31
0.0
  0
TEXT
  5
45
330
38A
100
AcDbEntity
  8
HIBINO-BASE
 62
     7
100
AcDbText
 10
450.3481000000006
 20
-1717.59989
 30
0.0
 40
24.4326171875
  1
'17.02.
 41
0.7
 11
450.3481000000006
 21
-1693.1672728125
 31
0.0
100
AcDbText
 73
     3
  0
TEXT
  5
46
330
38A
100
AcDbEntity
  8
HIBINO-BASE
 62
     7
100
AcDbText
 10
362.5000000000005
 20
-1730.31374
 30
0.0
 40
24.4326171875
  1
15
 41
0.7
 11
362.5000000000005
 21
-1705.8811228125
 31
0.0
100
AcDbText
 73
     3
  0
TEXT
  5
47
330
38A
100
AcDbEntity
  8
HIBINO-BASE
 62
     7
100
AcDbText
 10
835.0871501655202
 20
-1717.59989
 30
0.0
 40
24.4326171875
  1
N.Sasaki
 41
0.7
 11
835.0871501655202
 21
-1693.1672728125
 31
0.0
100
AcDbText
 73
     3
  0
TEXT
  5
48
330
38A
100
AcDbEntity
  8
HIBINO-BASE
 62
     7
100
AcDbText
 10
158.2500000000009
 20
-1730.91459
 30
0.0
 40
48.86523437499999
  1
A4
 41
0.7
 11
158.2500000000009
 21
-1682.049355625
 31
0.0
100
AcDbText
 73
     3
  0
TEXT
  5
49
330
38A
100
AcDbEntity
  8
HIBINO-BASE
 62
     7
100
AcDbText
 10
114.3750000000004
 20
-1649.846415
 30
0.0
 40
24.4326171875
  1
PAPER SIZE
 41
0.7
 11
114.3750000000004
 21
-1625.4137978125
 31
0.0
100
AcDbText
 73
     3
  0
TEXT
  5
4A
330
38A
100
AcDbEntity
  8
HIBINO-BASE
 62
     7
100
AcDbText
 10
-1142.239999999999
 20
-1856.684757
 30
0.0
 40
54.00066269531249
  1
Hibino Corporation
 41
0.7
 11
-1142.239999999999
 21
-1802.684094304687
 31
0.0
100
AcDbText
 73
     3
  0
TEXT
  5
4B
330
38A
100
AcDbEntity
  8
HIBINO-BASE
 62
     7
100
AcDbText
 10
851.0258500000009
 20
-1856.684757
 30
0.0
 40
54.00066269531249
  1
ヒビノ株式会社
 41
0.7
 11
851.0258500000009
 21
-1802.684094304687
 31
0.0
100
AcDbText
 73
     3
  0
LINE
  5
4C
330
38A
100
AcDbEntity
  8
SPEC
  6
Continuous
 62
     7
100
AcDbLine
 10
-1137.5
 20
1989.445409999999
 30
0.0
 11
1075.0
 21
1989.445409999999
 31
0.0
  0
LINE
  5
4D
330
38A
100
AcDbEntity
  8
SPEC
  6
Continuous
 62
     7
100
AcDbLine
 10
-1137.5
 20
1933.195409999999
 30
0.0
 11
1075.0
 21
1933.195409999999
 31
0.0
  0
LINE
  5
4E
330
38A
100
AcDbEntity
  8
SPEC
  6
Continuous
 62
     7
100
AcDbLine
 10
-1137.5
 20
1989.445409999999
 30
0.0
 11
-1137.5
 21
1483.195409999999
 31
0.0
  0
TEXT
  5
4F
330
38A
100
AcDbEntity
  8
SPEC
 62
     7
100
AcDbText
 10
-1118.75
 20
2010.344459999999
 30
0.0
 40
36.64892578125
  1
仕様
 41
0.7
 11
-1118.75
 21
2046.993385781249
 31
0.0
100
AcDbText
 73
     3
  0
LINE
  5
50
330
38A
100
AcDbEntity
  8
SPEC
  6
Continuous
 62
     7
100
AcDbLine
 10
-525.0
 20
1989.445409999999
 30
0.0
 11
-525.0
 21
1483.195409999999
 31
0.0
  0
LINE
  5
51
330
38A
100
AcDbEntity
  8
SPEC
  6
Continuous
 62
     7
100
AcDbLine
 10
1075.0
 20
1989.445409999999
 30
0.0
 11
1075.0
 21
1483.195409999999
 31
0.0
  0
TEXT
  5
52
330
38A
100
AcDbEntity
  8
SPEC
 62
     7
100
AcDbText
 10
-1124.0
 20
1945.296273206288
 30
0.0
 40
28.50472005208333
  1
周波数レンジ(-10dB)
 41
0.7
 11
-1124.0
 21
1973.800993258371
 31
0.0
100
AcDbText
 73
     3
  0
TEXT
  5
53
330
38A
100
AcDbEntity
  8
SPEC
 62
     7
100
AcDbText
 10
-511.5
 20
1945.014176666665
 30
0.0
 40
28.50472005208333
  1
38～160Hz
 41
0.7
 11
-511.5
 21
1973.518896718749
 31
0.0
100
AcDbText
 73
     3
  0
LINE
  5
54
330
38A
100
AcDbEntity
  8
SPEC
  6
Continuous
 62
     7
100
AcDbLine
 10
-1137.5
 20
1876.945409999999
 30
0.0
 11
1075.0
 21
1876.945409999999
 31
0.0
  0
LINE
  5
55
330
38A
100
AcDbEntity
  8
SPEC
  6
Continuous
 62
     7
100
AcDbLine
 10
-1137.5
 20
1820.695409999999
 30
0.0
 11
1075.0
 21
1820.695409999999
 31
0.0
  0
LINE
  5
56
330
38A
100
AcDbEntity
  8
SPEC
  6
Continuous
 62
     7
100
AcDbLine
 10
-1137.5
 20
1764.445409999999
 30
0.0
 11
1075.0
 21
1764.445409999999
 31
0.0
  0
LINE
  5
57
330
38A
100
AcDbEntity
  8
SPEC
  6
Continuous
 62
     7
100
AcDbLine
 10
-1137.5
 20
1708.195409999999
 30
0.0
 11
1075.0
 21
1708.195409999999
 31
0.0
  0
LINE
  5
58
330
38A
100
AcDbEntity
  8
SPEC
  6
Continuous
 62
     7
100
AcDbLine
 10
-1137.5
 20
1651.945409999999
 30
0.0
 11
1075.0
 21
1651.945409999999
 31
0.0
  0
LINE
  5
59
330
38A
100
AcDbEntity
  8
SPEC
  6
Continuous
 62
     7
100
AcDbLine
 10
-1137.5
 20
1595.695409999999
 30
0.0
 11
1075.0
 21
1595.695409999999
 31
0.0
  0
LINE
  5
5A
330
38A
100
AcDbEntity
  8
SPEC
  6
Continuous
 62
     7
100
AcDbLine
 10
-1137.5
 20
1539.445409999999
 30
0.0
 11
1075.0
 21
1539.445409999999
 31
0.0
  0
LINE
  5
5B
330
38A
100
AcDbEntity
  8
SPEC
  6
Continuous
 62
     7
100
AcDbLine
 10
-1137.5
 20
1483.195409999999
 30
0.0
 11
1075.0
 21
1483.195409999999
 31
0.0
  0
TEXT
  5
5C
330
38A
100
AcDbEntity
  8
SPEC
 62
     7
100
AcDbText
 10
-511.5
 20
1888.764176666665
 30
0.0
 40
28.50472005208333
  1
340W/170W
 41
0.7
 11
-511.5
 21
1917.268896718749
 31
0.0
100
AcDbText
 73
     3
  0
TEXT
  5
5D
330
38A
100
AcDbEntity
  8
SPEC
 62
     7
100
AcDbText
 10
-1124.211645691786
 20
1889.933891432955
 30
0.0
 40
28.50472005208333
  1
許容入力(プログラム/ピンク)※
 41
0.7
 11
-1124.211645691786
 21
1918.438611485038
 31
0.0
100
AcDbText
 73
     3
  0
TEXT
  5
5E
330
38A
100
AcDbEntity
  8
SPEC
 62
     7
100
AcDbText
 10
-511.5
 20
1832.514176666665
 30
0.0
 40
28.50472005208333
  1
100dB SPL
 41
0.7
 11
-511.5
 21
1861.018896718748
 31
0.0
100
AcDbText
 73
     3
  0
TEXT
  5
5F
330
38A
100
AcDbEntity
  8
SPEC
 62
     7
100
AcDbText
 10
-1124.264148251341
 20
1834.979133828046
 30
0.0
 40
28.50472005208333
  1
感度(1W、1m)
 41
0.7
 11
-1124.264148251341
 21
1863.483853880129
 31
0.0
100
AcDbText
 73
     3
  0
TEXT
  5
60
330
38A
100
AcDbEntity
  8
SPEC
 62
     7
100
AcDbText
 10
-1124.875973849656
 20
1777.998517659903
 30
0.0
 40
28.50472005208333
  1
公称インピーダンス
 41
0.7
 11
-1124.875973849656
 21
1806.503237711986
 31
0.0
100
AcDbText
 73
     3
  0
TEXT
  5
61
330
38A
100
AcDbEntity
  8
SPEC
 62
     7
100
AcDbText
 10
-511.5
 20
1776.264176666665
 30
0.0
 40
28.50472005208333
  1
8Ω×2
 41
0.7
 11
-511.5
 21
1804.768896718749
 31
0.0
100
AcDbText
 73
     3
  0
TEXT
  5
62
330
38A
100
AcDbEntity
  8
SPEC
 62
     7
100
AcDbText
 10
-1135.813511150363
 20
1720.847073168581
 30
0.0
 40
28.50472005208333
  1
ドライバー構成
 41
0.7
 11
-1135.813511150363
 21
1749.351793220664
 31
0.0
100
AcDbText
 73
     3
  0
TEXT
  5
63
330
38A
100
AcDbEntity
  8
SPEC
 62
     7
100
AcDbText
 10
-511.5
 20
1720.014176666666
 30
0.0
 40
28.50472005208333
  1
10インチ(254mm)
 41
0.7
 11
-511.5
 21
1748.518896718749
 31
0.0
100
AcDbText
 73
     3
  0
TEXT
  5
64
330
38A
100
AcDbEntity
  8
SPEC
 62
     7
100
AcDbText
 10
-1129.504843901347
 20
1665.778181792219
 30
0.0
 40
28.50472005208333
  1
ローパスフィルター
 41
0.7
 11
-1129.504843901347
 21
1694.282901844303
 31
0.0
100
AcDbText
 73
     3
  0
TEXT
  5
65
330
38A
100
AcDbEntity
  8
SPEC
 62
     7
100
AcDbText
 10
-511.5
 20
1663.764176666666
 30
0.0
 40
28.50472005208333
  1
160Hz
 41
0.7
 11
-511.5
 21
1692.268896718749
 31
0.0
100
AcDbText
 73
     3
  0
TEXT
  5
66
330
38A
100
AcDbEntity
  8
SPEC
 62
     7
100
AcDbText
 10
-1123.476162886447
 20
1612.56596878027
 30
0.0
 40
28.50472005208333
  1
色
 41
0.7
 11
-1123.476162886447
 21
1641.070688832353
 31
0.0
100
AcDbText
 73
     3
  0
TEXT
  5
67
330
38A
100
AcDbEntity
  8
SPEC
 62
     7
100
AcDbText
 10
-511.5
 20
1607.514176666666
 30
0.0
 40
28.50472005208333
  1
黒
 41
0.7
 11
-511.5
 21
1636.018896718749
 31
0.0
100
AcDbText
 73
     3
  0
TEXT
  5
68
330
38A
100
AcDbEntity
  8
SPEC
 62
     7
100
AcDbText
 10
-1125.200215260637
 20
1498.341982066409
 30
0.0
 40
28.50472005208333
  1
質量
 41
0.7
 11
-1125.200215260637
 21
1526.846702118492
 31
0.0
100
AcDbText
 73
     3
  0
TEXT
  5
69
330
38A
100
AcDbEntity
  8
SPEC
 62
     7
100
AcDbText
 10
-511.5
 20
1495.014176666665
 30
0.0
 40
28.50472005208333
  1
19kg
 41
0.7
 11
-511.5
 21
1523.518896718749
 31
0.0
100
AcDbText
 73
     3
  0
TEXT
  5
6A
330
38A
100
AcDbEntity
  8
SPEC
 62
     7
100
AcDbText
 10
-1124.794296797997
 20
1554.068417098022
 30
0.0
 40
28.50472005208333
  1
寸法(W×H×D)
 41
0.7
 11
-1124.794296797997
 21
1582.573137150105
 31
0.0
100
AcDbText
 73
     3
  0
TEXT
  5
6B
330
38A
100
AcDbEntity
  8
SPEC
 62
     7
100
AcDbText
 10
-511.5
 20
1551.264176666666
 30
0.0
 40
28.50472005208333
  1
586×382×343mm(除突起部)
 41
0.7
 11
-511.5
 21
1579.768896718749
 31
0.0
100
AcDbText
 73
     3
  0
TEXT
  5
6C
330
38A
100
AcDbEntity
  8
SPEC
 62
     7
100
AcDbText
 10
-1100.0
 20
1436.665
 30
0.0
 40
28.50472005208333
  1
※100時間、ピンクノイズ:AES30～300Hz/クレストファクタ ー6dB
 41
0.7
 11
-1100.0
 21
1465.169720052083
 31
0.0
100
AcDbText
 73
     3
  0
LINE
  5
6D
330
38A
100
AcDbEntity
  8
DIMNSIONS
  6
Continuous
 62
     7
100
AcDbLine
 10
-522.9849999999997
 20
228.2080000000003
 30
0.0
 11
-522.9849999999997
 21
280.0
 31
0.0
  0
LINE
  5
6E
330
38A
100
AcDbEntity
  8
DIMNSIONS
  6
Continuous
 62
     7
100
AcDbLine
 10
-677.0150000000003
 20
228.2080000000003
 30
0.0
 11
-677.0150000000003
 21
280.0
 31
0.0
  0
LINE
  5
6F
330
38A
100
AcDbEntity
  8
DIMNSIONS
  6
Continuous
 62
     7
100
AcDbLine
 10
-522.9849999999997
 20
250.0
 30
0.0
 11
-677.0150000000003
 21
250.0
 31
0.0
  0
LINE
  5
70
330
38A
100
AcDbEntity
  8
DIMNSIONS
  6
Continuous
 62
     7
100
AcDbLine
 10
-522.9849999999997
 20
250.0
 30
0.0
 11
-560.4943383789059
 21
239.9494030727464
 31
0.0
  0
LINE
  5
71
330
38A
100
AcDbEntity
  8
DIMNSIONS
  6
Continuous
 62
     7
100
AcDbLine
 10
-522.9849999999997
 20
250.0
 30
0.0
 11
-560.4943383789059
 21
260.0505969272536
 31
0.0
  0
LINE
  5
72
330
38A
100
AcDbEntity
  8
DIMNSIONS
  6
Continuous
 62
     7
100
AcDbLine
 10
-677.0150000000003
 20
250.0
 30
0.0
 11
-639.5056616210941
 21
260.0505969272536
 31
0.0
  0
LINE
  5
73
330
38A
100
AcDbEntity
  8
DIMNSIONS
  6
Continuous
 62
     7
100
AcDbLine
 10
-677.0150000000003
 20
250.0
 30
0.0
 11
-639.5056616210941
 21
239.9494030727464
 31
0.0
  0
TEXT
  5
74
330
38A
100
AcDbEntity
  8
DIMNSIONS
 62
     7
100
AcDbText
 10
-639.6875
 20
264.9083333333333
 30
0.0
 40
40.72102864583334
  1
154
 41
0.7
 11
-639.6875
 21
305.6293619791667
 31
0.0
100
AcDbText
 73
     3
  0
LINE
  5
75
330
38A
100
AcDbEntity
  8
DIMNSIONS
  6
Continuous
 62
     7
100
AcDbLine
 10
-672.0
 20
210.2080000000005
 30
0.0
 11
-955.0
 21
210.2080000000005
 31
0.0
  0
LINE
  5
76
330
38A
100
AcDbEntity
  8
DIMNSIONS
  6
Continuous
 62
     7
100
AcDbLine
 10
-699.5150000000003
 20
205.7080000000003
 30
0.0
 11
-955.0
 21
205.7080000000003
 31
0.0
  0
LINE
  5
77
330
38A
100
AcDbEntity
  8
DIMNSIONS
  6
Continuous
 62
     7
100
AcDbLine
 10
-925.0
 20
205.7080000000003
 30
0.0
 11
-925.0
 21
210.2080000000005
 31
0.0
  0
LINE
  5
78
330
38A
100
AcDbEntity
  8
DIMNSIONS
  6
Continuous
 62
     7
100
AcDbLine
 10
-925.0
 20
210.2080000000005
 30
0.0
 11
-925.0
 21
262.7080000000006
 31
0.0
  0
LINE
  5
79
330
38A
100
AcDbEntity
  8
DIMNSIONS
  6
Continuous
 62
     7
100
AcDbLine
 10
-925.0
 20
210.2080000000005
 30
0.0
 11
-935.0505969272536
 21
247.7173383789068
 31
0.0
  0
LINE
  5
7A
330
38A
100
AcDbEntity
  8
DIMNSIONS
  6
Continuous
 62
     7
100
AcDbLine
 10
-925.0
 20
210.2080000000005
 30
0.0
 11
-914.9494030727465
 21
247.7173383789068
 31
0.0
  0
LINE
  5
7B
330
38A
100
AcDbEntity
  8
DIMNSIONS
  6
Continuous
 62
     7
100
AcDbLine
 10
-925.0
 20
205.7080000000003
 30
0.0
 11
-925.0
 21
120.625
 31
0.0
  0
LINE
  5
7C
330
38A
100
AcDbEntity
  8
DIMNSIONS
  6
Continuous
 62
     7
100
AcDbLine
 10
-925.0
 20
205.7080000000003
 30
0.0
 11
-914.9494030727465
 21
168.198661621094
 31
0.0
  0
LINE
  5
7D
330
38A
100
AcDbEntity
  8
DIMNSIONS
  6
Continuous
 62
     7
100
AcDbLine
 10
-925.0
 20
205.7080000000003
 30
0.0
 11
-935.0505969272536
 21
168.198661621094
 31
0.0
  0
TEXT
  5
7E
330
38A
100
AcDbEntity
  8
DIMNSIONS
 62
     7
100
AcDbText
 10
-939.9083333333331
 20
120.625
 30
0.0
 40
40.72102864583334
  1
4.5
 50
90.0
 41
0.7
 11
-980.6293619791665
 21
120.625
 31
0.0
100
AcDbText
 73
     3
  0
LINE
  5
7F
330
38A
100
AcDbEntity
  8
DIMNSIONS
  6
Continuous
 62
     7
100
AcDbLine
 10
-915.2349999999996
 20
-137.6999999999998
 30
0.0
 11
-1030.0
 21
-137.6999999999998
 31
0.0
  0
LINE
  5
80
330
38A
100
AcDbEntity
  8
DIMNSIONS
  6
Continuous
 62
     7
100
AcDbLine
 10
-699.5150000000003
 20
205.7080000000003
 30
0.0
 11
-1030.0
 21
205.7080000000003
 31
0.0
  0
LINE
  5
81
330
38A
100
AcDbEntity
  8
DIMNSIONS
  6
Continuous
 62
     7
100
AcDbLine
 10
-1000.0
 20
-137.6999999999998
 30
0.0
 11
-1000.0
 21
205.7080000000003
 31
0.0
  0
LINE
  5
82
330
38A
100
AcDbEntity
  8
DIMNSIONS
  6
Continuous
 62
     7
100
AcDbLine
 10
-1000.0
 20
-137.6999999999998
 30
0.0
 11
-1010.050596927253
 21
-100.1906616210935
 31
0.0
  0
LINE
  5
83
330
38A
100
AcDbEntity
  8
DIMNSIONS
  6
Continuous
 62
     7
100
AcDbLine
 10
-1000.0
 20
-137.6999999999998
 30
0.0
 11
-989.9494030727465
 21
-100.1906616210935
 31
0.0
  0
LINE
  5
84
330
38A
100
AcDbEntity
  8
DIMNSIONS
  6
Continuous
 62
     7
100
AcDbLine
 10
-1000.0
 20
205.7080000000003
 30
0.0
 11
-989.9494030727465
 21
168.198661621094
 31
0.0
  0
LINE
  5
85
330
38A
100
AcDbEntity
  8
DIMNSIONS
  6
Continuous
 62
     7
100
AcDbLine
 10
-1000.0
 20
205.7080000000003
 30
0.0
 11
-1010.050596927253
 21
168.198661621094
 31
0.0
  0
TEXT
  5
86
330
38A
100
AcDbEntity
  8
DIMNSIONS
 62
     7
100
AcDbText
 10
-1014.908333333333
 20
-5.683499999999758
 30
0.0
 40
40.72102864583334
  1
343
 50
90.0
 41
0.7
 11
-1055.629361979166
 21
-5.683499999999753
 31
0.0
100
AcDbText
 73
     3
  0
LINE
  5
87
330
38A
100
AcDbEntity
  8
DIMNSIONS
  6
Continuous
 62
     7
100
AcDbLine
 10
-915.2499999999999
 20
-137.6999999999996
 30
0.0
 11
-1030.0
 21
-137.6999999999996
 31
0.0
  0
LINE
  5
88
330
38A
100
AcDbEntity
  8
DIMNSIONS
  6
Continuous
 62
     7
100
AcDbLine
 10
-414.4823763680842
 20
-140.6999999999996
 30
0.0
 11
-1030.0
 21
-140.6999999999996
 31
0.0
  0
LINE
  5
89
330
38A
100
AcDbEntity
  8
DIMNSIONS
  6
Continuous
 62
     7
100
AcDbLine
 10
-1000.0
 20
-140.6999999999996
 30
0.0
 11
-1000.0
 21
-137.6999999999996
 31
0.0
  0
LINE
  5
8A
330
38A
100
AcDbEntity
  8
DIMNSIONS
  6
Continuous
 62
     7
100
AcDbLine
 10
-1000.0
 20
-137.6999999999996
 30
0.0
 11
-1000.0
 21
-85.19999999999958
 31
0.0
  0
LINE
  5
8B
330
38A
100
AcDbEntity
  8
DIMNSIONS
  6
Continuous
 62
     7
100
AcDbLine
 10
-1000.0
 20
-137.6999999999996
 30
0.0
 11
-1010.050596927253
 21
-100.1906616210933
 31
0.0
  0
LINE
  5
8C
330
38A
100
AcDbEntity
  8
DIMNSIONS
  6
Continuous
 62
     7
100
AcDbLine
 10
-1000.0
 20
-137.6999999999996
 30
0.0
 11
-989.9494030727465
 21
-100.1906616210933
 31
0.0
  0
LINE
  5
8D
330
38A
100
AcDbEntity
  8
DIMNSIONS
  6
Continuous
 62
     7
100
AcDbLine
 10
-1000.0
 20
-140.6999999999996
 30
0.0
 11
-1000.0
 21
-189.1583333333328
 31
0.0
  0
LINE
  5
8E
330
38A
100
AcDbEntity
  8
DIMNSIONS
  6
Continuous
 62
     7
100
AcDbLine
 10
-1000.0
 20
-140.6999999999996
 30
0.0
 11
-989.9494030727465
 21
-178.2093383789058
 31
0.0
  0
LINE
  5
8F
330
38A
100
AcDbEntity
  8
DIMNSIONS
  6
Continuous
 62
     7
100
AcDbLine
 10
-1000.0
 20
-140.6999999999996
 30
0.0
 11
-1010.050596927253
 21
-178.2093383789058
 31
0.0
  0
TEXT
  5
90
330
38A
100
AcDbEntity
  8
DIMNSIONS
 62
     7
100
AcDbText
 10
-1014.908333333333
 20
-189.1583333333328
 30
0.0
 40
40.72102864583334
  1
3
 50
90.0
 41
0.7
 11
-1055.629361979167
 21
-189.1583333333328
 31
0.0
100
AcDbText
 73
     3
  0
LINE
  5
91
330
38A
100
AcDbEntity
  8
DIMNSIONS
  6
Continuous
 62
     7
100
AcDbLine
 10
-915.2499999999999
 20
-9.69999999999959
 30
0.0
 11
-959.7004172281359
 21
-9.69999999999959
 31
0.0
  0
LINE
  5
92
330
38A
100
AcDbEntity
  8
DIMNSIONS
  6
Continuous
 62
     7
100
AcDbLine
 10
-915.2499999999999
 20
-137.6999999999996
 30
0.0
 11
-959.7004172281359
 21
-137.6999999999996
 31
0.0
  0
LINE
  5
93
330
38A
100
AcDbEntity
  8
DIMNSIONS
  6
Continuous
 62
     7
100
AcDbLine
 10
-929.700417228136
 20
-9.69999999999959
 30
0.0
 11
-929.700417228136
 21
-137.6999999999996
 31
0.0
  0
LINE
  5
94
330
38A
100
AcDbEntity
  8
DIMNSIONS
  6
Continuous
 62
     7
100
AcDbLine
 10
-929.700417228136
 20
-9.69999999999959
 30
0.0
 11
-919.6498203008824
 21
-47.20933837890584
 31
0.0
  0
LINE
  5
95
330
38A
100
AcDbEntity
  8
DIMNSIONS
  6
Continuous
 62
     7
100
AcDbLine
 10
-929.700417228136
 20
-9.69999999999959
 30
0.0
 11
-939.7510141553897
 21
-47.20933837890584
 31
0.0
  0
LINE
  5
96
330
38A
100
AcDbEntity
  8
DIMNSIONS
  6
Continuous
 62
     7
100
AcDbLine
 10
-929.700417228136
 20
-137.6999999999996
 30
0.0
 11
-939.7510141553897
 21
-100.1906616210933
 31
0.0
  0
LINE
  5
97
330
38A
100
AcDbEntity
  8
DIMNSIONS
  6
Continuous
 62
     7
100
AcDbLine
 10
-929.700417228136
 20
-137.6999999999996
 30
0.0
 11
-919.6498203008824
 21
-100.1906616210933
 31
0.0
  0
TEXT
  5
98
330
38A
100
AcDbEntity
  8
DIMNSIONS
 62
     7
100
AcDbText
 10
-944.6087505614691
 20
-113.3874999999996
 30
0.0
 40
40.72102864583334
  1
128
 50
90.0
 41
0.7
 11
-985.3297792073025
 21
-113.3874999999996
 31
0.0
100
AcDbText
 73
     3
  0
LINE
  5
99
330
38A
100
AcDbEntity
  8
DIMNSIONS
  6
Continuous
 62
     7
100
AcDbLine
 10
-915.2499999999999
 20
-217.9839999999997
 30
0.0
 11
-1030.0
 21
-217.9839999999997
 31
0.0
  0
LINE
  5
9A
330
38A
100
AcDbEntity
  8
DIMNSIONS
  6
Continuous
 62
     7
100
AcDbLine
 10
-841.5749999999999
 20
-612.6999999999998
 30
0.0
 11
-1030.0
 21
-612.6999999999998
 31
0.0
  0
LINE
  5
9B
330
38A
100
AcDbEntity
  8
DIMNSIONS
  6
Continuous
 62
     7
100
AcDbLine
 10
-1000.0
 20
-217.9839999999997
 30
0.0
 11
-1000.0
 21
-612.6999999999998
 31
0.0
  0
LINE
  5
9C
330
38A
100
AcDbEntity
  8
DIMNSIONS
  6
Continuous
 62
     7
100
AcDbLine
 10
-1000.0
 20
-217.9839999999997
 30
0.0
 11
-989.9494030727465
 21
-255.493338378906
 31
0.0
  0
LINE
  5
9D
330
38A
100
AcDbEntity
  8
DIMNSIONS
  6
Continuous
 62
     7
100
AcDbLine
 10
-1000.0
 20
-217.9839999999997
 30
0.0
 11
-1010.050596927253
 21
-255.493338378906
 31
0.0
  0
LINE
  5
9E
330
38A
100
AcDbEntity
  8
DIMNSIONS
  6
Continuous
 62
     7
100
AcDbLine
 10
-1000.0
 20
-612.6999999999998
 30
0.0
 11
-1010.050596927253
 21
-575.1906616210935
 31
0.0
  0
LINE
  5
9F
330
38A
100
AcDbEntity
  8
DIMNSIONS
  6
Continuous
 62
     7
100
AcDbLine
 10
-1000.0
 20
-612.6999999999998
 30
0.0
 11
-989.9494030727465
 21
-575.1906616210935
 31
0.0
  0
TEXT
  5
A0
330
38A
100
AcDbEntity
  8
DIMNSIONS
 62
     7
100
AcDbText
 10
-1014.908333333333
 20
-455.0294999999997
 30
0.0
 40
40.72102864583334
  1
395
 50
90.0
 41
0.7
 11
-1055.629361979166
 21
-455.0294999999997
 31
0.0
100
AcDbText
 73
     3
  0
LINE
  5
A1
330
38A
100
AcDbEntity
  8
DIMNSIONS
  6
Continuous
 62
     7
100
AcDbLine
 10
-915.2499999999999
 20
-217.9839999999997
 30
0.0
 11
-954.7660000000004
 21
-217.9839999999997
 31
0.0
  0
LINE
  5
A2
330
38A
100
AcDbEntity
  8
DIMNSIONS
  6
Continuous
 62
     7
100
AcDbLine
 10
-915.2499999999999
 20
-600.0
 30
0.0
 11
-954.7660000000004
 21
-600.0
 31
0.0
  0
LINE
  5
A3
330
38A
100
AcDbEntity
  8
DIMNSIONS
  6
Continuous
 62
     7
100
AcDbLine
 10
-924.7660000000003
 20
-217.9839999999997
 30
0.0
 11
-924.7660000000003
 21
-600.0
 31
0.0
  0
LINE
  5
A4
330
38A
100
AcDbEntity
  8
DIMNSIONS
  6
Continuous
 62
     7
100
AcDbLine
 10
-924.7660000000003
 20
-217.9839999999997
 30
0.0
 11
-914.7154030727463
 21
-255.493338378906
 31
0.0
  0
LINE
  5
A5
330
38A
100
AcDbEntity
  8
DIMNSIONS
  6
Continuous
 62
     7
100
AcDbLine
 10
-924.7660000000003
 20
-217.9839999999997
 30
0.0
 11
-934.8165969272541
 21
-255.493338378906
 31
0.0
  0
LINE
  5
A6
330
38A
100
AcDbEntity
  8
DIMNSIONS
  6
Continuous
 62
     7
100
AcDbLine
 10
-924.7660000000003
 20
-600.0
 30
0.0
 11
-934.8165969272541
 21
-562.4906616210937
 31
0.0
  0
LINE
  5
A7
330
38A
100
AcDbEntity
  8
DIMNSIONS
  6
Continuous
 62
     7
100
AcDbLine
 10
-924.7660000000003
 20
-600.0
 30
0.0
 11
-914.7154030727463
 21
-562.4906616210937
 31
0.0
  0
TEXT
  5
A8
330
38A
100
AcDbEntity
  8
DIMNSIONS
 62
     7
100
AcDbText
 10
-939.6743333333333
 20
-448.6794999999998
 30
0.0
 40
40.72102864583334
  1
382
 50
90.0
 41
0.7
 11
-980.3953619791668
 21
-448.6794999999998
 31
0.0
100
AcDbText
 73
     3
  0
LINE
  5
A9
330
38A
100
AcDbEntity
  8
DIMNSIONS
  6
Continuous
 62
     7
100
AcDbLine
 10
-892.75
 20
-622.5
 30
0.0
 11
-892.75
 21
-730.0
 31
0.0
  0
LINE
  5
AA
330
38A
100
AcDbEntity
  8
DIMNSIONS
  6
Continuous
 62
     7
100
AcDbLine
 10
-307.25
 20
-622.5
 30
0.0
 11
-307.25
 21
-730.0
 31
0.0
  0
LINE
  5
AB
330
38A
100
AcDbEntity
  8
DIMNSIONS
  6
Continuous
 62
     7
100
AcDbLine
 10
-892.75
 20
-700.0
 30
0.0
 11
-307.25
 21
-700.0
 31
0.0
  0
LINE
  5
AC
330
38A
100
AcDbEntity
  8
DIMNSIONS
  6
Continuous
 62
     7
100
AcDbLine
 10
-892.75
 20
-700.0
 30
0.0
 11
-855.2406616210937
 21
-689.9494030727464
 31
0.0
  0
LINE
  5
AD
330
38A
100
AcDbEntity
  8
DIMNSIONS
  6
Continuous
 62
     7
100
AcDbLine
 10
-892.75
 20
-700.0
 30
0.0
 11
-855.2406616210937
 21
-710.0505969272535
 31
0.0
  0
LINE
  5
AE
330
38A
100
AcDbEntity
  8
DIMNSIONS
  6
Continuous
 62
     7
100
AcDbLine
 10
-307.25
 20
-700.0
 30
0.0
 11
-344.7593383789063
 21
-710.0505969272535
 31
0.0
  0
LINE
  5
AF
330
38A
100
AcDbEntity
  8
DIMNSIONS
  6
Continuous
 62
     7
100
AcDbLine
 10
-307.25
 20
-700.0
 30
0.0
 11
-344.7593383789063
 21
-689.9494030727464
 31
0.0
  0
TEXT
  5
B0
330
38A
100
AcDbEntity
  8
DIMNSIONS
 62
     7
100
AcDbText
 10
-639.6875
 20
-685.0916666666667
 30
0.0
 40
40.72102864583334
  1
586
 41
0.7
 11
-639.6875
 21
-644.3706380208332
 31
0.0
100
AcDbText
 73
     3
  0
TEXT
  5
B1
330
38A
100
AcDbEntity
  8
DIMNSIONS
 62
     7
100
AcDbText
 10
-199.9999999999996
 20
-1576.51224
 30
0.0
 40
36.64892578125
  1
(単位：mm)
 41
0.7
 11
-199.9999999999996
 21
-1539.86331421875
 31
0.0
100
AcDbText
 73
     3
  0
LINE
  5
B2
330
38A
100
AcDbEntity
  8
DATA
  6
Continuous
 62
     7
100
AcDbLine
 10
-250.0
 20
-600.0
 30
0.0
 11
93.40799999999944
 21
-600.0
 31
0.0
  0
LINE
  5
B3
330
38A
100
AcDbEntity
  8
DATA
  6
Continuous
 62
     7
100
AcDbLine
 10
-250.0
 20
-217.9839999999997
 30
0.0
 11
93.40800000000035
 21
-217.9839999999997
 31
0.0
  0
LINE
  5
B4
330
38A
100
AcDbEntity
  8
DATA
  6
Continuous
 62
     7
100
AcDbLine
 10
-892.75
 20
-137.6999999999996
 30
0.0
 11
-307.249999999999
 21
-137.6999999999996
 31
0.0
  0
LINE
  5
B5
330
38A
100
AcDbEntity
  8
DATA
  6
Continuous
 62
     7
100
AcDbLine
 10
-892.75
 20
-86.19999999999958
 30
0.0
 11
-307.249999999999
 21
-86.19999999999958
 31
0.0
  0
LINE
  5
B6
330
38A
100
AcDbEntity
  8
DATA
  6
Continuous
 62
     7
100
AcDbLine
 10
-873.75
 20
-67.19999999999959
 30
0.0
 11
-326.249999999999
 21
-67.19999999999959
 31
0.0
  0
LINE
  5
B7
330
38A
100
AcDbEntity
  8
DATA
  6
Continuous
 62
     7
100
AcDbLine
 10
-892.75
 20
-600.0
 30
0.0
 11
-307.25
 21
-600.0
 31
0.0
  0
LINE
  5
B8
330
38A
100
AcDbEntity
  8
DATA
  6
Continuous
 62
     7
100
AcDbLine
 10
-892.75
 20
-217.9839999999997
 30
0.0
 11
-307.25
 21
-217.9839999999997
 31
0.0
  0
CIRCLE
  5
B9
330
38A
100
AcDbEntity
  8
DATA
  6
Continuous
 62
     7
100
AcDbCircle
 10
-734.7349999999996
 20
-407.9839999999999
 30
0.0
 40
44.5
  0
CIRCLE
  5
BA
330
38A
100
AcDbEntity
  8
DATA
  6
Continuous
 62
     7
100
AcDbCircle
 10
-734.7349999999996
 20
-407.9839999999999
 30
0.0
 40
35.0
  0
LINE
  5
BB
330
38A
100
AcDbEntity
  8
DATA
  6
Continuous
 62
     7
100
AcDbLine
 10
-819.0749999999997
 20
-612.6999999999998
 30
0.0
 11
-803.1999999999998
 21
-612.6999999999998
 31
0.0
  0
LINE
  5
BC
330
38A
100
AcDbEntity
  8
DATA
  6
Continuous
 62
     7
100
AcDbLine
 10
-819.0749999999997
 20
-600.0
 30
0.0
 11
-819.0749999999997
 21
-612.6999999999998
 31
0.0
  0
LINE
  5
BD
330
38A
100
AcDbEntity
  8
DATA
  6
Continuous
 62
     7
100
AcDbLine
 10
-803.1999999999998
 20
-612.6999999999998
 30
0.0
 11
-787.3249999999998
 21
-612.6999999999998
 31
0.0
  0
LINE
  5
BE
330
38A
100
AcDbEntity
  8
DATA
  6
Continuous
 62
     7
100
AcDbLine
 10
-787.3249999999998
 20
-612.6999999999998
 30
0.0
 11
-787.3249999999998
 21
-600.0
 31
0.0
  0
CIRCLE
  5
BF
330
38A
100
AcDbEntity
  8
DATA
  6
Continuous
 62
     7
100
AcDbCircle
 10
-836.0
 20
-561.4919999999997
 30
0.0
 40
6.75
  0
CIRCLE
  5
C0
330
38A
100
AcDbEntity
  8
DATA
  6
Continuous
 62
     7
100
AcDbCircle
 10
-836.0
 20
-561.4919999999997
 30
0.0
 40
4.25
  0
LINE
  5
C1
330
38A
100
AcDbEntity
  8
DATA
  6
Continuous
 62
     7
100
AcDbLine
 10
-838.25
 20
-561.4919999999997
 30
0.0
 11
-833.75
 21
-561.4919999999997
 31
0.0
  0
LINE
  5
C2
330
38A
100
AcDbEntity
  8
DATA
  6
Continuous
 62
     7
100
AcDbLine
 10
-836.0
 20
-563.7419999999996
 30
0.0
 11
-836.0
 21
-559.2419999999997
 31
0.0
  0
CIRCLE
  5
C3
330
38A
100
AcDbEntity
  8
DATA
  6
Continuous
 62
     7
100
AcDbCircle
 10
-836.0
 20
-256.4919999999997
 30
0.0
 40
6.75
  0
CIRCLE
  5
C4
330
38A
100
AcDbEntity
  8
DATA
  6
Continuous
 62
     7
100
AcDbCircle
 10
-836.0
 20
-256.4919999999997
 30
0.0
 40
4.25
  0
LINE
  5
C5
330
38A
100
AcDbEntity
  8
DATA
  6
Continuous
 62
     7
100
AcDbLine
 10
-838.25
 20
-256.4919999999997
 30
0.0
 11
-833.75
 21
-256.4919999999997
 31
0.0
  0
LINE
  5
C6
330
38A
100
AcDbEntity
  8
DATA
  6
Continuous
 62
     7
100
AcDbLine
 10
-836.0
 20
-258.7419999999998
 30
0.0
 11
-836.0
 21
-254.2419999999995
 31
0.0
  0
LINE
  5
C7
330
38A
100
AcDbEntity
  8
DATA
  6
Continuous
 62
     7
100
AcDbLine
 10
-777.2023763680845
 20
-138.9699999999998
 30
0.0
 11
-689.7023763680845
 21
-138.97
 31
0.0
  0
LINE
  5
C8
330
38A
100
AcDbEntity
  8
DATA
  6
Continuous
 62
     7
100
AcDbLine
 10
-777.9523763680844
 20
-137.6999999999996
 30
0.0
 11
-777.2023763680845
 21
-138.9699999999998
 31
0.0
  0
LINE
  5
C9
330
38A
100
AcDbEntity
  8
DATA
  6
Continuous
 62
     7
100
AcDbLine
 10
-840.2173763680846
 20
-139.6999999999998
 30
0.0
 11
-829.2173763680846
 21
-139.6999999999998
 31
0.0
  0
LINE
  5
CA
330
38A
100
AcDbEntity
  8
DATA
  6
Continuous
 62
     7
100
AcDbLine
 10
-841.4673763680847
 20
-137.6999999999996
 30
0.0
 11
-840.2173763680846
 21
-139.6999999999998
 31
0.0
  0
LINE
  5
CB
330
38A
100
AcDbEntity
  8
DATA
  6
Continuous
 62
     7
100
AcDbLine
 10
-829.2173763680846
 20
-139.6999999999998
 30
0.0
 11
-827.9673763680847
 21
-137.6999999999996
 31
0.0
  0
LINE
  5
CC
330
38A
100
AcDbEntity
  8
DATA
  6
Continuous
 62
     7
100
AcDbLine
 10
-689.7023763680845
 20
-138.97
 30
0.0
 11
-688.9523763680845
 21
-137.6999999999996
 31
0.0
  0
LINE
  5
CD
330
38A
100
AcDbEntity
  8
DATA
  6
Continuous
 62
     7
100
AcDbLine
 10
-250.0
 20
-600.0
 30
0.0
 11
-250.0
 21
-217.9839999999997
 31
0.0
  0
LINE
  5
CE
330
38A
100
AcDbEntity
  8
DATA
  6
Continuous
 62
     7
100
AcDbLine
 10
-198.5
 20
-599.9999999999996
 30
0.0
 11
-198.5
 21
-217.9839999999997
 31
0.0
  0
LINE
  5
CF
330
38A
100
AcDbEntity
  8
DATA
  6
Continuous
 62
     7
100
AcDbLine
 10
-122.0
 20
-600.0
 30
0.0
 11
-122.0
 21
-217.9839999999997
 31
0.0
  0
LINE
  5
D0
330
38A
100
AcDbEntity
  8
DATA
  6
Continuous
 62
     7
100
AcDbLine
 10
-231.0
 20
-580.9999999999996
 30
0.0
 11
-231.0
 21
-236.9839999999997
 31
0.0
  0
ARC
  5
D1
330
38A
100
AcDbEntity
  8
DATA
  6
Continuous
 62
     7
100
AcDbCircle
 10
-487.5150000000003
 20
-408.2339999999994
 30
0.0
 40
84.00000000000012
100
AcDbArc
 50
306.1286141453075
 51
114.3138768513885
  0
ARC
  5
D2
330
38A
100
AcDbEntity
  8
DATA
  6
Continuous
 62
     7
100
AcDbCircle
 10
-487.5150000000003
 20
-408.2339999999994
 30
0.0
 40
95.50000000000007
100
AcDbArc
 50
312.1506633561941
 51
117.2488728328566
  0
ARC
  5
D3
330
38A
100
AcDbEntity
  8
DATA
  6
Continuous
 62
     7
100
AcDbCircle
 10
-487.5150000000003
 20
-408.2339999999994
 30
0.0
 40
114.5
100
AcDbArc
 50
323.1658662726035
 51
122.477733206177
  0
ARC
  5
D4
330
38A
100
AcDbEntity
  8
DATA
  6
Continuous
 62
     7
100
AcDbCircle
 10
-487.5150000000003
 20
-408.2339999999994
 30
0.0
 40
128.7500000000002
100
AcDbArc
 50
333.2037843136192
 51
126.7220235554992
  0
ARC
  5
D5
330
38A
100
AcDbEntity
  8
DATA
  6
Continuous
 62
     7
100
AcDbCircle
 10
-598.3500000000012
 20
-405.942000000002
 30
0.0
 40
106.4336647870429
100
AcDbArc
 50
3.366460663431058
 51
86.63353933656932
  0
LINE
  5
D6
330
38A
100
AcDbEntity
  8
DATA
  6
Continuous
 62
     7
100
AcDbLine
 10
-615.875
 20
-612.6999999999998
 30
0.0
 11
-600.0
 21
-612.6999999999998
 31
0.0
  0
CIRCLE
  5
D7
330
38A
100
AcDbEntity
  8
DATA
  6
Continuous
 62
     7
100
AcDbCircle
 10
-600.0
 20
-561.4919999999997
 30
0.0
 40
6.75
  0
LINE
  5
D8
330
38A
100
AcDbEntity
  8
DATA
  6
Continuous
 62
     7
100
AcDbLine
 10
-615.875
 20
-600.0
 30
0.0
 11
-615.875
 21
-612.6999999999998
 31
0.0
  0
ARC
  5
D9
330
38A
100
AcDbEntity
  8
DATA
  6
Continuous
 62
     7
100
AcDbCircle
 10
-487.5150000000003
 20
-408.2339999999994
 30
0.0
 40
57.58900000000021
100
AcDbArc
 50
292.9278929275916
 51
108.3906113793167
  0
ARC
  5
DA
330
38A
100
AcDbEntity
  8
DATA
  6
Continuous
 62
     7
100
AcDbCircle
 10
-487.5150000000003
 20
-408.2339999999994
 30
0.0
 40
61.36200000000004
100
AcDbArc
 50
294.8147092951645
 51
109.1456535719467
  0
ARC
  5
DB
330
38A
100
AcDbEntity
  8
DATA
  6
Continuous
 62
     7
100
AcDbCircle
 10
-487.5150000000003
 20
-408.2339999999994
 30
0.0
 40
65.13500000000025
100
AcDbArc
 50
296.6899479037957
 51
109.9373457851117
  0
ARC
  5
DC
330
38A
100
AcDbEntity
  8
DATA
  6
Continuous
 62
     7
100
AcDbCircle
 10
-487.5150000000003
 20
-408.2339999999994
 30
0.0
 40
68.90800000000002
100
AcDbArc
 50
298.5610541197136
 51
110.7609774494231
  0
ARC
  5
DD
330
38A
100
AcDbEntity
  8
DATA
  6
Continuous
 62
     7
100
AcDbCircle
 10
-487.5150000000003
 20
-408.2339999999994
 30
0.0
 40
72.68100000000011
100
AcDbArc
 50
300.4345978951131
 51
111.6129297373063
  0
ARC
  5
DE
330
38A
100
AcDbEntity
  8
DATA
  6
Continuous
 62
     7
100
AcDbCircle
 10
-487.5150000000003
 20
-408.2339999999994
 30
0.0
 40
76.45400000000049
100
AcDbArc
 50
302.3165897719226
 51
112.4904124306649
  0
ARC
  5
DF
330
38A
100
AcDbEntity
  8
DATA
  6
Continuous
 62
     7
100
AcDbCircle
 10
-487.5150000000003
 20
-408.2339999999994
 30
0.0
 40
80.22700000000019
100
AcDbArc
 50
304.2127293990603
 51
113.391276237864
  0
ARC
  5
E0
330
38A
100
AcDbEntity
  8
DATA
  6
Continuous
 62
     7
100
AcDbCircle
 10
-292.0999999999994
 20
-549.6920000000005
 30
0.0
 40
115.2443057161618
100
AcDbArc
 50
97.54632959655591
 51
130.6012946450042
  0
ARC
  5
E1
330
38A
100
AcDbEntity
  8
DATA
  6
Continuous
 62
     7
100
AcDbCircle
 10
-487.5150000000003
 20
-408.2339999999994
 30
0.0
 40
42.50000000000022
100
AcDbArc
 50
285.0575077158726
 51
105.8964765819734
  0
ARC
  5
E2
330
38A
100
AcDbEntity
  8
DATA
  6
Continuous
 62
     7
100
AcDbCircle
 10
-487.5150000000003
 20
-408.2339999999994
 30
0.0
 40
41.00000000000004
100
AcDbArc
 50
284.22262081332
 51
105.7148164430482
  0
ARC
  5
E3
330
38A
100
AcDbEntity
  8
DATA
  6
Continuous
 62
     7
100
AcDbCircle
 10
-487.5150000000003
 20
-408.2339999999994
 30
0.0
 40
46.26999999999995
100
AcDbArc
 50
287.1001829114942
 51
106.4180627947925
  0
ARC
  5
E4
330
38A
100
AcDbEntity
  8
DATA
  6
Continuous
 62
     7
100
AcDbCircle
 10
-487.5150000000003
 20
-408.2339999999994
 30
0.0
 40
53.81600000000029
100
AcDbArc
 50
291.0207539324669
 51
107.6783972431873
  0
ARC
  5
E5
330
38A
100
AcDbEntity
  8
DATA
  6
Continuous
 62
     7
100
AcDbCircle
 10
-487.5150000000003
 20
-408.2339999999994
 30
0.0
 40
50.04299999999993
100
AcDbArc
 50
289.0826524165437
 51
107.0172047636761
  0
ARC
  5
E6
330
38A
100
AcDbEntity
  8
DATA
  6
Continuous
 62
     7
100
AcDbCircle
 10
-415.5374999999994
 20
-402.8169999999985
 30
0.0
 40
76.62624897024514
100
AcDbArc
 50
177.6626941408772
 51
309.2072035049675
  0
LINE
  5
E7
330
38A
100
AcDbEntity
  8
DATA
  6
Continuous
 62
     7
100
AcDbLine
 10
-412.6750000000001
 20
-612.6999999999998
 30
0.0
 11
-396.8000000000001
 21
-612.6999999999998
 31
0.0
  0
LINE
  5
E8
330
38A
100
AcDbEntity
  8
DATA
  6
Continuous
 62
     7
100
AcDbLine
 10
-600.0
 20
-612.6999999999998
 30
0.0
 11
-584.125
 21
-612.6999999999998
 31
0.0
  0
LINE
  5
E9
330
38A
100
AcDbEntity
  8
DATA
  6
Continuous
 62
     7
100
AcDbLine
 10
-584.125
 20
-612.6999999999998
 30
0.0
 11
-584.125
 21
-600.0
 31
0.0
  0
LINE
  5
EA
330
38A
100
AcDbEntity
  8
DATA
  6
Continuous
 62
     7
100
AcDbLine
 10
-412.6750000000001
 20
-600.0
 30
0.0
 11
-412.6750000000001
 21
-612.6999999999998
 31
0.0
  0
LINE
  5
EB
330
38A
100
AcDbEntity
  8
DATA
  6
Continuous
 62
     7
100
AcDbLine
 10
-396.8000000000001
 20
-612.6999999999998
 30
0.0
 11
-380.9249999999992
 21
-612.6999999999998
 31
0.0
  0
LINE
  5
EC
330
38A
100
AcDbEntity
  8
DATA
  6
Continuous
 62
     7
100
AcDbLine
 10
-380.9249999999992
 20
-612.6999999999998
 30
0.0
 11
-380.9249999999992
 21
-600.0
 31
0.0
  0
CIRCLE
  5
ED
330
38A
100
AcDbEntity
  8
DATA
  6
Continuous
 62
     7
100
AcDbCircle
 10
-364.7650000000003
 20
-408.2339999999994
 30
0.0
 40
4.0
  0
LINE
  5
EE
330
38A
100
AcDbEntity
  8
DATA
  6
Continuous
 62
     7
100
AcDbLine
 10
-367.2650000000003
 20
-408.2339999999994
 30
0.0
 11
-362.2650000000003
 21
-408.2339999999994
 31
0.0
  0
LINE
  5
EF
330
38A
100
AcDbEntity
  8
DATA
  6
Continuous
 62
     7
100
AcDbLine
 10
-364.7650000000003
 20
-410.7339999999994
 30
0.0
 11
-364.7650000000003
 21
-405.7339999999994
 31
0.0
  0
CIRCLE
  5
F0
330
38A
100
AcDbEntity
  8
DATA
  6
Continuous
 62
     7
100
AcDbCircle
 10
-364.0
 20
-561.4919999999997
 30
0.0
 40
6.75
  0
CIRCLE
  5
F1
330
38A
100
AcDbEntity
  8
DATA
  6
Continuous
 62
     7
100
AcDbCircle
 10
-364.0
 20
-561.4919999999997
 30
0.0
 40
4.25
  0
LINE
  5
F2
330
38A
100
AcDbEntity
  8
DATA
  6
Continuous
 62
     7
100
AcDbLine
 10
-366.25
 20
-561.4919999999997
 30
0.0
 11
-361.75
 21
-561.4919999999997
 31
0.0
  0
LINE
  5
F3
330
38A
100
AcDbEntity
  8
DATA
  6
Continuous
 62
     7
100
AcDbLine
 10
-364.0
 20
-563.7419999999996
 30
0.0
 11
-364.0
 21
-559.2419999999997
 31
0.0
  0
CIRCLE
  5
F4
330
38A
100
AcDbEntity
  8
DATA
  6
Continuous
 62
     7
100
AcDbCircle
 10
-600.0
 20
-561.4919999999997
 30
0.0
 40
4.25
  0
LINE
  5
F5
330
38A
100
AcDbEntity
  8
DATA
  6
Continuous
 62
     7
100
AcDbLine
 10
-602.2499999999999
 20
-561.4919999999997
 30
0.0
 11
-597.75
 21
-561.4919999999997
 31
0.0
  0
LINE
  5
F6
330
38A
100
AcDbEntity
  8
DATA
  6
Continuous
 62
     7
100
AcDbLine
 10
-600.0
 20
-563.7419999999996
 30
0.0
 11
-600.0
 21
-559.2419999999997
 31
0.0
  0
LINE
  5
F7
330
38A
100
AcDbEntity
  8
DATA
  6
Continuous
 62
     7
100
AcDbLine
 10
-393.2649999999994
 20
-514.9999999999996
 30
0.0
 11
-361.2650000000003
 21
-514.9999999999996
 31
0.0
  0
LINE
  5
F8
330
38A
100
AcDbEntity
  8
DATA
  6
Continuous
 62
     7
100
AcDbLine
 10
-361.2650000000003
 20
-546.9999999999997
 30
0.0
 11
-393.2649999999994
 21
-546.9999999999997
 31
0.0
  0
LINE
  5
F9
330
38A
100
AcDbEntity
  8
DATA
  6
Continuous
 62
     7
100
AcDbLine
 10
-393.2649999999994
 20
-520.9999999999996
 30
0.0
 11
-361.2650000000003
 21
-520.9999999999996
 31
0.0
  0
TEXT
  5
FA
330
38A
100
AcDbEntity
  8
DATA
 62
     7
100
AcDbText
 10
-391.7650000000003
 20
-519.7578124999995
 30
0.0
 40
3.30657958984375
  1
CONTROL
 41
0.7
 11
-391.7650000000003
 21
-516.4512329101557
 31
0.0
100
AcDbText
 73
     3
  0
LINE
  5
FB
330
38A
100
AcDbEntity
  8
DATA
  6
Continuous
 62
     7
100
AcDbLine
 10
-393.2649999999994
 20
-546.9999999999997
 30
0.0
 11
-393.2649999999994
 21
-514.9999999999996
 31
0.0
  0
LINE
  5
FC
330
38A
100
AcDbEntity
  8
DATA
  6
Continuous
 62
     7
100
AcDbLine
 10
-361.2650000000003
 20
-514.9999999999996
 30
0.0
 11
-361.2650000000003
 21
-546.9999999999997
 31
0.0
  0
TEXT
  5
FD
330
38A
100
AcDbEntity
  8
DATA
 62
     7
100
AcDbText
 10
-371.5258382154034
 20
-519.7578124999995
 30
0.0
 40
3.30657958984375
  1
SB-2
 41
0.7
 11
-371.5258382154034
 21
-516.4512329101557
 31
0.0
100
AcDbText
 73
     3
  0
CIRCLE
  5
FE
330
38A
100
AcDbEntity
  8
DATA
  6
Continuous
 62
     7
100
AcDbCircle
 10
-381.2103816854606
 20
-346.8589999999995
 30
0.0
 40
4.0
  0
LINE
  5
FF
330
38A
100
AcDbEntity
  8
DATA
  6
Continuous
 62
     7
100
AcDbLine
 10
-383.7103816854606
 20
-346.8589999999995
 30
0.0
 11
-378.7103816854606
 21
-346.8589999999995
 31
0.0
  0
LINE
  5
100
330
38A
100
AcDbEntity
  8
DATA
  6
Continuous
 62
     7
100
AcDbLine
 10
-381.2103816854606
 20
-349.3589999999995
 30
0.0
 11
-381.2103816854606
 21
-344.3589999999997
 31
0.0
  0
LINE
  5
101
330
38A
100
AcDbEntity
  8
DATA
  6
Continuous
 62
     7
100
AcDbLine
 10
13.52499999999962
 20
-612.6999999999998
 30
0.0
 11
29.39999999999962
 21
-612.6999999999998
 31
0.0
  0
LINE
  5
102
330
38A
100
AcDbEntity
  8
DATA
  6
Continuous
 62
     7
100
AcDbLine
 10
-251.2700000000004
 20
-364.2340000000004
 30
0.0
 11
-251.2700000000004
 21
-451.7340000000001
 31
0.0
  0
LINE
  5
103
330
38A
100
AcDbEntity
  8
DATA
  6
Continuous
 62
     7
100
AcDbLine
 10
-135.6999999999998
 20
-612.6999999999998
 30
0.0
 11
-119.8249999999998
 21
-612.6999999999998
 31
0.0
  0
LINE
  5
104
330
38A
100
AcDbEntity
  8
DATA
  6
Continuous
 62
     7
100
AcDbLine
 10
-119.8249999999998
 20
-600.0
 30
0.0
 11
-123.0
 21
-600.0
 31
0.0
  0
LINE
  5
105
330
38A
100
AcDbEntity
  8
DATA
  6
Continuous
 62
     7
100
AcDbLine
 10
-119.8249999999998
 20
-612.6999999999998
 30
0.0
 11
-119.8249999999998
 21
-600.0
 31
0.0
  0
LINE
  5
106
330
38A
100
AcDbEntity
  8
DATA
  6
Continuous
 62
     7
100
AcDbLine
 10
-151.5750000000007
 20
-612.6999999999998
 30
0.0
 11
-135.6999999999998
 21
-612.6999999999998
 31
0.0
  0
LINE
  5
107
330
38A
100
AcDbEntity
  8
DATA
  6
Continuous
 62
     7
100
AcDbLine
 10
-151.5750000000007
 20
-600.0
 30
0.0
 11
-151.5750000000007
 21
-612.6999999999998
 31
0.0
  0
LINE
  5
108
330
38A
100
AcDbEntity
  8
DATA
  6
Continuous
 62
     7
100
AcDbLine
 10
13.52499999999962
 20
-600.0
 30
0.0
 11
13.52499999999962
 21
-612.6999999999998
 31
0.0
  0
LINE
  5
109
330
38A
100
AcDbEntity
  8
DATA
  6
Continuous
 62
     7
100
AcDbLine
 10
-251.2700000000004
 20
-451.7340000000001
 30
0.0
 11
-250.0
 21
-452.4840000000001
 31
0.0
  0
LINE
  5
10A
330
38A
100
AcDbEntity
  8
DATA
  6
Continuous
 62
     7
100
AcDbLine
 10
-253.0
 20
-547.0
 30
0.0
 11
-253.0
 21
-515.0
 31
0.0
  0
LINE
  5
10B
330
38A
100
AcDbEntity
  8
DATA
  6
Continuous
 62
     7
100
AcDbLine
 10
-253.0
 20
-515.0
 30
0.0
 11
-250.0
 21
-515.0
 31
0.0
  0
LINE
  5
10C
330
38A
100
AcDbEntity
  8
DATA
  6
Continuous
 62
     7
100
AcDbLine
 10
-253.0
 20
-547.0
 30
0.0
 11
-250.0
 21
-547.0
 31
0.0
  0
LINE
  5
10D
330
38A
100
AcDbEntity
  8
DATA
  6
Continuous
 62
     7
100
AcDbLine
 10
-252.0
 20
-555.9919999999997
 30
0.0
 11
-252.0
 21
-566.9919999999996
 31
0.0
  0
LINE
  5
10E
330
38A
100
AcDbEntity
  8
DATA
  6
Continuous
 62
     7
100
AcDbLine
 10
-250.0
 20
-554.7419999999997
 30
0.0
 11
-252.0
 21
-555.9919999999997
 31
0.0
  0
LINE
  5
10F
330
38A
100
AcDbEntity
  8
DATA
  6
Continuous
 62
     7
100
AcDbLine
 10
-252.0
 20
-566.9919999999996
 30
0.0
 11
-250.0
 21
-568.2419999999996
 31
0.0
  0
LINE
  5
110
330
38A
100
AcDbEntity
  8
DATA
  6
Continuous
 62
     7
100
AcDbLine
 10
-231.0
 20
-580.9999999999996
 30
0.0
 11
-198.5
 21
-580.9999999999996
 31
0.0
  0
LINE
  5
111
330
38A
100
AcDbEntity
  8
DATA
  6
Continuous
 62
     7
100
AcDbLine
 10
-250.0
 20
-600.0
 30
0.0
 11
-231.0
 21
-580.9999999999996
 31
0.0
  0
LINE
  5
112
330
38A
100
AcDbEntity
  8
DATA
  6
Continuous
 62
     7
100
AcDbLine
 10
-250.0
 20
-363.4840000000004
 30
0.0
 11
-251.2700000000004
 21
-364.2340000000004
 31
0.0
  0
LINE
  5
113
330
38A
100
AcDbEntity
  8
DATA
  6
Continuous
 62
     7
100
AcDbLine
 10
29.39999999999962
 20
-612.6999999999998
 30
0.0
 11
45.27499999999962
 21
-612.6999999999998
 31
0.0
  0
LINE
  5
114
330
38A
100
AcDbEntity
  8
DATA
  6
Continuous
 62
     7
100
AcDbLine
 10
45.27499999999962
 20
-612.6999999999998
 30
0.0
 11
45.27499999999962
 21
-600.0
 31
0.0
  0
LINE
  5
115
330
38A
100
AcDbEntity
  8
DATA
  6
Continuous
 62
     7
100
AcDbLine
 10
-604.2173763680847
 20
-139.6999999999998
 30
0.0
 11
-593.2173763680847
 21
-139.6999999999998
 31
0.0
  0
ARC
  5
116
330
38A
100
AcDbEntity
  8
DATA
  6
Continuous
 62
     7
100
AcDbCircle
 10
-584.2874999999976
 20
-237.1919999999993
 30
0.0
 40
62.98638865858453
100
AcDbArc
 50
162.2445568984494
 51
262.8749836510967
  0
LINE
  5
117
330
38A
100
AcDbEntity
  8
DATA
  6
Continuous
 62
     7
100
AcDbLine
 10
-677.0150000000003
 20
205.7080000000003
 30
0.0
 11
-522.9849999999997
 21
205.7080000000003
 31
0.0
  0
LINE
  5
118
330
38A
100
AcDbEntity
  8
DATA
  6
Continuous
 62
     7
100
AcDbLine
 10
-669.1533824821236
 20
186.7080000000005
 30
0.0
 11
-530.8466175178762
 21
186.7080000000005
 31
0.0
  0
LINE
  5
119
330
38A
100
AcDbEntity
  8
DATA
  6
Continuous
 62
     7
100
AcDbLine
 10
-649.5
 20
210.2080000000005
 30
0.0
 11
-550.4999999999999
 21
210.2080000000008
 31
0.0
  0
LINE
  5
11A
330
38A
100
AcDbEntity
  8
DATA
  6
Continuous
 62
     7
100
AcDbLine
 10
-605.4673763680847
 20
-137.6999999999996
 30
0.0
 11
-604.2173763680847
 21
-139.6999999999998
 31
0.0
  0
LINE
  5
11B
330
38A
100
AcDbEntity
  8
DATA
  6
Continuous
 62
     7
100
AcDbLine
 10
-649.5
 20
210.2080000000005
 30
0.0
 11
-649.5
 21
205.7080000000005
 31
0.0
  0
CIRCLE
  5
11C
330
38A
100
AcDbEntity
  8
DATA
  6
Continuous
 62
     7
100
AcDbCircle
 10
-426.1400000000003
 20
-301.9293816854599
 30
0.0
 40
4.0
  0
LINE
  5
11D
330
38A
100
AcDbEntity
  8
DATA
  6
Continuous
 62
     7
100
AcDbLine
 10
-428.6400000000003
 20
-301.9293816854599
 30
0.0
 11
-423.6400000000003
 21
-301.9293816854599
 31
0.0
  0
LINE
  5
11E
330
38A
100
AcDbEntity
  8
DATA
  6
Continuous
 62
     7
100
AcDbLine
 10
-426.1400000000003
 20
-304.4293816854599
 30
0.0
 11
-426.1400000000003
 21
-299.4293816854599
 31
0.0
  0
CIRCLE
  5
11F
330
38A
100
AcDbEntity
  8
DATA
  6
Continuous
 62
     7
100
AcDbCircle
 10
-487.5150000000003
 20
-285.4839999999997
 30
0.0
 40
4.0
  0
LINE
  5
120
330
38A
100
AcDbEntity
  8
DATA
  6
Continuous
 62
     7
100
AcDbLine
 10
-490.0150000000003
 20
-285.4839999999997
 30
0.0
 11
-485.0150000000003
 21
-285.4839999999997
 31
0.0
  0
LINE
  5
121
330
38A
100
AcDbEntity
  8
DATA
  6
Continuous
 62
     7
100
AcDbLine
 10
-487.5150000000003
 20
-287.9839999999997
 30
0.0
 11
-487.5150000000003
 21
-282.9839999999997
 31
0.0
  0
LINE
  5
122
330
38A
100
AcDbEntity
  8
DATA
  6
Continuous
 62
     7
100
AcDbLine
 10
-548.8900000000003
 20
-299.4293816854599
 30
0.0
 11
-548.8900000000003
 21
-304.4293816854599
 31
0.0
  0
LINE
  5
123
330
38A
100
AcDbEntity
  8
DATA
  6
Continuous
 62
     7
100
AcDbLine
 10
-551.3900000000003
 20
-301.9293816854599
 30
0.0
 11
-546.3900000000003
 21
-301.9293816854599
 31
0.0
  0
CIRCLE
  5
124
330
38A
100
AcDbEntity
  8
DATA
  6
Continuous
 62
     7
100
AcDbCircle
 10
-548.8900000000003
 20
-301.9293816854599
 30
0.0
 40
4.0
  0
CIRCLE
  5
125
330
38A
100
AcDbEntity
  8
DATA
  6
Continuous
 62
     7
100
AcDbCircle
 10
-600.0
 20
-256.4919999999997
 30
0.0
 40
2.5
  0
CIRCLE
  5
126
330
38A
100
AcDbEntity
  8
DATA
  6
Continuous
 62
     7
100
AcDbCircle
 10
-364.0
 20
-256.4919999999997
 30
0.0
 40
2.5
  0
LINE
  5
127
330
38A
100
AcDbEntity
  8
DATA
  6
Continuous
 62
     7
100
AcDbLine
 10
-391.9823763680843
 20
-140.6999999999996
 30
0.0
 11
-359.9823763680843
 21
-140.6999999999996
 31
0.0
  0
LINE
  5
128
330
38A
100
AcDbEntity
  8
DATA
  6
Continuous
 62
     7
100
AcDbLine
 10
-391.9823763680843
 20
-140.6999999999996
 30
0.0
 11
-391.9823763680843
 21
-137.6999999999998
 31
0.0
  0
LINE
  5
129
330
38A
100
AcDbEntity
  8
DATA
  6
Continuous
 62
     7
100
AcDbLine
 10
-593.2173763680847
 20
-139.6999999999998
 30
0.0
 11
-591.9673763680846
 21
-137.6999999999996
 31
0.0
  0
LINE
  5
12A
330
38A
100
AcDbEntity
  8
DATA
  6
Continuous
 62
     7
100
AcDbLine
 10
-368.2173763680848
 20
-139.6999999999998
 30
0.0
 11
-357.2173763680848
 21
-139.6999999999998
 31
0.0
  0
LINE
  5
12B
330
38A
100
AcDbEntity
  8
DATA
  6
Continuous
 62
     7
100
AcDbLine
 10
-369.4673763680848
 20
-137.6999999999996
 30
0.0
 11
-368.2173763680848
 21
-139.6999999999998
 31
0.0
  0
LINE
  5
12C
330
38A
100
AcDbEntity
  8
DATA
  6
Continuous
 62
     7
100
AcDbLine
 10
-357.2173763680848
 20
-139.6999999999998
 30
0.0
 11
-355.9673763680848
 21
-137.6999999999996
 31
0.0
  0
LINE
  5
12D
330
38A
100
AcDbEntity
  8
DATA
  6
Continuous
 62
     7
100
AcDbLine
 10
-359.9823763680843
 20
-140.6999999999996
 30
0.0
 11
-359.9823763680843
 21
-139.6999999999998
 31
0.0
  0
LINE
  5
12E
330
38A
100
AcDbEntity
  8
DATA
  6
Continuous
 62
     7
100
AcDbLine
 10
-550.4999999999999
 20
205.7080000000005
 30
0.0
 11
-550.4999999999999
 21
210.2080000000005
 31
0.0
  0
LINE
  5
12F
330
38A
100
AcDbEntity
  8
DATA
  6
Continuous
 62
     7
100
AcDbLine
 10
-252.0
 20
-250.9919999999997
 30
0.0
 11
-252.0
 21
-261.9919999999997
 31
0.0
  0
LINE
  5
130
330
38A
100
AcDbEntity
  8
DATA
  6
Continuous
 62
     7
100
AcDbLine
 10
-250.0
 20
-249.7419999999995
 30
0.0
 11
-252.0
 21
-250.9919999999997
 31
0.0
  0
LINE
  5
131
330
38A
100
AcDbEntity
  8
DATA
  6
Continuous
 62
     7
100
AcDbLine
 10
-252.0
 20
-261.9919999999997
 30
0.0
 11
-250.0
 21
-263.2419999999996
 31
0.0
  0
LINE
  5
132
330
38A
100
AcDbEntity
  8
DATA
  6
Continuous
 62
     7
100
AcDbLine
 10
-231.0
 20
-236.9839999999997
 30
0.0
 11
-198.5
 21
-236.9839999999997
 31
0.0
  0
LINE
  5
133
330
38A
100
AcDbEntity
  8
DATA
  6
Continuous
 62
     7
100
AcDbLine
 10
-231.0
 20
-236.9839999999997
 30
0.0
 11
-250.0
 21
-217.9839999999997
 31
0.0
  0
LINE
  5
134
330
38A
100
AcDbEntity
  8
DATA
  6
Continuous
 62
     7
100
AcDbLine
 10
93.40799999999944
 20
-599.9999999999996
 30
0.0
 11
93.40799999999944
 21
-217.9839999999997
 31
0.0
  0
LINE
  5
135
330
38A
100
AcDbEntity
  8
DATA
  6
Continuous
 62
     7
100
AcDbLine
 10
157.25
 20
-600.0
 30
0.0
 11
157.25
 21
-217.9839999999997
 31
0.0
  0
LINE
  5
136
330
38A
100
AcDbEntity
  8
DATA
  6
Continuous
 62
     7
100
AcDbLine
 10
527.0150000000003
 20
-600.0
 30
0.0
 11
527.0150000000003
 21
-217.9839999999997
 31
0.0
  0
LINE
  5
137
330
38A
100
AcDbEntity
  8
DATA
  6
Continuous
 62
     7
100
AcDbLine
 10
372.9849999999997
 20
-600.0
 30
0.0
 11
372.9849999999997
 21
-217.9839999999997
 31
0.0
  0
LINE
  5
138
330
38A
100
AcDbEntity
  8
DATA
  6
Continuous
 62
     7
100
AcDbLine
 10
157.25
 20
-600.0
 30
0.0
 11
742.75
 21
-600.0
 31
0.0
  0
LINE
  5
139
330
38A
100
AcDbEntity
  8
DATA
  6
Continuous
 62
     7
100
AcDbLine
 10
496.5000000000005
 20
-476.9839999999994
 30
0.0
 11
403.4999999999995
 21
-476.9839999999994
 31
0.0
  0
LINE
  5
13A
330
38A
100
AcDbEntity
  8
DATA
  6
Continuous
 62
     7
100
AcDbLine
 10
401.9999999999996
 20
-483.9839999999999
 30
0.0
 11
497.9999999999995
 21
-483.9839999999999
 31
0.0
  0
LINE
  5
13B
330
38A
100
AcDbEntity
  8
DATA
  6
Continuous
 62
     7
100
AcDbLine
 10
498.0000000000004
 20
-515.9839999999994
 30
0.0
 11
401.9999999999996
 21
-515.9839999999999
 31
0.0
  0
TEXT
  5
13C
330
38A
100
AcDbEntity
  8
DATA
 62
     7
100
AcDbText
 10
405.4999999999996
 20
-499.3062656249997
 30
0.0
 40
4.133224487304688
  1
Control SB-2
 41
0.7
 11
405.4999999999996
 21
-495.173041137695
 31
0.0
100
AcDbText
 73
     3
  0
TEXT
  5
13D
330
38A
100
AcDbEntity
  8
DATA
 62
     7
100
AcDbText
 10
436.9930545525416
 20
-416.4351718749994
 30
0.0
 40
5.786514282226563
  1
OUTPUT
 41
0.7
 11
436.9930545525416
 21
-410.6486575927728
 31
0.0
100
AcDbText
 73
     3
  0
TEXT
  5
13E
330
38A
100
AcDbEntity
  8
DATA
 62
     7
100
AcDbText
 10
457.4615733385303
 20
-425.1851718749994
 30
0.0
 40
5.786514282226563
  1
RIGHT
 41
0.7
 11
457.4615733385303
 21
-419.3986575927729
 31
0.0
100
AcDbText
 73
     3
  0
TEXT
  5
13F
330
38A
100
AcDbEntity
  8
DATA
 62
     7
100
AcDbText
 10
457.4615733385303
 20
-396.1851718749999
 30
0.0
 40
5.786514282226563
  1
RIGHT
 41
0.7
 11
457.4615733385303
 21
-390.3986575927734
 31
0.0
100
AcDbText
 73
     3
  0
LINE
  5
140
330
38A
100
AcDbEntity
  8
DATA
  6
Continuous
 62
     7
100
AcDbLine
 10
403.4999999999995
 20
-338.9839999999999
 30
0.0
 11
496.5000000000005
 21
-338.9839999999999
 31
0.0
  0
TEXT
  5
141
330
38A
100
AcDbEntity
  8
DATA
 62
     7
100
AcDbText
 10
440.6060949546131
 20
-406.4351718749996
 30
0.0
 40
5.786514282226563
  1
INPUT
 41
0.7
 11
440.6060949546131
 21
-400.6486575927731
 31
0.0
100
AcDbText
 73
     3
  0
LINE
  5
142
330
38A
100
AcDbEntity
  8
DATA
  6
Continuous
 62
     7
100
AcDbLine
 10
97.90799999999945
 20
-476.9839999999999
 30
0.0
 11
97.90799999999945
 21
-338.9839999999999
 31
0.0
  0
LINE
  5
143
330
38A
100
AcDbEntity
  8
DATA
  6
Continuous
 62
     7
100
AcDbLine
 10
93.40799999999944
 20
-476.9839999999994
 30
0.0
 11
97.90799999999945
 21
-476.9839999999999
 31
0.0
  0
LINE
  5
144
330
38A
100
AcDbEntity
  8
DATA
  6
Continuous
 62
     7
100
AcDbLine
 10
93.40799999999944
 20
-338.9839999999999
 30
0.0
 11
97.90800000000034
 21
-338.9839999999999
 31
0.0
  0
LINE
  5
145
330
38A
100
AcDbEntity
  8
DATA
  6
Continuous
 62
     7
100
AcDbLine
 10
400.4999999999996
 20
-473.9839999999994
 30
0.0
 11
400.5000000000005
 21
-341.9839999999997
 31
0.0
  0
ARC
  5
146
330
38A
100
AcDbEntity
  8
DATA
  6
Continuous
 62
     7
100
AcDbCircle
 10
416.0000000000005
 20
-354.7339999999997
 30
0.0
 40
3.0
100
AcDbArc
 50
90.0
 51
180.0
  0
ARC
  5
147
330
38A
100
AcDbEntity
  8
DATA
  6
Continuous
 62
     7
100
AcDbCircle
 10
484.0000000000005
 20
-354.7339999999997
 30
0.0
 40
3.0
100
AcDbArc
 50
0.0
 51
90.0
  0
LINE
  5
148
330
38A
100
AcDbEntity
  8
DATA
  6
Continuous
 62
     7
100
AcDbLine
 10
484.0000000000005
 20
-464.2339999999997
 30
0.0
 11
416.0000000000005
 21
-464.2339999999994
 31
0.0
  0
LINE
  5
149
330
38A
100
AcDbEntity
  8
DATA
  6
Continuous
 62
     7
100
AcDbLine
 10
413.0000000000005
 20
-407.9839999999999
 30
0.0
 11
487.0000000000005
 21
-407.9839999999999
 31
0.0
  0
LINE
  5
14A
330
38A
100
AcDbEntity
  8
DATA
  6
Continuous
 62
     7
100
AcDbLine
 10
416.4999999999996
 20
-426.7339999999994
 30
0.0
 11
449.4999999999996
 21
-426.7339999999994
 31
0.0
  0
LINE
  5
14B
330
38A
100
AcDbEntity
  8
DATA
  6
Continuous
 62
     7
100
AcDbLine
 10
418.4999999999996
 20
-446.7339999999991
 30
0.0
 11
428.4999999999995
 21
-446.7339999999991
 31
0.0
  0
LINE
  5
14C
330
38A
100
AcDbEntity
  8
DATA
  6
Continuous
 62
     7
100
AcDbLine
 10
418.4999999999996
 20
-437.7339999999994
 30
0.0
 11
428.5000000000005
 21
-437.7339999999996
 31
0.0
  0
LINE
  5
14D
330
38A
100
AcDbEntity
  8
DATA
  6
Continuous
 62
     7
100
AcDbLine
 10
418.4999999999996
 20
-439.7339999999994
 30
0.0
 11
428.5000000000005
 21
-439.7339999999994
 31
0.0
  0
LINE
  5
14E
330
38A
100
AcDbEntity
  8
DATA
  6
Continuous
 62
     7
100
AcDbLine
 10
418.4999999999996
 20
-441.7339999999994
 30
0.0
 11
428.5000000000005
 21
-441.7339999999996
 31
0.0
  0
LINE
  5
14F
330
38A
100
AcDbEntity
  8
DATA
  6
Continuous
 62
     7
100
AcDbLine
 10
418.4999999999996
 20
-443.7339999999994
 30
0.0
 11
428.5000000000005
 21
-443.7339999999994
 31
0.0
  0
LINE
  5
150
330
38A
100
AcDbEntity
  8
DATA
  6
Continuous
 62
     7
100
AcDbLine
 10
418.4999999999996
 20
-436.2339999999996
 30
0.0
 11
428.4999999999995
 21
-436.2339999999996
 31
0.0
  0
LINE
  5
151
330
38A
100
AcDbEntity
  8
DATA
  6
Continuous
 62
     7
100
AcDbLine
 10
418.4999999999996
 20
-428.2339999999995
 30
0.0
 11
428.4999999999995
 21
-428.2339999999995
 31
0.0
  0
LINE
  5
152
330
38A
100
AcDbEntity
  8
DATA
  6
Continuous
 62
     7
100
AcDbLine
 10
419.4999999999995
 20
-435.2339999999994
 30
0.0
 11
427.4999999999995
 21
-435.2339999999994
 31
0.0
  0
LINE
  5
153
330
38A
100
AcDbEntity
  8
DATA
  6
Continuous
 62
     7
100
AcDbLine
 10
427.4999999999995
 20
-429.2339999999994
 30
0.0
 11
419.4999999999995
 21
-429.2339999999994
 31
0.0
  0
TEXT
  5
154
330
38A
100
AcDbEntity
  8
DATA
 62
     7
100
AcDbText
 10
425.1958327315247
 20
-425.1851718749994
 30
0.0
 40
5.786514282226563
  1
LEFT
 41
0.7
 11
425.1958327315247
 21
-419.3986575927729
 31
0.0
100
AcDbText
 73
     3
  0
LINE
  5
155
330
38A
100
AcDbEntity
  8
DATA
  6
Continuous
 62
     7
100
AcDbLine
 10
416.4999999999996
 20
-387.7339999999999
 30
0.0
 11
449.4999999999996
 21
-387.7339999999999
 31
0.0
  0
LINE
  5
156
330
38A
100
AcDbEntity
  8
DATA
  6
Continuous
 62
     7
100
AcDbLine
 10
418.4999999999996
 20
-367.7340000000004
 30
0.0
 11
428.4999999999995
 21
-367.7340000000004
 31
0.0
  0
LINE
  5
157
330
38A
100
AcDbEntity
  8
DATA
  6
Continuous
 62
     7
100
AcDbLine
 10
418.4999999999996
 20
-376.7339999999999
 30
0.0
 11
428.5000000000005
 21
-376.7339999999997
 31
0.0
  0
LINE
  5
158
330
38A
100
AcDbEntity
  8
DATA
  6
Continuous
 62
     7
100
AcDbLine
 10
418.4999999999996
 20
-374.7339999999999
 30
0.0
 11
428.5000000000005
 21
-374.7339999999999
 31
0.0
  0
LINE
  5
159
330
38A
100
AcDbEntity
  8
DATA
  6
Continuous
 62
     7
100
AcDbLine
 10
418.4999999999996
 20
-372.7339999999999
 30
0.0
 11
428.5000000000005
 21
-372.7339999999997
 31
0.0
  0
LINE
  5
15A
330
38A
100
AcDbEntity
  8
DATA
  6
Continuous
 62
     7
100
AcDbLine
 10
418.4999999999996
 20
-370.7339999999999
 30
0.0
 11
428.5000000000005
 21
-370.7339999999999
 31
0.0
  0
LINE
  5
15B
330
38A
100
AcDbEntity
  8
DATA
  6
Continuous
 62
     7
100
AcDbLine
 10
418.4999999999996
 20
-378.2339999999997
 30
0.0
 11
428.4999999999995
 21
-378.2339999999997
 31
0.0
  0
LINE
  5
15C
330
38A
100
AcDbEntity
  8
DATA
  6
Continuous
 62
     7
100
AcDbLine
 10
418.4999999999996
 20
-386.2339999999999
 30
0.0
 11
428.4999999999995
 21
-386.2339999999999
 31
0.0
  0
LINE
  5
15D
330
38A
100
AcDbEntity
  8
DATA
  6
Continuous
 62
     7
100
AcDbLine
 10
419.4999999999995
 20
-379.2339999999999
 30
0.0
 11
427.4999999999995
 21
-379.2339999999999
 31
0.0
  0
LINE
  5
15E
330
38A
100
AcDbEntity
  8
DATA
  6
Continuous
 62
     7
100
AcDbLine
 10
427.4999999999995
 20
-385.2339999999999
 30
0.0
 11
419.4999999999995
 21
-385.2339999999999
 31
0.0
  0
TEXT
  5
15F
330
38A
100
AcDbEntity
  8
DATA
 62
     7
100
AcDbText
 10
425.1958327315247
 20
-396.1851718749999
 30
0.0
 40
5.786514282226563
  1
LEFT
 41
0.7
 11
425.1958327315247
 21
-390.3986575927734
 31
0.0
100
AcDbText
 73
     3
  0
LINE
  5
160
330
38A
100
AcDbEntity
  8
DATA
  6
Continuous
 62
     7
100
AcDbLine
 10
413.0000000000005
 20
-461.2339999999995
 30
0.0
 11
413.0000000000005
 21
-354.7339999999997
 31
0.0
  0
LINE
  5
161
330
38A
100
AcDbEntity
  8
DATA
  6
Continuous
 62
     7
100
AcDbLine
 10
230.9249999999997
 20
-612.6999999999998
 30
0.0
 11
246.7999999999997
 21
-612.6999999999998
 31
0.0
  0
LINE
  5
162
330
38A
100
AcDbEntity
  8
DATA
  6
Continuous
 62
     7
100
AcDbLine
 10
230.9249999999997
 20
-600.0
 30
0.0
 11
230.9249999999997
 21
-612.6999999999998
 31
0.0
  0
LINE
  5
163
330
38A
100
AcDbEntity
  8
DATA
  6
Continuous
 62
     7
100
AcDbLine
 10
246.7999999999997
 20
-612.6999999999998
 30
0.0
 11
262.6749999999997
 21
-612.6999999999998
 31
0.0
  0
LINE
  5
164
330
38A
100
AcDbEntity
  8
DATA
  6
Continuous
 62
     7
100
AcDbLine
 10
262.6749999999997
 20
-612.6999999999998
 30
0.0
 11
262.6749999999997
 21
-600.0
 31
0.0
  0
ARC
  5
165
330
38A
100
AcDbEntity
  8
DATA
  6
Continuous
 62
     7
100
AcDbCircle
 10
403.4999999999995
 20
-473.9839999999994
 30
0.0
 40
3.0
100
AcDbArc
 50
180.0
 51
270.0
  0
ARC
  5
166
330
38A
100
AcDbEntity
  8
DATA
  6
Continuous
 62
     7
100
AcDbCircle
 10
416.0000000000005
 20
-461.2339999999995
 30
0.0
 40
3.0
100
AcDbArc
 50
180.0
 51
270.0
  0
CIRCLE
  5
167
330
38A
100
AcDbEntity
  8
DATA
  6
Continuous
 62
     7
100
AcDbCircle
 10
406.7500000000005
 20
-471.4839999999999
 30
0.0
 40
3.5
  0
LINE
  5
168
330
38A
100
AcDbEntity
  8
DATA
  6
Continuous
 62
     7
100
AcDbLine
 10
404.7500000000004
 20
-471.4839999999999
 30
0.0
 11
408.7500000000004
 21
-471.4839999999999
 31
0.0
  0
LINE
  5
169
330
38A
100
AcDbEntity
  8
DATA
  6
Continuous
 62
     7
100
AcDbLine
 10
406.7500000000005
 20
-473.4839999999999
 30
0.0
 11
406.7500000000005
 21
-469.4839999999999
 31
0.0
  0
CIRCLE
  5
16A
330
38A
100
AcDbEntity
  8
DATA
  6
Continuous
 62
     7
100
AcDbCircle
 10
406.7500000000005
 20
-407.9839999999999
 30
0.0
 40
3.5
  0
LINE
  5
16B
330
38A
100
AcDbEntity
  8
DATA
  6
Continuous
 62
     7
100
AcDbLine
 10
404.7500000000004
 20
-407.9839999999999
 30
0.0
 11
408.7500000000004
 21
-407.9839999999999
 31
0.0
  0
LINE
  5
16C
330
38A
100
AcDbEntity
  8
DATA
  6
Continuous
 62
     7
100
AcDbLine
 10
406.7500000000005
 20
-409.9839999999996
 30
0.0
 11
406.7500000000005
 21
-405.9839999999996
 31
0.0
  0
LINE
  5
16D
330
38A
100
AcDbEntity
  8
DATA
  6
Continuous
 62
     7
100
AcDbLine
 10
416.4999999999996
 20
-426.7339999999994
 30
0.0
 11
416.4999999999996
 21
-444.7339999999995
 31
0.0
  0
LINE
  5
16E
330
38A
100
AcDbEntity
  8
DATA
  6
Continuous
 62
     7
100
AcDbLine
 10
416.4999999999996
 20
-444.7339999999995
 30
0.0
 11
418.4999999999996
 21
-444.7339999999995
 31
0.0
  0
LINE
  5
16F
330
38A
100
AcDbEntity
  8
DATA
  6
Continuous
 62
     7
100
AcDbLine
 10
416.4999999999996
 20
-435.7339999999994
 30
0.0
 11
418.4999999999996
 21
-435.7339999999994
 31
0.0
  0
LINE
  5
170
330
38A
100
AcDbEntity
  8
DATA
  6
Continuous
 62
     7
100
AcDbLine
 10
418.4999999999996
 20
-446.7339999999991
 30
0.0
 11
418.4999999999996
 21
-428.2339999999995
 31
0.0
  0
LINE
  5
171
330
38A
100
AcDbEntity
  8
DATA
  6
Continuous
 62
     7
100
AcDbLine
 10
419.4999999999995
 20
-429.2339999999994
 30
0.0
 11
419.4999999999995
 21
-435.2339999999994
 31
0.0
  0
CIRCLE
  5
172
330
38A
100
AcDbEntity
  8
DATA
  6
Continuous
 62
     7
100
AcDbCircle
 10
423.4999999999995
 20
-432.2339999999995
 30
0.0
 40
2.0
  0
ARC
  5
173
330
38A
100
AcDbEntity
  8
DATA
  6
Continuous
 62
     7
100
AcDbCircle
 10
401.9999999999996
 20
-486.9839999999997
 30
0.0
 40
3.0
100
AcDbArc
 50
90.0
 51
180.0
  0
LINE
  5
174
330
38A
100
AcDbEntity
  8
DATA
  6
Continuous
 62
     7
100
AcDbLine
 10
398.9999999999996
 20
-512.9839999999999
 30
0.0
 11
398.9999999999996
 21
-486.9839999999997
 31
0.0
  0
ARC
  5
175
330
38A
100
AcDbEntity
  8
DATA
  6
Continuous
 62
     7
100
AcDbCircle
 10
401.9999999999996
 20
-512.9839999999999
 30
0.0
 40
3.0
100
AcDbArc
 50
180.0
 51
270.0
  0
LINE
  5
176
330
38A
100
AcDbEntity
  8
DATA
  6
Continuous
 62
     7
100
AcDbLine
 10
416.4999999999996
 20
-387.7339999999999
 30
0.0
 11
416.4999999999996
 21
-369.7339999999999
 31
0.0
  0
LINE
  5
177
330
38A
100
AcDbEntity
  8
DATA
  6
Continuous
 62
     7
100
AcDbLine
 10
416.4999999999996
 20
-369.7339999999999
 30
0.0
 11
418.4999999999996
 21
-369.7339999999999
 31
0.0
  0
LINE
  5
178
330
38A
100
AcDbEntity
  8
DATA
  6
Continuous
 62
     7
100
AcDbLine
 10
416.4999999999996
 20
-378.7339999999999
 30
0.0
 11
418.4999999999996
 21
-378.7339999999999
 31
0.0
  0
LINE
  5
179
330
38A
100
AcDbEntity
  8
DATA
  6
Continuous
 62
     7
100
AcDbLine
 10
418.4999999999996
 20
-367.7340000000004
 30
0.0
 11
418.4999999999996
 21
-386.2339999999999
 31
0.0
  0
LINE
  5
17A
330
38A
100
AcDbEntity
  8
DATA
  6
Continuous
 62
     7
100
AcDbLine
 10
419.4999999999995
 20
-385.2339999999999
 30
0.0
 11
419.4999999999995
 21
-379.2339999999999
 31
0.0
  0
CIRCLE
  5
17B
330
38A
100
AcDbEntity
  8
DATA
  6
Continuous
 62
     7
100
AcDbCircle
 10
423.4999999999995
 20
-382.2339999999997
 30
0.0
 40
2.0
  0
LINE
  5
17C
330
38A
100
AcDbEntity
  8
DATA
  6
Continuous
 62
     7
100
AcDbLine
 10
487.0000000000005
 20
-354.7339999999997
 30
0.0
 11
487.0000000000005
 21
-461.2339999999995
 31
0.0
  0
LINE
  5
17D
330
38A
100
AcDbEntity
  8
DATA
  6
Continuous
 62
     7
100
AcDbLine
 10
434.1249999999996
 20
-612.6999999999998
 30
0.0
 11
449.9999999999996
 21
-612.6999999999998
 31
0.0
  0
LINE
  5
17E
330
38A
100
AcDbEntity
  8
DATA
  6
Continuous
 62
     7
100
AcDbLine
 10
434.1249999999996
 20
-600.0
 30
0.0
 11
434.1249999999996
 21
-612.6999999999998
 31
0.0
  0
LINE
  5
17F
330
38A
100
AcDbEntity
  8
DATA
  6
Continuous
 62
     7
100
AcDbLine
 10
449.9999999999996
 20
-612.6999999999998
 30
0.0
 11
465.8749999999995
 21
-612.6999999999998
 31
0.0
  0
LINE
  5
180
330
38A
100
AcDbEntity
  8
DATA
  6
Continuous
 62
     7
100
AcDbLine
 10
465.8749999999995
 20
-612.6999999999998
 30
0.0
 11
465.8749999999995
 21
-600.0
 31
0.0
  0
ARC
  5
181
330
38A
100
AcDbEntity
  8
DATA
  6
Continuous
 62
     7
100
AcDbCircle
 10
484.0000000000005
 20
-461.2339999999995
 30
0.0
 40
3.0
100
AcDbArc
 50
270.0
 51
0.0
  0
LINE
  5
182
330
38A
100
AcDbEntity
  8
DATA
  6
Continuous
 62
     7
100
AcDbLine
 10
449.4999999999996
 20
-426.7339999999994
 30
0.0
 11
449.4999999999996
 21
-444.7339999999995
 31
0.0
  0
LINE
  5
183
330
38A
100
AcDbEntity
  8
DATA
  6
Continuous
 62
     7
100
AcDbLine
 10
450.5000000000005
 20
-426.7339999999994
 30
0.0
 11
483.5000000000005
 21
-426.7339999999994
 31
0.0
  0
LINE
  5
184
330
38A
100
AcDbEntity
  8
DATA
  6
Continuous
 62
     7
100
AcDbLine
 10
437.4999999999996
 20
-446.7339999999991
 30
0.0
 11
447.4999999999996
 21
-446.7339999999991
 31
0.0
  0
LINE
  5
185
330
38A
100
AcDbEntity
  8
DATA
  6
Continuous
 62
     7
100
AcDbLine
 10
428.4999999999995
 20
-444.7339999999995
 30
0.0
 11
437.4999999999996
 21
-444.7339999999995
 31
0.0
  0
LINE
  5
186
330
38A
100
AcDbEntity
  8
DATA
  6
Continuous
 62
     7
100
AcDbLine
 10
447.4999999999996
 20
-444.7339999999995
 30
0.0
 11
449.4999999999996
 21
-444.7339999999995
 31
0.0
  0
LINE
  5
187
330
38A
100
AcDbEntity
  8
DATA
  6
Continuous
 62
     7
100
AcDbLine
 10
437.4999999999996
 20
-437.7339999999994
 30
0.0
 11
447.4999999999996
 21
-437.7339999999996
 31
0.0
  0
LINE
  5
188
330
38A
100
AcDbEntity
  8
DATA
  6
Continuous
 62
     7
100
AcDbLine
 10
437.4999999999996
 20
-439.7339999999994
 30
0.0
 11
447.4999999999996
 21
-439.7339999999994
 31
0.0
  0
LINE
  5
189
330
38A
100
AcDbEntity
  8
DATA
  6
Continuous
 62
     7
100
AcDbLine
 10
437.4999999999996
 20
-441.7339999999994
 30
0.0
 11
447.4999999999996
 21
-441.7339999999996
 31
0.0
  0
LINE
  5
18A
330
38A
100
AcDbEntity
  8
DATA
  6
Continuous
 62
     7
100
AcDbLine
 10
437.4999999999996
 20
-443.7339999999994
 30
0.0
 11
447.4999999999996
 21
-443.7339999999994
 31
0.0
  0
LINE
  5
18B
330
38A
100
AcDbEntity
  8
DATA
  6
Continuous
 62
     7
100
AcDbLine
 10
428.4999999999995
 20
-428.2339999999995
 30
0.0
 11
428.4999999999995
 21
-446.7339999999991
 31
0.0
  0
LINE
  5
18C
330
38A
100
AcDbEntity
  8
DATA
  6
Continuous
 62
     7
100
AcDbLine
 10
437.4999999999996
 20
-428.2339999999995
 30
0.0
 11
447.4999999999996
 21
-428.2339999999995
 31
0.0
  0
LINE
  5
18D
330
38A
100
AcDbEntity
  8
DATA
  6
Continuous
 62
     7
100
AcDbLine
 10
437.4999999999996
 20
-446.7339999999991
 30
0.0
 11
437.4999999999996
 21
-428.2339999999995
 31
0.0
  0
LINE
  5
18E
330
38A
100
AcDbEntity
  8
DATA
  6
Continuous
 62
     7
100
AcDbLine
 10
447.4999999999996
 20
-428.2339999999995
 30
0.0
 11
447.4999999999996
 21
-446.7339999999991
 31
0.0
  0
LINE
  5
18F
330
38A
100
AcDbEntity
  8
DATA
  6
Continuous
 62
     7
100
AcDbLine
 10
428.4999999999995
 20
-435.7339999999994
 30
0.0
 11
437.4999999999996
 21
-435.7339999999994
 31
0.0
  0
LINE
  5
190
330
38A
100
AcDbEntity
  8
DATA
  6
Continuous
 62
     7
100
AcDbLine
 10
447.4999999999996
 20
-435.7339999999994
 30
0.0
 11
449.4999999999996
 21
-435.7339999999994
 31
0.0
  0
LINE
  5
191
330
38A
100
AcDbEntity
  8
DATA
  6
Continuous
 62
     7
100
AcDbLine
 10
437.4999999999996
 20
-436.2339999999996
 30
0.0
 11
447.4999999999996
 21
-436.2339999999996
 31
0.0
  0
LINE
  5
192
330
38A
100
AcDbEntity
  8
DATA
  6
Continuous
 62
     7
100
AcDbLine
 10
427.4999999999995
 20
-435.2339999999994
 30
0.0
 11
427.4999999999995
 21
-429.2339999999994
 31
0.0
  0
LINE
  5
193
330
38A
100
AcDbEntity
  8
DATA
  6
Continuous
 62
     7
100
AcDbLine
 10
438.4999999999996
 20
-435.2339999999994
 30
0.0
 11
446.4999999999996
 21
-435.2339999999994
 31
0.0
  0
LINE
  5
194
330
38A
100
AcDbEntity
  8
DATA
  6
Continuous
 62
     7
100
AcDbLine
 10
446.4999999999996
 20
-429.2339999999994
 30
0.0
 11
438.4999999999996
 21
-429.2339999999994
 31
0.0
  0
LINE
  5
195
330
38A
100
AcDbEntity
  8
DATA
  6
Continuous
 62
     7
100
AcDbLine
 10
438.4999999999996
 20
-429.2339999999994
 30
0.0
 11
438.4999999999996
 21
-435.2339999999994
 31
0.0
  0
CIRCLE
  5
196
330
38A
100
AcDbEntity
  8
DATA
  6
Continuous
 62
     7
100
AcDbCircle
 10
442.4999999999996
 20
-432.2339999999995
 30
0.0
 40
2.0
  0
LINE
  5
197
330
38A
100
AcDbEntity
  8
DATA
  6
Continuous
 62
     7
100
AcDbLine
 10
446.4999999999996
 20
-435.2339999999994
 30
0.0
 11
446.4999999999996
 21
-429.2339999999994
 31
0.0
  0
LINE
  5
198
330
38A
100
AcDbEntity
  8
DATA
  6
Continuous
 62
     7
100
AcDbLine
 10
452.4999999999995
 20
-446.7339999999991
 30
0.0
 11
462.5000000000005
 21
-446.7339999999991
 31
0.0
  0
LINE
  5
199
330
38A
100
AcDbEntity
  8
DATA
  6
Continuous
 62
     7
100
AcDbLine
 10
452.4999999999995
 20
-437.7339999999994
 30
0.0
 11
462.5000000000005
 21
-437.7339999999996
 31
0.0
  0
LINE
  5
19A
330
38A
100
AcDbEntity
  8
DATA
  6
Continuous
 62
     7
100
AcDbLine
 10
452.4999999999995
 20
-439.7339999999994
 30
0.0
 11
462.5000000000005
 21
-439.7339999999994
 31
0.0
  0
LINE
  5
19B
330
38A
100
AcDbEntity
  8
DATA
  6
Continuous
 62
     7
100
AcDbLine
 10
452.4999999999995
 20
-441.7339999999994
 30
0.0
 11
462.5000000000005
 21
-441.7339999999996
 31
0.0
  0
LINE
  5
19C
330
38A
100
AcDbEntity
  8
DATA
  6
Continuous
 62
     7
100
AcDbLine
 10
452.4999999999995
 20
-443.7339999999994
 30
0.0
 11
462.5000000000005
 21
-443.7339999999994
 31
0.0
  0
LINE
  5
19D
330
38A
100
AcDbEntity
  8
DATA
  6
Continuous
 62
     7
100
AcDbLine
 10
452.4999999999995
 20
-436.2339999999996
 30
0.0
 11
462.5000000000005
 21
-436.2339999999996
 31
0.0
  0
LINE
  5
19E
330
38A
100
AcDbEntity
  8
DATA
  6
Continuous
 62
     7
100
AcDbLine
 10
452.4999999999995
 20
-428.2339999999995
 30
0.0
 11
462.5000000000005
 21
-428.2339999999995
 31
0.0
  0
LINE
  5
19F
330
38A
100
AcDbEntity
  8
DATA
  6
Continuous
 62
     7
100
AcDbLine
 10
453.5000000000005
 20
-435.2339999999994
 30
0.0
 11
461.5000000000005
 21
-435.2339999999994
 31
0.0
  0
LINE
  5
1A0
330
38A
100
AcDbEntity
  8
DATA
  6
Continuous
 62
     7
100
AcDbLine
 10
461.5000000000005
 20
-429.2339999999994
 30
0.0
 11
453.5000000000005
 21
-429.2339999999994
 31
0.0
  0
LINE
  5
1A1
330
38A
100
AcDbEntity
  8
DATA
  6
Continuous
 62
     7
100
AcDbLine
 10
450.5000000000005
 20
-444.7339999999995
 30
0.0
 11
452.4999999999995
 21
-444.7339999999995
 31
0.0
  0
LINE
  5
1A2
330
38A
100
AcDbEntity
  8
DATA
  6
Continuous
 62
     7
100
AcDbLine
 10
450.5000000000005
 20
-435.7339999999994
 30
0.0
 11
452.4999999999995
 21
-435.7339999999994
 31
0.0
  0
LINE
  5
1A3
330
38A
100
AcDbEntity
  8
DATA
  6
Continuous
 62
     7
100
AcDbLine
 10
452.4999999999995
 20
-446.7339999999991
 30
0.0
 11
452.5000000000004
 21
-428.2339999999995
 31
0.0
  0
LINE
  5
1A4
330
38A
100
AcDbEntity
  8
DATA
  6
Continuous
 62
     7
100
AcDbLine
 10
453.5000000000005
 20
-429.2339999999994
 30
0.0
 11
453.5000000000005
 21
-435.2339999999994
 31
0.0
  0
CIRCLE
  5
1A5
330
38A
100
AcDbEntity
  8
DATA
  6
Continuous
 62
     7
100
AcDbCircle
 10
457.5000000000005
 20
-432.2339999999995
 30
0.0
 40
2.0
  0
LINE
  5
1A6
330
38A
100
AcDbEntity
  8
DATA
  6
Continuous
 62
     7
100
AcDbLine
 10
471.5000000000005
 20
-446.7339999999991
 30
0.0
 11
481.4999999999995
 21
-446.7339999999991
 31
0.0
  0
LINE
  5
1A7
330
38A
100
AcDbEntity
  8
DATA
  6
Continuous
 62
     7
100
AcDbLine
 10
462.5000000000005
 20
-444.7339999999995
 30
0.0
 11
471.5000000000005
 21
-444.7339999999995
 31
0.0
  0
LINE
  5
1A8
330
38A
100
AcDbEntity
  8
DATA
  6
Continuous
 62
     7
100
AcDbLine
 10
481.4999999999995
 20
-444.7339999999995
 30
0.0
 11
483.5000000000005
 21
-444.7339999999995
 31
0.0
  0
LINE
  5
1A9
330
38A
100
AcDbEntity
  8
DATA
  6
Continuous
 62
     7
100
AcDbLine
 10
471.5000000000005
 20
-437.7339999999994
 30
0.0
 11
481.5000000000004
 21
-437.7339999999996
 31
0.0
  0
LINE
  5
1AA
330
38A
100
AcDbEntity
  8
DATA
  6
Continuous
 62
     7
100
AcDbLine
 10
471.5000000000005
 20
-439.7339999999994
 30
0.0
 11
481.5000000000004
 21
-439.7339999999994
 31
0.0
  0
LINE
  5
1AB
330
38A
100
AcDbEntity
  8
DATA
  6
Continuous
 62
     7
100
AcDbLine
 10
471.5000000000005
 20
-441.7339999999994
 30
0.0
 11
481.5000000000004
 21
-441.7339999999996
 31
0.0
  0
LINE
  5
1AC
330
38A
100
AcDbEntity
  8
DATA
  6
Continuous
 62
     7
100
AcDbLine
 10
471.5000000000005
 20
-443.7339999999994
 30
0.0
 11
481.5000000000004
 21
-443.7339999999994
 31
0.0
  0
LINE
  5
1AD
330
38A
100
AcDbEntity
  8
DATA
  6
Continuous
 62
     7
100
AcDbLine
 10
462.5000000000005
 20
-428.2339999999995
 30
0.0
 11
462.5000000000005
 21
-446.7339999999991
 31
0.0
  0
LINE
  5
1AE
330
38A
100
AcDbEntity
  8
DATA
  6
Continuous
 62
     7
100
AcDbLine
 10
471.5000000000005
 20
-428.2339999999995
 30
0.0
 11
481.4999999999995
 21
-428.2339999999995
 31
0.0
  0
LINE
  5
1AF
330
38A
100
AcDbEntity
  8
DATA
  6
Continuous
 62
     7
100
AcDbLine
 10
471.5000000000005
 20
-446.7339999999991
 30
0.0
 11
471.5000000000005
 21
-428.2339999999995
 31
0.0
  0
LINE
  5
1B0
330
38A
100
AcDbEntity
  8
DATA
  6
Continuous
 62
     7
100
AcDbLine
 10
481.4999999999995
 20
-428.2339999999995
 30
0.0
 11
481.4999999999995
 21
-446.7339999999991
 31
0.0
  0
LINE
  5
1B1
330
38A
100
AcDbEntity
  8
DATA
  6
Continuous
 62
     7
100
AcDbLine
 10
462.5000000000005
 20
-435.7339999999994
 30
0.0
 11
471.5000000000005
 21
-435.7339999999994
 31
0.0
  0
LINE
  5
1B2
330
38A
100
AcDbEntity
  8
DATA
  6
Continuous
 62
     7
100
AcDbLine
 10
481.4999999999995
 20
-435.7339999999994
 30
0.0
 11
483.5000000000005
 21
-435.7339999999994
 31
0.0
  0
LINE
  5
1B3
330
38A
100
AcDbEntity
  8
DATA
  6
Continuous
 62
     7
100
AcDbLine
 10
471.5000000000005
 20
-436.2339999999996
 30
0.0
 11
481.4999999999995
 21
-436.2339999999996
 31
0.0
  0
LINE
  5
1B4
330
38A
100
AcDbEntity
  8
DATA
  6
Continuous
 62
     7
100
AcDbLine
 10
461.5000000000005
 20
-435.2339999999994
 30
0.0
 11
461.5000000000005
 21
-429.2339999999994
 31
0.0
  0
LINE
  5
1B5
330
38A
100
AcDbEntity
  8
DATA
  6
Continuous
 62
     7
100
AcDbLine
 10
472.5000000000004
 20
-435.2339999999994
 30
0.0
 11
480.5000000000005
 21
-435.2339999999994
 31
0.0
  0
LINE
  5
1B6
330
38A
100
AcDbEntity
  8
DATA
  6
Continuous
 62
     7
100
AcDbLine
 10
480.5000000000005
 20
-429.2339999999994
 30
0.0
 11
472.5000000000004
 21
-429.2339999999994
 31
0.0
  0
LINE
  5
1B7
330
38A
100
AcDbEntity
  8
DATA
  6
Continuous
 62
     7
100
AcDbLine
 10
472.5000000000004
 20
-429.2339999999994
 30
0.0
 11
472.5000000000004
 21
-435.2339999999994
 31
0.0
  0
CIRCLE
  5
1B8
330
38A
100
AcDbEntity
  8
DATA
  6
Continuous
 62
     7
100
AcDbCircle
 10
476.5000000000005
 20
-432.2339999999995
 30
0.0
 40
2.0
  0
LINE
  5
1B9
330
38A
100
AcDbEntity
  8
DATA
  6
Continuous
 62
     7
100
AcDbLine
 10
480.5000000000005
 20
-435.2339999999994
 30
0.0
 11
480.5000000000005
 21
-429.2339999999994
 31
0.0
  0
LINE
  5
1BA
330
38A
100
AcDbEntity
  8
DATA
  6
Continuous
 62
     7
100
AcDbLine
 10
450.5000000000005
 20
-444.7339999999995
 30
0.0
 11
450.5000000000005
 21
-426.7339999999994
 31
0.0
  0
LINE
  5
1BB
330
38A
100
AcDbEntity
  8
DATA
  6
Continuous
 62
     7
100
AcDbLine
 10
483.5000000000005
 20
-426.7339999999994
 30
0.0
 11
483.5000000000005
 21
-444.7339999999995
 31
0.0
  0
LINE
  5
1BC
330
38A
100
AcDbEntity
  8
DATA
  6
Continuous
 62
     7
100
AcDbLine
 10
449.4999999999996
 20
-387.7339999999999
 30
0.0
 11
449.4999999999996
 21
-369.7339999999999
 31
0.0
  0
LINE
  5
1BD
330
38A
100
AcDbEntity
  8
DATA
  6
Continuous
 62
     7
100
AcDbLine
 10
450.5000000000005
 20
-387.7339999999999
 30
0.0
 11
483.5000000000005
 21
-387.7339999999999
 31
0.0
  0
LINE
  5
1BE
330
38A
100
AcDbEntity
  8
DATA
  6
Continuous
 62
     7
100
AcDbLine
 10
437.4999999999996
 20
-367.7340000000004
 30
0.0
 11
447.4999999999996
 21
-367.7340000000004
 31
0.0
  0
LINE
  5
1BF
330
38A
100
AcDbEntity
  8
DATA
  6
Continuous
 62
     7
100
AcDbLine
 10
428.4999999999995
 20
-369.7339999999999
 30
0.0
 11
437.4999999999996
 21
-369.7339999999999
 31
0.0
  0
LINE
  5
1C0
330
38A
100
AcDbEntity
  8
DATA
  6
Continuous
 62
     7
100
AcDbLine
 10
447.4999999999996
 20
-369.7339999999999
 30
0.0
 11
449.4999999999996
 21
-369.7339999999999
 31
0.0
  0
LINE
  5
1C1
330
38A
100
AcDbEntity
  8
DATA
  6
Continuous
 62
     7
100
AcDbLine
 10
437.4999999999996
 20
-376.7339999999999
 30
0.0
 11
447.4999999999996
 21
-376.7339999999997
 31
0.0
  0
LINE
  5
1C2
330
38A
100
AcDbEntity
  8
DATA
  6
Continuous
 62
     7
100
AcDbLine
 10
437.4999999999996
 20
-374.7339999999999
 30
0.0
 11
447.4999999999996
 21
-374.7339999999999
 31
0.0
  0
LINE
  5
1C3
330
38A
100
AcDbEntity
  8
DATA
  6
Continuous
 62
     7
100
AcDbLine
 10
437.4999999999996
 20
-372.7339999999999
 30
0.0
 11
447.4999999999996
 21
-372.7339999999997
 31
0.0
  0
LINE
  5
1C4
330
38A
100
AcDbEntity
  8
DATA
  6
Continuous
 62
     7
100
AcDbLine
 10
437.4999999999996
 20
-370.7339999999999
 30
0.0
 11
447.4999999999996
 21
-370.7339999999999
 31
0.0
  0
LINE
  5
1C5
330
38A
100
AcDbEntity
  8
DATA
  6
Continuous
 62
     7
100
AcDbLine
 10
428.4999999999995
 20
-386.2339999999999
 30
0.0
 11
428.4999999999995
 21
-367.7340000000004
 31
0.0
  0
LINE
  5
1C6
330
38A
100
AcDbEntity
  8
DATA
  6
Continuous
 62
     7
100
AcDbLine
 10
437.4999999999996
 20
-386.2339999999999
 30
0.0
 11
447.4999999999996
 21
-386.2339999999999
 31
0.0
  0
LINE
  5
1C7
330
38A
100
AcDbEntity
  8
DATA
  6
Continuous
 62
     7
100
AcDbLine
 10
437.4999999999996
 20
-367.7340000000004
 30
0.0
 11
437.4999999999996
 21
-386.2339999999999
 31
0.0
  0
LINE
  5
1C8
330
38A
100
AcDbEntity
  8
DATA
  6
Continuous
 62
     7
100
AcDbLine
 10
447.4999999999996
 20
-386.2339999999999
 30
0.0
 11
447.4999999999996
 21
-367.7340000000004
 31
0.0
  0
LINE
  5
1C9
330
38A
100
AcDbEntity
  8
DATA
  6
Continuous
 62
     7
100
AcDbLine
 10
428.4999999999995
 20
-378.7339999999999
 30
0.0
 11
437.4999999999996
 21
-378.7339999999999
 31
0.0
  0
LINE
  5
1CA
330
38A
100
AcDbEntity
  8
DATA
  6
Continuous
 62
     7
100
AcDbLine
 10
447.4999999999996
 20
-378.7339999999999
 30
0.0
 11
449.4999999999996
 21
-378.7339999999999
 31
0.0
  0
LINE
  5
1CB
330
38A
100
AcDbEntity
  8
DATA
  6
Continuous
 62
     7
100
AcDbLine
 10
437.4999999999996
 20
-378.2339999999997
 30
0.0
 11
447.4999999999996
 21
-378.2339999999997
 31
0.0
  0
LINE
  5
1CC
330
38A
100
AcDbEntity
  8
DATA
  6
Continuous
 62
     7
100
AcDbLine
 10
427.4999999999995
 20
-379.2339999999999
 30
0.0
 11
427.4999999999995
 21
-385.2339999999999
 31
0.0
  0
LINE
  5
1CD
330
38A
100
AcDbEntity
  8
DATA
  6
Continuous
 62
     7
100
AcDbLine
 10
438.4999999999996
 20
-379.2339999999999
 30
0.0
 11
446.4999999999996
 21
-379.2339999999999
 31
0.0
  0
LINE
  5
1CE
330
38A
100
AcDbEntity
  8
DATA
  6
Continuous
 62
     7
100
AcDbLine
 10
446.4999999999996
 20
-385.2339999999999
 30
0.0
 11
438.4999999999996
 21
-385.2339999999999
 31
0.0
  0
LINE
  5
1CF
330
38A
100
AcDbEntity
  8
DATA
  6
Continuous
 62
     7
100
AcDbLine
 10
438.4999999999996
 20
-385.2339999999999
 30
0.0
 11
438.4999999999996
 21
-379.2339999999999
 31
0.0
  0
CIRCLE
  5
1D0
330
38A
100
AcDbEntity
  8
DATA
  6
Continuous
 62
     7
100
AcDbCircle
 10
442.4999999999996
 20
-382.2339999999997
 30
0.0
 40
2.0
  0
LINE
  5
1D1
330
38A
100
AcDbEntity
  8
DATA
  6
Continuous
 62
     7
100
AcDbLine
 10
446.4999999999996
 20
-379.2339999999999
 30
0.0
 11
446.4999999999996
 21
-385.2339999999999
 31
0.0
  0
LINE
  5
1D2
330
38A
100
AcDbEntity
  8
DATA
  6
Continuous
 62
     7
100
AcDbLine
 10
452.4999999999995
 20
-367.7340000000004
 30
0.0
 11
462.5000000000005
 21
-367.7340000000004
 31
0.0
  0
LINE
  5
1D3
330
38A
100
AcDbEntity
  8
DATA
  6
Continuous
 62
     7
100
AcDbLine
 10
452.4999999999995
 20
-376.7339999999999
 30
0.0
 11
462.5000000000005
 21
-376.7339999999997
 31
0.0
  0
LINE
  5
1D4
330
38A
100
AcDbEntity
  8
DATA
  6
Continuous
 62
     7
100
AcDbLine
 10
452.4999999999995
 20
-374.7339999999999
 30
0.0
 11
462.5000000000005
 21
-374.7339999999999
 31
0.0
  0
LINE
  5
1D5
330
38A
100
AcDbEntity
  8
DATA
  6
Continuous
 62
     7
100
AcDbLine
 10
452.4999999999995
 20
-372.7339999999999
 30
0.0
 11
462.5000000000005
 21
-372.7339999999997
 31
0.0
  0
LINE
  5
1D6
330
38A
100
AcDbEntity
  8
DATA
  6
Continuous
 62
     7
100
AcDbLine
 10
452.4999999999995
 20
-370.7339999999999
 30
0.0
 11
462.5000000000005
 21
-370.7339999999999
 31
0.0
  0
LINE
  5
1D7
330
38A
100
AcDbEntity
  8
DATA
  6
Continuous
 62
     7
100
AcDbLine
 10
452.4999999999995
 20
-378.2339999999997
 30
0.0
 11
462.5000000000005
 21
-378.2339999999997
 31
0.0
  0
LINE
  5
1D8
330
38A
100
AcDbEntity
  8
DATA
  6
Continuous
 62
     7
100
AcDbLine
 10
452.4999999999995
 20
-386.2339999999999
 30
0.0
 11
462.5000000000005
 21
-386.2339999999999
 31
0.0
  0
LINE
  5
1D9
330
38A
100
AcDbEntity
  8
DATA
  6
Continuous
 62
     7
100
AcDbLine
 10
453.5000000000005
 20
-379.2339999999999
 30
0.0
 11
461.5000000000005
 21
-379.2339999999999
 31
0.0
  0
LINE
  5
1DA
330
38A
100
AcDbEntity
  8
DATA
  6
Continuous
 62
     7
100
AcDbLine
 10
461.5000000000005
 20
-385.2339999999999
 30
0.0
 11
453.5000000000005
 21
-385.2339999999999
 31
0.0
  0
LINE
  5
1DB
330
38A
100
AcDbEntity
  8
DATA
  6
Continuous
 62
     7
100
AcDbLine
 10
450.5000000000005
 20
-369.7339999999999
 30
0.0
 11
452.4999999999995
 21
-369.7339999999999
 31
0.0
  0
LINE
  5
1DC
330
38A
100
AcDbEntity
  8
DATA
  6
Continuous
 62
     7
100
AcDbLine
 10
450.5000000000005
 20
-378.7339999999999
 30
0.0
 11
452.4999999999995
 21
-378.7339999999999
 31
0.0
  0
LINE
  5
1DD
330
38A
100
AcDbEntity
  8
DATA
  6
Continuous
 62
     7
100
AcDbLine
 10
452.4999999999995
 20
-367.7340000000004
 30
0.0
 11
452.5000000000004
 21
-386.2339999999999
 31
0.0
  0
LINE
  5
1DE
330
38A
100
AcDbEntity
  8
DATA
  6
Continuous
 62
     7
100
AcDbLine
 10
453.5000000000005
 20
-385.2339999999999
 30
0.0
 11
453.5000000000005
 21
-379.2339999999999
 31
0.0
  0
CIRCLE
  5
1DF
330
38A
100
AcDbEntity
  8
DATA
  6
Continuous
 62
     7
100
AcDbCircle
 10
457.5000000000005
 20
-382.2339999999997
 30
0.0
 40
2.0
  0
LINE
  5
1E0
330
38A
100
AcDbEntity
  8
DATA
  6
Continuous
 62
     7
100
AcDbLine
 10
471.5000000000005
 20
-367.7340000000004
 30
0.0
 11
481.4999999999995
 21
-367.7340000000004
 31
0.0
  0
LINE
  5
1E1
330
38A
100
AcDbEntity
  8
DATA
  6
Continuous
 62
     7
100
AcDbLine
 10
462.5000000000005
 20
-369.7339999999999
 30
0.0
 11
471.5000000000005
 21
-369.7339999999999
 31
0.0
  0
LINE
  5
1E2
330
38A
100
AcDbEntity
  8
DATA
  6
Continuous
 62
     7
100
AcDbLine
 10
481.4999999999995
 20
-369.7339999999999
 30
0.0
 11
483.5000000000005
 21
-369.7339999999999
 31
0.0
  0
LINE
  5
1E3
330
38A
100
AcDbEntity
  8
DATA
  6
Continuous
 62
     7
100
AcDbLine
 10
471.5000000000005
 20
-376.7339999999999
 30
0.0
 11
481.5000000000004
 21
-376.7339999999997
 31
0.0
  0
LINE
  5
1E4
330
38A
100
AcDbEntity
  8
DATA
  6
Continuous
 62
     7
100
AcDbLine
 10
471.5000000000005
 20
-374.7339999999999
 30
0.0
 11
481.5000000000004
 21
-374.7339999999999
 31
0.0
  0
LINE
  5
1E5
330
38A
100
AcDbEntity
  8
DATA
  6
Continuous
 62
     7
100
AcDbLine
 10
471.5000000000005
 20
-372.7339999999999
 30
0.0
 11
481.5000000000004
 21
-372.7339999999997
 31
0.0
  0
LINE
  5
1E6
330
38A
100
AcDbEntity
  8
DATA
  6
Continuous
 62
     7
100
AcDbLine
 10
471.5000000000005
 20
-370.7339999999999
 30
0.0
 11
481.5000000000004
 21
-370.7339999999999
 31
0.0
  0
LINE
  5
1E7
330
38A
100
AcDbEntity
  8
DATA
  6
Continuous
 62
     7
100
AcDbLine
 10
462.5000000000005
 20
-386.2339999999999
 30
0.0
 11
462.5000000000005
 21
-367.7340000000004
 31
0.0
  0
LINE
  5
1E8
330
38A
100
AcDbEntity
  8
DATA
  6
Continuous
 62
     7
100
AcDbLine
 10
471.5000000000005
 20
-386.2339999999999
 30
0.0
 11
481.4999999999995
 21
-386.2339999999999
 31
0.0
  0
LINE
  5
1E9
330
38A
100
AcDbEntity
  8
DATA
  6
Continuous
 62
     7
100
AcDbLine
 10
471.5000000000005
 20
-367.7340000000004
 30
0.0
 11
471.5000000000005
 21
-386.2339999999999
 31
0.0
  0
LINE
  5
1EA
330
38A
100
AcDbEntity
  8
DATA
  6
Continuous
 62
     7
100
AcDbLine
 10
481.4999999999995
 20
-386.2339999999999
 30
0.0
 11
481.4999999999995
 21
-367.7340000000004
 31
0.0
  0
LINE
  5
1EB
330
38A
100
AcDbEntity
  8
DATA
  6
Continuous
 62
     7
100
AcDbLine
 10
462.5000000000005
 20
-378.7339999999999
 30
0.0
 11
471.5000000000005
 21
-378.7339999999999
 31
0.0
  0
LINE
  5
1EC
330
38A
100
AcDbEntity
  8
DATA
  6
Continuous
 62
     7
100
AcDbLine
 10
481.4999999999995
 20
-378.7339999999999
 30
0.0
 11
483.5000000000005
 21
-378.7339999999999
 31
0.0
  0
LINE
  5
1ED
330
38A
100
AcDbEntity
  8
DATA
  6
Continuous
 62
     7
100
AcDbLine
 10
471.5000000000005
 20
-378.2339999999997
 30
0.0
 11
481.4999999999995
 21
-378.2339999999997
 31
0.0
  0
LINE
  5
1EE
330
38A
100
AcDbEntity
  8
DATA
  6
Continuous
 62
     7
100
AcDbLine
 10
461.5000000000005
 20
-379.2339999999999
 30
0.0
 11
461.5000000000005
 21
-385.2339999999999
 31
0.0
  0
LINE
  5
1EF
330
38A
100
AcDbEntity
  8
DATA
  6
Continuous
 62
     7
100
AcDbLine
 10
472.5000000000004
 20
-379.2339999999999
 30
0.0
 11
480.5000000000005
 21
-379.2339999999999
 31
0.0
  0
LINE
  5
1F0
330
38A
100
AcDbEntity
  8
DATA
  6
Continuous
 62
     7
100
AcDbLine
 10
480.5000000000005
 20
-385.2339999999999
 30
0.0
 11
472.5000000000004
 21
-385.2339999999999
 31
0.0
  0
LINE
  5
1F1
330
38A
100
AcDbEntity
  8
DATA
  6
Continuous
 62
     7
100
AcDbLine
 10
472.5000000000004
 20
-385.2339999999999
 30
0.0
 11
472.5000000000004
 21
-379.2339999999999
 31
0.0
  0
CIRCLE
  5
1F2
330
38A
100
AcDbEntity
  8
DATA
  6
Continuous
 62
     7
100
AcDbCircle
 10
476.5000000000005
 20
-382.2339999999997
 30
0.0
 40
2.0
  0
LINE
  5
1F3
330
38A
100
AcDbEntity
  8
DATA
  6
Continuous
 62
     7
100
AcDbLine
 10
480.5000000000005
 20
-379.2339999999999
 30
0.0
 11
480.5000000000005
 21
-385.2339999999999
 31
0.0
  0
LINE
  5
1F4
330
38A
100
AcDbEntity
  8
DATA
  6
Continuous
 62
     7
100
AcDbLine
 10
450.5000000000005
 20
-369.7339999999999
 30
0.0
 11
450.5000000000005
 21
-387.7339999999999
 31
0.0
  0
LINE
  5
1F5
330
38A
100
AcDbEntity
  8
DATA
  6
Continuous
 62
     7
100
AcDbLine
 10
483.5000000000005
 20
-387.7339999999999
 30
0.0
 11
483.5000000000005
 21
-369.7339999999999
 31
0.0
  0
LINE
  5
1F6
330
38A
100
AcDbEntity
  8
DATA
  6
Continuous
 62
     7
100
AcDbLine
 10
416.0000000000005
 20
-351.7339999999999
 30
0.0
 11
484.0000000000005
 21
-351.7339999999999
 31
0.0
  0
ARC
  5
1F7
330
38A
100
AcDbEntity
  8
DATA
  6
Continuous
 62
     7
100
AcDbCircle
 10
403.4999999999995
 20
-341.9839999999997
 30
0.0
 40
3.0
100
AcDbArc
 50
90.0
 51
180.0
  0
CIRCLE
  5
1F8
330
38A
100
AcDbEntity
  8
DATA
  6
Continuous
 62
     7
100
AcDbCircle
 10
406.7500000000005
 20
-344.4839999999999
 30
0.0
 40
3.5
  0
LINE
  5
1F9
330
38A
100
AcDbEntity
  8
DATA
  6
Continuous
 62
     7
100
AcDbLine
 10
404.7500000000004
 20
-344.4839999999999
 30
0.0
 11
408.7500000000004
 21
-344.4839999999999
 31
0.0
  0
LINE
  5
1FA
330
38A
100
AcDbEntity
  8
DATA
  6
Continuous
 62
     7
100
AcDbLine
 10
406.7500000000005
 20
-346.4839999999999
 30
0.0
 11
406.7500000000005
 21
-342.4839999999999
 31
0.0
  0
LINE
  5
1FB
330
38A
100
AcDbEntity
  8
DATA
  6
Continuous
 62
     7
100
AcDbLine
 10
499.5000000000005
 20
-341.9839999999997
 30
0.0
 11
499.5000000000005
 21
-473.9839999999994
 31
0.0
  0
ARC
  5
1FC
330
38A
100
AcDbEntity
  8
DATA
  6
Continuous
 62
     7
100
AcDbCircle
 10
496.5000000000005
 20
-473.9839999999994
 30
0.0
 40
3.0
100
AcDbArc
 50
270.0
 51
0.0
  0
CIRCLE
  5
1FD
330
38A
100
AcDbEntity
  8
DATA
  6
Continuous
 62
     7
100
AcDbCircle
 10
493.2500000000005
 20
-471.4839999999999
 30
0.0
 40
3.5
  0
LINE
  5
1FE
330
38A
100
AcDbEntity
  8
DATA
  6
Continuous
 62
     7
100
AcDbLine
 10
491.2499999999996
 20
-471.4839999999999
 30
0.0
 11
495.2500000000005
 21
-471.4839999999999
 31
0.0
  0
LINE
  5
1FF
330
38A
100
AcDbEntity
  8
DATA
  6
Continuous
 62
     7
100
AcDbLine
 10
493.2500000000005
 20
-473.4839999999999
 30
0.0
 11
493.2500000000005
 21
-469.4839999999999
 31
0.0
  0
CIRCLE
  5
200
330
38A
100
AcDbEntity
  8
DATA
  6
Continuous
 62
     7
100
AcDbCircle
 10
493.2500000000005
 20
-407.9839999999999
 30
0.0
 40
3.5
  0
LINE
  5
201
330
38A
100
AcDbEntity
  8
DATA
  6
Continuous
 62
     7
100
AcDbLine
 10
491.2499999999996
 20
-407.9839999999999
 30
0.0
 11
495.2500000000005
 21
-407.9839999999999
 31
0.0
  0
LINE
  5
202
330
38A
100
AcDbEntity
  8
DATA
  6
Continuous
 62
     7
100
AcDbLine
 10
493.2500000000005
 20
-409.9839999999996
 30
0.0
 11
493.2500000000005
 21
-405.9839999999996
 31
0.0
  0
ARC
  5
203
330
38A
100
AcDbEntity
  8
DATA
  6
Continuous
 62
     7
100
AcDbCircle
 10
497.9999999999995
 20
-486.9839999999997
 30
0.0
 40
3.0
100
AcDbArc
 50
0.0
 51
90.0
  0
LINE
  5
204
330
38A
100
AcDbEntity
  8
DATA
  6
Continuous
 62
     7
100
AcDbLine
 10
500.9999999999996
 20
-486.9839999999997
 30
0.0
 11
500.9999999999996
 21
-512.9839999999994
 31
0.0
  0
ARC
  5
205
330
38A
100
AcDbEntity
  8
DATA
  6
Continuous
 62
     7
100
AcDbCircle
 10
498.0000000000004
 20
-512.9839999999994
 30
0.0
 40
3.0
100
AcDbArc
 50
270.0
 51
0.0
  0
ARC
  5
206
330
38A
100
AcDbEntity
  8
DATA
  6
Continuous
 62
     7
100
AcDbCircle
 10
496.5000000000005
 20
-341.9839999999997
 30
0.0
 40
3.0
100
AcDbArc
 50
0.0
 51
90.0
  0
CIRCLE
  5
207
330
38A
100
AcDbEntity
  8
DATA
  6
Continuous
 62
     7
100
AcDbCircle
 10
493.2500000000005
 20
-344.4839999999999
 30
0.0
 40
3.5
  0
LINE
  5
208
330
38A
100
AcDbEntity
  8
DATA
  6
Continuous
 62
     7
100
AcDbLine
 10
491.2499999999996
 20
-344.4839999999999
 30
0.0
 11
495.2500000000005
 21
-344.4839999999999
 31
0.0
  0
LINE
  5
209
330
38A
100
AcDbEntity
  8
DATA
  6
Continuous
 62
     7
100
AcDbLine
 10
493.2500000000005
 20
-346.4839999999999
 30
0.0
 11
493.2500000000005
 21
-342.4839999999999
 31
0.0
  0
LINE
  5
20A
330
38A
100
AcDbEntity
  8
DATA
  6
Continuous
 62
     7
100
AcDbLine
 10
637.3249999999993
 20
-612.6999999999998
 30
0.0
 11
653.2000000000002
 21
-612.6999999999998
 31
0.0
  0
LINE
  5
20B
330
38A
100
AcDbEntity
  8
DATA
  6
Continuous
 62
     7
100
AcDbLine
 10
637.3249999999993
 20
-600.0
 30
0.0
 11
637.3249999999993
 21
-612.6999999999998
 31
0.0
  0
LINE
  5
20C
330
38A
100
AcDbEntity
  8
DATA
  6
Continuous
 62
     7
100
AcDbLine
 10
653.2000000000002
 20
-612.6999999999998
 30
0.0
 11
669.0749999999994
 21
-612.6999999999998
 31
0.0
  0
LINE
  5
20D
330
38A
100
AcDbEntity
  8
DATA
  6
Continuous
 62
     7
100
AcDbLine
 10
669.0749999999994
 20
-612.6999999999998
 30
0.0
 11
669.0749999999994
 21
-600.0
 31
0.0
  0
LINE
  5
20E
330
38A
100
AcDbEntity
  8
DATA
  6
Continuous
 62
     7
100
AcDbLine
 10
157.25
 20
-217.9839999999997
 30
0.0
 11
742.75
 21
-217.9839999999997
 31
0.0
  0
LINE
  5
20F
330
38A
100
AcDbEntity
  8
DATA
  6
Continuous
 62
     7
100
AcDbLine
 10
1011.385417458287
 20
-400.0
 30
0.0
 11
1286.385417458287
 21
-400.0
 31
0.0
  0
LINE
  5
210
330
38A
100
AcDbEntity
  8
DATA
  6
Continuous
 62
     7
100
AcDbLine
 10
1336.0
 20
-301.9999999999996
 30
0.0
 11
963.9999999999984
 21
-301.9999999999996
 31
0.0
  0
LINE
  5
211
330
38A
100
AcDbEntity
  8
DATA
  6
Continuous
 62
     7
100
AcDbLine
 10
964.0000000000004
 20
250.0000000000003
 30
0.0
 11
1336.0
 21
250.0000000000003
 31
0.0
  0
TEXT
  5
212
330
38A
100
AcDbEntity
  8
DATA
 62
     7
100
AcDbText
 10
1017.725589752404
 20
-384.4435791600544
 30
0.0
 40
40.72102864583334
  1
端子拡大図
 41
0.7
 11
1017.725589752404
 21
-343.722550514221
 31
0.0
100
AcDbText
 73
     3
  0
CIRCLE
  5
213
330
38A
100
AcDbEntity
  8
DATA
  6
Continuous
 62
     7
100
AcDbCircle
 10
977.0000000000022
 20
-25.99999999999955
 30
0.0
 40
14.0
  0
CIRCLE
  5
214
330
38A
100
AcDbEntity
  8
DATA
  6
Continuous
 62
     7
100
AcDbCircle
 10
977.0000000000022
 20
-280.0
 30
0.0
 40
14.0
  0
CIRCLE
  5
215
330
38A
100
AcDbEntity
  8
DATA
  6
Continuous
 62
     7
100
AcDbCircle
 10
977.0000000000022
 20
228.0
 30
0.0
 40
14.0
  0
LINE
  5
216
330
38A
100
AcDbEntity
  8
DATA
  6
Continuous
 62
     7
100
AcDbLine
 10
951.9999999999996
 20
-289.9999999999987
 30
0.0
 11
951.9999999999996
 21
238.0000000000007
 31
0.0
  0
LINE
  5
217
330
38A
100
AcDbEntity
  8
DATA
  6
Continuous
 62
     7
100
AcDbLine
 10
977.0000000000022
 20
-288.0
 30
0.0
 11
977.0000000000022
 21
-272.0
 31
0.0
  0
LINE
  5
218
330
38A
100
AcDbEntity
  8
DATA
  6
Continuous
 62
     7
100
AcDbLine
 10
968.9999999999995
 20
-280.0
 30
0.0
 11
985.0000000000003
 21
-280.0
 31
0.0
  0
ARC
  5
219
330
38A
100
AcDbEntity
  8
DATA
  6
Continuous
 62
     7
100
AcDbCircle
 10
963.9999999999984
 20
-289.9999999999987
 30
0.0
 40
12.0
100
AcDbArc
 50
180.0
 51
270.0
  0
LINE
  5
21A
330
38A
100
AcDbEntity
  8
DATA
  6
Continuous
 62
     7
100
AcDbLine
 10
977.0000000000022
 20
-33.99999999999955
 30
0.0
 11
977.0000000000022
 21
-17.99999999999954
 31
0.0
  0
LINE
  5
21B
330
38A
100
AcDbEntity
  8
DATA
  6
Continuous
 62
     7
100
AcDbLine
 10
968.9999999999995
 20
-25.99999999999955
 30
0.0
 11
985.0000000000003
 21
-25.99999999999955
 31
0.0
  0
LINE
  5
21C
330
38A
100
AcDbEntity
  8
DATA
  6
Continuous
 62
     7
100
AcDbLine
 10
977.0000000000022
 20
220.0
 30
0.0
 11
977.0000000000022
 21
236.0
 31
0.0
  0
LINE
  5
21D
330
38A
100
AcDbEntity
  8
DATA
  6
Continuous
 62
     7
100
AcDbLine
 10
968.9999999999995
 20
228.0
 30
0.0
 11
985.0000000000003
 21
228.0
 31
0.0
  0
ARC
  5
21E
330
38A
100
AcDbEntity
  8
DATA
  6
Continuous
 62
     7
100
AcDbCircle
 10
964.0000000000004
 20
238.0000000000007
 30
0.0
 40
12.0
100
AcDbArc
 50
90.0
 51
180.0
  0
LINE
  5
21F
330
38A
100
AcDbEntity
  8
DATA
  6
Continuous
 62
     7
100
AcDbLine
 10
1002.0
 20
-238.9999999999986
 30
0.0
 11
1002.0
 21
187.0000000000007
 31
0.0
  0
LINE
  5
220
330
38A
100
AcDbEntity
  8
DATA
  6
Continuous
 62
     7
100
AcDbLine
 10
1297.999999999999
 20
187.0000000000007
 30
0.0
 11
1297.999999999999
 21
-238.9999999999986
 31
0.0
  0
LINE
  5
221
330
38A
100
AcDbEntity
  8
DATA
  6
Continuous
 62
     7
100
AcDbLine
 10
1348.0
 20
238.0000000000007
 30
0.0
 11
1348.0
 21
-289.9999999999987
 31
0.0
  0
CIRCLE
  5
222
330
38A
100
AcDbEntity
  8
DATA
  6
Continuous
 62
     7
100
AcDbCircle
 10
1323.0
 20
-25.99999999999955
 30
0.0
 40
14.0
  0
TEXT
  5
223
330
38A
100
AcDbEntity
  8
DATA
 62
     7
100
AcDbText
 10
1112.424379818453
 20
-19.80468749999954
 30
0.0
 40
23.14605712890625
  1
INPUT
 41
0.7
 11
1112.424379818453
 21
3.341369628906704
 31
0.0
100
AcDbText
 73
     3
  0
ARC
  5
224
330
38A
100
AcDbEntity
  8
DATA
  6
Continuous
 62
     7
100
AcDbCircle
 10
1014.0
 20
-238.9999999999986
 30
0.0
 40
12.0
100
AcDbArc
 50
180.0
 51
270.0
  0
LINE
  5
225
330
38A
100
AcDbEntity
  8
DATA
  6
Continuous
 62
     7
100
AcDbLine
 10
1002.0
 20
-25.99999999999955
 30
0.0
 11
1297.999999999999
 21
-25.99999999999955
 31
0.0
  0
TEXT
  5
226
330
38A
100
AcDbEntity
  8
DATA
 62
     7
100
AcDbText
 10
1097.972218210164
 20
-59.80468749999954
 30
0.0
 40
23.14605712890625
  1
OUTPUT
 41
0.7
 11
1097.972218210164
 21
-36.6586303710933
 31
0.0
100
AcDbText
 73
     3
  0
TEXT
  5
227
330
38A
100
AcDbEntity
  8
DATA
 62
     7
100
AcDbText
 10
1179.846293354122
 20
-94.80468749999909
 30
0.0
 40
23.14605712890625
  1
RIGHT
 41
0.7
 11
1179.846293354122
 21
-71.65863037109284
 31
0.0
100
AcDbText
 73
     3
  0
TEXT
  5
228
330
38A
100
AcDbEntity
  8
DATA
 62
     7
100
AcDbText
 10
1050.783330926098
 20
-94.80468749999909
 30
0.0
 40
23.14605712890625
  1
LEFT
 41
0.7
 11
1050.783330926098
 21
-71.65863037109284
 31
0.0
100
AcDbText
 73
     3
  0
ARC
  5
229
330
38A
100
AcDbEntity
  8
DATA
  6
Continuous
 62
     7
100
AcDbCircle
 10
1285.999999999999
 20
-238.9999999999986
 30
0.0
 40
12.0
100
AcDbArc
 50
270.0
 51
0.0
  0
LINE
  5
22A
330
38A
100
AcDbEntity
  8
DATA
  6
Continuous
 62
     7
100
AcDbLine
 10
1285.999999999999
 20
-250.9999999999991
 30
0.0
 11
1014.0
 21
-250.9999999999991
 31
0.0
  0
LINE
  5
22B
330
38A
100
AcDbEntity
  8
DATA
  6
Continuous
 62
     7
100
AcDbLine
 10
1284.0
 20
-100.9999999999988
 30
0.0
 11
1284.0
 21
-172.9999999999981
 31
0.0
  0
LINE
  5
22C
330
38A
100
AcDbEntity
  8
DATA
  6
Continuous
 62
     7
100
AcDbLine
 10
1152.0
 20
-172.9999999999981
 30
0.0
 11
1152.0
 21
-100.9999999999988
 31
0.0
  0
LINE
  5
22D
330
38A
100
AcDbEntity
  8
DATA
  6
Continuous
 62
     7
100
AcDbLine
 10
1272.0
 20
-134.9999999999986
 30
0.0
 11
1272.0
 21
-110.9999999999986
 31
0.0
  0
CIRCLE
  5
22E
330
38A
100
AcDbEntity
  8
DATA
  6
Continuous
 62
     7
100
AcDbCircle
 10
1255.999999999999
 20
-122.9999999999991
 30
0.0
 40
8.0
  0
LINE
  5
22F
330
38A
100
AcDbEntity
  8
DATA
  6
Continuous
 62
     7
100
AcDbLine
 10
1239.999999999999
 20
-110.9999999999986
 30
0.0
 11
1239.999999999999
 21
-134.9999999999986
 31
0.0
  0
LINE
  5
230
330
38A
100
AcDbEntity
  8
DATA
  6
Continuous
 62
     7
100
AcDbLine
 10
1272.0
 20
-110.9999999999986
 30
0.0
 11
1239.999999999999
 21
-110.9999999999986
 31
0.0
  0
LINE
  5
231
330
38A
100
AcDbEntity
  8
DATA
  6
Continuous
 62
     7
100
AcDbLine
 10
1239.999999999999
 20
-134.9999999999986
 30
0.0
 11
1272.0
 21
-134.9999999999986
 31
0.0
  0
LINE
  5
232
330
38A
100
AcDbEntity
  8
DATA
  6
Continuous
 62
     7
100
AcDbLine
 10
1195.999999999999
 20
-134.9999999999986
 30
0.0
 11
1195.999999999999
 21
-110.9999999999986
 31
0.0
  0
LINE
  5
233
330
38A
100
AcDbEntity
  8
DATA
  6
Continuous
 62
     7
100
AcDbLine
 10
1235.999999999998
 20
-138.9999999999991
 30
0.0
 11
1276.0
 21
-138.9999999999991
 31
0.0
  0
LINE
  5
234
330
38A
100
AcDbEntity
  8
DATA
  6
Continuous
 62
     7
100
AcDbLine
 10
1276.0
 20
-136.9999999999986
 30
0.0
 11
1284.0
 21
-136.9999999999986
 31
0.0
  0
LINE
  5
235
330
38A
100
AcDbEntity
  8
DATA
  6
Continuous
 62
     7
100
AcDbLine
 10
1200.0
 20
-136.9999999999986
 30
0.0
 11
1235.999999999998
 21
-136.9999999999986
 31
0.0
  0
LINE
  5
236
330
38A
100
AcDbEntity
  8
DATA
  6
Continuous
 62
     7
100
AcDbLine
 10
1276.0
 20
-106.9999999999991
 30
0.0
 11
1276.0
 21
-180.9999999999973
 31
0.0
  0
LINE
  5
237
330
38A
100
AcDbEntity
  8
DATA
  6
Continuous
 62
     7
100
AcDbLine
 10
1235.999999999998
 20
-180.9999999999973
 30
0.0
 11
1236.0
 21
-106.9999999999991
 31
0.0
  0
LINE
  5
238
330
38A
100
AcDbEntity
  8
DATA
  6
Continuous
 62
     7
100
AcDbLine
 10
1235.999999999998
 20
-106.9999999999991
 30
0.0
 11
1276.0
 21
-106.9999999999991
 31
0.0
  0
LINE
  5
239
330
38A
100
AcDbEntity
  8
DATA
  6
Continuous
 62
     7
100
AcDbLine
 10
1200.0
 20
-106.9999999999991
 30
0.0
 11
1200.0
 21
-180.9999999999973
 31
0.0
  0
LINE
  5
23A
330
38A
100
AcDbEntity
  8
DATA
  6
Continuous
 62
     7
100
AcDbLine
 10
1235.999999999998
 20
-168.9999999999984
 30
0.0
 11
1276.000000000001
 21
-168.9999999999993
 31
0.0
  0
LINE
  5
23B
330
38A
100
AcDbEntity
  8
DATA
  6
Continuous
 62
     7
100
AcDbLine
 10
1235.999999999998
 20
-160.9999999999984
 30
0.0
 11
1276.000000000001
 21
-160.9999999999993
 31
0.0
  0
LINE
  5
23C
330
38A
100
AcDbEntity
  8
DATA
  6
Continuous
 62
     7
100
AcDbLine
 10
1235.999999999998
 20
-152.9999999999984
 30
0.0
 11
1276.000000000001
 21
-152.9999999999993
 31
0.0
  0
LINE
  5
23D
330
38A
100
AcDbEntity
  8
DATA
  6
Continuous
 62
     7
100
AcDbLine
 10
1235.999999999998
 20
-144.9999999999984
 30
0.0
 11
1276.000000000001
 21
-144.9999999999993
 31
0.0
  0
LINE
  5
23E
330
38A
100
AcDbEntity
  8
DATA
  6
Continuous
 62
     7
100
AcDbLine
 10
1276.0
 20
-172.9999999999981
 30
0.0
 11
1284.0
 21
-172.9999999999981
 31
0.0
  0
LINE
  5
23F
330
38A
100
AcDbEntity
  8
DATA
  6
Continuous
 62
     7
100
AcDbLine
 10
1200.0
 20
-172.9999999999981
 30
0.0
 11
1235.999999999998
 21
-172.9999999999981
 31
0.0
  0
LINE
  5
240
330
38A
100
AcDbEntity
  8
DATA
  6
Continuous
 62
     7
100
AcDbLine
 10
1235.999999999998
 20
-180.9999999999973
 30
0.0
 11
1276.0
 21
-180.9999999999973
 31
0.0
  0
CIRCLE
  5
241
330
38A
100
AcDbEntity
  8
DATA
  6
Continuous
 62
     7
100
AcDbCircle
 10
1180.000000000001
 20
-122.9999999999991
 30
0.0
 40
8.0
  0
LINE
  5
242
330
38A
100
AcDbEntity
  8
DATA
  6
Continuous
 62
     7
100
AcDbLine
 10
1163.999999999999
 20
-110.9999999999986
 30
0.0
 11
1163.999999999999
 21
-134.9999999999986
 31
0.0
  0
LINE
  5
243
330
38A
100
AcDbEntity
  8
DATA
  6
Continuous
 62
     7
100
AcDbLine
 10
1160.0
 20
-180.9999999999973
 30
0.0
 11
1160.000000000002
 21
-106.9999999999991
 31
0.0
  0
LINE
  5
244
330
38A
100
AcDbEntity
  8
DATA
  6
Continuous
 62
     7
100
AcDbLine
 10
1152.0
 20
-136.9999999999986
 30
0.0
 11
1160.0
 21
-136.9999999999986
 31
0.0
  0
LINE
  5
245
330
38A
100
AcDbEntity
  8
DATA
  6
Continuous
 62
     7
100
AcDbLine
 10
1152.0
 20
-172.9999999999981
 30
0.0
 11
1160.0
 21
-172.9999999999981
 31
0.0
  0
LINE
  5
246
330
38A
100
AcDbEntity
  8
DATA
  6
Continuous
 62
     7
100
AcDbLine
 10
1195.999999999999
 20
-110.9999999999986
 30
0.0
 11
1163.999999999999
 21
-110.9999999999986
 31
0.0
  0
LINE
  5
247
330
38A
100
AcDbEntity
  8
DATA
  6
Continuous
 62
     7
100
AcDbLine
 10
1163.999999999999
 20
-134.9999999999986
 30
0.0
 11
1195.999999999999
 21
-134.9999999999986
 31
0.0
  0
LINE
  5
248
330
38A
100
AcDbEntity
  8
DATA
  6
Continuous
 62
     7
100
AcDbLine
 10
1160.0
 20
-106.9999999999991
 30
0.0
 11
1200.0
 21
-106.9999999999991
 31
0.0
  0
LINE
  5
249
330
38A
100
AcDbEntity
  8
DATA
  6
Continuous
 62
     7
100
AcDbLine
 10
1160.0
 20
-138.9999999999991
 30
0.0
 11
1200.0
 21
-138.9999999999991
 31
0.0
  0
LINE
  5
24A
330
38A
100
AcDbEntity
  8
DATA
  6
Continuous
 62
     7
100
AcDbLine
 10
1160.0
 20
-168.9999999999984
 30
0.0
 11
1200.0
 21
-168.9999999999993
 31
0.0
  0
LINE
  5
24B
330
38A
100
AcDbEntity
  8
DATA
  6
Continuous
 62
     7
100
AcDbLine
 10
1160.0
 20
-160.9999999999984
 30
0.0
 11
1200.0
 21
-160.9999999999993
 31
0.0
  0
LINE
  5
24C
330
38A
100
AcDbEntity
  8
DATA
  6
Continuous
 62
     7
100
AcDbLine
 10
1160.0
 20
-152.9999999999984
 30
0.0
 11
1200.0
 21
-152.9999999999993
 31
0.0
  0
LINE
  5
24D
330
38A
100
AcDbEntity
  8
DATA
  6
Continuous
 62
     7
100
AcDbLine
 10
1160.0
 20
-144.9999999999984
 30
0.0
 11
1200.0
 21
-144.9999999999993
 31
0.0
  0
LINE
  5
24E
330
38A
100
AcDbEntity
  8
DATA
  6
Continuous
 62
     7
100
AcDbLine
 10
1160.0
 20
-180.9999999999973
 30
0.0
 11
1200.0
 21
-180.9999999999973
 31
0.0
  0
LINE
  5
24F
330
38A
100
AcDbEntity
  8
DATA
  6
Continuous
 62
     7
100
AcDbLine
 10
1135.999999999997
 20
-134.9999999999986
 30
0.0
 11
1135.999999999997
 21
-110.9999999999986
 31
0.0
  0
CIRCLE
  5
250
330
38A
100
AcDbEntity
  8
DATA
  6
Continuous
 62
     7
100
AcDbCircle
 10
1119.999999999998
 20
-122.9999999999991
 30
0.0
 40
8.0
  0
LINE
  5
251
330
38A
100
AcDbEntity
  8
DATA
  6
Continuous
 62
     7
100
AcDbLine
 10
1103.999999999997
 20
-110.9999999999986
 30
0.0
 11
1103.999999999997
 21
-134.9999999999986
 31
0.0
  0
LINE
  5
252
330
38A
100
AcDbEntity
  8
DATA
  6
Continuous
 62
     7
100
AcDbLine
 10
1135.999999999997
 20
-110.9999999999986
 30
0.0
 11
1103.999999999997
 21
-110.9999999999986
 31
0.0
  0
LINE
  5
253
330
38A
100
AcDbEntity
  8
DATA
  6
Continuous
 62
     7
100
AcDbLine
 10
1103.999999999997
 20
-134.9999999999986
 30
0.0
 11
1135.999999999997
 21
-134.9999999999986
 31
0.0
  0
LINE
  5
254
330
38A
100
AcDbEntity
  8
DATA
  6
Continuous
 62
     7
100
AcDbLine
 10
1059.999999999998
 20
-134.9999999999986
 30
0.0
 11
1059.999999999998
 21
-110.9999999999986
 31
0.0
  0
LINE
  5
255
330
38A
100
AcDbEntity
  8
DATA
  6
Continuous
 62
     7
100
AcDbLine
 10
1099.999999999997
 20
-138.9999999999991
 30
0.0
 11
1139.999999999998
 21
-138.9999999999991
 31
0.0
  0
LINE
  5
256
330
38A
100
AcDbEntity
  8
DATA
  6
Continuous
 62
     7
100
AcDbLine
 10
1139.999999999998
 20
-136.9999999999986
 30
0.0
 11
1147.999999999997
 21
-136.9999999999986
 31
0.0
  0
LINE
  5
257
330
38A
100
AcDbEntity
  8
DATA
  6
Continuous
 62
     7
100
AcDbLine
 10
1063.999999999997
 20
-136.9999999999986
 30
0.0
 11
1099.999999999996
 21
-136.9999999999986
 31
0.0
  0
LINE
  5
258
330
38A
100
AcDbEntity
  8
DATA
  6
Continuous
 62
     7
100
AcDbLine
 10
1139.999999999998
 20
-106.9999999999991
 30
0.0
 11
1139.999999999998
 21
-180.9999999999973
 31
0.0
  0
LINE
  5
259
330
38A
100
AcDbEntity
  8
DATA
  6
Continuous
 62
     7
100
AcDbLine
 10
1099.999999999997
 20
-180.9999999999973
 30
0.0
 11
1100.0
 21
-106.9999999999991
 31
0.0
  0
LINE
  5
25A
330
38A
100
AcDbEntity
  8
DATA
  6
Continuous
 62
     7
100
AcDbLine
 10
1099.999999999997
 20
-106.9999999999991
 30
0.0
 11
1139.999999999998
 21
-106.9999999999991
 31
0.0
  0
LINE
  5
25B
330
38A
100
AcDbEntity
  8
DATA
  6
Continuous
 62
     7
100
AcDbLine
 10
1063.999999999997
 20
-106.9999999999991
 30
0.0
 11
1063.999999999997
 21
-180.9999999999973
 31
0.0
  0
LINE
  5
25C
330
38A
100
AcDbEntity
  8
DATA
  6
Continuous
 62
     7
100
AcDbLine
 10
1099.999999999997
 20
-168.9999999999984
 30
0.0
 11
1139.999999999998
 21
-168.9999999999993
 31
0.0
  0
LINE
  5
25D
330
38A
100
AcDbEntity
  8
DATA
  6
Continuous
 62
     7
100
AcDbLine
 10
1099.999999999997
 20
-160.9999999999984
 30
0.0
 11
1139.999999999998
 21
-160.9999999999993
 31
0.0
  0
LINE
  5
25E
330
38A
100
AcDbEntity
  8
DATA
  6
Continuous
 62
     7
100
AcDbLine
 10
1099.999999999997
 20
-152.9999999999984
 30
0.0
 11
1139.999999999998
 21
-152.9999999999993
 31
0.0
  0
LINE
  5
25F
330
38A
100
AcDbEntity
  8
DATA
  6
Continuous
 62
     7
100
AcDbLine
 10
1099.999999999997
 20
-144.9999999999984
 30
0.0
 11
1139.999999999998
 21
-144.9999999999993
 31
0.0
  0
LINE
  5
260
330
38A
100
AcDbEntity
  8
DATA
  6
Continuous
 62
     7
100
AcDbLine
 10
1139.999999999998
 20
-172.9999999999981
 30
0.0
 11
1147.999999999997
 21
-172.9999999999981
 31
0.0
  0
LINE
  5
261
330
38A
100
AcDbEntity
  8
DATA
  6
Continuous
 62
     7
100
AcDbLine
 10
1063.999999999997
 20
-172.9999999999981
 30
0.0
 11
1099.999999999996
 21
-172.9999999999981
 31
0.0
  0
LINE
  5
262
330
38A
100
AcDbEntity
  8
DATA
  6
Continuous
 62
     7
100
AcDbLine
 10
1099.999999999997
 20
-180.9999999999973
 30
0.0
 11
1139.999999999998
 21
-180.9999999999973
 31
0.0
  0
LINE
  5
263
330
38A
100
AcDbEntity
  8
DATA
  6
Continuous
 62
     7
100
AcDbLine
 10
1152.0
 20
-100.9999999999988
 30
0.0
 11
1284.0
 21
-100.9999999999988
 31
0.0
  0
LINE
  5
264
330
38A
100
AcDbEntity
  8
DATA
  6
Continuous
 62
     7
100
AcDbLine
 10
1147.999999999997
 20
-100.9999999999988
 30
0.0
 11
1147.999999999997
 21
-172.9999999999981
 31
0.0
  0
CIRCLE
  5
265
330
38A
100
AcDbEntity
  8
DATA
  6
Continuous
 62
     7
100
AcDbCircle
 10
1043.999999999998
 20
-122.9999999999991
 30
0.0
 40
8.0
  0
LINE
  5
266
330
38A
100
AcDbEntity
  8
DATA
  6
Continuous
 62
     7
100
AcDbLine
 10
1027.999999999998
 20
-110.9999999999986
 30
0.0
 11
1027.999999999998
 21
-134.9999999999986
 31
0.0
  0
LINE
  5
267
330
38A
100
AcDbEntity
  8
DATA
  6
Continuous
 62
     7
100
AcDbLine
 10
1023.999999999998
 20
-180.9999999999973
 30
0.0
 11
1023.999999999998
 21
-106.9999999999991
 31
0.0
  0
LINE
  5
268
330
38A
100
AcDbEntity
  8
DATA
  6
Continuous
 62
     7
100
AcDbLine
 10
1016.0
 20
-136.9999999999986
 30
0.0
 11
1023.999999999998
 21
-136.9999999999986
 31
0.0
  0
LINE
  5
269
330
38A
100
AcDbEntity
  8
DATA
  6
Continuous
 62
     7
100
AcDbLine
 10
1016.0
 20
-172.9999999999981
 30
0.0
 11
1023.999999999998
 21
-172.9999999999981
 31
0.0
  0
LINE
  5
26A
330
38A
100
AcDbEntity
  8
DATA
  6
Continuous
 62
     7
100
AcDbLine
 10
1016.0
 20
-100.9999999999988
 30
0.0
 11
1016.0
 21
-172.9999999999981
 31
0.0
  0
LINE
  5
26B
330
38A
100
AcDbEntity
  8
DATA
  6
Continuous
 62
     7
100
AcDbLine
 10
1059.999999999998
 20
-110.9999999999986
 30
0.0
 11
1027.999999999998
 21
-110.9999999999986
 31
0.0
  0
LINE
  5
26C
330
38A
100
AcDbEntity
  8
DATA
  6
Continuous
 62
     7
100
AcDbLine
 10
1027.999999999998
 20
-134.9999999999986
 30
0.0
 11
1059.999999999998
 21
-134.9999999999986
 31
0.0
  0
LINE
  5
26D
330
38A
100
AcDbEntity
  8
DATA
  6
Continuous
 62
     7
100
AcDbLine
 10
1023.999999999998
 20
-106.9999999999991
 30
0.0
 11
1063.999999999997
 21
-106.9999999999991
 31
0.0
  0
LINE
  5
26E
330
38A
100
AcDbEntity
  8
DATA
  6
Continuous
 62
     7
100
AcDbLine
 10
1023.999999999998
 20
-138.9999999999991
 30
0.0
 11
1063.999999999997
 21
-138.9999999999991
 31
0.0
  0
LINE
  5
26F
330
38A
100
AcDbEntity
  8
DATA
  6
Continuous
 62
     7
100
AcDbLine
 10
1023.999999999998
 20
-168.9999999999984
 30
0.0
 11
1063.999999999997
 21
-168.9999999999993
 31
0.0
  0
LINE
  5
270
330
38A
100
AcDbEntity
  8
DATA
  6
Continuous
 62
     7
100
AcDbLine
 10
1023.999999999998
 20
-160.9999999999984
 30
0.0
 11
1063.999999999997
 21
-160.9999999999993
 31
0.0
  0
LINE
  5
271
330
38A
100
AcDbEntity
  8
DATA
  6
Continuous
 62
     7
100
AcDbLine
 10
1023.999999999998
 20
-152.9999999999984
 30
0.0
 11
1063.999999999997
 21
-152.9999999999993
 31
0.0
  0
LINE
  5
272
330
38A
100
AcDbEntity
  8
DATA
  6
Continuous
 62
     7
100
AcDbLine
 10
1023.999999999998
 20
-144.9999999999984
 30
0.0
 11
1063.999999999997
 21
-144.9999999999993
 31
0.0
  0
LINE
  5
273
330
38A
100
AcDbEntity
  8
DATA
  6
Continuous
 62
     7
100
AcDbLine
 10
1023.999999999998
 20
-180.9999999999973
 30
0.0
 11
1063.999999999997
 21
-180.9999999999973
 31
0.0
  0
LINE
  5
274
330
38A
100
AcDbEntity
  8
DATA
  6
Continuous
 62
     7
100
AcDbLine
 10
1016.0
 20
-100.9999999999988
 30
0.0
 11
1147.999999999997
 21
-100.9999999999988
 31
0.0
  0
LINE
  5
275
330
38A
100
AcDbEntity
  8
DATA
  6
Continuous
 62
     7
100
AcDbLine
 10
1323.0
 20
-288.0
 30
0.0
 11
1323.0
 21
-272.0
 31
0.0
  0
LINE
  5
276
330
38A
100
AcDbEntity
  8
DATA
  6
Continuous
 62
     7
100
AcDbLine
 10
1314.999999999999
 20
-280.0
 30
0.0
 11
1330.999999999999
 21
-280.0
 31
0.0
  0
CIRCLE
  5
277
330
38A
100
AcDbEntity
  8
DATA
  6
Continuous
 62
     7
100
AcDbCircle
 10
1323.0
 20
-280.0
 30
0.0
 40
14.0
  0
ARC
  5
278
330
38A
100
AcDbEntity
  8
DATA
  6
Continuous
 62
     7
100
AcDbCircle
 10
1336.0
 20
-289.9999999999987
 30
0.0
 40
12.0
100
AcDbArc
 50
270.0
 51
0.0
  0
LINE
  5
279
330
38A
100
AcDbEntity
  8
DATA
  6
Continuous
 62
     7
100
AcDbLine
 10
1323.0
 20
-33.99999999999955
 30
0.0
 11
1323.0
 21
-17.99999999999954
 31
0.0
  0
LINE
  5
27A
330
38A
100
AcDbEntity
  8
DATA
  6
Continuous
 62
     7
100
AcDbLine
 10
1314.999999999999
 20
-25.99999999999955
 30
0.0
 11
1330.999999999999
 21
-25.99999999999955
 31
0.0
  0
ARC
  5
27B
330
38A
100
AcDbEntity
  8
DATA
  6
Continuous
 62
     7
100
AcDbCircle
 10
1014.0
 20
187.0000000000007
 30
0.0
 40
12.0
100
AcDbArc
 50
90.0
 51
180.0
  0
LINE
  5
27C
330
38A
100
AcDbEntity
  8
DATA
  6
Continuous
 62
     7
100
AcDbLine
 10
1284.0
 20
55.0
 30
0.0
 11
1284.0
 21
126.9999999999991
 31
0.0
  0
LINE
  5
27D
330
38A
100
AcDbEntity
  8
DATA
  6
Continuous
 62
     7
100
AcDbLine
 10
1152.0
 20
126.9999999999991
 30
0.0
 11
1152.0
 21
55.0
 31
0.0
  0
LINE
  5
27E
330
38A
100
AcDbEntity
  8
DATA
  6
Continuous
 62
     7
100
AcDbLine
 10
1276.0
 20
61.00000000000022
 30
0.0
 11
1276.0
 21
134.9999999999984
 31
0.0
  0
LINE
  5
27F
330
38A
100
AcDbEntity
  8
DATA
  6
Continuous
 62
     7
100
AcDbLine
 10
1235.999999999998
 20
134.9999999999984
 30
0.0
 11
1236.0
 21
61.00000000000022
 31
0.0
  0
LINE
  5
280
330
38A
100
AcDbEntity
  8
DATA
  6
Continuous
 62
     7
100
AcDbLine
 10
1200.0
 20
61.00000000000022
 30
0.0
 11
1200.0
 21
134.9999999999984
 31
0.0
  0
LINE
  5
281
330
38A
100
AcDbEntity
  8
DATA
  6
Continuous
 62
     7
100
AcDbLine
 10
1160.0
 20
134.9999999999984
 30
0.0
 11
1160.000000000002
 21
61.00000000000022
 31
0.0
  0
LINE
  5
282
330
38A
100
AcDbEntity
  8
DATA
  6
Continuous
 62
     7
100
AcDbLine
 10
1139.999999999998
 20
61.00000000000022
 30
0.0
 11
1139.999999999998
 21
134.9999999999984
 31
0.0
  0
LINE
  5
283
330
38A
100
AcDbEntity
  8
DATA
  6
Continuous
 62
     7
100
AcDbLine
 10
1099.999999999997
 20
134.9999999999984
 30
0.0
 11
1100.0
 21
61.00000000000022
 31
0.0
  0
LINE
  5
284
330
38A
100
AcDbEntity
  8
DATA
  6
Continuous
 62
     7
100
AcDbLine
 10
1063.999999999997
 20
61.00000000000022
 30
0.0
 11
1063.999999999997
 21
134.9999999999984
 31
0.0
  0
LINE
  5
285
330
38A
100
AcDbEntity
  8
DATA
  6
Continuous
 62
     7
100
AcDbLine
 10
1147.999999999997
 20
55.0
 30
0.0
 11
1147.999999999997
 21
126.9999999999991
 31
0.0
  0
LINE
  5
286
330
38A
100
AcDbEntity
  8
DATA
  6
Continuous
 62
     7
100
AcDbLine
 10
1023.999999999998
 20
134.9999999999984
 30
0.0
 11
1023.999999999998
 21
61.00000000000022
 31
0.0
  0
LINE
  5
287
330
38A
100
AcDbEntity
  8
DATA
  6
Continuous
 62
     7
100
AcDbLine
 10
1016.0
 20
55.0
 30
0.0
 11
1016.0
 21
126.9999999999991
 31
0.0
  0
TEXT
  5
288
330
38A
100
AcDbEntity
  8
DATA
 62
     7
100
AcDbText
 10
1179.846293354122
 20
21.1953125
 30
0.0
 40
23.14605712890625
  1
RIGHT
 41
0.7
 11
1179.846293354122
 21
44.34136962890625
 31
0.0
100
AcDbText
 73
     3
  0
LINE
  5
289
330
38A
100
AcDbEntity
  8
DATA
  6
Continuous
 62
     7
100
AcDbLine
 10
1235.999999999998
 20
61.00000000000022
 30
0.0
 11
1276.0
 21
61.00000000000022
 31
0.0
  0
LINE
  5
28A
330
38A
100
AcDbEntity
  8
DATA
  6
Continuous
 62
     7
100
AcDbLine
 10
1160.0
 20
61.00000000000022
 30
0.0
 11
1200.0
 21
61.00000000000022
 31
0.0
  0
LINE
  5
28B
330
38A
100
AcDbEntity
  8
DATA
  6
Continuous
 62
     7
100
AcDbLine
 10
1099.999999999997
 20
61.00000000000022
 30
0.0
 11
1139.999999999998
 21
61.00000000000022
 31
0.0
  0
LINE
  5
28C
330
38A
100
AcDbEntity
  8
DATA
  6
Continuous
 62
     7
100
AcDbLine
 10
1152.0
 20
55.0
 30
0.0
 11
1284.0
 21
55.0
 31
0.0
  0
TEXT
  5
28D
330
38A
100
AcDbEntity
  8
DATA
 62
     7
100
AcDbText
 10
1050.783330926098
 20
21.1953125
 30
0.0
 40
23.14605712890625
  1
LEFT
 41
0.7
 11
1050.783330926098
 21
44.34136962890625
 31
0.0
100
AcDbText
 73
     3
  0
LINE
  5
28E
330
38A
100
AcDbEntity
  8
DATA
  6
Continuous
 62
     7
100
AcDbLine
 10
1023.999999999998
 20
61.00000000000022
 30
0.0
 11
1063.999999999997
 21
61.00000000000022
 31
0.0
  0
LINE
  5
28F
330
38A
100
AcDbEntity
  8
DATA
  6
Continuous
 62
     7
100
AcDbLine
 10
1016.0
 20
55.0
 30
0.0
 11
1147.999999999997
 21
55.0
 31
0.0
  0
LINE
  5
290
330
38A
100
AcDbEntity
  8
DATA
  6
Continuous
 62
     7
100
AcDbLine
 10
1272.0
 20
88.99999999999979
 30
0.0
 11
1272.0
 21
64.99999999999977
 31
0.0
  0
CIRCLE
  5
291
330
38A
100
AcDbEntity
  8
DATA
  6
Continuous
 62
     7
100
AcDbCircle
 10
1255.999999999999
 20
77.00000000000021
 30
0.0
 40
8.0
  0
LINE
  5
292
330
38A
100
AcDbEntity
  8
DATA
  6
Continuous
 62
     7
100
AcDbLine
 10
1239.999999999999
 20
64.99999999999977
 30
0.0
 11
1239.999999999999
 21
88.99999999999979
 31
0.0
  0
LINE
  5
293
330
38A
100
AcDbEntity
  8
DATA
  6
Continuous
 62
     7
100
AcDbLine
 10
1272.0
 20
64.99999999999977
 30
0.0
 11
1239.999999999999
 21
64.99999999999977
 31
0.0
  0
LINE
  5
294
330
38A
100
AcDbEntity
  8
DATA
  6
Continuous
 62
     7
100
AcDbLine
 10
1239.999999999999
 20
88.99999999999979
 30
0.0
 11
1272.0
 21
88.99999999999979
 31
0.0
  0
LINE
  5
295
330
38A
100
AcDbEntity
  8
DATA
  6
Continuous
 62
     7
100
AcDbLine
 10
1195.999999999999
 20
88.99999999999979
 30
0.0
 11
1195.999999999999
 21
64.99999999999977
 31
0.0
  0
LINE
  5
296
330
38A
100
AcDbEntity
  8
DATA
  6
Continuous
 62
     7
100
AcDbLine
 10
1235.999999999998
 20
93.00000000000022
 30
0.0
 11
1276.0
 21
93.00000000000022
 31
0.0
  0
LINE
  5
297
330
38A
100
AcDbEntity
  8
DATA
  6
Continuous
 62
     7
100
AcDbLine
 10
1276.0
 20
90.99999999999955
 30
0.0
 11
1284.0
 21
90.99999999999955
 31
0.0
  0
LINE
  5
298
330
38A
100
AcDbEntity
  8
DATA
  6
Continuous
 62
     7
100
AcDbLine
 10
1200.0
 20
90.99999999999955
 30
0.0
 11
1235.999999999998
 21
90.99999999999955
 31
0.0
  0
LINE
  5
299
330
38A
100
AcDbEntity
  8
DATA
  6
Continuous
 62
     7
100
AcDbLine
 10
1235.999999999998
 20
122.9999999999995
 30
0.0
 11
1276.000000000001
 21
123.0000000000004
 31
0.0
  0
LINE
  5
29A
330
38A
100
AcDbEntity
  8
DATA
  6
Continuous
 62
     7
100
AcDbLine
 10
1235.999999999998
 20
114.9999999999995
 30
0.0
 11
1276.000000000001
 21
115.0000000000004
 31
0.0
  0
LINE
  5
29B
330
38A
100
AcDbEntity
  8
DATA
  6
Continuous
 62
     7
100
AcDbLine
 10
1235.999999999998
 20
106.9999999999995
 30
0.0
 11
1276.000000000001
 21
107.0000000000004
 31
0.0
  0
LINE
  5
29C
330
38A
100
AcDbEntity
  8
DATA
  6
Continuous
 62
     7
100
AcDbLine
 10
1235.999999999998
 20
98.99999999999955
 30
0.0
 11
1276.000000000001
 21
99.00000000000044
 31
0.0
  0
LINE
  5
29D
330
38A
100
AcDbEntity
  8
DATA
  6
Continuous
 62
     7
100
AcDbLine
 10
1276.0
 20
126.9999999999991
 30
0.0
 11
1284.0
 21
126.9999999999991
 31
0.0
  0
LINE
  5
29E
330
38A
100
AcDbEntity
  8
DATA
  6
Continuous
 62
     7
100
AcDbLine
 10
1200.0
 20
126.9999999999991
 30
0.0
 11
1235.999999999998
 21
126.9999999999991
 31
0.0
  0
LINE
  5
29F
330
38A
100
AcDbEntity
  8
DATA
  6
Continuous
 62
     7
100
AcDbLine
 10
1235.999999999998
 20
134.9999999999984
 30
0.0
 11
1276.0
 21
134.9999999999984
 31
0.0
  0
CIRCLE
  5
2A0
330
38A
100
AcDbEntity
  8
DATA
  6
Continuous
 62
     7
100
AcDbCircle
 10
1180.000000000001
 20
77.00000000000021
 30
0.0
 40
8.0
  0
LINE
  5
2A1
330
38A
100
AcDbEntity
  8
DATA
  6
Continuous
 62
     7
100
AcDbLine
 10
1163.999999999999
 20
64.99999999999977
 30
0.0
 11
1163.999999999999
 21
88.99999999999979
 31
0.0
  0
LINE
  5
2A2
330
38A
100
AcDbEntity
  8
DATA
  6
Continuous
 62
     7
100
AcDbLine
 10
1152.0
 20
90.99999999999955
 30
0.0
 11
1160.0
 21
90.99999999999955
 31
0.0
  0
LINE
  5
2A3
330
38A
100
AcDbEntity
  8
DATA
  6
Continuous
 62
     7
100
AcDbLine
 10
1152.0
 20
126.9999999999991
 30
0.0
 11
1160.0
 21
126.9999999999991
 31
0.0
  0
LINE
  5
2A4
330
38A
100
AcDbEntity
  8
DATA
  6
Continuous
 62
     7
100
AcDbLine
 10
1195.999999999999
 20
64.99999999999977
 30
0.0
 11
1163.999999999999
 21
64.99999999999977
 31
0.0
  0
LINE
  5
2A5
330
38A
100
AcDbEntity
  8
DATA
  6
Continuous
 62
     7
100
AcDbLine
 10
1163.999999999999
 20
88.99999999999979
 30
0.0
 11
1195.999999999999
 21
88.99999999999979
 31
0.0
  0
LINE
  5
2A6
330
38A
100
AcDbEntity
  8
DATA
  6
Continuous
 62
     7
100
AcDbLine
 10
1160.0
 20
93.00000000000022
 30
0.0
 11
1200.0
 21
93.00000000000022
 31
0.0
  0
LINE
  5
2A7
330
38A
100
AcDbEntity
  8
DATA
  6
Continuous
 62
     7
100
AcDbLine
 10
1160.0
 20
122.9999999999995
 30
0.0
 11
1200.0
 21
123.0000000000004
 31
0.0
  0
LINE
  5
2A8
330
38A
100
AcDbEntity
  8
DATA
  6
Continuous
 62
     7
100
AcDbLine
 10
1160.0
 20
114.9999999999995
 30
0.0
 11
1200.0
 21
115.0000000000004
 31
0.0
  0
LINE
  5
2A9
330
38A
100
AcDbEntity
  8
DATA
  6
Continuous
 62
     7
100
AcDbLine
 10
1160.0
 20
106.9999999999995
 30
0.0
 11
1200.0
 21
107.0000000000004
 31
0.0
  0
LINE
  5
2AA
330
38A
100
AcDbEntity
  8
DATA
  6
Continuous
 62
     7
100
AcDbLine
 10
1160.0
 20
98.99999999999955
 30
0.0
 11
1200.0
 21
99.00000000000044
 31
0.0
  0
LINE
  5
2AB
330
38A
100
AcDbEntity
  8
DATA
  6
Continuous
 62
     7
100
AcDbLine
 10
1160.0
 20
134.9999999999984
 30
0.0
 11
1200.0
 21
134.9999999999984
 31
0.0
  0
LINE
  5
2AC
330
38A
100
AcDbEntity
  8
DATA
  6
Continuous
 62
     7
100
AcDbLine
 10
1135.999999999997
 20
88.99999999999979
 30
0.0
 11
1135.999999999997
 21
64.99999999999977
 31
0.0
  0
CIRCLE
  5
2AD
330
38A
100
AcDbEntity
  8
DATA
  6
Continuous
 62
     7
100
AcDbCircle
 10
1119.999999999998
 20
77.00000000000021
 30
0.0
 40
8.0
  0
LINE
  5
2AE
330
38A
100
AcDbEntity
  8
DATA
  6
Continuous
 62
     7
100
AcDbLine
 10
1103.999999999997
 20
64.99999999999977
 30
0.0
 11
1103.999999999997
 21
88.99999999999979
 31
0.0
  0
LINE
  5
2AF
330
38A
100
AcDbEntity
  8
DATA
  6
Continuous
 62
     7
100
AcDbLine
 10
1135.999999999997
 20
64.99999999999977
 30
0.0
 11
1103.999999999997
 21
64.99999999999977
 31
0.0
  0
LINE
  5
2B0
330
38A
100
AcDbEntity
  8
DATA
  6
Continuous
 62
     7
100
AcDbLine
 10
1103.999999999997
 20
88.99999999999979
 30
0.0
 11
1135.999999999997
 21
88.99999999999979
 31
0.0
  0
LINE
  5
2B1
330
38A
100
AcDbEntity
  8
DATA
  6
Continuous
 62
     7
100
AcDbLine
 10
1059.999999999998
 20
88.99999999999979
 30
0.0
 11
1059.999999999998
 21
64.99999999999977
 31
0.0
  0
LINE
  5
2B2
330
38A
100
AcDbEntity
  8
DATA
  6
Continuous
 62
     7
100
AcDbLine
 10
1099.999999999997
 20
93.00000000000022
 30
0.0
 11
1139.999999999998
 21
93.00000000000022
 31
0.0
  0
LINE
  5
2B3
330
38A
100
AcDbEntity
  8
DATA
  6
Continuous
 62
     7
100
AcDbLine
 10
1139.999999999998
 20
90.99999999999955
 30
0.0
 11
1147.999999999997
 21
90.99999999999955
 31
0.0
  0
LINE
  5
2B4
330
38A
100
AcDbEntity
  8
DATA
  6
Continuous
 62
     7
100
AcDbLine
 10
1063.999999999997
 20
90.99999999999955
 30
0.0
 11
1099.999999999996
 21
90.99999999999955
 31
0.0
  0
LINE
  5
2B5
330
38A
100
AcDbEntity
  8
DATA
  6
Continuous
 62
     7
100
AcDbLine
 10
1099.999999999997
 20
122.9999999999995
 30
0.0
 11
1139.999999999998
 21
123.0000000000004
 31
0.0
  0
LINE
  5
2B6
330
38A
100
AcDbEntity
  8
DATA
  6
Continuous
 62
     7
100
AcDbLine
 10
1099.999999999997
 20
114.9999999999995
 30
0.0
 11
1139.999999999998
 21
115.0000000000004
 31
0.0
  0
LINE
  5
2B7
330
38A
100
AcDbEntity
  8
DATA
  6
Continuous
 62
     7
100
AcDbLine
 10
1099.999999999997
 20
106.9999999999995
 30
0.0
 11
1139.999999999998
 21
107.0000000000004
 31
0.0
  0
LINE
  5
2B8
330
38A
100
AcDbEntity
  8
DATA
  6
Continuous
 62
     7
100
AcDbLine
 10
1099.999999999997
 20
98.99999999999955
 30
0.0
 11
1139.999999999998
 21
99.00000000000044
 31
0.0
  0
LINE
  5
2B9
330
38A
100
AcDbEntity
  8
DATA
  6
Continuous
 62
     7
100
AcDbLine
 10
1139.999999999998
 20
126.9999999999991
 30
0.0
 11
1147.999999999997
 21
126.9999999999991
 31
0.0
  0
LINE
  5
2BA
330
38A
100
AcDbEntity
  8
DATA
  6
Continuous
 62
     7
100
AcDbLine
 10
1063.999999999997
 20
126.9999999999991
 30
0.0
 11
1099.999999999996
 21
126.9999999999991
 31
0.0
  0
LINE
  5
2BB
330
38A
100
AcDbEntity
  8
DATA
  6
Continuous
 62
     7
100
AcDbLine
 10
1099.999999999997
 20
134.9999999999984
 30
0.0
 11
1139.999999999998
 21
134.9999999999984
 31
0.0
  0
ARC
  5
2BC
330
38A
100
AcDbEntity
  8
DATA
  6
Continuous
 62
     7
100
AcDbCircle
 10
1285.999999999999
 20
187.0000000000007
 30
0.0
 40
12.0
100
AcDbArc
 50
0.0
 51
90.0
  0
CIRCLE
  5
2BD
330
38A
100
AcDbEntity
  8
DATA
  6
Continuous
 62
     7
100
AcDbCircle
 10
1043.999999999998
 20
77.00000000000021
 30
0.0
 40
8.0
  0
LINE
  5
2BE
330
38A
100
AcDbEntity
  8
DATA
  6
Continuous
 62
     7
100
AcDbLine
 10
1027.999999999998
 20
64.99999999999977
 30
0.0
 11
1027.999999999998
 21
88.99999999999979
 31
0.0
  0
LINE
  5
2BF
330
38A
100
AcDbEntity
  8
DATA
  6
Continuous
 62
     7
100
AcDbLine
 10
1016.0
 20
90.99999999999955
 30
0.0
 11
1023.999999999998
 21
90.99999999999955
 31
0.0
  0
LINE
  5
2C0
330
38A
100
AcDbEntity
  8
DATA
  6
Continuous
 62
     7
100
AcDbLine
 10
1016.0
 20
126.9999999999991
 30
0.0
 11
1023.999999999998
 21
126.9999999999991
 31
0.0
  0
LINE
  5
2C1
330
38A
100
AcDbEntity
  8
DATA
  6
Continuous
 62
     7
100
AcDbLine
 10
1059.999999999998
 20
64.99999999999977
 30
0.0
 11
1027.999999999998
 21
64.99999999999977
 31
0.0
  0
LINE
  5
2C2
330
38A
100
AcDbEntity
  8
DATA
  6
Continuous
 62
     7
100
AcDbLine
 10
1027.999999999998
 20
88.99999999999979
 30
0.0
 11
1059.999999999998
 21
88.99999999999979
 31
0.0
  0
LINE
  5
2C3
330
38A
100
AcDbEntity
  8
DATA
  6
Continuous
 62
     7
100
AcDbLine
 10
1023.999999999998
 20
93.00000000000022
 30
0.0
 11
1063.999999999997
 21
93.00000000000022
 31
0.0
  0
LINE
  5
2C4
330
38A
100
AcDbEntity
  8
DATA
  6
Continuous
 62
     7
100
AcDbLine
 10
1023.999999999998
 20
122.9999999999995
 30
0.0
 11
1063.999999999997
 21
123.0000000000004
 31
0.0
  0
LINE
  5
2C5
330
38A
100
AcDbEntity
  8
DATA
  6
Continuous
 62
     7
100
AcDbLine
 10
1023.999999999998
 20
114.9999999999995
 30
0.0
 11
1063.999999999997
 21
115.0000000000004
 31
0.0
  0
LINE
  5
2C6
330
38A
100
AcDbEntity
  8
DATA
  6
Continuous
 62
     7
100
AcDbLine
 10
1023.999999999998
 20
106.9999999999995
 30
0.0
 11
1063.999999999997
 21
107.0000000000004
 31
0.0
  0
LINE
  5
2C7
330
38A
100
AcDbEntity
  8
DATA
  6
Continuous
 62
     7
100
AcDbLine
 10
1023.999999999998
 20
98.99999999999955
 30
0.0
 11
1063.999999999997
 21
99.00000000000044
 31
0.0
  0
LINE
  5
2C8
330
38A
100
AcDbEntity
  8
DATA
  6
Continuous
 62
     7
100
AcDbLine
 10
1023.999999999998
 20
134.9999999999984
 30
0.0
 11
1063.999999999997
 21
134.9999999999984
 31
0.0
  0
LINE
  5
2C9
330
38A
100
AcDbEntity
  8
DATA
  6
Continuous
 62
     7
100
AcDbLine
 10
1014.0
 20
199.0
 30
0.0
 11
1285.999999999999
 21
199.0
 31
0.0
  0
LINE
  5
2CA
330
38A
100
AcDbEntity
  8
DATA
  6
Continuous
 62
     7
100
AcDbLine
 10
1323.0
 20
220.0
 30
0.0
 11
1323.0
 21
236.0
 31
0.0
  0
LINE
  5
2CB
330
38A
100
AcDbEntity
  8
DATA
  6
Continuous
 62
     7
100
AcDbLine
 10
1314.999999999999
 20
228.0
 30
0.0
 11
1330.999999999999
 21
228.0
 31
0.0
  0
CIRCLE
  5
2CC
330
38A
100
AcDbEntity
  8
DATA
  6
Continuous
 62
     7
100
AcDbCircle
 10
1323.0
 20
228.0
 30
0.0
 40
14.0
  0
ARC
  5
2CD
330
38A
100
AcDbEntity
  8
DATA
  6
Continuous
 62
     7
100
AcDbCircle
 10
1336.0
 20
238.0000000000007
 30
0.0
 40
12.0
100
AcDbArc
 50
0.0
 51
90.0
  0
TEXT
  5
2CE
330
38A
100
AcDbEntity
  8
DATA
 62
     7
100
AcDbText
 10
850.0
 20
-1593.59124
 30
0.0
 40
36.64892578125
  1
Control SB-2
 41
0.7
 11
850.0
 21
-1556.94231421875
 31
0.0
100
AcDbText
 73
     3
  0
TEXT
  5
2CF
330
38A
100
AcDbEntity
  8
DATA
 62
     7
100
AcDbText
 10
812.5
 20
-1538.900565
 30
0.0
 40
28.50472005208333
  1
サブウーファー
 41
0.7
 11
812.5
 21
-1510.395844947917
 31
0.0
100
AcDbText
 73
     3
  0
ARC
  5
2D0
330
38A
100
AcDbEntity
  8
DATA
  6
Continuous
 62
     7
100
AcDbCircle
 10
-375.9853962755532
 20
-538.0265641432251
 30
0.0
 40
0.3666005820411921
100
AcDbArc
 50
307.6419024975792
 51
354.2670192894083
  0
LINE
  5
2D1
330
38A
100
AcDbEntity
  8
DATA
  6
Continuous
 62
     7
100
AcDbLine
 10
-385.4019773436625
 20
-532.249532295212
 30
0.0
 11
-383.6833483436623
 21
-528.154520295212
 31
0.0
  0
LINE
  5
2D2
330
38A
100
AcDbEntity
  8
DATA
  6
Continuous
 62
     7
100
AcDbLine
 10
-385.4019773436625
 20
-532.249532295212
 30
0.0
 11
-387.0994003436623
 21
-528.154520295212
 31
0.0
  0
LINE
  5
2D3
330
38A
100
AcDbEntity
  8
DATA
  6
Continuous
 62
     7
100
AcDbLine
 10
-372.3743173436623
 20
-539.654520295212
 30
0.0
 11
-372.3743173436623
 21
-528.154520295212
 31
0.0
  0
LINE
  5
2D4
330
38A
100
AcDbEntity
  8
DATA
  6
Continuous
 62
     7
100
AcDbLine
 10
-370.1676743436623
 20
-528.154520295212
 30
0.0
 11
-370.1676743436623
 21
-537.8934562952117
 31
0.0
  0
LINE
  5
2D5
330
38A
100
AcDbEntity
  8
DATA
  6
Continuous
 62
     7
100
AcDbLine
 10
-382.8770718436624
 20
-528.154520295212
 30
0.0
 11
-382.8770718436624
 21
-537.8934562952117
 31
0.0
  0
LINE
  5
2D6
330
38A
100
AcDbEntity
  8
DATA
  6
Continuous
 62
     7
100
AcDbLine
 10
-380.7552988436624
 20
-528.154520295212
 30
0.0
 11
-380.7552988436624
 21
-537.8934562952117
 31
0.0
  0
LINE
  5
2D7
330
38A
100
AcDbEntity
  8
DATA
  6
Continuous
 62
     7
100
AcDbLine
 10
-379.6519773436625
 20
-528.154520295212
 30
0.0
 11
-379.6519773436625
 21
-539.654520295212
 31
0.0
  0
LINE
  5
2D8
330
38A
100
AcDbEntity
  8
DATA
  6
Continuous
 62
     7
100
AcDbLine
 10
-377.7211618436624
 20
-529.236612795212
 30
0.0
 11
-377.7211618436624
 21
-532.928503795212
 31
0.0
  0
LINE
  5
2D9
330
38A
100
AcDbEntity
  8
DATA
  6
Continuous
 62
     7
100
AcDbLine
 10
-373.5827948436623
 20
-532.714879795212
 30
0.0
 11
-373.5827948436623
 21
-530.0216832952119
 31
0.0
  0
LINE
  5
2DA
330
38A
100
AcDbEntity
  8
DATA
  6
Continuous
 62
     7
100
AcDbLine
 10
-375.6206293436624
 20
-529.745844295212
 30
0.0
 11
-375.6206293436624
 21
-532.4192837952121
 31
0.0
  0
ARC
  5
2DB
330
38A
100
AcDbEntity
  8
DATA
  6
Continuous
 62
     7
100
AcDbCircle
 10
-383.3028478436625
 20
-536.701550295212
 30
0.0
 40
2.965681438942826
100
AcDbArc
 50
264.6908562215365
 51
323.9911991542442
  0
LINE
  5
2DC
330
38A
100
AcDbEntity
  8
DATA
  6
Continuous
 62
     7
100
AcDbLine
 10
-384.4896133436623
 20
-536.0474992952117
 30
0.0
 11
-384.4896133436623
 21
-537.8934332952119
 31
0.0
  0
LINE
  5
2DD
330
38A
100
AcDbEntity
  8
DATA
  6
Continuous
 62
     7
100
AcDbLine
 10
-384.4896133436623
 20
-536.0474992952117
 30
0.0
 11
-386.3992113436623
 21
-536.0474992952117
 31
0.0
  0
LINE
  5
2DE
330
38A
100
AcDbEntity
  8
DATA
  6
Continuous
 62
     7
100
AcDbLine
 10
-386.3992113436623
 20
-536.0474992952117
 30
0.0
 11
-386.3992113436623
 21
-537.8934332952119
 31
0.0
  0
ARC
  5
2DF
330
38A
100
AcDbEntity
  8
DATA
  6
Continuous
 62
     7
100
AcDbCircle
 10
-383.6793003436623
 20
-537.9183192952119
 30
0.0
 40
0.802618150178646
100
AcDbArc
 50
269.7118487927519
 51
1.775987005683078
  0
ARC
  5
2E0
330
38A
100
AcDbEntity
  8
DATA
  6
Continuous
 62
     7
100
AcDbCircle
 10
-383.6873848436624
 20
-537.9183192952119
 30
0.0
 40
0.8026140460785656
100
AcDbArc
 50
178.2240129943212
 51
270.2881512072451
  0
ARC
  5
2E1
330
38A
100
AcDbEntity
  8
DATA
  6
Continuous
 62
     7
100
AcDbCircle
 10
-383.8516623436623
 20
-536.701550295212
 30
0.0
 40
2.965676622488621
100
AcDbArc
 50
216.0088008457565
 51
275.3091437784635
  0
ARC
  5
2E2
330
38A
100
AcDbEntity
  8
DATA
  6
Continuous
 62
     7
100
AcDbCircle
 10
-385.0589553436623
 20
-537.828423795212
 30
0.0
 40
1.341820239402662
100
AcDbArc
 50
182.7769954499973
 51
207.3596066671497
  0
CIRCLE
  5
2E3
330
38A
100
AcDbEntity
  8
DATA
  6
Continuous
 62
     7
100
AcDbCircle
 10
-385.2852753436624
 20
-533.840867795212
 30
0.0
 40
1.092707000000018
  0
LINE
  5
2E4
330
38A
100
AcDbEntity
  8
DATA
  6
Continuous
 62
     7
100
AcDbLine
 10
-366.6243173436623
 20
-539.6545087952118
 30
0.0
 11
-372.3743173436623
 21
-539.6545087952118
 31
0.0
  0
LINE
  5
2E5
330
38A
100
AcDbEntity
  8
DATA
  6
Continuous
 62
     7
100
AcDbLine
 10
-366.6243173436623
 20
-539.6545087952118
 30
0.0
 11
-366.6243173436623
 21
-536.0474877952119
 31
0.0
  0
LINE
  5
2E6
330
38A
100
AcDbEntity
  8
DATA
  6
Continuous
 62
     7
100
AcDbLine
 10
-366.6243173436623
 20
-536.0474992952117
 30
0.0
 11
-368.5551213436623
 21
-536.0474992952117
 31
0.0
  0
LINE
  5
2E7
330
38A
100
AcDbEntity
  8
DATA
  6
Continuous
 62
     7
100
AcDbLine
 10
-368.5551213436623
 20
-536.0474992952117
 30
0.0
 11
-368.5551213436623
 21
-537.8934332952119
 31
0.0
  0
LINE
  5
2E8
330
38A
100
AcDbEntity
  8
DATA
  6
Continuous
 62
     7
100
AcDbLine
 10
-379.6519773436625
 20
-539.6545087952118
 30
0.0
 11
-375.6206293436624
 21
-539.6544972952117
 31
0.0
  0
LINE
  5
2E9
330
38A
100
AcDbEntity
  8
DATA
  6
Continuous
 62
     7
100
AcDbLine
 10
-377.7211733436623
 20
-538.5724047952119
 30
0.0
 11
-376.6815043436623
 21
-538.5724047952119
 31
0.0
  0
LINE
  5
2EA
330
38A
100
AcDbEntity
  8
DATA
  6
Continuous
 62
     7
100
AcDbLine
 10
-377.7211618436624
 20
-538.5724047952119
 30
0.0
 11
-377.7211618436624
 21
-534.0318137952119
 31
0.0
  0
LINE
  5
2EB
330
38A
100
AcDbEntity
  8
DATA
  6
Continuous
 62
     7
100
AcDbLine
 10
-377.7211733436623
 20
-534.0318137952119
 30
0.0
 11
-376.6815043436623
 21
-534.0318137952119
 31
0.0
  0
LINE
  5
2EC
330
38A
100
AcDbEntity
  8
DATA
  6
Continuous
 62
     7
100
AcDbLine
 10
-375.6206293436624
 20
-538.0631847952116
 30
0.0
 11
-375.6206293436624
 21
-534.5410337952121
 31
0.0
  0
ARC
  5
2ED
330
38A
100
AcDbEntity
  8
DATA
  6
Continuous
 62
     7
100
AcDbCircle
 10
-382.0955548436623
 20
-537.828423795212
 30
0.0
 40
1.341818330044868
100
AcDbArc
 50
332.6403933328488
 51
357.2230045500065
  0
ARC
  5
2EE
330
38A
100
AcDbEntity
  8
DATA
  6
Continuous
 62
     7
100
AcDbCircle
 10
-369.3573613436623
 20
-537.9183192952119
 30
0.0
 40
0.8026181501786464
100
AcDbArc
 50
269.7118487927478
 51
1.775987005683021
  0
ARC
  5
2EF
330
38A
100
AcDbEntity
  8
DATA
  6
Continuous
 62
     7
100
AcDbCircle
 10
-369.3654343436624
 20
-537.9183192952119
 30
0.0
 40
0.8026140460785656
100
AcDbArc
 50
178.2240129943212
 51
270.2881512072492
  0
LINE
  5
2F0
330
38A
100
AcDbEntity
  8
DATA
  6
Continuous
 62
     7
100
AcDbLine
 10
-373.5837263436624
 20
-537.808563295212
 30
0.0
 11
-373.5837263436624
 21
-534.7532202952118
 31
0.0
  0
LINE
  5
2F1
330
38A
100
AcDbEntity
  8
DATA
  6
Continuous
 62
     7
100
AcDbLine
 10
-377.7211733436623
 20
-532.928503795212
 30
0.0
 11
-376.6815043436623
 21
-532.928503795212
 31
0.0
  0
ARC
  5
2F2
330
38A
100
AcDbEntity
  8
DATA
  6
Continuous
 62
     7
100
AcDbCircle
 10
-375.7668173436625
 20
-537.471383295212
 30
0.0
 40
2.188003123475541
100
AcDbArc
 50
273.8309816091168
 51
351.135147309804
  0
LINE
  5
2F3
330
38A
100
AcDbEntity
  8
DATA
  6
Continuous
 62
     7
100
AcDbLine
 10
-382.8770718436624
 20
-528.154520295212
 30
0.0
 11
-380.7552988436624
 21
-528.154520295212
 31
0.0
  0
LINE
  5
2F4
330
38A
100
AcDbEntity
  8
DATA
  6
Continuous
 62
     7
100
AcDbLine
 10
-387.0994003436623
 20
-528.154520295212
 30
0.0
 11
-383.6833483436623
 21
-528.154520295212
 31
0.0
  0
LINE
  5
2F5
330
38A
100
AcDbEntity
  8
DATA
  6
Continuous
 62
     7
100
AcDbLine
 10
-372.3743173436623
 20
-528.154520295212
 30
0.0
 11
-370.1676743436623
 21
-528.154520295212
 31
0.0
  0
LINE
  5
2F6
330
38A
100
AcDbEntity
  8
DATA
  6
Continuous
 62
     7
100
AcDbLine
 10
-379.6519773436625
 20
-528.154520295212
 30
0.0
 11
-375.5984686962937
 21
-528.1545296030132
 31
0.0
  0
LINE
  5
2F7
330
38A
100
AcDbEntity
  8
DATA
  6
Continuous
 62
     7
100
AcDbLine
 10
-377.7211733436623
 20
-529.236624295212
 30
0.0
 11
-376.6815043436623
 21
-529.236624295212
 31
0.0
  0
ARC
  5
2F8
330
38A
100
AcDbEntity
  8
DATA
  6
Continuous
 62
     7
100
AcDbCircle
 10
-375.7450018436624
 20
-530.3342992952121
 30
0.0
 40
2.184689422848236
100
AcDbArc
 50
8.22692385902013
 51
86.15412669215213
  0
ARC
  5
2F9
330
38A
100
AcDbEntity
  8
DATA
  6
Continuous
 62
     7
100
AcDbCircle
 10
-376.6692275616688
 20
-536.5556636405367
 30
0.0
 40
2.016778521389166
100
AcDbArc
 50
269.6512199376176
 51
282.8264828068719
  0
ARC
  5
2FA
330
38A
100
AcDbEntity
  8
DATA
  6
Continuous
 62
     7
100
AcDbCircle
 10
-376.4427114120757
 20
-537.408317653123
 30
0.0
 40
1.135553589247189
100
AcDbArc
 50
281.2331036226559
 51
306.8620088940646
  0
ARC
  5
2FB
330
38A
100
AcDbEntity
  8
DATA
  6
Continuous
 62
     7
100
AcDbCircle
 10
-375.9853962755532
 20
-534.5776544471984
 30
0.0
 40
0.3666005820411959
100
AcDbArc
 50
5.732980710556343
 51
52.35809750242088
  0
ARC
  5
2FC
330
38A
100
AcDbEntity
  8
DATA
  6
Continuous
 62
     7
100
AcDbCircle
 10
-376.6692275616688
 20
-536.0485549498868
 30
0.0
 40
2.016778521388874
100
AcDbArc
 50
77.17351719312666
 51
90.34878006238258
  0
ARC
  5
2FD
330
38A
100
AcDbEntity
  8
DATA
  6
Continuous
 62
     7
100
AcDbCircle
 10
-376.4427114120757
 20
-535.1959009373006
 30
0.0
 40
1.135553589247178
100
AcDbArc
 50
53.13799110593772
 51
78.76689637734118
  0
ARC
  5
2FE
330
38A
100
AcDbEntity
  8
DATA
  6
Continuous
 62
     7
100
AcDbCircle
 10
-374.6965583436623
 20
-534.828441795212
 30
0.0
 40
1.115371388500805
100
AcDbArc
 50
3.867006359833622
 51
88.3616345678997
  0
ARC
  5
2FF
330
38A
100
AcDbEntity
  8
DATA
  6
Continuous
 62
     7
100
AcDbCircle
 10
-374.6975818436624
 20
-532.597533795212
 30
0.0
 40
1.116479730939444
100
AcDbArc
 50
271.6892821046492
 51
356.0782829826643
  0
ARC
  5
300
330
38A
100
AcDbEntity
  8
DATA
  6
Continuous
 62
     7
100
AcDbCircle
 10
-375.9853962755532
 20
-532.3826631432252
 30
0.0
 40
0.3666005820411921
100
AcDbArc
 50
307.6419024975792
 51
354.267019289372
  0
ARC
  5
301
330
38A
100
AcDbEntity
  8
DATA
  6
Continuous
 62
     7
100
AcDbCircle
 10
-376.6692275616688
 20
-530.911762640537
 30
0.0
 40
2.016778521388939
100
AcDbArc
 50
269.6512199376174
 51
282.8264828068734
  0
ARC
  5
302
330
38A
100
AcDbEntity
  8
DATA
  6
Continuous
 62
     7
100
AcDbCircle
 10
-376.4427114120757
 20
-531.7644166531231
 30
0.0
 40
1.135553589247189
100
AcDbArc
 50
281.2331036226559
 51
306.8620088940599
  0
ARC
  5
303
330
38A
100
AcDbEntity
  8
DATA
  6
Continuous
 62
     7
100
AcDbCircle
 10
-375.9853962755532
 20
-529.7824649471985
 30
0.0
 40
0.3666005820412187
100
AcDbArc
 50
5.732980710591701
 51
52.35809750241386
  0
ARC
  5
304
330
38A
100
AcDbEntity
  8
DATA
  6
Continuous
 62
     7
100
AcDbCircle
 10
-376.6692275616688
 20
-531.253365449887
 30
0.0
 40
2.016778521389095
100
AcDbArc
 50
77.17351719312806
 51
90.34878006238249
  0
ARC
  5
305
330
38A
100
AcDbEntity
  8
DATA
  6
Continuous
 62
     7
100
AcDbCircle
 10
-376.4427114120757
 20
-530.4007114373007
 30
0.0
 40
1.135553589247178
100
AcDbArc
 50
53.13799110593772
 51
78.76689637734401
  0
TEXT
  5
306
330
38A
100
AcDbEntity
  8
DATA
 62
     7
100
AcDbText
 10
850.0
 20
-1492.145
 30
0.0
 40
36.64892578125
  1
JBL PROFESSIONAL
 41
0.7
 11
850.0
 21
-1455.49607421875
 31
0.0
100
AcDbText
 73
     3
  0
TEXT
  5
307
330
38A
100
AcDbEntity
  8
DATA
 62
     7
100
AcDbText
 10
-1212.499999999999
 20
-1642.410423333334
 30
0.0
 40
28.50472005208334
  1
※仕様及び外観は予告なく変更されることがあります。
 41
0.7
 11
-1212.499999999999
 21
-1613.90570328125
 31
0.0
100
AcDbText
 73
     3
  0
TEXT
  5
308
330
38A
100
AcDbEntity
  8
DATA
 62
     7
100
AcDbText
 10
-1212.499999999999
 20
-1679.45209
 30
0.0
 40
28.50472005208334
  1
　また、同一商品でも若干の個体差があることがあります。ご了承ください。
 41
0.7
 11
-1212.499999999999
 21
-1650.947369947917
 31
0.0
100
AcDbText
 73
     3
  0
LINE
  5
309
330
38A
100
AcDbEntity
  8
DATA
  6
Continuous
 62
     7
100
AcDbLine
 10
-677.0150000000003
 20
205.7080000000003
 30
0.0
 11
-892.75
 21
-9.69999999999959
 31
0.0
  0
LINE
  5
30A
330
38A
100
AcDbEntity
  8
DATA
  6
Continuous
 62
     7
100
AcDbLine
 10
-873.75
 20
-17.57850050427896
 30
0.0
 11
-669.1533824821236
 21
186.7080000000005
 31
0.0
  0
LINE
  5
30B
330
38A
100
AcDbEntity
  8
DATA
  6
Continuous
 62
     7
100
AcDbLine
 10
-892.75
 20
-600.0
 30
0.0
 11
-892.75
 21
-217.9839999999997
 31
0.0
  0
LINE
  5
30C
330
38A
100
AcDbEntity
  8
DATA
  6
Continuous
 62
     7
100
AcDbLine
 10
-873.75
 20
-67.19999999999959
 30
0.0
 11
-892.75
 21
-86.19999999999958
 31
0.0
  0
LINE
  5
30D
330
38A
100
AcDbEntity
  8
DATA
  6
Continuous
 62
     7
100
AcDbLine
 10
-873.75
 20
-67.19999999999959
 30
0.0
 11
-873.75
 21
-17.57850050427896
 31
0.0
  0
LINE
  5
30E
330
38A
100
AcDbEntity
  8
DATA
  6
Continuous
 62
     7
100
AcDbLine
 10
-892.75
 20
-9.69999999999959
 30
0.0
 11
-873.75
 21
-17.57850050427896
 31
0.0
  0
LINE
  5
30F
330
38A
100
AcDbEntity
  8
DATA
  6
Continuous
 62
     7
100
AcDbLine
 10
-677.0150000000003
 20
205.7080000000003
 30
0.0
 11
-669.1533824821236
 21
186.7080000000005
 31
0.0
  0
LINE
  5
310
330
38A
100
AcDbEntity
  8
DATA
  6
Continuous
 62
     7
100
AcDbLine
 10
-307.25
 20
-600.0
 30
0.0
 11
-307.25
 21
-217.9839999999997
 31
0.0
  0
LINE
  5
311
330
38A
100
AcDbEntity
  8
DATA
  6
Continuous
 62
     7
100
AcDbLine
 10
-522.9849999999997
 20
205.7080000000003
 30
0.0
 11
-307.249999999999
 21
-9.700000000000045
 31
0.0
  0
LINE
  5
312
330
38A
100
AcDbEntity
  8
DATA
  6
Continuous
 62
     7
100
AcDbLine
 10
-307.249999999999
 20
-9.700000000000045
 30
0.0
 11
-326.249999999999
 21
-17.57850050427964
 31
0.0
  0
LINE
  5
313
330
38A
100
AcDbEntity
  8
DATA
  6
Continuous
 62
     7
100
AcDbLine
 10
-307.249999999999
 20
-86.19999999999981
 30
0.0
 11
-326.249999999999
 21
-67.19999999999981
 31
0.0
  0
LINE
  5
314
330
38A
100
AcDbEntity
  8
DATA
  6
Continuous
 62
     7
100
AcDbLine
 10
-530.8466175178762
 20
186.7080000000005
 30
0.0
 11
-326.249999999999
 21
-17.57850050427964
 31
0.0
  0
LINE
  5
315
330
38A
100
AcDbEntity
  8
DATA
  6
Continuous
 62
     7
100
AcDbLine
 10
-326.249999999999
 20
-67.19999999999959
 30
0.0
 11
-326.249999999999
 21
-17.57850050427964
 31
0.0
  0
LINE
  5
316
330
38A
100
AcDbEntity
  8
DATA
  6
Continuous
 62
     7
100
AcDbLine
 10
-522.9849999999997
 20
205.7080000000003
 30
0.0
 11
-530.8466175178765
 21
186.7080000000008
 31
0.0
  0
LINE
  5
317
330
38A
100
AcDbEntity
  8
DATA
  6
Continuous
 62
     7
100
AcDbLine
 10
-892.75
 20
-137.6999999999996
 30
0.0
 11
-892.75
 21
-9.69999999999959
 31
0.0
  0
LINE
  5
318
330
38A
100
AcDbEntity
  8
DATA
  6
Continuous
 62
     7
100
AcDbLine
 10
-307.249999999999
 20
-137.6999999999996
 30
0.0
 11
-307.249999999999
 21
-9.700000000000045
 31
0.0
  0
LINE
  5
319
330
38A
100
AcDbEntity
  8
DATA
  6
Continuous
 62
     7
100
AcDbLine
 10
742.75
 20
-600.0
 30
0.0
 11
742.75
 21
-217.9839999999997
 31
0.0
  0
ENDSEC
  0
SECTION
  2
OBJECTS
  0
DICTIONARY
  5
327
330
0
100
AcDbDictionary
281
     1
  3
ACAD_CIP_PREVIOUS_PRODUCT_INFO
350
3A4
  3
ACAD_COLOR
350
37D
  3
ACAD_DETAILVIEWSTYLE
350
384
  3
ACAD_GROUP
350
328
  3
ACAD_LAYOUT
350
37C
  3
ACAD_MATERIAL
350
32B
  3
ACAD_MLEADERSTYLE
350
380
  3
ACAD_MLINESTYLE
350
379
  3
ACAD_PLOTSETTINGS
350
37B
  3
ACAD_PLOTSTYLENAME
350
329
  3
ACAD_SCALELIST
350
35D
  3
ACAD_SECTIONVIEWSTYLE
350
382
  3
ACAD_TABLESTYLE
350
37E
  3
ACAD_VISUALSTYLE
350
344
  3
ACDB_RECOMPOSE_DATA
350
3BC
  3
AcDbVariableDictionary
350
3AF
  3
DWGPROPS
350
3BD
  0
DICTIONARY
  5
3A5
330
36F
100
AcDbDictionary
280
     1
281
     1
  3
ADSK_XREC_LAYER_RECONCILED
360
3A6
  0
DICTIONARY
  5
3A7
330
38E
100
AcDbDictionary
280
     1
281
     1
  3
ADSK_XREC_LAYER_RECONCILED
360
3A8
  0
DICTIONARY
  5
3A9
330
39B
100
AcDbDictionary
280
     1
281
     1
  3
ADSK_XREC_LAYER_RECONCILED
360
3AA
  0
DICTIONARY
  5
3AB
330
39D
100
AcDbDictionary
280
     1
281
     1
  3
ADSK_XREC_LAYER_RECONCILED
360
3AC
  0
DICTIONARY
  5
3AD
330
39E
100
AcDbDictionary
280
     1
281
     1
  3
ADSK_XREC_LAYER_RECONCILED
360
3AE
  0
XRECORD
  5
3A4
102
{ACAD_REACTORS
330
327
102
}
330
327
100
AcDbXrecord
280
     1
300
ACDLT
300
2017
300
ACDLT_F_S
  0
DICTIONARY
  5
37D
102
{ACAD_REACTORS
330
327
102
}
330
327
100
AcDbDictionary
281
     1
  0
DICTIONARY
  5
384
102
{ACAD_REACTORS
330
327
102
}
330
327
100
AcDbDictionary
281
     1
  3
Imperial24
350
385
  0
DICTIONARY
  5
328
102
{ACAD_REACTORS
330
327
102
}
330
327
100
AcDbDictionary
281
     1
  0
DICTIONARY
  5
37C
102
{ACAD_REACTORS
330
327
102
}
330
327
100
AcDbDictionary
281
     1
  3
Model
350
38D
  3
レイアウト1
350
389
  0
DICTIONARY
  5
32B
102
{ACAD_REACTORS
330
327
102
}
330
327
100
AcDbDictionary
281
     1
  3
ByBlock
350
334
  3
ByLayer
350
32C
  3
Global
350
33C
  0
DICTIONARY
  5
380
102
{ACAD_REACTORS
330
327
102
}
330
327
100
AcDbDictionary
281
     1
  3
Standard
350
381
  0
DICTIONARY
  5
379
102
{ACAD_REACTORS
330
327
102
}
330
327
100
AcDbDictionary
281
     1
  3
Standard
350
37A
  0
DICTIONARY
  5
37B
102
{ACAD_REACTORS
330
327
102
}
330
327
100
AcDbDictionary
281
     1
  0
ACDBDICTIONARYWDFLT
  5
329
102
{ACAD_REACTORS
330
327
102
}
330
327
100
AcDbDictionary
281
     1
  3
Normal
350
32A
100
AcDbDictionaryWithDefault
340
32A
  0
DICTIONARY
  5
35D
102
{ACAD_REACTORS
330
327
102
}
330
327
100
AcDbDictionary
281
     1
  3
A0
350
35E
  3
A1
350
35F
  3
A2
350
360
  3
A3
350
361
  3
A4
350
362
  3
A5
350
363
  3
A6
350
364
  3
A7
350
365
  3
A8
350
366
  3
A9
350
367
  3
B0
350
368
  3
B1
350
369
  3
B2
350
36A
  3
B3
350
36B
  3
B4
350
36C
  3
B5
350
36D
  3
B6
350
36E
  0
DICTIONARY
  5
382
102
{ACAD_REACTORS
330
327
102
}
330
327
100
AcDbDictionary
281
     1
  3
Imperial24
350
383
  0
DICTIONARY
  5
37E
102
{ACAD_REACTORS
330
327
102
}
330
327
100
AcDbDictionary
281
     1
  3
Standard
350
37F
  0
DICTIONARY
  5
344
102
{ACAD_REACTORS
330
327
102
}
330
327
100
AcDbDictionary
281
     1
  3
2dWireframe
350
34A
  3
Basic
350
349
  3
Brighten
350
350
  3
ColorChange
350
354
  3
Conceptual
350
34D
  3
Dim
350
34F
  3
EdgeColorOff
350
35C
  3
Facepattern
350
353
  3
Flat
350
345
  3
FlatWithEdges
350
346
  3
Gouraud
350
347
  3
GouraudWithEdges
350
348
  3
Hidden
350
34C
  3
JitterOff
350
35A
  3
Linepattern
350
352
  3
OverhangOff
350
35B
  3
Realistic
350
34E
  3
Shaded
350
359
  3
Shaded with edges
350
358
  3
Shades of Gray
350
355
  3
Sketchy
350
356
  3
Thicken
350
351
  3
Wireframe
350
34B
  3
X-Ray
350
357
  0
XRECORD
  5
3BC
102
{ACAD_REACTORS
330
327
102
}
330
327
100
AcDbXrecord
280
     1
 90
        1
330
37F
  0
DICTIONARY
  5
3AF
102
{ACAD_REACTORS
330
327
102
}
330
327
100
AcDbDictionary
281
     1
  3
CANNOSCALE
350
3B4
  3
CMLEADERSTYLE
350
3B1
  3
CTABLESTYLE
350
3B0
  3
CVIEWDETAILSTYLE
350
3B2
  3
CVIEWSECTIONSTYLE
350
3B3
  3
DIMASSOC
350
3B7
  3
INDEXCTL
350
3B6
  3
SORTENTS
350
3B5
  3
XCLIPFRAME
350
3B8
  0
XRECORD
  5
3BD
102
{ACAD_REACTORS
330
327
102
}
330
327
100
AcDbXrecord
280
     1
  1
DWGPROPS COOKIE
  2

  3

  4

  6

  7

  8
sasaki_n
  9

300
=
301
=
302
=
303
=
304
=
305
=
306
=
307
=
308
=
309
=
 40
0.0003703703703704
 41
2457823.474444444
 42
2457823.477326389
  1

 90
        0
  0
XRECORD
  5
3A6
102
{ACAD_REACTORS
330
3A5
102
}
330
3A5
100
AcDbXrecord
280
     1
290
     1
  0
XRECORD
  5
3A8
102
{ACAD_REACTORS
330
3A7
102
}
330
3A7
100
AcDbXrecord
280
     1
290
     1
  0
XRECORD
  5
3AA
102
{ACAD_REACTORS
330
3A9
102
}
330
3A9
100
AcDbXrecord
280
     1
290
     1
  0
XRECORD
  5
3AC
102
{ACAD_REACTORS
330
3AB
102
}
330
3AB
100
AcDbXrecord
280
     1
290
     1
  0
XRECORD
  5
3AE
102
{ACAD_REACTORS
330
3AD
102
}
330
3AD
100
AcDbXrecord
280
     1
290
     1
  0
ACDBDETAILVIEWSTYLE
  5
385
102
{ACAD_XDICTIONARY
360
3F5
102
}
102
{ACAD_REACTORS
330
384
102
}
330
384
100
AcDbModelDocViewStyle
 70
     0
  3
Imperial24
290
     0
100
AcDbDetailViewStyle
 70
     0
 71
     0
 90
        3
 71
     1
340
370
 40
0.24
340
0
 40
0.24
300

 40
0.36
280
     3
 71
     2
340
377
 90
       25
 71
     3
340
370
 40
0.24
 90
        1
 40
0.75
 90
        1
300
%<\AcVar ViewType \f "%tc1">% %<\AcVar ViewDetailId>%\PSCALE %<\AcVar ViewScale \f "%sn">%
 71
     4
340
377
 90
       25
340
377
 90
       25
280
     0
  0
LAYOUT
  5
38D
102
{ACAD_XDICTIONARY
360
3F9
102
}
102
{ACAD_REACTORS
330
37C
102
}
330
37C
100
AcDbPlotSettings
  1

  2
DocuPrint 3000-2
  4

  6

 40
0.0
 41
0.0
 42
0.0
 43
0.0
 44
0.0
 45
0.0
 46
0.0
 47
0.0
 48
0.0
 49
0.0
140
0.0
141
0.0
142
1.0
143
1.0
 70
  1712
 72
     0
 73
     0
 74
     0
  7

 75
     0
147
1.0
148
0.0
149
0.0
100
AcDbLayout
  1
Model
 70
     1
 71
     0
 10
0.0
 20
0.0
 11
12.0
 21
9.0
 12
0.0
 22
0.0
 32
0.0
 14
0.0
 24
0.0
 34
0.0
 15
0.0
 25
0.0
 35
0.0
146
0.0
 13
0.0
 23
0.0
 33
0.0
 16
1.0
 26
0.0
 36
0.0
 17
0.0
 27
1.0
 37
0.0
 76
     0
330
38A
331
38F
  0
LAYOUT
  5
389
102
{ACAD_XDICTIONARY
360
3F7
102
}
102
{ACAD_REACTORS
330
37C
102
}
330
37C
100
AcDbPlotSettings
  1

  2
DocuPrint 3000-2
  4

  6

 40
0.0
 41
0.0
 42
0.0
 43
0.0
 44
0.0
 45
0.0
 46
0.0
 47
0.0
 48
0.0
 49
0.0
140
0.0
141
0.0
142
1.0
143
1.0
 70
   688
 72
     0
 73
     0
 74
     5
  7

 75
    16
147
1.0
148
0.0
149
0.0
100
AcDbLayout
  1
レイアウト1
 70
     0
 71
     1
 10
0.0
 20
0.0
 11
12.0
 21
9.0
 12
0.0
 22
0.0
 32
0.0
 14
1.000000000000000E+20
 24
1.000000000000000E+20
 34
1.000000000000000E+20
 15
-1.000000000000000E+20
 25
-1.000000000000000E+20
 35
-1.000000000000000E+20
146
0.0
 13
0.0
 23
0.0
 33
0.0
 16
1.0
 26
0.0
 36
0.0
 17
0.0
 27
1.0
 37
0.0
 76
     0
330
386
  0
MATERIAL
  5
334
102
{ACAD_XDICTIONARY
360
335
102
}
102
{ACAD_REACTORS
330
32B
102
}
330
32B
100
AcDbMaterial
  1
ByBlock
 72
     0
 43
0.0208333333333333
 43
0.0
 43
0.0
 43
0.0
 43
0.0
 43
0.0208333333333333
 43
0.0
 43
0.0
 43
0.0
 43
0.0
 43
1.0
 43
0.0
 43
0.0
 43
0.0
 43
0.0
 43
1.0
 77
     0
 47
0.0208333333333333
 47
0.0
 47
0.0
 47
0.0
 47
0.0
 47
0.0208333333333333
 47
0.0
 47
0.0
 47
0.0
 47
0.0
 47
1.0
 47
0.0
 47
0.0
 47
0.0
 47
0.0
 47
1.0
171
     0
 49
0.0208333333333333
 49
0.0
 49
0.0
 49
0.0
 49
0.0
 49
0.0208333333333333
 49
0.0
 49
0.0
 49
0.0
 49
0.0
 49
1.0
 49
0.0
 49
0.0
 49
0.0
 49
0.0
 49
1.0
175
     0
142
0.0208333333333333
142
0.0
142
0.0
142
0.0
142
0.0
142
0.0208333333333333
142
0.0
142
0.0
142
0.0
142
0.0
142
1.0
142
0.0
142
0.0
142
0.0
142
0.0
142
1.0
179
     0
144
0.0208333333333333
144
0.0
144
0.0
144
0.0
144
0.0
144
0.0208333333333333
144
0.0
144
0.0
144
0.0
144
0.0
144
1.0
144
0.0
144
0.0
144
0.0
144
0.0
144
1.0
147
0.0208333333333333
147
0.0
147
0.0
147
0.0
147
0.0
147
0.0208333333333333
147
0.0
147
0.0
147
0.0
147
0.0
147
1.0
147
0.0
147
0.0
147
0.0
147
0.0
147
1.0
  0
MATERIAL
  5
32C
102
{ACAD_XDICTIONARY
360
32D
102
}
102
{ACAD_REACTORS
330
32B
102
}
330
32B
100
AcDbMaterial
  1
ByLayer
 72
     0
 43
0.0208333333333333
 43
0.0
 43
0.0
 43
0.0
 43
0.0
 43
0.0208333333333333
 43
0.0
 43
0.0
 43
0.0
 43
0.0
 43
1.0
 43
0.0
 43
0.0
 43
0.0
 43
0.0
 43
1.0
 77
     0
 47
0.0208333333333333
 47
0.0
 47
0.0
 47
0.0
 47
0.0
 47
0.0208333333333333
 47
0.0
 47
0.0
 47
0.0
 47
0.0
 47
1.0
 47
0.0
 47
0.0
 47
0.0
 47
0.0
 47
1.0
171
     0
 49
0.0208333333333333
 49
0.0
 49
0.0
 49
0.0
 49
0.0
 49
0.0208333333333333
 49
0.0
 49
0.0
 49
0.0
 49
0.0
 49
1.0
 49
0.0
 49
0.0
 49
0.0
 49
0.0
 49
1.0
175
     0
142
0.0208333333333333
142
0.0
142
0.0
142
0.0
142
0.0
142
0.0208333333333333
142
0.0
142
0.0
142
0.0
142
0.0
142
1.0
142
0.0
142
0.0
142
0.0
142
0.0
142
1.0
179
     0
144
0.0208333333333333
144
0.0
144
0.0
144
0.0
144
0.0
144
0.0208333333333333
144
0.0
144
0.0
144
0.0
144
0.0
144
1.0
144
0.0
144
0.0
144
0.0
144
0.0
144
1.0
147
0.0208333333333333
147
0.0
147
0.0
147
0.0
147
0.0
147
0.0208333333333333
147
0.0
147
0.0
147
0.0
147
0.0
147
1.0
147
0.0
147
0.0
147
0.0
147
0.0
147
1.0
  0
MATERIAL
  5
33C
102
{ACAD_XDICTIONARY
360
33D
102
}
102
{ACAD_REACTORS
330
32B
102
}
330
32B
100
AcDbMaterial
  1
Global
 72
     0
 43
0.0208333333333333
 43
0.0
 43
0.0
 43
0.0
 43
0.0
 43
0.0208333333333333
 43
0.0
 43
0.0
 43
0.0
 43
0.0
 43
1.0
 43
0.0
 43
0.0
 43
0.0
 43
0.0
 43
1.0
 77
     0
 47
0.0208333333333333
 47
0.0
 47
0.0
 47
0.0
 47
0.0
 47
0.0208333333333333
 47
0.0
 47
0.0
 47
0.0
 47
0.0
 47
1.0
 47
0.0
 47
0.0
 47
0.0
 47
0.0
 47
1.0
171
     0
 49
0.0208333333333333
 49
0.0
 49
0.0
 49
0.0
 49
0.0
 49
0.0208333333333333
 49
0.0
 49
0.0
 49
0.0
 49
0.0
 49
1.0
 49
0.0
 49
0.0
 49
0.0
 49
0.0
 49
1.0
175
     0
142
0.0208333333333333
142
0.0
142
0.0
142
0.0
142
0.0
142
0.0208333333333333
142
0.0
142
0.0
142
0.0
142
0.0
142
1.0
142
0.0
142
0.0
142
0.0
142
0.0
142
1.0
179
     0
144
0.0208333333333333
144
0.0
144
0.0
144
0.0
144
0.0
144
0.0208333333333333
144
0.0
144
0.0
144
0.0
144
0.0
144
1.0
144
0.0
144
0.0
144
0.0
144
0.0
144
1.0
147
0.0208333333333333
147
0.0
147
0.0
147
0.0
147
0.0
147
0.0208333333333333
147
0.0
147
0.0
147
0.0
147
0.0
147
1.0
147
0.0
147
0.0
147
0.0
147
0.0
147
1.0
  0
MLEADERSTYLE
  5
381
102
{ACAD_REACTORS
330
380
102
}
330
380
100
AcDbMLeaderStyle
170
     2
171
     1
172
     0
 90
        2
 40
0.0
 41
0.0
173
     1
 91
-1056964608
340
375
 92
       -2
290
     1
 42
0.09
291
     1
 43
0.36
  3
Standard
 44
0.18
300

342
370
174
     1
178
     6
175
     1
176
     0
 93
-1056964608
 45
0.18
292
     0
297
     0
 46
0.18
 94
-1056964608
 47
1.0
 49
1.0
140
1.0
293
     1
141
0.0
294
     1
177
     0
142
1.0
295
     0
296
     0
143
0.125
1001
ACAD_MLEADERVER
1070
     2
  0
MLINESTYLE
  5
37A
102
{ACAD_REACTORS
330
379
102
}
330
379
100
AcDbMlineStyle
  2
STANDARD
 70
     0
  3

 62
   256
 51
90.0
 52
90.0
 71
     2
 49
0.5
 62
   256
  6
BYLAYER
 49
-0.5
 62
   256
  6
BYLAYER
  0
ACDBPLACEHOLDER
  5
32A
102
{ACAD_REACTORS
330
329
102
}
330
329
  0
SCALE
  5
35E
102
{ACAD_REACTORS
330
35D
102
}
330
35D
100
AcDbScale
 70
     0
300
1:1
140
1.0
141
1.0
290
     1
  0
SCALE
  5
35F
102
{ACAD_REACTORS
330
35D
102
}
330
35D
100
AcDbScale
 70
     0
300
1/128" = 1'-0"
140
0.0078125
141
12.0
290
     0
  0
SCALE
  5
360
102
{ACAD_REACTORS
330
35D
102
}
330
35D
100
AcDbScale
 70
     0
300
1/64" = 1'-0"
140
0.015625
141
12.0
290
     0
  0
SCALE
  5
361
102
{ACAD_REACTORS
330
35D
102
}
330
35D
100
AcDbScale
 70
     0
300
1/32" = 1'-0"
140
0.03125
141
12.0
290
     0
  0
SCALE
  5
362
102
{ACAD_REACTORS
330
35D
102
}
330
35D
100
AcDbScale
 70
     0
300
1/16" = 1'-0"
140
0.0625
141
12.0
290
     0
  0
SCALE
  5
363
102
{ACAD_REACTORS
330
35D
102
}
330
35D
100
AcDbScale
 70
     0
300
3/32" = 1'-0"
140
0.09375
141
12.0
290
     0
  0
SCALE
  5
364
102
{ACAD_REACTORS
330
35D
102
}
330
35D
100
AcDbScale
 70
     0
300
1/8" = 1'-0"
140
0.125
141
12.0
290
     0
  0
SCALE
  5
365
102
{ACAD_REACTORS
330
35D
102
}
330
35D
100
AcDbScale
 70
     0
300
3/16" = 1'-0"
140
0.1875
141
12.0
290
     0
  0
SCALE
  5
366
102
{ACAD_REACTORS
330
35D
102
}
330
35D
100
AcDbScale
 70
     0
300
1/4" = 1'-0"
140
0.25
141
12.0
290
     0
  0
SCALE
  5
367
102
{ACAD_REACTORS
330
35D
102
}
330
35D
100
AcDbScale
 70
     0
300
3/8" = 1'-0"
140
0.375
141
12.0
290
     0
  0
SCALE
  5
368
102
{ACAD_REACTORS
330
35D
102
}
330
35D
100
AcDbScale
 70
     0
300
1/2" = 1'-0"
140
0.5
141
12.0
290
     0
  0
SCALE
  5
369
102
{ACAD_REACTORS
330
35D
102
}
330
35D
100
AcDbScale
 70
     0
300
3/4" = 1'-0"
140
0.75
141
12.0
290
     0
  0
SCALE
  5
36A
102
{ACAD_REACTORS
330
35D
102
}
330
35D
100
AcDbScale
 70
     0
300
1" = 1'-0"
140
1.0
141
12.0
290
     0
  0
SCALE
  5
36B
102
{ACAD_REACTORS
330
35D
102
}
330
35D
100
AcDbScale
 70
     0
300
1-1/2" = 1'-0"
140
1.5
141
12.0
290
     0
  0
SCALE
  5
36C
102
{ACAD_REACTORS
330
35D
102
}
330
35D
100
AcDbScale
 70
     0
300
3" = 1'-0"
140
3.0
141
12.0
290
     0
  0
SCALE
  5
36D
102
{ACAD_REACTORS
330
35D
102
}
330
35D
100
AcDbScale
 70
     0
300
6" = 1'-0"
140
6.0
141
12.0
290
     0
  0
SCALE
  5
36E
102
{ACAD_REACTORS
330
35D
102
}
330
35D
100
AcDbScale
 70
     0
300
1'-0" = 1'-0"
140
12.0
141
12.0
290
     0
  0
ACDBSECTIONVIEWSTYLE
  5
383
102
{ACAD_XDICTIONARY
360
3F3
102
}
102
{ACAD_REACTORS
330
382
102
}
330
382
100
AcDbModelDocViewStyle
 70
     0
  3
Imperial24
290
     0
100
AcDbSectionViewStyle
 70
     0
 71
     0
 90
       78
 71
     1
340
370
 40
0.24
340
0
340
0
 40
0.24
300
I, O, Q, S, X, Z
 40
0.48
 90
        3
 40
0.18
 90
        1
 71
     2
340
377
 90
       25
340
377
 90
       50
 40
0.24
 40
0.0
 40
0.24
 71
     3
340
370
 40
0.24
 90
        1
 40
0.75
 90
        1
300
%<\AcVar ViewType \f "%tc1">% %<\AcVar ViewSectionStartId>%-%<\AcVar ViewSectionEndId>%\PSCALE %<\AcVar ViewScale \f "%sn">%
 71
     4
300
ANSI31
 40
1.0
 90
        0
290
     0
290
     0
 90
        6
 40
0.0
 40
1.570796326794896
 40
0.2617993877991494
 40
1.308996938995747
 40
-0.2617993877991494
 40
1.832595714594046
  0
TABLESTYLE
  5
37F
102
{ACAD_XDICTIONARY
360
3BA
102
}
102
{ACAD_REACTORS
330
37E
102
}
330
37E
100
AcDbTableStyle
  3
Standard
 70
     0
 71
     0
 40
0.06
 41
0.06
280
     0
281
     0
  7
STANDARD
140
0.18
170
     2
 62
     0
 63
     7
283
     0
274
    -2
284
     1
 64
     0
275
    -2
285
     1
 65
     0
276
    -2
286
     1
 66
     0
277
    -2
287
     1
 67
     0
278
    -2
288
     1
 68
     0
279
    -2
289
     1
 69
     0
  7
STANDARD
140
0.25
170
     5
 62
     0
 63
     7
283
     0
274
    -2
284
     1
 64
     0
275
    -2
285
     1
 65
     0
276
    -2
286
     1
 66
     0
277
    -2
287
     1
 67
     0
278
    -2
288
     1
 68
     0
279
    -2
289
     1
 69
     0
  7
STANDARD
140
0.18
170
     5
 62
     0
 63
     7
283
     0
274
    -2
284
     1
 64
     0
275
    -2
285
     1
 65
     0
276
    -2
286
     1
 66
     0
277
    -2
287
     1
 67
     0
278
    -2
288
     1
 68
     0
279
    -2
289
     1
 69
     0
  0
VISUALSTYLE
  5
34A
102
{ACAD_XDICTIONARY
360
3CB
102
}
102
{ACAD_REACTORS
330
344
102
}
330
344
100
AcDbVisualStyle
  2
2dWireframe
 70
     4
 71
     0
 72
     2
 73
     0
 90
        0
 40
-0.6
 41
-30.0
 62
     5
 63
     7
 74
     1
 91
        4
 64
     7
 65
   257
 75
     1
175
     1
 42
1.0
 92
        0
 66
   257
 43
1.0
 76
     1
 77
     6
 78
     2
 67
     7
 79
     5
170
     0
171
     0
290
     0
174
     0
 93
        1
 44
0.0
173
     0
291
     0
 45
0.0
1001
ACAD
1000
AcDbSavedByObjectVersion
1070
     0
  0
VISUALSTYLE
  5
349
102
{ACAD_XDICTIONARY
360
3C9
102
}
102
{ACAD_REACTORS
330
344
102
}
330
344
100
AcDbVisualStyle
  2
Basic
 70
     7
 71
     1
 72
     0
 73
     1
 90
        0
 40
-0.6
 41
-30.0
 62
     5
 63
     7
 74
     0
 91
        4
 64
     7
 65
   257
 75
     1
175
     1
 42
1.0
 92
        8
 66
     7
 43
1.0
 76
     1
 77
     6
 78
     2
 67
     7
 79
     5
170
     0
171
     0
290
     0
174
     0
 93
        1
 44
0.0
173
     0
291
     1
 45
0.0
1001
ACAD
1000
AcDbSavedByObjectVersion
1070
     0
  0
VISUALSTYLE
  5
350
102
{ACAD_XDICTIONARY
360
3D7
102
}
102
{ACAD_REACTORS
330
344
102
}
330
344
100
AcDbVisualStyle
  2
Brighten
 70
    12
 71
     2
 72
     2
 73
     0
 90
        0
 40
-0.6
 41
-30.0
 62
     5
 63
     7
 74
     1
 91
        4
 64
     7
 65
   257
 75
     1
175
     1
 42
1.0
 92
        8
 66
     7
 43
1.0
 76
     1
 77
     6
 78
     2
 67
     7
 79
     5
170
     0
171
     0
290
     0
174
     0
 93
        1
 44
50.0
173
     0
291
     1
 45
0.0
1001
ACAD
1000
AcDbSavedByObjectVersion
1070
     0
  0
VISUALSTYLE
  5
354
102
{ACAD_XDICTIONARY
360
3DF
102
}
102
{ACAD_REACTORS
330
344
102
}
330
344
100
AcDbVisualStyle
  2
ColorChange
 70
    16
 71
     2
 72
     2
 73
     3
 90
        0
 40
-0.6
 41
-30.0
 62
     5
 63
     8
 74
     1
 91
        4
 64
     7
 65
   257
 75
     1
175
     1
 42
1.0
 92
        8
 66
     8
 43
1.0
 76
     1
 77
     6
 78
     2
 67
     7
 79
     5
170
     0
171
     0
290
     0
174
     0
 93
        1
 44
0.0
173
     0
291
     1
 45
0.0
1001
ACAD
1000
AcDbSavedByObjectVersion
1070
     0
  0
VISUALSTYLE
  5
34D
102
{ACAD_XDICTIONARY
360
3D1
102
}
102
{ACAD_REACTORS
330
344
102
}
330
344
100
AcDbVisualStyle
  2
Conceptual
 70
     9
 71
     3
 72
     2
 73
     0
 90
        0
 40
-0.6
 41
-30.0
 62
     5
 63
     7
 74
     2
 91
        2
 64
     7
 65
   257
 75
     1
175
     1
 42
179.0
 92
        8
 66
     7
 43
1.0
 76
     1
 77
     6
 78
     2
 67
     7
 79
     3
170
     0
171
     0
290
     0
174
     0
 93
        1
 44
0.0
173
     0
291
     0
 45
0.0
1001
ACAD
1000
AcDbSavedByObjectVersion
1070
     0
  0
VISUALSTYLE
  5
34F
102
{ACAD_XDICTIONARY
360
3D5
102
}
102
{ACAD_REACTORS
330
344
102
}
330
344
100
AcDbVisualStyle
  2
Dim
 70
    11
 71
     2
 72
     2
 73
     0
 90
        0
 40
-0.6
 41
-30.0
 62
     5
 63
     7
 74
     1
 91
        4
 64
     7
 65
   257
 75
     1
175
     1
 42
1.0
 92
        8
 66
     7
 43
1.0
 76
     1
 77
     6
 78
     2
 67
     7
 79
     5
170
     0
171
     0
290
     0
174
     0
 93
        1
 44
-50.0
173
     0
291
     1
 45
0.0
1001
ACAD
1000
AcDbSavedByObjectVersion
1070
     0
  0
VISUALSTYLE
  5
35C
102
{ACAD_XDICTIONARY
360
3EF
102
}
102
{ACAD_REACTORS
330
344
102
}
330
344
100
AcDbVisualStyle
  2
EdgeColorOff
 70
    22
 71
     2
 72
     2
 73
     0
 90
        0
 40
-0.6
 41
-30.0
 62
     5
 63
     7
 74
     1
 91
        4
 64
     7
 65
   257
 75
     1
175
     1
 42
1.0
 92
        8
 66
     7
 43
1.0
 76
     1
 77
     6
 78
     2
 67
     7
 79
     5
170
     0
171
     0
290
     0
174
     0
 93
        1
 44
0.0
173
     0
291
     1
 45
0.0
1001
ACAD
1000
AcDbSavedByObjectVersion
1070
     0
  0
VISUALSTYLE
  5
353
102
{ACAD_XDICTIONARY
360
3DD
102
}
102
{ACAD_REACTORS
330
344
102
}
330
344
100
AcDbVisualStyle
  2
Facepattern
 70
    15
 71
     2
 72
     2
 73
     0
 90
        0
 40
-0.6
 41
-30.0
 62
     5
 63
     7
 74
     1
 91
        4
 64
     7
 65
   257
 75
     1
175
     1
 42
1.0
 92
        8
 66
     7
 43
1.0
 76
     1
 77
     6
 78
     2
 67
     7
 79
     5
170
     0
171
     0
290
     0
174
     0
 93
        1
 44
0.0
173
     0
291
     1
 45
0.0
1001
ACAD
1000
AcDbSavedByObjectVersion
1070
     0
  0
VISUALSTYLE
  5
345
102
{ACAD_XDICTIONARY
360
3C1
102
}
102
{ACAD_REACTORS
330
344
102
}
330
344
100
AcDbVisualStyle
  2
Flat
 70
     0
 71
     2
 72
     1
 73
     1
 90
        2
 40
-0.6
 41
30.0
 62
     5
 63
     7
 74
     0
 91
        0
 64
     7
 65
   257
 75
     1
175
     1
 42
1.0
 92
        8
 66
     7
 43
1.0
 76
     1
 77
     6
 78
     2
 67
     7
 79
     5
170
     0
171
     0
290
     0
174
     0
 93
       13
 44
0.0
173
     0
291
     1
 45
0.0
1001
ACAD
1000
AcDbSavedByObjectVersion
1070
     0
  0
VISUALSTYLE
  5
346
102
{ACAD_XDICTIONARY
360
3C3
102
}
102
{ACAD_REACTORS
330
344
102
}
330
344
100
AcDbVisualStyle
  2
FlatWithEdges
 70
     1
 71
     2
 72
     1
 73
     1
 90
        2
 40
-0.6
 41
30.0
 62
     5
 63
     7
 74
     1
 91
        0
 64
     7
 65
   257
 75
     1
175
     1
 42
1.0
 92
        0
 66
   257
 43
1.0
 76
     1
 77
     6
 78
     2
 67
     7
 79
     5
170
     0
171
     0
290
     0
174
     0
 93
       13
 44
0.0
173
     0
291
     1
 45
0.0
1001
ACAD
1000
AcDbSavedByObjectVersion
1070
     0
  0
VISUALSTYLE
  5
347
102
{ACAD_XDICTIONARY
360
3C5
102
}
102
{ACAD_REACTORS
330
344
102
}
330
344
100
AcDbVisualStyle
  2
Gouraud
 70
     2
 71
     2
 72
     2
 73
     1
 90
        2
 40
-0.6
 41
30.0
 62
     5
 63
     7
 74
     0
 91
        0
 64
     7
 65
   257
 75
     1
175
     1
 42
1.0
 92
        0
 66
     7
 43
1.0
 76
     1
 77
     6
 78
     2
 67
     7
 79
     5
170
     0
171
     0
290
     0
174
     0
 93
       13
 44
0.0
173
     0
291
     1
 45
0.0
1001
ACAD
1000
AcDbSavedByObjectVersion
1070
     0
  0
VISUALSTYLE
  5
348
102
{ACAD_XDICTIONARY
360
3C7
102
}
102
{ACAD_REACTORS
330
344
102
}
330
344
100
AcDbVisualStyle
  2
GouraudWithEdges
 70
     3
 71
     2
 72
     2
 73
     1
 90
        2
 40
-0.6
 41
30.0
 62
     5
 63
     7
 74
     1
 91
        0
 64
     7
 65
   257
 75
     1
175
     1
 42
1.0
 92
        0
 66
   257
 43
1.0
 76
     1
 77
     6
 78
     2
 67
     7
 79
     5
170
     0
171
     0
290
     0
174
     0
 93
       13
 44
0.0
173
     0
291
     1
 45
0.0
1001
ACAD
1000
AcDbSavedByObjectVersion
1070
     0
  0
VISUALSTYLE
  5
34C
102
{ACAD_XDICTIONARY
360
3CF
102
}
102
{ACAD_REACTORS
330
344
102
}
330
344
100
AcDbVisualStyle
  2
Hidden
 70
     6
 71
     1
 72
     2
 73
     2
 90
        0
 40
-0.6
 41
-30.0
 62
     5
 63
     7
 74
     2
 91
        2
 64
     7
 65
   257
 75
     2
175
     1
 42
40.0
 92
        0
 66
   257
 43
1.0
 76
     1
 77
     6
 78
     2
 67
     7
 79
     3
170
     0
171
     0
290
     0
174
     0
 93
        1
 44
0.0
173
     0
291
     0
 45
0.0
1001
ACAD
1000
AcDbSavedByObjectVersion
1070
     0
  0
VISUALSTYLE
  5
35A
102
{ACAD_XDICTIONARY
360
3EB
102
}
102
{ACAD_REACTORS
330
344
102
}
330
344
100
AcDbVisualStyle
  2
JitterOff
 70
    20
 71
     2
 72
     2
 73
     0
 90
        0
 40
-0.6
 41
-30.0
 62
     5
 63
     7
 74
     1
 91
        4
 64
     7
 65
   257
 75
     1
175
     1
 42
1.0
 92
       10
 66
     7
 43
1.0
 76
     1
 77
     6
 78
     2
 67
     7
 79
     5
170
     0
171
     0
290
     0
174
     0
 93
        1
 44
0.0
173
     0
291
     1
 45
0.0
1001
ACAD
1000
AcDbSavedByObjectVersion
1070
     0
  0
VISUALSTYLE
  5
352
102
{ACAD_XDICTIONARY
360
3DB
102
}
102
{ACAD_REACTORS
330
344
102
}
330
344
100
AcDbVisualStyle
  2
Linepattern
 70
    14
 71
     2
 72
     2
 73
     0
 90
        0
 40
-0.6
 41
-30.0
 62
     5
 63
     7
 74
     1
 91
        4
 64
     7
 65
   257
 75
     7
175
     7
 42
1.0
 92
        8
 66
     7
 43
1.0
 76
     1
 77
     6
 78
     2
 67
     7
 79
     5
170
     0
171
     0
290
     0
174
     0
 93
        1
 44
0.0
173
     0
291
     1
 45
0.0
1001
ACAD
1000
AcDbSavedByObjectVersion
1070
     0
  0
VISUALSTYLE
  5
35B
102
{ACAD_XDICTIONARY
360
3ED
102
}
102
{ACAD_REACTORS
330
344
102
}
330
344
100
AcDbVisualStyle
  2
OverhangOff
 70
    21
 71
     2
 72
     2
 73
     0
 90
        0
 40
-0.6
 41
-30.0
 62
     5
 63
     7
 74
     1
 91
        4
 64
     7
 65
   257
 75
     1
175
     1
 42
1.0
 92
        9
 66
     7
 43
1.0
 76
     1
 77
     6
 78
     2
 67
     7
 79
     5
170
     0
171
     0
290
     0
174
     0
 93
        1
 44
0.0
173
     0
291
     1
 45
0.0
1001
ACAD
1000
AcDbSavedByObjectVersion
1070
     0
  0
VISUALSTYLE
  5
34E
102
{ACAD_XDICTIONARY
360
3D3
102
}
102
{ACAD_REACTORS
330
344
102
}
330
344
100
AcDbVisualStyle
  2
Realistic
 70
     8
 71
     2
 72
     3
 73
     0
 90
        2
 40
-0.6
 41
30.0
 62
     5
 63
     7
 74
     0
 91
        0
 64
     7
 65
   257
 75
     1
175
     1
 42
1.0
 92
        8
 66
   257
 43
1.0
 76
     1
 77
     6
 78
     2
 67
     7
 79
     3
170
     0
171
     0
290
     0
174
     0
 93
       13
 44
0.0
173
     0
291
     0
 45
0.0
1001
ACAD
1000
AcDbSavedByObjectVersion
1070
     0
  0
VISUALSTYLE
  5
359
102
{ACAD_XDICTIONARY
360
3E9
102
}
102
{ACAD_REACTORS
330
344
102
}
330
344
100
AcDbVisualStyle
  2
Shaded
 70
    27
 71
     2
 72
     2
 73
     1
 90
        2
 40
-0.6
 41
30.0
 62
     5
 63
     7
 74
     0
 91
        4
 64
     7
 65
   257
 75
     1
175
     1
 42
1.0
 92
        8
 66
   257
 43
1.0
 76
     1
 77
     6
 78
     2
 67
     8
 79
     3
170
     0
171
     0
290
     0
174
     0
 93
        5
 44
0.0
173
     0
291
     0
 45
0.0
1001
ACAD
1000
AcDbSavedByObjectVersion
1070
     0
  0
VISUALSTYLE
  5
358
102
{ACAD_XDICTIONARY
360
3E7
102
}
102
{ACAD_REACTORS
330
344
102
}
330
344
100
AcDbVisualStyle
  2
Shaded with edges
 70
    26
 71
     2
 72
     2
 73
     1
 90
        2
 40
-0.6
 41
30.0
 62
     5
 63
     7
 74
     1
 91
        2
 64
     7
 65
   257
 75
     2
175
     1
 42
1.0
 92
        8
 66
   257
 43
1.0
 76
     1
 77
     6
 78
     2
 67
     7
 79
     3
170
     0
171
     0
290
     0
174
     0
 93
        5
 44
0.0
173
     0
291
     0
 45
0.0
1001
ACAD
1000
AcDbSavedByObjectVersion
1070
     0
  0
VISUALSTYLE
  5
355
102
{ACAD_XDICTIONARY
360
3E1
102
}
102
{ACAD_REACTORS
330
344
102
}
330
344
100
AcDbVisualStyle
  2
Shades of Gray
 70
    23
 71
     2
 72
     2
 73
     3
 90
        0
 40
-0.6
 41
-30.0
 62
     5
 63
     7
 74
     2
 91
        2
 64
     7
 65
     7
 75
     1
175
     1
 42
40.0
 92
        8
 66
     7
 43
1.0
 76
     1
 77
     6
 78
     2
 67
     7
 79
     3
170
     0
171
     0
290
     0
174
     0
 93
        1
 44
0.0
173
     0
291
     0
 45
0.0
1001
ACAD
1000
AcDbSavedByObjectVersion
1070
     0
  0
VISUALSTYLE
  5
356
102
{ACAD_XDICTIONARY
360
3E3
102
}
102
{ACAD_REACTORS
330
344
102
}
330
344
100
AcDbVisualStyle
  2
Sketchy
 70
    24
 71
     1
 72
     2
 73
     2
 90
        0
 40
-0.6
 41
-30.0
 62
     5
 63
     7
 74
     2
 91
        2
 64
     7
 65
     7
 75
     1
175
     1
 42
40.0
 92
       11
 66
     7
 43
1.0
 76
     1
 77
     6
 78
     2
 67
     7
 79
     6
170
     0
171
     0
290
     0
174
     0
 93
        1
 44
0.0
173
     0
291
     0
 45
0.0
1001
ACAD
1000
AcDbSavedByObjectVersion
1070
     0
  0
VISUALSTYLE
  5
351
102
{ACAD_XDICTIONARY
360
3D9
102
}
102
{ACAD_REACTORS
330
344
102
}
330
344
100
AcDbVisualStyle
  2
Thicken
 70
    13
 71
     2
 72
     2
 73
     0
 90
        0
 40
-0.6
 41
-30.0
 62
     5
 63
     7
 74
     1
 91
        4
 64
     7
 65
   257
 75
     1
175
     1
 42
1.0
 92
       12
 66
     7
 43
1.0
 76
     1
 77
     6
 78
     2
 67
     7
 79
     5
170
     0
171
     0
290
     0
174
     0
 93
        1
 44
0.0
173
     0
291
     1
 45
0.0
1001
ACAD
1000
AcDbSavedByObjectVersion
1070
     0
  0
VISUALSTYLE
  5
34B
102
{ACAD_XDICTIONARY
360
3CD
102
}
102
{ACAD_REACTORS
330
344
102
}
330
344
100
AcDbVisualStyle
  2
Wireframe
 70
     5
 71
     0
 72
     2
 73
     0
 90
        0
 40
-0.6
 41
-30.0
 62
     5
 63
     7
 74
     1
 91
        4
 64
     7
 65
   257
 75
     1
175
     1
 42
1.0
 92
        0
 66
   257
 43
1.0
 76
     1
 77
     6
 78
     2
 67
     7
 79
     3
170
     0
171
     0
290
     0
174
     0
 93
        1
 44
0.0
173
     0
291
     0
 45
0.0
1001
ACAD
1000
AcDbSavedByObjectVersion
1070
     0
  0
VISUALSTYLE
  5
357
102
{ACAD_XDICTIONARY
360
3E5
102
}
102
{ACAD_REACTORS
330
344
102
}
330
344
100
AcDbVisualStyle
  2
X-Ray
 70
    25
 71
     2
 72
     2
 73
     1
 90
        1
 40
0.5
 41
-30.0
 62
     5
 63
     7
 74
     1
 91
        0
 64
     7
 65
   257
 75
     1
175
     1
 42
1.0
 92
        8
 66
     7
 43
1.0
 76
     1
 77
     6
 78
     2
 67
     7
 79
     3
170
     0
171
     0
290
     0
174
     0
 93
       13
 44
0.0
173
     0
291
     0
 45
0.0
1001
ACAD
1000
AcDbSavedByObjectVersion
1070
     0
  0
DICTIONARYVAR
  5
3B4
102
{ACAD_REACTORS
330
3AF
102
}
330
3AF
100
DictionaryVariables
280
     0
  1
1:1
  0
DICTIONARYVAR
  5
3B1
102
{ACAD_REACTORS
330
3AF
102
}
330
3AF
100
DictionaryVariables
280
     0
  1
STANDARD
  0
DICTIONARYVAR
  5
3B0
102
{ACAD_REACTORS
330
3AF
102
}
330
3AF
100
DictionaryVariables
280
     0
  1
STANDARD
  0
DICTIONARYVAR
  5
3B2
102
{ACAD_REACTORS
330
3AF
102
}
330
3AF
100
DictionaryVariables
280
     0
  1
Imperial24
  0
DICTIONARYVAR
  5
3B3
102
{ACAD_REACTORS
330
3AF
102
}
330
3AF
100
DictionaryVariables
280
     0
  1
Imperial24
  0
DICTIONARYVAR
  5
3B7
102
{ACAD_REACTORS
330
3AF
102
}
330
3AF
100
DictionaryVariables
280
     0
  1
1
  0
DICTIONARYVAR
  5
3B6
102
{ACAD_REACTORS
330
3AF
102
}
330
3AF
100
DictionaryVariables
280
     0
  1
0
  0
DICTIONARYVAR
  5
3B5
102
{ACAD_REACTORS
330
3AF
102
}
330
3AF
100
DictionaryVariables
280
     0
  1
127
  0
DICTIONARYVAR
  5
3B8
102
{ACAD_REACTORS
330
3AF
102
}
330
3AF
100
DictionaryVariables
280
     0
  1
2
  0
DICTIONARY
  5
3F5
330
385
100
AcDbDictionary
280
     1
281
     1
  3
ACAD_XREC_ROUNDTRIP
360
3F6
  0
DICTIONARY
  5
3F9
330
38D
100
AcDbDictionary
280
     1
281
     1
  3
ACAD_XREC_ROUNDTRIP
360
3FA
  0
DICTIONARY
  5
3F7
330
389
100
AcDbDictionary
280
     1
281
     1
  3
ACAD_XREC_ROUNDTRIP
360
3F8
  0
DICTIONARY
  5
335
330
334
100
AcDbDictionary
280
     1
281
     1
  3
ACAD_XREC_ROUNDTRIP
360
3BF
  3
BUMPTILE
360
337
  3
DIFFUSETILE
360
336
  3
OPACITYTILE
360
33A
  3
REFLECTIONTILE
360
339
  3
REFRACTIONTILE
360
33B
  3
SPECULARTILE
360
338
  0
DICTIONARY
  5
32D
330
32C
100
AcDbDictionary
280
     1
281
     1
  3
ACAD_XREC_ROUNDTRIP
360
3BE
  3
BUMPTILE
360
32F
  3
DIFFUSETILE
360
32E
  3
OPACITYTILE
360
332
  3
REFLECTIONTILE
360
331
  3
REFRACTIONTILE
360
333
  3
SPECULARTILE
360
330
  0
DICTIONARY
  5
33D
330
33C
100
AcDbDictionary
280
     1
281
     1
  3
ACAD_XREC_ROUNDTRIP
360
3C0
  3
BUMPTILE
360
33F
  3
DIFFUSETILE
360
33E
  3
OPACITYTILE
360
342
  3
REFLECTIONTILE
360
341
  3
REFRACTIONTILE
360
343
  3
SPECULARTILE
360
340
  0
DICTIONARY
  5
3F3
330
383
100
AcDbDictionary
280
     1
281
     1
  3
ACAD_XREC_ROUNDTRIP
360
3F4
  0
DICTIONARY
  5
3BA
330
37F
100
AcDbDictionary
280
     1
281
     1
  3
ACAD_ROUNDTRIP_2008_TABLESTYLE_CELLSTYLEMAP
360
3BB
  3
ACAD_XREC_ROUNDTRIP
360
3F1
  0
DICTIONARY
  5
3CB
330
34A
100
AcDbDictionary
280
     1
281
     1
  3
ACAD_XREC_ROUNDTRIP
360
3CC
  0
DICTIONARY
  5
3C9
330
349
100
AcDbDictionary
280
     1
281
     1
  3
ACAD_XREC_ROUNDTRIP
360
3CA
  0
DICTIONARY
  5
3D7
330
350
100
AcDbDictionary
280
     1
281
     1
  3
ACAD_XREC_ROUNDTRIP
360
3D8
  0
DICTIONARY
  5
3DF
330
354
100
AcDbDictionary
280
     1
281
     1
  3
ACAD_XREC_ROUNDTRIP
360
3E0
  0
DICTIONARY
  5
3D1
330
34D
100
AcDbDictionary
280
     1
281
     1
  3
ACAD_XREC_ROUNDTRIP
360
3D2
  0
DICTIONARY
  5
3D5
330
34F
100
AcDbDictionary
280
     1
281
     1
  3
ACAD_XREC_ROUNDTRIP
360
3D6
  0
DICTIONARY
  5
3EF
330
35C
100
AcDbDictionary
280
     1
281
     1
  3
ACAD_XREC_ROUNDTRIP
360
3F0
  0
DICTIONARY
  5
3DD
330
353
100
AcDbDictionary
280
     1
281
     1
  3
ACAD_XREC_ROUNDTRIP
360
3DE
  0
DICTIONARY
  5
3C1
330
345
100
AcDbDictionary
280
     1
281
     1
  3
ACAD_XREC_ROUNDTRIP
360
3C2
  0
DICTIONARY
  5
3C3
330
346
100
AcDbDictionary
280
     1
281
     1
  3
ACAD_XREC_ROUNDTRIP
360
3C4
  0
DICTIONARY
  5
3C5
330
347
100
AcDbDictionary
280
     1
281
     1
  3
ACAD_XREC_ROUNDTRIP
360
3C6
  0
DICTIONARY
  5
3C7
330
348
100
AcDbDictionary
280
     1
281
     1
  3
ACAD_XREC_ROUNDTRIP
360
3C8
  0
DICTIONARY
  5
3CF
330
34C
100
AcDbDictionary
280
     1
281
     1
  3
ACAD_XREC_ROUNDTRIP
360
3D0
  0
DICTIONARY
  5
3EB
330
35A
100
AcDbDictionary
280
     1
281
     1
  3
ACAD_XREC_ROUNDTRIP
360
3EC
  0
DICTIONARY
  5
3DB
330
352
100
AcDbDictionary
280
     1
281
     1
  3
ACAD_XREC_ROUNDTRIP
360
3DC
  0
DICTIONARY
  5
3ED
330
35B
100
AcDbDictionary
280
     1
281
     1
  3
ACAD_XREC_ROUNDTRIP
360
3EE
  0
DICTIONARY
  5
3D3
330
34E
100
AcDbDictionary
280
     1
281
     1
  3
ACAD_XREC_ROUNDTRIP
360
3D4
  0
DICTIONARY
  5
3E9
330
359
100
AcDbDictionary
280
     1
281
     1
  3
ACAD_XREC_ROUNDTRIP
360
3EA
  0
DICTIONARY
  5
3E7
330
358
100
AcDbDictionary
280
     1
281
     1
  3
ACAD_XREC_ROUNDTRIP
360
3E8
  0
DICTIONARY
  5
3E1
330
355
100
AcDbDictionary
280
     1
281
     1
  3
ACAD_XREC_ROUNDTRIP
360
3E2
  0
DICTIONARY
  5
3E3
330
356
100
AcDbDictionary
280
     1
281
     1
  3
ACAD_XREC_ROUNDTRIP
360
3E4
  0
DICTIONARY
  5
3D9
330
351
100
AcDbDictionary
280
     1
281
     1
  3
ACAD_XREC_ROUNDTRIP
360
3DA
  0
DICTIONARY
  5
3CD
330
34B
100
AcDbDictionary
280
     1
281
     1
  3
ACAD_XREC_ROUNDTRIP
360
3CE
  0
DICTIONARY
  5
3E5
330
357
100
AcDbDictionary
280
     1
281
     1
  3
ACAD_XREC_ROUNDTRIP
360
3E6
  0
XRECORD
  5
3F6
102
{ACAD_REACTORS
330
3F5
102
}
330
3F5
100
AcDbXrecord
280
     1
102
DISPLAYNAME
  1
Imperial24
102
FLAGS
 90
        0
  0
XRECORD
  5
3FA
102
{ACAD_REACTORS
330
3F9
102
}
330
3F9
100
AcDbXrecord
280
     1
102
SHADEPLOT
 70
     0
102
SHADEPLOTRESLEVEL
 70
     2
102
SHADEPLOTCUSTOMDPI
 70
   300
  0
XRECORD
  5
3F8
102
{ACAD_REACTORS
330
3F7
102
}
330
3F7
100
AcDbXrecord
280
     1
102
SHADEPLOT
 70
     0
102
SHADEPLOTRESLEVEL
 70
     2
102
SHADEPLOTCUSTOMDPI
 70
   300
  0
XRECORD
  5
3BF
102
{ACAD_REACTORS
330
335
102
}
330
335
100
AcDbXrecord
280
     1
102
MATERIAL
148
0.0
149
0.0
149
0.0
 93
        0
 94
      127
282
     0
 72
     0
 77
     0
171
     0
175
     0
179
     0
273
     0
  0
XRECORD
  5
337
102
{ACAD_REACTORS
330
335
102
}
330
335
100
AcDbXrecord
280
     1
270
     1
271
     1
  0
XRECORD
  5
336
102
{ACAD_REACTORS
330
335
102
}
330
335
100
AcDbXrecord
280
     1
270
     1
271
     1
  0
XRECORD
  5
33A
102
{ACAD_REACTORS
330
335
102
}
330
335
100
AcDbXrecord
280
     1
270
     1
271
     1
  0
XRECORD
  5
339
102
{ACAD_REACTORS
330
335
102
}
330
335
100
AcDbXrecord
280
     1
270
     1
271
     1
  0
XRECORD
  5
33B
102
{ACAD_REACTORS
330
335
102
}
330
335
100
AcDbXrecord
280
     1
270
     1
271
     1
  0
XRECORD
  5
338
102
{ACAD_REACTORS
330
335
102
}
330
335
100
AcDbXrecord
280
     1
270
     1
271
     1
  0
XRECORD
  5
3BE
102
{ACAD_REACTORS
330
32D
102
}
330
32D
100
AcDbXrecord
280
     1
102
MATERIAL
148
0.0
149
0.0
149
0.0
 93
        0
 94
      127
282
     0
 72
     0
 77
     0
171
     0
175
     0
179
     0
273
     0
  0
XRECORD
  5
32F
102
{ACAD_REACTORS
330
32D
102
}
330
32D
100
AcDbXrecord
280
     1
270
     1
271
     1
  0
XRECORD
  5
32E
102
{ACAD_REACTORS
330
32D
102
}
330
32D
100
AcDbXrecord
280
     1
270
     1
271
     1
  0
XRECORD
  5
332
102
{ACAD_REACTORS
330
32D
102
}
330
32D
100
AcDbXrecord
280
     1
270
     1
271
     1
  0
XRECORD
  5
331
102
{ACAD_REACTORS
330
32D
102
}
330
32D
100
AcDbXrecord
280
     1
270
     1
271
     1
  0
XRECORD
  5
333
102
{ACAD_REACTORS
330
32D
102
}
330
32D
100
AcDbXrecord
280
     1
270
     1
271
     1
  0
XRECORD
  5
330
102
{ACAD_REACTORS
330
32D
102
}
330
32D
100
AcDbXrecord
280
     1
270
     1
271
     1
  0
XRECORD
  5
3C0
102
{ACAD_REACTORS
330
33D
102
}
330
33D
100
AcDbXrecord
280
     1
102
MATERIAL
148
0.0
149
0.0
149
0.0
 93
        0
 94
      127
282
     0
 72
     0
 77
     0
171
     0
175
     0
179
     0
273
     0
  0
XRECORD
  5
33F
102
{ACAD_REACTORS
330
33D
102
}
330
33D
100
AcDbXrecord
280
     1
270
     1
271
     1
  0
XRECORD
  5
33E
102
{ACAD_REACTORS
330
33D
102
}
330
33D
100
AcDbXrecord
280
     1
270
     1
271
     1
  0
XRECORD
  5
342
102
{ACAD_REACTORS
330
33D
102
}
330
33D
100
AcDbXrecord
280
     1
270
     1
271
     1
  0
XRECORD
  5
341
102
{ACAD_REACTORS
330
33D
102
}
330
33D
100
AcDbXrecord
280
     1
270
     1
271
     1
  0
XRECORD
  5
343
102
{ACAD_REACTORS
330
33D
102
}
330
33D
100
AcDbXrecord
280
     1
270
     1
271
     1
  0
XRECORD
  5
340
102
{ACAD_REACTORS
330
33D
102
}
330
33D
100
AcDbXrecord
280
     1
270
     1
271
     1
  0
XRECORD
  5
3F4
102
{ACAD_REACTORS
330
3F3
102
}
330
3F3
100
AcDbXrecord
280
     1
102
DISPLAYNAME
  1
Imperial24
102
FLAGS
 90
        0
  0
CELLSTYLEMAP
  5
3BB
102
{ACAD_REACTORS
330
3BA
102
}
330
3BA
100
AcDbCellStyleMap
 90
        3
300
CELLSTYLE
  1
TABLEFORMAT_BEGIN
 90
        5
170
     1
 91
        0
 92
    32768
 62
   257
 93
        1
300
CONTENTFORMAT
  1
CONTENTFORMAT_BEGIN
 90
        0
 91
        0
 92
      512
 93
        0
300

 40
0.0
140
1.0
 94
        5
 62
     0
340
370
144
0.25
309
CONTENTFORMAT_END
171
     0
 94
        0
309
TABLEFORMAT_END
  1
CELLSTYLE_BEGIN
 90
        1
 91
        1
300
_TITLE
309
CELLSTYLE_END
300
CELLSTYLE
  1
TABLEFORMAT_BEGIN
 90
        5
170
     1
 91
        0
 92
        0
 62
   257
 93
        1
300
CONTENTFORMAT
  1
CONTENTFORMAT_BEGIN
 90
        0
 91
        0
 92
      512
 93
        0
300

 40
0.0
140
1.0
 94
        5
 62
     0
340
370
144
0.18
309
CONTENTFORMAT_END
171
     0
 94
        0
309
TABLEFORMAT_END
  1
CELLSTYLE_BEGIN
 90
        2
 91
        1
300
_HEADER
309
CELLSTYLE_END
300
CELLSTYLE
  1
TABLEFORMAT_BEGIN
 90
        5
170
     1
 91
        0
 92
        0
 62
   257
 93
        1
300
CONTENTFORMAT
  1
CONTENTFORMAT_BEGIN
 90
        0
 91
        0
 92
      512
 93
        0
300

 40
0.0
140
1.0
 94
        2
 62
     0
340
370
144
0.18
309
CONTENTFORMAT_END
171
     0
 94
        0
309
TABLEFORMAT_END
  1
CELLSTYLE_BEGIN
 90
        3
 91
        2
300
_DATA
309
CELLSTYLE_END
  0
XRECORD
  5
3F1
102
{ACAD_REACTORS
330
3BA
102
}
330
3BA
100
AcDbXrecord
280
     1
102
ACAD_ROUNDTRIP_PRE2007_TABLESTYLE
 90
      512
 91
        0
  1

 92
      512
 93
        0
  2

 94
      512
 95
        0
  3

  0
XRECORD
  5
3CC
102
{ACAD_REACTORS
330
3CB
102
}
330
3CB
100
AcDbXrecord
280
     1
102
RTVSPost2010Prop28
280
     1
102
RTVSPost2010PropOp28
 70
     1
102
RTVSPost2010Prop29
280
     1
102
RTVSPost2010PropOp29
 70
     1
102
RTVSPost2010Prop30
280
     0
102
RTVSPost2010PropOp30
 70
     1
102
RTVSPost2010Prop31
280
     0
102
RTVSPost2010PropOp31
 70
     1
102
RTVSPost2010Prop32
280
     0
102
RTVSPost2010PropOp32
 70
     1
102
RTVSPost2010Prop33
280
     0
102
RTVSPost2010PropOp33
 70
     1
102
RTVSPost2010Prop34
280
     0
102
RTVSPost2010PropOp34
 70
     1
102
RTVSPost2010Prop35
280
     0
102
RTVSPost2010PropOp35
 70
     1
102
RTVSPost2010Prop36
280
     0
102
RTVSPost2010PropOp36
 70
     1
102
RTVSPost2010Prop37
 90
       50
102
RTVSPost2010PropOp37
 70
     1
102
RTVSPost2010Prop38
140
0.0
102
RTVSPost2010PropOp38
 70
     1
102
RTVSPost2010Prop39
140
1.0
102
RTVSPost2010PropOp39
 70
     1
102
RTVSPost2010Prop40
 90
        0
102
RTVSPost2010PropOp40
 70
     1
102
RTVSPost2010Prop41ColorIndex
 90
       18
102
RTVSPost2010Prop41ColorRGB
 90
        0
102
RTVSPost2010PropOp41
 70
     1
102
RTVSPost2010Prop42
 90
       50
102
RTVSPost2010PropOp42
 70
     1
102
RTVSPost2010Prop43
 90
        3
102
RTVSPost2010PropOp43
 70
     1
102
RTVSPost2010Prop44ColorIndex
 90
        5
102
RTVSPost2010Prop44ColorRGB
 90
      255
102
RTVSPost2010PropOp44
 70
     1
102
RTVSPost2010Prop45
280
     0
102
RTVSPost2010PropOp45
 70
     1
102
RTVSPost2010Prop46
 90
       50
102
RTVSPost2010PropOp46
 70
     1
102
RTVSPost2010Prop47
 90
       50
102
RTVSPost2010PropOp47
 70
     1
102
RTVSPost2010Prop48
 90
       50
102
RTVSPost2010PropOp48
 70
     1
102
RTVSPost2010Prop49
280
     0
102
RTVSPost2010PropOp49
 70
     1
102
RTVSPost2010Prop50
 90
       50
102
RTVSPost2010PropOp50
 70
     1
102
RTVSPost2010Prop51ColorIndex
 90
      256
102
RTVSPost2010Prop51ColorRGB
 90
-16777216
102
RTVSPost2010PropOp51
 70
     0
102
RTVSPost2010Prop52
140
1.0
102
RTVSPost2010PropOp52
 70
     0
102
RTVSPost2010Prop53
 90
        2
102
RTVSPost2010PropOp53
 70
     1
102
RTVSPost2010Prop54
  1
strokes_ogs.tif
102
RTVSPost2010PropOp54
 70
     1
102
RTVSPost2010Prop55
280
     0
102
RTVSPost2010PropOp55
 70
     1
102
RTVSPost2010Prop56
140
1.0
102
RTVSPost2010PropOp56
 70
     1
102
RTVSPost2010Prop57
140
1.0
102
RTVSPost2010PropOp57
 70
     1
102
RTVSPropertyOp0
 70
     1
102
RTVSPropertyOp1
 70
     1
102
RTVSPropertyOp2
 70
     1
102
RTVSPropertyOp3
 70
     1
102
RTVSPropertyOp4
 70
     1
102
RTVSPropertyOp5
 70
     1
102
RTVSPropertyOp6
 70
     1
102
RTVSPropertyOp7
 70
     1
102
RTVSPropertyOp8
 70
     1
102
RTVSPropertyOp9
 70
     1
102
RTVSPropertyOp10
 70
     1
102
RTVSPropertyOp11
 70
     1
102
RTVSPropertyOp12
 70
     1
102
RTVSPropertyOp13
 70
     1
102
RTVSPropertyOp14
 70
     1
102
RTVSPropertyOp15
 70
     1
102
RTVSPropertyOp16
 70
     1
102
RTVSPropertyOp17
 70
     1
102
RTVSPropertyOp18
 70
     1
102
RTVSPropertyOp19
 70
     1
102
RTVSPropertyOp20
 70
     1
102
RTVSPropertyOp21
 70
     1
102
RTVSPropertyOp22
 70
     1
102
RTVSPropertyOp23
 70
     1
102
RTVSPropertyOp24
 70
     1
102
RTVSPropertyOp25
 70
     1
102
RTVSPropertyOp26
 70
     1
102
RTVSPropertyOp27
 70
     1
102
RTVSPropertyOp28
 70
     1
102
RTVSPropertyOp29
 70
     1
102
RTVSPropertyOp30
 70
     1
102
RTVSPropertyOp31
 70
     1
102
RTVSPropertyOp32
 70
     1
102
RTVSPropertyOp33
 70
     1
102
RTVSPropertyOp34
 70
     1
102
RTVSPropertyOp35
 70
     1
102
RTVSPropertyOp36
 70
     1
102
RTVSPropertyOp37
 70
     1
102
RTVSPropertyOp38
 70
     1
102
RTVSPropertyOp39
 70
     1
102
RTVSPropertyOp40
 70
     1
102
RTVSPropertyOp41
 70
     1
102
RTVSPropertyOp42
 70
     1
102
RTVSPropertyOp43
 70
     1
102
RTVSPropertyOp44
 70
     1
102
RTVSPropertyOp45
 70
     1
102
RTVSPropertyOp46
 70
     1
102
RTVSPropertyOp47
 70
     1
102
RTVSPropertyOp48
 70
     1
102
RTVSPropertyOp49
 70
     1
102
RTVSPropertyOp50
 70
     1
102
RTVSPropertyOp51
 70
     0
102
RTVSPropertyOp52
 70
     0
102
RTVSPropertyOp53
 70
     1
102
RTVSPropertyOp54
 70
     1
102
RTVSPropertyOp55
 70
     1
102
RTVSPropertyOp56
 70
     1
102
RTVSPropertyOp57
 70
     1
102
RTVSPropertyOp58
 70
     1
102
RTVSPropertyOp59
 70
     1
102
RTVSPropertyOp60
 70
     1
102
RTVSPropertyOp61
 70
     1
102
RTVSPropertyOp62
 70
     1
  0
XRECORD
  5
3CA
102
{ACAD_REACTORS
330
3C9
102
}
330
3C9
100
AcDbXrecord
280
     1
102
RTVSPost2010Prop28
280
     0
102
RTVSPost2010PropOp28
 70
     1
102
RTVSPost2010Prop29
280
     1
102
RTVSPost2010PropOp29
 70
     1
102
RTVSPost2010Prop30
280
     1
102
RTVSPost2010PropOp30
 70
     1
102
RTVSPost2010Prop31
280
     0
102
RTVSPost2010PropOp31
 70
     1
102
RTVSPost2010Prop32
280
     0
102
RTVSPost2010PropOp32
 70
     1
102
RTVSPost2010Prop33
280
     0
102
RTVSPost2010PropOp33
 70
     1
102
RTVSPost2010Prop34
280
     0
102
RTVSPost2010PropOp34
 70
     1
102
RTVSPost2010Prop35
280
     0
102
RTVSPost2010PropOp35
 70
     1
102
RTVSPost2010Prop36
280
     0
102
RTVSPost2010PropOp36
 70
     1
102
RTVSPost2010Prop37
 90
       50
102
RTVSPost2010PropOp37
 70
     1
102
RTVSPost2010Prop38
140
0.0
102
RTVSPost2010PropOp38
 70
     1
102
RTVSPost2010Prop39
140
1.0
102
RTVSPost2010PropOp39
 70
     1
102
RTVSPost2010Prop40
 90
        0
102
RTVSPost2010PropOp40
 70
     1
102
RTVSPost2010Prop41ColorIndex
 90
       18
102
RTVSPost2010Prop41ColorRGB
 90
        0
102
RTVSPost2010PropOp41
 70
     1
102
RTVSPost2010Prop42
 90
       50
102
RTVSPost2010PropOp42
 70
     1
102
RTVSPost2010Prop43
 90
        3
102
RTVSPost2010PropOp43
 70
     1
102
RTVSPost2010Prop44ColorIndex
 90
        5
102
RTVSPost2010Prop44ColorRGB
 90
      255
102
RTVSPost2010PropOp44
 70
     1
102
RTVSPost2010Prop45
280
     0
102
RTVSPost2010PropOp45
 70
     1
102
RTVSPost2010Prop46
 90
       50
102
RTVSPost2010PropOp46
 70
     1
102
RTVSPost2010Prop47
 90
       50
102
RTVSPost2010PropOp47
 70
     1
102
RTVSPost2010Prop48
 90
       50
102
RTVSPost2010PropOp48
 70
     1
102
RTVSPost2010Prop49
280
     0
102
RTVSPost2010PropOp49
 70
     1
102
RTVSPost2010Prop50
 90
       50
102
RTVSPost2010PropOp50
 70
     1
102
RTVSPost2010Prop51ColorIndex
 90
      256
102
RTVSPost2010Prop51ColorRGB
 90
-16777216
102
RTVSPost2010PropOp51
 70
     0
102
RTVSPost2010Prop52
140
1.0
102
RTVSPost2010PropOp52
 70
     0
102
RTVSPost2010Prop53
 90
        2
102
RTVSPost2010PropOp53
 70
     1
102
RTVSPost2010Prop54
  1
strokes_ogs.tif
102
RTVSPost2010PropOp54
 70
     1
102
RTVSPost2010Prop55
280
     0
102
RTVSPost2010PropOp55
 70
     1
102
RTVSPost2010Prop56
140
1.0
102
RTVSPost2010PropOp56
 70
     1
102
RTVSPost2010Prop57
140
1.0
102
RTVSPost2010PropOp57
 70
     1
102
RTVSPropertyOp0
 70
     1
102
RTVSPropertyOp1
 70
     1
102
RTVSPropertyOp2
 70
     1
102
RTVSPropertyOp3
 70
     1
102
RTVSPropertyOp4
 70
     1
102
RTVSPropertyOp5
 70
     1
102
RTVSPropertyOp6
 70
     1
102
RTVSPropertyOp7
 70
     1
102
RTVSPropertyOp8
 70
     1
102
RTVSPropertyOp9
 70
     1
102
RTVSPropertyOp10
 70
     1
102
RTVSPropertyOp11
 70
     1
102
RTVSPropertyOp12
 70
     1
102
RTVSPropertyOp13
 70
     1
102
RTVSPropertyOp14
 70
     1
102
RTVSPropertyOp15
 70
     1
102
RTVSPropertyOp16
 70
     1
102
RTVSPropertyOp17
 70
     1
102
RTVSPropertyOp18
 70
     1
102
RTVSPropertyOp19
 70
     1
102
RTVSPropertyOp20
 70
     1
102
RTVSPropertyOp21
 70
     1
102
RTVSPropertyOp22
 70
     1
102
RTVSPropertyOp23
 70
     1
102
RTVSPropertyOp24
 70
     1
102
RTVSPropertyOp25
 70
     1
102
RTVSPropertyOp26
 70
     1
102
RTVSPropertyOp27
 70
     1
102
RTVSPropertyOp28
 70
     1
102
RTVSPropertyOp29
 70
     1
102
RTVSPropertyOp30
 70
     1
102
RTVSPropertyOp31
 70
     1
102
RTVSPropertyOp32
 70
     1
102
RTVSPropertyOp33
 70
     1
102
RTVSPropertyOp34
 70
     1
102
RTVSPropertyOp35
 70
     1
102
RTVSPropertyOp36
 70
     1
102
RTVSPropertyOp37
 70
     1
102
RTVSPropertyOp38
 70
     1
102
RTVSPropertyOp39
 70
     1
102
RTVSPropertyOp40
 70
     1
102
RTVSPropertyOp41
 70
     1
102
RTVSPropertyOp42
 70
     1
102
RTVSPropertyOp43
 70
     1
102
RTVSPropertyOp44
 70
     1
102
RTVSPropertyOp45
 70
     1
102
RTVSPropertyOp46
 70
     1
102
RTVSPropertyOp47
 70
     1
102
RTVSPropertyOp48
 70
     1
102
RTVSPropertyOp49
 70
     1
102
RTVSPropertyOp50
 70
     1
102
RTVSPropertyOp51
 70
     0
102
RTVSPropertyOp52
 70
     0
102
RTVSPropertyOp53
 70
     1
102
RTVSPropertyOp54
 70
     1
102
RTVSPropertyOp55
 70
     1
102
RTVSPropertyOp56
 70
     1
102
RTVSPropertyOp57
 70
     1
102
RTVSPropertyOp58
 70
     1
102
RTVSPropertyOp59
 70
     1
102
RTVSPropertyOp60
 70
     1
102
RTVSPropertyOp61
 70
     1
102
RTVSPropertyOp62
 70
     1
  0
XRECORD
  5
3D8
102
{ACAD_REACTORS
330
3D7
102
}
330
3D7
100
AcDbXrecord
280
     1
102
RTVSPost2010Prop28
280
     0
102
RTVSPost2010PropOp28
 70
     1
102
RTVSPost2010Prop29
280
     1
102
RTVSPost2010PropOp29
 70
     1
102
RTVSPost2010Prop30
280
     1
102
RTVSPost2010PropOp30
 70
     1
102
RTVSPost2010Prop31
280
     0
102
RTVSPost2010PropOp31
 70
     1
102
RTVSPost2010Prop32
280
     0
102
RTVSPost2010PropOp32
 70
     1
102
RTVSPost2010Prop33
280
     0
102
RTVSPost2010PropOp33
 70
     1
102
RTVSPost2010Prop34
280
     0
102
RTVSPost2010PropOp34
 70
     1
102
RTVSPost2010Prop35
280
     0
102
RTVSPost2010PropOp35
 70
     1
102
RTVSPost2010Prop36
280
     0
102
RTVSPost2010PropOp36
 70
     1
102
RTVSPost2010Prop37
 90
       50
102
RTVSPost2010PropOp37
 70
     1
102
RTVSPost2010Prop38
140
0.0
102
RTVSPost2010PropOp38
 70
     1
102
RTVSPost2010Prop39
140
1.0
102
RTVSPost2010PropOp39
 70
     1
102
RTVSPost2010Prop40
 90
        0
102
RTVSPost2010PropOp40
 70
     1
102
RTVSPost2010Prop41ColorIndex
 90
       18
102
RTVSPost2010Prop41ColorRGB
 90
        0
102
RTVSPost2010PropOp41
 70
     1
102
RTVSPost2010Prop42
 90
       50
102
RTVSPost2010PropOp42
 70
     1
102
RTVSPost2010Prop43
 90
        3
102
RTVSPost2010PropOp43
 70
     1
102
RTVSPost2010Prop44ColorIndex
 90
        5
102
RTVSPost2010Prop44ColorRGB
 90
      255
102
RTVSPost2010PropOp44
 70
     1
102
RTVSPost2010Prop45
280
     0
102
RTVSPost2010PropOp45
 70
     1
102
RTVSPost2010Prop46
 90
       50
102
RTVSPost2010PropOp46
 70
     1
102
RTVSPost2010Prop47
 90
       50
102
RTVSPost2010PropOp47
 70
     1
102
RTVSPost2010Prop48
 90
       50
102
RTVSPost2010PropOp48
 70
     1
102
RTVSPost2010Prop49
280
     0
102
RTVSPost2010PropOp49
 70
     1
102
RTVSPost2010Prop50
 90
       50
102
RTVSPost2010PropOp50
 70
     1
102
RTVSPost2010Prop51ColorIndex
 90
      256
102
RTVSPost2010Prop51ColorRGB
 90
-16777216
102
RTVSPost2010PropOp51
 70
     0
102
RTVSPost2010Prop52
140
1.0
102
RTVSPost2010PropOp52
 70
     0
102
RTVSPost2010Prop53
 90
        2
102
RTVSPost2010PropOp53
 70
     1
102
RTVSPost2010Prop54
  1
strokes_ogs.tif
102
RTVSPost2010PropOp54
 70
     1
102
RTVSPost2010Prop55
280
     0
102
RTVSPost2010PropOp55
 70
     1
102
RTVSPost2010Prop56
140
1.0
102
RTVSPost2010PropOp56
 70
     1
102
RTVSPost2010Prop57
140
1.0
102
RTVSPost2010PropOp57
 70
     1
102
RTVSPropertyOp0
 70
     1
102
RTVSPropertyOp1
 70
     1
102
RTVSPropertyOp2
 70
     1
102
RTVSPropertyOp3
 70
     1
102
RTVSPropertyOp4
 70
     1
102
RTVSPropertyOp5
 70
     1
102
RTVSPropertyOp6
 70
     1
102
RTVSPropertyOp7
 70
     1
102
RTVSPropertyOp8
 70
     1
102
RTVSPropertyOp9
 70
     1
102
RTVSPropertyOp10
 70
     1
102
RTVSPropertyOp11
 70
     1
102
RTVSPropertyOp12
 70
     1
102
RTVSPropertyOp13
 70
     1
102
RTVSPropertyOp14
 70
     1
102
RTVSPropertyOp15
 70
     1
102
RTVSPropertyOp16
 70
     1
102
RTVSPropertyOp17
 70
     1
102
RTVSPropertyOp18
 70
     1
102
RTVSPropertyOp19
 70
     1
102
RTVSPropertyOp20
 70
     1
102
RTVSPropertyOp21
 70
     1
102
RTVSPropertyOp22
 70
     1
102
RTVSPropertyOp23
 70
     1
102
RTVSPropertyOp24
 70
     1
102
RTVSPropertyOp25
 70
     1
102
RTVSPropertyOp26
 70
     1
102
RTVSPropertyOp27
 70
     1
102
RTVSPropertyOp28
 70
     1
102
RTVSPropertyOp29
 70
     1
102
RTVSPropertyOp30
 70
     1
102
RTVSPropertyOp31
 70
     1
102
RTVSPropertyOp32
 70
     1
102
RTVSPropertyOp33
 70
     1
102
RTVSPropertyOp34
 70
     1
102
RTVSPropertyOp35
 70
     1
102
RTVSPropertyOp36
 70
     1
102
RTVSPropertyOp37
 70
     1
102
RTVSPropertyOp38
 70
     1
102
RTVSPropertyOp39
 70
     1
102
RTVSPropertyOp40
 70
     1
102
RTVSPropertyOp41
 70
     1
102
RTVSPropertyOp42
 70
     1
102
RTVSPropertyOp43
 70
     1
102
RTVSPropertyOp44
 70
     1
102
RTVSPropertyOp45
 70
     1
102
RTVSPropertyOp46
 70
     1
102
RTVSPropertyOp47
 70
     1
102
RTVSPropertyOp48
 70
     1
102
RTVSPropertyOp49
 70
     1
102
RTVSPropertyOp50
 70
     1
102
RTVSPropertyOp51
 70
     0
102
RTVSPropertyOp52
 70
     0
102
RTVSPropertyOp53
 70
     1
102
RTVSPropertyOp54
 70
     1
102
RTVSPropertyOp55
 70
     1
102
RTVSPropertyOp56
 70
     1
102
RTVSPropertyOp57
 70
     1
102
RTVSPropertyOp58
 70
     1
102
RTVSPropertyOp59
 70
     1
102
RTVSPropertyOp60
 70
     1
102
RTVSPropertyOp61
 70
     1
102
RTVSPropertyOp62
 70
     1
  0
XRECORD
  5
3E0
102
{ACAD_REACTORS
330
3DF
102
}
330
3DF
100
AcDbXrecord
280
     1
102
RTVSPost2010Prop28
280
     0
102
RTVSPost2010PropOp28
 70
     1
102
RTVSPost2010Prop29
280
     1
102
RTVSPost2010PropOp29
 70
     1
102
RTVSPost2010Prop30
280
     1
102
RTVSPost2010PropOp30
 70
     1
102
RTVSPost2010Prop31
280
     0
102
RTVSPost2010PropOp31
 70
     1
102
RTVSPost2010Prop32
280
     0
102
RTVSPost2010PropOp32
 70
     1
102
RTVSPost2010Prop33
280
     0
102
RTVSPost2010PropOp33
 70
     1
102
RTVSPost2010Prop34
280
     0
102
RTVSPost2010PropOp34
 70
     1
102
RTVSPost2010Prop35
280
     0
102
RTVSPost2010PropOp35
 70
     1
102
RTVSPost2010Prop36
280
     0
102
RTVSPost2010PropOp36
 70
     1
102
RTVSPost2010Prop37
 90
       50
102
RTVSPost2010PropOp37
 70
     1
102
RTVSPost2010Prop38
140
0.0
102
RTVSPost2010PropOp38
 70
     1
102
RTVSPost2010Prop39
140
1.0
102
RTVSPost2010PropOp39
 70
     1
102
RTVSPost2010Prop40
 90
        0
102
RTVSPost2010PropOp40
 70
     1
102
RTVSPost2010Prop41ColorIndex
 90
       18
102
RTVSPost2010Prop41ColorRGB
 90
        0
102
RTVSPost2010PropOp41
 70
     1
102
RTVSPost2010Prop42
 90
       50
102
RTVSPost2010PropOp42
 70
     1
102
RTVSPost2010Prop43
 90
        3
102
RTVSPost2010PropOp43
 70
     1
102
RTVSPost2010Prop44ColorIndex
 90
        5
102
RTVSPost2010Prop44ColorRGB
 90
      255
102
RTVSPost2010PropOp44
 70
     1
102
RTVSPost2010Prop45
280
     0
102
RTVSPost2010PropOp45
 70
     1
102
RTVSPost2010Prop46
 90
       50
102
RTVSPost2010PropOp46
 70
     1
102
RTVSPost2010Prop47
 90
       50
102
RTVSPost2010PropOp47
 70
     1
102
RTVSPost2010Prop48
 90
       50
102
RTVSPost2010PropOp48
 70
     1
102
RTVSPost2010Prop49
280
     0
102
RTVSPost2010PropOp49
 70
     1
102
RTVSPost2010Prop50
 90
       50
102
RTVSPost2010PropOp50
 70
     1
102
RTVSPost2010Prop51ColorIndex
 90
      256
102
RTVSPost2010Prop51ColorRGB
 90
-16777216
102
RTVSPost2010PropOp51
 70
     0
102
RTVSPost2010Prop52
140
1.0
102
RTVSPost2010PropOp52
 70
     0
102
RTVSPost2010Prop53
 90
        2
102
RTVSPost2010PropOp53
 70
     1
102
RTVSPost2010Prop54
  1
strokes_ogs.tif
102
RTVSPost2010PropOp54
 70
     1
102
RTVSPost2010Prop55
280
     0
102
RTVSPost2010PropOp55
 70
     1
102
RTVSPost2010Prop56
140
1.0
102
RTVSPost2010PropOp56
 70
     1
102
RTVSPost2010Prop57
140
1.0
102
RTVSPost2010PropOp57
 70
     1
102
RTVSPropertyOp0
 70
     1
102
RTVSPropertyOp1
 70
     1
102
RTVSPropertyOp2
 70
     1
102
RTVSPropertyOp3
 70
     1
102
RTVSPropertyOp4
 70
     1
102
RTVSPropertyOp5
 70
     1
102
RTVSPropertyOp6
 70
     1
102
RTVSPropertyOp7
 70
     1
102
RTVSPropertyOp8
 70
     1
102
RTVSPropertyOp9
 70
     1
102
RTVSPropertyOp10
 70
     1
102
RTVSPropertyOp11
 70
     1
102
RTVSPropertyOp12
 70
     1
102
RTVSPropertyOp13
 70
     1
102
RTVSPropertyOp14
 70
     1
102
RTVSPropertyOp15
 70
     1
102
RTVSPropertyOp16
 70
     1
102
RTVSPropertyOp17
 70
     1
102
RTVSPropertyOp18
 70
     1
102
RTVSPropertyOp19
 70
     1
102
RTVSPropertyOp20
 70
     1
102
RTVSPropertyOp21
 70
     1
102
RTVSPropertyOp22
 70
     1
102
RTVSPropertyOp23
 70
     1
102
RTVSPropertyOp24
 70
     1
102
RTVSPropertyOp25
 70
     1
102
RTVSPropertyOp26
 70
     1
102
RTVSPropertyOp27
 70
     1
102
RTVSPropertyOp28
 70
     1
102
RTVSPropertyOp29
 70
     1
102
RTVSPropertyOp30
 70
     1
102
RTVSPropertyOp31
 70
     1
102
RTVSPropertyOp32
 70
     1
102
RTVSPropertyOp33
 70
     1
102
RTVSPropertyOp34
 70
     1
102
RTVSPropertyOp35
 70
     1
102
RTVSPropertyOp36
 70
     1
102
RTVSPropertyOp37
 70
     1
102
RTVSPropertyOp38
 70
     1
102
RTVSPropertyOp39
 70
     1
102
RTVSPropertyOp40
 70
     1
102
RTVSPropertyOp41
 70
     1
102
RTVSPropertyOp42
 70
     1
102
RTVSPropertyOp43
 70
     1
102
RTVSPropertyOp44
 70
     1
102
RTVSPropertyOp45
 70
     1
102
RTVSPropertyOp46
 70
     1
102
RTVSPropertyOp47
 70
     1
102
RTVSPropertyOp48
 70
     1
102
RTVSPropertyOp49
 70
     1
102
RTVSPropertyOp50
 70
     1
102
RTVSPropertyOp51
 70
     0
102
RTVSPropertyOp52
 70
     0
102
RTVSPropertyOp53
 70
     1
102
RTVSPropertyOp54
 70
     1
102
RTVSPropertyOp55
 70
     1
102
RTVSPropertyOp56
 70
     1
102
RTVSPropertyOp57
 70
     1
102
RTVSPropertyOp58
 70
     1
102
RTVSPropertyOp59
 70
     1
102
RTVSPropertyOp60
 70
     1
102
RTVSPropertyOp61
 70
     1
102
RTVSPropertyOp62
 70
     1
  0
XRECORD
  5
3D2
102
{ACAD_REACTORS
330
3D1
102
}
330
3D1
100
AcDbXrecord
280
     1
102
RTVSPost2010Prop28
280
     0
102
RTVSPost2010PropOp28
 70
     1
102
RTVSPost2010Prop29
280
     1
102
RTVSPost2010PropOp29
 70
     1
102
RTVSPost2010Prop30
280
     1
102
RTVSPost2010PropOp30
 70
     1
102
RTVSPost2010Prop31
280
     0
102
RTVSPost2010PropOp31
 70
     1
102
RTVSPost2010Prop32
280
     0
102
RTVSPost2010PropOp32
 70
     1
102
RTVSPost2010Prop33
280
     0
102
RTVSPost2010PropOp33
 70
     1
102
RTVSPost2010Prop34
280
     0
102
RTVSPost2010PropOp34
 70
     1
102
RTVSPost2010Prop35
280
     0
102
RTVSPost2010PropOp35
 70
     1
102
RTVSPost2010Prop36
280
     0
102
RTVSPost2010PropOp36
 70
     1
102
RTVSPost2010Prop37
 90
       50
102
RTVSPost2010PropOp37
 70
     1
102
RTVSPost2010Prop38
140
0.0
102
RTVSPost2010PropOp38
 70
     1
102
RTVSPost2010Prop39
140
1.0
102
RTVSPost2010PropOp39
 70
     1
102
RTVSPost2010Prop40
 90
        0
102
RTVSPost2010PropOp40
 70
     1
102
RTVSPost2010Prop41ColorIndex
 90
       18
102
RTVSPost2010Prop41ColorRGB
 90
        0
102
RTVSPost2010PropOp41
 70
     1
102
RTVSPost2010Prop42
 90
       50
102
RTVSPost2010PropOp42
 70
     1
102
RTVSPost2010Prop43
 90
        3
102
RTVSPost2010PropOp43
 70
     1
102
RTVSPost2010Prop44ColorIndex
 90
        5
102
RTVSPost2010Prop44ColorRGB
 90
      255
102
RTVSPost2010PropOp44
 70
     1
102
RTVSPost2010Prop45
280
     0
102
RTVSPost2010PropOp45
 70
     1
102
RTVSPost2010Prop46
 90
       50
102
RTVSPost2010PropOp46
 70
     1
102
RTVSPost2010Prop47
 90
       50
102
RTVSPost2010PropOp47
 70
     1
102
RTVSPost2010Prop48
 90
       50
102
RTVSPost2010PropOp48
 70
     1
102
RTVSPost2010Prop49
280
     0
102
RTVSPost2010PropOp49
 70
     1
102
RTVSPost2010Prop50
 90
       50
102
RTVSPost2010PropOp50
 70
     1
102
RTVSPost2010Prop51ColorIndex
 90
      256
102
RTVSPost2010Prop51ColorRGB
 90
-16777216
102
RTVSPost2010PropOp51
 70
     0
102
RTVSPost2010Prop52
140
1.0
102
RTVSPost2010PropOp52
 70
     0
102
RTVSPost2010Prop53
 90
        2
102
RTVSPost2010PropOp53
 70
     1
102
RTVSPost2010Prop54
  1
strokes_ogs.tif
102
RTVSPost2010PropOp54
 70
     1
102
RTVSPost2010Prop55
280
     0
102
RTVSPost2010PropOp55
 70
     1
102
RTVSPost2010Prop56
140
1.0
102
RTVSPost2010PropOp56
 70
     1
102
RTVSPost2010Prop57
140
1.0
102
RTVSPost2010PropOp57
 70
     1
102
RTVSPropertyOp0
 70
     1
102
RTVSPropertyOp1
 70
     1
102
RTVSPropertyOp2
 70
     1
102
RTVSPropertyOp3
 70
     1
102
RTVSPropertyOp4
 70
     1
102
RTVSPropertyOp5
 70
     1
102
RTVSPropertyOp6
 70
     1
102
RTVSPropertyOp7
 70
     1
102
RTVSPropertyOp8
 70
     1
102
RTVSPropertyOp9
 70
     1
102
RTVSPropertyOp10
 70
     1
102
RTVSPropertyOp11
 70
     1
102
RTVSPropertyOp12
 70
     1
102
RTVSPropertyOp13
 70
     1
102
RTVSPropertyOp14
 70
     1
102
RTVSPropertyOp15
 70
     1
102
RTVSPropertyOp16
 70
     1
102
RTVSPropertyOp17
 70
     1
102
RTVSPropertyOp18
 70
     1
102
RTVSPropertyOp19
 70
     1
102
RTVSPropertyOp20
 70
     1
102
RTVSPropertyOp21
 70
     1
102
RTVSPropertyOp22
 70
     1
102
RTVSPropertyOp23
 70
     1
102
RTVSPropertyOp24
 70
     1
102
RTVSPropertyOp25
 70
     1
102
RTVSPropertyOp26
 70
     1
102
RTVSPropertyOp27
 70
     1
102
RTVSPropertyOp28
 70
     1
102
RTVSPropertyOp29
 70
     1
102
RTVSPropertyOp30
 70
     1
102
RTVSPropertyOp31
 70
     1
102
RTVSPropertyOp32
 70
     1
102
RTVSPropertyOp33
 70
     1
102
RTVSPropertyOp34
 70
     1
102
RTVSPropertyOp35
 70
     1
102
RTVSPropertyOp36
 70
     1
102
RTVSPropertyOp37
 70
     1
102
RTVSPropertyOp38
 70
     1
102
RTVSPropertyOp39
 70
     1
102
RTVSPropertyOp40
 70
     1
102
RTVSPropertyOp41
 70
     1
102
RTVSPropertyOp42
 70
     1
102
RTVSPropertyOp43
 70
     1
102
RTVSPropertyOp44
 70
     1
102
RTVSPropertyOp45
 70
     1
102
RTVSPropertyOp46
 70
     1
102
RTVSPropertyOp47
 70
     1
102
RTVSPropertyOp48
 70
     1
102
RTVSPropertyOp49
 70
     1
102
RTVSPropertyOp50
 70
     1
102
RTVSPropertyOp51
 70
     0
102
RTVSPropertyOp52
 70
     0
102
RTVSPropertyOp53
 70
     1
102
RTVSPropertyOp54
 70
     1
102
RTVSPropertyOp55
 70
     1
102
RTVSPropertyOp56
 70
     1
102
RTVSPropertyOp57
 70
     1
102
RTVSPropertyOp58
 70
     1
102
RTVSPropertyOp59
 70
     1
102
RTVSPropertyOp60
 70
     1
102
RTVSPropertyOp61
 70
     1
102
RTVSPropertyOp62
 70
     1
  0
XRECORD
  5
3D6
102
{ACAD_REACTORS
330
3D5
102
}
330
3D5
100
AcDbXrecord
280
     1
102
RTVSPost2010Prop28
280
     0
102
RTVSPost2010PropOp28
 70
     1
102
RTVSPost2010Prop29
280
     1
102
RTVSPost2010PropOp29
 70
     1
102
RTVSPost2010Prop30
280
     1
102
RTVSPost2010PropOp30
 70
     1
102
RTVSPost2010Prop31
280
     0
102
RTVSPost2010PropOp31
 70
     1
102
RTVSPost2010Prop32
280
     0
102
RTVSPost2010PropOp32
 70
     1
102
RTVSPost2010Prop33
280
     0
102
RTVSPost2010PropOp33
 70
     1
102
RTVSPost2010Prop34
280
     0
102
RTVSPost2010PropOp34
 70
     1
102
RTVSPost2010Prop35
280
     0
102
RTVSPost2010PropOp35
 70
     1
102
RTVSPost2010Prop36
280
     0
102
RTVSPost2010PropOp36
 70
     1
102
RTVSPost2010Prop37
 90
       50
102
RTVSPost2010PropOp37
 70
     1
102
RTVSPost2010Prop38
140
0.0
102
RTVSPost2010PropOp38
 70
     1
102
RTVSPost2010Prop39
140
1.0
102
RTVSPost2010PropOp39
 70
     1
102
RTVSPost2010Prop40
 90
        0
102
RTVSPost2010PropOp40
 70
     1
102
RTVSPost2010Prop41ColorIndex
 90
       18
102
RTVSPost2010Prop41ColorRGB
 90
        0
102
RTVSPost2010PropOp41
 70
     1
102
RTVSPost2010Prop42
 90
       50
102
RTVSPost2010PropOp42
 70
     1
102
RTVSPost2010Prop43
 90
        3
102
RTVSPost2010PropOp43
 70
     1
102
RTVSPost2010Prop44ColorIndex
 90
        5
102
RTVSPost2010Prop44ColorRGB
 90
      255
102
RTVSPost2010PropOp44
 70
     1
102
RTVSPost2010Prop45
280
     0
102
RTVSPost2010PropOp45
 70
     1
102
RTVSPost2010Prop46
 90
       50
102
RTVSPost2010PropOp46
 70
     1
102
RTVSPost2010Prop47
 90
       50
102
RTVSPost2010PropOp47
 70
     1
102
RTVSPost2010Prop48
 90
       50
102
RTVSPost2010PropOp48
 70
     1
102
RTVSPost2010Prop49
280
     0
102
RTVSPost2010PropOp49
 70
     1
102
RTVSPost2010Prop50
 90
       50
102
RTVSPost2010PropOp50
 70
     1
102
RTVSPost2010Prop51ColorIndex
 90
      256
102
RTVSPost2010Prop51ColorRGB
 90
-16777216
102
RTVSPost2010PropOp51
 70
     0
102
RTVSPost2010Prop52
140
1.0
102
RTVSPost2010PropOp52
 70
     0
102
RTVSPost2010Prop53
 90
        2
102
RTVSPost2010PropOp53
 70
     1
102
RTVSPost2010Prop54
  1
strokes_ogs.tif
102
RTVSPost2010PropOp54
 70
     1
102
RTVSPost2010Prop55
280
     0
102
RTVSPost2010PropOp55
 70
     1
102
RTVSPost2010Prop56
140
1.0
102
RTVSPost2010PropOp56
 70
     1
102
RTVSPost2010Prop57
140
1.0
102
RTVSPost2010PropOp57
 70
     1
102
RTVSPropertyOp0
 70
     1
102
RTVSPropertyOp1
 70
     1
102
RTVSPropertyOp2
 70
     1
102
RTVSPropertyOp3
 70
     1
102
RTVSPropertyOp4
 70
     1
102
RTVSPropertyOp5
 70
     1
102
RTVSPropertyOp6
 70
     1
102
RTVSPropertyOp7
 70
     1
102
RTVSPropertyOp8
 70
     1
102
RTVSPropertyOp9
 70
     1
102
RTVSPropertyOp10
 70
     1
102
RTVSPropertyOp11
 70
     1
102
RTVSPropertyOp12
 70
     1
102
RTVSPropertyOp13
 70
     1
102
RTVSPropertyOp14
 70
     1
102
RTVSPropertyOp15
 70
     1
102
RTVSPropertyOp16
 70
     1
102
RTVSPropertyOp17
 70
     1
102
RTVSPropertyOp18
 70
     1
102
RTVSPropertyOp19
 70
     1
102
RTVSPropertyOp20
 70
     1
102
RTVSPropertyOp21
 70
     1
102
RTVSPropertyOp22
 70
     1
102
RTVSPropertyOp23
 70
     1
102
RTVSPropertyOp24
 70
     1
102
RTVSPropertyOp25
 70
     1
102
RTVSPropertyOp26
 70
     1
102
RTVSPropertyOp27
 70
     1
102
RTVSPropertyOp28
 70
     1
102
RTVSPropertyOp29
 70
     1
102
RTVSPropertyOp30
 70
     1
102
RTVSPropertyOp31
 70
     1
102
RTVSPropertyOp32
 70
     1
102
RTVSPropertyOp33
 70
     1
102
RTVSPropertyOp34
 70
     1
102
RTVSPropertyOp35
 70
     1
102
RTVSPropertyOp36
 70
     1
102
RTVSPropertyOp37
 70
     1
102
RTVSPropertyOp38
 70
     1
102
RTVSPropertyOp39
 70
     1
102
RTVSPropertyOp40
 70
     1
102
RTVSPropertyOp41
 70
     1
102
RTVSPropertyOp42
 70
     1
102
RTVSPropertyOp43
 70
     1
102
RTVSPropertyOp44
 70
     1
102
RTVSPropertyOp45
 70
     1
102
RTVSPropertyOp46
 70
     1
102
RTVSPropertyOp47
 70
     1
102
RTVSPropertyOp48
 70
     1
102
RTVSPropertyOp49
 70
     1
102
RTVSPropertyOp50
 70
     1
102
RTVSPropertyOp51
 70
     0
102
RTVSPropertyOp52
 70
     0
102
RTVSPropertyOp53
 70
     1
102
RTVSPropertyOp54
 70
     1
102
RTVSPropertyOp55
 70
     1
102
RTVSPropertyOp56
 70
     1
102
RTVSPropertyOp57
 70
     1
102
RTVSPropertyOp58
 70
     1
102
RTVSPropertyOp59
 70
     1
102
RTVSPropertyOp60
 70
     1
102
RTVSPropertyOp61
 70
     1
102
RTVSPropertyOp62
 70
     1
  0
XRECORD
  5
3F0
102
{ACAD_REACTORS
330
3EF
102
}
330
3EF
100
AcDbXrecord
280
     1
102
RTVSPost2010Prop28
280
     0
102
RTVSPost2010PropOp28
 70
     1
102
RTVSPost2010Prop29
280
     1
102
RTVSPost2010PropOp29
 70
     1
102
RTVSPost2010Prop30
280
     1
102
RTVSPost2010PropOp30
 70
     1
102
RTVSPost2010Prop31
280
     0
102
RTVSPost2010PropOp31
 70
     1
102
RTVSPost2010Prop32
280
     0
102
RTVSPost2010PropOp32
 70
     1
102
RTVSPost2010Prop33
280
     0
102
RTVSPost2010PropOp33
 70
     1
102
RTVSPost2010Prop34
280
     0
102
RTVSPost2010PropOp34
 70
     1
102
RTVSPost2010Prop35
280
     0
102
RTVSPost2010PropOp35
 70
     1
102
RTVSPost2010Prop36
280
     0
102
RTVSPost2010PropOp36
 70
     1
102
RTVSPost2010Prop37
 90
       50
102
RTVSPost2010PropOp37
 70
     0
102
RTVSPost2010Prop38
140
0.0
102
RTVSPost2010PropOp38
 70
     0
102
RTVSPost2010Prop39
140
1.0
102
RTVSPost2010PropOp39
 70
     0
102
RTVSPost2010Prop40
 90
        0
102
RTVSPost2010PropOp40
 70
     0
102
RTVSPost2010Prop41ColorIndex
 90
       18
102
RTVSPost2010Prop41ColorRGB
 90
        0
102
RTVSPost2010PropOp41
 70
     0
102
RTVSPost2010Prop42
 90
       50
102
RTVSPost2010PropOp42
 70
     0
102
RTVSPost2010Prop43
 90
        3
102
RTVSPost2010PropOp43
 70
     0
102
RTVSPost2010Prop44ColorIndex
 90
        5
102
RTVSPost2010Prop44ColorRGB
 90
      255
102
RTVSPost2010PropOp44
 70
     0
102
RTVSPost2010Prop45
280
     0
102
RTVSPost2010PropOp45
 70
     1
102
RTVSPost2010Prop46
 90
       50
102
RTVSPost2010PropOp46
 70
     0
102
RTVSPost2010Prop47
 90
       50
102
RTVSPost2010PropOp47
 70
     0
102
RTVSPost2010Prop48
 90
       50
102
RTVSPost2010PropOp48
 70
     0
102
RTVSPost2010Prop49
280
     0
102
RTVSPost2010PropOp49
 70
     1
102
RTVSPost2010Prop50
 90
       50
102
RTVSPost2010PropOp50
 70
     0
102
RTVSPost2010Prop51ColorIndex
 90
      256
102
RTVSPost2010Prop51ColorRGB
 90
-16777216
102
RTVSPost2010PropOp51
 70
     0
102
RTVSPost2010Prop52
140
1.0
102
RTVSPost2010PropOp52
 70
     0
102
RTVSPost2010Prop53
 90
        2
102
RTVSPost2010PropOp53
 70
     0
102
RTVSPost2010Prop54
  1
strokes_ogs.tif
102
RTVSPost2010PropOp54
 70
     0
102
RTVSPost2010Prop55
280
     0
102
RTVSPost2010PropOp55
 70
     1
102
RTVSPost2010Prop56
140
1.0
102
RTVSPost2010PropOp56
 70
     0
102
RTVSPost2010Prop57
140
1.0
102
RTVSPost2010PropOp57
 70
     0
102
RTVSPropertyOp0
 70
     0
102
RTVSPropertyOp1
 70
     0
102
RTVSPropertyOp2
 70
     0
102
RTVSPropertyOp3
 70
     0
102
RTVSPropertyOp4
 70
     0
102
RTVSPropertyOp5
 70
     0
102
RTVSPropertyOp6
 70
     0
102
RTVSPropertyOp7
 70
     0
102
RTVSPropertyOp8
 70
     0
102
RTVSPropertyOp9
 70
     0
102
RTVSPropertyOp10
 70
     0
102
RTVSPropertyOp11
 70
     0
102
RTVSPropertyOp12
 70
     0
102
RTVSPropertyOp13
 70
     0
102
RTVSPropertyOp14
 70
     2
102
RTVSPropertyOp15
 70
     0
102
RTVSPropertyOp16
 70
     0
102
RTVSPropertyOp17
 70
     0
102
RTVSPropertyOp18
 70
     0
102
RTVSPropertyOp19
 70
     0
102
RTVSPropertyOp20
 70
     0
102
RTVSPropertyOp21
 70
     0
102
RTVSPropertyOp22
 70
     0
102
RTVSPropertyOp23
 70
     0
102
RTVSPropertyOp24
 70
     0
102
RTVSPropertyOp25
 70
     0
102
RTVSPropertyOp26
 70
     0
102
RTVSPropertyOp27
 70
     0
102
RTVSPropertyOp28
 70
     1
102
RTVSPropertyOp29
 70
     1
102
RTVSPropertyOp30
 70
     1
102
RTVSPropertyOp31
 70
     1
102
RTVSPropertyOp32
 70
     1
102
RTVSPropertyOp33
 70
     1
102
RTVSPropertyOp34
 70
     1
102
RTVSPropertyOp35
 70
     1
102
RTVSPropertyOp36
 70
     1
102
RTVSPropertyOp37
 70
     0
102
RTVSPropertyOp38
 70
     0
102
RTVSPropertyOp39
 70
     0
102
RTVSPropertyOp40
 70
     0
102
RTVSPropertyOp41
 70
     0
102
RTVSPropertyOp42
 70
     0
102
RTVSPropertyOp43
 70
     0
102
RTVSPropertyOp44
 70
     0
102
RTVSPropertyOp45
 70
     1
102
RTVSPropertyOp46
 70
     0
102
RTVSPropertyOp47
 70
     0
102
RTVSPropertyOp48
 70
     0
102
RTVSPropertyOp49
 70
     1
102
RTVSPropertyOp50
 70
     0
102
RTVSPropertyOp51
 70
     0
102
RTVSPropertyOp52
 70
     0
102
RTVSPropertyOp53
 70
     0
102
RTVSPropertyOp54
 70
     0
102
RTVSPropertyOp55
 70
     1
102
RTVSPropertyOp56
 70
     0
102
RTVSPropertyOp57
 70
     0
102
RTVSPropertyOp58
 70
     0
102
RTVSPropertyOp59
 70
     0
102
RTVSPropertyOp60
 70
     0
102
RTVSPropertyOp61
 70
     0
102
RTVSPropertyOp62
 70
     0
  0
XRECORD
  5
3DE
102
{ACAD_REACTORS
330
3DD
102
}
330
3DD
100
AcDbXrecord
280
     1
102
RTVSPost2010Prop28
280
     0
102
RTVSPost2010PropOp28
 70
     1
102
RTVSPost2010Prop29
280
     1
102
RTVSPost2010PropOp29
 70
     1
102
RTVSPost2010Prop30
280
     1
102
RTVSPost2010PropOp30
 70
     1
102
RTVSPost2010Prop31
280
     0
102
RTVSPost2010PropOp31
 70
     1
102
RTVSPost2010Prop32
280
     0
102
RTVSPost2010PropOp32
 70
     1
102
RTVSPost2010Prop33
280
     0
102
RTVSPost2010PropOp33
 70
     1
102
RTVSPost2010Prop34
280
     0
102
RTVSPost2010PropOp34
 70
     1
102
RTVSPost2010Prop35
280
     0
102
RTVSPost2010PropOp35
 70
     1
102
RTVSPost2010Prop36
280
     0
102
RTVSPost2010PropOp36
 70
     1
102
RTVSPost2010Prop37
 90
       50
102
RTVSPost2010PropOp37
 70
     1
102
RTVSPost2010Prop38
140
0.0
102
RTVSPost2010PropOp38
 70
     1
102
RTVSPost2010Prop39
140
1.0
102
RTVSPost2010PropOp39
 70
     1
102
RTVSPost2010Prop40
 90
        0
102
RTVSPost2010PropOp40
 70
     1
102
RTVSPost2010Prop41ColorIndex
 90
       18
102
RTVSPost2010Prop41ColorRGB
 90
        0
102
RTVSPost2010PropOp41
 70
     1
102
RTVSPost2010Prop42
 90
       50
102
RTVSPost2010PropOp42
 70
     1
102
RTVSPost2010Prop43
 90
        3
102
RTVSPost2010PropOp43
 70
     1
102
RTVSPost2010Prop44ColorIndex
 90
        5
102
RTVSPost2010Prop44ColorRGB
 90
      255
102
RTVSPost2010PropOp44
 70
     1
102
RTVSPost2010Prop45
280
     0
102
RTVSPost2010PropOp45
 70
     1
102
RTVSPost2010Prop46
 90
       50
102
RTVSPost2010PropOp46
 70
     1
102
RTVSPost2010Prop47
 90
       50
102
RTVSPost2010PropOp47
 70
     1
102
RTVSPost2010Prop48
 90
       50
102
RTVSPost2010PropOp48
 70
     1
102
RTVSPost2010Prop49
280
     0
102
RTVSPost2010PropOp49
 70
     1
102
RTVSPost2010Prop50
 90
       50
102
RTVSPost2010PropOp50
 70
     1
102
RTVSPost2010Prop51ColorIndex
 90
      256
102
RTVSPost2010Prop51ColorRGB
 90
-16777216
102
RTVSPost2010PropOp51
 70
     0
102
RTVSPost2010Prop52
140
1.0
102
RTVSPost2010PropOp52
 70
     0
102
RTVSPost2010Prop53
 90
        2
102
RTVSPost2010PropOp53
 70
     1
102
RTVSPost2010Prop54
  1
strokes_ogs.tif
102
RTVSPost2010PropOp54
 70
     1
102
RTVSPost2010Prop55
280
     0
102
RTVSPost2010PropOp55
 70
     1
102
RTVSPost2010Prop56
140
1.0
102
RTVSPost2010PropOp56
 70
     1
102
RTVSPost2010Prop57
140
1.0
102
RTVSPost2010PropOp57
 70
     1
102
RTVSPropertyOp0
 70
     1
102
RTVSPropertyOp1
 70
     1
102
RTVSPropertyOp2
 70
     1
102
RTVSPropertyOp3
 70
     1
102
RTVSPropertyOp4
 70
     1
102
RTVSPropertyOp5
 70
     1
102
RTVSPropertyOp6
 70
     1
102
RTVSPropertyOp7
 70
     1
102
RTVSPropertyOp8
 70
     1
102
RTVSPropertyOp9
 70
     1
102
RTVSPropertyOp10
 70
     1
102
RTVSPropertyOp11
 70
     1
102
RTVSPropertyOp12
 70
     1
102
RTVSPropertyOp13
 70
     1
102
RTVSPropertyOp14
 70
     1
102
RTVSPropertyOp15
 70
     1
102
RTVSPropertyOp16
 70
     1
102
RTVSPropertyOp17
 70
     1
102
RTVSPropertyOp18
 70
     1
102
RTVSPropertyOp19
 70
     1
102
RTVSPropertyOp20
 70
     1
102
RTVSPropertyOp21
 70
     1
102
RTVSPropertyOp22
 70
     1
102
RTVSPropertyOp23
 70
     1
102
RTVSPropertyOp24
 70
     1
102
RTVSPropertyOp25
 70
     1
102
RTVSPropertyOp26
 70
     1
102
RTVSPropertyOp27
 70
     1
102
RTVSPropertyOp28
 70
     1
102
RTVSPropertyOp29
 70
     1
102
RTVSPropertyOp30
 70
     1
102
RTVSPropertyOp31
 70
     1
102
RTVSPropertyOp32
 70
     1
102
RTVSPropertyOp33
 70
     1
102
RTVSPropertyOp34
 70
     1
102
RTVSPropertyOp35
 70
     1
102
RTVSPropertyOp36
 70
     1
102
RTVSPropertyOp37
 70
     1
102
RTVSPropertyOp38
 70
     1
102
RTVSPropertyOp39
 70
     1
102
RTVSPropertyOp40
 70
     1
102
RTVSPropertyOp41
 70
     1
102
RTVSPropertyOp42
 70
     1
102
RTVSPropertyOp43
 70
     1
102
RTVSPropertyOp44
 70
     1
102
RTVSPropertyOp45
 70
     1
102
RTVSPropertyOp46
 70
     1
102
RTVSPropertyOp47
 70
     1
102
RTVSPropertyOp48
 70
     1
102
RTVSPropertyOp49
 70
     1
102
RTVSPropertyOp50
 70
     1
102
RTVSPropertyOp51
 70
     0
102
RTVSPropertyOp52
 70
     0
102
RTVSPropertyOp53
 70
     1
102
RTVSPropertyOp54
 70
     1
102
RTVSPropertyOp55
 70
     1
102
RTVSPropertyOp56
 70
     1
102
RTVSPropertyOp57
 70
     1
102
RTVSPropertyOp58
 70
     1
102
RTVSPropertyOp59
 70
     1
102
RTVSPropertyOp60
 70
     1
102
RTVSPropertyOp61
 70
     1
102
RTVSPropertyOp62
 70
     1
  0
XRECORD
  5
3C2
102
{ACAD_REACTORS
330
3C1
102
}
330
3C1
100
AcDbXrecord
280
     1
102
RTVSPost2010Prop28
280
     0
102
RTVSPost2010PropOp28
 70
     1
102
RTVSPost2010Prop29
280
     1
102
RTVSPost2010PropOp29
 70
     1
102
RTVSPost2010Prop30
280
     1
102
RTVSPost2010PropOp30
 70
     1
102
RTVSPost2010Prop31
280
     0
102
RTVSPost2010PropOp31
 70
     1
102
RTVSPost2010Prop32
280
     0
102
RTVSPost2010PropOp32
 70
     1
102
RTVSPost2010Prop33
280
     0
102
RTVSPost2010PropOp33
 70
     1
102
RTVSPost2010Prop34
280
     0
102
RTVSPost2010PropOp34
 70
     1
102
RTVSPost2010Prop35
280
     0
102
RTVSPost2010PropOp35
 70
     1
102
RTVSPost2010Prop36
280
     0
102
RTVSPost2010PropOp36
 70
     1
102
RTVSPost2010Prop37
 90
       50
102
RTVSPost2010PropOp37
 70
     1
102
RTVSPost2010Prop38
140
0.0
102
RTVSPost2010PropOp38
 70
     1
102
RTVSPost2010Prop39
140
1.0
102
RTVSPost2010PropOp39
 70
     1
102
RTVSPost2010Prop40
 90
        0
102
RTVSPost2010PropOp40
 70
     1
102
RTVSPost2010Prop41ColorIndex
 90
       18
102
RTVSPost2010Prop41ColorRGB
 90
        0
102
RTVSPost2010PropOp41
 70
     1
102
RTVSPost2010Prop42
 90
       50
102
RTVSPost2010PropOp42
 70
     1
102
RTVSPost2010Prop43
 90
        3
102
RTVSPost2010PropOp43
 70
     1
102
RTVSPost2010Prop44ColorIndex
 90
        5
102
RTVSPost2010Prop44ColorRGB
 90
      255
102
RTVSPost2010PropOp44
 70
     1
102
RTVSPost2010Prop45
280
     0
102
RTVSPost2010PropOp45
 70
     1
102
RTVSPost2010Prop46
 90
       50
102
RTVSPost2010PropOp46
 70
     1
102
RTVSPost2010Prop47
 90
       50
102
RTVSPost2010PropOp47
 70
     1
102
RTVSPost2010Prop48
 90
       50
102
RTVSPost2010PropOp48
 70
     1
102
RTVSPost2010Prop49
280
     0
102
RTVSPost2010PropOp49
 70
     1
102
RTVSPost2010Prop50
 90
       50
102
RTVSPost2010PropOp50
 70
     1
102
RTVSPost2010Prop51ColorIndex
 90
      256
102
RTVSPost2010Prop51ColorRGB
 90
-16777216
102
RTVSPost2010PropOp51
 70
     0
102
RTVSPost2010Prop52
140
1.0
102
RTVSPost2010PropOp52
 70
     0
102
RTVSPost2010Prop53
 90
        2
102
RTVSPost2010PropOp53
 70
     1
102
RTVSPost2010Prop54
  1
strokes_ogs.tif
102
RTVSPost2010PropOp54
 70
     1
102
RTVSPost2010Prop55
280
     0
102
RTVSPost2010PropOp55
 70
     1
102
RTVSPost2010Prop56
140
1.0
102
RTVSPost2010PropOp56
 70
     1
102
RTVSPost2010Prop57
140
1.0
102
RTVSPost2010PropOp57
 70
     1
102
RTVSPropertyOp0
 70
     1
102
RTVSPropertyOp1
 70
     1
102
RTVSPropertyOp2
 70
     1
102
RTVSPropertyOp3
 70
     1
102
RTVSPropertyOp4
 70
     1
102
RTVSPropertyOp5
 70
     1
102
RTVSPropertyOp6
 70
     1
102
RTVSPropertyOp7
 70
     1
102
RTVSPropertyOp8
 70
     1
102
RTVSPropertyOp9
 70
     1
102
RTVSPropertyOp10
 70
     1
102
RTVSPropertyOp11
 70
     1
102
RTVSPropertyOp12
 70
     1
102
RTVSPropertyOp13
 70
     1
102
RTVSPropertyOp14
 70
     1
102
RTVSPropertyOp15
 70
     1
102
RTVSPropertyOp16
 70
     1
102
RTVSPropertyOp17
 70
     1
102
RTVSPropertyOp18
 70
     1
102
RTVSPropertyOp19
 70
     1
102
RTVSPropertyOp20
 70
     1
102
RTVSPropertyOp21
 70
     1
102
RTVSPropertyOp22
 70
     1
102
RTVSPropertyOp23
 70
     1
102
RTVSPropertyOp24
 70
     1
102
RTVSPropertyOp25
 70
     1
102
RTVSPropertyOp26
 70
     1
102
RTVSPropertyOp27
 70
     1
102
RTVSPropertyOp28
 70
     1
102
RTVSPropertyOp29
 70
     1
102
RTVSPropertyOp30
 70
     1
102
RTVSPropertyOp31
 70
     1
102
RTVSPropertyOp32
 70
     1
102
RTVSPropertyOp33
 70
     1
102
RTVSPropertyOp34
 70
     1
102
RTVSPropertyOp35
 70
     1
102
RTVSPropertyOp36
 70
     1
102
RTVSPropertyOp37
 70
     1
102
RTVSPropertyOp38
 70
     1
102
RTVSPropertyOp39
 70
     1
102
RTVSPropertyOp40
 70
     1
102
RTVSPropertyOp41
 70
     1
102
RTVSPropertyOp42
 70
     1
102
RTVSPropertyOp43
 70
     1
102
RTVSPropertyOp44
 70
     1
102
RTVSPropertyOp45
 70
     1
102
RTVSPropertyOp46
 70
     1
102
RTVSPropertyOp47
 70
     1
102
RTVSPropertyOp48
 70
     1
102
RTVSPropertyOp49
 70
     1
102
RTVSPropertyOp50
 70
     1
102
RTVSPropertyOp51
 70
     0
102
RTVSPropertyOp52
 70
     0
102
RTVSPropertyOp53
 70
     1
102
RTVSPropertyOp54
 70
     1
102
RTVSPropertyOp55
 70
     1
102
RTVSPropertyOp56
 70
     1
102
RTVSPropertyOp57
 70
     1
102
RTVSPropertyOp58
 70
     1
102
RTVSPropertyOp59
 70
     1
102
RTVSPropertyOp60
 70
     1
102
RTVSPropertyOp61
 70
     1
102
RTVSPropertyOp62
 70
     1
  0
XRECORD
  5
3C4
102
{ACAD_REACTORS
330
3C3
102
}
330
3C3
100
AcDbXrecord
280
     1
102
RTVSPost2010Prop28
280
     0
102
RTVSPost2010PropOp28
 70
     1
102
RTVSPost2010Prop29
280
     1
102
RTVSPost2010PropOp29
 70
     1
102
RTVSPost2010Prop30
280
     1
102
RTVSPost2010PropOp30
 70
     1
102
RTVSPost2010Prop31
280
     0
102
RTVSPost2010PropOp31
 70
     1
102
RTVSPost2010Prop32
280
     0
102
RTVSPost2010PropOp32
 70
     1
102
RTVSPost2010Prop33
280
     0
102
RTVSPost2010PropOp33
 70
     1
102
RTVSPost2010Prop34
280
     0
102
RTVSPost2010PropOp34
 70
     1
102
RTVSPost2010Prop35
280
     0
102
RTVSPost2010PropOp35
 70
     1
102
RTVSPost2010Prop36
280
     0
102
RTVSPost2010PropOp36
 70
     1
102
RTVSPost2010Prop37
 90
       50
102
RTVSPost2010PropOp37
 70
     1
102
RTVSPost2010Prop38
140
0.0
102
RTVSPost2010PropOp38
 70
     1
102
RTVSPost2010Prop39
140
1.0
102
RTVSPost2010PropOp39
 70
     1
102
RTVSPost2010Prop40
 90
        0
102
RTVSPost2010PropOp40
 70
     1
102
RTVSPost2010Prop41ColorIndex
 90
       18
102
RTVSPost2010Prop41ColorRGB
 90
        0
102
RTVSPost2010PropOp41
 70
     1
102
RTVSPost2010Prop42
 90
       50
102
RTVSPost2010PropOp42
 70
     1
102
RTVSPost2010Prop43
 90
        3
102
RTVSPost2010PropOp43
 70
     1
102
RTVSPost2010Prop44ColorIndex
 90
        5
102
RTVSPost2010Prop44ColorRGB
 90
      255
102
RTVSPost2010PropOp44
 70
     1
102
RTVSPost2010Prop45
280
     0
102
RTVSPost2010PropOp45
 70
     1
102
RTVSPost2010Prop46
 90
       50
102
RTVSPost2010PropOp46
 70
     1
102
RTVSPost2010Prop47
 90
       50
102
RTVSPost2010PropOp47
 70
     1
102
RTVSPost2010Prop48
 90
       50
102
RTVSPost2010PropOp48
 70
     1
102
RTVSPost2010Prop49
280
     0
102
RTVSPost2010PropOp49
 70
     1
102
RTVSPost2010Prop50
 90
       50
102
RTVSPost2010PropOp50
 70
     1
102
RTVSPost2010Prop51ColorIndex
 90
      256
102
RTVSPost2010Prop51ColorRGB
 90
-16777216
102
RTVSPost2010PropOp51
 70
     0
102
RTVSPost2010Prop52
140
1.0
102
RTVSPost2010PropOp52
 70
     0
102
RTVSPost2010Prop53
 90
        2
102
RTVSPost2010PropOp53
 70
     1
102
RTVSPost2010Prop54
  1
strokes_ogs.tif
102
RTVSPost2010PropOp54
 70
     1
102
RTVSPost2010Prop55
280
     0
102
RTVSPost2010PropOp55
 70
     1
102
RTVSPost2010Prop56
140
1.0
102
RTVSPost2010PropOp56
 70
     1
102
RTVSPost2010Prop57
140
1.0
102
RTVSPost2010PropOp57
 70
     1
102
RTVSPropertyOp0
 70
     1
102
RTVSPropertyOp1
 70
     1
102
RTVSPropertyOp2
 70
     1
102
RTVSPropertyOp3
 70
     1
102
RTVSPropertyOp4
 70
     1
102
RTVSPropertyOp5
 70
     1
102
RTVSPropertyOp6
 70
     1
102
RTVSPropertyOp7
 70
     1
102
RTVSPropertyOp8
 70
     1
102
RTVSPropertyOp9
 70
     1
102
RTVSPropertyOp10
 70
     1
102
RTVSPropertyOp11
 70
     1
102
RTVSPropertyOp12
 70
     1
102
RTVSPropertyOp13
 70
     1
102
RTVSPropertyOp14
 70
     1
102
RTVSPropertyOp15
 70
     1
102
RTVSPropertyOp16
 70
     1
102
RTVSPropertyOp17
 70
     1
102
RTVSPropertyOp18
 70
     1
102
RTVSPropertyOp19
 70
     1
102
RTVSPropertyOp20
 70
     1
102
RTVSPropertyOp21
 70
     1
102
RTVSPropertyOp22
 70
     1
102
RTVSPropertyOp23
 70
     1
102
RTVSPropertyOp24
 70
     1
102
RTVSPropertyOp25
 70
     1
102
RTVSPropertyOp26
 70
     1
102
RTVSPropertyOp27
 70
     1
102
RTVSPropertyOp28
 70
     1
102
RTVSPropertyOp29
 70
     1
102
RTVSPropertyOp30
 70
     1
102
RTVSPropertyOp31
 70
     1
102
RTVSPropertyOp32
 70
     1
102
RTVSPropertyOp33
 70
     1
102
RTVSPropertyOp34
 70
     1
102
RTVSPropertyOp35
 70
     1
102
RTVSPropertyOp36
 70
     1
102
RTVSPropertyOp37
 70
     1
102
RTVSPropertyOp38
 70
     1
102
RTVSPropertyOp39
 70
     1
102
RTVSPropertyOp40
 70
     1
102
RTVSPropertyOp41
 70
     1
102
RTVSPropertyOp42
 70
     1
102
RTVSPropertyOp43
 70
     1
102
RTVSPropertyOp44
 70
     1
102
RTVSPropertyOp45
 70
     1
102
RTVSPropertyOp46
 70
     1
102
RTVSPropertyOp47
 70
     1
102
RTVSPropertyOp48
 70
     1
102
RTVSPropertyOp49
 70
     1
102
RTVSPropertyOp50
 70
     1
102
RTVSPropertyOp51
 70
     0
102
RTVSPropertyOp52
 70
     0
102
RTVSPropertyOp53
 70
     1
102
RTVSPropertyOp54
 70
     1
102
RTVSPropertyOp55
 70
     1
102
RTVSPropertyOp56
 70
     1
102
RTVSPropertyOp57
 70
     1
102
RTVSPropertyOp58
 70
     1
102
RTVSPropertyOp59
 70
     1
102
RTVSPropertyOp60
 70
     1
102
RTVSPropertyOp61
 70
     1
102
RTVSPropertyOp62
 70
     1
  0
XRECORD
  5
3C6
102
{ACAD_REACTORS
330
3C5
102
}
330
3C5
100
AcDbXrecord
280
     1
102
RTVSPost2010Prop28
280
     0
102
RTVSPost2010PropOp28
 70
     1
102
RTVSPost2010Prop29
280
     1
102
RTVSPost2010PropOp29
 70
     1
102
RTVSPost2010Prop30
280
     1
102
RTVSPost2010PropOp30
 70
     1
102
RTVSPost2010Prop31
280
     0
102
RTVSPost2010PropOp31
 70
     1
102
RTVSPost2010Prop32
280
     0
102
RTVSPost2010PropOp32
 70
     1
102
RTVSPost2010Prop33
280
     0
102
RTVSPost2010PropOp33
 70
     1
102
RTVSPost2010Prop34
280
     0
102
RTVSPost2010PropOp34
 70
     1
102
RTVSPost2010Prop35
280
     0
102
RTVSPost2010PropOp35
 70
     1
102
RTVSPost2010Prop36
280
     0
102
RTVSPost2010PropOp36
 70
     1
102
RTVSPost2010Prop37
 90
       50
102
RTVSPost2010PropOp37
 70
     1
102
RTVSPost2010Prop38
140
0.0
102
RTVSPost2010PropOp38
 70
     1
102
RTVSPost2010Prop39
140
1.0
102
RTVSPost2010PropOp39
 70
     1
102
RTVSPost2010Prop40
 90
        0
102
RTVSPost2010PropOp40
 70
     1
102
RTVSPost2010Prop41ColorIndex
 90
       18
102
RTVSPost2010Prop41ColorRGB
 90
        0
102
RTVSPost2010PropOp41
 70
     1
102
RTVSPost2010Prop42
 90
       50
102
RTVSPost2010PropOp42
 70
     1
102
RTVSPost2010Prop43
 90
        3
102
RTVSPost2010PropOp43
 70
     1
102
RTVSPost2010Prop44ColorIndex
 90
        5
102
RTVSPost2010Prop44ColorRGB
 90
      255
102
RTVSPost2010PropOp44
 70
     1
102
RTVSPost2010Prop45
280
     0
102
RTVSPost2010PropOp45
 70
     1
102
RTVSPost2010Prop46
 90
       50
102
RTVSPost2010PropOp46
 70
     1
102
RTVSPost2010Prop47
 90
       50
102
RTVSPost2010PropOp47
 70
     1
102
RTVSPost2010Prop48
 90
       50
102
RTVSPost2010PropOp48
 70
     1
102
RTVSPost2010Prop49
280
     0
102
RTVSPost2010PropOp49
 70
     1
102
RTVSPost2010Prop50
 90
       50
102
RTVSPost2010PropOp50
 70
     1
102
RTVSPost2010Prop51ColorIndex
 90
      256
102
RTVSPost2010Prop51ColorRGB
 90
-16777216
102
RTVSPost2010PropOp51
 70
     0
102
RTVSPost2010Prop52
140
1.0
102
RTVSPost2010PropOp52
 70
     0
102
RTVSPost2010Prop53
 90
        2
102
RTVSPost2010PropOp53
 70
     1
102
RTVSPost2010Prop54
  1
strokes_ogs.tif
102
RTVSPost2010PropOp54
 70
     1
102
RTVSPost2010Prop55
280
     0
102
RTVSPost2010PropOp55
 70
     1
102
RTVSPost2010Prop56
140
1.0
102
RTVSPost2010PropOp56
 70
     1
102
RTVSPost2010Prop57
140
1.0
102
RTVSPost2010PropOp57
 70
     1
102
RTVSPropertyOp0
 70
     1
102
RTVSPropertyOp1
 70
     1
102
RTVSPropertyOp2
 70
     1
102
RTVSPropertyOp3
 70
     1
102
RTVSPropertyOp4
 70
     1
102
RTVSPropertyOp5
 70
     1
102
RTVSPropertyOp6
 70
     1
102
RTVSPropertyOp7
 70
     1
102
RTVSPropertyOp8
 70
     1
102
RTVSPropertyOp9
 70
     1
102
RTVSPropertyOp10
 70
     1
102
RTVSPropertyOp11
 70
     1
102
RTVSPropertyOp12
 70
     1
102
RTVSPropertyOp13
 70
     1
102
RTVSPropertyOp14
 70
     1
102
RTVSPropertyOp15
 70
     1
102
RTVSPropertyOp16
 70
     1
102
RTVSPropertyOp17
 70
     1
102
RTVSPropertyOp18
 70
     1
102
RTVSPropertyOp19
 70
     1
102
RTVSPropertyOp20
 70
     1
102
RTVSPropertyOp21
 70
     1
102
RTVSPropertyOp22
 70
     1
102
RTVSPropertyOp23
 70
     1
102
RTVSPropertyOp24
 70
     1
102
RTVSPropertyOp25
 70
     1
102
RTVSPropertyOp26
 70
     1
102
RTVSPropertyOp27
 70
     1
102
RTVSPropertyOp28
 70
     1
102
RTVSPropertyOp29
 70
     1
102
RTVSPropertyOp30
 70
     1
102
RTVSPropertyOp31
 70
     1
102
RTVSPropertyOp32
 70
     1
102
RTVSPropertyOp33
 70
     1
102
RTVSPropertyOp34
 70
     1
102
RTVSPropertyOp35
 70
     1
102
RTVSPropertyOp36
 70
     1
102
RTVSPropertyOp37
 70
     1
102
RTVSPropertyOp38
 70
     1
102
RTVSPropertyOp39
 70
     1
102
RTVSPropertyOp40
 70
     1
102
RTVSPropertyOp41
 70
     1
102
RTVSPropertyOp42
 70
     1
102
RTVSPropertyOp43
 70
     1
102
RTVSPropertyOp44
 70
     1
102
RTVSPropertyOp45
 70
     1
102
RTVSPropertyOp46
 70
     1
102
RTVSPropertyOp47
 70
     1
102
RTVSPropertyOp48
 70
     1
102
RTVSPropertyOp49
 70
     1
102
RTVSPropertyOp50
 70
     1
102
RTVSPropertyOp51
 70
     0
102
RTVSPropertyOp52
 70
     0
102
RTVSPropertyOp53
 70
     1
102
RTVSPropertyOp54
 70
     1
102
RTVSPropertyOp55
 70
     1
102
RTVSPropertyOp56
 70
     1
102
RTVSPropertyOp57
 70
     1
102
RTVSPropertyOp58
 70
     1
102
RTVSPropertyOp59
 70
     1
102
RTVSPropertyOp60
 70
     1
102
RTVSPropertyOp61
 70
     1
102
RTVSPropertyOp62
 70
     1
  0
XRECORD
  5
3C8
102
{ACAD_REACTORS
330
3C7
102
}
330
3C7
100
AcDbXrecord
280
     1
102
RTVSPost2010Prop28
280
     0
102
RTVSPost2010PropOp28
 70
     1
102
RTVSPost2010Prop29
280
     1
102
RTVSPost2010PropOp29
 70
     1
102
RTVSPost2010Prop30
280
     1
102
RTVSPost2010PropOp30
 70
     1
102
RTVSPost2010Prop31
280
     0
102
RTVSPost2010PropOp31
 70
     1
102
RTVSPost2010Prop32
280
     0
102
RTVSPost2010PropOp32
 70
     1
102
RTVSPost2010Prop33
280
     0
102
RTVSPost2010PropOp33
 70
     1
102
RTVSPost2010Prop34
280
     0
102
RTVSPost2010PropOp34
 70
     1
102
RTVSPost2010Prop35
280
     0
102
RTVSPost2010PropOp35
 70
     1
102
RTVSPost2010Prop36
280
     0
102
RTVSPost2010PropOp36
 70
     1
102
RTVSPost2010Prop37
 90
       50
102
RTVSPost2010PropOp37
 70
     1
102
RTVSPost2010Prop38
140
0.0
102
RTVSPost2010PropOp38
 70
     1
102
RTVSPost2010Prop39
140
1.0
102
RTVSPost2010PropOp39
 70
     1
102
RTVSPost2010Prop40
 90
        0
102
RTVSPost2010PropOp40
 70
     1
102
RTVSPost2010Prop41ColorIndex
 90
       18
102
RTVSPost2010Prop41ColorRGB
 90
        0
102
RTVSPost2010PropOp41
 70
     1
102
RTVSPost2010Prop42
 90
       50
102
RTVSPost2010PropOp42
 70
     1
102
RTVSPost2010Prop43
 90
        3
102
RTVSPost2010PropOp43
 70
     1
102
RTVSPost2010Prop44ColorIndex
 90
        5
102
RTVSPost2010Prop44ColorRGB
 90
      255
102
RTVSPost2010PropOp44
 70
     1
102
RTVSPost2010Prop45
280
     0
102
RTVSPost2010PropOp45
 70
     1
102
RTVSPost2010Prop46
 90
       50
102
RTVSPost2010PropOp46
 70
     1
102
RTVSPost2010Prop47
 90
       50
102
RTVSPost2010PropOp47
 70
     1
102
RTVSPost2010Prop48
 90
       50
102
RTVSPost2010PropOp48
 70
     1
102
RTVSPost2010Prop49
280
     0
102
RTVSPost2010PropOp49
 70
     1
102
RTVSPost2010Prop50
 90
       50
102
RTVSPost2010PropOp50
 70
     1
102
RTVSPost2010Prop51ColorIndex
 90
      256
102
RTVSPost2010Prop51ColorRGB
 90
-16777216
102
RTVSPost2010PropOp51
 70
     0
102
RTVSPost2010Prop52
140
1.0
102
RTVSPost2010PropOp52
 70
     0
102
RTVSPost2010Prop53
 90
        2
102
RTVSPost2010PropOp53
 70
     1
102
RTVSPost2010Prop54
  1
strokes_ogs.tif
102
RTVSPost2010PropOp54
 70
     1
102
RTVSPost2010Prop55
280
     0
102
RTVSPost2010PropOp55
 70
     1
102
RTVSPost2010Prop56
140
1.0
102
RTVSPost2010PropOp56
 70
     1
102
RTVSPost2010Prop57
140
1.0
102
RTVSPost2010PropOp57
 70
     1
102
RTVSPropertyOp0
 70
     1
102
RTVSPropertyOp1
 70
     1
102
RTVSPropertyOp2
 70
     1
102
RTVSPropertyOp3
 70
     1
102
RTVSPropertyOp4
 70
     1
102
RTVSPropertyOp5
 70
     1
102
RTVSPropertyOp6
 70
     1
102
RTVSPropertyOp7
 70
     1
102
RTVSPropertyOp8
 70
     1
102
RTVSPropertyOp9
 70
     1
102
RTVSPropertyOp10
 70
     1
102
RTVSPropertyOp11
 70
     1
102
RTVSPropertyOp12
 70
     1
102
RTVSPropertyOp13
 70
     1
102
RTVSPropertyOp14
 70
     1
102
RTVSPropertyOp15
 70
     1
102
RTVSPropertyOp16
 70
     1
102
RTVSPropertyOp17
 70
     1
102
RTVSPropertyOp18
 70
     1
102
RTVSPropertyOp19
 70
     1
102
RTVSPropertyOp20
 70
     1
102
RTVSPropertyOp21
 70
     1
102
RTVSPropertyOp22
 70
     1
102
RTVSPropertyOp23
 70
     1
102
RTVSPropertyOp24
 70
     1
102
RTVSPropertyOp25
 70
     1
102
RTVSPropertyOp26
 70
     1
102
RTVSPropertyOp27
 70
     1
102
RTVSPropertyOp28
 70
     1
102
RTVSPropertyOp29
 70
     1
102
RTVSPropertyOp30
 70
     1
102
RTVSPropertyOp31
 70
     1
102
RTVSPropertyOp32
 70
     1
102
RTVSPropertyOp33
 70
     1
102
RTVSPropertyOp34
 70
     1
102
RTVSPropertyOp35
 70
     1
102
RTVSPropertyOp36
 70
     1
102
RTVSPropertyOp37
 70
     1
102
RTVSPropertyOp38
 70
     1
102
RTVSPropertyOp39
 70
     1
102
RTVSPropertyOp40
 70
     1
102
RTVSPropertyOp41
 70
     1
102
RTVSPropertyOp42
 70
     1
102
RTVSPropertyOp43
 70
     1
102
RTVSPropertyOp44
 70
     1
102
RTVSPropertyOp45
 70
     1
102
RTVSPropertyOp46
 70
     1
102
RTVSPropertyOp47
 70
     1
102
RTVSPropertyOp48
 70
     1
102
RTVSPropertyOp49
 70
     1
102
RTVSPropertyOp50
 70
     1
102
RTVSPropertyOp51
 70
     0
102
RTVSPropertyOp52
 70
     0
102
RTVSPropertyOp53
 70
     1
102
RTVSPropertyOp54
 70
     1
102
RTVSPropertyOp55
 70
     1
102
RTVSPropertyOp56
 70
     1
102
RTVSPropertyOp57
 70
     1
102
RTVSPropertyOp58
 70
     1
102
RTVSPropertyOp59
 70
     1
102
RTVSPropertyOp60
 70
     1
102
RTVSPropertyOp61
 70
     1
102
RTVSPropertyOp62
 70
     1
  0
XRECORD
  5
3D0
102
{ACAD_REACTORS
330
3CF
102
}
330
3CF
100
AcDbXrecord
280
     1
102
RTVSPost2010Prop28
280
     0
102
RTVSPost2010PropOp28
 70
     1
102
RTVSPost2010Prop29
280
     1
102
RTVSPost2010PropOp29
 70
     1
102
RTVSPost2010Prop30
280
     1
102
RTVSPost2010PropOp30
 70
     1
102
RTVSPost2010Prop31
280
     0
102
RTVSPost2010PropOp31
 70
     1
102
RTVSPost2010Prop32
280
     0
102
RTVSPost2010PropOp32
 70
     1
102
RTVSPost2010Prop33
280
     0
102
RTVSPost2010PropOp33
 70
     1
102
RTVSPost2010Prop34
280
     0
102
RTVSPost2010PropOp34
 70
     1
102
RTVSPost2010Prop35
280
     0
102
RTVSPost2010PropOp35
 70
     1
102
RTVSPost2010Prop36
280
     0
102
RTVSPost2010PropOp36
 70
     1
102
RTVSPost2010Prop37
 90
       50
102
RTVSPost2010PropOp37
 70
     1
102
RTVSPost2010Prop38
140
0.0
102
RTVSPost2010PropOp38
 70
     1
102
RTVSPost2010Prop39
140
1.0
102
RTVSPost2010PropOp39
 70
     1
102
RTVSPost2010Prop40
 90
        0
102
RTVSPost2010PropOp40
 70
     1
102
RTVSPost2010Prop41ColorIndex
 90
       18
102
RTVSPost2010Prop41ColorRGB
 90
        0
102
RTVSPost2010PropOp41
 70
     1
102
RTVSPost2010Prop42
 90
       50
102
RTVSPost2010PropOp42
 70
     1
102
RTVSPost2010Prop43
 90
        3
102
RTVSPost2010PropOp43
 70
     1
102
RTVSPost2010Prop44ColorIndex
 90
        5
102
RTVSPost2010Prop44ColorRGB
 90
      255
102
RTVSPost2010PropOp44
 70
     1
102
RTVSPost2010Prop45
280
     0
102
RTVSPost2010PropOp45
 70
     1
102
RTVSPost2010Prop46
 90
       50
102
RTVSPost2010PropOp46
 70
     1
102
RTVSPost2010Prop47
 90
       50
102
RTVSPost2010PropOp47
 70
     1
102
RTVSPost2010Prop48
 90
       50
102
RTVSPost2010PropOp48
 70
     1
102
RTVSPost2010Prop49
280
     0
102
RTVSPost2010PropOp49
 70
     1
102
RTVSPost2010Prop50
 90
       50
102
RTVSPost2010PropOp50
 70
     1
102
RTVSPost2010Prop51ColorIndex
 90
      256
102
RTVSPost2010Prop51ColorRGB
 90
-16777216
102
RTVSPost2010PropOp51
 70
     0
102
RTVSPost2010Prop52
140
1.0
102
RTVSPost2010PropOp52
 70
     0
102
RTVSPost2010Prop53
 90
        2
102
RTVSPost2010PropOp53
 70
     1
102
RTVSPost2010Prop54
  1
strokes_ogs.tif
102
RTVSPost2010PropOp54
 70
     1
102
RTVSPost2010Prop55
280
     0
102
RTVSPost2010PropOp55
 70
     1
102
RTVSPost2010Prop56
140
1.0
102
RTVSPost2010PropOp56
 70
     1
102
RTVSPost2010Prop57
140
1.0
102
RTVSPost2010PropOp57
 70
     1
102
RTVSPropertyOp0
 70
     1
102
RTVSPropertyOp1
 70
     1
102
RTVSPropertyOp2
 70
     1
102
RTVSPropertyOp3
 70
     1
102
RTVSPropertyOp4
 70
     1
102
RTVSPropertyOp5
 70
     1
102
RTVSPropertyOp6
 70
     1
102
RTVSPropertyOp7
 70
     1
102
RTVSPropertyOp8
 70
     1
102
RTVSPropertyOp9
 70
     1
102
RTVSPropertyOp10
 70
     1
102
RTVSPropertyOp11
 70
     1
102
RTVSPropertyOp12
 70
     1
102
RTVSPropertyOp13
 70
     1
102
RTVSPropertyOp14
 70
     1
102
RTVSPropertyOp15
 70
     1
102
RTVSPropertyOp16
 70
     1
102
RTVSPropertyOp17
 70
     1
102
RTVSPropertyOp18
 70
     1
102
RTVSPropertyOp19
 70
     1
102
RTVSPropertyOp20
 70
     1
102
RTVSPropertyOp21
 70
     1
102
RTVSPropertyOp22
 70
     1
102
RTVSPropertyOp23
 70
     1
102
RTVSPropertyOp24
 70
     1
102
RTVSPropertyOp25
 70
     1
102
RTVSPropertyOp26
 70
     1
102
RTVSPropertyOp27
 70
     1
102
RTVSPropertyOp28
 70
     1
102
RTVSPropertyOp29
 70
     1
102
RTVSPropertyOp30
 70
     1
102
RTVSPropertyOp31
 70
     1
102
RTVSPropertyOp32
 70
     1
102
RTVSPropertyOp33
 70
     1
102
RTVSPropertyOp34
 70
     1
102
RTVSPropertyOp35
 70
     1
102
RTVSPropertyOp36
 70
     1
102
RTVSPropertyOp37
 70
     1
102
RTVSPropertyOp38
 70
     1
102
RTVSPropertyOp39
 70
     1
102
RTVSPropertyOp40
 70
     1
102
RTVSPropertyOp41
 70
     1
102
RTVSPropertyOp42
 70
     1
102
RTVSPropertyOp43
 70
     1
102
RTVSPropertyOp44
 70
     1
102
RTVSPropertyOp45
 70
     1
102
RTVSPropertyOp46
 70
     1
102
RTVSPropertyOp47
 70
     1
102
RTVSPropertyOp48
 70
     1
102
RTVSPropertyOp49
 70
     1
102
RTVSPropertyOp50
 70
     1
102
RTVSPropertyOp51
 70
     0
102
RTVSPropertyOp52
 70
     0
102
RTVSPropertyOp53
 70
     1
102
RTVSPropertyOp54
 70
     1
102
RTVSPropertyOp55
 70
     1
102
RTVSPropertyOp56
 70
     1
102
RTVSPropertyOp57
 70
     1
102
RTVSPropertyOp58
 70
     1
102
RTVSPropertyOp59
 70
     1
102
RTVSPropertyOp60
 70
     1
102
RTVSPropertyOp61
 70
     1
102
RTVSPropertyOp62
 70
     1
  0
XRECORD
  5
3EC
102
{ACAD_REACTORS
330
3EB
102
}
330
3EB
100
AcDbXrecord
280
     1
102
RTVSPost2010Prop28
280
     0
102
RTVSPost2010PropOp28
 70
     1
102
RTVSPost2010Prop29
280
     1
102
RTVSPost2010PropOp29
 70
     1
102
RTVSPost2010Prop30
280
     1
102
RTVSPost2010PropOp30
 70
     1
102
RTVSPost2010Prop31
280
     0
102
RTVSPost2010PropOp31
 70
     1
102
RTVSPost2010Prop32
280
     0
102
RTVSPost2010PropOp32
 70
     1
102
RTVSPost2010Prop33
280
     0
102
RTVSPost2010PropOp33
 70
     1
102
RTVSPost2010Prop34
280
     0
102
RTVSPost2010PropOp34
 70
     1
102
RTVSPost2010Prop35
280
     0
102
RTVSPost2010PropOp35
 70
     1
102
RTVSPost2010Prop36
280
     0
102
RTVSPost2010PropOp36
 70
     1
102
RTVSPost2010Prop37
 90
       50
102
RTVSPost2010PropOp37
 70
     0
102
RTVSPost2010Prop38
140
0.0
102
RTVSPost2010PropOp38
 70
     0
102
RTVSPost2010Prop39
140
1.0
102
RTVSPost2010PropOp39
 70
     0
102
RTVSPost2010Prop40
 90
        0
102
RTVSPost2010PropOp40
 70
     0
102
RTVSPost2010Prop41ColorIndex
 90
       18
102
RTVSPost2010Prop41ColorRGB
 90
        0
102
RTVSPost2010PropOp41
 70
     0
102
RTVSPost2010Prop42
 90
       50
102
RTVSPost2010PropOp42
 70
     0
102
RTVSPost2010Prop43
 90
        3
102
RTVSPost2010PropOp43
 70
     0
102
RTVSPost2010Prop44ColorIndex
 90
        5
102
RTVSPost2010Prop44ColorRGB
 90
      255
102
RTVSPost2010PropOp44
 70
     0
102
RTVSPost2010Prop45
280
     0
102
RTVSPost2010PropOp45
 70
     1
102
RTVSPost2010Prop46
 90
       50
102
RTVSPost2010PropOp46
 70
     0
102
RTVSPost2010Prop47
 90
       50
102
RTVSPost2010PropOp47
 70
     0
102
RTVSPost2010Prop48
 90
       50
102
RTVSPost2010PropOp48
 70
     0
102
RTVSPost2010Prop49
280
     0
102
RTVSPost2010PropOp49
 70
     1
102
RTVSPost2010Prop50
 90
       50
102
RTVSPost2010PropOp50
 70
     0
102
RTVSPost2010Prop51ColorIndex
 90
      256
102
RTVSPost2010Prop51ColorRGB
 90
-16777216
102
RTVSPost2010PropOp51
 70
     0
102
RTVSPost2010Prop52
140
1.0
102
RTVSPost2010PropOp52
 70
     0
102
RTVSPost2010Prop53
 90
        2
102
RTVSPost2010PropOp53
 70
     0
102
RTVSPost2010Prop54
  1
strokes_ogs.tif
102
RTVSPost2010PropOp54
 70
     0
102
RTVSPost2010Prop55
280
     0
102
RTVSPost2010PropOp55
 70
     1
102
RTVSPost2010Prop56
140
1.0
102
RTVSPost2010PropOp56
 70
     0
102
RTVSPost2010Prop57
140
1.0
102
RTVSPost2010PropOp57
 70
     0
102
RTVSPropertyOp0
 70
     0
102
RTVSPropertyOp1
 70
     0
102
RTVSPropertyOp2
 70
     0
102
RTVSPropertyOp3
 70
     0
102
RTVSPropertyOp4
 70
     0
102
RTVSPropertyOp5
 70
     0
102
RTVSPropertyOp6
 70
     0
102
RTVSPropertyOp7
 70
     0
102
RTVSPropertyOp8
 70
     0
102
RTVSPropertyOp9
 70
     0
102
RTVSPropertyOp10
 70
     0
102
RTVSPropertyOp11
 70
     0
102
RTVSPropertyOp12
 70
     0
102
RTVSPropertyOp13
 70
     0
102
RTVSPropertyOp14
 70
     2
102
RTVSPropertyOp15
 70
     0
102
RTVSPropertyOp16
 70
     0
102
RTVSPropertyOp17
 70
     0
102
RTVSPropertyOp18
 70
     0
102
RTVSPropertyOp19
 70
     0
102
RTVSPropertyOp20
 70
     0
102
RTVSPropertyOp21
 70
     0
102
RTVSPropertyOp22
 70
     0
102
RTVSPropertyOp23
 70
     0
102
RTVSPropertyOp24
 70
     0
102
RTVSPropertyOp25
 70
     0
102
RTVSPropertyOp26
 70
     0
102
RTVSPropertyOp27
 70
     0
102
RTVSPropertyOp28
 70
     1
102
RTVSPropertyOp29
 70
     1
102
RTVSPropertyOp30
 70
     1
102
RTVSPropertyOp31
 70
     1
102
RTVSPropertyOp32
 70
     1
102
RTVSPropertyOp33
 70
     1
102
RTVSPropertyOp34
 70
     1
102
RTVSPropertyOp35
 70
     1
102
RTVSPropertyOp36
 70
     1
102
RTVSPropertyOp37
 70
     0
102
RTVSPropertyOp38
 70
     0
102
RTVSPropertyOp39
 70
     0
102
RTVSPropertyOp40
 70
     0
102
RTVSPropertyOp41
 70
     0
102
RTVSPropertyOp42
 70
     0
102
RTVSPropertyOp43
 70
     0
102
RTVSPropertyOp44
 70
     0
102
RTVSPropertyOp45
 70
     1
102
RTVSPropertyOp46
 70
     0
102
RTVSPropertyOp47
 70
     0
102
RTVSPropertyOp48
 70
     0
102
RTVSPropertyOp49
 70
     1
102
RTVSPropertyOp50
 70
     0
102
RTVSPropertyOp51
 70
     0
102
RTVSPropertyOp52
 70
     0
102
RTVSPropertyOp53
 70
     0
102
RTVSPropertyOp54
 70
     0
102
RTVSPropertyOp55
 70
     1
102
RTVSPropertyOp56
 70
     0
102
RTVSPropertyOp57
 70
     0
102
RTVSPropertyOp58
 70
     0
102
RTVSPropertyOp59
 70
     0
102
RTVSPropertyOp60
 70
     0
102
RTVSPropertyOp61
 70
     0
102
RTVSPropertyOp62
 70
     0
  0
XRECORD
  5
3DC
102
{ACAD_REACTORS
330
3DB
102
}
330
3DB
100
AcDbXrecord
280
     1
102
RTVSPost2010Prop28
280
     0
102
RTVSPost2010PropOp28
 70
     1
102
RTVSPost2010Prop29
280
     1
102
RTVSPost2010PropOp29
 70
     1
102
RTVSPost2010Prop30
280
     1
102
RTVSPost2010PropOp30
 70
     1
102
RTVSPost2010Prop31
280
     0
102
RTVSPost2010PropOp31
 70
     1
102
RTVSPost2010Prop32
280
     0
102
RTVSPost2010PropOp32
 70
     1
102
RTVSPost2010Prop33
280
     0
102
RTVSPost2010PropOp33
 70
     1
102
RTVSPost2010Prop34
280
     0
102
RTVSPost2010PropOp34
 70
     1
102
RTVSPost2010Prop35
280
     0
102
RTVSPost2010PropOp35
 70
     1
102
RTVSPost2010Prop36
280
     0
102
RTVSPost2010PropOp36
 70
     1
102
RTVSPost2010Prop37
 90
       50
102
RTVSPost2010PropOp37
 70
     1
102
RTVSPost2010Prop38
140
0.0
102
RTVSPost2010PropOp38
 70
     1
102
RTVSPost2010Prop39
140
1.0
102
RTVSPost2010PropOp39
 70
     1
102
RTVSPost2010Prop40
 90
        0
102
RTVSPost2010PropOp40
 70
     1
102
RTVSPost2010Prop41ColorIndex
 90
       18
102
RTVSPost2010Prop41ColorRGB
 90
        0
102
RTVSPost2010PropOp41
 70
     1
102
RTVSPost2010Prop42
 90
       50
102
RTVSPost2010PropOp42
 70
     1
102
RTVSPost2010Prop43
 90
        3
102
RTVSPost2010PropOp43
 70
     1
102
RTVSPost2010Prop44ColorIndex
 90
        5
102
RTVSPost2010Prop44ColorRGB
 90
      255
102
RTVSPost2010PropOp44
 70
     1
102
RTVSPost2010Prop45
280
     0
102
RTVSPost2010PropOp45
 70
     1
102
RTVSPost2010Prop46
 90
       50
102
RTVSPost2010PropOp46
 70
     1
102
RTVSPost2010Prop47
 90
       50
102
RTVSPost2010PropOp47
 70
     1
102
RTVSPost2010Prop48
 90
       50
102
RTVSPost2010PropOp48
 70
     1
102
RTVSPost2010Prop49
280
     0
102
RTVSPost2010PropOp49
 70
     1
102
RTVSPost2010Prop50
 90
       50
102
RTVSPost2010PropOp50
 70
     1
102
RTVSPost2010Prop51ColorIndex
 90
      256
102
RTVSPost2010Prop51ColorRGB
 90
-16777216
102
RTVSPost2010PropOp51
 70
     0
102
RTVSPost2010Prop52
140
1.0
102
RTVSPost2010PropOp52
 70
     0
102
RTVSPost2010Prop53
 90
        2
102
RTVSPost2010PropOp53
 70
     1
102
RTVSPost2010Prop54
  1
strokes_ogs.tif
102
RTVSPost2010PropOp54
 70
     1
102
RTVSPost2010Prop55
280
     0
102
RTVSPost2010PropOp55
 70
     1
102
RTVSPost2010Prop56
140
1.0
102
RTVSPost2010PropOp56
 70
     1
102
RTVSPost2010Prop57
140
1.0
102
RTVSPost2010PropOp57
 70
     1
102
RTVSPropertyOp0
 70
     1
102
RTVSPropertyOp1
 70
     1
102
RTVSPropertyOp2
 70
     1
102
RTVSPropertyOp3
 70
     1
102
RTVSPropertyOp4
 70
     1
102
RTVSPropertyOp5
 70
     1
102
RTVSPropertyOp6
 70
     1
102
RTVSPropertyOp7
 70
     1
102
RTVSPropertyOp8
 70
     1
102
RTVSPropertyOp9
 70
     1
102
RTVSPropertyOp10
 70
     1
102
RTVSPropertyOp11
 70
     1
102
RTVSPropertyOp12
 70
     1
102
RTVSPropertyOp13
 70
     1
102
RTVSPropertyOp14
 70
     1
102
RTVSPropertyOp15
 70
     1
102
RTVSPropertyOp16
 70
     1
102
RTVSPropertyOp17
 70
     1
102
RTVSPropertyOp18
 70
     1
102
RTVSPropertyOp19
 70
     1
102
RTVSPropertyOp20
 70
     1
102
RTVSPropertyOp21
 70
     1
102
RTVSPropertyOp22
 70
     1
102
RTVSPropertyOp23
 70
     1
102
RTVSPropertyOp24
 70
     1
102
RTVSPropertyOp25
 70
     1
102
RTVSPropertyOp26
 70
     1
102
RTVSPropertyOp27
 70
     1
102
RTVSPropertyOp28
 70
     1
102
RTVSPropertyOp29
 70
     1
102
RTVSPropertyOp30
 70
     1
102
RTVSPropertyOp31
 70
     1
102
RTVSPropertyOp32
 70
     1
102
RTVSPropertyOp33
 70
     1
102
RTVSPropertyOp34
 70
     1
102
RTVSPropertyOp35
 70
     1
102
RTVSPropertyOp36
 70
     1
102
RTVSPropertyOp37
 70
     1
102
RTVSPropertyOp38
 70
     1
102
RTVSPropertyOp39
 70
     1
102
RTVSPropertyOp40
 70
     1
102
RTVSPropertyOp41
 70
     1
102
RTVSPropertyOp42
 70
     1
102
RTVSPropertyOp43
 70
     1
102
RTVSPropertyOp44
 70
     1
102
RTVSPropertyOp45
 70
     1
102
RTVSPropertyOp46
 70
     1
102
RTVSPropertyOp47
 70
     1
102
RTVSPropertyOp48
 70
     1
102
RTVSPropertyOp49
 70
     1
102
RTVSPropertyOp50
 70
     1
102
RTVSPropertyOp51
 70
     0
102
RTVSPropertyOp52
 70
     0
102
RTVSPropertyOp53
 70
     1
102
RTVSPropertyOp54
 70
     1
102
RTVSPropertyOp55
 70
     1
102
RTVSPropertyOp56
 70
     1
102
RTVSPropertyOp57
 70
     1
102
RTVSPropertyOp58
 70
     1
102
RTVSPropertyOp59
 70
     1
102
RTVSPropertyOp60
 70
     1
102
RTVSPropertyOp61
 70
     1
102
RTVSPropertyOp62
 70
     1
  0
XRECORD
  5
3EE
102
{ACAD_REACTORS
330
3ED
102
}
330
3ED
100
AcDbXrecord
280
     1
102
RTVSPost2010Prop28
280
     0
102
RTVSPost2010PropOp28
 70
     1
102
RTVSPost2010Prop29
280
     1
102
RTVSPost2010PropOp29
 70
     1
102
RTVSPost2010Prop30
280
     1
102
RTVSPost2010PropOp30
 70
     1
102
RTVSPost2010Prop31
280
     0
102
RTVSPost2010PropOp31
 70
     1
102
RTVSPost2010Prop32
280
     0
102
RTVSPost2010PropOp32
 70
     1
102
RTVSPost2010Prop33
280
     0
102
RTVSPost2010PropOp33
 70
     1
102
RTVSPost2010Prop34
280
     0
102
RTVSPost2010PropOp34
 70
     1
102
RTVSPost2010Prop35
280
     0
102
RTVSPost2010PropOp35
 70
     1
102
RTVSPost2010Prop36
280
     0
102
RTVSPost2010PropOp36
 70
     1
102
RTVSPost2010Prop37
 90
       50
102
RTVSPost2010PropOp37
 70
     0
102
RTVSPost2010Prop38
140
0.0
102
RTVSPost2010PropOp38
 70
     0
102
RTVSPost2010Prop39
140
1.0
102
RTVSPost2010PropOp39
 70
     0
102
RTVSPost2010Prop40
 90
        0
102
RTVSPost2010PropOp40
 70
     0
102
RTVSPost2010Prop41ColorIndex
 90
       18
102
RTVSPost2010Prop41ColorRGB
 90
        0
102
RTVSPost2010PropOp41
 70
     0
102
RTVSPost2010Prop42
 90
       50
102
RTVSPost2010PropOp42
 70
     0
102
RTVSPost2010Prop43
 90
        3
102
RTVSPost2010PropOp43
 70
     0
102
RTVSPost2010Prop44ColorIndex
 90
        5
102
RTVSPost2010Prop44ColorRGB
 90
      255
102
RTVSPost2010PropOp44
 70
     0
102
RTVSPost2010Prop45
280
     0
102
RTVSPost2010PropOp45
 70
     1
102
RTVSPost2010Prop46
 90
       50
102
RTVSPost2010PropOp46
 70
     0
102
RTVSPost2010Prop47
 90
       50
102
RTVSPost2010PropOp47
 70
     0
102
RTVSPost2010Prop48
 90
       50
102
RTVSPost2010PropOp48
 70
     0
102
RTVSPost2010Prop49
280
     0
102
RTVSPost2010PropOp49
 70
     1
102
RTVSPost2010Prop50
 90
       50
102
RTVSPost2010PropOp50
 70
     0
102
RTVSPost2010Prop51ColorIndex
 90
      256
102
RTVSPost2010Prop51ColorRGB
 90
-16777216
102
RTVSPost2010PropOp51
 70
     0
102
RTVSPost2010Prop52
140
1.0
102
RTVSPost2010PropOp52
 70
     0
102
RTVSPost2010Prop53
 90
        2
102
RTVSPost2010PropOp53
 70
     0
102
RTVSPost2010Prop54
  1
strokes_ogs.tif
102
RTVSPost2010PropOp54
 70
     0
102
RTVSPost2010Prop55
280
     0
102
RTVSPost2010PropOp55
 70
     1
102
RTVSPost2010Prop56
140
1.0
102
RTVSPost2010PropOp56
 70
     0
102
RTVSPost2010Prop57
140
1.0
102
RTVSPost2010PropOp57
 70
     0
102
RTVSPropertyOp0
 70
     0
102
RTVSPropertyOp1
 70
     0
102
RTVSPropertyOp2
 70
     0
102
RTVSPropertyOp3
 70
     0
102
RTVSPropertyOp4
 70
     0
102
RTVSPropertyOp5
 70
     0
102
RTVSPropertyOp6
 70
     0
102
RTVSPropertyOp7
 70
     0
102
RTVSPropertyOp8
 70
     0
102
RTVSPropertyOp9
 70
     0
102
RTVSPropertyOp10
 70
     0
102
RTVSPropertyOp11
 70
     0
102
RTVSPropertyOp12
 70
     0
102
RTVSPropertyOp13
 70
     0
102
RTVSPropertyOp14
 70
     2
102
RTVSPropertyOp15
 70
     0
102
RTVSPropertyOp16
 70
     0
102
RTVSPropertyOp17
 70
     0
102
RTVSPropertyOp18
 70
     0
102
RTVSPropertyOp19
 70
     0
102
RTVSPropertyOp20
 70
     0
102
RTVSPropertyOp21
 70
     0
102
RTVSPropertyOp22
 70
     0
102
RTVSPropertyOp23
 70
     0
102
RTVSPropertyOp24
 70
     0
102
RTVSPropertyOp25
 70
     0
102
RTVSPropertyOp26
 70
     0
102
RTVSPropertyOp27
 70
     0
102
RTVSPropertyOp28
 70
     1
102
RTVSPropertyOp29
 70
     1
102
RTVSPropertyOp30
 70
     1
102
RTVSPropertyOp31
 70
     1
102
RTVSPropertyOp32
 70
     1
102
RTVSPropertyOp33
 70
     1
102
RTVSPropertyOp34
 70
     1
102
RTVSPropertyOp35
 70
     1
102
RTVSPropertyOp36
 70
     1
102
RTVSPropertyOp37
 70
     0
102
RTVSPropertyOp38
 70
     0
102
RTVSPropertyOp39
 70
     0
102
RTVSPropertyOp40
 70
     0
102
RTVSPropertyOp41
 70
     0
102
RTVSPropertyOp42
 70
     0
102
RTVSPropertyOp43
 70
     0
102
RTVSPropertyOp44
 70
     0
102
RTVSPropertyOp45
 70
     1
102
RTVSPropertyOp46
 70
     0
102
RTVSPropertyOp47
 70
     0
102
RTVSPropertyOp48
 70
     0
102
RTVSPropertyOp49
 70
     1
102
RTVSPropertyOp50
 70
     0
102
RTVSPropertyOp51
 70
     0
102
RTVSPropertyOp52
 70
     0
102
RTVSPropertyOp53
 70
     0
102
RTVSPropertyOp54
 70
     0
102
RTVSPropertyOp55
 70
     1
102
RTVSPropertyOp56
 70
     0
102
RTVSPropertyOp57
 70
     0
102
RTVSPropertyOp58
 70
     0
102
RTVSPropertyOp59
 70
     0
102
RTVSPropertyOp60
 70
     0
102
RTVSPropertyOp61
 70
     0
102
RTVSPropertyOp62
 70
     0
  0
XRECORD
  5
3D4
102
{ACAD_REACTORS
330
3D3
102
}
330
3D3
100
AcDbXrecord
280
     1
102
RTVSPost2010Prop28
280
     0
102
RTVSPost2010PropOp28
 70
     1
102
RTVSPost2010Prop29
280
     1
102
RTVSPost2010PropOp29
 70
     1
102
RTVSPost2010Prop30
280
     1
102
RTVSPost2010PropOp30
 70
     1
102
RTVSPost2010Prop31
280
     0
102
RTVSPost2010PropOp31
 70
     1
102
RTVSPost2010Prop32
280
     0
102
RTVSPost2010PropOp32
 70
     1
102
RTVSPost2010Prop33
280
     0
102
RTVSPost2010PropOp33
 70
     1
102
RTVSPost2010Prop34
280
     0
102
RTVSPost2010PropOp34
 70
     1
102
RTVSPost2010Prop35
280
     0
102
RTVSPost2010PropOp35
 70
     1
102
RTVSPost2010Prop36
280
     0
102
RTVSPost2010PropOp36
 70
     1
102
RTVSPost2010Prop37
 90
       50
102
RTVSPost2010PropOp37
 70
     1
102
RTVSPost2010Prop38
140
0.0
102
RTVSPost2010PropOp38
 70
     1
102
RTVSPost2010Prop39
140
1.0
102
RTVSPost2010PropOp39
 70
     1
102
RTVSPost2010Prop40
 90
        0
102
RTVSPost2010PropOp40
 70
     1
102
RTVSPost2010Prop41ColorIndex
 90
       18
102
RTVSPost2010Prop41ColorRGB
 90
        0
102
RTVSPost2010PropOp41
 70
     1
102
RTVSPost2010Prop42
 90
       50
102
RTVSPost2010PropOp42
 70
     1
102
RTVSPost2010Prop43
 90
        3
102
RTVSPost2010PropOp43
 70
     1
102
RTVSPost2010Prop44ColorIndex
 90
        5
102
RTVSPost2010Prop44ColorRGB
 90
      255
102
RTVSPost2010PropOp44
 70
     1
102
RTVSPost2010Prop45
280
     0
102
RTVSPost2010PropOp45
 70
     1
102
RTVSPost2010Prop46
 90
       50
102
RTVSPost2010PropOp46
 70
     1
102
RTVSPost2010Prop47
 90
       50
102
RTVSPost2010PropOp47
 70
     1
102
RTVSPost2010Prop48
 90
       50
102
RTVSPost2010PropOp48
 70
     1
102
RTVSPost2010Prop49
280
     0
102
RTVSPost2010PropOp49
 70
     1
102
RTVSPost2010Prop50
 90
       50
102
RTVSPost2010PropOp50
 70
     1
102
RTVSPost2010Prop51ColorIndex
 90
      256
102
RTVSPost2010Prop51ColorRGB
 90
-16777216
102
RTVSPost2010PropOp51
 70
     0
102
RTVSPost2010Prop52
140
1.0
102
RTVSPost2010PropOp52
 70
     0
102
RTVSPost2010Prop53
 90
        2
102
RTVSPost2010PropOp53
 70
     1
102
RTVSPost2010Prop54
  1
strokes_ogs.tif
102
RTVSPost2010PropOp54
 70
     1
102
RTVSPost2010Prop55
280
     0
102
RTVSPost2010PropOp55
 70
     1
102
RTVSPost2010Prop56
140
1.0
102
RTVSPost2010PropOp56
 70
     1
102
RTVSPost2010Prop57
140
1.0
102
RTVSPost2010PropOp57
 70
     1
102
RTVSPropertyOp0
 70
     1
102
RTVSPropertyOp1
 70
     1
102
RTVSPropertyOp2
 70
     1
102
RTVSPropertyOp3
 70
     1
102
RTVSPropertyOp4
 70
     1
102
RTVSPropertyOp5
 70
     1
102
RTVSPropertyOp6
 70
     1
102
RTVSPropertyOp7
 70
     1
102
RTVSPropertyOp8
 70
     1
102
RTVSPropertyOp9
 70
     1
102
RTVSPropertyOp10
 70
     1
102
RTVSPropertyOp11
 70
     1
102
RTVSPropertyOp12
 70
     1
102
RTVSPropertyOp13
 70
     1
102
RTVSPropertyOp14
 70
     1
102
RTVSPropertyOp15
 70
     1
102
RTVSPropertyOp16
 70
     1
102
RTVSPropertyOp17
 70
     1
102
RTVSPropertyOp18
 70
     1
102
RTVSPropertyOp19
 70
     1
102
RTVSPropertyOp20
 70
     1
102
RTVSPropertyOp21
 70
     1
102
RTVSPropertyOp22
 70
     1
102
RTVSPropertyOp23
 70
     1
102
RTVSPropertyOp24
 70
     1
102
RTVSPropertyOp25
 70
     1
102
RTVSPropertyOp26
 70
     1
102
RTVSPropertyOp27
 70
     1
102
RTVSPropertyOp28
 70
     1
102
RTVSPropertyOp29
 70
     1
102
RTVSPropertyOp30
 70
     1
102
RTVSPropertyOp31
 70
     1
102
RTVSPropertyOp32
 70
     1
102
RTVSPropertyOp33
 70
     1
102
RTVSPropertyOp34
 70
     1
102
RTVSPropertyOp35
 70
     1
102
RTVSPropertyOp36
 70
     1
102
RTVSPropertyOp37
 70
     1
102
RTVSPropertyOp38
 70
     1
102
RTVSPropertyOp39
 70
     1
102
RTVSPropertyOp40
 70
     1
102
RTVSPropertyOp41
 70
     1
102
RTVSPropertyOp42
 70
     1
102
RTVSPropertyOp43
 70
     1
102
RTVSPropertyOp44
 70
     1
102
RTVSPropertyOp45
 70
     1
102
RTVSPropertyOp46
 70
     1
102
RTVSPropertyOp47
 70
     1
102
RTVSPropertyOp48
 70
     1
102
RTVSPropertyOp49
 70
     1
102
RTVSPropertyOp50
 70
     1
102
RTVSPropertyOp51
 70
     0
102
RTVSPropertyOp52
 70
     0
102
RTVSPropertyOp53
 70
     1
102
RTVSPropertyOp54
 70
     1
102
RTVSPropertyOp55
 70
     1
102
RTVSPropertyOp56
 70
     1
102
RTVSPropertyOp57
 70
     1
102
RTVSPropertyOp58
 70
     1
102
RTVSPropertyOp59
 70
     1
102
RTVSPropertyOp60
 70
     1
102
RTVSPropertyOp61
 70
     1
102
RTVSPropertyOp62
 70
     1
  0
XRECORD
  5
3EA
102
{ACAD_REACTORS
330
3E9
102
}
330
3E9
100
AcDbXrecord
280
     1
102
RTVSPost2010Prop28
280
     0
102
RTVSPost2010PropOp28
 70
     1
102
RTVSPost2010Prop29
280
     1
102
RTVSPost2010PropOp29
 70
     1
102
RTVSPost2010Prop30
280
     1
102
RTVSPost2010PropOp30
 70
     1
102
RTVSPost2010Prop31
280
     0
102
RTVSPost2010PropOp31
 70
     1
102
RTVSPost2010Prop32
280
     0
102
RTVSPost2010PropOp32
 70
     1
102
RTVSPost2010Prop33
280
     0
102
RTVSPost2010PropOp33
 70
     1
102
RTVSPost2010Prop34
280
     0
102
RTVSPost2010PropOp34
 70
     1
102
RTVSPost2010Prop35
280
     0
102
RTVSPost2010PropOp35
 70
     1
102
RTVSPost2010Prop36
280
     0
102
RTVSPost2010PropOp36
 70
     1
102
RTVSPost2010Prop37
 90
       50
102
RTVSPost2010PropOp37
 70
     1
102
RTVSPost2010Prop38
140
0.0
102
RTVSPost2010PropOp38
 70
     1
102
RTVSPost2010Prop39
140
1.0
102
RTVSPost2010PropOp39
 70
     1
102
RTVSPost2010Prop40
 90
        0
102
RTVSPost2010PropOp40
 70
     1
102
RTVSPost2010Prop41ColorIndex
 90
       18
102
RTVSPost2010Prop41ColorRGB
 90
        0
102
RTVSPost2010PropOp41
 70
     1
102
RTVSPost2010Prop42
 90
       50
102
RTVSPost2010PropOp42
 70
     1
102
RTVSPost2010Prop43
 90
        3
102
RTVSPost2010PropOp43
 70
     1
102
RTVSPost2010Prop44ColorIndex
 90
        5
102
RTVSPost2010Prop44ColorRGB
 90
      255
102
RTVSPost2010PropOp44
 70
     1
102
RTVSPost2010Prop45
280
     0
102
RTVSPost2010PropOp45
 70
     1
102
RTVSPost2010Prop46
 90
       50
102
RTVSPost2010PropOp46
 70
     1
102
RTVSPost2010Prop47
 90
       50
102
RTVSPost2010PropOp47
 70
     1
102
RTVSPost2010Prop48
 90
       50
102
RTVSPost2010PropOp48
 70
     1
102
RTVSPost2010Prop49
280
     0
102
RTVSPost2010PropOp49
 70
     1
102
RTVSPost2010Prop50
 90
       50
102
RTVSPost2010PropOp50
 70
     1
102
RTVSPost2010Prop51ColorIndex
 90
      256
102
RTVSPost2010Prop51ColorRGB
 90
-16777216
102
RTVSPost2010PropOp51
 70
     0
102
RTVSPost2010Prop52
140
1.0
102
RTVSPost2010PropOp52
 70
     0
102
RTVSPost2010Prop53
 90
        2
102
RTVSPost2010PropOp53
 70
     1
102
RTVSPost2010Prop54
  1
strokes_ogs.tif
102
RTVSPost2010PropOp54
 70
     1
102
RTVSPost2010Prop55
280
     0
102
RTVSPost2010PropOp55
 70
     1
102
RTVSPost2010Prop56
140
1.0
102
RTVSPost2010PropOp56
 70
     1
102
RTVSPost2010Prop57
140
1.0
102
RTVSPost2010PropOp57
 70
     1
102
RTVSPropertyOp0
 70
     1
102
RTVSPropertyOp1
 70
     1
102
RTVSPropertyOp2
 70
     1
102
RTVSPropertyOp3
 70
     1
102
RTVSPropertyOp4
 70
     1
102
RTVSPropertyOp5
 70
     1
102
RTVSPropertyOp6
 70
     1
102
RTVSPropertyOp7
 70
     1
102
RTVSPropertyOp8
 70
     1
102
RTVSPropertyOp9
 70
     1
102
RTVSPropertyOp10
 70
     1
102
RTVSPropertyOp11
 70
     1
102
RTVSPropertyOp12
 70
     1
102
RTVSPropertyOp13
 70
     1
102
RTVSPropertyOp14
 70
     1
102
RTVSPropertyOp15
 70
     1
102
RTVSPropertyOp16
 70
     1
102
RTVSPropertyOp17
 70
     1
102
RTVSPropertyOp18
 70
     1
102
RTVSPropertyOp19
 70
     1
102
RTVSPropertyOp20
 70
     1
102
RTVSPropertyOp21
 70
     1
102
RTVSPropertyOp22
 70
     1
102
RTVSPropertyOp23
 70
     1
102
RTVSPropertyOp24
 70
     1
102
RTVSPropertyOp25
 70
     1
102
RTVSPropertyOp26
 70
     1
102
RTVSPropertyOp27
 70
     1
102
RTVSPropertyOp28
 70
     1
102
RTVSPropertyOp29
 70
     1
102
RTVSPropertyOp30
 70
     1
102
RTVSPropertyOp31
 70
     1
102
RTVSPropertyOp32
 70
     1
102
RTVSPropertyOp33
 70
     1
102
RTVSPropertyOp34
 70
     1
102
RTVSPropertyOp35
 70
     1
102
RTVSPropertyOp36
 70
     1
102
RTVSPropertyOp37
 70
     1
102
RTVSPropertyOp38
 70
     1
102
RTVSPropertyOp39
 70
     1
102
RTVSPropertyOp40
 70
     1
102
RTVSPropertyOp41
 70
     1
102
RTVSPropertyOp42
 70
     1
102
RTVSPropertyOp43
 70
     1
102
RTVSPropertyOp44
 70
     1
102
RTVSPropertyOp45
 70
     1
102
RTVSPropertyOp46
 70
     1
102
RTVSPropertyOp47
 70
     1
102
RTVSPropertyOp48
 70
     1
102
RTVSPropertyOp49
 70
     1
102
RTVSPropertyOp50
 70
     1
102
RTVSPropertyOp51
 70
     0
102
RTVSPropertyOp52
 70
     0
102
RTVSPropertyOp53
 70
     1
102
RTVSPropertyOp54
 70
     1
102
RTVSPropertyOp55
 70
     1
102
RTVSPropertyOp56
 70
     1
102
RTVSPropertyOp57
 70
     1
102
RTVSPropertyOp58
 70
     1
102
RTVSPropertyOp59
 70
     1
102
RTVSPropertyOp60
 70
     1
102
RTVSPropertyOp61
 70
     1
102
RTVSPropertyOp62
 70
     1
  0
XRECORD
  5
3E8
102
{ACAD_REACTORS
330
3E7
102
}
330
3E7
100
AcDbXrecord
280
     1
102
RTVSPost2010Prop28
280
     0
102
RTVSPost2010PropOp28
 70
     1
102
RTVSPost2010Prop29
280
     1
102
RTVSPost2010PropOp29
 70
     1
102
RTVSPost2010Prop30
280
     1
102
RTVSPost2010PropOp30
 70
     1
102
RTVSPost2010Prop31
280
     0
102
RTVSPost2010PropOp31
 70
     1
102
RTVSPost2010Prop32
280
     0
102
RTVSPost2010PropOp32
 70
     1
102
RTVSPost2010Prop33
280
     0
102
RTVSPost2010PropOp33
 70
     1
102
RTVSPost2010Prop34
280
     0
102
RTVSPost2010PropOp34
 70
     1
102
RTVSPost2010Prop35
280
     0
102
RTVSPost2010PropOp35
 70
     1
102
RTVSPost2010Prop36
280
     0
102
RTVSPost2010PropOp36
 70
     1
102
RTVSPost2010Prop37
 90
       50
102
RTVSPost2010PropOp37
 70
     1
102
RTVSPost2010Prop38
140
0.0
102
RTVSPost2010PropOp38
 70
     1
102
RTVSPost2010Prop39
140
1.0
102
RTVSPost2010PropOp39
 70
     1
102
RTVSPost2010Prop40
 90
        0
102
RTVSPost2010PropOp40
 70
     1
102
RTVSPost2010Prop41ColorIndex
 90
       18
102
RTVSPost2010Prop41ColorRGB
 90
        0
102
RTVSPost2010PropOp41
 70
     1
102
RTVSPost2010Prop42
 90
       50
102
RTVSPost2010PropOp42
 70
     1
102
RTVSPost2010Prop43
 90
        3
102
RTVSPost2010PropOp43
 70
     1
102
RTVSPost2010Prop44ColorIndex
 90
        5
102
RTVSPost2010Prop44ColorRGB
 90
      255
102
RTVSPost2010PropOp44
 70
     1
102
RTVSPost2010Prop45
280
     0
102
RTVSPost2010PropOp45
 70
     1
102
RTVSPost2010Prop46
 90
       50
102
RTVSPost2010PropOp46
 70
     1
102
RTVSPost2010Prop47
 90
       50
102
RTVSPost2010PropOp47
 70
     1
102
RTVSPost2010Prop48
 90
       50
102
RTVSPost2010PropOp48
 70
     1
102
RTVSPost2010Prop49
280
     0
102
RTVSPost2010PropOp49
 70
     1
102
RTVSPost2010Prop50
 90
       50
102
RTVSPost2010PropOp50
 70
     1
102
RTVSPost2010Prop51ColorIndex
 90
      256
102
RTVSPost2010Prop51ColorRGB
 90
-16777216
102
RTVSPost2010PropOp51
 70
     0
102
RTVSPost2010Prop52
140
1.0
102
RTVSPost2010PropOp52
 70
     0
102
RTVSPost2010Prop53
 90
        2
102
RTVSPost2010PropOp53
 70
     1
102
RTVSPost2010Prop54
  1
strokes_ogs.tif
102
RTVSPost2010PropOp54
 70
     1
102
RTVSPost2010Prop55
280
     0
102
RTVSPost2010PropOp55
 70
     1
102
RTVSPost2010Prop56
140
1.0
102
RTVSPost2010PropOp56
 70
     1
102
RTVSPost2010Prop57
140
1.0
102
RTVSPost2010PropOp57
 70
     1
102
RTVSPropertyOp0
 70
     1
102
RTVSPropertyOp1
 70
     1
102
RTVSPropertyOp2
 70
     1
102
RTVSPropertyOp3
 70
     1
102
RTVSPropertyOp4
 70
     1
102
RTVSPropertyOp5
 70
     1
102
RTVSPropertyOp6
 70
     1
102
RTVSPropertyOp7
 70
     1
102
RTVSPropertyOp8
 70
     1
102
RTVSPropertyOp9
 70
     1
102
RTVSPropertyOp10
 70
     1
102
RTVSPropertyOp11
 70
     1
102
RTVSPropertyOp12
 70
     1
102
RTVSPropertyOp13
 70
     1
102
RTVSPropertyOp14
 70
     1
102
RTVSPropertyOp15
 70
     1
102
RTVSPropertyOp16
 70
     1
102
RTVSPropertyOp17
 70
     1
102
RTVSPropertyOp18
 70
     1
102
RTVSPropertyOp19
 70
     1
102
RTVSPropertyOp20
 70
     1
102
RTVSPropertyOp21
 70
     1
102
RTVSPropertyOp22
 70
     1
102
RTVSPropertyOp23
 70
     1
102
RTVSPropertyOp24
 70
     1
102
RTVSPropertyOp25
 70
     1
102
RTVSPropertyOp26
 70
     1
102
RTVSPropertyOp27
 70
     1
102
RTVSPropertyOp28
 70
     1
102
RTVSPropertyOp29
 70
     1
102
RTVSPropertyOp30
 70
     1
102
RTVSPropertyOp31
 70
     1
102
RTVSPropertyOp32
 70
     1
102
RTVSPropertyOp33
 70
     1
102
RTVSPropertyOp34
 70
     1
102
RTVSPropertyOp35
 70
     1
102
RTVSPropertyOp36
 70
     1
102
RTVSPropertyOp37
 70
     1
102
RTVSPropertyOp38
 70
     1
102
RTVSPropertyOp39
 70
     1
102
RTVSPropertyOp40
 70
     1
102
RTVSPropertyOp41
 70
     1
102
RTVSPropertyOp42
 70
     1
102
RTVSPropertyOp43
 70
     1
102
RTVSPropertyOp44
 70
     1
102
RTVSPropertyOp45
 70
     1
102
RTVSPropertyOp46
 70
     1
102
RTVSPropertyOp47
 70
     1
102
RTVSPropertyOp48
 70
     1
102
RTVSPropertyOp49
 70
     1
102
RTVSPropertyOp50
 70
     1
102
RTVSPropertyOp51
 70
     0
102
RTVSPropertyOp52
 70
     0
102
RTVSPropertyOp53
 70
     1
102
RTVSPropertyOp54
 70
     1
102
RTVSPropertyOp55
 70
     1
102
RTVSPropertyOp56
 70
     1
102
RTVSPropertyOp57
 70
     1
102
RTVSPropertyOp58
 70
     1
102
RTVSPropertyOp59
 70
     1
102
RTVSPropertyOp60
 70
     1
102
RTVSPropertyOp61
 70
     1
102
RTVSPropertyOp62
 70
     1
  0
XRECORD
  5
3E2
102
{ACAD_REACTORS
330
3E1
102
}
330
3E1
100
AcDbXrecord
280
     1
102
RTVSPost2010Prop28
280
     0
102
RTVSPost2010PropOp28
 70
     1
102
RTVSPost2010Prop29
280
     1
102
RTVSPost2010PropOp29
 70
     1
102
RTVSPost2010Prop30
280
     1
102
RTVSPost2010PropOp30
 70
     1
102
RTVSPost2010Prop31
280
     0
102
RTVSPost2010PropOp31
 70
     1
102
RTVSPost2010Prop32
280
     0
102
RTVSPost2010PropOp32
 70
     1
102
RTVSPost2010Prop33
280
     0
102
RTVSPost2010PropOp33
 70
     1
102
RTVSPost2010Prop34
280
     0
102
RTVSPost2010PropOp34
 70
     1
102
RTVSPost2010Prop35
280
     0
102
RTVSPost2010PropOp35
 70
     1
102
RTVSPost2010Prop36
280
     0
102
RTVSPost2010PropOp36
 70
     1
102
RTVSPost2010Prop37
 90
       50
102
RTVSPost2010PropOp37
 70
     1
102
RTVSPost2010Prop38
140
0.0
102
RTVSPost2010PropOp38
 70
     1
102
RTVSPost2010Prop39
140
1.0
102
RTVSPost2010PropOp39
 70
     1
102
RTVSPost2010Prop40
 90
        0
102
RTVSPost2010PropOp40
 70
     1
102
RTVSPost2010Prop41ColorIndex
 90
       18
102
RTVSPost2010Prop41ColorRGB
 90
        0
102
RTVSPost2010PropOp41
 70
     1
102
RTVSPost2010Prop42
 90
       50
102
RTVSPost2010PropOp42
 70
     1
102
RTVSPost2010Prop43
 90
        3
102
RTVSPost2010PropOp43
 70
     1
102
RTVSPost2010Prop44ColorIndex
 90
        5
102
RTVSPost2010Prop44ColorRGB
 90
      255
102
RTVSPost2010PropOp44
 70
     1
102
RTVSPost2010Prop45
280
     0
102
RTVSPost2010PropOp45
 70
     1
102
RTVSPost2010Prop46
 90
       50
102
RTVSPost2010PropOp46
 70
     1
102
RTVSPost2010Prop47
 90
       50
102
RTVSPost2010PropOp47
 70
     1
102
RTVSPost2010Prop48
 90
       50
102
RTVSPost2010PropOp48
 70
     1
102
RTVSPost2010Prop49
280
     0
102
RTVSPost2010PropOp49
 70
     1
102
RTVSPost2010Prop50
 90
       50
102
RTVSPost2010PropOp50
 70
     1
102
RTVSPost2010Prop51ColorIndex
 90
      256
102
RTVSPost2010Prop51ColorRGB
 90
-16777216
102
RTVSPost2010PropOp51
 70
     0
102
RTVSPost2010Prop52
140
1.0
102
RTVSPost2010PropOp52
 70
     0
102
RTVSPost2010Prop53
 90
        2
102
RTVSPost2010PropOp53
 70
     1
102
RTVSPost2010Prop54
  1
strokes_ogs.tif
102
RTVSPost2010PropOp54
 70
     1
102
RTVSPost2010Prop55
280
     0
102
RTVSPost2010PropOp55
 70
     1
102
RTVSPost2010Prop56
140
1.0
102
RTVSPost2010PropOp56
 70
     1
102
RTVSPost2010Prop57
140
1.0
102
RTVSPost2010PropOp57
 70
     1
102
RTVSPropertyOp0
 70
     1
102
RTVSPropertyOp1
 70
     1
102
RTVSPropertyOp2
 70
     1
102
RTVSPropertyOp3
 70
     1
102
RTVSPropertyOp4
 70
     1
102
RTVSPropertyOp5
 70
     1
102
RTVSPropertyOp6
 70
     1
102
RTVSPropertyOp7
 70
     1
102
RTVSPropertyOp8
 70
     1
102
RTVSPropertyOp9
 70
     1
102
RTVSPropertyOp10
 70
     1
102
RTVSPropertyOp11
 70
     1
102
RTVSPropertyOp12
 70
     1
102
RTVSPropertyOp13
 70
     1
102
RTVSPropertyOp14
 70
     1
102
RTVSPropertyOp15
 70
     1
102
RTVSPropertyOp16
 70
     1
102
RTVSPropertyOp17
 70
     1
102
RTVSPropertyOp18
 70
     1
102
RTVSPropertyOp19
 70
     1
102
RTVSPropertyOp20
 70
     1
102
RTVSPropertyOp21
 70
     1
102
RTVSPropertyOp22
 70
     1
102
RTVSPropertyOp23
 70
     1
102
RTVSPropertyOp24
 70
     1
102
RTVSPropertyOp25
 70
     1
102
RTVSPropertyOp26
 70
     1
102
RTVSPropertyOp27
 70
     1
102
RTVSPropertyOp28
 70
     1
102
RTVSPropertyOp29
 70
     1
102
RTVSPropertyOp30
 70
     1
102
RTVSPropertyOp31
 70
     1
102
RTVSPropertyOp32
 70
     1
102
RTVSPropertyOp33
 70
     1
102
RTVSPropertyOp34
 70
     1
102
RTVSPropertyOp35
 70
     1
102
RTVSPropertyOp36
 70
     1
102
RTVSPropertyOp37
 70
     1
102
RTVSPropertyOp38
 70
     1
102
RTVSPropertyOp39
 70
     1
102
RTVSPropertyOp40
 70
     1
102
RTVSPropertyOp41
 70
     1
102
RTVSPropertyOp42
 70
     1
102
RTVSPropertyOp43
 70
     1
102
RTVSPropertyOp44
 70
     1
102
RTVSPropertyOp45
 70
     1
102
RTVSPropertyOp46
 70
     1
102
RTVSPropertyOp47
 70
     1
102
RTVSPropertyOp48
 70
     1
102
RTVSPropertyOp49
 70
     1
102
RTVSPropertyOp50
 70
     1
102
RTVSPropertyOp51
 70
     0
102
RTVSPropertyOp52
 70
     0
102
RTVSPropertyOp53
 70
     1
102
RTVSPropertyOp54
 70
     1
102
RTVSPropertyOp55
 70
     1
102
RTVSPropertyOp56
 70
     1
102
RTVSPropertyOp57
 70
     1
102
RTVSPropertyOp58
 70
     1
102
RTVSPropertyOp59
 70
     1
102
RTVSPropertyOp60
 70
     1
102
RTVSPropertyOp61
 70
     1
102
RTVSPropertyOp62
 70
     1
  0
XRECORD
  5
3E4
102
{ACAD_REACTORS
330
3E3
102
}
330
3E3
100
AcDbXrecord
280
     1
102
RTVSPost2010Prop28
280
     0
102
RTVSPost2010PropOp28
 70
     1
102
RTVSPost2010Prop29
280
     1
102
RTVSPost2010PropOp29
 70
     1
102
RTVSPost2010Prop30
280
     1
102
RTVSPost2010PropOp30
 70
     1
102
RTVSPost2010Prop31
280
     0
102
RTVSPost2010PropOp31
 70
     1
102
RTVSPost2010Prop32
280
     0
102
RTVSPost2010PropOp32
 70
     1
102
RTVSPost2010Prop33
280
     0
102
RTVSPost2010PropOp33
 70
     1
102
RTVSPost2010Prop34
280
     0
102
RTVSPost2010PropOp34
 70
     1
102
RTVSPost2010Prop35
280
     0
102
RTVSPost2010PropOp35
 70
     1
102
RTVSPost2010Prop36
280
     0
102
RTVSPost2010PropOp36
 70
     1
102
RTVSPost2010Prop37
 90
       50
102
RTVSPost2010PropOp37
 70
     1
102
RTVSPost2010Prop38
140
0.0
102
RTVSPost2010PropOp38
 70
     1
102
RTVSPost2010Prop39
140
1.0
102
RTVSPost2010PropOp39
 70
     1
102
RTVSPost2010Prop40
 90
        0
102
RTVSPost2010PropOp40
 70
     1
102
RTVSPost2010Prop41ColorIndex
 90
       18
102
RTVSPost2010Prop41ColorRGB
 90
        0
102
RTVSPost2010PropOp41
 70
     1
102
RTVSPost2010Prop42
 90
       50
102
RTVSPost2010PropOp42
 70
     1
102
RTVSPost2010Prop43
 90
        3
102
RTVSPost2010PropOp43
 70
     1
102
RTVSPost2010Prop44ColorIndex
 90
        5
102
RTVSPost2010Prop44ColorRGB
 90
      255
102
RTVSPost2010PropOp44
 70
     1
102
RTVSPost2010Prop45
280
     0
102
RTVSPost2010PropOp45
 70
     1
102
RTVSPost2010Prop46
 90
       50
102
RTVSPost2010PropOp46
 70
     1
102
RTVSPost2010Prop47
 90
       50
102
RTVSPost2010PropOp47
 70
     1
102
RTVSPost2010Prop48
 90
       50
102
RTVSPost2010PropOp48
 70
     1
102
RTVSPost2010Prop49
280
     0
102
RTVSPost2010PropOp49
 70
     1
102
RTVSPost2010Prop50
 90
       50
102
RTVSPost2010PropOp50
 70
     1
102
RTVSPost2010Prop51ColorIndex
 90
      256
102
RTVSPost2010Prop51ColorRGB
 90
-16777216
102
RTVSPost2010PropOp51
 70
     0
102
RTVSPost2010Prop52
140
1.0
102
RTVSPost2010PropOp52
 70
     0
102
RTVSPost2010Prop53
 90
        2
102
RTVSPost2010PropOp53
 70
     1
102
RTVSPost2010Prop54
  1
strokes_ogs.tif
102
RTVSPost2010PropOp54
 70
     1
102
RTVSPost2010Prop55
280
     0
102
RTVSPost2010PropOp55
 70
     1
102
RTVSPost2010Prop56
140
1.0
102
RTVSPost2010PropOp56
 70
     1
102
RTVSPost2010Prop57
140
1.0
102
RTVSPost2010PropOp57
 70
     1
102
RTVSPropertyOp0
 70
     1
102
RTVSPropertyOp1
 70
     1
102
RTVSPropertyOp2
 70
     1
102
RTVSPropertyOp3
 70
     1
102
RTVSPropertyOp4
 70
     1
102
RTVSPropertyOp5
 70
     1
102
RTVSPropertyOp6
 70
     1
102
RTVSPropertyOp7
 70
     1
102
RTVSPropertyOp8
 70
     1
102
RTVSPropertyOp9
 70
     1
102
RTVSPropertyOp10
 70
     1
102
RTVSPropertyOp11
 70
     1
102
RTVSPropertyOp12
 70
     1
102
RTVSPropertyOp13
 70
     1
102
RTVSPropertyOp14
 70
     1
102
RTVSPropertyOp15
 70
     1
102
RTVSPropertyOp16
 70
     1
102
RTVSPropertyOp17
 70
     1
102
RTVSPropertyOp18
 70
     1
102
RTVSPropertyOp19
 70
     1
102
RTVSPropertyOp20
 70
     1
102
RTVSPropertyOp21
 70
     1
102
RTVSPropertyOp22
 70
     1
102
RTVSPropertyOp23
 70
     1
102
RTVSPropertyOp24
 70
     1
102
RTVSPropertyOp25
 70
     1
102
RTVSPropertyOp26
 70
     1
102
RTVSPropertyOp27
 70
     1
102
RTVSPropertyOp28
 70
     1
102
RTVSPropertyOp29
 70
     1
102
RTVSPropertyOp30
 70
     1
102
RTVSPropertyOp31
 70
     1
102
RTVSPropertyOp32
 70
     1
102
RTVSPropertyOp33
 70
     1
102
RTVSPropertyOp34
 70
     1
102
RTVSPropertyOp35
 70
     1
102
RTVSPropertyOp36
 70
     1
102
RTVSPropertyOp37
 70
     1
102
RTVSPropertyOp38
 70
     1
102
RTVSPropertyOp39
 70
     1
102
RTVSPropertyOp40
 70
     1
102
RTVSPropertyOp41
 70
     1
102
RTVSPropertyOp42
 70
     1
102
RTVSPropertyOp43
 70
     1
102
RTVSPropertyOp44
 70
     1
102
RTVSPropertyOp45
 70
     1
102
RTVSPropertyOp46
 70
     1
102
RTVSPropertyOp47
 70
     1
102
RTVSPropertyOp48
 70
     1
102
RTVSPropertyOp49
 70
     1
102
RTVSPropertyOp50
 70
     1
102
RTVSPropertyOp51
 70
     0
102
RTVSPropertyOp52
 70
     0
102
RTVSPropertyOp53
 70
     1
102
RTVSPropertyOp54
 70
     1
102
RTVSPropertyOp55
 70
     1
102
RTVSPropertyOp56
 70
     1
102
RTVSPropertyOp57
 70
     1
102
RTVSPropertyOp58
 70
     1
102
RTVSPropertyOp59
 70
     1
102
RTVSPropertyOp60
 70
     1
102
RTVSPropertyOp61
 70
     1
102
RTVSPropertyOp62
 70
     1
  0
XRECORD
  5
3DA
102
{ACAD_REACTORS
330
3D9
102
}
330
3D9
100
AcDbXrecord
280
     1
102
RTVSPost2010Prop28
280
     0
102
RTVSPost2010PropOp28
 70
     1
102
RTVSPost2010Prop29
280
     1
102
RTVSPost2010PropOp29
 70
     1
102
RTVSPost2010Prop30
280
     1
102
RTVSPost2010PropOp30
 70
     1
102
RTVSPost2010Prop31
280
     0
102
RTVSPost2010PropOp31
 70
     1
102
RTVSPost2010Prop32
280
     0
102
RTVSPost2010PropOp32
 70
     1
102
RTVSPost2010Prop33
280
     0
102
RTVSPost2010PropOp33
 70
     1
102
RTVSPost2010Prop34
280
     0
102
RTVSPost2010PropOp34
 70
     1
102
RTVSPost2010Prop35
280
     0
102
RTVSPost2010PropOp35
 70
     1
102
RTVSPost2010Prop36
280
     0
102
RTVSPost2010PropOp36
 70
     1
102
RTVSPost2010Prop37
 90
       50
102
RTVSPost2010PropOp37
 70
     1
102
RTVSPost2010Prop38
140
0.0
102
RTVSPost2010PropOp38
 70
     1
102
RTVSPost2010Prop39
140
1.0
102
RTVSPost2010PropOp39
 70
     1
102
RTVSPost2010Prop40
 90
        0
102
RTVSPost2010PropOp40
 70
     1
102
RTVSPost2010Prop41ColorIndex
 90
       18
102
RTVSPost2010Prop41ColorRGB
 90
        0
102
RTVSPost2010PropOp41
 70
     1
102
RTVSPost2010Prop42
 90
       50
102
RTVSPost2010PropOp42
 70
     1
102
RTVSPost2010Prop43
 90
        3
102
RTVSPost2010PropOp43
 70
     1
102
RTVSPost2010Prop44ColorIndex
 90
        5
102
RTVSPost2010Prop44ColorRGB
 90
      255
102
RTVSPost2010PropOp44
 70
     1
102
RTVSPost2010Prop45
280
     0
102
RTVSPost2010PropOp45
 70
     1
102
RTVSPost2010Prop46
 90
       50
102
RTVSPost2010PropOp46
 70
     1
102
RTVSPost2010Prop47
 90
       50
102
RTVSPost2010PropOp47
 70
     1
102
RTVSPost2010Prop48
 90
       50
102
RTVSPost2010PropOp48
 70
     1
102
RTVSPost2010Prop49
280
     0
102
RTVSPost2010PropOp49
 70
     1
102
RTVSPost2010Prop50
 90
       50
102
RTVSPost2010PropOp50
 70
     1
102
RTVSPost2010Prop51ColorIndex
 90
      256
102
RTVSPost2010Prop51ColorRGB
 90
-16777216
102
RTVSPost2010PropOp51
 70
     0
102
RTVSPost2010Prop52
140
1.0
102
RTVSPost2010PropOp52
 70
     0
102
RTVSPost2010Prop53
 90
        2
102
RTVSPost2010PropOp53
 70
     1
102
RTVSPost2010Prop54
  1
strokes_ogs.tif
102
RTVSPost2010PropOp54
 70
     1
102
RTVSPost2010Prop55
280
     0
102
RTVSPost2010PropOp55
 70
     1
102
RTVSPost2010Prop56
140
1.0
102
RTVSPost2010PropOp56
 70
     1
102
RTVSPost2010Prop57
140
1.0
102
RTVSPost2010PropOp57
 70
     1
102
RTVSPropertyOp0
 70
     1
102
RTVSPropertyOp1
 70
     1
102
RTVSPropertyOp2
 70
     1
102
RTVSPropertyOp3
 70
     1
102
RTVSPropertyOp4
 70
     1
102
RTVSPropertyOp5
 70
     1
102
RTVSPropertyOp6
 70
     1
102
RTVSPropertyOp7
 70
     1
102
RTVSPropertyOp8
 70
     1
102
RTVSPropertyOp9
 70
     1
102
RTVSPropertyOp10
 70
     1
102
RTVSPropertyOp11
 70
     1
102
RTVSPropertyOp12
 70
     1
102
RTVSPropertyOp13
 70
     1
102
RTVSPropertyOp14
 70
     1
102
RTVSPropertyOp15
 70
     1
102
RTVSPropertyOp16
 70
     1
102
RTVSPropertyOp17
 70
     1
102
RTVSPropertyOp18
 70
     1
102
RTVSPropertyOp19
 70
     1
102
RTVSPropertyOp20
 70
     1
102
RTVSPropertyOp21
 70
     1
102
RTVSPropertyOp22
 70
     1
102
RTVSPropertyOp23
 70
     1
102
RTVSPropertyOp24
 70
     1
102
RTVSPropertyOp25
 70
     1
102
RTVSPropertyOp26
 70
     1
102
RTVSPropertyOp27
 70
     1
102
RTVSPropertyOp28
 70
     1
102
RTVSPropertyOp29
 70
     1
102
RTVSPropertyOp30
 70
     1
102
RTVSPropertyOp31
 70
     1
102
RTVSPropertyOp32
 70
     1
102
RTVSPropertyOp33
 70
     1
102
RTVSPropertyOp34
 70
     1
102
RTVSPropertyOp35
 70
     1
102
RTVSPropertyOp36
 70
     1
102
RTVSPropertyOp37
 70
     1
102
RTVSPropertyOp38
 70
     1
102
RTVSPropertyOp39
 70
     1
102
RTVSPropertyOp40
 70
     1
102
RTVSPropertyOp41
 70
     1
102
RTVSPropertyOp42
 70
     1
102
RTVSPropertyOp43
 70
     1
102
RTVSPropertyOp44
 70
     1
102
RTVSPropertyOp45
 70
     1
102
RTVSPropertyOp46
 70
     1
102
RTVSPropertyOp47
 70
     1
102
RTVSPropertyOp48
 70
     1
102
RTVSPropertyOp49
 70
     1
102
RTVSPropertyOp50
 70
     1
102
RTVSPropertyOp51
 70
     0
102
RTVSPropertyOp52
 70
     0
102
RTVSPropertyOp53
 70
     1
102
RTVSPropertyOp54
 70
     1
102
RTVSPropertyOp55
 70
     1
102
RTVSPropertyOp56
 70
     1
102
RTVSPropertyOp57
 70
     1
102
RTVSPropertyOp58
 70
     1
102
RTVSPropertyOp59
 70
     1
102
RTVSPropertyOp60
 70
     1
102
RTVSPropertyOp61
 70
     1
102
RTVSPropertyOp62
 70
     1
  0
XRECORD
  5
3CE
102
{ACAD_REACTORS
330
3CD
102
}
330
3CD
100
AcDbXrecord
280
     1
102
RTVSPost2010Prop28
280
     0
102
RTVSPost2010PropOp28
 70
     1
102
RTVSPost2010Prop29
280
     1
102
RTVSPost2010PropOp29
 70
     1
102
RTVSPost2010Prop30
280
     1
102
RTVSPost2010PropOp30
 70
     1
102
RTVSPost2010Prop31
280
     0
102
RTVSPost2010PropOp31
 70
     1
102
RTVSPost2010Prop32
280
     0
102
RTVSPost2010PropOp32
 70
     1
102
RTVSPost2010Prop33
280
     0
102
RTVSPost2010PropOp33
 70
     1
102
RTVSPost2010Prop34
280
     0
102
RTVSPost2010PropOp34
 70
     1
102
RTVSPost2010Prop35
280
     0
102
RTVSPost2010PropOp35
 70
     1
102
RTVSPost2010Prop36
280
     0
102
RTVSPost2010PropOp36
 70
     1
102
RTVSPost2010Prop37
 90
       50
102
RTVSPost2010PropOp37
 70
     1
102
RTVSPost2010Prop38
140
0.0
102
RTVSPost2010PropOp38
 70
     1
102
RTVSPost2010Prop39
140
1.0
102
RTVSPost2010PropOp39
 70
     1
102
RTVSPost2010Prop40
 90
        0
102
RTVSPost2010PropOp40
 70
     1
102
RTVSPost2010Prop41ColorIndex
 90
       18
102
RTVSPost2010Prop41ColorRGB
 90
        0
102
RTVSPost2010PropOp41
 70
     1
102
RTVSPost2010Prop42
 90
       50
102
RTVSPost2010PropOp42
 70
     1
102
RTVSPost2010Prop43
 90
        3
102
RTVSPost2010PropOp43
 70
     1
102
RTVSPost2010Prop44ColorIndex
 90
        5
102
RTVSPost2010Prop44ColorRGB
 90
      255
102
RTVSPost2010PropOp44
 70
     1
102
RTVSPost2010Prop45
280
     0
102
RTVSPost2010PropOp45
 70
     1
102
RTVSPost2010Prop46
 90
       50
102
RTVSPost2010PropOp46
 70
     1
102
RTVSPost2010Prop47
 90
       50
102
RTVSPost2010PropOp47
 70
     1
102
RTVSPost2010Prop48
 90
       50
102
RTVSPost2010PropOp48
 70
     1
102
RTVSPost2010Prop49
280
     0
102
RTVSPost2010PropOp49
 70
     1
102
RTVSPost2010Prop50
 90
       50
102
RTVSPost2010PropOp50
 70
     1
102
RTVSPost2010Prop51ColorIndex
 90
      256
102
RTVSPost2010Prop51ColorRGB
 90
-16777216
102
RTVSPost2010PropOp51
 70
     0
102
RTVSPost2010Prop52
140
1.0
102
RTVSPost2010PropOp52
 70
     0
102
RTVSPost2010Prop53
 90
        2
102
RTVSPost2010PropOp53
 70
     1
102
RTVSPost2010Prop54
  1
strokes_ogs.tif
102
RTVSPost2010PropOp54
 70
     1
102
RTVSPost2010Prop55
280
     0
102
RTVSPost2010PropOp55
 70
     1
102
RTVSPost2010Prop56
140
1.0
102
RTVSPost2010PropOp56
 70
     1
102
RTVSPost2010Prop57
140
1.0
102
RTVSPost2010PropOp57
 70
     1
102
RTVSPropertyOp0
 70
     1
102
RTVSPropertyOp1
 70
     1
102
RTVSPropertyOp2
 70
     1
102
RTVSPropertyOp3
 70
     1
102
RTVSPropertyOp4
 70
     1
102
RTVSPropertyOp5
 70
     1
102
RTVSPropertyOp6
 70
     1
102
RTVSPropertyOp7
 70
     1
102
RTVSPropertyOp8
 70
     1
102
RTVSPropertyOp9
 70
     1
102
RTVSPropertyOp10
 70
     1
102
RTVSPropertyOp11
 70
     1
102
RTVSPropertyOp12
 70
     1
102
RTVSPropertyOp13
 70
     1
102
RTVSPropertyOp14
 70
     1
102
RTVSPropertyOp15
 70
     1
102
RTVSPropertyOp16
 70
     1
102
RTVSPropertyOp17
 70
     1
102
RTVSPropertyOp18
 70
     1
102
RTVSPropertyOp19
 70
     1
102
RTVSPropertyOp20
 70
     1
102
RTVSPropertyOp21
 70
     1
102
RTVSPropertyOp22
 70
     1
102
RTVSPropertyOp23
 70
     1
102
RTVSPropertyOp24
 70
     1
102
RTVSPropertyOp25
 70
     1
102
RTVSPropertyOp26
 70
     1
102
RTVSPropertyOp27
 70
     1
102
RTVSPropertyOp28
 70
     1
102
RTVSPropertyOp29
 70
     1
102
RTVSPropertyOp30
 70
     1
102
RTVSPropertyOp31
 70
     1
102
RTVSPropertyOp32
 70
     1
102
RTVSPropertyOp33
 70
     1
102
RTVSPropertyOp34
 70
     1
102
RTVSPropertyOp35
 70
     1
102
RTVSPropertyOp36
 70
     1
102
RTVSPropertyOp37
 70
     1
102
RTVSPropertyOp38
 70
     1
102
RTVSPropertyOp39
 70
     1
102
RTVSPropertyOp40
 70
     1
102
RTVSPropertyOp41
 70
     1
102
RTVSPropertyOp42
 70
     1
102
RTVSPropertyOp43
 70
     1
102
RTVSPropertyOp44
 70
     1
102
RTVSPropertyOp45
 70
     1
102
RTVSPropertyOp46
 70
     1
102
RTVSPropertyOp47
 70
     1
102
RTVSPropertyOp48
 70
     1
102
RTVSPropertyOp49
 70
     1
102
RTVSPropertyOp50
 70
     1
102
RTVSPropertyOp51
 70
     0
102
RTVSPropertyOp52
 70
     0
102
RTVSPropertyOp53
 70
     1
102
RTVSPropertyOp54
 70
     1
102
RTVSPropertyOp55
 70
     1
102
RTVSPropertyOp56
 70
     1
102
RTVSPropertyOp57
 70
     1
102
RTVSPropertyOp58
 70
     1
102
RTVSPropertyOp59
 70
     1
102
RTVSPropertyOp60
 70
     1
102
RTVSPropertyOp61
 70
     1
102
RTVSPropertyOp62
 70
     1
  0
XRECORD
  5
3E6
102
{ACAD_REACTORS
330
3E5
102
}
330
3E5
100
AcDbXrecord
280
     1
102
RTVSPost2010Prop28
280
     0
102
RTVSPost2010PropOp28
 70
     1
102
RTVSPost2010Prop29
280
     1
102
RTVSPost2010PropOp29
 70
     1
102
RTVSPost2010Prop30
280
     1
102
RTVSPost2010PropOp30
 70
     1
102
RTVSPost2010Prop31
280
     0
102
RTVSPost2010PropOp31
 70
     1
102
RTVSPost2010Prop32
280
     0
102
RTVSPost2010PropOp32
 70
     1
102
RTVSPost2010Prop33
280
     0
102
RTVSPost2010PropOp33
 70
     1
102
RTVSPost2010Prop34
280
     0
102
RTVSPost2010PropOp34
 70
     1
102
RTVSPost2010Prop35
280
     0
102
RTVSPost2010PropOp35
 70
     1
102
RTVSPost2010Prop36
280
     0
102
RTVSPost2010PropOp36
 70
     1
102
RTVSPost2010Prop37
 90
       50
102
RTVSPost2010PropOp37
 70
     1
102
RTVSPost2010Prop38
140
0.0
102
RTVSPost2010PropOp38
 70
     1
102
RTVSPost2010Prop39
140
1.0
102
RTVSPost2010PropOp39
 70
     1
102
RTVSPost2010Prop40
 90
        0
102
RTVSPost2010PropOp40
 70
     1
102
RTVSPost2010Prop41ColorIndex
 90
       18
102
RTVSPost2010Prop41ColorRGB
 90
        0
102
RTVSPost2010PropOp41
 70
     1
102
RTVSPost2010Prop42
 90
       50
102
RTVSPost2010PropOp42
 70
     1
102
RTVSPost2010Prop43
 90
        3
102
RTVSPost2010PropOp43
 70
     1
102
RTVSPost2010Prop44ColorIndex
 90
        5
102
RTVSPost2010Prop44ColorRGB
 90
      255
102
RTVSPost2010PropOp44
 70
     1
102
RTVSPost2010Prop45
280
     0
102
RTVSPost2010PropOp45
 70
     1
102
RTVSPost2010Prop46
 90
       50
102
RTVSPost2010PropOp46
 70
     1
102
RTVSPost2010Prop47
 90
       50
102
RTVSPost2010PropOp47
 70
     1
102
RTVSPost2010Prop48
 90
       50
102
RTVSPost2010PropOp48
 70
     1
102
RTVSPost2010Prop49
280
     0
102
RTVSPost2010PropOp49
 70
     1
102
RTVSPost2010Prop50
 90
       50
102
RTVSPost2010PropOp50
 70
     1
102
RTVSPost2010Prop51ColorIndex
 90
      256
102
RTVSPost2010Prop51ColorRGB
 90
-16777216
102
RTVSPost2010PropOp51
 70
     0
102
RTVSPost2010Prop52
140
1.0
102
RTVSPost2010PropOp52
 70
     0
102
RTVSPost2010Prop53
 90
        2
102
RTVSPost2010PropOp53
 70
     1
102
RTVSPost2010Prop54
  1
strokes_ogs.tif
102
RTVSPost2010PropOp54
 70
     1
102
RTVSPost2010Prop55
280
     0
102
RTVSPost2010PropOp55
 70
     1
102
RTVSPost2010Prop56
140
1.0
102
RTVSPost2010PropOp56
 70
     1
102
RTVSPost2010Prop57
140
1.0
102
RTVSPost2010PropOp57
 70
     1
102
RTVSPropertyOp0
 70
     1
102
RTVSPropertyOp1
 70
     1
102
RTVSPropertyOp2
 70
     1
102
RTVSPropertyOp3
 70
     1
102
RTVSPropertyOp4
 70
     1
102
RTVSPropertyOp5
 70
     1
102
RTVSPropertyOp6
 70
     1
102
RTVSPropertyOp7
 70
     1
102
RTVSPropertyOp8
 70
     1
102
RTVSPropertyOp9
 70
     1
102
RTVSPropertyOp10
 70
     1
102
RTVSPropertyOp11
 70
     1
102
RTVSPropertyOp12
 70
     1
102
RTVSPropertyOp13
 70
     1
102
RTVSPropertyOp14
 70
     1
102
RTVSPropertyOp15
 70
     1
102
RTVSPropertyOp16
 70
     1
102
RTVSPropertyOp17
 70
     1
102
RTVSPropertyOp18
 70
     1
102
RTVSPropertyOp19
 70
     1
102
RTVSPropertyOp20
 70
     1
102
RTVSPropertyOp21
 70
     1
102
RTVSPropertyOp22
 70
     1
102
RTVSPropertyOp23
 70
     1
102
RTVSPropertyOp24
 70
     1
102
RTVSPropertyOp25
 70
     1
102
RTVSPropertyOp26
 70
     1
102
RTVSPropertyOp27
 70
     1
102
RTVSPropertyOp28
 70
     1
102
RTVSPropertyOp29
 70
     1
102
RTVSPropertyOp30
 70
     1
102
RTVSPropertyOp31
 70
     1
102
RTVSPropertyOp32
 70
     1
102
RTVSPropertyOp33
 70
     1
102
RTVSPropertyOp34
 70
     1
102
RTVSPropertyOp35
 70
     1
102
RTVSPropertyOp36
 70
     1
102
RTVSPropertyOp37
 70
     1
102
RTVSPropertyOp38
 70
     1
102
RTVSPropertyOp39
 70
     1
102
RTVSPropertyOp40
 70
     1
102
RTVSPropertyOp41
 70
     1
102
RTVSPropertyOp42
 70
     1
102
RTVSPropertyOp43
 70
     1
102
RTVSPropertyOp44
 70
     1
102
RTVSPropertyOp45
 70
     1
102
RTVSPropertyOp46
 70
     1
102
RTVSPropertyOp47
 70
     1
102
RTVSPropertyOp48
 70
     1
102
RTVSPropertyOp49
 70
     1
102
RTVSPropertyOp50
 70
     1
102
RTVSPropertyOp51
 70
     0
102
RTVSPropertyOp52
 70
     0
102
RTVSPropertyOp53
 70
     1
102
RTVSPropertyOp54
 70
     1
102
RTVSPropertyOp55
 70
     1
102
RTVSPropertyOp56
 70
     1
102
RTVSPropertyOp57
 70
     1
102
RTVSPropertyOp58
 70
     1
102
RTVSPropertyOp59
 70
     1
102
RTVSPropertyOp60
 70
     1
102
RTVSPropertyOp61
 70
     1
102
RTVSPropertyOp62
 70
     1
  0
ENDSEC
  0
EOF
