  0
SECTION
  2
HEADER
  9
$ACADVER
  1
AC1009
  9
$DWGCODEPAGE
  3
ansi_932
  9
$INSBASE
 10
0.0
 20
0.0
 30
0.0
  9
$EXTMIN
 10
-1799.999999955
 20
-2685.008451011088
 30
0.0
  9
$EXTMAX
 10
1799.999999955
 20
2667.104484933234
 30
0.0
  9
$LIMMIN
 10
0.0
 20
0.0
  9
$LIMMAX
 10
12.0
 20
9.0
  9
$ORTHOMODE
 70
     0
  9
$REGENMODE
 70
     1
  9
$FILLMODE
 70
     1
  9
$QTEXTMODE
 70
     0
  9
$MIRRTEXT
 70
     1
  9
$DRAGMODE
 70
     2
  9
$LTSCALE
 40
254.0
  9
$OSMODE
 70
  1191
  9
$ATTMODE
 70
     1
  9
$TEXTSIZE
 40
0.2
  9
$TRACEWID
 40
1.0
  9
$TEXTSTYLE
  7
STANDARD
  9
$CLAYER
  8
DATA
  9
$CELTYPE
  6
BYLAYER
  9
$CECOLOR
 62
   256
  9
$DIMSCALE
 40
1.0
  9
$DIMASZ
 40
0.18
  9
$DIMEXO
 40
0.0625
  9
$DIMDLI
 40
0.38
  9
$DIMRND
 40
0.0
  9
$DIMDLE
 40
0.0
  9
$DIMEXE
 40
0.18
  9
$DIMTP
 40
0.0
  9
$DIMTM
 40
0.0
  9
$DIMTXT
 40
0.18
  9
$DIMCEN
 40
0.09
  9
$DIMTSZ
 40
0.0
  9
$DIMTOL
 70
     0
  9
$DIMLIM
 70
     0
  9
$DIMTIH
 70
     1
  9
$DIMTOH
 70
     1
  9
$DIMSE1
 70
     0
  9
$DIMSE2
 70
     0
  9
$DIMTAD
 70
     0
  9
$DIMZIN
 70
     0
  9
$DIMBLK
  1

  9
$DIMASO
 70
     1
  9
$DIMSHO
 70
     1
  9
$DIMPOST
  1

  9
$DIMAPOST
  1

  9
$DIMALT
 70
     0
  9
$DIMALTD
 70
     2
  9
$DIMALTF
 40
25.4
  9
$DIMLFAC
 40
1.0
  9
$DIMTOFL
 70
     0
  9
$DIMTVP
 40
0.0
  9
$DIMTIX
 70
     0
  9
$DIMSOXD
 70
     0
  9
$DIMSAH
 70
     0
  9
$DIMBLK1
  1

  9
$DIMBLK2
  1

  9
$DIMSTYLE
  2
STANDARD
  9
$DIMCLRD
 70
     0
  9
$DIMCLRE
 70
     0
  9
$DIMCLRT
 70
     0
  9
$DIMTFAC
 40
1.0
  9
$DIMGAP
 40
0.09
  9
$LUNITS
 70
     2
  9
$LUPREC
 70
     2
  9
$SKETCHINC
 40
0.1
  9
$FILLETRAD
 40
0.5
  9
$AUNITS
 70
     0
  9
$AUPREC
 70
     1
  9
$MENU
  1
.
  9
$ELEVATION
 40
0.0
  9
$PELEVATION
 40
0.0
  9
$THICKNESS
 40
0.0
  9
$LIMCHECK
 70
     0
  9
$CHAMFERA
 40
0.0
  9
$CHAMFERB
 40
0.0
  9
$SKPOLY
 70
     0
  9
$TDCREATE
 40
2459836.474905289
  9
$TDUPDATE
 40
2459836.475936261
  9
$TDINDWG
 40
2459836.100936979
  9
$TDUSRTIMER
 40
0.0010317014
  9
$USRTIMER
 70
     1
  9
$ANGBASE
 50
0.0
  9
$ANGDIR
 70
     0
  9
$PDMODE
 70
     1
  9
$PDSIZE
 40
-2.0
  9
$PLINEWID
 40
0.0
  9
$COORDS
 70
     0
  9
$SPLFRAME
 70
     0
  9
$SPLINETYPE
 70
     6
  9
$SPLINESEGS
 70
     8
  9
$ATTDIA
 70
     1
  9
$ATTREQ
 70
     1
  9
$HANDLING
 70
     1
  9
$HANDSEED
  5
778
  9
$SURFTAB1
 70
     6
  9
$SURFTAB2
 70
     6
  9
$SURFTYPE
 70
     6
  9
$SURFU
 70
     6
  9
$SURFV
 70
     6
  9
$UCSNAME
  2

  9
$UCSORG
 10
0.0
 20
0.0
 30
0.0
  9
$UCSXDIR
 10
1.0
 20
0.0
 30
0.0
  9
$UCSYDIR
 10
0.0
 20
1.0
 30
0.0
  9
$PUCSNAME
  2

  9
$PUCSORG
 10
0.0
 20
0.0
 30
0.0
  9
$PUCSXDIR
 10
1.0
 20
0.0
 30
0.0
  9
$PUCSYDIR
 10
0.0
 20
1.0
 30
0.0
  9
$USERI1
 70
     0
  9
$USERI2
 70
     0
  9
$USERI3
 70
     0
  9
$USERI4
 70
     0
  9
$USERI5
 70
     0
  9
$USERR1
 40
0.0
  9
$USERR2
 40
0.0
  9
$USERR3
 40
0.0
  9
$USERR4
 40
0.0
  9
$USERR5
 40
0.0
  9
$WORLDVIEW
 70
     1
  9
$SHADEDGE
 70
     3
  9
$SHADEDIF
 70
    70
  9
$TILEMODE
 70
     1
  9
$MAXACTVP
 70
    64
  9
$PLIMCHECK
 70
     0
  9
$PEXTMIN
 10
1.000000000000000E+20
 20
1.000000000000000E+20
 30
1.000000000000000E+20
  9
$PEXTMAX
 10
-1.000000000000000E+20
 20
-1.000000000000000E+20
 30
-1.000000000000000E+20
  9
$PLIMMIN
 10
-20.0
 20
-7.5
  9
$PLIMMAX
 10
277.0
 20
202.5
  9
$UNITMODE
 70
     0
  9
$VISRETAIN
 70
     1
  9
$PLINEGEN
 70
     0
  9
$PSLTSCALE
 70
     1
  0
ENDSEC
  0
SECTION
  2
TABLES
  0
TABLE
  2
VPORT
 70
     1
  0
VPORT
  2
*ACTIVE
 70
     0
 10
0.0
 20
0.0
 11
1.0
 21
1.0
 12
0.0000000000006821
 22
-8.95198303892721
 13
0.0
 23
0.0
 14
0.5
 24
0.5
 15
0.5
 25
0.5
 16
0.0
 26
0.0
 36
1.0
 17
0.0
 27
0.0
 37
0.0
 40
5393.52193351449
 41
2.443378119001919
 42
2000.0
 43
0.0
 44
0.0
 50
0.0
 51
0.0
 71
     0
 72
   100
 73
     1
 74
     3
 75
     0
 76
     0
 77
     0
 78
     0
  0
ENDTAB
  0
TABLE
  2
LTYPE
 70
    12
  0
LTYPE
  2
CONTINUOUS
 70
     0
  3
Solid line
 72
    65
 73
     0
 40
0.0
  0
LTYPE
  2
______-8
 70
     0
  3

 72
    65
 73
     6
 40
0.5
 49
0.25
 49
-0.08331298828125
 49
0.02777099609375
 49
-0.055572509765625
 49
0.02777099609375
 49
-0.055572509765625
  0
LTYPE
  2
______-12
 70
     0
  3

 72
    65
 73
     4
 40
2.182677165354331
 49
1.364173228346457
 49
-0.2728346456692914
 49
0.2728346456692914
 49
-0.2728346456692914
  0
ENDTAB
  0
TABLE
  2
LAYER
 70
     5
  0
LAYER
  2
0
 70
     0
 62
     7
  6
CONTINUOUS
  0
LAYER
  2
HIBINO-BASE
 70
     0
 62
     7
  6
CONTINUOUS
  0
LAYER
  2
SPEC
 70
     0
 62
     7
  6
CONTINUOUS
  0
LAYER
  2
DIMNSIONS
 70
     0
 62
     7
  6
CONTINUOUS
  0
LAYER
  2
DATA
 70
     0
 62
     7
  6
CONTINUOUS
  0
ENDTAB
  0
TABLE
  2
STYLE
 70
     2
  0
STYLE
  2
STANDARD
 70
     0
 40
0.0
 41
1.0
 50
0.0
 71
     0
 42
0.2
  3
txt
  4
BIGFONT.SHX
  0
ENDTAB
  0
TABLE
  2
VIEW
 70
     0
  0
ENDTAB
  0
TABLE
  2
UCS
 70
     0
  0
ENDTAB
  0
TABLE
  2
APPID
 70
     5
  0
APPID
  2
ACAD
 70
     0
  0
APPID
  2
ACAECLAYERSTANDARD
 70
     0
  0
APPID
  2
ACCMTRANSPARENCY
 70
     0
  0
APPID
  2
ACAD_MLEADERVER
 70
     0
  0
APPID
  2
ACADANNOPO
 70
     0
  0
ENDTAB
  0
TABLE
  2
DIMSTYLE
 70
     1
  0
DIMSTYLE
  2
STANDARD
 70
     0
  3

  4

  5

  6

  7

 40
1.0
 41
0.18
 42
0.0625
 43
0.38
 44
0.18
 45
0.0
 46
0.0
 47
0.0
 48
0.0
140
0.18
141
0.09
142
0.0
143
25.4
144
1.0
145
0.0
146
1.0
147
0.09
 71
     0
 72
     0
 73
     1
 74
     1
 75
     0
 76
     0
 77
     0
 78
     0
170
     0
171
     2
172
     0
173
     0
174
     0
175
     0
176
     0
177
     0
178
     0
  0
ENDTAB
  0
ENDSEC
  0
SECTION
  2
BLOCKS
  0
BLOCK
  8
DATA
  2
$MODEL_SPACE
 70
     0
 10
0.0
 20
0.0
 30
0.0
  3
$MODEL_SPACE
  1

  0
ENDBLK
  5
679
  8
DATA
  0
BLOCK
 67
     1
  8
DATA
  2
$PAPER_SPACE
 70
     0
 10
0.0
 20
0.0
 30
0.0
  3
$PAPER_SPACE
  1

  0
ENDBLK
  5
677
 67
     1
  8
DATA
  0
ENDSEC
  0
SECTION
  2
ENTITIES
  0
LINE
  5
80
  8
HIBINO-BASE
  6
CONTINUOUS
 62
     7
 10
-1799.999999955
 20
2667.104484933234
 30
0.0
 11
1799.999999955
 21
2667.104484933234
 31
0.0
  0
LINE
  5
81
  8
HIBINO-BASE
  6
CONTINUOUS
 62
     7
 10
1799.999999955
 20
-2532.895514936766
 30
0.0
 11
-1799.999999955
 21
-2532.895514936766
 31
0.0
  0
LINE
  5
82
  8
HIBINO-BASE
  6
CONTINUOUS
 62
     7
 10
-1799.999999955
 20
-2532.895514936766
 30
0.0
 11
-1799.999999955
 21
2667.104484933234
 31
0.0
  0
LINE
  5
83
  8
HIBINO-BASE
  6
CONTINUOUS
 62
     7
 10
1799.999999955
 20
2667.104484933234
 30
0.0
 11
1799.999999955
 21
-2532.895514936766
 31
0.0
  0
LINE
  5
84
  8
HIBINO-BASE
  6
CONTINUOUS
 62
     7
 10
0.0000000000002842
 20
-2082.895514948016
 30
0.0
 11
1799.999999955
 21
-2082.895514948016
 31
0.0
  0
LINE
  5
85
  8
HIBINO-BASE
  6
CONTINUOUS
 62
     7
 10
0.0000000000002842
 20
-2532.895514936766
 30
0.0
 11
0.0000000000002842
 21
-2082.895514948016
 31
0.0
  0
TEXT
  5
86
  8
HIBINO-BASE
 62
     7
 10
17.9999999995504
 20
-2133.069381613428
 30
0.0
 40
32.49414062418764
  1
NOTE
 51
0.7
 11
17.9999999995504
 21
-2100.57524098924
 31
0.0
 73
     3
  0
LINE
  5
87
  8
HIBINO-BASE
  6
CONTINUOUS
 62
     7
 10
699.9999999825003
 20
-2532.895514936766
 30
0.0
 11
699.9999999825003
 21
-2082.895514948016
 31
0.0
  0
TEXT
  5
88
  8
HIBINO-BASE
 62
     7
 10
717.9999999820498
 20
-2133.069381613428
 30
0.0
 40
32.49414062418764
  1
TITLE
 51
0.7
 11
717.9999999820498
 21
-2100.57524098924
 31
0.0
 73
     3
  0
LINE
  5
89
  8
HIBINO-BASE
  6
CONTINUOUS
 62
     7
 10
0.0000000000002842
 20
-2332.895514941766
 30
0.0
 11
1799.999999955
 21
-2332.895514941766
 31
0.0
  0
TEXT
  5
8A
  8
HIBINO-BASE
 62
     7
 10
967.9999999757998
 20
-2381.942981607207
 30
0.0
 40
32.49414062418764
  1
DRAWN
 51
0.7
 11
967.9999999757998
 21
-2349.448840983019
 31
0.0
 73
     3
  0
TEXT
  5
8B
  8
HIBINO-BASE
 62
     7
 10
467.9999999882998
 20
-2381.942981607207
 30
0.0
 40
32.49414062418764
  1
DATE
 51
0.7
 11
467.9999999882998
 21
-2349.448840983019
 31
0.0
 73
     3
  0
TEXT
  5
8C
  8
HIBINO-BASE
 62
     7
 10
267.9999999932998
 20
-2381.942981607207
 30
0.0
 40
32.49414062418764
  1
SCALE
 51
0.7
 11
267.9999999932998
 21
-2349.448840983019
 31
0.0
 73
     3
  0
TEXT
  5
8D
  8
HIBINO-BASE
 62
     7
 10
717.9999999820498
 20
-2381.942981607207
 30
0.0
 40
32.49414062418764
  1
DESIGN
 51
0.7
 11
717.9999999820498
 21
-2349.448840983019
 31
0.0
 73
     3
  0
TEXT
  5
8E
  8
HIBINO-BASE
 62
     7
 10
1467.9999999633
 20
-2381.942981607207
 30
0.0
 40
32.49414062418764
  1
DRAWING NO.
 51
0.7
 11
1467.9999999633
 21
-2349.448840983019
 31
0.0
 73
     3
  0
TEXT
  5
8F
  8
HIBINO-BASE
 62
     7
 10
1217.99999996955
 20
-2381.942981607207
 30
0.0
 40
32.49414062418764
  1
CHECK
 51
0.7
 11
1217.99999996955
 21
-2349.448840983019
 31
0.0
 73
     3
  0
LINE
  5
90
  8
HIBINO-BASE
  6
CONTINUOUS
 62
     7
 10
287.4999999928128
 20
-2507.895514937391
 30
0.0
 11
362.4999999909378
 21
-2432.895514939266
 31
0.0
  0
TEXT
  5
91
  8
HIBINO-BASE
 62
     7
 10
274.9999999931253
 20
-2455.074381605379
 30
0.0
 40
32.49414062418764
  1
1
 51
0.7
 11
274.9999999931253
 21
-2422.580240981191
 31
0.0
 73
     3
  0
LINE
  5
92
  8
HIBINO-BASE
  6
CONTINUOUS
 62
     7
 10
249.9999999937503
 20
-2532.895514936766
 30
0.0
 11
249.9999999937503
 21
-2332.895514941766
 31
0.0
  0
LINE
  5
93
  8
HIBINO-BASE
  6
CONTINUOUS
 62
     7
 10
449.9999999887497
 20
-2532.895514936766
 30
0.0
 11
449.9999999887497
 21
-2332.895514941766
 31
0.0
  0
LINE
  5
94
  8
HIBINO-BASE
  6
CONTINUOUS
 62
     7
 10
949.9999999762497
 20
-2332.895514941766
 30
0.0
 11
949.9999999762497
 21
-2532.895514936766
 31
0.0
  0
LINE
  5
95
  8
HIBINO-BASE
  6
CONTINUOUS
 62
     7
 10
1449.99999996375
 20
-2332.895514941766
 30
0.0
 11
1449.99999996375
 21
-2532.895514936766
 31
0.0
  0
LINE
  5
96
  8
HIBINO-BASE
  6
CONTINUOUS
 62
     7
 10
1199.99999997
 20
-2532.895514936766
 30
0.0
 11
1199.99999997
 21
-2332.895514941766
 31
0.0
  0
TEXT
  5
97
  8
HIBINO-BASE
 62
     7
 10
467.1307999883219
 20
-2475.622581604864
 30
0.0
 40
32.49414062418764
  1
'22.09.
 51
0.7
 11
467.1307999883219
 21
-2443.128440980676
 31
0.0
 73
     3
  0
TEXT
  5
98
  8
HIBINO-BASE
 62
     7
 10
349.9999999912503
 20
-2492.574381604441
 30
0.0
 40
32.49414062418764
  1
20
 51
0.7
 11
349.9999999912503
 21
-2460.080240980253
 31
0.0
 73
     3
  0
TEXT
  5
99
  8
HIBINO-BASE
 62
     7
 10
980.1162001961895
 20
-2475.622581604864
 30
0.0
 40
32.49414062418764
  1
N.Sasaki
 51
0.7
 11
980.1162001961895
 21
-2443.128440980676
 31
0.0
 73
     3
  0
TEXT
  5
9A
  8
HIBINO-BASE
 62
     7
 10
77.6666666647257
 20
-2493.375514937753
 30
0.0
 40
64.98828124837527
  1
A4
 51
0.7
 11
77.6666666647257
 21
-2428.387233689378
 31
0.0
 73
     3
  0
TEXT
  5
9B
  8
HIBINO-BASE
 62
     7
 10
19.1666666661874
 20
-2385.284614940456
 30
0.0
 40
32.49414062418764
  1
PAPER SIZE
 51
0.7
 11
19.1666666661874
 21
-2352.790474316269
 31
0.0
 73
     3
  0
TEXT
  5
9C
  8
HIBINO-BASE
 62
     7
 10
-1656.319999958591
 20
-2661.069070933561
 30
0.0
 40
71.81814023257952
  1
Hibino Corporation
 51
0.7
 11
-1656.319999958591
 21
-2589.250930700982
 31
0.0
 73
     3
  0
TEXT
  5
9D
  8
HIBINO-BASE
 62
     7
 10
1001.367799974966
 20
-2661.069070933561
 30
0.0
 40
71.81814023257952
  1
ヒビノ株式会社
 51
0.7
 11
1001.367799974966
 21
-2589.250930700982
 31
0.0
 73
     3
  0
LINE
  5
9E
  8
SPEC
  6
CONTINUOUS
 62
     7
 10
-1649.999999958749
 20
2467.104484938234
 30
0.0
 11
1299.9999999675
 21
2467.104484938234
 31
0.0
  0
LINE
  5
9F
  8
SPEC
  6
CONTINUOUS
 62
     7
 10
-1649.999999958749
 20
2392.104484940109
 30
0.0
 11
1299.9999999675
 21
2392.104484940109
 31
0.0
  0
LINE
  5
A0
  8
SPEC
  6
CONTINUOUS
 62
     7
 10
-1649.999999958749
 20
892.104484977609
 30
0.0
 11
1299.9999999675
 21
892.104484977609
 31
0.0
  0
LINE
  5
A1
  8
SPEC
  6
CONTINUOUS
 62
     7
 10
-1649.999999958749
 20
2467.104484938234
 30
0.0
 11
-1649.999999958749
 21
892.1044849776092
 31
0.0
  0
TEXT
  5
A2
  8
SPEC
 62
     7
 10
-1624.999999959374
 20
2494.969884937537
 30
0.0
 40
48.74121093628146
  1
仕様
 51
0.7
 11
-1624.999999959374
 21
2543.711095873819
 31
0.0
 73
     3
  0
LINE
  5
A3
  8
SPEC
  6
CONTINUOUS
 62
     7
 10
-800.0
 20
2467.104484938234
 30
0.0
 11
-800.0
 21
892.1044849776092
 31
0.0
  0
LINE
  5
A4
  8
SPEC
  6
CONTINUOUS
 62
     7
 10
1299.9999999675
 20
2467.104484938234
 30
0.0
 11
1299.9999999675
 21
892.1044849776092
 31
0.0
  0
TEXT
  5
A5
  8
SPEC
 62
     7
 10
-1631.9999999592
 20
907.8628405327707
 30
0.0
 40
37.90983072821892
  1
付属品
 51
0.7
 11
-1631.9999999592
 21
945.7726712609897
 31
0.0
 73
     3
  0
TEXT
  5
A6
  8
SPEC
 62
     7
 10
-1631.9999999592
 20
1057.862840529021
 30
0.0
 40
37.90983072821892
  1
寸法(W×H×D)
 51
0.7
 11
-1631.9999999592
 21
1095.77267125724
 31
0.0
 73
     3
  0
TEXT
  5
A7
  8
SPEC
 62
     7
 10
-1631.9999999592
 20
982.8628405308956
 30
0.0
 40
37.90983072821892
  1
質量
 51
0.7
 11
-1631.9999999592
 21
1020.772671259115
 31
0.0
 73
     3
  0
LINE
  5
A8
  8
SPEC
  6
CONTINUOUS
 62
     7
 10
-1649.999999958749
 20
2317.104484941984
 30
0.0
 11
1299.9999999675
 21
2317.104484941984
 31
0.0
  0
LINE
  5
A9
  8
SPEC
  6
CONTINUOUS
 62
     7
 10
-1649.999999958749
 20
2242.104484943859
 30
0.0
 11
1299.9999999675
 21
2242.104484943859
 31
0.0
  0
LINE
  5
AA
  8
SPEC
  6
CONTINUOUS
 62
     7
 10
-1649.999999958749
 20
2167.104484945734
 30
0.0
 11
1299.9999999675
 21
2167.104484945734
 31
0.0
  0
LINE
  5
AB
  8
SPEC
  6
CONTINUOUS
 62
     7
 10
-1225.0
 20
2092.104484947609
 30
0.0
 11
1299.9999999675
 21
2092.104484947609
 31
0.0
  0
LINE
  5
AC
  8
SPEC
  6
CONTINUOUS
 62
     7
 10
-1649.999999958749
 20
2017.104484949484
 30
0.0
 11
1299.9999999675
 21
2017.104484949484
 31
0.0
  0
LINE
  5
AD
  8
SPEC
  6
CONTINUOUS
 62
     7
 10
-1649.999999958749
 20
1942.104484951359
 30
0.0
 11
1299.9999999675
 21
1942.104484951359
 31
0.0
  0
LINE
  5
AE
  8
SPEC
  6
CONTINUOUS
 62
     7
 10
-1649.999999958749
 20
1867.104484953234
 30
0.0
 11
1299.9999999675
 21
1867.104484953234
 31
0.0
  0
LINE
  5
AF
  8
SPEC
  6
CONTINUOUS
 62
     7
 10
-1225.0
 20
1792.104484955109
 30
0.0
 11
1299.9999999675
 21
1792.104484955109
 31
0.0
  0
LINE
  5
B0
  8
SPEC
  6
CONTINUOUS
 62
     7
 10
-1225.0
 20
1717.104484956984
 30
0.0
 11
1299.9999999675
 21
1717.104484956984
 31
0.0
  0
LINE
  5
B1
  8
SPEC
  6
CONTINUOUS
 62
     7
 10
-1649.999999958749
 20
1642.104484958859
 30
0.0
 11
1299.9999999675
 21
1642.104484958859
 31
0.0
  0
LINE
  5
B2
  8
SPEC
  6
CONTINUOUS
 62
     7
 10
-1649.999999958749
 20
1567.104484960734
 30
0.0
 11
1299.9999999675
 21
1567.104484960734
 31
0.0
  0
LINE
  5
B3
  8
SPEC
  6
CONTINUOUS
 62
     7
 10
-1225.0
 20
1492.104484962609
 30
0.0
 11
1299.9999999675
 21
1492.104484962609
 31
0.0
  0
LINE
  5
B4
  8
SPEC
  6
CONTINUOUS
 62
     7
 10
-1225.0
 20
1417.104484964484
 30
0.0
 11
1299.9999999675
 21
1417.104484964484
 31
0.0
  0
LINE
  5
B5
  8
SPEC
  6
CONTINUOUS
 62
     7
 10
-1649.999999958749
 20
1342.104484966359
 30
0.0
 11
1299.9999999675
 21
1342.104484966359
 31
0.0
  0
LINE
  5
B6
  8
SPEC
  6
CONTINUOUS
 62
     7
 10
-1649.999999958749
 20
1267.104484968234
 30
0.0
 11
1299.9999999675
 21
1267.104484968234
 31
0.0
  0
LINE
  5
B7
  8
SPEC
  6
CONTINUOUS
 62
     7
 10
-1649.999999958749
 20
1192.104484970109
 30
0.0
 11
1299.9999999675
 21
1192.104484970109
 31
0.0
  0
LINE
  5
B8
  8
SPEC
  6
CONTINUOUS
 62
     7
 10
-1649.999999958749
 20
1117.104484971984
 30
0.0
 11
1299.9999999675
 21
1117.104484971984
 31
0.0
  0
LINE
  5
B9
  8
SPEC
  6
CONTINUOUS
 62
     7
 10
-1649.999999958749
 20
1042.104484973859
 30
0.0
 11
1299.9999999675
 21
1042.104484973859
 31
0.0
  0
LINE
  5
BA
  8
SPEC
  6
CONTINUOUS
 62
     7
 10
-1649.999999958749
 20
967.104484975734
 30
0.0
 11
1299.9999999675
 21
967.104484975734
 31
0.0
  0
TEXT
  5
BB
  8
SPEC
 62
     7
 10
-782.00000000045
 20
1057.862840529021
 30
0.0
 40
37.90983072821892
  1
332×584×303mm(除突起部)
 51
0.7
 11
-782.00000000045
 21
1095.77267125724
 31
0.0
 73
     3
  0
TEXT
  5
BC
  8
SPEC
 62
     7
 10
-782.00000000045
 20
982.862840530896
 30
0.0
 40
37.90983072821892
  1
12kg
 51
0.7
 11
-782.00000000045
 21
1020.772671259115
 31
0.0
 73
     3
  0
TEXT
  5
BD
  8
SPEC
 62
     7
 10
-1631.9999999592
 20
2407.862840494209
 30
0.0
 40
37.90983072916666
  1
形式
 51
0.7
 11
-1631.9999999592
 21
2445.772671223375
 31
0.0
 73
     3
  0
TEXT
  5
BE
  8
SPEC
 62
     7
 10
-1631.9999999592
 20
2332.862840496084
 30
0.0
 40
37.90983072916666
  1
周波数レンジ(－10dB)^I
 51
0.7
 11
-1631.9999999592
 21
2370.77267122525
 31
0.0
 73
     3
  0
TEXT
  5
BF
  8
SPEC
 62
     7
 10
-1631.9999999592
 20
2257.862840497959
 30
0.0
 40
37.90983072916666
  1
指向角度(水平×垂直)^I
 51
0.7
 11
-1631.9999999592
 21
2295.772671227125
 31
0.0
 73
     3
  0
TEXT
  5
C0
  8
SPEC
 62
     7
 10
-1631.9999999592
 20
2182.862840499834
 30
0.0
 40
37.90983072916666
  1
最大音圧レベル
 51
0.7
 11
-1631.9999999592
 21
2220.772671229
 31
0.0
 73
     3
  0
TEXT
  5
C1
  8
SPEC
 62
     7
 10
-1631.9999999592
 20
2107.862840501709
 30
0.0
 40
37.90983072916666
  1
ドライバー構成
 51
0.7
 11
-1631.9999999592
 21
2145.772671230875
 31
0.0
 73
     3
  0
TEXT
  5
C2
  8
SPEC
 62
     7
 10
-1207.00000000045
 20
2107.862840501709
 30
0.0
 40
37.90983072916666
  1
LF
 51
0.7
 11
-1207.00000000045
 21
2145.772671230875
 31
0.0
 73
     3
  0
TEXT
  5
C3
  8
SPEC
 62
     7
 10
-1207.00000000045
 20
2032.862840503584
 30
0.0
 40
37.90983072916666
  1
HF
 51
0.7
 11
-1207.00000000045
 21
2070.77267123275
 31
0.0
 73
     3
  0
TEXT
  5
C4
  8
SPEC
 62
     7
 10
-782.0000000004499
 20
2407.862840494209
 30
0.0
 40
37.90983072916666
  1
2-Wayパワード・フルレンジ
 51
0.7
 11
-782.0000000004499
 21
2445.772671223375
 31
0.0
 73
     3
  0
TEXT
  5
C5
  8
SPEC
 62
     7
 10
-782.0000000004499
 20
2332.862840496084
 30
0.0
 40
37.90983072916666
  1
52Hz～20kHz
 51
0.7
 11
-782.0000000004499
 21
2370.77267122525
 31
0.0
 73
     3
  0
TEXT
  5
C6
  8
SPEC
 62
     7
 10
-782.0000000004499
 20
2257.862840497959
 30
0.0
 40
37.90983072916666
  1
110°×60°
 51
0.7
 11
-782.0000000004499
 21
2295.772671227125
 31
0.0
 73
     3
  0
TEXT
  5
C7
  8
SPEC
 62
     7
 10
-782.0000000004499
 20
2182.862840499834
 30
0.0
 40
37.90983072916666
  1
125dB SPL
 51
0.7
 11
-782.0000000004499
 21
2220.772671229
 31
0.0
 73
     3
  0
LINE
  5
C8
  8
SPEC
  6
CONTINUOUS
 62
     7
 10
-1225.0
 20
2167.104484945734
 30
0.0
 11
-1225.0
 21
2017.104484949484
 31
0.0
  0
LINE
  5
C9
  8
SPEC
  6
CONTINUOUS
 62
     7
 10
-1225.0
 20
1867.104484953234
 30
0.0
 11
-1225.0
 21
1342.104484966359
 31
0.0
  0
TEXT
  5
CA
  8
SPEC
 62
     7
 10
-782.0000000004499
 20
2107.862840501709
 30
0.0
 40
37.90983072916666
  1
10インチ(254mm)
 51
0.7
 11
-782.0000000004499
 21
2145.772671230875
 31
0.0
 73
     3
  0
TEXT
  5
CB
  8
SPEC
 62
     7
 10
-782.0000000004499
 20
2032.862840503584
 30
0.0
 40
37.90983072916666
  1
1インチ(25mm)
 51
0.7
 11
-782.0000000004499
 21
2070.77267123275
 31
0.0
 73
     3
  0
TEXT
  5
CC
  8
SPEC
 62
     7
 10
-1631.9999999592
 20
1957.862840505458
 30
0.0
 40
37.90983072916666
  1
クロスオーバー周波数
 51
0.7
 11
-1631.9999999592
 21
1995.772671234625
 31
0.0
 73
     3
  0
TEXT
  5
CD
  8
SPEC
 62
     7
 10
-1631.9999999592
 20
1882.862840507333
 30
0.0
 40
37.90983072916666
  1
パワーアンプ
 51
0.7
 11
-1631.9999999592
 21
1920.7726712365
 31
0.0
 73
     3
  0
TEXT
  5
CE
  8
SPEC
 62
     7
 10
-1631.9999999592
 20
1807.862840509208
 30
0.0
 40
37.90983072916666
  1
入力
 51
0.7
 11
-1631.9999999592
 21
1845.772671238375
 31
0.0
 73
     3
  0
TEXT
  5
CF
  8
SPEC
 62
     7
 10
-1631.9999999592
 20
1582.862840514833
 30
0.0
 40
37.90983072916666
  1
スルー出力
 51
0.7
 11
-1631.9999999592
 21
1620.772671244
 31
0.0
 73
     3
  0
TEXT
  5
D0
  8
SPEC
 62
     7
 10
-782.0000000004499
 20
1957.862840505458
 30
0.0
 40
37.90983072916666
  1
2kHz
 51
0.7
 11
-782.0000000004499
 21
1995.772671234625
 31
0.0
 73
     3
  0
TEXT
  5
D1
  8
SPEC
 62
     7
 10
-782.0000000004499
 20
1882.862840507333
 30
0.0
 40
37.90983072916666
  1
1,300W(ピーク)
 51
0.7
 11
-782.0000000004499
 21
1920.7726712365
 31
0.0
 73
     3
  0
TEXT
  5
D2
  8
SPEC
 62
     7
 10
-1207.00000000045
 20
1807.862840509208
 30
0.0
 40
37.90983072916666
  1
チャンネル数
 51
0.7
 11
-1207.00000000045
 21
1845.772671238375
 31
0.0
 73
     3
  0
TEXT
  5
D3
  8
SPEC
 62
     7
 10
-1207.00000000045
 20
1732.862840511084
 30
0.0
 40
37.90983072916666
  1
端子・形式
 51
0.7
 11
-1207.00000000045
 21
1770.77267124025
 31
0.0
 73
     3
  0
TEXT
  5
D4
  8
SPEC
 62
     7
 10
-1207.00000000045
 20
1657.862840512958
 30
0.0
 40
37.90983072916666
  1
インピーダンス
 51
0.7
 11
-1207.00000000045
 21
1695.772671242125
 31
0.0
 73
     3
  0
TEXT
  5
D5
  8
SPEC
 62
     7
 10
-782.0000000004499
 20
1807.862840509208
 30
0.0
 40
37.90983072916666
  1
3(2モノラル+Bluetooth)
 51
0.7
 11
-782.0000000004499
 21
1845.772671238375
 31
0.0
 73
     3
  0
TEXT
  5
D6
  8
SPEC
 62
     7
 10
-782.0000000004499
 20
1732.862840511084
 30
0.0
 40
37.90983072916666
  1
XLRと標準フォーンジャック(3P)対応の複合型端子×2
 51
0.7
 11
-782.0000000004499
 21
1770.77267124025
 31
0.0
 73
     3
  0
TEXT
  5
D7
  8
SPEC
 62
     7
 10
-782.0000000004499
 20
1657.862840512958
 30
0.0
 40
37.90983072916666
  1
50kΩ/100kΩ(アンバランス/バランス)
 51
0.7
 11
-782.0000000004499
 21
1695.772671242125
 31
0.0
 73
     3
  0
TEXT
  5
D8
  8
SPEC
 62
     7
 10
-1631.9999999592
 20
1507.862840516708
 30
0.0
 40
37.90983072916666
  1
Bluetooth
 51
0.7
 11
-1631.9999999592
 21
1545.772671245875
 31
0.0
 73
     3
  0
TEXT
  5
D9
  8
SPEC
 62
     7
 10
-1207.00000000045
 20
1582.862840514833
 30
0.0
 40
37.90983072916666
  1
端子・形式
 51
0.7
 11
-1207.00000000045
 21
1620.772671244
 31
0.0
 73
     3
  0
TEXT
  5
DA
  8
SPEC
 62
     7
 10
-782.00000000045
 20
1582.862840514833
 30
0.0
 40
37.90983072916666
  1
XLR
 51
0.7
 11
-782.00000000045
 21
1620.772671244
 31
0.0
 73
     3
  0
TEXT
  5
DB
  8
SPEC
 62
     7
 10
-1631.9999999592
 20
1282.862840522333
 30
0.0
 40
37.90983072916666
  1
電源
 51
0.7
 11
-1631.9999999592
 21
1320.7726712515
 31
0.0
 73
     3
  0
TEXT
  5
DC
  8
SPEC
 62
     7
 10
-1207.00000000045
 20
1507.862840516708
 30
0.0
 40
37.90983072916666
  1
通信方式
 51
0.7
 11
-1207.00000000045
 21
1545.772671245875
 31
0.0
 73
     3
  0
TEXT
  5
DD
  8
SPEC
 62
     7
 10
-1207.00000000045
 20
1432.862840518583
 30
0.0
 40
37.90983072916666
  1
最長通信距離
 51
0.7
 11
-1207.00000000045
 21
1470.77267124775
 31
0.0
 73
     3
  0
TEXT
  5
DE
  8
SPEC
 62
     7
 10
-1207.00000000045
 20
1357.862840520459
 30
0.0
 40
37.90983072916666
  1
対応コーデック
 51
0.7
 11
-1207.00000000045
 21
1395.772671249625
 31
0.0
 73
     3
  0
TEXT
  5
DF
  8
SPEC
 62
     7
 10
-782.00000000045
 20
1507.862840516708
 30
0.0
 40
37.90983072916666
  1
Bluetooth 5.0
 51
0.7
 11
-782.00000000045
 21
1545.772671245875
 31
0.0
 73
     3
  0
TEXT
  5
E0
  8
SPEC
 62
     7
 10
-782.00000000045
 20
1432.862840518583
 30
0.0
 40
37.90983072916666
  1
見通しの良い状態で約20ｍ
 51
0.7
 11
-782.00000000045
 21
1470.77267124775
 31
0.0
 73
     3
  0
TEXT
  5
E1
  8
SPEC
 62
     7
 10
-782.00000000045
 20
1357.862840520459
 30
0.0
 40
37.90983072916666
  1
SBC
 51
0.7
 11
-782.00000000045
 21
1395.772671249625
 31
0.0
 73
     3
  0
TEXT
  5
E2
  8
SPEC
 62
     7
 10
-1631.9999999592
 20
1207.862840524208
 30
0.0
 40
37.90983072916666
  1
消費電力
 51
0.7
 11
-1631.9999999592
 21
1245.772671253375
 31
0.0
 73
     3
  0
TEXT
  5
E3
  8
SPEC
 62
     7
 10
-1631.9999999592
 20
1132.862840526083
 30
0.0
 40
37.90983072916666
  1
エンクロージャー
 51
0.7
 11
-1631.9999999592
 21
1170.77267125525
 31
0.0
 73
     3
  0
TEXT
  5
E4
  8
SPEC
 62
     7
 10
-782.0000000004497
 20
907.8628405317089
 30
0.0
 40
37.90983072916666
  1
電源コード、和文取扱説明書
 51
0.7
 11
-782.0000000004497
 21
945.7726712608755
 31
0.0
 73
     3
  0
TEXT
  5
E5
  8
SPEC
 62
     7
 10
-782.0000000004497
 20
1282.862840522333
 30
0.0
 40
37.90983072916666
  1
AC100V、50/60Hz
 51
0.7
 11
-782.0000000004497
 21
1320.7726712515
 31
0.0
 73
     3
  0
TEXT
  5
E6
  8
SPEC
 62
     7
 10
-782.0000000004497
 20
1207.862840524208
 30
0.0
 40
37.90983072916666
  1
最大500W
 51
0.7
 11
-782.0000000004497
 21
1245.772671253375
 31
0.0
 73
     3
  0
TEXT
  5
E7
  8
SPEC
 62
     7
 10
-782.0000000004497
 20
1132.862840526083
 30
0.0
 40
37.90983072916666
  1
ポリプロピレン+10％Talc、黒
 51
0.7
 11
-782.0000000004497
 21
1170.77267125525
 31
0.0
 73
     3
  0
TEXT
  5
E8
  8
DIMNSIONS
 62
     7
 10
-399.9999999899998
 20
-2287.505714942899
 30
0.0
 40
48.74121093628146
  1
(単位：mm)
 51
0.7
 11
-399.9999999899998
 21
-2238.764504006618
 31
0.0
 73
     3
  0
LINE
  5
E9
  8
DIMNSIONS
  6
CONTINUOUS
 62
     7
 10
-1325.0
 20
-721.0
 30
0.0
 11
-1520.0
 21
-721.0
 31
0.0
  0
LINE
  5
EA
  8
DIMNSIONS
  6
CONTINUOUS
 62
     7
 10
-1413.072076914732
 20
-418.5
 30
0.0
 11
-1520.0
 21
-418.5
 31
0.0
  0
LINE
  5
EB
  8
DIMNSIONS
  6
CONTINUOUS
 62
     7
 10
-1500.0
 20
-721.0
 30
0.0
 11
-1500.0
 21
-418.5
 31
0.0
  0
POLYLINE
  5
EC
  8
DIMNSIONS
  6
CONTINUOUS
 62
     7
 66
     1
 10
0.0
 20
0.0
 30
0.0
 70
   128
  0
VERTEX
  5
6C3
  8
DIMNSIONS
  6
CONTINUOUS
 62
     7
 10
-1489.282686475588
 20
-681.00244140625
 30
0.0
  0
VERTEX
  5
6C4
  8
DIMNSIONS
  6
CONTINUOUS
 62
     7
 10
-1500.0
 20
-721.0
 30
0.0
  0
VERTEX
  5
6C5
  8
DIMNSIONS
  6
CONTINUOUS
 62
     7
 10
-1510.717313524412
 20
-681.00244140625
 30
0.0
  0
SEQEND
  5
74F
  8
DIMNSIONS
  6
CONTINUOUS
 62
     7
  0
POLYLINE
  5
F1
  8
DIMNSIONS
  6
CONTINUOUS
 62
     7
 66
     1
 10
0.0
 20
0.0
 30
0.0
 70
   128
  0
VERTEX
  5
6C6
  8
DIMNSIONS
  6
CONTINUOUS
 62
     7
 10
-1510.717313524412
 20
-458.49755859375
 30
0.0
  0
VERTEX
  5
6C7
  8
DIMNSIONS
  6
CONTINUOUS
 62
     7
 10
-1500.0
 20
-418.5
 30
0.0
  0
VERTEX
  5
6C8
  8
DIMNSIONS
  6
CONTINUOUS
 62
     7
 10
-1489.282686475588
 20
-458.49755859375
 30
0.0
  0
SEQEND
  5
750
  8
DIMNSIONS
  6
CONTINUOUS
 62
     7
  0
TEXT
  5
F6
  8
DIMNSIONS
 62
     7
 10
-1514.877777777778
 20
-622.6666666666667
 30
0.0
 40
54.15690104166666
  1
303
 50
90.0
 51
0.7
 11
-1569.034678819444
 21
-622.6666666666667
 31
0.0
 73
     3
  0
LINE
  5
F7
  8
DIMNSIONS
  6
CONTINUOUS
 62
     7
 10
-1464.0
 20
-1492.0
 30
0.0
 11
-1520.0
 21
-1492.0
 31
0.0
  0
LINE
  5
F8
  8
DIMNSIONS
  6
CONTINUOUS
 62
     7
 10
-1481.0
 20
-908.0
 30
0.0
 11
-1520.0
 21
-908.0
 31
0.0
  0
LINE
  5
F9
  8
DIMNSIONS
  6
CONTINUOUS
 62
     7
 10
-1500.0
 20
-1492.0
 30
0.0
 11
-1500.0
 21
-908.0
 31
0.0
  0
POLYLINE
  5
FA
  8
DIMNSIONS
  6
CONTINUOUS
 62
     7
 66
     1
 10
0.0
 20
0.0
 30
0.0
 70
   128
  0
VERTEX
  5
6C9
  8
DIMNSIONS
  6
CONTINUOUS
 62
     7
 10
-1489.282686475588
 20
-1452.00244140625
 30
0.0
  0
VERTEX
  5
6CA
  8
DIMNSIONS
  6
CONTINUOUS
 62
     7
 10
-1500.0
 20
-1492.0
 30
0.0
  0
VERTEX
  5
6CB
  8
DIMNSIONS
  6
CONTINUOUS
 62
     7
 10
-1510.717313524412
 20
-1452.00244140625
 30
0.0
  0
SEQEND
  5
751
  8
DIMNSIONS
  6
CONTINUOUS
 62
     7
  0
POLYLINE
  5
FF
  8
DIMNSIONS
  6
CONTINUOUS
 62
     7
 66
     1
 10
0.0
 20
0.0
 30
0.0
 70
   128
  0
VERTEX
  5
6CC
  8
DIMNSIONS
  6
CONTINUOUS
 62
     7
 10
-1510.717313524412
 20
-947.99755859375
 30
0.0
  0
VERTEX
  5
6CD
  8
DIMNSIONS
  6
CONTINUOUS
 62
     7
 10
-1500.0
 20
-908.0
 30
0.0
  0
VERTEX
  5
6CE
  8
DIMNSIONS
  6
CONTINUOUS
 62
     7
 10
-1489.282686475588
 20
-947.99755859375
 30
0.0
  0
SEQEND
  5
752
  8
DIMNSIONS
  6
CONTINUOUS
 62
     7
  0
TEXT
  5
104
  8
DIMNSIONS
 62
     7
 10
-1514.877777777778
 20
-1252.916666666667
 30
0.0
 40
54.15690104166666
  1
584
 50
90.0
 51
0.7
 11
-1569.034678819444
 21
-1252.916666666667
 31
0.0
 73
     3
  0
LINE
  5
105
  8
DIMNSIONS
  6
CONTINUOUS
 62
     7
 10
-1460.0
 20
-1494.994
 30
0.0
 11
-1520.0
 21
-1494.994
 31
0.0
  0
LINE
  5
106
  8
DIMNSIONS
  6
CONTINUOUS
 62
     7
 10
-1464.0
 20
-1492.0
 30
0.0
 11
-1520.0
 21
-1492.0
 31
0.0
  0
LINE
  5
107
  8
DIMNSIONS
  6
CONTINUOUS
 62
     7
 10
-1500.0
 20
-1492.0
 30
0.0
 11
-1500.0
 21
-1494.994
 31
0.0
  0
LINE
  5
108
  8
DIMNSIONS
  6
CONTINUOUS
 62
     7
 10
-1500.0
 20
-1494.994
 30
0.0
 11
-1500.0
 21
-1564.994
 31
0.0
  0
POLYLINE
  5
109
  8
DIMNSIONS
  6
CONTINUOUS
 62
     7
 66
     1
 10
0.0
 20
0.0
 30
0.0
 70
   128
  0
VERTEX
  5
6CF
  8
DIMNSIONS
  6
CONTINUOUS
 62
     7
 10
-1510.717313524412
 20
-1534.99155859375
 30
0.0
  0
VERTEX
  5
6D0
  8
DIMNSIONS
  6
CONTINUOUS
 62
     7
 10
-1500.0
 20
-1494.994
 30
0.0
  0
VERTEX
  5
6D1
  8
DIMNSIONS
  6
CONTINUOUS
 62
     7
 10
-1489.282686475588
 20
-1534.99155859375
 30
0.0
  0
SEQEND
  5
753
  8
DIMNSIONS
  6
CONTINUOUS
 62
     7
  0
LINE
  5
10E
  8
DIMNSIONS
  6
CONTINUOUS
 62
     7
 10
-1500.0
 20
-1492.0
 30
0.0
 11
-1500.0
 21
-1422.0
 31
0.0
  0
POLYLINE
  5
10F
  8
DIMNSIONS
  6
CONTINUOUS
 62
     7
 66
     1
 10
0.0
 20
0.0
 30
0.0
 70
   128
  0
VERTEX
  5
6D2
  8
DIMNSIONS
  6
CONTINUOUS
 62
     7
 10
-1489.282686475588
 20
-1452.00244140625
 30
0.0
  0
VERTEX
  5
6D3
  8
DIMNSIONS
  6
CONTINUOUS
 62
     7
 10
-1500.0
 20
-1492.0
 30
0.0
  0
VERTEX
  5
6D4
  8
DIMNSIONS
  6
CONTINUOUS
 62
     7
 10
-1510.717313524412
 20
-1452.00244140625
 30
0.0
  0
SEQEND
  5
754
  8
DIMNSIONS
  6
CONTINUOUS
 62
     7
  0
TEXT
  5
114
  8
DIMNSIONS
 62
     7
 10
-1524.877777777778
 20
-1546.413666666667
 30
0.0
 40
54.15690104166666
  1
3.0
 50
90.0
 51
0.7
 11
-1579.034678819444
 21
-1546.413666666667
 31
0.0
 73
     3
  0
LINE
  5
115
  8
DIMNSIONS
  6
CONTINUOUS
 62
     7
 10
-1465.989
 20
-1492.0
 30
0.0
 11
-1465.989
 21
-1620.0
 31
0.0
  0
LINE
  5
116
  8
DIMNSIONS
  6
CONTINUOUS
 62
     7
 10
-1134.011
 20
-1492.0
 30
0.0
 11
-1134.011
 21
-1620.0
 31
0.0
  0
LINE
  5
117
  8
DIMNSIONS
  6
CONTINUOUS
 62
     7
 10
-1465.989
 20
-1600.0
 30
0.0
 11
-1134.011
 21
-1600.0
 31
0.0
  0
POLYLINE
  5
118
  8
DIMNSIONS
  6
CONTINUOUS
 62
     7
 66
     1
 10
0.0
 20
0.0
 30
0.0
 70
   128
  0
VERTEX
  5
6D5
  8
DIMNSIONS
  6
CONTINUOUS
 62
     7
 10
-1425.99144140625
 20
-1610.717313524412
 30
0.0
  0
VERTEX
  5
6D6
  8
DIMNSIONS
  6
CONTINUOUS
 62
     7
 10
-1465.989
 20
-1600.0
 30
0.0
  0
VERTEX
  5
6D7
  8
DIMNSIONS
  6
CONTINUOUS
 62
     7
 10
-1425.99144140625
 20
-1589.282686475588
 30
0.0
  0
SEQEND
  5
755
  8
DIMNSIONS
  6
CONTINUOUS
 62
     7
  0
POLYLINE
  5
11D
  8
DIMNSIONS
  6
CONTINUOUS
 62
     7
 66
     1
 10
0.0
 20
0.0
 30
0.0
 70
   128
  0
VERTEX
  5
6D8
  8
DIMNSIONS
  6
CONTINUOUS
 62
     7
 10
-1174.00855859375
 20
-1589.282686475588
 30
0.0
  0
VERTEX
  5
6D9
  8
DIMNSIONS
  6
CONTINUOUS
 62
     7
 10
-1134.011
 20
-1600.0
 30
0.0
  0
VERTEX
  5
6DA
  8
DIMNSIONS
  6
CONTINUOUS
 62
     7
 10
-1174.00855859375
 20
-1610.717313524412
 30
0.0
  0
SEQEND
  5
756
  8
DIMNSIONS
  6
CONTINUOUS
 62
     7
  0
TEXT
  5
122
  8
DIMNSIONS
 62
     7
 10
-1352.916666666667
 20
-1582.622222222222
 30
0.0
 40
54.15690104166666
  1
332
 51
0.7
 11
-1352.916666666667
 21
-1528.465321180556
 31
0.0
 73
     3
  0
LINE
  5
123
  8
DIMNSIONS
  6
CONTINUOUS
 62
     7
 10
-1413.072076914732
 20
-418.5
 30
0.0
 11
-1520.0
 21
-418.5
 31
0.0
  0
LINE
  5
124
  8
DIMNSIONS
  6
CONTINUOUS
 62
     7
 10
-1417.626975129568
 20
-413.4664486803104
 30
0.0
 11
-1520.0
 21
-413.4664486803104
 31
0.0
  0
LINE
  5
125
  8
DIMNSIONS
  6
CONTINUOUS
 62
     7
 10
-1500.0
 20
-413.4664486803104
 30
0.0
 11
-1500.0
 21
-418.5
 31
0.0
  0
LINE
  5
126
  8
DIMNSIONS
  6
CONTINUOUS
 62
     7
 10
-1500.0
 20
-418.5
 30
0.0
 11
-1500.0
 21
-488.5
 31
0.0
  0
POLYLINE
  5
127
  8
DIMNSIONS
  6
CONTINUOUS
 62
     7
 66
     1
 10
0.0
 20
0.0
 30
0.0
 70
   128
  0
VERTEX
  5
6DB
  8
DIMNSIONS
  6
CONTINUOUS
 62
     7
 10
-1510.717313524412
 20
-458.49755859375
 30
0.0
  0
VERTEX
  5
6DC
  8
DIMNSIONS
  6
CONTINUOUS
 62
     7
 10
-1500.0
 20
-418.5
 30
0.0
  0
VERTEX
  5
6DD
  8
DIMNSIONS
  6
CONTINUOUS
 62
     7
 10
-1489.282686475588
 20
-458.49755859375
 30
0.0
  0
SEQEND
  5
757
  8
DIMNSIONS
  6
CONTINUOUS
 62
     7
  0
LINE
  5
12C
  8
DIMNSIONS
  6
CONTINUOUS
 62
     7
 10
-1500.0
 20
-413.4664486803104
 30
0.0
 11
-1500.0
 21
-343.4664486803104
 31
0.0
  0
POLYLINE
  5
12D
  8
DIMNSIONS
  6
CONTINUOUS
 62
     7
 66
     1
 10
0.0
 20
0.0
 30
0.0
 70
   128
  0
VERTEX
  5
6DE
  8
DIMNSIONS
  6
CONTINUOUS
 62
     7
 10
-1489.282686475588
 20
-373.4688900865604
 30
0.0
  0
VERTEX
  5
6DF
  8
DIMNSIONS
  6
CONTINUOUS
 62
     7
 10
-1500.0
 20
-413.4664486803104
 30
0.0
  0
VERTEX
  5
6E0
  8
DIMNSIONS
  6
CONTINUOUS
 62
     7
 10
-1510.717313524412
 20
-373.4688900865604
 30
0.0
  0
SEQEND
  5
758
  8
DIMNSIONS
  6
CONTINUOUS
 62
     7
  0
TEXT
  5
132
  8
DIMNSIONS
 62
     7
 10
-1529.877777777778
 20
-468.8998910068219
 30
0.0
 40
54.15690104166666
  1
5.0
 50
90.0
 51
0.7
 11
-1584.034678819444
 21
-468.8998910068219
 31
0.0
 73
     3
  0
TEXT
  5
133
  8
DIMNSIONS
 62
     7
 10
-1247.083333333333
 20
-783.2244444444443
 30
0.0
 40
37.90983072916666
  1
※
 51
0.7
 11
-1247.083333333333
 21
-745.3146137152777
 31
0.0
 73
     3
  0
TEXT
  5
134
  8
DIMNSIONS
 62
     7
 10
150.0
 20
-2025.4
 30
0.0
 40
54.15690104166666
  1
※ センター振り分け
 51
0.7
 11
150.0
 21
-1971.243098958333
 31
0.0
 73
     3
  0
LINE
  5
135
  8
DIMNSIONS
  6
CONTINUOUS
 62
     7
 10
-1276.0
 20
-721.0
 30
0.0
 11
-1030.000000223517
 21
-721.0
 31
0.0
  0
LINE
  5
136
  8
DIMNSIONS
  6
CONTINUOUS
 62
     7
 10
-1171.0
 20
-651.0
 30
0.0
 11
-1030.000000223517
 21
-651.0
 31
0.0
  0
LINE
  5
137
  8
DIMNSIONS
  6
CONTINUOUS
 62
     7
 10
-1050.000000223517
 20
-651.0
 30
0.0
 11
-1050.000000223517
 21
-721.0
 31
0.0
  0
LINE
  5
138
  8
DIMNSIONS
  6
CONTINUOUS
 62
     7
 10
-1050.000000223517
 20
-721.0
 30
0.0
 11
-1050.000000223517
 21
-791.0
 31
0.0
  0
POLYLINE
  5
139
  8
DIMNSIONS
  6
CONTINUOUS
 62
     7
 66
     1
 10
0.0
 20
0.0
 30
0.0
 70
   128
  0
VERTEX
  5
6E1
  8
DIMNSIONS
  6
CONTINUOUS
 62
     7
 10
-1060.717313747929
 20
-760.99755859375
 30
0.0
  0
VERTEX
  5
6E2
  8
DIMNSIONS
  6
CONTINUOUS
 62
     7
 10
-1050.000000223517
 20
-721.0
 30
0.0
  0
VERTEX
  5
6E3
  8
DIMNSIONS
  6
CONTINUOUS
 62
     7
 10
-1039.282686699106
 20
-760.99755859375
 30
0.0
  0
SEQEND
  5
759
  8
DIMNSIONS
  6
CONTINUOUS
 62
     7
  0
LINE
  5
13E
  8
DIMNSIONS
  6
CONTINUOUS
 62
     7
 10
-1050.000000223517
 20
-651.0
 30
0.0
 11
-1050.000000223517
 21
-484.8888888887889
 31
0.0
  0
POLYLINE
  5
13F
  8
DIMNSIONS
  6
CONTINUOUS
 62
     7
 66
     1
 10
0.0
 20
0.0
 30
0.0
 70
   128
  0
VERTEX
  5
6E4
  8
DIMNSIONS
  6
CONTINUOUS
 62
     7
 10
-1039.282686699106
 20
-611.00244140625
 30
0.0
  0
VERTEX
  5
6E5
  8
DIMNSIONS
  6
CONTINUOUS
 62
     7
 10
-1050.000000223517
 20
-651.0
 30
0.0
  0
VERTEX
  5
6E6
  8
DIMNSIONS
  6
CONTINUOUS
 62
     7
 10
-1060.717313747929
 20
-611.00244140625
 30
0.0
  0
SEQEND
  5
75A
  8
DIMNSIONS
  6
CONTINUOUS
 62
     7
  0
TEXT
  5
144
  8
DIMNSIONS
 62
     7
 10
-1069.877778001295
 20
-625.9999999999
 30
0.0
 40
54.15690104166671
  1
70.0
 50
90.0
 51
0.7
 11
-1124.034679042962
 21
-625.9999999999
 31
0.0
 73
     3
  0
LINE
  5
145
  8
DIMNSIONS
  6
CONTINUOUS
 62
     7
 10
-344.2427589691791
 20
-1405.396858250283
 30
0.0
 11
-299.9999999999999
 21
-1575.0
 31
0.0
  0
POLYLINE
  5
146
  8
DIMNSIONS
  6
CONTINUOUS
 62
     7
 66
     1
 10
0.0
 20
0.0
 30
0.0
 70
   128
  0
VERTEX
  5
6E7
  8
DIMNSIONS
  6
CONTINUOUS
 62
     7
 10
-344.2427589691791
 20
-1446.80537793695
 30
0.0
  0
VERTEX
  5
6E8
  8
DIMNSIONS
  6
CONTINUOUS
 62
     7
 10
-344.2427589691791
 20
-1405.396858250283
 30
0.0
  0
VERTEX
  5
6E9
  8
DIMNSIONS
  6
CONTINUOUS
 62
     7
 10
-323.5384991258462
 20
-1441.257688232044
 30
0.0
  0
SEQEND
  5
75B
  8
DIMNSIONS
  6
CONTINUOUS
 62
     7
  0
LINE
  5
14B
  8
DIMNSIONS
  6
CONTINUOUS
 62
     7
 10
-299.9999999999999
 20
-1575.0
 30
0.0
 11
-259.9999999999999
 21
-1575.0
 31
0.0
  0
TEXT
  5
14C
  8
DIMNSIONS
 62
     7
 10
-259.9999999999999
 20
-1600.4
 30
0.0
 40
54.15690104166671
  1
M6-D30(4ヵ所)
 51
0.7
 11
-259.9999999999999
 21
-1546.243098958333
 31
0.0
 73
     3
  0
LINE
  5
14D
  8
DIMNSIONS
  6
CONTINUOUS
 62
     7
 10
-402.1143843267985
 20
-1410.524935766328
 30
0.0
 11
-478.8675134594813
 21
-1575.0
 31
0.0
  0
POLYLINE
  5
14E
  8
DIMNSIONS
  6
CONTINUOUS
 62
     7
 66
     1
 10
0.0
 20
0.0
 30
0.0
 70
   128
  0
VERTEX
  5
6EA
  8
DIMNSIONS
  6
CONTINUOUS
 62
     7
 10
-428.7312677168485
 20
-1442.245702170081
 30
0.0
  0
VERTEX
  5
6EB
  8
DIMNSIONS
  6
CONTINUOUS
 62
     7
 10
-402.1143843267985
 20
-1410.524935766328
 30
0.0
  0
VERTEX
  5
6EC
  8
DIMNSIONS
  6
CONTINUOUS
 62
     7
 10
-409.3048983102732
 20
-1451.304366994515
 30
0.0
  0
SEQEND
  5
75C
  8
DIMNSIONS
  6
CONTINUOUS
 62
     7
  0
LINE
  5
153
  8
DIMNSIONS
  6
CONTINUOUS
 62
     7
 10
-478.8675134594813
 20
-1575.0
 30
0.0
 11
-518.8675134594813
 21
-1575.0
 31
0.0
  0
TEXT
  5
154
  8
DIMNSIONS
 62
     7
 10
-1012.75640234837
 20
-1600.4
 30
0.0
 40
54.15690104166671
  1
M10-D30(2ヵ所)
 51
0.7
 11
-1012.75640234837
 21
-1546.243098958333
 31
0.0
 73
     3
  0
LINE
  5
155
  8
DIMNSIONS
  6
CONTINUOUS
 62
     7
 10
-1193.5471815636
 20
-655.0471370857504
 30
0.0
 11
-1125.000000223517
 21
-846.0
 31
0.0
  0
POLYLINE
  5
156
  8
DIMNSIONS
  6
CONTINUOUS
 62
     7
 66
     1
 10
0.0
 20
0.0
 30
0.0
 70
   128
  0
VERTEX
  5
6ED
  8
DIMNSIONS
  6
CONTINUOUS
 62
     7
 10
-1189.938191274228
 20
-696.2980848534347
 30
0.0
  0
VERTEX
  5
6EE
  8
DIMNSIONS
  6
CONTINUOUS
 62
     7
 10
-1193.5471815636
 20
-655.0471370857504
 30
0.0
  0
VERTEX
  5
6EF
  8
DIMNSIONS
  6
CONTINUOUS
 62
     7
 10
-1169.79623040715
 20
-688.9670106380638
 30
0.0
  0
SEQEND
  5
75D
  8
DIMNSIONS
  6
CONTINUOUS
 62
     7
  0
LINE
  5
15B
  8
DIMNSIONS
  6
CONTINUOUS
 62
     7
 10
-1125.000000223517
 20
-846.0
 30
0.0
 11
-1085.000000223517
 21
-846.0
 31
0.0
  0
TEXT
  5
15C
  8
DIMNSIONS
 62
     7
 10
-1085.000000223517
 20
-871.4000000000001
 30
0.0
 40
54.15690104166671
  1
M10-D20(2ヵ所)
 51
0.7
 11
-1085.000000223517
 21
-817.2430989583333
 31
0.0
 73
     3
  0
LINE
  5
15D
  8
DIMNSIONS
  6
CONTINUOUS
 62
     7
 10
-1405.0
 20
-676.0
 30
0.0
 11
-1405.0
 21
-866.0
 31
0.0
  0
LINE
  5
15E
  8
DIMNSIONS
  6
CONTINUOUS
 62
     7
 10
-1195.0
 20
-676.0
 30
0.0
 11
-1195.0
 21
-866.0
 31
0.0
  0
LINE
  5
15F
  8
DIMNSIONS
  6
CONTINUOUS
 62
     7
 10
-1405.0
 20
-846.0
 30
0.0
 11
-1195.0
 21
-846.0
 31
0.0
  0
POLYLINE
  5
160
  8
DIMNSIONS
  6
CONTINUOUS
 62
     7
 66
     1
 10
0.0
 20
0.0
 30
0.0
 70
   128
  0
VERTEX
  5
6F0
  8
DIMNSIONS
  6
CONTINUOUS
 62
     7
 10
-1365.00244140625
 20
-856.7173135244118
 30
0.0
  0
VERTEX
  5
6F1
  8
DIMNSIONS
  6
CONTINUOUS
 62
     7
 10
-1405.0
 20
-846.0
 30
0.0
  0
VERTEX
  5
6F2
  8
DIMNSIONS
  6
CONTINUOUS
 62
     7
 10
-1365.00244140625
 20
-835.2826864755882
 30
0.0
  0
SEQEND
  5
75E
  8
DIMNSIONS
  6
CONTINUOUS
 62
     7
  0
POLYLINE
  5
165
  8
DIMNSIONS
  6
CONTINUOUS
 62
     7
 66
     1
 10
0.0
 20
0.0
 30
0.0
 70
   128
  0
VERTEX
  5
6F3
  8
DIMNSIONS
  6
CONTINUOUS
 62
     7
 10
-1234.99755859375
 20
-835.2826864755882
 30
0.0
  0
VERTEX
  5
6F4
  8
DIMNSIONS
  6
CONTINUOUS
 62
     7
 10
-1195.0
 20
-846.0
 30
0.0
  0
VERTEX
  5
6F5
  8
DIMNSIONS
  6
CONTINUOUS
 62
     7
 10
-1234.99755859375
 20
-856.7173135244118
 30
0.0
  0
SEQEND
  5
75F
  8
DIMNSIONS
  6
CONTINUOUS
 62
     7
  0
TEXT
  5
16A
  8
DIMNSIONS
 62
     7
 10
-1352.916666666667
 20
-826.1222222222223
 30
0.0
 40
54.15690104166671
  1
210
 51
0.7
 11
-1352.916666666667
 21
-771.9653211805555
 31
0.0
 73
     3
  0
LINE
  5
16B
  8
DIMNSIONS
  6
CONTINUOUS
 62
     7
 10
-563.0000002235174
 20
-1492.0
 30
0.0
 11
-620.0000002235174
 21
-1492.0
 31
0.0
  0
LINE
  5
16C
  8
DIMNSIONS
  6
CONTINUOUS
 62
     7
 10
-423.9999999999999
 20
-1405.994
 30
0.0
 11
-620.0000002235174
 21
-1405.994
 31
0.0
  0
LINE
  5
16D
  8
DIMNSIONS
  6
CONTINUOUS
 62
     7
 10
-600.0000002235174
 20
-1492.0
 30
0.0
 11
-600.0000002235174
 21
-1405.994
 31
0.0
  0
POLYLINE
  5
16E
  8
DIMNSIONS
  6
CONTINUOUS
 62
     7
 66
     1
 10
0.0
 20
0.0
 30
0.0
 70
   128
  0
VERTEX
  5
6F6
  8
DIMNSIONS
  6
CONTINUOUS
 62
     7
 10
-589.2826866991056
 20
-1452.00244140625
 30
0.0
  0
VERTEX
  5
6F7
  8
DIMNSIONS
  6
CONTINUOUS
 62
     7
 10
-600.0000002235174
 20
-1492.0
 30
0.0
  0
VERTEX
  5
6F8
  8
DIMNSIONS
  6
CONTINUOUS
 62
     7
 10
-610.7173137479292
 20
-1452.00244140625
 30
0.0
  0
SEQEND
  5
760
  8
DIMNSIONS
  6
CONTINUOUS
 62
     7
  0
POLYLINE
  5
173
  8
DIMNSIONS
  6
CONTINUOUS
 62
     7
 66
     1
 10
0.0
 20
0.0
 30
0.0
 70
   128
  0
VERTEX
  5
6F9
  8
DIMNSIONS
  6
CONTINUOUS
 62
     7
 10
-610.7173137479292
 20
-1445.99155859375
 30
0.0
  0
VERTEX
  5
6FA
  8
DIMNSIONS
  6
CONTINUOUS
 62
     7
 10
-600.0000002235174
 20
-1405.994
 30
0.0
  0
VERTEX
  5
6FB
  8
DIMNSIONS
  6
CONTINUOUS
 62
     7
 10
-589.2826866991056
 20
-1445.99155859375
 30
0.0
  0
SEQEND
  5
761
  8
DIMNSIONS
  6
CONTINUOUS
 62
     7
  0
TEXT
  5
178
  8
DIMNSIONS
 62
     7
 10
-629.8777780012952
 20
-1519.552555555556
 30
0.0
 40
54.15690104166671
  1
86.0
 50
90.0
 51
0.7
 11
-684.0346790429619
 21
-1519.552555555556
 31
0.0
 73
     3
  0
LINE
  5
179
  8
DIMNSIONS
  6
CONTINUOUS
 62
     7
 10
-423.9999999999999
 20
-1405.994
 30
0.0
 11
-620.0000002235174
 21
-1405.994
 31
0.0
  0
LINE
  5
17A
  8
DIMNSIONS
  6
CONTINUOUS
 62
     7
 10
-423.9999999999999
 20
-1003.994
 30
0.0
 11
-620.0000002235174
 21
-1003.994
 31
0.0
  0
LINE
  5
17B
  8
DIMNSIONS
  6
CONTINUOUS
 62
     7
 10
-600.0000002235174
 20
-1405.994
 30
0.0
 11
-600.0000002235174
 21
-1003.994
 31
0.0
  0
POLYLINE
  5
17C
  8
DIMNSIONS
  6
CONTINUOUS
 62
     7
 66
     1
 10
0.0
 20
0.0
 30
0.0
 70
   128
  0
VERTEX
  5
6FC
  8
DIMNSIONS
  6
CONTINUOUS
 62
     7
 10
-589.2826866991056
 20
-1365.99644140625
 30
0.0
  0
VERTEX
  5
6FD
  8
DIMNSIONS
  6
CONTINUOUS
 62
     7
 10
-600.0000002235174
 20
-1405.994
 30
0.0
  0
VERTEX
  5
6FE
  8
DIMNSIONS
  6
CONTINUOUS
 62
     7
 10
-610.7173137479292
 20
-1365.99644140625
 30
0.0
  0
SEQEND
  5
762
  8
DIMNSIONS
  6
CONTINUOUS
 62
     7
  0
POLYLINE
  5
181
  8
DIMNSIONS
  6
CONTINUOUS
 62
     7
 66
     1
 10
0.0
 20
0.0
 30
0.0
 70
   128
  0
VERTEX
  5
6FF
  8
DIMNSIONS
  6
CONTINUOUS
 62
     7
 10
-610.7173137479292
 20
-1043.99155859375
 30
0.0
  0
VERTEX
  5
700
  8
DIMNSIONS
  6
CONTINUOUS
 62
     7
 10
-600.0000002235174
 20
-1003.994
 30
0.0
  0
VERTEX
  5
701
  8
DIMNSIONS
  6
CONTINUOUS
 62
     7
 10
-589.2826866991056
 20
-1043.99155859375
 30
0.0
  0
SEQEND
  5
763
  8
DIMNSIONS
  6
CONTINUOUS
 62
     7
  0
TEXT
  5
186
  8
DIMNSIONS
 62
     7
 10
-619.8777780012952
 20
-1257.910666666667
 30
0.0
 40
54.15690104166671
  1
402
 50
90.0
 51
0.7
 11
-674.0346790429619
 21
-1257.910666666667
 31
0.0
 73
     3
  0
LINE
  5
187
  8
DIMNSIONS
  6
CONTINUOUS
 62
     7
 10
-454.9999999999999
 20
-983.4939999999999
 30
0.0
 11
-454.9999999999999
 21
-851.0
 31
0.0
  0
LINE
  5
188
  8
DIMNSIONS
  6
CONTINUOUS
 62
     7
 10
-344.9999999999999
 20
-983.4939999999999
 30
0.0
 11
-344.9999999999999
 21
-851.0
 31
0.0
  0
LINE
  5
189
  8
DIMNSIONS
  6
CONTINUOUS
 62
     7
 10
-454.9999999999999
 20
-871.0
 30
0.0
 11
-344.9999999999999
 21
-871.0
 31
0.0
  0
POLYLINE
  5
18A
  8
DIMNSIONS
  6
CONTINUOUS
 62
     7
 66
     1
 10
0.0
 20
0.0
 30
0.0
 70
   128
  0
VERTEX
  5
702
  8
DIMNSIONS
  6
CONTINUOUS
 62
     7
 10
-415.0024414062499
 20
-881.7173135244118
 30
0.0
  0
VERTEX
  5
703
  8
DIMNSIONS
  6
CONTINUOUS
 62
     7
 10
-454.9999999999999
 20
-871.0
 30
0.0
  0
VERTEX
  5
704
  8
DIMNSIONS
  6
CONTINUOUS
 62
     7
 10
-415.0024414062499
 20
-860.2826864755882
 30
0.0
  0
SEQEND
  5
764
  8
DIMNSIONS
  6
CONTINUOUS
 62
     7
  0
POLYLINE
  5
18F
  8
DIMNSIONS
  6
CONTINUOUS
 62
     7
 66
     1
 10
0.0
 20
0.0
 30
0.0
 70
   128
  0
VERTEX
  5
705
  8
DIMNSIONS
  6
CONTINUOUS
 62
     7
 10
-384.9975585937499
 20
-860.2826864755882
 30
0.0
  0
VERTEX
  5
706
  8
DIMNSIONS
  6
CONTINUOUS
 62
     7
 10
-344.9999999999999
 20
-871.0
 30
0.0
  0
VERTEX
  5
707
  8
DIMNSIONS
  6
CONTINUOUS
 62
     7
 10
-384.9975585937499
 20
-881.7173135244118
 30
0.0
  0
SEQEND
  5
765
  8
DIMNSIONS
  6
CONTINUOUS
 62
     7
  0
TEXT
  5
194
  8
DIMNSIONS
 62
     7
 10
-452.9166666666666
 20
-851.1222222222223
 30
0.0
 40
54.15690104166671
  1
110
 51
0.7
 11
-452.9166666666666
 21
-796.9653211805555
 31
0.0
 73
     3
  0
LINE
  5
195
  8
DIMNSIONS
  6
CONTINUOUS
 62
     7
 10
-320.9999999999999
 20
-1007.494
 30
0.0
 11
-105.0000002235174
 21
-1007.494
 31
0.0
  0
LINE
  5
196
  8
DIMNSIONS
  6
CONTINUOUS
 62
     7
 10
-320.9999999999999
 20
-1402.494
 30
0.0
 11
-105.0000002235174
 21
-1402.494
 31
0.0
  0
LINE
  5
197
  8
DIMNSIONS
  6
CONTINUOUS
 62
     7
 10
-125.0000002235174
 20
-1007.494
 30
0.0
 11
-125.0000002235174
 21
-1402.494
 31
0.0
  0
POLYLINE
  5
198
  8
DIMNSIONS
  6
CONTINUOUS
 62
     7
 66
     1
 10
0.0
 20
0.0
 30
0.0
 70
   128
  0
VERTEX
  5
708
  8
DIMNSIONS
  6
CONTINUOUS
 62
     7
 10
-135.7173137479292
 20
-1047.49155859375
 30
0.0
  0
VERTEX
  5
709
  8
DIMNSIONS
  6
CONTINUOUS
 62
     7
 10
-125.0000002235174
 20
-1007.494
 30
0.0
  0
VERTEX
  5
70A
  8
DIMNSIONS
  6
CONTINUOUS
 62
     7
 10
-114.2826866991056
 20
-1047.49155859375
 30
0.0
  0
SEQEND
  5
766
  8
DIMNSIONS
  6
CONTINUOUS
 62
     7
  0
POLYLINE
  5
19D
  8
DIMNSIONS
  6
CONTINUOUS
 62
     7
 66
     1
 10
0.0
 20
0.0
 30
0.0
 70
   128
  0
VERTEX
  5
70B
  8
DIMNSIONS
  6
CONTINUOUS
 62
     7
 10
-114.2826866991056
 20
-1362.49644140625
 30
0.0
  0
VERTEX
  5
70C
  8
DIMNSIONS
  6
CONTINUOUS
 62
     7
 10
-125.0000002235174
 20
-1402.494
 30
0.0
  0
VERTEX
  5
70D
  8
DIMNSIONS
  6
CONTINUOUS
 62
     7
 10
-135.7173137479292
 20
-1362.49644140625
 30
0.0
  0
SEQEND
  5
767
  8
DIMNSIONS
  6
CONTINUOUS
 62
     7
  0
TEXT
  5
1A2
  8
DIMNSIONS
 62
     7
 10
-144.8777780012952
 20
-1257.910666666667
 30
0.0
 40
54.15690104166671
  1
395
 50
90.0
 51
0.7
 11
-199.034679042962
 21
-1257.910666666667
 31
0.0
 73
     3
  0
LINE
  5
1A3
  8
DIMNSIONS
  6
CONTINUOUS
 62
     7
 10
-320.9999999999999
 20
-1402.494
 30
0.0
 11
-5.000000223517418
 21
-1402.494
 31
0.0
  0
LINE
  5
1A4
  8
DIMNSIONS
  6
CONTINUOUS
 62
     7
 10
-237.0000002235174
 20
-1492.0
 30
0.0
 11
-5.000000223517418
 21
-1492.0
 31
0.0
  0
LINE
  5
1A5
  8
DIMNSIONS
  6
CONTINUOUS
 62
     7
 10
-25.00000022351742
 20
-1402.494
 30
0.0
 11
-25.00000022351742
 21
-1229.194444444445
 31
0.0
  0
LINE
  5
1A6
  8
DIMNSIONS
  6
CONTINUOUS
 62
     7
 10
-25.00000022351742
 20
-1402.494
 30
0.0
 11
-25.00000022351742
 21
-1492.0
 31
0.0
  0
POLYLINE
  5
1A7
  8
DIMNSIONS
  6
CONTINUOUS
 62
     7
 66
     1
 10
0.0
 20
0.0
 30
0.0
 70
   128
  0
VERTEX
  5
70E
  8
DIMNSIONS
  6
CONTINUOUS
 62
     7
 10
-35.71731374792924
 20
-1442.49155859375
 30
0.0
  0
VERTEX
  5
70F
  8
DIMNSIONS
  6
CONTINUOUS
 62
     7
 10
-25.00000022351742
 20
-1402.494
 30
0.0
  0
VERTEX
  5
710
  8
DIMNSIONS
  6
CONTINUOUS
 62
     7
 10
-14.28268669910559
 20
-1442.49155859375
 30
0.0
  0
SEQEND
  5
768
  8
DIMNSIONS
  6
CONTINUOUS
 62
     7
  0
POLYLINE
  5
1AC
  8
DIMNSIONS
  6
CONTINUOUS
 62
     7
 66
     1
 10
0.0
 20
0.0
 30
0.0
 70
   128
  0
VERTEX
  5
711
  8
DIMNSIONS
  6
CONTINUOUS
 62
     7
 10
-14.28268669910559
 20
-1452.00244140625
 30
0.0
  0
VERTEX
  5
712
  8
DIMNSIONS
  6
CONTINUOUS
 62
     7
 10
-25.00000022351742
 20
-1492.0
 30
0.0
  0
VERTEX
  5
713
  8
DIMNSIONS
  6
CONTINUOUS
 62
     7
 10
-35.71731374792924
 20
-1452.00244140625
 30
0.0
  0
SEQEND
  5
769
  8
DIMNSIONS
  6
CONTINUOUS
 62
     7
  0
TEXT
  5
1B1
  8
DIMNSIONS
 62
     7
 10
-44.87777800129522
 20
-1370.305555555556
 30
0.0
 40
54.15690104166671
  1
89.5
 50
90.0
 51
0.7
 11
-99.03467904296193
 21
-1370.305555555556
 31
0.0
 73
     3
  0
TEXT
  5
1B2
  8
DIMNSIONS
 62
     7
 10
-347.0833333333333
 20
-808.2244444444443
 30
0.0
 40
37.90983072916666
  1
※
 51
0.7
 11
-347.0833333333333
 21
-770.3146137152777
 31
0.0
 73
     3
  0
TEXT
  5
1B3
  8
DIMNSIONS
 62
     7
 10
-1085.0
 20
-1937.955555555556
 30
0.0
 40
54.15690104166671
  1
ポールソケット
 51
0.7
 11
-1085.0
 21
-1883.798654513889
 31
0.0
 73
     3
  0
LINE
  5
1B4
  8
DIMNSIONS
  6
CONTINUOUS
 62
     7
 10
-1282.713501728332
 20
-1791.531679446934
 30
0.0
 11
-1125.0
 21
-1842.0
 31
0.0
  0
POLYLINE
  5
1B5
  8
DIMNSIONS
  6
CONTINUOUS
 62
     7
 66
     1
 10
0.0
 20
0.0
 30
0.0
 70
   128
  0
VERTEX
  5
714
  8
DIMNSIONS
  6
CONTINUOUS
 62
     7
 10
-1247.597085443399
 20
-1813.474851732278
 30
0.0
  0
VERTEX
  5
715
  8
DIMNSIONS
  6
CONTINUOUS
 62
     7
 10
-1282.713501728332
 20
-1791.531679446934
 30
0.0
  0
VERTEX
  5
716
  8
DIMNSIONS
  6
CONTINUOUS
 62
     7
 10
-1241.330206993038
 20
-1792.976815943194
 30
0.0
  0
SEQEND
  5
76A
  8
DIMNSIONS
  6
CONTINUOUS
 62
     7
  0
LINE
  5
1BA
  8
DIMNSIONS
  6
CONTINUOUS
 62
     7
 10
-1125.0
 20
-1842.0
 30
0.0
 11
-1085.0
 21
-1842.0
 31
0.0
  0
TEXT
  5
1BB
  8
DIMNSIONS
 62
     7
 10
-1085.0
 20
-1867.4
 30
0.0
 40
54.15690104166671
  1
φ35×D70.0
 51
0.7
 11
-1085.0
 21
-1813.243098958334
 31
0.0
 73
     3
  0
LINE
  5
1BC
  8
DIMNSIONS
  6
CONTINUOUS
 62
     7
 10
-1412.072076914732
 20
-1948.5
 30
0.0
 11
-1520.0
 21
-1948.5
 31
0.0
  0
LINE
  5
1BD
  8
DIMNSIONS
  6
CONTINUOUS
 62
     7
 10
-1324.0
 20
-1786.0
 30
0.0
 11
-1520.0
 21
-1786.0
 31
0.0
  0
LINE
  5
1BE
  8
DIMNSIONS
  6
CONTINUOUS
 62
     7
 10
-1500.0
 20
-1948.5
 30
0.0
 11
-1500.0
 21
-1786.0
 31
0.0
  0
POLYLINE
  5
1BF
  8
DIMNSIONS
  6
CONTINUOUS
 62
     7
 66
     1
 10
0.0
 20
0.0
 30
0.0
 70
   128
  0
VERTEX
  5
717
  8
DIMNSIONS
  6
CONTINUOUS
 62
     7
 10
-1489.282686475588
 20
-1908.50244140625
 30
0.0
  0
VERTEX
  5
718
  8
DIMNSIONS
  6
CONTINUOUS
 62
     7
 10
-1500.0
 20
-1948.5
 30
0.0
  0
VERTEX
  5
719
  8
DIMNSIONS
  6
CONTINUOUS
 62
     7
 10
-1510.717313524412
 20
-1908.50244140625
 30
0.0
  0
SEQEND
  5
76B
  8
DIMNSIONS
  6
CONTINUOUS
 62
     7
  0
POLYLINE
  5
1C4
  8
DIMNSIONS
  6
CONTINUOUS
 62
     7
 66
     1
 10
0.0
 20
0.0
 30
0.0
 70
   128
  0
VERTEX
  5
71A
  8
DIMNSIONS
  6
CONTINUOUS
 62
     7
 10
-1510.717313524412
 20
-1825.99755859375
 30
0.0
  0
VERTEX
  5
71B
  8
DIMNSIONS
  6
CONTINUOUS
 62
     7
 10
-1500.0
 20
-1786.0
 30
0.0
  0
VERTEX
  5
71C
  8
DIMNSIONS
  6
CONTINUOUS
 62
     7
 10
-1489.282686475588
 20
-1825.99755859375
 30
0.0
  0
SEQEND
  5
76C
  8
DIMNSIONS
  6
CONTINUOUS
 62
     7
  0
TEXT
  5
1C9
  8
DIMNSIONS
 62
     7
 10
-1519.877777777778
 20
-1920.166666666667
 30
0.0
 40
54.15690104166671
  1
163
 50
90.0
 51
0.7
 11
-1574.034678819444
 21
-1920.166666666667
 31
0.0
 73
     3
  0
LINE
  5
1CA
  8
DATA
  6
CONTINUOUS
 62
     7
 10
702.7678644434653
 20
-1459.9999999985
 30
0.0
 11
1316.087110593224
 21
-1459.9999999985
 31
0.0
  0
TEXT
  5
1CB
  8
DATA
 62
     7
 10
-1759.999999956
 20
-2375.369959385149
 30
0.0
 40
37.90983072821892
  1
※仕様及び外観は予告なく変更されることがあります。 
 51
0.7
 11
-1759.999999956
 21
-2337.46012865693
 31
0.0
 73
     3
  0
TEXT
  5
1CC
  8
DATA
 62
     7
 10
-1759.999999956
 20
-2424.758848272803
 30
0.0
 40
37.90983072821892
  1
　また、同一商品でも若干の個体差があることがあります。ご了承ください。
 51
0.7
 11
-1759.999999956
 21
-2386.849017544584
 31
0.0
 73
     3
  0
TEXT
  5
1CD
  8
DATA
 62
     7
 10
999.9999999749997
 20
-2165.277714945956
 30
0.0
 40
48.74121093628146
  1
JBL PROFESSIONAL
 51
0.7
 11
999.9999999749997
 21
-2116.536504009674
 31
0.0
 73
     3
  0
TEXT
  5
1CE
  8
DATA
 62
     7
 10
749.0730251798843
 20
-1427.078450520156
 30
0.0
 40
54.15690104031274
  1
背面パネル拡大図
 51
0.7
 72
     1
 11
1000.0
 21
-1400.0
 31
0.0
 73
     2
  0
TEXT
  5
1CF
  8
DATA
 62
     7
 10
999.9999999749997
 20
-2310.27771494233
 30
0.0
 40
48.74121093628146
  1
EON710
 51
0.7
 11
999.9999999749997
 21
-2261.536504006049
 31
0.0
 73
     3
  0
LINE
  5
1D0
  8
DATA
  6
CONTINUOUS
 62
     7
 10
-1388.072076914732
 20
-418.5
 30
0.0
 11
-1211.927923085268
 21
-418.5
 31
0.0
  0
LINE
  5
1D1
  8
DATA
  6
CONTINUOUS
 62
     7
 10
-1435.0
 20
-1494.994
 30
0.0
 11
-1435.0
 21
-1492.0
 31
0.0
  0
LINE
  5
1D2
  8
DATA
  6
CONTINUOUS
 62
     7
 10
-1365.480263744021
 20
-1494.994
 30
0.0
 11
-1435.0
 21
-1494.994
 31
0.0
  0
LINE
  5
1D3
  8
DATA
  6
CONTINUOUS
 62
     7
 10
-1397.0
 20
-1492.0
 30
0.0
 11
-1397.0
 21
-1494.994
 31
0.0
  0
TEXT
  5
1D4
  8
DATA
 62
     7
 10
833.3333333124999
 20
-2237.356814944155
 30
0.0
 40
37.90983072821891
  1
パワード2-Wayフルレンジ・スピーカー
 51
0.7
 11
833.3333333124999
 21
-2199.446984215936
 31
0.0
 73
     3
  0
LINE
  5
1D5
  8
DATA
  6
CONTINUOUS
 62
     7
 10
-1465.989
 20
-1467.0
 30
0.0
 11
-1465.989
 21
-925.0
 31
0.0
  0
LINE
  5
1D6
  8
DATA
  6
CONTINUOUS
 62
     7
 10
-1134.011
 20
-925.0
 30
0.0
 11
-1134.011
 21
-1467.0
 31
0.0
  0
LINE
  5
1D7
  8
DATA
  6
CONTINUOUS
 62
     7
 10
-1456.0
 20
-908.0
 30
0.0
 11
-1144.0
 21
-908.0
 31
0.0
  0
LINE
  5
1D8
  8
DATA
  6
CONTINUOUS
 62
     7
 10
-1043.0
 20
-908.0
 30
0.0
 11
-757.1861051678275
 21
-916.9759735567128
 31
0.0
  0
LINE
  5
1D9
  8
DATA
  6
CONTINUOUS
 62
     7
 10
-1046.5
 20
-1459.0
 30
0.0
 11
-1046.5
 21
-933.0
 31
0.0
  0
LINE
  5
1DA
  8
DATA
  6
CONTINUOUS
 62
     7
 10
-771.5589282598378
 20
-1492.0
 30
0.0
 11
-1028.75
 21
-1492.0
 31
0.0
  0
LINE
  5
1DB
  8
DATA
  6
CONTINUOUS
 62
     7
 10
-747.5
 20
-926.9710458443121
 30
0.0
 11
-747.5
 21
-950.661663191378
 31
0.0
  0
LINE
  5
1DC
  8
DATA
  6
CONTINUOUS
 62
     7
 10
-747.5
 20
-971.8564207846006
 30
0.0
 11
-747.5
 21
-1414.6435792154
 31
0.0
  0
LINE
  5
1DD
  8
DATA
  6
CONTINUOUS
 62
     7
 10
-747.5
 20
-1435.838336808622
 30
0.0
 11
-747.5
 21
-1459.830688512558
 31
0.0
  0
LINE
  5
1DE
  8
DATA
  6
CONTINUOUS
 62
     7
 10
-775.5589282598366
 20
-1494.994
 30
0.0
 11
-837.9327440052463
 21
-1494.994
 31
0.0
  0
LINE
  5
1DF
  8
DATA
  6
CONTINUOUS
 62
     7
 10
-968.7462814701278
 20
-1494.994
 30
0.0
 11
-1015.670271871716
 21
-1494.994
 31
0.0
  0
LINE
  5
1E0
  8
DATA
  6
CONTINUOUS
 62
     7
 10
-1465.989
 20
-933.0
 30
0.0
 11
-1134.011
 21
-933.0
 31
0.0
  0
LINE
  5
1E1
  8
DATA
  6
CONTINUOUS
 62
     7
 10
-1465.989
 20
-930.5
 30
0.0
 11
-1134.011
 21
-930.5
 31
0.0
  0
ARC
  5
1E2
  8
DATA
  6
CONTINUOUS
 62
     7
 10
-1300.000000000101
 20
-942.3022356198219
 30
0.0
 40
0.2222356198219918
 50
356.8251528744368
 51
183.1748471255666
  0
ARC
  5
1E3
  8
DATA
  6
CONTINUOUS
 62
     7
 10
-1301.03518391598
 20
-942.2070088624198
 30
0.0
 40
0.8203678318440982
 50
247.5320803524596
 51
352.4679196225533
  0
ARC
  5
1E4
  8
DATA
  6
CONTINUOUS
 62
     7
 10
-1301.470307082976
 20
-943.1511178099108
 30
0.0
 40
0.222235619821818
 50
56.82515287442732
 51
243.1748471256079
  0
ARC
  5
1E5
  8
DATA
  6
CONTINUOUS
 62
     7
 10
-1302.070367831946
 20
-943.9999999999498
 30
0.0
 40
0.820367831844172
 50
307.5320803524665
 51
52.46791962253965
  0
ARC
  5
1E6
  8
DATA
  6
CONTINUOUS
 62
     7
 10
-1300.000000000101
 20
-945.6977643801781
 30
0.0
 40
0.2222356198217647
 50
176.8251528744334
 51
3.174847125563361
  0
ARC
  5
1E7
  8
DATA
  6
CONTINUOUS
 62
     7
 10
-1301.03518391598
 20
-945.7929911375802
 30
0.0
 40
0.8203678318442806
 50
7.532080377446654
 51
112.4679196475404
  0
ARC
  5
1E8
  8
DATA
  6
CONTINUOUS
 62
     7
 10
-1301.470307082976
 20
-944.8488821900892
 30
0.0
 40
0.2222356198219738
 50
116.825152874392
 51
303.1748471255727
  0
ARC
  5
1E9
  8
DATA
  6
CONTINUOUS
 62
     7
 10
-1298.964816084223
 20
-942.2070088624198
 30
0.0
 40
0.8203678318442806
 50
187.5320803774466
 51
292.4679196475404
  0
ARC
  5
1EA
  8
DATA
  6
CONTINUOUS
 62
     7
 10
-1298.529692917227
 20
-943.1511178099108
 30
0.0
 40
0.2222356198219738
 50
296.825152874392
 51
123.1748471255727
  0
ARC
  5
1EB
  8
DATA
  6
CONTINUOUS
 62
     7
 10
-1297.929632168257
 20
-943.9999999999498
 30
0.0
 40
0.8203678318441241
 50
127.5320803774604
 51
232.4679196475336
  0
ARC
  5
1EC
  8
DATA
  6
CONTINUOUS
 62
     7
 10
-1298.964816084223
 20
-945.7929911375802
 30
0.0
 40
0.8203678318440982
 50
67.5320803524596
 51
172.4679196225534
  0
ARC
  5
1ED
  8
DATA
  6
CONTINUOUS
 62
     7
 10
-1298.529692917227
 20
-944.8488821900892
 30
0.0
 40
0.222235619821818
 50
236.8251528744273
 51
63.17484712560799
  0
CIRCLE
  5
1EE
  8
DATA
  6
CONTINUOUS
 62
     7
 10
-1300.0
 20
-944.0
 30
0.0
 40
4.050000000000182
  0
ARC
  5
1EF
  8
DATA
  6
CONTINUOUS
 62
     7
 10
-1420.000000000101
 20
-942.3022356198219
 30
0.0
 40
0.2222356198217647
 50
356.8251528744334
 51
183.1748471255666
  0
ARC
  5
1F0
  8
DATA
  6
CONTINUOUS
 62
     7
 10
-1421.03518391598
 20
-942.2070088624198
 30
0.0
 40
0.8203678318440982
 50
247.5320803524596
 51
352.4679196225533
  0
ARC
  5
1F1
  8
DATA
  6
CONTINUOUS
 62
     7
 10
-1421.470307082976
 20
-943.1511178099108
 30
0.0
 40
0.222235619821818
 50
56.82515287442732
 51
243.1748471256079
  0
ARC
  5
1F2
  8
DATA
  6
CONTINUOUS
 62
     7
 10
-1422.070367831946
 20
-943.9999999999498
 30
0.0
 40
0.820367831844172
 50
307.5320803524665
 51
52.46791962253965
  0
ARC
  5
1F3
  8
DATA
  6
CONTINUOUS
 62
     7
 10
-1420.000000000101
 20
-945.6977643801781
 30
0.0
 40
0.2222356198217647
 50
176.8251528744334
 51
3.174847125566601
  0
ARC
  5
1F4
  8
DATA
  6
CONTINUOUS
 62
     7
 10
-1421.03518391598
 20
-945.7929911375802
 30
0.0
 40
0.8203678318442806
 50
7.532080377446654
 51
112.4679196475404
  0
ARC
  5
1F5
  8
DATA
  6
CONTINUOUS
 62
     7
 10
-1421.470307082976
 20
-944.8488821900892
 30
0.0
 40
0.2222356198219738
 50
116.825152874392
 51
303.1748471255727
  0
ARC
  5
1F6
  8
DATA
  6
CONTINUOUS
 62
     7
 10
-1418.964816084223
 20
-942.2070088624198
 30
0.0
 40
0.8203678318442806
 50
187.5320803774466
 51
292.4679196475257
  0
ARC
  5
1F7
  8
DATA
  6
CONTINUOUS
 62
     7
 10
-1418.529692917227
 20
-943.1511178099108
 30
0.0
 40
0.2222356198219738
 50
296.825152874392
 51
123.1748471255727
  0
ARC
  5
1F8
  8
DATA
  6
CONTINUOUS
 62
     7
 10
-1417.929632168257
 20
-943.9999999999498
 30
0.0
 40
0.8203678318441241
 50
127.5320803774604
 51
232.4679196475336
  0
ARC
  5
1F9
  8
DATA
  6
CONTINUOUS
 62
     7
 10
-1418.964816084223
 20
-945.7929911375802
 30
0.0
 40
0.8203678318440114
 50
67.53208035247427
 51
172.4679196225534
  0
ARC
  5
1FA
  8
DATA
  6
CONTINUOUS
 62
     7
 10
-1418.529692917227
 20
-944.8488821900892
 30
0.0
 40
0.222235619821818
 50
236.8251528744273
 51
63.17484712560799
  0
CIRCLE
  5
1FB
  8
DATA
  6
CONTINUOUS
 62
     7
 10
-1420.0
 20
-944.0
 30
0.0
 40
4.049999999999955
  0
ARC
  5
1FC
  8
DATA
  6
CONTINUOUS
 62
     7
 10
-1180.000000000101
 20
-942.3022356198219
 30
0.0
 40
0.2222356198217647
 50
356.8251528744334
 51
183.1748471255666
  0
ARC
  5
1FD
  8
DATA
  6
CONTINUOUS
 62
     7
 10
-1181.03518391598
 20
-942.2070088624198
 30
0.0
 40
0.8203678318440982
 50
247.5320803524596
 51
352.4679196225533
  0
ARC
  5
1FE
  8
DATA
  6
CONTINUOUS
 62
     7
 10
-1181.470307082976
 20
-943.1511178099108
 30
0.0
 40
0.222235619821818
 50
56.82515287442732
 51
243.1748471256079
  0
ARC
  5
1FF
  8
DATA
  6
CONTINUOUS
 62
     7
 10
-1182.070367831946
 20
-943.9999999999498
 30
0.0
 40
0.820367831844172
 50
307.5320803524665
 51
52.46791962253965
  0
ARC
  5
200
  8
DATA
  6
CONTINUOUS
 62
     7
 10
-1180.000000000101
 20
-945.6977643801781
 30
0.0
 40
0.2222356198217647
 50
176.8251528744334
 51
3.174847125566601
  0
ARC
  5
201
  8
DATA
  6
CONTINUOUS
 62
     7
 10
-1181.03518391598
 20
-945.7929911375802
 30
0.0
 40
0.8203678318442806
 50
7.532080377446654
 51
112.4679196475404
  0
ARC
  5
202
  8
DATA
  6
CONTINUOUS
 62
     7
 10
-1181.470307082976
 20
-944.8488821900892
 30
0.0
 40
0.2222356198219738
 50
116.825152874392
 51
303.1748471255727
  0
ARC
  5
203
  8
DATA
  6
CONTINUOUS
 62
     7
 10
-1178.964816084223
 20
-942.2070088624198
 30
0.0
 40
0.8203678318442806
 50
187.5320803774466
 51
292.4679196475257
  0
ARC
  5
204
  8
DATA
  6
CONTINUOUS
 62
     7
 10
-1178.529692917227
 20
-943.1511178099108
 30
0.0
 40
0.2222356198219738
 50
296.825152874392
 51
123.1748471255727
  0
ARC
  5
205
  8
DATA
  6
CONTINUOUS
 62
     7
 10
-1177.929632168257
 20
-943.9999999999498
 30
0.0
 40
0.8203678318441241
 50
127.5320803774604
 51
232.4679196475336
  0
ARC
  5
206
  8
DATA
  6
CONTINUOUS
 62
     7
 10
-1178.964816084223
 20
-945.7929911375802
 30
0.0
 40
0.8203678318440114
 50
67.53208035247427
 51
172.4679196225534
  0
ARC
  5
207
  8
DATA
  6
CONTINUOUS
 62
     7
 10
-1178.529692917227
 20
-944.8488821900892
 30
0.0
 40
0.222235619821818
 50
236.8251528744273
 51
63.17484712560799
  0
CIRCLE
  5
208
  8
DATA
  6
CONTINUOUS
 62
     7
 10
-1180.0
 20
-944.0
 30
0.0
 40
4.049999999999955
  0
LINE
  5
209
  8
DATA
  6
CONTINUOUS
 62
     7
 10
-1465.989
 20
-925.0
 30
0.0
 11
-1134.011
 21
-925.0
 31
0.0
  0
ARC
  5
20A
  8
DATA
  6
CONTINUOUS
 62
     7
 10
-1412.896984875
 20
-944.7615340343309
 30
0.0
 40
56.65051012500474
 50
139.539928951825
 51
159.584083217243
  0
ARC
  5
20B
  8
DATA
  6
CONTINUOUS
 62
     7
 10
-1187.103015125
 20
-944.7615340343309
 30
0.0
 40
56.65051012500458
 50
20.41591678275708
 51
40.46007104817515
  0
LINE
  5
20C
  8
DATA
  6
CONTINUOUS
 62
     7
 10
-1456.0
 20
-1484.0
 30
0.0
 11
-1144.0
 21
-1484.0
 31
0.0
  0
LINE
  5
20D
  8
DATA
  6
CONTINUOUS
 62
     7
 10
-1465.989
 20
-1459.0
 30
0.0
 11
-1134.011
 21
-1459.0
 31
0.0
  0
LINE
  5
20E
  8
DATA
  6
CONTINUOUS
 62
     7
 10
-1465.989
 20
-1461.5
 30
0.0
 11
-1134.011
 21
-1461.5
 31
0.0
  0
ARC
  5
20F
  8
DATA
  6
CONTINUOUS
 62
     7
 10
-1300.000000000101
 20
-1449.697764380178
 30
0.0
 40
0.2222356198217647
 50
176.8251528744334
 51
3.174847125563361
  0
ARC
  5
210
  8
DATA
  6
CONTINUOUS
 62
     7
 10
-1301.03518391598
 20
-1449.79299113758
 30
0.0
 40
0.8203678318442806
 50
7.532080377446654
 51
112.4679196475404
  0
ARC
  5
211
  8
DATA
  6
CONTINUOUS
 62
     7
 10
-1301.470307082976
 20
-1448.848882190089
 30
0.0
 40
0.2222356198219738
 50
116.825152874392
 51
303.1748471255727
  0
ARC
  5
212
  8
DATA
  6
CONTINUOUS
 62
     7
 10
-1302.070367831946
 20
-1448.00000000005
 30
0.0
 40
0.8203678318441241
 50
307.5320803774603
 51
52.46791964753354
  0
ARC
  5
213
  8
DATA
  6
CONTINUOUS
 62
     7
 10
-1300.000000000101
 20
-1446.302235619822
 30
0.0
 40
0.2222356198219918
 50
356.8251528744368
 51
183.1748471255666
  0
ARC
  5
214
  8
DATA
  6
CONTINUOUS
 62
     7
 10
-1301.03518391598
 20
-1446.20700886242
 30
0.0
 40
0.8203678318440982
 50
247.5320803524596
 51
352.4679196225533
  0
ARC
  5
215
  8
DATA
  6
CONTINUOUS
 62
     7
 10
-1301.470307082976
 20
-1447.151117809911
 30
0.0
 40
0.222235619821818
 50
56.82515287442732
 51
243.1748471256079
  0
ARC
  5
216
  8
DATA
  6
CONTINUOUS
 62
     7
 10
-1298.964816084223
 20
-1449.79299113758
 30
0.0
 40
0.8203678318440982
 50
67.5320803524596
 51
172.4679196225534
  0
ARC
  5
217
  8
DATA
  6
CONTINUOUS
 62
     7
 10
-1298.529692917227
 20
-1448.848882190089
 30
0.0
 40
0.222235619821818
 50
236.8251528744273
 51
63.17484712560799
  0
ARC
  5
218
  8
DATA
  6
CONTINUOUS
 62
     7
 10
-1297.929632168257
 20
-1448.00000000005
 30
0.0
 40
0.820367831844172
 50
127.5320803524665
 51
232.4679196225397
  0
ARC
  5
219
  8
DATA
  6
CONTINUOUS
 62
     7
 10
-1298.964816084223
 20
-1446.20700886242
 30
0.0
 40
0.8203678318442806
 50
187.5320803774466
 51
292.4679196475404
  0
ARC
  5
21A
  8
DATA
  6
CONTINUOUS
 62
     7
 10
-1298.529692917227
 20
-1447.151117809911
 30
0.0
 40
0.2222356198219738
 50
296.825152874392
 51
123.1748471255727
  0
CIRCLE
  5
21B
  8
DATA
  6
CONTINUOUS
 62
     7
 10
-1300.0
 20
-1448.0
 30
0.0
 40
4.050000000000182
  0
ARC
  5
21C
  8
DATA
  6
CONTINUOUS
 62
     7
 10
-1420.000000000101
 20
-1449.697764380178
 30
0.0
 40
0.2222356198217647
 50
176.8251528744334
 51
3.174847125566601
  0
ARC
  5
21D
  8
DATA
  6
CONTINUOUS
 62
     7
 10
-1421.03518391598
 20
-1449.79299113758
 30
0.0
 40
0.8203678318442806
 50
7.532080377446654
 51
112.4679196475404
  0
ARC
  5
21E
  8
DATA
  6
CONTINUOUS
 62
     7
 10
-1421.470307082976
 20
-1448.848882190089
 30
0.0
 40
0.2222356198219738
 50
116.825152874392
 51
303.1748471255727
  0
ARC
  5
21F
  8
DATA
  6
CONTINUOUS
 62
     7
 10
-1422.070367831946
 20
-1448.00000000005
 30
0.0
 40
0.8203678318441241
 50
307.5320803774603
 51
52.46791964753354
  0
ARC
  5
220
  8
DATA
  6
CONTINUOUS
 62
     7
 10
-1420.000000000101
 20
-1446.302235619822
 30
0.0
 40
0.2222356198217647
 50
356.8251528744334
 51
183.1748471255666
  0
ARC
  5
221
  8
DATA
  6
CONTINUOUS
 62
     7
 10
-1421.03518391598
 20
-1446.20700886242
 30
0.0
 40
0.8203678318440982
 50
247.5320803524596
 51
352.4679196225533
  0
ARC
  5
222
  8
DATA
  6
CONTINUOUS
 62
     7
 10
-1421.470307082976
 20
-1447.151117809911
 30
0.0
 40
0.222235619821818
 50
56.82515287442732
 51
243.1748471256079
  0
ARC
  5
223
  8
DATA
  6
CONTINUOUS
 62
     7
 10
-1418.964816084223
 20
-1449.79299113758
 30
0.0
 40
0.8203678318440114
 50
67.53208035247427
 51
172.4679196225534
  0
ARC
  5
224
  8
DATA
  6
CONTINUOUS
 62
     7
 10
-1418.529692917227
 20
-1448.848882190089
 30
0.0
 40
0.222235619821818
 50
236.8251528744273
 51
63.17484712560799
  0
ARC
  5
225
  8
DATA
  6
CONTINUOUS
 62
     7
 10
-1417.929632168257
 20
-1448.00000000005
 30
0.0
 40
0.820367831844172
 50
127.5320803524665
 51
232.4679196225397
  0
ARC
  5
226
  8
DATA
  6
CONTINUOUS
 62
     7
 10
-1418.964816084223
 20
-1446.20700886242
 30
0.0
 40
0.8203678318442806
 50
187.5320803774466
 51
292.4679196475257
  0
ARC
  5
227
  8
DATA
  6
CONTINUOUS
 62
     7
 10
-1418.529692917227
 20
-1447.151117809911
 30
0.0
 40
0.2222356198219738
 50
296.825152874392
 51
123.1748471255727
  0
CIRCLE
  5
228
  8
DATA
  6
CONTINUOUS
 62
     7
 10
-1420.0
 20
-1448.0
 30
0.0
 40
4.049999999999955
  0
ARC
  5
229
  8
DATA
  6
CONTINUOUS
 62
     7
 10
-1180.000000000101
 20
-1449.697764380178
 30
0.0
 40
0.2222356198217647
 50
176.8251528744334
 51
3.174847125566601
  0
ARC
  5
22A
  8
DATA
  6
CONTINUOUS
 62
     7
 10
-1181.03518391598
 20
-1449.79299113758
 30
0.0
 40
0.8203678318442806
 50
7.532080377446654
 51
112.4679196475404
  0
ARC
  5
22B
  8
DATA
  6
CONTINUOUS
 62
     7
 10
-1181.470307082976
 20
-1448.848882190089
 30
0.0
 40
0.2222356198219738
 50
116.825152874392
 51
303.1748471255727
  0
ARC
  5
22C
  8
DATA
  6
CONTINUOUS
 62
     7
 10
-1182.070367831946
 20
-1448.00000000005
 30
0.0
 40
0.8203678318441241
 50
307.5320803774603
 51
52.46791964753354
  0
ARC
  5
22D
  8
DATA
  6
CONTINUOUS
 62
     7
 10
-1180.000000000101
 20
-1446.302235619822
 30
0.0
 40
0.2222356198217647
 50
356.8251528744334
 51
183.1748471255666
  0
ARC
  5
22E
  8
DATA
  6
CONTINUOUS
 62
     7
 10
-1181.03518391598
 20
-1446.20700886242
 30
0.0
 40
0.8203678318440982
 50
247.5320803524596
 51
352.4679196225533
  0
ARC
  5
22F
  8
DATA
  6
CONTINUOUS
 62
     7
 10
-1181.470307082976
 20
-1447.151117809911
 30
0.0
 40
0.222235619821818
 50
56.82515287442732
 51
243.1748471256079
  0
ARC
  5
230
  8
DATA
  6
CONTINUOUS
 62
     7
 10
-1178.964816084223
 20
-1449.79299113758
 30
0.0
 40
0.8203678318440114
 50
67.53208035247427
 51
172.4679196225534
  0
ARC
  5
231
  8
DATA
  6
CONTINUOUS
 62
     7
 10
-1178.529692917227
 20
-1448.848882190089
 30
0.0
 40
0.222235619821818
 50
236.8251528744273
 51
63.17484712560799
  0
ARC
  5
232
  8
DATA
  6
CONTINUOUS
 62
     7
 10
-1177.929632168257
 20
-1448.00000000005
 30
0.0
 40
0.820367831844172
 50
127.5320803524665
 51
232.4679196225397
  0
ARC
  5
233
  8
DATA
  6
CONTINUOUS
 62
     7
 10
-1178.964816084223
 20
-1446.20700886242
 30
0.0
 40
0.8203678318442806
 50
187.5320803774466
 51
292.4679196475257
  0
ARC
  5
234
  8
DATA
  6
CONTINUOUS
 62
     7
 10
-1178.529692917227
 20
-1447.151117809911
 30
0.0
 40
0.2222356198219738
 50
296.825152874392
 51
123.1748471255727
  0
CIRCLE
  5
235
  8
DATA
  6
CONTINUOUS
 62
     7
 10
-1180.0
 20
-1448.0
 30
0.0
 40
4.049999999999955
  0
LINE
  5
236
  8
DATA
  6
CONTINUOUS
 62
     7
 10
-1465.989
 20
-1467.0
 30
0.0
 11
-1134.011
 21
-1467.0
 31
0.0
  0
ARC
  5
237
  8
DATA
  6
CONTINUOUS
 62
     7
 10
-1412.896984875
 20
-1447.238465965669
 30
0.0
 40
56.65051012500479
 50
200.415916782757
 51
220.460071048175
  0
ARC
  5
238
  8
DATA
  6
CONTINUOUS
 62
     7
 10
-1187.103015125
 20
-1447.238465965669
 30
0.0
 40
56.65051012500457
 50
319.5399289518249
 51
339.5840832172429
  0
LINE
  5
239
  8
DATA
  6
CONTINUOUS
 62
     7
 10
-1439.0
 20
-1484.0
 30
0.0
 11
-1439.0
 21
-1492.0
 31
0.0
  0
LINE
  5
23A
  8
DATA
  6
CONTINUOUS
 62
     7
 10
-1161.0
 20
-1484.0
 30
0.0
 11
-1161.0
 21
-1492.0
 31
0.0
  0
LINE
  5
23B
  8
DATA
  6
CONTINUOUS
 62
     7
 10
-1439.0
 20
-1492.0
 30
0.0
 11
-1161.0
 21
-1492.0
 31
0.0
  0
LINE
  5
23C
  8
DATA
  6
CONTINUOUS
 62
     7
 10
-1203.0
 20
-1494.994
 30
0.0
 11
-1203.0
 21
-1492.0
 31
0.0
  0
LINE
  5
23D
  8
DATA
  6
CONTINUOUS
 62
     7
 10
-1165.0
 20
-1494.994
 30
0.0
 11
-1234.519736255979
 21
-1494.994
 31
0.0
  0
LINE
  5
23E
  8
DATA
  6
CONTINUOUS
 62
     7
 10
-1165.0
 20
-1492.0
 30
0.0
 11
-1165.0
 21
-1494.994
 31
0.0
  0
LINE
  5
23F
  8
DATA
  6
CONTINUOUS
 62
     7
 10
-1308.25
 20
-1472.0
 30
0.0
 11
-1291.75
 21
-1472.0
 31
0.0
  0
LINE
  5
240
  8
DATA
  6
CONTINUOUS
 62
     7
 10
-1308.25
 20
-1467.5
 30
0.0
 11
-1291.75
 21
-1467.5
 31
0.0
  0
ARC
  5
241
  8
DATA
  6
CONTINUOUS
 62
     7
 10
-1308.25
 20
-1469.75
 30
0.0
 40
2.25
 50
90.0
 51
270.0
  0
ARC
  5
242
  8
DATA
  6
CONTINUOUS
 62
     7
 10
-1291.75
 20
-1469.75
 30
0.0
 40
2.25
 50
270.0
 51
90.0
  0
POLYLINE
  5
243
  8
DATA
  6
CONTINUOUS
 62
     7
 66
     1
 10
0.0
 20
0.0
 30
0.0
 70
   129
  0
VERTEX
  5
71D
  8
DATA
  6
CONTINUOUS
 62
     7
 10
-1331.0
 20
-1331.0
 30
0.0
  0
VERTEX
  5
71E
  8
DATA
  6
CONTINUOUS
 62
     7
 10
-1269.0
 20
-1331.0
 30
0.0
  0
VERTEX
  5
71F
  8
DATA
  6
CONTINUOUS
 62
     7
 10
-1269.0
 20
-1391.0
 30
0.0
  0
VERTEX
  5
720
  8
DATA
  6
CONTINUOUS
 62
     7
 10
-1331.0
 20
-1391.0
 30
0.0
  0
SEQEND
  5
76D
  8
DATA
  6
CONTINUOUS
 62
     7
  0
POLYLINE
  5
249
  8
DATA
  6
CONTINUOUS
 62
     7
 66
     1
 10
0.0
 20
0.0
 30
0.0
 70
   129
  0
VERTEX
  5
721
  8
DATA
  6
CONTINUOUS
 62
     7
 10
-1320.0
 20
-1341.0
 30
0.0
  0
VERTEX
  5
722
  8
DATA
  6
CONTINUOUS
 62
     7
 10
-1280.0
 20
-1341.0
 30
0.0
  0
VERTEX
  5
723
  8
DATA
  6
CONTINUOUS
 62
     7
 10
-1280.0
 20
-1381.0
 30
0.0
  0
VERTEX
  5
724
  8
DATA
  6
CONTINUOUS
 62
     7
 10
-1320.0
 20
-1381.0
 30
0.0
  0
SEQEND
  5
76E
  8
DATA
  6
CONTINUOUS
 62
     7
  0
LINE
  5
24F
  8
DATA
  6
CONTINUOUS
 62
     7
 10
-1320.0
 20
-1373.0
 30
0.0
 11
-1280.0
 21
-1373.0
 31
0.0
  0
ARC
  5
250
  8
DATA
  6
CONTINUOUS
 62
     7
 10
-1308.82333
 20
-1360.640005
 30
0.0
 40
3.868280137751415
 50
264.6908562215364
 51
323.9911991542446
  0
ARC
  5
251
  8
DATA
  6
CONTINUOUS
 62
     7
 10
-1309.539175
 20
-1360.640005
 30
0.0
 40
3.868273855419845
 50
216.0088008457576
 51
275.3091437784656
  0
ARC
  5
252
  8
DATA
  6
CONTINUOUS
 62
     7
 10
-1298.993725
 20
-1361.644135
 30
0.0
 40
2.853917117577149
 50
273.8309816091136
 51
351.1351473098018
  0
ARC
  5
253
  8
DATA
  6
CONTINUOUS
 62
     7
 10
-1298.96527
 20
-1352.334895
 30
0.0
 40
2.849594899367254
 50
8.226923859021564
 51
86.15412669215226
  0
ARC
  5
254
  8
DATA
  6
CONTINUOUS
 62
     7
 10
-1299.27882795464
 20
-1362.368283932191
 30
0.0
 40
0.4781746722275246
 50
307.6419024975997
 51
354.2670192894022
  0
LINE
  5
255
  8
DATA
  6
CONTINUOUS
 62
     7
 10
-1311.561325
 20
-1354.833025
 30
0.0
 11
-1309.319635
 21
-1349.491705
 31
0.0
  0
LINE
  5
256
  8
DATA
  6
CONTINUOUS
 62
     7
 10
-1311.561325
 20
-1354.833025
 30
0.0
 11
-1313.775355
 21
-1349.491705
 31
0.0
  0
LINE
  5
257
  8
DATA
  6
CONTINUOUS
 62
     7
 10
-1294.568725
 20
-1364.491705
 30
0.0
 11
-1294.568725
 21
-1349.491705
 31
0.0
  0
LINE
  5
258
  8
DATA
  6
CONTINUOUS
 62
     7
 10
-1291.690495
 20
-1349.491705
 30
0.0
 11
-1291.690495
 21
-1362.194665
 31
0.0
  0
LINE
  5
259
  8
DATA
  6
CONTINUOUS
 62
     7
 10
-1308.26797
 20
-1349.491705
 30
0.0
 11
-1308.26797
 21
-1362.194665
 31
0.0
  0
LINE
  5
25A
  8
DATA
  6
CONTINUOUS
 62
     7
 10
-1305.50044
 20
-1349.491705
 30
0.0
 11
-1305.50044
 21
-1362.194665
 31
0.0
  0
LINE
  5
25B
  8
DATA
  6
CONTINUOUS
 62
     7
 10
-1304.061325
 20
-1349.491705
 30
0.0
 11
-1304.061325
 21
-1364.491705
 31
0.0
  0
LINE
  5
25C
  8
DATA
  6
CONTINUOUS
 62
     7
 10
-1301.54287
 20
-1350.90313
 30
0.0
 11
-1301.54287
 21
-1355.71864
 31
0.0
  0
LINE
  5
25D
  8
DATA
  6
CONTINUOUS
 62
     7
 10
-1296.145
 20
-1355.44
 30
0.0
 11
-1296.145
 21
-1351.927135
 31
0.0
  0
LINE
  5
25E
  8
DATA
  6
CONTINUOUS
 62
     7
 10
-1298.803045
 20
-1351.567345
 30
0.0
 11
-1298.803045
 21
-1355.05444
 31
0.0
  0
LINE
  5
25F
  8
DATA
  6
CONTINUOUS
 62
     7
 10
-1310.371285
 20
-1359.786895
 30
0.0
 11
-1310.371285
 21
-1362.194635
 31
0.0
  0
LINE
  5
260
  8
DATA
  6
CONTINUOUS
 62
     7
 10
-1310.371285
 20
-1359.786895
 30
0.0
 11
-1312.862065
 21
-1359.786895
 31
0.0
  0
LINE
  5
261
  8
DATA
  6
CONTINUOUS
 62
     7
 10
-1312.862065
 20
-1359.786895
 30
0.0
 11
-1312.862065
 21
-1362.194635
 31
0.0
  0
ARC
  5
262
  8
DATA
  6
CONTINUOUS
 62
     7
 10
-1309.314355
 20
-1362.227095
 30
0.0
 40
1.046893239363599
 50
269.7118487927628
 51
1.775987005688023
  0
ARC
  5
263
  8
DATA
  6
CONTINUOUS
 62
     7
 10
-1309.3249
 20
-1362.227095
 30
0.0
 40
1.046887886189449
 50
178.224012994311
 51
270.2881512072523
  0
ARC
  5
264
  8
DATA
  6
CONTINUOUS
 62
     7
 10
-1311.113905
 20
-1362.10984
 30
0.0
 40
1.750200312264306
 50
182.7769954499932
 51
207.3596066671516
  0
CIRCLE
  5
265
  8
DATA
  6
CONTINUOUS
 62
     7
 10
-1311.409105
 20
-1356.90868
 30
0.0
 40
1.425269999999728
  0
LINE
  5
266
  8
DATA
  6
CONTINUOUS
 62
     7
 10
-1287.068725
 20
-1364.49169
 30
0.0
 11
-1294.568725
 21
-1364.49169
 31
0.0
  0
LINE
  5
267
  8
DATA
  6
CONTINUOUS
 62
     7
 10
-1287.068725
 20
-1364.49169
 30
0.0
 11
-1287.068725
 21
-1359.78688
 31
0.0
  0
LINE
  5
268
  8
DATA
  6
CONTINUOUS
 62
     7
 10
-1287.068725
 20
-1359.786895
 30
0.0
 11
-1289.587165
 21
-1359.786895
 31
0.0
  0
LINE
  5
269
  8
DATA
  6
CONTINUOUS
 62
     7
 10
-1289.587165
 20
-1359.786895
 30
0.0
 11
-1289.587165
 21
-1362.194635
 31
0.0
  0
LINE
  5
26A
  8
DATA
  6
CONTINUOUS
 62
     7
 10
-1304.061325
 20
-1364.49169
 30
0.0
 11
-1298.803045
 21
-1364.491675
 31
0.0
  0
LINE
  5
26B
  8
DATA
  6
CONTINUOUS
 62
     7
 10
-1301.542885
 20
-1363.08025
 30
0.0
 11
-1300.186795
 21
-1363.08025
 31
0.0
  0
LINE
  5
26C
  8
DATA
  6
CONTINUOUS
 62
     7
 10
-1301.54287
 20
-1363.08025
 30
0.0
 11
-1301.54287
 21
-1357.15774
 31
0.0
  0
LINE
  5
26D
  8
DATA
  6
CONTINUOUS
 62
     7
 10
-1301.542885
 20
-1357.15774
 30
0.0
 11
-1300.186795
 21
-1357.15774
 31
0.0
  0
LINE
  5
26E
  8
DATA
  6
CONTINUOUS
 62
     7
 10
-1298.803045
 20
-1362.41605
 30
0.0
 11
-1298.803045
 21
-1357.82194
 31
0.0
  0
ARC
  5
26F
  8
DATA
  6
CONTINUOUS
 62
     7
 10
-1307.2486
 20
-1362.10984
 30
0.0
 40
1.750197821797531
 50
332.6403933328497
 51
357.2230045500058
  0
ARC
  5
270
  8
DATA
  6
CONTINUOUS
 62
     7
 10
-1290.633565
 20
-1362.227095
 30
0.0
 40
1.0468932393636
 50
269.7118487927503
 51
1.775987005688364
  0
ARC
  5
271
  8
DATA
  6
CONTINUOUS
 62
     7
 10
-1290.644095
 20
-1362.227095
 30
0.0
 40
1.046887886189449
 50
178.224012994311
 51
270.2881512072523
  0
LINE
  5
272
  8
DATA
  6
CONTINUOUS
 62
     7
 10
-1296.146215
 20
-1362.083935
 30
0.0
 11
-1296.146215
 21
-1358.098705
 31
0.0
  0
LINE
  5
273
  8
DATA
  6
CONTINUOUS
 62
     7
 10
-1301.542885
 20
-1355.71864
 30
0.0
 11
-1300.186795
 21
-1355.71864
 31
0.0
  0
LINE
  5
274
  8
DATA
  6
CONTINUOUS
 62
     7
 10
-1308.26797
 20
-1349.491705
 30
0.0
 11
-1305.50044
 21
-1349.491705
 31
0.0
  0
LINE
  5
275
  8
DATA
  6
CONTINUOUS
 62
     7
 10
-1313.775355
 20
-1349.491705
 30
0.0
 11
-1309.319635
 21
-1349.491705
 31
0.0
  0
LINE
  5
276
  8
DATA
  6
CONTINUOUS
 62
     7
 10
-1294.568725
 20
-1349.491705
 30
0.0
 11
-1291.690495
 21
-1349.491705
 31
0.0
  0
LINE
  5
277
  8
DATA
  6
CONTINUOUS
 62
     7
 10
-1304.061325
 20
-1349.491705
 30
0.0
 11
-1298.77413980778
 21
-1349.49171714061
 31
0.0
  0
LINE
  5
278
  8
DATA
  6
CONTINUOUS
 62
     7
 10
-1301.542885
 20
-1350.903145
 30
0.0
 11
-1300.186795
 21
-1350.903145
 31
0.0
  0
ARC
  5
279
  8
DATA
  6
CONTINUOUS
 62
     7
 10
-1300.170781806095
 20
-1360.449718059119
 30
0.0
 40
2.630580680072639
 50
269.6512199376164
 51
282.8264828068698
  0
ARC
  5
27A
  8
DATA
  6
CONTINUOUS
 62
     7
 10
-1299.8753259588
 20
-1361.561875466841
 30
0.0
 40
1.481156855539716
 50
281.2331036226529
 51
306.8620088940613
  0
ARC
  5
27B
  8
DATA
  6
CONTINUOUS
 62
     7
 10
-1299.27882795464
 20
-1357.869706067808
 30
0.0
 40
0.4781746722276489
 50
5.732980710570605
 51
52.35809750241695
  0
ARC
  5
27C
  8
DATA
  6
CONTINUOUS
 62
     7
 10
-1300.170781806095
 20
-1359.78827194088
 30
0.0
 40
2.630580680072419
 50
77.17351719312906
 51
90.34878006238367
  0
ARC
  5
27D
  8
DATA
  6
CONTINUOUS
 62
     7
 10
-1299.8753259588
 20
-1358.676114533159
 30
0.0
 40
1.481156855539815
 50
53.13799110593872
 51
78.76689637734717
  0
ARC
  5
27E
  8
DATA
  6
CONTINUOUS
 62
     7
 10
-1297.597735
 20
-1358.19682
 30
0.0
 40
1.454832245870725
 50
3.867006359830989
 51
88.36163456789936
  0
ARC
  5
27F
  8
DATA
  6
CONTINUOUS
 62
     7
 10
-1297.59907
 20
-1355.28694
 30
0.0
 40
1.456277909921158
 50
271.6892821046424
 51
356.0782829826682
  0
ARC
  5
280
  8
DATA
  6
CONTINUOUS
 62
     7
 10
-1299.27882795464
 20
-1355.006673932191
 30
0.0
 40
0.4781746722277047
 50
307.641902497583
 51
354.2670192894022
  0
ARC
  5
281
  8
DATA
  6
CONTINUOUS
 62
     7
 10
-1300.170781806095
 20
-1353.08810805912
 30
0.0
 40
2.630580680072639
 50
269.6512199376164
 51
282.8264828068747
  0
ARC
  5
282
  8
DATA
  6
CONTINUOUS
 62
     7
 10
-1299.8753259588
 20
-1354.200265466841
 30
0.0
 40
1.481156855539716
 50
281.2331036226529
 51
306.8620088940596
  0
ARC
  5
283
  8
DATA
  6
CONTINUOUS
 62
     7
 10
-1299.27882795464
 20
-1351.615111067809
 30
0.0
 40
0.4781746722276716
 50
5.732980710597713
 51
52.35809750241695
  0
ARC
  5
284
  8
DATA
  6
CONTINUOUS
 62
     7
 10
-1300.170781806095
 20
-1353.53367694088
 30
0.0
 40
2.630580680072641
 50
77.17351719313014
 51
90.34878006238361
  0
ARC
  5
285
  8
DATA
  6
CONTINUOUS
 62
     7
 10
-1299.8753259588
 20
-1352.421519533159
 30
0.0
 40
1.481156855539633
 50
53.13799110593344
 51
78.76689637734717
  0
TEXT
  5
286
  8
DATA
 62
     7
 10
-1324.551128472222
 20
-1379.166276041667
 30
0.0
 40
4.332552083333333
  1
PROFESSIONAL
 51
0.7
 72
     1
 11
-1300.0
 21
-1377.0
 31
0.0
 73
     2
  0
LINE
  5
287
  8
DATA
  6
CONTINUOUS
 62
     7
 10
-1395.476227993133
 20
-421.7785011486858
 30
0.0
 11
-1449.236252018765
 21
-480.9985276144214
 31
0.0
  0
CIRCLE
  5
288
  8
DATA
  6
CONTINUOUS
 62
     7
 10
-1405.0
 20
-651.0
 30
0.0
 40
4.299999999999955
  0
CIRCLE
  5
289
  8
DATA
  6
CONTINUOUS
 62
     7
 10
-1405.0
 20
-651.0
 30
0.0
 40
12.0
  0
POLYLINE
  5
28A
  8
DATA
  6
CONTINUOUS
 62
     7
 66
     1
 10
0.0
 20
0.0
 30
0.0
 70
   129
  0
VERTEX
  5
725
  8
DATA
  6
CONTINUOUS
 62
     7
 10
-1414.0
 20
-651.0
 30
0.0
  0
VERTEX
  5
726
  8
DATA
  6
CONTINUOUS
 62
     7
 10
-1409.5
 20
-658.7942286340601
 30
0.0
  0
VERTEX
  5
727
  8
DATA
  6
CONTINUOUS
 62
     7
 10
-1400.5
 20
-658.7942286340601
 30
0.0
  0
VERTEX
  5
728
  8
DATA
  6
CONTINUOUS
 62
     7
 10
-1396.0
 20
-651.0000000000002
 30
0.0
  0
VERTEX
  5
729
  8
DATA
  6
CONTINUOUS
 62
     7
 10
-1400.5
 20
-643.2057713659401
 30
0.0
  0
VERTEX
  5
72A
  8
DATA
  6
CONTINUOUS
 62
     7
 10
-1409.5
 20
-643.2057713659401
 30
0.0
  0
SEQEND
  5
76F
  8
DATA
  6
CONTINUOUS
 62
     7
  0
CIRCLE
  5
292
  8
DATA
  6
CONTINUOUS
 62
     7
 10
-1195.0
 20
-651.0
 30
0.0
 40
4.299999999999955
  0
CIRCLE
  5
293
  8
DATA
  6
CONTINUOUS
 62
     7
 10
-1195.0
 20
-651.0
 30
0.0
 40
12.0
  0
POLYLINE
  5
294
  8
DATA
  6
CONTINUOUS
 62
     7
 66
     1
 10
0.0
 20
0.0
 30
0.0
 70
   129
  0
VERTEX
  5
72B
  8
DATA
  6
CONTINUOUS
 62
     7
 10
-1204.0
 20
-651.0
 30
0.0
  0
VERTEX
  5
72C
  8
DATA
  6
CONTINUOUS
 62
     7
 10
-1199.5
 20
-658.79422863406
 30
0.0
  0
VERTEX
  5
72D
  8
DATA
  6
CONTINUOUS
 62
     7
 10
-1190.5
 20
-658.79422863406
 30
0.0
  0
VERTEX
  5
72E
  8
DATA
  6
CONTINUOUS
 62
     7
 10
-1186.0
 20
-651.0000000000001
 30
0.0
  0
VERTEX
  5
72F
  8
DATA
  6
CONTINUOUS
 62
     7
 10
-1190.5
 20
-643.2057713659401
 30
0.0
  0
VERTEX
  5
730
  8
DATA
  6
CONTINUOUS
 62
     7
 10
-1199.5
 20
-643.2057713659401
 30
0.0
  0
SEQEND
  5
770
  8
DATA
  6
CONTINUOUS
 62
     7
  0
ARC
  5
29C
  8
DATA
  6
CONTINUOUS
 62
     7
 10
-1300.0
 20
-90.06639596666639
 30
0.0
 40
623.9336040333335
 50
257.0190880334407
 51
282.9809119665593
  0
ARC
  5
29D
  8
DATA
  6
CONTINUOUS
 62
     7
 10
-1300.0
 20
-81.06639596666639
 30
0.0
 40
623.9336040333336
 50
257.2128894385469
 51
282.7871105614531
  0
LINE
  5
29E
  8
DATA
  6
CONTINUOUS
 62
     7
 10
-1350.0
 20
-592.0
 30
0.0
 11
-1250.0
 21
-592.0
 31
0.0
  0
LINE
  5
29F
  8
DATA
  6
CONTINUOUS
 62
     7
 10
-1370.0
 20
-572.0
 30
0.0
 11
-1370.0
 21
-571.0
 31
0.0
  0
LINE
  5
2A0
  8
DATA
  6
CONTINUOUS
 62
     7
 10
-1370.0
 20
-501.0
 30
0.0
 11
-1370.0
 21
-418.5
 31
0.0
  0
LINE
  5
2A1
  8
DATA
  6
CONTINUOUS
 62
     7
 10
-1230.0
 20
-572.0
 30
0.0
 11
-1230.0
 21
-571.0
 31
0.0
  0
LINE
  5
2A2
  8
DATA
  6
CONTINUOUS
 62
     7
 10
-1230.0
 20
-501.0
 30
0.0
 11
-1230.0
 21
-418.5
 31
0.0
  0
ARC
  5
2A3
  8
DATA
  6
CONTINUOUS
 62
     7
 10
-1350.0
 20
-572.0
 30
0.0
 40
20.0
 50
180.0
 51
270.0
  0
ARC
  5
2A4
  8
DATA
  6
CONTINUOUS
 62
     7
 10
-1250.0
 20
-572.0
 30
0.0
 40
20.0
 50
270.0
 51
0.0
  0
LINE
  5
2A5
  8
DATA
  6
CONTINUOUS
 62
     7
 10
-1250.0
 20
-551.0
 30
0.0
 11
-1350.0
 21
-551.0
 31
0.0
  0
LINE
  5
2A6
  8
DATA
  6
CONTINUOUS
 62
     7
 10
-1350.0
 20
-521.0
 30
0.0
 11
-1250.0
 21
-521.0
 31
0.0
  0
ARC
  5
2A7
  8
DATA
  6
CONTINUOUS
 62
     7
 10
-1368.467857142857
 20
-536.0
 30
0.0
 40
36.53214285714286
 50
92.40366612890423
 51
267.5963338710958
  0
ARC
  5
2A8
  8
DATA
  6
CONTINUOUS
 62
     7
 10
-1231.532142857143
 20
-536.0
 30
0.0
 40
36.53214285714286
 50
272.4036661289042
 51
87.5963338710958
  0
LINE
  5
2A9
  8
DATA
  6
CONTINUOUS
 62
     7
 10
-1464.850500304095
 20
-671.9989605103411
 30
0.0
 11
-1448.867132138637
 21
-672.7283041107305
 31
0.0
  0
LINE
  5
2AA
  8
DATA
  6
CONTINUOUS
 62
     7
 10
-1464.80491632907
 20
-671.0
 30
0.0
 11
-1448.821548163613
 21
-671.7293436003894
 31
0.0
  0
ARC
  5
2AB
  8
DATA
  6
CONTINUOUS
 62
     7
 10
-1350.0
 20
-501.0
 30
0.0
 40
20.0
 50
180.0
 51
270.0
  0
ARC
  5
2AC
  8
DATA
  6
CONTINUOUS
 62
     7
 10
-1350.0
 20
-571.0
 30
0.0
 40
20.0
 50
90.0
 51
180.0
  0
ARC
  5
2AD
  8
DATA
  6
CONTINUOUS
 62
     7
 10
-1250.0
 20
-571.0
 30
0.0
 40
20.0
 50
0.0
 51
90.0
  0
ARC
  5
2AE
  8
DATA
  6
CONTINUOUS
 62
     7
 10
-1250.0
 20
-501.0
 30
0.0
 40
20.0
 50
270.0
 51
0.0
  0
LINE
  5
2AF
  8
DATA
  6
CONTINUOUS
 62
     7
 10
-757.0047407413037
 20
-1469.818416896263
 30
0.0
 11
-1043.0
 21
-1484.0
 31
0.0
  0
LINE
  5
2B0
  8
DATA
  6
CONTINUOUS
 62
     7
 10
-771.5589282598378
 20
-1492.0
 30
0.0
 11
-771.5589282598378
 21
-1470.540112145116
 31
0.0
  0
LINE
  5
2B1
  8
DATA
  6
CONTINUOUS
 62
     7
 10
-1015.670271871716
 20
-1494.994
 30
0.0
 11
-1015.670271871716
 21
-1492.0
 31
0.0
  0
LINE
  5
2B2
  8
DATA
  6
CONTINUOUS
 62
     7
 10
-968.7462814701278
 20
-1494.994
 30
0.0
 11
-968.7462814701278
 21
-1492.0
 31
0.0
  0
LINE
  5
2B3
  8
DATA
  6
CONTINUOUS
 62
     7
 10
-837.9327440052463
 20
-1494.994
 30
0.0
 11
-837.9327440052463
 21
-1492.0
 31
0.0
  0
LINE
  5
2B4
  8
DATA
  6
CONTINUOUS
 62
     7
 10
-775.5589282598366
 20
-1494.994
 30
0.0
 11
-775.5589282598366
 21
-1492.0
 31
0.0
  0
LINE
  5
2B5
  8
DATA
  6
CONTINUOUS
 62
     7
 10
-1028.75
 20
-1483.293388429752
 30
0.0
 11
-1028.75
 21
-1492.0
 31
0.0
  0
LINE
  5
2B6
  8
DATA
  6
CONTINUOUS
 62
     7
 10
-747.5
 20
-1446.5
 30
0.0
 11
-1050.0
 21
-1461.5
 31
0.0
  0
LINE
  5
2B7
  8
DATA
  6
CONTINUOUS
 62
     7
 10
-1050.0
 20
-930.5
 30
0.0
 11
-747.5
 21
-940.0
 31
0.0
  0
LINE
  5
2B8
  8
DATA
  6
CONTINUOUS
 62
     7
 10
-1050.0
 20
-930.5
 30
0.0
 11
-1046.5
 21
-933.0
 31
0.0
  0
LINE
  5
2B9
  8
DATA
  6
CONTINUOUS
 62
     7
 10
-1050.0
 20
-1461.5
 30
0.0
 11
-1046.5
 21
-1459.0
 31
0.0
  0
LINE
  5
2BA
  8
DATA
  6
CONTINUOUS
 62
     7
 10
-989.0
 20
-942.1693929517502
 30
0.0
 11
-989.0
 21
-1448.859614132392
 31
0.0
  0
LINE
  5
2BB
  8
DATA
  6
CONTINUOUS
 62
     7
 10
-987.0
 20
-942.1693929517502
 30
0.0
 11
-987.0
 21
-1448.859614132392
 31
0.0
  0
LINE
  5
2BC
  8
DATA
  6
CONTINUOUS
 62
     7
 10
-979.0
 20
-943.0487317947254
 30
0.0
 11
-979.0
 21
-1447.471184380326
 31
0.0
  0
LINE
  5
2BD
  8
DATA
  6
CONTINUOUS
 62
     7
 10
-973.9999999999999
 20
-943.0487317947254
 30
0.0
 11
-973.9999999999999
 21
-1447.471184380326
 31
0.0
  0
ARC
  5
2BE
  8
DATA
  6
CONTINUOUS
 62
     7
 10
-969.0
 20
-1447.471184380326
 30
0.0
 40
10.0
 50
180.0
 51
272.838787841006
  0
ARC
  5
2BF
  8
DATA
  6
CONTINUOUS
 62
     7
 10
-997.0
 20
-1448.859614132392
 30
0.0
 40
9.99999999999996
 50
272.838787841006
 51
0.0
  0
ARC
  5
2C0
  8
DATA
  6
CONTINUOUS
 62
     7
 10
-969.0
 20
-943.0487317947255
 30
0.0
 40
10.00000000000015
 50
88.2012196184341
 51
179.9999999999994
  0
ARC
  5
2C1
  8
DATA
  6
CONTINUOUS
 62
     7
 10
-997.0
 20
-942.1693929517502
 30
0.0
 40
10.0
 50
0.0
 51
88.20121961843404
  0
ARC
  5
2C2
  8
DATA
  6
CONTINUOUS
 62
     7
 10
-997.0
 20
-1448.859614132392
 30
0.0
 40
7.999999999999964
 50
272.8387878410056
 51
0.0
  0
LINE
  5
2C3
  8
DATA
  6
CONTINUOUS
 62
     7
 10
-996.6037925930432
 20
-1456.849796839357
 30
0.0
 11
-1046.987422085306
 21
-1459.348158632361
 31
0.0
  0
ARC
  5
2C4
  8
DATA
  6
CONTINUOUS
 62
     7
 10
-969.0
 20
-1447.471184380326
 30
0.0
 40
4.999999999999886
 50
180.0
 51
272.838787841006
  0
LINE
  5
2C5
  8
DATA
  6
CONTINUOUS
 62
     7
 10
-813.9992638072106
 20
-1444.791340808702
 30
0.0
 11
-968.7523703706519
 21
-1452.465048572179
 31
0.0
  0
ARC
  5
2C6
  8
DATA
  6
CONTINUOUS
 62
     7
 10
-997.0
 20
-942.1693929517502
 30
0.0
 40
8.0
 50
0.0
 51
88.20121961843404
  0
LINE
  5
2C7
  8
DATA
  6
CONTINUOUS
 62
     7
 10
-1047.069787057354
 20
-932.5930092447472
 30
0.0
 11
-996.748884134262
 21
-934.1733351216708
 31
0.0
  0
ARC
  5
2C8
  8
DATA
  6
CONTINUOUS
 62
     7
 10
-969.0
 20
-943.0487317947255
 30
0.0
 40
4.999999999999964
 50
88.20121961843275
 51
179.9999999999987
  0
LINE
  5
2C9
  8
DATA
  6
CONTINUOUS
 62
     7
 10
-968.8430525839136
 20
-938.0511956509259
 30
0.0
 11
-813.9992638072106
 21
-942.9140584389547
 31
0.0
  0
LINE
  5
2CA
  8
DATA
  6
CONTINUOUS
 62
     7
 10
-817.9999999999998
 20
-1472.842975206612
 30
0.0
 11
-817.9999999999998
 21
-1438.052386395399
 31
0.0
  0
LINE
  5
2CB
  8
DATA
  6
CONTINUOUS
 62
     7
 10
-817.9999999999998
 20
-1416.541786590458
 30
0.0
 11
-817.9999999999998
 21
-969.9582134095418
 31
0.0
  0
LINE
  5
2CC
  8
DATA
  6
CONTINUOUS
 62
     7
 10
-817.9999999999998
 20
-948.4476136046012
 30
0.0
 11
-817.9999999999998
 21
-915.0661157024794
 31
0.0
  0
ARC
  5
2CD
  8
DATA
  6
CONTINUOUS
 62
     7
 10
-1388.072076914732
 20
-428.4999999999999
 30
0.0
 40
9.999999999999943
 50
90.0
 51
137.7667884011695
  0
ARC
  5
2CE
  8
DATA
  6
CONTINUOUS
 62
     7
 10
-1427.023798783563
 20
-501.163024168364
 30
0.0
 40
30.0000000000001
 50
137.7667884011695
 51
177.3873252721376
  0
LINE
  5
2CF
  8
DATA
  6
CONTINUOUS
 62
     7
 10
-1449.622219716164
 20
-491.8380389726183
 30
0.0
 11
-1457.961662734156
 21
-674.5946820421772
 31
0.0
  0
LINE
  5
2D0
  8
DATA
  6
CONTINUOUS
 62
     7
 10
-1440.779359351234
 20
-495.4869462231275
 30
0.0
 11
-1448.981514589384
 21
-675.2349646490337
 31
0.0
  0
LINE
  5
2D1
  8
DATA
  6
CONTINUOUS
 62
     7
 10
-1383.045843911234
 20
-418.5
 30
0.0
 11
-1449.622219716164
 21
-491.8380389726183
 31
0.0
  0
LINE
  5
2D2
  8
DATA
  6
CONTINUOUS
 62
     7
 10
-1370.890500368536
 20
-418.5
 30
0.0
 11
-1440.779359351234
 21
-495.4869462231275
 31
0.0
  0
ARC
  5
2D3
  8
DATA
  6
CONTINUOUS
 62
     7
 10
-1300.0
 20
-97.06639596666639
 30
0.0
 40
623.9336040333336
 50
256.8642068745751
 51
283.1357930843737
  0
ARC
  5
2D4
  8
DATA
  6
CONTINUOUS
 62
     7
 10
-1434.977180774009
 20
-675.4592440122022
 30
0.0
 40
30.000000000083
 50
177.3873252721376
 51
256.8642077281935
  0
LINE
  5
2D5
  8
DATA
  6
CONTINUOUS
 62
     7
 10
-1456.992614093796
 20
-499.7955049176339
 30
0.0
 11
-1464.945996084326
 21
-674.0917247614684
 31
0.0
  0
ARC
  5
2D6
  8
DATA
  6
CONTINUOUS
 62
     7
 10
-1434.985570996348
 20
-675.6431134677351
 30
0.0
 40
22.99999999996211
 50
177.3873252721377
 51
257.0190880335334
  0
ARC
  5
2D7
  8
DATA
  6
CONTINUOUS
 62
     7
 10
-1434.996067444701
 20
-675.8731402993701
 30
0.0
 40
13.99999999990719
 50
177.387325272138
 51
257.2128894389215
  0
LINE
  5
2D8
  8
DATA
  6
CONTINUOUS
 62
     7
 10
-1135.149499695905
 20
-671.9989605103411
 30
0.0
 11
-1151.132867861363
 21
-672.7283041107305
 31
0.0
  0
LINE
  5
2D9
  8
DATA
  6
CONTINUOUS
 62
     7
 10
-1135.19508367093
 20
-671.0
 30
0.0
 11
-1151.178451836387
 21
-671.7293436003894
 31
0.0
  0
ARC
  5
2DA
  8
DATA
  6
CONTINUOUS
 62
     7
 10
-1165.022819225991
 20
-675.4592440122022
 30
0.0
 40
30.00000000008318
 50
283.135792271807
 51
2.612674727862327
  0
ARC
  5
2DB
  8
DATA
  6
CONTINUOUS
 62
     7
 10
-1165.014429003652
 20
-675.6431134677351
 30
0.0
 40
22.99999999996216
 50
282.9809119664666
 51
2.612674727862327
  0
ARC
  5
2DC
  8
DATA
  6
CONTINUOUS
 62
     7
 10
-1165.003932555299
 20
-675.8731402993701
 30
0.0
 40
13.99999999990723
 50
282.7871105610794
 51
2.612674727862043
  0
LINE
  5
2DD
  8
DATA
  6
CONTINUOUS
 62
     7
 10
-1204.523772006867
 20
-421.7785011486858
 30
0.0
 11
-1150.763747981235
 21
-480.9985276144214
 31
0.0
  0
ARC
  5
2DE
  8
DATA
  6
CONTINUOUS
 62
     7
 10
-1211.927923085268
 20
-428.4999999999999
 30
0.0
 40
9.999999999999927
 50
42.23321159883051
 51
90.0
  0
ARC
  5
2DF
  8
DATA
  6
CONTINUOUS
 62
     7
 10
-1172.976201216437
 20
-501.163024168364
 30
0.0
 40
30.00000000000015
 50
2.61267472786242
 51
42.23321159883054
  0
LINE
  5
2E0
  8
DATA
  6
CONTINUOUS
 62
     7
 10
-1150.377780283836
 20
-491.8380389726183
 30
0.0
 11
-1142.038337265844
 21
-674.5946820421772
 31
0.0
  0
LINE
  5
2E1
  8
DATA
  6
CONTINUOUS
 62
     7
 10
-1159.220640648766
 20
-495.4869462231275
 30
0.0
 11
-1151.018485410616
 21
-675.2349646490337
 31
0.0
  0
LINE
  5
2E2
  8
DATA
  6
CONTINUOUS
 62
     7
 10
-1216.954156088766
 20
-418.5
 30
0.0
 11
-1150.377780283836
 21
-491.8380389726183
 31
0.0
  0
LINE
  5
2E3
  8
DATA
  6
CONTINUOUS
 62
     7
 10
-1229.109499631464
 20
-418.5
 30
0.0
 11
-1159.220640648766
 21
-495.4869462231275
 31
0.0
  0
LINE
  5
2E4
  8
DATA
  6
CONTINUOUS
 62
     7
 10
-1143.007385906203
 20
-499.7955049176339
 30
0.0
 11
-1135.054003915674
 21
-674.0917247614684
 31
0.0
  0
LINE
  5
2E5
  8
DATA
  6
CONTINUOUS
 62
     7
 10
-1388.072076914732
 20
-1948.5
 30
0.0
 11
-1211.927923085268
 21
-1948.5
 31
0.0
  0
LINE
  5
2E6
  8
DATA
  6
CONTINUOUS
 62
     7
 10
-1395.476227993133
 20
-1945.221498851314
 30
0.0
 11
-1449.236252018765
 21
-1886.001472385579
 31
0.0
  0
ARC
  5
2E7
  8
DATA
  6
CONTINUOUS
 62
     7
 10
-1300.0
 20
-2276.933604033334
 30
0.0
 40
623.9336040333335
 50
77.0190880334407
 51
102.9809119665594
  0
LINE
  5
2E8
  8
DATA
  6
CONTINUOUS
 62
     7
 10
-1464.850500304095
 20
-1695.001039489659
 30
0.0
 11
-1457.857776731707
 21
-1694.681951664489
 31
0.0
  0
LINE
  5
2E9
  8
DATA
  6
CONTINUOUS
 62
     7
 10
-1464.80491632907
 20
-1696.0
 30
0.0
 11
-1457.812192756682
 21
-1695.68091217483
 31
0.0
  0
ARC
  5
2EA
  8
DATA
  6
CONTINUOUS
 62
     7
 10
-1388.072076914732
 20
-1938.5
 30
0.0
 40
10.0
 50
222.233211598831
 51
270.0
  0
ARC
  5
2EB
  8
DATA
  6
CONTINUOUS
 62
     7
 10
-1427.023798783563
 20
-1865.836975831636
 30
0.0
 40
29.99999999999992
 50
182.6126747278624
 51
222.2332115988307
  0
LINE
  5
2EC
  8
DATA
  6
CONTINUOUS
 62
     7
 10
-1449.999890521409
 20
-1866.885407257196
 30
0.0
 11
-1457.961662734156
 21
-1692.405317957823
 31
0.0
  0
LINE
  5
2ED
  8
DATA
  6
CONTINUOUS
 62
     7
 10
-1396.322058724972
 20
-1933.875419619241
 30
0.0
 11
-1444.053346263884
 21
-1881.296423189659
 31
0.0
  0
ARC
  5
2EE
  8
DATA
  6
CONTINUOUS
 62
     7
 10
-1300.0
 20
-2269.933604033334
 30
0.0
 40
623.9336040333337
 50
76.86420691562626
 51
103.135793125425
  0
ARC
  5
2EF
  8
DATA
  6
CONTINUOUS
 62
     7
 10
-1434.977180774009
 20
-1691.540755987798
 30
0.0
 40
30.00000000008301
 50
103.1357922718066
 51
182.6126747278626
  0
LINE
  5
2F0
  8
DATA
  6
CONTINUOUS
 62
     7
 10
-1456.992614093796
 20
-1867.204495082366
 30
0.0
 11
-1464.945996084326
 21
-1692.908275238532
 31
0.0
  0
ARC
  5
2F1
  8
DATA
  6
CONTINUOUS
 62
     7
 10
-1434.985570996348
 20
-1691.356886532265
 30
0.0
 40
22.99999999996227
 50
102.9809119664666
 51
182.6126747278618
  0
LINE
  5
2F2
  8
DATA
  6
CONTINUOUS
 62
     7
 10
-1135.149499695905
 20
-1695.001039489659
 30
0.0
 11
-1142.142223268293
 21
-1694.681951664489
 31
0.0
  0
LINE
  5
2F3
  8
DATA
  6
CONTINUOUS
 62
     7
 10
-1135.19508367093
 20
-1696.0
 30
0.0
 11
-1142.187807243318
 21
-1695.68091217483
 31
0.0
  0
ARC
  5
2F4
  8
DATA
  6
CONTINUOUS
 62
     7
 10
-1165.022819225991
 20
-1691.540755987798
 30
0.0
 40
30.00000000008323
 50
357.3873252721374
 51
76.86420772819298
  0
ARC
  5
2F5
  8
DATA
  6
CONTINUOUS
 62
     7
 10
-1165.014429003652
 20
-1691.356886532265
 30
0.0
 40
22.99999999996232
 50
357.3873252721384
 51
77.01908803353348
  0
LINE
  5
2F6
  8
DATA
  6
CONTINUOUS
 62
     7
 10
-1204.523772006867
 20
-1945.221498851314
 30
0.0
 11
-1150.763747981235
 21
-1886.001472385579
 31
0.0
  0
ARC
  5
2F7
  8
DATA
  6
CONTINUOUS
 62
     7
 10
-1211.927923085268
 20
-1938.5
 30
0.0
 40
10.0
 50
270.0
 51
317.766788401169
  0
ARC
  5
2F8
  8
DATA
  6
CONTINUOUS
 62
     7
 10
-1172.976201216437
 20
-1865.836975831636
 30
0.0
 40
30.00000000000018
 50
317.7667884011693
 51
357.3873252721376
  0
LINE
  5
2F9
  8
DATA
  6
CONTINUOUS
 62
     7
 10
-1143.007385906203
 20
-1867.204495082366
 30
0.0
 11
-1135.054003915674
 21
-1692.908275238532
 31
0.0
  0
ARC
  5
2FA
  8
DATA
  6
CONTINUOUS
 62
     7
 10
-1299.99999999999
 20
-1785.999999999998
 30
0.0
 40
20.00000000001008
 50
202.3012223046653
 51
229.6987776953122
  0
ARC
  5
2FB
  8
DATA
  6
CONTINUOUS
 62
     7
 10
-1299.99999999999
 20
-1785.999999999998
 30
0.0
 40
20.00000000001006
 50
238.3012223046488
 51
265.6987776953036
  0
ARC
  5
2FC
  8
DATA
  6
CONTINUOUS
 62
     7
 10
-1299.99999999999
 20
-1785.999999999998
 30
0.0
 40
20.00000000001015
 50
166.3012223046838
 51
193.698777695329
  0
CIRCLE
  5
2FD
  8
DATA
  6
CONTINUOUS
 62
     7
 10
-1300.0
 20
-1786.0
 30
0.0
 40
23.5
  0
CIRCLE
  5
2FE
  8
DATA
  6
CONTINUOUS
 62
     7
 10
-1300.0
 20
-1786.0
 30
0.0
 40
26.5
  0
ARC
  5
2FF
  8
DATA
  6
CONTINUOUS
 62
     7
 10
-1300.0
 20
-1786.0
 30
0.0
 40
18.15000000000002
 50
193.2594046463426
 51
202.7405953536569
  0
ARC
  5
300
  8
DATA
  6
CONTINUOUS
 62
     7
 10
-1300.0
 20
-1786.0
 30
0.0
 40
18.14999999999986
 50
13.25940464634346
 51
22.74059535365623
  0
LINE
  5
301
  8
DATA
  6
CONTINUOUS
 62
     7
 10
-1319.431083446036
 20
-1790.736348394405
 30
0.0
 11
-1317.666150474281
 21
-1790.162886909351
 31
0.0
  0
LINE
  5
302
  8
DATA
  6
CONTINUOUS
 62
     7
 10
-1283.260900508843
 20
-1778.983943541764
 30
0.0
 11
-1281.495967537089
 21
-1778.41048205671
 31
0.0
  0
LINE
  5
303
  8
DATA
  6
CONTINUOUS
 62
     7
 10
-1318.504032462911
 20
-1793.58951794329
 30
0.0
 11
-1316.739099491157
 21
-1793.016056458236
 31
0.0
  0
LINE
  5
304
  8
DATA
  6
CONTINUOUS
 62
     7
 10
-1282.333849525719
 20
-1781.837113090649
 30
0.0
 11
-1280.568916553964
 21
-1781.263651605595
 31
0.0
  0
ARC
  5
305
  8
DATA
  6
CONTINUOUS
 62
     7
 10
-1300.0
 20
-1786.0
 30
0.0
 40
18.15000000000003
 50
229.2594046463429
 51
238.7405953536567
  0
ARC
  5
306
  8
DATA
  6
CONTINUOUS
 62
     7
 10
-1300.0
 20
-1786.0
 30
0.0
 40
18.14999999999988
 50
49.2594046463435
 51
58.74059535365592
  0
LINE
  5
307
  8
DATA
  6
CONTINUOUS
 62
     7
 10
-1312.936120991011
 20
-1801.253090627999
 30
0.0
 11
-1311.845332426601
 21
-1799.751748968888
 31
0.0
  0
LINE
  5
308
  8
DATA
  6
CONTINUOUS
 62
     7
 10
-1290.581718556524
 20
-1770.484895274235
 30
0.0
 11
-1289.490929992114
 21
-1768.983553615125
 31
0.0
  0
LINE
  5
309
  8
DATA
  6
CONTINUOUS
 62
     7
 10
-1310.509070007886
 20
-1803.016446384876
 30
0.0
 11
-1309.418281443476
 21
-1801.515104725766
 31
0.0
  0
LINE
  5
30A
  8
DATA
  6
CONTINUOUS
 62
     7
 10
-1288.154667573399
 20
-1772.248251031112
 30
0.0
 11
-1287.063879008989
 21
-1770.746909372002
 31
0.0
  0
ARC
  5
30B
  8
DATA
  6
CONTINUOUS
 62
     7
 10
-1300.0
 20
-1786.0
 30
0.0
 40
18.15000000000001
 50
265.2594046463429
 51
274.7405953536564
  0
ARC
  5
30C
  8
DATA
  6
CONTINUOUS
 62
     7
 10
-1300.0
 20
-1786.0
 30
0.0
 40
18.14999999999976
 50
85.25940464634358
 51
94.74059535365642
  0
LINE
  5
30D
  8
DATA
  6
CONTINUOUS
 62
     7
 10
-1301.5
 20
-1805.94367067518
 30
0.0
 11
-1301.5
 21
-1804.087910327067
 31
0.0
  0
LINE
  5
30E
  8
DATA
  6
CONTINUOUS
 62
     7
 10
-1301.5
 20
-1767.912089672934
 30
0.0
 11
-1301.5
 21
-1766.056329324821
 31
0.0
  0
LINE
  5
30F
  8
DATA
  6
CONTINUOUS
 62
     7
 10
-1298.5
 20
-1805.943670675179
 30
0.0
 11
-1298.5
 21
-1804.087910327067
 31
0.0
  0
LINE
  5
310
  8
DATA
  6
CONTINUOUS
 62
     7
 10
-1298.5
 20
-1767.912089672934
 30
0.0
 11
-1298.5
 21
-1766.056329324821
 31
0.0
  0
ARC
  5
311
  8
DATA
  6
CONTINUOUS
 62
     7
 10
-1300.0
 20
-1786.0
 30
0.0
 40
18.15000000000014
 50
301.2594046463433
 51
310.7405953536575
  0
ARC
  5
312
  8
DATA
  6
CONTINUOUS
 62
     7
 10
-1300.0
 20
-1786.0
 30
0.0
 40
18.14999999999982
 50
121.2594046463431
 51
130.740595353656
  0
LINE
  5
313
  8
DATA
  6
CONTINUOUS
 62
     7
 10
-1289.490929992114
 20
-1803.016446384877
 30
0.0
 11
-1290.581718556524
 21
-1801.515104725766
 31
0.0
  0
LINE
  5
314
  8
DATA
  6
CONTINUOUS
 62
     7
 10
-1311.8453324266
 20
-1772.248251031112
 30
0.0
 11
-1312.93612099101
 21
-1770.746909372002
 31
0.0
  0
LINE
  5
315
  8
DATA
  6
CONTINUOUS
 62
     7
 10
-1287.063879008989
 20
-1801.253090627999
 30
0.0
 11
-1288.154667573399
 21
-1799.751748968889
 31
0.0
  0
LINE
  5
316
  8
DATA
  6
CONTINUOUS
 62
     7
 10
-1309.418281443476
 20
-1770.484895274235
 30
0.0
 11
-1310.509070007885
 21
-1768.983553615124
 31
0.0
  0
ARC
  5
317
  8
DATA
  6
CONTINUOUS
 62
     7
 10
-1300.0
 20
-1786.000000000001
 30
0.0
 40
18.15000000000009
 50
337.259404646344
 51
346.7405953536575
  0
ARC
  5
318
  8
DATA
  6
CONTINUOUS
 62
     7
 10
-1300.0
 20
-1786.000000000001
 30
0.0
 40
18.14999999999976
 50
157.2594046463428
 51
166.7405953536559
  0
LINE
  5
319
  8
DATA
  6
CONTINUOUS
 62
     7
 10
-1281.495967537088
 20
-1793.589517943291
 30
0.0
 11
-1283.260900508842
 21
-1793.016056458237
 31
0.0
  0
LINE
  5
31A
  8
DATA
  6
CONTINUOUS
 62
     7
 10
-1317.666150474281
 20
-1781.837113090649
 30
0.0
 11
-1319.431083446035
 21
-1781.263651605595
 31
0.0
  0
LINE
  5
31B
  8
DATA
  6
CONTINUOUS
 62
     7
 10
-1280.568916553963
 20
-1790.736348394405
 30
0.0
 11
-1282.333849525718
 21
-1790.162886909352
 31
0.0
  0
LINE
  5
31C
  8
DATA
  6
CONTINUOUS
 62
     7
 10
-1316.739099491156
 20
-1778.983943541764
 30
0.0
 11
-1318.504032462911
 21
-1778.41048205671
 31
0.0
  0
ARC
  5
31D
  8
DATA
  6
CONTINUOUS
 62
     7
 10
-1299.99999999999
 20
-1785.999999999998
 30
0.0
 40
20.00000000000997
 50
274.3012223046395
 51
301.6987776953017
  0
ARC
  5
31E
  8
DATA
  6
CONTINUOUS
 62
     7
 10
-1299.99999999999
 20
-1785.999999999998
 30
0.0
 40
20.00000000000994
 50
310.3012223046434
 51
337.6987776953114
  0
ARC
  5
31F
  8
DATA
  6
CONTINUOUS
 62
     7
 10
-1299.99999999999
 20
-1785.999999999998
 30
0.0
 40
20.0000000000097
 50
346.3012223046561
 51
13.69877769532974
  0
ARC
  5
320
  8
DATA
  6
CONTINUOUS
 62
     7
 10
-1299.99999999999
 20
-1785.999999999998
 30
0.0
 40
20.00000000000994
 50
22.3012223046746
 51
49.69877769534645
  0
ARC
  5
321
  8
DATA
  6
CONTINUOUS
 62
     7
 10
-1299.99999999999
 20
-1785.999999999998
 30
0.0
 40
20.00000000000999
 50
58.30122230469001
 51
85.69877769535663
  0
ARC
  5
322
  8
DATA
  6
CONTINUOUS
 62
     7
 10
-1299.99999999999
 20
-1785.999999999998
 30
0.0
 40
20.00000000000992
 50
94.30122230469829
 51
121.6987776953568
  0
ARC
  5
323
  8
DATA
  6
CONTINUOUS
 62
     7
 10
-1299.99999999999
 20
-1785.999999999998
 30
0.0
 40
20.00000000001004
 50
130.3012223046961
 51
157.6987776953467
  0
LINE
  5
324
  8
DATA
  6
CONTINUOUS
 62
     7
 10
-1324.0
 20
-1948.5
 30
0.0
 11
-1324.0
 21
-1910.0
 31
0.0
  0
LINE
  5
325
  8
DATA
  6
CONTINUOUS
 62
     7
 10
-1276.0
 20
-1948.5
 30
0.0
 11
-1276.0
 21
-1910.0
 31
0.0
  0
ARC
  5
326
  8
DATA
  6
CONTINUOUS
 62
     7
 10
-1242.484375
 20
-1945.979631696429
 30
0.0
 40
89.10292372392323
 50
135.3286335777291
 51
156.1841398020089
  0
ARC
  5
327
  8
DATA
  6
CONTINUOUS
 62
     7
 10
-1357.515625
 20
-1945.979631696429
 30
0.0
 40
89.10292372392323
 50
23.81586019799114
 51
44.671366422277
  0
ARC
  5
328
  8
DATA
  6
CONTINUOUS
 62
     7
 10
-1314.25
 20
-1873.0
 30
0.0
 40
6.999999999999993
 50
172.8473312500025
 51
311.5056612560448
  0
ARC
  5
329
  8
DATA
  6
CONTINUOUS
 62
     7
 10
-1300.0
 20
-1867.959464918249
 30
0.0
 40
20.95998407924835
 50
8.117056771437024
 51
171.882943228563
  0
LINE
  5
32A
  8
DATA
  6
CONTINUOUS
 62
     7
 10
-1320.75
 20
-1865.0
 30
0.0
 11
-1321.25
 21
-1873.0
 31
0.0
  0
ARC
  5
32B
  8
DATA
  6
CONTINUOUS
 62
     7
 10
-1308.1930834763
 20
-1881.130958184501
 30
0.0
 40
3.218016413754088
 50
316.7285336546755
 51
137.2202147310076
  0
ARC
  5
32C
  8
DATA
  6
CONTINUOUS
 62
     7
 10
-1285.75
 20
-1873.0
 30
0.0
 40
6.999999999999974
 50
228.4943387439566
 51
7.152668749997474
  0
LINE
  5
32D
  8
DATA
  6
CONTINUOUS
 62
     7
 10
-1279.25
 20
-1865.0
 30
0.0
 11
-1278.75
 21
-1873.0
 31
0.0
  0
ARC
  5
32E
  8
DATA
  6
CONTINUOUS
 62
     7
 10
-1291.806916523699
 20
-1881.130958184501
 30
0.0
 40
3.218016413754266
 50
42.77978526899241
 51
223.2714663453245
  0
LINE
  5
32F
  8
DATA
  6
CONTINUOUS
 62
     7
 10
-1379.225873884945
 20
-1941.445478771557
 30
0.0
 11
-1324.0
 21
-1941.445478771557
 31
0.0
  0
LINE
  5
330
  8
DATA
  6
CONTINUOUS
 62
     7
 10
-1276.0
 20
-1941.445478771557
 30
0.0
 11
-1220.774126115055
 21
-1941.445478771557
 31
0.0
  0
ARC
  5
331
  8
DATA
  6
CONTINUOUS
 62
     7
 10
-1379.225873884945
 20
-1918.355478771557
 30
0.0
 40
23.08999999999988
 50
222.2332115988311
 51
270.0000000000006
  0
ARC
  5
332
  8
DATA
  6
CONTINUOUS
 62
     7
 10
-1299.999999999993
 20
-2276.933604033334
 30
0.0
 40
610.9336040333335
 50
77.70255938463673
 51
102.2974406153645
  0
ARC
  5
333
  8
DATA
  6
CONTINUOUS
 62
     7
 10
-1299.999999999993
 20
-2276.933604033334
 30
0.0
 40
588.9336040333334
 50
79.10798163296755
 51
100.8920183670337
  0
ARC
  5
334
  8
DATA
  6
CONTINUOUS
 62
     7
 10
-1299.999999999994
 20
-2276.933604033334
 30
0.0
 40
606.9336040333333
 50
99.9369968840855
 51
102.2148037399158
  0
ARC
  5
335
  8
DATA
  6
CONTINUOUS
 62
     7
 10
-1299.999999999994
 20
-2276.933604033334
 30
0.0
 40
592.9336040333334
 50
99.93610839959179
 51
101.4798842961548
  0
ARC
  5
336
  8
DATA
  6
CONTINUOUS
 62
     7
 10
-1403.914355933667
 20
-1686.079728128284
 30
0.0
 40
7.000000000000305
 50
276.7050624559446
 51
96.70506245594464
  0
ARC
  5
337
  8
DATA
  6
CONTINUOUS
 62
     7
 10
-1427.023798783563
 20
-1865.836975831636
 30
0.0
 40
22.99999999999988
 50
182.612674727862
 51
222.2332115988308
  0
LINE
  5
338
  8
DATA
  6
CONTINUOUS
 62
     7
 10
-1150.000109478591
 20
-1866.885407257196
 30
0.0
 11
-1142.038337265844
 21
-1692.405317957823
 31
0.0
  0
LINE
  5
339
  8
DATA
  6
CONTINUOUS
 62
     7
 10
-1203.677941275028
 20
-1933.875419619241
 30
0.0
 11
-1155.946653736115
 21
-1881.296423189659
 31
0.0
  0
ARC
  5
33A
  8
DATA
  6
CONTINUOUS
 62
     7
 10
-1172.976201216437
 20
-1865.836975831636
 30
0.0
 40
22.9999999999999
 50
317.7667884011692
 51
357.387325272138
  0
ARC
  5
33B
  8
DATA
  6
CONTINUOUS
 62
     7
 10
-1220.774126115055
 20
-1918.355478771557
 30
0.0
 40
23.08999999999992
 50
269.9999999999994
 51
317.7667884011689
  0
ARC
  5
33C
  8
DATA
  6
CONTINUOUS
 62
     7
 10
-1427.990898532951
 20
-1689.788330133718
 30
0.0
 40
9.999999999999941
 50
102.2974406153638
 51
183.5375779474152
  0
LINE
  5
33D
  8
DATA
  6
CONTINUOUS
 62
     7
 10
-1380.649822239166
 20
-1921.263472352525
 30
0.0
 11
-1427.492507381073
 21
-1869.663327000894
 31
0.0
  0
ARC
  5
33E
  8
DATA
  6
CONTINUOUS
 62
     7
 10
-1410.339304711277
 20
-1703.519537450441
 30
0.0
 40
5.000000000050531
 50
100.8920183676056
 51
182.6126747278618
  0
LINE
  5
33F
  8
DATA
  6
CONTINUOUS
 62
     7
 10
-1364.356217760029
 20
-1906.472115094868
 30
0.0
 11
-1407.807713258038
 21
-1858.607577085343
 31
0.0
  0
ARC
  5
340
  8
DATA
  6
CONTINUOUS
 62
     7
 10
-1372.503019999598
 20
-1913.867793723697
 30
0.0
 40
11.00301999959728
 50
222.2332115988333
 51
42.23321159883332
  0
ARC
  5
341
  8
DATA
  6
CONTINUOUS
 62
     7
 10
-1420.088356302672
 20
-1862.94182814958
 30
0.0
 40
9.99999999999997
 50
182.612674727862
 51
222.233211598831
  0
ARC
  5
342
  8
DATA
  6
CONTINUOUS
 62
     7
 10
-1406.326883042358
 20
-1857.263277315081
 30
0.0
 40
2.00000000000004
 50
182.6126747278619
 51
222.2332115988264
  0
LINE
  5
343
  8
DATA
  6
CONTINUOUS
 62
     7
 10
-1430.077961406083
 20
-1863.397667899824
 30
0.0
 11
-1437.97184397817
 21
-1690.405361753291
 31
0.0
  0
LINE
  5
344
  8
DATA
  6
CONTINUOUS
 62
     7
 10
-1408.32480406304
 20
-1857.354445265129
 30
0.0
 11
-1415.334107263033
 21
-1703.747457325565
 31
0.0
  0
LINE
  5
345
  8
DATA
  6
CONTINUOUS
 62
     7
 10
-1300.0
 20
-1666.0
 30
0.0
 11
-1300.0
 21
-1688.0
 31
0.0
  0
ARC
  5
346
  8
DATA
  6
CONTINUOUS
 62
     7
 10
-1425.562013780818
 20
-1720.984543826925
 30
0.0
 40
7.022756255579218
 50
177.9680280132122
 51
7.257321442467884
  0
LINE
  5
347
  8
DATA
  6
CONTINUOUS
 62
     7
 10
-1432.528509440075
 20
-1721.871698635728
 30
0.0
 11
-1433.940820308514
 21
-1690.921287111885
 31
0.0
  0
LINE
  5
348
  8
DATA
  6
CONTINUOUS
 62
     7
 10
-1418.543673455926
 20
-1721.233550873508
 30
0.0
 11
-1419.607822680733
 21
-1697.91300780717
 31
0.0
  0
ARC
  5
349
  8
DATA
  6
CONTINUOUS
 62
     7
 10
-1426.92811752595
 20
-1690.601287607216
 30
0.0
 40
7.019999999969036
 50
102.2148037396657
 51
182.6126747278618
  0
ARC
  5
34A
  8
DATA
  6
CONTINUOUS
 62
     7
 10
-1417.60990166
 20
-1697.821839857118
 30
0.0
 40
2.000000000050634
 50
101.4798842975899
 51
182.6126747278673
  0
ARC
  5
34B
  8
DATA
  6
CONTINUOUS
 62
     7
 10
-1300.000000000006
 20
-2276.933604033334
 30
0.0
 40
606.933604033333
 50
77.78519626008423
 51
80.06300311591451
  0
ARC
  5
34C
  8
DATA
  6
CONTINUOUS
 62
     7
 10
-1300.000000000006
 20
-2276.933604033334
 30
0.0
 40
592.9336040333334
 50
78.52011570384525
 51
80.06389160040825
  0
ARC
  5
34D
  8
DATA
  6
CONTINUOUS
 62
     7
 10
-1196.085644066333
 20
-1686.079728128284
 30
0.0
 40
7.000000000000305
 50
83.29493754405539
 51
263.2949375440554
  0
ARC
  5
34E
  8
DATA
  6
CONTINUOUS
 62
     7
 10
-1172.009101467049
 20
-1689.788330133718
 30
0.0
 40
10.00000000000007
 50
356.4624220525848
 51
77.70255938463625
  0
ARC
  5
34F
  8
DATA
  6
CONTINUOUS
 62
     7
 10
-1189.660695288723
 20
-1703.519537450441
 30
0.0
 40
5.000000000050513
 50
357.3873252721384
 51
79.1079816323944
  0
LINE
  5
350
  8
DATA
  6
CONTINUOUS
 62
     7
 10
-1169.922038593917
 20
-1863.397667899824
 30
0.0
 11
-1162.028156021829
 21
-1690.405361753291
 31
0.0
  0
LINE
  5
351
  8
DATA
  6
CONTINUOUS
 62
     7
 10
-1191.67519593696
 20
-1857.354445265129
 30
0.0
 11
-1184.665892736967
 21
-1703.747457325565
 31
0.0
  0
ARC
  5
352
  8
DATA
  6
CONTINUOUS
 62
     7
 10
-1174.437986219182
 20
-1720.984543826925
 30
0.0
 40
7.022756255579116
 50
172.7426785575319
 51
2.031971986787738
  0
LINE
  5
353
  8
DATA
  6
CONTINUOUS
 62
     7
 10
-1167.471490559924
 20
-1721.871698635728
 30
0.0
 11
-1166.059179691486
 21
-1690.921287111885
 31
0.0
  0
LINE
  5
354
  8
DATA
  6
CONTINUOUS
 62
     7
 10
-1181.456326544074
 20
-1721.233550873508
 30
0.0
 11
-1180.392177319267
 21
-1697.91300780717
 31
0.0
  0
ARC
  5
355
  8
DATA
  6
CONTINUOUS
 62
     7
 10
-1173.07188247405
 20
-1690.601287607216
 30
0.0
 40
7.019999999968903
 50
357.3873252721382
 51
77.78519626033433
  0
ARC
  5
356
  8
DATA
  6
CONTINUOUS
 62
     7
 10
-1182.39009834
 20
-1697.821839857118
 30
0.0
 40
2.000000000050578
 50
357.3873252721324
 51
78.52011570241655
  0
ARC
  5
357
  8
DATA
  6
CONTINUOUS
 62
     7
 10
-1372.503019999598
 20
-1913.867793723697
 30
0.0
 40
7.022756255577056
 50
222.2332115988296
 51
42.24070999526194
  0
LINE
  5
358
  8
DATA
  6
CONTINUOUS
 62
     7
 10
-1377.702774829906
 20
-1918.588138534189
 30
0.0
 11
-1416.000022667824
 21
-1876.401326462732
 31
0.0
  0
ARC
  5
359
  8
DATA
  6
CONTINUOUS
 62
     7
 10
-1410.800267837517
 20
-1871.68098165224
 30
0.0
 40
7.022756255576884
 50
39.60014038698866
 51
222.2332115988322
  0
LINE
  5
35A
  8
DATA
  6
CONTINUOUS
 62
     7
 10
-1405.389152110148
 20
-1867.204495082366
 30
0.0
 11
-1367.303265169291
 21
-1909.147448913205
 31
0.0
  0
LINE
  5
35B
  8
DATA
  6
CONTINUOUS
 62
     7
 10
-1219.350177760834
 20
-1921.263472352525
 30
0.0
 11
-1172.507492618927
 21
-1869.663327000894
 31
0.0
  0
LINE
  5
35C
  8
DATA
  6
CONTINUOUS
 62
     7
 10
-1235.643782239971
 20
-1906.472115094868
 30
0.0
 11
-1192.192286741962
 21
-1858.607577085343
 31
0.0
  0
ARC
  5
35D
  8
DATA
  6
CONTINUOUS
 62
     7
 10
-1227.496980000401
 20
-1913.867793723697
 30
0.0
 40
11.00301999959728
 50
137.7667884011667
 51
317.7667884011667
  0
ARC
  5
35E
  8
DATA
  6
CONTINUOUS
 62
     7
 10
-1179.911643697328
 20
-1862.94182814958
 30
0.0
 40
10.0
 50
317.766788401169
 51
357.387325272138
  0
ARC
  5
35F
  8
DATA
  6
CONTINUOUS
 62
     7
 10
-1193.673116957642
 20
-1857.263277315081
 30
0.0
 40
1.999999999999872
 50
317.7667884011692
 51
357.3873252721377
  0
ARC
  5
360
  8
DATA
  6
CONTINUOUS
 62
     7
 10
-1227.496980000401
 20
-1913.867793723697
 30
0.0
 40
7.0227562555769
 50
137.7592900047393
 51
317.7667884011693
  0
LINE
  5
361
  8
DATA
  6
CONTINUOUS
 62
     7
 10
-1222.297225170094
 20
-1918.588138534189
 30
0.0
 11
-1183.999977332176
 21
-1876.401326462732
 31
0.0
  0
ARC
  5
362
  8
DATA
  6
CONTINUOUS
 62
     7
 10
-1189.199732162483
 20
-1871.68098165224
 30
0.0
 40
7.022756255576872
 50
317.7667884011666
 51
140.3998596130114
  0
LINE
  5
363
  8
DATA
  6
CONTINUOUS
 62
     7
 10
-1194.610847889852
 20
-1867.204495082366
 30
0.0
 11
-1232.696734830709
 21
-1909.147448913205
 31
0.0
  0
LINE
  5
364
  8
DATA
  6
CONTINUOUS
 62
     7
 10
-1143.523032894585
 20
-495.4611932514848
 30
0.0
 11
-1139.114875338991
 21
-490.1296843997029
 31
0.0
  0
LINE
  5
365
  8
DATA
  6
CONTINUOUS
 62
     7
 10
-1214.821321637311
 20
-418.5
 30
0.0
 11
-1208.201566445668
 21
-414.0263762275036
 31
0.0
  0
LINE
  5
366
  8
DATA
  6
CONTINUOUS
 62
     7
 10
-1193.148132094387
 20
-429.6567743197403
 30
0.0
 11
-1153.019991991241
 21
-473.8604286521058
 31
0.0
  0
LINE
  5
367
  8
DATA
  6
CONTINUOUS
 62
     7
 10
-1205.188537743755
 20
-415.8727977807907
 30
0.0
 11
-1194.770214524218
 21
-427.3492319523119
 31
0.0
  0
LINE
  5
368
  8
DATA
  6
CONTINUOUS
 62
     7
 10
-1153.019991991241
 20
-473.8604286521058
 30
0.0
 11
-1151.080471990676
 21
-475.4762139619168
 31
0.0
  0
LINE
  5
369
  8
DATA
  6
CONTINUOUS
 62
     7
 10
-1194.770214524218
 20
-427.3492319523119
 30
0.0
 11
-1193.148132094387
 21
-429.6567743197403
 31
0.0
  0
LINE
  5
36A
  8
DATA
  6
CONTINUOUS
 62
     7
 10
-1140.662148771139
 20
-486.9526481334378
 30
0.0
 11
-1151.080471990676
 21
-475.4762139619168
 31
0.0
  0
LINE
  5
36B
  8
DATA
  6
CONTINUOUS
 62
     7
 10
-1206.01707931899
 20
-416.432725327984
 30
0.0
 11
-1205.188537743755
 21
-415.8727977807907
 31
0.0
  0
LINE
  5
36C
  8
DATA
  6
CONTINUOUS
 62
     7
 10
-1141.299362465667
 20
-487.7233352992227
 30
0.0
 11
-1140.662148771139
 21
-486.9526481334378
 31
0.0
  0
LINE
  5
36D
  8
DATA
  6
CONTINUOUS
 62
     7
 10
-1208.201566445668
 20
-414.0263762275036
 30
0.0
 11
-1139.114875338991
 21
-490.1296843997029
 31
0.0
  0
LINE
  5
36E
  8
DATA
  6
CONTINUOUS
 62
     7
 10
-1456.476967105415
 20
-495.4611932514848
 30
0.0
 11
-1460.885124661009
 21
-490.1296843997029
 31
0.0
  0
LINE
  5
36F
  8
DATA
  6
CONTINUOUS
 62
     7
 10
-1385.178678362689
 20
-418.5
 30
0.0
 11
-1391.798433554332
 21
-414.0263762275036
 31
0.0
  0
LINE
  5
370
  8
DATA
  6
CONTINUOUS
 62
     7
 10
-1406.851867905613
 20
-429.6567743197403
 30
0.0
 11
-1446.980008008759
 21
-473.8604286521058
 31
0.0
  0
LINE
  5
371
  8
DATA
  6
CONTINUOUS
 62
     7
 10
-1394.811462256245
 20
-415.8727977807907
 30
0.0
 11
-1405.229785475782
 21
-427.3492319523119
 31
0.0
  0
LINE
  5
372
  8
DATA
  6
CONTINUOUS
 62
     7
 10
-1446.980008008759
 20
-473.8604286521058
 30
0.0
 11
-1448.919528009324
 21
-475.4762139619168
 31
0.0
  0
LINE
  5
373
  8
DATA
  6
CONTINUOUS
 62
     7
 10
-1405.229785475782
 20
-427.3492319523119
 30
0.0
 11
-1406.851867905613
 21
-429.6567743197403
 31
0.0
  0
LINE
  5
374
  8
DATA
  6
CONTINUOUS
 62
     7
 10
-1459.337851228861
 20
-486.9526481334378
 30
0.0
 11
-1448.919528009324
 21
-475.4762139619168
 31
0.0
  0
LINE
  5
375
  8
DATA
  6
CONTINUOUS
 62
     7
 10
-1393.982920681009
 20
-416.432725327984
 30
0.0
 11
-1394.811462256245
 21
-415.8727977807907
 31
0.0
  0
LINE
  5
376
  8
DATA
  6
CONTINUOUS
 62
     7
 10
-1458.700637534332
 20
-487.7233352992227
 30
0.0
 11
-1459.337851228861
 21
-486.9526481334378
 31
0.0
  0
LINE
  5
377
  8
DATA
  6
CONTINUOUS
 62
     7
 10
-1391.798433554332
 20
-414.0263762275036
 30
0.0
 11
-1460.885124661009
 21
-490.1296843997029
 31
0.0
  0
LINE
  5
378
  8
DATA
  6
CONTINUOUS
 62
     7
 10
-1143.523032894585
 20
-1871.538806748515
 30
0.0
 11
-1139.114875338991
 21
-1876.870315600297
 31
0.0
  0
LINE
  5
379
  8
DATA
  6
CONTINUOUS
 62
     7
 10
-1214.821321637311
 20
-1948.5
 30
0.0
 11
-1208.201566445668
 21
-1952.973623772496
 31
0.0
  0
LINE
  5
37A
  8
DATA
  6
CONTINUOUS
 62
     7
 10
-1193.148132094387
 20
-1937.34322568026
 30
0.0
 11
-1153.019991991241
 21
-1893.139571347894
 31
0.0
  0
LINE
  5
37B
  8
DATA
  6
CONTINUOUS
 62
     7
 10
-1205.188537743755
 20
-1951.127202219209
 30
0.0
 11
-1194.770214524218
 21
-1939.650768047688
 31
0.0
  0
LINE
  5
37C
  8
DATA
  6
CONTINUOUS
 62
     7
 10
-1153.019991991241
 20
-1893.139571347894
 30
0.0
 11
-1151.080471990676
 21
-1891.523786038083
 31
0.0
  0
LINE
  5
37D
  8
DATA
  6
CONTINUOUS
 62
     7
 10
-1194.770214524218
 20
-1939.650768047688
 30
0.0
 11
-1193.148132094387
 21
-1937.34322568026
 31
0.0
  0
LINE
  5
37E
  8
DATA
  6
CONTINUOUS
 62
     7
 10
-1140.662148771139
 20
-1880.047351866562
 30
0.0
 11
-1151.080471990676
 21
-1891.523786038083
 31
0.0
  0
LINE
  5
37F
  8
DATA
  6
CONTINUOUS
 62
     7
 10
-1206.01707931899
 20
-1950.567274672016
 30
0.0
 11
-1205.188537743755
 21
-1951.127202219209
 31
0.0
  0
LINE
  5
380
  8
DATA
  6
CONTINUOUS
 62
     7
 10
-1141.299362465667
 20
-1879.276664700777
 30
0.0
 11
-1140.662148771139
 21
-1880.047351866562
 31
0.0
  0
LINE
  5
381
  8
DATA
  6
CONTINUOUS
 62
     7
 10
-1208.201566445668
 20
-1952.973623772496
 30
0.0
 11
-1139.114875338991
 21
-1876.870315600297
 31
0.0
  0
LINE
  5
382
  8
DATA
  6
CONTINUOUS
 62
     7
 10
-1456.476967105415
 20
-1871.538806748515
 30
0.0
 11
-1460.885124661009
 21
-1876.870315600297
 31
0.0
  0
LINE
  5
383
  8
DATA
  6
CONTINUOUS
 62
     7
 10
-1385.178678362689
 20
-1948.5
 30
0.0
 11
-1391.798433554332
 21
-1952.973623772496
 31
0.0
  0
LINE
  5
384
  8
DATA
  6
CONTINUOUS
 62
     7
 10
-1406.851867905613
 20
-1937.34322568026
 30
0.0
 11
-1446.980008008759
 21
-1893.139571347894
 31
0.0
  0
LINE
  5
385
  8
DATA
  6
CONTINUOUS
 62
     7
 10
-1394.811462256245
 20
-1951.127202219209
 30
0.0
 11
-1405.229785475782
 21
-1939.650768047688
 31
0.0
  0
LINE
  5
386
  8
DATA
  6
CONTINUOUS
 62
     7
 10
-1446.980008008759
 20
-1893.139571347894
 30
0.0
 11
-1448.919528009324
 21
-1891.523786038083
 31
0.0
  0
LINE
  5
387
  8
DATA
  6
CONTINUOUS
 62
     7
 10
-1405.229785475782
 20
-1939.650768047688
 30
0.0
 11
-1406.851867905613
 21
-1937.34322568026
 31
0.0
  0
LINE
  5
388
  8
DATA
  6
CONTINUOUS
 62
     7
 10
-1459.337851228861
 20
-1880.047351866562
 30
0.0
 11
-1448.919528009324
 21
-1891.523786038083
 31
0.0
  0
LINE
  5
389
  8
DATA
  6
CONTINUOUS
 62
     7
 10
-1393.982920681009
 20
-1950.567274672016
 30
0.0
 11
-1394.811462256245
 21
-1951.127202219209
 31
0.0
  0
LINE
  5
38A
  8
DATA
  6
CONTINUOUS
 62
     7
 10
-1458.700637534332
 20
-1879.276664700777
 30
0.0
 11
-1459.337851228861
 21
-1880.047351866562
 31
0.0
  0
LINE
  5
38B
  8
DATA
  6
CONTINUOUS
 62
     7
 10
-1391.798433554332
 20
-1952.973623772496
 30
0.0
 11
-1460.885124661009
 21
-1876.870315600297
 31
0.0
  0
ARC
  5
38C
  8
DATA
  6
CONTINUOUS
 62
     7
 10
-756.4959535619322
 20
-961.1344455439695
 30
0.0
 40
13.99599705448485
 50
308.0197237510164
 51
48.38271548585238
  0
LINE
  5
38D
  8
DATA
  6
CONTINUOUS
 62
     7
 10
-747.2004873180504
 20
-950.6710693747781
 30
0.0
 11
-819.0926853765354
 21
-948.4132978655034
 31
0.0
  0
LINE
  5
38E
  8
DATA
  6
CONTINUOUS
 62
     7
 10
-747.8753612072212
 20
-972.1604747931166
 30
0.0
 11
-819.7675592657065
 21
-969.9027032838419
 31
0.0
  0
ARC
  5
38F
  8
DATA
  6
CONTINUOUS
 62
     7
 10
-810.4720930218245
 20
-959.4393271146505
 30
0.0
 40
13.99599705448478
 50
128.019723751016
 51
228.382715485852
  0
LINE
  5
390
  8
DATA
  6
CONTINUOUS
 62
     7
 10
-265.0000002235174
 20
-1494.994
 30
0.0
 11
-265.0000002235174
 21
-1492.0
 31
0.0
  0
LINE
  5
391
  8
DATA
  6
CONTINUOUS
 62
     7
 10
-334.5197362559786
 20
-1494.994
 30
0.0
 11
-265.0000002235174
 21
-1494.994
 31
0.0
  0
LINE
  5
392
  8
DATA
  6
CONTINUOUS
 62
     7
 10
-303.0000002235174
 20
-1492.0
 30
0.0
 11
-303.0000002235174
 21
-1494.994
 31
0.0
  0
LINE
  5
393
  8
DATA
  6
CONTINUOUS
 62
     7
 10
-234.0110002235174
 20
-1467.0
 30
0.0
 11
-234.0110002235174
 21
-925.0
 31
0.0
  0
LINE
  5
394
  8
DATA
  6
CONTINUOUS
 62
     7
 10
-565.9890002235175
 20
-925.0
 30
0.0
 11
-565.9890002235175
 21
-1467.0
 31
0.0
  0
LINE
  5
395
  8
DATA
  6
CONTINUOUS
 62
     7
 10
-244.0000002235174
 20
-908.0
 30
0.0
 11
-556.0000002235174
 21
-908.0
 31
0.0
  0
ARC
  5
396
  8
DATA
  6
CONTINUOUS
 62
     7
 10
-287.1030153485175
 20
-944.7615340343309
 30
0.0
 40
56.65051012500469
 50
20.41591678275704
 51
40.46007104817508
  0
ARC
  5
397
  8
DATA
  6
CONTINUOUS
 62
     7
 10
-512.8969850985173
 20
-944.7615340343309
 30
0.0
 40
56.65051012500465
 50
139.5399289518249
 51
159.5840832172429
  0
LINE
  5
398
  8
DATA
  6
CONTINUOUS
 62
     7
 10
-244.0000002235174
 20
-1484.0
 30
0.0
 11
-261.0000002235174
 21
-1484.0
 31
0.0
  0
LINE
  5
399
  8
DATA
  6
CONTINUOUS
 62
     7
 10
-539.0000002235174
 20
-1484.0
 30
0.0
 11
-556.0000002235174
 21
-1484.0
 31
0.0
  0
ARC
  5
39A
  8
DATA
  6
CONTINUOUS
 62
     7
 10
-287.1030153485175
 20
-1447.238465965669
 30
0.0
 40
56.65051012500465
 50
319.5399289518249
 51
339.5840832172429
  0
ARC
  5
39B
  8
DATA
  6
CONTINUOUS
 62
     7
 10
-512.8969850985173
 20
-1447.238465965669
 30
0.0
 40
56.65051012500469
 50
200.4159167827571
 51
220.4600710481751
  0
LINE
  5
39C
  8
DATA
  6
CONTINUOUS
 62
     7
 10
-261.0000002235174
 20
-1479.984251968504
 30
0.0
 11
-261.0000002235174
 21
-1492.0
 31
0.0
  0
LINE
  5
39D
  8
DATA
  6
CONTINUOUS
 62
     7
 10
-539.0000002235174
 20
-1479.984251968504
 30
0.0
 11
-539.0000002235174
 21
-1492.0
 31
0.0
  0
LINE
  5
39E
  8
DATA
  6
CONTINUOUS
 62
     7
 10
-261.0000002235174
 20
-1492.0
 30
0.0
 11
-539.0000002235174
 21
-1492.0
 31
0.0
  0
LINE
  5
39F
  8
DATA
  6
CONTINUOUS
 62
     7
 10
-497.0000002235174
 20
-1494.994
 30
0.0
 11
-497.0000002235174
 21
-1492.0
 31
0.0
  0
LINE
  5
3A0
  8
DATA
  6
CONTINUOUS
 62
     7
 10
-535.0000002235174
 20
-1494.994
 30
0.0
 11
-465.4802637440214
 21
-1494.994
 31
0.0
  0
LINE
  5
3A1
  8
DATA
  6
CONTINUOUS
 62
     7
 10
-535.0000002235174
 20
-1492.0
 30
0.0
 11
-535.0000002235174
 21
-1494.994
 31
0.0
  0
LINE
  5
3A2
  8
DATA
  6
CONTINUOUS
 62
     7
 10
-492.5000002235172
 20
-917.5
 30
0.0
 11
-492.5000002235172
 21
-950.6465793911425
 31
0.0
  0
LINE
  5
3A3
  8
DATA
  6
CONTINUOUS
 62
     7
 10
-492.5000002235172
 20
-972.1359848094808
 30
0.0
 11
-492.5000002235172
 21
-1414.522015765192
 31
0.0
  0
LINE
  5
3A4
  8
DATA
  6
CONTINUOUS
 62
     7
 10
-492.5000002235172
 20
-1436.01142118353
 30
0.0
 11
-492.5000002235172
 21
-1469.0
 31
0.0
  0
LINE
  5
3A5
  8
DATA
  6
CONTINUOUS
 62
     7
 10
-307.5000002235175
 20
-917.5
 30
0.0
 11
-307.5000002235175
 21
-950.6465793911425
 31
0.0
  0
LINE
  5
3A6
  8
DATA
  6
CONTINUOUS
 62
     7
 10
-307.5000002235175
 20
-972.1359848094809
 30
0.0
 11
-307.5000002235175
 21
-1414.522015765192
 31
0.0
  0
LINE
  5
3A7
  8
DATA
  6
CONTINUOUS
 62
     7
 10
-307.5000002235175
 20
-1436.01142118353
 30
0.0
 11
-307.5000002235175
 21
-1469.0
 31
0.0
  0
LINE
  5
3A8
  8
DATA
  6
CONTINUOUS
 62
     7
 10
-492.5000002235172
 20
-1469.0
 30
0.0
 11
-307.5000002235175
 21
-1469.0
 31
0.0
  0
LINE
  5
3A9
  8
DATA
  6
CONTINUOUS
 62
     7
 10
-556.0000002235174
 20
-1484.0
 30
0.0
 11
-492.5000002235172
 21
-1469.0
 31
0.0
  0
LINE
  5
3AA
  8
DATA
  6
CONTINUOUS
 62
     7
 10
-565.9890002235175
 20
-1467.0
 30
0.0
 11
-492.5000002235172
 21
-1452.0
 31
0.0
  0
LINE
  5
3AB
  8
DATA
  6
CONTINUOUS
 62
     7
 10
-809.9985276144214
 20
-1472.44620798088
 30
0.0
 11
-809.9985276144214
 21
-1437.801100485769
 31
0.0
  0
LINE
  5
3AC
  8
DATA
  6
CONTINUOUS
 62
     7
 10
-809.9985276144214
 20
-1416.290500680829
 30
0.0
 11
-809.9985276144214
 21
-970.2094993191715
 31
0.0
  0
LINE
  5
3AD
  8
DATA
  6
CONTINUOUS
 62
     7
 10
-809.9985276144214
 20
-948.6988995142309
 30
0.0
 11
-809.9985276144214
 21
-915.317401612109
 31
0.0
  0
LINE
  5
3AE
  8
DATA
  6
CONTINUOUS
 62
     7
 10
-828.7955049176339
 20
-1473.378289500048
 30
0.0
 11
-828.7955049176339
 21
-914.7270833166363
 31
0.0
  0
LINE
  5
3AF
  8
DATA
  6
CONTINUOUS
 62
     7
 10
-492.5000002235172
 20
-917.5
 30
0.0
 11
-469.9999999999999
 21
-917.5
 31
0.0
  0
LINE
  5
3B0
  8
DATA
  6
CONTINUOUS
 62
     7
 10
-329.9999999999999
 20
-917.5
 30
0.0
 11
-307.5000002235175
 21
-917.5
 31
0.0
  0
LINE
  5
3B1
  8
DATA
  6
CONTINUOUS
 62
     7
 10
-492.5000002235172
 20
-917.5
 30
0.0
 11
-556.0000002235174
 21
-908.0
 31
0.0
  0
LINE
  5
3B2
  8
DATA
  6
CONTINUOUS
 62
     7
 10
-307.5000002235175
 20
-917.5
 30
0.0
 11
-244.0000002235174
 21
-908.0
 31
0.0
  0
LINE
  5
3B3
  8
DATA
  6
CONTINUOUS
 62
     7
 10
-565.9890002235175
 20
-925.0
 30
0.0
 11
-492.5000002235172
 21
-934.5
 31
0.0
  0
LINE
  5
3B4
  8
DATA
  6
CONTINUOUS
 62
     7
 10
-234.0110002235174
 20
-925.0
 30
0.0
 11
-307.5000002235176
 21
-934.5
 31
0.0
  0
ARC
  5
3B5
  8
DATA
  6
CONTINUOUS
 62
     7
 10
-756.4959535619321
 20
-1425.365554456031
 30
0.0
 40
13.9959970544847
 50
311.6172845141482
 51
51.98027624898391
  0
LINE
  5
3B6
  8
DATA
  6
CONTINUOUS
 62
     7
 10
-747.2004873180502
 20
-1435.828930625222
 30
0.0
 11
-819.0926853765354
 21
-1438.086702134497
 31
0.0
  0
LINE
  5
3B7
  8
DATA
  6
CONTINUOUS
 62
     7
 10
-747.8753612072212
 20
-1414.339525206884
 30
0.0
 11
-819.7675592657064
 21
-1416.597296716158
 31
0.0
  0
ARC
  5
3B8
  8
DATA
  6
CONTINUOUS
 62
     7
 10
-810.4720930218245
 20
-1427.06067288535
 30
0.0
 40
13.99599705448487
 50
131.6172845141476
 51
231.9802762489839
  0
LINE
  5
3B9
  8
DATA
  6
CONTINUOUS
 62
     7
 10
-459.9999999999999
 20
-1389.994
 30
0.0
 11
-340.0000004470349
 21
-1389.994
 31
0.0
  0
LINE
  5
3BA
  8
DATA
  6
CONTINUOUS
 62
     7
 10
-461.4999999999999
 20
-1384.994
 30
0.0
 11
-338.5000004470349
 21
-1384.994
 31
0.0
  0
LINE
  5
3BB
  8
DATA
  6
CONTINUOUS
 62
     7
 10
-461.4999999999999
 20
-1024.994
 30
0.0
 11
-338.5000004470349
 21
-1024.994
 31
0.0
  0
LINE
  5
3BC
  8
DATA
  6
CONTINUOUS
 62
     7
 10
-459.9999999999999
 20
-1019.994
 30
0.0
 11
-340.0000004470349
 21
-1019.994
 31
0.0
  0
LINE
  5
3BD
  8
DATA
  6
CONTINUOUS
 62
     7
 10
-454.9999999999999
 20
-987.9939999999999
 30
0.0
 11
-344.9999999999999
 21
-987.9939999999999
 31
0.0
  0
LINE
  5
3BE
  8
DATA
  6
CONTINUOUS
 62
     7
 10
-469.9999999999999
 20
-908.5947775151503
 30
0.0
 11
-469.9999999999999
 21
-972.9939999999999
 31
0.0
  0
LINE
  5
3BF
  8
DATA
  6
CONTINUOUS
 62
     7
 10
-329.9999999999999
 20
-908.5947775151503
 30
0.0
 11
-329.9999999999999
 21
-972.9939999999999
 31
0.0
  0
LINE
  5
3C0
  8
DATA
  6
CONTINUOUS
 62
     7
 10
-244.0000002235174
 20
-1484.0
 30
0.0
 11
-307.5000002235176
 21
-1469.0
 31
0.0
  0
LINE
  5
3C1
  8
DATA
  6
CONTINUOUS
 62
     7
 10
-234.0110002235174
 20
-1467.0
 30
0.0
 11
-307.5000002235176
 21
-1452.0
 31
0.0
  0
ARC
  5
3C2
  8
DATA
  6
CONTINUOUS
 62
     7
 10
-454.9999999999999
 20
-972.9939999999999
 30
0.0
 40
15.0
 50
180.0
 51
270.0
  0
ARC
  5
3C3
  8
DATA
  6
CONTINUOUS
 62
     7
 10
-344.9999999999999
 20
-972.9939999999999
 30
0.0
 40
15.0
 50
270.0
 51
0.0
  0
ARC
  5
3C4
  8
DATA
  6
CONTINUOUS
 62
     7
 10
-866.5113636363636
 20
-961.7150826446282
 30
0.0
 40
53.14649419332695
 50
63.154437524439
 51
113.2480017124291
  0
ARC
  5
3C5
  8
DATA
  6
CONTINUOUS
 62
     7
 10
-757.5
 20
-926.9710458443121
 30
0.0
 40
10.0
 50
0.0
 51
88.20121961843404
  0
ARC
  5
3C6
  8
DATA
  6
CONTINUOUS
 62
     7
 10
-757.5
 20
-1459.830688512558
 30
0.0
 40
9.99999999999996
 50
272.838787841006
 51
0.0
  0
POLYLINE
  5
3C7
  8
DATA
  6
CONTINUOUS
 62
     7
 66
     1
 10
0.0
 20
0.0
 30
0.0
 70
   129
  0
VERTEX
  5
731
  8
DATA
  6
CONTINUOUS
 62
     7
 10
-436.4999999999999
 20
-1054.994
 30
0.0
  0
VERTEX
  5
732
  8
DATA
  6
CONTINUOUS
 62
     7
 10
-388.4999999999999
 20
-1054.994
 30
0.0
  0
VERTEX
  5
733
  8
DATA
  6
CONTINUOUS
 62
     7
 10
-388.4999999999999
 20
-1091.994
 30
0.0
  0
VERTEX
  5
734
  8
DATA
  6
CONTINUOUS
 62
     7
 10
-436.4999999999999
 20
-1091.994
 30
0.0
  0
SEQEND
  5
771
  8
DATA
  6
CONTINUOUS
 62
     7
  0
CIRCLE
  5
3CD
  8
DATA
  6
CONTINUOUS
 62
     7
 10
-454.9999999999999
 20
-1007.494
 30
0.0
 40
3.0
  0
CIRCLE
  5
3CE
  8
DATA
  6
CONTINUOUS
 62
     7
 10
-454.9999999999999
 20
-1007.494
 30
0.0
 40
3.149999999999977
  0
CIRCLE
  5
3CF
  8
DATA
  6
CONTINUOUS
 62
     7
 10
-344.9999999999999
 20
-1007.494
 30
0.0
 40
3.0
  0
CIRCLE
  5
3D0
  8
DATA
  6
CONTINUOUS
 62
     7
 10
-344.9999999999999
 20
-1007.494
 30
0.0
 40
3.149999999999977
  0
CIRCLE
  5
3D1
  8
DATA
  6
CONTINUOUS
 62
     7
 10
-454.9999999999999
 20
-1402.494
 30
0.0
 40
3.0
  0
CIRCLE
  5
3D2
  8
DATA
  6
CONTINUOUS
 62
     7
 10
-454.9999999999999
 20
-1402.494
 30
0.0
 40
3.149999999999977
  0
CIRCLE
  5
3D3
  8
DATA
  6
CONTINUOUS
 62
     7
 10
-344.9999999999999
 20
-1402.494
 30
0.0
 40
3.0
  0
CIRCLE
  5
3D4
  8
DATA
  6
CONTINUOUS
 62
     7
 10
-344.9999999999999
 20
-1402.494
 30
0.0
 40
3.149999999999977
  0
CIRCLE
  5
3D5
  8
DATA
  6
CONTINUOUS
 62
     7
 10
-399.9999999999999
 20
-1405.994
 30
0.0
 40
5.0
  0
CIRCLE
  5
3D6
  8
DATA
  6
CONTINUOUS
 62
     7
 10
-399.9999999999999
 20
-1405.994
 30
0.0
 40
5.300000000000011
  0
ARC
  5
3D7
  8
DATA
  6
CONTINUOUS
 62
     7
 10
-336.0000000001014
 20
-1338.296235619822
 30
0.0
 40
0.2222356198218783
 50
356.825152874435
 51
183.1748471255666
  0
ARC
  5
3D8
  8
DATA
  6
CONTINUOUS
 62
     7
 10
-337.03518391598
 20
-1338.20100886242
 30
0.0
 40
0.8203678318440766
 50
247.5320803524633
 51
352.4679196225528
  0
ARC
  5
3D9
  8
DATA
  6
CONTINUOUS
 62
     7
 10
-337.470307082976
 20
-1339.145117809911
 30
0.0
 40
0.2222356198218802
 50
56.8251528744028
 51
243.1748471256079
  0
ARC
  5
3DA
  8
DATA
  6
CONTINUOUS
 62
     7
 10
-338.0703678319456
 20
-1339.99399999995
 30
0.0
 40
0.8203678318442066
 50
307.5320803524696
 51
52.46791962253969
  0
ARC
  5
3DB
  8
DATA
  6
CONTINUOUS
 62
     7
 10
-336.0000000001014
 20
-1341.691764380178
 30
0.0
 40
0.2222356198217647
 50
176.8251528744334
 51
3.174847125564952
  0
ARC
  5
3DC
  8
DATA
  6
CONTINUOUS
 62
     7
 10
-337.03518391598
 20
-1341.78699113758
 30
0.0
 40
0.8203678318442243
 50
7.532080377447175
 51
112.4679196475367
  0
ARC
  5
3DD
  8
DATA
  6
CONTINUOUS
 62
     7
 10
-337.470307082976
 20
-1340.842882190089
 30
0.0
 40
0.2222356198219738
 50
116.825152874392
 51
303.1748471255972
  0
ARC
  5
3DE
  8
DATA
  6
CONTINUOUS
 62
     7
 10
-334.9648160842228
 20
-1338.20100886242
 30
0.0
 40
0.8203678318442243
 50
187.5320803774472
 51
292.4679196475367
  0
ARC
  5
3DF
  8
DATA
  6
CONTINUOUS
 62
     7
 10
-334.5296929172268
 20
-1339.145117809911
 30
0.0
 40
0.2222356198219738
 50
296.825152874392
 51
123.1748471255972
  0
ARC
  5
3E0
  8
DATA
  6
CONTINUOUS
 62
     7
 10
-333.9296321682572
 20
-1339.99399999995
 30
0.0
 40
0.8203678318441241
 50
127.5320803774604
 51
232.4679196475304
  0
ARC
  5
3E1
  8
DATA
  6
CONTINUOUS
 62
     7
 10
-334.9648160842228
 20
-1341.78699113758
 30
0.0
 40
0.8203678318440766
 50
67.53208035246327
 51
172.4679196225528
  0
ARC
  5
3E2
  8
DATA
  6
CONTINUOUS
 62
     7
 10
-334.5296929172268
 20
-1340.842882190089
 30
0.0
 40
0.2222356198218802
 50
236.8251528744028
 51
63.17484712560799
  0
CIRCLE
  5
3E3
  8
DATA
  6
CONTINUOUS
 62
     7
 10
-335.9999999999999
 20
-1339.994
 30
0.0
 40
4.050000000000011
  0
CIRCLE
  5
3E4
  8
DATA
  6
CONTINUOUS
 62
     7
 10
-399.9999999999999
 20
-1003.994
 30
0.0
 40
5.0
  0
CIRCLE
  5
3E5
  8
DATA
  6
CONTINUOUS
 62
     7
 10
-399.9999999999999
 20
-1003.994
 30
0.0
 40
5.300000000000011
  0
LINE
  5
3E6
  8
DATA
  6
CONTINUOUS
 62
     7
 10
-474.9999999999999
 20
-1034.994
 30
0.0
 11
-474.9999999999999
 21
-1374.994
 31
0.0
  0
LINE
  5
3E7
  8
DATA
  6
CONTINUOUS
 62
     7
 10
-471.4999999999999
 20
-1034.994
 30
0.0
 11
-471.4999999999999
 21
-1374.994
 31
0.0
  0
LINE
  5
3E8
  8
DATA
  6
CONTINUOUS
 62
     7
 10
-325.0000004470349
 20
-1034.994
 30
0.0
 11
-325.0000004470349
 21
-1374.994
 31
0.0
  0
LINE
  5
3E9
  8
DATA
  6
CONTINUOUS
 62
     7
 10
-328.5000004470349
 20
-1034.994
 30
0.0
 11
-328.5000004470349
 21
-1374.994
 31
0.0
  0
ARC
  5
3EA
  8
DATA
  6
CONTINUOUS
 62
     7
 10
-459.9999999999999
 20
-1034.994
 30
0.0
 40
15.0
 50
90.0
 51
180.0
  0
ARC
  5
3EB
  8
DATA
  6
CONTINUOUS
 62
     7
 10
-340.0000004470349
 20
-1034.994
 30
0.0
 40
15.0
 50
0.0
 51
90.0
  0
ARC
  5
3EC
  8
DATA
  6
CONTINUOUS
 62
     7
 10
-459.9999999999999
 20
-1374.994
 30
0.0
 40
15.0
 50
180.0
 51
270.0
  0
ARC
  5
3ED
  8
DATA
  6
CONTINUOUS
 62
     7
 10
-340.0000004470349
 20
-1374.994
 30
0.0
 40
15.0
 50
270.0
 51
0.0
  0
ARC
  5
3EE
  8
DATA
  6
CONTINUOUS
 62
     7
 10
-461.4999999999999
 20
-1034.994
 30
0.0
 40
10.0
 50
90.0
 51
180.0
  0
ARC
  5
3EF
  8
DATA
  6
CONTINUOUS
 62
     7
 10
-338.5000004470349
 20
-1034.994
 30
0.0
 40
10.0
 50
0.0
 51
90.0
  0
ARC
  5
3F0
  8
DATA
  6
CONTINUOUS
 62
     7
 10
-338.5000004470349
 20
-1374.994
 30
0.0
 40
10.0
 50
270.0
 51
0.0
  0
ARC
  5
3F1
  8
DATA
  6
CONTINUOUS
 62
     7
 10
-461.4999999999999
 20
-1374.994
 30
0.0
 40
10.0
 50
180.0
 51
270.0
  0
ARC
  5
3F2
  8
DATA
  6
CONTINUOUS
 62
     7
 10
-464.0000000001014
 20
-1338.296235619822
 30
0.0
 40
0.2222356198218783
 50
356.825152874435
 51
183.1748471255666
  0
ARC
  5
3F3
  8
DATA
  6
CONTINUOUS
 62
     7
 10
-465.03518391598
 20
-1338.20100886242
 30
0.0
 40
0.8203678318440766
 50
247.5320803524633
 51
352.4679196225528
  0
ARC
  5
3F4
  8
DATA
  6
CONTINUOUS
 62
     7
 10
-465.470307082976
 20
-1339.145117809911
 30
0.0
 40
0.2222356198218802
 50
56.8251528744028
 51
243.1748471256079
  0
ARC
  5
3F5
  8
DATA
  6
CONTINUOUS
 62
     7
 10
-466.0703678319456
 20
-1339.99399999995
 30
0.0
 40
0.8203678318442066
 50
307.5320803524696
 51
52.46791962253969
  0
ARC
  5
3F6
  8
DATA
  6
CONTINUOUS
 62
     7
 10
-464.0000000001014
 20
-1341.691764380178
 30
0.0
 40
0.2222356198217647
 50
176.8251528744334
 51
3.174847125564952
  0
ARC
  5
3F7
  8
DATA
  6
CONTINUOUS
 62
     7
 10
-465.03518391598
 20
-1341.78699113758
 30
0.0
 40
0.8203678318442243
 50
7.532080377447175
 51
112.4679196475367
  0
ARC
  5
3F8
  8
DATA
  6
CONTINUOUS
 62
     7
 10
-465.470307082976
 20
-1340.842882190089
 30
0.0
 40
0.2222356198219738
 50
116.825152874392
 51
303.1748471255972
  0
ARC
  5
3F9
  8
DATA
  6
CONTINUOUS
 62
     7
 10
-462.9648160842228
 20
-1338.20100886242
 30
0.0
 40
0.8203678318442243
 50
187.5320803774472
 51
292.4679196475367
  0
ARC
  5
3FA
  8
DATA
  6
CONTINUOUS
 62
     7
 10
-462.5296929172268
 20
-1339.145117809911
 30
0.0
 40
0.2222356198219738
 50
296.825152874392
 51
123.1748471255972
  0
ARC
  5
3FB
  8
DATA
  6
CONTINUOUS
 62
     7
 10
-461.9296321682572
 20
-1339.99399999995
 30
0.0
 40
0.8203678318441241
 50
127.5320803774604
 51
232.4679196475304
  0
ARC
  5
3FC
  8
DATA
  6
CONTINUOUS
 62
     7
 10
-462.9648160842228
 20
-1341.78699113758
 30
0.0
 40
0.8203678318440766
 50
67.53208035246327
 51
172.4679196225528
  0
ARC
  5
3FD
  8
DATA
  6
CONTINUOUS
 62
     7
 10
-462.5296929172268
 20
-1340.842882190089
 30
0.0
 40
0.2222356198218802
 50
236.8251528744028
 51
63.17484712560799
  0
CIRCLE
  5
3FE
  8
DATA
  6
CONTINUOUS
 62
     7
 10
-463.9999999999999
 20
-1339.994
 30
0.0
 40
4.050000000000011
  0
ARC
  5
3FF
  8
DATA
  6
CONTINUOUS
 62
     7
 10
-464.0000000001014
 20
-1248.296235619822
 30
0.0
 40
0.2222356198218783
 50
356.825152874435
 51
183.1748471255666
  0
ARC
  5
400
  8
DATA
  6
CONTINUOUS
 62
     7
 10
-465.03518391598
 20
-1248.20100886242
 30
0.0
 40
0.8203678318440766
 50
247.5320803524633
 51
352.4679196225528
  0
ARC
  5
401
  8
DATA
  6
CONTINUOUS
 62
     7
 10
-465.470307082976
 20
-1249.145117809911
 30
0.0
 40
0.2222356198218802
 50
56.8251528744028
 51
243.1748471256079
  0
ARC
  5
402
  8
DATA
  6
CONTINUOUS
 62
     7
 10
-466.0703678319456
 20
-1249.99399999995
 30
0.0
 40
0.8203678318442066
 50
307.5320803524696
 51
52.46791962253969
  0
ARC
  5
403
  8
DATA
  6
CONTINUOUS
 62
     7
 10
-464.0000000001014
 20
-1251.691764380178
 30
0.0
 40
0.2222356198217647
 50
176.8251528744334
 51
3.174847125564952
  0
ARC
  5
404
  8
DATA
  6
CONTINUOUS
 62
     7
 10
-465.03518391598
 20
-1251.78699113758
 30
0.0
 40
0.8203678318442243
 50
7.532080377447175
 51
112.4679196475367
  0
ARC
  5
405
  8
DATA
  6
CONTINUOUS
 62
     7
 10
-465.470307082976
 20
-1250.842882190089
 30
0.0
 40
0.2222356198219738
 50
116.825152874392
 51
303.1748471255972
  0
ARC
  5
406
  8
DATA
  6
CONTINUOUS
 62
     7
 10
-462.9648160842228
 20
-1248.20100886242
 30
0.0
 40
0.8203678318442243
 50
187.5320803774472
 51
292.4679196475367
  0
ARC
  5
407
  8
DATA
  6
CONTINUOUS
 62
     7
 10
-462.5296929172268
 20
-1249.145117809911
 30
0.0
 40
0.2222356198219738
 50
296.825152874392
 51
123.1748471255972
  0
ARC
  5
408
  8
DATA
  6
CONTINUOUS
 62
     7
 10
-461.9296321682572
 20
-1249.99399999995
 30
0.0
 40
0.8203678318441241
 50
127.5320803774604
 51
232.4679196475304
  0
ARC
  5
409
  8
DATA
  6
CONTINUOUS
 62
     7
 10
-462.9648160842228
 20
-1251.78699113758
 30
0.0
 40
0.8203678318440766
 50
67.53208035246327
 51
172.4679196225528
  0
ARC
  5
40A
  8
DATA
  6
CONTINUOUS
 62
     7
 10
-462.5296929172268
 20
-1250.842882190089
 30
0.0
 40
0.2222356198218802
 50
236.8251528744028
 51
63.17484712560799
  0
CIRCLE
  5
40B
  8
DATA
  6
CONTINUOUS
 62
     7
 10
-463.9999999999999
 20
-1249.994
 30
0.0
 40
4.050000000000011
  0
ARC
  5
40C
  8
DATA
  6
CONTINUOUS
 62
     7
 10
-464.0000000001014
 20
-1158.296235619822
 30
0.0
 40
0.2222356198218783
 50
356.825152874435
 51
183.1748471255666
  0
ARC
  5
40D
  8
DATA
  6
CONTINUOUS
 62
     7
 10
-465.03518391598
 20
-1158.20100886242
 30
0.0
 40
0.8203678318440766
 50
247.5320803524633
 51
352.4679196225528
  0
ARC
  5
40E
  8
DATA
  6
CONTINUOUS
 62
     7
 10
-465.470307082976
 20
-1159.145117809911
 30
0.0
 40
0.2222356198218802
 50
56.8251528744028
 51
243.1748471256079
  0
ARC
  5
40F
  8
DATA
  6
CONTINUOUS
 62
     7
 10
-466.0703678319456
 20
-1159.99399999995
 30
0.0
 40
0.8203678318442066
 50
307.5320803524696
 51
52.46791962253969
  0
ARC
  5
410
  8
DATA
  6
CONTINUOUS
 62
     7
 10
-464.0000000001014
 20
-1161.691764380178
 30
0.0
 40
0.2222356198217647
 50
176.8251528744334
 51
3.174847125564952
  0
ARC
  5
411
  8
DATA
  6
CONTINUOUS
 62
     7
 10
-465.03518391598
 20
-1161.78699113758
 30
0.0
 40
0.8203678318442243
 50
7.532080377447175
 51
112.4679196475367
  0
ARC
  5
412
  8
DATA
  6
CONTINUOUS
 62
     7
 10
-465.470307082976
 20
-1160.842882190089
 30
0.0
 40
0.2222356198219738
 50
116.825152874392
 51
303.1748471255972
  0
ARC
  5
413
  8
DATA
  6
CONTINUOUS
 62
     7
 10
-462.9648160842228
 20
-1158.20100886242
 30
0.0
 40
0.8203678318442243
 50
187.5320803774472
 51
292.4679196475367
  0
ARC
  5
414
  8
DATA
  6
CONTINUOUS
 62
     7
 10
-462.5296929172268
 20
-1159.145117809911
 30
0.0
 40
0.2222356198219738
 50
296.825152874392
 51
123.1748471255972
  0
ARC
  5
415
  8
DATA
  6
CONTINUOUS
 62
     7
 10
-461.9296321682572
 20
-1159.99399999995
 30
0.0
 40
0.8203678318441241
 50
127.5320803774604
 51
232.4679196475304
  0
ARC
  5
416
  8
DATA
  6
CONTINUOUS
 62
     7
 10
-462.9648160842228
 20
-1161.78699113758
 30
0.0
 40
0.8203678318440766
 50
67.53208035246327
 51
172.4679196225528
  0
ARC
  5
417
  8
DATA
  6
CONTINUOUS
 62
     7
 10
-462.5296929172268
 20
-1160.842882190089
 30
0.0
 40
0.2222356198218802
 50
236.8251528744028
 51
63.17484712560799
  0
CIRCLE
  5
418
  8
DATA
  6
CONTINUOUS
 62
     7
 10
-463.9999999999999
 20
-1159.994
 30
0.0
 40
4.050000000000011
  0
ARC
  5
419
  8
DATA
  6
CONTINUOUS
 62
     7
 10
-464.0000000001014
 20
-1068.296235619822
 30
0.0
 40
0.2222356198218783
 50
356.825152874435
 51
183.1748471255666
  0
ARC
  5
41A
  8
DATA
  6
CONTINUOUS
 62
     7
 10
-465.03518391598
 20
-1068.20100886242
 30
0.0
 40
0.8203678318440766
 50
247.5320803524633
 51
352.4679196225528
  0
ARC
  5
41B
  8
DATA
  6
CONTINUOUS
 62
     7
 10
-465.470307082976
 20
-1069.145117809911
 30
0.0
 40
0.2222356198218802
 50
56.8251528744028
 51
243.1748471256079
  0
ARC
  5
41C
  8
DATA
  6
CONTINUOUS
 62
     7
 10
-466.0703678319456
 20
-1069.99399999995
 30
0.0
 40
0.8203678318442066
 50
307.5320803524696
 51
52.46791962253969
  0
ARC
  5
41D
  8
DATA
  6
CONTINUOUS
 62
     7
 10
-464.0000000001014
 20
-1071.691764380178
 30
0.0
 40
0.2222356198217647
 50
176.8251528744334
 51
3.174847125564952
  0
ARC
  5
41E
  8
DATA
  6
CONTINUOUS
 62
     7
 10
-465.03518391598
 20
-1071.78699113758
 30
0.0
 40
0.8203678318442243
 50
7.532080377447175
 51
112.4679196475367
  0
ARC
  5
41F
  8
DATA
  6
CONTINUOUS
 62
     7
 10
-465.470307082976
 20
-1070.842882190089
 30
0.0
 40
0.2222356198219738
 50
116.825152874392
 51
303.1748471255972
  0
ARC
  5
420
  8
DATA
  6
CONTINUOUS
 62
     7
 10
-462.9648160842228
 20
-1068.20100886242
 30
0.0
 40
0.8203678318442243
 50
187.5320803774472
 51
292.4679196475367
  0
ARC
  5
421
  8
DATA
  6
CONTINUOUS
 62
     7
 10
-462.5296929172268
 20
-1069.145117809911
 30
0.0
 40
0.2222356198219738
 50
296.825152874392
 51
123.1748471255972
  0
ARC
  5
422
  8
DATA
  6
CONTINUOUS
 62
     7
 10
-461.9296321682572
 20
-1069.99399999995
 30
0.0
 40
0.8203678318441241
 50
127.5320803774604
 51
232.4679196475304
  0
ARC
  5
423
  8
DATA
  6
CONTINUOUS
 62
     7
 10
-462.9648160842228
 20
-1071.78699113758
 30
0.0
 40
0.8203678318440766
 50
67.53208035246327
 51
172.4679196225528
  0
ARC
  5
424
  8
DATA
  6
CONTINUOUS
 62
     7
 10
-462.5296929172268
 20
-1070.842882190089
 30
0.0
 40
0.2222356198218802
 50
236.8251528744028
 51
63.17484712560799
  0
CIRCLE
  5
425
  8
DATA
  6
CONTINUOUS
 62
     7
 10
-463.9999999999999
 20
-1069.994
 30
0.0
 40
4.050000000000011
  0
ARC
  5
426
  8
DATA
  6
CONTINUOUS
 62
     7
 10
-336.0000000001014
 20
-1068.296235619822
 30
0.0
 40
0.2222356198218783
 50
356.825152874435
 51
183.1748471255666
  0
ARC
  5
427
  8
DATA
  6
CONTINUOUS
 62
     7
 10
-337.03518391598
 20
-1068.20100886242
 30
0.0
 40
0.8203678318440766
 50
247.5320803524633
 51
352.4679196225528
  0
ARC
  5
428
  8
DATA
  6
CONTINUOUS
 62
     7
 10
-337.470307082976
 20
-1069.145117809911
 30
0.0
 40
0.2222356198218802
 50
56.8251528744028
 51
243.1748471256079
  0
ARC
  5
429
  8
DATA
  6
CONTINUOUS
 62
     7
 10
-338.0703678319456
 20
-1069.99399999995
 30
0.0
 40
0.8203678318442066
 50
307.5320803524696
 51
52.46791962253969
  0
ARC
  5
42A
  8
DATA
  6
CONTINUOUS
 62
     7
 10
-336.0000000001014
 20
-1071.691764380178
 30
0.0
 40
0.2222356198217647
 50
176.8251528744334
 51
3.174847125564952
  0
ARC
  5
42B
  8
DATA
  6
CONTINUOUS
 62
     7
 10
-337.03518391598
 20
-1071.78699113758
 30
0.0
 40
0.8203678318442243
 50
7.532080377447175
 51
112.4679196475367
  0
ARC
  5
42C
  8
DATA
  6
CONTINUOUS
 62
     7
 10
-337.470307082976
 20
-1070.842882190089
 30
0.0
 40
0.2222356198219738
 50
116.825152874392
 51
303.1748471255972
  0
ARC
  5
42D
  8
DATA
  6
CONTINUOUS
 62
     7
 10
-334.9648160842228
 20
-1068.20100886242
 30
0.0
 40
0.8203678318442243
 50
187.5320803774472
 51
292.4679196475367
  0
ARC
  5
42E
  8
DATA
  6
CONTINUOUS
 62
     7
 10
-334.5296929172268
 20
-1069.145117809911
 30
0.0
 40
0.2222356198219738
 50
296.825152874392
 51
123.1748471255972
  0
ARC
  5
42F
  8
DATA
  6
CONTINUOUS
 62
     7
 10
-333.9296321682572
 20
-1069.99399999995
 30
0.0
 40
0.8203678318441241
 50
127.5320803774604
 51
232.4679196475304
  0
ARC
  5
430
  8
DATA
  6
CONTINUOUS
 62
     7
 10
-334.9648160842228
 20
-1071.78699113758
 30
0.0
 40
0.8203678318440766
 50
67.53208035246327
 51
172.4679196225528
  0
ARC
  5
431
  8
DATA
  6
CONTINUOUS
 62
     7
 10
-334.5296929172268
 20
-1070.842882190089
 30
0.0
 40
0.2222356198218802
 50
236.8251528744028
 51
63.17484712560799
  0
CIRCLE
  5
432
  8
DATA
  6
CONTINUOUS
 62
     7
 10
-335.9999999999999
 20
-1069.994
 30
0.0
 40
4.050000000000011
  0
ARC
  5
433
  8
DATA
  6
CONTINUOUS
 62
     7
 10
-336.0000000001014
 20
-1248.296235619822
 30
0.0
 40
0.2222356198218783
 50
356.825152874435
 51
183.1748471255666
  0
ARC
  5
434
  8
DATA
  6
CONTINUOUS
 62
     7
 10
-337.03518391598
 20
-1248.20100886242
 30
0.0
 40
0.8203678318440766
 50
247.5320803524633
 51
352.4679196225528
  0
ARC
  5
435
  8
DATA
  6
CONTINUOUS
 62
     7
 10
-337.470307082976
 20
-1249.145117809911
 30
0.0
 40
0.2222356198218802
 50
56.8251528744028
 51
243.1748471256079
  0
ARC
  5
436
  8
DATA
  6
CONTINUOUS
 62
     7
 10
-338.0703678319456
 20
-1249.99399999995
 30
0.0
 40
0.8203678318442066
 50
307.5320803524696
 51
52.46791962253969
  0
ARC
  5
437
  8
DATA
  6
CONTINUOUS
 62
     7
 10
-336.0000000001014
 20
-1251.691764380178
 30
0.0
 40
0.2222356198217647
 50
176.8251528744334
 51
3.174847125564952
  0
ARC
  5
438
  8
DATA
  6
CONTINUOUS
 62
     7
 10
-337.03518391598
 20
-1251.78699113758
 30
0.0
 40
0.8203678318442243
 50
7.532080377447175
 51
112.4679196475367
  0
ARC
  5
439
  8
DATA
  6
CONTINUOUS
 62
     7
 10
-337.470307082976
 20
-1250.842882190089
 30
0.0
 40
0.2222356198219738
 50
116.825152874392
 51
303.1748471255972
  0
ARC
  5
43A
  8
DATA
  6
CONTINUOUS
 62
     7
 10
-334.9648160842228
 20
-1248.20100886242
 30
0.0
 40
0.8203678318442243
 50
187.5320803774472
 51
292.4679196475367
  0
ARC
  5
43B
  8
DATA
  6
CONTINUOUS
 62
     7
 10
-334.5296929172268
 20
-1249.145117809911
 30
0.0
 40
0.2222356198219738
 50
296.825152874392
 51
123.1748471255972
  0
ARC
  5
43C
  8
DATA
  6
CONTINUOUS
 62
     7
 10
-333.9296321682572
 20
-1249.99399999995
 30
0.0
 40
0.8203678318441241
 50
127.5320803774604
 51
232.4679196475304
  0
ARC
  5
43D
  8
DATA
  6
CONTINUOUS
 62
     7
 10
-334.9648160842228
 20
-1251.78699113758
 30
0.0
 40
0.8203678318440766
 50
67.53208035246327
 51
172.4679196225528
  0
ARC
  5
43E
  8
DATA
  6
CONTINUOUS
 62
     7
 10
-334.5296929172268
 20
-1250.842882190089
 30
0.0
 40
0.2222356198218802
 50
236.8251528744028
 51
63.17484712560799
  0
CIRCLE
  5
43F
  8
DATA
  6
CONTINUOUS
 62
     7
 10
-335.9999999999999
 20
-1249.994
 30
0.0
 40
4.050000000000011
  0
ARC
  5
440
  8
DATA
  6
CONTINUOUS
 62
     7
 10
-336.0000000001014
 20
-1158.296235619822
 30
0.0
 40
0.2222356198218783
 50
356.825152874435
 51
183.1748471255666
  0
ARC
  5
441
  8
DATA
  6
CONTINUOUS
 62
     7
 10
-337.03518391598
 20
-1158.20100886242
 30
0.0
 40
0.8203678318440766
 50
247.5320803524633
 51
352.4679196225528
  0
ARC
  5
442
  8
DATA
  6
CONTINUOUS
 62
     7
 10
-337.470307082976
 20
-1159.145117809911
 30
0.0
 40
0.2222356198218802
 50
56.8251528744028
 51
243.1748471256079
  0
ARC
  5
443
  8
DATA
  6
CONTINUOUS
 62
     7
 10
-338.0703678319456
 20
-1159.99399999995
 30
0.0
 40
0.8203678318442066
 50
307.5320803524696
 51
52.46791962253969
  0
ARC
  5
444
  8
DATA
  6
CONTINUOUS
 62
     7
 10
-336.0000000001014
 20
-1161.691764380178
 30
0.0
 40
0.2222356198217647
 50
176.8251528744334
 51
3.174847125564952
  0
ARC
  5
445
  8
DATA
  6
CONTINUOUS
 62
     7
 10
-337.03518391598
 20
-1161.78699113758
 30
0.0
 40
0.8203678318442243
 50
7.532080377447175
 51
112.4679196475367
  0
ARC
  5
446
  8
DATA
  6
CONTINUOUS
 62
     7
 10
-337.470307082976
 20
-1160.842882190089
 30
0.0
 40
0.2222356198219738
 50
116.825152874392
 51
303.1748471255972
  0
ARC
  5
447
  8
DATA
  6
CONTINUOUS
 62
     7
 10
-334.9648160842228
 20
-1158.20100886242
 30
0.0
 40
0.8203678318442243
 50
187.5320803774472
 51
292.4679196475367
  0
ARC
  5
448
  8
DATA
  6
CONTINUOUS
 62
     7
 10
-334.5296929172268
 20
-1159.145117809911
 30
0.0
 40
0.2222356198219738
 50
296.825152874392
 51
123.1748471255972
  0
ARC
  5
449
  8
DATA
  6
CONTINUOUS
 62
     7
 10
-333.9296321682572
 20
-1159.99399999995
 30
0.0
 40
0.8203678318441241
 50
127.5320803774604
 51
232.4679196475304
  0
ARC
  5
44A
  8
DATA
  6
CONTINUOUS
 62
     7
 10
-334.9648160842228
 20
-1161.78699113758
 30
0.0
 40
0.8203678318440766
 50
67.53208035246327
 51
172.4679196225528
  0
ARC
  5
44B
  8
DATA
  6
CONTINUOUS
 62
     7
 10
-334.5296929172268
 20
-1160.842882190089
 30
0.0
 40
0.2222356198218802
 50
236.8251528744028
 51
63.17484712560799
  0
CIRCLE
  5
44C
  8
DATA
  6
CONTINUOUS
 62
     7
 10
-335.9999999999999
 20
-1159.994
 30
0.0
 40
4.050000000000011
  0
ARC
  5
44D
  8
DATA
  6
CONTINUOUS
 62
     7
 10
-440.0000000001014
 20
-1376.796235619822
 30
0.0
 40
0.2222356198218783
 50
356.825152874435
 51
183.1748471255666
  0
ARC
  5
44E
  8
DATA
  6
CONTINUOUS
 62
     7
 10
-441.03518391598
 20
-1376.70100886242
 30
0.0
 40
0.8203678318440766
 50
247.5320803524633
 51
352.4679196225528
  0
ARC
  5
44F
  8
DATA
  6
CONTINUOUS
 62
     7
 10
-441.470307082976
 20
-1377.645117809911
 30
0.0
 40
0.2222356198218802
 50
56.8251528744028
 51
243.1748471256079
  0
ARC
  5
450
  8
DATA
  6
CONTINUOUS
 62
     7
 10
-442.0703678319456
 20
-1378.49399999995
 30
0.0
 40
0.8203678318442066
 50
307.5320803524696
 51
52.46791962253969
  0
ARC
  5
451
  8
DATA
  6
CONTINUOUS
 62
     7
 10
-440.0000000001014
 20
-1380.191764380178
 30
0.0
 40
0.2222356198217647
 50
176.8251528744334
 51
3.174847125564952
  0
ARC
  5
452
  8
DATA
  6
CONTINUOUS
 62
     7
 10
-441.03518391598
 20
-1380.28699113758
 30
0.0
 40
0.8203678318442243
 50
7.532080377447175
 51
112.4679196475367
  0
ARC
  5
453
  8
DATA
  6
CONTINUOUS
 62
     7
 10
-441.470307082976
 20
-1379.342882190089
 30
0.0
 40
0.2222356198219738
 50
116.825152874392
 51
303.1748471255972
  0
ARC
  5
454
  8
DATA
  6
CONTINUOUS
 62
     7
 10
-438.9648160842228
 20
-1376.70100886242
 30
0.0
 40
0.8203678318442243
 50
187.5320803774472
 51
292.4679196475367
  0
ARC
  5
455
  8
DATA
  6
CONTINUOUS
 62
     7
 10
-438.5296929172268
 20
-1377.645117809911
 30
0.0
 40
0.2222356198219738
 50
296.825152874392
 51
123.1748471255972
  0
ARC
  5
456
  8
DATA
  6
CONTINUOUS
 62
     7
 10
-437.9296321682572
 20
-1378.49399999995
 30
0.0
 40
0.8203678318441241
 50
127.5320803774604
 51
232.4679196475304
  0
ARC
  5
457
  8
DATA
  6
CONTINUOUS
 62
     7
 10
-438.9648160842228
 20
-1380.28699113758
 30
0.0
 40
0.8203678318440766
 50
67.53208035246327
 51
172.4679196225528
  0
ARC
  5
458
  8
DATA
  6
CONTINUOUS
 62
     7
 10
-438.5296929172268
 20
-1379.342882190089
 30
0.0
 40
0.2222356198218802
 50
236.8251528744028
 51
63.17484712560799
  0
CIRCLE
  5
459
  8
DATA
  6
CONTINUOUS
 62
     7
 10
-439.9999999999999
 20
-1378.494
 30
0.0
 40
4.050000000000011
  0
ARC
  5
45A
  8
DATA
  6
CONTINUOUS
 62
     7
 10
-360.0000000001014
 20
-1376.796235619822
 30
0.0
 40
0.2222356198218783
 50
356.825152874435
 51
183.1748471255666
  0
ARC
  5
45B
  8
DATA
  6
CONTINUOUS
 62
     7
 10
-361.03518391598
 20
-1376.70100886242
 30
0.0
 40
0.8203678318440766
 50
247.5320803524633
 51
352.4679196225528
  0
ARC
  5
45C
  8
DATA
  6
CONTINUOUS
 62
     7
 10
-361.470307082976
 20
-1377.645117809911
 30
0.0
 40
0.2222356198218802
 50
56.8251528744028
 51
243.1748471256079
  0
ARC
  5
45D
  8
DATA
  6
CONTINUOUS
 62
     7
 10
-362.0703678319456
 20
-1378.49399999995
 30
0.0
 40
0.8203678318442066
 50
307.5320803524696
 51
52.46791962253969
  0
ARC
  5
45E
  8
DATA
  6
CONTINUOUS
 62
     7
 10
-360.0000000001014
 20
-1380.191764380178
 30
0.0
 40
0.2222356198217647
 50
176.8251528744334
 51
3.174847125564952
  0
ARC
  5
45F
  8
DATA
  6
CONTINUOUS
 62
     7
 10
-361.03518391598
 20
-1380.28699113758
 30
0.0
 40
0.8203678318442243
 50
7.532080377447175
 51
112.4679196475367
  0
ARC
  5
460
  8
DATA
  6
CONTINUOUS
 62
     7
 10
-361.470307082976
 20
-1379.342882190089
 30
0.0
 40
0.2222356198219738
 50
116.825152874392
 51
303.1748471255972
  0
ARC
  5
461
  8
DATA
  6
CONTINUOUS
 62
     7
 10
-358.9648160842228
 20
-1376.70100886242
 30
0.0
 40
0.8203678318442243
 50
187.5320803774472
 51
292.4679196475367
  0
ARC
  5
462
  8
DATA
  6
CONTINUOUS
 62
     7
 10
-358.5296929172268
 20
-1377.645117809911
 30
0.0
 40
0.2222356198219738
 50
296.825152874392
 51
123.1748471255972
  0
ARC
  5
463
  8
DATA
  6
CONTINUOUS
 62
     7
 10
-357.9296321682572
 20
-1378.49399999995
 30
0.0
 40
0.8203678318441241
 50
127.5320803774604
 51
232.4679196475304
  0
ARC
  5
464
  8
DATA
  6
CONTINUOUS
 62
     7
 10
-358.9648160842228
 20
-1380.28699113758
 30
0.0
 40
0.8203678318440766
 50
67.53208035246327
 51
172.4679196225528
  0
ARC
  5
465
  8
DATA
  6
CONTINUOUS
 62
     7
 10
-358.5296929172268
 20
-1379.342882190089
 30
0.0
 40
0.2222356198218802
 50
236.8251528744028
 51
63.17484712560799
  0
CIRCLE
  5
466
  8
DATA
  6
CONTINUOUS
 62
     7
 10
-359.9999999999999
 20
-1378.494
 30
0.0
 40
4.050000000000011
  0
ARC
  5
467
  8
DATA
  6
CONTINUOUS
 62
     7
 10
-440.0000000001014
 20
-1029.796235619822
 30
0.0
 40
0.2222356198218783
 50
356.825152874435
 51
183.1748471255666
  0
ARC
  5
468
  8
DATA
  6
CONTINUOUS
 62
     7
 10
-441.03518391598
 20
-1029.70100886242
 30
0.0
 40
0.8203678318440766
 50
247.5320803524633
 51
352.4679196225528
  0
ARC
  5
469
  8
DATA
  6
CONTINUOUS
 62
     7
 10
-441.470307082976
 20
-1030.645117809911
 30
0.0
 40
0.2222356198218802
 50
56.8251528744028
 51
243.1748471256079
  0
ARC
  5
46A
  8
DATA
  6
CONTINUOUS
 62
     7
 10
-442.0703678319456
 20
-1031.49399999995
 30
0.0
 40
0.8203678318442066
 50
307.5320803524696
 51
52.46791962253969
  0
ARC
  5
46B
  8
DATA
  6
CONTINUOUS
 62
     7
 10
-440.0000000001014
 20
-1033.191764380178
 30
0.0
 40
0.2222356198217647
 50
176.8251528744334
 51
3.174847125564952
  0
ARC
  5
46C
  8
DATA
  6
CONTINUOUS
 62
     7
 10
-441.03518391598
 20
-1033.28699113758
 30
0.0
 40
0.8203678318442243
 50
7.532080377447175
 51
112.4679196475367
  0
ARC
  5
46D
  8
DATA
  6
CONTINUOUS
 62
     7
 10
-441.470307082976
 20
-1032.342882190089
 30
0.0
 40
0.2222356198219738
 50
116.825152874392
 51
303.1748471255972
  0
ARC
  5
46E
  8
DATA
  6
CONTINUOUS
 62
     7
 10
-438.9648160842228
 20
-1029.70100886242
 30
0.0
 40
0.8203678318442243
 50
187.5320803774472
 51
292.4679196475367
  0
ARC
  5
46F
  8
DATA
  6
CONTINUOUS
 62
     7
 10
-438.5296929172268
 20
-1030.645117809911
 30
0.0
 40
0.2222356198219738
 50
296.825152874392
 51
123.1748471255972
  0
ARC
  5
470
  8
DATA
  6
CONTINUOUS
 62
     7
 10
-437.9296321682572
 20
-1031.49399999995
 30
0.0
 40
0.8203678318441241
 50
127.5320803774604
 51
232.4679196475304
  0
ARC
  5
471
  8
DATA
  6
CONTINUOUS
 62
     7
 10
-438.9648160842228
 20
-1033.28699113758
 30
0.0
 40
0.8203678318440766
 50
67.53208035246327
 51
172.4679196225528
  0
ARC
  5
472
  8
DATA
  6
CONTINUOUS
 62
     7
 10
-438.5296929172268
 20
-1032.342882190089
 30
0.0
 40
0.2222356198218802
 50
236.8251528744028
 51
63.17484712560799
  0
CIRCLE
  5
473
  8
DATA
  6
CONTINUOUS
 62
     7
 10
-439.9999999999999
 20
-1031.494
 30
0.0
 40
4.050000000000011
  0
ARC
  5
474
  8
DATA
  6
CONTINUOUS
 62
     7
 10
-360.0000000001014
 20
-1029.796235619822
 30
0.0
 40
0.2222356198218783
 50
356.825152874435
 51
183.1748471255666
  0
ARC
  5
475
  8
DATA
  6
CONTINUOUS
 62
     7
 10
-361.03518391598
 20
-1029.70100886242
 30
0.0
 40
0.8203678318440766
 50
247.5320803524633
 51
352.4679196225528
  0
ARC
  5
476
  8
DATA
  6
CONTINUOUS
 62
     7
 10
-361.470307082976
 20
-1030.645117809911
 30
0.0
 40
0.2222356198218802
 50
56.8251528744028
 51
243.1748471256079
  0
ARC
  5
477
  8
DATA
  6
CONTINUOUS
 62
     7
 10
-362.0703678319456
 20
-1031.49399999995
 30
0.0
 40
0.8203678318442066
 50
307.5320803524696
 51
52.46791962253969
  0
ARC
  5
478
  8
DATA
  6
CONTINUOUS
 62
     7
 10
-360.0000000001014
 20
-1033.191764380178
 30
0.0
 40
0.2222356198217647
 50
176.8251528744334
 51
3.174847125564952
  0
ARC
  5
479
  8
DATA
  6
CONTINUOUS
 62
     7
 10
-361.03518391598
 20
-1033.28699113758
 30
0.0
 40
0.8203678318442243
 50
7.532080377447175
 51
112.4679196475367
  0
ARC
  5
47A
  8
DATA
  6
CONTINUOUS
 62
     7
 10
-361.470307082976
 20
-1032.342882190089
 30
0.0
 40
0.2222356198219738
 50
116.825152874392
 51
303.1748471255972
  0
ARC
  5
47B
  8
DATA
  6
CONTINUOUS
 62
     7
 10
-358.9648160842228
 20
-1029.70100886242
 30
0.0
 40
0.8203678318442243
 50
187.5320803774472
 51
292.4679196475367
  0
ARC
  5
47C
  8
DATA
  6
CONTINUOUS
 62
     7
 10
-358.5296929172268
 20
-1030.645117809911
 30
0.0
 40
0.2222356198219738
 50
296.825152874392
 51
123.1748471255972
  0
ARC
  5
47D
  8
DATA
  6
CONTINUOUS
 62
     7
 10
-357.9296321682572
 20
-1031.49399999995
 30
0.0
 40
0.8203678318441241
 50
127.5320803774604
 51
232.4679196475304
  0
ARC
  5
47E
  8
DATA
  6
CONTINUOUS
 62
     7
 10
-358.9648160842228
 20
-1033.28699113758
 30
0.0
 40
0.8203678318440766
 50
67.53208035246327
 51
172.4679196225528
  0
ARC
  5
47F
  8
DATA
  6
CONTINUOUS
 62
     7
 10
-358.5296929172268
 20
-1032.342882190089
 30
0.0
 40
0.2222356198218802
 50
236.8251528744028
 51
63.17484712560799
  0
CIRCLE
  5
480
  8
DATA
  6
CONTINUOUS
 62
     7
 10
-359.9999999999999
 20
-1031.494
 30
0.0
 40
4.050000000000011
  0
CIRCLE
  5
481
  8
DATA
  6
CONTINUOUS
 62
     7
 10
-367.4999999999999
 20
-1055.994
 30
0.0
 40
5.0
  0
ARC
  5
482
  8
DATA
  6
CONTINUOUS
 62
     7
 10
-367.5
 20
-1055.994
 30
0.0
 40
1.999999999999742
 50
120.0000000000024
 51
59.9999999999948
  0
LINE
  5
483
  8
DATA
  6
CONTINUOUS
 62
     7
 10
-367.4999999999999
 20
-1055.994
 30
0.0
 11
-367.4999999999999
 21
-1053.494
 31
0.0
  0
CIRCLE
  5
484
  8
DATA
  6
CONTINUOUS
 62
     7
 10
-367.4999999999999
 20
-1079.494
 30
0.0
 40
10.75
  0
CIRCLE
  5
485
  8
DATA
  6
CONTINUOUS
 62
     7
 10
-367.4999999999999
 20
-1079.494
 30
0.0
 40
10.0
  0
CIRCLE
  5
486
  8
DATA
  6
CONTINUOUS
 62
     7
 10
-367.4999999999999
 20
-1105.994
 30
0.0
 40
3.850000000000023
  0
CIRCLE
  5
487
  8
DATA
  6
CONTINUOUS
 62
     7
 10
-355.4999999999999
 20
-1055.994
 30
0.0
 40
1.5
  0
CIRCLE
  5
488
  8
DATA
  6
CONTINUOUS
 62
     7
 10
-430.4999999999999
 20
-1103.994
 30
0.0
 40
1.5
  0
CIRCLE
  5
489
  8
DATA
  6
CONTINUOUS
 62
     7
 10
-398.4999999999999
 20
-1103.994
 30
0.0
 40
1.5
  0
CIRCLE
  5
48A
  8
DATA
  6
CONTINUOUS
 62
     7
 10
-430.4999999999999
 20
-1117.994
 30
0.0
 40
6.5
  0
CIRCLE
  5
48B
  8
DATA
  6
CONTINUOUS
 62
     7
 10
-398.4999999999999
 20
-1117.994
 30
0.0
 40
6.5
  0
CIRCLE
  5
48C
  8
DATA
  6
CONTINUOUS
 62
     7
 10
-430.4999999999999
 20
-1117.994
 30
0.0
 40
6.25
  0
CIRCLE
  5
48D
  8
DATA
  6
CONTINUOUS
 62
     7
 10
-398.4999999999999
 20
-1117.994
 30
0.0
 40
6.25
  0
CIRCLE
  5
48E
  8
DATA
  6
CONTINUOUS
 62
     7
 10
-370.9999999995507
 20
-1146.494
 30
0.0
 40
1.649999999835927
  0
CIRCLE
  5
48F
  8
DATA
  6
CONTINUOUS
 62
     7
 10
-362.0000000004492
 20
-1146.494
 30
0.0
 40
1.649999999834108
  0
CIRCLE
  5
490
  8
DATA
  6
CONTINUOUS
 62
     7
 10
-357.0025591676167
 20
-1158.4939999988
 30
0.0
 40
2.5
  0
LINE
  5
491
  8
DATA
  6
______-12
 62
     7
 10
-358.5051183342838
 20
-1158.4939999988
 30
0.0
 11
-355.5051183342838
 21
-1158.4939999988
 31
0.0
  0
LINE
  5
492
  8
DATA
  6
______-12
 62
     7
 10
-357.0025591676167
 20
-1156.992828332134
 30
0.0
 11
-357.0025591676167
 21
-1159.992828332134
 31
0.0
  0
CIRCLE
  5
493
  8
DATA
  6
CONTINUOUS
 62
     7
 10
-375.9974408323832
 20
-1134.4940000012
 30
0.0
 40
2.5
  0
LINE
  5
494
  8
DATA
  6
______-12
 62
     7
 10
-377.4999999990504
 20
-1134.4940000012
 30
0.0
 11
-374.4999999990504
 21
-1134.4940000012
 31
0.0
  0
LINE
  5
495
  8
DATA
  6
______-12
 62
     7
 10
-375.9974408323832
 20
-1132.992828334533
 30
0.0
 11
-375.9974408323832
 21
-1135.992828334533
 31
0.0
  0
CIRCLE
  5
496
  8
DATA
  6
CONTINUOUS
 62
     7
 10
-366.4999999999999
 20
-1146.494
 30
0.0
 40
9.750000015681577
  0
CIRCLE
  5
497
  8
DATA
  6
CONTINUOUS
 62
     7
 10
-366.4999999999999
 20
-1150.443999999605
 30
0.0
 40
1.649999999834108
  0
ARC
  5
498
  8
DATA
  6
CONTINUOUS
 62
     7
 10
-366.4999999999999
 20
-1146.494
 30
0.0
 40
7.899999852386203
 50
50.69269454644028
 51
39.30730194582301
  0
LINE
  5
499
  8
DATA
  6
CONTINUOUS
 62
     7
 10
-363.650000000277
 20
-1139.12599500073
 30
0.0
 11
-363.650000000277
 21
-1139.125995158165
 31
0.0
  0
ARC
  5
49A
  8
DATA
  6
CONTINUOUS
 62
     7
 10
-361.0552776672029
 20
-1141.049278000537
 30
0.0
 40
0.7999999999199845
 50
326.612906173291
 51
123.3870903189588
  0
ARC
  5
49B
  8
DATA
  6
CONTINUOUS
 62
     7
 10
-430.4999999999927
 20
-1146.494000000007
 30
0.0
 40
7.899999852386007
 50
140.692698054177
 51
129.3073054535597
  0
CIRCLE
  5
49C
  8
DATA
  6
CONTINUOUS
 62
     7
 10
-430.4999999999999
 20
-1146.494
 30
0.0
 40
9.749999999025183
  0
ARC
  5
49D
  8
DATA
  6
CONTINUOUS
 62
     7
 10
-430.5000000000002
 20
-1146.494
 30
0.0
 40
10.7500000000001
 50
102.90033491998
 51
77.09966508002236
  0
LINE
  5
49E
  8
DATA
  6
CONTINUOUS
 62
     7
 10
-428.1000000002404
 20
-1138.967380573679
 30
0.0
 11
-428.1000000002404
 21
-1138.967380727797
 31
0.0
  0
LINE
  5
49F
  8
DATA
  6
CONTINUOUS
 62
     7
 10
-433.3499999997156
 20
-1139.125995000737
 30
0.0
 11
-433.3499999997156
 21
-1139.125995158173
 31
0.0
  0
ARC
  5
4A0
  8
DATA
  6
CONTINUOUS
 62
     7
 10
-434.9999999995507
 20
-1146.494
 30
0.0
 40
1.999999999800095
 50
32.08918387405087
 51
327.9108161259492
  0
ARC
  5
4A1
  8
DATA
  6
CONTINUOUS
 62
     7
 10
-426.0000000004501
 20
-1146.494
 30
0.0
 40
1.999999999800095
 50
212.0891838740509
 51
147.9108161259491
  0
ARC
  5
4A2
  8
DATA
  6
CONTINUOUS
 62
     7
 10
-430.4999999999999
 20
-1150.443999999605
 30
0.0
 40
1.99999999980077
 50
137.8522840898889
 51
42.14771591012861
  0
ARC
  5
4A3
  8
DATA
  6
CONTINUOUS
 62
     7
 10
-435.9447223327897
 20
-1141.049278000545
 30
0.0
 40
0.799999999920039
 50
56.61290968104122
 51
213.387093826709
  0
ARC
  5
4A4
  8
DATA
  6
CONTINUOUS
 62
     7
 10
-430.4999999999999
 20
-1146.494
 30
0.0
 40
2.999999999999744
 50
20.74191648508129
 51
159.2580835149249
  0
ARC
  5
4A5
  8
DATA
  6
CONTINUOUS
 62
     7
 10
-430.4999999999999
 20
-1146.494
 30
0.0
 40
3.000000000000594
 50
200.7419164850751
 51
240.3778367991917
  0
ARC
  5
4A6
  8
DATA
  6
CONTINUOUS
 62
     7
 10
-430.4999999999999
 20
-1146.494
 30
0.0
 40
2.999999999999644
 50
299.6221632007934
 51
339.2580835149187
  0
CIRCLE
  5
4A7
  8
DATA
  6
CONTINUOUS
 62
     7
 10
-421.0000000009504
 20
-1158.4939999988
 30
0.0
 40
2.5
  0
LINE
  5
4A8
  8
DATA
  6
______-12
 62
     7
 10
-422.5025591676167
 20
-1158.4939999988
 30
0.0
 11
-419.5025591676167
 21
-1158.4939999988
 31
0.0
  0
LINE
  5
4A9
  8
DATA
  6
______-12
 62
     7
 10
-421.0000000009504
 20
-1156.992828332134
 30
0.0
 11
-421.0000000009504
 21
-1159.992828332134
 31
0.0
  0
CIRCLE
  5
4AA
  8
DATA
  6
CONTINUOUS
 62
     7
 10
-440.0025591657167
 20
-1134.492828334533
 30
0.0
 40
2.5
  0
LINE
  5
4AB
  8
DATA
  6
______-12
 62
     7
 10
-441.505118332383
 20
-1134.492828334533
 30
0.0
 11
-438.505118332383
 21
-1134.492828334533
 31
0.0
  0
LINE
  5
4AC
  8
DATA
  6
______-12
 62
     7
 10
-440.0025591657167
 20
-1132.991656667867
 30
0.0
 11
-440.0025591657167
 21
-1135.991656667867
 31
0.0
  0
LINE
  5
4AD
  8
DATA
  6
CONTINUOUS
 62
     7
 10
-432.8999999997604
 20
-1136.01533119136
 30
0.0
 11
-432.8999999997604
 21
-1134.73644923459
 31
0.0
  0
LINE
  5
4AE
  8
DATA
  6
CONTINUOUS
 62
     7
 10
-428.1000000002404
 20
-1136.01533119136
 30
0.0
 11
-428.1000000002404
 21
-1134.736449234588
 31
0.0
  0
ARC
  5
4AF
  8
DATA
  6
CONTINUOUS
 62
     7
 10
-430.4999999999963
 20
-1146.493999999999
 30
0.0
 40
12.00000000000232
 50
78.46304096837633
 51
101.5369590316637
  0
ARC
  5
4B0
  8
DATA
  6
CONTINUOUS
 62
     7
 10
-398.4999999999927
 20
-1146.494000000007
 30
0.0
 40
7.899999852386007
 50
140.692698054177
 51
129.3073054535597
  0
CIRCLE
  5
4B1
  8
DATA
  6
CONTINUOUS
 62
     7
 10
-398.4999999999999
 20
-1146.494
 30
0.0
 40
9.749999999025183
  0
ARC
  5
4B2
  8
DATA
  6
CONTINUOUS
 62
     7
 10
-398.5000000000002
 20
-1146.494
 30
0.0
 40
10.7500000000001
 50
102.90033491998
 51
77.09966508002236
  0
LINE
  5
4B3
  8
DATA
  6
CONTINUOUS
 62
     7
 10
-396.1000000002404
 20
-1138.967380573679
 30
0.0
 11
-396.1000000002404
 21
-1138.967380727797
 31
0.0
  0
LINE
  5
4B4
  8
DATA
  6
CONTINUOUS
 62
     7
 10
-401.3499999997156
 20
-1139.125995000737
 30
0.0
 11
-401.3499999997156
 21
-1139.125995158173
 31
0.0
  0
ARC
  5
4B5
  8
DATA
  6
CONTINUOUS
 62
     7
 10
-402.9999999995507
 20
-1146.494
 30
0.0
 40
1.999999999800095
 50
32.08918387405087
 51
327.9108161259492
  0
ARC
  5
4B6
  8
DATA
  6
CONTINUOUS
 62
     7
 10
-394.0000000004501
 20
-1146.494
 30
0.0
 40
1.999999999800095
 50
212.0891838740509
 51
147.9108161259491
  0
ARC
  5
4B7
  8
DATA
  6
CONTINUOUS
 62
     7
 10
-398.4999999999999
 20
-1150.443999999605
 30
0.0
 40
1.99999999980077
 50
137.8522840898889
 51
42.14771591012861
  0
ARC
  5
4B8
  8
DATA
  6
CONTINUOUS
 62
     7
 10
-403.9447223327897
 20
-1141.049278000545
 30
0.0
 40
0.799999999920039
 50
56.61290968104122
 51
213.387093826709
  0
ARC
  5
4B9
  8
DATA
  6
CONTINUOUS
 62
     7
 10
-398.4999999999999
 20
-1146.494
 30
0.0
 40
2.999999999999744
 50
20.74191648508129
 51
159.2580835149249
  0
ARC
  5
4BA
  8
DATA
  6
CONTINUOUS
 62
     7
 10
-398.4999999999999
 20
-1146.494
 30
0.0
 40
3.000000000000594
 50
200.7419164850751
 51
240.3778367991917
  0
ARC
  5
4BB
  8
DATA
  6
CONTINUOUS
 62
     7
 10
-398.4999999999999
 20
-1146.494
 30
0.0
 40
2.999999999999644
 50
299.6221632007934
 51
339.2580835149187
  0
CIRCLE
  5
4BC
  8
DATA
  6
CONTINUOUS
 62
     7
 10
-389.0000000009504
 20
-1158.4939999988
 30
0.0
 40
2.5
  0
LINE
  5
4BD
  8
DATA
  6
______-12
 62
     7
 10
-390.5025591676167
 20
-1158.4939999988
 30
0.0
 11
-387.5025591676167
 21
-1158.4939999988
 31
0.0
  0
LINE
  5
4BE
  8
DATA
  6
______-12
 62
     7
 10
-389.0000000009504
 20
-1156.992828332134
 30
0.0
 11
-389.0000000009504
 21
-1159.992828332134
 31
0.0
  0
CIRCLE
  5
4BF
  8
DATA
  6
CONTINUOUS
 62
     7
 10
-408.0025591657167
 20
-1134.492828334533
 30
0.0
 40
2.5
  0
LINE
  5
4C0
  8
DATA
  6
______-12
 62
     7
 10
-409.505118332383
 20
-1134.492828334533
 30
0.0
 11
-406.505118332383
 21
-1134.492828334533
 31
0.0
  0
LINE
  5
4C1
  8
DATA
  6
______-12
 62
     7
 10
-408.0025591657167
 20
-1132.991656667867
 30
0.0
 11
-408.0025591657167
 21
-1135.991656667867
 31
0.0
  0
LINE
  5
4C2
  8
DATA
  6
CONTINUOUS
 62
     7
 10
-400.8999999997604
 20
-1136.01533119136
 30
0.0
 11
-400.8999999997604
 21
-1134.73644923459
 31
0.0
  0
LINE
  5
4C3
  8
DATA
  6
CONTINUOUS
 62
     7
 10
-396.1000000002404
 20
-1136.01533119136
 30
0.0
 11
-396.1000000002404
 21
-1134.736449234588
 31
0.0
  0
ARC
  5
4C4
  8
DATA
  6
CONTINUOUS
 62
     7
 10
-398.4999999999963
 20
-1146.493999999999
 30
0.0
 40
12.00000000000232
 50
78.46304096837633
 51
101.5369590316637
  0
POLYLINE
  5
4C5
  8
DATA
  6
CONTINUOUS
 62
     7
 66
     1
 10
0.0
 20
0.0
 30
0.0
 70
   129
  0
VERTEX
  5
735
  8
DATA
  6
CONTINUOUS
 62
     7
 10
-414.5000002235174
 20
-1231.994
 30
0.0
  0
VERTEX
  5
736
  8
DATA
  6
CONTINUOUS
 62
     7
 10
-385.5000002235174
 20
-1231.994
 30
0.0
  0
VERTEX
  5
737
  8
DATA
  6
CONTINUOUS
 62
     7
 10
-385.5000002235174
 20
-1255.494
 30
0.0
  0
VERTEX
  5
738
  8
DATA
  6
CONTINUOUS
 62
     7
 10
-414.5000002235174
 20
-1255.494
 30
0.0
  0
SEQEND
  5
772
  8
DATA
  6
CONTINUOUS
 62
     7
  0
POLYLINE
  5
4CB
  8
DATA
  6
CONTINUOUS
 62
     7
 66
     1
 10
0.0
 20
0.0
 30
0.0
 70
   129
  0
VERTEX
  5
739
  8
DATA
  6
CONTINUOUS
 62
     7
 10
-414.5000002235174
 20
-1255.994
 30
0.0
  0
VERTEX
  5
73A
  8
DATA
  6
CONTINUOUS
 62
     7
 10
-385.5000002235174
 20
-1255.994
 30
0.0
  0
VERTEX
  5
73B
  8
DATA
  6
CONTINUOUS
 62
     7
 10
-385.5000002235174
 20
-1260.994
 30
0.0
  0
VERTEX
  5
73C
  8
DATA
  6
CONTINUOUS
 62
     7
 10
-414.5000002235174
 20
-1260.994
 30
0.0
  0
SEQEND
  5
773
  8
DATA
  6
CONTINUOUS
 62
     7
  0
ARC
  5
4D1
  8
DATA
  6
CONTINUOUS
 62
     7
 10
-405.8822202235174
 20
-1246.17067
 30
0.0
 40
2.578853425167689
 50
264.6908562215358
 51
323.9911991542451
  0
ARC
  5
4D2
  8
DATA
  6
CONTINUOUS
 62
     7
 10
-406.3594502235174
 20
-1246.17067
 30
0.0
 40
2.578849236946609
 50
216.0088008457569
 51
275.3091437784643
  0
ARC
  5
4D3
  8
DATA
  6
CONTINUOUS
 62
     7
 10
-399.3291502235174
 20
-1246.84009
 30
0.0
 40
1.90261141171803
 50
273.8309816091165
 51
351.1351473098022
  0
ARC
  5
4D4
  8
DATA
  6
CONTINUOUS
 62
     7
 10
-399.3101802235174
 20
-1240.63393
 30
0.0
 40
1.89972993291153
 50
8.226923859019141
 51
86.15412669215242
  0
ARC
  5
4D5
  8
DATA
  6
CONTINUOUS
 62
     7
 10
-399.5192188599442
 20
-1247.322855954794
 30
0.0
 40
0.3187831148184466
 50
307.6419024975777
 51
354.2670192893891
  0
LINE
  5
4D6
  8
DATA
  6
CONTINUOUS
 62
     7
 10
-407.7075502235174
 20
-1242.29935
 30
0.0
 11
-406.2130902235174
 21
-1238.73847
 31
0.0
  0
LINE
  5
4D7
  8
DATA
  6
CONTINUOUS
 62
     7
 10
-407.7075502235174
 20
-1242.29935
 30
0.0
 11
-409.1835702235174
 21
-1238.73847
 31
0.0
  0
LINE
  5
4D8
  8
DATA
  6
CONTINUOUS
 62
     7
 10
-396.3791502235174
 20
-1248.73847
 30
0.0
 11
-396.3791502235174
 21
-1238.73847
 31
0.0
  0
LINE
  5
4D9
  8
DATA
  6
CONTINUOUS
 62
     7
 10
-394.4603302235174
 20
-1238.73847
 30
0.0
 11
-394.4603302235174
 21
-1247.20711
 31
0.0
  0
LINE
  5
4DA
  8
DATA
  6
CONTINUOUS
 62
     7
 10
-405.5119802235174
 20
-1238.73847
 30
0.0
 11
-405.5119802235174
 21
-1247.20711
 31
0.0
  0
LINE
  5
4DB
  8
DATA
  6
CONTINUOUS
 62
     7
 10
-403.6669602235174
 20
-1238.73847
 30
0.0
 11
-403.6669602235174
 21
-1247.20711
 31
0.0
  0
LINE
  5
4DC
  8
DATA
  6
CONTINUOUS
 62
     7
 10
-402.7075502235174
 20
-1238.73847
 30
0.0
 11
-402.7075502235174
 21
-1248.73847
 31
0.0
  0
LINE
  5
4DD
  8
DATA
  6
CONTINUOUS
 62
     7
 10
-401.0285802235174
 20
-1239.67942
 30
0.0
 11
-401.0285802235174
 21
-1242.88976
 31
0.0
  0
LINE
  5
4DE
  8
DATA
  6
CONTINUOUS
 62
     7
 10
-397.4300002235174
 20
-1242.704
 30
0.0
 11
-397.4300002235174
 21
-1240.36209
 31
0.0
  0
LINE
  5
4DF
  8
DATA
  6
CONTINUOUS
 62
     7
 10
-399.2020302235174
 20
-1240.12223
 30
0.0
 11
-399.2020302235174
 21
-1242.44696
 31
0.0
  0
LINE
  5
4E0
  8
DATA
  6
CONTINUOUS
 62
     7
 10
-406.9141902235174
 20
-1245.60193
 30
0.0
 11
-406.9141902235174
 21
-1247.20709
 31
0.0
  0
LINE
  5
4E1
  8
DATA
  6
CONTINUOUS
 62
     7
 10
-406.9141902235174
 20
-1245.60193
 30
0.0
 11
-408.5747102235174
 21
-1245.60193
 31
0.0
  0
LINE
  5
4E2
  8
DATA
  6
CONTINUOUS
 62
     7
 10
-408.5747102235174
 20
-1245.60193
 30
0.0
 11
-408.5747102235174
 21
-1247.20709
 31
0.0
  0
ARC
  5
4E3
  8
DATA
  6
CONTINUOUS
 62
     7
 10
-406.2095702235174
 20
-1247.22873
 30
0.0
 40
0.6979288262423999
 50
269.7118487927503
 51
1.775987005682168
  0
ARC
  5
4E4
  8
DATA
  6
CONTINUOUS
 62
     7
 10
-406.2166002235174
 20
-1247.22873
 30
0.0
 40
0.6979252574596115
 50
178.2240129943171
 51
270.2881512072477
  0
ARC
  5
4E5
  8
DATA
  6
CONTINUOUS
 62
     7
 10
-407.4092702235174
 20
-1247.15056
 30
0.0
 40
1.166800208176208
 50
182.7769954499969
 51
207.3596066671528
  0
CIRCLE
  5
4E6
  8
DATA
  6
CONTINUOUS
 62
     7
 10
-407.6060702235174
 20
-1243.68312
 30
0.0
 40
0.9501799999999889
  0
LINE
  5
4E7
  8
DATA
  6
CONTINUOUS
 62
     7
 10
-391.3791502235174
 20
-1248.73846
 30
0.0
 11
-396.3791502235174
 21
-1248.73846
 31
0.0
  0
LINE
  5
4E8
  8
DATA
  6
CONTINUOUS
 62
     7
 10
-391.3791502235174
 20
-1248.73846
 30
0.0
 11
-391.3791502235174
 21
-1245.60192
 31
0.0
  0
LINE
  5
4E9
  8
DATA
  6
CONTINUOUS
 62
     7
 10
-391.3791502235174
 20
-1245.60193
 30
0.0
 11
-393.0581102235174
 21
-1245.60193
 31
0.0
  0
LINE
  5
4EA
  8
DATA
  6
CONTINUOUS
 62
     7
 10
-393.0581102235174
 20
-1245.60193
 30
0.0
 11
-393.0581102235174
 21
-1247.20709
 31
0.0
  0
LINE
  5
4EB
  8
DATA
  6
CONTINUOUS
 62
     7
 10
-402.7075502235174
 20
-1248.73846
 30
0.0
 11
-399.2020302235174
 21
-1248.73845
 31
0.0
  0
LINE
  5
4EC
  8
DATA
  6
CONTINUOUS
 62
     7
 10
-401.0285902235174
 20
-1247.7975
 30
0.0
 11
-400.1245302235174
 21
-1247.7975
 31
0.0
  0
LINE
  5
4ED
  8
DATA
  6
CONTINUOUS
 62
     7
 10
-401.0285802235174
 20
-1247.7975
 30
0.0
 11
-401.0285802235174
 21
-1243.84916
 31
0.0
  0
LINE
  5
4EE
  8
DATA
  6
CONTINUOUS
 62
     7
 10
-401.0285902235174
 20
-1243.84916
 30
0.0
 11
-400.1245302235174
 21
-1243.84916
 31
0.0
  0
LINE
  5
4EF
  8
DATA
  6
CONTINUOUS
 62
     7
 10
-399.2020302235174
 20
-1247.3547
 30
0.0
 11
-399.2020302235174
 21
-1244.29196
 31
0.0
  0
ARC
  5
4F0
  8
DATA
  6
CONTINUOUS
 62
     7
 10
-404.8324002235174
 20
-1247.15056
 30
0.0
 40
1.166798547865158
 50
332.6403933328447
 51
357.2230045500055
  0
ARC
  5
4F1
  8
DATA
  6
CONTINUOUS
 62
     7
 10
-393.7557102235174
 20
-1247.22873
 30
0.0
 40
0.6979288262423999
 50
269.7118487927503
 51
1.775987005682168
  0
ARC
  5
4F2
  8
DATA
  6
CONTINUOUS
 62
     7
 10
-393.7627302235174
 20
-1247.22873
 30
0.0
 40
0.6979252574596115
 50
178.2240129943171
 51
270.2881512072477
  0
LINE
  5
4F3
  8
DATA
  6
CONTINUOUS
 62
     7
 10
-397.4308102235174
 20
-1247.13329
 30
0.0
 11
-397.4308102235174
 21
-1244.47647
 31
0.0
  0
LINE
  5
4F4
  8
DATA
  6
CONTINUOUS
 62
     7
 10
-401.0285902235174
 20
-1242.88976
 30
0.0
 11
-400.1245302235174
 21
-1242.88976
 31
0.0
  0
LINE
  5
4F5
  8
DATA
  6
CONTINUOUS
 62
     7
 10
-405.5119802235174
 20
-1238.73847
 30
0.0
 11
-403.6669602235174
 21
-1238.73847
 31
0.0
  0
LINE
  5
4F6
  8
DATA
  6
CONTINUOUS
 62
     7
 10
-409.1835702235174
 20
-1238.73847
 30
0.0
 11
-406.2130902235174
 21
-1238.73847
 31
0.0
  0
LINE
  5
4F7
  8
DATA
  6
CONTINUOUS
 62
     7
 10
-396.3791502235174
 20
-1238.73847
 30
0.0
 11
-394.4603302235174
 21
-1238.73847
 31
0.0
  0
LINE
  5
4F8
  8
DATA
  6
CONTINUOUS
 62
     7
 10
-402.7075502235174
 20
-1238.73847
 30
0.0
 11
-399.1827600953707
 21
-1238.73847809374
 31
0.0
  0
LINE
  5
4F9
  8
DATA
  6
CONTINUOUS
 62
     7
 10
-401.0285902235174
 20
-1239.67943
 30
0.0
 11
-400.1245302235174
 21
-1239.67943
 31
0.0
  0
ARC
  5
4FA
  8
DATA
  6
CONTINUOUS
 62
     7
 10
-400.1138547609142
 20
-1246.043812039413
 30
0.0
 40
1.753720453381835
 50
269.6512199376176
 51
282.8264828068717
  0
ARC
  5
4FB
  8
DATA
  6
CONTINUOUS
 62
     7
 10
-399.9168841960507
 20
-1246.785250311227
 30
0.0
 40
0.9874379036933072
 50
281.2331036226554
 51
306.8620088940622
  0
ARC
  5
4FC
  8
DATA
  6
CONTINUOUS
 62
     7
 10
-399.5192188599442
 20
-1244.323804045206
 30
0.0
 40
0.3187831148184514
 50
5.732980710570263
 51
52.35809750242235
  0
ARC
  5
4FD
  8
DATA
  6
CONTINUOUS
 62
     7
 10
-400.1138547609142
 20
-1245.602847960587
 30
0.0
 40
1.75372045338163
 50
77.17351719312664
 51
90.34878006238243
  0
ARC
  5
4FE
  8
DATA
  6
CONTINUOUS
 62
     7
 10
-399.9168841960507
 20
-1244.861409688773
 30
0.0
 40
0.9874379036932217
 50
53.13799110593783
 51
78.766896377342
  0
ARC
  5
4FF
  8
DATA
  6
CONTINUOUS
 62
     7
 10
-398.3984902235174
 20
-1244.54188
 30
0.0
 40
0.9698881639137412
 50
3.867006359831291
 51
88.36163456790072
  0
ARC
  5
500
  8
DATA
  6
CONTINUOUS
 62
     7
 10
-398.3993802235174
 20
-1242.60196
 30
0.0
 40
0.9708519399474415
 50
271.689282104648
 51
356.0782829826647
  0
ARC
  5
501
  8
DATA
  6
CONTINUOUS
 62
     7
 10
-399.5192188599442
 20
-1242.415115954794
 30
0.0
 40
0.3187831148184466
 50
307.6419024975777
 51
354.2670192893891
  0
ARC
  5
502
  8
DATA
  6
CONTINUOUS
 62
     7
 10
-400.1138547609142
 20
-1241.136072039413
 30
0.0
 40
1.753720453381835
 50
269.6512199376176
 51
282.8264828068733
  0
ARC
  5
503
  8
DATA
  6
CONTINUOUS
 62
     7
 10
-399.9168841960507
 20
-1241.877510311227
 30
0.0
 40
0.9874379036930842
 50
281.233103622658
 51
306.8620088940622
  0
ARC
  5
504
  8
DATA
  6
CONTINUOUS
 62
     7
 10
-399.5192188599442
 20
-1240.154074045206
 30
0.0
 40
0.3187831148184741
 50
5.732980710610926
 51
52.35809750242234
  0
ARC
  5
505
  8
DATA
  6
CONTINUOUS
 62
     7
 10
-400.1138547609142
 20
-1241.433117960587
 30
0.0
 40
1.75372045338163
 50
77.17351719312664
 51
90.34878006238243
  0
ARC
  5
506
  8
DATA
  6
CONTINUOUS
 62
     7
 10
-399.9168841960507
 20
-1240.691679688773
 30
0.0
 40
0.9874379036932217
 50
53.13799110593783
 51
78.76689637734458
  0
TEXT
  5
507
  8
DATA
 62
     7
 10
-420.2185766124063
 20
-1259.847922526042
 30
0.0
 40
2.707845052083333
  1
JBL PROFESSIONAL
 51
0.7
 72
     1
 11
-400.0000002235174
 21
-1258.494
 31
0.0
 73
     2
  0
ARC
  5
508
  8
DATA
  6
CONTINUOUS
 62
     7
 10
-388.0000002235174
 20
-1348.994
 30
0.0
 40
3.0
 50
0.0
 51
90.0
  0
LINE
  5
509
  8
DATA
  6
CONTINUOUS
 62
     7
 10
-412.0000002235174
 20
-1345.994
 30
0.0
 11
-388.0000002235174
 21
-1345.994
 31
0.0
  0
ARC
  5
50A
  8
DATA
  6
CONTINUOUS
 62
     7
 10
-412.0000002235174
 20
-1348.994
 30
0.0
 40
3.0
 50
90.0
 51
180.0
  0
LINE
  5
50B
  8
DATA
  6
CONTINUOUS
 62
     7
 10
-415.0000002235174
 20
-1364.994
 30
0.0
 11
-415.0000002235174
 21
-1348.994
 31
0.0
  0
ARC
  5
50C
  8
DATA
  6
CONTINUOUS
 62
     7
 10
-412.0000002235179
 20
-1364.994
 30
0.0
 40
2.999999999999545
 50
180.0
 51
224.9999999999693
  0
ARC
  5
50D
  8
DATA
  6
CONTINUOUS
 62
     7
 10
-412.0000002235174
 20
-1364.994
 30
0.0
 40
2.999999999999542
 50
225.0000000000061
 51
270.0
  0
LINE
  5
50E
  8
DATA
  6
CONTINUOUS
 62
     7
 10
-388.0000002235174
 20
-1367.994
 30
0.0
 11
-412.0000002235174
 21
-1367.994
 31
0.0
  0
ARC
  5
50F
  8
DATA
  6
CONTINUOUS
 62
     7
 10
-388.0000002235174
 20
-1364.994
 30
0.0
 40
3.0
 50
270.0
 51
0.0
  0
LINE
  5
510
  8
DATA
  6
CONTINUOUS
 62
     7
 10
-385.0000002235174
 20
-1348.994
 30
0.0
 11
-385.0000002235174
 21
-1364.994
 31
0.0
  0
LINE
  5
511
  8
DATA
  6
CONTINUOUS
 62
     7
 10
-412.0000002235174
 20
-1348.994
 30
0.0
 11
-388.0000002235174
 21
-1348.994
 31
0.0
  0
LINE
  5
512
  8
DATA
  6
CONTINUOUS
 62
     7
 10
-412.0000002235174
 20
-1360.494
 30
0.0
 11
-412.0000002235174
 21
-1348.994
 31
0.0
  0
LINE
  5
513
  8
DATA
  6
CONTINUOUS
 62
     7
 10
-393.5000002235174
 20
-1364.994
 30
0.0
 11
-406.5000002235174
 21
-1364.994
 31
0.0
  0
LINE
  5
514
  8
DATA
  6
CONTINUOUS
 62
     7
 10
-388.0000002235174
 20
-1348.994
 30
0.0
 11
-388.0000002235174
 21
-1360.494
 31
0.0
  0
LINE
  5
515
  8
DATA
  6
CONTINUOUS
 62
     7
 10
-412.0000002235174
 20
-1360.494
 30
0.0
 11
-406.5000002235174
 21
-1364.994
 31
0.0
  0
LINE
  5
516
  8
DATA
  6
CONTINUOUS
 62
     7
 10
-393.5000002235174
 20
-1364.994
 30
0.0
 11
-388.0000002235174
 21
-1360.494
 31
0.0
  0
POLYLINE
  5
517
  8
DATA
  6
CONTINUOUS
 62
     7
 66
     1
 10
0.0
 20
0.0
 30
0.0
 70
   129
  0
VERTEX
  5
73D
  8
DATA
  6
CONTINUOUS
 62
     7
 10
-406.5000002235174
 20
-1352.494
 30
0.0
  0
VERTEX
  5
73E
  8
DATA
  6
CONTINUOUS
 62
     7
 10
-406.5000002235174
 20
-1356.494
 30
0.0
  0
VERTEX
  5
73F
  8
DATA
  6
CONTINUOUS
 62
     7
 10
-407.5000002235174
 20
-1356.494
 30
0.0
  0
VERTEX
  5
740
  8
DATA
  6
CONTINUOUS
 62
     7
 10
-407.5000002235174
 20
-1352.494
 30
0.0
  0
SEQEND
  5
774
  8
DATA
  6
CONTINUOUS
 62
     7
  0
POLYLINE
  5
51D
  8
DATA
  6
CONTINUOUS
 62
     7
 66
     1
 10
0.0
 20
0.0
 30
0.0
 70
   129
  0
VERTEX
  5
741
  8
DATA
  6
CONTINUOUS
 62
     7
 10
-392.5000002235174
 20
-1352.494
 30
0.0
  0
VERTEX
  5
742
  8
DATA
  6
CONTINUOUS
 62
     7
 10
-392.5000002235174
 20
-1356.494
 30
0.0
  0
VERTEX
  5
743
  8
DATA
  6
CONTINUOUS
 62
     7
 10
-393.5000002235174
 20
-1356.494
 30
0.0
  0
VERTEX
  5
744
  8
DATA
  6
CONTINUOUS
 62
     7
 10
-393.5000002235174
 20
-1352.494
 30
0.0
  0
SEQEND
  5
775
  8
DATA
  6
CONTINUOUS
 62
     7
  0
POLYLINE
  5
523
  8
DATA
  6
CONTINUOUS
 62
     7
 66
     1
 10
0.0
 20
0.0
 30
0.0
 70
   129
  0
VERTEX
  5
745
  8
DATA
  6
CONTINUOUS
 62
     7
 10
-399.5000002235174
 20
-1356.994
 30
0.0
  0
VERTEX
  5
746
  8
DATA
  6
CONTINUOUS
 62
     7
 10
-399.5000002235174
 20
-1360.994
 30
0.0
  0
VERTEX
  5
747
  8
DATA
  6
CONTINUOUS
 62
     7
 10
-400.5000002235174
 20
-1360.994
 30
0.0
  0
VERTEX
  5
748
  8
DATA
  6
CONTINUOUS
 62
     7
 10
-400.5000002235174
 20
-1356.994
 30
0.0
  0
SEQEND
  5
776
  8
DATA
  6
CONTINUOUS
 62
     7
  0
ARC
  5
529
  8
DATA
  6
CONTINUOUS
 62
     7
 10
-545.5889924878945
 20
-959.1580005746727
 30
0.0
 40
15.29694862757907
 50
135.3794620966265
 51
224.6205379033735
  0
LINE
  5
52A
  8
DATA
  6
CONTINUOUS
 62
     7
 10
-491.7984340013668
 20
-950.6710693747781
 30
0.0
 11
-556.4769675524492
 21
-948.4132978655034
 31
0.0
  0
LINE
  5
52B
  8
DATA
  6
CONTINUOUS
 62
     7
 10
-556.4769675524492
 20
-969.9027032838419
 30
0.0
 11
-491.7984340013668
 21
-972.1604747931166
 31
0.0
  0
ARC
  5
52C
  8
DATA
  6
CONTINUOUS
 62
     7
 10
-497.2066788122887
 20
-961.4157720839473
 30
0.0
 40
12.02903771061062
 50
296.7179670384893
 51
63.28203296151067
  0
LINE
  5
52D
  8
DATA
  6
CONTINUOUS
 62
     7
 10
-556.5000004470343
 20
-926.2266529395772
 30
0.0
 11
-556.5000004470343
 21
-948.4366880323396
 31
0.0
  0
LINE
  5
52E
  8
DATA
  6
CONTINUOUS
 62
     7
 10
-556.5000004470343
 20
-969.8793131170053
 30
0.0
 11
-556.5000004470343
 21
-1416.778687457667
 31
0.0
  0
LINE
  5
52F
  8
DATA
  6
CONTINUOUS
 62
     7
 10
-556.5000004470343
 20
-1438.221312542333
 30
0.0
 11
-556.5000004470343
 21
-1465.063179569089
 31
0.0
  0
ARC
  5
530
  8
DATA
  6
CONTINUOUS
 62
     7
 10
-254.4110079591403
 20
-959.1580005746727
 30
0.0
 40
15.29694862757907
 50
315.3794620966266
 51
44.62053790337347
  0
LINE
  5
531
  8
DATA
  6
CONTINUOUS
 62
     7
 10
-308.201566445668
 20
-950.6710693747781
 30
0.0
 11
-243.5230328945856
 21
-948.4132978655034
 31
0.0
  0
LINE
  5
532
  8
DATA
  6
CONTINUOUS
 62
     7
 10
-243.5230328945856
 20
-969.9027032838419
 30
0.0
 11
-308.201566445668
 21
-972.1604747931166
 31
0.0
  0
ARC
  5
533
  8
DATA
  6
CONTINUOUS
 62
     7
 10
-302.7933216347462
 20
-961.4157720839473
 30
0.0
 40
12.02903771061062
 50
116.7179670384893
 51
243.2820329615106
  0
LINE
  5
534
  8
DATA
  6
CONTINUOUS
 62
     7
 10
-243.5000000000006
 20
-926.2266529395772
 30
0.0
 11
-243.5000000000006
 21
-948.4366880323396
 31
0.0
  0
LINE
  5
535
  8
DATA
  6
CONTINUOUS
 62
     7
 10
-243.5000000000006
 20
-969.8793131170053
 30
0.0
 11
-243.5000000000006
 21
-1416.778687457667
 31
0.0
  0
LINE
  5
536
  8
DATA
  6
CONTINUOUS
 62
     7
 10
-243.5000000000006
 20
-1438.221312542333
 30
0.0
 11
-243.5000000000006
 21
-1465.063179569089
 31
0.0
  0
ARC
  5
537
  8
DATA
  6
CONTINUOUS
 62
     7
 10
-545.5889924878946
 20
-1427.5
 30
0.0
 40
15.29694862757907
 50
135.3794620966272
 51
224.6205379033735
  0
LINE
  5
538
  8
DATA
  6
CONTINUOUS
 62
     7
 10
-491.7984340013669
 20
-1435.986931199895
 30
0.0
 11
-556.4769675524494
 21
-1438.244702709169
 31
0.0
  0
LINE
  5
539
  8
DATA
  6
CONTINUOUS
 62
     7
 10
-556.4769675524494
 20
-1416.755297290831
 30
0.0
 11
-491.7984340013669
 21
-1414.497525781556
 31
0.0
  0
ARC
  5
53A
  8
DATA
  6
CONTINUOUS
 62
     7
 10
-497.2066788122887
 20
-1425.242228490725
 30
0.0
 40
12.02903771061049
 50
296.7179670384893
 51
63.28203296151067
  0
ARC
  5
53B
  8
DATA
  6
CONTINUOUS
 62
     7
 10
-254.4110079591404
 20
-1427.5
 30
0.0
 40
15.29694862757915
 50
315.3794620966262
 51
44.62053790337313
  0
LINE
  5
53C
  8
DATA
  6
CONTINUOUS
 62
     7
 10
-308.2015664456682
 20
-1435.986931199895
 30
0.0
 11
-243.5230328945858
 21
-1438.244702709169
 31
0.0
  0
LINE
  5
53D
  8
DATA
  6
CONTINUOUS
 62
     7
 10
-243.5230328945858
 20
-1416.755297290831
 30
0.0
 11
-308.2015664456682
 21
-1414.497525781556
 31
0.0
  0
ARC
  5
53E
  8
DATA
  6
CONTINUOUS
 62
     7
 10
-302.7933216347462
 20
-1425.242228490725
 30
0.0
 40
12.02903771061054
 50
116.7179670384899
 51
243.2820329615101
  0
CIRCLE
  5
53F
  8
DATA
  6
CONTINUOUS
 62
     7
 10
-355.4999999999999
 20
-1105.994
 30
0.0
 40
1.5
  0
TEXT
  5
540
  8
DATA
 62
     7
 10
-375.6235351562499
 20
-1049.61870703125
 30
0.0
 40
3.2494140625
  1
POWER
 51
0.7
 72
     1
 11
-367.4999999999999
 21
-1047.994
 31
0.0
 73
     2
  0
TEXT
  5
541
  8
DATA
 62
     7
 10
-381.0392252604166
 20
-1067.36870703125
 30
0.0
 40
3.2494140625
  1
MAIN/MEMU
 51
0.7
 72
     1
 11
-367.4999999999999
 21
-1065.744
 31
0.0
 73
     2
  0
TEXT
  5
542
  8
DATA
 62
     7
 10
-373.4572591145833
 20
-1100.76870703125
 30
0.0
 40
3.2494140625
  1
BACK
 51
0.7
 72
     1
 11
-367.4999999999999
 21
-1099.144
 31
0.0
 73
     2
  0
TEXT
  5
543
  8
DATA
 62
     7
 10
-361.9988281249999
 20
-1100.76870703125
 30
0.0
 40
3.2494140625
  1
LIMIT
 51
0.7
 72
     1
 11
-355.4999999999999
 21
-1099.144
 31
0.0
 73
     2
  0
TEXT
  5
544
  8
DATA
 62
     7
 10
-441.87294921875
 20
-1101.11870703125
 30
0.0
 40
3.2494140625
  1
SIG/CLIP
 51
0.7
 72
     1
 11
-430.4999999999999
 21
-1099.494
 31
0.0
 73
     2
  0
TEXT
  5
545
  8
DATA
 62
     7
 10
-409.87294921875
 20
-1101.11870703125
 30
0.0
 40
3.2494140625
  1
SIG/CLIP
 51
0.7
 72
     1
 11
-398.4999999999999
 21
-1099.494
 31
0.0
 73
     2
  0
TEXT
  5
546
  8
DATA
 62
     7
 10
-435.9156901041666
 20
-1110.11870703125
 30
0.0
 40
3.2494140625
  1
GAIN
 51
0.7
 72
     1
 11
-430.4999999999999
 21
-1108.494
 31
0.0
 73
     2
  0
TEXT
  5
547
  8
DATA
 62
     7
 10
-403.9156901041666
 20
-1110.11870703125
 30
0.0
 40
3.2494140625
  1
GAIN
 51
0.7
 72
     1
 11
-398.4999999999999
 21
-1108.494
 31
0.0
 73
     2
  0
LINE
  5
548
  8
DATA
  6
CONTINUOUS
 62
     7
 10
-430.4999999999999
 20
-1124.494
 30
0.0
 11
-430.5000000000005
 21
-1134.493999999997
 31
0.0
  0
LINE
  5
549
  8
DATA
  6
CONTINUOUS
 62
     7
 10
-398.4999999999999
 20
-1124.494
 30
0.0
 11
-398.5000000000005
 21
-1134.493999999997
 31
0.0
  0
LINE
  5
54A
  8
DATA
  6
CONTINUOUS
 62
     7
 10
-429.2499999999999
 20
-1164.994
 30
0.0
 11
-431.7499999999999
 21
-1164.994
 31
0.0
  0
LINE
  5
54B
  8
DATA
  6
CONTINUOUS
 62
     7
 10
-431.7499999999999
 20
-1164.994
 30
0.0
 11
-430.4999999999999
 21
-1163.494
 31
0.0
  0
LINE
  5
54C
  8
DATA
  6
CONTINUOUS
 62
     7
 10
-429.2499999999999
 20
-1164.994
 30
0.0
 11
-430.4999999999999
 21
-1163.494
 31
0.0
  0
TEXT
  5
54D
  8
DATA
 62
     7
 10
-434.2909830729166
 20
-1169.61870703125
 30
0.0
 40
3.2494140625
  1
CH1
 51
0.7
 72
     1
 11
-430.4999999999999
 21
-1167.994
 31
0.0
 73
     2
  0
LINE
  5
54E
  8
DATA
  6
CONTINUOUS
 62
     7
 10
-397.2499999999999
 20
-1164.994
 30
0.0
 11
-399.7499999999999
 21
-1164.994
 31
0.0
  0
LINE
  5
54F
  8
DATA
  6
CONTINUOUS
 62
     7
 10
-399.7499999999999
 20
-1164.994
 30
0.0
 11
-398.4999999999999
 21
-1163.494
 31
0.0
  0
LINE
  5
550
  8
DATA
  6
CONTINUOUS
 62
     7
 10
-397.2499999999999
 20
-1164.994
 30
0.0
 11
-398.4999999999999
 21
-1163.494
 31
0.0
  0
TEXT
  5
551
  8
DATA
 62
     7
 10
-402.8325520833333
 20
-1169.61870703125
 30
0.0
 40
3.2494140625
  1
CH2
 51
0.7
 72
     1
 11
-398.4999999999999
 21
-1167.994
 31
0.0
 73
     2
  0
LINE
  5
552
  8
DATA
  6
CONTINUOUS
 62
     7
 10
-365.2499999999999
 20
-1164.994
 30
0.0
 11
-367.7499999999999
 21
-1164.994
 31
0.0
  0
LINE
  5
553
  8
DATA
  6
CONTINUOUS
 62
     7
 10
-367.7499999999999
 20
-1164.994
 30
0.0
 11
-366.4999999999999
 21
-1163.494
 31
0.0
  0
LINE
  5
554
  8
DATA
  6
CONTINUOUS
 62
     7
 10
-365.2499999999999
 20
-1164.994
 30
0.0
 11
-366.4999999999999
 21
-1163.494
 31
0.0
  0
TEXT
  5
555
  8
DATA
 62
     7
 10
-379.9309114583333
 20
-1169.61870703125
 30
0.0
 40
3.2494140625
  1
PASS THRU
 51
0.7
 72
     1
 11
-366.4999999999999
 21
-1167.994
 31
0.0
 73
     2
  0
TEXT
  5
556
  8
DATA
 62
     7
 10
-413.3225978797674
 20
-1337.738151475683
 30
0.0
 40
3.2494140625
  1
500W MAX 
 51
0.7
 72
     1
 11
-400.0000002235174
 21
-1336.113444444434
 31
0.0
 73
     2
  0
TEXT
  5
557
  8
DATA
 62
     7
 10
-423.2874676714341
 20
-1341.971484809017
 30
0.0
 40
3.2494140625
  1
100-120V?50/60Hz
 51
0.7
 72
     1
 11
-400.0000002235174
 21
-1340.346777777767
 31
0.0
 73
     2
  0
LINE
  5
558
  8
DATA
  6
CONTINUOUS
 62
     7
 10
-354.9999999999999
 20
-1457.994
 30
0.0
 11
-444.9999999999999
 21
-1457.994
 31
0.0
  0
LINE
  5
559
  8
DATA
  6
CONTINUOUS
 62
     7
 10
-444.9999999999999
 20
-1422.994
 30
0.0
 11
-354.9999999999999
 21
-1422.994
 31
0.0
  0
ARC
  5
55A
  8
DATA
  6
CONTINUOUS
 62
     7
 10
-444.9999999999999
 20
-1440.494
 30
0.0
 40
17.5
 50
90.0
 51
270.0
  0
ARC
  5
55B
  8
DATA
  6
CONTINUOUS
 62
     7
 10
-354.9999999999999
 20
-1440.494
 30
0.0
 40
17.5
 50
270.0
 51
90.0
  0
LINE
  5
55C
  8
DATA
  6
CONTINUOUS
 62
     7
 10
-424.0000004470355
 20
-1469.0
 30
0.0
 11
-424.0000004470355
 21
-1457.994
 31
0.0
  0
LINE
  5
55D
  8
DATA
  6
CONTINUOUS
 62
     7
 10
-376.0000004470355
 20
-1469.0
 30
0.0
 11
-376.0000004470355
 21
-1457.994
 31
0.0
  0
LINE
  5
55E
  8
DATA
  6
CONTINUOUS
 62
     7
 10
385.0000022351742
 20
399.999999999999
 30
0.0
 11
1614.999997764826
 21
399.999999999999
 31
0.0
  0
POLYLINE
  5
55F
  8
DATA
  6
CONTINUOUS
 62
     7
 66
     1
 10
0.0
 20
0.0
 30
0.0
 70
   129
  0
VERTEX
  5
749
  8
DATA
  6
CONTINUOUS
 62
     7
 10
635.0000022351742
 20
99.99999999999898
 30
0.0
  0
VERTEX
  5
74A
  8
DATA
  6
CONTINUOUS
 62
     7
 10
1115.000002235174
 20
99.99999999999898
 30
0.0
  0
VERTEX
  5
74B
  8
DATA
  6
CONTINUOUS
 62
     7
 10
1115.000002235174
 20
-270.000000000001
 30
0.0
  0
VERTEX
  5
74C
  8
DATA
  6
CONTINUOUS
 62
     7
 10
635.0000022351742
 20
-270.000000000001
 30
0.0
  0
SEQEND
  5
777
  8
DATA
  6
CONTINUOUS
 62
     7
  0
LINE
  5
565
  8
DATA
  6
CONTINUOUS
 62
     7
 10
285.0000022351742
 20
299.999999999999
 30
0.0
 11
285.0000022351742
 21
-1200.571738442789
 31
0.0
  0
LINE
  5
566
  8
DATA
  6
CONTINUOUS
 62
     7
 10
1714.999997764826
 20
299.999999999999
 30
0.0
 11
1714.999997764826
 21
-1249.428261557212
 31
0.0
  0
ARC
  5
567
  8
DATA
  6
CONTINUOUS
 62
     7
 10
385.0000022351742
 20
299.999999999999
 30
0.0
 40
100.0
 50
90.0
 51
180.0
  0
ARC
  5
568
  8
DATA
  6
CONTINUOUS
 62
     7
 10
1614.999997764826
 20
299.999999999999
 30
0.0
 40
100.0
 50
0.0
 51
90.0
  0
ARC
  5
569
  8
DATA
  6
CONTINUOUS
 62
     7
 10
360.0000022341601
 20
-933.0223561982199
 30
0.0
 40
2.222356198219918
 50
356.8251528744368
 51
183.1748471255633
  0
ARC
  5
56A
  8
DATA
  6
CONTINUOUS
 62
     7
 10
349.6481630753738
 20
-932.070088624199
 30
0.0
 40
8.203678318440984
 50
247.5320803524596
 51
352.4679196225533
  0
ARC
  5
56B
  8
DATA
  6
CONTINUOUS
 62
     7
 10
345.2969314054144
 20
-941.5111780991093
 30
0.0
 40
2.22235619821818
 50
56.82515287442732
 51
243.1748471256078
  0
ARC
  5
56C
  8
DATA
  6
CONTINUOUS
 62
     7
 10
339.2963239157189
 20
-949.9999999994985
 30
0.0
 40
8.20367831844172
 50
307.5320803524665
 51
52.46791962253965
  0
ARC
  5
56D
  8
DATA
  6
CONTINUOUS
 62
     7
 10
360.0000022341601
 20
-966.9776438017822
 30
0.0
 40
2.222356198217648
 50
176.8251528744334
 51
3.174847125566601
  0
ARC
  5
56E
  8
DATA
  6
CONTINUOUS
 62
     7
 10
349.6481630753738
 20
-967.929911375803
 30
0.0
 40
8.203678318442806
 50
7.532080377446654
 51
112.46791964754
  0
ARC
  5
56F
  8
DATA
  6
CONTINUOUS
 62
     7
 10
345.2969314054144
 20
-958.4888219008927
 30
0.0
 40
2.222356198219738
 50
116.825152874392
 51
303.1748471255731
  0
ARC
  5
570
  8
DATA
  6
CONTINUOUS
 62
     7
 10
370.3518413929464
 20
-932.070088624199
 30
0.0
 40
8.203678318442806
 50
187.5320803774466
 51
292.4679196475399
  0
ARC
  5
571
  8
DATA
  6
CONTINUOUS
 62
     7
 10
374.7030730629058
 20
-941.5111780991093
 30
0.0
 40
2.222356198219738
 50
296.825152874392
 51
123.1748471255731
  0
ARC
  5
572
  8
DATA
  6
CONTINUOUS
 62
     7
 10
380.7036805526013
 20
-949.9999999994985
 30
0.0
 40
8.203678318441241
 50
127.5320803774604
 51
232.4679196475334
  0
ARC
  5
573
  8
DATA
  6
CONTINUOUS
 62
     7
 10
370.3518413929464
 20
-967.929911375803
 30
0.0
 40
8.203678318440984
 50
67.5320803524596
 51
172.4679196225533
  0
ARC
  5
574
  8
DATA
  6
CONTINUOUS
 62
     7
 10
374.7030730629058
 20
-958.4888219008927
 30
0.0
 40
2.22235619821818
 50
236.8251528744273
 51
63.17484712560779
  0
CIRCLE
  5
575
  8
DATA
  6
CONTINUOUS
 62
     7
 10
360.0000022351742
 20
-950.000000000001
 30
0.0
 40
40.50000000000182
  0
ARC
  5
576
  8
DATA
  6
CONTINUOUS
 62
     7
 10
360.0000022341601
 20
-33.02235619821988
 30
0.0
 40
2.222356198219918
 50
356.8251528744368
 51
183.1748471255663
  0
ARC
  5
577
  8
DATA
  6
CONTINUOUS
 62
     7
 10
349.6481630753738
 20
-32.070088624199
 30
0.0
 40
8.203678318440984
 50
247.5320803524596
 51
352.4679196225533
  0
ARC
  5
578
  8
DATA
  6
CONTINUOUS
 62
     7
 10
345.2969314054144
 20
-41.51117809910932
 30
0.0
 40
2.22235619821818
 50
56.82515287442732
 51
243.1748471256078
  0
ARC
  5
579
  8
DATA
  6
CONTINUOUS
 62
     7
 10
339.2963239157189
 20
-49.99999999949853
 30
0.0
 40
8.20367831844172
 50
307.5320803524665
 51
52.46791962253945
  0
ARC
  5
57A
  8
DATA
  6
CONTINUOUS
 62
     7
 10
360.0000022341601
 20
-66.97764380178216
 30
0.0
 40
2.222356198217648
 50
176.8251528744334
 51
3.174847125563673
  0
ARC
  5
57B
  8
DATA
  6
CONTINUOUS
 62
     7
 10
349.6481630753738
 20
-67.92991137580304
 30
0.0
 40
8.203678318442806
 50
7.532080377446654
 51
112.4679196475403
  0
ARC
  5
57C
  8
DATA
  6
CONTINUOUS
 62
     7
 10
345.2969314054144
 20
-58.48882190089273
 30
0.0
 40
2.222356198219738
 50
116.825152874392
 51
303.1748471255739
  0
ARC
  5
57D
  8
DATA
  6
CONTINUOUS
 62
     7
 10
370.3518413929464
 20
-32.070088624199
 30
0.0
 40
8.203678318442806
 50
187.5320803774466
 51
292.4679196475403
  0
ARC
  5
57E
  8
DATA
  6
CONTINUOUS
 62
     7
 10
374.7030730629058
 20
-41.51117809910932
 30
0.0
 40
2.222356198219738
 50
296.825152874392
 51
123.1748471255739
  0
ARC
  5
57F
  8
DATA
  6
CONTINUOUS
 62
     7
 10
380.7036805526013
 20
-49.99999999949853
 30
0.0
 40
8.203678318441241
 50
127.5320803774604
 51
232.4679196475337
  0
ARC
  5
580
  8
DATA
  6
CONTINUOUS
 62
     7
 10
370.3518413929464
 20
-67.92991137580304
 30
0.0
 40
8.203678318440984
 50
67.5320803524596
 51
172.4679196225533
  0
ARC
  5
581
  8
DATA
  6
CONTINUOUS
 62
     7
 10
374.7030730629058
 20
-58.48882190089273
 30
0.0
 40
2.22235619821818
 50
236.8251528744273
 51
63.17484712560779
  0
CIRCLE
  5
582
  8
DATA
  6
CONTINUOUS
 62
     7
 10
360.0000022351742
 20
-50.00000000000102
 30
0.0
 40
40.50000000000182
  0
ARC
  5
583
  8
DATA
  6
CONTINUOUS
 62
     7
 10
1640.00000223416
 20
-33.02235619821988
 30
0.0
 40
2.222356198219918
 50
356.8251528744368
 51
183.1748471255663
  0
ARC
  5
584
  8
DATA
  6
CONTINUOUS
 62
     7
 10
1629.648163075374
 20
-32.070088624199
 30
0.0
 40
8.203678318440984
 50
247.5320803524596
 51
352.4679196225533
  0
ARC
  5
585
  8
DATA
  6
CONTINUOUS
 62
     7
 10
1625.296931405414
 20
-41.51117809910932
 30
0.0
 40
2.22235619821818
 50
56.82515287442732
 51
243.1748471256026
  0
ARC
  5
586
  8
DATA
  6
CONTINUOUS
 62
     7
 10
1619.296323915719
 20
-49.99999999949853
 30
0.0
 40
8.20367831844172
 50
307.5320803524665
 51
52.46791962253878
  0
ARC
  5
587
  8
DATA
  6
CONTINUOUS
 62
     7
 10
1640.00000223416
 20
-66.97764380178216
 30
0.0
 40
2.222356198217648
 50
176.8251528744334
 51
3.174847125563673
  0
ARC
  5
588
  8
DATA
  6
CONTINUOUS
 62
     7
 10
1629.648163075374
 20
-67.92991137580304
 30
0.0
 40
8.203678318442806
 50
7.532080377446654
 51
112.4679196475417
  0
ARC
  5
589
  8
DATA
  6
CONTINUOUS
 62
     7
 10
1625.296931405414
 20
-58.48882190089273
 30
0.0
 40
2.222356198219738
 50
116.825152874392
 51
303.1748471255739
  0
ARC
  5
58A
  8
DATA
  6
CONTINUOUS
 62
     7
 10
1650.351841392946
 20
-32.070088624199
 30
0.0
 40
8.203678318442806
 50
187.5320803774466
 51
292.4679196475388
  0
ARC
  5
58B
  8
DATA
  6
CONTINUOUS
 62
     7
 10
1654.703073062906
 20
-41.51117809910932
 30
0.0
 40
2.222356198219738
 50
296.825152874392
 51
123.1748471255739
  0
ARC
  5
58C
  8
DATA
  6
CONTINUOUS
 62
     7
 10
1660.703680552601
 20
-49.99999999949853
 30
0.0
 40
8.203678318441241
 50
127.5320803774604
 51
232.4679196475344
  0
ARC
  5
58D
  8
DATA
  6
CONTINUOUS
 62
     7
 10
1650.351841392946
 20
-67.92991137580304
 30
0.0
 40
8.203678318440984
 50
67.5320803524596
 51
172.4679196225533
  0
ARC
  5
58E
  8
DATA
  6
CONTINUOUS
 62
     7
 10
1654.703073062906
 20
-58.48882190089273
 30
0.0
 40
2.22235619821818
 50
236.8251528744273
 51
63.17484712561301
  0
CIRCLE
  5
58F
  8
DATA
  6
CONTINUOUS
 62
     7
 10
1640.000002235174
 20
-50.00000000000102
 30
0.0
 40
40.50000000000182
  0
ARC
  5
590
  8
DATA
  6
CONTINUOUS
 62
     7
 10
1640.00000223416
 20
-933.0223561982199
 30
0.0
 40
2.222356198219918
 50
356.8251528744368
 51
183.1748471255633
  0
ARC
  5
591
  8
DATA
  6
CONTINUOUS
 62
     7
 10
1629.648163075374
 20
-932.070088624199
 30
0.0
 40
8.203678318440984
 50
247.5320803524596
 51
352.4679196225533
  0
ARC
  5
592
  8
DATA
  6
CONTINUOUS
 62
     7
 10
1625.296931405414
 20
-941.5111780991093
 30
0.0
 40
2.22235619821818
 50
56.82515287442732
 51
243.1748471256026
  0
ARC
  5
593
  8
DATA
  6
CONTINUOUS
 62
     7
 10
1619.296323915719
 20
-949.9999999994985
 30
0.0
 40
8.20367831844172
 50
307.5320803524665
 51
52.46791962253903
  0
ARC
  5
594
  8
DATA
  6
CONTINUOUS
 62
     7
 10
1640.00000223416
 20
-966.9776438017822
 30
0.0
 40
2.222356198217648
 50
176.8251528744334
 51
3.174847125566601
  0
ARC
  5
595
  8
DATA
  6
CONTINUOUS
 62
     7
 10
1629.648163075374
 20
-967.929911375803
 30
0.0
 40
8.203678318442806
 50
7.532080377446654
 51
112.4679196475414
  0
ARC
  5
596
  8
DATA
  6
CONTINUOUS
 62
     7
 10
1625.296931405414
 20
-958.4888219008927
 30
0.0
 40
2.222356198219738
 50
116.825152874392
 51
303.1748471255731
  0
ARC
  5
597
  8
DATA
  6
CONTINUOUS
 62
     7
 10
1650.351841392946
 20
-932.070088624199
 30
0.0
 40
8.203678318442806
 50
187.5320803774466
 51
292.4679196475385
  0
ARC
  5
598
  8
DATA
  6
CONTINUOUS
 62
     7
 10
1654.703073062906
 20
-941.5111780991093
 30
0.0
 40
2.222356198219738
 50
296.825152874392
 51
123.1748471255731
  0
ARC
  5
599
  8
DATA
  6
CONTINUOUS
 62
     7
 10
1660.703680552601
 20
-949.9999999994985
 30
0.0
 40
8.203678318441241
 50
127.5320803774604
 51
232.4679196475341
  0
ARC
  5
59A
  8
DATA
  6
CONTINUOUS
 62
     7
 10
1650.351841392946
 20
-967.929911375803
 30
0.0
 40
8.203678318440984
 50
67.5320803524596
 51
172.4679196225533
  0
ARC
  5
59B
  8
DATA
  6
CONTINUOUS
 62
     7
 10
1654.703073062906
 20
-958.4888219008927
 30
0.0
 40
2.22235619821818
 50
236.8251528744273
 51
63.17484712561301
  0
CIRCLE
  5
59C
  8
DATA
  6
CONTINUOUS
 62
     7
 10
1640.000002235174
 20
-950.000000000001
 30
0.0
 40
40.50000000000182
  0
ARC
  5
59D
  8
DATA
  6
CONTINUOUS
 62
     7
 10
600.0000022341601
 20
351.9776438017801
 30
0.0
 40
2.222356198219918
 50
356.8251528744368
 51
183.1748471255663
  0
ARC
  5
59E
  8
DATA
  6
CONTINUOUS
 62
     7
 10
589.6481630753738
 20
352.929911375801
 30
0.0
 40
8.203678318440984
 50
247.5320803524596
 51
352.4679196225533
  0
ARC
  5
59F
  8
DATA
  6
CONTINUOUS
 62
     7
 10
585.2969314054144
 20
343.4888219008907
 30
0.0
 40
2.22235619821818
 50
56.82515287442732
 51
243.1748471256078
  0
ARC
  5
5A0
  8
DATA
  6
CONTINUOUS
 62
     7
 10
579.2963239157189
 20
335.0000000005015
 30
0.0
 40
8.20367831844172
 50
307.5320803524665
 51
52.4679196225398
  0
ARC
  5
5A1
  8
DATA
  6
CONTINUOUS
 62
     7
 10
600.0000022341601
 20
318.0223561982178
 30
0.0
 40
2.222356198217648
 50
176.8251528744334
 51
3.174847125563673
  0
ARC
  5
5A2
  8
DATA
  6
CONTINUOUS
 62
     7
 10
589.6481630753738
 20
317.070088624197
 30
0.0
 40
8.203678318442806
 50
7.532080377446654
 51
112.4679196475403
  0
ARC
  5
5A3
  8
DATA
  6
CONTINUOUS
 62
     7
 10
585.2969314054144
 20
326.5111780991073
 30
0.0
 40
2.222356198219738
 50
116.825152874392
 51
303.1748471255746
  0
ARC
  5
5A4
  8
DATA
  6
CONTINUOUS
 62
     7
 10
610.3518413929464
 20
352.929911375801
 30
0.0
 40
8.203678318442806
 50
187.5320803774466
 51
292.4679196475403
  0
ARC
  5
5A5
  8
DATA
  6
CONTINUOUS
 62
     7
 10
614.7030730629058
 20
343.4888219008907
 30
0.0
 40
2.222356198219738
 50
296.825152874392
 51
123.1748471255747
  0
ARC
  5
5A6
  8
DATA
  6
CONTINUOUS
 62
     7
 10
620.7036805526013
 20
335.0000000005015
 30
0.0
 40
8.203678318441241
 50
127.5320803774604
 51
232.4679196475333
  0
ARC
  5
5A7
  8
DATA
  6
CONTINUOUS
 62
     7
 10
610.3518413929464
 20
317.070088624197
 30
0.0
 40
8.203678318440984
 50
67.5320803524596
 51
172.4679196225533
  0
ARC
  5
5A8
  8
DATA
  6
CONTINUOUS
 62
     7
 10
614.7030730629058
 20
326.5111780991073
 30
0.0
 40
2.22235619821818
 50
236.8251528744273
 51
63.17484712560779
  0
CIRCLE
  5
5A9
  8
DATA
  6
CONTINUOUS
 62
     7
 10
600.0000022351742
 20
334.999999999999
 30
0.0
 40
40.50000000000182
  0
ARC
  5
5AA
  8
DATA
  6
CONTINUOUS
 62
     7
 10
1400.00000223416
 20
351.9776438017801
 30
0.0
 40
2.222356198219918
 50
356.8251528744368
 51
183.1748471255663
  0
ARC
  5
5AB
  8
DATA
  6
CONTINUOUS
 62
     7
 10
1389.648163075374
 20
352.929911375801
 30
0.0
 40
8.203678318440984
 50
247.5320803524596
 51
352.4679196225533
  0
ARC
  5
5AC
  8
DATA
  6
CONTINUOUS
 62
     7
 10
1385.296931405414
 20
343.4888219008907
 30
0.0
 40
2.22235619821818
 50
56.82515287442732
 51
243.1748471256026
  0
ARC
  5
5AD
  8
DATA
  6
CONTINUOUS
 62
     7
 10
1379.296323915719
 20
335.0000000005015
 30
0.0
 40
8.20367831844172
 50
307.5320803524665
 51
52.46791962254107
  0
ARC
  5
5AE
  8
DATA
  6
CONTINUOUS
 62
     7
 10
1400.00000223416
 20
318.0223561982178
 30
0.0
 40
2.222356198217648
 50
176.8251528744334
 51
3.174847125563673
  0
ARC
  5
5AF
  8
DATA
  6
CONTINUOUS
 62
     7
 10
1389.648163075374
 20
317.070088624197
 30
0.0
 40
8.203678318442806
 50
7.532080377446654
 51
112.4679196475417
  0
ARC
  5
5B0
  8
DATA
  6
CONTINUOUS
 62
     7
 10
1385.296931405414
 20
326.5111780991073
 30
0.0
 40
2.222356198219738
 50
116.825152874392
 51
303.1748471255746
  0
ARC
  5
5B1
  8
DATA
  6
CONTINUOUS
 62
     7
 10
1410.351841392946
 20
352.929911375801
 30
0.0
 40
8.203678318442806
 50
187.5320803774466
 51
292.4679196475388
  0
ARC
  5
5B2
  8
DATA
  6
CONTINUOUS
 62
     7
 10
1414.703073062906
 20
343.4888219008907
 30
0.0
 40
2.222356198219738
 50
296.825152874392
 51
123.1748471255747
  0
ARC
  5
5B3
  8
DATA
  6
CONTINUOUS
 62
     7
 10
1420.703680552601
 20
335.0000000005015
 30
0.0
 40
8.203678318441241
 50
127.5320803774604
 51
232.4679196475321
  0
ARC
  5
5B4
  8
DATA
  6
CONTINUOUS
 62
     7
 10
1410.351841392946
 20
317.070088624197
 30
0.0
 40
8.203678318440984
 50
67.5320803524596
 51
172.4679196225533
  0
ARC
  5
5B5
  8
DATA
  6
CONTINUOUS
 62
     7
 10
1414.703073062906
 20
326.5111780991073
 30
0.0
 40
2.22235619821818
 50
236.8251528744273
 51
63.17484712561301
  0
CIRCLE
  5
5B6
  8
DATA
  6
CONTINUOUS
 62
     7
 10
1400.000002235174
 20
334.999999999999
 30
0.0
 40
40.50000000000182
  0
CIRCLE
  5
5B7
  8
DATA
  6
CONTINUOUS
 62
     7
 10
1325.000002235174
 20
89.99999999999898
 30
0.0
 40
50.0
  0
ARC
  5
5B8
  8
DATA
  6
CONTINUOUS
 62
     7
 10
1325.000002235174
 20
90.00000000000125
 30
0.0
 40
19.9999999999977
 50
120.0000000000038
 51
59.99999999999475
  0
LINE
  5
5B9
  8
DATA
  6
CONTINUOUS
 62
     7
 10
1325.000002235174
 20
89.99999999999898
 30
0.0
 11
1325.000002235174
 21
114.999999999999
 31
0.0
  0
CIRCLE
  5
5BA
  8
DATA
  6
CONTINUOUS
 62
     7
 10
1325.000002235174
 20
-145.000000000001
 30
0.0
 40
107.5
  0
CIRCLE
  5
5BB
  8
DATA
  6
CONTINUOUS
 62
     7
 10
1325.000002235174
 20
-145.000000000001
 30
0.0
 40
100.0
  0
CIRCLE
  5
5BC
  8
DATA
  6
CONTINUOUS
 62
     7
 10
1325.000002235174
 20
-410.000000000001
 30
0.0
 40
38.50000000000136
  0
CIRCLE
  5
5BD
  8
DATA
  6
CONTINUOUS
 62
     7
 10
1445.000002235174
 20
89.99999999999898
 30
0.0
 40
15.0
  0
CIRCLE
  5
5BE
  8
DATA
  6
CONTINUOUS
 62
     7
 10
695.0000022351742
 20
-390.000000000001
 30
0.0
 40
15.0
  0
CIRCLE
  5
5BF
  8
DATA
  6
CONTINUOUS
 62
     7
 10
1015.000002235174
 20
-390.000000000001
 30
0.0
 40
15.0
  0
CIRCLE
  5
5C0
  8
DATA
  6
CONTINUOUS
 62
     7
 10
695.0000022351742
 20
-530.000000000001
 30
0.0
 40
65.0
  0
CIRCLE
  5
5C1
  8
DATA
  6
CONTINUOUS
 62
     7
 10
1015.000002235174
 20
-530.000000000001
 30
0.0
 40
65.0
  0
CIRCLE
  5
5C2
  8
DATA
  6
CONTINUOUS
 62
     7
 10
695.0000022351742
 20
-530.000000000001
 30
0.0
 40
62.5
  0
CIRCLE
  5
5C3
  8
DATA
  6
CONTINUOUS
 62
     7
 10
1015.000002235174
 20
-530.000000000001
 30
0.0
 40
62.5
  0
CIRCLE
  5
5C4
  8
DATA
  6
CONTINUOUS
 62
     7
 10
1290.000002239667
 20
-815.000000000001
 30
0.0
 40
16.49999999835927
  0
CIRCLE
  5
5C5
  8
DATA
  6
CONTINUOUS
 62
     7
 10
1380.000002230681
 20
-815.000000000001
 30
0.0
 40
16.49999999834108
  0
CIRCLE
  5
5C6
  8
DATA
  6
CONTINUOUS
 62
     7
 10
1429.974410559007
 20
-934.9999999880002
 30
0.0
 40
25.0
  0
LINE
  5
5C7
  8
DATA
  6
______-12
 62
     7
 10
1414.948818892335
 20
-934.9999999880002
 30
0.0
 11
1444.948818892335
 21
-934.9999999880002
 31
0.0
  0
LINE
  5
5C8
  8
DATA
  6
______-12
 62
     7
 10
1429.974410559007
 20
-919.988283321337
 30
0.0
 11
1429.974410559007
 21
-949.988283321337
 31
0.0
  0
CIRCLE
  5
5C9
  8
DATA
  6
CONTINUOUS
 62
     7
 10
1240.025593911341
 20
-695.0000000120018
 30
0.0
 40
25.0
  0
LINE
  5
5CA
  8
DATA
  6
______-12
 62
     7
 10
1225.000002244669
 20
-695.0000000120018
 30
0.0
 11
1255.000002244669
 21
-695.0000000120018
 31
0.0
  0
LINE
  5
5CB
  8
DATA
  6
______-12
 62
     7
 10
1240.025593911341
 20
-679.988283345334
 30
0.0
 11
1240.025593911341
 21
-709.988283345334
 31
0.0
  0
CIRCLE
  5
5CC
  8
DATA
  6
CONTINUOUS
 62
     7
 10
1335.000002235174
 20
-815.000000000001
 30
0.0
 40
97.50000015681577
  0
CIRCLE
  5
5CD
  8
DATA
  6
CONTINUOUS
 62
     7
 10
1335.000002235174
 20
-854.499999996052
 30
0.0
 40
16.49999999834108
  0
ARC
  5
5CE
  8
DATA
  6
CONTINUOUS
 62
     7
 10
1335.000002235174
 20
-815.000000000001
 30
0.0
 40
78.99999852386203
 50
50.69269454644028
 51
39.30730194582307
  0
LINE
  5
5CF
  8
DATA
  6
CONTINUOUS
 62
     7
 10
1363.500002232404
 20
-741.319950007297
 30
0.0
 11
1363.500002232404
 21
-741.3199515816551
 31
0.0
  0
ARC
  5
5D0
  8
DATA
  6
CONTINUOUS
 62
     7
 10
1389.447225563144
 20
-760.5527800053743
 30
0.0
 40
7.999999999199845
 50
326.612906173291
 51
123.3870903189605
  0
ARC
  5
5D1
  8
DATA
  6
CONTINUOUS
 62
     7
 10
695.0000022352469
 20
-815.0000000000738
 30
0.0
 40
78.99999852386007
 50
140.692698054177
 51
129.3073054535597
  0
CIRCLE
  5
5D2
  8
DATA
  6
CONTINUOUS
 62
     7
 10
695.0000022351742
 20
-815.000000000001
 30
0.0
 40
97.49999999025184
  0
ARC
  5
5D3
  8
DATA
  6
CONTINUOUS
 62
     7
 10
695.0000022351719
 20
-815.000000000001
 30
0.0
 40
107.4999999999999
 50
102.9003349199802
 51
77.09966508002233
  0
LINE
  5
5D4
  8
DATA
  6
CONTINUOUS
 62
     7
 10
719.0000022327695
 20
-739.7338057367925
 30
0.0
 11
719.0000022327695
 21
-739.7338072779722
 31
0.0
  0
LINE
  5
5D5
  8
DATA
  6
CONTINUOUS
 62
     7
 10
666.5000022380173
 20
-741.3199500073698
 30
0.0
 11
666.5000022380173
 21
-741.3199515817279
 31
0.0
  0
ARC
  5
5D6
  8
DATA
  6
CONTINUOUS
 62
     7
 10
650.0000022396671
 20
-815.000000000001
 30
0.0
 40
19.99999999800095
 50
32.08918387405087
 51
327.9108161259492
  0
ARC
  5
5D7
  8
DATA
  6
CONTINUOUS
 62
     7
 10
740.0000022306722
 20
-815.000000000001
 30
0.0
 40
19.99999999800095
 50
212.0891838740509
 51
147.9108161259491
  0
ARC
  5
5D8
  8
DATA
  6
CONTINUOUS
 62
     7
 10
695.0000022351742
 20
-854.4999999960565
 30
0.0
 40
19.9999999980077
 50
137.8522840898889
 51
42.14771591012867
  0
ARC
  5
5D9
  8
DATA
  6
CONTINUOUS
 62
     7
 10
640.5527789072767
 20
-760.5527800054471
 30
0.0
 40
7.99999999920039
 50
56.61290968104122
 51
213.3870938267085
  0
ARC
  5
5DA
  8
DATA
  6
CONTINUOUS
 62
     7
 10
695.0000022351742
 20
-815.000000000001
 30
0.0
 40
29.99999999999744
 50
20.74191648508129
 51
159.2580835149247
  0
ARC
  5
5DB
  8
DATA
  6
CONTINUOUS
 62
     7
 10
695.0000022351742
 20
-815.000000000001
 30
0.0
 40
30.00000000000594
 50
200.7419164850751
 51
240.3778367991916
  0
ARC
  5
5DC
  8
DATA
  6
CONTINUOUS
 62
     7
 10
695.0000022351742
 20
-815.000000000001
 30
0.0
 40
29.99999999999644
 50
299.6221632007934
 51
339.2580835149187
  0
CIRCLE
  5
5DD
  8
DATA
  6
CONTINUOUS
 62
     7
 10
790.00000222567
 20
-934.9999999880002
 30
0.0
 40
25.0
  0
LINE
  5
5DE
  8
DATA
  6
______-12
 62
     7
 10
774.9744105590071
 20
-934.9999999880002
 30
0.0
 11
804.9744105590071
 21
-934.9999999880002
 31
0.0
  0
LINE
  5
5DF
  8
DATA
  6
______-12
 62
     7
 10
790.00000222567
 20
-919.988283321337
 30
0.0
 11
790.00000222567
 21
-949.988283321337
 31
0.0
  0
CIRCLE
  5
5E0
  8
DATA
  6
CONTINUOUS
 62
     7
 10
599.9744105780064
 20
-694.988283345334
 30
0.0
 40
25.0
  0
LINE
  5
5E1
  8
DATA
  6
______-12
 62
     7
 10
584.9488189113436
 20
-694.988283345334
 30
0.0
 11
614.9488189113436
 21
-694.988283345334
 31
0.0
  0
LINE
  5
5E2
  8
DATA
  6
______-12
 62
     7
 10
599.9744105780064
 20
-679.9765666786708
 30
0.0
 11
599.9744105780064
 21
-709.9765666786708
 31
0.0
  0
LINE
  5
5E3
  8
DATA
  6
CONTINUOUS
 62
     7
 10
671.0000022375698
 20
-710.2133119136078
 30
0.0
 11
671.0000022375698
 21
-697.4244923458967
 31
0.0
  0
LINE
  5
5E4
  8
DATA
  6
CONTINUOUS
 62
     7
 10
719.0000022327695
 20
-710.2133119136078
 30
0.0
 11
719.0000022327695
 21
-697.4244923458797
 31
0.0
  0
ARC
  5
5E5
  8
DATA
  6
CONTINUOUS
 62
     7
 10
695.0000022352106
 20
-814.9999999999942
 30
0.0
 40
120.0000000000232
 50
78.46304096837633
 51
101.5369590316635
  0
ARC
  5
5E6
  8
DATA
  6
CONTINUOUS
 62
     7
 10
1015.000002235247
 20
-815.0000000000738
 30
0.0
 40
78.99999852386007
 50
140.692698054177
 51
129.3073054535598
  0
CIRCLE
  5
5E7
  8
DATA
  6
CONTINUOUS
 62
     7
 10
1015.000002235174
 20
-815.000000000001
 30
0.0
 40
97.49999999025184
  0
ARC
  5
5E8
  8
DATA
  6
CONTINUOUS
 62
     7
 10
1015.000002235172
 20
-815.000000000001
 30
0.0
 40
107.4999999999999
 50
102.9003349199802
 51
77.09966508002233
  0
LINE
  5
5E9
  8
DATA
  6
CONTINUOUS
 62
     7
 10
1039.000002232769
 20
-739.7338057367925
 30
0.0
 11
1039.000002232769
 21
-739.7338072779722
 31
0.0
  0
LINE
  5
5EA
  8
DATA
  6
CONTINUOUS
 62
     7
 10
986.5000022380173
 20
-741.3199500073698
 30
0.0
 11
986.5000022380173
 21
-741.3199515817279
 31
0.0
  0
ARC
  5
5EB
  8
DATA
  6
CONTINUOUS
 62
     7
 10
970.0000022396671
 20
-815.000000000001
 30
0.0
 40
19.99999999800095
 50
32.08918387405087
 51
327.9108161259492
  0
ARC
  5
5EC
  8
DATA
  6
CONTINUOUS
 62
     7
 10
1060.000002230672
 20
-815.000000000001
 30
0.0
 40
19.99999999800095
 50
212.0891838740509
 51
147.9108161259491
  0
ARC
  5
5ED
  8
DATA
  6
CONTINUOUS
 62
     7
 10
1015.000002235174
 20
-854.4999999960565
 30
0.0
 40
19.9999999980077
 50
137.8522840898889
 51
42.14771591012867
  0
ARC
  5
5EE
  8
DATA
  6
CONTINUOUS
 62
     7
 10
960.5527789072767
 20
-760.5527800054471
 30
0.0
 40
7.99999999920039
 50
56.61290968104122
 51
213.3870938267085
  0
ARC
  5
5EF
  8
DATA
  6
CONTINUOUS
 62
     7
 10
1015.000002235174
 20
-815.000000000001
 30
0.0
 40
29.99999999999744
 50
20.74191648508129
 51
159.2580835149247
  0
ARC
  5
5F0
  8
DATA
  6
CONTINUOUS
 62
     7
 10
1015.000002235174
 20
-815.000000000001
 30
0.0
 40
30.00000000000594
 50
200.7419164850751
 51
240.3778367991916
  0
ARC
  5
5F1
  8
DATA
  6
CONTINUOUS
 62
     7
 10
1015.000002235174
 20
-815.000000000001
 30
0.0
 40
29.99999999999644
 50
299.6221632007934
 51
339.2580835149187
  0
CIRCLE
  5
5F2
  8
DATA
  6
CONTINUOUS
 62
     7
 10
1110.00000222567
 20
-934.9999999880002
 30
0.0
 40
25.0
  0
LINE
  5
5F3
  8
DATA
  6
______-12
 62
     7
 10
1094.974410559007
 20
-934.9999999880002
 30
0.0
 11
1124.974410559007
 21
-934.9999999880002
 31
0.0
  0
LINE
  5
5F4
  8
DATA
  6
______-12
 62
     7
 10
1110.00000222567
 20
-919.988283321337
 30
0.0
 11
1110.00000222567
 21
-949.988283321337
 31
0.0
  0
CIRCLE
  5
5F5
  8
DATA
  6
CONTINUOUS
 62
     7
 10
919.9744105780064
 20
-694.988283345334
 30
0.0
 40
25.0
  0
LINE
  5
5F6
  8
DATA
  6
______-12
 62
     7
 10
904.9488189113436
 20
-694.988283345334
 30
0.0
 11
934.9488189113436
 21
-694.988283345334
 31
0.0
  0
LINE
  5
5F7
  8
DATA
  6
______-12
 62
     7
 10
919.9744105780064
 20
-679.9765666786708
 30
0.0
 11
919.9744105780064
 21
-709.9765666786708
 31
0.0
  0
LINE
  5
5F8
  8
DATA
  6
CONTINUOUS
 62
     7
 10
991.0000022375698
 20
-710.2133119136078
 30
0.0
 11
991.0000022375698
 21
-697.4244923458967
 31
0.0
  0
LINE
  5
5F9
  8
DATA
  6
CONTINUOUS
 62
     7
 10
1039.000002232769
 20
-710.2133119136078
 30
0.0
 11
1039.000002232769
 21
-697.4244923458797
 31
0.0
  0
ARC
  5
5FA
  8
DATA
  6
CONTINUOUS
 62
     7
 10
1015.000002235211
 20
-814.9999999999942
 30
0.0
 40
120.0000000000232
 50
78.46304096837633
 51
101.5369590316635
  0
CIRCLE
  5
5FB
  8
DATA
  6
CONTINUOUS
 62
     7
 10
1445.000002235174
 20
-410.000000000001
 30
0.0
 40
15.0
  0
LINE
  5
5FC
  8
DATA
  6
CONTINUOUS
 62
     7
 10
695.0000022351742
 20
-595.000000000001
 30
0.0
 11
695.0000022351696
 21
-694.9999999999715
 31
0.0
  0
LINE
  5
5FD
  8
DATA
  6
CONTINUOUS
 62
     7
 10
1015.000002235174
 20
-595.000000000001
 30
0.0
 11
1015.00000223517
 21
-694.9999999999715
 31
0.0
  0
LINE
  5
5FE
  8
DATA
  6
CONTINUOUS
 62
     7
 10
707.5000022351742
 20
-1000.000000000002
 30
0.0
 11
682.5000022351742
 21
-1000.000000000002
 31
0.0
  0
LINE
  5
5FF
  8
DATA
  6
CONTINUOUS
 62
     7
 10
682.5000022351742
 20
-1000.000000000002
 30
0.0
 11
695.0000022351742
 21
-985.0000000000022
 31
0.0
  0
LINE
  5
600
  8
DATA
  6
CONTINUOUS
 62
     7
 10
707.5000022351742
 20
-1000.000000000002
 30
0.0
 11
695.0000022351742
 21
-985.0000000000022
 31
0.0
  0
LINE
  5
601
  8
DATA
  6
CONTINUOUS
 62
     7
 10
1027.500002235174
 20
-1000.000000000002
 30
0.0
 11
1002.500002235174
 21
-1000.000000000002
 31
0.0
  0
LINE
  5
602
  8
DATA
  6
CONTINUOUS
 62
     7
 10
1002.500002235174
 20
-1000.000000000002
 30
0.0
 11
1015.000002235174
 21
-985.0000000000022
 31
0.0
  0
LINE
  5
603
  8
DATA
  6
CONTINUOUS
 62
     7
 10
1027.500002235174
 20
-1000.000000000002
 30
0.0
 11
1015.000002235174
 21
-985.0000000000022
 31
0.0
  0
LINE
  5
604
  8
DATA
  6
CONTINUOUS
 62
     7
 10
1347.500002235174
 20
-1000.000000000002
 30
0.0
 11
1322.500002235174
 21
-1000.000000000002
 31
0.0
  0
LINE
  5
605
  8
DATA
  6
CONTINUOUS
 62
     7
 10
1322.500002235174
 20
-1000.000000000002
 30
0.0
 11
1335.000002235174
 21
-985.0000000000022
 31
0.0
  0
LINE
  5
606
  8
DATA
  6
CONTINUOUS
 62
     7
 10
1347.500002235174
 20
-1000.000000000002
 30
0.0
 11
1335.000002235174
 21
-985.0000000000022
 31
0.0
  0
ARC
  5
607
  8
DATA
  6
CONTINUOUS
 62
     7
 10
625.0
 20
-1725.000000000001
 30
0.0
 40
625.0
 50
53.13010235415597
 51
126.869897645844
  0
ARC
  5
608
  8
DATA
  6
CONTINUOUS
 62
     7
 10
1375.0
 20
-725.000000000001
 30
0.0
 40
624.9999999999999
 50
233.130102354156
 51
306.869897645844
  0
LINE
  5
609
  8
DATA
  6
______-8
 62
     7
 10
-1300.0
 20
-375.0
 30
0.0
 11
-1300.0
 21
-750.0
 31
0.0
  0
LINE
  5
60A
  8
DATA
  6
______-8
 62
     7
 10
-1300.0
 20
-900.0
 30
0.0
 11
-1300.0
 21
-1500.0
 31
0.0
  0
LINE
  5
60B
  8
DATA
  6
______-8
 62
     7
 10
-1300.0
 20
-1975.0
 30
0.0
 11
-1300.0
 21
-1625.0
 31
0.0
  0
LINE
  5
60C
  8
DATA
  6
______-8
 62
     7
 10
-400.0000000000001
 20
-1500.0
 30
0.0
 11
-400.0
 21
-900.0
 31
0.0
  0
LINE
  5
60D
  8
DATA
  6
CONTINUOUS
 62
     7
 10
-1365.480263744021
 20
-1494.994
 30
0.0
 11
-1365.480263744021
 21
-1492.0
 31
0.0
  0
LINE
  5
60E
  8
DATA
  6
CONTINUOUS
 62
     7
 10
-1234.519736255979
 20
-1494.994
 30
0.0
 11
-1234.519736255979
 21
-1492.0
 31
0.0
  0
LINE
  5
60F
  8
DATA
  6
CONTINUOUS
 62
     7
 10
-465.4802637440214
 20
-1494.994
 30
0.0
 11
-465.4802637440214
 21
-1492.0
 31
0.0
  0
LINE
  5
610
  8
DATA
  6
CONTINUOUS
 62
     7
 10
-334.5197362559786
 20
-1494.994
 30
0.0
 11
-334.5197362559786
 21
-1492.0
 31
0.0
  0
LINE
  5
611
  8
DATA
  6
CONTINUOUS
 62
     7
 10
-1050.0
 20
-930.5
 30
0.0
 11
-1050.0
 21
-925.0
 31
0.0
  0
ARC
  5
612
  8
DATA
  6
CONTINUOUS
 62
     7
 10
-997.6250000000008
 20
-936.6250000000003
 30
0.0
 40
53.64961556246165
 50
147.7540580049552
 51
167.4856718911243
  0
LINE
  5
613
  8
DATA
  6
CONTINUOUS
 62
     7
 10
-1050.0
 20
-925.0
 30
0.0
 11
-747.5
 21
-934.4999999999998
 31
0.0
  0
LINE
  5
614
  8
DATA
  6
CONTINUOUS
 62
     7
 10
-1050.0
 20
-1461.5
 30
0.0
 11
-1050.0
 21
-1467.0
 31
0.0
  0
ARC
  5
615
  8
DATA
  6
CONTINUOUS
 62
     7
 10
-997.6249999999994
 20
-1455.375
 30
0.0
 40
53.64961556246293
 50
192.5143281088753
 51
212.2459419950439
  0
LINE
  5
616
  8
DATA
  6
CONTINUOUS
 62
     7
 10
-747.5
 20
-1452.0
 30
0.0
 11
-1050.0
 21
-1467.0
 31
0.0
  0
LINE
  5
617
  8
DATA
  6
CONTINUOUS
 62
     7
 10
-469.9999999999999
 20
-908.5947775151503
 30
0.0
 11
-329.9999999999999
 21
-908.5947775151503
 31
0.0
  0
LINE
  5
618
  8
DATA
  6
CONTINUOUS
 62
     7
 10
-492.5000002235172
 20
-934.5
 30
0.0
 11
-307.5000002235175
 21
-934.0732896955712
 31
0.0
  0
ARC
  5
619
  8
DATA
  6
CONTINUOUS
 62
     7
 10
-461.0044260208972
 20
-1043.928431422494
 30
0.0
 40
135.6322905178789
 50
93.80283361757837
 51
108.9276467586633
  0
ARC
  5
61A
  8
DATA
  6
CONTINUOUS
 62
     7
 10
-338.9955739791028
 20
-1043.928431422494
 30
0.0
 40
135.6322905178789
 50
71.07235324133676
 51
86.19716638242164
  0
TEXT
  5
61B
  8
DATA
 62
     7
 10
1243.764650672674
 20
153.7529296874967
 30
0.0
 40
32.494140625
  1
POWER
 51
0.7
 72
     1
 11
1325.000002235174
 21
169.9999999999967
 31
0.0
 73
     2
  0
TEXT
  5
61C
  8
DATA
 62
     7
 10
1189.607749631007
 20
-23.7470703125033
 30
0.0
 40
32.494140625
  1
MAIN/MEMU
 51
0.7
 72
     1
 11
1325.000002235174
 21
-7.500000000003297
 31
0.0
 73
     2
  0
TEXT
  5
61D
  8
DATA
 62
     7
 10
1265.427411089341
 20
-357.7470703125019
 30
0.0
 40
32.494140625
  1
BACK
 51
0.7
 72
     1
 11
1325.000002235174
 21
-341.5000000000019
 31
0.0
 73
     2
  0
TEXT
  5
61E
  8
DATA
 62
     7
 10
1380.011720985174
 20
-357.7470703125019
 30
0.0
 40
32.494140625
  1
LIMIT
 51
0.7
 72
     1
 11
1445.000002235174
 21
-341.5000000000019
 31
0.0
 73
     2
  0
TEXT
  5
61F
  8
DATA
 62
     7
 10
581.2705100476742
 20
-361.2470703125033
 30
0.0
 40
32.494140625
  1
SIG/CLIP
 51
0.7
 72
     1
 11
695.0000022351742
 21
-345.0000000000033
 31
0.0
 73
     2
  0
TEXT
  5
620
  8
DATA
 62
     7
 10
901.2705100476742
 20
-361.2470703125033
 30
0.0
 40
32.494140625
  1
SIG/CLIP
 51
0.7
 72
     1
 11
1015.000002235174
 21
-345.0000000000033
 31
0.0
 73
     2
  0
TEXT
  5
621
  8
DATA
 62
     7
 10
640.8431011935076
 20
-451.2470703125033
 30
0.0
 40
32.494140625
  1
GAIN
 51
0.7
 72
     1
 11
695.0000022351742
 21
-435.0000000000033
 31
0.0
 73
     2
  0
TEXT
  5
622
  8
DATA
 62
     7
 10
960.8431011935076
 20
-451.2470703125033
 30
0.0
 40
32.494140625
  1
GAIN
 51
0.7
 72
     1
 11
1015.000002235174
 21
-435.0000000000033
 31
0.0
 73
     2
  0
TEXT
  5
623
  8
DATA
 62
     7
 10
657.0901715060076
 20
-1046.247070312503
 30
0.0
 40
32.494140625
  1
CH1
 51
0.7
 72
     1
 11
695.0000022351742
 21
-1030.000000000003
 31
0.0
 73
     2
  0
TEXT
  5
624
  8
DATA
 62
     7
 10
971.6744814018408
 20
-1046.247070312503
 30
0.0
 40
32.494140625
  1
CH2
 51
0.7
 72
     1
 11
1015.000002235174
 21
-1030.000000000003
 31
0.0
 73
     2
  0
TEXT
  5
625
  8
DATA
 62
     7
 10
1200.690887651841
 20
-1046.247070312503
 30
0.0
 40
32.494140625
  1
PASS THRU
 51
0.7
 72
     1
 11
1335.000002235174
 21
-1030.000000000003
 31
0.0
 73
     2
  0
ARC
  5
626
  8
DATA
  6
CONTINUOUS
 62
     7
 10
-503.4079853220342
 20
-1445.301645534758
 30
0.0
 40
56.65051012500469
 50
200.4159167827571
 51
220.4600710481751
  0
ARC
  5
627
  8
DATA
  6
CONTINUOUS
 62
     7
 10
-296.5920151250007
 20
-1445.301645534758
 30
0.0
 40
56.65051012500465
 50
319.5399289518249
 51
339.5840832172429
  0
ARC
  5
628
  8
DATA
  6
CONTINUOUS
 62
     7
 10
-503.4079853220342
 20
-945.9881869739081
 30
0.0
 40
56.65051012500465
 50
139.5399289518249
 51
159.5840832172429
  0
ARC
  5
629
  8
DATA
  6
CONTINUOUS
 62
     7
 10
-296.5920151250007
 20
-945.9881869739081
 30
0.0
 40
56.65051012500469
 50
20.41591678275704
 51
40.46007104817508
  0
VIEWPORT
  5
62A
 67
     1
  8
0
 10
128.5
 20
97.5
 30
0.0
 40
314.226
 41
222.18
 68
     1
 69
     1
1001
ACAD
1000
MVIEW
1002
{
1070
    16
1010
0.0
1020
0.0
1030
0.0
1020
0.0
1030
0.0
1010
0.0
1020
0.0
1030
1.0
1020
0.0
1030
1.0
1040
0.0
1040
222.18
1040
128.5
1040
97.5
1040
50.0
1040
0.0
1040
0.0
1070
     0
1070
   100
1070
     0
1070
     3
1070
     0
1070
     0
1070
     0
1070
     0
1040
0.0
1040
0.0
1040
0.0
1040
10.0
1040
10.0
1040
10.0
1040
10.0
1070
     0
1002
{
1002
}
1002
}
  0
ENDSEC
  0
EOF
