  0
SECTION
  2
HEADER
  9
$ACADVER
  1
AC1009
  9
$DWGCODEPAGE
  3
ansi_932
  9
$INSBASE
 10
0.0
 20
0.0
 30
0.0
  9
$EXTMIN
 10
-1800.0
 20
-2685.008451078124
 30
0.0
  9
$EXTMAX
 10
1800.0
 20
2667.104485
 30
0.0
  9
$LIMMIN
 10
0.0
 20
0.0
  9
$LIMMAX
 10
12.0
 20
9.0
  9
$ORTHOMODE
 70
     0
  9
$REGENMODE
 70
     1
  9
$FILLMODE
 70
     1
  9
$QTEXTMODE
 70
     0
  9
$MIRRTEXT
 70
     1
  9
$DRAGMODE
 70
     2
  9
$LTSCALE
 40
254.0
  9
$OSMODE
 70
  1191
  9
$ATTMODE
 70
     1
  9
$TEXTSIZE
 40
0.2
  9
$TRACEWID
 40
1.0
  9
$TEXTSTYLE
  7
STANDARD
  9
$CLAYER
  8
DATA
  9
$CELTYPE
  6
BYLAYER
  9
$CECOLOR
 62
   256
  9
$DIMSCALE
 40
1.0
  9
$DIMASZ
 40
0.18
  9
$DIMEXO
 40
0.0625
  9
$DIMDLI
 40
0.38
  9
$DIMRND
 40
0.0
  9
$DIMDLE
 40
0.0
  9
$DIMEXE
 40
0.18
  9
$DIMTP
 40
0.0
  9
$DIMTM
 40
0.0
  9
$DIMTXT
 40
0.18
  9
$DIMCEN
 40
0.09
  9
$DIMTSZ
 40
0.0
  9
$DIMTOL
 70
     0
  9
$DIMLIM
 70
     0
  9
$DIMTIH
 70
     1
  9
$DIMTOH
 70
     1
  9
$DIMSE1
 70
     0
  9
$DIMSE2
 70
     0
  9
$DIMTAD
 70
     0
  9
$DIMZIN
 70
     0
  9
$DIMBLK
  1

  9
$DIMASO
 70
     1
  9
$DIMSHO
 70
     1
  9
$DIMPOST
  1

  9
$DIMAPOST
  1

  9
$DIMALT
 70
     0
  9
$DIMALTD
 70
     2
  9
$DIMALTF
 40
25.4
  9
$DIMLFAC
 40
1.0
  9
$DIMTOFL
 70
     0
  9
$DIMTVP
 40
0.0
  9
$DIMTIX
 70
     0
  9
$DIMSOXD
 70
     0
  9
$DIMSAH
 70
     0
  9
$DIMBLK1
  1

  9
$DIMBLK2
  1

  9
$DIMSTYLE
  2
STANDARD
  9
$DIMCLRD
 70
     0
  9
$DIMCLRE
 70
     0
  9
$DIMCLRT
 70
     0
  9
$DIMTFAC
 40
1.0
  9
$DIMGAP
 40
0.09
  9
$LUNITS
 70
     2
  9
$LUPREC
 70
     2
  9
$SKETCHINC
 40
0.1
  9
$FILLETRAD
 40
0.5
  9
$AUNITS
 70
     0
  9
$AUPREC
 70
     1
  9
$MENU
  1
.
  9
$ELEVATION
 40
0.0
  9
$PELEVATION
 40
0.0
  9
$THICKNESS
 40
0.0
  9
$LIMCHECK
 70
     0
  9
$CHAMFERA
 40
0.0
  9
$CHAMFERB
 40
0.0
  9
$SKPOLY
 70
     0
  9
$TDCREATE
 40
2459836.476068357
  9
$TDUPDATE
 40
2459836.476716759
  9
$TDINDWG
 40
2459836.101717199
  9
$TDUSRTIMER
 40
0.0006488426
  9
$USRTIMER
 70
     1
  9
$ANGBASE
 50
0.0
  9
$ANGDIR
 70
     0
  9
$PDMODE
 70
     1
  9
$PDSIZE
 40
-2.0
  9
$PLINEWID
 40
0.0
  9
$COORDS
 70
     0
  9
$SPLFRAME
 70
     0
  9
$SPLINETYPE
 70
     6
  9
$SPLINESEGS
 70
     8
  9
$ATTDIA
 70
     1
  9
$ATTREQ
 70
     1
  9
$HANDLING
 70
     1
  9
$HANDSEED
  5
77E
  9
$SURFTAB1
 70
     6
  9
$SURFTAB2
 70
     6
  9
$SURFTYPE
 70
     6
  9
$SURFU
 70
     6
  9
$SURFV
 70
     6
  9
$UCSNAME
  2

  9
$UCSORG
 10
0.0
 20
0.0
 30
0.0
  9
$UCSXDIR
 10
1.0
 20
0.0
 30
0.0
  9
$UCSYDIR
 10
0.0
 20
1.0
 30
0.0
  9
$PUCSNAME
  2

  9
$PUCSORG
 10
0.0
 20
0.0
 30
0.0
  9
$PUCSXDIR
 10
1.0
 20
0.0
 30
0.0
  9
$PUCSYDIR
 10
0.0
 20
1.0
 30
0.0
  9
$USERI1
 70
     0
  9
$USERI2
 70
     0
  9
$USERI3
 70
     0
  9
$USERI4
 70
     0
  9
$USERI5
 70
     0
  9
$USERR1
 40
0.0
  9
$USERR2
 40
0.0
  9
$USERR3
 40
0.0
  9
$USERR4
 40
0.0
  9
$USERR5
 40
0.0
  9
$WORLDVIEW
 70
     1
  9
$SHADEDGE
 70
     3
  9
$SHADEDIF
 70
    70
  9
$TILEMODE
 70
     1
  9
$MAXACTVP
 70
    64
  9
$PLIMCHECK
 70
     0
  9
$PEXTMIN
 10
1.000000000000000E+20
 20
1.000000000000000E+20
 30
1.000000000000000E+20
  9
$PEXTMAX
 10
-1.000000000000000E+20
 20
-1.000000000000000E+20
 30
-1.000000000000000E+20
  9
$PLIMMIN
 10
-20.0
 20
-7.5
  9
$PLIMMAX
 10
277.0
 20
202.5
  9
$UNITMODE
 70
     0
  9
$VISRETAIN
 70
     1
  9
$PLINEGEN
 70
     0
  9
$PSLTSCALE
 70
     1
  0
ENDSEC
  0
SECTION
  2
TABLES
  0
TABLE
  2
VPORT
 70
     1
  0
VPORT
  2
*ACTIVE
 70
     0
 10
0.0
 20
0.0
 11
1.0
 21
1.0
 12
0.0000000000002274
 22
-3.531814999999369
 13
0.0
 23
0.0
 14
0.5
 24
0.5
 15
0.5
 25
0.5
 16
0.0
 26
0.0
 36
1.0
 17
0.0
 27
0.0
 37
0.0
 40
5341.2726
 41
2.443378119001919
 42
2000.0
 43
0.0
 44
0.0
 50
0.0
 51
0.0
 71
     0
 72
   100
 73
     1
 74
     3
 75
     0
 76
     0
 77
     0
 78
     0
  0
ENDTAB
  0
TABLE
  2
LTYPE
 70
    12
  0
LTYPE
  2
CONTINUOUS
 70
     0
  3
Solid line
 72
    65
 73
     0
 40
0.0
  0
LTYPE
  2
______-8
 70
     0
  3

 72
    65
 73
     6
 40
0.5
 49
0.25
 49
-0.08331298828125
 49
0.02777099609375
 49
-0.055572509765625
 49
0.02777099609375
 49
-0.055572509765625
  0
LTYPE
  2
______-12
 70
     0
  3

 72
    65
 73
     4
 40
2.182677165354331
 49
1.364173228346457
 49
-0.2728346456692914
 49
0.2728346456692914
 49
-0.2728346456692914
  0
ENDTAB
  0
TABLE
  2
LAYER
 70
     5
  0
LAYER
  2
0
 70
     0
 62
     7
  6
CONTINUOUS
  0
LAYER
  2
HIBINO-BASE
 70
     0
 62
     7
  6
CONTINUOUS
  0
LAYER
  2
SPEC
 70
     0
 62
     7
  6
CONTINUOUS
  0
LAYER
  2
DIMNSIONS
 70
     0
 62
     7
  6
CONTINUOUS
  0
LAYER
  2
DATA
 70
     0
 62
     7
  6
CONTINUOUS
  0
ENDTAB
  0
TABLE
  2
STYLE
 70
     2
  0
STYLE
  2
STANDARD
 70
     0
 40
0.0
 41
1.0
 50
0.0
 71
     0
 42
0.2
  3
txt
  4
BIGFONT.SHX
  0
ENDTAB
  0
TABLE
  2
VIEW
 70
     0
  0
ENDTAB
  0
TABLE
  2
UCS
 70
     0
  0
ENDTAB
  0
TABLE
  2
APPID
 70
     4
  0
APPID
  2
ACAD
 70
     0
  0
APPID
  2
ACAECLAYERSTANDARD
 70
     0
  0
APPID
  2
ACAD_MLEADERVER
 70
     0
  0
APPID
  2
ACADANNOPO
 70
     0
  0
ENDTAB
  0
TABLE
  2
DIMSTYLE
 70
     1
  0
DIMSTYLE
  2
STANDARD
 70
     0
  3

  4

  5

  6

  7

 40
1.0
 41
0.18
 42
0.0625
 43
0.38
 44
0.18
 45
0.0
 46
0.0
 47
0.0
 48
0.0
140
0.18
141
0.09
142
0.0
143
25.4
144
1.0
145
0.0
146
1.0
147
0.09
 71
     0
 72
     0
 73
     1
 74
     1
 75
     0
 76
     0
 77
     0
 78
     0
170
     0
171
     2
172
     0
173
     0
174
     0
175
     0
176
     0
177
     0
178
     0
  0
ENDTAB
  0
ENDSEC
  0
SECTION
  2
BLOCKS
  0
BLOCK
  8
DATA
  2
$MODEL_SPACE
 70
     0
 10
0.0
 20
0.0
 30
0.0
  3
$MODEL_SPACE
  1

  0
ENDBLK
  5
68C
  8
DATA
  0
BLOCK
 67
     1
  8
DATA
  2
$PAPER_SPACE
 70
     0
 10
0.0
 20
0.0
 30
0.0
  3
$PAPER_SPACE
  1

  0
ENDBLK
  5
68A
 67
     1
  8
DATA
  0
ENDSEC
  0
SECTION
  2
ENTITIES
  0
LINE
  5
80
  8
HIBINO-BASE
  6
CONTINUOUS
 62
     7
 10
-1800.0
 20
2667.104485
 30
0.0
 11
1800.0
 21
2667.104485
 31
0.0
  0
LINE
  5
81
  8
HIBINO-BASE
  6
CONTINUOUS
 62
     7
 10
1800.0
 20
-2532.895514999999
 30
0.0
 11
-1800.0
 21
-2532.895514999999
 31
0.0
  0
LINE
  5
82
  8
HIBINO-BASE
  6
CONTINUOUS
 62
     7
 10
-1800.0
 20
-2532.895514999999
 30
0.0
 11
-1800.0
 21
2667.104485
 31
0.0
  0
LINE
  5
83
  8
HIBINO-BASE
  6
CONTINUOUS
 62
     7
 10
1800.0
 20
2667.104485
 30
0.0
 11
1800.0
 21
-2532.895514999999
 31
0.0
  0
LINE
  5
84
  8
HIBINO-BASE
  6
CONTINUOUS
 62
     7
 10
0.0000000000002842
 20
-2082.895514999999
 30
0.0
 11
1800.0
 21
-2082.895514999999
 31
0.0
  0
LINE
  5
85
  8
HIBINO-BASE
  6
CONTINUOUS
 62
     7
 10
0.0000000000002842
 20
-2532.895514999999
 30
0.0
 11
0.0000000000002842
 21
-2082.895514999999
 31
0.0
  0
TEXT
  5
86
  8
HIBINO-BASE
 62
     7
 10
18.0000000000004
 20
-2133.069381666666
 30
0.0
 40
32.49414062499999
  1
NOTE
 41
0.7
 11
18.0000000000004
 21
-2100.575241041666
 31
0.0
 73
     3
  0
LINE
  5
87
  8
HIBINO-BASE
  6
CONTINUOUS
 62
     7
 10
700.0000000000002
 20
-2532.895514999999
 30
0.0
 11
700.0000000000002
 21
-2082.895514999999
 31
0.0
  0
TEXT
  5
88
  8
HIBINO-BASE
 62
     7
 10
717.9999999999998
 20
-2133.069381666666
 30
0.0
 40
32.49414062499999
  1
TITLE
 41
0.7
 11
717.9999999999998
 21
-2100.575241041666
 31
0.0
 73
     3
  0
LINE
  5
89
  8
HIBINO-BASE
  6
CONTINUOUS
 62
     7
 10
0.0000000000002842
 20
-2332.895514999999
 30
0.0
 11
1800.0
 21
-2332.895514999999
 31
0.0
  0
TEXT
  5
8A
  8
HIBINO-BASE
 62
     7
 10
967.9999999999998
 20
-2381.942981666667
 30
0.0
 40
32.49414062499999
  1
DRAWN
 41
0.7
 11
967.9999999999998
 21
-2349.448841041667
 31
0.0
 73
     3
  0
TEXT
  5
8B
  8
HIBINO-BASE
 62
     7
 10
467.9999999999998
 20
-2381.942981666667
 30
0.0
 40
32.49414062499999
  1
DATE
 41
0.7
 11
467.9999999999998
 21
-2349.448841041667
 31
0.0
 73
     3
  0
TEXT
  5
8C
  8
HIBINO-BASE
 62
     7
 10
267.9999999999998
 20
-2381.942981666667
 30
0.0
 40
32.49414062499999
  1
SCALE
 41
0.7
 11
267.9999999999998
 21
-2349.448841041667
 31
0.0
 73
     3
  0
TEXT
  5
8D
  8
HIBINO-BASE
 62
     7
 10
717.9999999999998
 20
-2381.942981666667
 30
0.0
 40
32.49414062499999
  1
DESIGN
 41
0.7
 11
717.9999999999998
 21
-2349.448841041667
 31
0.0
 73
     3
  0
TEXT
  5
8E
  8
HIBINO-BASE
 62
     7
 10
1468.0
 20
-2381.942981666667
 30
0.0
 40
32.49414062499999
  1
DRAWING NO.
 41
0.7
 11
1468.0
 21
-2349.448841041667
 31
0.0
 73
     3
  0
TEXT
  5
8F
  8
HIBINO-BASE
 62
     7
 10
1218.0
 20
-2381.942981666667
 30
0.0
 40
32.49414062499999
  1
CHECK
 41
0.7
 11
1218.0
 21
-2349.448841041667
 31
0.0
 73
     3
  0
LINE
  5
90
  8
HIBINO-BASE
  6
CONTINUOUS
 62
     7
 10
287.5000000000003
 20
-2507.895514999999
 30
0.0
 11
362.5000000000003
 21
-2432.895514999999
 31
0.0
  0
TEXT
  5
91
  8
HIBINO-BASE
 62
     7
 10
275.0000000000003
 20
-2455.074381666666
 30
0.0
 40
32.49414062499999
  1
1
 41
0.7
 11
275.0000000000003
 21
-2422.580241041666
 31
0.0
 73
     3
  0
LINE
  5
92
  8
HIBINO-BASE
  6
CONTINUOUS
 62
     7
 10
250.0000000000003
 20
-2532.895514999999
 30
0.0
 11
250.0000000000003
 21
-2332.895514999999
 31
0.0
  0
LINE
  5
93
  8
HIBINO-BASE
  6
CONTINUOUS
 62
     7
 10
449.9999999999997
 20
-2532.895514999999
 30
0.0
 11
449.9999999999997
 21
-2332.895514999999
 31
0.0
  0
LINE
  5
94
  8
HIBINO-BASE
  6
CONTINUOUS
 62
     7
 10
949.9999999999998
 20
-2332.895514999999
 30
0.0
 11
949.9999999999998
 21
-2532.895514999999
 31
0.0
  0
LINE
  5
95
  8
HIBINO-BASE
  6
CONTINUOUS
 62
     7
 10
1450.0
 20
-2332.895514999999
 30
0.0
 11
1450.0
 21
-2532.895514999999
 31
0.0
  0
LINE
  5
96
  8
HIBINO-BASE
  6
CONTINUOUS
 62
     7
 10
1200.0
 20
-2532.895514999999
 30
0.0
 11
1200.0
 21
-2332.895514999999
 31
0.0
  0
TEXT
  5
97
  8
HIBINO-BASE
 62
     7
 10
467.1308000000002
 20
-2475.622581666666
 30
0.0
 40
32.49414062499999
  1
'22.09.
 41
0.7
 11
467.1308000000002
 21
-2443.128441041666
 31
0.0
 73
     3
  0
TEXT
  5
98
  8
HIBINO-BASE
 62
     7
 10
350.0000000000003
 20
-2492.574381666666
 30
0.0
 40
32.49414062499999
  1
20
 41
0.7
 11
350.0000000000003
 21
-2460.080241041666
 31
0.0
 73
     3
  0
TEXT
  5
99
  8
HIBINO-BASE
 62
     7
 10
980.1162002206925
 20
-2475.622581666666
 30
0.0
 40
32.49414062499999
  1
N.Sasaki
 41
0.7
 11
980.1162002206925
 21
-2443.128441041666
 31
0.0
 73
     3
  0
TEXT
  5
9A
  8
HIBINO-BASE
 62
     7
 10
77.66666666666737
 20
-2493.375514999999
 30
0.0
 40
64.98828124999999
  1
A4
 41
0.7
 11
77.66666666666737
 21
-2428.387233749999
 31
0.0
 73
     3
  0
TEXT
  5
9B
  8
HIBINO-BASE
 62
     7
 10
19.16666666666657
 20
-2385.284615
 30
0.0
 40
32.49414062499999
  1
PAPER SIZE
 41
0.7
 11
19.16666666666657
 21
-2352.790474375
 31
0.0
 73
     3
  0
TEXT
  5
9C
  8
HIBINO-BASE
 62
     7
 10
-1656.319999999999
 20
-2661.069070999999
 30
0.0
 40
71.81814023437498
  1
Hibino Corporation
 41
0.7
 11
-1656.319999999999
 21
-2589.250930765624
 31
0.0
 73
     3
  0
TEXT
  5
9D
  8
HIBINO-BASE
 62
     7
 10
1001.3678
 20
-2661.069070999999
 30
0.0
 40
71.81814023437498
  1
ヒビノ株式会社
 41
0.7
 11
1001.3678
 21
-2589.250930765624
 31
0.0
 73
     3
  0
TEXT
  5
9E
  8
SPEC
 62
     7
 10
-1625.0
 20
2494.969885
 30
0.0
 40
48.74121093749999
  1
仕様
 41
0.7
 11
-1625.0
 21
2543.7110959375
 31
0.0
 73
     3
  0
LINE
  5
9F
  8
SPEC
  6
CONTINUOUS
 62
     7
 10
-1650.0
 20
2467.104485000001
 30
0.0
 11
1299.99999992625
 21
2467.104485000001
 31
0.0
  0
LINE
  5
A0
  8
SPEC
  6
CONTINUOUS
 62
     7
 10
-1650.0
 20
2392.104485001876
 30
0.0
 11
1299.99999992625
 21
2392.104485001876
 31
0.0
  0
LINE
  5
A1
  8
SPEC
  6
CONTINUOUS
 62
     7
 10
-1650.0
 20
892.104485039376
 30
0.0
 11
1299.99999992625
 21
892.104485039376
 31
0.0
  0
LINE
  5
A2
  8
SPEC
  6
CONTINUOUS
 62
     7
 10
-1650.0
 20
2467.104485000001
 30
0.0
 11
-1650.0
 21
892.1044850393762
 31
0.0
  0
LINE
  5
A3
  8
SPEC
  6
CONTINUOUS
 62
     7
 10
-800.0000000412497
 20
2467.104485000001
 30
0.0
 11
-800.0000000412497
 21
892.1044850393762
 31
0.0
  0
LINE
  5
A4
  8
SPEC
  6
CONTINUOUS
 62
     7
 10
1299.99999992625
 20
2467.104485000001
 30
0.0
 11
1299.99999992625
 21
892.1044850393762
 31
0.0
  0
TEXT
  5
A5
  8
SPEC
 62
     7
 10
-1632.00000000045
 20
907.8628405945377
 30
0.0
 40
37.90983072821892
  1
付属品
 41
0.7
 11
-1632.00000000045
 21
945.7726713227567
 31
0.0
 73
     3
  0
TEXT
  5
A6
  8
SPEC
 62
     7
 10
-1632.00000000045
 20
1057.862840590788
 30
0.0
 40
37.90983072821892
  1
寸法(W×H×D)
 41
0.7
 11
-1632.00000000045
 21
1095.772671319007
 31
0.0
 73
     3
  0
TEXT
  5
A7
  8
SPEC
 62
     7
 10
-1632.00000000045
 20
982.8628405926626
 30
0.0
 40
37.90983072821892
  1
質量
 41
0.7
 11
-1632.00000000045
 21
1020.772671320881
 31
0.0
 73
     3
  0
LINE
  5
A8
  8
SPEC
  6
CONTINUOUS
 62
     7
 10
-1650.0
 20
2317.104485003751
 30
0.0
 11
1299.99999992625
 21
2317.104485003751
 31
0.0
  0
LINE
  5
A9
  8
SPEC
  6
CONTINUOUS
 62
     7
 10
-1650.0
 20
2242.104485005626
 30
0.0
 11
1299.99999992625
 21
2242.104485005626
 31
0.0
  0
LINE
  5
AA
  8
SPEC
  6
CONTINUOUS
 62
     7
 10
-1650.0
 20
2167.104485007501
 30
0.0
 11
1299.99999992625
 21
2167.104485007501
 31
0.0
  0
LINE
  5
AB
  8
SPEC
  6
CONTINUOUS
 62
     7
 10
-1225.00000004125
 20
2092.104485009376
 30
0.0
 11
1299.99999992625
 21
2092.104485009376
 31
0.0
  0
LINE
  5
AC
  8
SPEC
  6
CONTINUOUS
 62
     7
 10
-1650.0
 20
2017.104485011251
 30
0.0
 11
1299.99999992625
 21
2017.104485011251
 31
0.0
  0
LINE
  5
AD
  8
SPEC
  6
CONTINUOUS
 62
     7
 10
-1650.0
 20
1942.104485013126
 30
0.0
 11
1299.99999992625
 21
1942.104485013126
 31
0.0
  0
LINE
  5
AE
  8
SPEC
  6
CONTINUOUS
 62
     7
 10
-1650.0
 20
1867.104485015001
 30
0.0
 11
1299.99999992625
 21
1867.104485015001
 31
0.0
  0
LINE
  5
AF
  8
SPEC
  6
CONTINUOUS
 62
     7
 10
-1225.00000004125
 20
1792.104485016876
 30
0.0
 11
1299.99999992625
 21
1792.104485016876
 31
0.0
  0
LINE
  5
B0
  8
SPEC
  6
CONTINUOUS
 62
     7
 10
-1225.00000004125
 20
1717.104485018751
 30
0.0
 11
1299.99999992625
 21
1717.104485018751
 31
0.0
  0
LINE
  5
B1
  8
SPEC
  6
CONTINUOUS
 62
     7
 10
-1650.0
 20
1642.104485020626
 30
0.0
 11
1299.99999992625
 21
1642.104485020626
 31
0.0
  0
LINE
  5
B2
  8
SPEC
  6
CONTINUOUS
 62
     7
 10
-1650.0
 20
1567.104485022501
 30
0.0
 11
1299.99999992625
 21
1567.104485022501
 31
0.0
  0
LINE
  5
B3
  8
SPEC
  6
CONTINUOUS
 62
     7
 10
-1225.00000004125
 20
1492.104485024376
 30
0.0
 11
1299.99999992625
 21
1492.104485024376
 31
0.0
  0
LINE
  5
B4
  8
SPEC
  6
CONTINUOUS
 62
     7
 10
-1225.00000004125
 20
1417.104485026251
 30
0.0
 11
1299.99999992625
 21
1417.104485026251
 31
0.0
  0
LINE
  5
B5
  8
SPEC
  6
CONTINUOUS
 62
     7
 10
-1650.0
 20
1342.104485028126
 30
0.0
 11
1299.99999992625
 21
1342.104485028126
 31
0.0
  0
LINE
  5
B6
  8
SPEC
  6
CONTINUOUS
 62
     7
 10
-1650.0
 20
1267.104485030001
 30
0.0
 11
1299.99999992625
 21
1267.104485030001
 31
0.0
  0
LINE
  5
B7
  8
SPEC
  6
CONTINUOUS
 62
     7
 10
-1650.0
 20
1192.104485031876
 30
0.0
 11
1299.99999992625
 21
1192.104485031876
 31
0.0
  0
LINE
  5
B8
  8
SPEC
  6
CONTINUOUS
 62
     7
 10
-1650.0
 20
1117.104485033751
 30
0.0
 11
1299.99999992625
 21
1117.104485033751
 31
0.0
  0
LINE
  5
B9
  8
SPEC
  6
CONTINUOUS
 62
     7
 10
-1650.0
 20
1042.104485035626
 30
0.0
 11
1299.99999992625
 21
1042.104485035626
 31
0.0
  0
LINE
  5
BA
  8
SPEC
  6
CONTINUOUS
 62
     7
 10
-1650.0
 20
967.1044850375009
 30
0.0
 11
1299.99999992625
 21
967.1044850375009
 31
0.0
  0
TEXT
  5
BB
  8
SPEC
 62
     7
 10
-1632.00000000045
 20
2407.862840555976
 30
0.0
 40
37.90983072916666
  1
形式
 41
0.7
 11
-1632.00000000045
 21
2445.772671285142
 31
0.0
 73
     3
  0
TEXT
  5
BC
  8
SPEC
 62
     7
 10
-1632.00000000045
 20
2332.862840557851
 30
0.0
 40
37.90983072916666
  1
周波数レンジ(－10dB)^I
 41
0.7
 11
-1632.00000000045
 21
2370.772671287017
 31
0.0
 73
     3
  0
TEXT
  5
BD
  8
SPEC
 62
     7
 10
-1632.00000000045
 20
2257.862840559726
 30
0.0
 40
37.90983072916666
  1
指向角度(水平×垂直)^I
 41
0.7
 11
-1632.00000000045
 21
2295.772671288892
 31
0.0
 73
     3
  0
TEXT
  5
BE
  8
SPEC
 62
     7
 10
-1632.00000000045
 20
2182.8628405616
 30
0.0
 40
37.90983072916666
  1
最大音圧レベル
 41
0.7
 11
-1632.00000000045
 21
2220.772671290767
 31
0.0
 73
     3
  0
TEXT
  5
BF
  8
SPEC
 62
     7
 10
-1632.00000000045
 20
2107.862840563476
 30
0.0
 40
37.90983072916666
  1
ドライバー構成
 41
0.7
 11
-1632.00000000045
 21
2145.772671292642
 31
0.0
 73
     3
  0
TEXT
  5
C0
  8
SPEC
 62
     7
 10
-1207.0000000417
 20
2107.862840563476
 30
0.0
 40
37.90983072916666
  1
LF
 41
0.7
 11
-1207.0000000417
 21
2145.772671292642
 31
0.0
 73
     3
  0
TEXT
  5
C1
  8
SPEC
 62
     7
 10
-1207.0000000417
 20
2032.862840565351
 30
0.0
 40
37.90983072916666
  1
HF
 41
0.7
 11
-1207.0000000417
 21
2070.772671294517
 31
0.0
 73
     3
  0
LINE
  5
C2
  8
SPEC
  6
CONTINUOUS
 62
     7
 10
-1225.00000004125
 20
2167.104485007501
 30
0.0
 11
-1225.00000004125
 21
2017.104485011251
 31
0.0
  0
LINE
  5
C3
  8
SPEC
  6
CONTINUOUS
 62
     7
 10
-1225.00000004125
 20
1867.104485015001
 30
0.0
 11
-1225.00000004125
 21
1342.104485028126
 31
0.0
  0
TEXT
  5
C4
  8
SPEC
 62
     7
 10
-1632.00000000045
 20
1957.862840567225
 30
0.0
 40
37.90983072916666
  1
クロスオーバー周波数
 41
0.7
 11
-1632.00000000045
 21
1995.772671296392
 31
0.0
 73
     3
  0
TEXT
  5
C5
  8
SPEC
 62
     7
 10
-1632.00000000045
 20
1882.8628405691
 30
0.0
 40
37.90983072916666
  1
パワーアンプ
 41
0.7
 11
-1632.00000000045
 21
1920.772671298267
 31
0.0
 73
     3
  0
TEXT
  5
C6
  8
SPEC
 62
     7
 10
-1632.00000000045
 20
1807.862840570975
 30
0.0
 40
37.90983072916666
  1
入力
 41
0.7
 11
-1632.00000000045
 21
1845.772671300142
 31
0.0
 73
     3
  0
TEXT
  5
C7
  8
SPEC
 62
     7
 10
-1632.00000000045
 20
1582.8628405766
 30
0.0
 40
37.90983072916666
  1
スルー出力
 41
0.7
 11
-1632.00000000045
 21
1620.772671305767
 31
0.0
 73
     3
  0
TEXT
  5
C8
  8
SPEC
 62
     7
 10
-1207.000000041701
 20
1807.862840570975
 30
0.0
 40
37.90983072916666
  1
チャンネル数
 41
0.7
 11
-1207.000000041701
 21
1845.772671300142
 31
0.0
 73
     3
  0
TEXT
  5
C9
  8
SPEC
 62
     7
 10
-1207.000000041701
 20
1732.86284057285
 30
0.0
 40
37.90983072916666
  1
端子・形式
 41
0.7
 11
-1207.000000041701
 21
1770.772671302017
 31
0.0
 73
     3
  0
TEXT
  5
CA
  8
SPEC
 62
     7
 10
-1207.000000041701
 20
1657.862840574725
 30
0.0
 40
37.90983072916666
  1
インピーダンス
 41
0.7
 11
-1207.000000041701
 21
1695.772671303892
 31
0.0
 73
     3
  0
TEXT
  5
CB
  8
SPEC
 62
     7
 10
-1632.00000000045
 20
1507.862840578475
 30
0.0
 40
37.90983072916666
  1
Bluetooth
 41
0.7
 11
-1632.00000000045
 21
1545.772671307642
 31
0.0
 73
     3
  0
TEXT
  5
CC
  8
SPEC
 62
     7
 10
-1207.0000000417
 20
1582.8628405766
 30
0.0
 40
37.90983072916666
  1
端子・形式
 41
0.7
 11
-1207.0000000417
 21
1620.772671305767
 31
0.0
 73
     3
  0
TEXT
  5
CD
  8
SPEC
 62
     7
 10
-1632.00000000045
 20
1282.8628405841
 30
0.0
 40
37.90983072916666
  1
電源
 41
0.7
 11
-1632.00000000045
 21
1320.772671313267
 31
0.0
 73
     3
  0
TEXT
  5
CE
  8
SPEC
 62
     7
 10
-1207.0000000417
 20
1507.862840578475
 30
0.0
 40
37.90983072916666
  1
通信方式
 41
0.7
 11
-1207.0000000417
 21
1545.772671307642
 31
0.0
 73
     3
  0
TEXT
  5
CF
  8
SPEC
 62
     7
 10
-1207.0000000417
 20
1432.86284058035
 30
0.0
 40
37.90983072916666
  1
最長通信距離
 41
0.7
 11
-1207.0000000417
 21
1470.772671309517
 31
0.0
 73
     3
  0
TEXT
  5
D0
  8
SPEC
 62
     7
 10
-1207.0000000417
 20
1357.862840582226
 30
0.0
 40
37.90983072916666
  1
対応コーデック
 41
0.7
 11
-1207.0000000417
 21
1395.772671311392
 31
0.0
 73
     3
  0
TEXT
  5
D1
  8
SPEC
 62
     7
 10
-1632.00000000045
 20
1207.862840585975
 30
0.0
 40
37.90983072916666
  1
消費電力
 41
0.7
 11
-1632.00000000045
 21
1245.772671315142
 31
0.0
 73
     3
  0
TEXT
  5
D2
  8
SPEC
 62
     7
 10
-1632.00000000045
 20
1132.86284058785
 30
0.0
 40
37.90983072916666
  1
エンクロージャー
 41
0.7
 11
-1632.00000000045
 21
1170.772671317017
 31
0.0
 73
     3
  0
TEXT
  5
D3
  8
SPEC
 62
     7
 10
-782.0000000416999
 20
2407.862840555976
 30
0.0
 40
37.90983072916666
  1
2-Wayパワード・フルレンジ
 41
0.7
 11
-782.0000000416999
 21
2445.772671285142
 31
0.0
 73
     3
  0
TEXT
  5
D4
  8
SPEC
 62
     7
 10
-782.0000000416999
 20
2332.862840557851
 30
0.0
 40
37.90983072916666
  1
50Hz～20kHz
 41
0.7
 11
-782.0000000416999
 21
2370.772671287017
 31
0.0
 73
     3
  0
TEXT
  5
D5
  8
SPEC
 62
     7
 10
-782.0000000416999
 20
2257.862840559726
 30
0.0
 40
37.90983072916666
  1
100°×60°
 41
0.7
 11
-782.0000000416999
 21
2295.772671288892
 31
0.0
 73
     3
  0
TEXT
  5
D6
  8
SPEC
 62
     7
 10
-782.0000000416999
 20
2182.8628405616
 30
0.0
 40
37.90983072916666
  1
127dB SPL
 41
0.7
 11
-782.0000000416999
 21
2220.772671290767
 31
0.0
 73
     3
  0
TEXT
  5
D7
  8
SPEC
 62
     7
 10
-782.0000000416999
 20
2107.862840563476
 30
0.0
 40
37.90983072916666
  1
12インチ(305mm)
 41
0.7
 11
-782.0000000416999
 21
2145.772671292642
 31
0.0
 73
     3
  0
TEXT
  5
D8
  8
SPEC
 62
     7
 10
-782.0000000416999
 20
2032.862840565351
 30
0.0
 40
37.90983072916666
  1
1インチ(25mm)
 41
0.7
 11
-782.0000000416999
 21
2070.772671294517
 31
0.0
 73
     3
  0
TEXT
  5
D9
  8
SPEC
 62
     7
 10
-782.0000000416999
 20
1957.862840567225
 30
0.0
 40
37.90983072916666
  1
2kHz
 41
0.7
 11
-782.0000000416999
 21
1995.772671296392
 31
0.0
 73
     3
  0
TEXT
  5
DA
  8
SPEC
 62
     7
 10
-782.0000000416999
 20
1882.8628405691
 30
0.0
 40
37.90983072916666
  1
1,300W(ピーク)
 41
0.7
 11
-782.0000000416999
 21
1920.772671298267
 31
0.0
 73
     3
  0
TEXT
  5
DB
  8
SPEC
 62
     7
 10
-782.0000000416999
 20
1807.862840570975
 30
0.0
 40
37.90983072916666
  1
3(2モノラル+Bluetooth)
 41
0.7
 11
-782.0000000416999
 21
1845.772671300142
 31
0.0
 73
     3
  0
TEXT
  5
DC
  8
SPEC
 62
     7
 10
-782.0000000416999
 20
1732.86284057285
 30
0.0
 40
37.90983072916666
  1
XLRと標準フォーンジャック(3P)対応の複合型端子×2
 41
0.7
 11
-782.0000000416999
 21
1770.772671302017
 31
0.0
 73
     3
  0
TEXT
  5
DD
  8
SPEC
 62
     7
 10
-782.0000000416999
 20
1657.862840574725
 30
0.0
 40
37.90983072916666
  1
50kΩ/100kΩ(アンバランス/バランス)
 41
0.7
 11
-782.0000000416999
 21
1695.772671303892
 31
0.0
 73
     3
  0
TEXT
  5
DE
  8
SPEC
 62
     7
 10
-782.0000000416999
 20
1582.8628405766
 30
0.0
 40
37.90983072916666
  1
XLR
 41
0.7
 11
-782.0000000416999
 21
1620.772671305767
 31
0.0
 73
     3
  0
TEXT
  5
DF
  8
SPEC
 62
     7
 10
-782.0000000416999
 20
1507.862840578475
 30
0.0
 40
37.90983072916666
  1
Bluetooth 5.0
 41
0.7
 11
-782.0000000416999
 21
1545.772671307642
 31
0.0
 73
     3
  0
TEXT
  5
E0
  8
SPEC
 62
     7
 10
-782.0000000416999
 20
1432.86284058035
 30
0.0
 40
37.90983072916666
  1
見通しの良い状態で約20ｍ
 41
0.7
 11
-782.0000000416999
 21
1470.772671309517
 31
0.0
 73
     3
  0
TEXT
  5
E1
  8
SPEC
 62
     7
 10
-782.0000000416999
 20
1357.862840582226
 30
0.0
 40
37.90983072916666
  1
SBC
 41
0.7
 11
-782.0000000416999
 21
1395.772671311392
 31
0.0
 73
     3
  0
TEXT
  5
E2
  8
SPEC
 62
     7
 10
-782.0000000416999
 20
1282.8628405841
 30
0.0
 40
37.90983072916666
  1
AC100V、50/60Hz
 41
0.7
 11
-782.0000000416999
 21
1320.772671313267
 31
0.0
 73
     3
  0
TEXT
  5
E3
  8
SPEC
 62
     7
 10
-782.0000000416999
 20
1207.862840585975
 30
0.0
 40
37.90983072916666
  1
最大500W
 41
0.7
 11
-782.0000000416999
 21
1245.772671315142
 31
0.0
 73
     3
  0
TEXT
  5
E4
  8
SPEC
 62
     7
 10
-782.0000000416999
 20
1132.86284058785
 30
0.0
 40
37.90983072916666
  1
ポリプロピレン+10％Talc、黒
 41
0.7
 11
-782.0000000416999
 21
1170.772671317017
 31
0.0
 73
     3
  0
TEXT
  5
E5
  8
SPEC
 62
     7
 10
-782.0000000416999
 20
982.862840589726
 30
0.0
 40
37.90983072916666
  1
15kg
 41
0.7
 11
-782.0000000416999
 21
1020.772671318893
 31
0.0
 73
     3
  0
TEXT
  5
E6
  8
SPEC
 62
     7
 10
-782.0000000416999
 20
907.8628405934759
 30
0.0
 40
37.90983072916666
  1
電源コード、和文取扱説明書
 41
0.7
 11
-782.0000000416999
 21
945.7726713226425
 31
0.0
 73
     3
  0
TEXT
  5
E7
  8
SPEC
 62
     7
 10
-782.0000000416999
 20
1057.862840589726
 30
0.0
 40
37.90983072916666
  1
382×669×324mm(除突起部)
 41
0.7
 11
-782.0000000416999
 21
1095.772671318893
 31
0.0
 73
     3
  0
TEXT
  5
E8
  8
DIMNSIONS
 62
     7
 10
-399.9999999999999
 20
-2287.505714999999
 30
0.0
 40
48.74121093749999
  1
(単位：mm)
 41
0.7
 11
-399.9999999999999
 21
-2238.764504062499
 31
0.0
 73
     3
  0
LINE
  5
E9
  8
DIMNSIONS
  6
CONTINUOUS
 62
     7
 10
-1492.25
 20
-1534.514068152032
 30
0.0
 11
-1545.0
 21
-1534.514068152032
 31
0.0
  0
LINE
  5
EA
  8
DIMNSIONS
  6
CONTINUOUS
 62
     7
 10
-1506.5
 20
-865.514068152032
 30
0.0
 11
-1545.0
 21
-865.514068152032
 31
0.0
  0
LINE
  5
EB
  8
DIMNSIONS
  6
CONTINUOUS
 62
     7
 10
-1525.0
 20
-1534.514068152032
 30
0.0
 11
-1525.0
 21
-865.514068152032
 31
0.0
  0
POLYLINE
  5
EC
  8
DIMNSIONS
  6
CONTINUOUS
 62
     7
 66
     1
 10
0.0
 20
0.0
 30
0.0
 70
   128
  0
VERTEX
  5
6C9
  8
DIMNSIONS
  6
CONTINUOUS
 62
     7
 10
-1514.282686475588
 20
-1494.516509558282
 30
0.0
  0
VERTEX
  5
6CA
  8
DIMNSIONS
  6
CONTINUOUS
 62
     7
 10
-1525.0
 20
-1534.514068152032
 30
0.0
  0
VERTEX
  5
6CB
  8
DIMNSIONS
  6
CONTINUOUS
 62
     7
 10
-1535.717313524412
 20
-1494.516509558282
 30
0.0
  0
SEQEND
  5
755
  8
DIMNSIONS
  6
CONTINUOUS
 62
     7
  0
POLYLINE
  5
F1
  8
DIMNSIONS
  6
CONTINUOUS
 62
     7
 66
     1
 10
0.0
 20
0.0
 30
0.0
 70
   128
  0
VERTEX
  5
6CC
  8
DIMNSIONS
  6
CONTINUOUS
 62
     7
 10
-1535.717313524412
 20
-905.511626745782
 30
0.0
  0
VERTEX
  5
6CD
  8
DIMNSIONS
  6
CONTINUOUS
 62
     7
 10
-1525.0
 20
-865.514068152032
 30
0.0
  0
VERTEX
  5
6CE
  8
DIMNSIONS
  6
CONTINUOUS
 62
     7
 10
-1514.282686475588
 20
-905.511626745782
 30
0.0
  0
SEQEND
  5
756
  8
DIMNSIONS
  6
CONTINUOUS
 62
     7
  0
TEXT
  5
F6
  8
DIMNSIONS
 62
     7
 10
-1544.877777777778
 20
-1252.930734818699
 30
0.0
 40
54.15690104166671
  1
669
 50
90.0
 41
0.7
 11
-1599.034678819444
 21
-1252.930734818699
 31
0.0
 73
     3
  0
LINE
  5
F7
  8
DIMNSIONS
  6
CONTINUOUS
 62
     7
 10
-1324.0
 20
-650.0
 30
0.0
 11
-1545.0
 21
-650.0
 31
0.0
  0
LINE
  5
F8
  8
DIMNSIONS
  6
CONTINUOUS
 62
     7
 10
-1396.114380733753
 20
-326.0
 30
0.0
 11
-1545.0
 21
-326.0
 31
0.0
  0
LINE
  5
F9
  8
DIMNSIONS
  6
CONTINUOUS
 62
     7
 10
-1525.0
 20
-650.0
 30
0.0
 11
-1525.0
 21
-326.0
 31
0.0
  0
POLYLINE
  5
FA
  8
DIMNSIONS
  6
CONTINUOUS
 62
     7
 66
     1
 10
0.0
 20
0.0
 30
0.0
 70
   128
  0
VERTEX
  5
6CF
  8
DIMNSIONS
  6
CONTINUOUS
 62
     7
 10
-1514.282686475588
 20
-610.00244140625
 30
0.0
  0
VERTEX
  5
6D0
  8
DIMNSIONS
  6
CONTINUOUS
 62
     7
 10
-1525.0
 20
-650.0
 30
0.0
  0
VERTEX
  5
6D1
  8
DIMNSIONS
  6
CONTINUOUS
 62
     7
 10
-1535.717313524412
 20
-610.00244140625
 30
0.0
  0
SEQEND
  5
757
  8
DIMNSIONS
  6
CONTINUOUS
 62
     7
  0
POLYLINE
  5
FF
  8
DIMNSIONS
  6
CONTINUOUS
 62
     7
 66
     1
 10
0.0
 20
0.0
 30
0.0
 70
   128
  0
VERTEX
  5
6D2
  8
DIMNSIONS
  6
CONTINUOUS
 62
     7
 10
-1535.717313524412
 20
-365.99755859375
 30
0.0
  0
VERTEX
  5
6D3
  8
DIMNSIONS
  6
CONTINUOUS
 62
     7
 10
-1525.0
 20
-326.0
 30
0.0
  0
VERTEX
  5
6D4
  8
DIMNSIONS
  6
CONTINUOUS
 62
     7
 10
-1514.282686475588
 20
-365.99755859375
 30
0.0
  0
SEQEND
  5
758
  8
DIMNSIONS
  6
CONTINUOUS
 62
     7
  0
TEXT
  5
104
  8
DIMNSIONS
 62
     7
 10
-1544.877777777778
 20
-540.9166666666667
 30
0.0
 40
54.15690104166671
  1
324
 50
90.0
 41
0.7
 11
-1599.034678819444
 21
-540.9166666666667
 31
0.0
 73
     3
  0
LINE
  5
105
  8
DIMNSIONS
  6
CONTINUOUS
 62
     7
 10
-1491.0
 20
-1531.014068152032
 30
0.0
 11
-1491.0
 21
-1670.0
 31
0.0
  0
LINE
  5
106
  8
DIMNSIONS
  6
CONTINUOUS
 62
     7
 10
-1109.0
 20
-1531.014068152032
 30
0.0
 11
-1109.0
 21
-1670.0
 31
0.0
  0
LINE
  5
107
  8
DIMNSIONS
  6
CONTINUOUS
 62
     7
 10
-1491.0
 20
-1650.0
 30
0.0
 11
-1109.0
 21
-1650.0
 31
0.0
  0
POLYLINE
  5
108
  8
DIMNSIONS
  6
CONTINUOUS
 62
     7
 66
     1
 10
0.0
 20
0.0
 30
0.0
 70
   128
  0
VERTEX
  5
6D5
  8
DIMNSIONS
  6
CONTINUOUS
 62
     7
 10
-1451.00244140625
 20
-1660.717313524412
 30
0.0
  0
VERTEX
  5
6D6
  8
DIMNSIONS
  6
CONTINUOUS
 62
     7
 10
-1491.0
 20
-1650.0
 30
0.0
  0
VERTEX
  5
6D7
  8
DIMNSIONS
  6
CONTINUOUS
 62
     7
 10
-1451.00244140625
 20
-1639.282686475588
 30
0.0
  0
SEQEND
  5
759
  8
DIMNSIONS
  6
CONTINUOUS
 62
     7
  0
POLYLINE
  5
10D
  8
DIMNSIONS
  6
CONTINUOUS
 62
     7
 66
     1
 10
0.0
 20
0.0
 30
0.0
 70
   128
  0
VERTEX
  5
6D8
  8
DIMNSIONS
  6
CONTINUOUS
 62
     7
 10
-1148.99755859375
 20
-1639.282686475588
 30
0.0
  0
VERTEX
  5
6D9
  8
DIMNSIONS
  6
CONTINUOUS
 62
     7
 10
-1109.0
 20
-1650.0
 30
0.0
  0
VERTEX
  5
6DA
  8
DIMNSIONS
  6
CONTINUOUS
 62
     7
 10
-1148.99755859375
 20
-1660.717313524412
 30
0.0
  0
SEQEND
  5
75A
  8
DIMNSIONS
  6
CONTINUOUS
 62
     7
  0
TEXT
  5
112
  8
DIMNSIONS
 62
     7
 10
-1352.916666666667
 20
-1630.122222222222
 30
0.0
 40
54.15690104166671
  1
382
 41
0.7
 11
-1352.916666666667
 21
-1575.965321180556
 31
0.0
 73
     3
  0
LINE
  5
113
  8
DIMNSIONS
  6
CONTINUOUS
 62
     7
 10
-1427.5
 20
-602.0
 30
0.0
 11
-1427.5
 21
-795.0
 31
0.0
  0
LINE
  5
114
  8
DIMNSIONS
  6
CONTINUOUS
 62
     7
 10
-1172.5
 20
-602.0
 30
0.0
 11
-1172.5
 21
-795.0
 31
0.0
  0
LINE
  5
115
  8
DIMNSIONS
  6
CONTINUOUS
 62
     7
 10
-1427.5
 20
-775.0
 30
0.0
 11
-1172.5
 21
-775.0
 31
0.0
  0
POLYLINE
  5
116
  8
DIMNSIONS
  6
CONTINUOUS
 62
     7
 66
     1
 10
0.0
 20
0.0
 30
0.0
 70
   128
  0
VERTEX
  5
6DB
  8
DIMNSIONS
  6
CONTINUOUS
 62
     7
 10
-1387.50244140625
 20
-785.7173135244118
 30
0.0
  0
VERTEX
  5
6DC
  8
DIMNSIONS
  6
CONTINUOUS
 62
     7
 10
-1427.5
 20
-775.0
 30
0.0
  0
VERTEX
  5
6DD
  8
DIMNSIONS
  6
CONTINUOUS
 62
     7
 10
-1387.50244140625
 20
-764.2826864755882
 30
0.0
  0
SEQEND
  5
75B
  8
DIMNSIONS
  6
CONTINUOUS
 62
     7
  0
POLYLINE
  5
11B
  8
DIMNSIONS
  6
CONTINUOUS
 62
     7
 66
     1
 10
0.0
 20
0.0
 30
0.0
 70
   128
  0
VERTEX
  5
6DE
  8
DIMNSIONS
  6
CONTINUOUS
 62
     7
 10
-1212.49755859375
 20
-764.2826864755882
 30
0.0
  0
VERTEX
  5
6DF
  8
DIMNSIONS
  6
CONTINUOUS
 62
     7
 10
-1172.5
 20
-775.0
 30
0.0
  0
VERTEX
  5
6E0
  8
DIMNSIONS
  6
CONTINUOUS
 62
     7
 10
-1212.49755859375
 20
-785.7173135244118
 30
0.0
  0
SEQEND
  5
75C
  8
DIMNSIONS
  6
CONTINUOUS
 62
     7
  0
TEXT
  5
120
  8
DIMNSIONS
 62
     7
 10
-1352.916666666667
 20
-755.1222222222223
 30
0.0
 40
54.15690104166671
  1
255
 41
0.7
 11
-1352.916666666667
 21
-700.9653211805555
 31
0.0
 73
     3
  0
LINE
  5
121
  8
DIMNSIONS
  6
CONTINUOUS
 62
     7
 10
-1276.0
 20
-650.0
 30
0.0
 11
-1005.0
 21
-650.0
 31
0.0
  0
LINE
  5
122
  8
DIMNSIONS
  6
CONTINUOUS
 62
     7
 10
-1148.5
 20
-578.0
 30
0.0
 11
-1005.0
 21
-578.0
 31
0.0
  0
LINE
  5
123
  8
DIMNSIONS
  6
CONTINUOUS
 62
     7
 10
-1025.0
 20
-578.0
 30
0.0
 11
-1025.0
 21
-650.0
 31
0.0
  0
LINE
  5
124
  8
DIMNSIONS
  6
CONTINUOUS
 62
     7
 10
-1025.0
 20
-650.0
 30
0.0
 11
-1025.0
 21
-720.0
 31
0.0
  0
POLYLINE
  5
125
  8
DIMNSIONS
  6
CONTINUOUS
 62
     7
 66
     1
 10
0.0
 20
0.0
 30
0.0
 70
   128
  0
VERTEX
  5
6E1
  8
DIMNSIONS
  6
CONTINUOUS
 62
     7
 10
-1035.717313524412
 20
-689.99755859375
 30
0.0
  0
VERTEX
  5
6E2
  8
DIMNSIONS
  6
CONTINUOUS
 62
     7
 10
-1025.0
 20
-650.0
 30
0.0
  0
VERTEX
  5
6E3
  8
DIMNSIONS
  6
CONTINUOUS
 62
     7
 10
-1014.282686475588
 20
-689.99755859375
 30
0.0
  0
SEQEND
  5
75D
  8
DIMNSIONS
  6
CONTINUOUS
 62
     7
  0
LINE
  5
12A
  8
DIMNSIONS
  6
CONTINUOUS
 62
     7
 10
-1025.0
 20
-578.0
 30
0.0
 11
-1025.0
 21
-419.3333333331333
 31
0.0
  0
POLYLINE
  5
12B
  8
DIMNSIONS
  6
CONTINUOUS
 62
     7
 66
     1
 10
0.0
 20
0.0
 30
0.0
 70
   128
  0
VERTEX
  5
6E4
  8
DIMNSIONS
  6
CONTINUOUS
 62
     7
 10
-1014.282686475588
 20
-538.00244140625
 30
0.0
  0
VERTEX
  5
6E5
  8
DIMNSIONS
  6
CONTINUOUS
 62
     7
 10
-1025.0
 20
-578.0
 30
0.0
  0
VERTEX
  5
6E6
  8
DIMNSIONS
  6
CONTINUOUS
 62
     7
 10
-1035.717313524412
 20
-538.00244140625
 30
0.0
  0
SEQEND
  5
75E
  8
DIMNSIONS
  6
CONTINUOUS
 62
     7
  0
TEXT
  5
130
  8
DIMNSIONS
 62
     7
 10
-1044.877777777778
 20
-560.4444444442444
 30
0.0
 40
54.15690104166671
  1
72.0
 50
90.0
 41
0.7
 11
-1099.034678819444
 21
-560.4444444442444
 31
0.0
 73
     3
  0
TEXT
  5
131
  8
DIMNSIONS
 62
     7
 10
-1247.083333333333
 20
-712.2244444444443
 30
0.0
 40
37.90983072916666
  1
※
 41
0.7
 11
-1247.083333333333
 21
-674.3146137152777
 31
0.0
 73
     3
  0
LINE
  5
132
  8
DIMNSIONS
  6
CONTINUOUS
 62
     7
 10
-1171.014890955672
 20
-582.035399748037
 30
0.0
 11
-1100.0
 21
-775.0
 31
0.0
  0
POLYLINE
  5
133
  8
DIMNSIONS
  6
CONTINUOUS
 62
     7
 66
     1
 10
0.0
 20
0.0
 30
0.0
 70
   128
  0
VERTEX
  5
6E7
  8
DIMNSIONS
  6
CONTINUOUS
 62
     7
 10
-1166.686522026636
 20
-623.2170792312145
 30
0.0
  0
VERTEX
  5
6E8
  8
DIMNSIONS
  6
CONTINUOUS
 62
     7
 10
-1171.014890955672
 20
-582.035399748037
 30
0.0
  0
VERTEX
  5
6E9
  8
DIMNSIONS
  6
CONTINUOUS
 62
     7
 10
-1146.675573764587
 20
-615.5355958864593
 30
0.0
  0
SEQEND
  5
75F
  8
DIMNSIONS
  6
CONTINUOUS
 62
     7
  0
LINE
  5
138
  8
DIMNSIONS
  6
CONTINUOUS
 62
     7
 10
-1100.0
 20
-775.0
 30
0.0
 11
-1060.0
 21
-775.0
 31
0.0
  0
TEXT
  5
139
  8
DIMNSIONS
 62
     7
 10
-1060.0
 20
-800.4000000000001
 30
0.0
 40
54.15690104166671
  1
M10-D20(2ヵ所)
 41
0.7
 11
-1060.0
 21
-746.2430989583333
 31
0.0
 73
     3
  0
LINE
  5
13A
  8
DIMNSIONS
  6
CONTINUOUS
 62
     7
 10
-1402.359517391671
 20
-326.0
 30
0.0
 11
-1545.0
 21
-326.0
 31
0.0
  0
LINE
  5
13B
  8
DIMNSIONS
  6
CONTINUOUS
 62
     7
 10
-1414.483869407652
 20
-319.0
 30
0.0
 11
-1545.0
 21
-319.0
 31
0.0
  0
LINE
  5
13C
  8
DIMNSIONS
  6
CONTINUOUS
 62
     7
 10
-1525.0
 20
-319.0
 30
0.0
 11
-1525.0
 21
-326.0
 31
0.0
  0
LINE
  5
13D
  8
DIMNSIONS
  6
CONTINUOUS
 62
     7
 10
-1525.0
 20
-326.0
 30
0.0
 11
-1525.0
 21
-396.0
 31
0.0
  0
POLYLINE
  5
13E
  8
DIMNSIONS
  6
CONTINUOUS
 62
     7
 66
     1
 10
0.0
 20
0.0
 30
0.0
 70
   128
  0
VERTEX
  5
6EA
  8
DIMNSIONS
  6
CONTINUOUS
 62
     7
 10
-1535.717313524412
 20
-365.99755859375
 30
0.0
  0
VERTEX
  5
6EB
  8
DIMNSIONS
  6
CONTINUOUS
 62
     7
 10
-1525.0
 20
-326.0
 30
0.0
  0
VERTEX
  5
6EC
  8
DIMNSIONS
  6
CONTINUOUS
 62
     7
 10
-1514.282686475588
 20
-365.99755859375
 30
0.0
  0
SEQEND
  5
760
  8
DIMNSIONS
  6
CONTINUOUS
 62
     7
  0
LINE
  5
143
  8
DIMNSIONS
  6
CONTINUOUS
 62
     7
 10
-1525.0
 20
-319.0
 30
0.0
 11
-1525.0
 21
-249.0
 31
0.0
  0
POLYLINE
  5
144
  8
DIMNSIONS
  6
CONTINUOUS
 62
     7
 66
     1
 10
0.0
 20
0.0
 30
0.0
 70
   128
  0
VERTEX
  5
6ED
  8
DIMNSIONS
  6
CONTINUOUS
 62
     7
 10
-1514.282686475588
 20
-279.00244140625
 30
0.0
  0
VERTEX
  5
6EE
  8
DIMNSIONS
  6
CONTINUOUS
 62
     7
 10
-1525.0
 20
-319.0
 30
0.0
  0
VERTEX
  5
6EF
  8
DIMNSIONS
  6
CONTINUOUS
 62
     7
 10
-1535.717313524412
 20
-279.00244140625
 30
0.0
  0
SEQEND
  5
761
  8
DIMNSIONS
  6
CONTINUOUS
 62
     7
  0
TEXT
  5
149
  8
DIMNSIONS
 62
     7
 10
-1554.877777777778
 20
-375.4166666666667
 30
0.0
 40
54.15690104166671
  1
7.0
 50
90.0
 41
0.7
 11
-1609.034678819444
 21
-375.4166666666667
 31
0.0
 73
     3
  0
LINE
  5
14A
  8
DIMNSIONS
  6
CONTINUOUS
 62
     7
 10
-1487.62580984114
 20
-1537.518
 30
0.0
 11
-1545.0
 21
-1537.518
 31
0.0
  0
LINE
  5
14B
  8
DIMNSIONS
  6
CONTINUOUS
 62
     7
 10
-1492.25
 20
-1534.514068152032
 30
0.0
 11
-1545.0
 21
-1534.514068152032
 31
0.0
  0
LINE
  5
14C
  8
DIMNSIONS
  6
CONTINUOUS
 62
     7
 10
-1525.0
 20
-1534.514068152032
 30
0.0
 11
-1525.0
 21
-1537.518
 31
0.0
  0
LINE
  5
14D
  8
DIMNSIONS
  6
CONTINUOUS
 62
     7
 10
-1525.0
 20
-1537.518
 30
0.0
 11
-1525.0
 21
-1607.518
 31
0.0
  0
POLYLINE
  5
14E
  8
DIMNSIONS
  6
CONTINUOUS
 62
     7
 66
     1
 10
0.0
 20
0.0
 30
0.0
 70
   128
  0
VERTEX
  5
6F0
  8
DIMNSIONS
  6
CONTINUOUS
 62
     7
 10
-1535.717313524412
 20
-1577.51555859375
 30
0.0
  0
VERTEX
  5
6F1
  8
DIMNSIONS
  6
CONTINUOUS
 62
     7
 10
-1525.0
 20
-1537.518
 30
0.0
  0
VERTEX
  5
6F2
  8
DIMNSIONS
  6
CONTINUOUS
 62
     7
 10
-1514.282686475588
 20
-1577.51555859375
 30
0.0
  0
SEQEND
  5
762
  8
DIMNSIONS
  6
CONTINUOUS
 62
     7
  0
LINE
  5
153
  8
DIMNSIONS
  6
CONTINUOUS
 62
     7
 10
-1525.0
 20
-1534.514068152032
 30
0.0
 11
-1525.0
 21
-1464.514068152032
 31
0.0
  0
POLYLINE
  5
154
  8
DIMNSIONS
  6
CONTINUOUS
 62
     7
 66
     1
 10
0.0
 20
0.0
 30
0.0
 70
   128
  0
VERTEX
  5
6F3
  8
DIMNSIONS
  6
CONTINUOUS
 62
     7
 10
-1514.282686475588
 20
-1494.516509558282
 30
0.0
  0
VERTEX
  5
6F4
  8
DIMNSIONS
  6
CONTINUOUS
 62
     7
 10
-1525.0
 20
-1534.514068152032
 30
0.0
  0
VERTEX
  5
6F5
  8
DIMNSIONS
  6
CONTINUOUS
 62
     7
 10
-1535.717313524412
 20
-1494.516509558282
 30
0.0
  0
SEQEND
  5
763
  8
DIMNSIONS
  6
CONTINUOUS
 62
     7
  0
TEXT
  5
159
  8
DIMNSIONS
 62
     7
 10
-1554.877777777778
 20
-1588.932700742683
 30
0.0
 40
54.15690104166671
  1
3.0
 50
90.0
 41
0.7
 11
-1609.034678819444
 21
-1588.932700742683
 31
0.0
 73
     3
  0
LINE
  5
15A
  8
DIMNSIONS
  6
CONTINUOUS
 62
     7
 10
-1324.000000000026
 20
-1853.0
 30
0.0
 11
-1545.0
 21
-1853.0
 31
0.0
  0
LINE
  5
15B
  8
DIMNSIONS
  6
CONTINUOUS
 62
     7
 10
-1403.157895465692
 20
-2024.0
 30
0.0
 11
-1545.0
 21
-2024.0
 31
0.0
  0
LINE
  5
15C
  8
DIMNSIONS
  6
CONTINUOUS
 62
     7
 10
-1525.0
 20
-1853.0
 30
0.0
 11
-1525.0
 21
-2024.0
 31
0.0
  0
POLYLINE
  5
15D
  8
DIMNSIONS
  6
CONTINUOUS
 62
     7
 66
     1
 10
0.0
 20
0.0
 30
0.0
 70
   128
  0
VERTEX
  5
6F6
  8
DIMNSIONS
  6
CONTINUOUS
 62
     7
 10
-1535.717313524412
 20
-1892.99755859375
 30
0.0
  0
VERTEX
  5
6F7
  8
DIMNSIONS
  6
CONTINUOUS
 62
     7
 10
-1525.0
 20
-1853.0
 30
0.0
  0
VERTEX
  5
6F8
  8
DIMNSIONS
  6
CONTINUOUS
 62
     7
 10
-1514.282686475588
 20
-1892.99755859375
 30
0.0
  0
SEQEND
  5
764
  8
DIMNSIONS
  6
CONTINUOUS
 62
     7
  0
POLYLINE
  5
162
  8
DIMNSIONS
  6
CONTINUOUS
 62
     7
 66
     1
 10
0.0
 20
0.0
 30
0.0
 70
   128
  0
VERTEX
  5
6F9
  8
DIMNSIONS
  6
CONTINUOUS
 62
     7
 10
-1514.282686475588
 20
-1984.00244140625
 30
0.0
  0
VERTEX
  5
6FA
  8
DIMNSIONS
  6
CONTINUOUS
 62
     7
 10
-1525.0
 20
-2024.0
 30
0.0
  0
VERTEX
  5
6FB
  8
DIMNSIONS
  6
CONTINUOUS
 62
     7
 10
-1535.717313524412
 20
-1984.00244140625
 30
0.0
  0
SEQEND
  5
765
  8
DIMNSIONS
  6
CONTINUOUS
 62
     7
  0
TEXT
  5
167
  8
DIMNSIONS
 62
     7
 10
-1544.877777777778
 20
-1991.416666666667
 30
0.0
 40
54.15690104166671
  1
171
 50
90.0
 41
0.7
 11
-1599.034678819444
 21
-1991.416666666667
 31
0.0
 73
     3
  0
TEXT
  5
168
  8
DIMNSIONS
 62
     7
 10
-1035.0
 20
-2020.955555555556
 30
0.0
 40
54.15690104166671
  1
ポールソケット
 41
0.7
 11
-1035.0
 21
-1966.798654513889
 31
0.0
 73
     3
  0
LINE
  5
169
  8
DIMNSIONS
  6
CONTINUOUS
 62
     7
 10
-1282.713501728357
 20
-1858.531679446934
 30
0.0
 11
-1075.0
 21
-1925.0
 31
0.0
  0
POLYLINE
  5
16A
  8
DIMNSIONS
  6
CONTINUOUS
 62
     7
 66
     1
 10
0.0
 20
0.0
 30
0.0
 70
   128
  0
VERTEX
  5
6FC
  8
DIMNSIONS
  6
CONTINUOUS
 62
     7
 10
-1247.597085443424
 20
-1880.474851732278
 30
0.0
  0
VERTEX
  5
6FD
  8
DIMNSIONS
  6
CONTINUOUS
 62
     7
 10
-1282.713501728357
 20
-1858.531679446934
 30
0.0
  0
VERTEX
  5
6FE
  8
DIMNSIONS
  6
CONTINUOUS
 62
     7
 10
-1241.330206993064
 20
-1859.976815943194
 30
0.0
  0
SEQEND
  5
766
  8
DIMNSIONS
  6
CONTINUOUS
 62
     7
  0
LINE
  5
16F
  8
DIMNSIONS
  6
CONTINUOUS
 62
     7
 10
-1075.0
 20
-1925.0
 30
0.0
 11
-1035.0
 21
-1925.0
 31
0.0
  0
TEXT
  5
170
  8
DIMNSIONS
 62
     7
 10
-1035.0
 20
-1950.4
 30
0.0
 40
54.15690104166671
  1
φ35×D70.0
 41
0.7
 11
-1035.0
 21
-1896.243098958333
 31
0.0
 73
     3
  0
LINE
  5
171
  8
DIMNSIONS
  6
CONTINUOUS
 62
     7
 10
-244.2427587456614
 20
-1420.916926402284
 30
0.0
 11
-199.9999997764822
 21
-1590.520068152001
 31
0.0
  0
POLYLINE
  5
172
  8
DIMNSIONS
  6
CONTINUOUS
 62
     7
 66
     1
 10
0.0
 20
0.0
 30
0.0
 70
   128
  0
VERTEX
  5
6FF
  8
DIMNSIONS
  6
CONTINUOUS
 62
     7
 10
-244.2427587456614
 20
-1462.32544608895
 30
0.0
  0
VERTEX
  5
700
  8
DIMNSIONS
  6
CONTINUOUS
 62
     7
 10
-244.2427587456614
 20
-1420.916926402284
 30
0.0
  0
VERTEX
  5
701
  8
DIMNSIONS
  6
CONTINUOUS
 62
     7
 10
-223.5384989023284
 20
-1456.777756384045
 30
0.0
  0
SEQEND
  5
767
  8
DIMNSIONS
  6
CONTINUOUS
 62
     7
  0
LINE
  5
177
  8
DIMNSIONS
  6
CONTINUOUS
 62
     7
 10
-199.9999997764822
 20
-1590.520068152001
 30
0.0
 11
-159.9999997764822
 21
-1590.520068152001
 31
0.0
  0
TEXT
  5
178
  8
DIMNSIONS
 62
     7
 10
-159.9999997764822
 20
-1615.920068152001
 30
0.0
 40
54.15690104166671
  1
M6-D30(4ヵ所)
 41
0.7
 11
-159.9999997764822
 21
-1561.763167110334
 31
0.0
 73
     3
  0
LINE
  5
179
  8
DIMNSIONS
  6
CONTINUOUS
 62
     7
 10
-302.1143841032808
 20
-1426.045003918328
 30
0.0
 11
-378.8675132359637
 21
-1590.520068152
 31
0.0
  0
POLYLINE
  5
17A
  8
DIMNSIONS
  6
CONTINUOUS
 62
     7
 66
     1
 10
0.0
 20
0.0
 30
0.0
 70
   128
  0
VERTEX
  5
702
  8
DIMNSIONS
  6
CONTINUOUS
 62
     7
 10
-328.7312674933308
 20
-1457.765770322082
 30
0.0
  0
VERTEX
  5
703
  8
DIMNSIONS
  6
CONTINUOUS
 62
     7
 10
-302.1143841032808
 20
-1426.045003918328
 30
0.0
  0
VERTEX
  5
704
  8
DIMNSIONS
  6
CONTINUOUS
 62
     7
 10
-309.3048980867556
 20
-1466.824435146516
 30
0.0
  0
SEQEND
  5
768
  8
DIMNSIONS
  6
CONTINUOUS
 62
     7
  0
LINE
  5
17F
  8
DIMNSIONS
  6
CONTINUOUS
 62
     7
 10
-378.8675132359637
 20
-1590.520068152
 30
0.0
 11
-418.8675132359637
 21
-1590.520068152
 31
0.0
  0
TEXT
  5
180
  8
DIMNSIONS
 62
     7
 10
-912.7564021248526
 20
-1615.920068152001
 30
0.0
 40
54.15690104166671
  1
M10-D30(2ヵ所)
 41
0.7
 11
-912.7564021248526
 21
-1561.763167110334
 31
0.0
 73
     3
  0
LINE
  5
181
  8
DIMNSIONS
  6
CONTINUOUS
 62
     7
 10
-487.6258098411397
 20
-1537.518
 30
0.0
 11
-545.0
 21
-1537.518
 31
0.0
  0
LINE
  5
182
  8
DIMNSIONS
  6
CONTINUOUS
 62
     7
 10
-323.9999997764826
 20
-1421.514068152
 30
0.0
 11
-545.0
 21
-1421.514068152
 31
0.0
  0
LINE
  5
183
  8
DIMNSIONS
  6
CONTINUOUS
 62
     7
 10
-525.0
 20
-1537.518
 30
0.0
 11
-525.0
 21
-1421.514068152
 31
0.0
  0
POLYLINE
  5
184
  8
DIMNSIONS
  6
CONTINUOUS
 62
     7
 66
     1
 10
0.0
 20
0.0
 30
0.0
 70
   128
  0
VERTEX
  5
705
  8
DIMNSIONS
  6
CONTINUOUS
 62
     7
 10
-514.2826864755882
 20
-1497.52044140625
 30
0.0
  0
VERTEX
  5
706
  8
DIMNSIONS
  6
CONTINUOUS
 62
     7
 10
-525.0
 20
-1537.518
 30
0.0
  0
VERTEX
  5
707
  8
DIMNSIONS
  6
CONTINUOUS
 62
     7
 10
-535.7173135244118
 20
-1497.52044140625
 30
0.0
  0
SEQEND
  5
769
  8
DIMNSIONS
  6
CONTINUOUS
 62
     7
  0
POLYLINE
  5
189
  8
DIMNSIONS
  6
CONTINUOUS
 62
     7
 66
     1
 10
0.0
 20
0.0
 30
0.0
 70
   128
  0
VERTEX
  5
708
  8
DIMNSIONS
  6
CONTINUOUS
 62
     7
 10
-535.7173135244118
 20
-1461.51162674575
 30
0.0
  0
VERTEX
  5
709
  8
DIMNSIONS
  6
CONTINUOUS
 62
     7
 10
-525.0
 20
-1421.514068152
 30
0.0
  0
VERTEX
  5
70A
  8
DIMNSIONS
  6
CONTINUOUS
 62
     7
 10
-514.2826864755882
 20
-1461.51162674575
 30
0.0
  0
SEQEND
  5
76A
  8
DIMNSIONS
  6
CONTINUOUS
 62
     7
  0
TEXT
  5
18E
  8
DIMNSIONS
 62
     7
 10
-544.8777777777777
 20
-1532.432700742667
 30
0.0
 40
54.15690104166671
  1
116
 50
90.0
 41
0.7
 11
-599.0346788194445
 21
-1532.432700742667
 31
0.0
 73
     3
  0
LINE
  5
18F
  8
DIMNSIONS
  6
CONTINUOUS
 62
     7
 10
-323.9999997764826
 20
-1421.514068152
 30
0.0
 11
-545.0
 21
-1421.514068152
 31
0.0
  0
LINE
  5
190
  8
DIMNSIONS
  6
CONTINUOUS
 62
     7
 10
-323.9999997764826
 20
-1019.514068152
 30
0.0
 11
-545.0
 21
-1019.514068152
 31
0.0
  0
LINE
  5
191
  8
DIMNSIONS
  6
CONTINUOUS
 62
     7
 10
-525.0
 20
-1421.514068152
 30
0.0
 11
-525.0
 21
-1019.514068152
 31
0.0
  0
POLYLINE
  5
192
  8
DIMNSIONS
  6
CONTINUOUS
 62
     7
 66
     1
 10
0.0
 20
0.0
 30
0.0
 70
   128
  0
VERTEX
  5
70B
  8
DIMNSIONS
  6
CONTINUOUS
 62
     7
 10
-514.2826864755882
 20
-1381.51650955825
 30
0.0
  0
VERTEX
  5
70C
  8
DIMNSIONS
  6
CONTINUOUS
 62
     7
 10
-525.0
 20
-1421.514068152
 30
0.0
  0
VERTEX
  5
70D
  8
DIMNSIONS
  6
CONTINUOUS
 62
     7
 10
-535.7173135244118
 20
-1381.51650955825
 30
0.0
  0
SEQEND
  5
76B
  8
DIMNSIONS
  6
CONTINUOUS
 62
     7
  0
POLYLINE
  5
197
  8
DIMNSIONS
  6
CONTINUOUS
 62
     7
 66
     1
 10
0.0
 20
0.0
 30
0.0
 70
   128
  0
VERTEX
  5
70E
  8
DIMNSIONS
  6
CONTINUOUS
 62
     7
 10
-535.7173135244118
 20
-1059.51162674575
 30
0.0
  0
VERTEX
  5
70F
  8
DIMNSIONS
  6
CONTINUOUS
 62
     7
 10
-525.0
 20
-1019.514068152
 30
0.0
  0
VERTEX
  5
710
  8
DIMNSIONS
  6
CONTINUOUS
 62
     7
 10
-514.2826864755882
 20
-1059.51162674575
 30
0.0
  0
SEQEND
  5
76C
  8
DIMNSIONS
  6
CONTINUOUS
 62
     7
  0
TEXT
  5
19C
  8
DIMNSIONS
 62
     7
 10
-544.8777777777777
 20
-1273.430734818667
 30
0.0
 40
54.15690104166671
  1
402
 50
90.0
 41
0.7
 11
-599.0346788194445
 21
-1273.430734818667
 31
0.0
 73
     3
  0
LINE
  5
19D
  8
DIMNSIONS
  6
CONTINUOUS
 62
     7
 10
-107.75
 20
-1534.514068152032
 30
0.0
 11
20.0
 21
-1534.514068152032
 31
0.0
  0
LINE
  5
19E
  8
DIMNSIONS
  6
CONTINUOUS
 62
     7
 10
-220.9999997764826
 20
-1418.014068152
 30
0.0
 11
20.0
 21
-1418.014068152
 31
0.0
  0
LINE
  5
19F
  8
DIMNSIONS
  6
CONTINUOUS
 62
     7
 10
0.0
 20
-1534.514068152032
 30
0.0
 11
0.0
 21
-1418.014068152
 31
0.0
  0
POLYLINE
  5
1A0
  8
DIMNSIONS
  6
CONTINUOUS
 62
     7
 66
     1
 10
0.0
 20
0.0
 30
0.0
 70
   128
  0
VERTEX
  5
711
  8
DIMNSIONS
  6
CONTINUOUS
 62
     7
 10
10.71731352441182
 20
-1494.516509558282
 30
0.0
  0
VERTEX
  5
712
  8
DIMNSIONS
  6
CONTINUOUS
 62
     7
 10
0.0
 20
-1534.514068152032
 30
0.0
  0
VERTEX
  5
713
  8
DIMNSIONS
  6
CONTINUOUS
 62
     7
 10
-10.71731352441182
 20
-1494.516509558282
 30
0.0
  0
SEQEND
  5
76D
  8
DIMNSIONS
  6
CONTINUOUS
 62
     7
  0
POLYLINE
  5
1A5
  8
DIMNSIONS
  6
CONTINUOUS
 62
     7
 66
     1
 10
0.0
 20
0.0
 30
0.0
 70
   128
  0
VERTEX
  5
714
  8
DIMNSIONS
  6
CONTINUOUS
 62
     7
 10
-10.71731352441182
 20
-1458.01162674575
 30
0.0
  0
VERTEX
  5
715
  8
DIMNSIONS
  6
CONTINUOUS
 62
     7
 10
0.0
 20
-1418.014068152
 30
0.0
  0
VERTEX
  5
716
  8
DIMNSIONS
  6
CONTINUOUS
 62
     7
 10
10.71731352441182
 20
-1458.01162674575
 30
0.0
  0
SEQEND
  5
76E
  8
DIMNSIONS
  6
CONTINUOUS
 62
     7
  0
TEXT
  5
1AA
  8
DIMNSIONS
 62
     7
 10
-19.8777777777778
 20
-1529.180734818683
 30
0.0
 40
54.15690104166671
  1
117
 50
90.0
 41
0.7
 11
-74.03467881944451
 21
-1529.180734818683
 31
0.0
 73
     3
  0
LINE
  5
1AB
  8
DIMNSIONS
  6
CONTINUOUS
 62
     7
 10
-220.9999997764826
 20
-1418.014068152
 30
0.0
 11
20.0
 21
-1418.014068152
 31
0.0
  0
LINE
  5
1AC
  8
DIMNSIONS
  6
CONTINUOUS
 62
     7
 10
-220.9999997764826
 20
-1023.014068152
 30
0.0
 11
20.0
 21
-1023.014068152
 31
0.0
  0
LINE
  5
1AD
  8
DIMNSIONS
  6
CONTINUOUS
 62
     7
 10
0.0
 20
-1418.014068152
 30
0.0
 11
0.0
 21
-1023.014068152
 31
0.0
  0
POLYLINE
  5
1AE
  8
DIMNSIONS
  6
CONTINUOUS
 62
     7
 66
     1
 10
0.0
 20
0.0
 30
0.0
 70
   128
  0
VERTEX
  5
717
  8
DIMNSIONS
  6
CONTINUOUS
 62
     7
 10
10.71731352441182
 20
-1378.01650955825
 30
0.0
  0
VERTEX
  5
718
  8
DIMNSIONS
  6
CONTINUOUS
 62
     7
 10
0.0
 20
-1418.014068152
 30
0.0
  0
VERTEX
  5
719
  8
DIMNSIONS
  6
CONTINUOUS
 62
     7
 10
-10.71731352441182
 20
-1378.01650955825
 30
0.0
  0
SEQEND
  5
76F
  8
DIMNSIONS
  6
CONTINUOUS
 62
     7
  0
POLYLINE
  5
1B3
  8
DIMNSIONS
  6
CONTINUOUS
 62
     7
 66
     1
 10
0.0
 20
0.0
 30
0.0
 70
   128
  0
VERTEX
  5
71A
  8
DIMNSIONS
  6
CONTINUOUS
 62
     7
 10
-10.71731352441182
 20
-1063.01162674575
 30
0.0
  0
VERTEX
  5
71B
  8
DIMNSIONS
  6
CONTINUOUS
 62
     7
 10
0.0
 20
-1023.014068152
 30
0.0
  0
VERTEX
  5
71C
  8
DIMNSIONS
  6
CONTINUOUS
 62
     7
 10
10.71731352441182
 20
-1063.01162674575
 30
0.0
  0
SEQEND
  5
770
  8
DIMNSIONS
  6
CONTINUOUS
 62
     7
  0
TEXT
  5
1B8
  8
DIMNSIONS
 62
     7
 10
-19.8777777777778
 20
-1273.430734818667
 30
0.0
 40
54.15690104166671
  1
395
 50
90.0
 41
0.7
 11
-74.03467881944451
 21
-1273.430734818667
 31
0.0
 73
     3
  0
LINE
  5
1B9
  8
DIMNSIONS
  6
CONTINUOUS
 62
     7
 10
-354.9999997764826
 20
-999.0140681520002
 30
0.0
 11
-354.9999997764826
 21
-805.0
 31
0.0
  0
LINE
  5
1BA
  8
DIMNSIONS
  6
CONTINUOUS
 62
     7
 10
-244.9999997764826
 20
-999.0140681520002
 30
0.0
 11
-244.9999997764826
 21
-805.0
 31
0.0
  0
LINE
  5
1BB
  8
DIMNSIONS
  6
CONTINUOUS
 62
     7
 10
-354.9999997764826
 20
-825.0
 30
0.0
 11
-244.9999997764826
 21
-825.0
 31
0.0
  0
POLYLINE
  5
1BC
  8
DIMNSIONS
  6
CONTINUOUS
 62
     7
 66
     1
 10
0.0
 20
0.0
 30
0.0
 70
   128
  0
VERTEX
  5
71D
  8
DIMNSIONS
  6
CONTINUOUS
 62
     7
 10
-315.0024411827326
 20
-835.7173135244118
 30
0.0
  0
VERTEX
  5
71E
  8
DIMNSIONS
  6
CONTINUOUS
 62
     7
 10
-354.9999997764826
 20
-825.0
 30
0.0
  0
VERTEX
  5
71F
  8
DIMNSIONS
  6
CONTINUOUS
 62
     7
 10
-315.0024411827326
 20
-814.2826864755882
 30
0.0
  0
SEQEND
  5
771
  8
DIMNSIONS
  6
CONTINUOUS
 62
     7
  0
POLYLINE
  5
1C1
  8
DIMNSIONS
  6
CONTINUOUS
 62
     7
 66
     1
 10
0.0
 20
0.0
 30
0.0
 70
   128
  0
VERTEX
  5
720
  8
DIMNSIONS
  6
CONTINUOUS
 62
     7
 10
-284.9975583702326
 20
-814.2826864755882
 30
0.0
  0
VERTEX
  5
721
  8
DIMNSIONS
  6
CONTINUOUS
 62
     7
 10
-244.9999997764826
 20
-825.0
 30
0.0
  0
VERTEX
  5
722
  8
DIMNSIONS
  6
CONTINUOUS
 62
     7
 10
-284.9975583702326
 20
-835.7173135244118
 30
0.0
  0
SEQEND
  5
772
  8
DIMNSIONS
  6
CONTINUOUS
 62
     7
  0
TEXT
  5
1C6
  8
DIMNSIONS
 62
     7
 10
-352.9166664431493
 20
-805.1222222222223
 30
0.0
 40
54.15690104166671
  1
110
 41
0.7
 11
-352.9166664431493
 21
-750.9653211805555
 31
0.0
 73
     3
  0
TEXT
  5
1C7
  8
DIMNSIONS
 62
     7
 10
-247.083333109816
 20
-762.2244444444443
 30
0.0
 40
37.90983072916666
  1
※
 41
0.7
 11
-247.083333109816
 21
-724.3146137152777
 31
0.0
 73
     3
  0
ARC
  5
1C8
  8
DATA
  6
CONTINUOUS
 62
     7
 10
-1300.000000000026
 20
-2457.5
 30
0.0
 40
757.4999999999999
 50
77.85110173120485
 51
102.1488982687904
  0
ARC
  5
1C9
  8
DATA
  6
CONTINUOUS
 62
     7
 10
-1300.000000000026
 20
-2466.5
 30
0.0
 40
757.5000000000001
 50
78.00248003009817
 51
101.9975199699019
  0
LINE
  5
1CA
  8
DATA
  6
______-8
 62
     7
 10
-1300.000000000026
 20
-1675.0
 30
0.0
 11
-1300.000000000026
 21
-2050.0
 31
0.0
  0
LINE
  5
1CB
  8
DATA
  6
CONTINUOUS
 62
     7
 10
-1372.114380733779
 20
-2024.0
 30
0.0
 11
-1227.885619266274
 21
-2024.0
 31
0.0
  0
ARC
  5
1CC
  8
DATA
  6
CONTINUOUS
 62
     7
 10
-1451.00000000009
 20
-1756.069140969643
 30
0.0
 40
39.99999999994125
 50
102.1488982687941
 51
184.884558782791
  0
LINE
  5
1CD
  8
DATA
  6
CONTINUOUS
 62
     7
 10
-1476.342935862991
 20
-1929.285569444035
 30
0.0
 11
-1490.854731195065
 21
-1759.47507716567
 31
0.0
  0
LINE
  5
1CE
  8
DATA
  6
CONTINUOUS
 62
     7
 10
-1463.293626592483
 20
-1955.569182847953
 30
0.0
 11
-1398.919802658307
 21
-2013.689549599952
 31
0.0
  0
ARC
  5
1CF
  8
DATA
  6
CONTINUOUS
 62
     7
 10
-1436.488204667955
 20
-1925.879633248001
 30
0.0
 40
39.99999999999994
 50
184.8845587827907
 51
227.9224726680248
  0
ARC
  5
1D0
  8
DATA
  6
CONTINUOUS
 62
     7
 10
-1372.114380733779
 20
-1984.0
 30
0.0
 40
40.00000000000018
 50
227.9224726680252
 51
270.0
  0
ARC
  5
1D1
  8
DATA
  6
CONTINUOUS
 62
     7
 10
-1148.999999999962
 20
-1756.069140969643
 30
0.0
 40
39.99999999994131
 50
355.115441217209
 51
77.85110173120592
  0
LINE
  5
1D2
  8
DATA
  6
CONTINUOUS
 62
     7
 10
-1123.657064137062
 20
-1929.285569444035
 30
0.0
 11
-1109.145268804987
 21
-1759.47507716567
 31
0.0
  0
LINE
  5
1D3
  8
DATA
  6
CONTINUOUS
 62
     7
 10
-1136.706373407569
 20
-1955.569182847953
 30
0.0
 11
-1201.080197341745
 21
-2013.689549599952
 31
0.0
  0
ARC
  5
1D4
  8
DATA
  6
CONTINUOUS
 62
     7
 10
-1163.511795332097
 20
-1925.879633248001
 30
0.0
 40
40.00000000000001
 50
312.077527331975
 51
355.1154412172093
  0
ARC
  5
1D5
  8
DATA
  6
CONTINUOUS
 62
     7
 10
-1227.885619266274
 20
-1984.0
 30
0.0
 40
40.0
 50
270.0
 51
312.0775273319748
  0
LINE
  5
1D6
  8
DATA
  6
CONTINUOUS
 62
     7
 10
-1384.23873274976
 20
-2031.0
 30
0.0
 11
-1482.009153834836
 21
-1942.727276963202
 31
0.0
  0
LINE
  5
1D7
  8
DATA
  6
CONTINUOUS
 62
     7
 10
-1465.598750914593
 20
-1958.405540121561
 30
0.0
 11
-1467.688895206411
 21
-1956.989984810278
 31
0.0
  0
LINE
  5
1D8
  8
DATA
  6
CONTINUOUS
 62
     7
 10
-1479.193595676391
 20
-1946.602883814524
 30
0.0
 11
-1467.688895206411
 21
-1956.989984810278
 31
0.0
  0
LINE
  5
1D9
  8
DATA
  6
CONTINUOUS
 62
     7
 10
-1478.635921509149
 20
-1945.772823862961
 30
0.0
 11
-1479.193595676391
 21
-1946.602883814524
 31
0.0
  0
LINE
  5
1DA
  8
DATA
  6
CONTINUOUS
 62
     7
 10
-1375.632701044128
 20
-2023.844967338345
 30
0.0
 11
-1384.23873274976
 21
-2031.0
 31
0.0
  0
LINE
  5
1DB
  8
DATA
  6
CONTINUOUS
 62
     7
 10
-1388.380917959302
 20
-2028.593758553374
 30
0.0
 11
-1399.885618429284
 21
-2018.20665755762
 31
0.0
  0
LINE
  5
1DC
  8
DATA
  6
CONTINUOUS
 62
     7
 10
-1399.885618429284
 20
-2018.20665755762
 30
0.0
 11
-1401.728464916431
 21
-2016.071284051315
 31
0.0
  0
LINE
  5
1DD
  8
DATA
  6
CONTINUOUS
 62
     7
 10
-1387.611965075447
 20
-2027.954453100238
 30
0.0
 11
-1388.380917959302
 21
-2028.593758553374
 31
0.0
  0
LINE
  5
1DE
  8
DATA
  6
CONTINUOUS
 62
     7
 10
-1401.728464916431
 20
-2016.071284051315
 30
0.0
 11
-1465.598750914593
 21
-1958.405540121561
 31
0.0
  0
LINE
  5
1DF
  8
DATA
  6
CONTINUOUS
 62
     7
 10
-1475.767729079866
 20
-1933.43734202607
 30
0.0
 11
-1482.009153834836
 21
-1942.727276963202
 31
0.0
  0
LINE
  5
1E0
  8
DATA
  6
CONTINUOUS
 62
     7
 10
-1215.761267250292
 20
-2031.0
 30
0.0
 11
-1117.990846165216
 21
-1942.727276963202
 31
0.0
  0
LINE
  5
1E1
  8
DATA
  6
CONTINUOUS
 62
     7
 10
-1134.40124908546
 20
-1958.405540121561
 30
0.0
 11
-1132.311104793641
 21
-1956.989984810278
 31
0.0
  0
LINE
  5
1E2
  8
DATA
  6
CONTINUOUS
 62
     7
 10
-1120.806404323661
 20
-1946.602883814524
 30
0.0
 11
-1132.311104793641
 21
-1956.989984810278
 31
0.0
  0
LINE
  5
1E3
  8
DATA
  6
CONTINUOUS
 62
     7
 10
-1121.364078490903
 20
-1945.772823862961
 30
0.0
 11
-1120.806404323661
 21
-1946.602883814524
 31
0.0
  0
LINE
  5
1E4
  8
DATA
  6
CONTINUOUS
 62
     7
 10
-1224.367298955924
 20
-2023.844967338345
 30
0.0
 11
-1215.761267250292
 21
-2031.0
 31
0.0
  0
LINE
  5
1E5
  8
DATA
  6
CONTINUOUS
 62
     7
 10
-1211.619082040751
 20
-2028.593758553374
 30
0.0
 11
-1200.114381570768
 21
-2018.20665755762
 31
0.0
  0
LINE
  5
1E6
  8
DATA
  6
CONTINUOUS
 62
     7
 10
-1200.114381570768
 20
-2018.20665755762
 30
0.0
 11
-1198.271535083621
 21
-2016.071284051315
 31
0.0
  0
LINE
  5
1E7
  8
DATA
  6
CONTINUOUS
 62
     7
 10
-1212.388034924606
 20
-2027.954453100238
 30
0.0
 11
-1211.619082040751
 21
-2028.593758553374
 31
0.0
  0
LINE
  5
1E8
  8
DATA
  6
CONTINUOUS
 62
     7
 10
-1198.271535083621
 20
-2016.071284051315
 30
0.0
 11
-1134.40124908546
 21
-1958.405540121561
 31
0.0
  0
LINE
  5
1E9
  8
DATA
  6
CONTINUOUS
 62
     7
 10
-1124.232270920187
 20
-1933.43734202607
 30
0.0
 11
-1117.990846165216
 21
-1942.727276963202
 31
0.0
  0
LINE
  5
1EA
  8
DATA
  6
CONTINUOUS
 62
     7
 10
-1467.375621344107
 20
-1928.519233799927
 30
0.0
 11
-1481.904500763647
 21
-1758.508831225411
 31
0.0
  0
LINE
  5
1EB
  8
DATA
  6
CONTINUOUS
 62
     7
 10
-1457.262406659464
 20
-1948.889034187964
 30
0.0
 11
-1392.901564084327
 21
-2006.997680627232
 31
0.0
  0
ARC
  5
1EC
  8
DATA
  6
CONTINUOUS
 62
     7
 10
-1451.017084087398
 20
-1755.869230673477
 30
0.0
 40
31.00000000009722
 50
101.9975199700798
 51
184.8845587827909
  0
ARC
  5
1ED
  8
DATA
  6
CONTINUOUS
 62
     7
 10
-1436.488204667955
 20
-1925.879633248001
 30
0.0
 40
30.99999999999991
 50
184.8845587827915
 51
227.9224726680257
  0
LINE
  5
1EE
  8
DATA
  6
CONTINUOUS
 62
     7
 10
-1132.624378655945
 20
-1928.519233799927
 30
0.0
 11
-1118.095499236405
 21
-1758.508831225411
 31
0.0
  0
LINE
  5
1EF
  8
DATA
  6
CONTINUOUS
 62
     7
 10
-1142.737593340588
 20
-1948.889034187964
 30
0.0
 11
-1207.098435915726
 21
-2006.997680627232
 31
0.0
  0
ARC
  5
1F0
  8
DATA
  6
CONTINUOUS
 62
     7
 10
-1148.982915912655
 20
-1755.869230673477
 30
0.0
 40
31.0000000000971
 50
355.1154412172091
 51
78.00248002992016
  0
ARC
  5
1F1
  8
DATA
  6
CONTINUOUS
 62
     7
 10
-1163.511795332097
 20
-1925.879633248001
 30
0.0
 40
31.00000000000022
 50
312.0775273319743
 51
355.1154412172085
  0
TEXT
  5
1F2
  8
DATA
 62
     7
 10
-1760.0
 20
-2375.369959444444
 30
0.0
 40
37.90983072916666
  1
※仕様及び外観は予告なく変更されることがあります。 
 41
0.7
 11
-1760.0
 21
-2337.460128715277
 31
0.0
 73
     3
  0
TEXT
  5
1F3
  8
DATA
 62
     7
 10
-1760.0
 20
-2424.758848333333
 30
0.0
 40
37.90983072916666
  1
　また、同一商品でも若干の個体差があることがあります。ご了承ください。
 41
0.7
 11
-1760.0
 21
-2386.849017604166
 31
0.0
 73
     3
  0
TEXT
  5
1F4
  8
DATA
 62
     7
 10
1000.0
 20
-2165.277714999999
 30
0.0
 40
48.74121093749999
  1
JBL PROFESSIONAL
 41
0.7
 11
1000.0
 21
-2116.536504062499
 31
0.0
 73
     3
  0
TEXT
  5
1F5
  8
DATA
 62
     7
 10
1000.0
 20
-2310.277714999999
 30
0.0
 40
48.74121093749999
  1
EON712
 41
0.7
 11
1000.0
 21
-2261.536504062499
 31
0.0
 73
     3
  0
TEXT
  5
1F6
  8
DATA
 62
     7
 10
850.0
 20
-2237.356814999999
 30
0.0
 40
37.90983072916666
  1
パワード2-Wayフルレンジ・スピーカー
 41
0.7
 11
850.0
 21
-2199.446984270833
 31
0.0
 73
     3
  0
LINE
  5
1F7
  8
DATA
  6
CONTINUOUS
 62
     7
 10
-1491.0
 20
-1507.014068152032
 30
0.0
 11
-1491.0
 21
-883.514068152032
 31
0.0
  0
LINE
  5
1F8
  8
DATA
  6
CONTINUOUS
 62
     7
 10
-1131.75
 20
-1534.514068152032
 30
0.0
 11
-1468.25
 21
-1534.514068152032
 31
0.0
  0
LINE
  5
1F9
  8
DATA
  6
CONTINUOUS
 62
     7
 10
-1109.0
 20
-883.514068152032
 30
0.0
 11
-1109.0
 21
-1507.014068152032
 31
0.0
  0
LINE
  5
1FA
  8
DATA
  6
CONTINUOUS
 62
     7
 10
-1109.0
 20
-1497.514068152032
 30
0.0
 11
-1491.0
 21
-1497.514068152032
 31
0.0
  0
LINE
  5
1FB
  8
DATA
  6
CONTINUOUS
 62
     7
 10
-1491.0
 20
-892.601218872985
 30
0.0
 11
-1109.0
 21
-892.601218872985
 31
0.0
  0
ARC
  5
1FC
  8
DATA
  6
CONTINUOUS
 62
     7
 10
-1300.000000000102
 20
-1491.255407892687
 30
0.0
 40
0.222235619821954
 50
176.8251528746123
 51
3.174847125387743
  0
ARC
  5
1FD
  8
DATA
  6
CONTINUOUS
 62
     7
 10
-1301.035183915979
 20
-1491.350634650088
 30
0.0
 40
0.8203678318427197
 50
7.532080377348941
 51
112.4679196476381
  0
ARC
  5
1FE
  8
DATA
  6
CONTINUOUS
 62
     7
 10
-1301.470307082976
 20
-1490.406525702597
 30
0.0
 40
0.2222356198218735
 50
116.8251528744708
 51
303.1748471254764
  0
ARC
  5
1FF
  8
DATA
  6
CONTINUOUS
 62
     7
 10
-1302.070367831946
 20
-1489.557643512559
 30
0.0
 40
0.8203678318429037
 50
307.5320803775059
 51
52.46791964757515
  0
ARC
  5
200
  8
DATA
  6
CONTINUOUS
 62
     7
 10
-1300.000000000102
 20
-1487.85987913233
 30
0.0
 40
0.222235619821954
 50
356.8251528746122
 51
183.1748471253877
  0
ARC
  5
201
  8
DATA
  6
CONTINUOUS
 62
     7
 10
-1301.035183915979
 20
-1487.764652374929
 30
0.0
 40
0.8203678318436923
 50
247.5320803523619
 51
352.4679196226511
  0
ARC
  5
202
  8
DATA
  6
CONTINUOUS
 62
     7
 10
-1301.470307082976
 20
-1488.70876132242
 30
0.0
 40
0.2222356198223889
 50
56.82515287452356
 51
243.1748471255292
  0
ARC
  5
203
  8
DATA
  6
CONTINUOUS
 62
     7
 10
-1298.964816084223
 20
-1491.350634650088
 30
0.0
 40
0.8203678318429972
 50
67.53208035247935
 51
172.4679196226677
  0
ARC
  5
204
  8
DATA
  6
CONTINUOUS
 62
     7
 10
-1298.529692917227
 20
-1490.406525702597
 30
0.0
 40
0.2222356198223889
 50
236.8251528745235
 51
63.1748471255292
  0
ARC
  5
205
  8
DATA
  6
CONTINUOUS
 62
     7
 10
-1297.929632168258
 20
-1489.557643512559
 30
0.0
 40
0.8203678318445744
 50
127.5320803524249
 51
232.4679196224942
  0
ARC
  5
206
  8
DATA
  6
CONTINUOUS
 62
     7
 10
-1298.964816084223
 20
-1487.764652374929
 30
0.0
 40
0.8203678318445229
 50
187.5320803773323
 51
292.4679196475207
  0
ARC
  5
207
  8
DATA
  6
CONTINUOUS
 62
     7
 10
-1298.529692917227
 20
-1488.70876132242
 30
0.0
 40
0.2222356198218735
 50
296.8251528744708
 51
123.1748471254765
  0
CIRCLE
  5
208
  8
DATA
  6
CONTINUOUS
 62
     7
 10
-1300.0
 20
-1489.557643512509
 30
0.0
 40
4.050000000001091
  0
LINE
  5
209
  8
DATA
  6
______-8
 62
     7
 10
-1300.0
 20
-850.0
 30
0.0
 11
-1300.0
 21
-1550.0
 31
0.0
  0
ARC
  5
20A
  8
DATA
  6
CONTINUOUS
 62
     7
 10
-1300.000000000102
 20
-902.2554078926869
 30
0.0
 40
0.222235619821954
 50
176.8251528746123
 51
3.174847125387743
  0
ARC
  5
20B
  8
DATA
  6
CONTINUOUS
 62
     7
 10
-1301.035183915979
 20
-902.3506346500881
 30
0.0
 40
0.8203678318427197
 50
7.532080377348941
 51
112.4679196476381
  0
ARC
  5
20C
  8
DATA
  6
CONTINUOUS
 62
     7
 10
-1301.470307082976
 20
-901.4065257025968
 30
0.0
 40
0.2222356198218735
 50
116.8251528744708
 51
303.1748471254764
  0
ARC
  5
20D
  8
DATA
  6
CONTINUOUS
 62
     7
 10
-1302.070367831946
 20
-900.5576435125595
 30
0.0
 40
0.8203678318429037
 50
307.5320803775059
 51
52.46791964757515
  0
ARC
  5
20E
  8
DATA
  6
CONTINUOUS
 62
     7
 10
-1300.000000000102
 20
-898.8598791323302
 30
0.0
 40
0.222235619821954
 50
356.8251528746122
 51
183.1748471253877
  0
ARC
  5
20F
  8
DATA
  6
CONTINUOUS
 62
     7
 10
-1301.035183915979
 20
-898.764652374929
 30
0.0
 40
0.8203678318436923
 50
247.5320803523619
 51
352.4679196226511
  0
ARC
  5
210
  8
DATA
  6
CONTINUOUS
 62
     7
 10
-1301.470307082976
 20
-899.7087613224203
 30
0.0
 40
0.2222356198223889
 50
56.82515287452356
 51
243.1748471255292
  0
ARC
  5
211
  8
DATA
  6
CONTINUOUS
 62
     7
 10
-1298.964816084223
 20
-902.3506346500881
 30
0.0
 40
0.8203678318429972
 50
67.53208035247935
 51
172.4679196226677
  0
ARC
  5
212
  8
DATA
  6
CONTINUOUS
 62
     7
 10
-1298.529692917227
 20
-901.4065257025968
 30
0.0
 40
0.2222356198223889
 50
236.8251528745235
 51
63.1748471255292
  0
ARC
  5
213
  8
DATA
  6
CONTINUOUS
 62
     7
 10
-1297.929632168258
 20
-900.5576435125595
 30
0.0
 40
0.8203678318445744
 50
127.5320803524249
 51
232.4679196224942
  0
ARC
  5
214
  8
DATA
  6
CONTINUOUS
 62
     7
 10
-1298.964816084223
 20
-898.764652374929
 30
0.0
 40
0.8203678318445229
 50
187.5320803773323
 51
292.4679196475207
  0
ARC
  5
215
  8
DATA
  6
CONTINUOUS
 62
     7
 10
-1298.529692917227
 20
-899.7087613224203
 30
0.0
 40
0.2222356198218735
 50
296.8251528744708
 51
123.1748471254765
  0
CIRCLE
  5
216
  8
DATA
  6
CONTINUOUS
 62
     7
 10
-1300.0
 20
-900.5576435125085
 30
0.0
 40
4.050000000001091
  0
ARC
  5
217
  8
DATA
  6
CONTINUOUS
 62
     7
 10
-1158.500000000102
 20
-1491.255407892687
 30
0.0
 40
0.222235619821954
 50
176.8251528746123
 51
3.174847125387743
  0
ARC
  5
218
  8
DATA
  6
CONTINUOUS
 62
     7
 10
-1159.535183915979
 20
-1491.350634650088
 30
0.0
 40
0.8203678318427197
 50
7.532080377348941
 51
112.4679196476381
  0
ARC
  5
219
  8
DATA
  6
CONTINUOUS
 62
     7
 10
-1159.970307082976
 20
-1490.406525702597
 30
0.0
 40
0.2222356198218735
 50
116.8251528744708
 51
303.1748471254764
  0
ARC
  5
21A
  8
DATA
  6
CONTINUOUS
 62
     7
 10
-1160.570367831946
 20
-1489.557643512559
 30
0.0
 40
0.8203678318429037
 50
307.5320803775059
 51
52.46791964757515
  0
ARC
  5
21B
  8
DATA
  6
CONTINUOUS
 62
     7
 10
-1158.500000000102
 20
-1487.85987913233
 30
0.0
 40
0.222235619821954
 50
356.8251528746122
 51
183.1748471253877
  0
ARC
  5
21C
  8
DATA
  6
CONTINUOUS
 62
     7
 10
-1159.535183915979
 20
-1487.764652374929
 30
0.0
 40
0.8203678318436923
 50
247.5320803523619
 51
352.4679196226511
  0
ARC
  5
21D
  8
DATA
  6
CONTINUOUS
 62
     7
 10
-1159.970307082976
 20
-1488.70876132242
 30
0.0
 40
0.2222356198223889
 50
56.82515287452356
 51
243.1748471255292
  0
ARC
  5
21E
  8
DATA
  6
CONTINUOUS
 62
     7
 10
-1157.464816084223
 20
-1491.350634650088
 30
0.0
 40
0.8203678318429972
 50
67.53208035247935
 51
172.4679196226677
  0
ARC
  5
21F
  8
DATA
  6
CONTINUOUS
 62
     7
 10
-1157.029692917227
 20
-1490.406525702597
 30
0.0
 40
0.2222356198223889
 50
236.8251528745235
 51
63.1748471255292
  0
ARC
  5
220
  8
DATA
  6
CONTINUOUS
 62
     7
 10
-1156.429632168258
 20
-1489.557643512559
 30
0.0
 40
0.8203678318445744
 50
127.5320803524249
 51
232.4679196224942
  0
ARC
  5
221
  8
DATA
  6
CONTINUOUS
 62
     7
 10
-1157.464816084223
 20
-1487.764652374929
 30
0.0
 40
0.8203678318445229
 50
187.5320803773323
 51
292.4679196475207
  0
ARC
  5
222
  8
DATA
  6
CONTINUOUS
 62
     7
 10
-1157.029692917227
 20
-1488.70876132242
 30
0.0
 40
0.2222356198218735
 50
296.8251528744708
 51
123.1748471254765
  0
CIRCLE
  5
223
  8
DATA
  6
CONTINUOUS
 62
     7
 10
-1158.5
 20
-1489.557643512509
 30
0.0
 40
4.050000000001091
  0
ARC
  5
224
  8
DATA
  6
CONTINUOUS
 62
     7
 10
-1158.500000000102
 20
-902.2554078926869
 30
0.0
 40
0.222235619821954
 50
176.8251528746123
 51
3.174847125387743
  0
ARC
  5
225
  8
DATA
  6
CONTINUOUS
 62
     7
 10
-1159.535183915979
 20
-902.3506346500881
 30
0.0
 40
0.8203678318427197
 50
7.532080377348941
 51
112.4679196476381
  0
ARC
  5
226
  8
DATA
  6
CONTINUOUS
 62
     7
 10
-1159.970307082976
 20
-901.4065257025968
 30
0.0
 40
0.2222356198218735
 50
116.8251528744708
 51
303.1748471254764
  0
ARC
  5
227
  8
DATA
  6
CONTINUOUS
 62
     7
 10
-1160.570367831946
 20
-900.5576435125595
 30
0.0
 40
0.8203678318429037
 50
307.5320803775059
 51
52.46791964757515
  0
ARC
  5
228
  8
DATA
  6
CONTINUOUS
 62
     7
 10
-1158.500000000102
 20
-898.8598791323302
 30
0.0
 40
0.222235619821954
 50
356.8251528746122
 51
183.1748471253877
  0
ARC
  5
229
  8
DATA
  6
CONTINUOUS
 62
     7
 10
-1159.535183915979
 20
-898.764652374929
 30
0.0
 40
0.8203678318436923
 50
247.5320803523619
 51
352.4679196226511
  0
ARC
  5
22A
  8
DATA
  6
CONTINUOUS
 62
     7
 10
-1159.970307082976
 20
-899.7087613224203
 30
0.0
 40
0.2222356198223889
 50
56.82515287452356
 51
243.1748471255292
  0
ARC
  5
22B
  8
DATA
  6
CONTINUOUS
 62
     7
 10
-1157.464816084223
 20
-902.3506346500881
 30
0.0
 40
0.8203678318429972
 50
67.53208035247935
 51
172.4679196226677
  0
ARC
  5
22C
  8
DATA
  6
CONTINUOUS
 62
     7
 10
-1157.029692917227
 20
-901.4065257025968
 30
0.0
 40
0.2222356198223889
 50
236.8251528745235
 51
63.1748471255292
  0
ARC
  5
22D
  8
DATA
  6
CONTINUOUS
 62
     7
 10
-1156.429632168258
 20
-900.5576435125595
 30
0.0
 40
0.8203678318445744
 50
127.5320803524249
 51
232.4679196224942
  0
ARC
  5
22E
  8
DATA
  6
CONTINUOUS
 62
     7
 10
-1157.464816084223
 20
-898.764652374929
 30
0.0
 40
0.8203678318445229
 50
187.5320803773323
 51
292.4679196475207
  0
ARC
  5
22F
  8
DATA
  6
CONTINUOUS
 62
     7
 10
-1157.029692917227
 20
-899.7087613224203
 30
0.0
 40
0.2222356198218735
 50
296.8251528744708
 51
123.1748471254765
  0
CIRCLE
  5
230
  8
DATA
  6
CONTINUOUS
 62
     7
 10
-1158.5
 20
-900.5576435125085
 30
0.0
 40
4.050000000001091
  0
ARC
  5
231
  8
DATA
  6
CONTINUOUS
 62
     7
 10
-1441.500000000102
 20
-1491.255407892687
 30
0.0
 40
0.222235619821954
 50
176.8251528746123
 51
3.174847125387743
  0
ARC
  5
232
  8
DATA
  6
CONTINUOUS
 62
     7
 10
-1442.535183915979
 20
-1491.350634650088
 30
0.0
 40
0.8203678318427197
 50
7.532080377348941
 51
112.4679196476381
  0
ARC
  5
233
  8
DATA
  6
CONTINUOUS
 62
     7
 10
-1442.970307082976
 20
-1490.406525702597
 30
0.0
 40
0.2222356198218735
 50
116.8251528744708
 51
303.1748471254764
  0
ARC
  5
234
  8
DATA
  6
CONTINUOUS
 62
     7
 10
-1443.570367831946
 20
-1489.557643512559
 30
0.0
 40
0.8203678318429037
 50
307.5320803775059
 51
52.46791964757515
  0
ARC
  5
235
  8
DATA
  6
CONTINUOUS
 62
     7
 10
-1441.500000000102
 20
-1487.85987913233
 30
0.0
 40
0.222235619821954
 50
356.8251528746122
 51
183.1748471253877
  0
ARC
  5
236
  8
DATA
  6
CONTINUOUS
 62
     7
 10
-1442.535183915979
 20
-1487.764652374929
 30
0.0
 40
0.8203678318436923
 50
247.5320803523619
 51
352.4679196226511
  0
ARC
  5
237
  8
DATA
  6
CONTINUOUS
 62
     7
 10
-1442.970307082976
 20
-1488.70876132242
 30
0.0
 40
0.2222356198223889
 50
56.82515287452356
 51
243.1748471255292
  0
ARC
  5
238
  8
DATA
  6
CONTINUOUS
 62
     7
 10
-1440.464816084223
 20
-1491.350634650088
 30
0.0
 40
0.8203678318429972
 50
67.53208035247935
 51
172.4679196226677
  0
ARC
  5
239
  8
DATA
  6
CONTINUOUS
 62
     7
 10
-1440.029692917227
 20
-1490.406525702597
 30
0.0
 40
0.2222356198223889
 50
236.8251528745235
 51
63.1748471255292
  0
ARC
  5
23A
  8
DATA
  6
CONTINUOUS
 62
     7
 10
-1439.429632168258
 20
-1489.557643512559
 30
0.0
 40
0.8203678318445744
 50
127.5320803524249
 51
232.4679196224942
  0
ARC
  5
23B
  8
DATA
  6
CONTINUOUS
 62
     7
 10
-1440.464816084223
 20
-1487.764652374929
 30
0.0
 40
0.8203678318445229
 50
187.5320803773323
 51
292.4679196475207
  0
ARC
  5
23C
  8
DATA
  6
CONTINUOUS
 62
     7
 10
-1440.029692917227
 20
-1488.70876132242
 30
0.0
 40
0.2222356198218735
 50
296.8251528744708
 51
123.1748471254765
  0
CIRCLE
  5
23D
  8
DATA
  6
CONTINUOUS
 62
     7
 10
-1441.5
 20
-1489.557643512509
 30
0.0
 40
4.050000000001091
  0
ARC
  5
23E
  8
DATA
  6
CONTINUOUS
 62
     7
 10
-1441.500000000102
 20
-902.2554078926869
 30
0.0
 40
0.222235619821954
 50
176.8251528746123
 51
3.174847125387743
  0
ARC
  5
23F
  8
DATA
  6
CONTINUOUS
 62
     7
 10
-1442.535183915979
 20
-902.3506346500881
 30
0.0
 40
0.8203678318427197
 50
7.532080377348941
 51
112.4679196476381
  0
ARC
  5
240
  8
DATA
  6
CONTINUOUS
 62
     7
 10
-1442.970307082976
 20
-901.4065257025968
 30
0.0
 40
0.2222356198218735
 50
116.8251528744708
 51
303.1748471254764
  0
ARC
  5
241
  8
DATA
  6
CONTINUOUS
 62
     7
 10
-1443.570367831946
 20
-900.5576435125595
 30
0.0
 40
0.8203678318429037
 50
307.5320803775059
 51
52.46791964757515
  0
ARC
  5
242
  8
DATA
  6
CONTINUOUS
 62
     7
 10
-1441.500000000102
 20
-898.8598791323302
 30
0.0
 40
0.222235619821954
 50
356.8251528746122
 51
183.1748471253877
  0
ARC
  5
243
  8
DATA
  6
CONTINUOUS
 62
     7
 10
-1442.535183915979
 20
-898.764652374929
 30
0.0
 40
0.8203678318436923
 50
247.5320803523619
 51
352.4679196226511
  0
ARC
  5
244
  8
DATA
  6
CONTINUOUS
 62
     7
 10
-1442.970307082976
 20
-899.7087613224203
 30
0.0
 40
0.2222356198223889
 50
56.82515287452356
 51
243.1748471255292
  0
ARC
  5
245
  8
DATA
  6
CONTINUOUS
 62
     7
 10
-1440.464816084223
 20
-902.3506346500881
 30
0.0
 40
0.8203678318429972
 50
67.53208035247935
 51
172.4679196226677
  0
ARC
  5
246
  8
DATA
  6
CONTINUOUS
 62
     7
 10
-1440.029692917227
 20
-901.4065257025968
 30
0.0
 40
0.2222356198223889
 50
236.8251528745235
 51
63.1748471255292
  0
ARC
  5
247
  8
DATA
  6
CONTINUOUS
 62
     7
 10
-1439.429632168258
 20
-900.5576435125595
 30
0.0
 40
0.8203678318445744
 50
127.5320803524249
 51
232.4679196224942
  0
ARC
  5
248
  8
DATA
  6
CONTINUOUS
 62
     7
 10
-1440.464816084223
 20
-898.764652374929
 30
0.0
 40
0.8203678318445229
 50
187.5320803773323
 51
292.4679196475207
  0
ARC
  5
249
  8
DATA
  6
CONTINUOUS
 62
     7
 10
-1440.029692917227
 20
-899.7087613224203
 30
0.0
 40
0.2222356198218735
 50
296.8251528744708
 51
123.1748471254765
  0
CIRCLE
  5
24A
  8
DATA
  6
CONTINUOUS
 62
     7
 10
-1441.5
 20
-900.5576435125085
 30
0.0
 40
4.050000000001091
  0
POLYLINE
  5
24B
  8
DATA
  6
CONTINUOUS
 62
     7
 66
     1
 10
0.0
 20
0.0
 30
0.0
 70
   129
  0
VERTEX
  5
723
  8
DATA
  6
CONTINUOUS
 62
     7
 10
-1331.0
 20
-1370.514068152032
 30
0.0
  0
VERTEX
  5
724
  8
DATA
  6
CONTINUOUS
 62
     7
 10
-1269.0
 20
-1370.514068152032
 30
0.0
  0
VERTEX
  5
725
  8
DATA
  6
CONTINUOUS
 62
     7
 10
-1269.0
 20
-1430.514068152032
 30
0.0
  0
VERTEX
  5
726
  8
DATA
  6
CONTINUOUS
 62
     7
 10
-1331.0
 20
-1430.514068152032
 30
0.0
  0
SEQEND
  5
773
  8
DATA
  6
CONTINUOUS
 62
     7
  0
POLYLINE
  5
251
  8
DATA
  6
CONTINUOUS
 62
     7
 66
     1
 10
0.0
 20
0.0
 30
0.0
 70
   129
  0
VERTEX
  5
727
  8
DATA
  6
CONTINUOUS
 62
     7
 10
-1320.0
 20
-1380.514068152032
 30
0.0
  0
VERTEX
  5
728
  8
DATA
  6
CONTINUOUS
 62
     7
 10
-1280.0
 20
-1380.514068152032
 30
0.0
  0
VERTEX
  5
729
  8
DATA
  6
CONTINUOUS
 62
     7
 10
-1280.0
 20
-1420.514068152032
 30
0.0
  0
VERTEX
  5
72A
  8
DATA
  6
CONTINUOUS
 62
     7
 10
-1320.0
 20
-1420.514068152032
 30
0.0
  0
SEQEND
  5
774
  8
DATA
  6
CONTINUOUS
 62
     7
  0
LINE
  5
257
  8
DATA
  6
CONTINUOUS
 62
     7
 10
-1320.0
 20
-1412.514068152032
 30
0.0
 11
-1280.0
 21
-1412.514068152032
 31
0.0
  0
ARC
  5
258
  8
DATA
  6
CONTINUOUS
 62
     7
 10
-1308.823329999999
 20
-1400.154073152031
 30
0.0
 40
3.868280137751436
 50
264.6908562215331
 51
323.9911991542338
  0
ARC
  5
259
  8
DATA
  6
CONTINUOUS
 62
     7
 10
-1309.539175
 20
-1400.154073152031
 30
0.0
 40
3.868273855420397
 50
216.0088008457516
 51
275.3091437784543
  0
ARC
  5
25A
  8
DATA
  6
CONTINUOUS
 62
     7
 10
-1298.993725
 20
-1401.158203152032
 30
0.0
 40
2.853917117576
 50
273.8309816091105
 51
351.1351473098064
  0
ARC
  5
25B
  8
DATA
  6
CONTINUOUS
 62
     7
 10
-1298.965270000001
 20
-1391.848963152032
 30
0.0
 40
2.849594899367446
 50
8.226923859016388
 51
86.15412669213401
  0
ARC
  5
25C
  8
DATA
  6
CONTINUOUS
 62
     7
 10
-1299.27882795464
 20
-1401.882352084224
 30
0.0
 40
0.4781746722271387
 50
307.6419024978074
 51
354.2670192894782
  0
LINE
  5
25D
  8
DATA
  6
CONTINUOUS
 62
     7
 10
-1311.561325000001
 20
-1394.347093152032
 30
0.0
 11
-1309.319635
 21
-1389.005773152032
 31
0.0
  0
LINE
  5
25E
  8
DATA
  6
CONTINUOUS
 62
     7
 10
-1311.561325000001
 20
-1394.347093152032
 30
0.0
 11
-1313.775355
 21
-1389.005773152032
 31
0.0
  0
LINE
  5
25F
  8
DATA
  6
CONTINUOUS
 62
     7
 10
-1294.568724999999
 20
-1404.005773152032
 30
0.0
 11
-1294.568724999999
 21
-1389.005773152032
 31
0.0
  0
LINE
  5
260
  8
DATA
  6
CONTINUOUS
 62
     7
 10
-1291.690495000001
 20
-1389.005773152032
 30
0.0
 11
-1291.690495000001
 21
-1401.708733152031
 31
0.0
  0
LINE
  5
261
  8
DATA
  6
CONTINUOUS
 62
     7
 10
-1308.267969999999
 20
-1389.005773152032
 30
0.0
 11
-1308.267969999999
 21
-1401.708733152031
 31
0.0
  0
LINE
  5
262
  8
DATA
  6
CONTINUOUS
 62
     7
 10
-1305.50044
 20
-1389.005773152032
 30
0.0
 11
-1305.50044
 21
-1401.708733152031
 31
0.0
  0
LINE
  5
263
  8
DATA
  6
CONTINUOUS
 62
     7
 10
-1304.061325000001
 20
-1389.005773152032
 30
0.0
 11
-1304.061325000001
 21
-1404.005773152032
 31
0.0
  0
LINE
  5
264
  8
DATA
  6
CONTINUOUS
 62
     7
 10
-1301.542869999999
 20
-1390.417198152033
 30
0.0
 11
-1301.542869999999
 21
-1395.232708152033
 31
0.0
  0
LINE
  5
265
  8
DATA
  6
CONTINUOUS
 62
     7
 10
-1296.145
 20
-1394.954068152033
 30
0.0
 11
-1296.145
 21
-1391.441203152032
 31
0.0
  0
LINE
  5
266
  8
DATA
  6
CONTINUOUS
 62
     7
 10
-1298.803045000001
 20
-1391.081413152031
 30
0.0
 11
-1298.803045000001
 21
-1394.568508152032
 31
0.0
  0
LINE
  5
267
  8
DATA
  6
CONTINUOUS
 62
     7
 10
-1310.371284999999
 20
-1399.300963152031
 30
0.0
 11
-1310.371284999999
 21
-1401.708703152032
 31
0.0
  0
LINE
  5
268
  8
DATA
  6
CONTINUOUS
 62
     7
 10
-1310.371284999999
 20
-1399.300963152031
 30
0.0
 11
-1312.862064999999
 21
-1399.300963152031
 31
0.0
  0
LINE
  5
269
  8
DATA
  6
CONTINUOUS
 62
     7
 10
-1312.862064999999
 20
-1399.300963152031
 30
0.0
 11
-1312.862064999999
 21
-1401.708703152032
 31
0.0
  0
ARC
  5
26A
  8
DATA
  6
CONTINUOUS
 62
     7
 10
-1309.314355
 20
-1401.741163152032
 30
0.0
 40
1.046893239363371
 50
269.7118487927628
 51
1.77598700571366
  0
ARC
  5
26B
  8
DATA
  6
CONTINUOUS
 62
     7
 10
-1309.3249
 20
-1401.741163152032
 30
0.0
 40
1.046887886189016
 50
178.2240129942728
 51
270.28815120719
  0
ARC
  5
26C
  8
DATA
  6
CONTINUOUS
 62
     7
 10
-1311.113905
 20
-1401.623908152031
 30
0.0
 40
1.750200312263885
 50
182.7769954500162
 51
207.3596066671712
  0
CIRCLE
  5
26D
  8
DATA
  6
CONTINUOUS
 62
     7
 10
-1311.409105000001
 20
-1396.422748152032
 30
0.0
 40
1.425269999999728
  0
LINE
  5
26E
  8
DATA
  6
CONTINUOUS
 62
     7
 10
-1287.068724999999
 20
-1404.005758152031
 30
0.0
 11
-1294.568724999999
 21
-1404.005758152031
 31
0.0
  0
LINE
  5
26F
  8
DATA
  6
CONTINUOUS
 62
     7
 10
-1287.068724999999
 20
-1404.005758152031
 30
0.0
 11
-1287.068724999999
 21
-1399.300948152032
 31
0.0
  0
LINE
  5
270
  8
DATA
  6
CONTINUOUS
 62
     7
 10
-1287.068724999999
 20
-1399.300963152031
 30
0.0
 11
-1289.587164999999
 21
-1399.300963152031
 31
0.0
  0
LINE
  5
271
  8
DATA
  6
CONTINUOUS
 62
     7
 10
-1289.587164999999
 20
-1399.300963152031
 30
0.0
 11
-1289.587164999999
 21
-1401.708703152032
 31
0.0
  0
LINE
  5
272
  8
DATA
  6
CONTINUOUS
 62
     7
 10
-1304.061325000001
 20
-1404.005758152031
 30
0.0
 11
-1298.803045000001
 21
-1404.005743152031
 31
0.0
  0
LINE
  5
273
  8
DATA
  6
CONTINUOUS
 62
     7
 10
-1301.542885000001
 20
-1402.594318152031
 30
0.0
 11
-1300.186795
 21
-1402.594318152031
 31
0.0
  0
LINE
  5
274
  8
DATA
  6
CONTINUOUS
 62
     7
 10
-1301.542869999999
 20
-1402.594318152031
 30
0.0
 11
-1301.542869999999
 21
-1396.671808152033
 31
0.0
  0
LINE
  5
275
  8
DATA
  6
CONTINUOUS
 62
     7
 10
-1301.542885000001
 20
-1396.671808152033
 30
0.0
 11
-1300.186795
 21
-1396.671808152033
 31
0.0
  0
LINE
  5
276
  8
DATA
  6
CONTINUOUS
 62
     7
 10
-1298.803045000001
 20
-1401.930118152032
 30
0.0
 11
-1298.803045000001
 21
-1397.336008152032
 31
0.0
  0
ARC
  5
277
  8
DATA
  6
CONTINUOUS
 62
     7
 10
-1307.248600000001
 20
-1401.623908152031
 30
0.0
 40
1.750197821798144
 50
332.6403933328432
 51
357.2230045499548
  0
ARC
  5
278
  8
DATA
  6
CONTINUOUS
 62
     7
 10
-1290.633565
 20
-1401.741163152032
 30
0.0
 40
1.046893239363371
 50
269.7118487927628
 51
1.77598700571366
  0
ARC
  5
279
  8
DATA
  6
CONTINUOUS
 62
     7
 10
-1290.644095
 20
-1401.741163152032
 30
0.0
 40
1.046887886189016
 50
178.2240129942728
 51
270.28815120719
  0
LINE
  5
27A
  8
DATA
  6
CONTINUOUS
 62
     7
 10
-1296.146214999999
 20
-1401.598003152033
 30
0.0
 11
-1296.146214999999
 21
-1397.612773152032
 31
0.0
  0
LINE
  5
27B
  8
DATA
  6
CONTINUOUS
 62
     7
 10
-1301.542885000001
 20
-1395.232708152033
 30
0.0
 11
-1300.186795
 21
-1395.232708152033
 31
0.0
  0
LINE
  5
27C
  8
DATA
  6
CONTINUOUS
 62
     7
 10
-1308.267969999999
 20
-1389.005773152032
 30
0.0
 11
-1305.50044
 21
-1389.005773152032
 31
0.0
  0
LINE
  5
27D
  8
DATA
  6
CONTINUOUS
 62
     7
 10
-1313.775355
 20
-1389.005773152032
 30
0.0
 11
-1309.319635
 21
-1389.005773152032
 31
0.0
  0
LINE
  5
27E
  8
DATA
  6
CONTINUOUS
 62
     7
 10
-1294.568724999999
 20
-1389.005773152032
 30
0.0
 11
-1291.690495000001
 21
-1389.005773152032
 31
0.0
  0
LINE
  5
27F
  8
DATA
  6
CONTINUOUS
 62
     7
 10
-1304.061325000001
 20
-1389.005773152032
 30
0.0
 11
-1298.77413980778
 21
-1389.005785292642
 31
0.0
  0
LINE
  5
280
  8
DATA
  6
CONTINUOUS
 62
     7
 10
-1301.542885000001
 20
-1390.417213152032
 30
0.0
 11
-1300.186795
 21
-1390.417213152032
 31
0.0
  0
ARC
  5
281
  8
DATA
  6
CONTINUOUS
 62
     7
 10
-1300.170781806095
 20
-1399.963786211151
 30
0.0
 40
2.63058068007241
 50
269.6512199376213
 51
282.8264828068833
  0
ARC
  5
282
  8
DATA
  6
CONTINUOUS
 62
     7
 10
-1299.875325958799
 20
-1401.075943618873
 30
0.0
 40
1.481156855538868
 50
281.2331036226684
 51
306.8620088940702
  0
ARC
  5
283
  8
DATA
  6
CONTINUOUS
 62
     7
 10
-1299.27882795464
 20
-1397.38377421984
 30
0.0
 40
0.4781746722271509
 50
5.732980710521831
 51
52.35809750219261
  0
ARC
  5
284
  8
DATA
  6
CONTINUOUS
 62
     7
 10
-1300.170781806095
 20
-1399.302340092913
 30
0.0
 40
2.630580680073014
 50
77.17351719311677
 51
90.3487800623787
  0
ARC
  5
285
  8
DATA
  6
CONTINUOUS
 62
     7
 10
-1299.875325958799
 20
-1398.19018268519
 30
0.0
 40
1.481156855538815
 50
53.13799110588771
 51
78.76689637733169
  0
ARC
  5
286
  8
DATA
  6
CONTINUOUS
 62
     7
 10
-1297.597734999999
 20
-1397.710888152031
 30
0.0
 40
1.454832245871087
 50
3.867006359776176
 51
88.36163456789885
  0
ARC
  5
287
  8
DATA
  6
CONTINUOUS
 62
     7
 10
-1297.59907
 20
-1394.801008152032
 30
0.0
 40
1.456277909921379
 50
271.6892821046333
 51
356.0782829827044
  0
ARC
  5
288
  8
DATA
  6
CONTINUOUS
 62
     7
 10
-1299.27882795464
 20
-1394.520742084224
 30
0.0
 40
0.478174672228579
 50
307.6419024976743
 51
354.2670192894782
  0
ARC
  5
289
  8
DATA
  6
CONTINUOUS
 62
     7
 10
-1300.170781806095
 20
-1392.602176211151
 30
0.0
 40
2.630580680074229
 50
269.6512199376215
 51
282.8264828068832
  0
ARC
  5
28A
  8
DATA
  6
CONTINUOUS
 62
     7
 10
-1299.875325958799
 20
-1393.714333618873
 30
0.0
 40
1.481156855538868
 50
281.2331036226684
 51
306.862008894056
  0
ARC
  5
28B
  8
DATA
  6
CONTINUOUS
 62
     7
 10
-1299.27882795464
 20
-1391.129179219841
 30
0.0
 40
0.4781746722273326
 50
5.732980710738696
 51
52.35809750232571
  0
ARC
  5
28C
  8
DATA
  6
CONTINUOUS
 62
     7
 10
-1300.170781806095
 20
-1393.047745092912
 30
0.0
 40
2.630580680073014
 50
77.17351719311677
 51
90.3487800623787
  0
ARC
  5
28D
  8
DATA
  6
CONTINUOUS
 62
     7
 10
-1299.875325958799
 20
-1391.935587685192
 30
0.0
 40
1.48115685554027
 50
53.13799110592993
 51
78.76689637734542
  0
TEXT
  5
28E
  8
DATA
 62
     7
 10
-1317.185789930556
 20
-1418.680344193699
 30
0.0
 40
4.332552083333333
  1
PROFESSIONAL
 41
0.7
 72
     1
 11
-1300.0
 21
-1416.514068152032
 31
0.0
 73
     2
  0
LINE
  5
28F
  8
DATA
  6
CONTINUOUS
 62
     7
 10
-1120.0
 20
-1525.014068152032
 30
0.0
 11
-1480.0
 21
-1525.014068152032
 31
0.0
  0
LINE
  5
290
  8
DATA
  6
CONTINUOUS
 62
     7
 10
-1468.25
 20
-1534.514068152032
 30
0.0
 11
-1468.25
 21
-1525.014068152032
 31
0.0
  0
LINE
  5
291
  8
DATA
  6
CONTINUOUS
 62
     7
 10
-1131.75
 20
-1534.514068152032
 30
0.0
 11
-1131.75
 21
-1525.014068152032
 31
0.0
  0
LINE
  5
292
  8
DATA
  6
CONTINUOUS
 62
     7
 10
-1136.37419015886
 20
-1537.518
 30
0.0
 11
-1215.499572546477
 21
-1537.518
 31
0.0
  0
LINE
  5
293
  8
DATA
  6
CONTINUOUS
 62
     7
 10
-1384.500427453523
 20
-1537.518
 30
0.0
 11
-1463.62580984114
 21
-1537.518
 31
0.0
  0
LINE
  5
294
  8
DATA
  6
CONTINUOUS
 62
     7
 10
-1291.5
 20
-1513.514068152
 30
0.0
 11
-1308.5
 21
-1513.514068152
 31
0.0
  0
ARC
  5
295
  8
DATA
  6
CONTINUOUS
 62
     7
 10
-1308.5
 20
-1511.014068152
 30
0.0
 40
2.5
 50
90.0
 51
270.0
  0
ARC
  5
296
  8
DATA
  6
CONTINUOUS
 62
     7
 10
-1291.5
 20
-1511.014068152
 30
0.0
 40
2.5
 50
270.0
 51
90.0
  0
LINE
  5
297
  8
DATA
  6
CONTINUOUS
 62
     7
 10
-1308.5
 20
-1508.514068152
 30
0.0
 11
-1291.5
 21
-1508.514068152
 31
0.0
  0
ARC
  5
298
  8
DATA
  6
CONTINUOUS
 62
     7
 10
-1300.0
 20
107.4999999999999
 30
0.0
 40
757.4999999999999
 50
257.8511017312096
 51
282.1488982687951
  0
LINE
  5
299
  8
DATA
  6
CONTINUOUS
 62
     7
 10
-1117.5
 20
-865.514068152032
 30
0.0
 11
-1482.5
 21
-865.514068152032
 31
0.0
  0
LINE
  5
29A
  8
DATA
  6
CONTINUOUS
 62
     7
 10
-1109.0
 20
-883.514068152032
 30
0.0
 11
-1491.0
 21
-883.514068152032
 31
0.0
  0
LINE
  5
29B
  8
DATA
  6
CONTINUOUS
 62
     7
 10
-1491.0
 20
-889.601218872985
 30
0.0
 11
-1109.0
 21
-889.601218872985
 31
0.0
  0
ARC
  5
29C
  8
DATA
  6
CONTINUOUS
 62
     7
 10
-1462.984375
 20
-885.736724402032
 30
0.0
 40
28.10365536627378
 50
133.9806898660097
 51
175.4638656628845
  0
ARC
  5
29D
  8
DATA
  6
CONTINUOUS
 62
     7
 10
-1137.015625
 20
-885.736724402032
 30
0.0
 40
28.10365536627378
 50
4.536134337115555
 51
46.01931013399035
  0
LINE
  5
29E
  8
DATA
  6
CONTINUOUS
 62
     7
 10
-1109.0
 20
-1507.014068152032
 30
0.0
 11
-1491.0
 21
-1507.014068152032
 31
0.0
  0
LINE
  5
29F
  8
DATA
  6
CONTINUOUS
 62
     7
 10
-1109.0
 20
-1500.514068152032
 30
0.0
 11
-1491.0
 21
-1500.514068152032
 31
0.0
  0
ARC
  5
2A0
  8
DATA
  6
CONTINUOUS
 62
     7
 10
-1458.6875
 20
-1499.628651485365
 30
0.0
 40
33.14576949763391
 50
192.8745000297067
 51
229.9846311999705
  0
ARC
  5
2A1
  8
DATA
  6
CONTINUOUS
 62
     7
 10
-1141.3125
 20
-1499.628651485365
 30
0.0
 40
33.14576949763396
 50
310.0153688000295
 51
347.1254999702933
  0
ARC
  5
2A2
  8
DATA
  6
CONTINUOUS
 62
     7
 10
-1300.0
 20
116.4999999999999
 30
0.0
 40
757.4999999999999
 50
258.0024800300981
 51
281.9975199699018
  0
ARC
  5
2A3
  8
DATA
  6
CONTINUOUS
 62
     7
 10
-1300.0
 20
126.4999999999999
 30
0.0
 40
757.4999999999999
 50
258.1662828196115
 51
281.8337171803885
  0
CIRCLE
  5
2A4
  8
DATA
  6
CONTINUOUS
 62
     7
 10
-1427.5
 20
-578.0
 30
0.0
 40
4.300000000001091
  0
CIRCLE
  5
2A5
  8
DATA
  6
CONTINUOUS
 62
     7
 10
-1427.5
 20
-578.0
 30
0.0
 40
12.0
  0
POLYLINE
  5
2A6
  8
DATA
  6
CONTINUOUS
 62
     7
 66
     1
 10
0.0
 20
0.0
 30
0.0
 70
   129
  0
VERTEX
  5
72B
  8
DATA
  6
CONTINUOUS
 62
     7
 10
-1436.5
 20
-578.0
 30
0.0
  0
VERTEX
  5
72C
  8
DATA
  6
CONTINUOUS
 62
     7
 10
-1432.0
 20
-585.7942286340603
 30
0.0
  0
VERTEX
  5
72D
  8
DATA
  6
CONTINUOUS
 62
     7
 10
-1423.0
 20
-585.7942286340603
 30
0.0
  0
VERTEX
  5
72E
  8
DATA
  6
CONTINUOUS
 62
     7
 10
-1418.5
 20
-578.0
 30
0.0
  0
VERTEX
  5
72F
  8
DATA
  6
CONTINUOUS
 62
     7
 10
-1423.0
 20
-570.2057713659397
 30
0.0
  0
VERTEX
  5
730
  8
DATA
  6
CONTINUOUS
 62
     7
 10
-1432.0
 20
-570.2057713659397
 30
0.0
  0
SEQEND
  5
775
  8
DATA
  6
CONTINUOUS
 62
     7
  0
CIRCLE
  5
2AE
  8
DATA
  6
CONTINUOUS
 62
     7
 10
-1172.5
 20
-578.0
 30
0.0
 40
4.300000000001091
  0
CIRCLE
  5
2AF
  8
DATA
  6
CONTINUOUS
 62
     7
 10
-1172.5
 20
-578.0
 30
0.0
 40
12.0
  0
POLYLINE
  5
2B0
  8
DATA
  6
CONTINUOUS
 62
     7
 66
     1
 10
0.0
 20
0.0
 30
0.0
 70
   129
  0
VERTEX
  5
731
  8
DATA
  6
CONTINUOUS
 62
     7
 10
-1181.5
 20
-578.0
 30
0.0
  0
VERTEX
  5
732
  8
DATA
  6
CONTINUOUS
 62
     7
 10
-1177.0
 20
-585.7942286340603
 30
0.0
  0
VERTEX
  5
733
  8
DATA
  6
CONTINUOUS
 62
     7
 10
-1168.0
 20
-585.7942286340603
 30
0.0
  0
VERTEX
  5
734
  8
DATA
  6
CONTINUOUS
 62
     7
 10
-1163.5
 20
-578.0
 30
0.0
  0
VERTEX
  5
735
  8
DATA
  6
CONTINUOUS
 62
     7
 10
-1168.0
 20
-570.2057713659397
 30
0.0
  0
VERTEX
  5
736
  8
DATA
  6
CONTINUOUS
 62
     7
 10
-1177.0
 20
-570.2057713659397
 30
0.0
  0
SEQEND
  5
776
  8
DATA
  6
CONTINUOUS
 62
     7
  0
TEXT
  5
2B8
  8
DATA
 62
     7
 10
150.0000000000003
 20
-2025.400000051985
 30
0.0
 40
54.15690104166666
  1
※ センター振り分け
 41
0.7
 11
150.0000000000003
 21
-1971.243099010318
 31
0.0
 73
     3
  0
LINE
  5
2B9
  8
DATA
  6
CONTINUOUS
 62
     7
 10
-1324.0
 20
-2024.0
 30
0.0
 11
-1324.0
 21
-1994.000519160999
 31
0.0
  0
LINE
  5
2BA
  8
DATA
  6
CONTINUOUS
 62
     7
 10
-1276.0
 20
-2024.0
 30
0.0
 11
-1276.0
 21
-1994.000519160999
 31
0.0
  0
ARC
  5
2BB
  8
DATA
  6
CONTINUOUS
 62
     7
 10
-1242.484375
 20
-2029.980150857429
 30
0.0
 40
89.10292372392435
 50
135.328633577729
 51
156.1841398020084
  0
ARC
  5
2BC
  8
DATA
  6
CONTINUOUS
 62
     7
 10
-1357.515625
 20
-2029.980150857429
 30
0.0
 40
89.1029237239235
 50
23.81586019799154
 51
44.67136642227763
  0
ARC
  5
2BD
  8
DATA
  6
CONTINUOUS
 62
     7
 10
-1314.25
 20
-1957.000519160999
 30
0.0
 40
7.000000000000049
 50
172.8473312499988
 51
311.5056612560477
  0
ARC
  5
2BE
  8
DATA
  6
CONTINUOUS
 62
     7
 10
-1300.0
 20
-1951.959984079248
 30
0.0
 40
20.95998407924841
 50
8.117056771438254
 51
171.8829432285618
  0
LINE
  5
2BF
  8
DATA
  6
CONTINUOUS
 62
     7
 10
-1320.75
 20
-1949.000519160999
 30
0.0
 11
-1321.25
 21
-1957.000519160999
 31
0.0
  0
ARC
  5
2C0
  8
DATA
  6
CONTINUOUS
 62
     7
 10
-1308.193083476301
 20
-1965.131477345499
 30
0.0
 40
3.218016413754079
 50
316.7285336546698
 51
137.2202147310051
  0
ARC
  5
2C1
  8
DATA
  6
CONTINUOUS
 62
     7
 10
-1285.75
 20
-1957.000519160999
 30
0.0
 40
7.000000000000747
 50
228.4943387439523
 51
7.152668750001169
  0
LINE
  5
2C2
  8
DATA
  6
CONTINUOUS
 62
     7
 10
-1279.25
 20
-1949.000519160999
 30
0.0
 11
-1278.75
 21
-1957.000519160999
 31
0.0
  0
ARC
  5
2C3
  8
DATA
  6
CONTINUOUS
 62
     7
 10
-1291.806916523699
 20
-1965.131477345499
 30
0.0
 40
3.218016413753777
 50
42.77978526899494
 51
223.2714663453302
  0
LINE
  5
2C4
  8
DATA
  6
______-8
 62
     7
 10
-1300.0
 20
-675.0
 30
0.0
 11
-1300.0
 21
-300.0
 31
0.0
  0
LINE
  5
2C5
  8
DATA
  6
CONTINUOUS
 62
     7
 10
-1177.5
 20
-1537.518
 30
0.0
 11
-1177.5
 21
-1534.514068152032
 31
0.0
  0
LINE
  5
2C6
  8
DATA
  6
CONTINUOUS
 62
     7
 10
-1422.5
 20
-1537.518
 30
0.0
 11
-1422.5
 21
-1534.514068152032
 31
0.0
  0
LINE
  5
2C7
  8
DATA
  6
CONTINUOUS
 62
     7
 10
-1463.62580984114
 20
-1534.514068152032
 30
0.0
 11
-1463.62580984114
 21
-1537.518
 31
0.0
  0
LINE
  5
2C8
  8
DATA
  6
CONTINUOUS
 62
     7
 10
-1136.37419015886
 20
-1534.514068152032
 30
0.0
 11
-1136.37419015886
 21
-1537.518
 31
0.0
  0
LINE
  5
2C9
  8
DATA
  6
CONTINUOUS
 62
     7
 10
-640.1681360732339
 20
-1508.304941823253
 30
0.0
 11
-941.0000000000001
 21
-1525.014068152032
 31
0.0
  0
LINE
  5
2CA
  8
DATA
  6
CONTINUOUS
 62
     7
 10
-640.4287987959697
 20
-876.9681513733497
 30
0.0
 11
-941.0
 21
-865.514068152032
 31
0.0
  0
LINE
  5
2CB
  8
DATA
  6
CONTINUOUS
 62
     7
 10
-913.2570216683177
 20
-1537.518
 30
0.0
 11
-913.2570216683177
 21
-1534.514068152032
 31
0.0
  0
LINE
  5
2CC
  8
DATA
  6
CONTINUOUS
 62
     7
 10
-868.2385573292964
 20
-1537.518
 30
0.0
 11
-868.2385573292964
 21
-1534.514068152032
 31
0.0
  0
LINE
  5
2CD
  8
DATA
  6
CONTINUOUS
 62
     7
 10
-868.2385573292964
 20
-1537.518
 30
0.0
 11
-913.2570216683177
 21
-1537.518
 31
0.0
  0
LINE
  5
2CE
  8
DATA
  6
CONTINUOUS
 62
     7
 10
-665.734328779446
 20
-1534.514068152032
 30
0.0
 11
-927.999999884494
 21
-1534.514068152032
 31
0.0
  0
LINE
  5
2CF
  8
DATA
  6
CONTINUOUS
 62
     7
 10
-927.9999998844941
 20
-1534.514068152032
 30
0.0
 11
-927.9999998844941
 21
-1524.292008190136
 31
0.0
  0
LINE
  5
2D0
  8
DATA
  6
CONTINUOUS
 62
     7
 10
-950.0
 20
-889.601218872985
 30
0.0
 11
-950.0
 21
-883.514068152032
 31
0.0
  0
ARC
  5
2D1
  8
DATA
  6
CONTINUOUS
 62
     7
 10
-921.1875
 20
-886.670318152032
 30
0.0
 40
28.98485932883753
 50
133.121406865398
 51
173.748490780446
  0
ARC
  5
2D2
  8
DATA
  6
CONTINUOUS
 62
     7
 10
-921.1875
 20
-1503.857818152032
 30
0.0
 40
28.98485932883753
 50
186.251509219554
 51
226.8785931346019
  0
LINE
  5
2D3
  8
DATA
  6
CONTINUOUS
 62
     7
 10
-950.0
 20
-1507.014068152032
 30
0.0
 11
-950.0
 21
-1500.514068152032
 31
0.0
  0
LINE
  5
2D4
  8
DATA
  6
CONTINUOUS
 62
     7
 10
-946.5
 20
-892.601218872985
 30
0.0
 11
-946.5
 21
-1497.514068152032
 31
0.0
  0
LINE
  5
2D5
  8
DATA
  6
CONTINUOUS
 62
     7
 10
-950.0
 20
-1500.514068152032
 30
0.0
 11
-946.5
 21
-1497.514068152032
 31
0.0
  0
LINE
  5
2D6
  8
DATA
  6
CONTINUOUS
 62
     7
 10
-946.5
 20
-892.601218872985
 30
0.0
 11
-950.0
 21
-889.601218872985
 31
0.0
  0
LINE
  5
2D7
  8
DATA
  6
CONTINUOUS
 62
     7
 10
-890.0
 20
-902.4552499863605
 30
0.0
 11
-890.0
 21
-1486.807898458077
 31
0.0
  0
LINE
  5
2D8
  8
DATA
  6
CONTINUOUS
 62
     7
 10
-1372.114380733753
 20
-326.0
 30
0.0
 11
-1227.885619266247
 21
-326.0
 31
0.0
  0
LINE
  5
2D9
  8
DATA
  6
CONTINUOUS
 62
     7
 10
-1370.0
 20
-326.0
 30
0.0
 11
-1370.0
 21
-418.75
 31
0.0
  0
LINE
  5
2DA
  8
DATA
  6
CONTINUOUS
 62
     7
 10
-1370.0
 20
-486.25
 30
0.0
 11
-1370.0
 21
-490.4999999999999
 31
0.0
  0
LINE
  5
2DB
  8
DATA
  6
CONTINUOUS
 62
     7
 10
-1230.0
 20
-326.0
 30
0.0
 11
-1230.0
 21
-418.75
 31
0.0
  0
LINE
  5
2DC
  8
DATA
  6
CONTINUOUS
 62
     7
 10
-1230.0
 20
-486.25
 30
0.0
 11
-1230.0
 21
-490.4999999999999
 31
0.0
  0
LINE
  5
2DD
  8
DATA
  6
CONTINUOUS
 62
     7
 10
-1349.5
 20
-511.0
 30
0.0
 11
-1250.5
 21
-511.0
 31
0.0
  0
LINE
  5
2DE
  8
DATA
  6
CONTINUOUS
 62
     7
 10
-1247.5
 20
-468.75
 30
0.0
 11
-1352.5
 21
-468.75
 31
0.0
  0
LINE
  5
2DF
  8
DATA
  6
CONTINUOUS
 62
     7
 10
-1352.5
 20
-436.25
 30
0.0
 11
-1247.5
 21
-436.25
 31
0.0
  0
ARC
  5
2E0
  8
DATA
  6
CONTINUOUS
 62
     7
 10
-1370.0
 20
-454.5
 30
0.0
 40
36.0
 50
90.0
 51
270.0
  0
ARC
  5
2E1
  8
DATA
  6
CONTINUOUS
 62
     7
 10
-1229.236111111111
 20
-453.75
 30
0.0
 40
35.25827599634684
 50
268.7585600008908
 51
91.24143999910925
  0
ARC
  5
2E2
  8
DATA
  6
CONTINUOUS
 62
     7
 10
-1352.5
 20
-418.75
 30
0.0
 40
17.49999999999993
 50
179.1814610210267
 51
270.0
  0
ARC
  5
2E3
  8
DATA
  6
CONTINUOUS
 62
     7
 10
-1352.5
 20
-486.25
 30
0.0
 40
17.5
 50
90.0
 51
180.8185389789733
  0
ARC
  5
2E4
  8
DATA
  6
CONTINUOUS
 62
     7
 10
-1247.5
 20
-418.75
 30
0.0
 40
17.5
 50
270.0
 51
0.8185389789732652
  0
ARC
  5
2E5
  8
DATA
  6
CONTINUOUS
 62
     7
 10
-1247.5
 20
-486.25
 30
0.0
 40
17.49999999999993
 50
359.1814610210267
 51
90.0
  0
ARC
  5
2E6
  8
DATA
  6
CONTINUOUS
 62
     7
 10
-1349.5
 20
-490.5
 30
0.0
 40
20.5
 50
180.0
 51
270.0
  0
ARC
  5
2E7
  8
DATA
  6
CONTINUOUS
 62
     7
 10
-1250.5
 20
-490.5
 30
0.0
 40
20.5
 50
270.0
 51
0.0
  0
ARC
  5
2E8
  8
DATA
  6
CONTINUOUS
 62
     7
 10
-1451.000000000064
 20
-593.9308590303572
 30
0.0
 40
39.9999999999413
 50
175.1154412172092
 51
257.851101731206
  0
LINE
  5
2E9
  8
DATA
  6
CONTINUOUS
 62
     7
 10
-1476.342935862964
 20
-420.7144305559653
 30
0.0
 11
-1490.854731195039
 21
-590.5249228343301
 31
0.0
  0
LINE
  5
2EA
  8
DATA
  6
CONTINUOUS
 62
     7
 10
-1463.293626592457
 20
-394.430817152047
 30
0.0
 11
-1398.919802658281
 21
-336.3104504000478
 31
0.0
  0
ARC
  5
2EB
  8
DATA
  6
CONTINUOUS
 62
     7
 10
-1436.488204667929
 20
-424.1203667519991
 30
0.0
 40
39.99999999999993
 50
132.0775273319751
 51
175.1154412172093
  0
ARC
  5
2EC
  8
DATA
  6
CONTINUOUS
 62
     7
 10
-1372.114380733753
 20
-365.9999999999999
 30
0.0
 40
39.99999999999994
 50
90.0
 51
132.0775273319751
  0
ARC
  5
2ED
  8
DATA
  6
CONTINUOUS
 62
     7
 10
-1148.999999999936
 20
-593.9308590303572
 30
0.0
 40
39.99999999994137
 50
282.148898268794
 51
4.884558782790862
  0
LINE
  5
2EE
  8
DATA
  6
CONTINUOUS
 62
     7
 10
-1123.657064137036
 20
-420.7144305559654
 30
0.0
 11
-1109.145268804961
 21
-590.5249228343301
 31
0.0
  0
LINE
  5
2EF
  8
DATA
  6
CONTINUOUS
 62
     7
 10
-1136.706373407543
 20
-394.430817152047
 30
0.0
 11
-1201.080197341719
 21
-336.3104504000478
 31
0.0
  0
ARC
  5
2F0
  8
DATA
  6
CONTINUOUS
 62
     7
 10
-1163.511795332071
 20
-424.1203667519991
 30
0.0
 40
39.99999999999994
 50
4.884558782790766
 51
47.92247266802493
  0
ARC
  5
2F1
  8
DATA
  6
CONTINUOUS
 62
     7
 10
-1227.885619266247
 20
-366.0
 30
0.0
 40
39.99999999999997
 50
47.92247266802493
 51
90.0
  0
LINE
  5
2F2
  8
DATA
  6
CONTINUOUS
 62
     7
 10
-1384.238732749734
 20
-319.0
 30
0.0
 11
-1482.00915383481
 21
-407.2727230367976
 31
0.0
  0
LINE
  5
2F3
  8
DATA
  6
CONTINUOUS
 62
     7
 10
-1465.598750914567
 20
-391.594459878439
 30
0.0
 11
-1467.688895206385
 21
-393.0100151897217
 31
0.0
  0
LINE
  5
2F4
  8
DATA
  6
CONTINUOUS
 62
     7
 10
-1479.193595676365
 20
-403.3971161854756
 30
0.0
 11
-1467.688895206385
 21
-393.0100151897217
 31
0.0
  0
LINE
  5
2F5
  8
DATA
  6
CONTINUOUS
 62
     7
 10
-1478.635921509123
 20
-404.2271761370395
 30
0.0
 11
-1479.193595676365
 21
-403.3971161854756
 31
0.0
  0
LINE
  5
2F6
  8
DATA
  6
CONTINUOUS
 62
     7
 10
-1375.632701044102
 20
-326.155032661655
 30
0.0
 11
-1384.238732749734
 21
-319.0
 31
0.0
  0
LINE
  5
2F7
  8
DATA
  6
CONTINUOUS
 62
     7
 10
-1388.380917959275
 20
-321.4062414466259
 30
0.0
 11
-1399.885618429258
 21
-331.7933424423805
 31
0.0
  0
LINE
  5
2F8
  8
DATA
  6
CONTINUOUS
 62
     7
 10
-1399.885618429258
 20
-331.7933424423805
 30
0.0
 11
-1401.728464916405
 21
-333.9287159486852
 31
0.0
  0
LINE
  5
2F9
  8
DATA
  6
CONTINUOUS
 62
     7
 10
-1387.61196507542
 20
-322.0455468997619
 30
0.0
 11
-1388.380917959275
 21
-321.4062414466259
 31
0.0
  0
LINE
  5
2FA
  8
DATA
  6
CONTINUOUS
 62
     7
 10
-1401.728464916405
 20
-333.9287159486852
 30
0.0
 11
-1465.598750914567
 21
-391.594459878439
 31
0.0
  0
LINE
  5
2FB
  8
DATA
  6
CONTINUOUS
 62
     7
 10
-1475.767729079839
 20
-416.5626579739299
 30
0.0
 11
-1482.00915383481
 21
-407.2727230367976
 31
0.0
  0
LINE
  5
2FC
  8
DATA
  6
CONTINUOUS
 62
     7
 10
-1215.761267250266
 20
-319.0
 30
0.0
 11
-1117.99084616519
 21
-407.2727230367976
 31
0.0
  0
LINE
  5
2FD
  8
DATA
  6
CONTINUOUS
 62
     7
 10
-1134.401249085433
 20
-391.594459878439
 30
0.0
 11
-1132.311104793615
 21
-393.0100151897217
 31
0.0
  0
LINE
  5
2FE
  8
DATA
  6
CONTINUOUS
 62
     7
 10
-1120.806404323635
 20
-403.3971161854756
 30
0.0
 11
-1132.311104793615
 21
-393.0100151897217
 31
0.0
  0
LINE
  5
2FF
  8
DATA
  6
CONTINUOUS
 62
     7
 10
-1121.364078490877
 20
-404.2271761370395
 30
0.0
 11
-1120.806404323635
 21
-403.3971161854756
 31
0.0
  0
LINE
  5
300
  8
DATA
  6
CONTINUOUS
 62
     7
 10
-1224.367298955898
 20
-326.155032661655
 30
0.0
 11
-1215.761267250266
 21
-319.0
 31
0.0
  0
LINE
  5
301
  8
DATA
  6
CONTINUOUS
 62
     7
 10
-1211.619082040725
 20
-321.4062414466259
 30
0.0
 11
-1200.114381570742
 21
-331.7933424423805
 31
0.0
  0
LINE
  5
302
  8
DATA
  6
CONTINUOUS
 62
     7
 10
-1200.114381570742
 20
-331.7933424423805
 30
0.0
 11
-1198.271535083595
 21
-333.9287159486852
 31
0.0
  0
LINE
  5
303
  8
DATA
  6
CONTINUOUS
 62
     7
 10
-1212.38803492458
 20
-322.0455468997619
 30
0.0
 11
-1211.619082040725
 21
-321.4062414466259
 31
0.0
  0
LINE
  5
304
  8
DATA
  6
CONTINUOUS
 62
     7
 10
-1198.271535083595
 20
-333.9287159486852
 30
0.0
 11
-1134.401249085433
 21
-391.594459878439
 31
0.0
  0
LINE
  5
305
  8
DATA
  6
CONTINUOUS
 62
     7
 10
-1124.232270920161
 20
-416.5626579739299
 30
0.0
 11
-1117.99084616519
 21
-407.2727230367976
 31
0.0
  0
LINE
  5
306
  8
DATA
  6
CONTINUOUS
 62
     7
 10
-1467.375621344081
 20
-421.4807662000728
 30
0.0
 11
-1481.904500763621
 21
-591.491168774589
 31
0.0
  0
LINE
  5
307
  8
DATA
  6
CONTINUOUS
 62
     7
 10
-1457.411083883951
 20
-422.3222493866891
 30
0.0
 11
-1471.959303254959
 21
-592.5589593617876
 31
0.0
  0
LINE
  5
308
  8
DATA
  6
CONTINUOUS
 62
     7
 10
-1457.262406659438
 20
-401.1109658120361
 30
0.0
 11
-1374.125938353213
 21
-326.0506115698427
 31
0.0
  0
LINE
  5
309
  8
DATA
  6
CONTINUOUS
 62
     7
 10
-1450.560196516935
 20
-408.523352349632
 30
0.0
 11
-1370.0
 21
-335.789003494342
 31
0.0
  0
ARC
  5
30A
  8
DATA
  6
CONTINUOUS
 62
     7
 10
-1451.017084087372
 20
-594.1307693265236
 30
0.0
 40
31.0000000000971
 50
175.1154412172091
 51
258.0024800299201
  0
ARC
  5
30B
  8
DATA
  6
CONTINUOUS
 62
     7
 10
-1436.488204667929
 20
-424.1203667519993
 30
0.0
 40
31.00000000000014
 50
132.0775273319745
 51
175.1154412172086
  0
ARC
  5
30C
  8
DATA
  6
CONTINUOUS
 62
     7
 10
-1451.035569377489
 20
-594.3470758647119
 30
0.0
 40
21.00000000007623
 50
175.1154412172092
 51
258.1662828194049
  0
ARC
  5
30D
  8
DATA
  6
CONTINUOUS
 62
     7
 10
-1436.487350006558
 20
-424.1103658896072
 30
0.0
 40
21.00000000000021
 50
132.0775273319745
 51
175.1154412172082
  0
LINE
  5
30E
  8
DATA
  6
CONTINUOUS
 62
     7
 10
-1132.624378655919
 20
-421.4807662000728
 30
0.0
 11
-1118.095499236379
 21
-591.491168774589
 31
0.0
  0
LINE
  5
30F
  8
DATA
  6
CONTINUOUS
 62
     7
 10
-1142.588916116049
 20
-422.3222493866891
 30
0.0
 11
-1128.040696745041
 21
-592.5589593617876
 31
0.0
  0
LINE
  5
310
  8
DATA
  6
CONTINUOUS
 62
     7
 10
-1142.737593340562
 20
-401.1109658120361
 30
0.0
 11
-1225.874061646787
 21
-326.0506115698427
 31
0.0
  0
LINE
  5
311
  8
DATA
  6
CONTINUOUS
 62
     7
 10
-1149.439803483065
 20
-408.523352349632
 30
0.0
 11
-1230.0
 21
-335.789003494342
 31
0.0
  0
ARC
  5
312
  8
DATA
  6
CONTINUOUS
 62
     7
 10
-1148.982915912628
 20
-594.1307693265236
 30
0.0
 40
31.00000000009699
 50
281.9975199700799
 51
4.884558782790919
  0
ARC
  5
313
  8
DATA
  6
CONTINUOUS
 62
     7
 10
-1163.511795332071
 20
-424.1203667519993
 30
0.0
 40
30.99999999999991
 50
4.88455878279144
 51
47.9224726680255
  0
ARC
  5
314
  8
DATA
  6
CONTINUOUS
 62
     7
 10
-1148.964430622511
 20
-594.3470758647119
 30
0.0
 40
21.00000000007616
 50
281.8337171805951
 51
4.884558782790806
  0
ARC
  5
315
  8
DATA
  6
CONTINUOUS
 62
     7
 10
-1163.512649993442
 20
-424.1103658896072
 30
0.0
 40
21.00000000000004
 50
4.884558782791773
 51
47.92247266802553
  0
ARC
  5
316
  8
DATA
  6
CONTINUOUS
 62
     7
 10
-1300.0
 20
-2457.5
 30
0.0
 40
735.5
 50
77.46642747119508
 51
102.5356033822875
  0
ARC
  5
317
  8
DATA
  6
CONTINUOUS
 62
     7
 10
-1300.0
 20
-2457.5
 30
0.0
 40
713.5000000000001
 50
79.00573563964471
 51
100.9656152869164
  0
ARC
  5
318
  8
DATA
  6
CONTINUOUS
 62
     7
 10
-1457.25
 20
-1750.271120852662
 30
0.0
 40
11.00000000000008
 50
102.5356033822867
 51
180.0
  0
ARC
  5
319
  8
DATA
  6
CONTINUOUS
 62
     7
 10
-1430.392162900447
 20
-1744.742978331682
 30
0.0
 40
7.999999999999226
 50
280.2405625432358
 51
100.240562544424
  0
ARC
  5
31A
  8
DATA
  6
CONTINUOUS
 62
     7
 10
-1455.625809841141
 20
-1773.761442670705
 30
0.0
 40
7.99999999999863
 50
183.8935260571612
 51
3.893526057159107
  0
LINE
  5
31B
  8
DATA
  6
CONTINUOUS
 62
     7
 10
-1465.036952516634
 20
-1753.299454877199
 30
0.0
 11
-1463.607345502136
 21
-1774.304663152867
 31
0.0
  0
LINE
  5
31C
  8
DATA
  6
CONTINUOUS
 62
     7
 10
-1448.1274196944
 20
-1766.119367712135
 30
0.0
 11
-1447.644274180145
 21
-1773.218222188543
 31
0.0
  0
ARC
  5
31D
  8
DATA
  6
CONTINUOUS
 62
     7
 10
-1300.0
 20
-2457.5
 30
0.0
 40
732.5858542135564
 50
100.3657017570304
 51
102.3278461613689
  0
ARC
  5
31E
  8
DATA
  6
CONTINUOUS
 62
     7
 10
-1300.0
 20
-2457.5
 30
0.0
 40
716.5858932276653
 50
100.3657017570304
 51
101.2085918241754
  0
ARC
  5
31F
  8
DATA
  6
CONTINUOUS
 62
     7
 10
-1454.062340982746
 20
-1752.552526714225
 30
0.0
 40
11.00000000001721
 50
102.327846161458
 51
183.8935260571604
  0
ARC
  5
320
  8
DATA
  6
CONTINUOUS
 62
     7
 10
-1437.152808160581
 20
-1765.372439549166
 30
0.0
 40
10.99999999994801
 50
101.2085918239012
 51
183.89352605716
  0
ARC
  5
321
  8
DATA
  6
CONTINUOUS
 62
     7
 10
-1142.75
 20
-1750.271120852662
 30
0.0
 40
11.00000000000023
 50
0.0
 51
77.46439661771103
  0
ARC
  5
322
  8
DATA
  6
CONTINUOUS
 62
     7
 10
-1166.025713685588
 20
-1767.893488570002
 30
0.0
 40
10.99999999992279
 50
356.1064739428393
 51
79.00573564004458
  0
ARC
  5
323
  8
DATA
  6
CONTINUOUS
 62
     7
 10
-1169.607837099553
 20
-1744.742978331682
 30
0.0
 40
7.999999999999202
 50
79.75943745557436
 51
259.7594374567658
  0
ARC
  5
324
  8
DATA
  6
CONTINUOUS
 62
     7
 10
-1144.374190158859
 20
-1773.761442670705
 30
0.0
 40
7.999999999999068
 50
176.1064739428407
 51
356.1064739428391
  0
LINE
  5
325
  8
DATA
  6
CONTINUOUS
 62
     7
 10
-1134.963047483366
 20
-1753.299454877199
 30
0.0
 11
-1136.392654497864
 21
-1774.304663152867
 31
0.0
  0
LINE
  5
326
  8
DATA
  6
CONTINUOUS
 62
     7
 10
-1151.8725803056
 20
-1766.119367712135
 30
0.0
 11
-1152.355725819855
 21
-1773.218222188543
 31
0.0
  0
ARC
  5
327
  8
DATA
  6
CONTINUOUS
 62
     7
 10
-1300.0
 20
-2457.5
 30
0.0
 40
732.5858542135564
 50
77.67215383863113
 51
79.63429824296962
  0
ARC
  5
328
  8
DATA
  6
CONTINUOUS
 62
     7
 10
-1300.0
 20
-2457.5
 30
0.0
 40
716.5858932276655
 50
78.79140817582464
 51
79.63429824296962
  0
ARC
  5
329
  8
DATA
  6
CONTINUOUS
 62
     7
 10
-1145.937659017254
 20
-1752.552526714225
 30
0.0
 40
11.00000000001736
 50
356.1064739428396
 51
77.67215383854199
  0
ARC
  5
32A
  8
DATA
  6
CONTINUOUS
 62
     7
 10
-1162.847191839419
 20
-1765.372439549166
 30
0.0
 40
10.99999999994808
 50
356.1064739428399
 51
78.79140817609878
  0
ARC
  5
32B
  8
DATA
  6
CONTINUOUS
 62
     7
 10
-1300.000000000017
 20
-1852.999999999998
 30
0.0
 40
20.0000000000094
 50
202.301222304664
 51
229.6987776953127
  0
ARC
  5
32C
  8
DATA
  6
CONTINUOUS
 62
     7
 10
-1300.000000000017
 20
-1852.999999999998
 30
0.0
 40
20.00000000000869
 50
238.3012223046501
 51
265.6987776953055
  0
ARC
  5
32D
  8
DATA
  6
CONTINUOUS
 62
     7
 10
-1300.000000000017
 20
-1852.999999999998
 30
0.0
 40
20.0000000000097
 50
166.3012223046835
 51
193.6987776953278
  0
CIRCLE
  5
32E
  8
DATA
  6
CONTINUOUS
 62
     7
 10
-1300.000000000026
 20
-1853.0
 30
0.0
 40
23.5
  0
CIRCLE
  5
32F
  8
DATA
  6
CONTINUOUS
 62
     7
 10
-1300.000000000026
 20
-1853.0
 30
0.0
 40
26.5
  0
ARC
  5
330
  8
DATA
  6
CONTINUOUS
 62
     7
 10
-1300.000000000026
 20
-1853.0
 30
0.0
 40
18.15000000000096
 50
193.2594046463427
 51
202.7405953536576
  0
ARC
  5
331
  8
DATA
  6
CONTINUOUS
 62
     7
 10
-1300.000000000026
 20
-1853.0
 30
0.0
 40
18.14999999999919
 50
13.25940464634395
 51
22.74059535365755
  0
LINE
  5
332
  8
DATA
  6
CONTINUOUS
 62
     7
 10
-1319.431083446062
 20
-1857.736348394405
 30
0.0
 11
-1317.666150474309
 21
-1857.162886909351
 31
0.0
  0
LINE
  5
333
  8
DATA
  6
CONTINUOUS
 62
     7
 10
-1283.26090050887
 20
-1845.983943541763
 30
0.0
 11
-1281.495967537114
 21
-1845.41048205671
 31
0.0
  0
LINE
  5
334
  8
DATA
  6
CONTINUOUS
 62
     7
 10
-1318.504032462938
 20
-1860.58951794329
 30
0.0
 11
-1316.739099491183
 21
-1860.016056458237
 31
0.0
  0
LINE
  5
335
  8
DATA
  6
CONTINUOUS
 62
     7
 10
-1282.333849525744
 20
-1848.837113090649
 30
0.0
 11
-1280.56891655399
 21
-1848.263651605595
 31
0.0
  0
ARC
  5
336
  8
DATA
  6
CONTINUOUS
 62
     7
 10
-1300.000000000026
 20
-1853.0
 30
0.0
 40
18.15000000000069
 50
229.2594046463438
 51
238.7405953536546
  0
ARC
  5
337
  8
DATA
  6
CONTINUOUS
 62
     7
 10
-1300.000000000026
 20
-1853.0
 30
0.0
 40
18.15000000000069
 50
49.2594046463438
 51
58.74059535365459
  0
LINE
  5
338
  8
DATA
  6
CONTINUOUS
 62
     7
 10
-1312.936120991037
 20
-1868.253090627999
 30
0.0
 11
-1311.845332426627
 21
-1866.751748968889
 31
0.0
  0
LINE
  5
339
  8
DATA
  6
CONTINUOUS
 62
     7
 10
-1290.581718556549
 20
-1837.484895274234
 30
0.0
 11
-1289.490929992141
 21
-1835.983553615124
 31
0.0
  0
LINE
  5
33A
  8
DATA
  6
CONTINUOUS
 62
     7
 10
-1310.509070007912
 20
-1870.016446384876
 30
0.0
 11
-1309.418281443503
 21
-1868.515104725766
 31
0.0
  0
LINE
  5
33B
  8
DATA
  6
CONTINUOUS
 62
     7
 10
-1288.154667573425
 20
-1839.248251031113
 30
0.0
 11
-1287.063879009015
 21
-1837.746909372001
 31
0.0
  0
ARC
  5
33C
  8
DATA
  6
CONTINUOUS
 62
     7
 10
-1300.000000000026
 20
-1853.0
 30
0.0
 40
18.15000000000069
 50
265.2594046463431
 51
274.7405953536568
  0
ARC
  5
33D
  8
DATA
  6
CONTINUOUS
 62
     7
 10
-1300.000000000026
 20
-1853.0
 30
0.0
 40
18.14999999999888
 50
85.25940464634265
 51
94.7405953536574
  0
LINE
  5
33E
  8
DATA
  6
CONTINUOUS
 62
     7
 10
-1301.500000000026
 20
-1872.94367067518
 30
0.0
 11
-1301.500000000026
 21
-1871.087910327067
 31
0.0
  0
LINE
  5
33F
  8
DATA
  6
CONTINUOUS
 62
     7
 10
-1301.500000000026
 20
-1834.912089672935
 30
0.0
 11
-1301.500000000026
 21
-1833.056329324821
 31
0.0
  0
LINE
  5
340
  8
DATA
  6
CONTINUOUS
 62
     7
 10
-1298.500000000026
 20
-1872.943670675179
 30
0.0
 11
-1298.500000000026
 21
-1871.087910327067
 31
0.0
  0
LINE
  5
341
  8
DATA
  6
CONTINUOUS
 62
     7
 10
-1298.500000000026
 20
-1834.912089672935
 30
0.0
 11
-1298.500000000026
 21
-1833.056329324821
 31
0.0
  0
ARC
  5
342
  8
DATA
  6
CONTINUOUS
 62
     7
 10
-1300.000000000026
 20
-1853.0
 30
0.0
 40
18.15000000000081
 50
301.2594046463454
 51
310.7405953536562
  0
ARC
  5
343
  8
DATA
  6
CONTINUOUS
 62
     7
 10
-1300.000000000026
 20
-1853.0
 30
0.0
 40
18.14999999999986
 50
121.2594046463405
 51
130.74059535366
  0
LINE
  5
344
  8
DATA
  6
CONTINUOUS
 62
     7
 10
-1289.490929992141
 20
-1870.016446384876
 30
0.0
 11
-1290.581718556549
 21
-1868.515104725766
 31
0.0
  0
LINE
  5
345
  8
DATA
  6
CONTINUOUS
 62
     7
 10
-1311.845332426625
 20
-1839.248251031113
 30
0.0
 11
-1312.936120991036
 21
-1837.746909372003
 31
0.0
  0
LINE
  5
346
  8
DATA
  6
CONTINUOUS
 62
     7
 10
-1287.063879009015
 20
-1868.253090627999
 30
0.0
 11
-1288.154667573425
 21
-1866.751748968889
 31
0.0
  0
LINE
  5
347
  8
DATA
  6
CONTINUOUS
 62
     7
 10
-1309.418281443501
 20
-1837.484895274234
 30
0.0
 11
-1310.509070007912
 21
-1835.983553615124
 31
0.0
  0
ARC
  5
348
  8
DATA
  6
CONTINUOUS
 62
     7
 10
-1300.000000000026
 20
-1853.0
 30
0.0
 40
18.15000000000005
 50
337.2594046463424
 51
346.7405953536575
  0
ARC
  5
349
  8
DATA
  6
CONTINUOUS
 62
     7
 10
-1300.000000000026
 20
-1853.0
 30
0.0
 40
18.14999999999935
 50
157.2594046463477
 51
166.7405953536561
  0
LINE
  5
34A
  8
DATA
  6
CONTINUOUS
 62
     7
 10
-1281.495967537114
 20
-1860.589517943292
 30
0.0
 11
-1283.26090050887
 21
-1860.016056458237
 31
0.0
  0
LINE
  5
34B
  8
DATA
  6
CONTINUOUS
 62
     7
 10
-1317.666150474307
 20
-1848.837113090649
 30
0.0
 11
-1319.431083446062
 21
-1848.263651605595
 31
0.0
  0
LINE
  5
34C
  8
DATA
  6
CONTINUOUS
 62
     7
 10
-1280.56891655399
 20
-1857.736348394405
 30
0.0
 11
-1282.333849525744
 21
-1857.162886909351
 31
0.0
  0
LINE
  5
34D
  8
DATA
  6
CONTINUOUS
 62
     7
 10
-1316.739099491183
 20
-1845.983943541763
 30
0.0
 11
-1318.504032462936
 21
-1845.41048205671
 31
0.0
  0
ARC
  5
34E
  8
DATA
  6
CONTINUOUS
 62
     7
 10
-1300.000000000017
 20
-1852.999999999998
 30
0.0
 40
20.00000000000958
 50
274.3012223046422
 51
301.6987776953051
  0
ARC
  5
34F
  8
DATA
  6
CONTINUOUS
 62
     7
 10
-1300.000000000017
 20
-1852.999999999998
 30
0.0
 40
20.00000000001047
 50
310.3012223046472
 51
337.6987776953148
  0
ARC
  5
350
  8
DATA
  6
CONTINUOUS
 62
     7
 10
-1300.000000000017
 20
-1852.999999999998
 30
0.0
 40
20.00000000001009
 50
346.301222304657
 51
13.69877769533167
  0
ARC
  5
351
  8
DATA
  6
CONTINUOUS
 62
     7
 10
-1300.000000000017
 20
-1852.999999999998
 30
0.0
 40
20.00000000001079
 50
22.30122230467361
 51
49.69877769534546
  0
ARC
  5
352
  8
DATA
  6
CONTINUOUS
 62
     7
 10
-1300.000000000017
 20
-1852.999999999998
 30
0.0
 40
20.00000000001069
 50
58.30122230469048
 51
85.69877769535303
  0
ARC
  5
353
  8
DATA
  6
CONTINUOUS
 62
     7
 10
-1300.000000000017
 20
-1852.999999999998
 30
0.0
 40
20.00000000001095
 50
94.30122230469414
 51
121.6987776953542
  0
ARC
  5
354
  8
DATA
  6
CONTINUOUS
 62
     7
 10
-1300.000000000017
 20
-1852.999999999998
 30
0.0
 40
20.00000000001038
 50
130.3012223046953
 51
157.6987776953477
  0
LINE
  5
355
  8
DATA
  6
CONTINUOUS
 62
     7
 10
-1453.064376686753
 20
-1927.966444647399
 30
0.0
 11
-1468.249999999998
 21
-1750.27112085266
 31
0.0
  0
LINE
  5
356
  8
DATA
  6
CONTINUOUS
 62
     7
 10
-1431.882893083228
 20
-1917.450244834881
 30
0.0
 11
-1444.589503156768
 21
-1768.763217323685
 31
0.0
  0
ARC
  5
357
  8
DATA
  6
CONTINUOUS
 62
     7
 10
-1433.629452078203
 20
-1767.826584869782
 30
0.0
 40
10.99999999992978
 50
100.9656152865522
 51
184.8845587827905
  0
LINE
  5
358
  8
DATA
  6
CONTINUOUS
 62
     7
 10
-1448.170885710312
 20
-1937.822799673869
 30
0.0
 11
-1399.799771282405
 21
-1981.495005843065
 31
0.0
  0
LINE
  5
359
  8
DATA
  6
CONTINUOUS
 62
     7
 10
-1426.989402106787
 20
-1927.30659986135
 30
0.0
 11
-1385.056791889091
 21
-1965.165756515042
 31
0.0
  0
ARC
  5
35A
  8
DATA
  6
CONTINUOUS
 62
     7
 10
-1438.118852488614
 20
-1926.689218573886
 30
0.0
 40
15.00000000000007
 50
184.8845587827921
 51
227.9224726680251
  0
ARC
  5
35B
  8
DATA
  6
CONTINUOUS
 62
     7
 10
-1416.937368885089
 20
-1916.173018761368
 30
0.0
 40
15.00000000000007
 50
184.8845587827921
 51
227.9224726680251
  0
LINE
  5
35C
  8
DATA
  6
CONTINUOUS
 62
     7
 10
-1146.9356233133
 20
-1927.966444647399
 30
0.0
 11
-1131.750000000054
 21
-1750.27112085266
 31
0.0
  0
LINE
  5
35D
  8
DATA
  6
CONTINUOUS
 62
     7
 10
-1168.117106916825
 20
-1917.450244834881
 30
0.0
 11
-1155.410496843285
 21
-1768.763217323685
 31
0.0
  0
ARC
  5
35E
  8
DATA
  6
CONTINUOUS
 62
     7
 10
-1161.881147511438
 20
-1926.689218573886
 30
0.0
 40
15.00000000000011
 50
312.077527331975
 51
355.1154412172079
  0
ARC
  5
35F
  8
DATA
  6
CONTINUOUS
 62
     7
 10
-1183.062631114963
 20
-1916.173018761368
 30
0.0
 40
15.00000000000011
 50
312.077527331975
 51
355.1154412172079
  0
ARC
  5
360
  8
DATA
  6
CONTINUOUS
 62
     7
 10
-1392.500427453523
 20
-1973.265243767005
 30
0.0
 40
11.00042745354886
 50
227.4161975702537
 51
48.42874776584804
  0
LINE
  5
361
  8
DATA
  6
CONTINUOUS
 62
     7
 10
-1151.829114289688
 20
-1937.822799673869
 30
0.0
 11
-1200.200228717595
 21
-1981.495005843065
 31
0.0
  0
LINE
  5
362
  8
DATA
  6
CONTINUOUS
 62
     7
 10
-1173.010597893213
 20
-1927.30659986135
 30
0.0
 11
-1214.943208110909
 21
-1965.165756515042
 31
0.0
  0
ARC
  5
363
  8
DATA
  6
CONTINUOUS
 62
     7
 10
-1207.499572546477
 20
-1973.265243767005
 30
0.0
 40
11.00042745354882
 50
131.571252234152
 51
312.5838024297463
  0
ARC
  5
364
  8
DATA
  6
CONTINUOUS
 62
     7
 10
-1392.500427453523
 20
-1973.265243767005
 30
0.0
 40
7.999999999999769
 50
227.4161975702591
 51
47.4161975702591
  0
LINE
  5
365
  8
DATA
  6
CONTINUOUS
 62
     7
 10
-1433.581941291388
 20
-1925.396723075496
 30
0.0
 11
-1387.087084675083
 21
-1967.374936477644
 31
0.0
  0
LINE
  5
366
  8
DATA
  6
CONTINUOUS
 62
     7
 10
-1444.303691481875
 20
-1937.272079299306
 30
0.0
 11
-1397.913770231964
 21
-1979.155551056367
 31
0.0
  0
ARC
  5
367
  8
DATA
  6
CONTINUOUS
 62
     7
 10
-1438.890348703449
 20
-1931.381772009931
 30
0.0
 40
8.00000000000009
 50
47.41619756954907
 51
228.4287477654516
  0
ARC
  5
368
  8
DATA
  6
CONTINUOUS
 62
     7
 10
-1207.499572546477
 20
-1973.265243767005
 30
0.0
 40
7.999999999999769
 50
132.5838024297409
 51
312.5838024297409
  0
LINE
  5
369
  8
DATA
  6
CONTINUOUS
 62
     7
 10
-1166.418058708612
 20
-1925.396723075496
 30
0.0
 11
-1212.912915324917
 21
-1967.374936477644
 31
0.0
  0
LINE
  5
36A
  8
DATA
  6
CONTINUOUS
 62
     7
 10
-1155.696308518125
 20
-1937.272079299306
 30
0.0
 11
-1202.086229768036
 21
-1979.155551056367
 31
0.0
  0
ARC
  5
36B
  8
DATA
  6
CONTINUOUS
 62
     7
 10
-1161.109651296551
 20
-1931.381772009931
 30
0.0
 40
8.000000000000277
 50
311.5712522345485
 51
132.5838024304509
  0
LINE
  5
36C
  8
DATA
  6
CONTINUOUS
 62
     7
 10
-626.0000000000002
 20
-891.9572717339483
 30
0.0
 11
-626.0000000000002
 21
-913.5793429927439
 31
0.0
  0
LINE
  5
36D
  8
DATA
  6
CONTINUOUS
 62
     7
 10
-626.0000000000002
 20
-936.0381628965409
 30
0.0
 11
-626.0000000000002
 21
-1448.08815345052
 31
0.0
  0
LINE
  5
36E
  8
DATA
  6
CONTINUOUS
 62
     7
 10
-626.0000000000002
 20
-1470.556908338589
 30
0.0
 11
-626.0000000000002
 21
-1493.328026172581
 31
0.0
  0
LINE
  5
36F
  8
DATA
  6
CONTINUOUS
 62
     7
 10
-726.6182279900694
 20
-1537.518
 30
0.0
 11
-726.6182279900694
 21
-1534.514068152032
 31
0.0
  0
LINE
  5
370
  8
DATA
  6
CONTINUOUS
 62
     7
 10
-668.7347562329946
 20
-1537.518
 30
0.0
 11
-668.7347562329946
 21
-1534.514068152032
 31
0.0
  0
LINE
  5
371
  8
DATA
  6
CONTINUOUS
 62
     7
 10
-726.6182279900694
 20
-1537.518
 30
0.0
 11
-726.6182279900694
 21
-1534.514068152032
 31
0.0
  0
LINE
  5
372
  8
DATA
  6
CONTINUOUS
 62
     7
 10
-668.7347562329946
 20
-1537.518
 30
0.0
 11
-726.6182279900694
 21
-1537.518
 31
0.0
  0
LINE
  5
373
  8
DATA
  6
CONTINUOUS
 62
     7
 10
-665.734328779446
 20
-1509.724966743811
 30
0.0
 11
-665.734328779446
 21
-1534.514068152032
 31
0.0
  0
LINE
  5
374
  8
DATA
  6
CONTINUOUS
 62
     7
 10
-626.0000000000002
 20
-1489.018112338522
 30
0.0
 11
-950.0
 21
-1507.014068152032
 31
0.0
  0
LINE
  5
375
  8
DATA
  6
CONTINUOUS
 62
     7
 10
-626.0000000000002
 20
-1482.518112338522
 30
0.0
 11
-950.0
 21
-1500.514068152032
 31
0.0
  0
LINE
  5
376
  8
DATA
  6
CONTINUOUS
 62
     7
 10
-626.0000000000002
 20
-895.8609694813649
 30
0.0
 11
-950.0
 21
-883.514068152032
 31
0.0
  0
LINE
  5
377
  8
DATA
  6
CONTINUOUS
 62
     7
 10
-626.0000000000002
 20
-901.9481202023179
 30
0.0
 11
-950.0
 21
-889.601218872985
 31
0.0
  0
LINE
  5
378
  8
DATA
  6
CONTINUOUS
 62
     7
 10
-720.7144305559656
 20
-1512.77873057774
 30
0.0
 11
-720.7144305559656
 21
-873.9086489859908
 31
0.0
  0
LINE
  5
379
  8
DATA
  6
CONTINUOUS
 62
     7
 10
-694.4308171520471
 20
-1511.31885790664
 30
0.0
 11
-694.4308171520471
 21
-1475.338236853452
 31
0.0
  0
LINE
  5
37A
  8
DATA
  6
CONTINUOUS
 62
     7
 10
-694.4308171520471
 20
-1450.299703636957
 30
0.0
 11
-694.4308171520471
 21
-1274.919939824677
 31
0.0
  0
LINE
  5
37B
  8
DATA
  6
CONTINUOUS
 62
     7
 10
-694.4308171520471
 20
-1115.116060175323
 30
0.0
 11
-694.4308171520471
 21
-934.9193305170388
 31
0.0
  0
LINE
  5
37C
  8
DATA
  6
CONTINUOUS
 62
     7
 10
-694.4308171520471
 20
-909.9011846233177
 30
0.0
 11
-694.4308171520471
 21
-874.910257570178
 31
0.0
  0
LINE
  5
37D
  8
DATA
  6
CONTINUOUS
 62
     7
 10
-897.5563392390582
 20
-1494.795586805102
 30
0.0
 11
-946.5
 21
-1497.514068152032
 31
0.0
  0
LINE
  5
37E
  8
DATA
  6
CONTINUOUS
 62
     7
 10
-897.6953593578505
 20
-894.4610524607078
 30
0.0
 11
-946.5
 21
-892.601218872985
 31
0.0
  0
ARC
  5
37F
  8
DATA
  6
CONTINUOUS
 62
     7
 10
-898.0
 20
-902.4552499863605
 30
0.0
 40
8.0
 50
0.0
 51
87.8176444639837
  0
ARC
  5
380
  8
DATA
  6
CONTINUOUS
 62
     7
 10
-898.0
 20
-1486.807898458077
 30
0.0
 40
8.000000000000044
 50
273.1791171507024
 51
0.0
  0
ARC
  5
381
  8
DATA
  6
CONTINUOUS
 62
     7
 10
-872.0
 20
-900.5794277308522
 30
0.0
 40
8.000000000000043
 50
87.81764446398374
 51
180.0
  0
ARC
  5
382
  8
DATA
  6
CONTINUOUS
 62
     7
 10
-872.0
 20
-1488.169377789871
 30
0.0
 40
8.0
 50
180.0
 51
273.1791171507024
  0
LINE
  5
383
  8
DATA
  6
CONTINUOUS
 62
     7
 10
-705.0000000000001
 20
-1511.905902806383
 30
0.0
 11
-705.0000000000001
 21
-1475.818758340389
 31
0.0
  0
LINE
  5
384
  8
DATA
  6
CONTINUOUS
 62
     7
 10
-705.0000000000001
 20
-1450.889146235411
 30
0.0
 11
-704.5386589772888
 21
-934.5341437094188
 31
0.0
  0
LINE
  5
385
  8
DATA
  6
CONTINUOUS
 62
     7
 10
-705.0000000000001
 20
-909.5784040230977
 30
0.0
 11
-705.0000000000001
 21
-874.6980287087314
 31
0.0
  0
LINE
  5
386
  8
DATA
  6
CONTINUOUS
 62
     7
 10
-631.0149326269272
 20
-912.3178193108103
 30
0.0
 11
-703.5866569705713
 21
-909.5522764417543
 31
0.0
  0
ARC
  5
387
  8
DATA
  6
CONTINUOUS
 62
     7
 10
-704.0626579739301
 20
-922.0432100755866
 30
0.0
 40
12.5
 50
87.81764446398282
 51
267.8176444639828
  0
LINE
  5
388
  8
DATA
  6
CONTINUOUS
 62
     7
 10
-631.9669346371912
 20
-937.2996866715395
 30
0.0
 11
-704.5386589772888
 21
-934.5341437094188
 31
0.0
  0
ARC
  5
389
  8
DATA
  6
CONTINUOUS
 62
     7
 10
-631.490933630286
 20
-924.8087529446425
 30
0.0
 40
12.5
 50
267.8176444639828
 51
87.8176444639828
  0
ARC
  5
38A
  8
DATA
  6
CONTINUOUS
 62
     7
 10
-704.0626579739301
 20
-1463.3539522879
 30
0.0
 40
12.5
 50
93.1791171507015
 51
273.1791171507036
  0
LINE
  5
38B
  8
DATA
  6
CONTINUOUS
 62
     7
 10
-630.7875431032552
 20
-1471.803293805275
 30
0.0
 11
-703.3694380349582
 21
-1475.834715330127
 31
0.0
  0
LINE
  5
38C
  8
DATA
  6
CONTINUOUS
 62
     7
 10
-632.1739829811985
 20
-1446.841767720822
 30
0.0
 11
-704.7558779129015
 21
-1450.873189245673
 31
0.0
  0
ARC
  5
38D
  8
DATA
  6
CONTINUOUS
 62
     7
 10
-631.4807630349226
 20
-1459.322530894555
 30
0.0
 40
12.5
 50
273.1791171507015
 51
93.17911715070355
  0
LINE
  5
38E
  8
DATA
  6
CONTINUOUS
 62
     7
 10
-491.0
 20
-1507.014068152032
 30
0.0
 11
-491.0
 21
-883.514068152032
 31
0.0
  0
LINE
  5
38F
  8
DATA
  6
CONTINUOUS
 62
     7
 10
-131.75
 20
-1534.514068152032
 30
0.0
 11
-468.25
 21
-1534.514068152032
 31
0.0
  0
LINE
  5
390
  8
DATA
  6
CONTINUOUS
 62
     7
 10
-109.0
 20
-883.514068152032
 30
0.0
 11
-109.0
 21
-1507.014068152032
 31
0.0
  0
LINE
  5
391
  8
DATA
  6
______-8
 62
     7
 10
-300.0
 20
-850.0
 30
0.0
 11
-300.0
 21
-1550.0
 31
0.0
  0
LINE
  5
392
  8
DATA
  6
CONTINUOUS
 62
     7
 10
-120.0
 20
-1525.014068152032
 30
0.0
 11
-131.75
 21
-1525.014068152032
 31
0.0
  0
LINE
  5
393
  8
DATA
  6
CONTINUOUS
 62
     7
 10
-468.2499999999999
 20
-1525.014068152032
 30
0.0
 11
-480.0
 21
-1525.014068152032
 31
0.0
  0
LINE
  5
394
  8
DATA
  6
CONTINUOUS
 62
     7
 10
-468.25
 20
-1534.514068152032
 30
0.0
 11
-468.25
 21
-1522.791594630017
 31
0.0
  0
LINE
  5
395
  8
DATA
  6
CONTINUOUS
 62
     7
 10
-131.75
 20
-1534.514068152032
 30
0.0
 11
-131.75
 21
-1522.791594630017
 31
0.0
  0
LINE
  5
396
  8
DATA
  6
CONTINUOUS
 62
     7
 10
-136.3741901588603
 20
-1537.518
 30
0.0
 11
-215.4995725464767
 21
-1537.518
 31
0.0
  0
LINE
  5
397
  8
DATA
  6
CONTINUOUS
 62
     7
 10
-384.5004274535233
 20
-1537.518
 30
0.0
 11
-463.6258098411397
 21
-1537.518
 31
0.0
  0
LINE
  5
398
  8
DATA
  6
CONTINUOUS
 62
     7
 10
-117.5
 20
-865.514068152032
 30
0.0
 11
-482.5
 21
-865.514068152032
 31
0.0
  0
ARC
  5
399
  8
DATA
  6
CONTINUOUS
 62
     7
 10
-462.984375
 20
-885.736724402032
 30
0.0
 40
28.10365536627378
 50
133.9806898660097
 51
175.4638656628845
  0
ARC
  5
39A
  8
DATA
  6
CONTINUOUS
 62
     7
 10
-137.015625
 20
-885.736724402032
 30
0.0
 40
28.10365536627378
 50
4.536134337115555
 51
46.01931013399035
  0
ARC
  5
39B
  8
DATA
  6
CONTINUOUS
 62
     7
 10
-458.6875
 20
-1499.628651485365
 30
0.0
 40
33.14576949763391
 50
192.8745000297067
 51
229.9846311999705
  0
ARC
  5
39C
  8
DATA
  6
CONTINUOUS
 62
     7
 10
-141.3125
 20
-1499.628651485365
 30
0.0
 40
33.14576949763396
 50
310.0153688000295
 51
347.1254999702933
  0
LINE
  5
39D
  8
DATA
  6
CONTINUOUS
 62
     7
 10
-177.5
 20
-1537.518
 30
0.0
 11
-177.5
 21
-1534.514068152032
 31
0.0
  0
LINE
  5
39E
  8
DATA
  6
CONTINUOUS
 62
     7
 10
-422.5
 20
-1537.518
 30
0.0
 11
-422.5
 21
-1534.514068152032
 31
0.0
  0
LINE
  5
39F
  8
DATA
  6
CONTINUOUS
 62
     7
 10
-463.6258098411397
 20
-1534.514068152032
 30
0.0
 11
-463.6258098411397
 21
-1537.518
 31
0.0
  0
LINE
  5
3A0
  8
DATA
  6
CONTINUOUS
 62
     7
 10
-136.3741901588603
 20
-1534.514068152032
 30
0.0
 11
-136.3741901588603
 21
-1537.518
 31
0.0
  0
ARC
  5
3A1
  8
DATA
  6
CONTINUOUS
 62
     7
 10
-641.0000000000002
 20
-891.9572717339483
 30
0.0
 40
15.0
 50
0.0
 51
87.81764446398267
  0
ARC
  5
3A2
  8
DATA
  6
CONTINUOUS
 62
     7
 10
-641.0000000000002
 20
-1493.328026172581
 30
0.0
 40
14.99999999999977
 50
273.179117150704
 51
0.0000000000008527
  0
LINE
  5
3A3
  8
DATA
  6
CONTINUOUS
 62
     7
 10
-474.9999999999999
 20
-885.7090728328033
 30
0.0
 11
-474.9999999999999
 21
-910.3377562591854
 31
0.0
  0
LINE
  5
3A4
  8
DATA
  6
CONTINUOUS
 62
     7
 10
-474.9999999999999
 20
-932.7966616991408
 30
0.0
 11
-474.9999999999999
 21
-1452.817719638399
 31
0.0
  0
LINE
  5
3A5
  8
DATA
  6
CONTINUOUS
 62
     7
 10
-474.9999999999999
 20
-1475.276625078355
 30
0.0
 11
-474.9999999999999
 21
-1503.987721228437
 31
0.0
  0
LINE
  5
3A6
  8
DATA
  6
CONTINUOUS
 62
     7
 10
-387.5000000000001
 20
-877.518
 30
0.0
 11
-387.5000000000001
 21
-912.8007767345827
 31
0.0
  0
LINE
  5
3A7
  8
DATA
  6
CONTINUOUS
 62
     7
 10
-387.5000000000001
 20
-937.7687313475491
 30
0.0
 11
-387.5000000000001
 21
-1446.145333517593
 31
0.0
  0
LINE
  5
3A8
  8
DATA
  6
CONTINUOUS
 62
     7
 10
-387.5000000000001
 20
-1471.114860111075
 30
0.0
 11
-387.5000000000001
 21
-1507.518
 31
0.0
  0
LINE
  5
3A9
  8
DATA
  6
CONTINUOUS
 62
     7
 10
-387.5000000000001
 20
-877.518
 30
0.0
 11
-370.0
 21
-877.518
 31
0.0
  0
LINE
  5
3AA
  8
DATA
  6
CONTINUOUS
 62
     7
 10
-230.0
 20
-877.518
 30
0.0
 11
-212.4999999999999
 21
-877.518
 31
0.0
  0
LINE
  5
3AB
  8
DATA
  6
CONTINUOUS
 62
     7
 10
-125.0000000000001
 20
-885.7090728328033
 30
0.0
 11
-125.0000000000001
 21
-910.3377562591854
 31
0.0
  0
LINE
  5
3AC
  8
DATA
  6
CONTINUOUS
 62
     7
 10
-125.0000000000001
 20
-932.7966616991407
 30
0.0
 11
-125.0000000000001
 21
-1452.817719638399
 31
0.0
  0
LINE
  5
3AD
  8
DATA
  6
CONTINUOUS
 62
     7
 10
-212.4999999999999
 20
-877.518
 30
0.0
 11
-212.4999999999999
 21
-912.8007767345827
 31
0.0
  0
LINE
  5
3AE
  8
DATA
  6
CONTINUOUS
 62
     7
 10
-212.4999999999999
 20
-937.7687313475491
 30
0.0
 11
-212.4999999999999
 21
-1446.145333517593
 31
0.0
  0
LINE
  5
3AF
  8
DATA
  6
CONTINUOUS
 62
     7
 10
-212.4999999999999
 20
-1471.114860111075
 30
0.0
 11
-212.4999999999999
 21
-1507.518
 31
0.0
  0
LINE
  5
3B0
  8
DATA
  6
CONTINUOUS
 62
     7
 10
-387.5000000000001
 20
-1507.518
 30
0.0
 11
-212.4999999999999
 21
-1507.518
 31
0.0
  0
LINE
  5
3B1
  8
DATA
  6
CONTINUOUS
 62
     7
 10
-480.0
 20
-1525.014068152032
 30
0.0
 11
-387.5000000000001
 21
-1507.518
 31
0.0
  0
LINE
  5
3B2
  8
DATA
  6
CONTINUOUS
 62
     7
 10
-482.5
 20
-865.514068152032
 30
0.0
 11
-387.5000000000001
 21
-878.5469084441115
 31
0.0
  0
ARC
  5
3B3
  8
DATA
  6
CONTINUOUS
 62
     7
 10
-388.132701044102
 20
-925.284754041066
 30
0.0
 40
12.49999999999993
 50
267.3843581778106
 51
87.66982566482437
  0
LINE
  5
3B4
  8
DATA
  6
CONTINUOUS
 62
     7
 10
-388.7031473778252
 20
-937.7717308961875
 30
0.0
 11
-470.0796001685329
 21
-934.0541858342846
 31
0.0
  0
LINE
  5
3B5
  8
DATA
  6
CONTINUOUS
 62
     7
 10
-468.9386837006347
 20
-909.0802332113475
 30
0.0
 11
-387.5000000000001
 21
-912.8007767345827
 31
0.0
  0
ARC
  5
3B6
  8
DATA
  6
CONTINUOUS
 62
     7
 10
-469.5091538348097
 20
-921.5672089791631
 30
0.0
 40
12.49999999999997
 50
87.38424897079302
 51
267.3843581778106
  0
ARC
  5
3B7
  8
DATA
  6
CONTINUOUS
 62
     7
 10
-211.867298955898
 20
-925.284754041066
 30
0.0
 40
12.49999999999998
 50
92.33017433517563
 51
272.6156418221894
  0
LINE
  5
3B8
  8
DATA
  6
CONTINUOUS
 62
     7
 10
-211.2968526221748
 20
-937.7717308961875
 30
0.0
 11
-129.9203998314671
 21
-934.0541858342846
 31
0.0
  0
LINE
  5
3B9
  8
DATA
  6
CONTINUOUS
 62
     7
 10
-131.0613162993653
 20
-909.0802332113475
 30
0.0
 11
-212.4999999999999
 21
-912.8007767345827
 31
0.0
  0
ARC
  5
3BA
  8
DATA
  6
CONTINUOUS
 62
     7
 10
-130.4908461651903
 20
-921.5672089791631
 30
0.0
 40
12.49999999999993
 50
272.6156418221894
 51
92.61575102920699
  0
ARC
  5
3BB
  8
DATA
  6
CONTINUOUS
 62
     7
 10
-469.5091538348096
 20
-1464.047172358377
 30
0.0
 40
12.50000000000005
 50
93.80900308045318
 51
273.8090030804531
  0
LINE
  5
3BC
  8
DATA
  6
CONTINUOUS
 62
     7
 10
-470.3395374287488
 20
-1451.574784331744
 30
0.0
 11
-388.963084638041
 21
-1446.156922797443
 31
0.0
  0
LINE
  5
3BD
  8
DATA
  6
CONTINUOUS
 62
     7
 10
-387.3023174501628
 20
-1471.101698850711
 30
0.0
 11
-468.6787702408705
 21
-1476.519560385011
 31
0.0
  0
ARC
  5
3BE
  8
DATA
  6
CONTINUOUS
 62
     7
 10
-388.1327010441019
 20
-1458.629310824077
 30
0.0
 40
12.50000000000004
 50
273.8090030804521
 51
93.8090030804521
  0
ARC
  5
3BF
  8
DATA
  6
CONTINUOUS
 62
     7
 10
-130.4908461651904
 20
-1464.047172358377
 30
0.0
 40
12.50000000000005
 50
266.1909969195468
 51
86.19099691954685
  0
LINE
  5
3C0
  8
DATA
  6
CONTINUOUS
 62
     7
 10
-129.6604625712512
 20
-1451.574784331744
 30
0.0
 11
-211.036915361959
 21
-1446.156922797443
 31
0.0
  0
LINE
  5
3C1
  8
DATA
  6
CONTINUOUS
 62
     7
 10
-212.6976825498372
 20
-1471.101698850711
 30
0.0
 11
-131.3212297591295
 21
-1476.519560385011
 31
0.0
  0
ARC
  5
3C2
  8
DATA
  6
CONTINUOUS
 62
     7
 10
-211.8672989558981
 20
-1458.629310824077
 30
0.0
 40
12.50000000000004
 50
86.19099691954786
 51
266.1909969195478
  0
LINE
  5
3C3
  8
DATA
  6
CONTINUOUS
 62
     7
 10
-491.0
 20
-883.514068152032
 30
0.0
 11
-387.5000000000001
 21
-897.7130046807713
 31
0.0
  0
LINE
  5
3C4
  8
DATA
  6
CONTINUOUS
 62
     7
 10
-109.0
 20
-883.514068152032
 30
0.0
 11
-212.4999999999999
 21
-897.7130046807713
 31
0.0
  0
LINE
  5
3C5
  8
DATA
  6
CONTINUOUS
 62
     7
 10
-250.0
 20
-970.514068152032
 30
0.0
 11
-350.0
 21
-970.514068152032
 31
0.0
  0
LINE
  5
3C6
  8
DATA
  6
CONTINUOUS
 62
     7
 10
-370.0
 20
-868.2773618802128
 30
0.0
 11
-370.0
 21
-950.514068152032
 31
0.0
  0
LINE
  5
3C7
  8
DATA
  6
CONTINUOUS
 62
     7
 10
-230.0
 20
-868.2773618802128
 30
0.0
 11
-230.0
 21
-950.514068152032
 31
0.0
  0
ARC
  5
3C8
  8
DATA
  6
CONTINUOUS
 62
     7
 10
-350.0
 20
-950.514068152032
 30
0.0
 40
20.0
 50
180.0
 51
270.0
  0
ARC
  5
3C9
  8
DATA
  6
CONTINUOUS
 62
     7
 10
-250.0
 20
-950.514068152032
 30
0.0
 40
20.0
 50
270.0
 51
0.0
  0
ARC
  5
3CA
  8
DATA
  6
CONTINUOUS
 62
     7
 10
-792.6563153991251
 20
-944.2587125585088
 30
0.0
 40
76.0365006588631
 50
71.67505490941258
 51
103.9602340185529
  0
LINE
  5
3CB
  8
DATA
  6
CONTINUOUS
 62
     7
 10
-370.0
 20
-868.2773618802128
 30
0.0
 11
-230.0
 21
-868.2773618802128
 31
0.0
  0
LINE
  5
3CC
  8
DATA
  6
CONTINUOUS
 62
     7
 10
-370.0
 20
-894.2773618802128
 30
0.0
 11
-230.0
 21
-894.2773618802128
 31
0.0
  0
CIRCLE
  5
3CD
  8
DATA
  6
CONTINUOUS
 62
     7
 10
-354.9999997764826
 20
-1023.014068152
 30
0.0
 40
3.0
  0
CIRCLE
  5
3CE
  8
DATA
  6
CONTINUOUS
 62
     7
 10
-354.9999997764826
 20
-1023.014068152
 30
0.0
 40
3.150000000000091
  0
CIRCLE
  5
3CF
  8
DATA
  6
CONTINUOUS
 62
     7
 10
-244.9999997764826
 20
-1023.014068152
 30
0.0
 40
3.0
  0
CIRCLE
  5
3D0
  8
DATA
  6
CONTINUOUS
 62
     7
 10
-244.9999997764826
 20
-1023.014068152
 30
0.0
 40
3.150000000000091
  0
CIRCLE
  5
3D1
  8
DATA
  6
CONTINUOUS
 62
     7
 10
-354.9999997764826
 20
-1418.014068152
 30
0.0
 40
3.0
  0
CIRCLE
  5
3D2
  8
DATA
  6
CONTINUOUS
 62
     7
 10
-354.9999997764826
 20
-1418.014068152
 30
0.0
 40
3.150000000000091
  0
CIRCLE
  5
3D3
  8
DATA
  6
CONTINUOUS
 62
     7
 10
-244.9999997764826
 20
-1418.014068152
 30
0.0
 40
3.0
  0
CIRCLE
  5
3D4
  8
DATA
  6
CONTINUOUS
 62
     7
 10
-244.9999997764826
 20
-1418.014068152
 30
0.0
 40
3.150000000000091
  0
CIRCLE
  5
3D5
  8
DATA
  6
CONTINUOUS
 62
     7
 10
-299.9999997764826
 20
-1421.514068152
 30
0.0
 40
5.0
  0
CIRCLE
  5
3D6
  8
DATA
  6
CONTINUOUS
 62
     7
 10
-299.9999997764826
 20
-1421.514068152
 30
0.0
 40
5.300000000000182
  0
CIRCLE
  5
3D7
  8
DATA
  6
CONTINUOUS
 62
     7
 10
-299.9999997764826
 20
-1019.514068152
 30
0.0
 40
5.0
  0
CIRCLE
  5
3D8
  8
DATA
  6
CONTINUOUS
 62
     7
 10
-299.9999997764826
 20
-1019.514068152
 30
0.0
 40
5.300000000000182
  0
LINE
  5
3D9
  8
DATA
  6
CONTINUOUS
 62
     7
 10
-359.9999997764825
 20
-1405.514068152
 30
0.0
 11
-240.0000002235175
 21
-1405.514068152
 31
0.0
  0
LINE
  5
3DA
  8
DATA
  6
CONTINUOUS
 62
     7
 10
-361.4999997764825
 20
-1400.514068152
 30
0.0
 11
-238.5000002235175
 21
-1400.514068152
 31
0.0
  0
LINE
  5
3DB
  8
DATA
  6
CONTINUOUS
 62
     7
 10
-361.4999997764825
 20
-1040.514068152
 30
0.0
 11
-238.5000002235175
 21
-1040.514068152
 31
0.0
  0
LINE
  5
3DC
  8
DATA
  6
CONTINUOUS
 62
     7
 10
-359.9999997764825
 20
-1035.514068152
 30
0.0
 11
-240.0000002235175
 21
-1035.514068152
 31
0.0
  0
POLYLINE
  5
3DD
  8
DATA
  6
CONTINUOUS
 62
     7
 66
     1
 10
0.0
 20
0.0
 30
0.0
 70
   129
  0
VERTEX
  5
737
  8
DATA
  6
CONTINUOUS
 62
     7
 10
-336.4999997764825
 20
-1070.514068152
 30
0.0
  0
VERTEX
  5
738
  8
DATA
  6
CONTINUOUS
 62
     7
 10
-288.4999997764825
 20
-1070.514068152
 30
0.0
  0
VERTEX
  5
739
  8
DATA
  6
CONTINUOUS
 62
     7
 10
-288.4999997764825
 20
-1107.514068152
 30
0.0
  0
VERTEX
  5
73A
  8
DATA
  6
CONTINUOUS
 62
     7
 10
-336.4999997764825
 20
-1107.514068152
 30
0.0
  0
SEQEND
  5
777
  8
DATA
  6
CONTINUOUS
 62
     7
  0
ARC
  5
3E3
  8
DATA
  6
CONTINUOUS
 62
     7
 10
-235.999999776584
 20
-1353.816303771822
 30
0.0
 40
0.2222356198218783
 50
356.825152874435
 51
183.1748471255666
  0
ARC
  5
3E4
  8
DATA
  6
CONTINUOUS
 62
     7
 10
-237.0351836924626
 20
-1353.72107701442
 30
0.0
 40
0.8203678318440766
 50
247.5320803524633
 51
352.4679196225528
  0
ARC
  5
3E5
  8
DATA
  6
CONTINUOUS
 62
     7
 10
-237.4703068594586
 20
-1354.665185961911
 30
0.0
 40
0.2222356198218802
 50
56.8251528744028
 51
243.1748471256079
  0
ARC
  5
3E6
  8
DATA
  6
CONTINUOUS
 62
     7
 10
-238.0703676084282
 20
-1355.51406815195
 30
0.0
 40
0.8203678318442066
 50
307.5320803524696
 51
52.46791962253969
  0
ARC
  5
3E7
  8
DATA
  6
CONTINUOUS
 62
     7
 10
-235.999999776584
 20
-1357.211832532178
 30
0.0
 40
0.2222356198217647
 50
176.8251528744334
 51
3.174847125564952
  0
ARC
  5
3E8
  8
DATA
  6
CONTINUOUS
 62
     7
 10
-237.0351836924626
 20
-1357.30705928958
 30
0.0
 40
0.8203678318442243
 50
7.532080377447175
 51
112.4679196475367
  0
ARC
  5
3E9
  8
DATA
  6
CONTINUOUS
 62
     7
 10
-237.4703068594586
 20
-1356.362950342089
 30
0.0
 40
0.2222356198219738
 50
116.825152874392
 51
303.1748471255972
  0
ARC
  5
3EA
  8
DATA
  6
CONTINUOUS
 62
     7
 10
-234.9648158607054
 20
-1353.72107701442
 30
0.0
 40
0.8203678318442243
 50
187.5320803774472
 51
292.4679196475367
  0
ARC
  5
3EB
  8
DATA
  6
CONTINUOUS
 62
     7
 10
-234.5296926937094
 20
-1354.665185961911
 30
0.0
 40
0.2222356198219738
 50
296.825152874392
 51
123.1748471255972
  0
ARC
  5
3EC
  8
DATA
  6
CONTINUOUS
 62
     7
 10
-233.9296319447398
 20
-1355.51406815195
 30
0.0
 40
0.8203678318441241
 50
127.5320803774604
 51
232.4679196475304
  0
ARC
  5
3ED
  8
DATA
  6
CONTINUOUS
 62
     7
 10
-234.9648158607054
 20
-1357.30705928958
 30
0.0
 40
0.8203678318440766
 50
67.53208035246327
 51
172.4679196225528
  0
ARC
  5
3EE
  8
DATA
  6
CONTINUOUS
 62
     7
 10
-234.5296926937094
 20
-1356.362950342089
 30
0.0
 40
0.2222356198218802
 50
236.8251528744028
 51
63.17484712560799
  0
CIRCLE
  5
3EF
  8
DATA
  6
CONTINUOUS
 62
     7
 10
-235.9999997764825
 20
-1355.514068152
 30
0.0
 40
4.050000000000011
  0
LINE
  5
3F0
  8
DATA
  6
CONTINUOUS
 62
     7
 10
-374.9999997764825
 20
-1050.514068152
 30
0.0
 11
-374.9999997764825
 21
-1390.514068152
 31
0.0
  0
LINE
  5
3F1
  8
DATA
  6
CONTINUOUS
 62
     7
 10
-371.4999997764825
 20
-1050.514068152
 30
0.0
 11
-371.4999997764825
 21
-1390.514068152
 31
0.0
  0
LINE
  5
3F2
  8
DATA
  6
CONTINUOUS
 62
     7
 10
-225.0000002235175
 20
-1050.514068152
 30
0.0
 11
-225.0000002235175
 21
-1390.514068152
 31
0.0
  0
LINE
  5
3F3
  8
DATA
  6
CONTINUOUS
 62
     7
 10
-228.5000002235175
 20
-1050.514068152
 30
0.0
 11
-228.5000002235175
 21
-1390.514068152
 31
0.0
  0
ARC
  5
3F4
  8
DATA
  6
CONTINUOUS
 62
     7
 10
-359.9999997764825
 20
-1050.514068152
 30
0.0
 40
15.0
 50
90.0
 51
180.0
  0
ARC
  5
3F5
  8
DATA
  6
CONTINUOUS
 62
     7
 10
-240.0000002235175
 20
-1050.514068152
 30
0.0
 40
15.0
 50
0.0
 51
90.0
  0
ARC
  5
3F6
  8
DATA
  6
CONTINUOUS
 62
     7
 10
-359.9999997764825
 20
-1390.514068152
 30
0.0
 40
15.0
 50
180.0
 51
270.0
  0
ARC
  5
3F7
  8
DATA
  6
CONTINUOUS
 62
     7
 10
-240.0000002235175
 20
-1390.514068152
 30
0.0
 40
15.0
 50
270.0
 51
0.0
  0
ARC
  5
3F8
  8
DATA
  6
CONTINUOUS
 62
     7
 10
-361.4999997764825
 20
-1050.514068152
 30
0.0
 40
10.0
 50
90.0
 51
180.0
  0
ARC
  5
3F9
  8
DATA
  6
CONTINUOUS
 62
     7
 10
-238.5000002235175
 20
-1050.514068152
 30
0.0
 40
10.0
 50
0.0
 51
90.0
  0
ARC
  5
3FA
  8
DATA
  6
CONTINUOUS
 62
     7
 10
-238.5000002235175
 20
-1390.514068152
 30
0.0
 40
10.0
 50
270.0
 51
0.0
  0
ARC
  5
3FB
  8
DATA
  6
CONTINUOUS
 62
     7
 10
-361.4999997764825
 20
-1390.514068152
 30
0.0
 40
10.0
 50
180.0
 51
270.0
  0
ARC
  5
3FC
  8
DATA
  6
CONTINUOUS
 62
     7
 10
-363.999999776584
 20
-1353.816303771822
 30
0.0
 40
0.2222356198218783
 50
356.825152874435
 51
183.1748471255666
  0
ARC
  5
3FD
  8
DATA
  6
CONTINUOUS
 62
     7
 10
-365.0351836924626
 20
-1353.72107701442
 30
0.0
 40
0.8203678318440766
 50
247.5320803524633
 51
352.4679196225528
  0
ARC
  5
3FE
  8
DATA
  6
CONTINUOUS
 62
     7
 10
-365.4703068594586
 20
-1354.665185961911
 30
0.0
 40
0.2222356198218802
 50
56.8251528744028
 51
243.1748471256079
  0
ARC
  5
3FF
  8
DATA
  6
CONTINUOUS
 62
     7
 10
-366.0703676084282
 20
-1355.51406815195
 30
0.0
 40
0.8203678318442066
 50
307.5320803524696
 51
52.46791962253969
  0
ARC
  5
400
  8
DATA
  6
CONTINUOUS
 62
     7
 10
-363.999999776584
 20
-1357.211832532178
 30
0.0
 40
0.2222356198217647
 50
176.8251528744334
 51
3.174847125564952
  0
ARC
  5
401
  8
DATA
  6
CONTINUOUS
 62
     7
 10
-365.0351836924626
 20
-1357.30705928958
 30
0.0
 40
0.8203678318442243
 50
7.532080377447175
 51
112.4679196475367
  0
ARC
  5
402
  8
DATA
  6
CONTINUOUS
 62
     7
 10
-365.4703068594586
 20
-1356.362950342089
 30
0.0
 40
0.2222356198219738
 50
116.825152874392
 51
303.1748471255972
  0
ARC
  5
403
  8
DATA
  6
CONTINUOUS
 62
     7
 10
-362.9648158607054
 20
-1353.72107701442
 30
0.0
 40
0.8203678318442243
 50
187.5320803774472
 51
292.4679196475367
  0
ARC
  5
404
  8
DATA
  6
CONTINUOUS
 62
     7
 10
-362.5296926937094
 20
-1354.665185961911
 30
0.0
 40
0.2222356198219738
 50
296.825152874392
 51
123.1748471255972
  0
ARC
  5
405
  8
DATA
  6
CONTINUOUS
 62
     7
 10
-361.9296319447398
 20
-1355.51406815195
 30
0.0
 40
0.8203678318441241
 50
127.5320803774604
 51
232.4679196475304
  0
ARC
  5
406
  8
DATA
  6
CONTINUOUS
 62
     7
 10
-362.9648158607054
 20
-1357.30705928958
 30
0.0
 40
0.8203678318440766
 50
67.53208035246327
 51
172.4679196225528
  0
ARC
  5
407
  8
DATA
  6
CONTINUOUS
 62
     7
 10
-362.5296926937094
 20
-1356.362950342089
 30
0.0
 40
0.2222356198218802
 50
236.8251528744028
 51
63.17484712560799
  0
CIRCLE
  5
408
  8
DATA
  6
CONTINUOUS
 62
     7
 10
-363.9999997764825
 20
-1355.514068152
 30
0.0
 40
4.050000000000011
  0
ARC
  5
409
  8
DATA
  6
CONTINUOUS
 62
     7
 10
-363.999999776584
 20
-1263.816303771822
 30
0.0
 40
0.2222356198218783
 50
356.825152874435
 51
183.1748471255666
  0
ARC
  5
40A
  8
DATA
  6
CONTINUOUS
 62
     7
 10
-365.0351836924626
 20
-1263.72107701442
 30
0.0
 40
0.8203678318440766
 50
247.5320803524633
 51
352.4679196225528
  0
ARC
  5
40B
  8
DATA
  6
CONTINUOUS
 62
     7
 10
-365.4703068594586
 20
-1264.665185961911
 30
0.0
 40
0.2222356198218802
 50
56.8251528744028
 51
243.1748471256079
  0
ARC
  5
40C
  8
DATA
  6
CONTINUOUS
 62
     7
 10
-366.0703676084282
 20
-1265.51406815195
 30
0.0
 40
0.8203678318442066
 50
307.5320803524696
 51
52.46791962253969
  0
ARC
  5
40D
  8
DATA
  6
CONTINUOUS
 62
     7
 10
-363.999999776584
 20
-1267.211832532178
 30
0.0
 40
0.2222356198217647
 50
176.8251528744334
 51
3.174847125564952
  0
ARC
  5
40E
  8
DATA
  6
CONTINUOUS
 62
     7
 10
-365.0351836924626
 20
-1267.30705928958
 30
0.0
 40
0.8203678318442243
 50
7.532080377447175
 51
112.4679196475367
  0
ARC
  5
40F
  8
DATA
  6
CONTINUOUS
 62
     7
 10
-365.4703068594586
 20
-1266.362950342089
 30
0.0
 40
0.2222356198219738
 50
116.825152874392
 51
303.1748471255972
  0
ARC
  5
410
  8
DATA
  6
CONTINUOUS
 62
     7
 10
-362.9648158607054
 20
-1263.72107701442
 30
0.0
 40
0.8203678318442243
 50
187.5320803774472
 51
292.4679196475367
  0
ARC
  5
411
  8
DATA
  6
CONTINUOUS
 62
     7
 10
-362.5296926937094
 20
-1264.665185961911
 30
0.0
 40
0.2222356198219738
 50
296.825152874392
 51
123.1748471255972
  0
ARC
  5
412
  8
DATA
  6
CONTINUOUS
 62
     7
 10
-361.9296319447398
 20
-1265.51406815195
 30
0.0
 40
0.8203678318441241
 50
127.5320803774604
 51
232.4679196475304
  0
ARC
  5
413
  8
DATA
  6
CONTINUOUS
 62
     7
 10
-362.9648158607054
 20
-1267.30705928958
 30
0.0
 40
0.8203678318440766
 50
67.53208035246327
 51
172.4679196225528
  0
ARC
  5
414
  8
DATA
  6
CONTINUOUS
 62
     7
 10
-362.5296926937094
 20
-1266.362950342089
 30
0.0
 40
0.2222356198218802
 50
236.8251528744028
 51
63.17484712560799
  0
CIRCLE
  5
415
  8
DATA
  6
CONTINUOUS
 62
     7
 10
-363.9999997764825
 20
-1265.514068152
 30
0.0
 40
4.050000000000011
  0
ARC
  5
416
  8
DATA
  6
CONTINUOUS
 62
     7
 10
-363.999999776584
 20
-1173.816303771822
 30
0.0
 40
0.2222356198218783
 50
356.825152874435
 51
183.1748471255666
  0
ARC
  5
417
  8
DATA
  6
CONTINUOUS
 62
     7
 10
-365.0351836924626
 20
-1173.72107701442
 30
0.0
 40
0.8203678318440766
 50
247.5320803524633
 51
352.4679196225528
  0
ARC
  5
418
  8
DATA
  6
CONTINUOUS
 62
     7
 10
-365.4703068594586
 20
-1174.665185961911
 30
0.0
 40
0.2222356198218802
 50
56.8251528744028
 51
243.1748471256079
  0
ARC
  5
419
  8
DATA
  6
CONTINUOUS
 62
     7
 10
-366.0703676084282
 20
-1175.51406815195
 30
0.0
 40
0.8203678318442066
 50
307.5320803524696
 51
52.46791962253969
  0
ARC
  5
41A
  8
DATA
  6
CONTINUOUS
 62
     7
 10
-363.999999776584
 20
-1177.211832532178
 30
0.0
 40
0.2222356198217647
 50
176.8251528744334
 51
3.174847125564952
  0
ARC
  5
41B
  8
DATA
  6
CONTINUOUS
 62
     7
 10
-365.0351836924626
 20
-1177.30705928958
 30
0.0
 40
0.8203678318442243
 50
7.532080377447175
 51
112.4679196475367
  0
ARC
  5
41C
  8
DATA
  6
CONTINUOUS
 62
     7
 10
-365.4703068594586
 20
-1176.362950342089
 30
0.0
 40
0.2222356198219738
 50
116.825152874392
 51
303.1748471255972
  0
ARC
  5
41D
  8
DATA
  6
CONTINUOUS
 62
     7
 10
-362.9648158607054
 20
-1173.72107701442
 30
0.0
 40
0.8203678318442243
 50
187.5320803774472
 51
292.4679196475367
  0
ARC
  5
41E
  8
DATA
  6
CONTINUOUS
 62
     7
 10
-362.5296926937094
 20
-1174.665185961911
 30
0.0
 40
0.2222356198219738
 50
296.825152874392
 51
123.1748471255972
  0
ARC
  5
41F
  8
DATA
  6
CONTINUOUS
 62
     7
 10
-361.9296319447398
 20
-1175.51406815195
 30
0.0
 40
0.8203678318441241
 50
127.5320803774604
 51
232.4679196475304
  0
ARC
  5
420
  8
DATA
  6
CONTINUOUS
 62
     7
 10
-362.9648158607054
 20
-1177.30705928958
 30
0.0
 40
0.8203678318440766
 50
67.53208035246327
 51
172.4679196225528
  0
ARC
  5
421
  8
DATA
  6
CONTINUOUS
 62
     7
 10
-362.5296926937094
 20
-1176.362950342089
 30
0.0
 40
0.2222356198218802
 50
236.8251528744028
 51
63.17484712560799
  0
CIRCLE
  5
422
  8
DATA
  6
CONTINUOUS
 62
     7
 10
-363.9999997764825
 20
-1175.514068152
 30
0.0
 40
4.050000000000011
  0
ARC
  5
423
  8
DATA
  6
CONTINUOUS
 62
     7
 10
-363.999999776584
 20
-1083.816303771822
 30
0.0
 40
0.2222356198218783
 50
356.825152874435
 51
183.1748471255666
  0
ARC
  5
424
  8
DATA
  6
CONTINUOUS
 62
     7
 10
-365.0351836924626
 20
-1083.72107701442
 30
0.0
 40
0.8203678318440766
 50
247.5320803524633
 51
352.4679196225528
  0
ARC
  5
425
  8
DATA
  6
CONTINUOUS
 62
     7
 10
-365.4703068594586
 20
-1084.665185961911
 30
0.0
 40
0.2222356198218802
 50
56.8251528744028
 51
243.1748471256079
  0
ARC
  5
426
  8
DATA
  6
CONTINUOUS
 62
     7
 10
-366.0703676084282
 20
-1085.51406815195
 30
0.0
 40
0.8203678318442066
 50
307.5320803524696
 51
52.46791962253969
  0
ARC
  5
427
  8
DATA
  6
CONTINUOUS
 62
     7
 10
-363.999999776584
 20
-1087.211832532178
 30
0.0
 40
0.2222356198217647
 50
176.8251528744334
 51
3.174847125564952
  0
ARC
  5
428
  8
DATA
  6
CONTINUOUS
 62
     7
 10
-365.0351836924626
 20
-1087.30705928958
 30
0.0
 40
0.8203678318442243
 50
7.532080377447175
 51
112.4679196475367
  0
ARC
  5
429
  8
DATA
  6
CONTINUOUS
 62
     7
 10
-365.4703068594586
 20
-1086.362950342089
 30
0.0
 40
0.2222356198219738
 50
116.825152874392
 51
303.1748471255972
  0
ARC
  5
42A
  8
DATA
  6
CONTINUOUS
 62
     7
 10
-362.9648158607054
 20
-1083.72107701442
 30
0.0
 40
0.8203678318442243
 50
187.5320803774472
 51
292.4679196475367
  0
ARC
  5
42B
  8
DATA
  6
CONTINUOUS
 62
     7
 10
-362.5296926937094
 20
-1084.665185961911
 30
0.0
 40
0.2222356198219738
 50
296.825152874392
 51
123.1748471255972
  0
ARC
  5
42C
  8
DATA
  6
CONTINUOUS
 62
     7
 10
-361.9296319447398
 20
-1085.51406815195
 30
0.0
 40
0.8203678318441241
 50
127.5320803774604
 51
232.4679196475304
  0
ARC
  5
42D
  8
DATA
  6
CONTINUOUS
 62
     7
 10
-362.9648158607054
 20
-1087.30705928958
 30
0.0
 40
0.8203678318440766
 50
67.53208035246327
 51
172.4679196225528
  0
ARC
  5
42E
  8
DATA
  6
CONTINUOUS
 62
     7
 10
-362.5296926937094
 20
-1086.362950342089
 30
0.0
 40
0.2222356198218802
 50
236.8251528744028
 51
63.17484712560799
  0
CIRCLE
  5
42F
  8
DATA
  6
CONTINUOUS
 62
     7
 10
-363.9999997764825
 20
-1085.514068152
 30
0.0
 40
4.050000000000011
  0
ARC
  5
430
  8
DATA
  6
CONTINUOUS
 62
     7
 10
-235.999999776584
 20
-1083.816303771822
 30
0.0
 40
0.2222356198218783
 50
356.825152874435
 51
183.1748471255666
  0
ARC
  5
431
  8
DATA
  6
CONTINUOUS
 62
     7
 10
-237.0351836924626
 20
-1083.72107701442
 30
0.0
 40
0.8203678318440766
 50
247.5320803524633
 51
352.4679196225528
  0
ARC
  5
432
  8
DATA
  6
CONTINUOUS
 62
     7
 10
-237.4703068594586
 20
-1084.665185961911
 30
0.0
 40
0.2222356198218802
 50
56.8251528744028
 51
243.1748471256079
  0
ARC
  5
433
  8
DATA
  6
CONTINUOUS
 62
     7
 10
-238.0703676084282
 20
-1085.51406815195
 30
0.0
 40
0.8203678318442066
 50
307.5320803524696
 51
52.46791962253969
  0
ARC
  5
434
  8
DATA
  6
CONTINUOUS
 62
     7
 10
-235.999999776584
 20
-1087.211832532178
 30
0.0
 40
0.2222356198217647
 50
176.8251528744334
 51
3.174847125564952
  0
ARC
  5
435
  8
DATA
  6
CONTINUOUS
 62
     7
 10
-237.0351836924626
 20
-1087.30705928958
 30
0.0
 40
0.8203678318442243
 50
7.532080377447175
 51
112.4679196475367
  0
ARC
  5
436
  8
DATA
  6
CONTINUOUS
 62
     7
 10
-237.4703068594586
 20
-1086.362950342089
 30
0.0
 40
0.2222356198219738
 50
116.825152874392
 51
303.1748471255972
  0
ARC
  5
437
  8
DATA
  6
CONTINUOUS
 62
     7
 10
-234.9648158607054
 20
-1083.72107701442
 30
0.0
 40
0.8203678318442243
 50
187.5320803774472
 51
292.4679196475367
  0
ARC
  5
438
  8
DATA
  6
CONTINUOUS
 62
     7
 10
-234.5296926937094
 20
-1084.665185961911
 30
0.0
 40
0.2222356198219738
 50
296.825152874392
 51
123.1748471255972
  0
ARC
  5
439
  8
DATA
  6
CONTINUOUS
 62
     7
 10
-233.9296319447398
 20
-1085.51406815195
 30
0.0
 40
0.8203678318441241
 50
127.5320803774604
 51
232.4679196475304
  0
ARC
  5
43A
  8
DATA
  6
CONTINUOUS
 62
     7
 10
-234.9648158607054
 20
-1087.30705928958
 30
0.0
 40
0.8203678318440766
 50
67.53208035246327
 51
172.4679196225528
  0
ARC
  5
43B
  8
DATA
  6
CONTINUOUS
 62
     7
 10
-234.5296926937094
 20
-1086.362950342089
 30
0.0
 40
0.2222356198218802
 50
236.8251528744028
 51
63.17484712560799
  0
CIRCLE
  5
43C
  8
DATA
  6
CONTINUOUS
 62
     7
 10
-235.9999997764825
 20
-1085.514068152
 30
0.0
 40
4.050000000000011
  0
ARC
  5
43D
  8
DATA
  6
CONTINUOUS
 62
     7
 10
-235.999999776584
 20
-1263.816303771822
 30
0.0
 40
0.2222356198218783
 50
356.825152874435
 51
183.1748471255666
  0
ARC
  5
43E
  8
DATA
  6
CONTINUOUS
 62
     7
 10
-237.0351836924626
 20
-1263.72107701442
 30
0.0
 40
0.8203678318440766
 50
247.5320803524633
 51
352.4679196225528
  0
ARC
  5
43F
  8
DATA
  6
CONTINUOUS
 62
     7
 10
-237.4703068594586
 20
-1264.665185961911
 30
0.0
 40
0.2222356198218802
 50
56.8251528744028
 51
243.1748471256079
  0
ARC
  5
440
  8
DATA
  6
CONTINUOUS
 62
     7
 10
-238.0703676084282
 20
-1265.51406815195
 30
0.0
 40
0.8203678318442066
 50
307.5320803524696
 51
52.46791962253969
  0
ARC
  5
441
  8
DATA
  6
CONTINUOUS
 62
     7
 10
-235.999999776584
 20
-1267.211832532178
 30
0.0
 40
0.2222356198217647
 50
176.8251528744334
 51
3.174847125564952
  0
ARC
  5
442
  8
DATA
  6
CONTINUOUS
 62
     7
 10
-237.0351836924626
 20
-1267.30705928958
 30
0.0
 40
0.8203678318442243
 50
7.532080377447175
 51
112.4679196475367
  0
ARC
  5
443
  8
DATA
  6
CONTINUOUS
 62
     7
 10
-237.4703068594586
 20
-1266.362950342089
 30
0.0
 40
0.2222356198219738
 50
116.825152874392
 51
303.1748471255972
  0
ARC
  5
444
  8
DATA
  6
CONTINUOUS
 62
     7
 10
-234.9648158607054
 20
-1263.72107701442
 30
0.0
 40
0.8203678318442243
 50
187.5320803774472
 51
292.4679196475367
  0
ARC
  5
445
  8
DATA
  6
CONTINUOUS
 62
     7
 10
-234.5296926937094
 20
-1264.665185961911
 30
0.0
 40
0.2222356198219738
 50
296.825152874392
 51
123.1748471255972
  0
ARC
  5
446
  8
DATA
  6
CONTINUOUS
 62
     7
 10
-233.9296319447398
 20
-1265.51406815195
 30
0.0
 40
0.8203678318441241
 50
127.5320803774604
 51
232.4679196475304
  0
ARC
  5
447
  8
DATA
  6
CONTINUOUS
 62
     7
 10
-234.9648158607054
 20
-1267.30705928958
 30
0.0
 40
0.8203678318440766
 50
67.53208035246327
 51
172.4679196225528
  0
ARC
  5
448
  8
DATA
  6
CONTINUOUS
 62
     7
 10
-234.5296926937094
 20
-1266.362950342089
 30
0.0
 40
0.2222356198218802
 50
236.8251528744028
 51
63.17484712560799
  0
CIRCLE
  5
449
  8
DATA
  6
CONTINUOUS
 62
     7
 10
-235.9999997764825
 20
-1265.514068152
 30
0.0
 40
4.050000000000011
  0
ARC
  5
44A
  8
DATA
  6
CONTINUOUS
 62
     7
 10
-235.999999776584
 20
-1173.816303771822
 30
0.0
 40
0.2222356198218783
 50
356.825152874435
 51
183.1748471255666
  0
ARC
  5
44B
  8
DATA
  6
CONTINUOUS
 62
     7
 10
-237.0351836924626
 20
-1173.72107701442
 30
0.0
 40
0.8203678318440766
 50
247.5320803524633
 51
352.4679196225528
  0
ARC
  5
44C
  8
DATA
  6
CONTINUOUS
 62
     7
 10
-237.4703068594586
 20
-1174.665185961911
 30
0.0
 40
0.2222356198218802
 50
56.8251528744028
 51
243.1748471256079
  0
ARC
  5
44D
  8
DATA
  6
CONTINUOUS
 62
     7
 10
-238.0703676084282
 20
-1175.51406815195
 30
0.0
 40
0.8203678318442066
 50
307.5320803524696
 51
52.46791962253969
  0
ARC
  5
44E
  8
DATA
  6
CONTINUOUS
 62
     7
 10
-235.999999776584
 20
-1177.211832532178
 30
0.0
 40
0.2222356198217647
 50
176.8251528744334
 51
3.174847125564952
  0
ARC
  5
44F
  8
DATA
  6
CONTINUOUS
 62
     7
 10
-237.0351836924626
 20
-1177.30705928958
 30
0.0
 40
0.8203678318442243
 50
7.532080377447175
 51
112.4679196475367
  0
ARC
  5
450
  8
DATA
  6
CONTINUOUS
 62
     7
 10
-237.4703068594586
 20
-1176.362950342089
 30
0.0
 40
0.2222356198219738
 50
116.825152874392
 51
303.1748471255972
  0
ARC
  5
451
  8
DATA
  6
CONTINUOUS
 62
     7
 10
-234.9648158607054
 20
-1173.72107701442
 30
0.0
 40
0.8203678318442243
 50
187.5320803774472
 51
292.4679196475367
  0
ARC
  5
452
  8
DATA
  6
CONTINUOUS
 62
     7
 10
-234.5296926937094
 20
-1174.665185961911
 30
0.0
 40
0.2222356198219738
 50
296.825152874392
 51
123.1748471255972
  0
ARC
  5
453
  8
DATA
  6
CONTINUOUS
 62
     7
 10
-233.9296319447398
 20
-1175.51406815195
 30
0.0
 40
0.8203678318441241
 50
127.5320803774604
 51
232.4679196475304
  0
ARC
  5
454
  8
DATA
  6
CONTINUOUS
 62
     7
 10
-234.9648158607054
 20
-1177.30705928958
 30
0.0
 40
0.8203678318440766
 50
67.53208035246327
 51
172.4679196225528
  0
ARC
  5
455
  8
DATA
  6
CONTINUOUS
 62
     7
 10
-234.5296926937094
 20
-1176.362950342089
 30
0.0
 40
0.2222356198218802
 50
236.8251528744028
 51
63.17484712560799
  0
CIRCLE
  5
456
  8
DATA
  6
CONTINUOUS
 62
     7
 10
-235.9999997764825
 20
-1175.514068152
 30
0.0
 40
4.050000000000011
  0
ARC
  5
457
  8
DATA
  6
CONTINUOUS
 62
     7
 10
-339.999999776584
 20
-1392.316303771822
 30
0.0
 40
0.2222356198218783
 50
356.825152874435
 51
183.1748471255666
  0
ARC
  5
458
  8
DATA
  6
CONTINUOUS
 62
     7
 10
-341.0351836924626
 20
-1392.22107701442
 30
0.0
 40
0.8203678318440766
 50
247.5320803524633
 51
352.4679196225528
  0
ARC
  5
459
  8
DATA
  6
CONTINUOUS
 62
     7
 10
-341.4703068594586
 20
-1393.165185961911
 30
0.0
 40
0.2222356198218802
 50
56.8251528744028
 51
243.1748471256079
  0
ARC
  5
45A
  8
DATA
  6
CONTINUOUS
 62
     7
 10
-342.0703676084282
 20
-1394.01406815195
 30
0.0
 40
0.8203678318442066
 50
307.5320803524696
 51
52.46791962253969
  0
ARC
  5
45B
  8
DATA
  6
CONTINUOUS
 62
     7
 10
-339.999999776584
 20
-1395.711832532178
 30
0.0
 40
0.2222356198217647
 50
176.8251528744334
 51
3.174847125564952
  0
ARC
  5
45C
  8
DATA
  6
CONTINUOUS
 62
     7
 10
-341.0351836924626
 20
-1395.80705928958
 30
0.0
 40
0.8203678318442243
 50
7.532080377447175
 51
112.4679196475367
  0
ARC
  5
45D
  8
DATA
  6
CONTINUOUS
 62
     7
 10
-341.4703068594586
 20
-1394.862950342089
 30
0.0
 40
0.2222356198219738
 50
116.825152874392
 51
303.1748471255972
  0
ARC
  5
45E
  8
DATA
  6
CONTINUOUS
 62
     7
 10
-338.9648158607054
 20
-1392.22107701442
 30
0.0
 40
0.8203678318442243
 50
187.5320803774472
 51
292.4679196475367
  0
ARC
  5
45F
  8
DATA
  6
CONTINUOUS
 62
     7
 10
-338.5296926937094
 20
-1393.165185961911
 30
0.0
 40
0.2222356198219738
 50
296.825152874392
 51
123.1748471255972
  0
ARC
  5
460
  8
DATA
  6
CONTINUOUS
 62
     7
 10
-337.9296319447398
 20
-1394.01406815195
 30
0.0
 40
0.8203678318441241
 50
127.5320803774604
 51
232.4679196475304
  0
ARC
  5
461
  8
DATA
  6
CONTINUOUS
 62
     7
 10
-338.9648158607054
 20
-1395.80705928958
 30
0.0
 40
0.8203678318440766
 50
67.53208035246327
 51
172.4679196225528
  0
ARC
  5
462
  8
DATA
  6
CONTINUOUS
 62
     7
 10
-338.5296926937094
 20
-1394.862950342089
 30
0.0
 40
0.2222356198218802
 50
236.8251528744028
 51
63.17484712560799
  0
CIRCLE
  5
463
  8
DATA
  6
CONTINUOUS
 62
     7
 10
-339.9999997764825
 20
-1394.014068152
 30
0.0
 40
4.050000000000011
  0
ARC
  5
464
  8
DATA
  6
CONTINUOUS
 62
     7
 10
-259.999999776584
 20
-1392.316303771822
 30
0.0
 40
0.2222356198218783
 50
356.825152874435
 51
183.1748471255666
  0
ARC
  5
465
  8
DATA
  6
CONTINUOUS
 62
     7
 10
-261.0351836924626
 20
-1392.22107701442
 30
0.0
 40
0.8203678318440766
 50
247.5320803524633
 51
352.4679196225528
  0
ARC
  5
466
  8
DATA
  6
CONTINUOUS
 62
     7
 10
-261.4703068594586
 20
-1393.165185961911
 30
0.0
 40
0.2222356198218802
 50
56.8251528744028
 51
243.1748471256079
  0
ARC
  5
467
  8
DATA
  6
CONTINUOUS
 62
     7
 10
-262.0703676084282
 20
-1394.01406815195
 30
0.0
 40
0.8203678318442066
 50
307.5320803524696
 51
52.46791962253969
  0
ARC
  5
468
  8
DATA
  6
CONTINUOUS
 62
     7
 10
-259.999999776584
 20
-1395.711832532178
 30
0.0
 40
0.2222356198217647
 50
176.8251528744334
 51
3.174847125564952
  0
ARC
  5
469
  8
DATA
  6
CONTINUOUS
 62
     7
 10
-261.0351836924626
 20
-1395.80705928958
 30
0.0
 40
0.8203678318442243
 50
7.532080377447175
 51
112.4679196475367
  0
ARC
  5
46A
  8
DATA
  6
CONTINUOUS
 62
     7
 10
-261.4703068594586
 20
-1394.862950342089
 30
0.0
 40
0.2222356198219738
 50
116.825152874392
 51
303.1748471255972
  0
ARC
  5
46B
  8
DATA
  6
CONTINUOUS
 62
     7
 10
-258.9648158607054
 20
-1392.22107701442
 30
0.0
 40
0.8203678318442243
 50
187.5320803774472
 51
292.4679196475367
  0
ARC
  5
46C
  8
DATA
  6
CONTINUOUS
 62
     7
 10
-258.5296926937094
 20
-1393.165185961911
 30
0.0
 40
0.2222356198219738
 50
296.825152874392
 51
123.1748471255972
  0
ARC
  5
46D
  8
DATA
  6
CONTINUOUS
 62
     7
 10
-257.9296319447398
 20
-1394.01406815195
 30
0.0
 40
0.8203678318441241
 50
127.5320803774604
 51
232.4679196475304
  0
ARC
  5
46E
  8
DATA
  6
CONTINUOUS
 62
     7
 10
-258.9648158607054
 20
-1395.80705928958
 30
0.0
 40
0.8203678318440766
 50
67.53208035246327
 51
172.4679196225528
  0
ARC
  5
46F
  8
DATA
  6
CONTINUOUS
 62
     7
 10
-258.5296926937094
 20
-1394.862950342089
 30
0.0
 40
0.2222356198218802
 50
236.8251528744028
 51
63.17484712560799
  0
CIRCLE
  5
470
  8
DATA
  6
CONTINUOUS
 62
     7
 10
-259.9999997764825
 20
-1394.014068152
 30
0.0
 40
4.050000000000011
  0
ARC
  5
471
  8
DATA
  6
CONTINUOUS
 62
     7
 10
-339.999999776584
 20
-1045.316303771822
 30
0.0
 40
0.2222356198218783
 50
356.825152874435
 51
183.1748471255666
  0
ARC
  5
472
  8
DATA
  6
CONTINUOUS
 62
     7
 10
-341.0351836924626
 20
-1045.22107701442
 30
0.0
 40
0.8203678318440766
 50
247.5320803524633
 51
352.4679196225528
  0
ARC
  5
473
  8
DATA
  6
CONTINUOUS
 62
     7
 10
-341.4703068594586
 20
-1046.165185961911
 30
0.0
 40
0.2222356198218802
 50
56.8251528744028
 51
243.1748471256079
  0
ARC
  5
474
  8
DATA
  6
CONTINUOUS
 62
     7
 10
-342.0703676084282
 20
-1047.01406815195
 30
0.0
 40
0.8203678318442066
 50
307.5320803524696
 51
52.46791962253969
  0
ARC
  5
475
  8
DATA
  6
CONTINUOUS
 62
     7
 10
-339.999999776584
 20
-1048.711832532178
 30
0.0
 40
0.2222356198217647
 50
176.8251528744334
 51
3.174847125564952
  0
ARC
  5
476
  8
DATA
  6
CONTINUOUS
 62
     7
 10
-341.0351836924626
 20
-1048.80705928958
 30
0.0
 40
0.8203678318442243
 50
7.532080377447175
 51
112.4679196475367
  0
ARC
  5
477
  8
DATA
  6
CONTINUOUS
 62
     7
 10
-341.4703068594586
 20
-1047.862950342089
 30
0.0
 40
0.2222356198219738
 50
116.825152874392
 51
303.1748471255972
  0
ARC
  5
478
  8
DATA
  6
CONTINUOUS
 62
     7
 10
-338.9648158607054
 20
-1045.22107701442
 30
0.0
 40
0.8203678318442243
 50
187.5320803774472
 51
292.4679196475367
  0
ARC
  5
479
  8
DATA
  6
CONTINUOUS
 62
     7
 10
-338.5296926937094
 20
-1046.165185961911
 30
0.0
 40
0.2222356198219738
 50
296.825152874392
 51
123.1748471255972
  0
ARC
  5
47A
  8
DATA
  6
CONTINUOUS
 62
     7
 10
-337.9296319447398
 20
-1047.01406815195
 30
0.0
 40
0.8203678318441241
 50
127.5320803774604
 51
232.4679196475304
  0
ARC
  5
47B
  8
DATA
  6
CONTINUOUS
 62
     7
 10
-338.9648158607054
 20
-1048.80705928958
 30
0.0
 40
0.8203678318440766
 50
67.53208035246327
 51
172.4679196225528
  0
ARC
  5
47C
  8
DATA
  6
CONTINUOUS
 62
     7
 10
-338.5296926937094
 20
-1047.862950342089
 30
0.0
 40
0.2222356198218802
 50
236.8251528744028
 51
63.17484712560799
  0
CIRCLE
  5
47D
  8
DATA
  6
CONTINUOUS
 62
     7
 10
-339.9999997764825
 20
-1047.014068152
 30
0.0
 40
4.050000000000011
  0
ARC
  5
47E
  8
DATA
  6
CONTINUOUS
 62
     7
 10
-259.999999776584
 20
-1045.316303771822
 30
0.0
 40
0.2222356198218783
 50
356.825152874435
 51
183.1748471255666
  0
ARC
  5
47F
  8
DATA
  6
CONTINUOUS
 62
     7
 10
-261.0351836924626
 20
-1045.22107701442
 30
0.0
 40
0.8203678318440766
 50
247.5320803524633
 51
352.4679196225528
  0
ARC
  5
480
  8
DATA
  6
CONTINUOUS
 62
     7
 10
-261.4703068594586
 20
-1046.165185961911
 30
0.0
 40
0.2222356198218802
 50
56.8251528744028
 51
243.1748471256079
  0
ARC
  5
481
  8
DATA
  6
CONTINUOUS
 62
     7
 10
-262.0703676084282
 20
-1047.01406815195
 30
0.0
 40
0.8203678318442066
 50
307.5320803524696
 51
52.46791962253969
  0
ARC
  5
482
  8
DATA
  6
CONTINUOUS
 62
     7
 10
-259.999999776584
 20
-1048.711832532178
 30
0.0
 40
0.2222356198217647
 50
176.8251528744334
 51
3.174847125564952
  0
ARC
  5
483
  8
DATA
  6
CONTINUOUS
 62
     7
 10
-261.0351836924626
 20
-1048.80705928958
 30
0.0
 40
0.8203678318442243
 50
7.532080377447175
 51
112.4679196475367
  0
ARC
  5
484
  8
DATA
  6
CONTINUOUS
 62
     7
 10
-261.4703068594586
 20
-1047.862950342089
 30
0.0
 40
0.2222356198219738
 50
116.825152874392
 51
303.1748471255972
  0
ARC
  5
485
  8
DATA
  6
CONTINUOUS
 62
     7
 10
-258.9648158607054
 20
-1045.22107701442
 30
0.0
 40
0.8203678318442243
 50
187.5320803774472
 51
292.4679196475367
  0
ARC
  5
486
  8
DATA
  6
CONTINUOUS
 62
     7
 10
-258.5296926937094
 20
-1046.165185961911
 30
0.0
 40
0.2222356198219738
 50
296.825152874392
 51
123.1748471255972
  0
ARC
  5
487
  8
DATA
  6
CONTINUOUS
 62
     7
 10
-257.9296319447398
 20
-1047.01406815195
 30
0.0
 40
0.8203678318441241
 50
127.5320803774604
 51
232.4679196475304
  0
ARC
  5
488
  8
DATA
  6
CONTINUOUS
 62
     7
 10
-258.9648158607054
 20
-1048.80705928958
 30
0.0
 40
0.8203678318440766
 50
67.53208035246327
 51
172.4679196225528
  0
ARC
  5
489
  8
DATA
  6
CONTINUOUS
 62
     7
 10
-258.5296926937094
 20
-1047.862950342089
 30
0.0
 40
0.2222356198218802
 50
236.8251528744028
 51
63.17484712560799
  0
CIRCLE
  5
48A
  8
DATA
  6
CONTINUOUS
 62
     7
 10
-259.9999997764825
 20
-1047.014068152
 30
0.0
 40
4.050000000000011
  0
CIRCLE
  5
48B
  8
DATA
  6
CONTINUOUS
 62
     7
 10
-267.4999997764825
 20
-1071.514068152
 30
0.0
 40
5.0
  0
ARC
  5
48C
  8
DATA
  6
CONTINUOUS
 62
     7
 10
-267.4999997764826
 20
-1071.514068152
 30
0.0
 40
1.999999999999742
 50
120.0000000000024
 51
59.9999999999948
  0
LINE
  5
48D
  8
DATA
  6
CONTINUOUS
 62
     7
 10
-267.4999997764825
 20
-1071.514068152
 30
0.0
 11
-267.4999997764825
 21
-1069.014068152
 31
0.0
  0
CIRCLE
  5
48E
  8
DATA
  6
CONTINUOUS
 62
     7
 10
-267.4999997764825
 20
-1095.014068152
 30
0.0
 40
10.75
  0
CIRCLE
  5
48F
  8
DATA
  6
CONTINUOUS
 62
     7
 10
-267.4999997764825
 20
-1095.014068152
 30
0.0
 40
10.0
  0
CIRCLE
  5
490
  8
DATA
  6
CONTINUOUS
 62
     7
 10
-267.4999997764825
 20
-1121.514068152
 30
0.0
 40
3.850000000000023
  0
CIRCLE
  5
491
  8
DATA
  6
CONTINUOUS
 62
     7
 10
-255.4999997764825
 20
-1071.514068152
 30
0.0
 40
1.5
  0
CIRCLE
  5
492
  8
DATA
  6
CONTINUOUS
 62
     7
 10
-330.4999997764825
 20
-1119.514068152
 30
0.0
 40
1.5
  0
CIRCLE
  5
493
  8
DATA
  6
CONTINUOUS
 62
     7
 10
-298.4999997764825
 20
-1119.514068152
 30
0.0
 40
1.5
  0
CIRCLE
  5
494
  8
DATA
  6
CONTINUOUS
 62
     7
 10
-330.4999997764825
 20
-1133.514068152
 30
0.0
 40
6.5
  0
CIRCLE
  5
495
  8
DATA
  6
CONTINUOUS
 62
     7
 10
-298.4999997764825
 20
-1133.514068152
 30
0.0
 40
6.5
  0
CIRCLE
  5
496
  8
DATA
  6
CONTINUOUS
 62
     7
 10
-330.4999997764825
 20
-1133.514068152
 30
0.0
 40
6.25
  0
CIRCLE
  5
497
  8
DATA
  6
CONTINUOUS
 62
     7
 10
-298.4999997764825
 20
-1133.514068152
 30
0.0
 40
6.25
  0
CIRCLE
  5
498
  8
DATA
  6
CONTINUOUS
 62
     7
 10
-270.9999997760332
 20
-1162.014068152
 30
0.0
 40
1.649999999835927
  0
CIRCLE
  5
499
  8
DATA
  6
CONTINUOUS
 62
     7
 10
-261.9999997769318
 20
-1162.014068152
 30
0.0
 40
1.649999999834108
  0
CIRCLE
  5
49A
  8
DATA
  6
CONTINUOUS
 62
     7
 10
-257.0025589440992
 20
-1174.0140681508
 30
0.0
 40
2.5
  0
LINE
  5
49B
  8
DATA
  6
______-12
 62
     7
 10
-258.5051181107664
 20
-1174.0140681508
 30
0.0
 11
-255.5051181107664
 21
-1174.0140681508
 31
0.0
  0
LINE
  5
49C
  8
DATA
  6
______-12
 62
     7
 10
-257.0025589440992
 20
-1172.512896484134
 30
0.0
 11
-257.0025589440992
 21
-1175.512896484134
 31
0.0
  0
CIRCLE
  5
49D
  8
DATA
  6
CONTINUOUS
 62
     7
 10
-275.9974406088658
 20
-1150.0140681532
 30
0.0
 40
2.5
  0
LINE
  5
49E
  8
DATA
  6
______-12
 62
     7
 10
-277.499999775533
 20
-1150.0140681532
 30
0.0
 11
-274.499999775533
 21
-1150.0140681532
 31
0.0
  0
LINE
  5
49F
  8
DATA
  6
______-12
 62
     7
 10
-275.9974406088658
 20
-1148.512896486533
 30
0.0
 11
-275.9974406088658
 21
-1151.512896486533
 31
0.0
  0
CIRCLE
  5
4A0
  8
DATA
  6
CONTINUOUS
 62
     7
 10
-266.4999997764825
 20
-1162.014068152
 30
0.0
 40
9.750000015681577
  0
CIRCLE
  5
4A1
  8
DATA
  6
CONTINUOUS
 62
     7
 10
-266.4999997764825
 20
-1165.964068151605
 30
0.0
 40
1.649999999834108
  0
ARC
  5
4A2
  8
DATA
  6
CONTINUOUS
 62
     7
 10
-266.4999997764825
 20
-1162.014068152
 30
0.0
 40
7.899999852386203
 50
50.69269454644028
 51
39.30730194582301
  0
LINE
  5
4A3
  8
DATA
  6
CONTINUOUS
 62
     7
 10
-263.6499997767596
 20
-1154.64606315273
 30
0.0
 11
-263.6499997767596
 21
-1154.646063310166
 31
0.0
  0
ARC
  5
4A4
  8
DATA
  6
CONTINUOUS
 62
     7
 10
-261.0552774436855
 20
-1156.569346152537
 30
0.0
 40
0.7999999999199845
 50
326.612906173291
 51
123.3870903189588
  0
ARC
  5
4A5
  8
DATA
  6
CONTINUOUS
 62
     7
 10
-330.4999997764752
 20
-1162.014068152007
 30
0.0
 40
7.899999852386007
 50
140.692698054177
 51
129.3073054535597
  0
CIRCLE
  5
4A6
  8
DATA
  6
CONTINUOUS
 62
     7
 10
-330.4999997764825
 20
-1162.014068152
 30
0.0
 40
9.749999999025183
  0
ARC
  5
4A7
  8
DATA
  6
CONTINUOUS
 62
     7
 10
-330.4999997764828
 20
-1162.014068152
 30
0.0
 40
10.7500000000001
 50
102.90033491998
 51
77.09966508002236
  0
LINE
  5
4A8
  8
DATA
  6
CONTINUOUS
 62
     7
 10
-328.099999776723
 20
-1154.487448725679
 30
0.0
 11
-328.099999776723
 21
-1154.487448879797
 31
0.0
  0
LINE
  5
4A9
  8
DATA
  6
CONTINUOUS
 62
     7
 10
-333.3499997761982
 20
-1154.646063152737
 30
0.0
 11
-333.3499997761982
 21
-1154.646063310173
 31
0.0
  0
ARC
  5
4AA
  8
DATA
  6
CONTINUOUS
 62
     7
 10
-334.9999997760332
 20
-1162.014068152
 30
0.0
 40
1.999999999800095
 50
32.08918387405087
 51
327.9108161259492
  0
ARC
  5
4AB
  8
DATA
  6
CONTINUOUS
 62
     7
 10
-325.9999997769327
 20
-1162.014068152
 30
0.0
 40
1.999999999800095
 50
212.0891838740509
 51
147.9108161259491
  0
ARC
  5
4AC
  8
DATA
  6
CONTINUOUS
 62
     7
 10
-330.4999997764825
 20
-1165.964068151606
 30
0.0
 40
1.99999999980077
 50
137.8522840898889
 51
42.14771591012861
  0
ARC
  5
4AD
  8
DATA
  6
CONTINUOUS
 62
     7
 10
-335.9447221092723
 20
-1156.569346152545
 30
0.0
 40
0.799999999920039
 50
56.61290968104122
 51
213.387093826709
  0
ARC
  5
4AE
  8
DATA
  6
CONTINUOUS
 62
     7
 10
-330.4999997764825
 20
-1162.014068152
 30
0.0
 40
2.999999999999744
 50
20.74191648508129
 51
159.2580835149249
  0
ARC
  5
4AF
  8
DATA
  6
CONTINUOUS
 62
     7
 10
-330.4999997764825
 20
-1162.014068152
 30
0.0
 40
3.000000000000594
 50
200.7419164850751
 51
240.3778367991917
  0
ARC
  5
4B0
  8
DATA
  6
CONTINUOUS
 62
     7
 10
-330.4999997764825
 20
-1162.014068152
 30
0.0
 40
2.999999999999644
 50
299.6221632007934
 51
339.2580835149187
  0
CIRCLE
  5
4B1
  8
DATA
  6
CONTINUOUS
 62
     7
 10
-320.9999997774329
 20
-1174.0140681508
 30
0.0
 40
2.5
  0
LINE
  5
4B2
  8
DATA
  6
______-12
 62
     7
 10
-322.5025589440992
 20
-1174.0140681508
 30
0.0
 11
-319.5025589440992
 21
-1174.0140681508
 31
0.0
  0
LINE
  5
4B3
  8
DATA
  6
______-12
 62
     7
 10
-320.9999997774329
 20
-1172.512896484134
 30
0.0
 11
-320.9999997774329
 21
-1175.512896484134
 31
0.0
  0
CIRCLE
  5
4B4
  8
DATA
  6
CONTINUOUS
 62
     7
 10
-340.0025589421993
 20
-1150.012896486533
 30
0.0
 40
2.5
  0
LINE
  5
4B5
  8
DATA
  6
______-12
 62
     7
 10
-341.5051181088656
 20
-1150.012896486533
 30
0.0
 11
-338.5051181088656
 21
-1150.012896486533
 31
0.0
  0
LINE
  5
4B6
  8
DATA
  6
______-12
 62
     7
 10
-340.0025589421993
 20
-1148.511724819867
 30
0.0
 11
-340.0025589421993
 21
-1151.511724819867
 31
0.0
  0
LINE
  5
4B7
  8
DATA
  6
CONTINUOUS
 62
     7
 10
-332.899999776243
 20
-1151.535399343361
 30
0.0
 11
-332.899999776243
 21
-1150.25651738659
 31
0.0
  0
LINE
  5
4B8
  8
DATA
  6
CONTINUOUS
 62
     7
 10
-328.099999776723
 20
-1151.535399343361
 30
0.0
 11
-328.099999776723
 21
-1150.256517386588
 31
0.0
  0
ARC
  5
4B9
  8
DATA
  6
CONTINUOUS
 62
     7
 10
-330.4999997764789
 20
-1162.014068151999
 30
0.0
 40
12.00000000000232
 50
78.46304096837633
 51
101.5369590316637
  0
ARC
  5
4BA
  8
DATA
  6
CONTINUOUS
 62
     7
 10
-298.4999997764752
 20
-1162.014068152007
 30
0.0
 40
7.899999852386007
 50
140.692698054177
 51
129.3073054535597
  0
CIRCLE
  5
4BB
  8
DATA
  6
CONTINUOUS
 62
     7
 10
-298.4999997764825
 20
-1162.014068152
 30
0.0
 40
9.749999999025183
  0
ARC
  5
4BC
  8
DATA
  6
CONTINUOUS
 62
     7
 10
-298.4999997764828
 20
-1162.014068152
 30
0.0
 40
10.7500000000001
 50
102.90033491998
 51
77.09966508002236
  0
LINE
  5
4BD
  8
DATA
  6
CONTINUOUS
 62
     7
 10
-296.099999776723
 20
-1154.487448725679
 30
0.0
 11
-296.099999776723
 21
-1154.487448879797
 31
0.0
  0
LINE
  5
4BE
  8
DATA
  6
CONTINUOUS
 62
     7
 10
-301.3499997761982
 20
-1154.646063152737
 30
0.0
 11
-301.3499997761982
 21
-1154.646063310173
 31
0.0
  0
ARC
  5
4BF
  8
DATA
  6
CONTINUOUS
 62
     7
 10
-302.9999997760332
 20
-1162.014068152
 30
0.0
 40
1.999999999800095
 50
32.08918387405087
 51
327.9108161259492
  0
ARC
  5
4C0
  8
DATA
  6
CONTINUOUS
 62
     7
 10
-293.9999997769327
 20
-1162.014068152
 30
0.0
 40
1.999999999800095
 50
212.0891838740509
 51
147.9108161259491
  0
ARC
  5
4C1
  8
DATA
  6
CONTINUOUS
 62
     7
 10
-298.4999997764825
 20
-1165.964068151606
 30
0.0
 40
1.99999999980077
 50
137.8522840898889
 51
42.14771591012861
  0
ARC
  5
4C2
  8
DATA
  6
CONTINUOUS
 62
     7
 10
-303.9447221092723
 20
-1156.569346152545
 30
0.0
 40
0.799999999920039
 50
56.61290968104122
 51
213.387093826709
  0
ARC
  5
4C3
  8
DATA
  6
CONTINUOUS
 62
     7
 10
-298.4999997764825
 20
-1162.014068152
 30
0.0
 40
2.999999999999744
 50
20.74191648508129
 51
159.2580835149249
  0
ARC
  5
4C4
  8
DATA
  6
CONTINUOUS
 62
     7
 10
-298.4999997764825
 20
-1162.014068152
 30
0.0
 40
3.000000000000594
 50
200.7419164850751
 51
240.3778367991917
  0
ARC
  5
4C5
  8
DATA
  6
CONTINUOUS
 62
     7
 10
-298.4999997764825
 20
-1162.014068152
 30
0.0
 40
2.999999999999644
 50
299.6221632007934
 51
339.2580835149187
  0
CIRCLE
  5
4C6
  8
DATA
  6
CONTINUOUS
 62
     7
 10
-288.9999997774329
 20
-1174.0140681508
 30
0.0
 40
2.5
  0
LINE
  5
4C7
  8
DATA
  6
______-12
 62
     7
 10
-290.5025589440992
 20
-1174.0140681508
 30
0.0
 11
-287.5025589440992
 21
-1174.0140681508
 31
0.0
  0
LINE
  5
4C8
  8
DATA
  6
______-12
 62
     7
 10
-288.9999997774329
 20
-1172.512896484134
 30
0.0
 11
-288.9999997774329
 21
-1175.512896484134
 31
0.0
  0
CIRCLE
  5
4C9
  8
DATA
  6
CONTINUOUS
 62
     7
 10
-308.0025589421993
 20
-1150.012896486533
 30
0.0
 40
2.5
  0
LINE
  5
4CA
  8
DATA
  6
______-12
 62
     7
 10
-309.5051181088656
 20
-1150.012896486533
 30
0.0
 11
-306.5051181088656
 21
-1150.012896486533
 31
0.0
  0
LINE
  5
4CB
  8
DATA
  6
______-12
 62
     7
 10
-308.0025589421993
 20
-1148.511724819867
 30
0.0
 11
-308.0025589421993
 21
-1151.511724819867
 31
0.0
  0
LINE
  5
4CC
  8
DATA
  6
CONTINUOUS
 62
     7
 10
-300.899999776243
 20
-1151.535399343361
 30
0.0
 11
-300.899999776243
 21
-1150.25651738659
 31
0.0
  0
LINE
  5
4CD
  8
DATA
  6
CONTINUOUS
 62
     7
 10
-296.099999776723
 20
-1151.535399343361
 30
0.0
 11
-296.099999776723
 21
-1150.256517386588
 31
0.0
  0
ARC
  5
4CE
  8
DATA
  6
CONTINUOUS
 62
     7
 10
-298.4999997764789
 20
-1162.014068151999
 30
0.0
 40
12.00000000000232
 50
78.46304096837633
 51
101.5369590316637
  0
POLYLINE
  5
4CF
  8
DATA
  6
CONTINUOUS
 62
     7
 66
     1
 10
0.0
 20
0.0
 30
0.0
 70
   129
  0
VERTEX
  5
73B
  8
DATA
  6
CONTINUOUS
 62
     7
 10
-314.5
 20
-1247.514068152
 30
0.0
  0
VERTEX
  5
73C
  8
DATA
  6
CONTINUOUS
 62
     7
 10
-285.5
 20
-1247.514068152
 30
0.0
  0
VERTEX
  5
73D
  8
DATA
  6
CONTINUOUS
 62
     7
 10
-285.5
 20
-1271.014068152
 30
0.0
  0
VERTEX
  5
73E
  8
DATA
  6
CONTINUOUS
 62
     7
 10
-314.5
 20
-1271.014068152
 30
0.0
  0
SEQEND
  5
778
  8
DATA
  6
CONTINUOUS
 62
     7
  0
POLYLINE
  5
4D5
  8
DATA
  6
CONTINUOUS
 62
     7
 66
     1
 10
0.0
 20
0.0
 30
0.0
 70
   129
  0
VERTEX
  5
73F
  8
DATA
  6
CONTINUOUS
 62
     7
 10
-314.5
 20
-1271.514068152
 30
0.0
  0
VERTEX
  5
740
  8
DATA
  6
CONTINUOUS
 62
     7
 10
-285.5
 20
-1271.514068152
 30
0.0
  0
VERTEX
  5
741
  8
DATA
  6
CONTINUOUS
 62
     7
 10
-285.5
 20
-1276.514068152
 30
0.0
  0
VERTEX
  5
742
  8
DATA
  6
CONTINUOUS
 62
     7
 10
-314.5
 20
-1276.514068152
 30
0.0
  0
SEQEND
  5
779
  8
DATA
  6
CONTINUOUS
 62
     7
  0
ARC
  5
4DB
  8
DATA
  6
CONTINUOUS
 62
     7
 10
-305.88222
 20
-1261.690738152
 30
0.0
 40
2.578853425167689
 50
264.6908562215358
 51
323.9911991542451
  0
ARC
  5
4DC
  8
DATA
  6
CONTINUOUS
 62
     7
 10
-306.35945
 20
-1261.690738152
 30
0.0
 40
2.578849236946609
 50
216.0088008457569
 51
275.3091437784643
  0
ARC
  5
4DD
  8
DATA
  6
CONTINUOUS
 62
     7
 10
-299.32915
 20
-1262.360158152
 30
0.0
 40
1.90261141171803
 50
273.8309816091165
 51
351.1351473098022
  0
ARC
  5
4DE
  8
DATA
  6
CONTINUOUS
 62
     7
 10
-299.31018
 20
-1256.153998152
 30
0.0
 40
1.89972993291153
 50
8.226923859019141
 51
86.15412669215242
  0
ARC
  5
4DF
  8
DATA
  6
CONTINUOUS
 62
     7
 10
-299.5192186364268
 20
-1262.842924106794
 30
0.0
 40
0.3187831148184466
 50
307.6419024975777
 51
354.2670192893891
  0
LINE
  5
4E0
  8
DATA
  6
CONTINUOUS
 62
     7
 10
-307.70755
 20
-1257.819418152
 30
0.0
 11
-306.21309
 21
-1254.258538152
 31
0.0
  0
LINE
  5
4E1
  8
DATA
  6
CONTINUOUS
 62
     7
 10
-307.70755
 20
-1257.819418152
 30
0.0
 11
-309.18357
 21
-1254.258538152
 31
0.0
  0
LINE
  5
4E2
  8
DATA
  6
CONTINUOUS
 62
     7
 10
-296.37915
 20
-1264.258538152
 30
0.0
 11
-296.37915
 21
-1254.258538152
 31
0.0
  0
LINE
  5
4E3
  8
DATA
  6
CONTINUOUS
 62
     7
 10
-294.46033
 20
-1254.258538152
 30
0.0
 11
-294.46033
 21
-1262.727178152
 31
0.0
  0
LINE
  5
4E4
  8
DATA
  6
CONTINUOUS
 62
     7
 10
-305.51198
 20
-1254.258538152
 30
0.0
 11
-305.51198
 21
-1262.727178152
 31
0.0
  0
LINE
  5
4E5
  8
DATA
  6
CONTINUOUS
 62
     7
 10
-303.66696
 20
-1254.258538152
 30
0.0
 11
-303.66696
 21
-1262.727178152
 31
0.0
  0
LINE
  5
4E6
  8
DATA
  6
CONTINUOUS
 62
     7
 10
-302.70755
 20
-1254.258538152
 30
0.0
 11
-302.70755
 21
-1264.258538152
 31
0.0
  0
LINE
  5
4E7
  8
DATA
  6
CONTINUOUS
 62
     7
 10
-301.02858
 20
-1255.199488152
 30
0.0
 11
-301.02858
 21
-1258.409828152001
 31
0.0
  0
LINE
  5
4E8
  8
DATA
  6
CONTINUOUS
 62
     7
 10
-297.43
 20
-1258.224068152
 30
0.0
 11
-297.43
 21
-1255.882158152
 31
0.0
  0
LINE
  5
4E9
  8
DATA
  6
CONTINUOUS
 62
     7
 10
-299.20203
 20
-1255.642298152
 30
0.0
 11
-299.20203
 21
-1257.967028152
 31
0.0
  0
LINE
  5
4EA
  8
DATA
  6
CONTINUOUS
 62
     7
 10
-306.91419
 20
-1261.121998152
 30
0.0
 11
-306.91419
 21
-1262.727158152
 31
0.0
  0
LINE
  5
4EB
  8
DATA
  6
CONTINUOUS
 62
     7
 10
-306.91419
 20
-1261.121998152
 30
0.0
 11
-308.57471
 21
-1261.121998152
 31
0.0
  0
LINE
  5
4EC
  8
DATA
  6
CONTINUOUS
 62
     7
 10
-308.57471
 20
-1261.121998152
 30
0.0
 11
-308.57471
 21
-1262.727158152
 31
0.0
  0
ARC
  5
4ED
  8
DATA
  6
CONTINUOUS
 62
     7
 10
-306.20957
 20
-1262.748798152
 30
0.0
 40
0.6979288262423999
 50
269.7118487927503
 51
1.775987005682168
  0
ARC
  5
4EE
  8
DATA
  6
CONTINUOUS
 62
     7
 10
-306.2166
 20
-1262.748798152
 30
0.0
 40
0.6979252574596115
 50
178.2240129943171
 51
270.2881512072477
  0
ARC
  5
4EF
  8
DATA
  6
CONTINUOUS
 62
     7
 10
-307.40927
 20
-1262.670628152
 30
0.0
 40
1.166800208176208
 50
182.7769954499969
 51
207.3596066671528
  0
CIRCLE
  5
4F0
  8
DATA
  6
CONTINUOUS
 62
     7
 10
-307.60607
 20
-1259.203188152
 30
0.0
 40
0.9501799999999889
  0
LINE
  5
4F1
  8
DATA
  6
CONTINUOUS
 62
     7
 10
-291.37915
 20
-1264.258528152
 30
0.0
 11
-296.37915
 21
-1264.258528152
 31
0.0
  0
LINE
  5
4F2
  8
DATA
  6
CONTINUOUS
 62
     7
 10
-291.37915
 20
-1264.258528152
 30
0.0
 11
-291.37915
 21
-1261.121988152
 31
0.0
  0
LINE
  5
4F3
  8
DATA
  6
CONTINUOUS
 62
     7
 10
-291.37915
 20
-1261.121998152
 30
0.0
 11
-293.05811
 21
-1261.121998152
 31
0.0
  0
LINE
  5
4F4
  8
DATA
  6
CONTINUOUS
 62
     7
 10
-293.05811
 20
-1261.121998152
 30
0.0
 11
-293.05811
 21
-1262.727158152
 31
0.0
  0
LINE
  5
4F5
  8
DATA
  6
CONTINUOUS
 62
     7
 10
-302.70755
 20
-1264.258528152
 30
0.0
 11
-299.20203
 21
-1264.258518152
 31
0.0
  0
LINE
  5
4F6
  8
DATA
  6
CONTINUOUS
 62
     7
 10
-301.02859
 20
-1263.317568152
 30
0.0
 11
-300.12453
 21
-1263.317568152
 31
0.0
  0
LINE
  5
4F7
  8
DATA
  6
CONTINUOUS
 62
     7
 10
-301.02858
 20
-1263.317568152
 30
0.0
 11
-301.02858
 21
-1259.369228152
 31
0.0
  0
LINE
  5
4F8
  8
DATA
  6
CONTINUOUS
 62
     7
 10
-301.02859
 20
-1259.369228152
 30
0.0
 11
-300.12453
 21
-1259.369228152
 31
0.0
  0
LINE
  5
4F9
  8
DATA
  6
CONTINUOUS
 62
     7
 10
-299.20203
 20
-1262.874768152
 30
0.0
 11
-299.20203
 21
-1259.812028152
 31
0.0
  0
ARC
  5
4FA
  8
DATA
  6
CONTINUOUS
 62
     7
 10
-304.8324
 20
-1262.670628152
 30
0.0
 40
1.166798547865158
 50
332.6403933328447
 51
357.2230045500055
  0
ARC
  5
4FB
  8
DATA
  6
CONTINUOUS
 62
     7
 10
-293.75571
 20
-1262.748798152
 30
0.0
 40
0.6979288262423999
 50
269.7118487927503
 51
1.775987005682168
  0
ARC
  5
4FC
  8
DATA
  6
CONTINUOUS
 62
     7
 10
-293.76273
 20
-1262.748798152
 30
0.0
 40
0.6979252574596115
 50
178.2240129943171
 51
270.2881512072477
  0
LINE
  5
4FD
  8
DATA
  6
CONTINUOUS
 62
     7
 10
-297.43081
 20
-1262.653358152
 30
0.0
 11
-297.43081
 21
-1259.996538152
 31
0.0
  0
LINE
  5
4FE
  8
DATA
  6
CONTINUOUS
 62
     7
 10
-301.02859
 20
-1258.409828152001
 30
0.0
 11
-300.12453
 21
-1258.409828152001
 31
0.0
  0
LINE
  5
4FF
  8
DATA
  6
CONTINUOUS
 62
     7
 10
-305.51198
 20
-1254.258538152
 30
0.0
 11
-303.66696
 21
-1254.258538152
 31
0.0
  0
LINE
  5
500
  8
DATA
  6
CONTINUOUS
 62
     7
 10
-309.18357
 20
-1254.258538152
 30
0.0
 11
-306.21309
 21
-1254.258538152
 31
0.0
  0
LINE
  5
501
  8
DATA
  6
CONTINUOUS
 62
     7
 10
-296.37915
 20
-1254.258538152
 30
0.0
 11
-294.46033
 21
-1254.258538152
 31
0.0
  0
LINE
  5
502
  8
DATA
  6
CONTINUOUS
 62
     7
 10
-302.70755
 20
-1254.258538152
 30
0.0
 11
-299.1827598718533
 21
-1254.258546245741
 31
0.0
  0
LINE
  5
503
  8
DATA
  6
CONTINUOUS
 62
     7
 10
-301.02859
 20
-1255.199498152
 30
0.0
 11
-300.12453
 21
-1255.199498152
 31
0.0
  0
ARC
  5
504
  8
DATA
  6
CONTINUOUS
 62
     7
 10
-300.1138545373968
 20
-1261.563880191413
 30
0.0
 40
1.753720453381835
 50
269.6512199376176
 51
282.8264828068717
  0
ARC
  5
505
  8
DATA
  6
CONTINUOUS
 62
     7
 10
-299.9168839725333
 20
-1262.305318463227
 30
0.0
 40
0.9874379036933072
 50
281.2331036226554
 51
306.8620088940622
  0
ARC
  5
506
  8
DATA
  6
CONTINUOUS
 62
     7
 10
-299.5192186364268
 20
-1259.843872197206
 30
0.0
 40
0.3187831148184514
 50
5.732980710570263
 51
52.35809750242235
  0
ARC
  5
507
  8
DATA
  6
CONTINUOUS
 62
     7
 10
-300.1138545373968
 20
-1261.122916112587
 30
0.0
 40
1.75372045338163
 50
77.17351719312664
 51
90.34878006238243
  0
ARC
  5
508
  8
DATA
  6
CONTINUOUS
 62
     7
 10
-299.9168839725333
 20
-1260.381477840773
 30
0.0
 40
0.9874379036932217
 50
53.13799110593783
 51
78.766896377342
  0
ARC
  5
509
  8
DATA
  6
CONTINUOUS
 62
     7
 10
-298.39849
 20
-1260.061948152
 30
0.0
 40
0.9698881639137412
 50
3.867006359831291
 51
88.36163456790072
  0
ARC
  5
50A
  8
DATA
  6
CONTINUOUS
 62
     7
 10
-298.39938
 20
-1258.122028152
 30
0.0
 40
0.9708519399474415
 50
271.689282104648
 51
356.0782829826647
  0
ARC
  5
50B
  8
DATA
  6
CONTINUOUS
 62
     7
 10
-299.5192186364268
 20
-1257.935184106795
 30
0.0
 40
0.3187831148184466
 50
307.6419024975777
 51
354.2670192893891
  0
ARC
  5
50C
  8
DATA
  6
CONTINUOUS
 62
     7
 10
-300.1138545373968
 20
-1256.656140191413
 30
0.0
 40
1.753720453381835
 50
269.6512199376176
 51
282.8264828068733
  0
ARC
  5
50D
  8
DATA
  6
CONTINUOUS
 62
     7
 10
-299.9168839725333
 20
-1257.397578463228
 30
0.0
 40
0.9874379036930842
 50
281.233103622658
 51
306.8620088940622
  0
ARC
  5
50E
  8
DATA
  6
CONTINUOUS
 62
     7
 10
-299.5192186364268
 20
-1255.674142197206
 30
0.0
 40
0.3187831148184741
 50
5.732980710610926
 51
52.35809750242234
  0
ARC
  5
50F
  8
DATA
  6
CONTINUOUS
 62
     7
 10
-300.1138545373968
 20
-1256.953186112587
 30
0.0
 40
1.75372045338163
 50
77.17351719312664
 51
90.34878006238243
  0
ARC
  5
510
  8
DATA
  6
CONTINUOUS
 62
     7
 10
-299.9168839725333
 20
-1256.211747840773
 30
0.0
 40
0.9874379036932217
 50
53.13799110593783
 51
78.76689637734458
  0
TEXT
  5
511
  8
DATA
 62
     7
 10
-314.1530034722222
 20
-1275.367990678042
 30
0.0
 40
2.707845052083333
  1
JBL PROFESSIONAL
 41
0.7
 72
     1
 11
-300.0
 21
-1274.014068152
 31
0.0
 73
     2
  0
ARC
  5
512
  8
DATA
  6
CONTINUOUS
 62
     7
 10
-288.0
 20
-1364.514068152
 30
0.0
 40
3.0
 50
0.0
 51
90.0
  0
LINE
  5
513
  8
DATA
  6
CONTINUOUS
 62
     7
 10
-312.0
 20
-1361.514068152
 30
0.0
 11
-288.0
 21
-1361.514068152
 31
0.0
  0
ARC
  5
514
  8
DATA
  6
CONTINUOUS
 62
     7
 10
-312.0
 20
-1364.514068152
 30
0.0
 40
3.0
 50
90.0
 51
180.0
  0
LINE
  5
515
  8
DATA
  6
CONTINUOUS
 62
     7
 10
-315.0
 20
-1380.514068152
 30
0.0
 11
-315.0
 21
-1364.514068152
 31
0.0
  0
ARC
  5
516
  8
DATA
  6
CONTINUOUS
 62
     7
 10
-312.0000000000005
 20
-1380.514068152
 30
0.0
 40
2.999999999999545
 50
180.0
 51
224.9999999999693
  0
ARC
  5
517
  8
DATA
  6
CONTINUOUS
 62
     7
 10
-312.0
 20
-1380.514068152001
 30
0.0
 40
2.999999999999542
 50
225.0000000000061
 51
270.0
  0
LINE
  5
518
  8
DATA
  6
CONTINUOUS
 62
     7
 10
-288.0
 20
-1383.514068152
 30
0.0
 11
-312.0
 21
-1383.514068152
 31
0.0
  0
ARC
  5
519
  8
DATA
  6
CONTINUOUS
 62
     7
 10
-288.0
 20
-1380.514068152
 30
0.0
 40
3.0
 50
270.0
 51
0.0
  0
LINE
  5
51A
  8
DATA
  6
CONTINUOUS
 62
     7
 10
-285.0
 20
-1364.514068152
 30
0.0
 11
-285.0
 21
-1380.514068152
 31
0.0
  0
LINE
  5
51B
  8
DATA
  6
CONTINUOUS
 62
     7
 10
-312.0
 20
-1364.514068152
 30
0.0
 11
-288.0
 21
-1364.514068152
 31
0.0
  0
LINE
  5
51C
  8
DATA
  6
CONTINUOUS
 62
     7
 10
-312.0
 20
-1376.014068152
 30
0.0
 11
-312.0
 21
-1364.514068152
 31
0.0
  0
LINE
  5
51D
  8
DATA
  6
CONTINUOUS
 62
     7
 10
-293.5
 20
-1380.514068152
 30
0.0
 11
-306.5
 21
-1380.514068152
 31
0.0
  0
LINE
  5
51E
  8
DATA
  6
CONTINUOUS
 62
     7
 10
-288.0
 20
-1364.514068152
 30
0.0
 11
-288.0
 21
-1376.014068152
 31
0.0
  0
LINE
  5
51F
  8
DATA
  6
CONTINUOUS
 62
     7
 10
-312.0
 20
-1376.014068152
 30
0.0
 11
-306.5
 21
-1380.514068152
 31
0.0
  0
LINE
  5
520
  8
DATA
  6
CONTINUOUS
 62
     7
 10
-293.5
 20
-1380.514068152
 30
0.0
 11
-288.0
 21
-1376.014068152
 31
0.0
  0
POLYLINE
  5
521
  8
DATA
  6
CONTINUOUS
 62
     7
 66
     1
 10
0.0
 20
0.0
 30
0.0
 70
   129
  0
VERTEX
  5
743
  8
DATA
  6
CONTINUOUS
 62
     7
 10
-306.5
 20
-1368.014068152
 30
0.0
  0
VERTEX
  5
744
  8
DATA
  6
CONTINUOUS
 62
     7
 10
-306.5
 20
-1372.014068152
 30
0.0
  0
VERTEX
  5
745
  8
DATA
  6
CONTINUOUS
 62
     7
 10
-307.5
 20
-1372.014068152
 30
0.0
  0
VERTEX
  5
746
  8
DATA
  6
CONTINUOUS
 62
     7
 10
-307.5
 20
-1368.014068152
 30
0.0
  0
SEQEND
  5
77A
  8
DATA
  6
CONTINUOUS
 62
     7
  0
POLYLINE
  5
527
  8
DATA
  6
CONTINUOUS
 62
     7
 66
     1
 10
0.0
 20
0.0
 30
0.0
 70
   129
  0
VERTEX
  5
747
  8
DATA
  6
CONTINUOUS
 62
     7
 10
-292.5
 20
-1368.014068152
 30
0.0
  0
VERTEX
  5
748
  8
DATA
  6
CONTINUOUS
 62
     7
 10
-292.5
 20
-1372.014068152
 30
0.0
  0
VERTEX
  5
749
  8
DATA
  6
CONTINUOUS
 62
     7
 10
-293.5
 20
-1372.014068152
 30
0.0
  0
VERTEX
  5
74A
  8
DATA
  6
CONTINUOUS
 62
     7
 10
-293.5
 20
-1368.014068152
 30
0.0
  0
SEQEND
  5
77B
  8
DATA
  6
CONTINUOUS
 62
     7
  0
POLYLINE
  5
52D
  8
DATA
  6
CONTINUOUS
 62
     7
 66
     1
 10
0.0
 20
0.0
 30
0.0
 70
   129
  0
VERTEX
  5
74B
  8
DATA
  6
CONTINUOUS
 62
     7
 10
-299.5
 20
-1372.514068152
 30
0.0
  0
VERTEX
  5
74C
  8
DATA
  6
CONTINUOUS
 62
     7
 10
-299.5
 20
-1376.514068152
 30
0.0
  0
VERTEX
  5
74D
  8
DATA
  6
CONTINUOUS
 62
     7
 10
-300.5
 20
-1376.514068152
 30
0.0
  0
VERTEX
  5
74E
  8
DATA
  6
CONTINUOUS
 62
     7
 10
-300.5
 20
-1372.514068152
 30
0.0
  0
SEQEND
  5
77C
  8
DATA
  6
CONTINUOUS
 62
     7
  0
CIRCLE
  5
533
  8
DATA
  6
CONTINUOUS
 62
     7
 10
-255.4999997764825
 20
-1121.514068152
 30
0.0
 40
1.5
  0
TEXT
  5
534
  8
DATA
 62
     7
 10
-273.1864743858575
 20
-1065.13877518325
 30
0.0
 40
3.2494140625
  1
POWER
 41
0.7
 72
     1
 11
-267.4999997764825
 21
-1063.514068152
 31
0.0
 73
     2
  0
TEXT
  5
535
  8
DATA
 62
     7
 10
-276.9774574587742
 20
-1082.88877518325
 30
0.0
 40
3.2494140625
  1
MAIN/MEMU
 41
0.7
 72
     1
 11
-267.4999997764825
 21
-1081.264068152
 31
0.0
 73
     2
  0
TEXT
  5
536
  8
DATA
 62
     7
 10
-271.6700811566909
 20
-1116.28877518325
 30
0.0
 40
3.2494140625
  1
BACK
 41
0.7
 72
     1
 11
-267.4999997764825
 21
-1114.664068152
 31
0.0
 73
     2
  0
TEXT
  5
537
  8
DATA
 62
     7
 10
-260.0491794639825
 20
-1116.28877518325
 30
0.0
 40
3.2494140625
  1
LIMIT
 41
0.7
 72
     1
 11
-255.4999997764825
 21
-1114.664068152
 31
0.0
 73
     2
  0
TEXT
  5
538
  8
DATA
 62
     7
 10
-338.4610642296075
 20
-1116.63877518325
 30
0.0
 40
3.2494140625
  1
SIG/CLIP
 41
0.7
 72
     1
 11
-330.4999997764825
 21
-1115.014068152
 31
0.0
 73
     2
  0
TEXT
  5
539
  8
DATA
 62
     7
 10
-306.4610642296075
 20
-1116.63877518325
 30
0.0
 40
3.2494140625
  1
SIG/CLIP
 41
0.7
 72
     1
 11
-298.4999997764825
 21
-1115.014068152
 31
0.0
 73
     2
  0
TEXT
  5
53A
  8
DATA
 62
     7
 10
-334.2909828493992
 20
-1125.63877518325
 30
0.0
 40
3.2494140625
  1
GAIN
 41
0.7
 72
     1
 11
-330.4999997764825
 21
-1124.014068152
 31
0.0
 73
     2
  0
TEXT
  5
53B
  8
DATA
 62
     7
 10
-302.2909828493992
 20
-1125.63877518325
 30
0.0
 40
3.2494140625
  1
GAIN
 41
0.7
 72
     1
 11
-298.4999997764825
 21
-1124.014068152
 31
0.0
 73
     2
  0
LINE
  5
53C
  8
DATA
  6
CONTINUOUS
 62
     7
 10
-330.4999997764825
 20
-1140.014068152
 30
0.0
 11
-330.499999776483
 21
-1150.014068151997
 31
0.0
  0
LINE
  5
53D
  8
DATA
  6
CONTINUOUS
 62
     7
 10
-298.4999997764825
 20
-1140.014068152
 30
0.0
 11
-298.499999776483
 21
-1150.014068151997
 31
0.0
  0
LINE
  5
53E
  8
DATA
  6
CONTINUOUS
 62
     7
 10
-329.2499997764825
 20
-1180.514068152
 30
0.0
 11
-331.7499997764825
 21
-1180.514068152
 31
0.0
  0
LINE
  5
53F
  8
DATA
  6
CONTINUOUS
 62
     7
 10
-331.7499997764825
 20
-1180.514068152
 30
0.0
 11
-330.4999997764825
 21
-1179.014068152
 31
0.0
  0
LINE
  5
540
  8
DATA
  6
CONTINUOUS
 62
     7
 10
-329.2499997764825
 20
-1180.514068152
 30
0.0
 11
-330.4999997764825
 21
-1179.014068152
 31
0.0
  0
TEXT
  5
541
  8
DATA
 62
     7
 10
-333.1536879275242
 20
-1185.13877518325
 30
0.0
 40
3.2494140625
  1
CH1
 41
0.7
 72
     1
 11
-330.4999997764825
 21
-1183.514068152
 31
0.0
 73
     2
  0
LINE
  5
542
  8
DATA
  6
CONTINUOUS
 62
     7
 10
-297.2499997764825
 20
-1180.514068152
 30
0.0
 11
-299.7499997764825
 21
-1180.514068152
 31
0.0
  0
LINE
  5
543
  8
DATA
  6
CONTINUOUS
 62
     7
 10
-299.7499997764825
 20
-1180.514068152
 30
0.0
 11
-298.4999997764825
 21
-1179.014068152
 31
0.0
  0
LINE
  5
544
  8
DATA
  6
CONTINUOUS
 62
     7
 10
-297.2499997764825
 20
-1180.514068152
 30
0.0
 11
-298.4999997764825
 21
-1179.014068152
 31
0.0
  0
TEXT
  5
545
  8
DATA
 62
     7
 10
-301.5327862348158
 20
-1185.13877518325
 30
0.0
 40
3.2494140625
  1
CH2
 41
0.7
 72
     1
 11
-298.4999997764825
 21
-1183.514068152
 31
0.0
 73
     2
  0
LINE
  5
546
  8
DATA
  6
CONTINUOUS
 62
     7
 10
-265.2499997764825
 20
-1180.514068152
 30
0.0
 11
-267.7499997764825
 21
-1180.514068152
 31
0.0
  0
LINE
  5
547
  8
DATA
  6
CONTINUOUS
 62
     7
 10
-267.7499997764825
 20
-1180.514068152
 30
0.0
 11
-266.4999997764825
 21
-1179.014068152
 31
0.0
  0
LINE
  5
548
  8
DATA
  6
CONTINUOUS
 62
     7
 10
-265.2499997764825
 20
-1180.514068152
 30
0.0
 11
-266.4999997764825
 21
-1179.014068152
 31
0.0
  0
TEXT
  5
549
  8
DATA
 62
     7
 10
-275.9016377973159
 20
-1185.13877518325
 30
0.0
 40
3.2494140625
  1
PASS THRU
 41
0.7
 72
     1
 11
-266.4999997764825
 21
-1183.514068152
 31
0.0
 73
     2
  0
TEXT
  5
54A
  8
DATA
 62
     7
 10
-309.325818359375
 20
-1353.258219627684
 30
0.0
 40
3.2494140625
  1
500W MAX 
 41
0.7
 72
     1
 11
-300.0
 21
-1351.633512596434
 31
0.0
 73
     2
  0
TEXT
  5
54B
  8
DATA
 62
     7
 10
-316.3012272135417
 20
-1357.491552961017
 30
0.0
 40
3.2494140625
  1
100-120V?50/60Hz
 41
0.7
 72
     1
 11
-300.0
 21
-1355.866845929767
 31
0.0
 73
     2
  0
LINE
  5
54C
  8
DATA
  6
CONTINUOUS
 62
     7
 10
702.7678644884654
 20
-1460.000000061733
 30
0.0
 11
1316.087110638224
 21
-1460.000000061733
 31
0.0
  0
TEXT
  5
54D
  8
DATA
 62
     7
 10
824.3511176709189
 20
-1427.078450583389
 30
0.0
 40
54.15690104031274
  1
背面パネル拡大図
 41
0.7
 72
     1
 11
1000.000000045
 21
-1400.000000063233
 31
0.0
 73
     2
  0
LINE
  5
54E
  8
DATA
  6
CONTINUOUS
 62
     7
 10
385.0000022801732
 20
399.9999999367658
 30
0.0
 11
1614.999997809826
 21
399.9999999367658
 31
0.0
  0
POLYLINE
  5
54F
  8
DATA
  6
CONTINUOUS
 62
     7
 66
     1
 10
0.0
 20
0.0
 30
0.0
 70
   129
  0
VERTEX
  5
74F
  8
DATA
  6
CONTINUOUS
 62
     7
 10
635.0000022801742
 20
99.99999993676556
 30
0.0
  0
VERTEX
  5
750
  8
DATA
  6
CONTINUOUS
 62
     7
 10
1115.000002280174
 20
99.99999993676556
 30
0.0
  0
VERTEX
  5
751
  8
DATA
  6
CONTINUOUS
 62
     7
 10
1115.000002280174
 20
-270.0000000632344
 30
0.0
  0
VERTEX
  5
752
  8
DATA
  6
CONTINUOUS
 62
     7
 10
635.0000022801742
 20
-270.0000000632344
 30
0.0
  0
SEQEND
  5
77D
  8
DATA
  6
CONTINUOUS
 62
     7
  0
LINE
  5
555
  8
DATA
  6
CONTINUOUS
 62
     7
 10
285.0000022801732
 20
299.9999999367658
 30
0.0
 11
285.0000022801732
 21
-1200.571738506023
 31
0.0
  0
LINE
  5
556
  8
DATA
  6
CONTINUOUS
 62
     7
 10
1714.999997809826
 20
299.9999999367658
 30
0.0
 11
1714.999997809826
 21
-1249.428261620446
 31
0.0
  0
ARC
  5
557
  8
DATA
  6
CONTINUOUS
 62
     7
 10
385.0000022801732
 20
299.9999999367658
 30
0.0
 40
100.0
 50
90.0
 51
180.0
  0
ARC
  5
558
  8
DATA
  6
CONTINUOUS
 62
     7
 10
1614.999997809826
 20
299.9999999367658
 30
0.0
 40
100.0
 50
0.0
 51
90.0
  0
ARC
  5
559
  8
DATA
  6
CONTINUOUS
 62
     7
 10
360.0000022791601
 20
-933.0223562614533
 30
0.0
 40
2.222356198219918
 50
356.8251528744368
 51
183.1748471255633
  0
ARC
  5
55A
  8
DATA
  6
CONTINUOUS
 62
     7
 10
349.6481631203724
 20
-932.0700886874324
 30
0.0
 40
8.203678318440462
 50
247.5320803524684
 51
352.4679196225557
  0
ARC
  5
55B
  8
DATA
  6
CONTINUOUS
 62
     7
 10
345.2969314504144
 20
-941.5111781623427
 30
0.0
 40
2.22235619821818
 50
56.82515287442732
 51
243.1748471255816
  0
ARC
  5
55C
  8
DATA
  6
CONTINUOUS
 62
     7
 10
339.2963239607188
 20
-950.0000000627319
 30
0.0
 40
8.203678318441442
 50
307.532080352464
 51
52.46791962254412
  0
ARC
  5
55D
  8
DATA
  6
CONTINUOUS
 62
     7
 10
360.0000022791601
 20
-966.9776438650156
 30
0.0
 40
2.222356198218101
 50
176.8251528744341
 51
3.174847125568534
  0
ARC
  5
55E
  8
DATA
  6
CONTINUOUS
 62
     7
 10
349.6481631203724
 20
-967.9299114390365
 30
0.0
 40
8.203678318443709
 50
7.532080377445821
 51
112.4679196475385
  0
ARC
  5
55F
  8
DATA
  6
CONTINUOUS
 62
     7
 10
345.2969314504144
 20
-958.4888219641261
 30
0.0
 40
2.222356198219943
 50
116.8251528744025
 51
303.1748471255534
  0
ARC
  5
560
  8
DATA
  6
CONTINUOUS
 62
     7
 10
370.351841437946
 20
-932.0700886874324
 30
0.0
 40
8.203678318443709
 50
187.5320803774458
 51
292.4679196475385
  0
ARC
  5
561
  8
DATA
  6
CONTINUOUS
 62
     7
 10
374.7030731079058
 20
-941.5111781623427
 30
0.0
 40
2.222356198219122
 50
296.8251528743606
 51
123.1748471255927
  0
ARC
  5
562
  8
DATA
  6
CONTINUOUS
 62
     7
 10
380.7036805976013
 20
-950.0000000627319
 30
0.0
 40
8.203678318442073
 50
127.5320803774679
 51
232.4679196475341
  0
ARC
  5
563
  8
DATA
  6
CONTINUOUS
 62
     7
 10
370.351841437946
 20
-967.9299114390365
 30
0.0
 40
8.203678318441158
 50
67.53208035245667
 51
172.4679196225525
  0
ARC
  5
564
  8
DATA
  6
CONTINUOUS
 62
     7
 10
374.7030731079058
 20
-958.4888219641261
 30
0.0
 40
2.22235619821818
 50
236.8251528744273
 51
63.17484712562347
  0
CIRCLE
  5
565
  8
DATA
  6
CONTINUOUS
 62
     7
 10
360.0000022801732
 20
-950.0000000632344
 30
0.0
 40
40.50000000000182
  0
ARC
  5
566
  8
DATA
  6
CONTINUOUS
 62
     7
 10
360.0000022791601
 20
-33.0223562614533
 30
0.0
 40
2.222356198219918
 50
356.8251528744368
 51
183.1748471255633
  0
ARC
  5
567
  8
DATA
  6
CONTINUOUS
 62
     7
 10
349.6481631203724
 20
-32.07008868743242
 30
0.0
 40
8.203678318440462
 50
247.5320803524684
 51
352.4679196225557
  0
ARC
  5
568
  8
DATA
  6
CONTINUOUS
 62
     7
 10
345.2969314504144
 20
-41.51117816234273
 30
0.0
 40
2.22235619821818
 50
56.82515287442732
 51
243.1748471255816
  0
ARC
  5
569
  8
DATA
  6
CONTINUOUS
 62
     7
 10
339.2963239607188
 20
-50.00000006273194
 30
0.0
 40
8.203678318441442
 50
307.532080352464
 51
52.46791962254412
  0
ARC
  5
56A
  8
DATA
  6
CONTINUOUS
 62
     7
 10
360.0000022791601
 20
-66.97764386501558
 30
0.0
 40
2.222356198218101
 50
176.8251528744341
 51
3.174847125568534
  0
ARC
  5
56B
  8
DATA
  6
CONTINUOUS
 62
     7
 10
349.6481631203724
 20
-67.92991143903646
 30
0.0
 40
8.203678318443709
 50
7.532080377445821
 51
112.4679196475385
  0
ARC
  5
56C
  8
DATA
  6
CONTINUOUS
 62
     7
 10
345.2969314504144
 20
-58.48882196412615
 30
0.0
 40
2.222356198219943
 50
116.8251528744025
 51
303.1748471255598
  0
ARC
  5
56D
  8
DATA
  6
CONTINUOUS
 62
     7
 10
370.351841437946
 20
-32.07008868743242
 30
0.0
 40
8.203678318443709
 50
187.5320803774458
 51
292.4679196475396
  0
ARC
  5
56E
  8
DATA
  6
CONTINUOUS
 62
     7
 10
374.7030731079058
 20
-41.51117816234273
 30
0.0
 40
2.222356198219122
 50
296.8251528743606
 51
123.1748471255927
  0
ARC
  5
56F
  8
DATA
  6
CONTINUOUS
 62
     7
 10
380.7036805976013
 20
-50.00000006273194
 30
0.0
 40
8.203678318442073
 50
127.5320803774679
 51
232.4679196475341
  0
ARC
  5
570
  8
DATA
  6
CONTINUOUS
 62
     7
 10
370.351841437946
 20
-67.92991143903646
 30
0.0
 40
8.203678318441158
 50
67.53208035245667
 51
172.4679196225525
  0
ARC
  5
571
  8
DATA
  6
CONTINUOUS
 62
     7
 10
374.7030731079058
 20
-58.48882196412615
 30
0.0
 40
2.22235619821818
 50
236.8251528744273
 51
63.17484712562347
  0
CIRCLE
  5
572
  8
DATA
  6
CONTINUOUS
 62
     7
 10
360.0000022801732
 20
-50.00000006323444
 30
0.0
 40
40.50000000000182
  0
ARC
  5
573
  8
DATA
  6
CONTINUOUS
 62
     7
 10
1640.000002279159
 20
-33.0223562614533
 30
0.0
 40
2.222356198219918
 50
356.8251528744368
 51
183.1748471255633
  0
ARC
  5
574
  8
DATA
  6
CONTINUOUS
 62
     7
 10
1629.648163120373
 20
-32.07008868743242
 30
0.0
 40
8.203678318441158
 50
247.5320803524567
 51
352.4679196225557
  0
ARC
  5
575
  8
DATA
  6
CONTINUOUS
 62
     7
 10
1625.296931450413
 20
-41.51117816234273
 30
0.0
 40
2.22235619821818
 50
56.82515287442732
 51
243.1748471256235
  0
ARC
  5
576
  8
DATA
  6
CONTINUOUS
 62
     7
 10
1619.296323960718
 20
-50.00000006273194
 30
0.0
 40
8.20367831844255
 50
307.5320803524741
 51
52.46791962253403
  0
ARC
  5
577
  8
DATA
  6
CONTINUOUS
 62
     7
 10
1640.000002279159
 20
-66.97764386501558
 30
0.0
 40
2.222356198216286
 50
176.8251528744315
 51
3.174847125565947
  0
ARC
  5
578
  8
DATA
  6
CONTINUOUS
 62
     7
 10
1629.648163120373
 20
-67.92991143903646
 30
0.0
 40
8.203678318443709
 50
7.532080377445821
 51
112.4679196475385
  0
ARC
  5
579
  8
DATA
  6
CONTINUOUS
 62
     7
 10
1625.296931450413
 20
-58.48882196412615
 30
0.0
 40
2.222356198219122
 50
116.8251528743606
 51
303.1748471255991
  0
ARC
  5
57A
  8
DATA
  6
CONTINUOUS
 62
     7
 10
1650.351841437947
 20
-32.07008868743242
 30
0.0
 40
8.203678318443709
 50
187.5320803774458
 51
292.4679196475396
  0
ARC
  5
57B
  8
DATA
  6
CONTINUOUS
 62
     7
 10
1654.703073107905
 20
-41.51117816234273
 30
0.0
 40
2.222356198219943
 50
296.8251528744025
 51
123.1748471255534
  0
ARC
  5
57C
  8
DATA
  6
CONTINUOUS
 62
     7
 10
1660.7036805976
 20
-50.00000006273194
 30
0.0
 40
8.203678318440964
 50
127.5320803774578
 51
232.4679196475341
  0
ARC
  5
57D
  8
DATA
  6
CONTINUOUS
 62
     7
 10
1650.351841437947
 20
-67.92991143903646
 30
0.0
 40
8.203678318440462
 50
67.5320803524684
 51
172.4679196225525
  0
ARC
  5
57E
  8
DATA
  6
CONTINUOUS
 62
     7
 10
1654.703073107905
 20
-58.48882196412615
 30
0.0
 40
2.22235619821818
 50
236.8251528744273
 51
63.17484712558164
  0
CIRCLE
  5
57F
  8
DATA
  6
CONTINUOUS
 62
     7
 10
1640.000002280174
 20
-50.00000006323444
 30
0.0
 40
40.50000000000182
  0
ARC
  5
580
  8
DATA
  6
CONTINUOUS
 62
     7
 10
1640.000002279159
 20
-933.0223562614533
 30
0.0
 40
2.222356198219918
 50
356.8251528744368
 51
183.1748471255633
  0
ARC
  5
581
  8
DATA
  6
CONTINUOUS
 62
     7
 10
1629.648163120373
 20
-932.0700886874324
 30
0.0
 40
8.203678318441158
 50
247.5320803524567
 51
352.4679196225557
  0
ARC
  5
582
  8
DATA
  6
CONTINUOUS
 62
     7
 10
1625.296931450413
 20
-941.5111781623427
 30
0.0
 40
2.22235619821818
 50
56.82515287442732
 51
243.1748471256235
  0
ARC
  5
583
  8
DATA
  6
CONTINUOUS
 62
     7
 10
1619.296323960718
 20
-950.0000000627319
 30
0.0
 40
8.20367831844255
 50
307.5320803524741
 51
52.46791962253403
  0
ARC
  5
584
  8
DATA
  6
CONTINUOUS
 62
     7
 10
1640.000002279159
 20
-966.9776438650156
 30
0.0
 40
2.222356198216286
 50
176.8251528744315
 51
3.174847125565947
  0
ARC
  5
585
  8
DATA
  6
CONTINUOUS
 62
     7
 10
1629.648163120373
 20
-967.9299114390365
 30
0.0
 40
8.203678318443709
 50
7.532080377445821
 51
112.4679196475385
  0
ARC
  5
586
  8
DATA
  6
CONTINUOUS
 62
     7
 10
1625.296931450413
 20
-958.4888219641261
 30
0.0
 40
2.222356198219122
 50
116.8251528743606
 51
303.1748471255927
  0
ARC
  5
587
  8
DATA
  6
CONTINUOUS
 62
     7
 10
1650.351841437947
 20
-932.0700886874324
 30
0.0
 40
8.203678318443709
 50
187.5320803774458
 51
292.4679196475385
  0
ARC
  5
588
  8
DATA
  6
CONTINUOUS
 62
     7
 10
1654.703073107905
 20
-941.5111781623427
 30
0.0
 40
2.222356198219943
 50
296.8251528744025
 51
123.1748471255534
  0
ARC
  5
589
  8
DATA
  6
CONTINUOUS
 62
     7
 10
1660.7036805976
 20
-950.0000000627319
 30
0.0
 40
8.203678318440964
 50
127.5320803774578
 51
232.4679196475341
  0
ARC
  5
58A
  8
DATA
  6
CONTINUOUS
 62
     7
 10
1650.351841437947
 20
-967.9299114390365
 30
0.0
 40
8.203678318440462
 50
67.5320803524684
 51
172.4679196225525
  0
ARC
  5
58B
  8
DATA
  6
CONTINUOUS
 62
     7
 10
1654.703073107905
 20
-958.4888219641261
 30
0.0
 40
2.22235619821818
 50
236.8251528744273
 51
63.17484712558164
  0
CIRCLE
  5
58C
  8
DATA
  6
CONTINUOUS
 62
     7
 10
1640.000002280174
 20
-950.0000000632344
 30
0.0
 40
40.50000000000182
  0
ARC
  5
58D
  8
DATA
  6
CONTINUOUS
 62
     7
 10
600.0000022791592
 20
351.9776437385469
 30
0.0
 40
2.222356198219918
 50
356.8251528744368
 51
183.1748471255692
  0
ARC
  5
58E
  8
DATA
  6
CONTINUOUS
 62
     7
 10
589.6481631203733
 20
352.9299113125678
 30
0.0
 40
8.203678318441158
 50
247.5320803524567
 51
352.4679196225541
  0
ARC
  5
58F
  8
DATA
  6
CONTINUOUS
 62
     7
 10
585.2969314504135
 20
343.4888218376575
 30
0.0
 40
2.22235619821818
 50
56.82515287442732
 51
243.1748471256235
  0
ARC
  5
590
  8
DATA
  6
CONTINUOUS
 62
     7
 10
579.2963239607179
 20
334.9999999372683
 30
0.0
 40
8.20367831844255
 50
307.5320803524741
 51
52.46791962253306
  0
ARC
  5
591
  8
DATA
  6
CONTINUOUS
 62
     7
 10
600.0000022791592
 20
318.0223561349846
 30
0.0
 40
2.222356198216286
 50
176.8251528744315
 51
3.174847125560092
  0
ARC
  5
592
  8
DATA
  6
CONTINUOUS
 62
     7
 10
589.6481631203733
 20
317.0700885609638
 30
0.0
 40
8.203678318443709
 50
7.532080377445821
 51
112.4679196475391
  0
ARC
  5
593
  8
DATA
  6
CONTINUOUS
 62
     7
 10
585.2969314504135
 20
326.5111780358741
 30
0.0
 40
2.222356198219122
 50
116.8251528743606
 51
303.1748471255959
  0
ARC
  5
594
  8
DATA
  6
CONTINUOUS
 62
     7
 10
610.3518414379469
 20
352.9299113125678
 30
0.0
 40
8.203678318443709
 50
187.5320803774458
 51
292.467919647539
  0
ARC
  5
595
  8
DATA
  6
CONTINUOUS
 62
     7
 10
614.7030731079049
 20
343.4888218376575
 30
0.0
 40
2.222356198219943
 50
296.8251528744025
 51
123.1748471255566
  0
ARC
  5
596
  8
DATA
  6
CONTINUOUS
 62
     7
 10
620.7036805976004
 20
334.9999999372683
 30
0.0
 40
8.203678318440964
 50
127.5320803774578
 51
232.4679196475351
  0
ARC
  5
597
  8
DATA
  6
CONTINUOUS
 62
     7
 10
610.3518414379469
 20
317.0700885609638
 30
0.0
 40
8.203678318440462
 50
67.5320803524684
 51
172.4679196225541
  0
ARC
  5
598
  8
DATA
  6
CONTINUOUS
 62
     7
 10
614.7030731079049
 20
326.5111780358741
 30
0.0
 40
2.22235619821818
 50
236.8251528744273
 51
63.17484712558164
  0
CIRCLE
  5
599
  8
DATA
  6
CONTINUOUS
 62
     7
 10
600.0000022801742
 20
334.9999999367658
 30
0.0
 40
40.50000000000182
  0
ARC
  5
59A
  8
DATA
  6
CONTINUOUS
 62
     7
 10
1400.000002279159
 20
351.9776437385469
 30
0.0
 40
2.222356198219918
 50
356.8251528744368
 51
183.1748471255692
  0
ARC
  5
59B
  8
DATA
  6
CONTINUOUS
 62
     7
 10
1389.648163120373
 20
352.9299113125678
 30
0.0
 40
8.203678318441158
 50
247.5320803524567
 51
352.4679196225541
  0
ARC
  5
59C
  8
DATA
  6
CONTINUOUS
 62
     7
 10
1385.296931450413
 20
343.4888218376575
 30
0.0
 40
2.22235619821818
 50
56.82515287442732
 51
243.1748471256235
  0
ARC
  5
59D
  8
DATA
  6
CONTINUOUS
 62
     7
 10
1379.296323960718
 20
334.9999999372683
 30
0.0
 40
8.20367831844255
 50
307.5320803524741
 51
52.46791962253306
  0
ARC
  5
59E
  8
DATA
  6
CONTINUOUS
 62
     7
 10
1400.000002279159
 20
318.0223561349846
 30
0.0
 40
2.222356198216286
 50
176.8251528744315
 51
3.174847125560092
  0
ARC
  5
59F
  8
DATA
  6
CONTINUOUS
 62
     7
 10
1389.648163120373
 20
317.0700885609638
 30
0.0
 40
8.203678318443709
 50
7.532080377445821
 51
112.4679196475391
  0
ARC
  5
5A0
  8
DATA
  6
CONTINUOUS
 62
     7
 10
1385.296931450413
 20
326.5111780358741
 30
0.0
 40
2.222356198219122
 50
116.8251528743606
 51
303.1748471255959
  0
ARC
  5
5A1
  8
DATA
  6
CONTINUOUS
 62
     7
 10
1410.351841437947
 20
352.9299113125678
 30
0.0
 40
8.203678318443709
 50
187.5320803774458
 51
292.467919647539
  0
ARC
  5
5A2
  8
DATA
  6
CONTINUOUS
 62
     7
 10
1414.703073107905
 20
343.4888218376575
 30
0.0
 40
2.222356198219943
 50
296.8251528744025
 51
123.1748471255566
  0
ARC
  5
5A3
  8
DATA
  6
CONTINUOUS
 62
     7
 10
1420.7036805976
 20
334.9999999372683
 30
0.0
 40
8.203678318440964
 50
127.5320803774578
 51
232.4679196475351
  0
ARC
  5
5A4
  8
DATA
  6
CONTINUOUS
 62
     7
 10
1410.351841437947
 20
317.0700885609638
 30
0.0
 40
8.203678318440462
 50
67.5320803524684
 51
172.4679196225541
  0
ARC
  5
5A5
  8
DATA
  6
CONTINUOUS
 62
     7
 10
1414.703073107905
 20
326.5111780358741
 30
0.0
 40
2.22235619821818
 50
236.8251528744273
 51
63.17484712558164
  0
CIRCLE
  5
5A6
  8
DATA
  6
CONTINUOUS
 62
     7
 10
1400.000002280174
 20
334.9999999367658
 30
0.0
 40
40.50000000000182
  0
CIRCLE
  5
5A7
  8
DATA
  6
CONTINUOUS
 62
     7
 10
1325.000002280174
 20
89.99999993676579
 30
0.0
 40
50.0
  0
ARC
  5
5A8
  8
DATA
  6
CONTINUOUS
 62
     7
 10
1325.000002280174
 20
89.99999993676806
 30
0.0
 40
19.9999999999977
 50
120.0000000000038
 51
59.99999999999587
  0
LINE
  5
5A9
  8
DATA
  6
CONTINUOUS
 62
     7
 10
1325.000002280174
 20
89.99999993676579
 30
0.0
 11
1325.000002280174
 21
114.9999999367658
 31
0.0
  0
CIRCLE
  5
5AA
  8
DATA
  6
CONTINUOUS
 62
     7
 10
1325.000002280174
 20
-145.0000000632344
 30
0.0
 40
107.5
  0
CIRCLE
  5
5AB
  8
DATA
  6
CONTINUOUS
 62
     7
 10
1325.000002280174
 20
-145.0000000632344
 30
0.0
 40
100.0
  0
CIRCLE
  5
5AC
  8
DATA
  6
CONTINUOUS
 62
     7
 10
1325.000002280174
 20
-410.0000000632344
 30
0.0
 40
38.50000000000182
  0
CIRCLE
  5
5AD
  8
DATA
  6
CONTINUOUS
 62
     7
 10
1445.000002280174
 20
89.99999993676579
 30
0.0
 40
15.0
  0
CIRCLE
  5
5AE
  8
DATA
  6
CONTINUOUS
 62
     7
 10
695.0000022801742
 20
-390.0000000632344
 30
0.0
 40
15.0
  0
CIRCLE
  5
5AF
  8
DATA
  6
CONTINUOUS
 62
     7
 10
1015.000002280174
 20
-390.0000000632344
 30
0.0
 40
15.0
  0
CIRCLE
  5
5B0
  8
DATA
  6
CONTINUOUS
 62
     7
 10
695.0000022801742
 20
-530.0000000632344
 30
0.0
 40
65.0
  0
CIRCLE
  5
5B1
  8
DATA
  6
CONTINUOUS
 62
     7
 10
1015.000002280174
 20
-530.0000000632344
 30
0.0
 40
65.0
  0
CIRCLE
  5
5B2
  8
DATA
  6
CONTINUOUS
 62
     7
 10
695.0000022801742
 20
-530.0000000632344
 30
0.0
 40
62.5
  0
CIRCLE
  5
5B3
  8
DATA
  6
CONTINUOUS
 62
     7
 10
1015.000002280174
 20
-530.0000000632344
 30
0.0
 40
62.5
  0
CIRCLE
  5
5B4
  8
DATA
  6
CONTINUOUS
 62
     7
 10
1290.000002284667
 20
-815.0000000632344
 30
0.0
 40
16.49999999835927
  0
CIRCLE
  5
5B5
  8
DATA
  6
CONTINUOUS
 62
     7
 10
1380.000002275681
 20
-815.0000000632344
 30
0.0
 40
16.49999999834108
  0
CIRCLE
  5
5B6
  8
DATA
  6
CONTINUOUS
 62
     7
 10
1429.974410604007
 20
-935.0000000512337
 30
0.0
 40
25.0
  0
LINE
  5
5B7
  8
DATA
  6
______-12
 62
     7
 10
1414.948818937335
 20
-935.0000000512337
 30
0.0
 11
1444.948818937335
 21
-935.0000000512337
 31
0.0
  0
LINE
  5
5B8
  8
DATA
  6
______-12
 62
     7
 10
1429.974410604007
 20
-919.9882833845704
 30
0.0
 11
1429.974410604007
 21
-949.9882833845704
 31
0.0
  0
CIRCLE
  5
5B9
  8
DATA
  6
CONTINUOUS
 62
     7
 10
1240.025593956341
 20
-695.0000000752352
 30
0.0
 40
25.0
  0
LINE
  5
5BA
  8
DATA
  6
______-12
 62
     7
 10
1225.000002289669
 20
-695.0000000752352
 30
0.0
 11
1255.000002289669
 21
-695.0000000752352
 31
0.0
  0
LINE
  5
5BB
  8
DATA
  6
______-12
 62
     7
 10
1240.025593956341
 20
-679.9882834085674
 30
0.0
 11
1240.025593956341
 21
-709.9882834085674
 31
0.0
  0
CIRCLE
  5
5BC
  8
DATA
  6
CONTINUOUS
 62
     7
 10
1335.000002280174
 20
-815.0000000632344
 30
0.0
 40
97.50000015681577
  0
CIRCLE
  5
5BD
  8
DATA
  6
CONTINUOUS
 62
     7
 10
1335.000002280174
 20
-854.5000000592854
 30
0.0
 40
16.49999999834108
  0
ARC
  5
5BE
  8
DATA
  6
CONTINUOUS
 62
     7
 10
1335.000002280174
 20
-815.0000000632344
 30
0.0
 40
78.99999852386203
 50
50.69269454644028
 51
39.30730194582294
  0
LINE
  5
5BF
  8
DATA
  6
CONTINUOUS
 62
     7
 10
1363.500002277404
 20
-741.3199500705305
 30
0.0
 11
1363.500002277404
 21
-741.3199516448885
 31
0.0
  0
ARC
  5
5C0
  8
DATA
  6
CONTINUOUS
 62
     7
 10
1389.447225608144
 20
-760.5527800686077
 30
0.0
 40
7.999999999199845
 50
326.612906173291
 51
123.3870903189605
  0
ARC
  5
5C1
  8
DATA
  6
CONTINUOUS
 62
     7
 10
695.0000022802469
 20
-815.0000000633072
 30
0.0
 40
78.99999852386007
 50
140.692698054177
 51
129.3073054535593
  0
CIRCLE
  5
5C2
  8
DATA
  6
CONTINUOUS
 62
     7
 10
695.0000022801742
 20
-815.0000000632344
 30
0.0
 40
97.49999999025184
  0
ARC
  5
5C3
  8
DATA
  6
CONTINUOUS
 62
     7
 10
695.0000022801723
 20
-815.0000000632344
 30
0.0
 40
107.5000000000002
 50
102.9003349199804
 51
77.0996650800226
  0
LINE
  5
5C4
  8
DATA
  6
CONTINUOUS
 62
     7
 10
719.0000022777695
 20
-739.733805800026
 30
0.0
 11
719.0000022777695
 21
-739.7338073412056
 31
0.0
  0
LINE
  5
5C5
  8
DATA
  6
CONTINUOUS
 62
     7
 10
666.5000022830172
 20
-741.3199500706032
 30
0.0
 11
666.5000022830172
 21
-741.3199516449613
 31
0.0
  0
ARC
  5
5C6
  8
DATA
  6
CONTINUOUS
 62
     7
 10
650.0000022846671
 20
-815.0000000632344
 30
0.0
 40
19.99999999800095
 50
32.08918387405087
 51
327.9108161259492
  0
ARC
  5
5C7
  8
DATA
  6
CONTINUOUS
 62
     7
 10
740.0000022756722
 20
-815.0000000632344
 30
0.0
 40
19.99999999800095
 50
212.0891838740509
 51
147.9108161259491
  0
ARC
  5
5C8
  8
DATA
  6
CONTINUOUS
 62
     7
 10
695.0000022801742
 20
-854.50000005929
 30
0.0
 40
19.9999999980077
 50
137.8522840898889
 51
42.14771591012779
  0
ARC
  5
5C9
  8
DATA
  6
CONTINUOUS
 62
     7
 10
640.5527789522766
 20
-760.5527800686805
 30
0.0
 40
7.99999999920039
 50
56.61290968104122
 51
213.387093826709
  0
ARC
  5
5CA
  8
DATA
  6
CONTINUOUS
 62
     7
 10
695.0000022801742
 20
-815.0000000632344
 30
0.0
 40
29.99999999999744
 50
20.74191648508129
 51
159.2580835149248
  0
ARC
  5
5CB
  8
DATA
  6
CONTINUOUS
 62
     7
 10
695.0000022801742
 20
-815.0000000632344
 30
0.0
 40
30.00000000000594
 50
200.7419164850751
 51
240.3778367991925
  0
ARC
  5
5CC
  8
DATA
  6
CONTINUOUS
 62
     7
 10
695.0000022801742
 20
-815.0000000632344
 30
0.0
 40
29.99999999999644
 50
299.6221632007934
 51
339.2580835149183
  0
CIRCLE
  5
5CD
  8
DATA
  6
CONTINUOUS
 62
     7
 10
790.0000022706699
 20
-935.0000000512337
 30
0.0
 40
25.0
  0
LINE
  5
5CE
  8
DATA
  6
______-12
 62
     7
 10
774.9744106040071
 20
-935.0000000512337
 30
0.0
 11
804.9744106040071
 21
-935.0000000512337
 31
0.0
  0
LINE
  5
5CF
  8
DATA
  6
______-12
 62
     7
 10
790.0000022706699
 20
-919.9882833845704
 30
0.0
 11
790.0000022706699
 21
-949.9882833845704
 31
0.0
  0
CIRCLE
  5
5D0
  8
DATA
  6
CONTINUOUS
 62
     7
 10
599.9744106230064
 20
-694.9882834085674
 30
0.0
 40
25.0
  0
LINE
  5
5D1
  8
DATA
  6
______-12
 62
     7
 10
584.9488189563435
 20
-694.9882834085674
 30
0.0
 11
614.9488189563435
 21
-694.9882834085674
 31
0.0
  0
LINE
  5
5D2
  8
DATA
  6
______-12
 62
     7
 10
599.9744106230064
 20
-679.9765667419042
 30
0.0
 11
599.9744106230064
 21
-709.9765667419042
 31
0.0
  0
LINE
  5
5D3
  8
DATA
  6
CONTINUOUS
 62
     7
 10
671.0000022825698
 20
-710.2133119768409
 30
0.0
 11
671.0000022825698
 21
-697.4244924091299
 31
0.0
  0
LINE
  5
5D4
  8
DATA
  6
CONTINUOUS
 62
     7
 10
719.0000022777695
 20
-710.2133119768409
 30
0.0
 11
719.0000022777695
 21
-697.4244924091131
 31
0.0
  0
ARC
  5
5D5
  8
DATA
  6
CONTINUOUS
 62
     7
 10
695.0000022802105
 20
-815.0000000632276
 30
0.0
 40
120.0000000000232
 50
78.46304096837633
 51
101.5369590316635
  0
ARC
  5
5D6
  8
DATA
  6
CONTINUOUS
 62
     7
 10
1015.000002280247
 20
-815.0000000633072
 30
0.0
 40
78.99999852386007
 50
140.692698054177
 51
129.3073054535593
  0
CIRCLE
  5
5D7
  8
DATA
  6
CONTINUOUS
 62
     7
 10
1015.000002280174
 20
-815.0000000632344
 30
0.0
 40
97.49999999025184
  0
ARC
  5
5D8
  8
DATA
  6
CONTINUOUS
 62
     7
 10
1015.000002280172
 20
-815.0000000632344
 30
0.0
 40
107.5000000000002
 50
102.9003349199804
 51
77.0996650800226
  0
LINE
  5
5D9
  8
DATA
  6
CONTINUOUS
 62
     7
 10
1039.000002277769
 20
-739.733805800026
 30
0.0
 11
1039.000002277769
 21
-739.7338073412056
 31
0.0
  0
LINE
  5
5DA
  8
DATA
  6
CONTINUOUS
 62
     7
 10
986.5000022830172
 20
-741.3199500706032
 30
0.0
 11
986.5000022830172
 21
-741.3199516449613
 31
0.0
  0
ARC
  5
5DB
  8
DATA
  6
CONTINUOUS
 62
     7
 10
970.0000022846671
 20
-815.0000000632344
 30
0.0
 40
19.99999999800095
 50
32.08918387405087
 51
327.9108161259492
  0
ARC
  5
5DC
  8
DATA
  6
CONTINUOUS
 62
     7
 10
1060.000002275672
 20
-815.0000000632344
 30
0.0
 40
19.99999999800095
 50
212.0891838740509
 51
147.9108161259491
  0
ARC
  5
5DD
  8
DATA
  6
CONTINUOUS
 62
     7
 10
1015.000002280174
 20
-854.50000005929
 30
0.0
 40
19.9999999980077
 50
137.8522840898889
 51
42.14771591012779
  0
ARC
  5
5DE
  8
DATA
  6
CONTINUOUS
 62
     7
 10
960.5527789522766
 20
-760.5527800686805
 30
0.0
 40
7.99999999920039
 50
56.61290968104122
 51
213.387093826709
  0
ARC
  5
5DF
  8
DATA
  6
CONTINUOUS
 62
     7
 10
1015.000002280174
 20
-815.0000000632344
 30
0.0
 40
29.99999999999744
 50
20.74191648508129
 51
159.2580835149248
  0
ARC
  5
5E0
  8
DATA
  6
CONTINUOUS
 62
     7
 10
1015.000002280174
 20
-815.0000000632344
 30
0.0
 40
30.00000000000594
 50
200.7419164850751
 51
240.3778367991925
  0
ARC
  5
5E1
  8
DATA
  6
CONTINUOUS
 62
     7
 10
1015.000002280174
 20
-815.0000000632344
 30
0.0
 40
29.99999999999644
 50
299.6221632007934
 51
339.2580835149183
  0
CIRCLE
  5
5E2
  8
DATA
  6
CONTINUOUS
 62
     7
 10
1110.00000227067
 20
-935.0000000512337
 30
0.0
 40
25.0
  0
LINE
  5
5E3
  8
DATA
  6
______-12
 62
     7
 10
1094.974410604007
 20
-935.0000000512337
 30
0.0
 11
1124.974410604007
 21
-935.0000000512337
 31
0.0
  0
LINE
  5
5E4
  8
DATA
  6
______-12
 62
     7
 10
1110.00000227067
 20
-919.9882833845704
 30
0.0
 11
1110.00000227067
 21
-949.9882833845704
 31
0.0
  0
CIRCLE
  5
5E5
  8
DATA
  6
CONTINUOUS
 62
     7
 10
919.9744106230064
 20
-694.9882834085674
 30
0.0
 40
25.0
  0
LINE
  5
5E6
  8
DATA
  6
______-12
 62
     7
 10
904.9488189563435
 20
-694.9882834085674
 30
0.0
 11
934.9488189563435
 21
-694.9882834085674
 31
0.0
  0
LINE
  5
5E7
  8
DATA
  6
______-12
 62
     7
 10
919.9744106230064
 20
-679.9765667419042
 30
0.0
 11
919.9744106230064
 21
-709.9765667419042
 31
0.0
  0
LINE
  5
5E8
  8
DATA
  6
CONTINUOUS
 62
     7
 10
991.0000022825698
 20
-710.2133119768409
 30
0.0
 11
991.0000022825698
 21
-697.4244924091299
 31
0.0
  0
LINE
  5
5E9
  8
DATA
  6
CONTINUOUS
 62
     7
 10
1039.000002277769
 20
-710.2133119768409
 30
0.0
 11
1039.000002277769
 21
-697.4244924091131
 31
0.0
  0
ARC
  5
5EA
  8
DATA
  6
CONTINUOUS
 62
     7
 10
1015.000002280211
 20
-815.0000000632276
 30
0.0
 40
120.0000000000232
 50
78.46304096837633
 51
101.5369590316635
  0
CIRCLE
  5
5EB
  8
DATA
  6
CONTINUOUS
 62
     7
 10
1445.000002280174
 20
-410.0000000632344
 30
0.0
 40
15.0
  0
LINE
  5
5EC
  8
DATA
  6
CONTINUOUS
 62
     7
 10
695.0000022801742
 20
-595.0000000632344
 30
0.0
 11
695.0000022801687
 21
-695.0000000632049
 31
0.0
  0
LINE
  5
5ED
  8
DATA
  6
CONTINUOUS
 62
     7
 10
1015.000002280174
 20
-595.0000000632344
 30
0.0
 11
1015.000002280169
 21
-695.0000000632049
 31
0.0
  0
LINE
  5
5EE
  8
DATA
  6
CONTINUOUS
 62
     7
 10
707.5000022801742
 20
-1000.000000063235
 30
0.0
 11
682.5000022801742
 21
-1000.000000063235
 31
0.0
  0
LINE
  5
5EF
  8
DATA
  6
CONTINUOUS
 62
     7
 10
682.5000022801742
 20
-1000.000000063235
 30
0.0
 11
695.0000022801742
 21
-985.0000000632353
 31
0.0
  0
LINE
  5
5F0
  8
DATA
  6
CONTINUOUS
 62
     7
 10
707.5000022801742
 20
-1000.000000063235
 30
0.0
 11
695.0000022801742
 21
-985.0000000632353
 31
0.0
  0
LINE
  5
5F1
  8
DATA
  6
CONTINUOUS
 62
     7
 10
1027.500002280174
 20
-1000.000000063235
 30
0.0
 11
1002.500002280174
 21
-1000.000000063235
 31
0.0
  0
LINE
  5
5F2
  8
DATA
  6
CONTINUOUS
 62
     7
 10
1002.500002280174
 20
-1000.000000063235
 30
0.0
 11
1015.000002280174
 21
-985.0000000632353
 31
0.0
  0
LINE
  5
5F3
  8
DATA
  6
CONTINUOUS
 62
     7
 10
1027.500002280174
 20
-1000.000000063235
 30
0.0
 11
1015.000002280174
 21
-985.0000000632353
 31
0.0
  0
LINE
  5
5F4
  8
DATA
  6
CONTINUOUS
 62
     7
 10
1347.500002280174
 20
-1000.000000063235
 30
0.0
 11
1322.500002280174
 21
-1000.000000063235
 31
0.0
  0
LINE
  5
5F5
  8
DATA
  6
CONTINUOUS
 62
     7
 10
1322.500002280174
 20
-1000.000000063235
 30
0.0
 11
1335.000002280174
 21
-985.0000000632353
 31
0.0
  0
LINE
  5
5F6
  8
DATA
  6
CONTINUOUS
 62
     7
 10
1347.500002280174
 20
-1000.000000063235
 30
0.0
 11
1335.000002280174
 21
-985.0000000632353
 31
0.0
  0
ARC
  5
5F7
  8
DATA
  6
CONTINUOUS
 62
     7
 10
625.000000045
 20
-1725.000000063234
 30
0.0
 40
625.0
 50
53.13010235415597
 51
126.8698976458441
  0
ARC
  5
5F8
  8
DATA
  6
CONTINUOUS
 62
     7
 10
1375.000000045
 20
-725.0000000632344
 30
0.0
 40
624.9999999999997
 50
233.130102354156
 51
306.869897645844
  0
TEXT
  5
5F9
  8
DATA
 62
     7
 10
1268.135256186424
 20
153.7529296242635
 30
0.0
 40
32.494140625
  1
POWER
 41
0.7
 72
     1
 11
1325.000002280174
 21
169.9999999367635
 31
0.0
 73
     2
  0
TEXT
  5
5FA
  8
DATA
 62
     7
 10
1230.225425457257
 20
-23.74707037573671
 30
0.0
 40
32.494140625
  1
MAIN/MEMU
 41
0.7
 72
     1
 11
1325.000002280174
 21
-7.500000063236712
 31
0.0
 73
     2
  0
TEXT
  5
5FB
  8
DATA
 62
     7
 10
1283.299188478091
 20
-357.7470703757353
 30
0.0
 40
32.494140625
  1
BACK
 41
0.7
 72
     1
 11
1325.000002280174
 21
-341.5000000632353
 31
0.0
 73
     2
  0
TEXT
  5
5FC
  8
DATA
 62
     7
 10
1399.508205405174
 20
-357.7470703757353
 30
0.0
 40
32.494140625
  1
LIMIT
 41
0.7
 72
     1
 11
1445.000002280174
 21
-341.5000000632353
 31
0.0
 73
     2
  0
TEXT
  5
5FD
  8
DATA
 62
     7
 10
615.3893577489241
 20
-361.2470703757367
 30
0.0
 40
32.494140625
  1
SIG/CLIP
 41
0.7
 72
     1
 11
695.0000022801742
 21
-345.0000000632367
 31
0.0
 73
     2
  0
TEXT
  5
5FE
  8
DATA
 62
     7
 10
935.3893577489241
 20
-361.2470703757367
 30
0.0
 40
32.494140625
  1
SIG/CLIP
 41
0.7
 72
     1
 11
1015.000002280174
 21
-345.0000000632367
 31
0.0
 73
     2
  0
TEXT
  5
5FF
  8
DATA
 62
     7
 10
657.0901715510075
 20
-451.2470703757367
 30
0.0
 40
32.494140625
  1
GAIN
 41
0.7
 72
     1
 11
695.0000022801742
 21
-435.0000000632367
 31
0.0
 73
     2
  0
TEXT
  5
600
  8
DATA
 62
     7
 10
977.0901715510075
 20
-451.2470703757367
 30
0.0
 40
32.494140625
  1
GAIN
 41
0.7
 72
     1
 11
1015.000002280174
 21
-435.0000000632367
 31
0.0
 73
     2
  0
TEXT
  5
601
  8
DATA
 62
     7
 10
668.4631207697574
 20
-1046.247070375736
 30
0.0
 40
32.494140625
  1
CH1
 41
0.7
 72
     1
 11
695.0000022801742
 21
-1030.000000063236
 31
0.0
 73
     2
  0
TEXT
  5
602
  8
DATA
 62
     7
 10
984.6721376968409
 20
-1046.247070375736
 30
0.0
 40
32.494140625
  1
CH2
 41
0.7
 72
     1
 11
1015.000002280174
 21
-1030.000000063236
 31
0.0
 73
     2
  0
TEXT
  5
603
  8
DATA
 62
     7
 10
1240.983622071841
 20
-1046.247070375736
 30
0.0
 40
32.494140625
  1
PASS THRU
 41
0.7
 72
     1
 11
1335.000002280174
 21
-1030.000000063236
 31
0.0
 73
     2
  0
LINE
  5
604
  8
DATA
  6
CONTINUOUS
 62
     7
 10
-880.0
 20
-900.5794277308522
 30
0.0
 11
-880.0
 21
-1488.169377789871
 31
0.0
  0
LINE
  5
605
  8
DATA
  6
CONTINUOUS
 62
     7
 10
-818.0
 20
-1132.518
 30
0.0
 11
-818.0
 21
-1257.518
 31
0.0
  0
LINE
  5
606
  8
DATA
  6
CONTINUOUS
 62
     7
 10
-790.0
 20
-1137.518
 30
0.0
 11
-790.0
 21
-1252.518
 31
0.0
  0
LINE
  5
607
  8
DATA
  6
CONTINUOUS
 62
     7
 10
-730.0
 20
-1137.518
 30
0.0
 11
-730.0
 21
-1252.518
 31
0.0
  0
LINE
  5
608
  8
DATA
  6
CONTINUOUS
 62
     7
 10
-700.0
 20
-1136.880761635644
 30
0.0
 11
-700.0
 21
-1253.155238364362
 31
0.0
  0
LINE
  5
609
  8
DATA
  6
CONTINUOUS
 62
     7
 10
-667.0
 20
-1136.880761635638
 30
0.0
 11
-667.0
 21
-1253.155238364356
 31
0.0
  0
LINE
  5
60A
  8
DATA
  6
CONTINUOUS
 62
     7
 10
-632.0
 20
-1132.518
 30
0.0
 11
-632.0
 21
-1257.518
 31
0.0
  0
LINE
  5
60B
  8
DATA
  6
CONTINUOUS
 62
     7
 10
-758.0000000000028
 20
-1312.518
 30
0.0
 11
-657.0
 21
-1312.518
 31
0.0
  0
LINE
  5
60C
  8
DATA
  6
CONTINUOUS
 62
     7
 10
-757.9999999999999
 20
-1077.518
 30
0.0
 11
-657.0
 21
-1077.518
 31
0.0
  0
ARC
  5
60D
  8
DATA
  6
CONTINUOUS
 62
     7
 10
-756.3819706742462
 20
-1139.510395628095
 30
0.0
 40
62.01350767864409
 50
91.49510609524823
 51
173.5257880607535
  0
ARC
  5
60E
  8
DATA
  6
CONTINUOUS
 62
     7
 10
-756.3819706742462
 20
-1250.525604371905
 30
0.0
 40
62.01350767864416
 50
186.4742119392465
 51
268.5048939047518
  0
ARC
  5
60F
  8
DATA
  6
CONTINUOUS
 62
     7
 10
-712.9375
 20
-1136.125954545455
 30
0.0
 40
81.01787606603907
 50
2.552386785452502
 51
46.33552277538053
  0
ARC
  5
610
  8
DATA
  6
CONTINUOUS
 62
     7
 10
-712.9375
 20
-1253.910045454546
 30
0.0
 40
81.01787606603904
 50
313.6644772246195
 51
357.4476132145475
  0
ARC
  5
611
  8
DATA
  6
CONTINUOUS
 62
     7
 10
-760.0
 20
-1137.518
 30
0.0
 40
30.0
 50
0.0
 51
180.0
  0
ARC
  5
612
  8
DATA
  6
CONTINUOUS
 62
     7
 10
-760.0
 20
-1252.518
 30
0.0
 40
30.0
 50
180.0
 51
0.0
  0
ARC
  5
613
  8
DATA
  6
CONTINUOUS
 62
     7
 10
-650.1651130710363
 20
-1137.199380817819
 30
0.0
 40
49.83590546389063
 50
162.8667799934757
 51
180.3663153826432
  0
ARC
  5
614
  8
DATA
  6
CONTINUOUS
 62
     7
 10
-671.7382025215182
 20
-1129.875694004175
 30
0.0
 40
27.07030752561712
 50
133.4335859231958
 51
164.2286288149421
  0
ARC
  5
615
  8
DATA
  6
CONTINUOUS
 62
     7
 10
-683.1621434765827
 20
-1118.412905053358
 30
0.0
 40
10.90014234549732
 50
91.77620192359817
 51
131.2520433484209
  0
ARC
  5
616
  8
DATA
  6
CONTINUOUS
 62
     7
 10
-716.8348869289637
 20
-1137.199380817819
 30
0.0
 40
49.83590546389067
 50
359.6336846173568
 51
17.13322000652425
  0
ARC
  5
617
  8
DATA
  6
CONTINUOUS
 62
     7
 10
-695.2617974784818
 20
-1129.875694004175
 30
0.0
 40
27.07030752561706
 50
15.77137118505788
 51
46.56641407680416
  0
ARC
  5
618
  8
DATA
  6
CONTINUOUS
 62
     7
 10
-683.8378565234173
 20
-1118.412905053358
 30
0.0
 40
10.90014234549729
 50
48.74795665157917
 51
88.22379807640185
  0
ARC
  5
619
  8
DATA
  6
CONTINUOUS
 62
     7
 10
-650.1651130710363
 20
-1252.836619182181
 30
0.0
 40
49.83590546389067
 50
179.6336846173568
 51
197.1332200065242
  0
ARC
  5
61A
  8
DATA
  6
CONTINUOUS
 62
     7
 10
-671.7382025215182
 20
-1260.160305995825
 30
0.0
 40
27.07030752561706
 50
195.7713711850579
 51
226.5664140768042
  0
ARC
  5
61B
  8
DATA
  6
CONTINUOUS
 62
     7
 10
-683.1621434765827
 20
-1271.623094946642
 30
0.0
 40
10.90014234549729
 50
228.7479566515792
 51
268.2237980764019
  0
ARC
  5
61C
  8
DATA
  6
CONTINUOUS
 62
     7
 10
-716.8348869289637
 20
-1252.836619182181
 30
0.0
 40
49.83590546389063
 50
342.8667799934757
 51
0.3663153826432222
  0
ARC
  5
61D
  8
DATA
  6
CONTINUOUS
 62
     7
 10
-695.2617974784818
 20
-1260.160305995825
 30
0.0
 40
27.07030752561712
 50
313.4335859231958
 51
344.2286288149421
  0
ARC
  5
61E
  8
DATA
  6
CONTINUOUS
 62
     7
 10
-683.8378565234173
 20
-1271.623094946642
 30
0.0
 40
10.90014234549732
 50
271.7762019235982
 51
311.2520433484209
  0
LINE
  5
61F
  8
DATA
  6
CONTINUOUS
 62
     7
 10
-1384.500427453523
 20
-1537.518
 30
0.0
 11
-1384.500427453523
 21
-1534.514068152032
 31
0.0
  0
LINE
  5
620
  8
DATA
  6
CONTINUOUS
 62
     7
 10
-1215.499572546477
 20
-1537.518
 30
0.0
 11
-1215.499572546477
 21
-1534.514068152032
 31
0.0
  0
LINE
  5
621
  8
DATA
  6
CONTINUOUS
 62
     7
 10
-384.5004274535233
 20
-1537.518
 30
0.0
 11
-384.5004274535233
 21
-1534.514068152032
 31
0.0
  0
LINE
  5
622
  8
DATA
  6
CONTINUOUS
 62
     7
 10
-215.4995725464767
 20
-1537.518
 30
0.0
 11
-215.4995725464767
 21
-1534.514068152032
 31
0.0
  0
LINE
  5
623
  8
DATA
  6
CONTINUOUS
 62
     7
 10
-248.0
 20
-1490.518
 30
0.0
 11
-352.0
 21
-1490.518
 31
0.0
  0
LINE
  5
624
  8
DATA
  6
CONTINUOUS
 62
     7
 10
-248.0
 20
-1454.518
 30
0.0
 11
-352.0
 21
-1454.518
 31
0.0
  0
ARC
  5
625
  8
DATA
  6
CONTINUOUS
 62
     7
 10
-352.0
 20
-1472.518
 30
0.0
 40
18.0
 50
90.0
 51
270.0
  0
ARC
  5
626
  8
DATA
  6
CONTINUOUS
 62
     7
 10
-248.0
 20
-1472.518
 30
0.0
 40
18.0
 50
270.0
 51
90.0
  0
LINE
  5
627
  8
DATA
  6
CONTINUOUS
 62
     7
 10
-323.9999999999739
 20
-1507.518
 30
0.0
 11
-323.9999999999739
 21
-1490.518
 31
0.0
  0
LINE
  5
628
  8
DATA
  6
CONTINUOUS
 62
     7
 10
-275.9999999999739
 20
-1507.518
 30
0.0
 11
-275.9999999999739
 21
-1490.518
 31
0.0
  0
LINE
  5
629
  8
DATA
  6
CONTINUOUS
 62
     7
 10
-1372.127362092817
 20
-2014.98827968727
 30
0.0
 11
-1324.0
 21
-2014.98827968727
 31
0.0
  0
LINE
  5
62A
  8
DATA
  6
CONTINUOUS
 62
     7
 10
-1276.0
 20
-2014.98827968727
 30
0.0
 11
-1227.872637907235
 21
-2014.98827968727
 31
0.0
  0
ARC
  5
62B
  8
DATA
  6
CONTINUOUS
 62
     7
 10
-1227.872637907235
 20
-1983.98827968727
 30
0.0
 40
31.0
 50
270.0
 51
312.0775273319758
  0
ARC
  5
62C
  8
DATA
  6
CONTINUOUS
 62
     7
 10
-1372.127362092817
 20
-1983.98827968727
 30
0.0
 40
31.00000000000018
 50
227.9224726680238
 51
269.9999999999996
  0
LINE
  5
62D
  8
DATA
  6
CONTINUOUS
 62
     7
 10
-875.0
 20
-900.5794277308522
 30
0.0
 11
-875.0
 21
-1488.169377789872
 31
0.0
  0
LINE
  5
62E
  8
DATA
  6
CONTINUOUS
 62
     7
 10
-699.7154085760236
 20
-904.1426232201372
 30
0.0
 11
-871.885759759194
 21
-897.5816036587324
 31
0.0
  0
ARC
  5
62F
  8
DATA
  6
CONTINUOUS
 62
     7
 10
-872.0
 20
-900.5794277308522
 30
0.0
 40
3.000000000000042
 50
87.81764446398485
 51
180.0
  0
LINE
  5
630
  8
DATA
  6
CONTINUOUS
 62
     7
 10
-699.7154085760236
 20
-1481.604786051732
 30
0.0
 11
-871.8336272146469
 21
-1491.164760920006
 31
0.0
  0
ARC
  5
631
  8
DATA
  6
CONTINUOUS
 62
     7
 10
-872.0
 20
-1488.169377789872
 30
0.0
 40
3.0
 50
180.0
 51
273.1791171507015
  0
LINE
  5
632
  8
DATA
  6
CONTINUOUS
 62
     7
 10
-491.0
 20
-1507.014068152032
 30
0.0
 11
-387.5000000000001
 21
-1487.437386490029
 31
0.0
  0
ARC
  5
633
  8
DATA
  6
CONTINUOUS
 62
     7
 10
-442.6874999999999
 20
-1496.602304561771
 30
0.0
 40
33.14576949763391
 50
192.8745000297067
 51
229.9846311999705
  0
LINE
  5
634
  8
DATA
  6
CONTINUOUS
 62
     7
 10
-125.0000000000001
 20
-1475.276625078355
 30
0.0
 11
-125.0000000000001
 21
-1503.987721228437
 31
0.0
  0
LINE
  5
635
  8
DATA
  6
CONTINUOUS
 62
     7
 10
-120.0
 20
-1525.014068152032
 30
0.0
 11
-212.4999999999999
 21
-1507.518
 31
0.0
  0
LINE
  5
636
  8
DATA
  6
CONTINUOUS
 62
     7
 10
-109.0
 20
-1507.014068152032
 30
0.0
 11
-212.4999999999999
 21
-1487.437386490029
 31
0.0
  0
ARC
  5
637
  8
DATA
  6
CONTINUOUS
 62
     7
 10
-157.3125000000001
 20
-1496.602304561771
 30
0.0
 40
33.14576949763396
 50
310.0153688000295
 51
347.1254999702933
  0
ARC
  5
638
  8
DATA
  6
CONTINUOUS
 62
     7
 10
-446.9843749999999
 20
-887.9317290828033
 30
0.0
 40
28.10365536627378
 50
133.9806898660097
 51
175.4638656628845
  0
ARC
  5
639
  8
DATA
  6
CONTINUOUS
 62
     7
 10
-351.7166675322413
 20
-1041.307448265916
 30
0.0
 40
173.9933649331796
 50
96.03181203911521
 51
108.1865834184601
  0
LINE
  5
63A
  8
DATA
  6
CONTINUOUS
 62
     7
 10
-117.5
 20
-865.514068152032
 30
0.0
 11
-212.4999999999999
 21
-878.5469084441115
 31
0.0
  0
ARC
  5
63B
  8
DATA
  6
CONTINUOUS
 62
     7
 10
-153.0156250000001
 20
-887.9317290828033
 30
0.0
 40
28.10365536627378
 50
4.536134337115555
 51
46.01931013399035
  0
ARC
  5
63C
  8
DATA
  6
CONTINUOUS
 62
     7
 10
-248.2833324677587
 20
-1041.307448265916
 30
0.0
 40
173.9933649331796
 50
71.81341658153995
 51
83.9681879608848
  0
VIEWPORT
  5
63D
 67
     1
  8
0
 10
128.5
 20
97.5
 30
0.0
 40
314.226
 41
222.18
 68
     1
 69
     1
1001
ACAD
1000
MVIEW
1002
{
1070
    16
1010
0.0
1020
0.0
1030
0.0
1020
0.0
1030
0.0
1010
0.0
1020
0.0
1030
1.0
1020
0.0
1030
1.0
1040
0.0
1040
222.18
1040
128.5
1040
97.5
1040
50.0
1040
0.0
1040
0.0
1070
     0
1070
   100
1070
     0
1070
     3
1070
     0
1070
     0
1070
     0
1070
     0
1040
0.0
1040
0.0
1040
0.0
1040
10.0
1040
10.0
1040
10.0
1040
10.0
1070
     0
1002
{
1002
}
1002
}
  0
ENDSEC
  0
EOF
