  0
SECTION
  2
HEADER
  9
$ACADVER
  1
AC1009
  9
$DWGCODEPAGE
  3
ansi_932
  9
$INSBASE
 10
0.0
 20
0.0
 30
0.0
  9
$EXTMIN
 10
-1800.0
 20
-2685.008451078124
 30
0.0
  9
$EXTMAX
 10
1800.0
 20
2667.104485
 30
0.0
  9
$LIMMIN
 10
0.0
 20
0.0
  9
$LIMMAX
 10
12.0
 20
9.0
  9
$ORTHOMODE
 70
     0
  9
$REGENMODE
 70
     1
  9
$FILLMODE
 70
     1
  9
$QTEXTMODE
 70
     0
  9
$MIRRTEXT
 70
     1
  9
$DRAGMODE
 70
     2
  9
$LTSCALE
 40
254.0
  9
$OSMODE
 70
  1191
  9
$ATTMODE
 70
     1
  9
$TEXTSIZE
 40
0.2
  9
$TRACEWID
 40
1.0
  9
$TEXTSTYLE
  7
STANDARD
  9
$CLAYER
  8
DATA
  9
$CELTYPE
  6
BYLAYER
  9
$CECOLOR
 62
   256
  9
$DIMSCALE
 40
1.0
  9
$DIMASZ
 40
0.18
  9
$DIMEXO
 40
0.0625
  9
$DIMDLI
 40
0.38
  9
$DIMRND
 40
0.0
  9
$DIMDLE
 40
0.0
  9
$DIMEXE
 40
0.18
  9
$DIMTP
 40
0.0
  9
$DIMTM
 40
0.0
  9
$DIMTXT
 40
0.18
  9
$DIMCEN
 40
0.09
  9
$DIMTSZ
 40
0.0
  9
$DIMTOL
 70
     0
  9
$DIMLIM
 70
     0
  9
$DIMTIH
 70
     1
  9
$DIMTOH
 70
     1
  9
$DIMSE1
 70
     0
  9
$DIMSE2
 70
     0
  9
$DIMTAD
 70
     0
  9
$DIMZIN
 70
     0
  9
$DIMBLK
  1

  9
$DIMASO
 70
     1
  9
$DIMSHO
 70
     1
  9
$DIMPOST
  1

  9
$DIMAPOST
  1

  9
$DIMALT
 70
     0
  9
$DIMALTD
 70
     2
  9
$DIMALTF
 40
25.4
  9
$DIMLFAC
 40
1.0
  9
$DIMTOFL
 70
     0
  9
$DIMTVP
 40
0.0
  9
$DIMTIX
 70
     0
  9
$DIMSOXD
 70
     0
  9
$DIMSAH
 70
     0
  9
$DIMBLK1
  1

  9
$DIMBLK2
  1

  9
$DIMSTYLE
  2
STANDARD
  9
$DIMCLRD
 70
     0
  9
$DIMCLRE
 70
     0
  9
$DIMCLRT
 70
     0
  9
$DIMTFAC
 40
1.0
  9
$DIMGAP
 40
0.09
  9
$LUNITS
 70
     2
  9
$LUPREC
 70
     2
  9
$SKETCHINC
 40
0.1
  9
$FILLETRAD
 40
0.5
  9
$AUNITS
 70
     0
  9
$AUPREC
 70
     1
  9
$MENU
  1
.
  9
$ELEVATION
 40
0.0
  9
$PELEVATION
 40
0.0
  9
$THICKNESS
 40
0.0
  9
$LIMCHECK
 70
     0
  9
$CHAMFERA
 40
0.0
  9
$CHAMFERB
 40
0.0
  9
$SKPOLY
 70
     0
  9
$TDCREATE
 40
2459836.563353507
  9
$TDUPDATE
 40
2459836.563925347
  9
$TDINDWG
 40
2459836.188926077
  9
$TDUSRTIMER
 40
0.0005725694
  9
$USRTIMER
 70
     1
  9
$ANGBASE
 50
0.0
  9
$ANGDIR
 70
     0
  9
$PDMODE
 70
     1
  9
$PDSIZE
 40
-2.0
  9
$PLINEWID
 40
0.0
  9
$COORDS
 70
     0
  9
$SPLFRAME
 70
     0
  9
$SPLINETYPE
 70
     6
  9
$SPLINESEGS
 70
     8
  9
$ATTDIA
 70
     1
  9
$ATTREQ
 70
     1
  9
$HANDLING
 70
     1
  9
$HANDSEED
  5
781
  9
$SURFTAB1
 70
     6
  9
$SURFTAB2
 70
     6
  9
$SURFTYPE
 70
     6
  9
$SURFU
 70
     6
  9
$SURFV
 70
     6
  9
$UCSNAME
  2

  9
$UCSORG
 10
0.0
 20
0.0
 30
0.0
  9
$UCSXDIR
 10
1.0
 20
0.0
 30
0.0
  9
$UCSYDIR
 10
0.0
 20
1.0
 30
0.0
  9
$PUCSNAME
  2

  9
$PUCSORG
 10
0.0
 20
0.0
 30
0.0
  9
$PUCSXDIR
 10
1.0
 20
0.0
 30
0.0
  9
$PUCSYDIR
 10
0.0
 20
1.0
 30
0.0
  9
$USERI1
 70
     0
  9
$USERI2
 70
     0
  9
$USERI3
 70
     0
  9
$USERI4
 70
     0
  9
$USERI5
 70
     0
  9
$USERR1
 40
0.0
  9
$USERR2
 40
0.0
  9
$USERR3
 40
0.0
  9
$USERR4
 40
0.0
  9
$USERR5
 40
0.0
  9
$WORLDVIEW
 70
     1
  9
$SHADEDGE
 70
     3
  9
$SHADEDIF
 70
    70
  9
$TILEMODE
 70
     1
  9
$MAXACTVP
 70
    64
  9
$PLIMCHECK
 70
     0
  9
$PEXTMIN
 10
1.000000000000000E+20
 20
1.000000000000000E+20
 30
1.000000000000000E+20
  9
$PEXTMAX
 10
-1.000000000000000E+20
 20
-1.000000000000000E+20
 30
-1.000000000000000E+20
  9
$PLIMMIN
 10
-20.0
 20
-7.5
  9
$PLIMMAX
 10
277.0
 20
202.5
  9
$UNITMODE
 70
     0
  9
$VISRETAIN
 70
     1
  9
$PLINEGEN
 70
     0
  9
$PSLTSCALE
 70
     1
  0
ENDSEC
  0
SECTION
  2
TABLES
  0
TABLE
  2
VPORT
 70
     1
  0
VPORT
  2
*ACTIVE
 70
     0
 10
0.0
 20
0.0
 11
1.0
 21
1.0
 12
0.0000000000002274
 22
-3.531814999999369
 13
0.0
 23
0.0
 14
0.5
 24
0.5
 15
0.5
 25
0.5
 16
0.0
 26
0.0
 36
1.0
 17
0.0
 27
0.0
 37
0.0
 40
8239.030462170089
 41
2.420152091254753
 42
2000.0
 43
0.0
 44
0.0
 50
0.0
 51
0.0
 71
     0
 72
   100
 73
     1
 74
     3
 75
     0
 76
     0
 77
     0
 78
     0
  0
ENDTAB
  0
TABLE
  2
LTYPE
 70
    12
  0
LTYPE
  2
CONTINUOUS
 70
     0
  3
Solid line
 72
    65
 73
     0
 40
0.0
  0
LTYPE
  2
______-8
 70
     0
  3

 72
    65
 73
     6
 40
0.5
 49
0.25
 49
-0.08331298828125
 49
0.02777099609375
 49
-0.055572509765625
 49
0.02777099609375
 49
-0.055572509765625
  0
LTYPE
  2
______-12
 70
     0
  3

 72
    65
 73
     4
 40
2.182677165354331
 49
1.364173228346457
 49
-0.2728346456692914
 49
0.2728346456692914
 49
-0.2728346456692914
  0
ENDTAB
  0
TABLE
  2
LAYER
 70
     5
  0
LAYER
  2
0
 70
     0
 62
     7
  6
CONTINUOUS
  0
LAYER
  2
HIBINO-BASE
 70
     0
 62
     7
  6
CONTINUOUS
  0
LAYER
  2
SPEC
 70
     0
 62
     7
  6
CONTINUOUS
  0
LAYER
  2
DIMNSIONS
 70
     0
 62
     7
  6
CONTINUOUS
  0
LAYER
  2
DATA
 70
     0
 62
     7
  6
CONTINUOUS
  0
ENDTAB
  0
TABLE
  2
STYLE
 70
     2
  0
STYLE
  2
STANDARD
 70
     0
 40
0.0
 41
1.0
 50
0.0
 71
     0
 42
0.2
  3
txt
  4
BIGFONT.SHX
  0
ENDTAB
  0
TABLE
  2
VIEW
 70
     0
  0
ENDTAB
  0
TABLE
  2
UCS
 70
     0
  0
ENDTAB
  0
TABLE
  2
APPID
 70
     5
  0
APPID
  2
ACAD
 70
     0
  0
APPID
  2
ACAECLAYERSTANDARD
 70
     0
  0
APPID
  2
ACCMTRANSPARENCY
 70
     0
  0
APPID
  2
ACAD_MLEADERVER
 70
     0
  0
APPID
  2
ACADANNOPO
 70
     0
  0
ENDTAB
  0
TABLE
  2
DIMSTYLE
 70
     1
  0
DIMSTYLE
  2
STANDARD
 70
     0
  3

  4

  5

  6

  7

 40
1.0
 41
0.18
 42
0.0625
 43
0.38
 44
0.18
 45
0.0
 46
0.0
 47
0.0
 48
0.0
140
0.18
141
0.09
142
0.0
143
25.4
144
1.0
145
0.0
146
1.0
147
0.09
 71
     0
 72
     0
 73
     1
 74
     1
 75
     0
 76
     0
 77
     0
 78
     0
170
     0
171
     2
172
     0
173
     0
174
     0
175
     0
176
     0
177
     0
178
     0
  0
ENDTAB
  0
ENDSEC
  0
SECTION
  2
BLOCKS
  0
BLOCK
  8
DATA
  2
$MODEL_SPACE
 70
     0
 10
0.0
 20
0.0
 30
0.0
  3
$MODEL_SPACE
  1

  0
ENDBLK
  5
682
  8
DATA
  0
BLOCK
 67
     1
  8
DATA
  2
$PAPER_SPACE
 70
     0
 10
0.0
 20
0.0
 30
0.0
  3
$PAPER_SPACE
  1

  0
ENDBLK
  5
680
 67
     1
  8
DATA
  0
ENDSEC
  0
SECTION
  2
ENTITIES
  0
LINE
  5
80
  8
HIBINO-BASE
  6
CONTINUOUS
 62
     7
 10
-1800.0
 20
2667.104485
 30
0.0
 11
1800.0
 21
2667.104485
 31
0.0
  0
LINE
  5
81
  8
HIBINO-BASE
  6
CONTINUOUS
 62
     7
 10
1800.0
 20
-2532.895514999999
 30
0.0
 11
-1800.0
 21
-2532.895514999999
 31
0.0
  0
LINE
  5
82
  8
HIBINO-BASE
  6
CONTINUOUS
 62
     7
 10
-1800.0
 20
-2532.895514999999
 30
0.0
 11
-1800.0
 21
2667.104485
 31
0.0
  0
LINE
  5
83
  8
HIBINO-BASE
  6
CONTINUOUS
 62
     7
 10
1800.0
 20
2667.104485
 30
0.0
 11
1800.0
 21
-2532.895514999999
 31
0.0
  0
LINE
  5
84
  8
HIBINO-BASE
  6
CONTINUOUS
 62
     7
 10
0.0000000000002842
 20
-2082.895514999999
 30
0.0
 11
1800.0
 21
-2082.895514999999
 31
0.0
  0
LINE
  5
85
  8
HIBINO-BASE
  6
CONTINUOUS
 62
     7
 10
0.0000000000002842
 20
-2532.895514999999
 30
0.0
 11
0.0000000000002842
 21
-2082.895514999999
 31
0.0
  0
TEXT
  5
86
  8
HIBINO-BASE
 62
     7
 10
18.0000000000004
 20
-2133.069381666666
 30
0.0
 40
32.49414062499999
  1
NOTE
 41
0.7
 11
18.0000000000004
 21
-2100.575241041666
 31
0.0
 73
     3
  0
LINE
  5
87
  8
HIBINO-BASE
  6
CONTINUOUS
 62
     7
 10
700.0000000000002
 20
-2532.895514999999
 30
0.0
 11
700.0000000000002
 21
-2082.895514999999
 31
0.0
  0
TEXT
  5
88
  8
HIBINO-BASE
 62
     7
 10
717.9999999999998
 20
-2133.069381666666
 30
0.0
 40
32.49414062499999
  1
TITLE
 41
0.7
 11
717.9999999999998
 21
-2100.575241041666
 31
0.0
 73
     3
  0
LINE
  5
89
  8
HIBINO-BASE
  6
CONTINUOUS
 62
     7
 10
0.0000000000002842
 20
-2332.895514999999
 30
0.0
 11
1800.0
 21
-2332.895514999999
 31
0.0
  0
TEXT
  5
8A
  8
HIBINO-BASE
 62
     7
 10
967.9999999999998
 20
-2381.942981666667
 30
0.0
 40
32.49414062499999
  1
DRAWN
 41
0.7
 11
967.9999999999998
 21
-2349.448841041667
 31
0.0
 73
     3
  0
TEXT
  5
8B
  8
HIBINO-BASE
 62
     7
 10
467.9999999999998
 20
-2381.942981666667
 30
0.0
 40
32.49414062499999
  1
DATE
 41
0.7
 11
467.9999999999998
 21
-2349.448841041667
 31
0.0
 73
     3
  0
TEXT
  5
8C
  8
HIBINO-BASE
 62
     7
 10
267.9999999999998
 20
-2381.942981666667
 30
0.0
 40
32.49414062499999
  1
SCALE
 41
0.7
 11
267.9999999999998
 21
-2349.448841041667
 31
0.0
 73
     3
  0
TEXT
  5
8D
  8
HIBINO-BASE
 62
     7
 10
717.9999999999998
 20
-2381.942981666667
 30
0.0
 40
32.49414062499999
  1
DESIGN
 41
0.7
 11
717.9999999999998
 21
-2349.448841041667
 31
0.0
 73
     3
  0
TEXT
  5
8E
  8
HIBINO-BASE
 62
     7
 10
1468.0
 20
-2381.942981666667
 30
0.0
 40
32.49414062499999
  1
DRAWING NO.
 41
0.7
 11
1468.0
 21
-2349.448841041667
 31
0.0
 73
     3
  0
TEXT
  5
8F
  8
HIBINO-BASE
 62
     7
 10
1218.0
 20
-2381.942981666667
 30
0.0
 40
32.49414062499999
  1
CHECK
 41
0.7
 11
1218.0
 21
-2349.448841041667
 31
0.0
 73
     3
  0
LINE
  5
90
  8
HIBINO-BASE
  6
CONTINUOUS
 62
     7
 10
287.5000000000003
 20
-2507.895514999999
 30
0.0
 11
362.5000000000003
 21
-2432.895514999999
 31
0.0
  0
TEXT
  5
91
  8
HIBINO-BASE
 62
     7
 10
275.0000000000003
 20
-2455.074381666666
 30
0.0
 40
32.49414062499999
  1
1
 41
0.7
 11
275.0000000000003
 21
-2422.580241041666
 31
0.0
 73
     3
  0
LINE
  5
92
  8
HIBINO-BASE
  6
CONTINUOUS
 62
     7
 10
250.0000000000003
 20
-2532.895514999999
 30
0.0
 11
250.0000000000003
 21
-2332.895514999999
 31
0.0
  0
LINE
  5
93
  8
HIBINO-BASE
  6
CONTINUOUS
 62
     7
 10
449.9999999999997
 20
-2532.895514999999
 30
0.0
 11
449.9999999999997
 21
-2332.895514999999
 31
0.0
  0
LINE
  5
94
  8
HIBINO-BASE
  6
CONTINUOUS
 62
     7
 10
949.9999999999998
 20
-2332.895514999999
 30
0.0
 11
949.9999999999998
 21
-2532.895514999999
 31
0.0
  0
LINE
  5
95
  8
HIBINO-BASE
  6
CONTINUOUS
 62
     7
 10
1450.0
 20
-2332.895514999999
 30
0.0
 11
1450.0
 21
-2532.895514999999
 31
0.0
  0
LINE
  5
96
  8
HIBINO-BASE
  6
CONTINUOUS
 62
     7
 10
1200.0
 20
-2532.895514999999
 30
0.0
 11
1200.0
 21
-2332.895514999999
 31
0.0
  0
TEXT
  5
97
  8
HIBINO-BASE
 62
     7
 10
467.1308000000002
 20
-2475.622581666666
 30
0.0
 40
32.49414062499999
  1
'22.09.
 41
0.7
 11
467.1308000000002
 21
-2443.128441041666
 31
0.0
 73
     3
  0
TEXT
  5
98
  8
HIBINO-BASE
 62
     7
 10
350.0000000000003
 20
-2492.574381666666
 30
0.0
 40
32.49414062499999
  1
20
 41
0.7
 11
350.0000000000003
 21
-2460.080241041666
 31
0.0
 73
     3
  0
TEXT
  5
99
  8
HIBINO-BASE
 62
     7
 10
980.1162002206925
 20
-2475.622581666666
 30
0.0
 40
32.49414062499999
  1
N.Sasaki
 41
0.7
 11
980.1162002206925
 21
-2443.128441041666
 31
0.0
 73
     3
  0
TEXT
  5
9A
  8
HIBINO-BASE
 62
     7
 10
77.66666666666737
 20
-2493.375514999999
 30
0.0
 40
64.98828124999999
  1
A4
 41
0.7
 11
77.66666666666737
 21
-2428.387233749999
 31
0.0
 73
     3
  0
TEXT
  5
9B
  8
HIBINO-BASE
 62
     7
 10
19.16666666666657
 20
-2385.284615
 30
0.0
 40
32.49414062499999
  1
PAPER SIZE
 41
0.7
 11
19.16666666666657
 21
-2352.790474375
 31
0.0
 73
     3
  0
TEXT
  5
9C
  8
HIBINO-BASE
 62
     7
 10
-1656.319999999999
 20
-2661.069070999999
 30
0.0
 40
71.81814023437498
  1
Hibino Corporation
 41
0.7
 11
-1656.319999999999
 21
-2589.250930765624
 31
0.0
 73
     3
  0
TEXT
  5
9D
  8
HIBINO-BASE
 62
     7
 10
1001.3678
 20
-2661.069070999999
 30
0.0
 40
71.81814023437498
  1
ヒビノ株式会社
 41
0.7
 11
1001.3678
 21
-2589.250930765624
 31
0.0
 73
     3
  0
LINE
  5
9E
  8
SPEC
  6
CONTINUOUS
 62
     7
 10
-1650.0
 20
2467.104485000001
 30
0.0
 11
1299.99999992625
 21
2467.104485000001
 31
0.0
  0
LINE
  5
9F
  8
SPEC
  6
CONTINUOUS
 62
     7
 10
-1650.0
 20
2392.104485001876
 30
0.0
 11
1299.99999992625
 21
2392.104485001876
 31
0.0
  0
LINE
  5
A0
  8
SPEC
  6
CONTINUOUS
 62
     7
 10
-1650.0
 20
892.104485039376
 30
0.0
 11
1299.99999992625
 21
892.104485039376
 31
0.0
  0
LINE
  5
A1
  8
SPEC
  6
CONTINUOUS
 62
     7
 10
-1650.0
 20
2467.104485000001
 30
0.0
 11
-1650.0
 21
892.1044850393762
 31
0.0
  0
TEXT
  5
A2
  8
SPEC
 62
     7
 10
-1625.000000000624
 20
2494.969884999305
 30
0.0
 40
48.74121093628146
  1
仕様
 41
0.7
 11
-1625.000000000624
 21
2543.711095935586
 31
0.0
 73
     3
  0
LINE
  5
A3
  8
SPEC
  6
CONTINUOUS
 62
     7
 10
1299.99999992625
 20
2467.104485000001
 30
0.0
 11
1299.99999992625
 21
892.1044850393762
 31
0.0
  0
TEXT
  5
A4
  8
SPEC
 62
     7
 10
-1632.00000000045
 20
907.8628405945377
 30
0.0
 40
37.90983072821892
  1
付属品
 41
0.7
 11
-1632.00000000045
 21
945.7726713227567
 31
0.0
 73
     3
  0
TEXT
  5
A5
  8
SPEC
 62
     7
 10
-1632.00000000045
 20
1057.862840590788
 30
0.0
 40
37.90983072821892
  1
寸法(W×H×D)
 41
0.7
 11
-1632.00000000045
 21
1095.772671319007
 31
0.0
 73
     3
  0
TEXT
  5
A6
  8
SPEC
 62
     7
 10
-1632.00000000045
 20
982.8628405926626
 30
0.0
 40
37.90983072821892
  1
質量
 41
0.7
 11
-1632.00000000045
 21
1020.772671320881
 31
0.0
 73
     3
  0
LINE
  5
A7
  8
SPEC
  6
CONTINUOUS
 62
     7
 10
-1650.0
 20
2317.104485003751
 30
0.0
 11
1299.99999992625
 21
2317.104485003751
 31
0.0
  0
LINE
  5
A8
  8
SPEC
  6
CONTINUOUS
 62
     7
 10
-1650.0
 20
2242.104485005626
 30
0.0
 11
1299.99999992625
 21
2242.104485005626
 31
0.0
  0
LINE
  5
A9
  8
SPEC
  6
CONTINUOUS
 62
     7
 10
-1650.0
 20
2167.104485007501
 30
0.0
 11
1299.99999992625
 21
2167.104485007501
 31
0.0
  0
LINE
  5
AA
  8
SPEC
  6
CONTINUOUS
 62
     7
 10
-1225.00000004125
 20
2092.104485009376
 30
0.0
 11
1299.99999992625
 21
2092.104485009376
 31
0.0
  0
LINE
  5
AB
  8
SPEC
  6
CONTINUOUS
 62
     7
 10
-1650.0
 20
2017.104485011251
 30
0.0
 11
1299.99999992625
 21
2017.104485011251
 31
0.0
  0
LINE
  5
AC
  8
SPEC
  6
CONTINUOUS
 62
     7
 10
-1650.0
 20
1942.104485013126
 30
0.0
 11
1299.99999992625
 21
1942.104485013126
 31
0.0
  0
LINE
  5
AD
  8
SPEC
  6
CONTINUOUS
 62
     7
 10
-1650.0
 20
1867.104485015001
 30
0.0
 11
1299.99999992625
 21
1867.104485015001
 31
0.0
  0
LINE
  5
AE
  8
SPEC
  6
CONTINUOUS
 62
     7
 10
-1225.00000004125
 20
1792.104485016876
 30
0.0
 11
1299.99999992625
 21
1792.104485016876
 31
0.0
  0
LINE
  5
AF
  8
SPEC
  6
CONTINUOUS
 62
     7
 10
-1225.00000004125
 20
1717.104485018751
 30
0.0
 11
1299.99999992625
 21
1717.104485018751
 31
0.0
  0
LINE
  5
B0
  8
SPEC
  6
CONTINUOUS
 62
     7
 10
-1650.0
 20
1642.104485020626
 30
0.0
 11
1299.99999992625
 21
1642.104485020626
 31
0.0
  0
LINE
  5
B1
  8
SPEC
  6
CONTINUOUS
 62
     7
 10
-1650.0
 20
1567.104485022501
 30
0.0
 11
1299.99999992625
 21
1567.104485022501
 31
0.0
  0
LINE
  5
B2
  8
SPEC
  6
CONTINUOUS
 62
     7
 10
-1225.00000004125
 20
1492.104485024376
 30
0.0
 11
1299.99999992625
 21
1492.104485024376
 31
0.0
  0
LINE
  5
B3
  8
SPEC
  6
CONTINUOUS
 62
     7
 10
-1225.00000004125
 20
1417.104485026251
 30
0.0
 11
1299.99999992625
 21
1417.104485026251
 31
0.0
  0
LINE
  5
B4
  8
SPEC
  6
CONTINUOUS
 62
     7
 10
-1650.0
 20
1342.104485028126
 30
0.0
 11
1299.99999992625
 21
1342.104485028126
 31
0.0
  0
LINE
  5
B5
  8
SPEC
  6
CONTINUOUS
 62
     7
 10
-1650.0
 20
1267.104485030001
 30
0.0
 11
1299.99999992625
 21
1267.104485030001
 31
0.0
  0
LINE
  5
B6
  8
SPEC
  6
CONTINUOUS
 62
     7
 10
-1650.0
 20
1192.104485031876
 30
0.0
 11
1299.99999992625
 21
1192.104485031876
 31
0.0
  0
LINE
  5
B7
  8
SPEC
  6
CONTINUOUS
 62
     7
 10
-1650.0
 20
1117.104485033751
 30
0.0
 11
1299.99999992625
 21
1117.104485033751
 31
0.0
  0
LINE
  5
B8
  8
SPEC
  6
CONTINUOUS
 62
     7
 10
-1650.0
 20
1042.104485035626
 30
0.0
 11
1299.99999992625
 21
1042.104485035626
 31
0.0
  0
LINE
  5
B9
  8
SPEC
  6
CONTINUOUS
 62
     7
 10
-1650.0
 20
967.1044850375009
 30
0.0
 11
1299.99999992625
 21
967.1044850375009
 31
0.0
  0
TEXT
  5
BA
  8
SPEC
 62
     7
 10
-1632.00000000045
 20
2407.862840555976
 30
0.0
 40
37.90983072916666
  1
形式
 41
0.7
 11
-1632.00000000045
 21
2445.772671285142
 31
0.0
 73
     3
  0
TEXT
  5
BB
  8
SPEC
 62
     7
 10
-1632.00000000045
 20
2332.862840557851
 30
0.0
 40
37.90983072916666
  1
周波数レンジ(－10dB)^I
 41
0.7
 11
-1632.00000000045
 21
2370.772671287017
 31
0.0
 73
     3
  0
TEXT
  5
BC
  8
SPEC
 62
     7
 10
-1632.00000000045
 20
2257.862840559726
 30
0.0
 40
37.90983072916666
  1
指向角度(水平×垂直)^I
 41
0.7
 11
-1632.00000000045
 21
2295.772671288892
 31
0.0
 73
     3
  0
TEXT
  5
BD
  8
SPEC
 62
     7
 10
-1632.00000000045
 20
2182.8628405616
 30
0.0
 40
37.90983072916666
  1
最大音圧レベル
 41
0.7
 11
-1632.00000000045
 21
2220.772671290767
 31
0.0
 73
     3
  0
TEXT
  5
BE
  8
SPEC
 62
     7
 10
-1632.00000000045
 20
2107.862840563476
 30
0.0
 40
37.90983072916666
  1
ドライバー構成
 41
0.7
 11
-1632.00000000045
 21
2145.772671292642
 31
0.0
 73
     3
  0
TEXT
  5
BF
  8
SPEC
 62
     7
 10
-1207.0000000417
 20
2107.862840563476
 30
0.0
 40
37.90983072916666
  1
LF
 41
0.7
 11
-1207.0000000417
 21
2145.772671292642
 31
0.0
 73
     3
  0
TEXT
  5
C0
  8
SPEC
 62
     7
 10
-1207.0000000417
 20
2032.862840565351
 30
0.0
 40
37.90983072916666
  1
HF
 41
0.7
 11
-1207.0000000417
 21
2070.772671294517
 31
0.0
 73
     3
  0
LINE
  5
C1
  8
SPEC
  6
CONTINUOUS
 62
     7
 10
-1225.00000004125
 20
2167.104485007501
 30
0.0
 11
-1225.00000004125
 21
2017.104485011251
 31
0.0
  0
LINE
  5
C2
  8
SPEC
  6
CONTINUOUS
 62
     7
 10
-1225.00000004125
 20
1867.104485015001
 30
0.0
 11
-1225.00000004125
 21
1342.104485028126
 31
0.0
  0
TEXT
  5
C3
  8
SPEC
 62
     7
 10
-1632.00000000045
 20
1957.862840567225
 30
0.0
 40
37.90983072916666
  1
クロスオーバー周波数
 41
0.7
 11
-1632.00000000045
 21
1995.772671296392
 31
0.0
 73
     3
  0
TEXT
  5
C4
  8
SPEC
 62
     7
 10
-1632.00000000045
 20
1882.8628405691
 30
0.0
 40
37.90983072916666
  1
パワーアンプ
 41
0.7
 11
-1632.00000000045
 21
1920.772671298267
 31
0.0
 73
     3
  0
TEXT
  5
C5
  8
SPEC
 62
     7
 10
-1632.00000000045
 20
1807.862840570975
 30
0.0
 40
37.90983072916666
  1
入力
 41
0.7
 11
-1632.00000000045
 21
1845.772671300142
 31
0.0
 73
     3
  0
TEXT
  5
C6
  8
SPEC
 62
     7
 10
-1632.00000000045
 20
1582.8628405766
 30
0.0
 40
37.90983072916666
  1
スルー出力
 41
0.7
 11
-1632.00000000045
 21
1620.772671305767
 31
0.0
 73
     3
  0
TEXT
  5
C7
  8
SPEC
 62
     7
 10
-1207.000000041701
 20
1807.862840570975
 30
0.0
 40
37.90983072916666
  1
チャンネル数
 41
0.7
 11
-1207.000000041701
 21
1845.772671300142
 31
0.0
 73
     3
  0
TEXT
  5
C8
  8
SPEC
 62
     7
 10
-1207.000000041701
 20
1732.86284057285
 30
0.0
 40
37.90983072916666
  1
端子・形式
 41
0.7
 11
-1207.000000041701
 21
1770.772671302017
 31
0.0
 73
     3
  0
TEXT
  5
C9
  8
SPEC
 62
     7
 10
-1207.000000041701
 20
1657.862840574725
 30
0.0
 40
37.90983072916666
  1
インピーダンス
 41
0.7
 11
-1207.000000041701
 21
1695.772671303892
 31
0.0
 73
     3
  0
TEXT
  5
CA
  8
SPEC
 62
     7
 10
-1632.00000000045
 20
1507.862840578475
 30
0.0
 40
37.90983072916666
  1
Bluetooth
 41
0.7
 11
-1632.00000000045
 21
1545.772671307642
 31
0.0
 73
     3
  0
TEXT
  5
CB
  8
SPEC
 62
     7
 10
-1207.0000000417
 20
1582.8628405766
 30
0.0
 40
37.90983072916666
  1
端子・形式
 41
0.7
 11
-1207.0000000417
 21
1620.772671305767
 31
0.0
 73
     3
  0
TEXT
  5
CC
  8
SPEC
 62
     7
 10
-1632.00000000045
 20
1282.8628405841
 30
0.0
 40
37.90983072916666
  1
電源
 41
0.7
 11
-1632.00000000045
 21
1320.772671313267
 31
0.0
 73
     3
  0
TEXT
  5
CD
  8
SPEC
 62
     7
 10
-1207.0000000417
 20
1507.862840578475
 30
0.0
 40
37.90983072916666
  1
通信方式
 41
0.7
 11
-1207.0000000417
 21
1545.772671307642
 31
0.0
 73
     3
  0
TEXT
  5
CE
  8
SPEC
 62
     7
 10
-1207.0000000417
 20
1432.86284058035
 30
0.0
 40
37.90983072916666
  1
最長通信距離
 41
0.7
 11
-1207.0000000417
 21
1470.772671309517
 31
0.0
 73
     3
  0
TEXT
  5
CF
  8
SPEC
 62
     7
 10
-1207.0000000417
 20
1357.862840582226
 30
0.0
 40
37.90983072916666
  1
対応コーデック
 41
0.7
 11
-1207.0000000417
 21
1395.772671311392
 31
0.0
 73
     3
  0
TEXT
  5
D0
  8
SPEC
 62
     7
 10
-1632.00000000045
 20
1207.862840585975
 30
0.0
 40
37.90983072916666
  1
消費電力
 41
0.7
 11
-1632.00000000045
 21
1245.772671315142
 31
0.0
 73
     3
  0
TEXT
  5
D1
  8
SPEC
 62
     7
 10
-1632.00000000045
 20
1132.86284058785
 30
0.0
 40
37.90983072916666
  1
エンクロージャー
 41
0.7
 11
-1632.00000000045
 21
1170.772671317017
 31
0.0
 73
     3
  0
TEXT
  5
D2
  8
SPEC
 62
     7
 10
-782.0000000416999
 20
2407.862840555976
 30
0.0
 40
37.90983072916666
  1
2-Wayパワード・フルレンジ
 41
0.7
 11
-782.0000000416999
 21
2445.772671285142
 31
0.0
 73
     3
  0
TEXT
  5
D3
  8
SPEC
 62
     7
 10
-782.0000000416999
 20
2332.862840557851
 30
0.0
 40
37.90983072916666
  1
45Hz～20kHz
 41
0.7
 11
-782.0000000416999
 21
2370.772671287017
 31
0.0
 73
     3
  0
TEXT
  5
D4
  8
SPEC
 62
     7
 10
-782.0000000416999
 20
2257.862840559726
 30
0.0
 40
37.90983072916666
  1
90°×60°
 41
0.7
 11
-782.0000000416999
 21
2295.772671288892
 31
0.0
 73
     3
  0
TEXT
  5
D5
  8
SPEC
 62
     7
 10
-782.0000000416999
 20
2182.8628405616
 30
0.0
 40
37.90983072916666
  1
128dB SPL
 41
0.7
 11
-782.0000000416999
 21
2220.772671290767
 31
0.0
 73
     3
  0
TEXT
  5
D6
  8
SPEC
 62
     7
 10
-782.0000000416999
 20
2107.862840563476
 30
0.0
 40
37.90983072916666
  1
15インチ(381mm)
 41
0.7
 11
-782.0000000416999
 21
2145.772671292642
 31
0.0
 73
     3
  0
LINE
  5
D7
  8
SPEC
  6
CONTINUOUS
 62
     7
 10
-800.0000000412497
 20
2467.104485000001
 30
0.0
 11
-800.0000000412497
 21
892.1044850393762
 31
0.0
  0
TEXT
  5
D8
  8
SPEC
 62
     7
 10
-782.0000000416999
 20
2032.862840565351
 30
0.0
 40
37.90983072916666
  1
1インチ(25mm)
 41
0.7
 11
-782.0000000416999
 21
2070.772671294517
 31
0.0
 73
     3
  0
TEXT
  5
D9
  8
SPEC
 62
     7
 10
-782.0000000416999
 20
1957.862840567225
 30
0.0
 40
37.90983072916666
  1
1.9kHz
 41
0.7
 11
-782.0000000416999
 21
1995.772671296392
 31
0.0
 73
     3
  0
TEXT
  5
DA
  8
SPEC
 62
     7
 10
-782.0000000416999
 20
1882.8628405691
 30
0.0
 40
37.90983072916666
  1
1,300W(ピーク)
 41
0.7
 11
-782.0000000416999
 21
1920.772671298267
 31
0.0
 73
     3
  0
TEXT
  5
DB
  8
SPEC
 62
     7
 10
-782.0000000416999
 20
1807.862840570975
 30
0.0
 40
37.90983072916666
  1
3(2モノラル+Bluetooth)
 41
0.7
 11
-782.0000000416999
 21
1845.772671300142
 31
0.0
 73
     3
  0
TEXT
  5
DC
  8
SPEC
 62
     7
 10
-782.0000000416999
 20
1732.86284057285
 30
0.0
 40
37.90983072916666
  1
XLRと標準フォーンジャック(3P)対応の複合型端子×2
 41
0.7
 11
-782.0000000416999
 21
1770.772671302017
 31
0.0
 73
     3
  0
TEXT
  5
DD
  8
SPEC
 62
     7
 10
-782.0000000416999
 20
1657.862840574725
 30
0.0
 40
37.90983072916666
  1
50kΩ/100kΩ(アンバランス/バランス)
 41
0.7
 11
-782.0000000416999
 21
1695.772671303892
 31
0.0
 73
     3
  0
TEXT
  5
DE
  8
SPEC
 62
     7
 10
-782.0000000416999
 20
1582.8628405766
 30
0.0
 40
37.90983072916666
  1
XLR
 41
0.7
 11
-782.0000000416999
 21
1620.772671305767
 31
0.0
 73
     3
  0
TEXT
  5
DF
  8
SPEC
 62
     7
 10
-782.0000000416999
 20
1507.862840578475
 30
0.0
 40
37.90983072916666
  1
Bluetooth 5.0
 41
0.7
 11
-782.0000000416999
 21
1545.772671307642
 31
0.0
 73
     3
  0
TEXT
  5
E0
  8
SPEC
 62
     7
 10
-782.0000000416999
 20
1282.8628405841
 30
0.0
 40
37.90983072916666
  1
AC100V、50/60Hz
 41
0.7
 11
-782.0000000416999
 21
1320.772671313267
 31
0.0
 73
     3
  0
TEXT
  5
E1
  8
SPEC
 62
     7
 10
-782.0000000416999
 20
1207.862840585975
 30
0.0
 40
37.90983072916666
  1
最大500W
 41
0.7
 11
-782.0000000416999
 21
1245.772671315142
 31
0.0
 73
     3
  0
TEXT
  5
E2
  8
SPEC
 62
     7
 10
-782.0000000416999
 20
1432.86284058035
 30
0.0
 40
37.90983072916666
  1
見通しの良い状態で約20ｍ
 41
0.7
 11
-782.0000000416999
 21
1470.772671309517
 31
0.0
 73
     3
  0
TEXT
  5
E3
  8
SPEC
 62
     7
 10
-782.0000000416999
 20
1357.862840582226
 30
0.0
 40
37.90983072916666
  1
SBC
 41
0.7
 11
-782.0000000416999
 21
1395.772671311392
 31
0.0
 73
     3
  0
TEXT
  5
E4
  8
SPEC
 62
     7
 10
-782.0000000416999
 20
907.8628405934759
 30
0.0
 40
37.90983072916666
  1
電源コード、和文取扱説明書
 41
0.7
 11
-782.0000000416999
 21
945.7726713226425
 31
0.0
 73
     3
  0
TEXT
  5
E5
  8
SPEC
 62
     7
 10
-782.0000000416999
 20
1132.86284058785
 30
0.0
 40
37.90983072916666
  1
ポリプロピレン+10％Talc、黒
 41
0.7
 11
-782.0000000416999
 21
1170.772671317017
 31
0.0
 73
     3
  0
TEXT
  5
E6
  8
SPEC
 62
     7
 10
-782.0000000416999
 20
1057.862840589726
 30
0.0
 40
37.90983072916666
  1
440×714×358mm(除突起部)
 41
0.7
 11
-782.0000000416999
 21
1095.772671318893
 31
0.0
 73
     3
  0
TEXT
  5
E7
  8
SPEC
 62
     7
 10
-782.0000000416999
 20
982.862840589726
 30
0.0
 40
37.90983072916666
  1
17kg
 41
0.7
 11
-782.0000000416999
 21
1020.772671318893
 31
0.0
 73
     3
  0
TEXT
  5
E8
  8
DIMNSIONS
 62
     7
 10
-399.9999999999999
 20
-2287.505714999999
 30
0.0
 40
48.74121093749999
  1
(単位：mm)
 41
0.7
 11
-399.9999999999999
 21
-2238.764504062499
 31
0.0
 73
     3
  0
LINE
  5
E9
  8
DIMNSIONS
  6
CONTINUOUS
 62
     7
 10
-1324.0
 20
-650.0
 30
0.0
 11
-1570.0
 21
-650.0
 31
0.0
  0
LINE
  5
EA
  8
DIMNSIONS
  6
CONTINUOUS
 62
     7
 10
-1392.887019238302
 20
-292.0
 30
0.0
 11
-1570.0
 21
-292.0
 31
0.0
  0
LINE
  5
EB
  8
DIMNSIONS
  6
CONTINUOUS
 62
     7
 10
-1550.0
 20
-650.0
 30
0.0
 11
-1550.0
 21
-292.0
 31
0.0
  0
POLYLINE
  5
EC
  8
DIMNSIONS
  6
CONTINUOUS
 62
     7
 66
     1
 10
0.0
 20
0.0
 30
0.0
 70
   128
  0
VERTEX
  5
6CC
  8
DIMNSIONS
  6
CONTINUOUS
 62
     7
 10
-1539.282686475588
 20
-610.00244140625
 30
0.0
  0
VERTEX
  5
6CD
  8
DIMNSIONS
  6
CONTINUOUS
 62
     7
 10
-1550.0
 20
-650.0
 30
0.0
  0
VERTEX
  5
6CE
  8
DIMNSIONS
  6
CONTINUOUS
 62
     7
 10
-1560.717313524412
 20
-610.00244140625
 30
0.0
  0
SEQEND
  5
758
  8
DIMNSIONS
  6
CONTINUOUS
 62
     7
  0
POLYLINE
  5
F1
  8
DIMNSIONS
  6
CONTINUOUS
 62
     7
 66
     1
 10
0.0
 20
0.0
 30
0.0
 70
   128
  0
VERTEX
  5
6CF
  8
DIMNSIONS
  6
CONTINUOUS
 62
     7
 10
-1560.717313524412
 20
-331.99755859375
 30
0.0
  0
VERTEX
  5
6D0
  8
DIMNSIONS
  6
CONTINUOUS
 62
     7
 10
-1550.0
 20
-292.0
 30
0.0
  0
VERTEX
  5
6D1
  8
DIMNSIONS
  6
CONTINUOUS
 62
     7
 10
-1539.282686475588
 20
-331.99755859375
 30
0.0
  0
SEQEND
  5
759
  8
DIMNSIONS
  6
CONTINUOUS
 62
     7
  0
TEXT
  5
F6
  8
DIMNSIONS
 62
     7
 10
-1569.877777777778
 20
-523.9166666666667
 30
0.0
 40
54.15690104166671
  1
358
 50
90.0
 41
0.7
 11
-1624.034678819444
 21
-523.9166666666667
 31
0.0
 73
     3
  0
LINE
  5
F7
  8
DIMNSIONS
  6
CONTINUOUS
 62
     7
 10
-1520.0
 20
-1557.75
 30
0.0
 11
-1520.0
 21
-1696.5
 31
0.0
  0
LINE
  5
F8
  8
DIMNSIONS
  6
CONTINUOUS
 62
     7
 10
-1080.0
 20
-1557.75
 30
0.0
 11
-1080.0
 21
-1696.5
 31
0.0
  0
LINE
  5
F9
  8
DIMNSIONS
  6
CONTINUOUS
 62
     7
 10
-1520.0
 20
-1676.5
 30
0.0
 11
-1080.0
 21
-1676.5
 31
0.0
  0
POLYLINE
  5
FA
  8
DIMNSIONS
  6
CONTINUOUS
 62
     7
 66
     1
 10
0.0
 20
0.0
 30
0.0
 70
   128
  0
VERTEX
  5
6D2
  8
DIMNSIONS
  6
CONTINUOUS
 62
     7
 10
-1480.00244140625
 20
-1687.217313524412
 30
0.0
  0
VERTEX
  5
6D3
  8
DIMNSIONS
  6
CONTINUOUS
 62
     7
 10
-1520.0
 20
-1676.5
 30
0.0
  0
VERTEX
  5
6D4
  8
DIMNSIONS
  6
CONTINUOUS
 62
     7
 10
-1480.00244140625
 20
-1665.782686475588
 30
0.0
  0
SEQEND
  5
75A
  8
DIMNSIONS
  6
CONTINUOUS
 62
     7
  0
POLYLINE
  5
FF
  8
DIMNSIONS
  6
CONTINUOUS
 62
     7
 66
     1
 10
0.0
 20
0.0
 30
0.0
 70
   128
  0
VERTEX
  5
6D5
  8
DIMNSIONS
  6
CONTINUOUS
 62
     7
 10
-1119.99755859375
 20
-1665.782686475588
 30
0.0
  0
VERTEX
  5
6D6
  8
DIMNSIONS
  6
CONTINUOUS
 62
     7
 10
-1080.0
 20
-1676.5
 30
0.0
  0
VERTEX
  5
6D7
  8
DIMNSIONS
  6
CONTINUOUS
 62
     7
 10
-1119.99755859375
 20
-1687.217313524412
 30
0.0
  0
SEQEND
  5
75B
  8
DIMNSIONS
  6
CONTINUOUS
 62
     7
  0
TEXT
  5
104
  8
DIMNSIONS
 62
     7
 10
-1352.916666666667
 20
-1656.622222222222
 30
0.0
 40
54.15690104166671
  1
440
 41
0.7
 11
-1352.916666666667
 21
-1602.465321180556
 31
0.0
 73
     3
  0
LINE
  5
105
  8
DIMNSIONS
  6
CONTINUOUS
 62
     7
 10
-1534.0
 20
-1556.75
 30
0.0
 11
-1570.0
 21
-1556.75
 31
0.0
  0
LINE
  5
106
  8
DIMNSIONS
  6
CONTINUOUS
 62
     7
 10
-1531.5
 20
-843.25
 30
0.0
 11
-1570.0
 21
-843.25
 31
0.0
  0
LINE
  5
107
  8
DIMNSIONS
  6
CONTINUOUS
 62
     7
 10
-1550.0
 20
-1556.75
 30
0.0
 11
-1550.0
 21
-843.25
 31
0.0
  0
POLYLINE
  5
108
  8
DIMNSIONS
  6
CONTINUOUS
 62
     7
 66
     1
 10
0.0
 20
0.0
 30
0.0
 70
   128
  0
VERTEX
  5
6D8
  8
DIMNSIONS
  6
CONTINUOUS
 62
     7
 10
-1539.282686475588
 20
-1516.75244140625
 30
0.0
  0
VERTEX
  5
6D9
  8
DIMNSIONS
  6
CONTINUOUS
 62
     7
 10
-1550.0
 20
-1556.75
 30
0.0
  0
VERTEX
  5
6DA
  8
DIMNSIONS
  6
CONTINUOUS
 62
     7
 10
-1560.717313524412
 20
-1516.75244140625
 30
0.0
  0
SEQEND
  5
75C
  8
DIMNSIONS
  6
CONTINUOUS
 62
     7
  0
POLYLINE
  5
10D
  8
DIMNSIONS
  6
CONTINUOUS
 62
     7
 66
     1
 10
0.0
 20
0.0
 30
0.0
 70
   128
  0
VERTEX
  5
6DB
  8
DIMNSIONS
  6
CONTINUOUS
 62
     7
 10
-1560.717313524412
 20
-883.24755859375
 30
0.0
  0
VERTEX
  5
6DC
  8
DIMNSIONS
  6
CONTINUOUS
 62
     7
 10
-1550.0
 20
-843.25
 30
0.0
  0
VERTEX
  5
6DD
  8
DIMNSIONS
  6
CONTINUOUS
 62
     7
 10
-1539.282686475588
 20
-883.24755859375
 30
0.0
  0
SEQEND
  5
75D
  8
DIMNSIONS
  6
CONTINUOUS
 62
     7
  0
TEXT
  5
112
  8
DIMNSIONS
 62
     7
 10
-1569.877777777778
 20
-1252.916666666667
 30
0.0
 40
54.15690104166671
  1
714
 50
90.0
 41
0.7
 11
-1624.034678819444
 21
-1252.916666666667
 31
0.0
 73
     3
  0
LINE
  5
113
  8
DIMNSIONS
  6
CONTINUOUS
 62
     7
 10
-1516.654308332174
 20
-1559.75
 30
0.0
 11
-1570.0
 21
-1559.75
 31
0.0
  0
LINE
  5
114
  8
DIMNSIONS
  6
CONTINUOUS
 62
     7
 10
-1534.0
 20
-1556.75
 30
0.0
 11
-1570.0
 21
-1556.75
 31
0.0
  0
LINE
  5
115
  8
DIMNSIONS
  6
CONTINUOUS
 62
     7
 10
-1550.0
 20
-1556.75
 30
0.0
 11
-1550.0
 21
-1559.75
 31
0.0
  0
LINE
  5
116
  8
DIMNSIONS
  6
CONTINUOUS
 62
     7
 10
-1550.0
 20
-1559.75
 30
0.0
 11
-1550.0
 21
-1629.75
 31
0.0
  0
POLYLINE
  5
117
  8
DIMNSIONS
  6
CONTINUOUS
 62
     7
 66
     1
 10
0.0
 20
0.0
 30
0.0
 70
   128
  0
VERTEX
  5
6DE
  8
DIMNSIONS
  6
CONTINUOUS
 62
     7
 10
-1560.717313524412
 20
-1599.74755859375
 30
0.0
  0
VERTEX
  5
6DF
  8
DIMNSIONS
  6
CONTINUOUS
 62
     7
 10
-1550.0
 20
-1559.75
 30
0.0
  0
VERTEX
  5
6E0
  8
DIMNSIONS
  6
CONTINUOUS
 62
     7
 10
-1539.282686475588
 20
-1599.74755859375
 30
0.0
  0
SEQEND
  5
75E
  8
DIMNSIONS
  6
CONTINUOUS
 62
     7
  0
LINE
  5
11C
  8
DIMNSIONS
  6
CONTINUOUS
 62
     7
 10
-1550.0
 20
-1556.75
 30
0.0
 11
-1550.0
 21
-1486.75
 31
0.0
  0
POLYLINE
  5
11D
  8
DIMNSIONS
  6
CONTINUOUS
 62
     7
 66
     1
 10
0.0
 20
0.0
 30
0.0
 70
   128
  0
VERTEX
  5
6E1
  8
DIMNSIONS
  6
CONTINUOUS
 62
     7
 10
-1539.282686475588
 20
-1516.75244140625
 30
0.0
  0
VERTEX
  5
6E2
  8
DIMNSIONS
  6
CONTINUOUS
 62
     7
 10
-1550.0
 20
-1556.75
 30
0.0
  0
VERTEX
  5
6E3
  8
DIMNSIONS
  6
CONTINUOUS
 62
     7
 10
-1560.717313524412
 20
-1516.75244140625
 30
0.0
  0
SEQEND
  5
75F
  8
DIMNSIONS
  6
CONTINUOUS
 62
     7
  0
TEXT
  5
122
  8
DIMNSIONS
 62
     7
 10
-1579.877777777778
 20
-1611.166666666667
 30
0.0
 40
54.15690104166671
  1
3.0
 50
90.0
 41
0.7
 11
-1634.034678819444
 21
-1611.166666666667
 31
0.0
 73
     3
  0
LINE
  5
123
  8
DIMNSIONS
  6
CONTINUOUS
 62
     7
 10
-1143.192017645028
 20
-573.9014356080966
 30
0.0
 11
-1050.0
 21
-775.0
 31
0.0
  0
POLYLINE
  5
124
  8
DIMNSIONS
  6
CONTINUOUS
 62
     7
 66
     1
 10
0.0
 20
0.0
 30
0.0
 70
   128
  0
VERTEX
  5
6E4
  8
DIMNSIONS
  6
CONTINUOUS
 62
     7
 10
-1136.001503661554
 20
-614.6808668362839
 30
0.0
  0
VERTEX
  5
6E5
  8
DIMNSIONS
  6
CONTINUOUS
 62
     7
 10
-1143.192017645028
 20
-573.9014356080966
 30
0.0
  0
VERTEX
  5
6E6
  8
DIMNSIONS
  6
CONTINUOUS
 62
     7
 10
-1116.575134254978
 20
-605.6222020118498
 30
0.0
  0
SEQEND
  5
760
  8
DIMNSIONS
  6
CONTINUOUS
 62
     7
  0
LINE
  5
129
  8
DIMNSIONS
  6
CONTINUOUS
 62
     7
 10
-1050.0
 20
-775.0
 30
0.0
 11
-1010.0
 21
-775.0
 31
0.0
  0
TEXT
  5
12A
  8
DIMNSIONS
 62
     7
 10
-1010.0
 20
-800.4000000000001
 30
0.0
 40
54.15690104166671
  1
M10-D20(2ヵ所)
 41
0.7
 11
-1010.0
 21
-746.2430989583333
 31
0.0
 73
     3
  0
LINE
  5
12B
  8
DIMNSIONS
  6
CONTINUOUS
 62
     7
 10
-1455.0
 20
-594.0
 30
0.0
 11
-1455.0
 21
-795.0
 31
0.0
  0
LINE
  5
12C
  8
DIMNSIONS
  6
CONTINUOUS
 62
     7
 10
-1145.0
 20
-594.0
 30
0.0
 11
-1145.0
 21
-795.0
 31
0.0
  0
LINE
  5
12D
  8
DIMNSIONS
  6
CONTINUOUS
 62
     7
 10
-1455.0
 20
-775.0
 30
0.0
 11
-1145.0
 21
-775.0
 31
0.0
  0
POLYLINE
  5
12E
  8
DIMNSIONS
  6
CONTINUOUS
 62
     7
 66
     1
 10
0.0
 20
0.0
 30
0.0
 70
   128
  0
VERTEX
  5
6E7
  8
DIMNSIONS
  6
CONTINUOUS
 62
     7
 10
-1415.00244140625
 20
-785.7173135244118
 30
0.0
  0
VERTEX
  5
6E8
  8
DIMNSIONS
  6
CONTINUOUS
 62
     7
 10
-1455.0
 20
-775.0
 30
0.0
  0
VERTEX
  5
6E9
  8
DIMNSIONS
  6
CONTINUOUS
 62
     7
 10
-1415.00244140625
 20
-764.2826864755882
 30
0.0
  0
SEQEND
  5
761
  8
DIMNSIONS
  6
CONTINUOUS
 62
     7
  0
POLYLINE
  5
133
  8
DIMNSIONS
  6
CONTINUOUS
 62
     7
 66
     1
 10
0.0
 20
0.0
 30
0.0
 70
   128
  0
VERTEX
  5
6EA
  8
DIMNSIONS
  6
CONTINUOUS
 62
     7
 10
-1184.99755859375
 20
-764.2826864755882
 30
0.0
  0
VERTEX
  5
6EB
  8
DIMNSIONS
  6
CONTINUOUS
 62
     7
 10
-1145.0
 20
-775.0
 30
0.0
  0
VERTEX
  5
6EC
  8
DIMNSIONS
  6
CONTINUOUS
 62
     7
 10
-1184.99755859375
 20
-785.7173135244118
 30
0.0
  0
SEQEND
  5
762
  8
DIMNSIONS
  6
CONTINUOUS
 62
     7
  0
TEXT
  5
138
  8
DIMNSIONS
 62
     7
 10
-1352.916666666667
 20
-755.1222222222223
 30
0.0
 40
54.15690104166671
  1
310
 41
0.7
 11
-1352.916666666667
 21
-700.9653211805555
 31
0.0
 73
     3
  0
TEXT
  5
139
  8
DIMNSIONS
 62
     7
 10
-1247.083333333333
 20
-712.2244444444443
 30
0.0
 40
37.90983072916666
  1
※
 41
0.7
 11
-1247.083333333333
 21
-674.3146137152777
 31
0.0
 73
     3
  0
LINE
  5
13A
  8
DIMNSIONS
  6
CONTINUOUS
 62
     7
 10
-1276.0
 20
-650.0
 30
0.0
 11
-955.0
 21
-650.0
 31
0.0
  0
LINE
  5
13B
  8
DIMNSIONS
  6
CONTINUOUS
 62
     7
 10
-1121.0
 20
-570.0
 30
0.0
 11
-955.0
 21
-570.0
 31
0.0
  0
LINE
  5
13C
  8
DIMNSIONS
  6
CONTINUOUS
 62
     7
 10
-975.0
 20
-570.0
 30
0.0
 11
-975.0
 21
-650.0
 31
0.0
  0
LINE
  5
13D
  8
DIMNSIONS
  6
CONTINUOUS
 62
     7
 10
-975.0
 20
-650.0
 30
0.0
 11
-975.0
 21
-720.0
 31
0.0
  0
POLYLINE
  5
13E
  8
DIMNSIONS
  6
CONTINUOUS
 62
     7
 66
     1
 10
0.0
 20
0.0
 30
0.0
 70
   128
  0
VERTEX
  5
6ED
  8
DIMNSIONS
  6
CONTINUOUS
 62
     7
 10
-985.7173135244118
 20
-689.99755859375
 30
0.0
  0
VERTEX
  5
6EE
  8
DIMNSIONS
  6
CONTINUOUS
 62
     7
 10
-975.0
 20
-650.0
 30
0.0
  0
VERTEX
  5
6EF
  8
DIMNSIONS
  6
CONTINUOUS
 62
     7
 10
-964.2826864755882
 20
-689.99755859375
 30
0.0
  0
SEQEND
  5
763
  8
DIMNSIONS
  6
CONTINUOUS
 62
     7
  0
LINE
  5
143
  8
DIMNSIONS
  6
CONTINUOUS
 62
     7
 10
-975.0
 20
-570.0
 30
0.0
 11
-975.0
 21
-419.4444444444445
 31
0.0
  0
POLYLINE
  5
144
  8
DIMNSIONS
  6
CONTINUOUS
 62
     7
 66
     1
 10
0.0
 20
0.0
 30
0.0
 70
   128
  0
VERTEX
  5
6F0
  8
DIMNSIONS
  6
CONTINUOUS
 62
     7
 10
-964.2826864755882
 20
-530.00244140625
 30
0.0
  0
VERTEX
  5
6F1
  8
DIMNSIONS
  6
CONTINUOUS
 62
     7
 10
-975.0
 20
-570.0
 30
0.0
  0
VERTEX
  5
6F2
  8
DIMNSIONS
  6
CONTINUOUS
 62
     7
 10
-985.7173135244118
 20
-530.00244140625
 30
0.0
  0
SEQEND
  5
764
  8
DIMNSIONS
  6
CONTINUOUS
 62
     7
  0
TEXT
  5
149
  8
DIMNSIONS
 62
     7
 10
-994.8777777777777
 20
-560.5555555555555
 30
0.0
 40
54.15690104166671
  1
80.0
 50
90.0
 41
0.7
 11
-1049.034678819444
 21
-560.5555555555555
 31
0.0
 73
     3
  0
LINE
  5
14A
  8
DIMNSIONS
  6
CONTINUOUS
 62
     7
 10
-1392.887019238302
 20
-292.0
 30
0.0
 11
-1570.0
 21
-292.0
 31
0.0
  0
LINE
  5
14B
  8
DIMNSIONS
  6
CONTINUOUS
 62
     7
 10
-1406.063867765445
 20
-285.0
 30
0.0
 11
-1570.0
 21
-285.0
 31
0.0
  0
LINE
  5
14C
  8
DIMNSIONS
  6
CONTINUOUS
 62
     7
 10
-1550.0
 20
-285.0
 30
0.0
 11
-1550.0
 21
-292.0
 31
0.0
  0
LINE
  5
14D
  8
DIMNSIONS
  6
CONTINUOUS
 62
     7
 10
-1550.0
 20
-292.0
 30
0.0
 11
-1550.0
 21
-362.0
 31
0.0
  0
POLYLINE
  5
14E
  8
DIMNSIONS
  6
CONTINUOUS
 62
     7
 66
     1
 10
0.0
 20
0.0
 30
0.0
 70
   128
  0
VERTEX
  5
6F3
  8
DIMNSIONS
  6
CONTINUOUS
 62
     7
 10
-1560.717313524412
 20
-331.99755859375
 30
0.0
  0
VERTEX
  5
6F4
  8
DIMNSIONS
  6
CONTINUOUS
 62
     7
 10
-1550.0
 20
-292.0
 30
0.0
  0
VERTEX
  5
6F5
  8
DIMNSIONS
  6
CONTINUOUS
 62
     7
 10
-1539.282686475588
 20
-331.99755859375
 30
0.0
  0
SEQEND
  5
765
  8
DIMNSIONS
  6
CONTINUOUS
 62
     7
  0
LINE
  5
153
  8
DIMNSIONS
  6
CONTINUOUS
 62
     7
 10
-1550.0
 20
-285.0
 30
0.0
 11
-1550.0
 21
-215.0
 31
0.0
  0
POLYLINE
  5
154
  8
DIMNSIONS
  6
CONTINUOUS
 62
     7
 66
     1
 10
0.0
 20
0.0
 30
0.0
 70
   128
  0
VERTEX
  5
6F6
  8
DIMNSIONS
  6
CONTINUOUS
 62
     7
 10
-1539.282686475588
 20
-245.00244140625
 30
0.0
  0
VERTEX
  5
6F7
  8
DIMNSIONS
  6
CONTINUOUS
 62
     7
 10
-1550.0
 20
-285.0
 30
0.0
  0
VERTEX
  5
6F8
  8
DIMNSIONS
  6
CONTINUOUS
 62
     7
 10
-1560.717313524412
 20
-245.00244140625
 30
0.0
  0
SEQEND
  5
766
  8
DIMNSIONS
  6
CONTINUOUS
 62
     7
  0
TEXT
  5
159
  8
DIMNSIONS
 62
     7
 10
-1579.877777777778
 20
-341.4166666666667
 30
0.0
 40
54.15690104166671
  1
7.0
 50
90.0
 41
0.7
 11
-1634.034678819444
 21
-341.4166666666667
 31
0.0
 73
     3
  0
TEXT
  5
15A
  8
DIMNSIONS
 62
     7
 10
-1035.0
 20
-2070.955555555556
 30
0.0
 40
54.15690104166671
  1
ポールソケット
 41
0.7
 11
-1035.0
 21
-2016.798654513889
 31
0.0
 73
     3
  0
LINE
  5
15B
  8
DIMNSIONS
  6
CONTINUOUS
 62
     7
 10
-1282.217821416569
 20
-1932.635467621502
 30
0.0
 11
-1075.0
 21
-1975.0
 31
0.0
  0
POLYLINE
  5
15C
  8
DIMNSIONS
  6
CONTINUOUS
 62
     7
 66
     1
 10
0.0
 20
0.0
 30
0.0
 70
   128
  0
VERTEX
  5
6F9
  8
DIMNSIONS
  6
CONTINUOUS
 62
     7
 10
-1245.000090456132
 20
-1950.787767883384
 30
0.0
  0
VERTEX
  5
6FA
  8
DIMNSIONS
  6
CONTINUOUS
 62
     7
 10
-1282.217821416569
 20
-1932.635467621502
 30
0.0
  0
VERTEX
  5
6FB
  8
DIMNSIONS
  6
CONTINUOUS
 62
     7
 10
-1240.910170802675
 20
-1929.746955305196
 30
0.0
  0
SEQEND
  5
767
  8
DIMNSIONS
  6
CONTINUOUS
 62
     7
  0
LINE
  5
161
  8
DIMNSIONS
  6
CONTINUOUS
 62
     7
 10
-1075.0
 20
-1975.0
 30
0.0
 11
-1035.0
 21
-1975.0
 31
0.0
  0
TEXT
  5
162
  8
DIMNSIONS
 62
     7
 10
-1035.0
 20
-2000.4
 30
0.0
 40
54.15690104166671
  1
φ35×D70.0
 41
0.7
 11
-1035.0
 21
-1946.243098958333
 31
0.0
 73
     3
  0
LINE
  5
163
  8
DIMNSIONS
  6
CONTINUOUS
 62
     7
 10
-1392.887019238302
 20
-2108.0
 30
0.0
 11
-1570.0
 21
-2108.0
 31
0.0
  0
LINE
  5
164
  8
DIMNSIONS
  6
CONTINUOUS
 62
     7
 10
-1324.0
 20
-1929.0
 30
0.0
 11
-1570.0
 21
-1929.0
 31
0.0
  0
LINE
  5
165
  8
DIMNSIONS
  6
CONTINUOUS
 62
     7
 10
-1550.0
 20
-2108.0
 30
0.0
 11
-1550.0
 21
-1929.0
 31
0.0
  0
POLYLINE
  5
166
  8
DIMNSIONS
  6
CONTINUOUS
 62
     7
 66
     1
 10
0.0
 20
0.0
 30
0.0
 70
   128
  0
VERTEX
  5
6FC
  8
DIMNSIONS
  6
CONTINUOUS
 62
     7
 10
-1539.282686475588
 20
-2068.00244140625
 30
0.0
  0
VERTEX
  5
6FD
  8
DIMNSIONS
  6
CONTINUOUS
 62
     7
 10
-1550.0
 20
-2108.0
 30
0.0
  0
VERTEX
  5
6FE
  8
DIMNSIONS
  6
CONTINUOUS
 62
     7
 10
-1560.717313524412
 20
-2068.00244140625
 30
0.0
  0
SEQEND
  5
768
  8
DIMNSIONS
  6
CONTINUOUS
 62
     7
  0
POLYLINE
  5
16B
  8
DIMNSIONS
  6
CONTINUOUS
 62
     7
 66
     1
 10
0.0
 20
0.0
 30
0.0
 70
   128
  0
VERTEX
  5
6FF
  8
DIMNSIONS
  6
CONTINUOUS
 62
     7
 10
-1560.717313524412
 20
-1968.99755859375
 30
0.0
  0
VERTEX
  5
700
  8
DIMNSIONS
  6
CONTINUOUS
 62
     7
 10
-1550.0
 20
-1929.0
 30
0.0
  0
VERTEX
  5
701
  8
DIMNSIONS
  6
CONTINUOUS
 62
     7
 10
-1539.282686475588
 20
-1968.99755859375
 30
0.0
  0
SEQEND
  5
769
  8
DIMNSIONS
  6
CONTINUOUS
 62
     7
  0
TEXT
  5
170
  8
DIMNSIONS
 62
     7
 10
-1569.877777777778
 20
-2071.416666666667
 30
0.0
 40
54.15690104166671
  1
179
 50
90.0
 41
0.7
 11
-1624.034678819444
 21
-2071.416666666667
 31
0.0
 73
     3
  0
LINE
  5
171
  8
DIMNSIONS
  6
CONTINUOUS
 62
     7
 10
-244.3763822968982
 20
-1416.184467747374
 30
0.0
 11
-200.0000000000001
 21
-1625.0
 31
0.0
  0
POLYLINE
  5
172
  8
DIMNSIONS
  6
CONTINUOUS
 62
     7
 66
     1
 10
0.0
 20
0.0
 30
0.0
 70
   128
  0
VERTEX
  5
702
  8
DIMNSIONS
  6
CONTINUOUS
 62
     7
 10
-246.5435367713046
 20
-1457.536238496945
 30
0.0
  0
VERTEX
  5
703
  8
DIMNSIONS
  6
CONTINUOUS
 62
     7
 10
-244.3763822968982
 20
-1416.184467747374
 30
0.0
  0
VERTEX
  5
704
  8
DIMNSIONS
  6
CONTINUOUS
 62
     7
 10
-225.5773077508738
 20
-1453.079728945176
 30
0.0
  0
SEQEND
  5
76A
  8
DIMNSIONS
  6
CONTINUOUS
 62
     7
  0
LINE
  5
177
  8
DIMNSIONS
  6
CONTINUOUS
 62
     7
 10
-200.0000000000001
 20
-1625.0
 30
0.0
 11
-160.0000000000001
 21
-1625.0
 31
0.0
  0
TEXT
  5
178
  8
DIMNSIONS
 62
     7
 10
-160.0000000000001
 20
-1650.4
 30
0.0
 40
54.15690104166671
  1
M6-D30(4ヵ所)
 41
0.7
 11
-160.0000000000001
 21
-1596.243098958333
 31
0.0
 73
     3
  0
LINE
  5
179
  8
DIMNSIONS
  6
CONTINUOUS
 62
     7
 10
-301.1673062500961
 20
-1421.611830531651
 30
0.0
 11
-350.0
 21
-1625.0
 31
0.0
  0
POLYLINE
  5
17A
  8
DIMNSIONS
  6
CONTINUOUS
 62
     7
 66
     1
 10
0.0
 20
0.0
 30
0.0
 70
   128
  0
VERTEX
  5
705
  8
DIMNSIONS
  6
CONTINUOUS
 62
     7
 10
-320.6074287000455
 20
-1458.173383312844
 30
0.0
  0
VERTEX
  5
706
  8
DIMNSIONS
  6
CONTINUOUS
 62
     7
 10
-301.1673062500961
 20
-1421.611830531651
 30
0.0
  0
VERTEX
  5
707
  8
DIMNSIONS
  6
CONTINUOUS
 62
     7
 10
-299.7221697538358
 20
-1462.995125266944
 30
0.0
  0
SEQEND
  5
76B
  8
DIMNSIONS
  6
CONTINUOUS
 62
     7
  0
LINE
  5
17F
  8
DIMNSIONS
  6
CONTINUOUS
 62
     7
 10
-350.0
 20
-1625.0
 30
0.0
 11
-390.0
 21
-1625.0
 31
0.0
  0
TEXT
  5
180
  8
DIMNSIONS
 62
     7
 10
-883.8888888888889
 20
-1650.4
 30
0.0
 40
54.15690104166671
  1
M10-D30(2ヵ所)
 41
0.7
 11
-883.8888888888889
 21
-1596.243098958333
 31
0.0
 73
     3
  0
TEXT
  5
181
  8
DIMNSIONS
 62
     7
 10
-147.0833333333333
 20
-737.2244444444443
 30
0.0
 40
37.90983072916666
  1
※
 41
0.7
 11
-147.0833333333333
 21
-699.3146137152777
 31
0.0
 73
     3
  0
LINE
  5
182
  8
DIMNSIONS
  6
CONTINUOUS
 62
     7
 10
-255.0
 20
-994.25
 30
0.0
 11
-255.0
 21
-780.0
 31
0.0
  0
LINE
  5
183
  8
DIMNSIONS
  6
CONTINUOUS
 62
     7
 10
-145.0
 20
-994.25
 30
0.0
 11
-145.0
 21
-780.0
 31
0.0
  0
LINE
  5
184
  8
DIMNSIONS
  6
CONTINUOUS
 62
     7
 10
-255.0
 20
-800.0
 30
0.0
 11
-145.0
 21
-800.0
 31
0.0
  0
POLYLINE
  5
185
  8
DIMNSIONS
  6
CONTINUOUS
 62
     7
 66
     1
 10
0.0
 20
0.0
 30
0.0
 70
   128
  0
VERTEX
  5
708
  8
DIMNSIONS
  6
CONTINUOUS
 62
     7
 10
-215.00244140625
 20
-810.7173135244118
 30
0.0
  0
VERTEX
  5
709
  8
DIMNSIONS
  6
CONTINUOUS
 62
     7
 10
-255.0
 20
-800.0
 30
0.0
  0
VERTEX
  5
70A
  8
DIMNSIONS
  6
CONTINUOUS
 62
     7
 10
-215.00244140625
 20
-789.2826864755882
 30
0.0
  0
SEQEND
  5
76C
  8
DIMNSIONS
  6
CONTINUOUS
 62
     7
  0
POLYLINE
  5
18A
  8
DIMNSIONS
  6
CONTINUOUS
 62
     7
 66
     1
 10
0.0
 20
0.0
 30
0.0
 70
   128
  0
VERTEX
  5
70B
  8
DIMNSIONS
  6
CONTINUOUS
 62
     7
 10
-184.99755859375
 20
-789.2826864755882
 30
0.0
  0
VERTEX
  5
70C
  8
DIMNSIONS
  6
CONTINUOUS
 62
     7
 10
-145.0
 20
-800.0
 30
0.0
  0
VERTEX
  5
70D
  8
DIMNSIONS
  6
CONTINUOUS
 62
     7
 10
-184.99755859375
 20
-810.7173135244118
 30
0.0
  0
SEQEND
  5
76D
  8
DIMNSIONS
  6
CONTINUOUS
 62
     7
  0
TEXT
  5
18F
  8
DIMNSIONS
 62
     7
 10
-252.9166666666667
 20
-780.1222222222223
 30
0.0
 40
54.15690104166671
  1
110
 41
0.7
 11
-252.9166666666667
 21
-725.9653211805555
 31
0.0
 73
     3
  0
LINE
  5
190
  8
DIMNSIONS
  6
CONTINUOUS
 62
     7
 10
-224.0
 20
-1014.75
 30
0.0
 11
-470.0
 21
-1014.75
 31
0.0
  0
LINE
  5
191
  8
DIMNSIONS
  6
CONTINUOUS
 62
     7
 10
-224.0
 20
-1416.75
 30
0.0
 11
-470.0
 21
-1416.75
 31
0.0
  0
LINE
  5
192
  8
DIMNSIONS
  6
CONTINUOUS
 62
     7
 10
-450.0
 20
-1014.75
 30
0.0
 11
-450.0
 21
-1416.75
 31
0.0
  0
POLYLINE
  5
193
  8
DIMNSIONS
  6
CONTINUOUS
 62
     7
 66
     1
 10
0.0
 20
0.0
 30
0.0
 70
   128
  0
VERTEX
  5
70E
  8
DIMNSIONS
  6
CONTINUOUS
 62
     7
 10
-460.7173135244118
 20
-1054.74755859375
 30
0.0
  0
VERTEX
  5
70F
  8
DIMNSIONS
  6
CONTINUOUS
 62
     7
 10
-450.0
 20
-1014.75
 30
0.0
  0
VERTEX
  5
710
  8
DIMNSIONS
  6
CONTINUOUS
 62
     7
 10
-439.2826864755882
 20
-1054.74755859375
 30
0.0
  0
SEQEND
  5
76E
  8
DIMNSIONS
  6
CONTINUOUS
 62
     7
  0
POLYLINE
  5
198
  8
DIMNSIONS
  6
CONTINUOUS
 62
     7
 66
     1
 10
0.0
 20
0.0
 30
0.0
 70
   128
  0
VERTEX
  5
711
  8
DIMNSIONS
  6
CONTINUOUS
 62
     7
 10
-439.2826864755882
 20
-1376.75244140625
 30
0.0
  0
VERTEX
  5
712
  8
DIMNSIONS
  6
CONTINUOUS
 62
     7
 10
-450.0
 20
-1416.75
 30
0.0
  0
VERTEX
  5
713
  8
DIMNSIONS
  6
CONTINUOUS
 62
     7
 10
-460.7173135244118
 20
-1376.75244140625
 30
0.0
  0
SEQEND
  5
76F
  8
DIMNSIONS
  6
CONTINUOUS
 62
     7
  0
TEXT
  5
19D
  8
DIMNSIONS
 62
     7
 10
-469.8777777777778
 20
-1268.666666666667
 30
0.0
 40
54.15690104166671
  1
402
 50
90.0
 41
0.7
 11
-524.0346788194445
 21
-1268.666666666667
 31
0.0
 73
     3
  0
LINE
  5
19E
  8
DIMNSIONS
  6
CONTINUOUS
 62
     7
 10
-224.0
 20
-1416.75
 30
0.0
 11
-470.0
 21
-1416.75
 31
0.0
  0
LINE
  5
19F
  8
DIMNSIONS
  6
CONTINUOUS
 62
     7
 10
-434.0
 20
-1556.75
 30
0.0
 11
-470.0
 21
-1556.75
 31
0.0
  0
LINE
  5
1A0
  8
DIMNSIONS
  6
CONTINUOUS
 62
     7
 10
-450.0
 20
-1416.75
 30
0.0
 11
-450.0
 21
-1556.75
 31
0.0
  0
POLYLINE
  5
1A1
  8
DIMNSIONS
  6
CONTINUOUS
 62
     7
 66
     1
 10
0.0
 20
0.0
 30
0.0
 70
   128
  0
VERTEX
  5
714
  8
DIMNSIONS
  6
CONTINUOUS
 62
     7
 10
-460.7173135244118
 20
-1456.74755859375
 30
0.0
  0
VERTEX
  5
715
  8
DIMNSIONS
  6
CONTINUOUS
 62
     7
 10
-450.0
 20
-1416.75
 30
0.0
  0
VERTEX
  5
716
  8
DIMNSIONS
  6
CONTINUOUS
 62
     7
 10
-439.2826864755882
 20
-1456.74755859375
 30
0.0
  0
SEQEND
  5
770
  8
DIMNSIONS
  6
CONTINUOUS
 62
     7
  0
POLYLINE
  5
1A6
  8
DIMNSIONS
  6
CONTINUOUS
 62
     7
 66
     1
 10
0.0
 20
0.0
 30
0.0
 70
   128
  0
VERTEX
  5
717
  8
DIMNSIONS
  6
CONTINUOUS
 62
     7
 10
-439.2826864755882
 20
-1516.75244140625
 30
0.0
  0
VERTEX
  5
718
  8
DIMNSIONS
  6
CONTINUOUS
 62
     7
 10
-450.0
 20
-1556.75
 30
0.0
  0
VERTEX
  5
719
  8
DIMNSIONS
  6
CONTINUOUS
 62
     7
 10
-460.7173135244118
 20
-1516.75244140625
 30
0.0
  0
SEQEND
  5
771
  8
DIMNSIONS
  6
CONTINUOUS
 62
     7
  0
TEXT
  5
1AB
  8
DIMNSIONS
 62
     7
 10
-469.8777777777778
 20
-1539.666666666667
 30
0.0
 40
54.15690104166671
  1
140
 50
90.0
 41
0.7
 11
-524.0346788194445
 21
-1539.666666666667
 31
0.0
 73
     3
  0
LINE
  5
1AC
  8
DIMNSIONS
  6
CONTINUOUS
 62
     7
 10
-121.0
 20
-1413.25
 30
0.0
 11
145.0
 21
-1413.25
 31
0.0
  0
LINE
  5
1AD
  8
DIMNSIONS
  6
CONTINUOUS
 62
     7
 10
34.0
 20
-1556.75
 30
0.0
 11
145.0
 21
-1556.75
 31
0.0
  0
LINE
  5
1AE
  8
DIMNSIONS
  6
CONTINUOUS
 62
     7
 10
125.0
 20
-1413.25
 30
0.0
 11
125.0
 21
-1556.75
 31
0.0
  0
POLYLINE
  5
1AF
  8
DIMNSIONS
  6
CONTINUOUS
 62
     7
 66
     1
 10
0.0
 20
0.0
 30
0.0
 70
   128
  0
VERTEX
  5
71A
  8
DIMNSIONS
  6
CONTINUOUS
 62
     7
 10
114.2826864755882
 20
-1453.24755859375
 30
0.0
  0
VERTEX
  5
71B
  8
DIMNSIONS
  6
CONTINUOUS
 62
     7
 10
125.0
 20
-1413.25
 30
0.0
  0
VERTEX
  5
71C
  8
DIMNSIONS
  6
CONTINUOUS
 62
     7
 10
135.7173135244118
 20
-1453.24755859375
 30
0.0
  0
SEQEND
  5
772
  8
DIMNSIONS
  6
CONTINUOUS
 62
     7
  0
POLYLINE
  5
1B4
  8
DIMNSIONS
  6
CONTINUOUS
 62
     7
 66
     1
 10
0.0
 20
0.0
 30
0.0
 70
   128
  0
VERTEX
  5
71D
  8
DIMNSIONS
  6
CONTINUOUS
 62
     7
 10
135.7173135244118
 20
-1516.75244140625
 30
0.0
  0
VERTEX
  5
71E
  8
DIMNSIONS
  6
CONTINUOUS
 62
     7
 10
125.0
 20
-1556.75
 30
0.0
  0
VERTEX
  5
71F
  8
DIMNSIONS
  6
CONTINUOUS
 62
     7
 10
114.2826864755882
 20
-1516.75244140625
 30
0.0
  0
SEQEND
  5
773
  8
DIMNSIONS
  6
CONTINUOUS
 62
     7
  0
TEXT
  5
1B9
  8
DIMNSIONS
 62
     7
 10
105.1222222222222
 20
-1537.916666666667
 30
0.0
 40
54.15690104166671
  1
144
 50
90.0
 41
0.7
 11
50.9653211805555
 21
-1537.916666666667
 31
0.0
 73
     3
  0
LINE
  5
1BA
  8
DIMNSIONS
  6
CONTINUOUS
 62
     7
 10
-121.0
 20
-1413.25
 30
0.0
 11
145.0
 21
-1413.25
 31
0.0
  0
LINE
  5
1BB
  8
DIMNSIONS
  6
CONTINUOUS
 62
     7
 10
-121.0
 20
-1018.25
 30
0.0
 11
145.0
 21
-1018.25
 31
0.0
  0
LINE
  5
1BC
  8
DIMNSIONS
  6
CONTINUOUS
 62
     7
 10
125.0
 20
-1413.25
 30
0.0
 11
125.0
 21
-1018.25
 31
0.0
  0
POLYLINE
  5
1BD
  8
DIMNSIONS
  6
CONTINUOUS
 62
     7
 66
     1
 10
0.0
 20
0.0
 30
0.0
 70
   128
  0
VERTEX
  5
720
  8
DIMNSIONS
  6
CONTINUOUS
 62
     7
 10
135.7173135244118
 20
-1373.25244140625
 30
0.0
  0
VERTEX
  5
721
  8
DIMNSIONS
  6
CONTINUOUS
 62
     7
 10
125.0
 20
-1413.25
 30
0.0
  0
VERTEX
  5
722
  8
DIMNSIONS
  6
CONTINUOUS
 62
     7
 10
114.2826864755882
 20
-1373.25244140625
 30
0.0
  0
SEQEND
  5
774
  8
DIMNSIONS
  6
CONTINUOUS
 62
     7
  0
POLYLINE
  5
1C2
  8
DIMNSIONS
  6
CONTINUOUS
 62
     7
 66
     1
 10
0.0
 20
0.0
 30
0.0
 70
   128
  0
VERTEX
  5
723
  8
DIMNSIONS
  6
CONTINUOUS
 62
     7
 10
114.2826864755882
 20
-1058.24755859375
 30
0.0
  0
VERTEX
  5
724
  8
DIMNSIONS
  6
CONTINUOUS
 62
     7
 10
125.0
 20
-1018.25
 30
0.0
  0
VERTEX
  5
725
  8
DIMNSIONS
  6
CONTINUOUS
 62
     7
 10
135.7173135244118
 20
-1058.24755859375
 30
0.0
  0
SEQEND
  5
775
  8
DIMNSIONS
  6
CONTINUOUS
 62
     7
  0
TEXT
  5
1C7
  8
DIMNSIONS
 62
     7
 10
105.1222222222222
 20
-1268.666666666667
 30
0.0
 40
54.15690104166671
  1
395
 50
90.0
 41
0.7
 11
50.9653211805555
 21
-1268.666666666667
 31
0.0
 73
     3
  0
TEXT
  5
1C8
  8
DATA
 62
     7
 10
-1760.0
 20
-2375.369959444444
 30
0.0
 40
37.90983072916666
  1
※仕様及び外観は予告なく変更されることがあります。 
 41
0.7
 11
-1760.0
 21
-2337.460128715277
 31
0.0
 73
     3
  0
TEXT
  5
1C9
  8
DATA
 62
     7
 10
-1760.0
 20
-2424.758848333333
 30
0.0
 40
37.90983072916666
  1
　また、同一商品でも若干の個体差があることがあります。ご了承ください。
 41
0.7
 11
-1760.0
 21
-2386.849017604166
 31
0.0
 73
     3
  0
TEXT
  5
1CA
  8
DATA
 62
     7
 10
1000.0
 20
-2165.277714999999
 30
0.0
 40
48.74121093749999
  1
JBL PROFESSIONAL
 41
0.7
 11
1000.0
 21
-2116.536504062499
 31
0.0
 73
     3
  0
TEXT
  5
1CB
  8
DATA
 62
     7
 10
850.0
 20
-2237.356814999999
 30
0.0
 40
37.90983072916666
  1
パワード2-Wayフルレンジ・スピーカー
 41
0.7
 11
850.0
 21
-2199.446984270833
 31
0.0
 73
     3
  0
LINE
  5
1CC
  8
DATA
  6
______-8
 62
     7
 10
-1300.0
 20
-825.0
 30
0.0
 11
-1300.0
 21
-1575.0
 31
0.0
  0
TEXT
  5
1CD
  8
DATA
 62
     7
 10
150.0000000000003
 20
-2025.400000051985
 30
0.0
 40
54.15690104166666
  1
※ センター振り分け
 41
0.7
 11
150.0000000000003
 21
-1971.243099010318
 31
0.0
 73
     3
  0
LINE
  5
1CE
  8
DATA
  6
CONTINUOUS
 62
     7
 10
702.7678644884654
 20
-1460.000000061733
 30
0.0
 11
1316.087110638224
 21
-1460.000000061733
 31
0.0
  0
TEXT
  5
1CF
  8
DATA
 62
     7
 10
824.3511176709189
 20
-1427.078450583389
 30
0.0
 40
54.15690104031274
  1
背面パネル拡大図
 41
0.7
 72
     1
 11
1000.000000045
 21
-1400.000000063233
 31
0.0
 73
     2
  0
LINE
  5
1D0
  8
DATA
  6
CONTINUOUS
 62
     7
 10
385.0000022801732
 20
399.9999999367658
 30
0.0
 11
1614.999997809826
 21
399.9999999367658
 31
0.0
  0
POLYLINE
  5
1D1
  8
DATA
  6
CONTINUOUS
 62
     7
 66
     1
 10
0.0
 20
0.0
 30
0.0
 70
   129
  0
VERTEX
  5
726
  8
DATA
  6
CONTINUOUS
 62
     7
 10
635.0000022801742
 20
99.99999993676556
 30
0.0
  0
VERTEX
  5
727
  8
DATA
  6
CONTINUOUS
 62
     7
 10
1115.000002280174
 20
99.99999993676556
 30
0.0
  0
VERTEX
  5
728
  8
DATA
  6
CONTINUOUS
 62
     7
 10
1115.000002280174
 20
-270.0000000632344
 30
0.0
  0
VERTEX
  5
729
  8
DATA
  6
CONTINUOUS
 62
     7
 10
635.0000022801742
 20
-270.0000000632344
 30
0.0
  0
SEQEND
  5
776
  8
DATA
  6
CONTINUOUS
 62
     7
  0
LINE
  5
1D7
  8
DATA
  6
CONTINUOUS
 62
     7
 10
285.0000022801732
 20
299.9999999367658
 30
0.0
 11
285.0000022801732
 21
-1200.571738506023
 31
0.0
  0
LINE
  5
1D8
  8
DATA
  6
CONTINUOUS
 62
     7
 10
1714.999997809826
 20
299.9999999367658
 30
0.0
 11
1714.999997809826
 21
-1249.428261620446
 31
0.0
  0
ARC
  5
1D9
  8
DATA
  6
CONTINUOUS
 62
     7
 10
385.0000022801732
 20
299.9999999367658
 30
0.0
 40
100.0
 50
90.0
 51
180.0
  0
ARC
  5
1DA
  8
DATA
  6
CONTINUOUS
 62
     7
 10
1614.999997809826
 20
299.9999999367658
 30
0.0
 40
100.0
 50
0.0
 51
90.0
  0
ARC
  5
1DB
  8
DATA
  6
CONTINUOUS
 62
     7
 10
360.0000022791601
 20
-933.0223562614533
 30
0.0
 40
2.222356198219918
 50
356.8251528744368
 51
183.1748471255633
  0
ARC
  5
1DC
  8
DATA
  6
CONTINUOUS
 62
     7
 10
349.6481631203724
 20
-932.0700886874324
 30
0.0
 40
8.203678318440462
 50
247.5320803524684
 51
352.4679196225557
  0
ARC
  5
1DD
  8
DATA
  6
CONTINUOUS
 62
     7
 10
345.2969314504144
 20
-941.5111781623427
 30
0.0
 40
2.22235619821818
 50
56.82515287442732
 51
243.1748471255816
  0
ARC
  5
1DE
  8
DATA
  6
CONTINUOUS
 62
     7
 10
339.2963239607188
 20
-950.0000000627319
 30
0.0
 40
8.203678318441442
 50
307.532080352464
 51
52.46791962254412
  0
ARC
  5
1DF
  8
DATA
  6
CONTINUOUS
 62
     7
 10
360.0000022791601
 20
-966.9776438650156
 30
0.0
 40
2.222356198218101
 50
176.8251528744341
 51
3.174847125568534
  0
ARC
  5
1E0
  8
DATA
  6
CONTINUOUS
 62
     7
 10
349.6481631203724
 20
-967.9299114390365
 30
0.0
 40
8.203678318443709
 50
7.532080377445821
 51
112.4679196475385
  0
ARC
  5
1E1
  8
DATA
  6
CONTINUOUS
 62
     7
 10
345.2969314504144
 20
-958.4888219641261
 30
0.0
 40
2.222356198219943
 50
116.8251528744025
 51
303.1748471255534
  0
ARC
  5
1E2
  8
DATA
  6
CONTINUOUS
 62
     7
 10
370.351841437946
 20
-932.0700886874324
 30
0.0
 40
8.203678318443709
 50
187.5320803774458
 51
292.4679196475385
  0
ARC
  5
1E3
  8
DATA
  6
CONTINUOUS
 62
     7
 10
374.7030731079058
 20
-941.5111781623427
 30
0.0
 40
2.222356198219122
 50
296.8251528743606
 51
123.1748471255927
  0
ARC
  5
1E4
  8
DATA
  6
CONTINUOUS
 62
     7
 10
380.7036805976013
 20
-950.0000000627319
 30
0.0
 40
8.203678318442073
 50
127.5320803774679
 51
232.4679196475341
  0
ARC
  5
1E5
  8
DATA
  6
CONTINUOUS
 62
     7
 10
370.351841437946
 20
-967.9299114390365
 30
0.0
 40
8.203678318441158
 50
67.53208035245667
 51
172.4679196225525
  0
ARC
  5
1E6
  8
DATA
  6
CONTINUOUS
 62
     7
 10
374.7030731079058
 20
-958.4888219641261
 30
0.0
 40
2.22235619821818
 50
236.8251528744273
 51
63.17484712562347
  0
CIRCLE
  5
1E7
  8
DATA
  6
CONTINUOUS
 62
     7
 10
360.0000022801732
 20
-950.0000000632344
 30
0.0
 40
40.50000000000182
  0
ARC
  5
1E8
  8
DATA
  6
CONTINUOUS
 62
     7
 10
360.0000022791601
 20
-33.0223562614533
 30
0.0
 40
2.222356198219918
 50
356.8251528744368
 51
183.1748471255633
  0
ARC
  5
1E9
  8
DATA
  6
CONTINUOUS
 62
     7
 10
349.6481631203724
 20
-32.07008868743242
 30
0.0
 40
8.203678318440462
 50
247.5320803524684
 51
352.4679196225557
  0
ARC
  5
1EA
  8
DATA
  6
CONTINUOUS
 62
     7
 10
345.2969314504144
 20
-41.51117816234273
 30
0.0
 40
2.22235619821818
 50
56.82515287442732
 51
243.1748471255816
  0
ARC
  5
1EB
  8
DATA
  6
CONTINUOUS
 62
     7
 10
339.2963239607188
 20
-50.00000006273194
 30
0.0
 40
8.203678318441442
 50
307.532080352464
 51
52.46791962254412
  0
ARC
  5
1EC
  8
DATA
  6
CONTINUOUS
 62
     7
 10
360.0000022791601
 20
-66.97764386501558
 30
0.0
 40
2.222356198218101
 50
176.8251528744341
 51
3.174847125568534
  0
ARC
  5
1ED
  8
DATA
  6
CONTINUOUS
 62
     7
 10
349.6481631203724
 20
-67.92991143903646
 30
0.0
 40
8.203678318443709
 50
7.532080377445821
 51
112.4679196475385
  0
ARC
  5
1EE
  8
DATA
  6
CONTINUOUS
 62
     7
 10
345.2969314504144
 20
-58.48882196412615
 30
0.0
 40
2.222356198219943
 50
116.8251528744025
 51
303.1748471255598
  0
ARC
  5
1EF
  8
DATA
  6
CONTINUOUS
 62
     7
 10
370.351841437946
 20
-32.07008868743242
 30
0.0
 40
8.203678318443709
 50
187.5320803774458
 51
292.4679196475396
  0
ARC
  5
1F0
  8
DATA
  6
CONTINUOUS
 62
     7
 10
374.7030731079058
 20
-41.51117816234273
 30
0.0
 40
2.222356198219122
 50
296.8251528743606
 51
123.1748471255927
  0
ARC
  5
1F1
  8
DATA
  6
CONTINUOUS
 62
     7
 10
380.7036805976013
 20
-50.00000006273194
 30
0.0
 40
8.203678318442073
 50
127.5320803774679
 51
232.4679196475341
  0
ARC
  5
1F2
  8
DATA
  6
CONTINUOUS
 62
     7
 10
370.351841437946
 20
-67.92991143903646
 30
0.0
 40
8.203678318441158
 50
67.53208035245667
 51
172.4679196225525
  0
ARC
  5
1F3
  8
DATA
  6
CONTINUOUS
 62
     7
 10
374.7030731079058
 20
-58.48882196412615
 30
0.0
 40
2.22235619821818
 50
236.8251528744273
 51
63.17484712562347
  0
CIRCLE
  5
1F4
  8
DATA
  6
CONTINUOUS
 62
     7
 10
360.0000022801732
 20
-50.00000006323444
 30
0.0
 40
40.50000000000182
  0
ARC
  5
1F5
  8
DATA
  6
CONTINUOUS
 62
     7
 10
1640.000002279159
 20
-33.0223562614533
 30
0.0
 40
2.222356198219918
 50
356.8251528744368
 51
183.1748471255633
  0
ARC
  5
1F6
  8
DATA
  6
CONTINUOUS
 62
     7
 10
1629.648163120373
 20
-32.07008868743242
 30
0.0
 40
8.203678318441158
 50
247.5320803524567
 51
352.4679196225557
  0
ARC
  5
1F7
  8
DATA
  6
CONTINUOUS
 62
     7
 10
1625.296931450413
 20
-41.51117816234273
 30
0.0
 40
2.22235619821818
 50
56.82515287442732
 51
243.1748471256235
  0
ARC
  5
1F8
  8
DATA
  6
CONTINUOUS
 62
     7
 10
1619.296323960718
 20
-50.00000006273194
 30
0.0
 40
8.20367831844255
 50
307.5320803524741
 51
52.46791962253403
  0
ARC
  5
1F9
  8
DATA
  6
CONTINUOUS
 62
     7
 10
1640.000002279159
 20
-66.97764386501558
 30
0.0
 40
2.222356198216286
 50
176.8251528744315
 51
3.174847125565947
  0
ARC
  5
1FA
  8
DATA
  6
CONTINUOUS
 62
     7
 10
1629.648163120373
 20
-67.92991143903646
 30
0.0
 40
8.203678318443709
 50
7.532080377445821
 51
112.4679196475385
  0
ARC
  5
1FB
  8
DATA
  6
CONTINUOUS
 62
     7
 10
1625.296931450413
 20
-58.48882196412615
 30
0.0
 40
2.222356198219122
 50
116.8251528743606
 51
303.1748471255991
  0
ARC
  5
1FC
  8
DATA
  6
CONTINUOUS
 62
     7
 10
1650.351841437947
 20
-32.07008868743242
 30
0.0
 40
8.203678318443709
 50
187.5320803774458
 51
292.4679196475396
  0
ARC
  5
1FD
  8
DATA
  6
CONTINUOUS
 62
     7
 10
1654.703073107905
 20
-41.51117816234273
 30
0.0
 40
2.222356198219943
 50
296.8251528744025
 51
123.1748471255534
  0
ARC
  5
1FE
  8
DATA
  6
CONTINUOUS
 62
     7
 10
1660.7036805976
 20
-50.00000006273194
 30
0.0
 40
8.203678318440964
 50
127.5320803774578
 51
232.4679196475341
  0
ARC
  5
1FF
  8
DATA
  6
CONTINUOUS
 62
     7
 10
1650.351841437947
 20
-67.92991143903646
 30
0.0
 40
8.203678318440462
 50
67.5320803524684
 51
172.4679196225525
  0
ARC
  5
200
  8
DATA
  6
CONTINUOUS
 62
     7
 10
1654.703073107905
 20
-58.48882196412615
 30
0.0
 40
2.22235619821818
 50
236.8251528744273
 51
63.17484712558164
  0
CIRCLE
  5
201
  8
DATA
  6
CONTINUOUS
 62
     7
 10
1640.000002280174
 20
-50.00000006323444
 30
0.0
 40
40.50000000000182
  0
ARC
  5
202
  8
DATA
  6
CONTINUOUS
 62
     7
 10
1640.000002279159
 20
-933.0223562614533
 30
0.0
 40
2.222356198219918
 50
356.8251528744368
 51
183.1748471255633
  0
ARC
  5
203
  8
DATA
  6
CONTINUOUS
 62
     7
 10
1629.648163120373
 20
-932.0700886874324
 30
0.0
 40
8.203678318441158
 50
247.5320803524567
 51
352.4679196225557
  0
ARC
  5
204
  8
DATA
  6
CONTINUOUS
 62
     7
 10
1625.296931450413
 20
-941.5111781623427
 30
0.0
 40
2.22235619821818
 50
56.82515287442732
 51
243.1748471256235
  0
ARC
  5
205
  8
DATA
  6
CONTINUOUS
 62
     7
 10
1619.296323960718
 20
-950.0000000627319
 30
0.0
 40
8.20367831844255
 50
307.5320803524741
 51
52.46791962253403
  0
ARC
  5
206
  8
DATA
  6
CONTINUOUS
 62
     7
 10
1640.000002279159
 20
-966.9776438650156
 30
0.0
 40
2.222356198216286
 50
176.8251528744315
 51
3.174847125565947
  0
ARC
  5
207
  8
DATA
  6
CONTINUOUS
 62
     7
 10
1629.648163120373
 20
-967.9299114390365
 30
0.0
 40
8.203678318443709
 50
7.532080377445821
 51
112.4679196475385
  0
ARC
  5
208
  8
DATA
  6
CONTINUOUS
 62
     7
 10
1625.296931450413
 20
-958.4888219641261
 30
0.0
 40
2.222356198219122
 50
116.8251528743606
 51
303.1748471255927
  0
ARC
  5
209
  8
DATA
  6
CONTINUOUS
 62
     7
 10
1650.351841437947
 20
-932.0700886874324
 30
0.0
 40
8.203678318443709
 50
187.5320803774458
 51
292.4679196475385
  0
ARC
  5
20A
  8
DATA
  6
CONTINUOUS
 62
     7
 10
1654.703073107905
 20
-941.5111781623427
 30
0.0
 40
2.222356198219943
 50
296.8251528744025
 51
123.1748471255534
  0
ARC
  5
20B
  8
DATA
  6
CONTINUOUS
 62
     7
 10
1660.7036805976
 20
-950.0000000627319
 30
0.0
 40
8.203678318440964
 50
127.5320803774578
 51
232.4679196475341
  0
ARC
  5
20C
  8
DATA
  6
CONTINUOUS
 62
     7
 10
1650.351841437947
 20
-967.9299114390365
 30
0.0
 40
8.203678318440462
 50
67.5320803524684
 51
172.4679196225525
  0
ARC
  5
20D
  8
DATA
  6
CONTINUOUS
 62
     7
 10
1654.703073107905
 20
-958.4888219641261
 30
0.0
 40
2.22235619821818
 50
236.8251528744273
 51
63.17484712558164
  0
CIRCLE
  5
20E
  8
DATA
  6
CONTINUOUS
 62
     7
 10
1640.000002280174
 20
-950.0000000632344
 30
0.0
 40
40.50000000000182
  0
ARC
  5
20F
  8
DATA
  6
CONTINUOUS
 62
     7
 10
600.0000022791592
 20
351.9776437385469
 30
0.0
 40
2.222356198219918
 50
356.8251528744368
 51
183.1748471255692
  0
ARC
  5
210
  8
DATA
  6
CONTINUOUS
 62
     7
 10
589.6481631203733
 20
352.9299113125678
 30
0.0
 40
8.203678318441158
 50
247.5320803524567
 51
352.4679196225541
  0
ARC
  5
211
  8
DATA
  6
CONTINUOUS
 62
     7
 10
585.2969314504135
 20
343.4888218376575
 30
0.0
 40
2.22235619821818
 50
56.82515287442732
 51
243.1748471256235
  0
ARC
  5
212
  8
DATA
  6
CONTINUOUS
 62
     7
 10
579.2963239607179
 20
334.9999999372683
 30
0.0
 40
8.20367831844255
 50
307.5320803524741
 51
52.46791962253306
  0
ARC
  5
213
  8
DATA
  6
CONTINUOUS
 62
     7
 10
600.0000022791592
 20
318.0223561349846
 30
0.0
 40
2.222356198216286
 50
176.8251528744315
 51
3.174847125560092
  0
ARC
  5
214
  8
DATA
  6
CONTINUOUS
 62
     7
 10
589.6481631203733
 20
317.0700885609638
 30
0.0
 40
8.203678318443709
 50
7.532080377445821
 51
112.4679196475391
  0
ARC
  5
215
  8
DATA
  6
CONTINUOUS
 62
     7
 10
585.2969314504135
 20
326.5111780358741
 30
0.0
 40
2.222356198219122
 50
116.8251528743606
 51
303.1748471255959
  0
ARC
  5
216
  8
DATA
  6
CONTINUOUS
 62
     7
 10
610.3518414379469
 20
352.9299113125678
 30
0.0
 40
8.203678318443709
 50
187.5320803774458
 51
292.467919647539
  0
ARC
  5
217
  8
DATA
  6
CONTINUOUS
 62
     7
 10
614.7030731079049
 20
343.4888218376575
 30
0.0
 40
2.222356198219943
 50
296.8251528744025
 51
123.1748471255566
  0
ARC
  5
218
  8
DATA
  6
CONTINUOUS
 62
     7
 10
620.7036805976004
 20
334.9999999372683
 30
0.0
 40
8.203678318440964
 50
127.5320803774578
 51
232.4679196475351
  0
ARC
  5
219
  8
DATA
  6
CONTINUOUS
 62
     7
 10
610.3518414379469
 20
317.0700885609638
 30
0.0
 40
8.203678318440462
 50
67.5320803524684
 51
172.4679196225541
  0
ARC
  5
21A
  8
DATA
  6
CONTINUOUS
 62
     7
 10
614.7030731079049
 20
326.5111780358741
 30
0.0
 40
2.22235619821818
 50
236.8251528744273
 51
63.17484712558164
  0
CIRCLE
  5
21B
  8
DATA
  6
CONTINUOUS
 62
     7
 10
600.0000022801742
 20
334.9999999367658
 30
0.0
 40
40.50000000000182
  0
ARC
  5
21C
  8
DATA
  6
CONTINUOUS
 62
     7
 10
1400.000002279159
 20
351.9776437385469
 30
0.0
 40
2.222356198219918
 50
356.8251528744368
 51
183.1748471255692
  0
ARC
  5
21D
  8
DATA
  6
CONTINUOUS
 62
     7
 10
1389.648163120373
 20
352.9299113125678
 30
0.0
 40
8.203678318441158
 50
247.5320803524567
 51
352.4679196225541
  0
ARC
  5
21E
  8
DATA
  6
CONTINUOUS
 62
     7
 10
1385.296931450413
 20
343.4888218376575
 30
0.0
 40
2.22235619821818
 50
56.82515287442732
 51
243.1748471256235
  0
ARC
  5
21F
  8
DATA
  6
CONTINUOUS
 62
     7
 10
1379.296323960718
 20
334.9999999372683
 30
0.0
 40
8.20367831844255
 50
307.5320803524741
 51
52.46791962253306
  0
ARC
  5
220
  8
DATA
  6
CONTINUOUS
 62
     7
 10
1400.000002279159
 20
318.0223561349846
 30
0.0
 40
2.222356198216286
 50
176.8251528744315
 51
3.174847125560092
  0
ARC
  5
221
  8
DATA
  6
CONTINUOUS
 62
     7
 10
1389.648163120373
 20
317.0700885609638
 30
0.0
 40
8.203678318443709
 50
7.532080377445821
 51
112.4679196475391
  0
ARC
  5
222
  8
DATA
  6
CONTINUOUS
 62
     7
 10
1385.296931450413
 20
326.5111780358741
 30
0.0
 40
2.222356198219122
 50
116.8251528743606
 51
303.1748471255959
  0
ARC
  5
223
  8
DATA
  6
CONTINUOUS
 62
     7
 10
1410.351841437947
 20
352.9299113125678
 30
0.0
 40
8.203678318443709
 50
187.5320803774458
 51
292.467919647539
  0
ARC
  5
224
  8
DATA
  6
CONTINUOUS
 62
     7
 10
1414.703073107905
 20
343.4888218376575
 30
0.0
 40
2.222356198219943
 50
296.8251528744025
 51
123.1748471255566
  0
ARC
  5
225
  8
DATA
  6
CONTINUOUS
 62
     7
 10
1420.7036805976
 20
334.9999999372683
 30
0.0
 40
8.203678318440964
 50
127.5320803774578
 51
232.4679196475351
  0
ARC
  5
226
  8
DATA
  6
CONTINUOUS
 62
     7
 10
1410.351841437947
 20
317.0700885609638
 30
0.0
 40
8.203678318440462
 50
67.5320803524684
 51
172.4679196225541
  0
ARC
  5
227
  8
DATA
  6
CONTINUOUS
 62
     7
 10
1414.703073107905
 20
326.5111780358741
 30
0.0
 40
2.22235619821818
 50
236.8251528744273
 51
63.17484712558164
  0
CIRCLE
  5
228
  8
DATA
  6
CONTINUOUS
 62
     7
 10
1400.000002280174
 20
334.9999999367658
 30
0.0
 40
40.50000000000182
  0
CIRCLE
  5
229
  8
DATA
  6
CONTINUOUS
 62
     7
 10
1325.000002280174
 20
89.99999993676579
 30
0.0
 40
50.0
  0
ARC
  5
22A
  8
DATA
  6
CONTINUOUS
 62
     7
 10
1325.000002280174
 20
89.99999993676806
 30
0.0
 40
19.9999999999977
 50
120.0000000000038
 51
59.99999999999587
  0
LINE
  5
22B
  8
DATA
  6
CONTINUOUS
 62
     7
 10
1325.000002280174
 20
89.99999993676579
 30
0.0
 11
1325.000002280174
 21
114.9999999367658
 31
0.0
  0
CIRCLE
  5
22C
  8
DATA
  6
CONTINUOUS
 62
     7
 10
1325.000002280174
 20
-145.0000000632344
 30
0.0
 40
107.5
  0
CIRCLE
  5
22D
  8
DATA
  6
CONTINUOUS
 62
     7
 10
1325.000002280174
 20
-145.0000000632344
 30
0.0
 40
100.0
  0
CIRCLE
  5
22E
  8
DATA
  6
CONTINUOUS
 62
     7
 10
1325.000002280174
 20
-410.0000000632344
 30
0.0
 40
38.50000000000182
  0
CIRCLE
  5
22F
  8
DATA
  6
CONTINUOUS
 62
     7
 10
1445.000002280174
 20
89.99999993676579
 30
0.0
 40
15.0
  0
CIRCLE
  5
230
  8
DATA
  6
CONTINUOUS
 62
     7
 10
695.0000022801742
 20
-390.0000000632344
 30
0.0
 40
15.0
  0
CIRCLE
  5
231
  8
DATA
  6
CONTINUOUS
 62
     7
 10
1015.000002280174
 20
-390.0000000632344
 30
0.0
 40
15.0
  0
CIRCLE
  5
232
  8
DATA
  6
CONTINUOUS
 62
     7
 10
695.0000022801742
 20
-530.0000000632344
 30
0.0
 40
65.0
  0
CIRCLE
  5
233
  8
DATA
  6
CONTINUOUS
 62
     7
 10
1015.000002280174
 20
-530.0000000632344
 30
0.0
 40
65.0
  0
CIRCLE
  5
234
  8
DATA
  6
CONTINUOUS
 62
     7
 10
695.0000022801742
 20
-530.0000000632344
 30
0.0
 40
62.5
  0
CIRCLE
  5
235
  8
DATA
  6
CONTINUOUS
 62
     7
 10
1015.000002280174
 20
-530.0000000632344
 30
0.0
 40
62.5
  0
CIRCLE
  5
236
  8
DATA
  6
CONTINUOUS
 62
     7
 10
1290.000002284667
 20
-815.0000000632344
 30
0.0
 40
16.49999999835927
  0
CIRCLE
  5
237
  8
DATA
  6
CONTINUOUS
 62
     7
 10
1380.000002275681
 20
-815.0000000632344
 30
0.0
 40
16.49999999834108
  0
CIRCLE
  5
238
  8
DATA
  6
CONTINUOUS
 62
     7
 10
1429.974410604007
 20
-935.0000000512337
 30
0.0
 40
25.0
  0
LINE
  5
239
  8
DATA
  6
______-12
 62
     7
 10
1414.948818937335
 20
-935.0000000512337
 30
0.0
 11
1444.948818937335
 21
-935.0000000512337
 31
0.0
  0
LINE
  5
23A
  8
DATA
  6
______-12
 62
     7
 10
1429.974410604007
 20
-919.9882833845704
 30
0.0
 11
1429.974410604007
 21
-949.9882833845704
 31
0.0
  0
CIRCLE
  5
23B
  8
DATA
  6
CONTINUOUS
 62
     7
 10
1240.025593956341
 20
-695.0000000752352
 30
0.0
 40
25.0
  0
LINE
  5
23C
  8
DATA
  6
______-12
 62
     7
 10
1225.000002289669
 20
-695.0000000752352
 30
0.0
 11
1255.000002289669
 21
-695.0000000752352
 31
0.0
  0
LINE
  5
23D
  8
DATA
  6
______-12
 62
     7
 10
1240.025593956341
 20
-679.9882834085674
 30
0.0
 11
1240.025593956341
 21
-709.9882834085674
 31
0.0
  0
CIRCLE
  5
23E
  8
DATA
  6
CONTINUOUS
 62
     7
 10
1335.000002280174
 20
-815.0000000632344
 30
0.0
 40
97.50000015681577
  0
CIRCLE
  5
23F
  8
DATA
  6
CONTINUOUS
 62
     7
 10
1335.000002280174
 20
-854.5000000592854
 30
0.0
 40
16.49999999834108
  0
ARC
  5
240
  8
DATA
  6
CONTINUOUS
 62
     7
 10
1335.000002280174
 20
-815.0000000632344
 30
0.0
 40
78.99999852386203
 50
50.69269454644028
 51
39.30730194582294
  0
LINE
  5
241
  8
DATA
  6
CONTINUOUS
 62
     7
 10
1363.500002277404
 20
-741.3199500705305
 30
0.0
 11
1363.500002277404
 21
-741.3199516448885
 31
0.0
  0
ARC
  5
242
  8
DATA
  6
CONTINUOUS
 62
     7
 10
1389.447225608144
 20
-760.5527800686077
 30
0.0
 40
7.999999999199845
 50
326.612906173291
 51
123.3870903189605
  0
ARC
  5
243
  8
DATA
  6
CONTINUOUS
 62
     7
 10
695.0000022802469
 20
-815.0000000633072
 30
0.0
 40
78.99999852386007
 50
140.692698054177
 51
129.3073054535593
  0
CIRCLE
  5
244
  8
DATA
  6
CONTINUOUS
 62
     7
 10
695.0000022801742
 20
-815.0000000632344
 30
0.0
 40
97.49999999025184
  0
ARC
  5
245
  8
DATA
  6
CONTINUOUS
 62
     7
 10
695.0000022801723
 20
-815.0000000632344
 30
0.0
 40
107.5000000000002
 50
102.9003349199804
 51
77.0996650800226
  0
LINE
  5
246
  8
DATA
  6
CONTINUOUS
 62
     7
 10
719.0000022777695
 20
-739.733805800026
 30
0.0
 11
719.0000022777695
 21
-739.7338073412056
 31
0.0
  0
LINE
  5
247
  8
DATA
  6
CONTINUOUS
 62
     7
 10
666.5000022830172
 20
-741.3199500706032
 30
0.0
 11
666.5000022830172
 21
-741.3199516449613
 31
0.0
  0
ARC
  5
248
  8
DATA
  6
CONTINUOUS
 62
     7
 10
650.0000022846671
 20
-815.0000000632344
 30
0.0
 40
19.99999999800095
 50
32.08918387405087
 51
327.9108161259492
  0
ARC
  5
249
  8
DATA
  6
CONTINUOUS
 62
     7
 10
740.0000022756722
 20
-815.0000000632344
 30
0.0
 40
19.99999999800095
 50
212.0891838740509
 51
147.9108161259491
  0
ARC
  5
24A
  8
DATA
  6
CONTINUOUS
 62
     7
 10
695.0000022801742
 20
-854.50000005929
 30
0.0
 40
19.9999999980077
 50
137.8522840898889
 51
42.14771591012779
  0
ARC
  5
24B
  8
DATA
  6
CONTINUOUS
 62
     7
 10
640.5527789522766
 20
-760.5527800686805
 30
0.0
 40
7.99999999920039
 50
56.61290968104122
 51
213.387093826709
  0
ARC
  5
24C
  8
DATA
  6
CONTINUOUS
 62
     7
 10
695.0000022801742
 20
-815.0000000632344
 30
0.0
 40
29.99999999999744
 50
20.74191648508129
 51
159.2580835149248
  0
ARC
  5
24D
  8
DATA
  6
CONTINUOUS
 62
     7
 10
695.0000022801742
 20
-815.0000000632344
 30
0.0
 40
30.00000000000594
 50
200.7419164850751
 51
240.3778367991925
  0
ARC
  5
24E
  8
DATA
  6
CONTINUOUS
 62
     7
 10
695.0000022801742
 20
-815.0000000632344
 30
0.0
 40
29.99999999999644
 50
299.6221632007934
 51
339.2580835149183
  0
CIRCLE
  5
24F
  8
DATA
  6
CONTINUOUS
 62
     7
 10
790.0000022706699
 20
-935.0000000512337
 30
0.0
 40
25.0
  0
LINE
  5
250
  8
DATA
  6
______-12
 62
     7
 10
774.9744106040071
 20
-935.0000000512337
 30
0.0
 11
804.9744106040071
 21
-935.0000000512337
 31
0.0
  0
LINE
  5
251
  8
DATA
  6
______-12
 62
     7
 10
790.0000022706699
 20
-919.9882833845704
 30
0.0
 11
790.0000022706699
 21
-949.9882833845704
 31
0.0
  0
CIRCLE
  5
252
  8
DATA
  6
CONTINUOUS
 62
     7
 10
599.9744106230064
 20
-694.9882834085674
 30
0.0
 40
25.0
  0
LINE
  5
253
  8
DATA
  6
______-12
 62
     7
 10
584.9488189563435
 20
-694.9882834085674
 30
0.0
 11
614.9488189563435
 21
-694.9882834085674
 31
0.0
  0
LINE
  5
254
  8
DATA
  6
______-12
 62
     7
 10
599.9744106230064
 20
-679.9765667419042
 30
0.0
 11
599.9744106230064
 21
-709.9765667419042
 31
0.0
  0
LINE
  5
255
  8
DATA
  6
CONTINUOUS
 62
     7
 10
671.0000022825698
 20
-710.2133119768409
 30
0.0
 11
671.0000022825698
 21
-697.4244924091299
 31
0.0
  0
LINE
  5
256
  8
DATA
  6
CONTINUOUS
 62
     7
 10
719.0000022777695
 20
-710.2133119768409
 30
0.0
 11
719.0000022777695
 21
-697.4244924091131
 31
0.0
  0
ARC
  5
257
  8
DATA
  6
CONTINUOUS
 62
     7
 10
695.0000022802105
 20
-815.0000000632276
 30
0.0
 40
120.0000000000232
 50
78.46304096837633
 51
101.5369590316635
  0
ARC
  5
258
  8
DATA
  6
CONTINUOUS
 62
     7
 10
1015.000002280247
 20
-815.0000000633072
 30
0.0
 40
78.99999852386007
 50
140.692698054177
 51
129.3073054535593
  0
CIRCLE
  5
259
  8
DATA
  6
CONTINUOUS
 62
     7
 10
1015.000002280174
 20
-815.0000000632344
 30
0.0
 40
97.49999999025184
  0
ARC
  5
25A
  8
DATA
  6
CONTINUOUS
 62
     7
 10
1015.000002280172
 20
-815.0000000632344
 30
0.0
 40
107.5000000000002
 50
102.9003349199804
 51
77.0996650800226
  0
LINE
  5
25B
  8
DATA
  6
CONTINUOUS
 62
     7
 10
1039.000002277769
 20
-739.733805800026
 30
0.0
 11
1039.000002277769
 21
-739.7338073412056
 31
0.0
  0
LINE
  5
25C
  8
DATA
  6
CONTINUOUS
 62
     7
 10
986.5000022830172
 20
-741.3199500706032
 30
0.0
 11
986.5000022830172
 21
-741.3199516449613
 31
0.0
  0
ARC
  5
25D
  8
DATA
  6
CONTINUOUS
 62
     7
 10
970.0000022846671
 20
-815.0000000632344
 30
0.0
 40
19.99999999800095
 50
32.08918387405087
 51
327.9108161259492
  0
ARC
  5
25E
  8
DATA
  6
CONTINUOUS
 62
     7
 10
1060.000002275672
 20
-815.0000000632344
 30
0.0
 40
19.99999999800095
 50
212.0891838740509
 51
147.9108161259491
  0
ARC
  5
25F
  8
DATA
  6
CONTINUOUS
 62
     7
 10
1015.000002280174
 20
-854.50000005929
 30
0.0
 40
19.9999999980077
 50
137.8522840898889
 51
42.14771591012779
  0
ARC
  5
260
  8
DATA
  6
CONTINUOUS
 62
     7
 10
960.5527789522766
 20
-760.5527800686805
 30
0.0
 40
7.99999999920039
 50
56.61290968104122
 51
213.387093826709
  0
ARC
  5
261
  8
DATA
  6
CONTINUOUS
 62
     7
 10
1015.000002280174
 20
-815.0000000632344
 30
0.0
 40
29.99999999999744
 50
20.74191648508129
 51
159.2580835149248
  0
ARC
  5
262
  8
DATA
  6
CONTINUOUS
 62
     7
 10
1015.000002280174
 20
-815.0000000632344
 30
0.0
 40
30.00000000000594
 50
200.7419164850751
 51
240.3778367991925
  0
ARC
  5
263
  8
DATA
  6
CONTINUOUS
 62
     7
 10
1015.000002280174
 20
-815.0000000632344
 30
0.0
 40
29.99999999999644
 50
299.6221632007934
 51
339.2580835149183
  0
CIRCLE
  5
264
  8
DATA
  6
CONTINUOUS
 62
     7
 10
1110.00000227067
 20
-935.0000000512337
 30
0.0
 40
25.0
  0
LINE
  5
265
  8
DATA
  6
______-12
 62
     7
 10
1094.974410604007
 20
-935.0000000512337
 30
0.0
 11
1124.974410604007
 21
-935.0000000512337
 31
0.0
  0
LINE
  5
266
  8
DATA
  6
______-12
 62
     7
 10
1110.00000227067
 20
-919.9882833845704
 30
0.0
 11
1110.00000227067
 21
-949.9882833845704
 31
0.0
  0
CIRCLE
  5
267
  8
DATA
  6
CONTINUOUS
 62
     7
 10
919.9744106230064
 20
-694.9882834085674
 30
0.0
 40
25.0
  0
LINE
  5
268
  8
DATA
  6
______-12
 62
     7
 10
904.9488189563435
 20
-694.9882834085674
 30
0.0
 11
934.9488189563435
 21
-694.9882834085674
 31
0.0
  0
LINE
  5
269
  8
DATA
  6
______-12
 62
     7
 10
919.9744106230064
 20
-679.9765667419042
 30
0.0
 11
919.9744106230064
 21
-709.9765667419042
 31
0.0
  0
LINE
  5
26A
  8
DATA
  6
CONTINUOUS
 62
     7
 10
991.0000022825698
 20
-710.2133119768409
 30
0.0
 11
991.0000022825698
 21
-697.4244924091299
 31
0.0
  0
LINE
  5
26B
  8
DATA
  6
CONTINUOUS
 62
     7
 10
1039.000002277769
 20
-710.2133119768409
 30
0.0
 11
1039.000002277769
 21
-697.4244924091131
 31
0.0
  0
ARC
  5
26C
  8
DATA
  6
CONTINUOUS
 62
     7
 10
1015.000002280211
 20
-815.0000000632276
 30
0.0
 40
120.0000000000232
 50
78.46304096837633
 51
101.5369590316635
  0
CIRCLE
  5
26D
  8
DATA
  6
CONTINUOUS
 62
     7
 10
1445.000002280174
 20
-410.0000000632344
 30
0.0
 40
15.0
  0
LINE
  5
26E
  8
DATA
  6
CONTINUOUS
 62
     7
 10
695.0000022801742
 20
-595.0000000632344
 30
0.0
 11
695.0000022801687
 21
-695.0000000632049
 31
0.0
  0
LINE
  5
26F
  8
DATA
  6
CONTINUOUS
 62
     7
 10
1015.000002280174
 20
-595.0000000632344
 30
0.0
 11
1015.000002280169
 21
-695.0000000632049
 31
0.0
  0
LINE
  5
270
  8
DATA
  6
CONTINUOUS
 62
     7
 10
707.5000022801742
 20
-1000.000000063235
 30
0.0
 11
682.5000022801742
 21
-1000.000000063235
 31
0.0
  0
LINE
  5
271
  8
DATA
  6
CONTINUOUS
 62
     7
 10
682.5000022801742
 20
-1000.000000063235
 30
0.0
 11
695.0000022801742
 21
-985.0000000632353
 31
0.0
  0
LINE
  5
272
  8
DATA
  6
CONTINUOUS
 62
     7
 10
707.5000022801742
 20
-1000.000000063235
 30
0.0
 11
695.0000022801742
 21
-985.0000000632353
 31
0.0
  0
LINE
  5
273
  8
DATA
  6
CONTINUOUS
 62
     7
 10
1027.500002280174
 20
-1000.000000063235
 30
0.0
 11
1002.500002280174
 21
-1000.000000063235
 31
0.0
  0
LINE
  5
274
  8
DATA
  6
CONTINUOUS
 62
     7
 10
1002.500002280174
 20
-1000.000000063235
 30
0.0
 11
1015.000002280174
 21
-985.0000000632353
 31
0.0
  0
LINE
  5
275
  8
DATA
  6
CONTINUOUS
 62
     7
 10
1027.500002280174
 20
-1000.000000063235
 30
0.0
 11
1015.000002280174
 21
-985.0000000632353
 31
0.0
  0
LINE
  5
276
  8
DATA
  6
CONTINUOUS
 62
     7
 10
1347.500002280174
 20
-1000.000000063235
 30
0.0
 11
1322.500002280174
 21
-1000.000000063235
 31
0.0
  0
LINE
  5
277
  8
DATA
  6
CONTINUOUS
 62
     7
 10
1322.500002280174
 20
-1000.000000063235
 30
0.0
 11
1335.000002280174
 21
-985.0000000632353
 31
0.0
  0
LINE
  5
278
  8
DATA
  6
CONTINUOUS
 62
     7
 10
1347.500002280174
 20
-1000.000000063235
 30
0.0
 11
1335.000002280174
 21
-985.0000000632353
 31
0.0
  0
ARC
  5
279
  8
DATA
  6
CONTINUOUS
 62
     7
 10
625.000000045
 20
-1725.000000063234
 30
0.0
 40
625.0
 50
53.13010235415597
 51
126.8698976458441
  0
ARC
  5
27A
  8
DATA
  6
CONTINUOUS
 62
     7
 10
1375.000000045
 20
-725.0000000632344
 30
0.0
 40
624.9999999999997
 50
233.130102354156
 51
306.869897645844
  0
TEXT
  5
27B
  8
DATA
 62
     7
 10
1268.135256186424
 20
153.7529296242635
 30
0.0
 40
32.494140625
  1
POWER
 41
0.7
 72
     1
 11
1325.000002280174
 21
169.9999999367635
 31
0.0
 73
     2
  0
TEXT
  5
27C
  8
DATA
 62
     7
 10
1230.225425457257
 20
-23.74707037573671
 30
0.0
 40
32.494140625
  1
MAIN/MEMU
 41
0.7
 72
     1
 11
1325.000002280174
 21
-7.500000063236712
 31
0.0
 73
     2
  0
TEXT
  5
27D
  8
DATA
 62
     7
 10
1283.299188478091
 20
-357.7470703757353
 30
0.0
 40
32.494140625
  1
BACK
 41
0.7
 72
     1
 11
1325.000002280174
 21
-341.5000000632353
 31
0.0
 73
     2
  0
TEXT
  5
27E
  8
DATA
 62
     7
 10
1399.508205405174
 20
-357.7470703757353
 30
0.0
 40
32.494140625
  1
LIMIT
 41
0.7
 72
     1
 11
1445.000002280174
 21
-341.5000000632353
 31
0.0
 73
     2
  0
TEXT
  5
27F
  8
DATA
 62
     7
 10
615.3893577489241
 20
-361.2470703757367
 30
0.0
 40
32.494140625
  1
SIG/CLIP
 41
0.7
 72
     1
 11
695.0000022801742
 21
-345.0000000632367
 31
0.0
 73
     2
  0
TEXT
  5
280
  8
DATA
 62
     7
 10
935.3893577489241
 20
-361.2470703757367
 30
0.0
 40
32.494140625
  1
SIG/CLIP
 41
0.7
 72
     1
 11
1015.000002280174
 21
-345.0000000632367
 31
0.0
 73
     2
  0
TEXT
  5
281
  8
DATA
 62
     7
 10
657.0901715510075
 20
-451.2470703757367
 30
0.0
 40
32.494140625
  1
GAIN
 41
0.7
 72
     1
 11
695.0000022801742
 21
-435.0000000632367
 31
0.0
 73
     2
  0
TEXT
  5
282
  8
DATA
 62
     7
 10
977.0901715510075
 20
-451.2470703757367
 30
0.0
 40
32.494140625
  1
GAIN
 41
0.7
 72
     1
 11
1015.000002280174
 21
-435.0000000632367
 31
0.0
 73
     2
  0
TEXT
  5
283
  8
DATA
 62
     7
 10
668.4631207697574
 20
-1046.247070375736
 30
0.0
 40
32.494140625
  1
CH1
 41
0.7
 72
     1
 11
695.0000022801742
 21
-1030.000000063236
 31
0.0
 73
     2
  0
TEXT
  5
284
  8
DATA
 62
     7
 10
984.6721376968409
 20
-1046.247070375736
 30
0.0
 40
32.494140625
  1
CH2
 41
0.7
 72
     1
 11
1015.000002280174
 21
-1030.000000063236
 31
0.0
 73
     2
  0
TEXT
  5
285
  8
DATA
 62
     7
 10
1240.983622071841
 20
-1046.247070375736
 30
0.0
 40
32.494140625
  1
PASS THRU
 41
0.7
 72
     1
 11
1335.000002280174
 21
-1030.000000063236
 31
0.0
 73
     2
  0
TEXT
  5
286
  8
DATA
 62
     7
 10
1000.0
 20
-2310.277714999999
 30
0.0
 40
48.74121093749999
  1
EON715
 41
0.7
 11
1000.0
 21
-2261.536504062499
 31
0.0
 73
     3
  0
LINE
  5
287
  8
DATA
  6
CONTINUOUS
 62
     7
 10
-1368.887019238302
 20
-292.0
 30
0.0
 11
-1231.112980761698
 21
-292.0
 31
0.0
  0
LINE
  5
288
  8
DATA
  6
CONTINUOUS
 62
     7
 10
-1510.0
 20
-1556.75
 30
0.0
 11
-1090.0
 21
-1556.75
 31
0.0
  0
LINE
  5
289
  8
DATA
  6
CONTINUOUS
 62
     7
 10
-1520.0
 20
-1533.75
 30
0.0
 11
-1520.0
 21
-863.25
 31
0.0
  0
LINE
  5
28A
  8
DATA
  6
CONTINUOUS
 62
     7
 10
-1080.0
 20
-863.25
 30
0.0
 11
-1080.0
 21
-1533.75
 31
0.0
  0
LINE
  5
28B
  8
DATA
  6
CONTINUOUS
 62
     7
 10
-1507.5
 20
-843.25
 30
0.0
 11
-1092.5
 21
-843.25
 31
0.0
  0
LINE
  5
28C
  8
DATA
  6
CONTINUOUS
 62
     7
 10
-1520.0
 20
-863.25
 30
0.0
 11
-1080.0
 21
-863.25
 31
0.0
  0
LINE
  5
28D
  8
DATA
  6
CONTINUOUS
 62
     7
 10
-1520.0
 20
-875.25
 30
0.0
 11
-1080.0
 21
-875.25
 31
0.0
  0
ARC
  5
28E
  8
DATA
  6
CONTINUOUS
 62
     7
 10
-1471.576923076923
 20
-879.6081730769231
 30
0.0
 40
51.11148799548685
 50
134.6551128790974
 51
161.3341207047356
  0
ARC
  5
28F
  8
DATA
  6
CONTINUOUS
 62
     7
 10
-1128.423076923077
 20
-879.6081730769231
 30
0.0
 40
51.11148799548683
 50
18.66587929526443
 51
45.34488712090261
  0
LINE
  5
290
  8
DATA
  6
CONTINUOUS
 62
     7
 10
-1291.5
 20
-1538.75
 30
0.0
 11
-1308.5
 21
-1538.75
 31
0.0
  0
ARC
  5
291
  8
DATA
  6
CONTINUOUS
 62
     7
 10
-1308.5
 20
-1536.25
 30
0.0
 40
2.5
 50
90.0
 51
270.0
  0
ARC
  5
292
  8
DATA
  6
CONTINUOUS
 62
     7
 10
-1291.5
 20
-1536.25
 30
0.0
 40
2.5
 50
270.0
 51
90.0
  0
LINE
  5
293
  8
DATA
  6
CONTINUOUS
 62
     7
 10
-1308.5
 20
-1533.75
 30
0.0
 11
-1291.5
 21
-1533.75
 31
0.0
  0
POLYLINE
  5
294
  8
DATA
  6
CONTINUOUS
 62
     7
 66
     1
 10
0.0
 20
0.0
 30
0.0
 70
   129
  0
VERTEX
  5
72A
  8
DATA
  6
CONTINUOUS
 62
     7
 10
-1331.0
 20
-1372.75
 30
0.0
  0
VERTEX
  5
72B
  8
DATA
  6
CONTINUOUS
 62
     7
 10
-1269.0
 20
-1372.75
 30
0.0
  0
VERTEX
  5
72C
  8
DATA
  6
CONTINUOUS
 62
     7
 10
-1269.0
 20
-1432.75
 30
0.0
  0
VERTEX
  5
72D
  8
DATA
  6
CONTINUOUS
 62
     7
 10
-1331.0
 20
-1432.75
 30
0.0
  0
SEQEND
  5
777
  8
DATA
  6
CONTINUOUS
 62
     7
  0
POLYLINE
  5
29A
  8
DATA
  6
CONTINUOUS
 62
     7
 66
     1
 10
0.0
 20
0.0
 30
0.0
 70
   129
  0
VERTEX
  5
72E
  8
DATA
  6
CONTINUOUS
 62
     7
 10
-1320.0
 20
-1382.75
 30
0.0
  0
VERTEX
  5
72F
  8
DATA
  6
CONTINUOUS
 62
     7
 10
-1280.0
 20
-1382.75
 30
0.0
  0
VERTEX
  5
730
  8
DATA
  6
CONTINUOUS
 62
     7
 10
-1280.0
 20
-1422.75
 30
0.0
  0
VERTEX
  5
731
  8
DATA
  6
CONTINUOUS
 62
     7
 10
-1320.0
 20
-1422.75
 30
0.0
  0
SEQEND
  5
778
  8
DATA
  6
CONTINUOUS
 62
     7
  0
LINE
  5
2A0
  8
DATA
  6
CONTINUOUS
 62
     7
 10
-1320.0
 20
-1414.75
 30
0.0
 11
-1280.0
 21
-1414.75
 31
0.0
  0
ARC
  5
2A1
  8
DATA
  6
CONTINUOUS
 62
     7
 10
-1308.823329999999
 20
-1402.390004999999
 30
0.0
 40
3.868280137751436
 50
264.6908562215331
 51
323.9911991542338
  0
ARC
  5
2A2
  8
DATA
  6
CONTINUOUS
 62
     7
 10
-1309.539175
 20
-1402.390004999999
 30
0.0
 40
3.868273855420397
 50
216.0088008457516
 51
275.3091437784543
  0
ARC
  5
2A3
  8
DATA
  6
CONTINUOUS
 62
     7
 10
-1298.993725
 20
-1403.394135
 30
0.0
 40
2.853917117576
 50
273.8309816091105
 51
351.1351473098064
  0
ARC
  5
2A4
  8
DATA
  6
CONTINUOUS
 62
     7
 10
-1298.965270000001
 20
-1394.084895
 30
0.0
 40
2.849594899367446
 50
8.226923859016388
 51
86.15412669213401
  0
ARC
  5
2A5
  8
DATA
  6
CONTINUOUS
 62
     7
 10
-1299.27882795464
 20
-1404.118283932192
 30
0.0
 40
0.4781746722271387
 50
307.6419024978074
 51
354.2670192894782
  0
LINE
  5
2A6
  8
DATA
  6
CONTINUOUS
 62
     7
 10
-1311.561325000001
 20
-1396.583025
 30
0.0
 11
-1309.319635
 21
-1391.241705
 31
0.0
  0
LINE
  5
2A7
  8
DATA
  6
CONTINUOUS
 62
     7
 10
-1311.561325000001
 20
-1396.583025
 30
0.0
 11
-1313.775355
 21
-1391.241705
 31
0.0
  0
LINE
  5
2A8
  8
DATA
  6
CONTINUOUS
 62
     7
 10
-1294.568724999999
 20
-1406.241705
 30
0.0
 11
-1294.568724999999
 21
-1391.241705
 31
0.0
  0
LINE
  5
2A9
  8
DATA
  6
CONTINUOUS
 62
     7
 10
-1291.690495000001
 20
-1391.241705
 30
0.0
 11
-1291.690495000001
 21
-1403.944664999999
 31
0.0
  0
LINE
  5
2AA
  8
DATA
  6
CONTINUOUS
 62
     7
 10
-1308.267969999999
 20
-1391.241705
 30
0.0
 11
-1308.267969999999
 21
-1403.944664999999
 31
0.0
  0
LINE
  5
2AB
  8
DATA
  6
CONTINUOUS
 62
     7
 10
-1305.50044
 20
-1391.241705
 30
0.0
 11
-1305.50044
 21
-1403.944664999999
 31
0.0
  0
LINE
  5
2AC
  8
DATA
  6
CONTINUOUS
 62
     7
 10
-1304.061325000001
 20
-1391.241705
 30
0.0
 11
-1304.061325000001
 21
-1406.241705
 31
0.0
  0
LINE
  5
2AD
  8
DATA
  6
CONTINUOUS
 62
     7
 10
-1301.542869999999
 20
-1392.653130000001
 30
0.0
 11
-1301.542869999999
 21
-1397.468640000001
 31
0.0
  0
LINE
  5
2AE
  8
DATA
  6
CONTINUOUS
 62
     7
 10
-1296.145
 20
-1397.190000000001
 30
0.0
 11
-1296.145
 21
-1393.677135
 31
0.0
  0
LINE
  5
2AF
  8
DATA
  6
CONTINUOUS
 62
     7
 10
-1298.803045000001
 20
-1393.317344999999
 30
0.0
 11
-1298.803045000001
 21
-1396.80444
 31
0.0
  0
LINE
  5
2B0
  8
DATA
  6
CONTINUOUS
 62
     7
 10
-1310.371284999999
 20
-1401.536894999999
 30
0.0
 11
-1310.371284999999
 21
-1403.944635
 31
0.0
  0
LINE
  5
2B1
  8
DATA
  6
CONTINUOUS
 62
     7
 10
-1310.371284999999
 20
-1401.536894999999
 30
0.0
 11
-1312.862064999999
 21
-1401.536894999999
 31
0.0
  0
LINE
  5
2B2
  8
DATA
  6
CONTINUOUS
 62
     7
 10
-1312.862064999999
 20
-1401.536894999999
 30
0.0
 11
-1312.862064999999
 21
-1403.944635
 31
0.0
  0
ARC
  5
2B3
  8
DATA
  6
CONTINUOUS
 62
     7
 10
-1309.314355
 20
-1403.977095
 30
0.0
 40
1.046893239363371
 50
269.7118487927628
 51
1.77598700571366
  0
ARC
  5
2B4
  8
DATA
  6
CONTINUOUS
 62
     7
 10
-1309.3249
 20
-1403.977095
 30
0.0
 40
1.046887886189016
 50
178.2240129942728
 51
270.28815120719
  0
ARC
  5
2B5
  8
DATA
  6
CONTINUOUS
 62
     7
 10
-1311.113905
 20
-1403.859839999999
 30
0.0
 40
1.750200312263885
 50
182.7769954500162
 51
207.3596066671712
  0
CIRCLE
  5
2B6
  8
DATA
  6
CONTINUOUS
 62
     7
 10
-1311.409105000001
 20
-1398.65868
 30
0.0
 40
1.425269999999728
  0
LINE
  5
2B7
  8
DATA
  6
CONTINUOUS
 62
     7
 10
-1287.068724999999
 20
-1406.241689999999
 30
0.0
 11
-1294.568724999999
 21
-1406.241689999999
 31
0.0
  0
LINE
  5
2B8
  8
DATA
  6
CONTINUOUS
 62
     7
 10
-1287.068724999999
 20
-1406.241689999999
 30
0.0
 11
-1287.068724999999
 21
-1401.53688
 31
0.0
  0
LINE
  5
2B9
  8
DATA
  6
CONTINUOUS
 62
     7
 10
-1287.068724999999
 20
-1401.536894999999
 30
0.0
 11
-1289.587164999999
 21
-1401.536894999999
 31
0.0
  0
LINE
  5
2BA
  8
DATA
  6
CONTINUOUS
 62
     7
 10
-1289.587164999999
 20
-1401.536894999999
 30
0.0
 11
-1289.587164999999
 21
-1403.944635
 31
0.0
  0
LINE
  5
2BB
  8
DATA
  6
CONTINUOUS
 62
     7
 10
-1304.061325000001
 20
-1406.241689999999
 30
0.0
 11
-1298.803045000001
 21
-1406.241674999999
 31
0.0
  0
LINE
  5
2BC
  8
DATA
  6
CONTINUOUS
 62
     7
 10
-1301.542885000001
 20
-1404.830249999999
 30
0.0
 11
-1300.186795
 21
-1404.830249999999
 31
0.0
  0
LINE
  5
2BD
  8
DATA
  6
CONTINUOUS
 62
     7
 10
-1301.542869999999
 20
-1404.830249999999
 30
0.0
 11
-1301.542869999999
 21
-1398.907740000001
 31
0.0
  0
LINE
  5
2BE
  8
DATA
  6
CONTINUOUS
 62
     7
 10
-1301.542885000001
 20
-1398.907740000001
 30
0.0
 11
-1300.186795
 21
-1398.907740000001
 31
0.0
  0
LINE
  5
2BF
  8
DATA
  6
CONTINUOUS
 62
     7
 10
-1298.803045000001
 20
-1404.16605
 30
0.0
 11
-1298.803045000001
 21
-1399.57194
 31
0.0
  0
ARC
  5
2C0
  8
DATA
  6
CONTINUOUS
 62
     7
 10
-1307.248600000001
 20
-1403.859839999999
 30
0.0
 40
1.750197821798144
 50
332.6403933328432
 51
357.2230045499548
  0
ARC
  5
2C1
  8
DATA
  6
CONTINUOUS
 62
     7
 10
-1290.633565
 20
-1403.977095
 30
0.0
 40
1.046893239363371
 50
269.7118487927628
 51
1.77598700571366
  0
ARC
  5
2C2
  8
DATA
  6
CONTINUOUS
 62
     7
 10
-1290.644095
 20
-1403.977095
 30
0.0
 40
1.046887886189016
 50
178.2240129942728
 51
270.28815120719
  0
LINE
  5
2C3
  8
DATA
  6
CONTINUOUS
 62
     7
 10
-1296.146214999999
 20
-1403.833935000001
 30
0.0
 11
-1296.146214999999
 21
-1399.848705
 31
0.0
  0
LINE
  5
2C4
  8
DATA
  6
CONTINUOUS
 62
     7
 10
-1301.542885000001
 20
-1397.468640000001
 30
0.0
 11
-1300.186795
 21
-1397.468640000001
 31
0.0
  0
LINE
  5
2C5
  8
DATA
  6
CONTINUOUS
 62
     7
 10
-1308.267969999999
 20
-1391.241705
 30
0.0
 11
-1305.50044
 21
-1391.241705
 31
0.0
  0
LINE
  5
2C6
  8
DATA
  6
CONTINUOUS
 62
     7
 10
-1313.775355
 20
-1391.241705
 30
0.0
 11
-1309.319635
 21
-1391.241705
 31
0.0
  0
LINE
  5
2C7
  8
DATA
  6
CONTINUOUS
 62
     7
 10
-1294.568724999999
 20
-1391.241705
 30
0.0
 11
-1291.690495000001
 21
-1391.241705
 31
0.0
  0
LINE
  5
2C8
  8
DATA
  6
CONTINUOUS
 62
     7
 10
-1304.061325000001
 20
-1391.241705
 30
0.0
 11
-1298.77413980778
 21
-1391.24171714061
 31
0.0
  0
LINE
  5
2C9
  8
DATA
  6
CONTINUOUS
 62
     7
 10
-1301.542885000001
 20
-1392.653145
 30
0.0
 11
-1300.186795
 21
-1392.653145
 31
0.0
  0
ARC
  5
2CA
  8
DATA
  6
CONTINUOUS
 62
     7
 10
-1300.170781806095
 20
-1402.199718059119
 30
0.0
 40
2.63058068007241
 50
269.6512199376213
 51
282.8264828068833
  0
ARC
  5
2CB
  8
DATA
  6
CONTINUOUS
 62
     7
 10
-1299.875325958799
 20
-1403.311875466841
 30
0.0
 40
1.481156855538868
 50
281.2331036226684
 51
306.8620088940702
  0
ARC
  5
2CC
  8
DATA
  6
CONTINUOUS
 62
     7
 10
-1299.27882795464
 20
-1399.619706067808
 30
0.0
 40
0.4781746722271509
 50
5.732980710521831
 51
52.35809750219261
  0
ARC
  5
2CD
  8
DATA
  6
CONTINUOUS
 62
     7
 10
-1300.170781806095
 20
-1401.538271940881
 30
0.0
 40
2.630580680073014
 50
77.17351719311677
 51
90.3487800623787
  0
ARC
  5
2CE
  8
DATA
  6
CONTINUOUS
 62
     7
 10
-1299.875325958799
 20
-1400.426114533158
 30
0.0
 40
1.481156855538815
 50
53.13799110588771
 51
78.76689637733169
  0
ARC
  5
2CF
  8
DATA
  6
CONTINUOUS
 62
     7
 10
-1297.597734999999
 20
-1399.946819999999
 30
0.0
 40
1.454832245871087
 50
3.867006359776176
 51
88.36163456789885
  0
ARC
  5
2D0
  8
DATA
  6
CONTINUOUS
 62
     7
 10
-1297.59907
 20
-1397.03694
 30
0.0
 40
1.456277909921379
 50
271.6892821046333
 51
356.0782829827044
  0
ARC
  5
2D1
  8
DATA
  6
CONTINUOUS
 62
     7
 10
-1299.27882795464
 20
-1396.756673932192
 30
0.0
 40
0.478174672228579
 50
307.6419024976743
 51
354.2670192894782
  0
ARC
  5
2D2
  8
DATA
  6
CONTINUOUS
 62
     7
 10
-1300.170781806095
 20
-1394.838108059119
 30
0.0
 40
2.630580680074229
 50
269.6512199376215
 51
282.8264828068832
  0
ARC
  5
2D3
  8
DATA
  6
CONTINUOUS
 62
     7
 10
-1299.875325958799
 20
-1395.950265466841
 30
0.0
 40
1.481156855538868
 50
281.2331036226684
 51
306.862008894056
  0
ARC
  5
2D4
  8
DATA
  6
CONTINUOUS
 62
     7
 10
-1299.27882795464
 20
-1393.365111067809
 30
0.0
 40
0.4781746722273326
 50
5.732980710738696
 51
52.35809750232571
  0
ARC
  5
2D5
  8
DATA
  6
CONTINUOUS
 62
     7
 10
-1300.170781806095
 20
-1395.28367694088
 30
0.0
 40
2.630580680073014
 50
77.17351719311677
 51
90.3487800623787
  0
ARC
  5
2D6
  8
DATA
  6
CONTINUOUS
 62
     7
 10
-1299.875325958799
 20
-1394.17151953316
 30
0.0
 40
1.48115685554027
 50
53.13799110592993
 51
78.76689637734542
  0
TEXT
  5
2D7
  8
DATA
 62
     7
 10
-1317.185789930556
 20
-1420.916276041667
 30
0.0
 40
4.332552083333333
  1
PROFESSIONAL
 41
0.7
 72
     1
 11
-1300.0
 21
-1418.75
 31
0.0
 73
     2
  0
ARC
  5
2D8
  8
DATA
  6
CONTINUOUS
 62
     7
 10
-1300.000000000102
 20
-1514.447764380178
 30
0.0
 40
0.222235619821954
 50
176.8251528746123
 51
3.174847125387743
  0
ARC
  5
2D9
  8
DATA
  6
CONTINUOUS
 62
     7
 10
-1301.035183915979
 20
-1514.54299113758
 30
0.0
 40
0.8203678318427197
 50
7.532080377348941
 51
112.4679196476381
  0
ARC
  5
2DA
  8
DATA
  6
CONTINUOUS
 62
     7
 10
-1301.470307082976
 20
-1513.598882190088
 30
0.0
 40
0.2222356198218735
 50
116.8251528744708
 51
303.1748471254764
  0
ARC
  5
2DB
  8
DATA
  6
CONTINUOUS
 62
     7
 10
-1302.070367831946
 20
-1512.750000000051
 30
0.0
 40
0.8203678318429037
 50
307.5320803775059
 51
52.46791964757515
  0
ARC
  5
2DC
  8
DATA
  6
CONTINUOUS
 62
     7
 10
-1300.000000000102
 20
-1511.052235619822
 30
0.0
 40
0.222235619821954
 50
356.8251528746122
 51
183.1748471253877
  0
ARC
  5
2DD
  8
DATA
  6
CONTINUOUS
 62
     7
 10
-1301.035183915979
 20
-1510.95700886242
 30
0.0
 40
0.8203678318436923
 50
247.5320803523619
 51
352.4679196226511
  0
ARC
  5
2DE
  8
DATA
  6
CONTINUOUS
 62
     7
 10
-1301.470307082976
 20
-1511.901117809912
 30
0.0
 40
0.2222356198223889
 50
56.82515287452356
 51
243.1748471255292
  0
ARC
  5
2DF
  8
DATA
  6
CONTINUOUS
 62
     7
 10
-1298.964816084223
 20
-1514.54299113758
 30
0.0
 40
0.8203678318429972
 50
67.53208035247935
 51
172.4679196226677
  0
ARC
  5
2E0
  8
DATA
  6
CONTINUOUS
 62
     7
 10
-1298.529692917227
 20
-1513.598882190088
 30
0.0
 40
0.2222356198223889
 50
236.8251528745235
 51
63.1748471255292
  0
ARC
  5
2E1
  8
DATA
  6
CONTINUOUS
 62
     7
 10
-1297.929632168258
 20
-1512.750000000051
 30
0.0
 40
0.8203678318445744
 50
127.5320803524249
 51
232.4679196224942
  0
ARC
  5
2E2
  8
DATA
  6
CONTINUOUS
 62
     7
 10
-1298.964816084223
 20
-1510.95700886242
 30
0.0
 40
0.8203678318445229
 50
187.5320803773323
 51
292.4679196475207
  0
ARC
  5
2E3
  8
DATA
  6
CONTINUOUS
 62
     7
 10
-1298.529692917227
 20
-1511.901117809912
 30
0.0
 40
0.2222356198218735
 50
296.8251528744708
 51
123.1748471254765
  0
CIRCLE
  5
2E4
  8
DATA
  6
CONTINUOUS
 62
     7
 10
-1300.0
 20
-1512.75
 30
0.0
 40
4.050000000001091
  0
ARC
  5
2E5
  8
DATA
  6
CONTINUOUS
 62
     7
 10
-1300.000000000102
 20
-884.4477643801783
 30
0.0
 40
0.222235619821954
 50
176.8251528746123
 51
3.174847125387743
  0
ARC
  5
2E6
  8
DATA
  6
CONTINUOUS
 62
     7
 10
-1301.035183915979
 20
-884.5429911375795
 30
0.0
 40
0.8203678318427197
 50
7.532080377348941
 51
112.4679196476381
  0
ARC
  5
2E7
  8
DATA
  6
CONTINUOUS
 62
     7
 10
-1301.470307082976
 20
-883.5988821900883
 30
0.0
 40
0.2222356198218735
 50
116.8251528744708
 51
303.1748471254764
  0
ARC
  5
2E8
  8
DATA
  6
CONTINUOUS
 62
     7
 10
-1302.070367831946
 20
-882.7500000000509
 30
0.0
 40
0.8203678318429037
 50
307.5320803775059
 51
52.46791964757515
  0
ARC
  5
2E9
  8
DATA
  6
CONTINUOUS
 62
     7
 10
-1300.000000000102
 20
-881.0522356198217
 30
0.0
 40
0.222235619821954
 50
356.8251528746122
 51
183.1748471253877
  0
ARC
  5
2EA
  8
DATA
  6
CONTINUOUS
 62
     7
 10
-1301.035183915979
 20
-880.9570088624205
 30
0.0
 40
0.8203678318436923
 50
247.5320803523619
 51
352.4679196226511
  0
ARC
  5
2EB
  8
DATA
  6
CONTINUOUS
 62
     7
 10
-1301.470307082976
 20
-881.9011178099117
 30
0.0
 40
0.2222356198223889
 50
56.82515287452356
 51
243.1748471255292
  0
ARC
  5
2EC
  8
DATA
  6
CONTINUOUS
 62
     7
 10
-1298.964816084223
 20
-884.5429911375795
 30
0.0
 40
0.8203678318429972
 50
67.53208035247935
 51
172.4679196226677
  0
ARC
  5
2ED
  8
DATA
  6
CONTINUOUS
 62
     7
 10
-1298.529692917227
 20
-883.5988821900883
 30
0.0
 40
0.2222356198223889
 50
236.8251528745235
 51
63.1748471255292
  0
ARC
  5
2EE
  8
DATA
  6
CONTINUOUS
 62
     7
 10
-1297.929632168258
 20
-882.7500000000509
 30
0.0
 40
0.8203678318445744
 50
127.5320803524249
 51
232.4679196224942
  0
ARC
  5
2EF
  8
DATA
  6
CONTINUOUS
 62
     7
 10
-1298.964816084223
 20
-880.9570088624205
 30
0.0
 40
0.8203678318445229
 50
187.5320803773323
 51
292.4679196475207
  0
ARC
  5
2F0
  8
DATA
  6
CONTINUOUS
 62
     7
 10
-1298.529692917227
 20
-881.9011178099117
 30
0.0
 40
0.2222356198218735
 50
296.8251528744708
 51
123.1748471254765
  0
CIRCLE
  5
2F1
  8
DATA
  6
CONTINUOUS
 62
     7
 10
-1300.0
 20
-882.75
 30
0.0
 40
4.050000000001091
  0
LINE
  5
2F2
  8
DATA
  6
CONTINUOUS
 62
     7
 10
-1520.0
 20
-1520.25
 30
0.0
 11
-1080.0
 21
-1520.25
 31
0.0
  0
ARC
  5
2F3
  8
DATA
  6
CONTINUOUS
 62
     7
 10
-1127.500000000102
 20
-1514.447764380178
 30
0.0
 40
0.222235619821954
 50
176.8251528746123
 51
3.174847125387743
  0
ARC
  5
2F4
  8
DATA
  6
CONTINUOUS
 62
     7
 10
-1128.535183915979
 20
-1514.54299113758
 30
0.0
 40
0.8203678318427197
 50
7.532080377348941
 51
112.4679196476381
  0
ARC
  5
2F5
  8
DATA
  6
CONTINUOUS
 62
     7
 10
-1128.970307082976
 20
-1513.598882190088
 30
0.0
 40
0.2222356198218735
 50
116.8251528744708
 51
303.1748471254764
  0
ARC
  5
2F6
  8
DATA
  6
CONTINUOUS
 62
     7
 10
-1129.570367831946
 20
-1512.750000000051
 30
0.0
 40
0.8203678318429037
 50
307.5320803775059
 51
52.46791964757515
  0
ARC
  5
2F7
  8
DATA
  6
CONTINUOUS
 62
     7
 10
-1127.500000000102
 20
-1511.052235619822
 30
0.0
 40
0.222235619821954
 50
356.8251528746122
 51
183.1748471253877
  0
ARC
  5
2F8
  8
DATA
  6
CONTINUOUS
 62
     7
 10
-1128.535183915979
 20
-1510.95700886242
 30
0.0
 40
0.8203678318436923
 50
247.5320803523619
 51
352.4679196226511
  0
ARC
  5
2F9
  8
DATA
  6
CONTINUOUS
 62
     7
 10
-1128.970307082976
 20
-1511.901117809912
 30
0.0
 40
0.2222356198223889
 50
56.82515287452356
 51
243.1748471255292
  0
ARC
  5
2FA
  8
DATA
  6
CONTINUOUS
 62
     7
 10
-1126.464816084223
 20
-1514.54299113758
 30
0.0
 40
0.8203678318429972
 50
67.53208035247935
 51
172.4679196226677
  0
ARC
  5
2FB
  8
DATA
  6
CONTINUOUS
 62
     7
 10
-1126.029692917227
 20
-1513.598882190088
 30
0.0
 40
0.2222356198223889
 50
236.8251528745235
 51
63.1748471255292
  0
ARC
  5
2FC
  8
DATA
  6
CONTINUOUS
 62
     7
 10
-1125.429632168258
 20
-1512.750000000051
 30
0.0
 40
0.8203678318445744
 50
127.5320803524249
 51
232.4679196224942
  0
ARC
  5
2FD
  8
DATA
  6
CONTINUOUS
 62
     7
 10
-1126.464816084223
 20
-1510.95700886242
 30
0.0
 40
0.8203678318445229
 50
187.5320803773323
 51
292.4679196475207
  0
ARC
  5
2FE
  8
DATA
  6
CONTINUOUS
 62
     7
 10
-1126.029692917227
 20
-1511.901117809912
 30
0.0
 40
0.2222356198218735
 50
296.8251528744708
 51
123.1748471254765
  0
CIRCLE
  5
2FF
  8
DATA
  6
CONTINUOUS
 62
     7
 10
-1127.5
 20
-1512.75
 30
0.0
 40
4.050000000001091
  0
ARC
  5
300
  8
DATA
  6
CONTINUOUS
 62
     7
 10
-1127.500000000102
 20
-884.4477643801783
 30
0.0
 40
0.222235619821954
 50
176.8251528746123
 51
3.174847125387743
  0
ARC
  5
301
  8
DATA
  6
CONTINUOUS
 62
     7
 10
-1128.535183915979
 20
-884.5429911375795
 30
0.0
 40
0.8203678318427197
 50
7.532080377348941
 51
112.4679196476381
  0
ARC
  5
302
  8
DATA
  6
CONTINUOUS
 62
     7
 10
-1128.970307082976
 20
-883.5988821900883
 30
0.0
 40
0.2222356198218735
 50
116.8251528744708
 51
303.1748471254764
  0
ARC
  5
303
  8
DATA
  6
CONTINUOUS
 62
     7
 10
-1129.570367831946
 20
-882.7500000000509
 30
0.0
 40
0.8203678318429037
 50
307.5320803775059
 51
52.46791964757515
  0
ARC
  5
304
  8
DATA
  6
CONTINUOUS
 62
     7
 10
-1127.500000000102
 20
-881.0522356198217
 30
0.0
 40
0.222235619821954
 50
356.8251528746122
 51
183.1748471253877
  0
ARC
  5
305
  8
DATA
  6
CONTINUOUS
 62
     7
 10
-1128.535183915979
 20
-880.9570088624205
 30
0.0
 40
0.8203678318436923
 50
247.5320803523619
 51
352.4679196226511
  0
ARC
  5
306
  8
DATA
  6
CONTINUOUS
 62
     7
 10
-1128.970307082976
 20
-881.9011178099117
 30
0.0
 40
0.2222356198223889
 50
56.82515287452356
 51
243.1748471255292
  0
ARC
  5
307
  8
DATA
  6
CONTINUOUS
 62
     7
 10
-1126.464816084223
 20
-884.5429911375795
 30
0.0
 40
0.8203678318429972
 50
67.53208035247935
 51
172.4679196226677
  0
ARC
  5
308
  8
DATA
  6
CONTINUOUS
 62
     7
 10
-1126.029692917227
 20
-883.5988821900883
 30
0.0
 40
0.2222356198223889
 50
236.8251528745235
 51
63.1748471255292
  0
ARC
  5
309
  8
DATA
  6
CONTINUOUS
 62
     7
 10
-1125.429632168258
 20
-882.7500000000509
 30
0.0
 40
0.8203678318445744
 50
127.5320803524249
 51
232.4679196224942
  0
ARC
  5
30A
  8
DATA
  6
CONTINUOUS
 62
     7
 10
-1126.464816084223
 20
-880.9570088624205
 30
0.0
 40
0.8203678318445229
 50
187.5320803773323
 51
292.4679196475207
  0
ARC
  5
30B
  8
DATA
  6
CONTINUOUS
 62
     7
 10
-1126.029692917227
 20
-881.9011178099117
 30
0.0
 40
0.2222356198218735
 50
296.8251528744708
 51
123.1748471254765
  0
CIRCLE
  5
30C
  8
DATA
  6
CONTINUOUS
 62
     7
 10
-1127.5
 20
-882.75
 30
0.0
 40
4.050000000001091
  0
ARC
  5
30D
  8
DATA
  6
CONTINUOUS
 62
     7
 10
-1472.500000000102
 20
-1514.447764380178
 30
0.0
 40
0.222235619821954
 50
176.8251528746123
 51
3.174847125387743
  0
ARC
  5
30E
  8
DATA
  6
CONTINUOUS
 62
     7
 10
-1473.535183915979
 20
-1514.54299113758
 30
0.0
 40
0.8203678318427197
 50
7.532080377348941
 51
112.4679196476381
  0
ARC
  5
30F
  8
DATA
  6
CONTINUOUS
 62
     7
 10
-1473.970307082976
 20
-1513.598882190088
 30
0.0
 40
0.2222356198218735
 50
116.8251528744708
 51
303.1748471254764
  0
ARC
  5
310
  8
DATA
  6
CONTINUOUS
 62
     7
 10
-1474.570367831946
 20
-1512.750000000051
 30
0.0
 40
0.8203678318429037
 50
307.5320803775059
 51
52.46791964757515
  0
ARC
  5
311
  8
DATA
  6
CONTINUOUS
 62
     7
 10
-1472.500000000102
 20
-1511.052235619822
 30
0.0
 40
0.222235619821954
 50
356.8251528746122
 51
183.1748471253877
  0
ARC
  5
312
  8
DATA
  6
CONTINUOUS
 62
     7
 10
-1473.535183915979
 20
-1510.95700886242
 30
0.0
 40
0.8203678318436923
 50
247.5320803523619
 51
352.4679196226511
  0
ARC
  5
313
  8
DATA
  6
CONTINUOUS
 62
     7
 10
-1473.970307082976
 20
-1511.901117809912
 30
0.0
 40
0.2222356198223889
 50
56.82515287452356
 51
243.1748471255292
  0
ARC
  5
314
  8
DATA
  6
CONTINUOUS
 62
     7
 10
-1471.464816084223
 20
-1514.54299113758
 30
0.0
 40
0.8203678318429972
 50
67.53208035247935
 51
172.4679196226677
  0
ARC
  5
315
  8
DATA
  6
CONTINUOUS
 62
     7
 10
-1471.029692917227
 20
-1513.598882190088
 30
0.0
 40
0.2222356198223889
 50
236.8251528745235
 51
63.1748471255292
  0
ARC
  5
316
  8
DATA
  6
CONTINUOUS
 62
     7
 10
-1470.429632168258
 20
-1512.750000000051
 30
0.0
 40
0.8203678318445744
 50
127.5320803524249
 51
232.4679196224942
  0
ARC
  5
317
  8
DATA
  6
CONTINUOUS
 62
     7
 10
-1471.464816084223
 20
-1510.95700886242
 30
0.0
 40
0.8203678318445229
 50
187.5320803773323
 51
292.4679196475207
  0
ARC
  5
318
  8
DATA
  6
CONTINUOUS
 62
     7
 10
-1471.029692917227
 20
-1511.901117809912
 30
0.0
 40
0.2222356198218735
 50
296.8251528744708
 51
123.1748471254765
  0
CIRCLE
  5
319
  8
DATA
  6
CONTINUOUS
 62
     7
 10
-1472.5
 20
-1512.75
 30
0.0
 40
4.050000000001091
  0
ARC
  5
31A
  8
DATA
  6
CONTINUOUS
 62
     7
 10
-1472.500000000102
 20
-884.4477643801783
 30
0.0
 40
0.222235619821954
 50
176.8251528746123
 51
3.174847125387743
  0
ARC
  5
31B
  8
DATA
  6
CONTINUOUS
 62
     7
 10
-1473.535183915979
 20
-884.5429911375795
 30
0.0
 40
0.8203678318427197
 50
7.532080377348941
 51
112.4679196476381
  0
ARC
  5
31C
  8
DATA
  6
CONTINUOUS
 62
     7
 10
-1473.970307082976
 20
-883.5988821900883
 30
0.0
 40
0.2222356198218735
 50
116.8251528744708
 51
303.1748471254764
  0
ARC
  5
31D
  8
DATA
  6
CONTINUOUS
 62
     7
 10
-1474.570367831946
 20
-882.7500000000509
 30
0.0
 40
0.8203678318429037
 50
307.5320803775059
 51
52.46791964757515
  0
ARC
  5
31E
  8
DATA
  6
CONTINUOUS
 62
     7
 10
-1472.500000000102
 20
-881.0522356198217
 30
0.0
 40
0.222235619821954
 50
356.8251528746122
 51
183.1748471253877
  0
ARC
  5
31F
  8
DATA
  6
CONTINUOUS
 62
     7
 10
-1473.535183915979
 20
-880.9570088624205
 30
0.0
 40
0.8203678318436923
 50
247.5320803523619
 51
352.4679196226511
  0
ARC
  5
320
  8
DATA
  6
CONTINUOUS
 62
     7
 10
-1473.970307082976
 20
-881.9011178099117
 30
0.0
 40
0.2222356198223889
 50
56.82515287452356
 51
243.1748471255292
  0
ARC
  5
321
  8
DATA
  6
CONTINUOUS
 62
     7
 10
-1471.464816084223
 20
-884.5429911375795
 30
0.0
 40
0.8203678318429972
 50
67.53208035247935
 51
172.4679196226677
  0
ARC
  5
322
  8
DATA
  6
CONTINUOUS
 62
     7
 10
-1471.029692917227
 20
-883.5988821900883
 30
0.0
 40
0.2222356198223889
 50
236.8251528745235
 51
63.1748471255292
  0
ARC
  5
323
  8
DATA
  6
CONTINUOUS
 62
     7
 10
-1470.429632168258
 20
-882.7500000000509
 30
0.0
 40
0.8203678318445744
 50
127.5320803524249
 51
232.4679196224942
  0
ARC
  5
324
  8
DATA
  6
CONTINUOUS
 62
     7
 10
-1471.464816084223
 20
-880.9570088624205
 30
0.0
 40
0.8203678318445229
 50
187.5320803773323
 51
292.4679196475207
  0
ARC
  5
325
  8
DATA
  6
CONTINUOUS
 62
     7
 10
-1471.029692917227
 20
-881.9011178099117
 30
0.0
 40
0.2222356198218735
 50
296.8251528744708
 51
123.1748471254765
  0
CIRCLE
  5
326
  8
DATA
  6
CONTINUOUS
 62
     7
 10
-1472.5
 20
-882.75
 30
0.0
 40
4.050000000001091
  0
LINE
  5
327
  8
DATA
  6
CONTINUOUS
 62
     7
 10
-1520.0
 20
-871.75
 30
0.0
 11
-1080.0
 21
-871.75
 31
0.0
  0
LINE
  5
328
  8
DATA
  6
CONTINUOUS
 62
     7
 10
-1520.0
 20
-1523.75
 30
0.0
 11
-1080.0
 21
-1523.75
 31
0.0
  0
LINE
  5
329
  8
DATA
  6
CONTINUOUS
 62
     7
 10
-1520.0
 20
-1533.75
 30
0.0
 11
-1080.0
 21
-1533.75
 31
0.0
  0
LINE
  5
32A
  8
DATA
  6
CONTINUOUS
 62
     7
 10
-1492.654308332174
 20
-1559.75
 30
0.0
 11
-1492.654308332174
 21
-1556.75
 31
0.0
  0
LINE
  5
32B
  8
DATA
  6
CONTINUOUS
 62
     7
 10
-1103.0
 20
-1559.75
 30
0.0
 11
-1103.0
 21
-1556.75
 31
0.0
  0
ARC
  5
32C
  8
DATA
  6
CONTINUOUS
 62
     7
 10
-1460.897727272727
 20
-1521.727272727273
 30
0.0
 40
60.31272347194502
 50
191.4983560040668
 51
215.4987753478374
  0
ARC
  5
32D
  8
DATA
  6
CONTINUOUS
 62
     7
 10
-1139.102272727273
 20
-1521.727272727273
 30
0.0
 40
60.31272347194501
 50
324.5012246521626
 51
348.5016439959332
  0
LINE
  5
32E
  8
DATA
  6
______-8
 62
     7
 10
-1300.0
 20
-275.0
 30
0.0
 11
-1300.0
 21
-675.0
 31
0.0
  0
CIRCLE
  5
32F
  8
DATA
  6
CONTINUOUS
 62
     7
 10
-1145.0
 20
-570.0
 30
0.0
 40
4.300000000001091
  0
CIRCLE
  5
330
  8
DATA
  6
CONTINUOUS
 62
     7
 10
-1145.0
 20
-570.0
 30
0.0
 40
12.0
  0
POLYLINE
  5
331
  8
DATA
  6
CONTINUOUS
 62
     7
 66
     1
 10
0.0
 20
0.0
 30
0.0
 70
   129
  0
VERTEX
  5
732
  8
DATA
  6
CONTINUOUS
 62
     7
 10
-1154.0
 20
-570.0
 30
0.0
  0
VERTEX
  5
733
  8
DATA
  6
CONTINUOUS
 62
     7
 10
-1149.5
 20
-577.7942286340603
 30
0.0
  0
VERTEX
  5
734
  8
DATA
  6
CONTINUOUS
 62
     7
 10
-1140.5
 20
-577.7942286340603
 30
0.0
  0
VERTEX
  5
735
  8
DATA
  6
CONTINUOUS
 62
     7
 10
-1136.0
 20
-570.0
 30
0.0
  0
VERTEX
  5
736
  8
DATA
  6
CONTINUOUS
 62
     7
 10
-1140.5
 20
-562.2057713659397
 30
0.0
  0
VERTEX
  5
737
  8
DATA
  6
CONTINUOUS
 62
     7
 10
-1149.5
 20
-562.2057713659397
 30
0.0
  0
SEQEND
  5
779
  8
DATA
  6
CONTINUOUS
 62
     7
  0
CIRCLE
  5
339
  8
DATA
  6
CONTINUOUS
 62
     7
 10
-1455.0
 20
-570.0
 30
0.0
 40
4.300000000001091
  0
CIRCLE
  5
33A
  8
DATA
  6
CONTINUOUS
 62
     7
 10
-1455.0
 20
-570.0
 30
0.0
 40
12.0
  0
POLYLINE
  5
33B
  8
DATA
  6
CONTINUOUS
 62
     7
 66
     1
 10
0.0
 20
0.0
 30
0.0
 70
   129
  0
VERTEX
  5
738
  8
DATA
  6
CONTINUOUS
 62
     7
 10
-1464.0
 20
-570.0
 30
0.0
  0
VERTEX
  5
739
  8
DATA
  6
CONTINUOUS
 62
     7
 10
-1459.5
 20
-577.7942286340603
 30
0.0
  0
VERTEX
  5
73A
  8
DATA
  6
CONTINUOUS
 62
     7
 10
-1450.5
 20
-577.7942286340603
 30
0.0
  0
VERTEX
  5
73B
  8
DATA
  6
CONTINUOUS
 62
     7
 10
-1446.0
 20
-570.0
 30
0.0
  0
VERTEX
  5
73C
  8
DATA
  6
CONTINUOUS
 62
     7
 10
-1450.5
 20
-562.2057713659397
 30
0.0
  0
VERTEX
  5
73D
  8
DATA
  6
CONTINUOUS
 62
     7
 10
-1459.5
 20
-562.2057713659397
 30
0.0
  0
SEQEND
  5
77A
  8
DATA
  6
CONTINUOUS
 62
     7
  0
ARC
  5
343
  8
DATA
  6
CONTINUOUS
 62
     7
 10
-1300.0
 20
46.9999999999992
 30
0.0
 40
696.9999999999992
 50
254.0992026432316
 51
285.9007973567684
  0
LINE
  5
344
  8
DATA
  6
CONTINUOUS
 62
     7
 10
-1370.0
 20
-292.0154870753177
 30
0.0
 11
-1370.0
 21
-397.75
 31
0.0
  0
LINE
  5
345
  8
DATA
  6
CONTINUOUS
 62
     7
 10
-1370.0
 20
-465.25
 30
0.0
 11
-1370.0
 21
-469.4999999999999
 31
0.0
  0
LINE
  5
346
  8
DATA
  6
CONTINUOUS
 62
     7
 10
-1230.0
 20
-292.0
 30
0.0
 11
-1230.0
 21
-397.75
 31
0.0
  0
LINE
  5
347
  8
DATA
  6
CONTINUOUS
 62
     7
 10
-1230.0
 20
-465.25
 30
0.0
 11
-1230.0
 21
-469.4999999999999
 31
0.0
  0
LINE
  5
348
  8
DATA
  6
CONTINUOUS
 62
     7
 10
-1349.5
 20
-490.0
 30
0.0
 11
-1250.5
 21
-490.0
 31
0.0
  0
LINE
  5
349
  8
DATA
  6
CONTINUOUS
 62
     7
 10
-1247.5
 20
-447.75
 30
0.0
 11
-1352.5
 21
-447.75
 31
0.0
  0
LINE
  5
34A
  8
DATA
  6
CONTINUOUS
 62
     7
 10
-1352.5
 20
-415.25
 30
0.0
 11
-1247.5
 21
-415.25
 31
0.0
  0
ARC
  5
34B
  8
DATA
  6
CONTINUOUS
 62
     7
 10
-1370.0
 20
-433.5
 30
0.0
 40
36.0
 50
90.0
 51
270.0
  0
ARC
  5
34C
  8
DATA
  6
CONTINUOUS
 62
     7
 10
-1229.236111111111
 20
-432.75
 30
0.0
 40
35.25827599634684
 50
268.7585600008912
 51
91.24143999910895
  0
ARC
  5
34D
  8
DATA
  6
CONTINUOUS
 62
     7
 10
-1352.5
 20
-397.75
 30
0.0
 40
17.49999999999947
 50
179.1814610210267
 51
270.0
  0
ARC
  5
34E
  8
DATA
  6
CONTINUOUS
 62
     7
 10
-1352.5
 20
-465.25
 30
0.0
 40
17.5
 50
90.0
 51
180.8185389789733
  0
ARC
  5
34F
  8
DATA
  6
CONTINUOUS
 62
     7
 10
-1247.5
 20
-397.75
 30
0.0
 40
17.5
 50
270.0
 51
0.8185389789733222
  0
ARC
  5
350
  8
DATA
  6
CONTINUOUS
 62
     7
 10
-1247.5
 20
-465.25
 30
0.0
 40
17.49999999999947
 50
359.1814610210267
 51
90.0
  0
ARC
  5
351
  8
DATA
  6
CONTINUOUS
 62
     7
 10
-1349.5
 20
-469.5
 30
0.0
 40
20.5
 50
180.0
 51
270.0
  0
ARC
  5
352
  8
DATA
  6
CONTINUOUS
 62
     7
 10
-1250.5
 20
-469.5
 30
0.0
 40
20.5
 50
270.0
 51
0.0
  0
ARC
  5
353
  8
DATA
  6
CONTINUOUS
 62
     7
 10
-1300.0
 20
46.9999999999992
 30
0.0
 40
686.9999999999992
 50
254.099202643232
 51
285.9007973567679
  0
ARC
  5
354
  8
DATA
  6
CONTINUOUS
 62
     7
 10
-1300.0
 20
46.9999999999992
 30
0.0
 40
676.9999999999992
 50
254.0992026432306
 51
285.9007973567694
  0
LINE
  5
355
  8
DATA
  6
CONTINUOUS
 62
     7
 10
-1382.063867765445
 20
-285.0
 30
0.0
 11
-1503.971522075323
 21
-402.2388505277822
 31
0.0
  0
LINE
  5
356
  8
DATA
  6
CONTINUOUS
 62
     7
 10
-1372.833279001067
 20
-292.1951380622319
 30
0.0
 11
-1382.063867765445
 21
-285.0
 31
0.0
  0
LINE
  5
357
  8
DATA
  6
CONTINUOUS
 62
     7
 10
-1386.128248328049
 20
-287.5354500294702
 30
0.0
 11
-1397.300247257489
 21
-298.2795851701227
 31
0.0
  0
LINE
  5
358
  8
DATA
  6
CONTINUOUS
 62
     7
 10
-1397.300247257489
 20
-298.2795851701227
 30
0.0
 11
-1399.074956050561
 21
-300.4719154113572
 31
0.0
  0
LINE
  5
359
  8
DATA
  6
CONTINUOUS
 62
     7
 10
-1385.339550433557
 20
-288.1502309914578
 30
0.0
 11
-1386.128248328049
 21
-287.5354500294702
 31
0.0
  0
LINE
  5
35A
  8
DATA
  6
CONTINUOUS
 62
     7
 10
-1488.062824757384
 20
-386.0517380825788
 30
0.0
 11
-1490.107369571741
 21
-387.5323921616954
 31
0.0
  0
LINE
  5
35B
  8
DATA
  6
CONTINUOUS
 62
     7
 10
-1501.279368501178
 20
-398.2765273023472
 30
0.0
 11
-1490.107369571741
 21
-387.5323921616954
 31
0.0
  0
LINE
  5
35C
  8
DATA
  6
CONTINUOUS
 62
     7
 10
-1500.69583940721
 20
-399.0886195363282
 30
0.0
 11
-1501.279368501178
 21
-398.2765273023472
 31
0.0
  0
LINE
  5
35D
  8
DATA
  6
CONTINUOUS
 62
     7
 10
-1399.074956050561
 20
-300.4719154113572
 30
0.0
 11
-1488.062824757384
 21
-386.0517380825788
 31
0.0
  0
LINE
  5
35E
  8
DATA
  6
CONTINUOUS
 62
     7
 10
-1500.537176485776
 20
-407.0183986444171
 30
0.0
 11
-1503.971522075323
 21
-402.2388505277822
 31
0.0
  0
LINE
  5
35F
  8
DATA
  6
CONTINUOUS
 62
     7
 10
-1396.613819601276
 20
-303.1690350208013
 30
0.0
 11
-1491.863612178654
 21
-394.7709632015996
 31
0.0
  0
LINE
  5
360
  8
DATA
  6
CONTINUOUS
 62
     7
 10
-1503.944670072984
 20
-419.6860092635584
 30
0.0
 11
-1519.807858257303
 21
-580.9456165476138
 31
0.0
  0
ARC
  5
361
  8
DATA
  6
CONTINUOUS
 62
     7
 10
-1480.000000000001
 20
-584.8615354648534
 30
0.0
 40
39.99999999999789
 50
174.3818607853039
 51
254.0992026432348
  0
ARC
  5
362
  8
DATA
  6
CONTINUOUS
 62
     7
 10
-1464.13681181568
 20
-423.601928180798
 30
0.0
 40
39.99999999999978
 50
133.8815693760077
 51
174.3818607853043
  0
ARC
  5
363
  8
DATA
  6
CONTINUOUS
 62
     7
 10
-1368.887019238302
 20
-332.0
 30
0.0
 40
40.0
 50
90.0
 51
133.8815693760074
  0
LINE
  5
364
  8
DATA
  6
CONTINUOUS
 62
     7
 10
-1203.386180398724
 20
-303.1690350208013
 30
0.0
 11
-1108.136387821346
 21
-394.7709632015996
 31
0.0
  0
LINE
  5
365
  8
DATA
  6
CONTINUOUS
 62
     7
 10
-1096.055329927016
 20
-419.6860092635584
 30
0.0
 11
-1080.192141742697
 21
-580.9456165476138
 31
0.0
  0
ARC
  5
366
  8
DATA
  6
CONTINUOUS
 62
     7
 10
-1119.999999999999
 20
-584.8615354648534
 30
0.0
 40
39.99999999999791
 50
285.9007973567652
 51
5.6181392146961
  0
ARC
  5
367
  8
DATA
  6
CONTINUOUS
 62
     7
 10
-1135.86318818432
 20
-423.601928180798
 30
0.0
 40
39.99999999999992
 50
5.618139214695713
 51
46.11843062399232
  0
ARC
  5
368
  8
DATA
  6
CONTINUOUS
 62
     7
 10
-1231.112980761699
 20
-332.0
 30
0.0
 40
40.00000000000014
 50
46.11843062399235
 51
89.99999999999969
  0
LINE
  5
369
  8
DATA
  6
CONTINUOUS
 62
     7
 10
-1493.992705508658
 20
-420.6649889928684
 30
0.0
 11
-1509.855893692981
 21
-581.9245962769564
 31
0.0
  0
LINE
  5
36A
  8
DATA
  6
CONTINUOUS
 62
     7
 10
-1484.040740944332
 20
-421.6439687221784
 30
0.0
 11
-1499.903929128645
 21
-582.90357600617
 31
0.0
  0
LINE
  5
36B
  8
DATA
  6
CONTINUOUS
 62
     7
 10
-1370.612228662293
 20
-292.03722166261
 30
0.0
 11
-1484.931912087911
 21
-401.9787044463996
 31
0.0
  0
LINE
  5
36C
  8
DATA
  6
CONTINUOUS
 62
     7
 10
-1369.938398484565
 20
-305.2631697173771
 30
0.0
 11
-1478.000211997167
 21
-409.1864456911989
 31
0.0
  0
ARC
  5
36D
  8
DATA
  6
CONTINUOUS
 62
     7
 10
-1464.13681181568
 20
-423.6019281807981
 30
0.0
 40
29.99999999999988
 50
133.8815693760087
 51
174.3818607853042
  0
ARC
  5
36E
  8
DATA
  6
CONTINUOUS
 62
     7
 10
-1480.000000000044
 20
-584.8615354648823
 30
0.0
 40
29.99999999995849
 50
174.3818607853038
 51
254.0992026433101
  0
ARC
  5
36F
  8
DATA
  6
CONTINUOUS
 62
     7
 10
-1479.999999999919
 20
-584.8615354647973
 30
0.0
 40
20.00000000007468
 50
174.381860785304
 51
254.09920264302
  0
ARC
  5
370
  8
DATA
  6
CONTINUOUS
 62
     7
 10
-1464.136811815681
 20
-423.6019281807986
 30
0.0
 40
20.00000000000019
 50
133.8815693760073
 51
174.3818607853034
  0
LINE
  5
371
  8
DATA
  6
CONTINUOUS
 62
     7
 10
-1217.936132234555
 20
-285.0
 30
0.0
 11
-1096.028477924677
 21
-402.2388505277822
 31
0.0
  0
LINE
  5
372
  8
DATA
  6
CONTINUOUS
 62
     7
 10
-1227.166720998933
 20
-292.1951380622319
 30
0.0
 11
-1217.936132234555
 21
-285.0
 31
0.0
  0
LINE
  5
373
  8
DATA
  6
CONTINUOUS
 62
     7
 10
-1213.871751671951
 20
-287.5354500294702
 30
0.0
 11
-1202.699752742511
 21
-298.2795851701227
 31
0.0
  0
LINE
  5
374
  8
DATA
  6
CONTINUOUS
 62
     7
 10
-1202.699752742511
 20
-298.2795851701227
 30
0.0
 11
-1200.925043949439
 21
-300.4719154113572
 31
0.0
  0
LINE
  5
375
  8
DATA
  6
CONTINUOUS
 62
     7
 10
-1214.660449566443
 20
-288.1502309914578
 30
0.0
 11
-1213.871751671951
 21
-287.5354500294702
 31
0.0
  0
LINE
  5
376
  8
DATA
  6
CONTINUOUS
 62
     7
 10
-1111.937175242616
 20
-386.0517380825788
 30
0.0
 11
-1109.892630428259
 21
-387.5323921616954
 31
0.0
  0
LINE
  5
377
  8
DATA
  6
CONTINUOUS
 62
     7
 10
-1098.720631498822
 20
-398.2765273023472
 30
0.0
 11
-1109.892630428259
 21
-387.5323921616954
 31
0.0
  0
LINE
  5
378
  8
DATA
  6
CONTINUOUS
 62
     7
 10
-1099.30416059279
 20
-399.0886195363282
 30
0.0
 11
-1098.720631498822
 21
-398.2765273023472
 31
0.0
  0
LINE
  5
379
  8
DATA
  6
CONTINUOUS
 62
     7
 10
-1200.925043949439
 20
-300.4719154113572
 30
0.0
 11
-1111.937175242616
 21
-386.0517380825788
 31
0.0
  0
LINE
  5
37A
  8
DATA
  6
CONTINUOUS
 62
     7
 10
-1099.462823514224
 20
-407.0183986444171
 30
0.0
 11
-1096.028477924677
 21
-402.2388505277822
 31
0.0
  0
LINE
  5
37B
  8
DATA
  6
CONTINUOUS
 62
     7
 10
-1106.007294491342
 20
-420.6649889928684
 30
0.0
 11
-1090.144106307019
 21
-581.9245962769564
 31
0.0
  0
LINE
  5
37C
  8
DATA
  6
CONTINUOUS
 62
     7
 10
-1115.959259055668
 20
-421.6439687221784
 30
0.0
 11
-1100.096070871355
 21
-582.90357600617
 31
0.0
  0
LINE
  5
37D
  8
DATA
  6
CONTINUOUS
 62
     7
 10
-1229.387771337707
 20
-292.03722166261
 30
0.0
 11
-1115.068087912089
 21
-401.9787044463996
 31
0.0
  0
LINE
  5
37E
  8
DATA
  6
CONTINUOUS
 62
     7
 10
-1230.061601515435
 20
-305.2631697173771
 30
0.0
 11
-1121.999788002833
 21
-409.1864456911989
 31
0.0
  0
ARC
  5
37F
  8
DATA
  6
CONTINUOUS
 62
     7
 10
-1135.86318818432
 20
-423.6019281807981
 30
0.0
 40
30.00000000000006
 50
5.618139214695772
 51
46.11843062399132
  0
ARC
  5
380
  8
DATA
  6
CONTINUOUS
 62
     7
 10
-1119.999999999956
 20
-584.8615354648823
 30
0.0
 40
29.99999999995854
 50
285.9007973566899
 51
5.618139214696158
  0
ARC
  5
381
  8
DATA
  6
CONTINUOUS
 62
     7
 10
-1120.000000000081
 20
-584.8615354647973
 30
0.0
 40
20.0000000000747
 50
285.90079735698
 51
5.618139214695987
  0
ARC
  5
382
  8
DATA
  6
CONTINUOUS
 62
     7
 10
-1135.863188184319
 20
-423.6019281807986
 30
0.0
 40
19.99999999999999
 50
5.618139214696606
 51
46.11843062399269
  0
LINE
  5
383
  8
DATA
  6
CONTINUOUS
 62
     7
 10
-1368.887019238302
 20
-2108.0
 30
0.0
 11
-1231.112980761698
 21
-2108.0
 31
0.0
  0
LINE
  5
384
  8
DATA
  6
______-8
 62
     7
 10
-1300.0
 20
-2125.0
 30
0.0
 11
-1300.0
 21
-1725.0
 31
0.0
  0
ARC
  5
385
  8
DATA
  6
CONTINUOUS
 62
     7
 10
-1300.0
 20
-2446.999999999999
 30
0.0
 40
696.9999999999991
 50
74.09920264323158
 51
105.9007973567684
  0
LINE
  5
386
  8
DATA
  6
CONTINUOUS
 62
     7
 10
-1382.063867765445
 20
-2115.0
 30
0.0
 11
-1503.971522075323
 21
-1997.761149472218
 31
0.0
  0
LINE
  5
387
  8
DATA
  6
CONTINUOUS
 62
     7
 10
-1372.833279001067
 20
-2107.804861937768
 30
0.0
 11
-1382.063867765445
 21
-2115.0
 31
0.0
  0
LINE
  5
388
  8
DATA
  6
CONTINUOUS
 62
     7
 10
-1386.128248328049
 20
-2112.46454997053
 30
0.0
 11
-1397.300247257489
 21
-2101.720414829877
 31
0.0
  0
LINE
  5
389
  8
DATA
  6
CONTINUOUS
 62
     7
 10
-1397.300247257489
 20
-2101.720414829877
 30
0.0
 11
-1399.074956050561
 21
-2099.528084588643
 31
0.0
  0
LINE
  5
38A
  8
DATA
  6
CONTINUOUS
 62
     7
 10
-1385.339550433557
 20
-2111.849769008542
 30
0.0
 11
-1386.128248328049
 21
-2112.46454997053
 31
0.0
  0
LINE
  5
38B
  8
DATA
  6
CONTINUOUS
 62
     7
 10
-1488.062824757384
 20
-2013.948261917421
 30
0.0
 11
-1490.107369571741
 21
-2012.467607838305
 31
0.0
  0
LINE
  5
38C
  8
DATA
  6
CONTINUOUS
 62
     7
 10
-1501.279368501178
 20
-2001.723472697653
 30
0.0
 11
-1490.107369571741
 21
-2012.467607838305
 31
0.0
  0
LINE
  5
38D
  8
DATA
  6
CONTINUOUS
 62
     7
 10
-1500.69583940721
 20
-2000.911380463672
 30
0.0
 11
-1501.279368501178
 21
-2001.723472697653
 31
0.0
  0
LINE
  5
38E
  8
DATA
  6
CONTINUOUS
 62
     7
 10
-1399.074956050561
 20
-2099.528084588643
 30
0.0
 11
-1488.062824757384
 21
-2013.948261917421
 31
0.0
  0
LINE
  5
38F
  8
DATA
  6
CONTINUOUS
 62
     7
 10
-1500.537176485776
 20
-1992.981601355583
 30
0.0
 11
-1503.971522075323
 21
-1997.761149472218
 31
0.0
  0
LINE
  5
390
  8
DATA
  6
CONTINUOUS
 62
     7
 10
-1396.613819601276
 20
-2096.830964979199
 30
0.0
 11
-1491.863612178654
 21
-2005.229036798401
 31
0.0
  0
LINE
  5
391
  8
DATA
  6
CONTINUOUS
 62
     7
 10
-1503.944670072984
 20
-1980.313990736442
 30
0.0
 11
-1519.807858257303
 21
-1819.054383452386
 31
0.0
  0
ARC
  5
392
  8
DATA
  6
CONTINUOUS
 62
     7
 10
-1480.000000000001
 20
-1815.138464535147
 30
0.0
 40
39.99999999999791
 50
105.9007973567652
 51
185.6181392146961
  0
ARC
  5
393
  8
DATA
  6
CONTINUOUS
 62
     7
 10
-1464.13681181568
 20
-1976.398071819202
 30
0.0
 40
39.99999999999993
 50
185.6181392146958
 51
226.1184306239925
  0
ARC
  5
394
  8
DATA
  6
CONTINUOUS
 62
     7
 10
-1368.887019238302
 20
-2068.0
 30
0.0
 40
39.9999999999999
 50
226.1184306239925
 51
270.0
  0
LINE
  5
395
  8
DATA
  6
CONTINUOUS
 62
     7
 10
-1203.386180398724
 20
-2096.830964979199
 30
0.0
 11
-1108.136387821346
 21
-2005.229036798401
 31
0.0
  0
LINE
  5
396
  8
DATA
  6
CONTINUOUS
 62
     7
 10
-1096.055329927016
 20
-1980.313990736442
 30
0.0
 11
-1080.192141742697
 21
-1819.054383452386
 31
0.0
  0
ARC
  5
397
  8
DATA
  6
CONTINUOUS
 62
     7
 10
-1119.999999999999
 20
-1815.138464535147
 30
0.0
 40
39.99999999999789
 50
354.3818607853039
 51
74.09920264323483
  0
ARC
  5
398
  8
DATA
  6
CONTINUOUS
 62
     7
 10
-1135.86318818432
 20
-1976.398071819202
 30
0.0
 40
39.9999999999999
 50
313.8815693760075
 51
354.3818607853043
  0
ARC
  5
399
  8
DATA
  6
CONTINUOUS
 62
     7
 10
-1231.112980761699
 20
-2068.0
 30
0.0
 40
40.0
 50
270.0000000000003
 51
313.8815693760077
  0
LINE
  5
39A
  8
DATA
  6
CONTINUOUS
 62
     7
 10
-1217.936132234555
 20
-2115.0
 30
0.0
 11
-1096.028477924677
 21
-1997.761149472218
 31
0.0
  0
LINE
  5
39B
  8
DATA
  6
CONTINUOUS
 62
     7
 10
-1227.166720998933
 20
-2107.804861937768
 30
0.0
 11
-1217.936132234555
 21
-2115.0
 31
0.0
  0
LINE
  5
39C
  8
DATA
  6
CONTINUOUS
 62
     7
 10
-1213.871751671951
 20
-2112.46454997053
 30
0.0
 11
-1202.699752742511
 21
-2101.720414829877
 31
0.0
  0
LINE
  5
39D
  8
DATA
  6
CONTINUOUS
 62
     7
 10
-1202.699752742511
 20
-2101.720414829877
 30
0.0
 11
-1200.925043949439
 21
-2099.528084588643
 31
0.0
  0
LINE
  5
39E
  8
DATA
  6
CONTINUOUS
 62
     7
 10
-1214.660449566443
 20
-2111.849769008542
 30
0.0
 11
-1213.871751671951
 21
-2112.46454997053
 31
0.0
  0
LINE
  5
39F
  8
DATA
  6
CONTINUOUS
 62
     7
 10
-1098.720631498822
 20
-2001.723472697653
 30
0.0
 11
-1109.892630428259
 21
-2012.467607838305
 31
0.0
  0
LINE
  5
3A0
  8
DATA
  6
CONTINUOUS
 62
     7
 10
-1099.30416059279
 20
-2000.911380463672
 30
0.0
 11
-1098.720631498822
 21
-2001.723472697653
 31
0.0
  0
LINE
  5
3A1
  8
DATA
  6
CONTINUOUS
 62
     7
 10
-1200.925043949439
 20
-2099.528084588643
 30
0.0
 11
-1111.937175242616
 21
-2013.948261917421
 31
0.0
  0
LINE
  5
3A2
  8
DATA
  6
CONTINUOUS
 62
     7
 10
-1099.462823514224
 20
-1992.981601355583
 30
0.0
 11
-1096.028477924677
 21
-1997.761149472218
 31
0.0
  0
ARC
  5
3A3
  8
DATA
  6
CONTINUOUS
 62
     7
 10
-1300.0
 20
-2446.999999999999
 30
0.0
 40
676.9999999999994
 50
73.62191281372174
 51
106.3780871862783
  0
ARC
  5
3A4
  8
DATA
  6
CONTINUOUS
 62
     7
 10
-1488.5
 20
-1805.626414391239
 30
0.0
 40
8.499999999999968
 50
106.378087186277
 51
191.2362784293921
  0
ARC
  5
3A5
  8
DATA
  6
CONTINUOUS
 62
     7
 10
-1111.5
 20
-1805.626414391239
 30
0.0
 40
8.500000000000007
 50
348.7637215706079
 51
73.62191281372299
  0
ARC
  5
3A6
  8
DATA
  6
CONTINUOUS
 62
     7
 10
-1300.0
 20
-2446.999999999999
 30
0.0
 40
649.9999999999999
 50
75.61583151481818
 51
104.3841684851818
  0
ARC
  5
3A7
  8
DATA
  6
CONTINUOUS
 62
     7
 10
-1459.362871108588
 20
-1825.609844532417
 30
0.0
 40
8.500000000000833
 50
104.3841684851877
 51
185.6181392146966
  0
ARC
  5
3A8
  8
DATA
  6
CONTINUOUS
 62
     7
 10
-1111.5
 20
-1805.626414391239
 30
0.0
 40
8.500000000000007
 50
348.7637215706079
 51
73.62191281372299
  0
LINE
  5
3A9
  8
DATA
  6
CONTINUOUS
 62
     7
 10
-1119.77298652172
 20
-1976.134712473905
 30
0.0
 11
-1103.0
 21
-1805.626414391239
 31
0.0
  0
LINE
  5
3AA
  8
DATA
  6
CONTINUOUS
 62
     7
 10
-1145.669763320065
 20
-1963.594927833771
 30
0.0
 11
-1132.177959011734
 21
-1826.44197730233
 31
0.0
  0
ARC
  5
3AB
  8
DATA
  6
CONTINUOUS
 62
     7
 10
-1140.637128891412
 20
-1825.609844532417
 30
0.0
 40
8.50000000000095
 50
354.3818607853034
 51
75.61583151481231
  0
LINE
  5
3AC
  8
DATA
  6
CONTINUOUS
 62
     7
 10
-1222.101770643732
 20
-2077.370063618239
 30
0.0
 11
-1222.0
 21
-2077.272190573629
 31
0.0
  0
LINE
  5
3AD
  8
DATA
  6
CONTINUOUS
 62
     7
 10
-1199.15132996035
 20
-2055.298575982307
 30
0.0
 11
-1122.340211324265
 21
-1981.429159762071
 31
0.0
  0
LINE
  5
3AE
  8
DATA
  6
CONTINUOUS
 62
     7
 10
-1217.859448736184
 20
-2035.845443626906
 30
0.0
 11
-1148.23698812261
 21
-1968.889375121937
 31
0.0
  0
ARC
  5
3AF
  8
DATA
  6
CONTINUOUS
 62
     7
 10
-1208.505389348267
 20
-2045.572009804606
 30
0.0
 40
13.49461065173287
 50
133.8815693760077
 51
313.8815693760084
  0
ARC
  5
3B0
  8
DATA
  6
CONTINUOUS
 62
     7
 10
-1154.128933199742
 20
-1962.762795063858
 30
0.0
 40
8.4999999999999
 50
313.8815693760087
 51
354.3818607853058
  0
ARC
  5
3B1
  8
DATA
  6
CONTINUOUS
 62
     7
 10
-1128.232156401397
 20
-1975.302579703991
 30
0.0
 40
8.500000000000071
 50
313.8815693760055
 51
354.3818607853028
  0
LINE
  5
3B2
  8
DATA
  6
CONTINUOUS
 62
     7
 10
-1480.22701347828
 20
-1976.134712473905
 30
0.0
 11
-1497.0
 21
-1805.626414391239
 31
0.0
  0
LINE
  5
3B3
  8
DATA
  6
CONTINUOUS
 62
     7
 10
-1454.330236679935
 20
-1963.594927833771
 30
0.0
 11
-1467.822040988266
 21
-1826.44197730233
 31
0.0
  0
LINE
  5
3B4
  8
DATA
  6
CONTINUOUS
 62
     7
 10
-1400.84867003965
 20
-2055.298575982307
 30
0.0
 11
-1477.659788675735
 21
-1981.429159762071
 31
0.0
  0
LINE
  5
3B5
  8
DATA
  6
CONTINUOUS
 62
     7
 10
-1382.140551263816
 20
-2035.845443626906
 30
0.0
 11
-1451.76301187739
 21
-1968.889375121937
 31
0.0
  0
ARC
  5
3B6
  8
DATA
  6
CONTINUOUS
 62
     7
 10
-1391.494610651733
 20
-2045.572009804606
 30
0.0
 40
13.4946106517327
 50
226.1184306239916
 51
46.11843062399228
  0
ARC
  5
3B7
  8
DATA
  6
CONTINUOUS
 62
     7
 10
-1445.871066800258
 20
-1962.762795063858
 30
0.0
 40
8.5
 50
185.6181392146942
 51
226.1184306239913
  0
ARC
  5
3B8
  8
DATA
  6
CONTINUOUS
 62
     7
 10
-1471.767843598603
 20
-1975.302579703991
 30
0.0
 40
8.500000000000044
 50
185.6181392146972
 51
226.1184306239945
  0
ARC
  5
3B9
  8
DATA
  6
CONTINUOUS
 62
     7
 10
-1300.0
 20
-2446.999999999999
 30
0.0
 40
653.9999999999998
 50
103.0217119747183
 51
104.6887898668517
  0
ARC
  5
3BA
  8
DATA
  6
CONTINUOUS
 62
     7
 10
-1300.0
 20
-2446.999999999999
 30
0.0
 40
672.9999999999998
 50
103.0217119747183
 51
106.0891162885806
  0
ARC
  5
3BB
  8
DATA
  6
CONTINUOUS
 62
     7
 10
-1449.5
 20
-1800.562067925531
 30
0.0
 40
9.500000000000139
 50
283.0217119747194
 51
103.0217119747168
  0
LINE
  5
3BC
  8
DATA
  6
CONTINUOUS
 62
     7
 10
-1470.440975613591
 20
-1840.677670846577
 30
0.0
 11
-1472.137759392405
 21
-1823.428762075007
 31
0.0
  0
LINE
  5
3BD
  8
DATA
  6
CONTINUOUS
 62
     7
 10
-1489.34970828581
 20
-1842.537732332265
 30
0.0
 11
-1492.613478211852
 21
-1809.359391987079
 31
0.0
  0
ARC
  5
3BE
  8
DATA
  6
CONTINUOUS
 62
     7
 10
-1479.8953419497
 20
-1841.607701589421
 30
0.0
 40
9.499999999999709
 50
185.6181392146969
 51
5.618139214695503
  0
ARC
  5
3BF
  8
DATA
  6
CONTINUOUS
 62
     7
 10
-1463.678589512762
 20
-1822.596629305096
 30
0.0
 40
8.499999999966278
 50
104.6887898666289
 51
185.6181392146964
  0
ARC
  5
3C0
  8
DATA
  6
CONTINUOUS
 62
     7
 10
-1484.154308332216
 20
-1808.52725921717
 30
0.0
 40
8.499999999958648
 50
106.089116288308
 51
185.6181392146968
  0
ARC
  5
3C1
  8
DATA
  6
CONTINUOUS
 62
     7
 10
-1300.0
 20
-2446.999999999999
 30
0.0
 40
653.9999999999995
 50
75.31121013314834
 51
76.97828802528174
  0
ARC
  5
3C2
  8
DATA
  6
CONTINUOUS
 62
     7
 10
-1300.0
 20
-2446.999999999999
 30
0.0
 40
672.9999999999998
 50
73.9108837114194
 51
76.97828802528174
  0
ARC
  5
3C3
  8
DATA
  6
CONTINUOUS
 62
     7
 10
-1150.5
 20
-1800.562067925531
 30
0.0
 40
9.500000000000036
 50
76.97828802528325
 51
256.9782880252806
  0
LINE
  5
3C4
  8
DATA
  6
CONTINUOUS
 62
     7
 10
-1129.559024386409
 20
-1840.677670846577
 30
0.0
 11
-1127.862240607595
 21
-1823.428762075007
 31
0.0
  0
LINE
  5
3C5
  8
DATA
  6
CONTINUOUS
 62
     7
 10
-1110.65029171419
 20
-1842.537732332265
 30
0.0
 11
-1107.386521788148
 21
-1809.359391987079
 31
0.0
  0
ARC
  5
3C6
  8
DATA
  6
CONTINUOUS
 62
     7
 10
-1120.1046580503
 20
-1841.607701589421
 30
0.0
 40
9.499999999999687
 50
174.3818607853045
 51
354.3818607853032
  0
ARC
  5
3C7
  8
DATA
  6
CONTINUOUS
 62
     7
 10
-1136.321410487238
 20
-1822.596629305096
 30
0.0
 40
8.499999999966448
 50
354.3818607853036
 51
75.31121013337116
  0
ARC
  5
3C8
  8
DATA
  6
CONTINUOUS
 62
     7
 10
-1115.845691667784
 20
-1808.52725921717
 30
0.0
 40
8.499999999958913
 50
354.3818607853032
 51
73.91088371169201
  0
LINE
  5
3C9
  8
DATA
  6
CONTINUOUS
 62
     7
 10
-1103.0
 20
-1559.75
 30
0.0
 11
-1218.005389329643
 21
-1559.75
 31
0.0
  0
LINE
  5
3CA
  8
DATA
  6
CONTINUOUS
 62
     7
 10
-1381.994610670357
 20
-1559.75
 30
0.0
 11
-1492.654308332174
 21
-1559.75
 31
0.0
  0
LINE
  5
3CB
  8
DATA
  6
CONTINUOUS
 62
     7
 10
-1160.0
 20
-1559.75
 30
0.0
 11
-1160.0
 21
-1556.75
 31
0.0
  0
LINE
  5
3CC
  8
DATA
  6
CONTINUOUS
 62
     7
 10
-1440.0
 20
-1559.75
 30
0.0
 11
-1440.0
 21
-1556.75
 31
0.0
  0
ARC
  5
3CD
  8
DATA
  6
CONTINUOUS
 62
     7
 10
-1145.499999981382
 20
-1984.979592796448
 30
0.0
 40
9.499999981375675
 50
312.7631387530957
 51
135.0000000012489
  0
LINE
  5
3CE
  8
DATA
  6
CONTINUOUS
 62
     7
 10
-1385.044404038909
 20
-2038.597424921044
 30
0.0
 11
-1448.049793405955
 21
-1978.005007912736
 31
0.0
  0
LINE
  5
3CF
  8
DATA
  6
CONTINUOUS
 62
     7
 10
-1398.212125059864
 20
-2052.289524212681
 30
0.0
 11
-1461.217514426597
 21
-1991.697107204675
 31
0.0
  0
ARC
  5
3D0
  8
DATA
  6
CONTINUOUS
 62
     7
 10
-1454.500000018618
 20
-1984.979592796448
 30
0.0
 40
9.499999981375534
 50
44.99999999875106
 51
227.2368612469043
  0
ARC
  5
3D1
  8
DATA
  6
CONTINUOUS
 62
     7
 10
-1391.494610651733
 20
-2045.572009804606
 30
0.0
 40
9.499999981375694
 50
224.9999999997566
 51
47.23686124795919
  0
LINE
  5
3D2
  8
DATA
  6
CONTINUOUS
 62
     7
 10
-1214.955595961091
 20
-2038.597424921044
 30
0.0
 11
-1151.950206594045
 21
-1978.005007912736
 31
0.0
  0
LINE
  5
3D3
  8
DATA
  6
CONTINUOUS
 62
     7
 10
-1201.787874940136
 20
-2052.289524212681
 30
0.0
 11
-1138.782485573403
 21
-1991.697107204675
 31
0.0
  0
ARC
  5
3D4
  8
DATA
  6
CONTINUOUS
 62
     7
 10
-1208.505389348267
 20
-2045.572009804606
 30
0.0
 40
9.49999998137559
 50
132.7631387520408
 51
315.0000000002434
  0
LINE
  5
3D5
  8
DATA
  6
CONTINUOUS
 62
     7
 10
-1381.994610670357
 20
-1556.75
 30
0.0
 11
-1381.994610670357
 21
-1559.75
 31
0.0
  0
LINE
  5
3D6
  8
DATA
  6
CONTINUOUS
 62
     7
 10
-1218.005389329643
 20
-1556.75
 30
0.0
 11
-1218.005389329643
 21
-1559.75
 31
0.0
  0
LINE
  5
3D7
  8
DATA
  6
CONTINUOUS
 62
     7
 10
-1324.0
 20
-2108.0
 30
0.0
 11
-1324.0
 21
-2066.000519160999
 31
0.0
  0
LINE
  5
3D8
  8
DATA
  6
CONTINUOUS
 62
     7
 10
-1276.0
 20
-2108.0
 30
0.0
 11
-1276.0
 21
-2066.000519160999
 31
0.0
  0
ARC
  5
3D9
  8
DATA
  6
CONTINUOUS
 62
     7
 10
-1242.484375
 20
-2101.980150857429
 30
0.0
 40
89.10292372392435
 50
135.328633577729
 51
156.1841398020084
  0
ARC
  5
3DA
  8
DATA
  6
CONTINUOUS
 62
     7
 10
-1357.515625
 20
-2101.980150857429
 30
0.0
 40
89.1029237239235
 50
23.81586019799154
 51
44.67136642227763
  0
ARC
  5
3DB
  8
DATA
  6
CONTINUOUS
 62
     7
 10
-1314.25
 20
-2029.000519160999
 30
0.0
 40
7.000000000000049
 50
172.8473312499988
 51
311.5056612560477
  0
ARC
  5
3DC
  8
DATA
  6
CONTINUOUS
 62
     7
 10
-1300.0
 20
-2023.959984079248
 30
0.0
 40
20.95998407924841
 50
8.117056771438254
 51
171.8829432285618
  0
LINE
  5
3DD
  8
DATA
  6
CONTINUOUS
 62
     7
 10
-1320.75
 20
-2021.000519160999
 30
0.0
 11
-1321.25
 21
-2029.000519160999
 31
0.0
  0
ARC
  5
3DE
  8
DATA
  6
CONTINUOUS
 62
     7
 10
-1308.193083476301
 20
-2037.131477345499
 30
0.0
 40
3.218016413754079
 50
316.7285336546698
 51
137.2202147310051
  0
ARC
  5
3DF
  8
DATA
  6
CONTINUOUS
 62
     7
 10
-1285.75
 20
-2029.000519160999
 30
0.0
 40
7.000000000000747
 50
228.4943387439523
 51
7.152668750001169
  0
LINE
  5
3E0
  8
DATA
  6
CONTINUOUS
 62
     7
 10
-1279.25
 20
-2021.000519160999
 30
0.0
 11
-1278.75
 21
-2029.000519160999
 31
0.0
  0
ARC
  5
3E1
  8
DATA
  6
CONTINUOUS
 62
     7
 10
-1291.806916523699
 20
-2037.131477345499
 30
0.0
 40
3.218016413753777
 50
42.77978526899494
 51
223.2714663453302
  0
ARC
  5
3E2
  8
DATA
  6
CONTINUOUS
 62
     7
 10
-1299.999999999991
 20
-1928.999999999998
 30
0.0
 40
20.0000000000094
 50
202.301222304664
 51
229.6987776953127
  0
ARC
  5
3E3
  8
DATA
  6
CONTINUOUS
 62
     7
 10
-1299.999999999991
 20
-1928.999999999998
 30
0.0
 40
20.00000000000869
 50
238.3012223046501
 51
265.6987776953055
  0
ARC
  5
3E4
  8
DATA
  6
CONTINUOUS
 62
     7
 10
-1299.999999999991
 20
-1928.999999999998
 30
0.0
 40
20.0000000000097
 50
166.3012223046835
 51
193.6987776953278
  0
CIRCLE
  5
3E5
  8
DATA
  6
CONTINUOUS
 62
     7
 10
-1300.0
 20
-1929.0
 30
0.0
 40
23.5
  0
CIRCLE
  5
3E6
  8
DATA
  6
CONTINUOUS
 62
     7
 10
-1300.0
 20
-1929.0
 30
0.0
 40
26.5
  0
ARC
  5
3E7
  8
DATA
  6
CONTINUOUS
 62
     7
 10
-1300.0
 20
-1929.0
 30
0.0
 40
18.15000000000096
 50
193.2594046463427
 51
202.7405953536576
  0
ARC
  5
3E8
  8
DATA
  6
CONTINUOUS
 62
     7
 10
-1300.0
 20
-1929.0
 30
0.0
 40
18.14999999999919
 50
13.25940464634395
 51
22.74059535365755
  0
LINE
  5
3E9
  8
DATA
  6
CONTINUOUS
 62
     7
 10
-1319.431083446036
 20
-1933.736348394405
 30
0.0
 11
-1317.666150474282
 21
-1933.162886909351
 31
0.0
  0
LINE
  5
3EA
  8
DATA
  6
CONTINUOUS
 62
     7
 10
-1283.260900508843
 20
-1921.983943541763
 30
0.0
 11
-1281.495967537088
 21
-1921.41048205671
 31
0.0
  0
LINE
  5
3EB
  8
DATA
  6
CONTINUOUS
 62
     7
 10
-1318.504032462912
 20
-1936.58951794329
 30
0.0
 11
-1316.739099491157
 21
-1936.016056458237
 31
0.0
  0
LINE
  5
3EC
  8
DATA
  6
CONTINUOUS
 62
     7
 10
-1282.333849525718
 20
-1924.837113090649
 30
0.0
 11
-1280.568916553964
 21
-1924.263651605595
 31
0.0
  0
ARC
  5
3ED
  8
DATA
  6
CONTINUOUS
 62
     7
 10
-1300.0
 20
-1929.0
 30
0.0
 40
18.15000000000069
 50
229.2594046463438
 51
238.7405953536546
  0
ARC
  5
3EE
  8
DATA
  6
CONTINUOUS
 62
     7
 10
-1300.0
 20
-1929.0
 30
0.0
 40
18.15000000000069
 50
49.2594046463438
 51
58.74059535365459
  0
LINE
  5
3EF
  8
DATA
  6
CONTINUOUS
 62
     7
 10
-1312.936120991011
 20
-1944.253090627999
 30
0.0
 11
-1311.845332426601
 21
-1942.751748968889
 31
0.0
  0
LINE
  5
3F0
  8
DATA
  6
CONTINUOUS
 62
     7
 10
-1290.581718556523
 20
-1913.484895274234
 30
0.0
 11
-1289.490929992115
 21
-1911.983553615124
 31
0.0
  0
LINE
  5
3F1
  8
DATA
  6
CONTINUOUS
 62
     7
 10
-1310.509070007885
 20
-1946.016446384876
 30
0.0
 11
-1309.418281443477
 21
-1944.515104725766
 31
0.0
  0
LINE
  5
3F2
  8
DATA
  6
CONTINUOUS
 62
     7
 10
-1288.154667573399
 20
-1915.248251031113
 30
0.0
 11
-1287.063879008989
 21
-1913.746909372001
 31
0.0
  0
ARC
  5
3F3
  8
DATA
  6
CONTINUOUS
 62
     7
 10
-1300.0
 20
-1929.0
 30
0.0
 40
18.15000000000069
 50
265.2594046463431
 51
274.7405953536568
  0
ARC
  5
3F4
  8
DATA
  6
CONTINUOUS
 62
     7
 10
-1300.0
 20
-1929.0
 30
0.0
 40
18.14999999999888
 50
85.25940464634265
 51
94.7405953536574
  0
LINE
  5
3F5
  8
DATA
  6
CONTINUOUS
 62
     7
 10
-1301.5
 20
-1948.94367067518
 30
0.0
 11
-1301.5
 21
-1947.087910327067
 31
0.0
  0
LINE
  5
3F6
  8
DATA
  6
CONTINUOUS
 62
     7
 10
-1301.5
 20
-1910.912089672935
 30
0.0
 11
-1301.5
 21
-1909.056329324821
 31
0.0
  0
LINE
  5
3F7
  8
DATA
  6
CONTINUOUS
 62
     7
 10
-1298.5
 20
-1948.943670675179
 30
0.0
 11
-1298.5
 21
-1947.087910327067
 31
0.0
  0
LINE
  5
3F8
  8
DATA
  6
CONTINUOUS
 62
     7
 10
-1298.5
 20
-1910.912089672935
 30
0.0
 11
-1298.5
 21
-1909.056329324821
 31
0.0
  0
ARC
  5
3F9
  8
DATA
  6
CONTINUOUS
 62
     7
 10
-1300.0
 20
-1929.0
 30
0.0
 40
18.15000000000081
 50
301.2594046463454
 51
310.7405953536562
  0
ARC
  5
3FA
  8
DATA
  6
CONTINUOUS
 62
     7
 10
-1300.0
 20
-1929.0
 30
0.0
 40
18.14999999999986
 50
121.2594046463405
 51
130.74059535366
  0
LINE
  5
3FB
  8
DATA
  6
CONTINUOUS
 62
     7
 10
-1289.490929992115
 20
-1946.016446384876
 30
0.0
 11
-1290.581718556523
 21
-1944.515104725766
 31
0.0
  0
LINE
  5
3FC
  8
DATA
  6
CONTINUOUS
 62
     7
 10
-1311.845332426599
 20
-1915.248251031113
 30
0.0
 11
-1312.936120991009
 21
-1913.746909372003
 31
0.0
  0
LINE
  5
3FD
  8
DATA
  6
CONTINUOUS
 62
     7
 10
-1287.063879008989
 20
-1944.253090627999
 30
0.0
 11
-1288.154667573399
 21
-1942.751748968889
 31
0.0
  0
LINE
  5
3FE
  8
DATA
  6
CONTINUOUS
 62
     7
 10
-1309.418281443475
 20
-1913.484895274234
 30
0.0
 11
-1310.509070007885
 21
-1911.983553615124
 31
0.0
  0
ARC
  5
3FF
  8
DATA
  6
CONTINUOUS
 62
     7
 10
-1300.0
 20
-1929.0
 30
0.0
 40
18.15000000000005
 50
337.2594046463424
 51
346.7405953536575
  0
ARC
  5
400
  8
DATA
  6
CONTINUOUS
 62
     7
 10
-1300.0
 20
-1929.0
 30
0.0
 40
18.14999999999935
 50
157.2594046463477
 51
166.7405953536561
  0
LINE
  5
401
  8
DATA
  6
CONTINUOUS
 62
     7
 10
-1281.495967537088
 20
-1936.589517943292
 30
0.0
 11
-1283.260900508843
 21
-1936.016056458237
 31
0.0
  0
LINE
  5
402
  8
DATA
  6
CONTINUOUS
 62
     7
 10
-1317.666150474281
 20
-1924.837113090649
 30
0.0
 11
-1319.431083446036
 21
-1924.263651605595
 31
0.0
  0
LINE
  5
403
  8
DATA
  6
CONTINUOUS
 62
     7
 10
-1280.568916553964
 20
-1933.736348394405
 30
0.0
 11
-1282.333849525718
 21
-1933.162886909351
 31
0.0
  0
LINE
  5
404
  8
DATA
  6
CONTINUOUS
 62
     7
 10
-1316.739099491157
 20
-1921.983943541763
 30
0.0
 11
-1318.50403246291
 21
-1921.41048205671
 31
0.0
  0
ARC
  5
405
  8
DATA
  6
CONTINUOUS
 62
     7
 10
-1299.999999999991
 20
-1928.999999999998
 30
0.0
 40
20.00000000000958
 50
274.3012223046422
 51
301.6987776953051
  0
ARC
  5
406
  8
DATA
  6
CONTINUOUS
 62
     7
 10
-1299.999999999991
 20
-1928.999999999998
 30
0.0
 40
20.00000000001047
 50
310.3012223046472
 51
337.6987776953148
  0
ARC
  5
407
  8
DATA
  6
CONTINUOUS
 62
     7
 10
-1299.999999999991
 20
-1928.999999999998
 30
0.0
 40
20.00000000001009
 50
346.301222304657
 51
13.69877769533167
  0
ARC
  5
408
  8
DATA
  6
CONTINUOUS
 62
     7
 10
-1299.999999999991
 20
-1928.999999999998
 30
0.0
 40
20.00000000001079
 50
22.30122230467361
 51
49.69877769534546
  0
ARC
  5
409
  8
DATA
  6
CONTINUOUS
 62
     7
 10
-1299.999999999991
 20
-1928.999999999998
 30
0.0
 40
20.00000000001069
 50
58.30122230469048
 51
85.69877769535303
  0
ARC
  5
40A
  8
DATA
  6
CONTINUOUS
 62
     7
 10
-1299.999999999991
 20
-1928.999999999998
 30
0.0
 40
20.00000000001095
 50
94.30122230469414
 51
121.6987776953542
  0
ARC
  5
40B
  8
DATA
  6
CONTINUOUS
 62
     7
 10
-1299.999999999991
 20
-1928.999999999998
 30
0.0
 40
20.00000000001038
 50
130.3012223046953
 51
157.6987776953477
  0
LINE
  5
40C
  8
DATA
  6
CONTINUOUS
 62
     7
 10
-950.0
 20
-863.25
 30
0.0
 11
-950.0
 21
-871.75
 31
0.0
  0
LINE
  5
40D
  8
DATA
  6
CONTINUOUS
 62
     7
 10
-950.0000000000001
 20
-1523.75
 30
0.0
 11
-950.0000000000001
 21
-1533.75
 31
0.0
  0
LINE
  5
40E
  8
DATA
  6
CONTINUOUS
 62
     7
 10
-592.0
 20
-874.0745825020787
 30
0.0
 11
-592.0
 21
-902.0614224595507
 31
0.0
  0
LINE
  5
40F
  8
DATA
  6
CONTINUOUS
 62
     7
 10
-592.0
 20
-927.4385775404494
 30
0.0
 11
-592.0
 21
-1461.288518603185
 31
0.0
  0
LINE
  5
410
  8
DATA
  6
CONTINUOUS
 62
     7
 10
-592.0
 20
-1487.211481396816
 30
0.0
 11
-592.0
 21
-1515.838685221945
 31
0.0
  0
LINE
  5
411
  8
DATA
  6
CONTINUOUS
 62
     7
 10
-939.9999999999999
 20
-1555.995810055866
 30
0.0
 11
-605.871918811381
 21
-1530.796206167339
 31
0.0
  0
LINE
  5
412
  8
DATA
  6
CONTINUOUS
 62
     7
 10
-940.0
 20
-843.7108938547485
 30
0.0
 11
-606.3093923340195
 21
-859.0904889008063
 31
0.0
  0
LINE
  5
413
  8
DATA
  6
CONTINUOUS
 62
     7
 10
-644.9279902140181
 20
-1559.75
 30
0.0
 11
-724.5204071849276
 21
-1559.75
 31
0.0
  0
LINE
  5
414
  8
DATA
  6
CONTINUOUS
 62
     7
 10
-848.8922984105793
 20
-1559.75
 30
0.0
 11
-908.9379320744688
 21
-1559.75
 31
0.0
  0
LINE
  5
415
  8
DATA
  6
CONTINUOUS
 62
     7
 10
-908.9379320744688
 20
-1559.75
 30
0.0
 11
-908.9379320744688
 21
-1556.75
 31
0.0
  0
LINE
  5
416
  8
DATA
  6
CONTINUOUS
 62
     7
 10
-848.8922984105792
 20
-1559.75
 30
0.0
 11
-848.8922984105792
 21
-1556.75
 31
0.0
  0
LINE
  5
417
  8
DATA
  6
CONTINUOUS
 62
     7
 10
-724.5204071849276
 20
-1559.75
 30
0.0
 11
-724.5204071849276
 21
-1556.75
 31
0.0
  0
LINE
  5
418
  8
DATA
  6
CONTINUOUS
 62
     7
 10
-644.9279902140181
 20
-1559.75
 30
0.0
 11
-644.9279902140181
 21
-1556.75
 31
0.0
  0
LINE
  5
419
  8
DATA
  6
CONTINUOUS
 62
     7
 10
-950.0000000000001
 20
-863.25
 30
0.0
 11
-592.0
 21
-879.75
 31
0.0
  0
LINE
  5
41A
  8
DATA
  6
CONTINUOUS
 62
     7
 10
-950.0
 20
-871.75
 30
0.0
 11
-592.0
 21
-888.25
 31
0.0
  0
LINE
  5
41B
  8
DATA
  6
CONTINUOUS
 62
     7
 10
-946.2
 20
-875.4251396648044
 30
0.0
 11
-890.4475138672157
 21
-877.9947374893601
 31
0.0
  0
LINE
  5
41C
  8
DATA
  6
CONTINUOUS
 62
     7
 10
-950.0000000000001
 20
-1533.75
 30
0.0
 11
-592.0
 21
-1506.75
 31
0.0
  0
LINE
  5
41D
  8
DATA
  6
CONTINUOUS
 62
     7
 10
-950.0000000000001
 20
-1523.75
 30
0.0
 11
-592.0
 21
-1496.75
 31
0.0
  0
LINE
  5
41E
  8
DATA
  6
CONTINUOUS
 62
     7
 10
-946.2
 20
-1519.963407821229
 30
0.0
 11
-890.0975350491047
 21
-1515.732216330519
 31
0.0
  0
LINE
  5
41F
  8
DATA
  6
CONTINUOUS
 62
     7
 10
-930.0000000000003
 20
-1556.75
 30
0.0
 11
-930.0000000000003
 21
-1555.241620111732
 31
0.0
  0
LINE
  5
420
  8
DATA
  6
CONTINUOUS
 62
     7
 10
-640.9333795436609
 20
-1556.75
 30
0.0
 11
-930.0000000000003
 21
-1556.75
 31
0.0
  0
LINE
  5
421
  8
DATA
  6
CONTINUOUS
 62
     7
 10
-640.9333795436609
 20
-1556.75
 30
0.0
 11
-640.9333795436609
 21
-1533.440506278433
 31
0.0
  0
LINE
  5
422
  8
DATA
  6
CONTINUOUS
 62
     7
 10
-946.2
 20
-875.4251396648044
 30
0.0
 11
-946.2
 21
-1519.963407821229
 31
0.0
  0
LINE
  5
423
  8
DATA
  6
CONTINUOUS
 62
     7
 10
-950.0000000000001
 20
-1523.75
 30
0.0
 11
-946.2
 21
-1519.963407821229
 31
0.0
  0
LINE
  5
424
  8
DATA
  6
CONTINUOUS
 62
     7
 10
-946.2
 20
-875.4251396648044
 30
0.0
 11
-950.0
 21
-871.75
 31
0.0
  0
ARC
  5
425
  8
DATA
  6
CONTINUOUS
 62
     7
 10
-905.8266217571743
 20
-873.529152303974
 30
0.0
 40
45.35359211211436
 50
138.8934117377198
 51
166.9003873627819
  0
ARC
  5
426
  8
DATA
  6
CONTINUOUS
 62
     7
 10
-1300.0
 20
-2446.999999999999
 30
0.0
 40
686.999999999999
 50
74.0992026432315
 51
105.9007973567685
  0
LINE
  5
427
  8
DATA
  6
CONTINUOUS
 62
     7
 10
-1493.992705508658
 20
-1979.335011007132
 30
0.0
 11
-1509.855893692977
 21
-1818.075403723082
 31
0.0
  0
LINE
  5
428
  8
DATA
  6
CONTINUOUS
 62
     7
 10
-1389.682119510532
 20
-2089.623223734399
 30
0.0
 11
-1484.931912087911
 21
-1998.021295553601
 31
0.0
  0
ARC
  5
429
  8
DATA
  6
CONTINUOUS
 62
     7
 10
-1479.999999999994
 20
-1815.138464535151
 30
0.0
 40
30.00000000000438
 50
105.900797356777
 51
185.6181392146962
  0
ARC
  5
42A
  8
DATA
  6
CONTINUOUS
 62
     7
 10
-1464.13681181568
 20
-1976.398071819202
 30
0.0
 40
29.9999999999999
 50
185.6181392146971
 51
226.1184306239936
  0
LINE
  5
42B
  8
DATA
  6
CONTINUOUS
 62
     7
 10
-1368.887019238302
 20
-2098.0
 30
0.0
 11
-1324.0
 21
-2098.0
 31
0.0
  0
LINE
  5
42C
  8
DATA
  6
CONTINUOUS
 62
     7
 10
-1276.0
 20
-2098.0
 30
0.0
 11
-1231.112980761698
 21
-2098.0
 31
0.0
  0
ARC
  5
42D
  8
DATA
  6
CONTINUOUS
 62
     7
 10
-1368.887019238302
 20
-2068.0
 30
0.0
 40
29.9999999999998
 50
226.1184306239924
 51
270.0
  0
LINE
  5
42E
  8
DATA
  6
CONTINUOUS
 62
     7
 10
-1106.007294491342
 20
-1979.335011007132
 30
0.0
 11
-1090.144106307023
 21
-1818.075403723082
 31
0.0
  0
LINE
  5
42F
  8
DATA
  6
CONTINUOUS
 62
     7
 10
-1210.317880489468
 20
-2089.623223734399
 30
0.0
 11
-1115.068087912089
 21
-1998.021295553601
 31
0.0
  0
ARC
  5
430
  8
DATA
  6
CONTINUOUS
 62
     7
 10
-1135.86318818432
 20
-1976.398071819202
 30
0.0
 40
30.00000000000014
 50
313.8815693760064
 51
354.3818607853029
  0
ARC
  5
431
  8
DATA
  6
CONTINUOUS
 62
     7
 10
-1231.112980761699
 20
-2068.0
 30
0.0
 40
29.99999999999955
 50
270.0000000000013
 51
313.8815693760091
  0
ARC
  5
432
  8
DATA
  6
CONTINUOUS
 62
     7
 10
-1120.000000000006
 20
-1815.138464535151
 30
0.0
 40
30.00000000000465
 50
354.3818607853038
 51
74.09920264322301
  0
ARC
  5
433
  8
DATA
  6
CONTINUOUS
 62
     7
 10
-894.3905818824505
 20
-1522.122815015272
 30
0.0
 40
56.8119601320139
 50
191.8096472178712
 51
216.6003658304207
  0
ARC
  5
434
  8
DATA
  6
CONTINUOUS
 62
     7
 10
-607.0
 20
-874.0745825020787
 30
0.0
 40
15.0
 50
0.0
 51
87.36114019100785
  0
ARC
  5
435
  8
DATA
  6
CONTINUOUS
 62
     7
 10
-607.0
 20
-1515.838685221946
 30
0.0
 40
14.99999999999985
 50
274.3130249111526
 51
0.0000000000009095
  0
LINE
  5
436
  8
DATA
  6
CONTINUOUS
 62
     7
 10
-879.0
 20
-889.9820123703779
 30
0.0
 11
-879.0
 21
-1503.766199574204
 31
0.0
  0
LINE
  5
437
  8
DATA
  6
CONTINUOUS
 62
     7
 10
-868.0
 20
-888.0951408619981
 30
0.0
 11
-868.0
 21
-1504.626534769735
 31
0.0
  0
ARC
  5
438
  8
DATA
  6
CONTINUOUS
 62
     7
 10
-856.0
 20
-888.0951408619981
 30
0.0
 40
11.99999999999998
 50
87.36114019100792
 51
180.0
  0
ARC
  5
439
  8
DATA
  6
CONTINUOUS
 62
     7
 10
-890.9999999999999
 20
-889.9820123703779
 30
0.0
 40
11.99999999999989
 50
0.0
 51
87.36114019100842
  0
ARC
  5
43A
  8
DATA
  6
CONTINUOUS
 62
     7
 10
-891.0
 20
-1503.766199574204
 30
0.0
 40
11.99999999999997
 50
274.3130249111528
 51
0.0
  0
ARC
  5
43B
  8
DATA
  6
CONTINUOUS
 62
     7
 10
-856.0000000000001
 20
-1504.626534769735
 30
0.0
 40
11.99999999999989
 50
180.0
 51
274.3130249111532
  0
LINE
  5
43C
  8
DATA
  6
CONTINUOUS
 62
     7
 10
-1111.937175242616
 20
-2013.948261917421
 30
0.0
 11
-1109.892630428259
 21
-2012.467607838305
 31
0.0
  0
LINE
  5
43D
  8
DATA
  6
CONTINUOUS
 62
     7
 10
-863.0
 20
-888.0951408619981
 30
0.0
 11
-863.0
 21
-1504.626534769735
 31
0.0
  0
LINE
  5
43E
  8
DATA
  6
CONTINUOUS
 62
     7
 10
-855.6777164225425
 20
-881.102563848071
 30
0.0
 11
-592.230202555327
 21
-893.2446978670907
 31
0.0
  0
LINE
  5
43F
  8
DATA
  6
CONTINUOUS
 62
     7
 10
-855.4735621119778
 20
-1511.606711210919
 30
0.0
 11
-592.3760270628729
 21
-1491.764159684869
 31
0.0
  0
ARC
  5
440
  8
DATA
  6
CONTINUOUS
 62
     7
 10
-856.0
 20
-888.0951408619981
 30
0.0
 40
7.000000000000006
 50
87.36114019100832
 51
180.0
  0
ARC
  5
441
  8
DATA
  6
CONTINUOUS
 62
     7
 10
-856.0
 20
-1504.626534769735
 30
0.0
 40
7.0
 50
180.0
 51
274.3130249111524
  0
LINE
  5
442
  8
DATA
  6
CONTINUOUS
 62
     7
 10
-719.6860092635584
 20
-1539.379950419318
 30
0.0
 11
-719.6860092635584
 21
-853.8650302993052
 31
0.0
  0
LINE
  5
443
  8
DATA
  6
CONTINUOUS
 62
     7
 10
-704.9999999999999
 20
-1538.272346368715
 30
0.0
 11
-704.9999999999999
 21
-1487.898295554512
 31
0.0
  0
LINE
  5
444
  8
DATA
  6
CONTINUOUS
 62
     7
 10
-704.9999999999999
 20
-1472.601704445489
 30
0.0
 11
-704.9999999999999
 21
-917.2651863745837
 31
0.0
  0
LINE
  5
445
  8
DATA
  6
CONTINUOUS
 62
     7
 10
-704.9999999999999
 20
-902.2348136254163
 30
0.0
 11
-704.9999999999999
 21
-854.5418994413408
 31
0.0
  0
LINE
  5
446
  8
DATA
  6
CONTINUOUS
 62
     7
 10
-694.7709632015994
 20
-1537.500882699562
 30
0.0
 11
-694.7709632015994
 21
-1495.404894384369
 31
0.0
  0
LINE
  5
447
  8
DATA
  6
CONTINUOUS
 62
     7
 10
-694.7709632015994
 20
-1465.095105615631
 30
0.0
 11
-694.7709632015994
 21
-1268.411930749133
 31
0.0
  0
LINE
  5
448
  8
DATA
  6
CONTINUOUS
 62
     7
 10
-694.7709632015994
 20
-1121.088069250867
 30
0.0
 11
-694.7709632015994
 21
-924.4952835970877
 31
0.0
  0
LINE
  5
449
  8
DATA
  6
CONTINUOUS
 62
     7
 10
-694.7709632015994
 20
-895.0047164029125
 30
0.0
 11
-694.7709632015994
 21
-855.0133494613788
 31
0.0
  0
ARC
  5
44A
  8
DATA
  6
CONTINUOUS
 62
     7
 10
-735.033344972067
 20
-902.8045856610801
 30
0.0
 40
52.59125783219661
 50
67.92506646769125
 51
106.7972139143247
  0
ARC
  5
44B
  8
DATA
  6
CONTINUOUS
 62
     7
 10
-692.0183986444171
 20
-909.75
 30
0.0
 40
14.99999999999994
 50
86.88978012311442
 51
266.8897801231136
  0
ARC
  5
44C
  8
DATA
  6
CONTINUOUS
 62
     7
 10
-600.0
 20
-914.75
 30
0.0
 40
14.99999999999995
 50
266.889780123114
 51
86.88978012311398
  0
LINE
  5
44D
  8
DATA
  6
CONTINUOUS
 62
     7
 10
-691.2045448202746
 20
-894.7720948743515
 30
0.0
 11
-599.1861461758574
 21
-899.7720948743515
 31
0.0
  0
LINE
  5
44E
  8
DATA
  6
CONTINUOUS
 62
     7
 10
-600.8138538241427
 20
-929.7279051256485
 30
0.0
 11
-692.8322524685598
 21
-924.7279051256485
 31
0.0
  0
ARC
  5
44F
  8
DATA
  6
CONTINUOUS
 62
     7
 10
-691.5183986444174
 20
-1480.25
 30
0.0
 40
15.50000000000006
 50
93.77152327331778
 51
273.7715232733178
  0
ARC
  5
450
  8
DATA
  6
CONTINUOUS
 62
     7
 10
-600.5
 20
-1474.25
 30
0.0
 40
15.50000000000005
 50
273.7715232733169
 51
93.77152327331859
  0
LINE
  5
451
  8
DATA
  6
CONTINUOUS
 62
     7
 10
-599.4804414294722
 20
-1489.716431402275
 30
0.0
 11
-690.4988400738894
 21
-1495.716431402275
 31
0.0
  0
LINE
  5
452
  8
DATA
  6
CONTINUOUS
 62
     7
 10
-692.5379572149454
 20
-1464.783568597725
 30
0.0
 11
-601.5195585705283
 21
-1458.783568597725
 31
0.0
  0
LINE
  5
453
  8
DATA
  6
CONTINUOUS
 62
     7
 10
-691.0
 20
-1314.75
 30
0.0
 11
-756.0
 21
-1314.75
 31
0.0
  0
LINE
  5
454
  8
DATA
  6
CONTINUOUS
 62
     7
 10
-691.0
 20
-1076.75
 30
0.0
 11
-756.0
 21
-1076.75
 31
0.0
  0
LINE
  5
455
  8
DATA
  6
CONTINUOUS
 62
     7
 10
-816.0
 20
-1136.75
 30
0.0
 11
-816.0
 21
-1254.75
 31
0.0
  0
LINE
  5
456
  8
DATA
  6
CONTINUOUS
 62
     7
 10
-631.0
 20
-1136.75
 30
0.0
 11
-631.0
 21
-1254.75
 31
0.0
  0
ARC
  5
457
  8
DATA
  6
CONTINUOUS
 62
     7
 10
-685.2401203843494
 20
-1129.480706235962
 30
0.0
 40
29.24136042017535
 50
359.4723359647122
 51
24.72524608092789
  0
ARC
  5
458
  8
DATA
  6
CONTINUOUS
 62
     7
 10
-677.0294464481435
 20
-1124.426442841485
 30
0.0
 40
19.70335410238105
 50
21.35986036270548
 51
87.00508834840787
  0
LINE
  5
459
  8
DATA
  6
CONTINUOUS
 62
     7
 10
-786.0
 20
-1129.75
 30
0.0
 11
-786.0
 21
-1259.75
 31
0.0
  0
LINE
  5
45A
  8
DATA
  6
CONTINUOUS
 62
     7
 10
-726.0
 20
-1129.75
 30
0.0
 11
-726.0
 21
-1259.75
 31
0.0
  0
LINE
  5
45B
  8
DATA
  6
CONTINUOUS
 62
     7
 10
-696.0
 20
-1129.211412471923
 30
0.0
 11
-696.0
 21
-1260.288587528076
 31
0.0
  0
LINE
  5
45C
  8
DATA
  6
CONTINUOUS
 62
     7
 10
-656.0
 20
-1129.211412471924
 30
0.0
 11
-656.0
 21
-1260.288587528077
 31
0.0
  0
ARC
  5
45D
  8
DATA
  6
CONTINUOUS
 62
     7
 10
-756.0
 20
-1135.25
 30
0.0
 40
30.5
 50
10.38885781546961
 51
169.6111421845304
  0
ARC
  5
45E
  8
DATA
  6
CONTINUOUS
 62
     7
 10
-666.7598796156506
 20
-1129.480706235962
 30
0.0
 40
29.24136042017535
 50
155.2747539190721
 51
180.5276640352878
  0
ARC
  5
45F
  8
DATA
  6
CONTINUOUS
 62
     7
 10
-674.9705535518565
 20
-1124.426442841485
 30
0.0
 40
19.7033541023811
 50
92.99491165159215
 51
158.6401396372945
  0
ARC
  5
460
  8
DATA
  6
CONTINUOUS
 62
     7
 10
-685.2401203843494
 20
-1260.019293764038
 30
0.0
 40
29.24136042017535
 50
335.2747539190721
 51
0.5276640352878418
  0
ARC
  5
461
  8
DATA
  6
CONTINUOUS
 62
     7
 10
-677.0294464481435
 20
-1265.073557158515
 30
0.0
 40
19.7033541023811
 50
272.9949116515921
 51
338.6401396372946
  0
ARC
  5
462
  8
DATA
  6
CONTINUOUS
 62
     7
 10
-756.0
 20
-1254.25
 30
0.0
 40
30.5
 50
190.3888578154696
 51
349.6111421845304
  0
ARC
  5
463
  8
DATA
  6
CONTINUOUS
 62
     7
 10
-666.7598796156506
 20
-1260.019293764038
 30
0.0
 40
29.24136042017535
 50
179.4723359647121
 51
204.7252460809279
  0
ARC
  5
464
  8
DATA
  6
CONTINUOUS
 62
     7
 10
-674.9705535518565
 20
-1265.073557158515
 30
0.0
 40
19.70335410238105
 50
201.3598603627055
 51
267.0050883484079
  0
ARC
  5
465
  8
DATA
  6
CONTINUOUS
 62
     7
 10
-756.0
 20
-1136.75
 30
0.0
 40
60.0
 50
90.0
 51
180.0
  0
ARC
  5
466
  8
DATA
  6
CONTINUOUS
 62
     7
 10
-756.0
 20
-1254.75
 30
0.0
 40
60.0
 50
180.0
 51
270.0
  0
ARC
  5
467
  8
DATA
  6
CONTINUOUS
 62
     7
 10
-691.0
 20
-1254.75
 30
0.0
 40
60.0
 50
270.0
 51
0.0
  0
ARC
  5
468
  8
DATA
  6
CONTINUOUS
 62
     7
 10
-691.0
 20
-1136.75
 30
0.0
 40
60.0
 50
0.0
 51
90.0
  0
LINE
  5
469
  8
DATA
  6
______-8
 62
     7
 10
-200.0
 20
-825.0
 30
0.0
 11
-200.0
 21
-1575.0
 31
0.0
  0
LINE
  5
46A
  8
DATA
  6
CONTINUOUS
 62
     7
 10
-410.0
 20
-1556.75
 30
0.0
 11
10.0
 21
-1556.75
 31
0.0
  0
LINE
  5
46B
  8
DATA
  6
CONTINUOUS
 62
     7
 10
-420.0
 20
-1533.75
 30
0.0
 11
-420.0
 21
-863.25
 31
0.0
  0
LINE
  5
46C
  8
DATA
  6
CONTINUOUS
 62
     7
 10
-407.5
 20
-843.25
 30
0.0
 11
7.5
 21
-843.25
 31
0.0
  0
ARC
  5
46D
  8
DATA
  6
CONTINUOUS
 62
     7
 10
-371.5769230769231
 20
-879.6081730769231
 30
0.0
 40
51.11148799548685
 50
134.6551128790974
 51
161.3341207047356
  0
LINE
  5
46E
  8
DATA
  6
CONTINUOUS
 62
     7
 10
-392.6543083321744
 20
-1559.75
 30
0.0
 11
-392.6543083321744
 21
-1556.75
 31
0.0
  0
ARC
  5
46F
  8
DATA
  6
CONTINUOUS
 62
     7
 10
-360.8977272727273
 20
-1521.727272727273
 30
0.0
 40
60.31272347194502
 50
191.4983560040668
 51
215.4987753478374
  0
LINE
  5
470
  8
DATA
  6
CONTINUOUS
 62
     7
 10
-281.9946106703571
 20
-1559.75
 30
0.0
 11
-392.6543083321744
 21
-1559.75
 31
0.0
  0
LINE
  5
471
  8
DATA
  6
CONTINUOUS
 62
     7
 10
-340.0
 20
-1559.75
 30
0.0
 11
-340.0
 21
-1556.75
 31
0.0
  0
LINE
  5
472
  8
DATA
  6
CONTINUOUS
 62
     7
 10
-281.9946106703571
 20
-1556.75
 30
0.0
 11
-281.9946106703571
 21
-1559.75
 31
0.0
  0
LINE
  5
473
  8
DATA
  6
CONTINUOUS
 62
     7
 10
-284.9999999999999
 20
-1529.75
 30
0.0
 11
-284.9999999999999
 21
-1488.367787551312
 31
0.0
  0
LINE
  5
474
  8
DATA
  6
CONTINUOUS
 62
     7
 10
-284.9999999999999
 20
-1458.093095077165
 30
0.0
 11
-284.9999999999999
 21
-930.2938412682004
 31
0.0
  0
LINE
  5
475
  8
DATA
  6
CONTINUOUS
 62
     7
 10
-284.9999999999999
 20
-900.8338663800853
 30
0.0
 11
-284.9999999999999
 21
-859.75
 31
0.0
  0
LINE
  5
476
  8
DATA
  6
CONTINUOUS
 62
     7
 10
-270.0
 20
-850.2690969966616
 30
0.0
 11
-270.0
 21
-934.75
 31
0.0
  0
LINE
  5
477
  8
DATA
  6
CONTINUOUS
 62
     7
 10
-130.0
 20
-850.2690969966616
 30
0.0
 11
-130.0
 21
-934.75
 31
0.0
  0
LINE
  5
478
  8
DATA
  6
CONTINUOUS
 62
     7
 10
-284.9999999999999
 20
-859.75
 30
0.0
 11
-270.0
 21
-859.75
 31
0.0
  0
LINE
  5
479
  8
DATA
  6
CONTINUOUS
 62
     7
 10
-130.0
 20
-859.75
 30
0.0
 11
-115.0000000000001
 21
-859.75
 31
0.0
  0
LINE
  5
47A
  8
DATA
  6
CONTINUOUS
 62
     7
 10
-284.9999999999999
 20
-1529.75
 30
0.0
 11
-115.0000000000001
 21
-1529.75
 31
0.0
  0
ARC
  5
47B
  8
DATA
  6
CONTINUOUS
 62
     7
 10
-388.9936169557379
 20
-909.7499999999998
 30
0.0
 40
14.99999999999994
 50
86.71073400790408
 51
266.7107340079048
  0
ARC
  5
47C
  8
DATA
  6
CONTINUOUS
 62
     7
 10
-287.8332790010675
 20
-915.5638538241428
 30
0.0
 40
14.99999999999947
 50
266.7107340079053
 51
86.71073400790394
  0
LINE
  5
47D
  8
DATA
  6
CONTINUOUS
 62
     7
 10
-288.6939338933816
 20
-930.5391425744915
 30
0.0
 11
-389.8542718480521
 21
-924.7252887503489
 31
0.0
  0
LINE
  5
47E
  8
DATA
  6
CONTINUOUS
 62
     7
 10
-286.9726241087531
 20
-900.5885650737938
 30
0.0
 11
-388.1329620634235
 21
-894.7747112496513
 31
0.0
  0
ARC
  5
47F
  8
DATA
  6
CONTINUOUS
 62
     7
 10
-388.4715220753224
 20
-1481.269558455294
 30
0.0
 40
15.50000000000008
 50
94.58987249605171
 51
274.5898724960509
  0
LINE
  5
480
  8
DATA
  6
CONTINUOUS
 62
     7
 10
-389.7118744546157
 20
-1465.819266355299
 30
0.0
 11
-289.5736313803608
 21
-1457.780149214243
 31
0.0
  0
LINE
  5
481
  8
DATA
  6
CONTINUOUS
 62
     7
 10
-287.0929266217744
 20
-1488.680733414234
 30
0.0
 11
-387.2311696960293
 21
-1496.71985055529
 31
0.0
  0
ARC
  5
482
  8
DATA
  6
CONTINUOUS
 62
     7
 10
-288.3332790010677
 20
-1473.230441314238
 30
0.0
 40
15.50000000000008
 50
274.5898724960517
 51
94.58987249605083
  0
LINE
  5
483
  8
DATA
  6
CONTINUOUS
 62
     7
 10
-402.5
 20
-865.6071428571427
 30
0.0
 11
-402.5
 21
-903.2248473533818
 31
0.0
  0
LINE
  5
484
  8
DATA
  6
CONTINUOUS
 62
     7
 10
-402.5
 20
-916.2751526466178
 30
0.0
 11
-402.5
 21
-1474.677759981673
 31
0.0
  0
LINE
  5
485
  8
DATA
  6
CONTINUOUS
 62
     7
 10
-402.5
 20
-1487.861356928915
 30
0.0
 11
-402.5
 21
-1529.97
 31
0.0
  0
LINE
  5
486
  8
DATA
  6
CONTINUOUS
 62
     7
 10
-410.0
 20
-1556.75
 30
0.0
 11
-284.9999999999999
 21
-1529.75
 31
0.0
  0
LINE
  5
487
  8
DATA
  6
CONTINUOUS
 62
     7
 10
-420.0
 20
-1533.75
 30
0.0
 11
-284.9999999999999
 21
-1504.589999999997
 31
0.0
  0
LINE
  5
488
  8
DATA
  6
CONTINUOUS
 62
     7
 10
-407.5
 20
-843.25
 30
0.0
 11
-284.9999999999999
 21
-859.75
 31
0.0
  0
LINE
  5
489
  8
DATA
  6
CONTINUOUS
 62
     7
 10
-420.0
 20
-863.25
 30
0.0
 11
-284.9999999999999
 21
-881.4336734693866
 31
0.0
  0
ARC
  5
48A
  8
DATA
  6
CONTINUOUS
 62
     7
 10
-354.0769230769231
 20
-881.9653159340658
 30
0.0
 40
51.11148799548685
 50
134.6551128790974
 51
161.3341207047356
  0
ARC
  5
48B
  8
DATA
  6
CONTINUOUS
 62
     7
 10
-343.3977272727273
 20
-1517.947272727273
 30
0.0
 40
60.31272347194502
 50
191.4983560040668
 51
215.4987753478374
  0
LINE
  5
48C
  8
DATA
  6
CONTINUOUS
 62
     7
 10
20.0
 20
-1533.75
 30
0.0
 11
20.0
 21
-863.25
 31
0.0
  0
ARC
  5
48D
  8
DATA
  6
CONTINUOUS
 62
     7
 10
-28.42307692307691
 20
-879.6081730769231
 30
0.0
 40
51.11148799548683
 50
18.66587929526443
 51
45.34488712090261
  0
LINE
  5
48E
  8
DATA
  6
CONTINUOUS
 62
     7
 10
-7.345691667825577
 20
-1559.75
 30
0.0
 11
-7.345691667825577
 21
-1556.75
 31
0.0
  0
ARC
  5
48F
  8
DATA
  6
CONTINUOUS
 62
     7
 10
-39.10227272727275
 20
-1521.727272727273
 30
0.0
 40
60.31272347194501
 50
324.5012246521626
 51
348.5016439959332
  0
LINE
  5
490
  8
DATA
  6
CONTINUOUS
 62
     7
 10
-118.0053893296429
 20
-1559.75
 30
0.0
 11
-7.345691667825577
 21
-1559.75
 31
0.0
  0
LINE
  5
491
  8
DATA
  6
CONTINUOUS
 62
     7
 10
-60.0
 20
-1559.75
 30
0.0
 11
-60.0
 21
-1556.75
 31
0.0
  0
LINE
  5
492
  8
DATA
  6
CONTINUOUS
 62
     7
 10
-118.0053893296429
 20
-1556.75
 30
0.0
 11
-118.0053893296429
 21
-1559.75
 31
0.0
  0
LINE
  5
493
  8
DATA
  6
CONTINUOUS
 62
     7
 10
-115.0000000000001
 20
-1529.75
 30
0.0
 11
-115.0000000000001
 21
-1488.367787551312
 31
0.0
  0
LINE
  5
494
  8
DATA
  6
CONTINUOUS
 62
     7
 10
-115.0000000000001
 20
-1458.093095077165
 30
0.0
 11
-115.0000000000001
 21
-930.2938412682004
 31
0.0
  0
LINE
  5
495
  8
DATA
  6
CONTINUOUS
 62
     7
 10
-115.0000000000001
 20
-900.8338663800853
 30
0.0
 11
-115.0000000000001
 21
-859.75
 31
0.0
  0
ARC
  5
496
  8
DATA
  6
CONTINUOUS
 62
     7
 10
-11.00638304426212
 20
-909.7499999999998
 30
0.0
 40
14.99999999999993
 50
273.2892659920953
 51
93.28926599209595
  0
ARC
  5
497
  8
DATA
  6
CONTINUOUS
 62
     7
 10
-112.1667209989325
 20
-915.5638538241428
 30
0.0
 40
14.99999999999948
 50
93.28926599209603
 51
273.2892659920947
  0
LINE
  5
498
  8
DATA
  6
CONTINUOUS
 62
     7
 10
-111.3060661066184
 20
-930.5391425744915
 30
0.0
 11
-10.14572815194788
 21
-924.7252887503489
 31
0.0
  0
LINE
  5
499
  8
DATA
  6
CONTINUOUS
 62
     7
 10
-113.0273758912469
 20
-900.5885650737938
 30
0.0
 11
-11.86703793657648
 21
-894.7747112496513
 31
0.0
  0
ARC
  5
49A
  8
DATA
  6
CONTINUOUS
 62
     7
 10
-11.52847792467765
 20
-1481.269558455294
 30
0.0
 40
15.50000000000007
 50
265.4101275039491
 51
85.4101275039483
  0
LINE
  5
49B
  8
DATA
  6
CONTINUOUS
 62
     7
 10
-10.28812554538433
 20
-1465.819266355299
 30
0.0
 11
-110.4263686196392
 21
-1457.780149214243
 31
0.0
  0
LINE
  5
49C
  8
DATA
  6
CONTINUOUS
 62
     7
 10
-112.9070733782256
 20
-1488.680733414234
 30
0.0
 11
-12.76883030397073
 21
-1496.71985055529
 31
0.0
  0
ARC
  5
49D
  8
DATA
  6
CONTINUOUS
 62
     7
 10
-111.6667209989323
 20
-1473.230441314238
 30
0.0
 40
15.50000000000007
 50
85.41012750394914
 51
265.4101275039483
  0
LINE
  5
49E
  8
DATA
  6
CONTINUOUS
 62
     7
 10
2.5
 20
-865.6071428571427
 30
0.0
 11
2.5
 21
-903.2248473533818
 31
0.0
  0
LINE
  5
49F
  8
DATA
  6
CONTINUOUS
 62
     7
 10
2.5
 20
-916.2751526466178
 30
0.0
 11
2.5
 21
-1474.677759981673
 31
0.0
  0
LINE
  5
4A0
  8
DATA
  6
CONTINUOUS
 62
     7
 10
2.5
 20
-1487.861356928915
 30
0.0
 11
2.5
 21
-1529.97
 31
0.0
  0
LINE
  5
4A1
  8
DATA
  6
CONTINUOUS
 62
     7
 10
10.0
 20
-1556.75
 30
0.0
 11
-115.0000000000001
 21
-1529.75
 31
0.0
  0
LINE
  5
4A2
  8
DATA
  6
CONTINUOUS
 62
     7
 10
20.0
 20
-1533.75
 30
0.0
 11
-115.0000000000001
 21
-1504.589999999997
 31
0.0
  0
LINE
  5
4A3
  8
DATA
  6
CONTINUOUS
 62
     7
 10
7.5
 20
-843.25
 30
0.0
 11
-115.0000000000001
 21
-859.75
 31
0.0
  0
LINE
  5
4A4
  8
DATA
  6
CONTINUOUS
 62
     7
 10
20.0
 20
-863.25
 30
0.0
 11
-115.0000000000001
 21
-881.4336734693866
 31
0.0
  0
ARC
  5
4A5
  8
DATA
  6
CONTINUOUS
 62
     7
 10
-45.92307692307691
 20
-881.9653159340658
 30
0.0
 40
51.11148799548683
 50
18.66587929526443
 51
45.34488712090261
  0
ARC
  5
4A6
  8
DATA
  6
CONTINUOUS
 62
     7
 10
-56.60227272727275
 20
-1517.947272727273
 30
0.0
 40
60.31272347194501
 50
324.5012246521626
 51
348.5016439959332
  0
LINE
  5
4A7
  8
DATA
  6
CONTINUOUS
 62
     7
 10
-155.0
 20
-959.75
 30
0.0
 11
-245.0
 21
-959.75
 31
0.0
  0
ARC
  5
4A8
  8
DATA
  6
CONTINUOUS
 62
     7
 10
-245.0
 20
-934.75
 30
0.0
 40
25.0
 50
180.0
 51
270.0
  0
ARC
  5
4A9
  8
DATA
  6
CONTINUOUS
 62
     7
 10
-155.0
 20
-934.75
 30
0.0
 40
25.0
 50
270.0
 51
0.0
  0
LINE
  5
4AA
  8
DATA
  6
CONTINUOUS
 62
     7
 10
-270.0
 20
-850.2690969966616
 30
0.0
 11
-130.0
 21
-850.2690969966616
 31
0.0
  0
LINE
  5
4AB
  8
DATA
  6
CONTINUOUS
 62
     7
 10
-270.0
 20
-876.0690969966615
 30
0.0
 11
-130.0
 21
-876.0690969966615
 31
0.0
  0
ARC
  5
4AC
  8
DATA
  6
CONTINUOUS
 62
     7
 10
-257.1427169424447
 20
-1020.820040869684
 30
0.0
 40
171.0348917139453
 50
94.31118845130804
 51
106.6058619072533
  0
ARC
  5
4AD
  8
DATA
  6
CONTINUOUS
 62
     7
 10
-142.8572830575553
 20
-1020.820040869684
 30
0.0
 40
171.0348917139453
 50
73.39413809274673
 51
85.68881154869196
  0
CIRCLE
  5
4AE
  8
DATA
  6
CONTINUOUS
 62
     7
 10
-255.0
 20
-1018.25
 30
0.0
 40
3.0
  0
CIRCLE
  5
4AF
  8
DATA
  6
CONTINUOUS
 62
     7
 10
-255.0
 20
-1018.25
 30
0.0
 40
3.150000000000091
  0
CIRCLE
  5
4B0
  8
DATA
  6
CONTINUOUS
 62
     7
 10
-145.0
 20
-1018.25
 30
0.0
 40
3.0
  0
CIRCLE
  5
4B1
  8
DATA
  6
CONTINUOUS
 62
     7
 10
-145.0
 20
-1018.25
 30
0.0
 40
3.150000000000091
  0
CIRCLE
  5
4B2
  8
DATA
  6
CONTINUOUS
 62
     7
 10
-255.0
 20
-1413.25
 30
0.0
 40
3.0
  0
CIRCLE
  5
4B3
  8
DATA
  6
CONTINUOUS
 62
     7
 10
-255.0
 20
-1413.25
 30
0.0
 40
3.150000000000091
  0
CIRCLE
  5
4B4
  8
DATA
  6
CONTINUOUS
 62
     7
 10
-145.0
 20
-1413.25
 30
0.0
 40
3.0
  0
CIRCLE
  5
4B5
  8
DATA
  6
CONTINUOUS
 62
     7
 10
-145.0
 20
-1413.25
 30
0.0
 40
3.150000000000091
  0
CIRCLE
  5
4B6
  8
DATA
  6
CONTINUOUS
 62
     7
 10
-200.0
 20
-1416.75
 30
0.0
 40
5.0
  0
CIRCLE
  5
4B7
  8
DATA
  6
CONTINUOUS
 62
     7
 10
-200.0
 20
-1416.75
 30
0.0
 40
5.300000000000182
  0
CIRCLE
  5
4B8
  8
DATA
  6
CONTINUOUS
 62
     7
 10
-200.0
 20
-1014.75
 30
0.0
 40
5.0
  0
CIRCLE
  5
4B9
  8
DATA
  6
CONTINUOUS
 62
     7
 10
-200.0
 20
-1014.75
 30
0.0
 40
5.300000000000182
  0
LINE
  5
4BA
  8
DATA
  6
CONTINUOUS
 62
     7
 10
-260.0
 20
-1400.75
 30
0.0
 11
-140.0000004470348
 21
-1400.75
 31
0.0
  0
LINE
  5
4BB
  8
DATA
  6
CONTINUOUS
 62
     7
 10
-261.5
 20
-1395.75
 30
0.0
 11
-138.5000004470348
 21
-1395.75
 31
0.0
  0
LINE
  5
4BC
  8
DATA
  6
CONTINUOUS
 62
     7
 10
-261.5
 20
-1035.75
 30
0.0
 11
-138.5000004470348
 21
-1035.75
 31
0.0
  0
LINE
  5
4BD
  8
DATA
  6
CONTINUOUS
 62
     7
 10
-260.0
 20
-1030.75
 30
0.0
 11
-140.0000004470348
 21
-1030.75
 31
0.0
  0
POLYLINE
  5
4BE
  8
DATA
  6
CONTINUOUS
 62
     7
 66
     1
 10
0.0
 20
0.0
 30
0.0
 70
   129
  0
VERTEX
  5
73E
  8
DATA
  6
CONTINUOUS
 62
     7
 10
-236.5
 20
-1065.75
 30
0.0
  0
VERTEX
  5
73F
  8
DATA
  6
CONTINUOUS
 62
     7
 10
-188.5
 20
-1065.75
 30
0.0
  0
VERTEX
  5
740
  8
DATA
  6
CONTINUOUS
 62
     7
 10
-188.5
 20
-1102.75
 30
0.0
  0
VERTEX
  5
741
  8
DATA
  6
CONTINUOUS
 62
     7
 10
-236.5
 20
-1102.75
 30
0.0
  0
SEQEND
  5
77B
  8
DATA
  6
CONTINUOUS
 62
     7
  0
ARC
  5
4C4
  8
DATA
  6
CONTINUOUS
 62
     7
 10
-136.0000000001014
 20
-1349.052235619822
 30
0.0
 40
0.2222356198219792
 50
356.8251528744952
 51
183.1748471255113
  0
ARC
  5
4C5
  8
DATA
  6
CONTINUOUS
 62
     7
 10
-137.0351839159798
 20
-1348.95700886242
 30
0.0
 40
0.8203678318441852
 50
247.5320803524449
 51
352.4679196225691
  0
ARC
  5
4C6
  8
DATA
  6
CONTINUOUS
 62
     7
 10
-137.470307082976
 20
-1349.901117809911
 30
0.0
 40
0.2222356198220083
 50
56.8251528744594
 51
243.1748471255821
  0
ARC
  5
4C7
  8
DATA
  6
CONTINUOUS
 62
     7
 10
-138.0703678319455
 20
-1350.74999999995
 30
0.0
 40
0.8203678318444908
 50
307.5320803524694
 51
52.46791962253289
  0
ARC
  5
4C8
  8
DATA
  6
CONTINUOUS
 62
     7
 10
-136.0000000001014
 20
-1352.447764380178
 30
0.0
 40
0.2222356198215251
 50
176.8251528744887
 51
3.174847125504811
  0
ARC
  5
4C9
  8
DATA
  6
CONTINUOUS
 62
     7
 10
-137.0351839159798
 20
-1352.54299113758
 30
0.0
 40
0.8203678318442509
 50
7.53208037743091
 51
112.4679196475551
  0
ARC
  5
4CA
  8
DATA
  6
CONTINUOUS
 62
     7
 10
-137.470307082976
 20
-1351.598882190089
 30
0.0
 40
0.2222356198222793
 50
116.8251528744179
 51
303.1748471255407
  0
ARC
  5
4CB
  8
DATA
  6
CONTINUOUS
 62
     7
 10
-134.964816084223
 20
-1348.95700886242
 30
0.0
 40
0.8203678318442509
 50
187.5320803774309
 51
292.467919647555
  0
ARC
  5
4CC
  8
DATA
  6
CONTINUOUS
 62
     7
 10
-134.5296929172268
 20
-1349.901117809911
 30
0.0
 40
0.2222356198222793
 50
296.8251528744179
 51
123.1748471255406
  0
ARC
  5
4CD
  8
DATA
  6
CONTINUOUS
 62
     7
 10
-133.9296321682573
 20
-1350.74999999995
 30
0.0
 40
0.8203678318436249
 50
127.5320803774671
 51
232.4679196475306
  0
ARC
  5
4CE
  8
DATA
  6
CONTINUOUS
 62
     7
 10
-134.964816084223
 20
-1352.54299113758
 30
0.0
 40
0.8203678318441852
 50
67.53208035244492
 51
172.4679196225691
  0
ARC
  5
4CF
  8
DATA
  6
CONTINUOUS
 62
     7
 10
-134.5296929172268
 20
-1351.598882190089
 30
0.0
 40
0.2222356198220083
 50
236.8251528744594
 51
63.17484712558212
  0
CIRCLE
  5
4D0
  8
DATA
  6
CONTINUOUS
 62
     7
 10
-136.0
 20
-1350.75
 30
0.0
 40
4.050000000000182
  0
LINE
  5
4D1
  8
DATA
  6
CONTINUOUS
 62
     7
 10
-275.0
 20
-1045.75
 30
0.0
 11
-275.0
 21
-1385.75
 31
0.0
  0
LINE
  5
4D2
  8
DATA
  6
CONTINUOUS
 62
     7
 10
-271.5
 20
-1045.75
 30
0.0
 11
-271.5
 21
-1385.75
 31
0.0
  0
LINE
  5
4D3
  8
DATA
  6
CONTINUOUS
 62
     7
 10
-125.0000004470348
 20
-1045.75
 30
0.0
 11
-125.0000004470348
 21
-1385.75
 31
0.0
  0
LINE
  5
4D4
  8
DATA
  6
CONTINUOUS
 62
     7
 10
-128.5000004470348
 20
-1045.75
 30
0.0
 11
-128.5000004470348
 21
-1385.75
 31
0.0
  0
ARC
  5
4D5
  8
DATA
  6
CONTINUOUS
 62
     7
 10
-260.0
 20
-1045.75
 30
0.0
 40
15.0
 50
90.0
 51
180.0
  0
ARC
  5
4D6
  8
DATA
  6
CONTINUOUS
 62
     7
 10
-140.0000004470348
 20
-1045.75
 30
0.0
 40
15.0
 50
0.0
 51
90.0
  0
ARC
  5
4D7
  8
DATA
  6
CONTINUOUS
 62
     7
 10
-260.0
 20
-1385.75
 30
0.0
 40
15.0
 50
180.0
 51
270.0
  0
ARC
  5
4D8
  8
DATA
  6
CONTINUOUS
 62
     7
 10
-140.0000004470348
 20
-1385.75
 30
0.0
 40
15.0
 50
270.0
 51
0.0
  0
ARC
  5
4D9
  8
DATA
  6
CONTINUOUS
 62
     7
 10
-261.5
 20
-1045.75
 30
0.0
 40
10.0
 50
90.0
 51
180.0
  0
ARC
  5
4DA
  8
DATA
  6
CONTINUOUS
 62
     7
 10
-138.5000004470348
 20
-1045.75
 30
0.0
 40
10.0
 50
0.0
 51
90.0
  0
ARC
  5
4DB
  8
DATA
  6
CONTINUOUS
 62
     7
 10
-138.5000004470348
 20
-1385.75
 30
0.0
 40
10.0
 50
270.0
 51
0.0
  0
ARC
  5
4DC
  8
DATA
  6
CONTINUOUS
 62
     7
 10
-261.5
 20
-1385.75
 30
0.0
 40
10.0
 50
180.0
 51
270.0
  0
ARC
  5
4DD
  8
DATA
  6
CONTINUOUS
 62
     7
 10
-264.0000000001014
 20
-1349.052235619822
 30
0.0
 40
0.2222356198219792
 50
356.8251528744952
 51
183.1748471255113
  0
ARC
  5
4DE
  8
DATA
  6
CONTINUOUS
 62
     7
 10
-265.0351839159798
 20
-1348.95700886242
 30
0.0
 40
0.8203678318441852
 50
247.5320803524449
 51
352.4679196225691
  0
ARC
  5
4DF
  8
DATA
  6
CONTINUOUS
 62
     7
 10
-265.470307082976
 20
-1349.901117809911
 30
0.0
 40
0.2222356198220083
 50
56.8251528744594
 51
243.1748471255821
  0
ARC
  5
4E0
  8
DATA
  6
CONTINUOUS
 62
     7
 10
-266.0703678319455
 20
-1350.74999999995
 30
0.0
 40
0.8203678318444908
 50
307.5320803524694
 51
52.46791962253289
  0
ARC
  5
4E1
  8
DATA
  6
CONTINUOUS
 62
     7
 10
-264.0000000001014
 20
-1352.447764380178
 30
0.0
 40
0.2222356198215251
 50
176.8251528744887
 51
3.174847125504811
  0
ARC
  5
4E2
  8
DATA
  6
CONTINUOUS
 62
     7
 10
-265.0351839159798
 20
-1352.54299113758
 30
0.0
 40
0.8203678318442509
 50
7.53208037743091
 51
112.4679196475551
  0
ARC
  5
4E3
  8
DATA
  6
CONTINUOUS
 62
     7
 10
-265.470307082976
 20
-1351.598882190089
 30
0.0
 40
0.2222356198222793
 50
116.8251528744179
 51
303.1748471255407
  0
ARC
  5
4E4
  8
DATA
  6
CONTINUOUS
 62
     7
 10
-262.964816084223
 20
-1348.95700886242
 30
0.0
 40
0.8203678318442509
 50
187.5320803774309
 51
292.467919647555
  0
ARC
  5
4E5
  8
DATA
  6
CONTINUOUS
 62
     7
 10
-262.5296929172268
 20
-1349.901117809911
 30
0.0
 40
0.2222356198222793
 50
296.8251528744179
 51
123.1748471255406
  0
ARC
  5
4E6
  8
DATA
  6
CONTINUOUS
 62
     7
 10
-261.9296321682573
 20
-1350.74999999995
 30
0.0
 40
0.8203678318436249
 50
127.5320803774671
 51
232.4679196475306
  0
ARC
  5
4E7
  8
DATA
  6
CONTINUOUS
 62
     7
 10
-262.964816084223
 20
-1352.54299113758
 30
0.0
 40
0.8203678318441852
 50
67.53208035244492
 51
172.4679196225691
  0
ARC
  5
4E8
  8
DATA
  6
CONTINUOUS
 62
     7
 10
-262.5296929172268
 20
-1351.598882190089
 30
0.0
 40
0.2222356198220083
 50
236.8251528744594
 51
63.17484712558212
  0
CIRCLE
  5
4E9
  8
DATA
  6
CONTINUOUS
 62
     7
 10
-264.0
 20
-1350.75
 30
0.0
 40
4.050000000000182
  0
ARC
  5
4EA
  8
DATA
  6
CONTINUOUS
 62
     7
 10
-264.0000000001014
 20
-1259.052235619822
 30
0.0
 40
0.2222356198219792
 50
356.8251528744952
 51
183.1748471255113
  0
ARC
  5
4EB
  8
DATA
  6
CONTINUOUS
 62
     7
 10
-265.0351839159798
 20
-1258.95700886242
 30
0.0
 40
0.8203678318441852
 50
247.5320803524449
 51
352.4679196225691
  0
ARC
  5
4EC
  8
DATA
  6
CONTINUOUS
 62
     7
 10
-265.470307082976
 20
-1259.901117809911
 30
0.0
 40
0.2222356198220083
 50
56.8251528744594
 51
243.1748471255821
  0
ARC
  5
4ED
  8
DATA
  6
CONTINUOUS
 62
     7
 10
-266.0703678319455
 20
-1260.74999999995
 30
0.0
 40
0.8203678318444908
 50
307.5320803524694
 51
52.46791962253289
  0
ARC
  5
4EE
  8
DATA
  6
CONTINUOUS
 62
     7
 10
-264.0000000001014
 20
-1262.447764380178
 30
0.0
 40
0.2222356198215251
 50
176.8251528744887
 51
3.174847125504811
  0
ARC
  5
4EF
  8
DATA
  6
CONTINUOUS
 62
     7
 10
-265.0351839159798
 20
-1262.54299113758
 30
0.0
 40
0.8203678318442509
 50
7.53208037743091
 51
112.4679196475551
  0
ARC
  5
4F0
  8
DATA
  6
CONTINUOUS
 62
     7
 10
-265.470307082976
 20
-1261.598882190089
 30
0.0
 40
0.2222356198222793
 50
116.8251528744179
 51
303.1748471255407
  0
ARC
  5
4F1
  8
DATA
  6
CONTINUOUS
 62
     7
 10
-262.964816084223
 20
-1258.95700886242
 30
0.0
 40
0.8203678318442509
 50
187.5320803774309
 51
292.467919647555
  0
ARC
  5
4F2
  8
DATA
  6
CONTINUOUS
 62
     7
 10
-262.5296929172268
 20
-1259.901117809911
 30
0.0
 40
0.2222356198222793
 50
296.8251528744179
 51
123.1748471255406
  0
ARC
  5
4F3
  8
DATA
  6
CONTINUOUS
 62
     7
 10
-261.9296321682573
 20
-1260.74999999995
 30
0.0
 40
0.8203678318436249
 50
127.5320803774671
 51
232.4679196475306
  0
ARC
  5
4F4
  8
DATA
  6
CONTINUOUS
 62
     7
 10
-262.964816084223
 20
-1262.54299113758
 30
0.0
 40
0.8203678318441852
 50
67.53208035244492
 51
172.4679196225691
  0
ARC
  5
4F5
  8
DATA
  6
CONTINUOUS
 62
     7
 10
-262.5296929172268
 20
-1261.598882190089
 30
0.0
 40
0.2222356198220083
 50
236.8251528744594
 51
63.17484712558212
  0
CIRCLE
  5
4F6
  8
DATA
  6
CONTINUOUS
 62
     7
 10
-264.0
 20
-1260.75
 30
0.0
 40
4.050000000000182
  0
ARC
  5
4F7
  8
DATA
  6
CONTINUOUS
 62
     7
 10
-264.0000000001014
 20
-1169.052235619822
 30
0.0
 40
0.2222356198219918
 50
356.8251528744368
 51
183.1748471255699
  0
ARC
  5
4F8
  8
DATA
  6
CONTINUOUS
 62
     7
 10
-265.0351839159798
 20
-1168.95700886242
 30
0.0
 40
0.8203678318441852
 50
247.5320803524449
 51
352.4679196225533
  0
ARC
  5
4F9
  8
DATA
  6
CONTINUOUS
 62
     7
 10
-265.470307082976
 20
-1169.901117809911
 30
0.0
 40
0.222235619821818
 50
56.82515287442732
 51
243.1748471255556
  0
ARC
  5
4FA
  8
DATA
  6
CONTINUOUS
 62
     7
 10
-266.0703678319455
 20
-1170.74999999995
 30
0.0
 40
0.8203678318443105
 50
307.5320803524791
 51
52.46791962255222
  0
ARC
  5
4FB
  8
DATA
  6
CONTINUOUS
 62
     7
 10
-264.0000000001014
 20
-1172.447764380178
 30
0.0
 40
0.2222356198215377
 50
176.8251528744302
 51
3.174847125563361
  0
ARC
  5
4FC
  8
DATA
  6
CONTINUOUS
 62
     7
 10
-265.0351839159798
 20
-1172.54299113758
 30
0.0
 40
0.8203678318442806
 50
7.532080377446654
 51
112.4679196475551
  0
ARC
  5
4FD
  8
DATA
  6
CONTINUOUS
 62
     7
 10
-265.470307082976
 20
-1171.598882190089
 30
0.0
 40
0.2222356198220764
 50
116.8251528744444
 51
303.1748471255727
  0
ARC
  5
4FE
  8
DATA
  6
CONTINUOUS
 62
     7
 10
-262.964816084223
 20
-1168.95700886242
 30
0.0
 40
0.8203678318442806
 50
187.5320803774466
 51
292.467919647555
  0
ARC
  5
4FF
  8
DATA
  6
CONTINUOUS
 62
     7
 10
-262.5296929172268
 20
-1169.901117809911
 30
0.0
 40
0.2222356198220764
 50
296.8251528744443
 51
123.1748471255727
  0
ARC
  5
500
  8
DATA
  6
CONTINUOUS
 62
     7
 10
-261.9296321682573
 20
-1170.74999999995
 30
0.0
 40
0.8203678318439855
 50
127.5320803774478
 51
232.4679196475209
  0
ARC
  5
501
  8
DATA
  6
CONTINUOUS
 62
     7
 10
-262.964816084223
 20
-1172.54299113758
 30
0.0
 40
0.8203678318441852
 50
67.53208035244492
 51
172.4679196225534
  0
ARC
  5
502
  8
DATA
  6
CONTINUOUS
 62
     7
 10
-262.5296929172268
 20
-1171.598882190089
 30
0.0
 40
0.222235619821818
 50
236.8251528744273
 51
63.17484712555569
  0
CIRCLE
  5
503
  8
DATA
  6
CONTINUOUS
 62
     7
 10
-264.0
 20
-1170.75
 30
0.0
 40
4.050000000000182
  0
ARC
  5
504
  8
DATA
  6
CONTINUOUS
 62
     7
 10
-264.0000000001014
 20
-1079.052235619822
 30
0.0
 40
0.2222356198219918
 50
356.8251528744368
 51
183.1748471255699
  0
ARC
  5
505
  8
DATA
  6
CONTINUOUS
 62
     7
 10
-265.0351839159798
 20
-1078.95700886242
 30
0.0
 40
0.8203678318441852
 50
247.5320803524449
 51
352.4679196225533
  0
ARC
  5
506
  8
DATA
  6
CONTINUOUS
 62
     7
 10
-265.470307082976
 20
-1079.901117809911
 30
0.0
 40
0.222235619821818
 50
56.82515287442732
 51
243.1748471255556
  0
ARC
  5
507
  8
DATA
  6
CONTINUOUS
 62
     7
 10
-266.0703678319455
 20
-1080.74999999995
 30
0.0
 40
0.8203678318443105
 50
307.5320803524791
 51
52.46791962255222
  0
ARC
  5
508
  8
DATA
  6
CONTINUOUS
 62
     7
 10
-264.0000000001014
 20
-1082.447764380178
 30
0.0
 40
0.2222356198215377
 50
176.8251528744302
 51
3.174847125563361
  0
ARC
  5
509
  8
DATA
  6
CONTINUOUS
 62
     7
 10
-265.0351839159798
 20
-1082.54299113758
 30
0.0
 40
0.8203678318442806
 50
7.532080377446654
 51
112.4679196475551
  0
ARC
  5
50A
  8
DATA
  6
CONTINUOUS
 62
     7
 10
-265.470307082976
 20
-1081.598882190089
 30
0.0
 40
0.2222356198220764
 50
116.8251528744444
 51
303.1748471255727
  0
ARC
  5
50B
  8
DATA
  6
CONTINUOUS
 62
     7
 10
-262.964816084223
 20
-1078.95700886242
 30
0.0
 40
0.8203678318442806
 50
187.5320803774466
 51
292.467919647555
  0
ARC
  5
50C
  8
DATA
  6
CONTINUOUS
 62
     7
 10
-262.5296929172268
 20
-1079.901117809911
 30
0.0
 40
0.2222356198220764
 50
296.8251528744443
 51
123.1748471255727
  0
ARC
  5
50D
  8
DATA
  6
CONTINUOUS
 62
     7
 10
-261.9296321682573
 20
-1080.74999999995
 30
0.0
 40
0.8203678318439855
 50
127.5320803774478
 51
232.4679196475209
  0
ARC
  5
50E
  8
DATA
  6
CONTINUOUS
 62
     7
 10
-262.964816084223
 20
-1082.54299113758
 30
0.0
 40
0.8203678318441852
 50
67.53208035244492
 51
172.4679196225534
  0
ARC
  5
50F
  8
DATA
  6
CONTINUOUS
 62
     7
 10
-262.5296929172268
 20
-1081.598882190089
 30
0.0
 40
0.222235619821818
 50
236.8251528744273
 51
63.17484712555569
  0
CIRCLE
  5
510
  8
DATA
  6
CONTINUOUS
 62
     7
 10
-264.0
 20
-1080.75
 30
0.0
 40
4.050000000000182
  0
ARC
  5
511
  8
DATA
  6
CONTINUOUS
 62
     7
 10
-136.0000000001014
 20
-1079.052235619822
 30
0.0
 40
0.2222356198219918
 50
356.8251528744368
 51
183.1748471255699
  0
ARC
  5
512
  8
DATA
  6
CONTINUOUS
 62
     7
 10
-137.0351839159798
 20
-1078.95700886242
 30
0.0
 40
0.8203678318441852
 50
247.5320803524449
 51
352.4679196225533
  0
ARC
  5
513
  8
DATA
  6
CONTINUOUS
 62
     7
 10
-137.470307082976
 20
-1079.901117809911
 30
0.0
 40
0.222235619821818
 50
56.82515287442732
 51
243.1748471255556
  0
ARC
  5
514
  8
DATA
  6
CONTINUOUS
 62
     7
 10
-138.0703678319455
 20
-1080.74999999995
 30
0.0
 40
0.8203678318443105
 50
307.5320803524791
 51
52.46791962255222
  0
ARC
  5
515
  8
DATA
  6
CONTINUOUS
 62
     7
 10
-136.0000000001014
 20
-1082.447764380178
 30
0.0
 40
0.2222356198215377
 50
176.8251528744302
 51
3.174847125563361
  0
ARC
  5
516
  8
DATA
  6
CONTINUOUS
 62
     7
 10
-137.0351839159798
 20
-1082.54299113758
 30
0.0
 40
0.8203678318442806
 50
7.532080377446654
 51
112.4679196475551
  0
ARC
  5
517
  8
DATA
  6
CONTINUOUS
 62
     7
 10
-137.470307082976
 20
-1081.598882190089
 30
0.0
 40
0.2222356198220764
 50
116.8251528744444
 51
303.1748471255727
  0
ARC
  5
518
  8
DATA
  6
CONTINUOUS
 62
     7
 10
-134.964816084223
 20
-1078.95700886242
 30
0.0
 40
0.8203678318442806
 50
187.5320803774466
 51
292.467919647555
  0
ARC
  5
519
  8
DATA
  6
CONTINUOUS
 62
     7
 10
-134.5296929172268
 20
-1079.901117809911
 30
0.0
 40
0.2222356198220764
 50
296.8251528744443
 51
123.1748471255727
  0
ARC
  5
51A
  8
DATA
  6
CONTINUOUS
 62
     7
 10
-133.9296321682573
 20
-1080.74999999995
 30
0.0
 40
0.8203678318439855
 50
127.5320803774478
 51
232.4679196475209
  0
ARC
  5
51B
  8
DATA
  6
CONTINUOUS
 62
     7
 10
-134.964816084223
 20
-1082.54299113758
 30
0.0
 40
0.8203678318441852
 50
67.53208035244492
 51
172.4679196225534
  0
ARC
  5
51C
  8
DATA
  6
CONTINUOUS
 62
     7
 10
-134.5296929172268
 20
-1081.598882190089
 30
0.0
 40
0.222235619821818
 50
236.8251528744273
 51
63.17484712555569
  0
CIRCLE
  5
51D
  8
DATA
  6
CONTINUOUS
 62
     7
 10
-136.0
 20
-1080.75
 30
0.0
 40
4.050000000000182
  0
ARC
  5
51E
  8
DATA
  6
CONTINUOUS
 62
     7
 10
-136.0000000001014
 20
-1259.052235619822
 30
0.0
 40
0.2222356198219792
 50
356.8251528744952
 51
183.1748471255113
  0
ARC
  5
51F
  8
DATA
  6
CONTINUOUS
 62
     7
 10
-137.0351839159798
 20
-1258.95700886242
 30
0.0
 40
0.8203678318441852
 50
247.5320803524449
 51
352.4679196225691
  0
ARC
  5
520
  8
DATA
  6
CONTINUOUS
 62
     7
 10
-137.470307082976
 20
-1259.901117809911
 30
0.0
 40
0.2222356198220083
 50
56.8251528744594
 51
243.1748471255821
  0
ARC
  5
521
  8
DATA
  6
CONTINUOUS
 62
     7
 10
-138.0703678319455
 20
-1260.74999999995
 30
0.0
 40
0.8203678318444908
 50
307.5320803524694
 51
52.46791962253289
  0
ARC
  5
522
  8
DATA
  6
CONTINUOUS
 62
     7
 10
-136.0000000001014
 20
-1262.447764380178
 30
0.0
 40
0.2222356198215251
 50
176.8251528744887
 51
3.174847125504811
  0
ARC
  5
523
  8
DATA
  6
CONTINUOUS
 62
     7
 10
-137.0351839159798
 20
-1262.54299113758
 30
0.0
 40
0.8203678318442509
 50
7.53208037743091
 51
112.4679196475551
  0
ARC
  5
524
  8
DATA
  6
CONTINUOUS
 62
     7
 10
-137.470307082976
 20
-1261.598882190089
 30
0.0
 40
0.2222356198222793
 50
116.8251528744179
 51
303.1748471255407
  0
ARC
  5
525
  8
DATA
  6
CONTINUOUS
 62
     7
 10
-134.964816084223
 20
-1258.95700886242
 30
0.0
 40
0.8203678318442509
 50
187.5320803774309
 51
292.467919647555
  0
ARC
  5
526
  8
DATA
  6
CONTINUOUS
 62
     7
 10
-134.5296929172268
 20
-1259.901117809911
 30
0.0
 40
0.2222356198222793
 50
296.8251528744179
 51
123.1748471255406
  0
ARC
  5
527
  8
DATA
  6
CONTINUOUS
 62
     7
 10
-133.9296321682573
 20
-1260.74999999995
 30
0.0
 40
0.8203678318436249
 50
127.5320803774671
 51
232.4679196475306
  0
ARC
  5
528
  8
DATA
  6
CONTINUOUS
 62
     7
 10
-134.964816084223
 20
-1262.54299113758
 30
0.0
 40
0.8203678318441852
 50
67.53208035244492
 51
172.4679196225691
  0
ARC
  5
529
  8
DATA
  6
CONTINUOUS
 62
     7
 10
-134.5296929172268
 20
-1261.598882190089
 30
0.0
 40
0.2222356198220083
 50
236.8251528744594
 51
63.17484712558212
  0
CIRCLE
  5
52A
  8
DATA
  6
CONTINUOUS
 62
     7
 10
-136.0
 20
-1260.75
 30
0.0
 40
4.050000000000182
  0
ARC
  5
52B
  8
DATA
  6
CONTINUOUS
 62
     7
 10
-136.0000000001014
 20
-1169.052235619822
 30
0.0
 40
0.2222356198219918
 50
356.8251528744368
 51
183.1748471255699
  0
ARC
  5
52C
  8
DATA
  6
CONTINUOUS
 62
     7
 10
-137.0351839159798
 20
-1168.95700886242
 30
0.0
 40
0.8203678318441852
 50
247.5320803524449
 51
352.4679196225533
  0
ARC
  5
52D
  8
DATA
  6
CONTINUOUS
 62
     7
 10
-137.470307082976
 20
-1169.901117809911
 30
0.0
 40
0.222235619821818
 50
56.82515287442732
 51
243.1748471255556
  0
ARC
  5
52E
  8
DATA
  6
CONTINUOUS
 62
     7
 10
-138.0703678319455
 20
-1170.74999999995
 30
0.0
 40
0.8203678318443105
 50
307.5320803524791
 51
52.46791962255222
  0
ARC
  5
52F
  8
DATA
  6
CONTINUOUS
 62
     7
 10
-136.0000000001014
 20
-1172.447764380178
 30
0.0
 40
0.2222356198215377
 50
176.8251528744302
 51
3.174847125563361
  0
ARC
  5
530
  8
DATA
  6
CONTINUOUS
 62
     7
 10
-137.0351839159798
 20
-1172.54299113758
 30
0.0
 40
0.8203678318442806
 50
7.532080377446654
 51
112.4679196475551
  0
ARC
  5
531
  8
DATA
  6
CONTINUOUS
 62
     7
 10
-137.470307082976
 20
-1171.598882190089
 30
0.0
 40
0.2222356198220764
 50
116.8251528744444
 51
303.1748471255727
  0
ARC
  5
532
  8
DATA
  6
CONTINUOUS
 62
     7
 10
-134.964816084223
 20
-1168.95700886242
 30
0.0
 40
0.8203678318442806
 50
187.5320803774466
 51
292.467919647555
  0
ARC
  5
533
  8
DATA
  6
CONTINUOUS
 62
     7
 10
-134.5296929172268
 20
-1169.901117809911
 30
0.0
 40
0.2222356198220764
 50
296.8251528744443
 51
123.1748471255727
  0
ARC
  5
534
  8
DATA
  6
CONTINUOUS
 62
     7
 10
-133.9296321682573
 20
-1170.74999999995
 30
0.0
 40
0.8203678318439855
 50
127.5320803774478
 51
232.4679196475209
  0
ARC
  5
535
  8
DATA
  6
CONTINUOUS
 62
     7
 10
-134.964816084223
 20
-1172.54299113758
 30
0.0
 40
0.8203678318441852
 50
67.53208035244492
 51
172.4679196225534
  0
ARC
  5
536
  8
DATA
  6
CONTINUOUS
 62
     7
 10
-134.5296929172268
 20
-1171.598882190089
 30
0.0
 40
0.222235619821818
 50
236.8251528744273
 51
63.17484712555569
  0
CIRCLE
  5
537
  8
DATA
  6
CONTINUOUS
 62
     7
 10
-136.0
 20
-1170.75
 30
0.0
 40
4.050000000000182
  0
ARC
  5
538
  8
DATA
  6
CONTINUOUS
 62
     7
 10
-240.0000000001014
 20
-1387.552235619822
 30
0.0
 40
0.2222356198219792
 50
356.8251528744952
 51
183.1748471255113
  0
ARC
  5
539
  8
DATA
  6
CONTINUOUS
 62
     7
 10
-241.0351839159798
 20
-1387.45700886242
 30
0.0
 40
0.8203678318441852
 50
247.5320803524449
 51
352.4679196225691
  0
ARC
  5
53A
  8
DATA
  6
CONTINUOUS
 62
     7
 10
-241.470307082976
 20
-1388.401117809911
 30
0.0
 40
0.2222356198220083
 50
56.8251528744594
 51
243.1748471255821
  0
ARC
  5
53B
  8
DATA
  6
CONTINUOUS
 62
     7
 10
-242.0703678319455
 20
-1389.24999999995
 30
0.0
 40
0.8203678318444908
 50
307.5320803524694
 51
52.46791962253289
  0
ARC
  5
53C
  8
DATA
  6
CONTINUOUS
 62
     7
 10
-240.0000000001014
 20
-1390.947764380178
 30
0.0
 40
0.2222356198215251
 50
176.8251528744887
 51
3.174847125504811
  0
ARC
  5
53D
  8
DATA
  6
CONTINUOUS
 62
     7
 10
-241.0351839159798
 20
-1391.04299113758
 30
0.0
 40
0.8203678318442509
 50
7.53208037743091
 51
112.4679196475551
  0
ARC
  5
53E
  8
DATA
  6
CONTINUOUS
 62
     7
 10
-241.470307082976
 20
-1390.098882190089
 30
0.0
 40
0.2222356198222793
 50
116.8251528744179
 51
303.1748471255407
  0
ARC
  5
53F
  8
DATA
  6
CONTINUOUS
 62
     7
 10
-238.964816084223
 20
-1387.45700886242
 30
0.0
 40
0.8203678318442509
 50
187.5320803774309
 51
292.467919647555
  0
ARC
  5
540
  8
DATA
  6
CONTINUOUS
 62
     7
 10
-238.5296929172268
 20
-1388.401117809911
 30
0.0
 40
0.2222356198222793
 50
296.8251528744179
 51
123.1748471255406
  0
ARC
  5
541
  8
DATA
  6
CONTINUOUS
 62
     7
 10
-237.9296321682573
 20
-1389.24999999995
 30
0.0
 40
0.8203678318436249
 50
127.5320803774671
 51
232.4679196475306
  0
ARC
  5
542
  8
DATA
  6
CONTINUOUS
 62
     7
 10
-238.964816084223
 20
-1391.04299113758
 30
0.0
 40
0.8203678318441852
 50
67.53208035244492
 51
172.4679196225691
  0
ARC
  5
543
  8
DATA
  6
CONTINUOUS
 62
     7
 10
-238.5296929172268
 20
-1390.098882190089
 30
0.0
 40
0.2222356198220083
 50
236.8251528744594
 51
63.17484712558212
  0
CIRCLE
  5
544
  8
DATA
  6
CONTINUOUS
 62
     7
 10
-240.0
 20
-1389.25
 30
0.0
 40
4.050000000000182
  0
ARC
  5
545
  8
DATA
  6
CONTINUOUS
 62
     7
 10
-160.0000000001014
 20
-1387.552235619822
 30
0.0
 40
0.2222356198219792
 50
356.8251528744952
 51
183.1748471255113
  0
ARC
  5
546
  8
DATA
  6
CONTINUOUS
 62
     7
 10
-161.0351839159798
 20
-1387.45700886242
 30
0.0
 40
0.8203678318441852
 50
247.5320803524449
 51
352.4679196225691
  0
ARC
  5
547
  8
DATA
  6
CONTINUOUS
 62
     7
 10
-161.470307082976
 20
-1388.401117809911
 30
0.0
 40
0.2222356198220083
 50
56.8251528744594
 51
243.1748471255821
  0
ARC
  5
548
  8
DATA
  6
CONTINUOUS
 62
     7
 10
-162.0703678319455
 20
-1389.24999999995
 30
0.0
 40
0.8203678318444908
 50
307.5320803524694
 51
52.46791962253289
  0
ARC
  5
549
  8
DATA
  6
CONTINUOUS
 62
     7
 10
-160.0000000001014
 20
-1390.947764380178
 30
0.0
 40
0.2222356198215251
 50
176.8251528744887
 51
3.174847125504811
  0
ARC
  5
54A
  8
DATA
  6
CONTINUOUS
 62
     7
 10
-161.0351839159798
 20
-1391.04299113758
 30
0.0
 40
0.8203678318442509
 50
7.53208037743091
 51
112.4679196475551
  0
ARC
  5
54B
  8
DATA
  6
CONTINUOUS
 62
     7
 10
-161.470307082976
 20
-1390.098882190089
 30
0.0
 40
0.2222356198222793
 50
116.8251528744179
 51
303.1748471255407
  0
ARC
  5
54C
  8
DATA
  6
CONTINUOUS
 62
     7
 10
-158.964816084223
 20
-1387.45700886242
 30
0.0
 40
0.8203678318442509
 50
187.5320803774309
 51
292.467919647555
  0
ARC
  5
54D
  8
DATA
  6
CONTINUOUS
 62
     7
 10
-158.5296929172268
 20
-1388.401117809911
 30
0.0
 40
0.2222356198222793
 50
296.8251528744179
 51
123.1748471255406
  0
ARC
  5
54E
  8
DATA
  6
CONTINUOUS
 62
     7
 10
-157.9296321682573
 20
-1389.24999999995
 30
0.0
 40
0.8203678318436249
 50
127.5320803774671
 51
232.4679196475306
  0
ARC
  5
54F
  8
DATA
  6
CONTINUOUS
 62
     7
 10
-158.964816084223
 20
-1391.04299113758
 30
0.0
 40
0.8203678318441852
 50
67.53208035244492
 51
172.4679196225691
  0
ARC
  5
550
  8
DATA
  6
CONTINUOUS
 62
     7
 10
-158.5296929172268
 20
-1390.098882190089
 30
0.0
 40
0.2222356198220083
 50
236.8251528744594
 51
63.17484712558212
  0
CIRCLE
  5
551
  8
DATA
  6
CONTINUOUS
 62
     7
 10
-160.0
 20
-1389.25
 30
0.0
 40
4.050000000000182
  0
ARC
  5
552
  8
DATA
  6
CONTINUOUS
 62
     7
 10
-240.0000000001014
 20
-1040.552235619822
 30
0.0
 40
0.2222356198219918
 50
356.8251528744368
 51
183.1748471255699
  0
ARC
  5
553
  8
DATA
  6
CONTINUOUS
 62
     7
 10
-241.0351839159798
 20
-1040.45700886242
 30
0.0
 40
0.8203678318441852
 50
247.5320803524449
 51
352.4679196225533
  0
ARC
  5
554
  8
DATA
  6
CONTINUOUS
 62
     7
 10
-241.470307082976
 20
-1041.401117809911
 30
0.0
 40
0.222235619821818
 50
56.82515287442732
 51
243.1748471255556
  0
ARC
  5
555
  8
DATA
  6
CONTINUOUS
 62
     7
 10
-242.0703678319455
 20
-1042.24999999995
 30
0.0
 40
0.8203678318443105
 50
307.5320803524791
 51
52.46791962255222
  0
ARC
  5
556
  8
DATA
  6
CONTINUOUS
 62
     7
 10
-240.0000000001014
 20
-1043.947764380178
 30
0.0
 40
0.2222356198215377
 50
176.8251528744302
 51
3.174847125563361
  0
ARC
  5
557
  8
DATA
  6
CONTINUOUS
 62
     7
 10
-241.0351839159798
 20
-1044.04299113758
 30
0.0
 40
0.8203678318442806
 50
7.532080377446654
 51
112.4679196475551
  0
ARC
  5
558
  8
DATA
  6
CONTINUOUS
 62
     7
 10
-241.470307082976
 20
-1043.098882190089
 30
0.0
 40
0.2222356198220764
 50
116.8251528744444
 51
303.1748471255727
  0
ARC
  5
559
  8
DATA
  6
CONTINUOUS
 62
     7
 10
-238.964816084223
 20
-1040.45700886242
 30
0.0
 40
0.8203678318442806
 50
187.5320803774466
 51
292.467919647555
  0
ARC
  5
55A
  8
DATA
  6
CONTINUOUS
 62
     7
 10
-238.5296929172268
 20
-1041.401117809911
 30
0.0
 40
0.2222356198220764
 50
296.8251528744443
 51
123.1748471255727
  0
ARC
  5
55B
  8
DATA
  6
CONTINUOUS
 62
     7
 10
-237.9296321682573
 20
-1042.24999999995
 30
0.0
 40
0.8203678318439855
 50
127.5320803774478
 51
232.4679196475209
  0
ARC
  5
55C
  8
DATA
  6
CONTINUOUS
 62
     7
 10
-238.964816084223
 20
-1044.04299113758
 30
0.0
 40
0.8203678318441852
 50
67.53208035244492
 51
172.4679196225534
  0
ARC
  5
55D
  8
DATA
  6
CONTINUOUS
 62
     7
 10
-238.5296929172268
 20
-1043.098882190089
 30
0.0
 40
0.222235619821818
 50
236.8251528744273
 51
63.17484712555569
  0
CIRCLE
  5
55E
  8
DATA
  6
CONTINUOUS
 62
     7
 10
-240.0
 20
-1042.25
 30
0.0
 40
4.050000000000182
  0
ARC
  5
55F
  8
DATA
  6
CONTINUOUS
 62
     7
 10
-160.0000000001014
 20
-1040.552235619822
 30
0.0
 40
0.2222356198219918
 50
356.8251528744368
 51
183.1748471255699
  0
ARC
  5
560
  8
DATA
  6
CONTINUOUS
 62
     7
 10
-161.0351839159798
 20
-1040.45700886242
 30
0.0
 40
0.8203678318441852
 50
247.5320803524449
 51
352.4679196225533
  0
ARC
  5
561
  8
DATA
  6
CONTINUOUS
 62
     7
 10
-161.470307082976
 20
-1041.401117809911
 30
0.0
 40
0.222235619821818
 50
56.82515287442732
 51
243.1748471255556
  0
ARC
  5
562
  8
DATA
  6
CONTINUOUS
 62
     7
 10
-162.0703678319455
 20
-1042.24999999995
 30
0.0
 40
0.8203678318443105
 50
307.5320803524791
 51
52.46791962255222
  0
ARC
  5
563
  8
DATA
  6
CONTINUOUS
 62
     7
 10
-160.0000000001014
 20
-1043.947764380178
 30
0.0
 40
0.2222356198215377
 50
176.8251528744302
 51
3.174847125563361
  0
ARC
  5
564
  8
DATA
  6
CONTINUOUS
 62
     7
 10
-161.0351839159798
 20
-1044.04299113758
 30
0.0
 40
0.8203678318442806
 50
7.532080377446654
 51
112.4679196475551
  0
ARC
  5
565
  8
DATA
  6
CONTINUOUS
 62
     7
 10
-161.470307082976
 20
-1043.098882190089
 30
0.0
 40
0.2222356198220764
 50
116.8251528744444
 51
303.1748471255727
  0
ARC
  5
566
  8
DATA
  6
CONTINUOUS
 62
     7
 10
-158.964816084223
 20
-1040.45700886242
 30
0.0
 40
0.8203678318442806
 50
187.5320803774466
 51
292.467919647555
  0
ARC
  5
567
  8
DATA
  6
CONTINUOUS
 62
     7
 10
-158.5296929172268
 20
-1041.401117809911
 30
0.0
 40
0.2222356198220764
 50
296.8251528744443
 51
123.1748471255727
  0
ARC
  5
568
  8
DATA
  6
CONTINUOUS
 62
     7
 10
-157.9296321682573
 20
-1042.24999999995
 30
0.0
 40
0.8203678318439855
 50
127.5320803774478
 51
232.4679196475209
  0
ARC
  5
569
  8
DATA
  6
CONTINUOUS
 62
     7
 10
-158.964816084223
 20
-1044.04299113758
 30
0.0
 40
0.8203678318441852
 50
67.53208035244492
 51
172.4679196225534
  0
ARC
  5
56A
  8
DATA
  6
CONTINUOUS
 62
     7
 10
-158.5296929172268
 20
-1043.098882190089
 30
0.0
 40
0.222235619821818
 50
236.8251528744273
 51
63.17484712555569
  0
CIRCLE
  5
56B
  8
DATA
  6
CONTINUOUS
 62
     7
 10
-160.0
 20
-1042.25
 30
0.0
 40
4.050000000000182
  0
CIRCLE
  5
56C
  8
DATA
  6
CONTINUOUS
 62
     7
 10
-167.5
 20
-1066.75
 30
0.0
 40
5.0
  0
ARC
  5
56D
  8
DATA
  6
CONTINUOUS
 62
     7
 10
-167.5
 20
-1066.75
 30
0.0
 40
1.99999999999977
 50
120.0000000000038
 51
59.9999999999962
  0
LINE
  5
56E
  8
DATA
  6
CONTINUOUS
 62
     7
 10
-167.5
 20
-1066.75
 30
0.0
 11
-167.5
 21
-1064.25
 31
0.0
  0
CIRCLE
  5
56F
  8
DATA
  6
CONTINUOUS
 62
     7
 10
-167.5
 20
-1090.25
 30
0.0
 40
10.75
  0
CIRCLE
  5
570
  8
DATA
  6
CONTINUOUS
 62
     7
 10
-167.5
 20
-1090.25
 30
0.0
 40
10.0
  0
CIRCLE
  5
571
  8
DATA
  6
CONTINUOUS
 62
     7
 10
-167.5
 20
-1116.75
 30
0.0
 40
3.849999999999909
  0
CIRCLE
  5
572
  8
DATA
  6
CONTINUOUS
 62
     7
 10
-155.5
 20
-1066.75
 30
0.0
 40
1.5
  0
CIRCLE
  5
573
  8
DATA
  6
CONTINUOUS
 62
     7
 10
-230.5
 20
-1114.75
 30
0.0
 40
1.5
  0
CIRCLE
  5
574
  8
DATA
  6
CONTINUOUS
 62
     7
 10
-198.5
 20
-1114.75
 30
0.0
 40
1.5
  0
CIRCLE
  5
575
  8
DATA
  6
CONTINUOUS
 62
     7
 10
-230.5
 20
-1128.75
 30
0.0
 40
6.5
  0
CIRCLE
  5
576
  8
DATA
  6
CONTINUOUS
 62
     7
 10
-198.5
 20
-1128.75
 30
0.0
 40
6.5
  0
CIRCLE
  5
577
  8
DATA
  6
CONTINUOUS
 62
     7
 10
-230.5
 20
-1128.75
 30
0.0
 40
6.25
  0
CIRCLE
  5
578
  8
DATA
  6
CONTINUOUS
 62
     7
 10
-198.5
 20
-1128.75
 30
0.0
 40
6.25
  0
CIRCLE
  5
579
  8
DATA
  6
CONTINUOUS
 62
     7
 10
-170.9999999995507
 20
-1157.25
 30
0.0
 40
1.649999999835927
  0
CIRCLE
  5
57A
  8
DATA
  6
CONTINUOUS
 62
     7
 10
-162.0000000004493
 20
-1157.25
 30
0.0
 40
1.649999999834108
  0
CIRCLE
  5
57B
  8
DATA
  6
CONTINUOUS
 62
     7
 10
-157.0025591676167
 20
-1169.2499999988
 30
0.0
 40
2.5
  0
LINE
  5
57C
  8
DATA
  6
______-12
 62
     7
 10
-158.5051183342839
 20
-1169.2499999988
 30
0.0
 11
-155.5051183342839
 21
-1169.2499999988
 31
0.0
  0
LINE
  5
57D
  8
DATA
  6
______-12
 62
     7
 10
-157.0025591676167
 20
-1167.748828332134
 30
0.0
 11
-157.0025591676167
 21
-1170.748828332134
 31
0.0
  0
CIRCLE
  5
57E
  8
DATA
  6
CONTINUOUS
 62
     7
 10
-175.9974408323833
 20
-1145.2500000012
 30
0.0
 40
2.5
  0
LINE
  5
57F
  8
DATA
  6
______-12
 62
     7
 10
-177.4999999990505
 20
-1145.2500000012
 30
0.0
 11
-174.4999999990505
 21
-1145.2500000012
 31
0.0
  0
LINE
  5
580
  8
DATA
  6
______-12
 62
     7
 10
-175.9974408323833
 20
-1143.748828334533
 30
0.0
 11
-175.9974408323833
 21
-1146.748828334533
 31
0.0
  0
CIRCLE
  5
581
  8
DATA
  6
CONTINUOUS
 62
     7
 10
-166.5
 20
-1157.25
 30
0.0
 40
9.750000015681577
  0
CIRCLE
  5
582
  8
DATA
  6
CONTINUOUS
 62
     7
 10
-166.5
 20
-1161.199999999605
 30
0.0
 40
1.649999999834108
  0
ARC
  5
583
  8
DATA
  6
CONTINUOUS
 62
     7
 10
-166.5
 20
-1157.25
 30
0.0
 40
7.899999852386203
 50
50.69269454644028
 51
39.30730194582301
  0
LINE
  5
584
  8
DATA
  6
CONTINUOUS
 62
     7
 10
-163.650000000277
 20
-1149.88199500073
 30
0.0
 11
-163.650000000277
 21
-1149.881995158165
 31
0.0
  0
ARC
  5
585
  8
DATA
  6
CONTINUOUS
 62
     7
 10
-161.055277667203
 20
-1151.805278000537
 30
0.0
 40
0.7999999999199845
 50
326.612906173291
 51
123.3870903189588
  0
ARC
  5
586
  8
DATA
  6
CONTINUOUS
 62
     7
 10
-230.4999999999927
 20
-1157.250000000007
 30
0.0
 40
7.899999852386007
 50
140.692698054177
 51
129.3073054535597
  0
CIRCLE
  5
587
  8
DATA
  6
CONTINUOUS
 62
     7
 10
-230.5
 20
-1157.25
 30
0.0
 40
9.749999999025183
  0
ARC
  5
588
  8
DATA
  6
CONTINUOUS
 62
     7
 10
-230.5
 20
-1157.25
 30
0.0
 40
10.75000000000015
 50
102.9003349199812
 51
77.09966508002354
  0
LINE
  5
589
  8
DATA
  6
CONTINUOUS
 62
     7
 10
-228.1000000002405
 20
-1149.723380573679
 30
0.0
 11
-228.1000000002405
 21
-1149.723380727797
 31
0.0
  0
LINE
  5
58A
  8
DATA
  6
CONTINUOUS
 62
     7
 10
-233.3499999997157
 20
-1149.881995000737
 30
0.0
 11
-233.3499999997157
 21
-1149.881995158173
 31
0.0
  0
ARC
  5
58B
  8
DATA
  6
CONTINUOUS
 62
     7
 10
-234.9999999995507
 20
-1157.25
 30
0.0
 40
1.999999999800095
 50
32.08918387405087
 51
327.9108161259492
  0
ARC
  5
58C
  8
DATA
  6
CONTINUOUS
 62
     7
 10
-226.0000000004502
 20
-1157.25
 30
0.0
 40
1.999999999800095
 50
212.0891838740509
 51
147.9108161259491
  0
ARC
  5
58D
  8
DATA
  6
CONTINUOUS
 62
     7
 10
-230.5
 20
-1161.199999999606
 30
0.0
 40
1.99999999980077
 50
137.8522840898889
 51
42.14771591012861
  0
ARC
  5
58E
  8
DATA
  6
CONTINUOUS
 62
     7
 10
-235.9447223327898
 20
-1151.805278000545
 30
0.0
 40
0.799999999920039
 50
56.61290968104122
 51
213.387093826709
  0
ARC
  5
58F
  8
DATA
  6
CONTINUOUS
 62
     7
 10
-230.5
 20
-1157.25
 30
0.0
 40
2.999999999999744
 50
20.74191648508129
 51
159.2580835149249
  0
ARC
  5
590
  8
DATA
  6
CONTINUOUS
 62
     7
 10
-230.5
 20
-1157.25
 30
0.0
 40
3.000000000000594
 50
200.7419164850751
 51
240.3778367991917
  0
ARC
  5
591
  8
DATA
  6
CONTINUOUS
 62
     7
 10
-230.5
 20
-1157.25
 30
0.0
 40
2.999999999999644
 50
299.6221632007934
 51
339.2580835149187
  0
CIRCLE
  5
592
  8
DATA
  6
CONTINUOUS
 62
     7
 10
-221.0000000009504
 20
-1169.2499999988
 30
0.0
 40
2.5
  0
LINE
  5
593
  8
DATA
  6
______-12
 62
     7
 10
-222.5025591676167
 20
-1169.2499999988
 30
0.0
 11
-219.5025591676167
 21
-1169.2499999988
 31
0.0
  0
LINE
  5
594
  8
DATA
  6
______-12
 62
     7
 10
-221.0000000009504
 20
-1167.748828332134
 30
0.0
 11
-221.0000000009504
 21
-1170.748828332134
 31
0.0
  0
CIRCLE
  5
595
  8
DATA
  6
CONTINUOUS
 62
     7
 10
-240.0025591657168
 20
-1145.248828334533
 30
0.0
 40
2.5
  0
LINE
  5
596
  8
DATA
  6
______-12
 62
     7
 10
-241.5051183323831
 20
-1145.248828334533
 30
0.0
 11
-238.5051183323831
 21
-1145.248828334533
 31
0.0
  0
LINE
  5
597
  8
DATA
  6
______-12
 62
     7
 10
-240.0025591657168
 20
-1143.747656667867
 30
0.0
 11
-240.0025591657168
 21
-1146.747656667867
 31
0.0
  0
LINE
  5
598
  8
DATA
  6
CONTINUOUS
 62
     7
 10
-232.8999999997604
 20
-1146.771331191361
 30
0.0
 11
-232.8999999997604
 21
-1145.49244923459
 31
0.0
  0
LINE
  5
599
  8
DATA
  6
CONTINUOUS
 62
     7
 10
-228.1000000002405
 20
-1146.771331191361
 30
0.0
 11
-228.1000000002405
 21
-1145.492449234588
 31
0.0
  0
ARC
  5
59A
  8
DATA
  6
CONTINUOUS
 62
     7
 10
-230.4999999999964
 20
-1157.249999999999
 30
0.0
 40
12.00000000000232
 50
78.46304096837633
 51
101.5369590316637
  0
ARC
  5
59B
  8
DATA
  6
CONTINUOUS
 62
     7
 10
-198.4999999999927
 20
-1157.250000000007
 30
0.0
 40
7.899999852386007
 50
140.692698054177
 51
129.3073054535597
  0
CIRCLE
  5
59C
  8
DATA
  6
CONTINUOUS
 62
     7
 10
-198.5
 20
-1157.25
 30
0.0
 40
9.749999999025183
  0
ARC
  5
59D
  8
DATA
  6
CONTINUOUS
 62
     7
 10
-198.5
 20
-1157.25
 30
0.0
 40
10.75000000000015
 50
102.9003349199812
 51
77.09966508002354
  0
LINE
  5
59E
  8
DATA
  6
CONTINUOUS
 62
     7
 10
-196.1000000002405
 20
-1149.723380573679
 30
0.0
 11
-196.1000000002405
 21
-1149.723380727797
 31
0.0
  0
LINE
  5
59F
  8
DATA
  6
CONTINUOUS
 62
     7
 10
-201.3499999997157
 20
-1149.881995000737
 30
0.0
 11
-201.3499999997157
 21
-1149.881995158173
 31
0.0
  0
ARC
  5
5A0
  8
DATA
  6
CONTINUOUS
 62
     7
 10
-202.9999999995507
 20
-1157.25
 30
0.0
 40
1.999999999800095
 50
32.08918387405087
 51
327.9108161259492
  0
ARC
  5
5A1
  8
DATA
  6
CONTINUOUS
 62
     7
 10
-194.0000000004502
 20
-1157.25
 30
0.0
 40
1.999999999800095
 50
212.0891838740509
 51
147.9108161259491
  0
ARC
  5
5A2
  8
DATA
  6
CONTINUOUS
 62
     7
 10
-198.5
 20
-1161.199999999606
 30
0.0
 40
1.99999999980077
 50
137.8522840898889
 51
42.14771591012861
  0
ARC
  5
5A3
  8
DATA
  6
CONTINUOUS
 62
     7
 10
-203.9447223327898
 20
-1151.805278000545
 30
0.0
 40
0.799999999920039
 50
56.61290968104122
 51
213.387093826709
  0
ARC
  5
5A4
  8
DATA
  6
CONTINUOUS
 62
     7
 10
-198.5
 20
-1157.25
 30
0.0
 40
2.999999999999744
 50
20.74191648508129
 51
159.2580835149249
  0
ARC
  5
5A5
  8
DATA
  6
CONTINUOUS
 62
     7
 10
-198.5
 20
-1157.25
 30
0.0
 40
3.000000000000594
 50
200.7419164850751
 51
240.3778367991917
  0
ARC
  5
5A6
  8
DATA
  6
CONTINUOUS
 62
     7
 10
-198.5
 20
-1157.25
 30
0.0
 40
2.999999999999644
 50
299.6221632007934
 51
339.2580835149187
  0
CIRCLE
  5
5A7
  8
DATA
  6
CONTINUOUS
 62
     7
 10
-189.0000000009504
 20
-1169.2499999988
 30
0.0
 40
2.5
  0
LINE
  5
5A8
  8
DATA
  6
______-12
 62
     7
 10
-190.5025591676167
 20
-1169.2499999988
 30
0.0
 11
-187.5025591676167
 21
-1169.2499999988
 31
0.0
  0
LINE
  5
5A9
  8
DATA
  6
______-12
 62
     7
 10
-189.0000000009504
 20
-1167.748828332134
 30
0.0
 11
-189.0000000009504
 21
-1170.748828332134
 31
0.0
  0
CIRCLE
  5
5AA
  8
DATA
  6
CONTINUOUS
 62
     7
 10
-208.0025591657168
 20
-1145.248828334533
 30
0.0
 40
2.5
  0
LINE
  5
5AB
  8
DATA
  6
______-12
 62
     7
 10
-209.5051183323831
 20
-1145.248828334533
 30
0.0
 11
-206.5051183323831
 21
-1145.248828334533
 31
0.0
  0
LINE
  5
5AC
  8
DATA
  6
______-12
 62
     7
 10
-208.0025591657168
 20
-1143.747656667867
 30
0.0
 11
-208.0025591657168
 21
-1146.747656667867
 31
0.0
  0
LINE
  5
5AD
  8
DATA
  6
CONTINUOUS
 62
     7
 10
-200.8999999997604
 20
-1146.771331191361
 30
0.0
 11
-200.8999999997604
 21
-1145.49244923459
 31
0.0
  0
LINE
  5
5AE
  8
DATA
  6
CONTINUOUS
 62
     7
 10
-196.1000000002405
 20
-1146.771331191361
 30
0.0
 11
-196.1000000002405
 21
-1145.492449234588
 31
0.0
  0
ARC
  5
5AF
  8
DATA
  6
CONTINUOUS
 62
     7
 10
-198.4999999999964
 20
-1157.249999999999
 30
0.0
 40
12.00000000000232
 50
78.46304096837633
 51
101.5369590316637
  0
POLYLINE
  5
5B0
  8
DATA
  6
CONTINUOUS
 62
     7
 66
     1
 10
0.0
 20
0.0
 30
0.0
 70
   129
  0
VERTEX
  5
742
  8
DATA
  6
CONTINUOUS
 62
     7
 10
-214.5000002235174
 20
-1242.75
 30
0.0
  0
VERTEX
  5
743
  8
DATA
  6
CONTINUOUS
 62
     7
 10
-185.5000002235174
 20
-1242.75
 30
0.0
  0
VERTEX
  5
744
  8
DATA
  6
CONTINUOUS
 62
     7
 10
-185.5000002235174
 20
-1266.25
 30
0.0
  0
VERTEX
  5
745
  8
DATA
  6
CONTINUOUS
 62
     7
 10
-214.5000002235174
 20
-1266.25
 30
0.0
  0
SEQEND
  5
77C
  8
DATA
  6
CONTINUOUS
 62
     7
  0
POLYLINE
  5
5B6
  8
DATA
  6
CONTINUOUS
 62
     7
 66
     1
 10
0.0
 20
0.0
 30
0.0
 70
   129
  0
VERTEX
  5
746
  8
DATA
  6
CONTINUOUS
 62
     7
 10
-214.5000002235174
 20
-1266.75
 30
0.0
  0
VERTEX
  5
747
  8
DATA
  6
CONTINUOUS
 62
     7
 10
-185.5000002235174
 20
-1266.75
 30
0.0
  0
VERTEX
  5
748
  8
DATA
  6
CONTINUOUS
 62
     7
 10
-185.5000002235174
 20
-1271.75
 30
0.0
  0
VERTEX
  5
749
  8
DATA
  6
CONTINUOUS
 62
     7
 10
-214.5000002235174
 20
-1271.75
 30
0.0
  0
SEQEND
  5
77D
  8
DATA
  6
CONTINUOUS
 62
     7
  0
ARC
  5
5BC
  8
DATA
  6
CONTINUOUS
 62
     7
 10
-205.8822202235174
 20
-1256.92667
 30
0.0
 40
2.578853425167926
 50
264.6908562215338
 51
323.9911991542466
  0
ARC
  5
5BD
  8
DATA
  6
CONTINUOUS
 62
     7
 10
-206.3594502235173
 20
-1256.92667
 30
0.0
 40
2.578849236946564
 50
216.0088008457576
 51
275.3091437784593
  0
ARC
  5
5BE
  8
DATA
  6
CONTINUOUS
 62
     7
 10
-199.3291502235174
 20
-1257.59609
 30
0.0
 40
1.902611411717807
 50
273.8309816091187
 51
351.1351473098147
  0
ARC
  5
5BF
  8
DATA
  6
CONTINUOUS
 62
     7
 10
-199.3101802235174
 20
-1251.38993
 30
0.0
 40
1.89972993291161
 50
8.226923859011862
 51
86.15412669215198
  0
ARC
  5
5C0
  8
DATA
  6
CONTINUOUS
 62
     7
 10
-199.519218859944
 20
-1258.078855954794
 30
0.0
 40
0.3187831148187373
 50
307.6419024975116
 51
354.2670192893453
  0
LINE
  5
5C1
  8
DATA
  6
CONTINUOUS
 62
     7
 10
-207.7075502235175
 20
-1253.05535
 30
0.0
 11
-206.2130902235176
 21
-1249.49447
 31
0.0
  0
LINE
  5
5C2
  8
DATA
  6
CONTINUOUS
 62
     7
 10
-207.7075502235175
 20
-1253.05535
 30
0.0
 11
-209.1835702235176
 21
-1249.49447
 31
0.0
  0
LINE
  5
5C3
  8
DATA
  6
CONTINUOUS
 62
     7
 10
-196.3791502235172
 20
-1259.49447
 30
0.0
 11
-196.3791502235172
 21
-1249.49447
 31
0.0
  0
LINE
  5
5C4
  8
DATA
  6
CONTINUOUS
 62
     7
 10
-194.4603302235173
 20
-1249.49447
 30
0.0
 11
-194.4603302235173
 21
-1257.96311
 31
0.0
  0
LINE
  5
5C5
  8
DATA
  6
CONTINUOUS
 62
     7
 10
-205.5119802235176
 20
-1249.49447
 30
0.0
 11
-205.5119802235176
 21
-1257.96311
 31
0.0
  0
LINE
  5
5C6
  8
DATA
  6
CONTINUOUS
 62
     7
 10
-203.6669602235174
 20
-1249.49447
 30
0.0
 11
-203.6669602235174
 21
-1257.96311
 31
0.0
  0
LINE
  5
5C7
  8
DATA
  6
CONTINUOUS
 62
     7
 10
-202.7075502235175
 20
-1249.49447
 30
0.0
 11
-202.7075502235175
 21
-1259.49447
 31
0.0
  0
LINE
  5
5C8
  8
DATA
  6
CONTINUOUS
 62
     7
 10
-201.0285802235176
 20
-1250.43542
 30
0.0
 11
-201.0285802235176
 21
-1253.64576
 31
0.0
  0
LINE
  5
5C9
  8
DATA
  6
CONTINUOUS
 62
     7
 10
-197.4300002235173
 20
-1253.46
 30
0.0
 11
-197.4300002235173
 21
-1251.11809
 31
0.0
  0
LINE
  5
5CA
  8
DATA
  6
CONTINUOUS
 62
     7
 10
-199.2020302235173
 20
-1250.87823
 30
0.0
 11
-199.2020302235173
 21
-1253.20296
 31
0.0
  0
LINE
  5
5CB
  8
DATA
  6
CONTINUOUS
 62
     7
 10
-206.9141902235174
 20
-1256.35793
 30
0.0
 11
-206.9141902235174
 21
-1257.96309
 31
0.0
  0
LINE
  5
5CC
  8
DATA
  6
CONTINUOUS
 62
     7
 10
-206.9141902235174
 20
-1256.35793
 30
0.0
 11
-208.5747102235173
 21
-1256.35793
 31
0.0
  0
LINE
  5
5CD
  8
DATA
  6
CONTINUOUS
 62
     7
 10
-208.5747102235173
 20
-1256.35793
 30
0.0
 11
-208.5747102235173
 21
-1257.96309
 31
0.0
  0
ARC
  5
5CE
  8
DATA
  6
CONTINUOUS
 62
     7
 10
-206.2095702235174
 20
-1257.98473
 30
0.0
 40
0.6979288262423999
 50
269.7118487927503
 51
1.775987005700813
  0
ARC
  5
5CF
  8
DATA
  6
CONTINUOUS
 62
     7
 10
-206.2166002235172
 20
-1257.98473
 30
0.0
 40
0.697925257459775
 50
178.2240129943362
 51
270.288151207215
  0
ARC
  5
5D0
  8
DATA
  6
CONTINUOUS
 62
     7
 10
-207.4092702235175
 20
-1257.90656
 30
0.0
 40
1.166800208176219
 50
182.7769954500081
 51
207.3596066671614
  0
CIRCLE
  5
5D1
  8
DATA
  6
CONTINUOUS
 62
     7
 10
-207.6060702235172
 20
-1254.43912
 30
0.0
 40
0.9501799999998184
  0
LINE
  5
5D2
  8
DATA
  6
CONTINUOUS
 62
     7
 10
-191.3791502235172
 20
-1259.49446
 30
0.0
 11
-196.3791502235172
 21
-1259.49446
 31
0.0
  0
LINE
  5
5D3
  8
DATA
  6
CONTINUOUS
 62
     7
 10
-191.3791502235172
 20
-1259.49446
 30
0.0
 11
-191.3791502235172
 21
-1256.35792
 31
0.0
  0
LINE
  5
5D4
  8
DATA
  6
CONTINUOUS
 62
     7
 10
-191.3791502235172
 20
-1256.35793
 30
0.0
 11
-193.0581102235174
 21
-1256.35793
 31
0.0
  0
LINE
  5
5D5
  8
DATA
  6
CONTINUOUS
 62
     7
 10
-193.0581102235174
 20
-1256.35793
 30
0.0
 11
-193.0581102235174
 21
-1257.96309
 31
0.0
  0
LINE
  5
5D6
  8
DATA
  6
CONTINUOUS
 62
     7
 10
-202.7075502235175
 20
-1259.49446
 30
0.0
 11
-199.2020302235173
 21
-1259.49445
 31
0.0
  0
LINE
  5
5D7
  8
DATA
  6
CONTINUOUS
 62
     7
 10
-201.0285902235173
 20
-1258.5535
 30
0.0
 11
-200.1245302235175
 21
-1258.5535
 31
0.0
  0
LINE
  5
5D8
  8
DATA
  6
CONTINUOUS
 62
     7
 10
-201.0285802235176
 20
-1258.5535
 30
0.0
 11
-201.0285802235176
 21
-1254.605160000001
 31
0.0
  0
LINE
  5
5D9
  8
DATA
  6
CONTINUOUS
 62
     7
 10
-201.0285902235173
 20
-1254.605160000001
 30
0.0
 11
-200.1245302235175
 21
-1254.605160000001
 31
0.0
  0
LINE
  5
5DA
  8
DATA
  6
CONTINUOUS
 62
     7
 10
-199.2020302235173
 20
-1258.1107
 30
0.0
 11
-199.2020302235173
 21
-1255.04796
 31
0.0
  0
ARC
  5
5DB
  8
DATA
  6
CONTINUOUS
 62
     7
 10
-204.8324002235177
 20
-1257.90656
 30
0.0
 40
1.166798547865568
 50
332.6403933328301
 51
357.2230045499834
  0
ARC
  5
5DC
  8
DATA
  6
CONTINUOUS
 62
     7
 10
-193.7557102235173
 20
-1257.98473
 30
0.0
 40
0.6979288262423999
 50
269.7118487927503
 51
1.775987005700813
  0
ARC
  5
5DD
  8
DATA
  6
CONTINUOUS
 62
     7
 10
-193.7627302235173
 20
-1257.98473
 30
0.0
 40
0.697925257459775
 50
178.2240129943362
 51
270.2881512072523
  0
LINE
  5
5DE
  8
DATA
  6
CONTINUOUS
 62
     7
 10
-197.4308102235173
 20
-1257.889290000001
 30
0.0
 11
-197.4308102235173
 21
-1255.23247
 31
0.0
  0
LINE
  5
5DF
  8
DATA
  6
CONTINUOUS
 62
     7
 10
-201.0285902235173
 20
-1253.64576
 30
0.0
 11
-200.1245302235175
 21
-1253.64576
 31
0.0
  0
LINE
  5
5E0
  8
DATA
  6
CONTINUOUS
 62
     7
 10
-205.5119802235176
 20
-1249.49447
 30
0.0
 11
-203.6669602235174
 21
-1249.49447
 31
0.0
  0
LINE
  5
5E1
  8
DATA
  6
CONTINUOUS
 62
     7
 10
-209.1835702235176
 20
-1249.49447
 30
0.0
 11
-206.2130902235176
 21
-1249.49447
 31
0.0
  0
LINE
  5
5E2
  8
DATA
  6
CONTINUOUS
 62
     7
 10
-196.3791502235172
 20
-1249.49447
 30
0.0
 11
-194.4603302235173
 21
-1249.49447
 31
0.0
  0
LINE
  5
5E3
  8
DATA
  6
CONTINUOUS
 62
     7
 10
-202.7075502235175
 20
-1249.49447
 30
0.0
 11
-199.1827600953707
 21
-1249.494478093741
 31
0.0
  0
LINE
  5
5E4
  8
DATA
  6
CONTINUOUS
 62
     7
 10
-201.0285902235173
 20
-1250.43543
 30
0.0
 11
-200.1245302235175
 21
-1250.43543
 31
0.0
  0
ARC
  5
5E5
  8
DATA
  6
CONTINUOUS
 62
     7
 10
-200.1138547609144
 20
-1256.799812039413
 30
0.0
 40
1.753720453382061
 50
269.6512199376214
 51
282.8264828068773
  0
ARC
  5
5E6
  8
DATA
  6
CONTINUOUS
 62
     7
 10
-199.9168841960509
 20
-1257.541250311227
 30
0.0
 40
0.9874379036937975
 50
281.2331036226632
 51
306.8620088940596
  0
ARC
  5
5E7
  8
DATA
  6
CONTINUOUS
 62
     7
 10
-199.519218859944
 20
-1255.079804045206
 30
0.0
 40
0.3187831148182818
 50
5.732980710573326
 51
52.35809750243853
  0
ARC
  5
5E8
  8
DATA
  6
CONTINUOUS
 62
     7
 10
-200.1138547609144
 20
-1256.358847960587
 30
0.0
 40
1.75372045338168
 50
77.17351719311941
 51
90.3487800623787
  0
ARC
  5
5E9
  8
DATA
  6
CONTINUOUS
 62
     7
 10
-199.9168841960509
 20
-1255.617409688773
 30
0.0
 40
0.9874379036933921
 50
53.13799110592464
 51
78.76689637732649
  0
ARC
  5
5EA
  8
DATA
  6
CONTINUOUS
 62
     7
 10
-198.3984902235175
 20
-1255.297880000001
 30
0.0
 40
0.969888163913968
 50
3.867006359830385
 51
88.36163456789144
  0
ARC
  5
5EB
  8
DATA
  6
CONTINUOUS
 62
     7
 10
-198.3993802235173
 20
-1253.35796
 30
0.0
 40
0.9708519399474431
 50
271.6892821046514
 51
356.0782829826771
  0
ARC
  5
5EC
  8
DATA
  6
CONTINUOUS
 62
     7
 10
-199.519218859944
 20
-1253.171115954794
 30
0.0
 40
0.3187831148183772
 50
307.6419024975615
 51
354.2670192894267
  0
ARC
  5
5ED
  8
DATA
  6
CONTINUOUS
 62
     7
 10
-200.1138547609144
 20
-1251.892072039413
 30
0.0
 40
1.753720453382061
 50
269.6512199376214
 51
282.8264828068806
  0
ARC
  5
5EE
  8
DATA
  6
CONTINUOUS
 62
     7
 10
-199.9168841960509
 20
-1252.633510311227
 30
0.0
 40
0.9874379036929054
 50
281.2331036226735
 51
306.8620088940754
  0
ARC
  5
5EF
  8
DATA
  6
CONTINUOUS
 62
     7
 10
-199.519218859944
 20
-1250.910074045206
 30
0.0
 40
0.3187831148183272
 50
5.732980710654651
 51
52.35809750248845
  0
ARC
  5
5F0
  8
DATA
  6
CONTINUOUS
 62
     7
 10
-200.1138547609144
 20
-1252.189117960587
 30
0.0
 40
1.75372045338168
 50
77.17351719311941
 51
90.3487800623787
  0
ARC
  5
5F1
  8
DATA
  6
CONTINUOUS
 62
     7
 10
-199.9168841960509
 20
-1251.447679688773
 30
0.0
 40
0.987437903693756
 50
53.13799110594046
 51
78.76689637733678
  0
TEXT
  5
5F2
  8
DATA
 62
     7
 10
-214.1530036957396
 20
-1270.603922526042
 30
0.0
 40
2.707845052083333
  1
JBL PROFESSIONAL
 41
0.7
 72
     1
 11
-200.0000002235174
 21
-1269.25
 31
0.0
 73
     2
  0
ARC
  5
5F3
  8
DATA
  6
CONTINUOUS
 62
     7
 10
-188.0000002235174
 20
-1359.75
 30
0.0
 40
3.0
 50
0.0
 51
90.0
  0
LINE
  5
5F4
  8
DATA
  6
CONTINUOUS
 62
     7
 10
-212.0000002235174
 20
-1356.75
 30
0.0
 11
-188.0000002235174
 21
-1356.75
 31
0.0
  0
ARC
  5
5F5
  8
DATA
  6
CONTINUOUS
 62
     7
 10
-212.0000002235174
 20
-1359.75
 30
0.0
 40
3.0
 50
90.0
 51
180.0
  0
LINE
  5
5F6
  8
DATA
  6
CONTINUOUS
 62
     7
 10
-215.0000002235174
 20
-1375.75
 30
0.0
 11
-215.0000002235174
 21
-1359.75
 31
0.0
  0
ARC
  5
5F7
  8
DATA
  6
CONTINUOUS
 62
     7
 10
-212.0000002235179
 20
-1375.75
 30
0.0
 40
2.999999999999545
 50
180.0
 51
224.9999999999693
  0
ARC
  5
5F8
  8
DATA
  6
CONTINUOUS
 62
     7
 10
-212.0000002235174
 20
-1375.75
 30
0.0
 40
2.999999999999542
 50
225.0000000000061
 51
270.0
  0
LINE
  5
5F9
  8
DATA
  6
CONTINUOUS
 62
     7
 10
-188.0000002235174
 20
-1378.75
 30
0.0
 11
-212.0000002235174
 21
-1378.75
 31
0.0
  0
ARC
  5
5FA
  8
DATA
  6
CONTINUOUS
 62
     7
 10
-188.0000002235174
 20
-1375.75
 30
0.0
 40
3.0
 50
270.0
 51
0.0
  0
LINE
  5
5FB
  8
DATA
  6
CONTINUOUS
 62
     7
 10
-185.0000002235174
 20
-1359.75
 30
0.0
 11
-185.0000002235174
 21
-1375.75
 31
0.0
  0
LINE
  5
5FC
  8
DATA
  6
CONTINUOUS
 62
     7
 10
-212.0000002235174
 20
-1359.75
 30
0.0
 11
-188.0000002235174
 21
-1359.75
 31
0.0
  0
LINE
  5
5FD
  8
DATA
  6
CONTINUOUS
 62
     7
 10
-212.0000002235174
 20
-1371.25
 30
0.0
 11
-212.0000002235174
 21
-1359.75
 31
0.0
  0
LINE
  5
5FE
  8
DATA
  6
CONTINUOUS
 62
     7
 10
-193.5000002235174
 20
-1375.75
 30
0.0
 11
-206.5000002235174
 21
-1375.75
 31
0.0
  0
LINE
  5
5FF
  8
DATA
  6
CONTINUOUS
 62
     7
 10
-188.0000002235174
 20
-1359.75
 30
0.0
 11
-188.0000002235174
 21
-1371.25
 31
0.0
  0
LINE
  5
600
  8
DATA
  6
CONTINUOUS
 62
     7
 10
-212.0000002235174
 20
-1371.25
 30
0.0
 11
-206.5000002235174
 21
-1375.75
 31
0.0
  0
LINE
  5
601
  8
DATA
  6
CONTINUOUS
 62
     7
 10
-193.5000002235174
 20
-1375.75
 30
0.0
 11
-188.0000002235174
 21
-1371.25
 31
0.0
  0
POLYLINE
  5
602
  8
DATA
  6
CONTINUOUS
 62
     7
 66
     1
 10
0.0
 20
0.0
 30
0.0
 70
   129
  0
VERTEX
  5
74A
  8
DATA
  6
CONTINUOUS
 62
     7
 10
-206.5000002235174
 20
-1363.25
 30
0.0
  0
VERTEX
  5
74B
  8
DATA
  6
CONTINUOUS
 62
     7
 10
-206.5000002235174
 20
-1367.25
 30
0.0
  0
VERTEX
  5
74C
  8
DATA
  6
CONTINUOUS
 62
     7
 10
-207.5000002235174
 20
-1367.25
 30
0.0
  0
VERTEX
  5
74D
  8
DATA
  6
CONTINUOUS
 62
     7
 10
-207.5000002235174
 20
-1363.25
 30
0.0
  0
SEQEND
  5
77E
  8
DATA
  6
CONTINUOUS
 62
     7
  0
POLYLINE
  5
608
  8
DATA
  6
CONTINUOUS
 62
     7
 66
     1
 10
0.0
 20
0.0
 30
0.0
 70
   129
  0
VERTEX
  5
74E
  8
DATA
  6
CONTINUOUS
 62
     7
 10
-192.5000002235174
 20
-1363.25
 30
0.0
  0
VERTEX
  5
74F
  8
DATA
  6
CONTINUOUS
 62
     7
 10
-192.5000002235174
 20
-1367.25
 30
0.0
  0
VERTEX
  5
750
  8
DATA
  6
CONTINUOUS
 62
     7
 10
-193.5000002235174
 20
-1367.25
 30
0.0
  0
VERTEX
  5
751
  8
DATA
  6
CONTINUOUS
 62
     7
 10
-193.5000002235174
 20
-1363.25
 30
0.0
  0
SEQEND
  5
77F
  8
DATA
  6
CONTINUOUS
 62
     7
  0
POLYLINE
  5
60E
  8
DATA
  6
CONTINUOUS
 62
     7
 66
     1
 10
0.0
 20
0.0
 30
0.0
 70
   129
  0
VERTEX
  5
752
  8
DATA
  6
CONTINUOUS
 62
     7
 10
-199.5000002235174
 20
-1367.75
 30
0.0
  0
VERTEX
  5
753
  8
DATA
  6
CONTINUOUS
 62
     7
 10
-199.5000002235174
 20
-1371.75
 30
0.0
  0
VERTEX
  5
754
  8
DATA
  6
CONTINUOUS
 62
     7
 10
-200.5000002235174
 20
-1371.75
 30
0.0
  0
VERTEX
  5
755
  8
DATA
  6
CONTINUOUS
 62
     7
 10
-200.5000002235174
 20
-1367.75
 30
0.0
  0
SEQEND
  5
780
  8
DATA
  6
CONTINUOUS
 62
     7
  0
CIRCLE
  5
614
  8
DATA
  6
CONTINUOUS
 62
     7
 10
-155.5
 20
-1116.75
 30
0.0
 40
1.5
  0
TEXT
  5
615
  8
DATA
 62
     7
 10
-173.186474609375
 20
-1060.37470703125
 30
0.0
 40
3.2494140625
  1
POWER
 41
0.7
 72
     1
 11
-167.5
 21
-1058.75
 31
0.0
 73
     2
  0
TEXT
  5
616
  8
DATA
 62
     7
 10
-176.9774576822917
 20
-1078.12470703125
 30
0.0
 40
3.2494140625
  1
MAIN/MEMU
 41
0.7
 72
     1
 11
-167.5
 21
-1076.5
 31
0.0
 73
     2
  0
TEXT
  5
617
  8
DATA
 62
     7
 10
-171.6700813802083
 20
-1111.52470703125
 30
0.0
 40
3.2494140625
  1
BACK
 41
0.7
 72
     1
 11
-167.5
 21
-1109.9
 31
0.0
 73
     2
  0
TEXT
  5
618
  8
DATA
 62
     7
 10
-160.0491796875
 20
-1111.52470703125
 30
0.0
 40
3.2494140625
  1
LIMIT
 41
0.7
 72
     1
 11
-155.5
 21
-1109.9
 31
0.0
 73
     2
  0
TEXT
  5
619
  8
DATA
 62
     7
 10
-238.461064453125
 20
-1111.87470703125
 30
0.0
 40
3.2494140625
  1
SIG/CLIP
 41
0.7
 72
     1
 11
-230.5
 21
-1110.25
 31
0.0
 73
     2
  0
TEXT
  5
61A
  8
DATA
 62
     7
 10
-206.461064453125
 20
-1111.87470703125
 30
0.0
 40
3.2494140625
  1
SIG/CLIP
 41
0.7
 72
     1
 11
-198.5
 21
-1110.25
 31
0.0
 73
     2
  0
TEXT
  5
61B
  8
DATA
 62
     7
 10
-234.2909830729167
 20
-1120.87470703125
 30
0.0
 40
3.2494140625
  1
GAIN
 41
0.7
 72
     1
 11
-230.5
 21
-1119.25
 31
0.0
 73
     2
  0
TEXT
  5
61C
  8
DATA
 62
     7
 10
-202.2909830729167
 20
-1120.87470703125
 30
0.0
 40
3.2494140625
  1
GAIN
 41
0.7
 72
     1
 11
-198.5
 21
-1119.25
 31
0.0
 73
     2
  0
LINE
  5
61D
  8
DATA
  6
CONTINUOUS
 62
     7
 10
-230.5
 20
-1135.25
 30
0.0
 11
-230.5000000000005
 21
-1145.249999999997
 31
0.0
  0
LINE
  5
61E
  8
DATA
  6
CONTINUOUS
 62
     7
 10
-198.5
 20
-1135.25
 30
0.0
 11
-198.5000000000005
 21
-1145.249999999997
 31
0.0
  0
LINE
  5
61F
  8
DATA
  6
CONTINUOUS
 62
     7
 10
-229.25
 20
-1175.75
 30
0.0
 11
-231.75
 21
-1175.75
 31
0.0
  0
LINE
  5
620
  8
DATA
  6
CONTINUOUS
 62
     7
 10
-231.75
 20
-1175.75
 30
0.0
 11
-230.5
 21
-1174.25
 31
0.0
  0
LINE
  5
621
  8
DATA
  6
CONTINUOUS
 62
     7
 10
-229.25
 20
-1175.75
 30
0.0
 11
-230.5
 21
-1174.25
 31
0.0
  0
TEXT
  5
622
  8
DATA
 62
     7
 10
-233.1536881510417
 20
-1180.37470703125
 30
0.0
 40
3.2494140625
  1
CH1
 41
0.7
 72
     1
 11
-230.5
 21
-1178.75
 31
0.0
 73
     2
  0
LINE
  5
623
  8
DATA
  6
CONTINUOUS
 62
     7
 10
-197.25
 20
-1175.75
 30
0.0
 11
-199.75
 21
-1175.75
 31
0.0
  0
LINE
  5
624
  8
DATA
  6
CONTINUOUS
 62
     7
 10
-199.75
 20
-1175.75
 30
0.0
 11
-198.5
 21
-1174.25
 31
0.0
  0
LINE
  5
625
  8
DATA
  6
CONTINUOUS
 62
     7
 10
-197.25
 20
-1175.75
 30
0.0
 11
-198.5
 21
-1174.25
 31
0.0
  0
TEXT
  5
626
  8
DATA
 62
     7
 10
-201.5327864583333
 20
-1180.37470703125
 30
0.0
 40
3.2494140625
  1
CH2
 41
0.7
 72
     1
 11
-198.5
 21
-1178.75
 31
0.0
 73
     2
  0
LINE
  5
627
  8
DATA
  6
CONTINUOUS
 62
     7
 10
-165.25
 20
-1175.75
 30
0.0
 11
-167.75
 21
-1175.75
 31
0.0
  0
LINE
  5
628
  8
DATA
  6
CONTINUOUS
 62
     7
 10
-167.75
 20
-1175.75
 30
0.0
 11
-166.5
 21
-1174.25
 31
0.0
  0
LINE
  5
629
  8
DATA
  6
CONTINUOUS
 62
     7
 10
-165.25
 20
-1175.75
 30
0.0
 11
-166.5
 21
-1174.25
 31
0.0
  0
TEXT
  5
62A
  8
DATA
 62
     7
 10
-175.9016380208333
 20
-1180.37470703125
 30
0.0
 40
3.2494140625
  1
PASS THRU
 41
0.7
 72
     1
 11
-166.5
 21
-1178.75
 31
0.0
 73
     2
  0
TEXT
  5
62B
  8
DATA
 62
     7
 10
-209.3258185828924
 20
-1348.494151475683
 30
0.0
 40
3.2494140625
  1
500W MAX 
 41
0.7
 72
     1
 11
-200.0000002235174
 21
-1346.869444444433
 31
0.0
 73
     2
  0
TEXT
  5
62C
  8
DATA
 62
     7
 10
-216.3012274370591
 20
-1352.727484809016
 30
0.0
 40
3.2494140625
  1
100-120V?50/60Hz
 41
0.7
 72
     1
 11
-200.0000002235174
 21
-1351.102777777767
 31
0.0
 73
     2
  0
ARC
  5
62D
  8
DATA
  6
CONTINUOUS
 62
     7
 10
-244.0
 20
-1493.25
 30
0.0
 40
18.5
 50
90.0
 51
270.0
  0
ARC
  5
62E
  8
DATA
  6
CONTINUOUS
 62
     7
 10
-156.0
 20
-1493.25
 30
0.0
 40
18.5
 50
270.0
 51
90.0
  0
LINE
  5
62F
  8
DATA
  6
CONTINUOUS
 62
     7
 10
-244.0
 20
-1474.75
 30
0.0
 11
-156.0
 21
-1474.75
 31
0.0
  0
LINE
  5
630
  8
DATA
  6
CONTINUOUS
 62
     7
 10
-156.0
 20
-1511.75
 30
0.0
 11
-244.0
 21
-1511.75
 31
0.0
  0
LINE
  5
631
  8
DATA
  6
CONTINUOUS
 62
     7
 10
-224.0
 20
-1529.75
 30
0.0
 11
-224.0
 21
-1511.75
 31
0.0
  0
LINE
  5
632
  8
DATA
  6
CONTINUOUS
 62
     7
 10
-176.0
 20
-1529.75
 30
0.0
 11
-176.0
 21
-1511.75
 31
0.0
  0
VIEWPORT
  5
633
 67
     1
  8
0
 10
128.5
 20
97.5
 30
0.0
 40
314.226
 41
222.18
 68
     1
 69
     1
1001
ACAD
1000
MVIEW
1002
{
1070
    16
1010
0.0
1020
0.0
1030
0.0
1020
0.0
1030
0.0
1010
0.0
1020
0.0
1030
1.0
1020
0.0
1030
1.0
1040
0.0
1040
222.18
1040
128.5
1040
97.5
1040
50.0
1040
0.0
1040
0.0
1070
     0
1070
   100
1070
     0
1070
     3
1070
     0
1070
     0
1070
     0
1070
     0
1040
0.0
1040
0.0
1040
0.0
1040
10.0
1040
10.0
1040
10.0
1040
10.0
1070
     0
1002
{
1002
}
1002
}
  0
ENDSEC
  0
EOF
