  0
SECTION
  2
HEADER
  9
$ACADVER
  1
AC1009
  9
$DWGCODEPAGE
  3
ansi_932
  9
$INSBASE
 10
0.0
 20
0.0
 30
0.0
  9
$EXTMIN
 10
-1800.0
 20
-2685.008451078124
 30
0.0
  9
$EXTMAX
 10
1800.0
 20
2667.104485
 30
0.0
  9
$LIMMIN
 10
0.0
 20
0.0
  9
$LIMMAX
 10
12.0
 20
9.0
  9
$ORTHOMODE
 70
     0
  9
$REGENMODE
 70
     1
  9
$FILLMODE
 70
     1
  9
$QTEXTMODE
 70
     0
  9
$MIRRTEXT
 70
     1
  9
$DRAGMODE
 70
     2
  9
$LTSCALE
 40
254.0
  9
$OSMODE
 70
  1191
  9
$ATTMODE
 70
     1
  9
$TEXTSIZE
 40
0.2
  9
$TRACEWID
 40
1.0
  9
$TEXTSTYLE
  7
STANDARD
  9
$CLAYER
  8
DATA
  9
$CELTYPE
  6
BYLAYER
  9
$CECOLOR
 62
   256
  9
$DIMSCALE
 40
1.0
  9
$DIMASZ
 40
0.18
  9
$DIMEXO
 40
0.0625
  9
$DIMDLI
 40
0.38
  9
$DIMRND
 40
0.0
  9
$DIMDLE
 40
0.0
  9
$DIMEXE
 40
0.18
  9
$DIMTP
 40
0.0
  9
$DIMTM
 40
0.0
  9
$DIMTXT
 40
0.18
  9
$DIMCEN
 40
0.09
  9
$DIMTSZ
 40
0.0
  9
$DIMTOL
 70
     0
  9
$DIMLIM
 70
     0
  9
$DIMTIH
 70
     1
  9
$DIMTOH
 70
     1
  9
$DIMSE1
 70
     0
  9
$DIMSE2
 70
     0
  9
$DIMTAD
 70
     0
  9
$DIMZIN
 70
     0
  9
$DIMBLK
  1

  9
$DIMASO
 70
     1
  9
$DIMSHO
 70
     1
  9
$DIMPOST
  1

  9
$DIMAPOST
  1

  9
$DIMALT
 70
     0
  9
$DIMALTD
 70
     2
  9
$DIMALTF
 40
25.4
  9
$DIMLFAC
 40
1.0
  9
$DIMTOFL
 70
     0
  9
$DIMTVP
 40
0.0
  9
$DIMTIX
 70
     0
  9
$DIMSOXD
 70
     0
  9
$DIMSAH
 70
     0
  9
$DIMBLK1
  1

  9
$DIMBLK2
  1

  9
$DIMSTYLE
  2
STANDARD
  9
$DIMCLRD
 70
     0
  9
$DIMCLRE
 70
     0
  9
$DIMCLRT
 70
     0
  9
$DIMTFAC
 40
1.0
  9
$DIMGAP
 40
0.09
  9
$LUNITS
 70
     2
  9
$LUPREC
 70
     2
  9
$SKETCHINC
 40
0.1
  9
$FILLETRAD
 40
0.5
  9
$AUNITS
 70
     0
  9
$AUPREC
 70
     1
  9
$MENU
  1
.
  9
$ELEVATION
 40
0.0
  9
$PELEVATION
 40
0.0
  9
$THICKNESS
 40
0.0
  9
$LIMCHECK
 70
     0
  9
$CHAMFERA
 40
0.0
  9
$CHAMFERB
 40
0.0
  9
$SKPOLY
 70
     0
  9
$TDCREATE
 40
2459836.477305532
  9
$TDUPDATE
 40
2459836.477651308
  9
$TDINDWG
 40
2459836.102651875
  9
$TDUSRTIMER
 40
0.000346331
  9
$USRTIMER
 70
     1
  9
$ANGBASE
 50
0.0
  9
$ANGDIR
 70
     0
  9
$PDMODE
 70
     1
  9
$PDSIZE
 40
-2.0
  9
$PLINEWID
 40
0.0
  9
$COORDS
 70
     0
  9
$SPLFRAME
 70
     0
  9
$SPLINETYPE
 70
     6
  9
$SPLINESEGS
 70
     8
  9
$ATTDIA
 70
     1
  9
$ATTREQ
 70
     1
  9
$HANDLING
 70
     1
  9
$HANDSEED
  5
69D
  9
$SURFTAB1
 70
     6
  9
$SURFTAB2
 70
     6
  9
$SURFTYPE
 70
     6
  9
$SURFU
 70
     6
  9
$SURFV
 70
     6
  9
$UCSNAME
  2

  9
$UCSORG
 10
0.0
 20
0.0
 30
0.0
  9
$UCSXDIR
 10
1.0
 20
0.0
 30
0.0
  9
$UCSYDIR
 10
0.0
 20
1.0
 30
0.0
  9
$PUCSNAME
  2

  9
$PUCSORG
 10
0.0
 20
0.0
 30
0.0
  9
$PUCSXDIR
 10
1.0
 20
0.0
 30
0.0
  9
$PUCSYDIR
 10
0.0
 20
1.0
 30
0.0
  9
$USERI1
 70
     0
  9
$USERI2
 70
     0
  9
$USERI3
 70
     0
  9
$USERI4
 70
     0
  9
$USERI5
 70
     0
  9
$USERR1
 40
0.0
  9
$USERR2
 40
0.0
  9
$USERR3
 40
0.0
  9
$USERR4
 40
0.0
  9
$USERR5
 40
0.0
  9
$WORLDVIEW
 70
     1
  9
$SHADEDGE
 70
     3
  9
$SHADEDIF
 70
    70
  9
$TILEMODE
 70
     1
  9
$MAXACTVP
 70
    64
  9
$PLIMCHECK
 70
     0
  9
$PEXTMIN
 10
1.000000000000000E+20
 20
1.000000000000000E+20
 30
1.000000000000000E+20
  9
$PEXTMAX
 10
-1.000000000000000E+20
 20
-1.000000000000000E+20
 30
-1.000000000000000E+20
  9
$PLIMMIN
 10
-20.0
 20
-7.5
  9
$PLIMMAX
 10
277.0
 20
202.5
  9
$UNITMODE
 70
     0
  9
$VISRETAIN
 70
     1
  9
$PLINEGEN
 70
     0
  9
$PSLTSCALE
 70
     1
  0
ENDSEC
  0
SECTION
  2
TABLES
  0
TABLE
  2
VPORT
 70
     1
  0
VPORT
  2
*ACTIVE
 70
     0
 10
0.0
 20
0.0
 11
1.0
 21
1.0
 12
0.0
 22
-3.531814999999369
 13
0.0
 23
0.0
 14
0.5
 24
0.5
 15
0.5
 25
0.5
 16
0.0
 26
0.0
 36
1.0
 17
0.0
 27
0.0
 37
0.0
 40
5341.2726
 41
2.443378119001919
 42
2000.0
 43
0.0
 44
0.0
 50
0.0
 51
0.0
 71
     0
 72
   100
 73
     1
 74
     3
 75
     0
 76
     0
 77
     0
 78
     0
  0
ENDTAB
  0
TABLE
  2
LTYPE
 70
    12
  0
LTYPE
  2
CONTINUOUS
 70
     0
  3
Solid line
 72
    65
 73
     0
 40
0.0
  0
LTYPE
  2
______-6
 70
     0
  3

 72
    65
 73
     4
 40
0.416656494140625
 49
0.25
 49
-0.08331298828125
 49
0.02777099609375
 49
-0.055572509765625
  0
LTYPE
  2
______-12
 70
     0
  3

 72
    65
 73
     4
 40
2.182677165354331
 49
1.364173228346457
 49
-0.2728346456692914
 49
0.2728346456692914
 49
-0.2728346456692914
  0
ENDTAB
  0
TABLE
  2
LAYER
 70
     5
  0
LAYER
  2
0
 70
     0
 62
     7
  6
CONTINUOUS
  0
LAYER
  2
HIBINO-BASE
 70
     0
 62
     7
  6
CONTINUOUS
  0
LAYER
  2
SPEC
 70
     0
 62
     7
  6
CONTINUOUS
  0
LAYER
  2
DIMNSIONS
 70
     0
 62
     7
  6
CONTINUOUS
  0
LAYER
  2
DATA
 70
     0
 62
     7
  6
CONTINUOUS
  0
ENDTAB
  0
TABLE
  2
STYLE
 70
     2
  0
STYLE
  2
STANDARD
 70
     0
 40
0.0
 41
1.0
 50
0.0
 71
     0
 42
0.2
  3
txt
  4
BIGFONT.SHX
  0
ENDTAB
  0
TABLE
  2
VIEW
 70
     0
  0
ENDTAB
  0
TABLE
  2
UCS
 70
     0
  0
ENDTAB
  0
TABLE
  2
APPID
 70
     4
  0
APPID
  2
ACAD
 70
     0
  0
APPID
  2
ACAECLAYERSTANDARD
 70
     0
  0
APPID
  2
ACAD_MLEADERVER
 70
     0
  0
APPID
  2
ACADANNOPO
 70
     0
  0
ENDTAB
  0
TABLE
  2
DIMSTYLE
 70
     1
  0
DIMSTYLE
  2
STANDARD
 70
     0
  3

  4

  5

  6

  7

 40
1.0
 41
0.18
 42
0.0625
 43
0.38
 44
0.18
 45
0.0
 46
0.0
 47
0.0
 48
0.0
140
0.18
141
0.09
142
0.0
143
25.4
144
1.0
145
0.0
146
1.0
147
0.09
 71
     0
 72
     0
 73
     1
 74
     1
 75
     0
 76
     0
 77
     0
 78
     0
170
     0
171
     2
172
     0
173
     0
174
     0
175
     0
176
     0
177
     0
178
     0
  0
ENDTAB
  0
ENDSEC
  0
SECTION
  2
BLOCKS
  0
BLOCK
  8
DATA
  2
$MODEL_SPACE
 70
     0
 10
0.0
 20
0.0
 30
0.0
  3
$MODEL_SPACE
  1

  0
ENDBLK
  5
5F6
  8
DATA
  0
BLOCK
 67
     1
  8
DATA
  2
$PAPER_SPACE
 70
     0
 10
0.0
 20
0.0
 30
0.0
  3
$PAPER_SPACE
  1

  0
ENDBLK
  5
5F4
 67
     1
  8
DATA
  0
BLOCK
  8
0
  2
____-1
 70
     0
 10
0.0
 20
0.0
 30
0.0
  3
____-1
  1
Acad:XRef
  0
LINE
  5
83
  8
0
  6
CONTINUOUS
 62
     7
 10
-1291.5
 20
-1306.25
 30
0.0
 11
-1308.5
 21
-1306.25
 31
0.0
  0
ARC
  5
84
  8
0
  6
CONTINUOUS
 62
     7
 10
-1308.5
 20
-1303.75
 30
0.0
 40
2.5
 50
90.0
 51
270.0
  0
ARC
  5
85
  8
0
  6
CONTINUOUS
 62
     7
 10
-1291.5
 20
-1303.75
 30
0.0
 40
2.5
 50
270.0
 51
90.0
  0
LINE
  5
86
  8
0
  6
CONTINUOUS
 62
     7
 10
-1308.5
 20
-1301.25
 30
0.0
 11
-1291.5
 21
-1301.25
 31
0.0
  0
ENDBLK
  5
71
  8
0
  0
ENDSEC
  0
SECTION
  2
ENTITIES
  0
LINE
  5
87
  8
HIBINO-BASE
  6
CONTINUOUS
 62
     7
 10
-1800.0
 20
2667.104485
 30
0.0
 11
1800.0
 21
2667.104485
 31
0.0
  0
LINE
  5
88
  8
HIBINO-BASE
  6
CONTINUOUS
 62
     7
 10
1800.0
 20
-2532.895514999999
 30
0.0
 11
-1800.0
 21
-2532.895514999999
 31
0.0
  0
LINE
  5
89
  8
HIBINO-BASE
  6
CONTINUOUS
 62
     7
 10
-1800.0
 20
-2532.895514999999
 30
0.0
 11
-1800.0
 21
2667.104485
 31
0.0
  0
LINE
  5
8A
  8
HIBINO-BASE
  6
CONTINUOUS
 62
     7
 10
1800.0
 20
2667.104485
 30
0.0
 11
1800.0
 21
-2532.895514999999
 31
0.0
  0
LINE
  5
8B
  8
HIBINO-BASE
  6
CONTINUOUS
 62
     7
 10
0.0000000000002842
 20
-2082.895514999999
 30
0.0
 11
1800.0
 21
-2082.895514999999
 31
0.0
  0
LINE
  5
8C
  8
HIBINO-BASE
  6
CONTINUOUS
 62
     7
 10
0.0000000000002842
 20
-2532.895514999999
 30
0.0
 11
0.0000000000002842
 21
-2082.895514999999
 31
0.0
  0
TEXT
  5
8D
  8
HIBINO-BASE
 62
     7
 10
18.0000000000004
 20
-2133.069381666666
 30
0.0
 40
32.49414062499999
  1
NOTE
 41
0.7
 11
18.0000000000004
 21
-2100.575241041666
 31
0.0
 73
     3
  0
LINE
  5
8E
  8
HIBINO-BASE
  6
CONTINUOUS
 62
     7
 10
700.0000000000002
 20
-2532.895514999999
 30
0.0
 11
700.0000000000002
 21
-2082.895514999999
 31
0.0
  0
TEXT
  5
8F
  8
HIBINO-BASE
 62
     7
 10
717.9999999999998
 20
-2133.069381666666
 30
0.0
 40
32.49414062499999
  1
TITLE
 41
0.7
 11
717.9999999999998
 21
-2100.575241041666
 31
0.0
 73
     3
  0
LINE
  5
90
  8
HIBINO-BASE
  6
CONTINUOUS
 62
     7
 10
0.0000000000002842
 20
-2332.895514999999
 30
0.0
 11
1800.0
 21
-2332.895514999999
 31
0.0
  0
TEXT
  5
91
  8
HIBINO-BASE
 62
     7
 10
967.9999999999998
 20
-2381.942981666667
 30
0.0
 40
32.49414062499999
  1
DRAWN
 41
0.7
 11
967.9999999999998
 21
-2349.448841041667
 31
0.0
 73
     3
  0
TEXT
  5
92
  8
HIBINO-BASE
 62
     7
 10
467.9999999999998
 20
-2381.942981666667
 30
0.0
 40
32.49414062499999
  1
DATE
 41
0.7
 11
467.9999999999998
 21
-2349.448841041667
 31
0.0
 73
     3
  0
TEXT
  5
93
  8
HIBINO-BASE
 62
     7
 10
267.9999999999998
 20
-2381.942981666667
 30
0.0
 40
32.49414062499999
  1
SCALE
 41
0.7
 11
267.9999999999998
 21
-2349.448841041667
 31
0.0
 73
     3
  0
TEXT
  5
94
  8
HIBINO-BASE
 62
     7
 10
717.9999999999998
 20
-2381.942981666667
 30
0.0
 40
32.49414062499999
  1
DESIGN
 41
0.7
 11
717.9999999999998
 21
-2349.448841041667
 31
0.0
 73
     3
  0
TEXT
  5
95
  8
HIBINO-BASE
 62
     7
 10
1468.0
 20
-2381.942981666667
 30
0.0
 40
32.49414062499999
  1
DRAWING NO.
 41
0.7
 11
1468.0
 21
-2349.448841041667
 31
0.0
 73
     3
  0
TEXT
  5
96
  8
HIBINO-BASE
 62
     7
 10
1218.0
 20
-2381.942981666667
 30
0.0
 40
32.49414062499999
  1
CHECK
 41
0.7
 11
1218.0
 21
-2349.448841041667
 31
0.0
 73
     3
  0
LINE
  5
97
  8
HIBINO-BASE
  6
CONTINUOUS
 62
     7
 10
287.5000000000003
 20
-2507.895514999999
 30
0.0
 11
362.5000000000003
 21
-2432.895514999999
 31
0.0
  0
TEXT
  5
98
  8
HIBINO-BASE
 62
     7
 10
275.0000000000003
 20
-2455.074381666666
 30
0.0
 40
32.49414062499999
  1
1
 41
0.7
 11
275.0000000000003
 21
-2422.580241041666
 31
0.0
 73
     3
  0
LINE
  5
99
  8
HIBINO-BASE
  6
CONTINUOUS
 62
     7
 10
250.0000000000003
 20
-2532.895514999999
 30
0.0
 11
250.0000000000003
 21
-2332.895514999999
 31
0.0
  0
LINE
  5
9A
  8
HIBINO-BASE
  6
CONTINUOUS
 62
     7
 10
449.9999999999997
 20
-2532.895514999999
 30
0.0
 11
449.9999999999997
 21
-2332.895514999999
 31
0.0
  0
LINE
  5
9B
  8
HIBINO-BASE
  6
CONTINUOUS
 62
     7
 10
949.9999999999998
 20
-2332.895514999999
 30
0.0
 11
949.9999999999998
 21
-2532.895514999999
 31
0.0
  0
LINE
  5
9C
  8
HIBINO-BASE
  6
CONTINUOUS
 62
     7
 10
1450.0
 20
-2332.895514999999
 30
0.0
 11
1450.0
 21
-2532.895514999999
 31
0.0
  0
LINE
  5
9D
  8
HIBINO-BASE
  6
CONTINUOUS
 62
     7
 10
1200.0
 20
-2532.895514999999
 30
0.0
 11
1200.0
 21
-2332.895514999999
 31
0.0
  0
TEXT
  5
9E
  8
HIBINO-BASE
 62
     7
 10
467.1308000000002
 20
-2475.622581666666
 30
0.0
 40
32.49414062499999
  1
'22.09.
 41
0.7
 11
467.1308000000002
 21
-2443.128441041666
 31
0.0
 73
     3
  0
TEXT
  5
9F
  8
HIBINO-BASE
 62
     7
 10
350.0000000000003
 20
-2492.574381666666
 30
0.0
 40
32.49414062499999
  1
20
 41
0.7
 11
350.0000000000003
 21
-2460.080241041666
 31
0.0
 73
     3
  0
TEXT
  5
A0
  8
HIBINO-BASE
 62
     7
 10
980.1162002206925
 20
-2475.622581666666
 30
0.0
 40
32.49414062499999
  1
N.Sasaki
 41
0.7
 11
980.1162002206925
 21
-2443.128441041666
 31
0.0
 73
     3
  0
TEXT
  5
A1
  8
HIBINO-BASE
 62
     7
 10
77.66666666666737
 20
-2493.375514999999
 30
0.0
 40
64.98828124999999
  1
A4
 41
0.7
 11
77.66666666666737
 21
-2428.387233749999
 31
0.0
 73
     3
  0
TEXT
  5
A2
  8
HIBINO-BASE
 62
     7
 10
19.16666666666657
 20
-2385.284615
 30
0.0
 40
32.49414062499999
  1
PAPER SIZE
 41
0.7
 11
19.16666666666657
 21
-2352.790474375
 31
0.0
 73
     3
  0
TEXT
  5
A3
  8
HIBINO-BASE
 62
     7
 10
-1656.319999999999
 20
-2661.069070999999
 30
0.0
 40
71.81814023437498
  1
Hibino Corporation
 41
0.7
 11
-1656.319999999999
 21
-2589.250930765624
 31
0.0
 73
     3
  0
TEXT
  5
A4
  8
HIBINO-BASE
 62
     7
 10
1001.3678
 20
-2661.069070999999
 30
0.0
 40
71.81814023437498
  1
ヒビノ株式会社
 41
0.7
 11
1001.3678
 21
-2589.250930765624
 31
0.0
 73
     3
  0
LINE
  5
A5
  8
SPEC
  6
CONTINUOUS
 62
     7
 10
-1650.0
 20
2467.104485000001
 30
0.0
 11
1300.0
 21
2467.104485000001
 31
0.0
  0
LINE
  5
A6
  8
SPEC
  6
CONTINUOUS
 62
     7
 10
-1650.0
 20
2392.104485
 30
0.0
 11
1300.0
 21
2392.104485
 31
0.0
  0
LINE
  5
A7
  8
SPEC
  6
CONTINUOUS
 62
     7
 10
-1650.0
 20
2467.104485000001
 30
0.0
 11
-1650.0
 21
1267.104485
 31
0.0
  0
TEXT
  5
A8
  8
SPEC
 62
     7
 10
-1625.0
 20
2494.969885
 30
0.0
 40
48.74121093749999
  1
仕様
 41
0.7
 11
-1625.0
 21
2543.7110959375
 31
0.0
 73
     3
  0
LINE
  5
A9
  8
SPEC
  6
CONTINUOUS
 62
     7
 10
-875.0
 20
2467.104485000001
 30
0.0
 11
-875.0
 21
1267.104485
 31
0.0
  0
LINE
  5
AA
  8
SPEC
  6
CONTINUOUS
 62
     7
 10
1300.0
 20
2467.104485000001
 30
0.0
 11
1300.0
 21
1267.104485
 31
0.0
  0
LINE
  5
AB
  8
SPEC
  6
CONTINUOUS
 62
     7
 10
-1650.0
 20
2317.104485
 30
0.0
 11
1300.0
 21
2317.104485
 31
0.0
  0
LINE
  5
AC
  8
SPEC
  6
CONTINUOUS
 62
     7
 10
-1650.0
 20
2242.104485
 30
0.0
 11
1300.0
 21
2242.104485
 31
0.0
  0
LINE
  5
AD
  8
SPEC
  6
CONTINUOUS
 62
     7
 10
-1650.0
 20
2167.104485
 30
0.0
 11
1300.0
 21
2167.104485
 31
0.0
  0
LINE
  5
AE
  8
SPEC
  6
CONTINUOUS
 62
     7
 10
-1650.0
 20
2092.104485
 30
0.0
 11
1300.0
 21
2092.104485
 31
0.0
  0
LINE
  5
AF
  8
SPEC
  6
CONTINUOUS
 62
     7
 10
-1650.0
 20
2017.104485
 30
0.0
 11
1300.0
 21
2017.104485
 31
0.0
  0
LINE
  5
B0
  8
SPEC
  6
CONTINUOUS
 62
     7
 10
-1300.0
 20
1942.104485
 30
0.0
 11
1300.0
 21
1942.104485
 31
0.0
  0
LINE
  5
B1
  8
SPEC
  6
CONTINUOUS
 62
     7
 10
-1300.0
 20
1867.104485
 30
0.0
 11
1300.0
 21
1867.104485
 31
0.0
  0
LINE
  5
B2
  8
SPEC
  6
CONTINUOUS
 62
     7
 10
-1650.0
 20
1792.104485
 30
0.0
 11
1300.0
 21
1792.104485
 31
0.0
  0
LINE
  5
B3
  8
SPEC
  6
CONTINUOUS
 62
     7
 10
-1650.0
 20
1717.104485
 30
0.0
 11
1300.0
 21
1717.104485
 31
0.0
  0
LINE
  5
B4
  8
SPEC
  6
CONTINUOUS
 62
     7
 10
-1650.0
 20
1642.104485
 30
0.0
 11
1300.0
 21
1642.104485
 31
0.0
  0
LINE
  5
B5
  8
SPEC
  6
CONTINUOUS
 62
     7
 10
-1650.0
 20
1567.104485
 30
0.0
 11
1300.0
 21
1567.104485
 31
0.0
  0
LINE
  5
B6
  8
SPEC
  6
CONTINUOUS
 62
     7
 10
-1650.0
 20
1492.104485
 30
0.0
 11
1300.0
 21
1492.104485
 31
0.0
  0
LINE
  5
B7
  8
SPEC
  6
CONTINUOUS
 62
     7
 10
-1650.0
 20
1417.104485
 30
0.0
 11
1300.0
 21
1417.104485
 31
0.0
  0
LINE
  5
B8
  8
SPEC
  6
CONTINUOUS
 62
     7
 10
-1650.0
 20
1342.104485
 30
0.0
 11
1300.0
 21
1342.104485
 31
0.0
  0
LINE
  5
B9
  8
SPEC
  6
CONTINUOUS
 62
     7
 10
-1650.0
 20
1267.104485
 30
0.0
 11
1300.0
 21
1267.104485
 31
0.0
  0
TEXT
  5
BA
  8
SPEC
 62
     7
 10
-1632.0
 20
2407.862840555556
 30
0.0
 40
37.90983072916666
  1
形式
 41
0.7
 11
-1632.0
 21
2445.772671284722
 31
0.0
 73
     3
  0
TEXT
  5
BB
  8
SPEC
 62
     7
 10
-1632.0
 20
2332.862840555556
 30
0.0
 40
37.90983072916666
  1
周波数レンジ(－10dB)
 41
0.7
 11
-1632.0
 21
2370.772671284722
 31
0.0
 73
     3
  0
TEXT
  5
BC
  8
SPEC
 62
     7
 10
-1632.0
 20
2257.862840555556
 30
0.0
 40
37.90983072916666
  1
最大音圧レベル
 41
0.7
 11
-1632.0
 21
2295.772671284722
 31
0.0
 73
     3
  0
TEXT
  5
BD
  8
SPEC
 62
     7
 10
-1632.0
 20
2182.862840555556
 30
0.0
 40
37.90983072916666
  1
ドライバー構成
 41
0.7
 11
-1632.0
 21
2220.772671284722
 31
0.0
 73
     3
  0
TEXT
  5
BE
  8
SPEC
 62
     7
 10
-1632.0
 20
2107.862840555556
 30
0.0
 40
37.90983072916666
  1
クロスオーバー周波数
 41
0.7
 11
-1632.0
 21
2145.772671284722
 31
0.0
 73
     3
  0
TEXT
  5
BF
  8
SPEC
 62
     7
 10
-1632.0
 20
2032.862840555556
 30
0.0
 40
37.90983072916666
  1
パワーアンプ
 41
0.7
 11
-1632.0
 21
2070.772671284722
 31
0.0
 73
     3
  0
TEXT
  5
C0
  8
SPEC
 62
     7
 10
-1632.0
 20
1957.862840555555
 30
0.0
 40
37.90983072916666
  1
入力
 41
0.7
 11
-1632.0
 21
1995.772671284722
 31
0.0
 73
     3
  0
TEXT
  5
C1
  8
SPEC
 62
     7
 10
-857.0
 20
2407.862840555556
 30
0.0
 40
37.90983072916666
  1
パワード・サブウーファー
 41
0.7
 11
-857.0
 21
2445.772671284722
 31
0.0
 73
     3
  0
TEXT
  5
C2
  8
SPEC
 62
     7
 10
-857.0
 20
2332.862840555556
 30
0.0
 40
37.90983072916666
  1
31Hz～150Hz
 41
0.7
 11
-857.0
 21
2370.772671284722
 31
0.0
 73
     3
  0
TEXT
  5
C3
  8
SPEC
 62
     7
 10
-857.0
 20
2257.862840555556
 30
0.0
 40
37.90983072916666
  1
131dB SPL
 41
0.7
 11
-857.0
 21
2295.772671284722
 31
0.0
 73
     3
  0
TEXT
  5
C4
  8
SPEC
 62
     7
 10
-857.0
 20
2182.862840555556
 30
0.0
 40
37.90983072916666
  1
18インチ(457mm)
 41
0.7
 11
-857.0
 21
2220.772671284722
 31
0.0
 73
     3
  0
TEXT
  5
C5
  8
SPEC
 62
     7
 10
-857.0
 20
2107.862840555556
 30
0.0
 40
37.90983072916666
  1
80Hz/100Hz/120Hz
 41
0.7
 11
-857.0
 21
2145.772671284722
 31
0.0
 73
     3
  0
TEXT
  5
C6
  8
SPEC
 62
     7
 10
-857.0
 20
2032.862840555556
 30
0.0
 40
37.90983072916666
  1
最大500W
 41
0.7
 11
-857.0
 21
2070.772671284722
 31
0.0
 73
     3
  0
TEXT
  5
C7
  8
SPEC
 62
     7
 10
-1632.0
 20
1732.862840555555
 30
0.0
 40
37.90983072916666
  1
スルー出力
 41
0.7
 11
-1632.0
 21
1770.772671284722
 31
0.0
 73
     3
  0
TEXT
  5
C8
  8
SPEC
 62
     7
 10
-857.0000000000002
 20
1957.862840555555
 30
0.0
 40
37.90983072916666
  1
2
 41
0.7
 11
-857.0000000000002
 21
1995.772671284722
 31
0.0
 73
     3
  0
TEXT
  5
C9
  8
SPEC
 62
     7
 10
-1282.0
 20
1882.862840555555
 30
0.0
 40
37.90983072916666
  1
端子・形式
 41
0.7
 11
-1282.0
 21
1920.772671284722
 31
0.0
 73
     3
  0
LINE
  5
CA
  8
SPEC
  6
CONTINUOUS
 62
     7
 10
-1300.0
 20
2017.104485
 30
0.0
 11
-1300.0
 21
1717.104485
 31
0.0
  0
TEXT
  5
CB
  8
SPEC
 62
     7
 10
-1282.0
 20
1807.862840555555
 30
0.0
 40
37.90983072916666
  1
インピーダンス
 41
0.7
 11
-1282.0
 21
1845.772671284722
 31
0.0
 73
     3
  0
TEXT
  5
CC
  8
SPEC
 62
     7
 10
-1282.0
 20
1957.862840555555
 30
0.0
 40
37.90983072916666
  1
チャンネル数
 41
0.7
 11
-1282.0
 21
1995.772671284722
 31
0.0
 73
     3
  0
TEXT
  5
CD
  8
SPEC
 62
     7
 10
-857.0000000000002
 20
1882.862840555555
 30
0.0
 40
37.90983072916666
  1
XLRと標準フォーンジャック(3P)対応の複合型端子×2
 41
0.7
 11
-857.0000000000002
 21
1920.772671284722
 31
0.0
 73
     3
  0
TEXT
  5
CE
  8
SPEC
 62
     7
 10
-857.0000000000002
 20
1807.862840555555
 30
0.0
 40
37.90983072916666
  1
50kΩ/100kΩ(アンバランス/バランス)
 41
0.7
 11
-857.0000000000002
 21
1845.772671284722
 31
0.0
 73
     3
  0
TEXT
  5
CF
  8
SPEC
 62
     7
 10
-1632.0
 20
1657.862840555555
 30
0.0
 40
37.90983072916666
  1
電源
 41
0.7
 11
-1632.0
 21
1695.772671284722
 31
0.0
 73
     3
  0
TEXT
  5
D0
  8
SPEC
 62
     7
 10
-1282.0
 20
1732.862840555555
 30
0.0
 40
37.90983072916666
  1
端子・形式
 41
0.7
 11
-1282.0
 21
1770.772671284722
 31
0.0
 73
     3
  0
TEXT
  5
D1
  8
SPEC
 62
     7
 10
-857.0
 20
1732.862840555555
 30
0.0
 40
37.90983072916666
  1
XLR×2
 41
0.7
 11
-857.0
 21
1770.772671284722
 31
0.0
 73
     3
  0
TEXT
  5
D2
  8
SPEC
 62
     7
 10
-1632.0
 20
1582.862840555555
 30
0.0
 40
37.90983072916666
  1
消費電力
 41
0.7
 11
-1632.0
 21
1620.772671284722
 31
0.0
 73
     3
  0
TEXT
  5
D3
  8
SPEC
 62
     7
 10
-1632.0
 20
1507.862840555555
 30
0.0
 40
37.90983072916666
  1
エンクロージャー
 41
0.7
 11
-1632.0
 21
1545.772671284722
 31
0.0
 73
     3
  0
TEXT
  5
D4
  8
SPEC
 62
     7
 10
-857.0
 20
1657.862840555555
 30
0.0
 40
37.90983072916666
  1
AC100V、50/60Hz
 41
0.7
 11
-857.0
 21
1695.772671284722
 31
0.0
 73
     3
  0
TEXT
  5
D5
  8
SPEC
 62
     7
 10
-857.0
 20
1582.862840555555
 30
0.0
 40
37.90983072916666
  1
最大500W
 41
0.7
 11
-857.0
 21
1620.772671284722
 31
0.0
 73
     3
  0
TEXT
  5
D6
  8
SPEC
 62
     7
 10
-857.0
 20
1507.862840555555
 30
0.0
 40
37.90983072916666
  1
合板、Duraflex仕上げ、黒
 41
0.7
 11
-857.0
 21
1545.772671284722
 31
0.0
 73
     3
  0
TEXT
  5
D7
  8
SPEC
 62
     7
 10
-1632.0
 20
1432.862840555555
 30
0.0
 40
37.90983072916666
  1
寸法(W×H×D)
 41
0.7
 11
-1632.0
 21
1470.772671284722
 31
0.0
 73
     3
  0
TEXT
  5
D8
  8
SPEC
 62
     7
 10
-1632.0
 20
1357.862840555555
 30
0.0
 40
37.90983072916666
  1
質量
 41
0.7
 11
-1632.0
 21
1395.772671284722
 31
0.0
 73
     3
  0
TEXT
  5
D9
  8
SPEC
 62
     7
 10
-857.0
 20
1432.862840555556
 30
0.0
 40
37.90983072916666
  1
609×668×638mm(除突起部)
 41
0.7
 11
-857.0
 21
1470.772671284722
 31
0.0
 73
     3
  0
TEXT
  5
DA
  8
SPEC
 62
     7
 10
-857.0
 20
1357.862840555556
 30
0.0
 40
37.90983072916666
  1
36kg
 41
0.7
 11
-857.0
 21
1395.772671284722
 31
0.0
 73
     3
  0
TEXT
  5
DB
  8
SPEC
 62
     7
 10
-857.0
 20
1282.862840555555
 30
0.0
 40
37.90983072916666
  1
電源コード、和文取扱説明書
 41
0.7
 11
-857.0
 21
1320.772671284722
 31
0.0
 73
     3
  0
TEXT
  5
DC
  8
SPEC
 62
     7
 10
-1632.0
 20
1282.862840555555
 30
0.0
 40
37.90983072916666
  1
付属品
 41
0.7
 11
-1632.0
 21
1320.772671284722
 31
0.0
 73
     3
  0
TEXT
  5
DD
  8
DIMNSIONS
 62
     7
 10
-399.9999999999999
 20
-2287.505714999999
 30
0.0
 40
48.74121093749999
  1
(単位：mm)
 41
0.7
 11
-399.9999999999999
 21
-2238.764504062499
 31
0.0
 73
     3
  0
LINE
  5
DE
  8
DIMNSIONS
  6
CONTINUOUS
 62
     7
 10
-1324.0
 20
-600.0
 30
0.0
 11
-1695.0
 21
-600.0
 31
0.0
  0
LINE
  5
DF
  8
DIMNSIONS
  6
CONTINUOUS
 62
     7
 10
-1603.75
 20
37.5
 30
0.0
 11
-1695.0
 21
37.5
 31
0.0
  0
LINE
  5
E0
  8
DIMNSIONS
  6
CONTINUOUS
 62
     7
 10
-1675.0
 20
-600.0
 30
0.0
 11
-1675.0
 21
37.5
 31
0.0
  0
POLYLINE
  5
E1
  8
DIMNSIONS
  6
CONTINUOUS
 62
     7
 66
     1
 10
0.0
 20
0.0
 30
0.0
 70
   128
  0
VERTEX
  5
633
  8
DIMNSIONS
  6
CONTINUOUS
 62
     7
 10
-1664.282686475588
 20
-560.00244140625
 30
0.0
  0
VERTEX
  5
634
  8
DIMNSIONS
  6
CONTINUOUS
 62
     7
 10
-1675.0
 20
-600.0
 30
0.0
  0
VERTEX
  5
635
  8
DIMNSIONS
  6
CONTINUOUS
 62
     7
 10
-1685.717313524412
 20
-560.00244140625
 30
0.0
  0
SEQEND
  5
686
  8
DIMNSIONS
  6
CONTINUOUS
 62
     7
  0
POLYLINE
  5
E6
  8
DIMNSIONS
  6
CONTINUOUS
 62
     7
 66
     1
 10
0.0
 20
0.0
 30
0.0
 70
   128
  0
VERTEX
  5
636
  8
DIMNSIONS
  6
CONTINUOUS
 62
     7
 10
-1685.717313524412
 20
-2.49755859375
 30
0.0
  0
VERTEX
  5
637
  8
DIMNSIONS
  6
CONTINUOUS
 62
     7
 10
-1675.0
 20
37.5
 30
0.0
  0
VERTEX
  5
638
  8
DIMNSIONS
  6
CONTINUOUS
 62
     7
 10
-1664.282686475588
 20
-2.49755859375
 30
0.0
  0
SEQEND
  5
687
  8
DIMNSIONS
  6
CONTINUOUS
 62
     7
  0
TEXT
  5
EB
  8
DIMNSIONS
 62
     7
 10
-1694.877777777778
 20
-334.1666666666667
 30
0.0
 40
54.15690104166671
  1
638
 50
90.0
 41
0.7
 11
-1749.034678819444
 21
-334.1666666666667
 31
0.0
 73
     3
  0
LINE
  5
EC
  8
DIMNSIONS
  6
CONTINUOUS
 62
     7
 10
-1618.75
 20
-666.2500000000001
 30
0.0
 11
-1695.0
 21
-666.2500000000001
 31
0.0
  0
LINE
  5
ED
  8
DIMNSIONS
  6
CONTINUOUS
 62
     7
 10
-1618.75
 20
-1333.75
 30
0.0
 11
-1695.0
 21
-1333.75
 31
0.0
  0
LINE
  5
EE
  8
DIMNSIONS
  6
CONTINUOUS
 62
     7
 10
-1675.0
 20
-666.2500000000001
 30
0.0
 11
-1675.0
 21
-1333.75
 31
0.0
  0
POLYLINE
  5
EF
  8
DIMNSIONS
  6
CONTINUOUS
 62
     7
 66
     1
 10
0.0
 20
0.0
 30
0.0
 70
   128
  0
VERTEX
  5
639
  8
DIMNSIONS
  6
CONTINUOUS
 62
     7
 10
-1685.717313524412
 20
-706.2475585937501
 30
0.0
  0
VERTEX
  5
63A
  8
DIMNSIONS
  6
CONTINUOUS
 62
     7
 10
-1675.0
 20
-666.2500000000001
 30
0.0
  0
VERTEX
  5
63B
  8
DIMNSIONS
  6
CONTINUOUS
 62
     7
 10
-1664.282686475588
 20
-706.2475585937501
 30
0.0
  0
SEQEND
  5
688
  8
DIMNSIONS
  6
CONTINUOUS
 62
     7
  0
POLYLINE
  5
F4
  8
DIMNSIONS
  6
CONTINUOUS
 62
     7
 66
     1
 10
0.0
 20
0.0
 30
0.0
 70
   128
  0
VERTEX
  5
63C
  8
DIMNSIONS
  6
CONTINUOUS
 62
     7
 10
-1664.282686475588
 20
-1293.75244140625
 30
0.0
  0
VERTEX
  5
63D
  8
DIMNSIONS
  6
CONTINUOUS
 62
     7
 10
-1675.0
 20
-1333.75
 30
0.0
  0
VERTEX
  5
63E
  8
DIMNSIONS
  6
CONTINUOUS
 62
     7
 10
-1685.717313524412
 20
-1293.75244140625
 30
0.0
  0
SEQEND
  5
689
  8
DIMNSIONS
  6
CONTINUOUS
 62
     7
  0
TEXT
  5
F9
  8
DIMNSIONS
 62
     7
 10
-1694.877777777778
 20
-1052.916666666667
 30
0.0
 40
54.15690104166671
  1
668
 50
90.0
 41
0.7
 11
-1749.034678819444
 21
-1052.916666666667
 31
0.0
 73
     3
  0
LINE
  5
FA
  8
DIMNSIONS
  6
CONTINUOUS
 62
     7
 10
-1604.75
 20
-1347.75
 30
0.0
 11
-1604.75
 21
-1451.698729810778
 31
0.0
  0
LINE
  5
FB
  8
DIMNSIONS
  6
CONTINUOUS
 62
     7
 10
-995.328432583508
 20
-1349.0
 30
0.0
 11
-995.328432583508
 21
-1451.698729810778
 31
0.0
  0
LINE
  5
FC
  8
DIMNSIONS
  6
CONTINUOUS
 62
     7
 10
-1604.75
 20
-1431.698729810778
 30
0.0
 11
-995.328432583508
 21
-1431.698729810778
 31
0.0
  0
POLYLINE
  5
FD
  8
DIMNSIONS
  6
CONTINUOUS
 62
     7
 66
     1
 10
0.0
 20
0.0
 30
0.0
 70
   128
  0
VERTEX
  5
63F
  8
DIMNSIONS
  6
CONTINUOUS
 62
     7
 10
-1564.75244140625
 20
-1442.41604333519
 30
0.0
  0
VERTEX
  5
640
  8
DIMNSIONS
  6
CONTINUOUS
 62
     7
 10
-1604.75
 20
-1431.698729810778
 30
0.0
  0
VERTEX
  5
641
  8
DIMNSIONS
  6
CONTINUOUS
 62
     7
 10
-1564.75244140625
 20
-1420.981416286366
 30
0.0
  0
SEQEND
  5
68A
  8
DIMNSIONS
  6
CONTINUOUS
 62
     7
  0
POLYLINE
  5
102
  8
DIMNSIONS
  6
CONTINUOUS
 62
     7
 66
     1
 10
0.0
 20
0.0
 30
0.0
 70
   128
  0
VERTEX
  5
642
  8
DIMNSIONS
  6
CONTINUOUS
 62
     7
 10
-1035.325991177258
 20
-1420.981416286366
 30
0.0
  0
VERTEX
  5
643
  8
DIMNSIONS
  6
CONTINUOUS
 62
     7
 10
-995.328432583508
 20
-1431.698729810778
 30
0.0
  0
VERTEX
  5
644
  8
DIMNSIONS
  6
CONTINUOUS
 62
     7
 10
-1035.325991177258
 20
-1442.41604333519
 30
0.0
  0
SEQEND
  5
68B
  8
DIMNSIONS
  6
CONTINUOUS
 62
     7
  0
TEXT
  5
107
  8
DIMNSIONS
 62
     7
 10
-1352.955882958421
 20
-1411.820952033
 30
0.0
 40
54.15690104166671
  1
609
 41
0.7
 11
-1352.955882958421
 21
-1357.664050991334
 31
0.0
 73
     3
  0
LINE
  5
108
  8
DIMNSIONS
  6
CONTINUOUS
 62
     7
 10
-996.25
 20
37.5
 30
0.0
 11
-880.0
 21
37.5
 31
0.0
  0
LINE
  5
109
  8
DIMNSIONS
  6
CONTINUOUS
 62
     7
 10
-1276.0
 20
-402.5
 30
0.0
 11
-880.0
 21
-402.5
 31
0.0
  0
LINE
  5
10A
  8
DIMNSIONS
  6
CONTINUOUS
 62
     7
 10
-900.0
 20
37.5
 30
0.0
 11
-900.0
 21
-402.5
 31
0.0
  0
POLYLINE
  5
10B
  8
DIMNSIONS
  6
CONTINUOUS
 62
     7
 66
     1
 10
0.0
 20
0.0
 30
0.0
 70
   128
  0
VERTEX
  5
645
  8
DIMNSIONS
  6
CONTINUOUS
 62
     7
 10
-910.7173135244118
 20
-2.49755859375
 30
0.0
  0
VERTEX
  5
646
  8
DIMNSIONS
  6
CONTINUOUS
 62
     7
 10
-900.0
 20
37.5
 30
0.0
  0
VERTEX
  5
647
  8
DIMNSIONS
  6
CONTINUOUS
 62
     7
 10
-889.2826864755882
 20
-2.49755859375
 30
0.0
  0
SEQEND
  5
68C
  8
DIMNSIONS
  6
CONTINUOUS
 62
     7
  0
POLYLINE
  5
110
  8
DIMNSIONS
  6
CONTINUOUS
 62
     7
 66
     1
 10
0.0
 20
0.0
 30
0.0
 70
   128
  0
VERTEX
  5
648
  8
DIMNSIONS
  6
CONTINUOUS
 62
     7
 10
-889.2826864755882
 20
-362.50244140625
 30
0.0
  0
VERTEX
  5
649
  8
DIMNSIONS
  6
CONTINUOUS
 62
     7
 10
-900.0
 20
-402.5
 30
0.0
  0
VERTEX
  5
64A
  8
DIMNSIONS
  6
CONTINUOUS
 62
     7
 10
-910.7173135244118
 20
-362.50244140625
 30
0.0
  0
SEQEND
  5
68D
  8
DIMNSIONS
  6
CONTINUOUS
 62
     7
  0
TEXT
  5
115
  8
DIMNSIONS
 62
     7
 10
-919.8777777777777
 20
-235.4166666666667
 30
0.0
 40
54.15690104166671
  1
440
 50
90.0
 41
0.7
 11
-974.0346788194445
 21
-235.4166666666667
 31
0.0
 73
     3
  0
LINE
  5
116
  8
DIMNSIONS
  6
CONTINUOUS
 62
     7
 10
-1291.528841734279
 20
-399.4603490928883
 30
0.0
 11
-875.0000000000001
 21
-249.9999999999999
 31
0.0
  0
POLYLINE
  5
117
  8
DIMNSIONS
  6
CONTINUOUS
 62
     7
 66
     1
 10
0.0
 20
0.0
 30
0.0
 70
   128
  0
VERTEX
  5
64B
  8
DIMNSIONS
  6
CONTINUOUS
 62
     7
 10
-1250.221191120385
 20
-396.5718367765823
 30
0.0
  0
VERTEX
  5
64C
  8
DIMNSIONS
  6
CONTINUOUS
 62
     7
 10
-1291.528841734279
 20
-399.4603490928883
 30
0.0
  0
VERTEX
  5
64D
  8
DIMNSIONS
  6
CONTINUOUS
 62
     7
 10
-1257.199623090148
 20
-376.3049987408759
 30
0.0
  0
SEQEND
  5
68E
  8
DIMNSIONS
  6
CONTINUOUS
 62
     7
  0
LINE
  5
11C
  8
DIMNSIONS
  6
CONTINUOUS
 62
     7
 10
-875.0000000000001
 20
-249.9999999999999
 30
0.0
 11
-835.0000000000001
 21
-249.9999999999999
 31
0.0
  0
TEXT
  5
11D
  8
DIMNSIONS
 62
     7
 10
-835.0000000000001
 20
-275.3999999999999
 30
0.0
 40
54.15690104166666
  1
M20ねじ込み式
 41
0.7
 11
-835.0000000000001
 21
-221.2430989583332
 31
0.0
 73
     3
  0
TEXT
  5
11E
  8
DIMNSIONS
 62
     7
 10
-835.0
 20
-345.9555555555555
 30
0.0
 40
54.15690104166666
  1
ポールソケット
 41
0.7
 11
-835.0
 21
-291.7986545138888
 31
0.0
 73
     3
  0
LINE
  5
11F
  8
DIMNSIONS
  6
CONTINUOUS
 62
     7
 10
-1599.144974746831
 20
-1339.45
 30
0.0
 11
-1695.0
 21
-1339.45
 31
0.0
  0
LINE
  5
120
  8
DIMNSIONS
  6
CONTINUOUS
 62
     7
 10
-1618.75
 20
-1333.75
 30
0.0
 11
-1695.0
 21
-1333.75
 31
0.0
  0
LINE
  5
121
  8
DIMNSIONS
  6
CONTINUOUS
 62
     7
 10
-1675.0
 20
-1333.75
 30
0.0
 11
-1675.0
 21
-1339.45
 31
0.0
  0
LINE
  5
122
  8
DIMNSIONS
  6
CONTINUOUS
 62
     7
 10
-1675.0
 20
-1339.45
 30
0.0
 11
-1675.0
 21
-1409.45
 31
0.0
  0
POLYLINE
  5
123
  8
DIMNSIONS
  6
CONTINUOUS
 62
     7
 66
     1
 10
0.0
 20
0.0
 30
0.0
 70
   128
  0
VERTEX
  5
64E
  8
DIMNSIONS
  6
CONTINUOUS
 62
     7
 10
-1685.717313524412
 20
-1379.44755859375
 30
0.0
  0
VERTEX
  5
64F
  8
DIMNSIONS
  6
CONTINUOUS
 62
     7
 10
-1675.0
 20
-1339.45
 30
0.0
  0
VERTEX
  5
650
  8
DIMNSIONS
  6
CONTINUOUS
 62
     7
 10
-1664.282686475588
 20
-1379.44755859375
 30
0.0
  0
SEQEND
  5
68F
  8
DIMNSIONS
  6
CONTINUOUS
 62
     7
  0
LINE
  5
128
  8
DIMNSIONS
  6
CONTINUOUS
 62
     7
 10
-1675.0
 20
-1333.75
 30
0.0
 11
-1675.0
 21
-1263.75
 31
0.0
  0
POLYLINE
  5
129
  8
DIMNSIONS
  6
CONTINUOUS
 62
     7
 66
     1
 10
0.0
 20
0.0
 30
0.0
 70
   128
  0
VERTEX
  5
651
  8
DIMNSIONS
  6
CONTINUOUS
 62
     7
 10
-1664.282686475588
 20
-1293.75244140625
 30
0.0
  0
VERTEX
  5
652
  8
DIMNSIONS
  6
CONTINUOUS
 62
     7
 10
-1675.0
 20
-1333.75
 30
0.0
  0
VERTEX
  5
653
  8
DIMNSIONS
  6
CONTINUOUS
 62
     7
 10
-1685.717313524412
 20
-1293.75244140625
 30
0.0
  0
SEQEND
  5
690
  8
DIMNSIONS
  6
CONTINUOUS
 62
     7
  0
TEXT
  5
12E
  8
DIMNSIONS
 62
     7
 10
-1704.877777777778
 20
-1389.516666666667
 30
0.0
 40
54.15690104166671
  1
5.7
 50
90.0
 41
0.7
 11
-1759.034678819444
 21
-1389.516666666667
 31
0.0
 73
     3
  0
LINE
  5
12F
  8
DATA
  6
______-6
 62
     7
 10
-1300.0
 20
-625.0
 30
0.0
 11
-1300.0
 21
75.0
 31
0.0
  0
LINE
  5
130
  8
DATA
  6
CONTINUOUS
 62
     7
 10
802.7678644360344
 20
-1785.0
 30
0.0
 11
1416.087110601126
 21
-1785.0
 31
0.0
  0
TEXT
  5
131
  8
DATA
 62
     7
 10
-1760.0
 20
-2375.369959444444
 30
0.0
 40
37.90983072916666
  1
※仕様及び外観は予告なく変更されることがあります。 
 41
0.7
 11
-1760.0
 21
-2337.460128715277
 31
0.0
 73
     3
  0
TEXT
  5
132
  8
DATA
 62
     7
 10
-1760.0
 20
-2424.758848333333
 30
0.0
 40
37.90983072916666
  1
　また、同一商品でも若干の個体差があることがあります。ご了承ください。
 41
0.7
 11
-1760.0
 21
-2386.849017604166
 31
0.0
 73
     3
  0
TEXT
  5
133
  8
DATA
 62
     7
 10
1000.0
 20
-2165.277714999999
 30
0.0
 40
48.74121093749999
  1
JBL PROFESSIONAL
 41
0.7
 11
1000.0
 21
-2116.536504062499
 31
0.0
 73
     3
  0
TEXT
  5
134
  8
DATA
 62
     7
 10
924.3511176215278
 20
-1752.078450520833
 30
0.0
 40
54.15690104166666
  1
背面パネル拡大図
 41
0.7
 72
     1
 11
1100.0
 21
-1725.0
 31
0.0
 73
     2
  0
LINE
  5
135
  8
DATA
  6
CONTINUOUS
 62
     7
 10
-1604.75
 20
-531.8652647632363
 30
0.0
 11
-1604.75
 21
12.5
 31
0.0
  0
LINE
  5
136
  8
DATA
  6
CONTINUOUS
 62
     7
 10
-995.25
 20
12.5
 30
0.0
 11
-995.25
 21
-531.8652647632363
 31
0.0
  0
LINE
  5
137
  8
DATA
  6
CONTINUOUS
 62
     7
 10
-1579.75
 20
37.5
 30
0.0
 11
-1020.25
 21
37.5
 31
0.0
  0
ARC
  5
138
  8
DATA
  6
CONTINUOUS
 62
     7
 10
-1594.75
 20
-676.2500000000006
 30
0.0
 40
10.00000000000045
 50
90.00000000000261
 51
179.9999999999974
  0
LINE
  5
139
  8
DATA
  6
CONTINUOUS
 62
     7
 10
-1604.75
 20
-1323.75
 30
0.0
 11
-1604.75
 21
-676.2500000000001
 31
0.0
  0
ARC
  5
13A
  8
DATA
  6
CONTINUOUS
 62
     7
 10
-1594.749999999998
 20
-1323.749999999998
 30
0.0
 40
10.00000000000205
 50
180.0000000000104
 51
269.9999999999895
  0
LINE
  5
13B
  8
DATA
  6
CONTINUOUS
 62
     7
 10
-1005.25
 20
-1333.75
 30
0.0
 11
-1594.75
 21
-1333.75
 31
0.0
  0
ARC
  5
13C
  8
DATA
  6
CONTINUOUS
 62
     7
 10
-1005.250000000001
 20
-1323.75
 30
0.0
 40
10.00000000000091
 50
270.0000000000059
 51
359.9999999999948
  0
LINE
  5
13D
  8
DATA
  6
CONTINUOUS
 62
     7
 10
-995.25
 20
-676.2500000000001
 30
0.0
 11
-995.25
 21
-1323.75
 31
0.0
  0
ARC
  5
13E
  8
DATA
  6
CONTINUOUS
 62
     7
 10
-1005.25
 20
-676.2500000000001
 30
0.0
 40
10.0
 50
0.0
 51
89.99999999999933
  0
LINE
  5
13F
  8
DATA
  6
CONTINUOUS
 62
     7
 10
-1594.75
 20
-666.2500000000001
 30
0.0
 11
-1005.25
 21
-666.2500000000001
 31
0.0
  0
ARC
  5
140
  8
DATA
  6
CONTINUOUS
 62
     7
 10
-890.0
 20
-676.2500000000001
 30
0.0
 40
10.0
 50
90.0
 51
179.9999999999987
  0
LINE
  5
141
  8
DATA
  6
CONTINUOUS
 62
     7
 10
-900.0
 20
-1323.75
 30
0.0
 11
-900.0
 21
-676.2499999999999
 31
0.0
  0
ARC
  5
142
  8
DATA
  6
CONTINUOUS
 62
     7
 10
-889.9999999999998
 20
-1323.75
 30
0.0
 40
10.00000000000023
 50
180.0
 51
269.9999999999987
  0
LINE
  5
143
  8
DATA
  6
CONTINUOUS
 62
     7
 10
-272.5
 20
-1333.75
 30
0.0
 11
-890.0
 21
-1333.75
 31
0.0
  0
LINE
  5
144
  8
DATA
  6
CONTINUOUS
 62
     7
 10
-262.5
 20
-676.2500000000001
 30
0.0
 11
-262.5
 21
-1323.75
 31
0.0
  0
LINE
  5
145
  8
DATA
  6
CONTINUOUS
 62
     7
 10
-890.0
 20
-666.2500000000001
 30
0.0
 11
-272.5
 21
-666.2500000000001
 31
0.0
  0
TEXT
  5
146
  8
DATA
 62
     7
 10
1000.0
 20
-2310.277714999999
 30
0.0
 40
48.74121093749999
  1
EON718S
 41
0.7
 11
1000.0
 21
-2261.536504062499
 31
0.0
 73
     3
  0
TEXT
  5
147
  8
DATA
 62
     7
 10
949.9999999999998
 20
-2237.356814999999
 30
0.0
 40
37.90983072916666
  1
パワード・サブウーファー
 41
0.7
 11
949.9999999999998
 21
-2199.446984270833
 31
0.0
 73
     3
  0
LINE
  5
148
  8
DATA
  6
CONTINUOUS
 62
     7
 10
-1604.75
 20
-2112.5
 30
0.0
 11
-1604.75
 21
-1568.134735236764
 31
0.0
  0
LINE
  5
149
  8
DATA
  6
CONTINUOUS
 62
     7
 10
-1020.25
 20
-2137.5
 30
0.0
 11
-1579.75
 21
-2137.5
 31
0.0
  0
LINE
  5
14A
  8
DATA
  6
CONTINUOUS
 62
     7
 10
-995.25
 20
-1568.134735236764
 30
0.0
 11
-995.25
 21
-2112.5
 31
0.0
  0
ARC
  5
14B
  8
DATA
  6
CONTINUOUS
 62
     7
 10
-1300.0
 20
353.7256249999999
 30
0.0
 40
953.7256249999999
 50
252.4691535205736
 51
287.5308464794264
  0
ARC
  5
14C
  8
DATA
  6
CONTINUOUS
 62
     7
 10
-1579.75
 20
-531.8652647632363
 30
0.0
 40
25.00000000000023
 50
180.0
 51
252.4691535205733
  0
ARC
  5
14D
  8
DATA
  6
CONTINUOUS
 62
     7
 10
-1020.25
 20
-531.8652647632363
 30
0.0
 40
25.00000000000017
 50
287.5308464794267
 51
0.0
  0
ARC
  5
14E
  8
DATA
  6
CONTINUOUS
 62
     7
 10
-1020.25
 20
12.5
 30
0.0
 40
25.0
 50
0.0
 51
90.0
  0
ARC
  5
14F
  8
DATA
  6
CONTINUOUS
 62
     7
 10
-1579.75
 20
12.5
 30
0.0
 40
25.0
 50
90.0
 51
180.0
  0
ARC
  5
150
  8
DATA
  6
CONTINUOUS
 62
     7
 10
-1579.75
 20
-2112.5
 30
0.0
 40
25.0
 50
180.0
 51
270.0
  0
ARC
  5
151
  8
DATA
  6
CONTINUOUS
 62
     7
 10
-1020.25
 20
-2112.5
 30
0.0
 40
25.0
 50
270.0
 51
0.0
  0
ARC
  5
152
  8
DATA
  6
CONTINUOUS
 62
     7
 10
-1300.0
 20
-2453.725625
 30
0.0
 40
953.725625
 50
72.46915352057361
 51
107.5308464794264
  0
ARC
  5
153
  8
DATA
  6
CONTINUOUS
 62
     7
 10
-1579.75
 20
-1568.134735236764
 30
0.0
 40
25.00000000000006
 50
107.5308464794268
 51
180.0
  0
ARC
  5
154
  8
DATA
  6
CONTINUOUS
 62
     7
 10
-1020.25
 20
-1568.134735236764
 30
0.0
 40
25.00000000000011
 50
0.0
 51
72.46915352057317
  0
LINE
  5
155
  8
DATA
  6
CONTINUOUS
 62
     7
 10
-995.25
 20
-1314.75
 30
0.0
 11
-1604.75
 21
-1314.75
 31
0.0
  0
LINE
  5
156
  8
DATA
  6
CONTINUOUS
 62
     7
 10
-1604.75
 20
-685.2500000000001
 30
0.0
 11
-995.25
 21
-685.2500000000001
 31
0.0
  0
INSERT
  5
157
  8
DATA
 62
     7
  2
____-1
 10
0.0
 20
0.0
 30
0.0
  0
ARC
  5
158
  8
DATA
  6
CONTINUOUS
 62
     7
 10
-1220.000000000101
 20
-1302.052235619822
 30
0.0
 40
0.2222356198217773
 50
356.8251528743749
 51
183.1748471256251
  0
ARC
  5
159
  8
DATA
  6
CONTINUOUS
 62
     7
 10
-1221.03518391598
 20
-1301.95700886242
 30
0.0
 40
0.8203678318445186
 50
247.5320803524717
 51
352.4679196225376
  0
ARC
  5
15A
  8
DATA
  6
CONTINUOUS
 62
     7
 10
-1221.470307082976
 20
-1302.901117809911
 30
0.0
 40
0.2222356198216277
 50
56.82515287439525
 51
243.1748471255292
  0
ARC
  5
15B
  8
DATA
  6
CONTINUOUS
 62
     7
 10
-1222.070367831946
 20
-1303.74999999995
 30
0.0
 40
0.8203678318439916
 50
307.5320803524762
 51
52.46791962257155
  0
ARC
  5
15C
  8
DATA
  6
CONTINUOUS
 62
     7
 10
-1220.000000000101
 20
-1305.447764380178
 30
0.0
 40
0.2222356198217773
 50
176.8251528743749
 51
3.174847125625149
  0
ARC
  5
15D
  8
DATA
  6
CONTINUOUS
 62
     7
 10
-1221.03518391598
 20
-1305.54299113758
 30
0.0
 40
0.8203678318443105
 50
7.532080377462396
 51
112.4679196475404
  0
ARC
  5
15E
  8
DATA
  6
CONTINUOUS
 62
     7
 10
-1221.470307082976
 20
-1304.598882190089
 30
0.0
 40
0.2222356198218735
 50
116.8251528744708
 51
303.1748471255407
  0
ARC
  5
15F
  8
DATA
  6
CONTINUOUS
 62
     7
 10
-1218.964816084223
 20
-1301.95700886242
 30
0.0
 40
0.820367831844085
 50
187.5320803774645
 51
292.4679196475283
  0
ARC
  5
160
  8
DATA
  6
CONTINUOUS
 62
     7
 10
-1218.529692917227
 20
-1302.901117809911
 30
0.0
 40
0.2222356198217709
 50
296.8251528744185
 51
123.1748471256047
  0
ARC
  5
161
  8
DATA
  6
CONTINUOUS
 62
     7
 10
-1217.929632168257
 20
-1303.74999999995
 30
0.0
 40
0.8203678318444848
 50
127.532080377441
 51
232.4679196475238
  0
ARC
  5
162
  8
DATA
  6
CONTINUOUS
 62
     7
 10
-1218.964816084223
 20
-1305.54299113758
 30
0.0
 40
0.8203678318440982
 50
67.5320803524596
 51
172.4679196225355
  0
ARC
  5
163
  8
DATA
  6
CONTINUOUS
 62
     7
 10
-1218.529692917227
 20
-1304.598882190089
 30
0.0
 40
0.2222356198220083
 50
236.8251528744594
 51
63.17484712558153
  0
CIRCLE
  5
164
  8
DATA
  6
CONTINUOUS
 62
     7
 10
-1220.0
 20
-1303.75
 30
0.0
 40
4.25
  0
ARC
  5
165
  8
DATA
  6
CONTINUOUS
 62
     7
 10
-1379.778105473266
 20
-1302.052235619822
 30
0.0
 40
0.2222356198217773
 50
356.8251528743749
 51
183.1748471256251
  0
ARC
  5
166
  8
DATA
  6
CONTINUOUS
 62
     7
 10
-1380.813289389145
 20
-1301.95700886242
 30
0.0
 40
0.8203678318445186
 50
247.5320803524717
 51
352.4679196225376
  0
ARC
  5
167
  8
DATA
  6
CONTINUOUS
 62
     7
 10
-1381.248412556141
 20
-1302.901117809911
 30
0.0
 40
0.2222356198217521
 50
56.82515287434619
 51
243.1748471256338
  0
ARC
  5
168
  8
DATA
  6
CONTINUOUS
 62
     7
 10
-1381.84847330511
 20
-1303.74999999995
 30
0.0
 40
0.8203678318441302
 50
307.5320803524888
 51
52.46791962254642
  0
ARC
  5
169
  8
DATA
  6
CONTINUOUS
 62
     7
 10
-1379.778105473266
 20
-1305.447764380178
 30
0.0
 40
0.2222356198217773
 50
176.8251528743749
 51
3.174847125625149
  0
ARC
  5
16A
  8
DATA
  6
CONTINUOUS
 62
     7
 10
-1380.813289389145
 20
-1305.54299113758
 30
0.0
 40
0.8203678318443105
 50
7.532080377462396
 51
112.4679196475404
  0
ARC
  5
16B
  8
DATA
  6
CONTINUOUS
 62
     7
 10
-1381.248412556141
 20
-1304.598882190089
 30
0.0
 40
0.2222356198216683
 50
116.8251528743662
 51
303.1748471255897
  0
ARC
  5
16C
  8
DATA
  6
CONTINUOUS
 62
     7
 10
-1378.742921557387
 20
-1301.95700886242
 30
0.0
 40
0.8203678318443105
 50
187.5320803774624
 51
292.4679196475136
  0
ARC
  5
16D
  8
DATA
  6
CONTINUOUS
 62
     7
 10
-1378.307798390392
 20
-1302.901117809911
 30
0.0
 40
0.2222356198217709
 50
296.8251528744185
 51
123.1748471256538
  0
ARC
  5
16E
  8
DATA
  6
CONTINUOUS
 62
     7
 10
-1377.707737641422
 20
-1303.74999999995
 30
0.0
 40
0.8203678318444848
 50
127.532080377441
 51
232.4679196475238
  0
ARC
  5
16F
  8
DATA
  6
CONTINUOUS
 62
     7
 10
-1378.742921557387
 20
-1305.54299113758
 30
0.0
 40
0.8203678318440114
 50
67.53208035247427
 51
172.4679196225376
  0
ARC
  5
170
  8
DATA
  6
CONTINUOUS
 62
     7
 10
-1378.307798390392
 20
-1304.598882190089
 30
0.0
 40
0.2222356198221327
 50
236.8251528744103
 51
63.17484712558153
  0
CIRCLE
  5
171
  8
DATA
  6
CONTINUOUS
 62
     7
 10
-1379.778105473165
 20
-1303.75
 30
0.0
 40
4.25
  0
ARC
  5
172
  8
DATA
  6
CONTINUOUS
 62
     7
 10
-1540.000000000101
 20
-1302.052235619822
 30
0.0
 40
0.2222356198217773
 50
356.8251528743749
 51
183.1748471256251
  0
ARC
  5
173
  8
DATA
  6
CONTINUOUS
 62
     7
 10
-1541.03518391598
 20
-1301.95700886242
 30
0.0
 40
0.8203678318445186
 50
247.5320803524717
 51
352.4679196225376
  0
ARC
  5
174
  8
DATA
  6
CONTINUOUS
 62
     7
 10
-1541.470307082976
 20
-1302.901117809911
 30
0.0
 40
0.2222356198216277
 50
56.82515287439525
 51
243.1748471255292
  0
ARC
  5
175
  8
DATA
  6
CONTINUOUS
 62
     7
 10
-1542.070367831946
 20
-1303.74999999995
 30
0.0
 40
0.8203678318439916
 50
307.5320803524762
 51
52.46791962257155
  0
ARC
  5
176
  8
DATA
  6
CONTINUOUS
 62
     7
 10
-1540.000000000101
 20
-1305.447764380178
 30
0.0
 40
0.2222356198217773
 50
176.8251528743749
 51
3.174847125625149
  0
ARC
  5
177
  8
DATA
  6
CONTINUOUS
 62
     7
 10
-1541.03518391598
 20
-1305.54299113758
 30
0.0
 40
0.8203678318443105
 50
7.532080377462396
 51
112.4679196475404
  0
ARC
  5
178
  8
DATA
  6
CONTINUOUS
 62
     7
 10
-1541.470307082976
 20
-1304.598882190089
 30
0.0
 40
0.2222356198218735
 50
116.8251528744708
 51
303.1748471255407
  0
ARC
  5
179
  8
DATA
  6
CONTINUOUS
 62
     7
 10
-1538.964816084223
 20
-1301.95700886242
 30
0.0
 40
0.820367831844085
 50
187.5320803774645
 51
292.4679196475283
  0
ARC
  5
17A
  8
DATA
  6
CONTINUOUS
 62
     7
 10
-1538.529692917227
 20
-1302.901117809911
 30
0.0
 40
0.2222356198217709
 50
296.8251528744185
 51
123.1748471256047
  0
ARC
  5
17B
  8
DATA
  6
CONTINUOUS
 62
     7
 10
-1537.929632168257
 20
-1303.74999999995
 30
0.0
 40
0.8203678318444848
 50
127.532080377441
 51
232.4679196475238
  0
ARC
  5
17C
  8
DATA
  6
CONTINUOUS
 62
     7
 10
-1538.964816084223
 20
-1305.54299113758
 30
0.0
 40
0.8203678318440982
 50
67.5320803524596
 51
172.4679196225355
  0
ARC
  5
17D
  8
DATA
  6
CONTINUOUS
 62
     7
 10
-1538.529692917227
 20
-1304.598882190089
 30
0.0
 40
0.2222356198220083
 50
236.8251528744594
 51
63.17484712558153
  0
CIRCLE
  5
17E
  8
DATA
  6
CONTINUOUS
 62
     7
 10
-1540.0
 20
-1303.75
 30
0.0
 40
4.25
  0
ARC
  5
17F
  8
DATA
  6
CONTINUOUS
 62
     7
 10
-1060.000000000101
 20
-1302.052235619822
 30
0.0
 40
0.2222356198217773
 50
356.8251528743749
 51
183.1748471256251
  0
ARC
  5
180
  8
DATA
  6
CONTINUOUS
 62
     7
 10
-1061.03518391598
 20
-1301.95700886242
 30
0.0
 40
0.8203678318445186
 50
247.5320803524717
 51
352.4679196225376
  0
ARC
  5
181
  8
DATA
  6
CONTINUOUS
 62
     7
 10
-1061.470307082976
 20
-1302.901117809911
 30
0.0
 40
0.2222356198216277
 50
56.82515287439525
 51
243.1748471255292
  0
ARC
  5
182
  8
DATA
  6
CONTINUOUS
 62
     7
 10
-1062.070367831946
 20
-1303.74999999995
 30
0.0
 40
0.8203678318439916
 50
307.5320803524762
 51
52.46791962257155
  0
ARC
  5
183
  8
DATA
  6
CONTINUOUS
 62
     7
 10
-1060.000000000101
 20
-1305.447764380178
 30
0.0
 40
0.2222356198217773
 50
176.8251528743749
 51
3.174847125625149
  0
ARC
  5
184
  8
DATA
  6
CONTINUOUS
 62
     7
 10
-1061.03518391598
 20
-1305.54299113758
 30
0.0
 40
0.8203678318443105
 50
7.532080377462396
 51
112.4679196475404
  0
ARC
  5
185
  8
DATA
  6
CONTINUOUS
 62
     7
 10
-1061.470307082976
 20
-1304.598882190089
 30
0.0
 40
0.2222356198218735
 50
116.8251528744708
 51
303.1748471255407
  0
ARC
  5
186
  8
DATA
  6
CONTINUOUS
 62
     7
 10
-1058.964816084223
 20
-1301.95700886242
 30
0.0
 40
0.820367831844085
 50
187.5320803774645
 51
292.4679196475283
  0
ARC
  5
187
  8
DATA
  6
CONTINUOUS
 62
     7
 10
-1058.529692917227
 20
-1302.901117809911
 30
0.0
 40
0.2222356198217709
 50
296.8251528744185
 51
123.1748471256047
  0
ARC
  5
188
  8
DATA
  6
CONTINUOUS
 62
     7
 10
-1057.929632168257
 20
-1303.74999999995
 30
0.0
 40
0.8203678318444848
 50
127.532080377441
 51
232.4679196475238
  0
ARC
  5
189
  8
DATA
  6
CONTINUOUS
 62
     7
 10
-1058.964816084223
 20
-1305.54299113758
 30
0.0
 40
0.8203678318440982
 50
67.5320803524596
 51
172.4679196225355
  0
ARC
  5
18A
  8
DATA
  6
CONTINUOUS
 62
     7
 10
-1058.529692917227
 20
-1304.598882190089
 30
0.0
 40
0.2222356198220083
 50
236.8251528744594
 51
63.17484712558153
  0
CIRCLE
  5
18B
  8
DATA
  6
CONTINUOUS
 62
     7
 10
-1060.0
 20
-1303.75
 30
0.0
 40
4.25
  0
ARC
  5
18C
  8
DATA
  6
CONTINUOUS
 62
     7
 10
-1220.000000000101
 20
-692.0522356198218
 30
0.0
 40
0.2222356198217773
 50
356.8251528743749
 51
183.1748471256251
  0
ARC
  5
18D
  8
DATA
  6
CONTINUOUS
 62
     7
 10
-1221.03518391598
 20
-691.9570088624197
 30
0.0
 40
0.8203678318443084
 50
247.5320803524656
 51
352.4679196225376
  0
ARC
  5
18E
  8
DATA
  6
CONTINUOUS
 62
     7
 10
-1221.470307082976
 20
-692.9011178099109
 30
0.0
 40
0.222235619821818
 50
56.82515287442732
 51
243.1748471255292
  0
ARC
  5
18F
  8
DATA
  6
CONTINUOUS
 62
     7
 10
-1222.070367831946
 20
-693.7499999999499
 30
0.0
 40
0.820367831844172
 50
307.5320803524665
 51
52.46791962256188
  0
ARC
  5
190
  8
DATA
  6
CONTINUOUS
 62
     7
 10
-1220.000000000101
 20
-695.4477643801785
 30
0.0
 40
0.2222356198217773
 50
176.8251528743749
 51
3.174847125625149
  0
ARC
  5
191
  8
DATA
  6
CONTINUOUS
 62
     7
 10
-1221.03518391598
 20
-695.5429911375805
 30
0.0
 40
0.8203678318443105
 50
7.532080377462396
 51
112.4679196475343
  0
ARC
  5
192
  8
DATA
  6
CONTINUOUS
 62
     7
 10
-1221.470307082976
 20
-694.5988821900893
 30
0.0
 40
0.2222356198218735
 50
116.8251528744708
 51
303.1748471255727
  0
ARC
  5
193
  8
DATA
  6
CONTINUOUS
 62
     7
 10
-1218.964816084223
 20
-691.9570088624197
 30
0.0
 40
0.820367831844085
 50
187.5320803774645
 51
292.4679196475344
  0
ARC
  5
194
  8
DATA
  6
CONTINUOUS
 62
     7
 10
-1218.529692917227
 20
-692.9011178099109
 30
0.0
 40
0.2222356198217709
 50
296.8251528744185
 51
123.1748471255727
  0
ARC
  5
195
  8
DATA
  6
CONTINUOUS
 62
     7
 10
-1217.929632168257
 20
-693.7499999999499
 30
0.0
 40
0.8203678318443044
 50
127.5320803774507
 51
232.4679196475335
  0
ARC
  5
196
  8
DATA
  6
CONTINUOUS
 62
     7
 10
-1218.964816084223
 20
-695.5429911375805
 30
0.0
 40
0.8203678318443084
 50
67.53208035246568
 51
172.4679196225355
  0
ARC
  5
197
  8
DATA
  6
CONTINUOUS
 62
     7
 10
-1218.529692917227
 20
-694.5988821900893
 30
0.0
 40
0.222235619821818
 50
236.8251528744273
 51
63.17484712558153
  0
CIRCLE
  5
198
  8
DATA
  6
CONTINUOUS
 62
     7
 10
-1220.0
 20
-693.7500000000001
 30
0.0
 40
4.25
  0
ARC
  5
199
  8
DATA
  6
CONTINUOUS
 62
     7
 10
-1379.778105473266
 20
-692.0522356198218
 30
0.0
 40
0.2222356198217773
 50
356.8251528743749
 51
183.1748471256251
  0
ARC
  5
19A
  8
DATA
  6
CONTINUOUS
 62
     7
 10
-1380.813289389145
 20
-691.9570088624197
 30
0.0
 40
0.8203678318443084
 50
247.5320803524656
 51
352.4679196225376
  0
ARC
  5
19B
  8
DATA
  6
CONTINUOUS
 62
     7
 10
-1381.248412556141
 20
-692.9011178099109
 30
0.0
 40
0.2222356198219424
 50
56.82515287437827
 51
243.1748471256338
  0
ARC
  5
19C
  8
DATA
  6
CONTINUOUS
 62
     7
 10
-1381.84847330511
 20
-693.7499999999499
 30
0.0
 40
0.8203678318443105
 50
307.5320803524791
 51
52.4679196225367
  0
ARC
  5
19D
  8
DATA
  6
CONTINUOUS
 62
     7
 10
-1379.778105473266
 20
-695.4477643801785
 30
0.0
 40
0.2222356198217773
 50
176.8251528743749
 51
3.174847125625149
  0
ARC
  5
19E
  8
DATA
  6
CONTINUOUS
 62
     7
 10
-1380.813289389145
 20
-695.5429911375805
 30
0.0
 40
0.8203678318443105
 50
7.532080377462396
 51
112.4679196475343
  0
ARC
  5
19F
  8
DATA
  6
CONTINUOUS
 62
     7
 10
-1381.248412556141
 20
-694.5988821900893
 30
0.0
 40
0.2222356198216683
 50
116.8251528743662
 51
303.1748471256218
  0
ARC
  5
1A0
  8
DATA
  6
CONTINUOUS
 62
     7
 10
-1378.742921557387
 20
-691.9570088624197
 30
0.0
 40
0.8203678318443105
 50
187.5320803774624
 51
292.4679196475196
  0
ARC
  5
1A1
  8
DATA
  6
CONTINUOUS
 62
     7
 10
-1378.307798390392
 20
-692.9011178099109
 30
0.0
 40
0.2222356198217709
 50
296.8251528744185
 51
123.1748471256217
  0
ARC
  5
1A2
  8
DATA
  6
CONTINUOUS
 62
     7
 10
-1377.707737641422
 20
-693.7499999999499
 30
0.0
 40
0.8203678318443044
 50
127.5320803774507
 51
232.4679196475335
  0
ARC
  5
1A3
  8
DATA
  6
CONTINUOUS
 62
     7
 10
-1378.742921557387
 20
-695.5429911375805
 30
0.0
 40
0.8203678318442216
 50
67.53208035248035
 51
172.4679196225376
  0
ARC
  5
1A4
  8
DATA
  6
CONTINUOUS
 62
     7
 10
-1378.307798390392
 20
-694.5988821900893
 30
0.0
 40
0.2222356198219424
 50
236.8251528743783
 51
63.17484712558153
  0
CIRCLE
  5
1A5
  8
DATA
  6
CONTINUOUS
 62
     7
 10
-1379.778105473165
 20
-693.7500000000001
 30
0.0
 40
4.25
  0
ARC
  5
1A6
  8
DATA
  6
CONTINUOUS
 62
     7
 10
-1540.000000000101
 20
-692.0522356198218
 30
0.0
 40
0.2222356198217773
 50
356.8251528743749
 51
183.1748471256251
  0
ARC
  5
1A7
  8
DATA
  6
CONTINUOUS
 62
     7
 10
-1541.03518391598
 20
-691.9570088624197
 30
0.0
 40
0.8203678318443084
 50
247.5320803524656
 51
352.4679196225376
  0
ARC
  5
1A8
  8
DATA
  6
CONTINUOUS
 62
     7
 10
-1541.470307082976
 20
-692.9011178099109
 30
0.0
 40
0.222235619821818
 50
56.82515287442732
 51
243.1748471255292
  0
ARC
  5
1A9
  8
DATA
  6
CONTINUOUS
 62
     7
 10
-1542.070367831946
 20
-693.7499999999499
 30
0.0
 40
0.820367831844172
 50
307.5320803524665
 51
52.46791962256188
  0
ARC
  5
1AA
  8
DATA
  6
CONTINUOUS
 62
     7
 10
-1540.000000000101
 20
-695.4477643801785
 30
0.0
 40
0.2222356198217773
 50
176.8251528743749
 51
3.174847125625149
  0
ARC
  5
1AB
  8
DATA
  6
CONTINUOUS
 62
     7
 10
-1541.03518391598
 20
-695.5429911375805
 30
0.0
 40
0.8203678318443105
 50
7.532080377462396
 51
112.4679196475343
  0
ARC
  5
1AC
  8
DATA
  6
CONTINUOUS
 62
     7
 10
-1541.470307082976
 20
-694.5988821900893
 30
0.0
 40
0.2222356198218735
 50
116.8251528744708
 51
303.1748471255727
  0
ARC
  5
1AD
  8
DATA
  6
CONTINUOUS
 62
     7
 10
-1538.964816084223
 20
-691.9570088624197
 30
0.0
 40
0.820367831844085
 50
187.5320803774645
 51
292.4679196475344
  0
ARC
  5
1AE
  8
DATA
  6
CONTINUOUS
 62
     7
 10
-1538.529692917227
 20
-692.9011178099109
 30
0.0
 40
0.2222356198217709
 50
296.8251528744185
 51
123.1748471255727
  0
ARC
  5
1AF
  8
DATA
  6
CONTINUOUS
 62
     7
 10
-1537.929632168257
 20
-693.7499999999499
 30
0.0
 40
0.8203678318443044
 50
127.5320803774507
 51
232.4679196475335
  0
ARC
  5
1B0
  8
DATA
  6
CONTINUOUS
 62
     7
 10
-1538.964816084223
 20
-695.5429911375805
 30
0.0
 40
0.8203678318443084
 50
67.53208035246568
 51
172.4679196225355
  0
ARC
  5
1B1
  8
DATA
  6
CONTINUOUS
 62
     7
 10
-1538.529692917227
 20
-694.5988821900893
 30
0.0
 40
0.222235619821818
 50
236.8251528744273
 51
63.17484712558153
  0
CIRCLE
  5
1B2
  8
DATA
  6
CONTINUOUS
 62
     7
 10
-1540.0
 20
-693.7500000000001
 30
0.0
 40
4.25
  0
ARC
  5
1B3
  8
DATA
  6
CONTINUOUS
 62
     7
 10
-1060.000000000101
 20
-692.0522356198218
 30
0.0
 40
0.2222356198217773
 50
356.8251528743749
 51
183.1748471256251
  0
ARC
  5
1B4
  8
DATA
  6
CONTINUOUS
 62
     7
 10
-1061.03518391598
 20
-691.9570088624197
 30
0.0
 40
0.8203678318443084
 50
247.5320803524656
 51
352.4679196225376
  0
ARC
  5
1B5
  8
DATA
  6
CONTINUOUS
 62
     7
 10
-1061.470307082976
 20
-692.9011178099109
 30
0.0
 40
0.222235619821818
 50
56.82515287442732
 51
243.1748471255292
  0
ARC
  5
1B6
  8
DATA
  6
CONTINUOUS
 62
     7
 10
-1062.070367831946
 20
-693.7499999999499
 30
0.0
 40
0.820367831844172
 50
307.5320803524665
 51
52.46791962256188
  0
ARC
  5
1B7
  8
DATA
  6
CONTINUOUS
 62
     7
 10
-1060.000000000101
 20
-695.4477643801785
 30
0.0
 40
0.2222356198217773
 50
176.8251528743749
 51
3.174847125625149
  0
ARC
  5
1B8
  8
DATA
  6
CONTINUOUS
 62
     7
 10
-1061.03518391598
 20
-695.5429911375805
 30
0.0
 40
0.8203678318443105
 50
7.532080377462396
 51
112.4679196475343
  0
ARC
  5
1B9
  8
DATA
  6
CONTINUOUS
 62
     7
 10
-1061.470307082976
 20
-694.5988821900893
 30
0.0
 40
0.2222356198218735
 50
116.8251528744708
 51
303.1748471255727
  0
ARC
  5
1BA
  8
DATA
  6
CONTINUOUS
 62
     7
 10
-1058.964816084223
 20
-691.9570088624197
 30
0.0
 40
0.820367831844085
 50
187.5320803774645
 51
292.4679196475344
  0
ARC
  5
1BB
  8
DATA
  6
CONTINUOUS
 62
     7
 10
-1058.529692917227
 20
-692.9011178099109
 30
0.0
 40
0.2222356198217709
 50
296.8251528744185
 51
123.1748471255727
  0
ARC
  5
1BC
  8
DATA
  6
CONTINUOUS
 62
     7
 10
-1057.929632168257
 20
-693.7499999999499
 30
0.0
 40
0.8203678318443044
 50
127.5320803774507
 51
232.4679196475335
  0
ARC
  5
1BD
  8
DATA
  6
CONTINUOUS
 62
     7
 10
-1058.964816084223
 20
-695.5429911375805
 30
0.0
 40
0.8203678318443084
 50
67.53208035246568
 51
172.4679196225355
  0
ARC
  5
1BE
  8
DATA
  6
CONTINUOUS
 62
     7
 10
-1058.529692917227
 20
-694.5988821900893
 30
0.0
 40
0.222235619821818
 50
236.8251528744273
 51
63.17484712558153
  0
CIRCLE
  5
1BF
  8
DATA
  6
CONTINUOUS
 62
     7
 10
-1060.0
 20
-693.7500000000001
 30
0.0
 40
4.25
  0
POLYLINE
  5
1C0
  8
DATA
  6
CONTINUOUS
 62
     7
 66
     1
 10
0.0
 20
0.0
 30
0.0
 70
   129
  0
VERTEX
  5
654
  8
DATA
  6
CONTINUOUS
 62
     7
 10
-1331.0
 20
-1161.45
 30
0.0
  0
VERTEX
  5
655
  8
DATA
  6
CONTINUOUS
 62
     7
 10
-1269.0
 20
-1161.45
 30
0.0
  0
VERTEX
  5
656
  8
DATA
  6
CONTINUOUS
 62
     7
 10
-1269.0
 20
-1221.45
 30
0.0
  0
VERTEX
  5
657
  8
DATA
  6
CONTINUOUS
 62
     7
 10
-1331.0
 20
-1221.45
 30
0.0
  0
SEQEND
  5
691
  8
DATA
  6
CONTINUOUS
 62
     7
  0
POLYLINE
  5
1C6
  8
DATA
  6
CONTINUOUS
 62
     7
 66
     1
 10
0.0
 20
0.0
 30
0.0
 70
   129
  0
VERTEX
  5
658
  8
DATA
  6
CONTINUOUS
 62
     7
 10
-1320.0
 20
-1171.45
 30
0.0
  0
VERTEX
  5
659
  8
DATA
  6
CONTINUOUS
 62
     7
 10
-1280.0
 20
-1171.45
 30
0.0
  0
VERTEX
  5
65A
  8
DATA
  6
CONTINUOUS
 62
     7
 10
-1280.0
 20
-1211.45
 30
0.0
  0
VERTEX
  5
65B
  8
DATA
  6
CONTINUOUS
 62
     7
 10
-1320.0
 20
-1211.45
 30
0.0
  0
SEQEND
  5
692
  8
DATA
  6
CONTINUOUS
 62
     7
  0
LINE
  5
1CC
  8
DATA
  6
CONTINUOUS
 62
     7
 10
-1320.0
 20
-1203.45
 30
0.0
 11
-1280.0
 21
-1203.45
 31
0.0
  0
ARC
  5
1CD
  8
DATA
  6
CONTINUOUS
 62
     7
 10
-1308.823329999999
 20
-1191.090005
 30
0.0
 40
3.868280137751436
 50
264.6908562215331
 51
323.9911991542338
  0
ARC
  5
1CE
  8
DATA
  6
CONTINUOUS
 62
     7
 10
-1309.539175
 20
-1191.090005
 30
0.0
 40
3.868273855420397
 50
216.0088008457516
 51
275.3091437784543
  0
ARC
  5
1CF
  8
DATA
  6
CONTINUOUS
 62
     7
 10
-1298.993725
 20
-1192.094135000001
 30
0.0
 40
2.853917117576
 50
273.8309816091105
 51
351.1351473098064
  0
ARC
  5
1D0
  8
DATA
  6
CONTINUOUS
 62
     7
 10
-1298.965270000001
 20
-1182.784895
 30
0.0
 40
2.849594899367446
 50
8.226923859016388
 51
86.15412669213401
  0
ARC
  5
1D1
  8
DATA
  6
CONTINUOUS
 62
     7
 10
-1299.27882795464
 20
-1192.818283932192
 30
0.0
 40
0.4781746722271387
 50
307.6419024978074
 51
354.2670192894782
  0
LINE
  5
1D2
  8
DATA
  6
CONTINUOUS
 62
     7
 10
-1311.561325000001
 20
-1185.283025
 30
0.0
 11
-1309.319635
 21
-1179.941705000001
 31
0.0
  0
LINE
  5
1D3
  8
DATA
  6
CONTINUOUS
 62
     7
 10
-1311.561325000001
 20
-1185.283025
 30
0.0
 11
-1313.775355
 21
-1179.941705000001
 31
0.0
  0
LINE
  5
1D4
  8
DATA
  6
CONTINUOUS
 62
     7
 10
-1294.568724999999
 20
-1194.941705000001
 30
0.0
 11
-1294.568724999999
 21
-1179.941705000001
 31
0.0
  0
LINE
  5
1D5
  8
DATA
  6
CONTINUOUS
 62
     7
 10
-1291.690495000001
 20
-1179.941705000001
 30
0.0
 11
-1291.690495000001
 21
-1192.644664999999
 31
0.0
  0
LINE
  5
1D6
  8
DATA
  6
CONTINUOUS
 62
     7
 10
-1308.267969999999
 20
-1179.941705000001
 30
0.0
 11
-1308.267969999999
 21
-1192.644664999999
 31
0.0
  0
LINE
  5
1D7
  8
DATA
  6
CONTINUOUS
 62
     7
 10
-1305.50044
 20
-1179.941705000001
 30
0.0
 11
-1305.50044
 21
-1192.644664999999
 31
0.0
  0
LINE
  5
1D8
  8
DATA
  6
CONTINUOUS
 62
     7
 10
-1304.061325000001
 20
-1179.941705000001
 30
0.0
 11
-1304.061325000001
 21
-1194.941705000001
 31
0.0
  0
LINE
  5
1D9
  8
DATA
  6
CONTINUOUS
 62
     7
 10
-1301.542869999999
 20
-1181.353130000001
 30
0.0
 11
-1301.542869999999
 21
-1186.168640000001
 31
0.0
  0
LINE
  5
1DA
  8
DATA
  6
CONTINUOUS
 62
     7
 10
-1296.145
 20
-1185.890000000001
 30
0.0
 11
-1296.145
 21
-1182.377135
 31
0.0
  0
LINE
  5
1DB
  8
DATA
  6
CONTINUOUS
 62
     7
 10
-1298.803045000001
 20
-1182.017345
 30
0.0
 11
-1298.803045000001
 21
-1185.50444
 31
0.0
  0
LINE
  5
1DC
  8
DATA
  6
CONTINUOUS
 62
     7
 10
-1310.371284999999
 20
-1190.236895
 30
0.0
 11
-1310.371284999999
 21
-1192.644635
 31
0.0
  0
LINE
  5
1DD
  8
DATA
  6
CONTINUOUS
 62
     7
 10
-1310.371284999999
 20
-1190.236895
 30
0.0
 11
-1312.862064999999
 21
-1190.236895
 31
0.0
  0
LINE
  5
1DE
  8
DATA
  6
CONTINUOUS
 62
     7
 10
-1312.862064999999
 20
-1190.236895
 30
0.0
 11
-1312.862064999999
 21
-1192.644635
 31
0.0
  0
ARC
  5
1DF
  8
DATA
  6
CONTINUOUS
 62
     7
 10
-1309.314355
 20
-1192.677095
 30
0.0
 40
1.046893239363371
 50
269.7118487927628
 51
1.77598700571366
  0
ARC
  5
1E0
  8
DATA
  6
CONTINUOUS
 62
     7
 10
-1309.3249
 20
-1192.677095
 30
0.0
 40
1.046887886189016
 50
178.2240129942728
 51
270.28815120719
  0
ARC
  5
1E1
  8
DATA
  6
CONTINUOUS
 62
     7
 10
-1311.113905
 20
-1192.559839999999
 30
0.0
 40
1.750200312263885
 50
182.7769954500162
 51
207.3596066671712
  0
CIRCLE
  5
1E2
  8
DATA
  6
CONTINUOUS
 62
     7
 10
-1311.409105000001
 20
-1187.358680000001
 30
0.0
 40
1.425269999999728
  0
LINE
  5
1E3
  8
DATA
  6
CONTINUOUS
 62
     7
 10
-1287.068724999999
 20
-1194.941689999999
 30
0.0
 11
-1294.568724999999
 21
-1194.941689999999
 31
0.0
  0
LINE
  5
1E4
  8
DATA
  6
CONTINUOUS
 62
     7
 10
-1287.068724999999
 20
-1194.941689999999
 30
0.0
 11
-1287.068724999999
 21
-1190.23688
 31
0.0
  0
LINE
  5
1E5
  8
DATA
  6
CONTINUOUS
 62
     7
 10
-1287.068724999999
 20
-1190.236895
 30
0.0
 11
-1289.587164999999
 21
-1190.236895
 31
0.0
  0
LINE
  5
1E6
  8
DATA
  6
CONTINUOUS
 62
     7
 10
-1289.587164999999
 20
-1190.236895
 30
0.0
 11
-1289.587164999999
 21
-1192.644635
 31
0.0
  0
LINE
  5
1E7
  8
DATA
  6
CONTINUOUS
 62
     7
 10
-1304.061325000001
 20
-1194.941689999999
 30
0.0
 11
-1298.803045000001
 21
-1194.941675
 31
0.0
  0
LINE
  5
1E8
  8
DATA
  6
CONTINUOUS
 62
     7
 10
-1301.542885000001
 20
-1193.530249999999
 30
0.0
 11
-1300.186795
 21
-1193.530249999999
 31
0.0
  0
LINE
  5
1E9
  8
DATA
  6
CONTINUOUS
 62
     7
 10
-1301.542869999999
 20
-1193.530249999999
 30
0.0
 11
-1301.542869999999
 21
-1187.607740000001
 31
0.0
  0
LINE
  5
1EA
  8
DATA
  6
CONTINUOUS
 62
     7
 10
-1301.542885000001
 20
-1187.607740000001
 30
0.0
 11
-1300.186795
 21
-1187.607740000001
 31
0.0
  0
LINE
  5
1EB
  8
DATA
  6
CONTINUOUS
 62
     7
 10
-1298.803045000001
 20
-1192.86605
 30
0.0
 11
-1298.803045000001
 21
-1188.27194
 31
0.0
  0
ARC
  5
1EC
  8
DATA
  6
CONTINUOUS
 62
     7
 10
-1307.248600000001
 20
-1192.559839999999
 30
0.0
 40
1.750197821798144
 50
332.6403933328432
 51
357.2230045499548
  0
ARC
  5
1ED
  8
DATA
  6
CONTINUOUS
 62
     7
 10
-1290.633565
 20
-1192.677095
 30
0.0
 40
1.046893239363371
 50
269.7118487927628
 51
1.77598700571366
  0
ARC
  5
1EE
  8
DATA
  6
CONTINUOUS
 62
     7
 10
-1290.644095
 20
-1192.677095
 30
0.0
 40
1.046887886189016
 50
178.2240129942728
 51
270.28815120719
  0
LINE
  5
1EF
  8
DATA
  6
CONTINUOUS
 62
     7
 10
-1296.146214999999
 20
-1192.533935000001
 30
0.0
 11
-1296.146214999999
 21
-1188.548705000001
 31
0.0
  0
LINE
  5
1F0
  8
DATA
  6
CONTINUOUS
 62
     7
 10
-1301.542885000001
 20
-1186.168640000001
 30
0.0
 11
-1300.186795
 21
-1186.168640000001
 31
0.0
  0
LINE
  5
1F1
  8
DATA
  6
CONTINUOUS
 62
     7
 10
-1308.267969999999
 20
-1179.941705000001
 30
0.0
 11
-1305.50044
 21
-1179.941705000001
 31
0.0
  0
LINE
  5
1F2
  8
DATA
  6
CONTINUOUS
 62
     7
 10
-1313.775355
 20
-1179.941705000001
 30
0.0
 11
-1309.319635
 21
-1179.941705000001
 31
0.0
  0
LINE
  5
1F3
  8
DATA
  6
CONTINUOUS
 62
     7
 10
-1294.568724999999
 20
-1179.941705000001
 30
0.0
 11
-1291.690495000001
 21
-1179.941705000001
 31
0.0
  0
LINE
  5
1F4
  8
DATA
  6
CONTINUOUS
 62
     7
 10
-1304.061325000001
 20
-1179.941705000001
 30
0.0
 11
-1298.77413980778
 21
-1179.941717140611
 31
0.0
  0
LINE
  5
1F5
  8
DATA
  6
CONTINUOUS
 62
     7
 10
-1301.542885000001
 20
-1181.353145
 30
0.0
 11
-1300.186795
 21
-1181.353145
 31
0.0
  0
ARC
  5
1F6
  8
DATA
  6
CONTINUOUS
 62
     7
 10
-1300.170781806095
 20
-1190.899718059119
 30
0.0
 40
2.63058068007241
 50
269.6512199376213
 51
282.8264828068833
  0
ARC
  5
1F7
  8
DATA
  6
CONTINUOUS
 62
     7
 10
-1299.875325958799
 20
-1192.011875466842
 30
0.0
 40
1.481156855538868
 50
281.2331036226684
 51
306.8620088940702
  0
ARC
  5
1F8
  8
DATA
  6
CONTINUOUS
 62
     7
 10
-1299.27882795464
 20
-1188.319706067808
 30
0.0
 40
0.4781746722271509
 50
5.732980710521831
 51
52.35809750219261
  0
ARC
  5
1F9
  8
DATA
  6
CONTINUOUS
 62
     7
 10
-1300.170781806095
 20
-1190.238271940881
 30
0.0
 40
2.630580680073014
 50
77.17351719311677
 51
90.3487800623787
  0
ARC
  5
1FA
  8
DATA
  6
CONTINUOUS
 62
     7
 10
-1299.875325958799
 20
-1189.126114533159
 30
0.0
 40
1.481156855538815
 50
53.13799110588771
 51
78.76689637733169
  0
ARC
  5
1FB
  8
DATA
  6
CONTINUOUS
 62
     7
 10
-1297.597734999999
 20
-1188.646819999999
 30
0.0
 40
1.454832245871087
 50
3.867006359776176
 51
88.36163456789885
  0
ARC
  5
1FC
  8
DATA
  6
CONTINUOUS
 62
     7
 10
-1297.59907
 20
-1185.73694
 30
0.0
 40
1.456277909921379
 50
271.6892821046333
 51
356.0782829827044
  0
ARC
  5
1FD
  8
DATA
  6
CONTINUOUS
 62
     7
 10
-1299.27882795464
 20
-1185.456673932192
 30
0.0
 40
0.478174672228579
 50
307.6419024976743
 51
354.2670192894782
  0
ARC
  5
1FE
  8
DATA
  6
CONTINUOUS
 62
     7
 10
-1300.170781806095
 20
-1183.538108059119
 30
0.0
 40
2.630580680074229
 50
269.6512199376215
 51
282.8264828068832
  0
ARC
  5
1FF
  8
DATA
  6
CONTINUOUS
 62
     7
 10
-1299.875325958799
 20
-1184.650265466842
 30
0.0
 40
1.481156855538868
 50
281.2331036226684
 51
306.862008894056
  0
ARC
  5
200
  8
DATA
  6
CONTINUOUS
 62
     7
 10
-1299.27882795464
 20
-1182.06511106781
 30
0.0
 40
0.4781746722273326
 50
5.732980710738696
 51
52.35809750232571
  0
ARC
  5
201
  8
DATA
  6
CONTINUOUS
 62
     7
 10
-1300.170781806095
 20
-1183.983676940881
 30
0.0
 40
2.630580680073014
 50
77.17351719311677
 51
90.3487800623787
  0
ARC
  5
202
  8
DATA
  6
CONTINUOUS
 62
     7
 10
-1299.875325958799
 20
-1182.87151953316
 30
0.0
 40
1.48115685554027
 50
53.13799110592993
 51
78.76689637734542
  0
TEXT
  5
203
  8
DATA
 62
     7
 10
-1317.185789930556
 20
-1209.616276041667
 30
0.0
 40
4.332552083333333
  1
PROFESSIONAL
 41
0.7
 72
     1
 11
-1300.0
 21
-1207.45
 31
0.0
 73
     2
  0
CIRCLE
  5
204
  8
DATA
  6
CONTINUOUS
 62
     7
 10
-1300.0
 20
-402.5
 30
0.0
 40
9.0
  0
CIRCLE
  5
205
  8
DATA
  6
CONTINUOUS
 62
     7
 10
-1300.0
 20
-402.5
 30
0.0
 40
11.39999999999964
  0
CIRCLE
  5
206
  8
DATA
  6
CONTINUOUS
 62
     7
 10
-1300.0
 20
-402.5
 30
0.0
 40
51.89999999999964
  0
CIRCLE
  5
207
  8
DATA
  6
CONTINUOUS
 62
     7
 10
-1300.0
 20
-402.5
 30
0.0
 40
50.89999999999964
  0
CIRCLE
  5
208
  8
DATA
  6
CONTINUOUS
 62
     7
 10
-1300.0
 20
-443.11
 30
0.0
 40
6.600000000000364
  0
LINE
  5
209
  8
DATA
  6
CONTINUOUS
 62
     7
 10
-1296.700000000001
 20
-443.11
 30
0.0
 11
-1303.3
 21
-443.11
 31
0.0
  0
LINE
  5
20A
  8
DATA
  6
CONTINUOUS
 62
     7
 10
-1300.0
 20
-439.8100000000001
 30
0.0
 11
-1300.0
 21
-446.41
 31
0.0
  0
CIRCLE
  5
20B
  8
DATA
  6
CONTINUOUS
 62
     7
 10
-1335.169291647686
 20
-382.1950000000001
 30
0.0
 40
6.600000000000002
  0
LINE
  5
20C
  8
DATA
  6
CONTINUOUS
 62
     7
 10
-1333.519291647686
 20
-379.3371161675116
 30
0.0
 11
-1336.819291647686
 21
-385.0528838324889
 31
0.0
  0
LINE
  5
20D
  8
DATA
  6
CONTINUOUS
 62
     7
 10
-1332.311407815198
 20
-383.8450000000001
 30
0.0
 11
-1338.027175480174
 21
-380.5449999999999
 31
0.0
  0
CIRCLE
  5
20E
  8
DATA
  6
CONTINUOUS
 62
     7
 10
-1264.830708352314
 20
-382.1950000000001
 30
0.0
 40
6.600000000000002
  0
LINE
  5
20F
  8
DATA
  6
CONTINUOUS
 62
     7
 10
-1266.480708352314
 20
-379.3371161675116
 30
0.0
 11
-1263.180708352314
 21
-385.0528838324889
 31
0.0
  0
LINE
  5
210
  8
DATA
  6
CONTINUOUS
 62
     7
 10
-1267.688592184802
 20
-383.8450000000001
 30
0.0
 11
-1261.972824519826
 21
-380.5449999999999
 31
0.0
  0
LINE
  5
211
  8
DATA
  6
CONTINUOUS
 62
     7
 10
-1528.622909498546
 20
-504.0026605562266
 30
0.0
 11
-1555.21012447116
 21
-530.5898755288407
 31
0.0
  0
LINE
  5
212
  8
DATA
  6
CONTINUOUS
 62
     7
 10
-1574.08987552884
 20
-511.7101244711599
 30
0.0
 11
-1547.502660556227
 21
-485.1229094985457
 31
0.0
  0
ARC
  5
213
  8
DATA
  6
CONTINUOUS
 62
     7
 10
-1564.65
 20
-521.1500000000002
 30
0.0
 40
13.34999999999981
 50
135.0
 51
314.9999999999993
  0
ARC
  5
214
  8
DATA
  6
CONTINUOUS
 62
     7
 10
-1538.062785027386
 20
-494.5627850273862
 30
0.0
 40
13.34999999999981
 50
315.0
 51
135.0000000000007
  0
LINE
  5
215
  8
DATA
  6
CONTINUOUS
 62
     7
 10
-1071.377090501454
 20
-504.0026605562266
 30
0.0
 11
-1044.78987552884
 21
-530.5898755288407
 31
0.0
  0
LINE
  5
216
  8
DATA
  6
CONTINUOUS
 62
     7
 10
-1025.91012447116
 20
-511.7101244711599
 30
0.0
 11
-1052.497339443773
 21
-485.1229094985457
 31
0.0
  0
ARC
  5
217
  8
DATA
  6
CONTINUOUS
 62
     7
 10
-1035.35
 20
-521.1500000000002
 30
0.0
 40
13.34999999999997
 50
225.0000000000007
 51
45.0
  0
ARC
  5
218
  8
DATA
  6
CONTINUOUS
 62
     7
 10
-1061.937214972614
 20
-494.5627850273862
 30
0.0
 40
13.35000000000029
 50
44.99999999999931
 51
225.0
  0
LINE
  5
219
  8
DATA
  6
CONTINUOUS
 62
     7
 10
-1528.622909498546
 20
-60.9973394437734
 30
0.0
 11
-1555.21012447116
 21
-34.41012447115929
 31
0.0
  0
LINE
  5
21A
  8
DATA
  6
CONTINUOUS
 62
     7
 10
-1574.08987552884
 20
-53.28987552884007
 30
0.0
 11
-1547.502660556227
 21
-79.87709050145429
 31
0.0
  0
ARC
  5
21B
  8
DATA
  6
CONTINUOUS
 62
     7
 10
-1564.65
 20
-43.8499999999998
 30
0.0
 40
13.34999999999997
 50
45.0000000000007
 51
225.0
  0
ARC
  5
21C
  8
DATA
  6
CONTINUOUS
 62
     7
 10
-1538.062785027386
 20
-70.43721497261379
 30
0.0
 40
13.35000000000029
 50
224.9999999999993
 51
45.0
  0
LINE
  5
21D
  8
DATA
  6
CONTINUOUS
 62
     7
 10
-1071.377090501454
 20
-60.9973394437734
 30
0.0
 11
-1044.78987552884
 21
-34.41012447115929
 31
0.0
  0
LINE
  5
21E
  8
DATA
  6
CONTINUOUS
 62
     7
 10
-1025.91012447116
 20
-53.28987552884007
 30
0.0
 11
-1052.497339443773
 21
-79.87709050145429
 31
0.0
  0
ARC
  5
21F
  8
DATA
  6
CONTINUOUS
 62
     7
 10
-1035.35
 20
-43.8499999999998
 30
0.0
 40
13.34999999999981
 50
315.0
 51
134.9999999999993
  0
ARC
  5
220
  8
DATA
  6
CONTINUOUS
 62
     7
 10
-1061.937214972614
 20
-70.43721497261379
 30
0.0
 40
13.34999999999981
 50
135.0
 51
315.0000000000007
  0
ARC
  5
221
  8
DATA
  6
CONTINUOUS
 62
     7
 10
-628.5
 20
-926.2500000000001
 30
0.0
 40
50.0
 50
90.0
 51
180.0
  0
LINE
  5
222
  8
DATA
  6
CONTINUOUS
 62
     7
 10
-678.5
 20
-1044.25
 30
0.0
 11
-678.5
 21
-926.2500000000001
 31
0.0
  0
ARC
  5
223
  8
DATA
  6
CONTINUOUS
 62
     7
 10
-628.5
 20
-1044.25
 30
0.0
 40
50.0
 50
180.0
 51
270.0
  0
LINE
  5
224
  8
DATA
  6
CONTINUOUS
 62
     7
 10
-554.5
 20
-1094.25
 30
0.0
 11
-628.5
 21
-1094.25
 31
0.0
  0
ARC
  5
225
  8
DATA
  6
CONTINUOUS
 62
     7
 10
-554.5
 20
-1044.25
 30
0.0
 40
50.0
 50
270.0
 51
0.0
  0
LINE
  5
226
  8
DATA
  6
CONTINUOUS
 62
     7
 10
-504.5
 20
-926.2500000000001
 30
0.0
 11
-504.5
 21
-1044.25
 31
0.0
  0
ARC
  5
227
  8
DATA
  6
CONTINUOUS
 62
     7
 10
-554.5
 20
-926.2500000000001
 30
0.0
 40
50.0
 50
0.0
 51
90.0
  0
LINE
  5
228
  8
DATA
  6
CONTINUOUS
 62
     7
 10
-628.5
 20
-876.2500000000001
 30
0.0
 11
-554.5
 21
-876.2500000000001
 31
0.0
  0
LINE
  5
229
  8
DATA
  6
CONTINUOUS
 62
     7
 10
-504.5
 20
-1036.25
 30
0.0
 11
-521.5
 21
-1036.25
 31
0.0
  0
LINE
  5
22A
  8
DATA
  6
CONTINUOUS
 62
     7
 10
-661.5
 20
-1036.25
 30
0.0
 11
-678.5
 21
-1036.25
 31
0.0
  0
LINE
  5
22B
  8
DATA
  6
CONTINUOUS
 62
     7
 10
-504.5
 20
-952.7500000000001
 30
0.0
 11
-521.5
 21
-952.7500000000001
 31
0.0
  0
LINE
  5
22C
  8
DATA
  6
CONTINUOUS
 62
     7
 10
-661.5
 20
-952.7500000000001
 30
0.0
 11
-678.5
 21
-952.7500000000001
 31
0.0
  0
ARC
  5
22D
  8
DATA
  6
CONTINUOUS
 62
     7
 10
-591.5000000000227
 20
-883.5592886329079
 30
0.0
 40
0.1892886329077032
 50
359.0566788815885
 51
180.9433209280165
  0
ARC
  5
22E
  8
DATA
  6
CONTINUOUS
 62
     7
 10
-592.3631841931065
 20
-883.504921121286
 30
0.0
 40
0.6763683861877037
 50
244.8753886700349
 51
355.124611351879
  0
ARC
  5
22F
  8
DATA
  6
CONTINUOUS
 62
     7
 10
-592.7476926434274
 20
-884.2796443164854
 30
0.0
 40
0.1892886329072133
 50
59.05667888180753
 51
240.9433209278988
  0
ARC
  5
230
  8
DATA
  6
CONTINUOUS
 62
     7
 10
-593.2263683861747
 20
-885.0000000000301
 30
0.0
 40
0.6763683861874937
 50
304.8753886700163
 51
55.12461135189154
  0
ARC
  5
231
  8
DATA
  6
CONTINUOUS
 62
     7
 10
-591.5000000000227
 20
-886.4407113670924
 30
0.0
 40
0.1892886329082616
 50
179.0566790719836
 51
0.9433211184115464
  0
ARC
  5
232
  8
DATA
  6
CONTINUOUS
 62
     7
 10
-592.3631841931065
 20
-886.4950788787143
 30
0.0
 40
0.6763683861872442
 50
4.875388648120926
 51
115.1246113299651
  0
ARC
  5
233
  8
DATA
  6
CONTINUOUS
 62
     7
 10
-592.7476926434274
 20
-885.7203556835149
 30
0.0
 40
0.1892886329077544
 50
119.0566790721012
 51
300.9433211181924
  0
ARC
  5
234
  8
DATA
  6
CONTINUOUS
 62
     7
 10
-590.636815806939
 20
-883.504921121286
 30
0.0
 40
0.6763683861881504
 50
184.8753886481144
 51
295.1246113299651
  0
ARC
  5
235
  8
DATA
  6
CONTINUOUS
 62
     7
 10
-590.2523073566181
 20
-884.2796443164854
 30
0.0
 40
0.1892886329073127
 50
299.0566790718605
 51
120.9433211184286
  0
ARC
  5
236
  8
DATA
  6
CONTINUOUS
 62
     7
 10
-589.7736316138707
 20
-885.0000000000301
 30
0.0
 40
0.6763683861884657
 50
124.8753886481717
 51
235.1246113299204
  0
ARC
  5
237
  8
DATA
  6
CONTINUOUS
 62
     7
 10
-590.636815806939
 20
-886.4950788787143
 30
0.0
 40
0.6763683861877037
 50
64.87538867003492
 51
175.1246113518856
  0
ARC
  5
238
  8
DATA
  6
CONTINUOUS
 62
     7
 10
-590.2523073566181
 20
-885.7203556835149
 30
0.0
 40
0.189288632907681
 50
239.0566788815714
 51
60.94332092813945
  0
CIRCLE
  5
239
  8
DATA
  6
CONTINUOUS
 62
     7
 10
-591.5
 20
-885.0000000000001
 30
0.0
 40
4.0
  0
ARC
  5
23A
  8
DATA
  6
CONTINUOUS
 62
     7
 10
-591.5000000000227
 20
-1084.059288632908
 30
0.0
 40
0.1892886329077032
 50
359.0566788815885
 51
180.9433209280165
  0
ARC
  5
23B
  8
DATA
  6
CONTINUOUS
 62
     7
 10
-592.3631841931065
 20
-1084.004921121286
 30
0.0
 40
0.6763683861877037
 50
244.8753886700349
 51
355.124611351879
  0
ARC
  5
23C
  8
DATA
  6
CONTINUOUS
 62
     7
 10
-592.7476926434274
 20
-1084.779644316485
 30
0.0
 40
0.1892886329072133
 50
59.05667888180753
 51
240.9433209278988
  0
ARC
  5
23D
  8
DATA
  6
CONTINUOUS
 62
     7
 10
-593.2263683861747
 20
-1085.50000000003
 30
0.0
 40
0.6763683861874937
 50
304.8753886700163
 51
55.12461135189154
  0
ARC
  5
23E
  8
DATA
  6
CONTINUOUS
 62
     7
 10
-591.5000000000227
 20
-1086.940711367092
 30
0.0
 40
0.1892886329082616
 50
179.0566790719836
 51
0.9433211184115464
  0
ARC
  5
23F
  8
DATA
  6
CONTINUOUS
 62
     7
 10
-592.3631841931065
 20
-1086.995078878714
 30
0.0
 40
0.6763683861872442
 50
4.875388648120926
 51
115.1246113299651
  0
ARC
  5
240
  8
DATA
  6
CONTINUOUS
 62
     7
 10
-592.7476926434274
 20
-1086.220355683515
 30
0.0
 40
0.1892886329077544
 50
119.0566790721012
 51
300.9433211181924
  0
ARC
  5
241
  8
DATA
  6
CONTINUOUS
 62
     7
 10
-590.636815806939
 20
-1084.004921121286
 30
0.0
 40
0.6763683861881504
 50
184.8753886481144
 51
295.1246113299651
  0
ARC
  5
242
  8
DATA
  6
CONTINUOUS
 62
     7
 10
-590.2523073566181
 20
-1084.779644316485
 30
0.0
 40
0.1892886329073127
 50
299.0566790718605
 51
120.9433211184286
  0
ARC
  5
243
  8
DATA
  6
CONTINUOUS
 62
     7
 10
-589.7736316138707
 20
-1085.50000000003
 30
0.0
 40
0.6763683861884657
 50
124.8753886481717
 51
235.1246113299204
  0
ARC
  5
244
  8
DATA
  6
CONTINUOUS
 62
     7
 10
-590.636815806939
 20
-1086.995078878714
 30
0.0
 40
0.6763683861877037
 50
64.87538867003492
 51
175.1246113518856
  0
ARC
  5
245
  8
DATA
  6
CONTINUOUS
 62
     7
 10
-590.2523073566181
 20
-1086.220355683515
 30
0.0
 40
0.189288632907681
 50
239.0566788815714
 51
60.94332092813945
  0
CIRCLE
  5
246
  8
DATA
  6
CONTINUOUS
 62
     7
 10
-591.5
 20
-1085.5
 30
0.0
 40
4.0
  0
ARC
  5
247
  8
DATA
  6
CONTINUOUS
 62
     7
 10
-657.5000000000227
 20
-1071.059288632908
 30
0.0
 40
0.1892886329077032
 50
359.0566788815885
 51
180.9433209280165
  0
ARC
  5
248
  8
DATA
  6
CONTINUOUS
 62
     7
 10
-658.3631841931065
 20
-1071.004921121286
 30
0.0
 40
0.6763683861877037
 50
244.8753886700349
 51
355.124611351879
  0
ARC
  5
249
  8
DATA
  6
CONTINUOUS
 62
     7
 10
-658.7476926434274
 20
-1071.779644316485
 30
0.0
 40
0.1892886329072133
 50
59.05667888180753
 51
240.9433209278988
  0
ARC
  5
24A
  8
DATA
  6
CONTINUOUS
 62
     7
 10
-659.2263683861747
 20
-1072.50000000003
 30
0.0
 40
0.6763683861874937
 50
304.8753886700163
 51
55.12461135189154
  0
ARC
  5
24B
  8
DATA
  6
CONTINUOUS
 62
     7
 10
-657.5000000000227
 20
-1073.940711367092
 30
0.0
 40
0.1892886329082616
 50
179.0566790719836
 51
0.9433211184115464
  0
ARC
  5
24C
  8
DATA
  6
CONTINUOUS
 62
     7
 10
-658.3631841931065
 20
-1073.995078878714
 30
0.0
 40
0.6763683861872442
 50
4.875388648120926
 51
115.1246113299651
  0
ARC
  5
24D
  8
DATA
  6
CONTINUOUS
 62
     7
 10
-658.7476926434274
 20
-1073.220355683515
 30
0.0
 40
0.1892886329077544
 50
119.0566790721012
 51
300.9433211181924
  0
ARC
  5
24E
  8
DATA
  6
CONTINUOUS
 62
     7
 10
-656.636815806939
 20
-1071.004921121286
 30
0.0
 40
0.6763683861881504
 50
184.8753886481144
 51
295.1246113299651
  0
ARC
  5
24F
  8
DATA
  6
CONTINUOUS
 62
     7
 10
-656.2523073566181
 20
-1071.779644316485
 30
0.0
 40
0.1892886329073127
 50
299.0566790718605
 51
120.9433211184286
  0
ARC
  5
250
  8
DATA
  6
CONTINUOUS
 62
     7
 10
-655.7736316138707
 20
-1072.50000000003
 30
0.0
 40
0.6763683861884657
 50
124.8753886481717
 51
235.1246113299204
  0
ARC
  5
251
  8
DATA
  6
CONTINUOUS
 62
     7
 10
-656.636815806939
 20
-1073.995078878714
 30
0.0
 40
0.6763683861877037
 50
64.87538867003492
 51
175.1246113518856
  0
ARC
  5
252
  8
DATA
  6
CONTINUOUS
 62
     7
 10
-656.2523073566181
 20
-1073.220355683515
 30
0.0
 40
0.189288632907681
 50
239.0566788815714
 51
60.94332092813945
  0
CIRCLE
  5
253
  8
DATA
  6
CONTINUOUS
 62
     7
 10
-657.5
 20
-1072.5
 30
0.0
 40
4.0
  0
ARC
  5
254
  8
DATA
  6
CONTINUOUS
 62
     7
 10
-525.5000000000227
 20
-1071.059288632908
 30
0.0
 40
0.1892886329077032
 50
359.0566788815885
 51
180.9433209280165
  0
ARC
  5
255
  8
DATA
  6
CONTINUOUS
 62
     7
 10
-526.3631841931065
 20
-1071.004921121286
 30
0.0
 40
0.6763683861877037
 50
244.8753886700349
 51
355.124611351879
  0
ARC
  5
256
  8
DATA
  6
CONTINUOUS
 62
     7
 10
-526.7476926434274
 20
-1071.779644316485
 30
0.0
 40
0.1892886329072133
 50
59.05667888180753
 51
240.9433209278988
  0
ARC
  5
257
  8
DATA
  6
CONTINUOUS
 62
     7
 10
-527.2263683861747
 20
-1072.50000000003
 30
0.0
 40
0.6763683861874937
 50
304.8753886700163
 51
55.12461135189154
  0
ARC
  5
258
  8
DATA
  6
CONTINUOUS
 62
     7
 10
-525.5000000000227
 20
-1073.940711367092
 30
0.0
 40
0.1892886329082616
 50
179.0566790719836
 51
0.9433211184115464
  0
ARC
  5
259
  8
DATA
  6
CONTINUOUS
 62
     7
 10
-526.3631841931065
 20
-1073.995078878714
 30
0.0
 40
0.6763683861872442
 50
4.875388648120926
 51
115.1246113299651
  0
ARC
  5
25A
  8
DATA
  6
CONTINUOUS
 62
     7
 10
-526.7476926434274
 20
-1073.220355683515
 30
0.0
 40
0.1892886329077544
 50
119.0566790721012
 51
300.9433211181924
  0
ARC
  5
25B
  8
DATA
  6
CONTINUOUS
 62
     7
 10
-524.636815806939
 20
-1071.004921121286
 30
0.0
 40
0.6763683861881504
 50
184.8753886481144
 51
295.1246113299651
  0
ARC
  5
25C
  8
DATA
  6
CONTINUOUS
 62
     7
 10
-524.2523073566181
 20
-1071.779644316485
 30
0.0
 40
0.1892886329073127
 50
299.0566790718605
 51
120.9433211184286
  0
ARC
  5
25D
  8
DATA
  6
CONTINUOUS
 62
     7
 10
-523.7736316138707
 20
-1072.50000000003
 30
0.0
 40
0.6763683861884657
 50
124.8753886481717
 51
235.1246113299204
  0
ARC
  5
25E
  8
DATA
  6
CONTINUOUS
 62
     7
 10
-524.636815806939
 20
-1073.995078878714
 30
0.0
 40
0.6763683861877037
 50
64.87538867003492
 51
175.1246113518856
  0
ARC
  5
25F
  8
DATA
  6
CONTINUOUS
 62
     7
 10
-524.2523073566181
 20
-1073.220355683515
 30
0.0
 40
0.189288632907681
 50
239.0566788815714
 51
60.94332092813945
  0
CIRCLE
  5
260
  8
DATA
  6
CONTINUOUS
 62
     7
 10
-525.5
 20
-1072.5
 30
0.0
 40
4.0
  0
ARC
  5
261
  8
DATA
  6
CONTINUOUS
 62
     7
 10
-657.5000000000227
 20
-896.5592886329079
 30
0.0
 40
0.1892886329077032
 50
359.0566788815885
 51
180.9433209280165
  0
ARC
  5
262
  8
DATA
  6
CONTINUOUS
 62
     7
 10
-658.3631841931065
 20
-896.504921121286
 30
0.0
 40
0.6763683861877037
 50
244.8753886700349
 51
355.124611351879
  0
ARC
  5
263
  8
DATA
  6
CONTINUOUS
 62
     7
 10
-658.7476926434274
 20
-897.2796443164854
 30
0.0
 40
0.1892886329072133
 50
59.05667888180753
 51
240.9433209278988
  0
ARC
  5
264
  8
DATA
  6
CONTINUOUS
 62
     7
 10
-659.2263683861747
 20
-898.0000000000301
 30
0.0
 40
0.6763683861874937
 50
304.8753886700163
 51
55.12461135189154
  0
ARC
  5
265
  8
DATA
  6
CONTINUOUS
 62
     7
 10
-657.5000000000227
 20
-899.4407113670924
 30
0.0
 40
0.1892886329082616
 50
179.0566790719836
 51
0.9433211184115464
  0
ARC
  5
266
  8
DATA
  6
CONTINUOUS
 62
     7
 10
-658.3631841931065
 20
-899.4950788787143
 30
0.0
 40
0.6763683861872442
 50
4.875388648120926
 51
115.1246113299651
  0
ARC
  5
267
  8
DATA
  6
CONTINUOUS
 62
     7
 10
-658.7476926434274
 20
-898.7203556835149
 30
0.0
 40
0.1892886329077544
 50
119.0566790721012
 51
300.9433211181924
  0
ARC
  5
268
  8
DATA
  6
CONTINUOUS
 62
     7
 10
-656.636815806939
 20
-896.504921121286
 30
0.0
 40
0.6763683861881504
 50
184.8753886481144
 51
295.1246113299651
  0
ARC
  5
269
  8
DATA
  6
CONTINUOUS
 62
     7
 10
-656.2523073566181
 20
-897.2796443164854
 30
0.0
 40
0.1892886329073127
 50
299.0566790718605
 51
120.9433211184286
  0
ARC
  5
26A
  8
DATA
  6
CONTINUOUS
 62
     7
 10
-655.7736316138707
 20
-898.0000000000301
 30
0.0
 40
0.6763683861884657
 50
124.8753886481717
 51
235.1246113299204
  0
ARC
  5
26B
  8
DATA
  6
CONTINUOUS
 62
     7
 10
-656.636815806939
 20
-899.4950788787143
 30
0.0
 40
0.6763683861877037
 50
64.87538867003492
 51
175.1246113518856
  0
ARC
  5
26C
  8
DATA
  6
CONTINUOUS
 62
     7
 10
-656.2523073566181
 20
-898.7203556835149
 30
0.0
 40
0.189288632907681
 50
239.0566788815714
 51
60.94332092813945
  0
CIRCLE
  5
26D
  8
DATA
  6
CONTINUOUS
 62
     7
 10
-657.5
 20
-898.0000000000001
 30
0.0
 40
4.0
  0
ARC
  5
26E
  8
DATA
  6
CONTINUOUS
 62
     7
 10
-525.5000000000227
 20
-896.5592886329079
 30
0.0
 40
0.1892886329077032
 50
359.0566788815885
 51
180.9433209280165
  0
ARC
  5
26F
  8
DATA
  6
CONTINUOUS
 62
     7
 10
-526.3631841931065
 20
-896.504921121286
 30
0.0
 40
0.6763683861877037
 50
244.8753886700349
 51
355.124611351879
  0
ARC
  5
270
  8
DATA
  6
CONTINUOUS
 62
     7
 10
-526.7476926434274
 20
-897.2796443164854
 30
0.0
 40
0.1892886329072133
 50
59.05667888180753
 51
240.9433209278988
  0
ARC
  5
271
  8
DATA
  6
CONTINUOUS
 62
     7
 10
-527.2263683861747
 20
-898.0000000000301
 30
0.0
 40
0.6763683861874937
 50
304.8753886700163
 51
55.12461135189154
  0
ARC
  5
272
  8
DATA
  6
CONTINUOUS
 62
     7
 10
-525.5000000000227
 20
-899.4407113670924
 30
0.0
 40
0.1892886329082616
 50
179.0566790719836
 51
0.9433211184115464
  0
ARC
  5
273
  8
DATA
  6
CONTINUOUS
 62
     7
 10
-526.3631841931065
 20
-899.4950788787143
 30
0.0
 40
0.6763683861872442
 50
4.875388648120926
 51
115.1246113299651
  0
ARC
  5
274
  8
DATA
  6
CONTINUOUS
 62
     7
 10
-526.7476926434274
 20
-898.7203556835149
 30
0.0
 40
0.1892886329077544
 50
119.0566790721012
 51
300.9433211181924
  0
ARC
  5
275
  8
DATA
  6
CONTINUOUS
 62
     7
 10
-524.636815806939
 20
-896.504921121286
 30
0.0
 40
0.6763683861881504
 50
184.8753886481144
 51
295.1246113299651
  0
ARC
  5
276
  8
DATA
  6
CONTINUOUS
 62
     7
 10
-524.2523073566181
 20
-897.2796443164854
 30
0.0
 40
0.1892886329073127
 50
299.0566790718605
 51
120.9433211184286
  0
ARC
  5
277
  8
DATA
  6
CONTINUOUS
 62
     7
 10
-523.7736316138707
 20
-898.0000000000301
 30
0.0
 40
0.6763683861884657
 50
124.8753886481717
 51
235.1246113299204
  0
ARC
  5
278
  8
DATA
  6
CONTINUOUS
 62
     7
 10
-524.636815806939
 20
-899.4950788787143
 30
0.0
 40
0.6763683861877037
 50
64.87538867003492
 51
175.1246113518856
  0
ARC
  5
279
  8
DATA
  6
CONTINUOUS
 62
     7
 10
-524.2523073566181
 20
-898.7203556835149
 30
0.0
 40
0.189288632907681
 50
239.0566788815714
 51
60.94332092813945
  0
CIRCLE
  5
27A
  8
DATA
  6
CONTINUOUS
 62
     7
 10
-525.5
 20
-898.0000000000001
 30
0.0
 40
4.0
  0
LINE
  5
27B
  8
DATA
  6
CONTINUOUS
 62
     7
 10
-630.5
 20
-895.2500000000001
 30
0.0
 11
-552.5
 21
-895.2500000000001
 31
0.0
  0
LINE
  5
27C
  8
DATA
  6
CONTINUOUS
 62
     7
 10
-521.5
 20
-926.2500000000001
 30
0.0
 11
-521.5
 21
-1044.25
 31
0.0
  0
LINE
  5
27D
  8
DATA
  6
CONTINUOUS
 62
     7
 10
-552.5
 20
-1075.25
 30
0.0
 11
-630.5
 21
-1075.25
 31
0.0
  0
LINE
  5
27E
  8
DATA
  6
CONTINUOUS
 62
     7
 10
-661.5
 20
-1044.25
 30
0.0
 11
-661.5
 21
-926.2499999999997
 31
0.0
  0
ARC
  5
27F
  8
DATA
  6
CONTINUOUS
 62
     7
 10
-630.5
 20
-1044.25
 30
0.0
 40
31.0
 50
180.0
 51
270.0
  0
ARC
  5
280
  8
DATA
  6
CONTINUOUS
 62
     7
 10
-552.5
 20
-1044.25
 30
0.0
 40
31.0
 50
270.0
 51
0.0
  0
ARC
  5
281
  8
DATA
  6
CONTINUOUS
 62
     7
 10
-630.5
 20
-926.2499999999997
 30
0.0
 40
31.0
 50
90.0
 51
180.0
  0
ARC
  5
282
  8
DATA
  6
CONTINUOUS
 62
     7
 10
-552.5
 20
-926.2500000000001
 30
0.0
 40
31.0
 50
0.0
 51
90.0
  0
ARC
  5
283
  8
DATA
  6
CONTINUOUS
 62
     7
 10
-670.7500000000227
 20
-964.0592886329079
 30
0.0
 40
0.1892886329077032
 50
359.0566788815885
 51
180.9433209280165
  0
ARC
  5
284
  8
DATA
  6
CONTINUOUS
 62
     7
 10
-671.6131841931065
 20
-964.004921121286
 30
0.0
 40
0.6763683861877037
 50
244.8753886700349
 51
355.124611351879
  0
ARC
  5
285
  8
DATA
  6
CONTINUOUS
 62
     7
 10
-671.9976926434274
 20
-964.7796443164854
 30
0.0
 40
0.1892886329072133
 50
59.05667888180753
 51
240.9433209278988
  0
ARC
  5
286
  8
DATA
  6
CONTINUOUS
 62
     7
 10
-672.4763683861747
 20
-965.5000000000301
 30
0.0
 40
0.6763683861874937
 50
304.8753886700163
 51
55.12461135189154
  0
ARC
  5
287
  8
DATA
  6
CONTINUOUS
 62
     7
 10
-670.7500000000227
 20
-966.9407113670924
 30
0.0
 40
0.1892886329082616
 50
179.0566790719836
 51
0.9433211184115464
  0
ARC
  5
288
  8
DATA
  6
CONTINUOUS
 62
     7
 10
-671.6131841931065
 20
-966.9950788787143
 30
0.0
 40
0.6763683861872442
 50
4.875388648120926
 51
115.1246113299651
  0
ARC
  5
289
  8
DATA
  6
CONTINUOUS
 62
     7
 10
-671.9976926434274
 20
-966.2203556835149
 30
0.0
 40
0.1892886329077544
 50
119.0566790721012
 51
300.9433211181924
  0
ARC
  5
28A
  8
DATA
  6
CONTINUOUS
 62
     7
 10
-669.886815806939
 20
-964.004921121286
 30
0.0
 40
0.6763683861881504
 50
184.8753886481144
 51
295.1246113299651
  0
ARC
  5
28B
  8
DATA
  6
CONTINUOUS
 62
     7
 10
-669.5023073566181
 20
-964.7796443164854
 30
0.0
 40
0.1892886329073127
 50
299.0566790718605
 51
120.9433211184286
  0
ARC
  5
28C
  8
DATA
  6
CONTINUOUS
 62
     7
 10
-669.0236316138707
 20
-965.5000000000301
 30
0.0
 40
0.6763683861884657
 50
124.8753886481717
 51
235.1246113299204
  0
ARC
  5
28D
  8
DATA
  6
CONTINUOUS
 62
     7
 10
-669.886815806939
 20
-966.9950788787143
 30
0.0
 40
0.6763683861877037
 50
64.87538867003492
 51
175.1246113518856
  0
ARC
  5
28E
  8
DATA
  6
CONTINUOUS
 62
     7
 10
-669.5023073566181
 20
-966.2203556835149
 30
0.0
 40
0.189288632907681
 50
239.0566788815714
 51
60.94332092813945
  0
CIRCLE
  5
28F
  8
DATA
  6
CONTINUOUS
 62
     7
 10
-670.75
 20
-965.5000000000001
 30
0.0
 40
4.0
  0
ARC
  5
290
  8
DATA
  6
CONTINUOUS
 62
     7
 10
-670.7500000000227
 20
-1022.059288632908
 30
0.0
 40
0.1892886329077032
 50
359.0566788815885
 51
180.9433209280165
  0
ARC
  5
291
  8
DATA
  6
CONTINUOUS
 62
     7
 10
-671.6131841931065
 20
-1022.004921121286
 30
0.0
 40
0.6763683861877037
 50
244.8753886700349
 51
355.124611351879
  0
ARC
  5
292
  8
DATA
  6
CONTINUOUS
 62
     7
 10
-671.9976926434274
 20
-1022.779644316485
 30
0.0
 40
0.1892886329072133
 50
59.05667888180753
 51
240.9433209278988
  0
ARC
  5
293
  8
DATA
  6
CONTINUOUS
 62
     7
 10
-672.4763683861747
 20
-1023.50000000003
 30
0.0
 40
0.6763683861874005
 50
304.8753886700218
 51
55.12461135189148
  0
ARC
  5
294
  8
DATA
  6
CONTINUOUS
 62
     7
 10
-670.7500000000227
 20
-1024.940711367092
 30
0.0
 40
0.1892886329082616
 50
179.0566790719836
 51
0.9433211184115464
  0
ARC
  5
295
  8
DATA
  6
CONTINUOUS
 62
     7
 10
-671.6131841931065
 20
-1024.995078878714
 30
0.0
 40
0.6763683861872442
 50
4.875388648120926
 51
115.1246113299651
  0
ARC
  5
296
  8
DATA
  6
CONTINUOUS
 62
     7
 10
-671.9976926434274
 20
-1024.220355683515
 30
0.0
 40
0.1892886329077544
 50
119.0566790721012
 51
300.9433211181924
  0
ARC
  5
297
  8
DATA
  6
CONTINUOUS
 62
     7
 10
-669.886815806939
 20
-1022.004921121286
 30
0.0
 40
0.6763683861881504
 50
184.8753886481144
 51
295.1246113299651
  0
ARC
  5
298
  8
DATA
  6
CONTINUOUS
 62
     7
 10
-669.5023073566181
 20
-1022.779644316485
 30
0.0
 40
0.1892886329073127
 50
299.0566790718605
 51
120.9433211184286
  0
ARC
  5
299
  8
DATA
  6
CONTINUOUS
 62
     7
 10
-669.0236316138707
 20
-1023.50000000003
 30
0.0
 40
0.6763683861884657
 50
124.8753886481717
 51
235.1246113299149
  0
ARC
  5
29A
  8
DATA
  6
CONTINUOUS
 62
     7
 10
-669.886815806939
 20
-1024.995078878714
 30
0.0
 40
0.6763683861877037
 50
64.87538867003492
 51
175.1246113518856
  0
ARC
  5
29B
  8
DATA
  6
CONTINUOUS
 62
     7
 10
-669.5023073566181
 20
-1024.220355683515
 30
0.0
 40
0.189288632907681
 50
239.0566788815714
 51
60.94332092813945
  0
CIRCLE
  5
29C
  8
DATA
  6
CONTINUOUS
 62
     7
 10
-670.75
 20
-1023.5
 30
0.0
 40
4.0
  0
ARC
  5
29D
  8
DATA
  6
CONTINUOUS
 62
     7
 10
-512.2500000000227
 20
-964.0592886329079
 30
0.0
 40
0.1892886329077032
 50
359.0566788815885
 51
180.9433209280165
  0
ARC
  5
29E
  8
DATA
  6
CONTINUOUS
 62
     7
 10
-513.1131841931065
 20
-964.004921121286
 30
0.0
 40
0.6763683861877037
 50
244.8753886700349
 51
355.124611351879
  0
ARC
  5
29F
  8
DATA
  6
CONTINUOUS
 62
     7
 10
-513.4976926434274
 20
-964.7796443164854
 30
0.0
 40
0.1892886329072133
 50
59.05667888180753
 51
240.9433209278988
  0
ARC
  5
2A0
  8
DATA
  6
CONTINUOUS
 62
     7
 10
-513.9763683861747
 20
-965.5000000000301
 30
0.0
 40
0.6763683861874937
 50
304.8753886700163
 51
55.12461135189154
  0
ARC
  5
2A1
  8
DATA
  6
CONTINUOUS
 62
     7
 10
-512.2500000000227
 20
-966.9407113670924
 30
0.0
 40
0.1892886329082616
 50
179.0566790719836
 51
0.9433211184115464
  0
ARC
  5
2A2
  8
DATA
  6
CONTINUOUS
 62
     7
 10
-513.1131841931065
 20
-966.9950788787143
 30
0.0
 40
0.6763683861872442
 50
4.875388648120926
 51
115.1246113299651
  0
ARC
  5
2A3
  8
DATA
  6
CONTINUOUS
 62
     7
 10
-513.4976926434274
 20
-966.2203556835149
 30
0.0
 40
0.1892886329077544
 50
119.0566790721012
 51
300.9433211181924
  0
ARC
  5
2A4
  8
DATA
  6
CONTINUOUS
 62
     7
 10
-511.386815806939
 20
-964.004921121286
 30
0.0
 40
0.6763683861881504
 50
184.8753886481144
 51
295.1246113299651
  0
ARC
  5
2A5
  8
DATA
  6
CONTINUOUS
 62
     7
 10
-511.0023073566181
 20
-964.7796443164854
 30
0.0
 40
0.1892886329073127
 50
299.0566790718605
 51
120.9433211184286
  0
ARC
  5
2A6
  8
DATA
  6
CONTINUOUS
 62
     7
 10
-510.5236316138707
 20
-965.5000000000301
 30
0.0
 40
0.6763683861884657
 50
124.8753886481717
 51
235.1246113299204
  0
ARC
  5
2A7
  8
DATA
  6
CONTINUOUS
 62
     7
 10
-511.386815806939
 20
-966.9950788787143
 30
0.0
 40
0.6763683861877037
 50
64.87538867003492
 51
175.1246113518856
  0
ARC
  5
2A8
  8
DATA
  6
CONTINUOUS
 62
     7
 10
-511.0023073566181
 20
-966.2203556835149
 30
0.0
 40
0.189288632907681
 50
239.0566788815714
 51
60.94332092813945
  0
CIRCLE
  5
2A9
  8
DATA
  6
CONTINUOUS
 62
     7
 10
-512.25
 20
-965.5000000000001
 30
0.0
 40
4.0
  0
ARC
  5
2AA
  8
DATA
  6
CONTINUOUS
 62
     7
 10
-512.2500000000227
 20
-1022.059288632908
 30
0.0
 40
0.1892886329077032
 50
359.0566788815885
 51
180.9433209280165
  0
ARC
  5
2AB
  8
DATA
  6
CONTINUOUS
 62
     7
 10
-513.1131841931065
 20
-1022.004921121286
 30
0.0
 40
0.6763683861877037
 50
244.8753886700349
 51
355.124611351879
  0
ARC
  5
2AC
  8
DATA
  6
CONTINUOUS
 62
     7
 10
-513.4976926434274
 20
-1022.779644316485
 30
0.0
 40
0.1892886329072133
 50
59.05667888180753
 51
240.9433209278988
  0
ARC
  5
2AD
  8
DATA
  6
CONTINUOUS
 62
     7
 10
-513.9763683861747
 20
-1023.50000000003
 30
0.0
 40
0.6763683861874005
 50
304.8753886700218
 51
55.12461135189148
  0
ARC
  5
2AE
  8
DATA
  6
CONTINUOUS
 62
     7
 10
-512.2500000000227
 20
-1024.940711367092
 30
0.0
 40
0.1892886329082616
 50
179.0566790719836
 51
0.9433211184115464
  0
ARC
  5
2AF
  8
DATA
  6
CONTINUOUS
 62
     7
 10
-513.1131841931065
 20
-1024.995078878714
 30
0.0
 40
0.6763683861872442
 50
4.875388648120926
 51
115.1246113299651
  0
ARC
  5
2B0
  8
DATA
  6
CONTINUOUS
 62
     7
 10
-513.4976926434274
 20
-1024.220355683515
 30
0.0
 40
0.1892886329077544
 50
119.0566790721012
 51
300.9433211181924
  0
ARC
  5
2B1
  8
DATA
  6
CONTINUOUS
 62
     7
 10
-511.386815806939
 20
-1022.004921121286
 30
0.0
 40
0.6763683861881504
 50
184.8753886481144
 51
295.1246113299651
  0
ARC
  5
2B2
  8
DATA
  6
CONTINUOUS
 62
     7
 10
-511.0023073566181
 20
-1022.779644316485
 30
0.0
 40
0.1892886329073127
 50
299.0566790718605
 51
120.9433211184286
  0
ARC
  5
2B3
  8
DATA
  6
CONTINUOUS
 62
     7
 10
-510.5236316138707
 20
-1023.50000000003
 30
0.0
 40
0.6763683861884657
 50
124.8753886481717
 51
235.1246113299149
  0
ARC
  5
2B4
  8
DATA
  6
CONTINUOUS
 62
     7
 10
-511.386815806939
 20
-1024.995078878714
 30
0.0
 40
0.6763683861877037
 50
64.87538867003492
 51
175.1246113518856
  0
ARC
  5
2B5
  8
DATA
  6
CONTINUOUS
 62
     7
 10
-511.0023073566181
 20
-1024.220355683515
 30
0.0
 40
0.189288632907681
 50
239.0566788815714
 51
60.94332092813945
  0
CIRCLE
  5
2B6
  8
DATA
  6
CONTINUOUS
 62
     7
 10
-512.25
 20
-1023.5
 30
0.0
 40
4.0
  0
ARC
  5
2B7
  8
DATA
  6
CONTINUOUS
 62
     7
 10
-630.0
 20
-926.2499999999997
 30
0.0
 40
25.99999999999955
 50
90.0
 51
180.0
  0
ARC
  5
2B8
  8
DATA
  6
CONTINUOUS
 62
     7
 10
-553.0
 20
-926.2499999999997
 30
0.0
 40
26.0
 50
0.0
 51
90.0
  0
ARC
  5
2B9
  8
DATA
  6
CONTINUOUS
 62
     7
 10
-630.0
 20
-1044.25
 30
0.0
 40
26.0
 50
180.0
 51
270.0
  0
ARC
  5
2BA
  8
DATA
  6
CONTINUOUS
 62
     7
 10
-553.0
 20
-1044.25
 30
0.0
 40
25.99999999999955
 50
270.0
 51
0.0
  0
LINE
  5
2BB
  8
DATA
  6
CONTINUOUS
 62
     7
 10
-630.0
 20
-900.2500000000001
 30
0.0
 11
-553.0
 21
-900.2500000000001
 31
0.0
  0
LINE
  5
2BC
  8
DATA
  6
CONTINUOUS
 62
     7
 10
-553.0
 20
-1070.25
 30
0.0
 11
-630.0
 21
-1070.25
 31
0.0
  0
LINE
  5
2BD
  8
DATA
  6
CONTINUOUS
 62
     7
 10
-656.0
 20
-1044.25
 30
0.0
 11
-656.0
 21
-926.2499999999997
 31
0.0
  0
LINE
  5
2BE
  8
DATA
  6
CONTINUOUS
 62
     7
 10
-527.0
 20
-926.2499999999997
 30
0.0
 11
-527.0
 21
-1044.25
 31
0.0
  0
ARC
  5
2BF
  8
DATA
  6
CONTINUOUS
 62
     7
 10
-622.0
 20
-1038.75
 30
0.0
 40
28.49999999999989
 50
90.0
 51
270.0
  0
ARC
  5
2C0
  8
DATA
  6
CONTINUOUS
 62
     7
 10
-561.0
 20
-1038.75
 30
0.0
 40
28.5
 50
270.0
 51
90.0
  0
LINE
  5
2C1
  8
DATA
  6
CONTINUOUS
 62
     7
 10
-622.0
 20
-1010.25
 30
0.0
 11
-561.0
 21
-1010.25
 31
0.0
  0
LINE
  5
2C2
  8
DATA
  6
CONTINUOUS
 62
     7
 10
-622.0
 20
-1067.25
 30
0.0
 11
-561.0
 21
-1067.25
 31
0.0
  0
ARC
  5
2C3
  8
DATA
  6
CONTINUOUS
 62
     7
 10
-622.0
 20
-951.7500000000001
 30
0.0
 40
28.5
 50
180.0
 51
270.0
  0
ARC
  5
2C4
  8
DATA
  6
CONTINUOUS
 62
     7
 10
-622.0
 20
-932.7500000000001
 30
0.0
 40
28.5
 50
90.0
 51
180.0
  0
ARC
  5
2C5
  8
DATA
  6
CONTINUOUS
 62
     7
 10
-561.0
 20
-951.7500000000001
 30
0.0
 40
28.5
 50
270.0
 51
0.0
  0
ARC
  5
2C6
  8
DATA
  6
CONTINUOUS
 62
     7
 10
-561.0
 20
-932.7500000000001
 30
0.0
 40
28.5
 50
0.0
 51
90.0
  0
LINE
  5
2C7
  8
DATA
  6
CONTINUOUS
 62
     7
 10
-650.5
 20
-932.7500000000001
 30
0.0
 11
-650.5
 21
-951.7500000000001
 31
0.0
  0
LINE
  5
2C8
  8
DATA
  6
CONTINUOUS
 62
     7
 10
-622.0
 20
-980.2500000000001
 30
0.0
 11
-561.0
 21
-980.2500000000001
 31
0.0
  0
LINE
  5
2C9
  8
DATA
  6
CONTINUOUS
 62
     7
 10
-532.5
 20
-951.7500000000001
 30
0.0
 11
-532.5
 21
-932.7500000000001
 31
0.0
  0
LINE
  5
2CA
  8
DATA
  6
CONTINUOUS
 62
     7
 10
-561.0
 20
-904.2500000000001
 30
0.0
 11
-622.0
 21
-904.2500000000001
 31
0.0
  0
LINE
  5
2CB
  8
DATA
  6
CONTINUOUS
 62
     7
 10
-656.0
 20
-1034.75
 30
0.0
 11
-650.217902119045
 21
-1034.75
 31
0.0
  0
LINE
  5
2CC
  8
DATA
  6
CONTINUOUS
 62
     7
 10
-656.0
 20
-1034.75
 30
0.0
 11
-661.5
 21
-1036.25
 31
0.0
  0
LINE
  5
2CD
  8
DATA
  6
CONTINUOUS
 62
     7
 10
-527.0
 20
-1034.75
 30
0.0
 11
-532.782097880955
 21
-1034.75
 31
0.0
  0
LINE
  5
2CE
  8
DATA
  6
CONTINUOUS
 62
     7
 10
-527.0
 20
-1034.75
 30
0.0
 11
-521.5
 21
-1036.25
 31
0.0
  0
LINE
  5
2CF
  8
DATA
  6
CONTINUOUS
 62
     7
 10
-656.0
 20
-954.2499999999997
 30
0.0
 11
-650.3901391331565
 21
-954.2499999999997
 31
0.0
  0
LINE
  5
2D0
  8
DATA
  6
CONTINUOUS
 62
     7
 10
-656.0
 20
-954.2499999999997
 30
0.0
 11
-661.5
 21
-952.7500000000001
 31
0.0
  0
LINE
  5
2D1
  8
DATA
  6
CONTINUOUS
 62
     7
 10
-527.0
 20
-954.2499999999997
 30
0.0
 11
-532.6098608668435
 21
-954.2499999999997
 31
0.0
  0
LINE
  5
2D2
  8
DATA
  6
CONTINUOUS
 62
     7
 10
-527.0
 20
-954.2499999999997
 30
0.0
 11
-521.5
 21
-952.7500000000001
 31
0.0
  0
ARC
  5
2D3
  8
DATA
  6
CONTINUOUS
 62
     7
 10
-601.4997739999999
 20
-999.3847400000001
 30
0.0
 40
4.384050822785111
 50
264.6908562215332
 51
323.9911991542446
  0
ARC
  5
2D4
  8
DATA
  6
CONTINUOUS
 62
     7
 10
-602.3110649999999
 20
-999.3847400000001
 30
0.0
 40
4.384043702809195
 50
216.0088008457572
 51
275.3091437784642
  0
ARC
  5
2D5
  8
DATA
  6
CONTINUOUS
 62
     7
 10
-590.359555
 20
-1000.522754
 30
0.0
 40
3.234439399920584
 50
273.8309816091167
 51
351.135147309806
  0
ARC
  5
2D6
  8
DATA
  6
CONTINUOUS
 62
     7
 10
-590.3273060000001
 20
-989.9722819999998
 30
0.0
 40
3.229540885949357
 50
8.226923859010391
 51
86.15412669215166
  0
ARC
  5
2D7
  8
DATA
  6
CONTINUOUS
 62
     7
 10
-590.6826716819251
 20
-1001.34345612315
 30
0.0
 40
0.5419312951913328
 50
307.6419024975662
 51
354.2670192894061
  0
LINE
  5
2D8
  8
DATA
  6
CONTINUOUS
 62
     7
 10
-604.6028349999997
 20
-992.8034960000001
 30
0.0
 11
-602.062253
 21
-986.7500000000001
 31
0.0
  0
LINE
  5
2D9
  8
DATA
  6
CONTINUOUS
 62
     7
 10
-604.6028349999997
 20
-992.8034960000001
 30
0.0
 11
-607.1120689999998
 21
-986.7500000000001
 31
0.0
  0
LINE
  5
2DA
  8
DATA
  6
CONTINUOUS
 62
     7
 10
-585.3445549999997
 20
-1003.75
 30
0.0
 11
-585.3445549999997
 21
-986.7500000000001
 31
0.0
  0
LINE
  5
2DB
  8
DATA
  6
CONTINUOUS
 62
     7
 10
-582.0825610000002
 20
-986.7500000000001
 30
0.0
 11
-582.0825610000002
 21
-1001.146688
 31
0.0
  0
LINE
  5
2DC
  8
DATA
  6
CONTINUOUS
 62
     7
 10
-600.8703660000001
 20
-986.7500000000001
 30
0.0
 11
-600.8703660000001
 21
-1001.146688
 31
0.0
  0
LINE
  5
2DD
  8
DATA
  6
CONTINUOUS
 62
     7
 10
-597.7338319999999
 20
-986.7500000000001
 30
0.0
 11
-597.7338319999999
 21
-1001.146688
 31
0.0
  0
LINE
  5
2DE
  8
DATA
  6
CONTINUOUS
 62
     7
 10
-596.1028349999997
 20
-986.7500000000001
 30
0.0
 11
-596.1028349999997
 21
-1003.75
 31
0.0
  0
LINE
  5
2DF
  8
DATA
  6
CONTINUOUS
 62
     7
 10
-593.2485859999997
 20
-988.3496150000002
 30
0.0
 11
-593.2485859999997
 21
-993.8071929999998
 31
0.0
  0
LINE
  5
2E0
  8
DATA
  6
CONTINUOUS
 62
     7
 10
-587.1310000000003
 20
-993.4914010000003
 30
0.0
 11
-587.1310000000003
 21
-989.5101540000002
 31
0.0
  0
LINE
  5
2E1
  8
DATA
  6
CONTINUOUS
 62
     7
 10
-590.1434509999999
 20
-989.1023919999999
 30
0.0
 11
-590.1434509999999
 21
-993.0544329999999
 31
0.0
  0
LINE
  5
2E2
  8
DATA
  6
CONTINUOUS
 62
     7
 10
-603.2541229999997
 20
-998.4178819999998
 30
0.0
 11
-603.2541229999997
 21
-1001.146654
 31
0.0
  0
LINE
  5
2E3
  8
DATA
  6
CONTINUOUS
 62
     7
 10
-603.2541229999997
 20
-998.4178819999998
 30
0.0
 11
-606.0770069999999
 21
-998.4178819999998
 31
0.0
  0
LINE
  5
2E4
  8
DATA
  6
CONTINUOUS
 62
     7
 10
-606.0770069999999
 20
-998.4178819999998
 30
0.0
 11
-606.0770069999999
 21
-1001.146654
 31
0.0
  0
ARC
  5
2E5
  8
DATA
  6
CONTINUOUS
 62
     7
 10
-602.0562689999997
 20
-1001.183442
 30
0.0
 40
1.186479004611853
 50
269.7118487927481
 51
1.775987005702973
  0
ARC
  5
2E6
  8
DATA
  6
CONTINUOUS
 62
     7
 10
-602.0682200000001
 20
-1001.183442
 30
0.0
 40
1.18647293768086
 50
178.2240129943109
 51
270.2881512072458
  0
ARC
  5
2E7
  8
DATA
  6
CONTINUOUS
 62
     7
 10
-604.0957589999998
 20
-1001.050553
 30
0.0
 40
1.98356035389928
 50
182.7769954499966
 51
207.3596066671361
  0
CIRCLE
  5
2E8
  8
DATA
  6
CONTINUOUS
 62
     7
 10
-604.430319
 20
-995.1559050000002
 30
0.0
 40
1.615305999999691
  0
LINE
  5
2E9
  8
DATA
  6
CONTINUOUS
 62
     7
 10
-576.8445549999997
 20
-1003.749983
 30
0.0
 11
-585.3445549999997
 21
-1003.749983
 31
0.0
  0
LINE
  5
2EA
  8
DATA
  6
CONTINUOUS
 62
     7
 10
-576.8445549999997
 20
-1003.749983
 30
0.0
 11
-576.8445549999997
 21
-998.417865
 31
0.0
  0
LINE
  5
2EB
  8
DATA
  6
CONTINUOUS
 62
     7
 10
-576.8445549999997
 20
-998.4178819999998
 30
0.0
 11
-579.6987870000003
 21
-998.4178819999998
 31
0.0
  0
LINE
  5
2EC
  8
DATA
  6
CONTINUOUS
 62
     7
 10
-579.6987870000003
 20
-998.4178819999998
 30
0.0
 11
-579.6987870000003
 21
-1001.146654
 31
0.0
  0
LINE
  5
2ED
  8
DATA
  6
CONTINUOUS
 62
     7
 10
-596.1028349999997
 20
-1003.749983
 30
0.0
 11
-590.1434509999999
 21
-1003.749966
 31
0.0
  0
LINE
  5
2EE
  8
DATA
  6
CONTINUOUS
 62
     7
 10
-593.248603
 20
-1002.150351
 30
0.0
 11
-591.7117010000002
 21
-1002.150351
 31
0.0
  0
LINE
  5
2EF
  8
DATA
  6
CONTINUOUS
 62
     7
 10
-593.2485859999997
 20
-1002.150351
 30
0.0
 11
-593.2485859999997
 21
-995.4381730000001
 31
0.0
  0
LINE
  5
2F0
  8
DATA
  6
CONTINUOUS
 62
     7
 10
-593.248603
 20
-995.4381730000001
 30
0.0
 11
-591.7117010000002
 21
-995.4381730000001
 31
0.0
  0
LINE
  5
2F1
  8
DATA
  6
CONTINUOUS
 62
     7
 10
-590.1434509999999
 20
-1001.397591
 30
0.0
 11
-590.1434509999999
 21
-996.190933
 31
0.0
  0
ARC
  5
2F2
  8
DATA
  6
CONTINUOUS
 62
     7
 10
-599.71508
 20
-1001.050553
 30
0.0
 40
1.983557531370684
 50
332.6403933328509
 51
357.2230045500037
  0
ARC
  5
2F3
  8
DATA
  6
CONTINUOUS
 62
     7
 10
-580.8847070000002
 20
-1001.183442
 30
0.0
 40
1.186479004611853
 50
269.7118487927481
 51
1.775987005702973
  0
ARC
  5
2F4
  8
DATA
  6
CONTINUOUS
 62
     7
 10
-580.8966410000003
 20
-1001.183442
 30
0.0
 40
1.18647293768086
 50
178.2240129943109
 51
270.2881512072458
  0
LINE
  5
2F5
  8
DATA
  6
CONTINUOUS
 62
     7
 10
-587.1323769999999
 20
-1001.021194
 30
0.0
 11
-587.1323769999999
 21
-996.5046000000003
 31
0.0
  0
LINE
  5
2F6
  8
DATA
  6
CONTINUOUS
 62
     7
 10
-593.248603
 20
-993.8071929999998
 30
0.0
 11
-591.7117010000002
 21
-993.8071929999998
 31
0.0
  0
LINE
  5
2F7
  8
DATA
  6
CONTINUOUS
 62
     7
 10
-600.8703660000001
 20
-986.7500000000001
 30
0.0
 11
-597.7338319999999
 21
-986.7500000000001
 31
0.0
  0
LINE
  5
2F8
  8
DATA
  6
CONTINUOUS
 62
     7
 10
-607.1120689999998
 20
-986.7500000000001
 30
0.0
 11
-602.062253
 21
-986.7500000000001
 31
0.0
  0
LINE
  5
2F9
  8
DATA
  6
CONTINUOUS
 62
     7
 10
-585.3445549999997
 20
-986.7500000000001
 30
0.0
 11
-582.0825610000002
 21
-986.7500000000001
 31
0.0
  0
LINE
  5
2FA
  8
DATA
  6
CONTINUOUS
 62
     7
 10
-596.1028349999997
 20
-986.7500000000001
 30
0.0
 11
-590.1106917821508
 21
-986.7500137593589
 31
0.0
  0
LINE
  5
2FB
  8
DATA
  6
CONTINUOUS
 62
     7
 10
-593.248603
 20
-988.349632
 30
0.0
 11
-591.7117010000002
 21
-988.349632
 31
0.0
  0
ARC
  5
2FC
  8
DATA
  6
CONTINUOUS
 62
     7
 10
-591.6935527135747
 20
-999.169081467002
 30
0.0
 40
2.981324770749005
 50
269.6512199376178
 51
282.8264828068778
  0
ARC
  5
2FD
  8
DATA
  6
CONTINUOUS
 62
     7
 10
-591.3587027533067
 20
-1000.429526529086
 30
0.0
 40
1.678644436278448
 50
281.2331036226653
 51
306.8620088940745
  0
ARC
  5
2FE
  8
DATA
  6
CONTINUOUS
 62
     7
 10
-590.6826716819251
 20
-996.2450678768502
 30
0.0
 40
0.5419312951910068
 50
5.73298071064174
 51
52.3580975024632
  0
ARC
  5
2FF
  8
DATA
  6
CONTINUOUS
 62
     7
 10
-591.6935527135747
 20
-998.419442532998
 30
0.0
 40
2.98132477074929
 50
77.17351719312218
 51
90.34878006238218
  0
ARC
  5
300
  8
DATA
  6
CONTINUOUS
 62
     7
 10
-591.3587027533067
 20
-997.1589974709142
 30
0.0
 40
1.678644436278803
 50
53.13799110592557
 51
78.76689637733772
  0
ARC
  5
301
  8
DATA
  6
CONTINUOUS
 62
     7
 10
-588.7774330000002
 20
-996.615797
 30
0.0
 40
1.648809878653664
 50
3.867006359811572
 51
88.36163456790166
  0
ARC
  5
302
  8
DATA
  6
CONTINUOUS
 62
     7
 10
-588.7789460000004
 20
-993.3179330000004
 30
0.0
 40
1.650448297910429
 50
271.6892821046548
 51
356.0782829826637
  0
ARC
  5
303
  8
DATA
  6
CONTINUOUS
 62
     7
 10
-590.6826716819251
 20
-993.0002981231502
 30
0.0
 40
0.5419312951913328
 50
307.6419024975662
 51
354.2670192894061
  0
ARC
  5
304
  8
DATA
  6
CONTINUOUS
 62
     7
 10
-591.6935527135747
 20
-990.8259234670023
 30
0.0
 40
2.981324770748551
 50
269.6512199376178
 51
282.8264828068798
  0
ARC
  5
305
  8
DATA
  6
CONTINUOUS
 62
     7
 10
-591.3587027533067
 20
-992.0863685290861
 30
0.0
 40
1.678644436278448
 50
281.2331036226653
 51
306.8620088940745
  0
ARC
  5
306
  8
DATA
  6
CONTINUOUS
 62
     7
 10
-590.6826716819251
 20
-989.1565268768501
 30
0.0
 40
0.5419312951910068
 50
5.73298071064174
 51
52.35809750243385
  0
ARC
  5
307
  8
DATA
  6
CONTINUOUS
 62
     7
 10
-591.6935527135747
 20
-991.3309015329979
 30
0.0
 40
2.98132477074929
 50
77.17351719312218
 51
90.34878006238218
  0
ARC
  5
308
  8
DATA
  6
CONTINUOUS
 62
     7
 10
-591.3587027533067
 20
-990.0704564709141
 30
0.0
 40
1.678644436279167
 50
53.13799110593488
 51
78.76689637733772
  0
LINE
  5
309
  8
DATA
  6
CONTINUOUS
 62
     7
 10
-814.5
 20
-695.2500000000001
 30
0.0
 11
-814.5
 21
-1304.75
 31
0.0
  0
ARC
  5
30A
  8
DATA
  6
CONTINUOUS
 62
     7
 10
-840.0
 20
-676.2500000000001
 30
0.0
 40
10.0
 50
90.0
 51
179.9999999999987
  0
LINE
  5
30B
  8
DATA
  6
CONTINUOUS
 62
     7
 10
-850.0
 20
-1323.75
 30
0.0
 11
-850.0
 21
-676.2499999999999
 31
0.0
  0
ARC
  5
30C
  8
DATA
  6
CONTINUOUS
 62
     7
 10
-839.9999999999998
 20
-1323.75
 30
0.0
 40
10.00000000000023
 50
180.0
 51
269.9999999999987
  0
ARC
  5
30D
  8
DATA
  6
CONTINUOUS
 62
     7
 10
-272.5
 20
-676.2500000000001
 30
0.0
 40
10.0
 50
0.0
 51
90.0
  0
LINE
  5
30E
  8
DATA
  6
CONTINUOUS
 62
     7
 10
-824.5
 20
-1314.75
 30
0.0
 11
-900.0
 21
-1314.75
 31
0.0
  0
LINE
  5
30F
  8
DATA
  6
CONTINUOUS
 62
     7
 10
-900.0
 20
-685.2500000000001
 30
0.0
 11
-824.5
 21
-685.2500000000001
 31
0.0
  0
ARC
  5
310
  8
DATA
  6
CONTINUOUS
 62
     7
 10
-272.5
 20
-1323.75
 30
0.0
 40
10.0
 50
270.0
 51
0.0
  0
ARC
  5
311
  8
DATA
  6
CONTINUOUS
 62
     7
 10
-824.5
 20
-695.2500000000001
 30
0.0
 40
10.0
 50
0.0
 51
90.0
  0
ARC
  5
312
  8
DATA
  6
CONTINUOUS
 62
     7
 10
-824.5
 20
-1304.75
 30
0.0
 40
10.0
 50
270.0
 51
0.0
  0
ARC
  5
313
  8
DATA
  6
CONTINUOUS
 62
     7
 10
-819.5000000001014
 20
-998.3022356198219
 30
0.0
 40
0.2222356198217773
 50
356.8251528743749
 51
183.1748471256251
  0
ARC
  5
314
  8
DATA
  6
CONTINUOUS
 62
     7
 10
-820.53518391598
 20
-998.2070088624198
 30
0.0
 40
0.8203678318443084
 50
247.5320803524656
 51
352.4679196225376
  0
ARC
  5
315
  8
DATA
  6
CONTINUOUS
 62
     7
 10
-820.9703070829761
 20
-999.151117809911
 30
0.0
 40
0.2222356198218802
 50
56.8251528744028
 51
243.1748471255815
  0
ARC
  5
316
  8
DATA
  6
CONTINUOUS
 62
     7
 10
-821.5703678319456
 20
-999.99999999995
 30
0.0
 40
0.8203678318442412
 50
307.5320803524727
 51
52.46791962254932
  0
ARC
  5
317
  8
DATA
  6
CONTINUOUS
 62
     7
 10
-819.5000000001014
 20
-1001.697764380179
 30
0.0
 40
0.2222356198217773
 50
176.8251528743749
 51
3.174847125625149
  0
ARC
  5
318
  8
DATA
  6
CONTINUOUS
 62
     7
 10
-820.53518391598
 20
-1001.792991137581
 30
0.0
 40
0.8203678318443105
 50
7.532080377462396
 51
112.4679196475343
  0
ARC
  5
319
  8
DATA
  6
CONTINUOUS
 62
     7
 10
-820.9703070829761
 20
-1000.848882190089
 30
0.0
 40
0.2222356198217709
 50
116.8251528744185
 51
303.1748471255972
  0
ARC
  5
31A
  8
DATA
  6
CONTINUOUS
 62
     7
 10
-818.4648160842229
 20
-998.2070088624198
 30
0.0
 40
0.8203678318441977
 50
187.5320803774634
 51
292.467919647527
  0
ARC
  5
31B
  8
DATA
  6
CONTINUOUS
 62
     7
 10
-818.0296929172268
 20
-999.151117809911
 30
0.0
 40
0.2222356198217709
 50
296.8251528744185
 51
123.1748471255972
  0
ARC
  5
31C
  8
DATA
  6
CONTINUOUS
 62
     7
 10
-817.4296321682573
 20
-999.99999999995
 30
0.0
 40
0.8203678318443044
 50
127.5320803774507
 51
232.4679196475335
  0
ARC
  5
31D
  8
DATA
  6
CONTINUOUS
 62
     7
 10
-818.4648160842229
 20
-1001.792991137581
 30
0.0
 40
0.820367831844265
 50
67.532080352473
 51
172.4679196225366
  0
ARC
  5
31E
  8
DATA
  6
CONTINUOUS
 62
     7
 10
-818.0296929172268
 20
-1000.848882190089
 30
0.0
 40
0.2222356198218802
 50
236.8251528744028
 51
63.17484712558153
  0
CIRCLE
  5
31F
  8
DATA
  6
CONTINUOUS
 62
     7
 10
-819.5
 20
-1000.0
 30
0.0
 40
4.25
  0
ARC
  5
320
  8
DATA
  6
CONTINUOUS
 62
     7
 10
-819.5000000001014
 20
-711.3022356198218
 30
0.0
 40
0.2222356198217773
 50
356.8251528743749
 51
183.1748471256251
  0
ARC
  5
321
  8
DATA
  6
CONTINUOUS
 62
     7
 10
-820.53518391598
 20
-711.2070088624197
 30
0.0
 40
0.8203678318443084
 50
247.5320803524656
 51
352.4679196225376
  0
ARC
  5
322
  8
DATA
  6
CONTINUOUS
 62
     7
 10
-820.9703070829761
 20
-712.1511178099109
 30
0.0
 40
0.2222356198218802
 50
56.8251528744028
 51
243.1748471255815
  0
ARC
  5
323
  8
DATA
  6
CONTINUOUS
 62
     7
 10
-821.5703678319456
 20
-712.9999999999499
 30
0.0
 40
0.8203678318442412
 50
307.5320803524727
 51
52.46791962254932
  0
ARC
  5
324
  8
DATA
  6
CONTINUOUS
 62
     7
 10
-819.5000000001014
 20
-714.6977643801785
 30
0.0
 40
0.2222356198217773
 50
176.8251528743749
 51
3.174847125625149
  0
ARC
  5
325
  8
DATA
  6
CONTINUOUS
 62
     7
 10
-820.53518391598
 20
-714.7929911375805
 30
0.0
 40
0.8203678318443105
 50
7.532080377462396
 51
112.4679196475343
  0
ARC
  5
326
  8
DATA
  6
CONTINUOUS
 62
     7
 10
-820.9703070829761
 20
-713.8488821900893
 30
0.0
 40
0.2222356198217709
 50
116.8251528744185
 51
303.1748471255972
  0
ARC
  5
327
  8
DATA
  6
CONTINUOUS
 62
     7
 10
-818.4648160842229
 20
-711.2070088624197
 30
0.0
 40
0.8203678318441977
 50
187.5320803774634
 51
292.467919647527
  0
ARC
  5
328
  8
DATA
  6
CONTINUOUS
 62
     7
 10
-818.0296929172268
 20
-712.1511178099109
 30
0.0
 40
0.2222356198217709
 50
296.8251528744185
 51
123.1748471255972
  0
ARC
  5
329
  8
DATA
  6
CONTINUOUS
 62
     7
 10
-817.4296321682573
 20
-712.9999999999499
 30
0.0
 40
0.8203678318443044
 50
127.5320803774507
 51
232.4679196475335
  0
ARC
  5
32A
  8
DATA
  6
CONTINUOUS
 62
     7
 10
-818.4648160842229
 20
-714.7929911375805
 30
0.0
 40
0.820367831844265
 50
67.532080352473
 51
172.4679196225366
  0
ARC
  5
32B
  8
DATA
  6
CONTINUOUS
 62
     7
 10
-818.0296929172268
 20
-713.8488821900893
 30
0.0
 40
0.2222356198218802
 50
236.8251528744028
 51
63.17484712558153
  0
CIRCLE
  5
32C
  8
DATA
  6
CONTINUOUS
 62
     7
 10
-819.5
 20
-713.0000000000001
 30
0.0
 40
4.25
  0
ARC
  5
32D
  8
DATA
  6
CONTINUOUS
 62
     7
 10
-819.5000000001014
 20
-1285.302235619822
 30
0.0
 40
0.2222356198217773
 50
356.8251528743749
 51
183.1748471256251
  0
ARC
  5
32E
  8
DATA
  6
CONTINUOUS
 62
     7
 10
-820.53518391598
 20
-1285.20700886242
 30
0.0
 40
0.8203678318445186
 50
247.5320803524717
 51
352.4679196225376
  0
ARC
  5
32F
  8
DATA
  6
CONTINUOUS
 62
     7
 10
-820.9703070829761
 20
-1286.151117809911
 30
0.0
 40
0.2222356198216899
 50
56.82515287437072
 51
243.1748471255815
  0
ARC
  5
330
  8
DATA
  6
CONTINUOUS
 62
     7
 10
-821.5703678319456
 20
-1286.99999999995
 30
0.0
 40
0.8203678318440609
 50
307.5320803524825
 51
52.46791962255904
  0
ARC
  5
331
  8
DATA
  6
CONTINUOUS
 62
     7
 10
-819.5000000001014
 20
-1288.697764380178
 30
0.0
 40
0.2222356198217773
 50
176.8251528743749
 51
3.174847125625149
  0
ARC
  5
332
  8
DATA
  6
CONTINUOUS
 62
     7
 10
-820.53518391598
 20
-1288.79299113758
 30
0.0
 40
0.8203678318443105
 50
7.532080377462396
 51
112.4679196475404
  0
ARC
  5
333
  8
DATA
  6
CONTINUOUS
 62
     7
 10
-820.9703070829761
 20
-1287.848882190089
 30
0.0
 40
0.2222356198217709
 50
116.8251528744185
 51
303.1748471255651
  0
ARC
  5
334
  8
DATA
  6
CONTINUOUS
 62
     7
 10
-818.4648160842229
 20
-1285.20700886242
 30
0.0
 40
0.8203678318441977
 50
187.5320803774634
 51
292.4679196475209
  0
ARC
  5
335
  8
DATA
  6
CONTINUOUS
 62
     7
 10
-818.0296929172268
 20
-1286.151117809911
 30
0.0
 40
0.2222356198217709
 50
296.8251528744185
 51
123.1748471256293
  0
ARC
  5
336
  8
DATA
  6
CONTINUOUS
 62
     7
 10
-817.4296321682573
 20
-1286.99999999995
 30
0.0
 40
0.8203678318444848
 50
127.532080377441
 51
232.4679196475238
  0
ARC
  5
337
  8
DATA
  6
CONTINUOUS
 62
     7
 10
-818.4648160842229
 20
-1288.79299113758
 30
0.0
 40
0.8203678318440548
 50
67.53208035246693
 51
172.4679196225366
  0
ARC
  5
338
  8
DATA
  6
CONTINUOUS
 62
     7
 10
-818.0296929172268
 20
-1287.848882190089
 30
0.0
 40
0.2222356198220705
 50
236.8251528744349
 51
63.17484712558153
  0
CIRCLE
  5
339
  8
DATA
  6
CONTINUOUS
 62
     7
 10
-819.5
 20
-1287.0
 30
0.0
 40
4.25
  0
ARC
  5
33A
  8
DATA
  6
CONTINUOUS
 62
     7
 10
-819.5000000001014
 20
-1141.802235619822
 30
0.0
 40
0.2222356198217773
 50
356.8251528743749
 51
183.1748471256251
  0
ARC
  5
33B
  8
DATA
  6
CONTINUOUS
 62
     7
 10
-820.53518391598
 20
-1141.70700886242
 30
0.0
 40
0.8203678318445186
 50
247.5320803524717
 51
352.4679196225376
  0
ARC
  5
33C
  8
DATA
  6
CONTINUOUS
 62
     7
 10
-820.9703070829761
 20
-1142.651117809911
 30
0.0
 40
0.2222356198216899
 50
56.82515287437072
 51
243.1748471255815
  0
ARC
  5
33D
  8
DATA
  6
CONTINUOUS
 62
     7
 10
-821.5703678319456
 20
-1143.49999999995
 30
0.0
 40
0.8203678318440609
 50
307.5320803524825
 51
52.46791962255904
  0
ARC
  5
33E
  8
DATA
  6
CONTINUOUS
 62
     7
 10
-819.5000000001014
 20
-1145.197764380178
 30
0.0
 40
0.2222356198217773
 50
176.8251528743749
 51
3.174847125625149
  0
ARC
  5
33F
  8
DATA
  6
CONTINUOUS
 62
     7
 10
-820.53518391598
 20
-1145.29299113758
 30
0.0
 40
0.8203678318443105
 50
7.532080377462396
 51
112.4679196475404
  0
ARC
  5
340
  8
DATA
  6
CONTINUOUS
 62
     7
 10
-820.9703070829761
 20
-1144.348882190089
 30
0.0
 40
0.2222356198217709
 50
116.8251528744185
 51
303.1748471255651
  0
ARC
  5
341
  8
DATA
  6
CONTINUOUS
 62
     7
 10
-818.4648160842229
 20
-1141.70700886242
 30
0.0
 40
0.8203678318441977
 50
187.5320803774634
 51
292.4679196475209
  0
ARC
  5
342
  8
DATA
  6
CONTINUOUS
 62
     7
 10
-818.0296929172268
 20
-1142.651117809911
 30
0.0
 40
0.2222356198217709
 50
296.8251528744185
 51
123.1748471256293
  0
ARC
  5
343
  8
DATA
  6
CONTINUOUS
 62
     7
 10
-817.4296321682573
 20
-1143.49999999995
 30
0.0
 40
0.8203678318444848
 50
127.532080377441
 51
232.4679196475238
  0
ARC
  5
344
  8
DATA
  6
CONTINUOUS
 62
     7
 10
-818.4648160842229
 20
-1145.29299113758
 30
0.0
 40
0.8203678318440548
 50
67.53208035246693
 51
172.4679196225366
  0
ARC
  5
345
  8
DATA
  6
CONTINUOUS
 62
     7
 10
-818.0296929172268
 20
-1144.348882190089
 30
0.0
 40
0.2222356198220705
 50
236.8251528744349
 51
63.17484712558153
  0
CIRCLE
  5
346
  8
DATA
  6
CONTINUOUS
 62
     7
 10
-819.5
 20
-1143.5
 30
0.0
 40
4.25
  0
ARC
  5
347
  8
DATA
  6
CONTINUOUS
 62
     7
 10
-819.5000000001014
 20
-854.8022356198218
 30
0.0
 40
0.2222356198217773
 50
356.8251528743749
 51
183.1748471256251
  0
ARC
  5
348
  8
DATA
  6
CONTINUOUS
 62
     7
 10
-820.53518391598
 20
-854.7070088624197
 30
0.0
 40
0.8203678318443084
 50
247.5320803524656
 51
352.4679196225376
  0
ARC
  5
349
  8
DATA
  6
CONTINUOUS
 62
     7
 10
-820.9703070829761
 20
-855.6511178099109
 30
0.0
 40
0.2222356198218802
 50
56.8251528744028
 51
243.1748471255815
  0
ARC
  5
34A
  8
DATA
  6
CONTINUOUS
 62
     7
 10
-821.5703678319456
 20
-856.4999999999499
 30
0.0
 40
0.8203678318442412
 50
307.5320803524727
 51
52.46791962254932
  0
ARC
  5
34B
  8
DATA
  6
CONTINUOUS
 62
     7
 10
-819.5000000001014
 20
-858.1977643801785
 30
0.0
 40
0.2222356198217773
 50
176.8251528743749
 51
3.174847125625149
  0
ARC
  5
34C
  8
DATA
  6
CONTINUOUS
 62
     7
 10
-820.53518391598
 20
-858.2929911375805
 30
0.0
 40
0.8203678318443105
 50
7.532080377462396
 51
112.4679196475343
  0
ARC
  5
34D
  8
DATA
  6
CONTINUOUS
 62
     7
 10
-820.9703070829761
 20
-857.3488821900893
 30
0.0
 40
0.2222356198217709
 50
116.8251528744185
 51
303.1748471255972
  0
ARC
  5
34E
  8
DATA
  6
CONTINUOUS
 62
     7
 10
-818.4648160842229
 20
-854.7070088624197
 30
0.0
 40
0.8203678318441977
 50
187.5320803774634
 51
292.467919647527
  0
ARC
  5
34F
  8
DATA
  6
CONTINUOUS
 62
     7
 10
-818.0296929172268
 20
-855.6511178099109
 30
0.0
 40
0.2222356198217709
 50
296.8251528744185
 51
123.1748471255972
  0
ARC
  5
350
  8
DATA
  6
CONTINUOUS
 62
     7
 10
-817.4296321682573
 20
-856.4999999999499
 30
0.0
 40
0.8203678318443044
 50
127.5320803774507
 51
232.4679196475335
  0
ARC
  5
351
  8
DATA
  6
CONTINUOUS
 62
     7
 10
-818.4648160842229
 20
-858.2929911375805
 30
0.0
 40
0.820367831844265
 50
67.532080352473
 51
172.4679196225366
  0
ARC
  5
352
  8
DATA
  6
CONTINUOUS
 62
     7
 10
-818.0296929172268
 20
-857.3488821900893
 30
0.0
 40
0.2222356198218802
 50
236.8251528744028
 51
63.17484712558153
  0
CIRCLE
  5
353
  8
DATA
  6
CONTINUOUS
 62
     7
 10
-819.5
 20
-856.5000000000001
 30
0.0
 40
4.25
  0
ARC
  5
354
  8
DATA
  6
CONTINUOUS
 62
     7
 10
-1564.756066017178
 20
-2056.256066017178
 30
0.0
 40
12.65000000000024
 50
134.9999999999993
 51
315.0000000000007
  0
ARC
  5
355
  8
DATA
  6
CONTINUOUS
 62
     7
 10
-1537.956719010208
 20
-2029.456719010208
 30
0.0
 40
12.6500000000004
 50
314.9999999999985
 51
135.0000000000007
  0
LINE
  5
356
  8
DATA
  6
CONTINUOUS
 62
     7
 10
-1546.901619792218
 20
-2020.511818228198
 30
0.0
 11
-1573.700966799188
 21
-2047.311165235168
 31
0.0
  0
LINE
  5
357
  8
DATA
  6
CONTINUOUS
 62
     7
 10
-1555.811165235168
 20
-2065.200966799188
 30
0.0
 11
-1529.011818228199
 21
-2038.401619792218
 31
0.0
  0
ARC
  5
358
  8
DATA
  6
CONTINUOUS
 62
     7
 10
-1537.567810280556
 20
-2029.067810280556
 30
0.0
 40
10.00000000000104
 50
314.9999999999963
 51
135.0000000000055
  0
ARC
  5
359
  8
DATA
  6
CONTINUOUS
 62
     7
 10
-1565.14497474683
 20
-2056.64497474683
 30
0.0
 40
10.00000000000024
 50
134.9999999999991
 51
315.0
  0
LINE
  5
35A
  8
DATA
  6
CONTINUOUS
 62
     7
 10
-1544.638878092424
 20
-2021.99674246869
 30
0.0
 11
-1572.216042558696
 21
-2049.573906934965
 31
0.0
  0
LINE
  5
35B
  8
DATA
  6
CONTINUOUS
 62
     7
 10
-1558.073906934965
 20
-2063.716042558696
 30
0.0
 11
-1530.496742468691
 21
-2036.138878092422
 31
0.0
  0
CIRCLE
  5
35C
  8
DATA
  6
CONTINUOUS
 62
     7
 10
-1564.437867965644
 20
-2055.937867965644
 30
0.0
 40
5.5
  0
CIRCLE
  5
35D
  8
DATA
  6
CONTINUOUS
 62
     7
 10
-1564.437867965644
 20
-2055.937867965644
 30
0.0
 40
4.0
  0
LINE
  5
35E
  8
DATA
  6
CONTINUOUS
 62
     7
 10
-1566.937867965644
 20
-2055.937867965644
 30
0.0
 11
-1561.937867965644
 21
-2055.937867965644
 31
0.0
  0
LINE
  5
35F
  8
DATA
  6
CONTINUOUS
 62
     7
 10
-1564.437867965644
 20
-2058.437867965644
 30
0.0
 11
-1564.437867965644
 21
-2053.437867965644
 31
0.0
  0
CIRCLE
  5
360
  8
DATA
  6
CONTINUOUS
 62
     7
 10
-1538.274917061742
 20
-2029.774917061742
 30
0.0
 40
5.5
  0
CIRCLE
  5
361
  8
DATA
  6
CONTINUOUS
 62
     7
 10
-1538.274917061742
 20
-2029.774917061742
 30
0.0
 40
4.0
  0
LINE
  5
362
  8
DATA
  6
CONTINUOUS
 62
     7
 10
-1540.774917061742
 20
-2029.774917061742
 30
0.0
 11
-1535.774917061742
 21
-2029.774917061742
 31
0.0
  0
LINE
  5
363
  8
DATA
  6
CONTINUOUS
 62
     7
 10
-1538.274917061742
 20
-2032.274917061742
 30
0.0
 11
-1538.274917061742
 21
-2027.274917061742
 31
0.0
  0
ARC
  5
364
  8
DATA
  6
CONTINUOUS
 62
     7
 10
-1035.243933982822
 20
-2056.256066017178
 30
0.0
 40
12.6499999999996
 50
224.9999999999993
 51
45.00000000000074
  0
ARC
  5
365
  8
DATA
  6
CONTINUOUS
 62
     7
 10
-1062.043280989792
 20
-2029.456719010208
 30
0.0
 40
12.6499999999996
 50
44.99999999999928
 51
225.0000000000015
  0
LINE
  5
366
  8
DATA
  6
CONTINUOUS
 62
     7
 10
-1053.098380207782
 20
-2020.511818228198
 30
0.0
 11
-1026.299033200812
 21
-2047.311165235168
 31
0.0
  0
LINE
  5
367
  8
DATA
  6
CONTINUOUS
 62
     7
 10
-1044.188834764832
 20
-2065.200966799188
 30
0.0
 11
-1070.988181771801
 21
-2038.401619792218
 31
0.0
  0
ARC
  5
368
  8
DATA
  6
CONTINUOUS
 62
     7
 10
-1062.432189719444
 20
-2029.067810280556
 30
0.0
 40
10.00000000000137
 50
44.99999999999447
 51
225.0000000000037
  0
ARC
  5
369
  8
DATA
  6
CONTINUOUS
 62
     7
 10
-1034.85502525317
 20
-2056.64497474683
 30
0.0
 40
10.0000000000004
 50
225.0
 51
45.00000000000091
  0
LINE
  5
36A
  8
DATA
  6
CONTINUOUS
 62
     7
 10
-1055.361121907576
 20
-2021.99674246869
 30
0.0
 11
-1027.783957441304
 21
-2049.573906934965
 31
0.0
  0
LINE
  5
36B
  8
DATA
  6
CONTINUOUS
 62
     7
 10
-1041.926093065035
 20
-2063.716042558696
 30
0.0
 11
-1069.503257531309
 21
-2036.138878092422
 31
0.0
  0
CIRCLE
  5
36C
  8
DATA
  6
CONTINUOUS
 62
     7
 10
-1035.562132034356
 20
-2055.937867965644
 30
0.0
 40
5.5
  0
CIRCLE
  5
36D
  8
DATA
  6
CONTINUOUS
 62
     7
 10
-1035.562132034356
 20
-2055.937867965644
 30
0.0
 40
4.0
  0
LINE
  5
36E
  8
DATA
  6
CONTINUOUS
 62
     7
 10
-1033.062132034356
 20
-2055.937867965644
 30
0.0
 11
-1038.062132034356
 21
-2055.937867965644
 31
0.0
  0
LINE
  5
36F
  8
DATA
  6
CONTINUOUS
 62
     7
 10
-1035.562132034356
 20
-2058.437867965644
 30
0.0
 11
-1035.562132034356
 21
-2053.437867965644
 31
0.0
  0
CIRCLE
  5
370
  8
DATA
  6
CONTINUOUS
 62
     7
 10
-1061.725082938258
 20
-2029.774917061742
 30
0.0
 40
5.5
  0
CIRCLE
  5
371
  8
DATA
  6
CONTINUOUS
 62
     7
 10
-1061.725082938258
 20
-2029.774917061742
 30
0.0
 40
4.0
  0
LINE
  5
372
  8
DATA
  6
CONTINUOUS
 62
     7
 10
-1059.225082938258
 20
-2029.774917061742
 30
0.0
 11
-1064.225082938258
 21
-2029.774917061742
 31
0.0
  0
LINE
  5
373
  8
DATA
  6
CONTINUOUS
 62
     7
 10
-1061.725082938258
 20
-2032.274917061742
 30
0.0
 11
-1061.725082938258
 21
-2027.274917061742
 31
0.0
  0
ARC
  5
374
  8
DATA
  6
CONTINUOUS
 62
     7
 10
-1564.756066017178
 20
-1578.743933982821
 30
0.0
 40
12.64999999999992
 50
45.00000000000073
 51
225.0
  0
ARC
  5
375
  8
DATA
  6
CONTINUOUS
 62
     7
 10
-1537.956719010208
 20
-1605.543280989792
 30
0.0
 40
12.6499999999996
 50
224.9999999999993
 51
45.00000000000145
  0
LINE
  5
376
  8
DATA
  6
CONTINUOUS
 62
     7
 10
-1546.901619792218
 20
-1614.488181771801
 30
0.0
 11
-1573.700966799188
 21
-1587.688834764831
 31
0.0
  0
LINE
  5
377
  8
DATA
  6
CONTINUOUS
 62
     7
 10
-1555.811165235168
 20
-1569.799033200811
 30
0.0
 11
-1529.011818228199
 21
-1596.598380207781
 31
0.0
  0
ARC
  5
378
  8
DATA
  6
CONTINUOUS
 62
     7
 10
-1537.567810280556
 20
-1605.932189719444
 30
0.0
 40
10.00000000000137
 50
224.9999999999945
 51
45.00000000000369
  0
ARC
  5
379
  8
DATA
  6
CONTINUOUS
 62
     7
 10
-1565.14497474683
 20
-1578.355025253169
 30
0.0
 40
10.0000000000004
 50
45.0
 51
225.0000000000009
  0
LINE
  5
37A
  8
DATA
  6
CONTINUOUS
 62
     7
 10
-1544.638878092424
 20
-1613.00325753131
 30
0.0
 11
-1572.216042558696
 21
-1585.426093065035
 31
0.0
  0
LINE
  5
37B
  8
DATA
  6
CONTINUOUS
 62
     7
 10
-1558.073906934965
 20
-1571.283957441304
 30
0.0
 11
-1530.496742468691
 21
-1598.861121907577
 31
0.0
  0
CIRCLE
  5
37C
  8
DATA
  6
CONTINUOUS
 62
     7
 10
-1564.437867965644
 20
-1579.062132034355
 30
0.0
 40
5.5
  0
CIRCLE
  5
37D
  8
DATA
  6
CONTINUOUS
 62
     7
 10
-1564.437867965644
 20
-1579.062132034355
 30
0.0
 40
4.0
  0
LINE
  5
37E
  8
DATA
  6
CONTINUOUS
 62
     7
 10
-1566.937867965644
 20
-1579.062132034355
 30
0.0
 11
-1561.937867965644
 21
-1579.062132034355
 31
0.0
  0
LINE
  5
37F
  8
DATA
  6
CONTINUOUS
 62
     7
 10
-1564.437867965644
 20
-1576.562132034355
 30
0.0
 11
-1564.437867965644
 21
-1581.562132034355
 31
0.0
  0
CIRCLE
  5
380
  8
DATA
  6
CONTINUOUS
 62
     7
 10
-1538.274917061742
 20
-1605.225082938258
 30
0.0
 40
5.5
  0
CIRCLE
  5
381
  8
DATA
  6
CONTINUOUS
 62
     7
 10
-1538.274917061742
 20
-1605.225082938258
 30
0.0
 40
4.0
  0
LINE
  5
382
  8
DATA
  6
CONTINUOUS
 62
     7
 10
-1540.774917061742
 20
-1605.225082938258
 30
0.0
 11
-1535.774917061742
 21
-1605.225082938258
 31
0.0
  0
LINE
  5
383
  8
DATA
  6
CONTINUOUS
 62
     7
 10
-1538.274917061742
 20
-1602.725082938258
 30
0.0
 11
-1538.274917061742
 21
-1607.725082938258
 31
0.0
  0
ARC
  5
384
  8
DATA
  6
CONTINUOUS
 62
     7
 10
-1035.243933982822
 20
-1578.743933982821
 30
0.0
 40
12.65000000000008
 50
315.0
 51
134.9999999999993
  0
ARC
  5
385
  8
DATA
  6
CONTINUOUS
 62
     7
 10
-1062.043280989792
 20
-1605.543280989792
 30
0.0
 40
12.6500000000004
 50
134.9999999999986
 51
315.0000000000007
  0
LINE
  5
386
  8
DATA
  6
CONTINUOUS
 62
     7
 10
-1053.098380207782
 20
-1614.488181771801
 30
0.0
 11
-1026.299033200812
 21
-1587.688834764831
 31
0.0
  0
LINE
  5
387
  8
DATA
  6
CONTINUOUS
 62
     7
 10
-1044.188834764832
 20
-1569.799033200811
 30
0.0
 11
-1070.988181771801
 21
-1596.598380207781
 31
0.0
  0
ARC
  5
388
  8
DATA
  6
CONTINUOUS
 62
     7
 10
-1062.432189719444
 20
-1605.932189719444
 30
0.0
 40
10.00000000000104
 50
134.9999999999963
 51
315.0000000000056
  0
ARC
  5
389
  8
DATA
  6
CONTINUOUS
 62
     7
 10
-1034.85502525317
 20
-1578.355025253169
 30
0.0
 40
10.00000000000024
 50
314.9999999999991
 51
135.0
  0
LINE
  5
38A
  8
DATA
  6
CONTINUOUS
 62
     7
 10
-1055.361121907576
 20
-1613.00325753131
 30
0.0
 11
-1027.783957441304
 21
-1585.426093065035
 31
0.0
  0
LINE
  5
38B
  8
DATA
  6
CONTINUOUS
 62
     7
 10
-1041.926093065035
 20
-1571.283957441304
 30
0.0
 11
-1069.503257531309
 21
-1598.861121907577
 31
0.0
  0
CIRCLE
  5
38C
  8
DATA
  6
CONTINUOUS
 62
     7
 10
-1035.562132034356
 20
-1579.062132034355
 30
0.0
 40
5.5
  0
CIRCLE
  5
38D
  8
DATA
  6
CONTINUOUS
 62
     7
 10
-1035.562132034356
 20
-1579.062132034355
 30
0.0
 40
4.0
  0
LINE
  5
38E
  8
DATA
  6
CONTINUOUS
 62
     7
 10
-1033.062132034356
 20
-1579.062132034355
 30
0.0
 11
-1038.062132034356
 21
-1579.062132034355
 31
0.0
  0
LINE
  5
38F
  8
DATA
  6
CONTINUOUS
 62
     7
 10
-1035.562132034356
 20
-1576.562132034355
 30
0.0
 11
-1035.562132034356
 21
-1581.562132034355
 31
0.0
  0
CIRCLE
  5
390
  8
DATA
  6
CONTINUOUS
 62
     7
 10
-1061.725082938258
 20
-1605.225082938258
 30
0.0
 40
5.5
  0
CIRCLE
  5
391
  8
DATA
  6
CONTINUOUS
 62
     7
 10
-1061.725082938258
 20
-1605.225082938258
 30
0.0
 40
4.0
  0
LINE
  5
392
  8
DATA
  6
CONTINUOUS
 62
     7
 10
-1059.225082938258
 20
-1605.225082938258
 30
0.0
 11
-1064.225082938258
 21
-1605.225082938258
 31
0.0
  0
LINE
  5
393
  8
DATA
  6
CONTINUOUS
 62
     7
 10
-1061.725082938258
 20
-1602.725082938258
 30
0.0
 11
-1061.725082938258
 21
-1607.725082938258
 31
0.0
  0
LINE
  5
394
  8
DATA
  6
CONTINUOUS
 62
     7
 10
-1565.14497474683
 20
-1578.355025253169
 30
0.0
 11
-1577.400086343008
 21
-1578.355025253169
 31
0.0
  0
LINE
  5
395
  8
DATA
  6
CONTINUOUS
 62
     7
 10
-1537.567810280556
 20
-1605.932189719444
 30
0.0
 11
-1525.312698684379
 21
-1605.932189719444
 31
0.0
  0
LINE
  5
396
  8
DATA
  6
CONTINUOUS
 62
     7
 10
-1575.144974746831
 20
-1339.45
 30
0.0
 11
-1577.400086343008
 21
-1333.75
 31
0.0
  0
LINE
  5
397
  8
DATA
  6
CONTINUOUS
 62
     7
 10
-1575.144974746831
 20
-1339.45
 30
0.0
 11
-1527.567810280555
 21
-1339.45
 31
0.0
  0
LINE
  5
398
  8
DATA
  6
CONTINUOUS
 62
     7
 10
-1527.567810280555
 20
-1339.45
 30
0.0
 11
-1525.312698684379
 21
-1333.75
 31
0.0
  0
LINE
  5
399
  8
DATA
  6
CONTINUOUS
 62
     7
 10
-1024.855025253169
 20
-1339.45
 30
0.0
 11
-1022.599913656992
 21
-1333.75
 31
0.0
  0
LINE
  5
39A
  8
DATA
  6
CONTINUOUS
 62
     7
 10
-1024.855025253169
 20
-1339.45
 30
0.0
 11
-1072.432189719445
 21
-1339.45
 31
0.0
  0
LINE
  5
39B
  8
DATA
  6
CONTINUOUS
 62
     7
 10
-1072.432189719445
 20
-1339.45
 30
0.0
 11
-1074.687301315621
 21
-1333.75
 31
0.0
  0
ARC
  5
39C
  8
DATA
  6
CONTINUOUS
 62
     7
 10
394.7499999999995
 20
-676.2500000000008
 30
0.0
 40
10.00000000000045
 50
0.0000000000026148
 51
89.99999999999744
  0
LINE
  5
39D
  8
DATA
  6
CONTINUOUS
 62
     7
 10
404.7500000000002
 20
-1323.75
 30
0.0
 11
404.75
 21
-676.2500000000003
 31
0.0
  0
ARC
  5
39E
  8
DATA
  6
CONTINUOUS
 62
     7
 10
394.7499999999982
 20
-1323.749999999998
 30
0.0
 40
10.00000000000182
 50
270.0000000000105
 51
359.9999999999896
  0
LINE
  5
39F
  8
DATA
  6
CONTINUOUS
 62
     7
 10
-194.75
 20
-1333.750000000001
 30
0.0
 11
394.75
 21
-1333.75
 31
0.0
  0
ARC
  5
3A0
  8
DATA
  6
CONTINUOUS
 62
     7
 10
-194.749999999999
 20
-1323.75
 30
0.0
 40
10.00000000000102
 50
180.0000000000052
 51
269.9999999999941
  0
LINE
  5
3A1
  8
DATA
  6
CONTINUOUS
 62
     7
 10
-204.75
 20
-676.2500000000003
 30
0.0
 11
-204.75
 21
-1323.750000000001
 31
0.0
  0
ARC
  5
3A2
  8
DATA
  6
CONTINUOUS
 62
     7
 10
-194.75
 20
-676.2500000000003
 30
0.0
 40
10.0
 50
90.00000000000065
 51
180.0
  0
LINE
  5
3A3
  8
DATA
  6
CONTINUOUS
 62
     7
 10
394.75
 20
-666.2500000000003
 30
0.0
 11
-194.7500000000001
 21
-666.2500000000003
 31
0.0
  0
LINE
  5
3A4
  8
DATA
  6
CONTINUOUS
 62
     7
 10
375.1449747468309
 20
-1339.450000000001
 30
0.0
 11
377.4000863430078
 21
-1333.75
 31
0.0
  0
LINE
  5
3A5
  8
DATA
  6
CONTINUOUS
 62
     7
 10
375.1449747468309
 20
-1339.450000000001
 30
0.0
 11
327.567810280555
 21
-1339.450000000001
 31
0.0
  0
LINE
  5
3A6
  8
DATA
  6
CONTINUOUS
 62
     7
 10
327.567810280555
 20
-1339.450000000001
 30
0.0
 11
325.3126986843788
 21
-1333.75
 31
0.0
  0
LINE
  5
3A7
  8
DATA
  6
CONTINUOUS
 62
     7
 10
-175.1449747468309
 20
-1339.450000000001
 30
0.0
 11
-177.4000863430078
 21
-1333.75
 31
0.0
  0
LINE
  5
3A8
  8
DATA
  6
CONTINUOUS
 62
     7
 10
-175.1449747468309
 20
-1339.450000000001
 30
0.0
 11
-127.567810280555
 21
-1339.450000000001
 31
0.0
  0
LINE
  5
3A9
  8
DATA
  6
CONTINUOUS
 62
     7
 10
-127.567810280555
 20
-1339.450000000001
 30
0.0
 11
-125.3126986843788
 21
-1333.75
 31
0.0
  0
ARC
  5
3AA
  8
DATA
  6
CONTINUOUS
 62
     7
 10
14.50000000000034
 20
-860.7500000000002
 30
0.0
 40
40.00000000000034
 50
90.00000000000058
 51
179.9999999999995
  0
LINE
  5
3AB
  8
DATA
  6
CONTINUOUS
 62
     7
 10
-25.50000000000007
 20
-1047.75
 30
0.0
 11
-25.50000000000006
 21
-860.7499999999999
 31
0.0
  0
ARC
  5
3AC
  8
DATA
  6
CONTINUOUS
 62
     7
 10
14.4999999999992
 20
-1047.750000000001
 30
0.0
 40
39.99999999999928
 50
179.999999999999
 51
270.000000000001
  0
LINE
  5
3AD
  8
DATA
  6
CONTINUOUS
 62
     7
 10
185.4999999999999
 20
-1087.75
 30
0.0
 11
14.49999999999993
 21
-1087.75
 31
0.0
  0
ARC
  5
3AE
  8
DATA
  6
CONTINUOUS
 62
     7
 10
185.4999999999999
 20
-1047.75
 30
0.0
 40
40.0
 50
270.0000000000001
 51
0.0
  0
LINE
  5
3AF
  8
DATA
  6
CONTINUOUS
 62
     7
 10
225.4999999999999
 20
-860.75
 30
0.0
 11
225.4999999999999
 21
-1047.75
 31
0.0
  0
ARC
  5
3B0
  8
DATA
  6
CONTINUOUS
 62
     7
 10
185.4999999999997
 20
-860.7500000000001
 30
0.0
 40
40.00000000000023
 50
0.0000000000001705
 51
89.99999999999972
  0
LINE
  5
3B1
  8
DATA
  6
CONTINUOUS
 62
     7
 10
14.49999999999994
 20
-820.7499999999999
 30
0.0
 11
185.4999999999999
 21
-820.7499999999999
 31
0.0
  0
LINE
  5
3B2
  8
DATA
  6
CONTINUOUS
 62
     7
 10
-4.00000000000006
 20
-1047.750000000001
 30
0.0
 11
-4.00000000000006
 21
-860.7500000000005
 31
0.0
  0
LINE
  5
3B3
  8
DATA
  6
CONTINUOUS
 62
     7
 10
185.4999999999999
 20
-1066.25
 30
0.0
 11
14.49999999999919
 21
-1066.25
 31
0.0
  0
LINE
  5
3B4
  8
DATA
  6
CONTINUOUS
 62
     7
 10
203.9999999999999
 20
-860.7500000000003
 30
0.0
 11
203.9999999999999
 21
-1047.75
 31
0.0
  0
LINE
  5
3B5
  8
DATA
  6
CONTINUOUS
 62
     7
 10
14.50000000000043
 20
-842.25
 30
0.0
 11
185.4999999999997
 21
-842.25
 31
0.0
  0
ARC
  5
3B6
  8
DATA
  6
CONTINUOUS
 62
     7
 10
14.50000000000043
 20
-860.7500000000002
 30
0.0
 40
18.50000000000045
 50
90.00000000000026
 51
180.0
  0
ARC
  5
3B7
  8
DATA
  6
CONTINUOUS
 62
     7
 10
14.4999999999992
 20
-1047.750000000001
 30
0.0
 40
18.49999999999926
 50
180.0
 51
270.0
  0
ARC
  5
3B8
  8
DATA
  6
CONTINUOUS
 62
     7
 10
185.4999999999997
 20
-860.7500000000001
 30
0.0
 40
18.50000000000023
 50
0.0
 51
90.0
  0
ARC
  5
3B9
  8
DATA
  6
CONTINUOUS
 62
     7
 10
185.4999999999999
 20
-1047.75
 30
0.0
 40
18.50000000000023
 50
270.0000000000001
 51
359.9999999999993
  0
LINE
  5
3BA
  8
DATA
  6
CONTINUOUS
 62
     7
 10
-784.092841608925
 20
-1339.45
 30
0.0
 11
-831.6199434184609
 21
-1339.45
 31
0.0
  0
LINE
  5
3BB
  8
DATA
  6
CONTINUOUS
 62
     7
 10
-333.3800565815391
 20
-1339.45
 30
0.0
 11
-331.097936592343
 21
-1333.75
 31
0.0
  0
LINE
  5
3BC
  8
DATA
  6
CONTINUOUS
 62
     7
 10
-380.9071583910758
 20
-1339.45
 30
0.0
 11
-383.1892783802708
 21
-1333.75
 31
0.0
  0
LINE
  5
3BD
  8
DATA
  6
CONTINUOUS
 62
     7
 10
-784.092841608925
 20
-1339.45
 30
0.0
 11
-781.8107216197288
 21
-1333.75
 31
0.0
  0
LINE
  5
3BE
  8
DATA
  6
CONTINUOUS
 62
     7
 10
-831.6199434184609
 20
-1339.45
 30
0.0
 11
-833.9020634076577
 21
-1333.75
 31
0.0
  0
LINE
  5
3BF
  8
DATA
  6
CONTINUOUS
 62
     7
 10
-333.3800565815391
 20
-1339.45
 30
0.0
 11
-380.9071583910758
 21
-1339.45
 31
0.0
  0
ARC
  5
3C0
  8
DATA
  6
CONTINUOUS
 62
     7
 10
27.49999999997715
 20
-824.8092886329079
 30
0.0
 40
0.1892886329077032
 50
359.0566788815885
 51
180.9433209280165
  0
ARC
  5
3C1
  8
DATA
  6
CONTINUOUS
 62
     7
 10
26.63681580689342
 20
-824.754921121286
 30
0.0
 40
0.6763683861877037
 50
244.8753886700349
 51
355.124611351879
  0
ARC
  5
3C2
  8
DATA
  6
CONTINUOUS
 62
     7
 10
26.25230735657249
 20
-825.5296443164854
 30
0.0
 40
0.1892886329072133
 50
59.05667888180753
 51
240.9433209278988
  0
ARC
  5
3C3
  8
DATA
  6
CONTINUOUS
 62
     7
 10
25.77363161382516
 20
-826.2500000000301
 30
0.0
 40
0.6763683861874005
 50
304.8753886700218
 51
55.12461135189148
  0
ARC
  5
3C4
  8
DATA
  6
CONTINUOUS
 62
     7
 10
27.49999999997715
 20
-827.6907113670923
 30
0.0
 40
0.1892886329082616
 50
179.0566790719836
 51
0.9433211184115464
  0
ARC
  5
3C5
  8
DATA
  6
CONTINUOUS
 62
     7
 10
26.63681580689342
 20
-827.7450788787141
 30
0.0
 40
0.6763683861872442
 50
4.875388648120926
 51
115.1246113299651
  0
ARC
  5
3C6
  8
DATA
  6
CONTINUOUS
 62
     7
 10
26.25230735657249
 20
-826.9703556835148
 30
0.0
 40
0.1892886329077544
 50
119.0566790721012
 51
300.9433211181924
  0
ARC
  5
3C7
  8
DATA
  6
CONTINUOUS
 62
     7
 10
28.36318419306087
 20
-824.754921121286
 30
0.0
 40
0.6763683861881504
 50
184.8753886481144
 51
295.1246113299651
  0
ARC
  5
3C8
  8
DATA
  6
CONTINUOUS
 62
     7
 10
28.74769264338181
 20
-825.5296443164854
 30
0.0
 40
0.1892886329073127
 50
299.0566790718605
 51
120.9433211184286
  0
ARC
  5
3C9
  8
DATA
  6
CONTINUOUS
 62
     7
 10
29.22636838612914
 20
-826.2500000000301
 30
0.0
 40
0.6763683861884657
 50
124.8753886481717
 51
235.1246113299149
  0
ARC
  5
3CA
  8
DATA
  6
CONTINUOUS
 62
     7
 10
28.36318419306087
 20
-827.7450788787141
 30
0.0
 40
0.6763683861877037
 50
64.87538867003492
 51
175.1246113518856
  0
ARC
  5
3CB
  8
DATA
  6
CONTINUOUS
 62
     7
 10
28.74769264338181
 20
-826.9703556835148
 30
0.0
 40
0.189288632907681
 50
239.0566788815714
 51
60.94332092813945
  0
CIRCLE
  5
3CC
  8
DATA
  6
CONTINUOUS
 62
     7
 10
27.49999999999989
 20
-826.2500000000001
 30
0.0
 40
4.0
  0
ARC
  5
3CD
  8
DATA
  6
CONTINUOUS
 62
     7
 10
172.4999999999773
 20
-824.8092886329079
 30
0.0
 40
0.1892886329077032
 50
359.0566788815885
 51
180.9433209280165
  0
ARC
  5
3CE
  8
DATA
  6
CONTINUOUS
 62
     7
 10
171.6368158068935
 20
-824.754921121286
 30
0.0
 40
0.6763683861877037
 50
244.8753886700349
 51
355.124611351879
  0
ARC
  5
3CF
  8
DATA
  6
CONTINUOUS
 62
     7
 10
171.2523073565726
 20
-825.5296443164854
 30
0.0
 40
0.1892886329072133
 50
59.05667888180753
 51
240.9433209278988
  0
ARC
  5
3D0
  8
DATA
  6
CONTINUOUS
 62
     7
 10
170.7736316138253
 20
-826.2500000000301
 30
0.0
 40
0.6763683861874005
 50
304.8753886700218
 51
55.12461135189148
  0
ARC
  5
3D1
  8
DATA
  6
CONTINUOUS
 62
     7
 10
172.4999999999773
 20
-827.6907113670923
 30
0.0
 40
0.1892886329082616
 50
179.0566790719836
 51
0.9433211184115464
  0
ARC
  5
3D2
  8
DATA
  6
CONTINUOUS
 62
     7
 10
171.6368158068935
 20
-827.7450788787141
 30
0.0
 40
0.6763683861872442
 50
4.875388648120926
 51
115.1246113299651
  0
ARC
  5
3D3
  8
DATA
  6
CONTINUOUS
 62
     7
 10
171.2523073565726
 20
-826.9703556835148
 30
0.0
 40
0.1892886329077544
 50
119.0566790721012
 51
300.9433211181924
  0
ARC
  5
3D4
  8
DATA
  6
CONTINUOUS
 62
     7
 10
173.363184193061
 20
-824.754921121286
 30
0.0
 40
0.6763683861881504
 50
184.8753886481144
 51
295.1246113299651
  0
ARC
  5
3D5
  8
DATA
  6
CONTINUOUS
 62
     7
 10
173.7476926433819
 20
-825.5296443164854
 30
0.0
 40
0.1892886329073127
 50
299.0566790718605
 51
120.9433211184286
  0
ARC
  5
3D6
  8
DATA
  6
CONTINUOUS
 62
     7
 10
174.2263683861293
 20
-826.2500000000301
 30
0.0
 40
0.6763683861884657
 50
124.8753886481717
 51
235.1246113299149
  0
ARC
  5
3D7
  8
DATA
  6
CONTINUOUS
 62
     7
 10
173.363184193061
 20
-827.7450788787141
 30
0.0
 40
0.6763683861877037
 50
64.87538867003492
 51
175.1246113518856
  0
ARC
  5
3D8
  8
DATA
  6
CONTINUOUS
 62
     7
 10
173.7476926433819
 20
-826.9703556835148
 30
0.0
 40
0.189288632907681
 50
239.0566788815714
 51
60.94332092813945
  0
CIRCLE
  5
3D9
  8
DATA
  6
CONTINUOUS
 62
     7
 10
172.5
 20
-826.2500000000001
 30
0.0
 40
4.0
  0
ARC
  5
3DA
  8
DATA
  6
CONTINUOUS
 62
     7
 10
27.49999999997715
 20
-1080.809288632908
 30
0.0
 40
0.1892886329077032
 50
359.0566788815885
 51
180.9433209280165
  0
ARC
  5
3DB
  8
DATA
  6
CONTINUOUS
 62
     7
 10
26.63681580689342
 20
-1080.754921121286
 30
0.0
 40
0.6763683861877037
 50
244.8753886700349
 51
355.124611351879
  0
ARC
  5
3DC
  8
DATA
  6
CONTINUOUS
 62
     7
 10
26.25230735657249
 20
-1081.529644316485
 30
0.0
 40
0.1892886329072133
 50
59.05667888180753
 51
240.9433209278988
  0
ARC
  5
3DD
  8
DATA
  6
CONTINUOUS
 62
     7
 10
25.77363161382516
 20
-1082.25000000003
 30
0.0
 40
0.6763683861874937
 50
304.8753886700163
 51
55.12461135189154
  0
ARC
  5
3DE
  8
DATA
  6
CONTINUOUS
 62
     7
 10
27.49999999997715
 20
-1083.690711367092
 30
0.0
 40
0.1892886329082616
 50
179.0566790719836
 51
0.9433211184115464
  0
ARC
  5
3DF
  8
DATA
  6
CONTINUOUS
 62
     7
 10
26.63681580689342
 20
-1083.745078878714
 30
0.0
 40
0.6763683861872442
 50
4.875388648120926
 51
115.1246113299651
  0
ARC
  5
3E0
  8
DATA
  6
CONTINUOUS
 62
     7
 10
26.25230735657249
 20
-1082.970355683515
 30
0.0
 40
0.1892886329077544
 50
119.0566790721012
 51
300.9433211181924
  0
ARC
  5
3E1
  8
DATA
  6
CONTINUOUS
 62
     7
 10
28.36318419306087
 20
-1080.754921121286
 30
0.0
 40
0.6763683861881504
 50
184.8753886481144
 51
295.1246113299651
  0
ARC
  5
3E2
  8
DATA
  6
CONTINUOUS
 62
     7
 10
28.74769264338181
 20
-1081.529644316485
 30
0.0
 40
0.1892886329073127
 50
299.0566790718605
 51
120.9433211184286
  0
ARC
  5
3E3
  8
DATA
  6
CONTINUOUS
 62
     7
 10
29.22636838612914
 20
-1082.25000000003
 30
0.0
 40
0.6763683861884657
 50
124.8753886481717
 51
235.1246113299204
  0
ARC
  5
3E4
  8
DATA
  6
CONTINUOUS
 62
     7
 10
28.36318419306087
 20
-1083.745078878714
 30
0.0
 40
0.6763683861877037
 50
64.87538867003492
 51
175.1246113518856
  0
ARC
  5
3E5
  8
DATA
  6
CONTINUOUS
 62
     7
 10
28.74769264338181
 20
-1082.970355683515
 30
0.0
 40
0.189288632907681
 50
239.0566788815714
 51
60.94332092813945
  0
CIRCLE
  5
3E6
  8
DATA
  6
CONTINUOUS
 62
     7
 10
27.49999999999989
 20
-1082.25
 30
0.0
 40
4.0
  0
ARC
  5
3E7
  8
DATA
  6
CONTINUOUS
 62
     7
 10
172.4999999999773
 20
-1080.809288632908
 30
0.0
 40
0.1892886329077032
 50
359.0566788815885
 51
180.9433209280165
  0
ARC
  5
3E8
  8
DATA
  6
CONTINUOUS
 62
     7
 10
171.6368158068935
 20
-1080.754921121286
 30
0.0
 40
0.6763683861877037
 50
244.8753886700349
 51
355.124611351879
  0
ARC
  5
3E9
  8
DATA
  6
CONTINUOUS
 62
     7
 10
171.2523073565726
 20
-1081.529644316485
 30
0.0
 40
0.1892886329072133
 50
59.05667888180753
 51
240.9433209278988
  0
ARC
  5
3EA
  8
DATA
  6
CONTINUOUS
 62
     7
 10
170.7736316138253
 20
-1082.25000000003
 30
0.0
 40
0.6763683861874937
 50
304.8753886700163
 51
55.12461135189154
  0
ARC
  5
3EB
  8
DATA
  6
CONTINUOUS
 62
     7
 10
172.4999999999773
 20
-1083.690711367092
 30
0.0
 40
0.1892886329082616
 50
179.0566790719836
 51
0.9433211184115464
  0
ARC
  5
3EC
  8
DATA
  6
CONTINUOUS
 62
     7
 10
171.6368158068935
 20
-1083.745078878714
 30
0.0
 40
0.6763683861872442
 50
4.875388648120926
 51
115.1246113299651
  0
ARC
  5
3ED
  8
DATA
  6
CONTINUOUS
 62
     7
 10
171.2523073565726
 20
-1082.970355683515
 30
0.0
 40
0.1892886329077544
 50
119.0566790721012
 51
300.9433211181924
  0
ARC
  5
3EE
  8
DATA
  6
CONTINUOUS
 62
     7
 10
173.363184193061
 20
-1080.754921121286
 30
0.0
 40
0.6763683861881504
 50
184.8753886481144
 51
295.1246113299651
  0
ARC
  5
3EF
  8
DATA
  6
CONTINUOUS
 62
     7
 10
173.7476926433819
 20
-1081.529644316485
 30
0.0
 40
0.1892886329073127
 50
299.0566790718605
 51
120.9433211184286
  0
ARC
  5
3F0
  8
DATA
  6
CONTINUOUS
 62
     7
 10
174.2263683861293
 20
-1082.25000000003
 30
0.0
 40
0.6763683861884657
 50
124.8753886481717
 51
235.1246113299204
  0
ARC
  5
3F1
  8
DATA
  6
CONTINUOUS
 62
     7
 10
173.363184193061
 20
-1083.745078878714
 30
0.0
 40
0.6763683861877037
 50
64.87538867003492
 51
175.1246113518856
  0
ARC
  5
3F2
  8
DATA
  6
CONTINUOUS
 62
     7
 10
173.7476926433819
 20
-1082.970355683515
 30
0.0
 40
0.189288632907681
 50
239.0566788815714
 51
60.94332092813945
  0
CIRCLE
  5
3F3
  8
DATA
  6
CONTINUOUS
 62
     7
 10
172.5
 20
-1082.25
 30
0.0
 40
4.0
  0
ARC
  5
3F4
  8
DATA
  6
CONTINUOUS
 62
     7
 10
14.49999999999983
 20
-860.7500000000005
 30
0.0
 40
23.49999999999989
 50
89.99999999999979
 51
179.9999999999994
  0
ARC
  5
3F5
  8
DATA
  6
CONTINUOUS
 62
     7
 10
185.5000000000003
 20
-860.7500000000005
 30
0.0
 40
23.49999999999989
 50
0.0000000000005684
 51
90.00000000000021
  0
ARC
  5
3F6
  8
DATA
  6
CONTINUOUS
 62
     7
 10
14.49999999999983
 20
-1047.75
 30
0.0
 40
23.49999999999989
 50
180.0000000000006
 51
270.0000000000002
  0
LINE
  5
3F7
  8
DATA
  6
CONTINUOUS
 62
     7
 10
14.49999999999992
 20
-837.2500000000006
 30
0.0
 11
185.5000000000002
 21
-837.2500000000006
 31
0.0
  0
LINE
  5
3F8
  8
DATA
  6
CONTINUOUS
 62
     7
 10
-9.000000000000064
 20
-860.7500000000002
 30
0.0
 11
-9.000000000000064
 21
-1047.75
 31
0.0
  0
ARC
  5
3F9
  8
DATA
  6
CONTINUOUS
 62
     7
 10
185.5000000000001
 20
-1047.75
 30
0.0
 40
23.5
 50
269.9999999999998
 51
359.9999999999994
  0
LINE
  5
3FA
  8
DATA
  6
CONTINUOUS
 62
     7
 10
14.49999999999991
 20
-1071.75
 30
0.0
 11
185.5000000000002
 21
-1071.75
 31
0.0
  0
LINE
  5
3FB
  8
DATA
  6
CONTINUOUS
 62
     7
 10
208.9999999999999
 20
-1047.75
 30
0.0
 11
209.0000000000002
 21
-860.7500000000002
 31
0.0
  0
ARC
  5
3FC
  8
DATA
  6
CONTINUOUS
 62
     7
 10
-19.00000000002268
 20
-868.559288632908
 30
0.0
 40
0.1892886329077032
 50
359.0566788815885
 51
180.9433209280165
  0
ARC
  5
3FD
  8
DATA
  6
CONTINUOUS
 62
     7
 10
-19.86318419310641
 20
-868.5049211212861
 30
0.0
 40
0.6763683861877037
 50
244.8753886700349
 51
355.124611351879
  0
ARC
  5
3FE
  8
DATA
  6
CONTINUOUS
 62
     7
 10
-20.24769264342734
 20
-869.2796443164855
 30
0.0
 40
0.1892886329072133
 50
59.05667888180753
 51
240.9433209278988
  0
ARC
  5
3FF
  8
DATA
  6
CONTINUOUS
 62
     7
 10
-20.72636838617467
 20
-870.0000000000302
 30
0.0
 40
0.6763683861874005
 50
304.8753886700218
 51
55.12461135189148
  0
ARC
  5
400
  8
DATA
  6
CONTINUOUS
 62
     7
 10
-19.00000000002268
 20
-871.4407113670924
 30
0.0
 40
0.1892886329082616
 50
179.0566790719836
 51
0.9433211184115464
  0
ARC
  5
401
  8
DATA
  6
CONTINUOUS
 62
     7
 10
-19.86318419310641
 20
-871.4950788787143
 30
0.0
 40
0.6763683861872442
 50
4.875388648120926
 51
115.1246113299651
  0
ARC
  5
402
  8
DATA
  6
CONTINUOUS
 62
     7
 10
-20.24769264342734
 20
-870.7203556835149
 30
0.0
 40
0.1892886329077544
 50
119.0566790721012
 51
300.9433211181924
  0
ARC
  5
403
  8
DATA
  6
CONTINUOUS
 62
     7
 10
-18.13681580693896
 20
-868.5049211212861
 30
0.0
 40
0.6763683861881504
 50
184.8753886481144
 51
295.1246113299651
  0
ARC
  5
404
  8
DATA
  6
CONTINUOUS
 62
     7
 10
-17.75230735661802
 20
-869.2796443164855
 30
0.0
 40
0.1892886329073127
 50
299.0566790718605
 51
120.9433211184286
  0
ARC
  5
405
  8
DATA
  6
CONTINUOUS
 62
     7
 10
-17.27363161387069
 20
-870.0000000000302
 30
0.0
 40
0.6763683861884657
 50
124.8753886481717
 51
235.1246113299149
  0
ARC
  5
406
  8
DATA
  6
CONTINUOUS
 62
     7
 10
-18.13681580693896
 20
-871.4950788787143
 30
0.0
 40
0.6763683861877037
 50
64.87538867003492
 51
175.1246113518856
  0
ARC
  5
407
  8
DATA
  6
CONTINUOUS
 62
     7
 10
-17.75230735661802
 20
-870.7203556835149
 30
0.0
 40
0.189288632907681
 50
239.0566788815714
 51
60.94332092813945
  0
CIRCLE
  5
408
  8
DATA
  6
CONTINUOUS
 62
     7
 10
-18.99999999999994
 20
-870.0000000000002
 30
0.0
 40
4.0
  0
ARC
  5
409
  8
DATA
  6
CONTINUOUS
 62
     7
 10
-19.00000000002268
 20
-953.059288632908
 30
0.0
 40
0.1892886329077032
 50
359.0566788815885
 51
180.9433209280165
  0
ARC
  5
40A
  8
DATA
  6
CONTINUOUS
 62
     7
 10
-19.86318419310641
 20
-953.0049211212861
 30
0.0
 40
0.6763683861877037
 50
244.8753886700349
 51
355.124611351879
  0
ARC
  5
40B
  8
DATA
  6
CONTINUOUS
 62
     7
 10
-20.24769264342734
 20
-953.7796443164855
 30
0.0
 40
0.1892886329072133
 50
59.05667888180753
 51
240.9433209278988
  0
ARC
  5
40C
  8
DATA
  6
CONTINUOUS
 62
     7
 10
-20.72636838617467
 20
-954.5000000000302
 30
0.0
 40
0.6763683861874005
 50
304.8753886700218
 51
55.12461135189148
  0
ARC
  5
40D
  8
DATA
  6
CONTINUOUS
 62
     7
 10
-19.00000000002268
 20
-955.9407113670924
 30
0.0
 40
0.1892886329082616
 50
179.0566790719836
 51
0.9433211184115464
  0
ARC
  5
40E
  8
DATA
  6
CONTINUOUS
 62
     7
 10
-19.86318419310641
 20
-955.9950788787143
 30
0.0
 40
0.6763683861872442
 50
4.875388648120926
 51
115.1246113299651
  0
ARC
  5
40F
  8
DATA
  6
CONTINUOUS
 62
     7
 10
-20.24769264342734
 20
-955.2203556835149
 30
0.0
 40
0.1892886329077544
 50
119.0566790721012
 51
300.9433211181924
  0
ARC
  5
410
  8
DATA
  6
CONTINUOUS
 62
     7
 10
-18.13681580693896
 20
-953.0049211212861
 30
0.0
 40
0.6763683861881504
 50
184.8753886481144
 51
295.1246113299651
  0
ARC
  5
411
  8
DATA
  6
CONTINUOUS
 62
     7
 10
-17.75230735661802
 20
-953.7796443164855
 30
0.0
 40
0.1892886329073127
 50
299.0566790718605
 51
120.9433211184286
  0
ARC
  5
412
  8
DATA
  6
CONTINUOUS
 62
     7
 10
-17.27363161387069
 20
-954.5000000000302
 30
0.0
 40
0.6763683861884657
 50
124.8753886481717
 51
235.1246113299149
  0
ARC
  5
413
  8
DATA
  6
CONTINUOUS
 62
     7
 10
-18.13681580693896
 20
-955.9950788787143
 30
0.0
 40
0.6763683861877037
 50
64.87538867003492
 51
175.1246113518856
  0
ARC
  5
414
  8
DATA
  6
CONTINUOUS
 62
     7
 10
-17.75230735661802
 20
-955.2203556835149
 30
0.0
 40
0.189288632907681
 50
239.0566788815714
 51
60.94332092813945
  0
CIRCLE
  5
415
  8
DATA
  6
CONTINUOUS
 62
     7
 10
-18.99999999999994
 20
-954.5000000000002
 30
0.0
 40
4.0
  0
ARC
  5
416
  8
DATA
  6
CONTINUOUS
 62
     7
 10
-19.00000000002268
 20
-1037.559288632908
 30
0.0
 40
0.1892886329077032
 50
359.0566788815885
 51
180.9433209280165
  0
ARC
  5
417
  8
DATA
  6
CONTINUOUS
 62
     7
 10
-19.86318419310641
 20
-1037.504921121286
 30
0.0
 40
0.6763683861877037
 50
244.8753886700349
 51
355.124611351879
  0
ARC
  5
418
  8
DATA
  6
CONTINUOUS
 62
     7
 10
-20.24769264342734
 20
-1038.279644316485
 30
0.0
 40
0.1892886329072133
 50
59.05667888180753
 51
240.9433209278988
  0
ARC
  5
419
  8
DATA
  6
CONTINUOUS
 62
     7
 10
-20.72636838617467
 20
-1039.00000000003
 30
0.0
 40
0.6763683861873072
 50
304.8753886700274
 51
55.1246113518915
  0
ARC
  5
41A
  8
DATA
  6
CONTINUOUS
 62
     7
 10
-19.00000000002268
 20
-1040.440711367092
 30
0.0
 40
0.1892886329082616
 50
179.0566790719836
 51
0.9433211184115464
  0
ARC
  5
41B
  8
DATA
  6
CONTINUOUS
 62
     7
 10
-19.86318419310641
 20
-1040.495078878714
 30
0.0
 40
0.6763683861872442
 50
4.875388648120926
 51
115.1246113299651
  0
ARC
  5
41C
  8
DATA
  6
CONTINUOUS
 62
     7
 10
-20.24769264342734
 20
-1039.720355683515
 30
0.0
 40
0.1892886329077544
 50
119.0566790721012
 51
300.9433211181924
  0
ARC
  5
41D
  8
DATA
  6
CONTINUOUS
 62
     7
 10
-18.13681580693896
 20
-1037.504921121286
 30
0.0
 40
0.6763683861881504
 50
184.8753886481144
 51
295.1246113299651
  0
ARC
  5
41E
  8
DATA
  6
CONTINUOUS
 62
     7
 10
-17.75230735661802
 20
-1038.279644316485
 30
0.0
 40
0.1892886329073127
 50
299.0566790718605
 51
120.9433211184286
  0
ARC
  5
41F
  8
DATA
  6
CONTINUOUS
 62
     7
 10
-17.27363161387069
 20
-1039.00000000003
 30
0.0
 40
0.6763683861884657
 50
124.8753886481717
 51
235.1246113299094
  0
ARC
  5
420
  8
DATA
  6
CONTINUOUS
 62
     7
 10
-18.13681580693896
 20
-1040.495078878714
 30
0.0
 40
0.6763683861877037
 50
64.87538867003492
 51
175.1246113518856
  0
ARC
  5
421
  8
DATA
  6
CONTINUOUS
 62
     7
 10
-17.75230735661802
 20
-1039.720355683515
 30
0.0
 40
0.189288632907681
 50
239.0566788815714
 51
60.94332092813945
  0
CIRCLE
  5
422
  8
DATA
  6
CONTINUOUS
 62
     7
 10
-18.99999999999994
 20
-1039.0
 30
0.0
 40
4.0
  0
ARC
  5
423
  8
DATA
  6
CONTINUOUS
 62
     7
 10
218.9999999999773
 20
-1037.559288632908
 30
0.0
 40
0.1892886329077032
 50
359.0566788815885
 51
180.9433209280165
  0
ARC
  5
424
  8
DATA
  6
CONTINUOUS
 62
     7
 10
218.1368158068936
 20
-1037.504921121286
 30
0.0
 40
0.6763683861877037
 50
244.8753886700349
 51
355.124611351879
  0
ARC
  5
425
  8
DATA
  6
CONTINUOUS
 62
     7
 10
217.7523073565727
 20
-1038.279644316485
 30
0.0
 40
0.1892886329072133
 50
59.05667888180753
 51
240.9433209278988
  0
ARC
  5
426
  8
DATA
  6
CONTINUOUS
 62
     7
 10
217.2736316138253
 20
-1039.00000000003
 30
0.0
 40
0.6763683861873072
 50
304.8753886700274
 51
55.1246113518915
  0
ARC
  5
427
  8
DATA
  6
CONTINUOUS
 62
     7
 10
218.9999999999773
 20
-1040.440711367092
 30
0.0
 40
0.1892886329082616
 50
179.0566790719836
 51
0.9433211184115464
  0
ARC
  5
428
  8
DATA
  6
CONTINUOUS
 62
     7
 10
218.1368158068936
 20
-1040.495078878714
 30
0.0
 40
0.6763683861872442
 50
4.875388648120926
 51
115.1246113299651
  0
ARC
  5
429
  8
DATA
  6
CONTINUOUS
 62
     7
 10
217.7523073565727
 20
-1039.720355683515
 30
0.0
 40
0.1892886329077544
 50
119.0566790721012
 51
300.9433211181924
  0
ARC
  5
42A
  8
DATA
  6
CONTINUOUS
 62
     7
 10
219.863184193061
 20
-1037.504921121286
 30
0.0
 40
0.6763683861881504
 50
184.8753886481144
 51
295.1246113299651
  0
ARC
  5
42B
  8
DATA
  6
CONTINUOUS
 62
     7
 10
220.247692643382
 20
-1038.279644316485
 30
0.0
 40
0.1892886329073127
 50
299.0566790718605
 51
120.9433211184286
  0
ARC
  5
42C
  8
DATA
  6
CONTINUOUS
 62
     7
 10
220.7263683861293
 20
-1039.00000000003
 30
0.0
 40
0.6763683861884657
 50
124.8753886481717
 51
235.1246113299094
  0
ARC
  5
42D
  8
DATA
  6
CONTINUOUS
 62
     7
 10
219.863184193061
 20
-1040.495078878714
 30
0.0
 40
0.6763683861877037
 50
64.87538867003492
 51
175.1246113518856
  0
ARC
  5
42E
  8
DATA
  6
CONTINUOUS
 62
     7
 10
220.247692643382
 20
-1039.720355683515
 30
0.0
 40
0.189288632907681
 50
239.0566788815714
 51
60.94332092813945
  0
CIRCLE
  5
42F
  8
DATA
  6
CONTINUOUS
 62
     7
 10
219.0000000000001
 20
-1039.0
 30
0.0
 40
4.0
  0
ARC
  5
430
  8
DATA
  6
CONTINUOUS
 62
     7
 10
218.9999999999773
 20
-953.059288632908
 30
0.0
 40
0.1892886329077032
 50
359.0566788815885
 51
180.9433209280165
  0
ARC
  5
431
  8
DATA
  6
CONTINUOUS
 62
     7
 10
218.1368158068936
 20
-953.0049211212861
 30
0.0
 40
0.6763683861877037
 50
244.8753886700349
 51
355.124611351879
  0
ARC
  5
432
  8
DATA
  6
CONTINUOUS
 62
     7
 10
217.7523073565727
 20
-953.7796443164855
 30
0.0
 40
0.1892886329072133
 50
59.05667888180753
 51
240.9433209278988
  0
ARC
  5
433
  8
DATA
  6
CONTINUOUS
 62
     7
 10
217.2736316138253
 20
-954.5000000000302
 30
0.0
 40
0.6763683861874005
 50
304.8753886700218
 51
55.12461135189148
  0
ARC
  5
434
  8
DATA
  6
CONTINUOUS
 62
     7
 10
218.9999999999773
 20
-955.9407113670924
 30
0.0
 40
0.1892886329082616
 50
179.0566790719836
 51
0.9433211184115464
  0
ARC
  5
435
  8
DATA
  6
CONTINUOUS
 62
     7
 10
218.1368158068936
 20
-955.9950788787143
 30
0.0
 40
0.6763683861872442
 50
4.875388648120926
 51
115.1246113299651
  0
ARC
  5
436
  8
DATA
  6
CONTINUOUS
 62
     7
 10
217.7523073565727
 20
-955.2203556835149
 30
0.0
 40
0.1892886329077544
 50
119.0566790721012
 51
300.9433211181924
  0
ARC
  5
437
  8
DATA
  6
CONTINUOUS
 62
     7
 10
219.863184193061
 20
-953.0049211212861
 30
0.0
 40
0.6763683861881504
 50
184.8753886481144
 51
295.1246113299651
  0
ARC
  5
438
  8
DATA
  6
CONTINUOUS
 62
     7
 10
220.247692643382
 20
-953.7796443164855
 30
0.0
 40
0.1892886329073127
 50
299.0566790718605
 51
120.9433211184286
  0
ARC
  5
439
  8
DATA
  6
CONTINUOUS
 62
     7
 10
220.7263683861293
 20
-954.5000000000302
 30
0.0
 40
0.6763683861884657
 50
124.8753886481717
 51
235.1246113299149
  0
ARC
  5
43A
  8
DATA
  6
CONTINUOUS
 62
     7
 10
219.863184193061
 20
-955.9950788787143
 30
0.0
 40
0.6763683861877037
 50
64.87538867003492
 51
175.1246113518856
  0
ARC
  5
43B
  8
DATA
  6
CONTINUOUS
 62
     7
 10
220.247692643382
 20
-955.2203556835149
 30
0.0
 40
0.189288632907681
 50
239.0566788815714
 51
60.94332092813945
  0
CIRCLE
  5
43C
  8
DATA
  6
CONTINUOUS
 62
     7
 10
219.0000000000001
 20
-954.5000000000002
 30
0.0
 40
4.0
  0
ARC
  5
43D
  8
DATA
  6
CONTINUOUS
 62
     7
 10
218.9999999999773
 20
-868.559288632908
 30
0.0
 40
0.1892886329077032
 50
359.0566788815885
 51
180.9433209280165
  0
ARC
  5
43E
  8
DATA
  6
CONTINUOUS
 62
     7
 10
218.1368158068936
 20
-868.5049211212861
 30
0.0
 40
0.6763683861877037
 50
244.8753886700349
 51
355.124611351879
  0
ARC
  5
43F
  8
DATA
  6
CONTINUOUS
 62
     7
 10
217.7523073565727
 20
-869.2796443164855
 30
0.0
 40
0.1892886329072133
 50
59.05667888180753
 51
240.9433209278988
  0
ARC
  5
440
  8
DATA
  6
CONTINUOUS
 62
     7
 10
217.2736316138253
 20
-870.0000000000302
 30
0.0
 40
0.6763683861874005
 50
304.8753886700218
 51
55.12461135189148
  0
ARC
  5
441
  8
DATA
  6
CONTINUOUS
 62
     7
 10
218.9999999999773
 20
-871.4407113670924
 30
0.0
 40
0.1892886329082616
 50
179.0566790719836
 51
0.9433211184115464
  0
ARC
  5
442
  8
DATA
  6
CONTINUOUS
 62
     7
 10
218.1368158068936
 20
-871.4950788787143
 30
0.0
 40
0.6763683861872442
 50
4.875388648120926
 51
115.1246113299651
  0
ARC
  5
443
  8
DATA
  6
CONTINUOUS
 62
     7
 10
217.7523073565727
 20
-870.7203556835149
 30
0.0
 40
0.1892886329077544
 50
119.0566790721012
 51
300.9433211181924
  0
ARC
  5
444
  8
DATA
  6
CONTINUOUS
 62
     7
 10
219.863184193061
 20
-868.5049211212861
 30
0.0
 40
0.6763683861881504
 50
184.8753886481144
 51
295.1246113299651
  0
ARC
  5
445
  8
DATA
  6
CONTINUOUS
 62
     7
 10
220.247692643382
 20
-869.2796443164855
 30
0.0
 40
0.1892886329073127
 50
299.0566790718605
 51
120.9433211184286
  0
ARC
  5
446
  8
DATA
  6
CONTINUOUS
 62
     7
 10
220.7263683861293
 20
-870.0000000000302
 30
0.0
 40
0.6763683861884657
 50
124.8753886481717
 51
235.1246113299149
  0
ARC
  5
447
  8
DATA
  6
CONTINUOUS
 62
     7
 10
219.863184193061
 20
-871.4950788787143
 30
0.0
 40
0.6763683861877037
 50
64.87538867003492
 51
175.1246113518856
  0
ARC
  5
448
  8
DATA
  6
CONTINUOUS
 62
     7
 10
220.247692643382
 20
-870.7203556835149
 30
0.0
 40
0.189288632907681
 50
239.0566788815714
 51
60.94332092813945
  0
CIRCLE
  5
449
  8
DATA
  6
CONTINUOUS
 62
     7
 10
219.0000000000001
 20
-870.0000000000002
 30
0.0
 40
4.0
  0
POLYLINE
  5
44A
  8
DATA
  6
CONTINUOUS
 62
     7
 66
     1
 10
0.0
 20
0.0
 30
0.0
 70
   129
  0
VERTEX
  5
65C
  8
DATA
  6
CONTINUOUS
 62
     7
 10
18.49999999999994
 20
-878.7499999999999
 30
0.0
  0
VERTEX
  5
65D
  8
DATA
  6
CONTINUOUS
 62
     7
 10
66.49999999999994
 20
-878.7499999999999
 30
0.0
  0
VERTEX
  5
65E
  8
DATA
  6
CONTINUOUS
 62
     7
 10
66.49999999999994
 20
-915.7499999999999
 30
0.0
  0
VERTEX
  5
65F
  8
DATA
  6
CONTINUOUS
 62
     7
 10
18.49999999999994
 20
-915.7499999999999
 30
0.0
  0
SEQEND
  5
693
  8
DATA
  6
CONTINUOUS
 62
     7
  0
CIRCLE
  5
450
  8
DATA
  6
CONTINUOUS
 62
     7
 10
84.49999999999994
 20
-873.7499999999999
 30
0.0
 40
4.950000000000003
  0
CIRCLE
  5
451
  8
DATA
  6
CONTINUOUS
 62
     7
 10
84.49999999999994
 20
-896.7499999999999
 30
0.0
 40
10.95
  0
CIRCLE
  5
452
  8
DATA
  6
CONTINUOUS
 62
     7
 10
84.49999999999994
 20
-922.7499999999999
 30
0.0
 40
4.950000000000003
  0
CIRCLE
  5
453
  8
DATA
  6
CONTINUOUS
 62
     7
 10
55.00000000044922
 20
-970.7499999999999
 30
0.0
 40
1.649999999835927
  0
CIRCLE
  5
454
  8
DATA
  6
CONTINUOUS
 62
     7
 10
63.99999999955064
 20
-970.7499999999999
 30
0.0
 40
1.649999999834108
  0
CIRCLE
  5
455
  8
DATA
  6
CONTINUOUS
 62
     7
 10
68.99744083238322
 20
-982.7499999987998
 30
0.0
 40
2.5
  0
LINE
  5
456
  8
DATA
  6
______-12
 62
     7
 10
67.49488166571602
 20
-982.7499999987998
 30
0.0
 11
70.49488166571602
 21
-982.7499999987998
 31
0.0
  0
LINE
  5
457
  8
DATA
  6
______-12
 62
     7
 10
68.99744083238322
 20
-981.2488283321335
 30
0.0
 11
68.99744083238322
 21
-984.2488283321335
 31
0.0
  0
CIRCLE
  5
458
  8
DATA
  6
CONTINUOUS
 62
     7
 10
50.00255916761664
 20
-958.7500000012
 30
0.0
 40
2.5
  0
LINE
  5
459
  8
DATA
  6
______-12
 62
     7
 10
48.50000000094944
 20
-958.7500000012
 30
0.0
 11
51.50000000094944
 21
-958.7500000012
 31
0.0
  0
LINE
  5
45A
  8
DATA
  6
______-12
 62
     7
 10
50.00255916761664
 20
-957.2488283345332
 30
0.0
 11
50.00255916761664
 21
-960.2488283345332
 31
0.0
  0
CIRCLE
  5
45B
  8
DATA
  6
CONTINUOUS
 62
     7
 10
59.49999999999993
 20
-970.7499999999999
 30
0.0
 40
9.750000015681577
  0
CIRCLE
  5
45C
  8
DATA
  6
CONTINUOUS
 62
     7
 10
59.49999999999993
 20
-974.699999999605
 30
0.0
 40
1.649999999834108
  0
ARC
  5
45D
  8
DATA
  6
CONTINUOUS
 62
     7
 10
59.49999999999993
 20
-970.7499999999999
 30
0.0
 40
7.899999852386203
 50
50.69269454644028
 51
39.30730194582301
  0
LINE
  5
45E
  8
DATA
  6
CONTINUOUS
 62
     7
 10
62.3499999997229
 20
-963.3819950007295
 30
0.0
 11
62.3499999997229
 21
-963.3819951581653
 31
0.0
  0
ARC
  5
45F
  8
DATA
  6
CONTINUOUS
 62
     7
 10
64.94472233279696
 20
-965.3052780005372
 30
0.0
 40
0.7999999999199845
 50
326.612906173291
 51
123.3870903189588
  0
ARC
  5
460
  8
DATA
  6
CONTINUOUS
 62
     7
 10
59.5000000000072
 20
-938.7500000000072
 30
0.0
 40
7.899999852386007
 50
140.692698054177
 51
129.3073054535597
  0
CIRCLE
  5
461
  8
DATA
  6
CONTINUOUS
 62
     7
 10
59.49999999999993
 20
-938.7499999999999
 30
0.0
 40
9.749999999025183
  0
ARC
  5
462
  8
DATA
  6
CONTINUOUS
 62
     7
 10
59.49999999999993
 20
-938.7499999999999
 30
0.0
 40
10.75000000000015
 50
102.9003349199812
 51
77.09966508002354
  0
LINE
  5
463
  8
DATA
  6
CONTINUOUS
 62
     7
 10
61.89999999975946
 20
-931.223380573679
 30
0.0
 11
61.89999999975946
 21
-931.223380727797
 31
0.0
  0
LINE
  5
464
  8
DATA
  6
CONTINUOUS
 62
     7
 10
56.65000000028424
 20
-931.3819950007368
 30
0.0
 11
56.65000000028424
 21
-931.3819951581726
 31
0.0
  0
ARC
  5
465
  8
DATA
  6
CONTINUOUS
 62
     7
 10
55.00000000044922
 20
-938.7499999999999
 30
0.0
 40
1.999999999800095
 50
32.08918387405087
 51
327.9108161259492
  0
ARC
  5
466
  8
DATA
  6
CONTINUOUS
 62
     7
 10
63.99999999954973
 20
-938.7499999999999
 30
0.0
 40
1.999999999800095
 50
212.0891838740509
 51
147.9108161259491
  0
ARC
  5
467
  8
DATA
  6
CONTINUOUS
 62
     7
 10
59.49999999999993
 20
-942.6999999996054
 30
0.0
 40
1.99999999980077
 50
137.8522840898889
 51
42.14771591012861
  0
ARC
  5
468
  8
DATA
  6
CONTINUOUS
 62
     7
 10
54.05527766721018
 20
-933.3052780005445
 30
0.0
 40
0.799999999920039
 50
56.61290968104122
 51
213.387093826709
  0
ARC
  5
469
  8
DATA
  6
CONTINUOUS
 62
     7
 10
59.49999999999993
 20
-938.7499999999999
 30
0.0
 40
2.999999999999744
 50
20.74191648508129
 51
159.2580835149249
  0
ARC
  5
46A
  8
DATA
  6
CONTINUOUS
 62
     7
 10
59.49999999999993
 20
-938.7499999999999
 30
0.0
 40
3.000000000000594
 50
200.7419164850751
 51
240.3778367991917
  0
ARC
  5
46B
  8
DATA
  6
CONTINUOUS
 62
     7
 10
59.49999999999993
 20
-938.7499999999999
 30
0.0
 40
2.999999999999644
 50
299.6221632007934
 51
339.2580835149187
  0
CIRCLE
  5
46C
  8
DATA
  6
CONTINUOUS
 62
     7
 10
68.9999999990495
 20
-950.7499999987998
 30
0.0
 40
2.5
  0
LINE
  5
46D
  8
DATA
  6
______-12
 62
     7
 10
67.49744083238322
 20
-950.7499999987998
 30
0.0
 11
70.49744083238322
 21
-950.7499999987998
 31
0.0
  0
LINE
  5
46E
  8
DATA
  6
______-12
 62
     7
 10
68.9999999990495
 20
-949.2488283321335
 30
0.0
 11
68.9999999990495
 21
-952.2488283321335
 31
0.0
  0
CIRCLE
  5
46F
  8
DATA
  6
CONTINUOUS
 62
     7
 10
49.99744083428315
 20
-926.7488283345332
 30
0.0
 40
2.5
  0
LINE
  5
470
  8
DATA
  6
______-12
 62
     7
 10
48.49488166761687
 20
-926.7488283345332
 30
0.0
 11
51.49488166761687
 21
-926.7488283345332
 31
0.0
  0
LINE
  5
471
  8
DATA
  6
______-12
 62
     7
 10
49.99744083428315
 20
-925.2476566678669
 30
0.0
 11
49.99744083428315
 21
-928.2476566678669
 31
0.0
  0
LINE
  5
472
  8
DATA
  6
CONTINUOUS
 62
     7
 10
57.10000000023949
 20
-928.2713311913604
 30
0.0
 11
57.10000000023949
 21
-926.9924492345896
 31
0.0
  0
LINE
  5
473
  8
DATA
  6
CONTINUOUS
 62
     7
 10
61.89999999975946
 20
-928.2713311913604
 30
0.0
 11
61.89999999975946
 21
-926.9924492345878
 31
0.0
  0
ARC
  5
474
  8
DATA
  6
CONTINUOUS
 62
     7
 10
59.50000000000357
 20
-938.7499999999992
 30
0.0
 40
12.00000000000232
 50
78.46304096837633
 51
101.5369590316637
  0
CIRCLE
  5
475
  8
DATA
  6
CONTINUOUS
 62
     7
 10
23.00000000044922
 20
-970.7499999999999
 30
0.0
 40
1.649999999835927
  0
CIRCLE
  5
476
  8
DATA
  6
CONTINUOUS
 62
     7
 10
31.99999999955064
 20
-970.7499999999999
 30
0.0
 40
1.649999999834108
  0
CIRCLE
  5
477
  8
DATA
  6
CONTINUOUS
 62
     7
 10
36.99744083238322
 20
-982.7499999987998
 30
0.0
 40
2.5
  0
LINE
  5
478
  8
DATA
  6
______-12
 62
     7
 10
35.49488166571602
 20
-982.7499999987998
 30
0.0
 11
38.49488166571602
 21
-982.7499999987998
 31
0.0
  0
LINE
  5
479
  8
DATA
  6
______-12
 62
     7
 10
36.99744083238322
 20
-981.2488283321335
 30
0.0
 11
36.99744083238322
 21
-984.2488283321335
 31
0.0
  0
CIRCLE
  5
47A
  8
DATA
  6
CONTINUOUS
 62
     7
 10
18.00255916761664
 20
-958.7500000012
 30
0.0
 40
2.5
  0
LINE
  5
47B
  8
DATA
  6
______-12
 62
     7
 10
16.50000000094944
 20
-958.7500000012
 30
0.0
 11
19.50000000094944
 21
-958.7500000012
 31
0.0
  0
LINE
  5
47C
  8
DATA
  6
______-12
 62
     7
 10
18.00255916761664
 20
-957.2488283345332
 30
0.0
 11
18.00255916761664
 21
-960.2488283345332
 31
0.0
  0
CIRCLE
  5
47D
  8
DATA
  6
CONTINUOUS
 62
     7
 10
27.49999999999993
 20
-970.7499999999999
 30
0.0
 40
9.750000015681577
  0
CIRCLE
  5
47E
  8
DATA
  6
CONTINUOUS
 62
     7
 10
27.49999999999993
 20
-974.699999999605
 30
0.0
 40
1.649999999834108
  0
ARC
  5
47F
  8
DATA
  6
CONTINUOUS
 62
     7
 10
27.49999999999993
 20
-970.7499999999999
 30
0.0
 40
7.899999852386203
 50
50.69269454644028
 51
39.30730194582301
  0
LINE
  5
480
  8
DATA
  6
CONTINUOUS
 62
     7
 10
30.3499999997229
 20
-963.3819950007295
 30
0.0
 11
30.3499999997229
 21
-963.3819951581653
 31
0.0
  0
ARC
  5
481
  8
DATA
  6
CONTINUOUS
 62
     7
 10
32.94472233279696
 20
-965.3052780005372
 30
0.0
 40
0.7999999999199845
 50
326.612906173291
 51
123.3870903189588
  0
ARC
  5
482
  8
DATA
  6
CONTINUOUS
 62
     7
 10
27.5000000000072
 20
-938.7500000000072
 30
0.0
 40
7.899999852386007
 50
140.692698054177
 51
129.3073054535597
  0
CIRCLE
  5
483
  8
DATA
  6
CONTINUOUS
 62
     7
 10
27.49999999999993
 20
-938.7499999999999
 30
0.0
 40
9.749999999025183
  0
ARC
  5
484
  8
DATA
  6
CONTINUOUS
 62
     7
 10
27.49999999999993
 20
-938.7499999999999
 30
0.0
 40
10.75000000000015
 50
102.9003349199812
 51
77.09966508002354
  0
LINE
  5
485
  8
DATA
  6
CONTINUOUS
 62
     7
 10
29.89999999975946
 20
-931.223380573679
 30
0.0
 11
29.89999999975946
 21
-931.223380727797
 31
0.0
  0
LINE
  5
486
  8
DATA
  6
CONTINUOUS
 62
     7
 10
24.65000000028424
 20
-931.3819950007368
 30
0.0
 11
24.65000000028424
 21
-931.3819951581726
 31
0.0
  0
ARC
  5
487
  8
DATA
  6
CONTINUOUS
 62
     7
 10
23.00000000044922
 20
-938.7499999999999
 30
0.0
 40
1.999999999800095
 50
32.08918387405087
 51
327.9108161259492
  0
ARC
  5
488
  8
DATA
  6
CONTINUOUS
 62
     7
 10
31.99999999954973
 20
-938.7499999999999
 30
0.0
 40
1.999999999800095
 50
212.0891838740509
 51
147.9108161259491
  0
ARC
  5
489
  8
DATA
  6
CONTINUOUS
 62
     7
 10
27.49999999999993
 20
-942.6999999996054
 30
0.0
 40
1.99999999980077
 50
137.8522840898889
 51
42.14771591012861
  0
ARC
  5
48A
  8
DATA
  6
CONTINUOUS
 62
     7
 10
22.05527766721018
 20
-933.3052780005445
 30
0.0
 40
0.799999999920039
 50
56.61290968104122
 51
213.387093826709
  0
ARC
  5
48B
  8
DATA
  6
CONTINUOUS
 62
     7
 10
27.49999999999993
 20
-938.7499999999999
 30
0.0
 40
2.999999999999744
 50
20.74191648508129
 51
159.2580835149249
  0
ARC
  5
48C
  8
DATA
  6
CONTINUOUS
 62
     7
 10
27.49999999999993
 20
-938.7499999999999
 30
0.0
 40
3.000000000000594
 50
200.7419164850751
 51
240.3778367991917
  0
ARC
  5
48D
  8
DATA
  6
CONTINUOUS
 62
     7
 10
27.49999999999993
 20
-938.7499999999999
 30
0.0
 40
2.999999999999644
 50
299.6221632007934
 51
339.2580835149187
  0
CIRCLE
  5
48E
  8
DATA
  6
CONTINUOUS
 62
     7
 10
36.99999999904951
 20
-950.7499999987998
 30
0.0
 40
2.5
  0
LINE
  5
48F
  8
DATA
  6
______-12
 62
     7
 10
35.49744083238322
 20
-950.7499999987998
 30
0.0
 11
38.49744083238322
 21
-950.7499999987998
 31
0.0
  0
LINE
  5
490
  8
DATA
  6
______-12
 62
     7
 10
36.99999999904951
 20
-949.2488283321335
 30
0.0
 11
36.99999999904951
 21
-952.2488283321335
 31
0.0
  0
CIRCLE
  5
491
  8
DATA
  6
CONTINUOUS
 62
     7
 10
17.99744083428315
 20
-926.7488283345332
 30
0.0
 40
2.5
  0
LINE
  5
492
  8
DATA
  6
______-12
 62
     7
 10
16.49488166761687
 20
-926.7488283345332
 30
0.0
 11
19.49488166761687
 21
-926.7488283345332
 31
0.0
  0
LINE
  5
493
  8
DATA
  6
______-12
 62
     7
 10
17.99744083428315
 20
-925.2476566678669
 30
0.0
 11
17.99744083428315
 21
-928.2476566678669
 31
0.0
  0
LINE
  5
494
  8
DATA
  6
CONTINUOUS
 62
     7
 10
25.10000000023949
 20
-928.2713311913604
 30
0.0
 11
25.10000000023949
 21
-926.9924492345896
 31
0.0
  0
LINE
  5
495
  8
DATA
  6
CONTINUOUS
 62
     7
 10
29.89999999975946
 20
-928.2713311913604
 30
0.0
 11
29.89999999975946
 21
-926.9924492345878
 31
0.0
  0
ARC
  5
496
  8
DATA
  6
CONTINUOUS
 62
     7
 10
27.50000000000357
 20
-938.7499999999992
 30
0.0
 40
12.00000000000232
 50
78.46304096837633
 51
101.5369590316637
  0
CIRCLE
  5
497
  8
DATA
  6
CONTINUOUS
 62
     7
 10
96.49999999999994
 20
-873.7499999999999
 30
0.0
 40
1.5
  0
TEXT
  5
498
  8
DATA
 62
     7
 10
78.81352539062495
 20
-867.4247070312498
 30
0.0
 40
3.2494140625
  1
POWER
 41
0.7
 72
     1
 11
84.49999999999994
 21
-865.7999999999998
 31
0.0
 73
     2
  0
TEXT
  5
499
  8
DATA
 62
     7
 10
75.02254231770827
 20
-884.4247070312498
 30
0.0
 40
3.2494140625
  1
MAIN/MENU
 41
0.7
 72
     1
 11
84.49999999999994
 21
-882.7999999999998
 31
0.0
 73
     2
  0
ARC
  5
49A
  8
DATA
  6
CONTINUOUS
 62
     7
 10
84.5
 20
-873.7499999999997
 30
0.0
 40
1.99999999999977
 50
120.0000000000038
 51
59.9999999999962
  0
LINE
  5
49B
  8
DATA
  6
CONTINUOUS
 62
     7
 10
84.5
 20
-873.7499999999999
 30
0.0
 11
84.5
 21
-871.2499999999999
 31
0.0
  0
CIRCLE
  5
49C
  8
DATA
  6
CONTINUOUS
 62
     7
 10
96.49999999999994
 20
-922.7499999999999
 30
0.0
 40
1.5
  0
TEXT
  5
49D
  8
DATA
 62
     7
 10
80.32991861979161
 20
-916.4247070312498
 30
0.0
 40
3.2494140625
  1
BACK
 41
0.7
 72
     1
 11
84.49999999999994
 21
-914.7999999999998
 31
0.0
 73
     2
  0
TEXT
  5
49E
  8
DATA
 62
     7
 10
91.95082031249994
 20
-916.4247070312498
 30
0.0
 40
3.2494140625
  1
LIMIT
 41
0.7
 72
     1
 11
96.49999999999994
 21
-914.7999999999998
 31
0.0
 73
     2
  0
LINE
  5
49F
  8
DATA
  6
CONTINUOUS
 62
     7
 10
28.74999999999993
 20
-953.9999999999666
 30
0.0
 11
26.24999999999993
 21
-953.9999999999666
 31
0.0
  0
LINE
  5
4A0
  8
DATA
  6
CONTINUOUS
 62
     7
 10
26.24999999999993
 20
-953.9999999999666
 30
0.0
 11
27.49999999999993
 21
-952.4999999999666
 31
0.0
  0
LINE
  5
4A1
  8
DATA
  6
CONTINUOUS
 62
     7
 10
28.74999999999993
 20
-953.9999999999666
 30
0.0
 11
27.49999999999993
 21
-952.4999999999666
 31
0.0
  0
TEXT
  5
4A2
  8
DATA
 62
     7
 10
24.84631184895826
 20
-958.6247070312165
 30
0.0
 40
3.2494140625
  1
CH1
 41
0.7
 72
     1
 11
27.49999999999993
 21
-956.9999999999666
 31
0.0
 73
     2
  0
LINE
  5
4A3
  8
DATA
  6
CONTINUOUS
 62
     7
 10
60.74999999999993
 20
-953.9999999999666
 30
0.0
 11
58.24999999999993
 21
-953.9999999999666
 31
0.0
  0
LINE
  5
4A4
  8
DATA
  6
CONTINUOUS
 62
     7
 10
58.24999999999993
 20
-953.9999999999666
 30
0.0
 11
59.49999999999993
 21
-952.4999999999666
 31
0.0
  0
LINE
  5
4A5
  8
DATA
  6
CONTINUOUS
 62
     7
 10
60.74999999999993
 20
-953.9999999999666
 30
0.0
 11
59.49999999999993
 21
-952.4999999999666
 31
0.0
  0
TEXT
  5
4A6
  8
DATA
 62
     7
 10
56.4672135416666
 20
-958.6247070312165
 30
0.0
 40
3.2494140625
  1
CH2
 41
0.7
 72
     1
 11
59.49999999999993
 21
-956.9999999999666
 31
0.0
 73
     2
  0
LINE
  5
4A7
  8
DATA
  6
CONTINUOUS
 62
     7
 10
28.74999999999993
 20
-985.9999999999666
 30
0.0
 11
26.24999999999993
 21
-985.9999999999666
 31
0.0
  0
LINE
  5
4A8
  8
DATA
  6
CONTINUOUS
 62
     7
 10
26.24999999999993
 20
-985.9999999999666
 30
0.0
 11
27.49999999999993
 21
-984.4999999999666
 31
0.0
  0
LINE
  5
4A9
  8
DATA
  6
CONTINUOUS
 62
     7
 10
28.74999999999993
 20
-985.9999999999666
 30
0.0
 11
27.49999999999993
 21
-984.4999999999666
 31
0.0
  0
TEXT
  5
4AA
  8
DATA
 62
     7
 10
17.34016536458326
 20
-990.6247070312165
 30
0.0
 40
3.2494140625
  1
PASS THRU1
 41
0.7
 72
     1
 11
27.49999999999993
 21
-988.9999999999666
 31
0.0
 73
     2
  0
LINE
  5
4AB
  8
DATA
  6
CONTINUOUS
 62
     7
 10
60.74999999999993
 20
-985.9999999999666
 30
0.0
 11
58.24999999999993
 21
-985.9999999999666
 31
0.0
  0
LINE
  5
4AC
  8
DATA
  6
CONTINUOUS
 62
     7
 10
58.24999999999993
 20
-985.9999999999666
 30
0.0
 11
59.49999999999993
 21
-984.4999999999666
 31
0.0
  0
LINE
  5
4AD
  8
DATA
  6
CONTINUOUS
 62
     7
 10
60.74999999999993
 20
-985.9999999999666
 30
0.0
 11
59.49999999999993
 21
-984.4999999999666
 31
0.0
  0
TEXT
  5
4AE
  8
DATA
 62
     7
 10
48.96106705729159
 20
-990.6247070312165
 30
0.0
 40
3.2494140625
  1
PASS THRU2
 41
0.7
 72
     1
 11
59.49999999999993
 21
-988.9999999999666
 31
0.0
 73
     2
  0
ARC
  5
4AF
  8
DATA
  6
CONTINUOUS
 62
     7
 10
81.49999999999993
 20
-1023.75
 30
0.0
 40
3.0
 50
0.0
 51
90.0
  0
LINE
  5
4B0
  8
DATA
  6
CONTINUOUS
 62
     7
 10
57.49999999999993
 20
-1020.75
 30
0.0
 11
81.49999999999993
 21
-1020.75
 31
0.0
  0
ARC
  5
4B1
  8
DATA
  6
CONTINUOUS
 62
     7
 10
57.49999999999993
 20
-1023.75
 30
0.0
 40
3.0
 50
90.0
 51
180.0
  0
LINE
  5
4B2
  8
DATA
  6
CONTINUOUS
 62
     7
 10
54.49999999999993
 20
-1039.75
 30
0.0
 11
54.49999999999993
 21
-1023.75
 31
0.0
  0
ARC
  5
4B3
  8
DATA
  6
CONTINUOUS
 62
     7
 10
57.49999999999947
 20
-1039.75
 30
0.0
 40
2.999999999999545
 50
180.0
 51
224.9999999999693
  0
ARC
  5
4B4
  8
DATA
  6
CONTINUOUS
 62
     7
 10
57.49999999999993
 20
-1039.75
 30
0.0
 40
2.999999999999542
 50
225.0000000000061
 51
270.0
  0
LINE
  5
4B5
  8
DATA
  6
CONTINUOUS
 62
     7
 10
81.49999999999993
 20
-1042.75
 30
0.0
 11
57.49999999999993
 21
-1042.75
 31
0.0
  0
ARC
  5
4B6
  8
DATA
  6
CONTINUOUS
 62
     7
 10
81.49999999999993
 20
-1039.75
 30
0.0
 40
3.0
 50
270.0
 51
0.0
  0
LINE
  5
4B7
  8
DATA
  6
CONTINUOUS
 62
     7
 10
84.49999999999993
 20
-1023.75
 30
0.0
 11
84.49999999999993
 21
-1039.75
 31
0.0
  0
LINE
  5
4B8
  8
DATA
  6
CONTINUOUS
 62
     7
 10
57.49999999999993
 20
-1023.75
 30
0.0
 11
81.49999999999993
 21
-1023.75
 31
0.0
  0
LINE
  5
4B9
  8
DATA
  6
CONTINUOUS
 62
     7
 10
57.49999999999993
 20
-1035.25
 30
0.0
 11
57.49999999999993
 21
-1023.75
 31
0.0
  0
LINE
  5
4BA
  8
DATA
  6
CONTINUOUS
 62
     7
 10
75.99999999999993
 20
-1039.75
 30
0.0
 11
62.99999999999993
 21
-1039.75
 31
0.0
  0
LINE
  5
4BB
  8
DATA
  6
CONTINUOUS
 62
     7
 10
81.49999999999993
 20
-1023.75
 30
0.0
 11
81.49999999999993
 21
-1035.25
 31
0.0
  0
LINE
  5
4BC
  8
DATA
  6
CONTINUOUS
 62
     7
 10
57.49999999999993
 20
-1035.25
 30
0.0
 11
62.99999999999993
 21
-1039.75
 31
0.0
  0
LINE
  5
4BD
  8
DATA
  6
CONTINUOUS
 62
     7
 10
75.99999999999993
 20
-1039.75
 30
0.0
 11
81.49999999999993
 21
-1035.25
 31
0.0
  0
POLYLINE
  5
4BE
  8
DATA
  6
CONTINUOUS
 62
     7
 66
     1
 10
0.0
 20
0.0
 30
0.0
 70
   129
  0
VERTEX
  5
660
  8
DATA
  6
CONTINUOUS
 62
     7
 10
62.99999999999993
 20
-1027.25
 30
0.0
  0
VERTEX
  5
661
  8
DATA
  6
CONTINUOUS
 62
     7
 10
62.99999999999993
 20
-1031.25
 30
0.0
  0
VERTEX
  5
662
  8
DATA
  6
CONTINUOUS
 62
     7
 10
61.99999999999993
 20
-1031.25
 30
0.0
  0
VERTEX
  5
663
  8
DATA
  6
CONTINUOUS
 62
     7
 10
61.99999999999993
 20
-1027.25
 30
0.0
  0
SEQEND
  5
694
  8
DATA
  6
CONTINUOUS
 62
     7
  0
POLYLINE
  5
4C4
  8
DATA
  6
CONTINUOUS
 62
     7
 66
     1
 10
0.0
 20
0.0
 30
0.0
 70
   129
  0
VERTEX
  5
664
  8
DATA
  6
CONTINUOUS
 62
     7
 10
76.99999999999993
 20
-1027.25
 30
0.0
  0
VERTEX
  5
665
  8
DATA
  6
CONTINUOUS
 62
     7
 10
76.99999999999993
 20
-1031.25
 30
0.0
  0
VERTEX
  5
666
  8
DATA
  6
CONTINUOUS
 62
     7
 10
75.99999999999993
 20
-1031.25
 30
0.0
  0
VERTEX
  5
667
  8
DATA
  6
CONTINUOUS
 62
     7
 10
75.99999999999993
 20
-1027.25
 30
0.0
  0
SEQEND
  5
695
  8
DATA
  6
CONTINUOUS
 62
     7
  0
POLYLINE
  5
4CA
  8
DATA
  6
CONTINUOUS
 62
     7
 66
     1
 10
0.0
 20
0.0
 30
0.0
 70
   129
  0
VERTEX
  5
668
  8
DATA
  6
CONTINUOUS
 62
     7
 10
69.99999999999993
 20
-1031.75
 30
0.0
  0
VERTEX
  5
669
  8
DATA
  6
CONTINUOUS
 62
     7
 10
69.99999999999993
 20
-1035.75
 30
0.0
  0
VERTEX
  5
66A
  8
DATA
  6
CONTINUOUS
 62
     7
 10
68.99999999999993
 20
-1035.75
 30
0.0
  0
VERTEX
  5
66B
  8
DATA
  6
CONTINUOUS
 62
     7
 10
68.99999999999993
 20
-1031.75
 30
0.0
  0
SEQEND
  5
696
  8
DATA
  6
CONTINUOUS
 62
     7
  0
TEXT
  5
4D0
  8
DATA
 62
     7
 10
60.17418164062493
 20
-1012.494151475683
 30
0.0
 40
3.2494140625
  1
500W MAX 
 41
0.7
 72
     1
 11
69.49999999999993
 21
-1010.869444444433
 31
0.0
 73
     2
  0
TEXT
  5
4D1
  8
DATA
 62
     7
 10
53.19877278645826
 20
-1016.727484809016
 30
0.0
 40
3.2494140625
  1
100-120V?50/60Hz
 41
0.7
 72
     1
 11
69.49999999999993
 21
-1015.102777777767
 31
0.0
 73
     2
  0
TEXT
  5
4D2
  8
DATA
 62
     7
 10
117.5928975694444
 20
-948.1977457682291
 30
0.0
 40
1.895491536458333
  1
JBL PROFESSIONAL
 41
0.7
 72
     1
 11
127.4999999999999
 21
-947.2499999999999
 31
0.0
 73
     2
  0
POLYLINE
  5
4D3
  8
DATA
  6
CONTINUOUS
 62
     7
 66
     1
 10
0.0
 20
0.0
 30
0.0
 70
   129
  0
VERTEX
  5
66C
  8
DATA
  6
CONTINUOUS
 62
     7
 10
117.4999999999999
 20
-945.7499999999999
 30
0.0
  0
VERTEX
  5
66D
  8
DATA
  6
CONTINUOUS
 62
     7
 10
137.4999999999999
 20
-945.7499999999999
 30
0.0
  0
VERTEX
  5
66E
  8
DATA
  6
CONTINUOUS
 62
     7
 10
137.4999999999999
 20
-948.7499999999999
 30
0.0
  0
VERTEX
  5
66F
  8
DATA
  6
CONTINUOUS
 62
     7
 10
117.4999999999999
 20
-948.7499999999999
 30
0.0
  0
SEQEND
  5
697
  8
DATA
  6
CONTINUOUS
 62
     7
  0
POLYLINE
  5
4D9
  8
DATA
  6
CONTINUOUS
 62
     7
 66
     1
 10
0.0
 20
0.0
 30
0.0
 70
   129
  0
VERTEX
  5
670
  8
DATA
  6
CONTINUOUS
 62
     7
 10
117.4999999999999
 20
-928.7499999999999
 30
0.0
  0
VERTEX
  5
671
  8
DATA
  6
CONTINUOUS
 62
     7
 10
137.4999999999999
 20
-928.7499999999999
 30
0.0
  0
VERTEX
  5
672
  8
DATA
  6
CONTINUOUS
 62
     7
 10
137.4999999999999
 20
-945.2499999999999
 30
0.0
  0
VERTEX
  5
673
  8
DATA
  6
CONTINUOUS
 62
     7
 10
117.4999999999999
 20
-945.2499999999999
 30
0.0
  0
SEQEND
  5
698
  8
DATA
  6
CONTINUOUS
 62
     7
  0
ARC
  5
4DF
  8
DATA
  6
CONTINUOUS
 62
     7
 10
123.6765569999999
 20
-938.5773354999999
 30
0.0
 40
1.676254726359101
 50
264.6908562215355
 51
323.9911991542427
  0
ARC
  5
4E0
  8
DATA
  6
CONTINUOUS
 62
     7
 10
123.3663574999999
 20
-938.5773354999999
 30
0.0
 40
1.676252004015271
 50
216.0088008457575
 51
275.3091437784647
  0
ARC
  5
4E1
  8
DATA
  6
CONTINUOUS
 62
     7
 10
127.9360524999999
 20
-939.0124584999999
 30
0.0
 40
1.236697417616864
 50
273.830981609114
 51
351.1351473098023
  0
ARC
  5
4E2
  8
DATA
  6
CONTINUOUS
 62
     7
 10
127.9483829999999
 20
-934.9784544999999
 30
0.0
 40
1.234824456392497
 50
8.22692385901539
 51
86.15412669215259
  0
ARC
  5
4E3
  8
DATA
  6
CONTINUOUS
 62
     7
 10
127.8125078863225
 20
-939.3262563706161
 30
0.0
 40
0.2072090246320589
 50
307.641902497561
 51
354.2670192893914
  0
LINE
  5
4E4
  8
DATA
  6
CONTINUOUS
 62
     7
 10
122.4900924999999
 20
-936.0609774999999
 30
0.0
 11
123.4614914999999
 21
-933.7464054999999
 31
0.0
  0
LINE
  5
4E5
  8
DATA
  6
CONTINUOUS
 62
     7
 10
122.4900924999999
 20
-936.0609774999999
 30
0.0
 11
121.5306794999999
 21
-933.7464054999999
 31
0.0
  0
LINE
  5
4E6
  8
DATA
  6
CONTINUOUS
 62
     7
 10
129.8535524999999
 20
-940.2464054999999
 30
0.0
 11
129.8535524999999
 21
-933.7464054999999
 31
0.0
  0
LINE
  5
4E7
  8
DATA
  6
CONTINUOUS
 62
     7
 10
131.1007854999999
 20
-933.7464054999999
 30
0.0
 11
131.1007854999999
 21
-939.2510214999999
 31
0.0
  0
LINE
  5
4E8
  8
DATA
  6
CONTINUOUS
 62
     7
 10
123.9172129999999
 20
-933.7464054999999
 30
0.0
 11
123.9172129999999
 21
-939.2510214999999
 31
0.0
  0
LINE
  5
4E9
  8
DATA
  6
CONTINUOUS
 62
     7
 10
125.1164759999999
 20
-933.7464054999999
 30
0.0
 11
125.1164759999999
 21
-939.2510214999999
 31
0.0
  0
LINE
  5
4EA
  8
DATA
  6
CONTINUOUS
 62
     7
 10
125.7400924999999
 20
-933.7464054999999
 30
0.0
 11
125.7400924999999
 21
-940.2464054999999
 31
0.0
  0
LINE
  5
4EB
  8
DATA
  6
CONTINUOUS
 62
     7
 10
126.8314229999999
 20
-934.3580229999999
 30
0.0
 11
126.8314229999999
 21
-936.4447439999999
 31
0.0
  0
LINE
  5
4EC
  8
DATA
  6
CONTINUOUS
 62
     7
 10
129.1704999999999
 20
-936.324
 30
0.0
 11
129.1704999999999
 21
-934.8017584999999
 31
0.0
  0
LINE
  5
4ED
  8
DATA
  6
CONTINUOUS
 62
     7
 10
128.0186804999999
 20
-934.6458494999999
 30
0.0
 11
128.0186804999999
 21
-936.1569239999999
 31
0.0
  0
LINE
  5
4EE
  8
DATA
  6
CONTINUOUS
 62
     7
 10
123.0057764999999
 20
-938.2076544999999
 30
0.0
 11
123.0057764999999
 21
-939.2510084999999
 31
0.0
  0
LINE
  5
4EF
  8
DATA
  6
CONTINUOUS
 62
     7
 10
123.0057764999999
 20
-938.2076544999999
 30
0.0
 11
121.9264384999999
 21
-938.2076544999999
 31
0.0
  0
LINE
  5
4F0
  8
DATA
  6
CONTINUOUS
 62
     7
 10
121.9264384999999
 20
-938.2076544999999
 30
0.0
 11
121.9264384999999
 21
-939.2510084999999
 31
0.0
  0
ARC
  5
4F1
  8
DATA
  6
CONTINUOUS
 62
     7
 10
123.4637794999999
 20
-939.2650744999999
 30
0.0
 40
0.45365373705756
 50
269.7118487927496
 51
1.775987005683703
  0
ARC
  5
4F2
  8
DATA
  6
CONTINUOUS
 62
     7
 10
123.4592099999999
 20
-939.2650744999999
 30
0.0
 40
0.4536514173487315
 50
178.2240129943243
 51
270.2881512072502
  0
ARC
  5
4F3
  8
DATA
  6
CONTINUOUS
 62
     7
 10
122.6839744999999
 20
-939.2142639999998
 30
0.0
 40
0.75842013531453
 50
182.7769954499978
 51
207.3596066671485
  0
CIRCLE
  5
4F4
  8
DATA
  6
CONTINUOUS
 62
     7
 10
122.5560544999999
 20
-936.9604279999999
 30
0.0
 40
0.6176169999999956
  0
LINE
  5
4F5
  8
DATA
  6
CONTINUOUS
 62
     7
 10
133.1035524999999
 20
-940.2463989999999
 30
0.0
 11
129.8535524999999
 21
-940.2463989999999
 31
0.0
  0
LINE
  5
4F6
  8
DATA
  6
CONTINUOUS
 62
     7
 10
133.1035524999999
 20
-940.2463989999999
 30
0.0
 11
133.1035524999999
 21
-938.207648
 31
0.0
  0
LINE
  5
4F7
  8
DATA
  6
CONTINUOUS
 62
     7
 10
133.1035524999999
 20
-938.2076544999999
 30
0.0
 11
132.0122284999999
 21
-938.2076544999999
 31
0.0
  0
LINE
  5
4F8
  8
DATA
  6
CONTINUOUS
 62
     7
 10
132.0122284999999
 20
-938.2076544999999
 30
0.0
 11
132.0122284999999
 21
-939.2510084999999
 31
0.0
  0
LINE
  5
4F9
  8
DATA
  6
CONTINUOUS
 62
     7
 10
125.7400924999999
 20
-940.2463989999999
 30
0.0
 11
128.0186804999999
 21
-940.2463925
 31
0.0
  0
LINE
  5
4FA
  8
DATA
  6
CONTINUOUS
 62
     7
 10
126.8314164999999
 20
-939.6347749999999
 30
0.0
 11
127.4190554999999
 21
-939.6347749999999
 31
0.0
  0
LINE
  5
4FB
  8
DATA
  6
CONTINUOUS
 62
     7
 10
126.8314229999999
 20
-939.6347749999999
 30
0.0
 11
126.8314229999999
 21
-937.0683539999999
 31
0.0
  0
LINE
  5
4FC
  8
DATA
  6
CONTINUOUS
 62
     7
 10
126.8314164999999
 20
-937.0683539999999
 30
0.0
 11
127.4190554999999
 21
-937.0683539999999
 31
0.0
  0
LINE
  5
4FD
  8
DATA
  6
CONTINUOUS
 62
     7
 10
128.0186804999999
 20
-939.3469549999999
 30
0.0
 11
128.0186804999999
 21
-937.3561739999999
 31
0.0
  0
ARC
  5
4FE
  8
DATA
  6
CONTINUOUS
 62
     7
 10
124.3589399999999
 20
-939.2142639999998
 30
0.0
 40
0.7584190561122901
 50
332.640393332852
 51
357.2230045499986
  0
ARC
  5
4FF
  8
DATA
  6
CONTINUOUS
 62
     7
 10
131.5587884999999
 20
-939.2650744999999
 30
0.0
 40
0.4536537370575598
 50
269.7118487927532
 51
1.775987005683703
  0
ARC
  5
500
  8
DATA
  6
CONTINUOUS
 62
     7
 10
131.5542254999999
 20
-939.2650744999999
 30
0.0
 40
0.4536514173486747
 50
178.224012994324
 51
270.2881512072537
  0
LINE
  5
501
  8
DATA
  6
CONTINUOUS
 62
     7
 10
129.1699734999999
 20
-939.2030384999998
 30
0.0
 11
129.1699734999999
 21
-937.4761054999999
 31
0.0
  0
LINE
  5
502
  8
DATA
  6
CONTINUOUS
 62
     7
 10
126.8314164999999
 20
-936.4447439999999
 30
0.0
 11
127.4190554999999
 21
-936.4447439999999
 31
0.0
  0
LINE
  5
503
  8
DATA
  6
CONTINUOUS
 62
     7
 10
123.9172129999999
 20
-933.7464054999999
 30
0.0
 11
125.1164759999999
 21
-933.7464054999999
 31
0.0
  0
LINE
  5
504
  8
DATA
  6
CONTINUOUS
 62
     7
 10
121.5306794999999
 20
-933.7464054999999
 30
0.0
 11
123.4614914999999
 21
-933.7464054999999
 31
0.0
  0
LINE
  5
505
  8
DATA
  6
CONTINUOUS
 62
     7
 10
129.8535524999999
 20
-933.7464054999999
 30
0.0
 11
131.1007854999999
 21
-933.7464054999999
 31
0.0
  0
LINE
  5
506
  8
DATA
  6
CONTINUOUS
 62
     7
 10
125.7400924999999
 20
-933.7464054999999
 30
0.0
 11
128.0312060832953
 21
-933.7464107609312
 31
0.0
  0
LINE
  5
507
  8
DATA
  6
CONTINUOUS
 62
     7
 10
126.8314164999999
 20
-934.3580294999999
 30
0.0
 11
127.4190554999999
 21
-934.3580294999999
 31
0.0
  0
ARC
  5
508
  8
DATA
  6
CONTINUOUS
 62
     7
 10
127.425994550692
 20
-938.4948778256183
 30
0.0
 40
1.139918294698136
 50
269.6512199376173
 51
282.8264828068721
  0
ARC
  5
509
  8
DATA
  6
CONTINUOUS
 62
     7
 10
127.5540254178533
 20
-938.9768127022975
 30
0.0
 40
0.6418346374006585
 50
281.2331036226594
 51
306.8620088940583
  0
ARC
  5
50A
  8
DATA
  6
CONTINUOUS
 62
     7
 10
127.8125078863225
 20
-937.3768726293837
 30
0.0
 40
0.2072090246319788
 50
5.732980710608583
 51
52.35809750241976
  0
ARC
  5
50B
  8
DATA
  6
CONTINUOUS
 62
     7
 10
127.425994550692
 20
-938.2082511743814
 30
0.0
 40
1.139918294698059
 50
77.17351719312664
 51
90.34878006238269
  0
ARC
  5
50C
  8
DATA
  6
CONTINUOUS
 62
     7
 10
127.5540254178533
 20
-937.7263162977023
 30
0.0
 40
0.6418346374005844
 50
53.1379911059356
 51
78.76689637733863
  0
ARC
  5
50D
  8
DATA
  6
CONTINUOUS
 62
     7
 10
128.5409814999999
 20
-937.5186219999998
 30
0.0
 40
0.6304273065439195
 50
3.867006359814797
 51
88.36163456789662
  0
ARC
  5
50E
  8
DATA
  6
CONTINUOUS
 62
     7
 10
128.5404029999999
 20
-936.257674
 30
0.0
 40
0.6310537609658383
 50
271.6892821046524
 51
356.0782829826655
  0
ARC
  5
50F
  8
DATA
  6
CONTINUOUS
 62
     7
 10
127.8125078863225
 20
-936.1362253706161
 30
0.0
 40
0.2072090246320589
 50
307.641902497561
 51
354.2670192893914
  0
ARC
  5
510
  8
DATA
  6
CONTINUOUS
 62
     7
 10
127.425994550692
 20
-935.3048468256184
 30
0.0
 40
1.139918294698136
 50
269.6512199376173
 51
282.8264828068721
  0
ARC
  5
511
  8
DATA
  6
CONTINUOUS
 62
     7
 10
127.5540254178533
 20
-935.7867817022975
 30
0.0
 40
0.6418346374006585
 50
281.2331036226594
 51
306.8620088940644
  0
ARC
  5
512
  8
DATA
  6
CONTINUOUS
 62
     7
 10
127.8125078863225
 20
-934.6665481293837
 30
0.0
 40
0.2072090246319788
 50
5.732980710608583
 51
52.35809750244518
  0
ARC
  5
513
  8
DATA
  6
CONTINUOUS
 62
     7
 10
127.425994550692
 20
-935.4979266743813
 30
0.0
 40
1.139918294698059
 50
77.17351719312664
 51
90.34878006238269
  0
ARC
  5
514
  8
DATA
  6
CONTINUOUS
 62
     7
 10
127.5540254178533
 20
-935.0159917977022
 30
0.0
 40
0.6418346374005844
 50
53.1379911059356
 51
78.76689637733863
  0
TEXT
  5
515
  8
DATA
 62
     7
 10
53.7295104166666
 20
-1003.2494140625
 30
0.0
 40
6.498828124999999
  1
EON 718S
 41
0.7
 72
     1
 11
69.49999999999993
 21
-1000.0
 31
0.0
 73
     2
  0
LINE
  5
516
  8
DATA
  6
CONTINUOUS
 62
     7
 10
550.0
 20
-1435.000000000001
 30
0.0
 11
550.0
 21
435.0000000000011
 31
0.0
  0
LINE
  5
517
  8
DATA
  6
CONTINUOUS
 62
     7
 10
1641.556364193942
 20
-1619.999999999994
 30
0.0
 11
734.9999999999909
 21
-1619.999999999994
 31
0.0
  0
LINE
  5
518
  8
DATA
  6
CONTINUOUS
 62
     7
 10
735.0000000000045
 20
620.0000000000057
 30
0.0
 11
1659.865838242461
 21
620.0000000000057
 31
0.0
  0
ARC
  5
519
  8
DATA
  6
CONTINUOUS
 62
     7
 10
735.0000000000045
 20
435.0000000000034
 30
0.0
 40
185.0000000000046
 50
90.0
 51
180.0
  0
ARC
  5
51A
  8
DATA
  6
CONTINUOUS
 62
     7
 10
734.9999999999909
 20
-1435.000000000001
 30
0.0
 40
184.9999999999909
 50
180.0
 51
270.0
  0
POLYLINE
  5
51B
  8
DATA
  6
CONTINUOUS
 62
     7
 66
     1
 10
0.0
 20
0.0
 30
0.0
 70
   129
  0
VERTEX
  5
674
  8
DATA
  6
CONTINUOUS
 62
     7
 10
775.0
 20
255.0000000000068
 30
0.0
  0
VERTEX
  5
675
  8
DATA
  6
CONTINUOUS
 62
     7
 10
1255.0
 20
255.0000000000068
 30
0.0
  0
VERTEX
  5
676
  8
DATA
  6
CONTINUOUS
 62
     7
 10
1255.0
 20
-114.9999999999932
 30
0.0
  0
VERTEX
  5
677
  8
DATA
  6
CONTINUOUS
 62
     7
 10
775.0
 20
-114.9999999999932
 30
0.0
  0
SEQEND
  5
699
  8
DATA
  6
CONTINUOUS
 62
     7
  0
CIRCLE
  5
521
  8
DATA
  6
CONTINUOUS
 62
     7
 10
1435.0
 20
305.0000000000068
 30
0.0
 40
49.50000000000045
  0
CIRCLE
  5
522
  8
DATA
  6
CONTINUOUS
 62
     7
 10
1435.0
 20
75.00000000000676
 30
0.0
 40
109.5000000000005
  0
CIRCLE
  5
523
  8
DATA
  6
CONTINUOUS
 62
     7
 10
1435.0
 20
-184.9999999999932
 30
0.0
 40
49.50000000000045
  0
CIRCLE
  5
524
  8
DATA
  6
CONTINUOUS
 62
     7
 10
1140.000000004493
 20
-664.9999999999932
 30
0.0
 40
16.49999999835927
  0
CIRCLE
  5
525
  8
DATA
  6
CONTINUOUS
 62
     7
 10
1229.999999995507
 20
-664.9999999999932
 30
0.0
 40
16.49999999834108
  0
CIRCLE
  5
526
  8
DATA
  6
CONTINUOUS
 62
     7
 10
1279.974408323833
 20
-784.9999999879924
 30
0.0
 40
25.0
  0
LINE
  5
527
  8
DATA
  6
______-12
 62
     7
 10
1264.948816657161
 20
-784.9999999879924
 30
0.0
 11
1294.948816657161
 21
-784.9999999879924
 31
0.0
  0
LINE
  5
528
  8
DATA
  6
______-12
 62
     7
 10
1279.974408323833
 20
-769.9882833213292
 30
0.0
 11
1279.974408323833
 21
-799.9882833213292
 31
0.0
  0
CIRCLE
  5
529
  8
DATA
  6
CONTINUOUS
 62
     7
 10
1090.025591676167
 20
-545.000000011994
 30
0.0
 40
25.0
  0
LINE
  5
52A
  8
DATA
  6
______-12
 62
     7
 10
1075.000000009495
 20
-545.000000011994
 30
0.0
 11
1105.000000009495
 21
-545.000000011994
 31
0.0
  0
LINE
  5
52B
  8
DATA
  6
______-12
 62
     7
 10
1090.025591676167
 20
-529.9882833453262
 30
0.0
 11
1090.025591676167
 21
-559.9882833453262
 31
0.0
  0
CIRCLE
  5
52C
  8
DATA
  6
CONTINUOUS
 62
     7
 10
1185.0
 20
-664.9999999999932
 30
0.0
 40
97.50000015681577
  0
CIRCLE
  5
52D
  8
DATA
  6
CONTINUOUS
 62
     7
 10
1185.0
 20
-704.4999999960442
 30
0.0
 40
16.49999999834108
  0
ARC
  5
52E
  8
DATA
  6
CONTINUOUS
 62
     7
 10
1185.0
 20
-664.9999999999932
 30
0.0
 40
78.99999852386203
 50
50.69269454644028
 51
39.30730194582291
  0
LINE
  5
52F
  8
DATA
  6
CONTINUOUS
 62
     7
 10
1213.49999999723
 20
-591.3199500072892
 30
0.0
 11
1213.49999999723
 21
-591.3199515816473
 31
0.0
  0
ARC
  5
530
  8
DATA
  6
CONTINUOUS
 62
     7
 10
1239.44722332797
 20
-610.5527800053665
 30
0.0
 40
7.999999999199845
 50
326.612906173291
 51
123.3870903189592
  0
ARC
  5
531
  8
DATA
  6
CONTINUOUS
 62
     7
 10
1185.000000000073
 20
-345.000000000066
 30
0.0
 40
78.99999852386007
 50
140.692698054177
 51
129.3073054535596
  0
CIRCLE
  5
532
  8
DATA
  6
CONTINUOUS
 62
     7
 10
1185.0
 20
-344.9999999999932
 30
0.0
 40
97.49999999025184
  0
ARC
  5
533
  8
DATA
  6
CONTINUOUS
 62
     7
 10
1185.0
 20
-344.9999999999932
 30
0.0
 40
107.5000000000015
 50
102.9003349199812
 51
77.09966508002354
  0
LINE
  5
534
  8
DATA
  6
CONTINUOUS
 62
     7
 10
1208.999999997595
 20
-269.7338057367847
 30
0.0
 11
1208.999999997595
 21
-269.7338072779644
 31
0.0
  0
LINE
  5
535
  8
DATA
  6
CONTINUOUS
 62
     7
 10
1156.500000002843
 20
-271.319950007362
 30
0.0
 11
1156.500000002843
 21
-271.3199515817201
 31
0.0
  0
ARC
  5
536
  8
DATA
  6
CONTINUOUS
 62
     7
 10
1140.000000004493
 20
-344.9999999999932
 30
0.0
 40
19.99999999800095
 50
32.08918387405087
 51
327.9108161259492
  0
ARC
  5
537
  8
DATA
  6
CONTINUOUS
 62
     7
 10
1229.999999995498
 20
-344.9999999999932
 30
0.0
 40
19.99999999800095
 50
212.0891838740509
 51
147.9108161259491
  0
ARC
  5
538
  8
DATA
  6
CONTINUOUS
 62
     7
 10
1185.0
 20
-384.4999999960488
 30
0.0
 40
19.9999999980077
 50
137.8522840898889
 51
42.14771591012867
  0
ARC
  5
539
  8
DATA
  6
CONTINUOUS
 62
     7
 10
1130.552776672102
 20
-290.5527800054393
 30
0.0
 40
7.99999999920039
 50
56.61290968104122
 51
213.3870938267092
  0
ARC
  5
53A
  8
DATA
  6
CONTINUOUS
 62
     7
 10
1185.0
 20
-344.9999999999932
 30
0.0
 40
29.99999999999744
 50
20.74191648508129
 51
159.2580835149249
  0
ARC
  5
53B
  8
DATA
  6
CONTINUOUS
 62
     7
 10
1185.0
 20
-344.9999999999932
 30
0.0
 40
30.00000000000594
 50
200.7419164850751
 51
240.3778367991916
  0
ARC
  5
53C
  8
DATA
  6
CONTINUOUS
 62
     7
 10
1185.0
 20
-344.9999999999932
 30
0.0
 40
29.99999999999644
 50
299.6221632007934
 51
339.2580835149187
  0
CIRCLE
  5
53D
  8
DATA
  6
CONTINUOUS
 62
     7
 10
1279.999999990496
 20
-464.9999999879925
 30
0.0
 40
25.0
  0
LINE
  5
53E
  8
DATA
  6
______-12
 62
     7
 10
1264.974408323833
 20
-464.9999999879925
 30
0.0
 11
1294.974408323833
 21
-464.9999999879925
 31
0.0
  0
LINE
  5
53F
  8
DATA
  6
______-12
 62
     7
 10
1279.999999990496
 20
-449.9882833213292
 30
0.0
 11
1279.999999990496
 21
-479.9882833213292
 31
0.0
  0
CIRCLE
  5
540
  8
DATA
  6
CONTINUOUS
 62
     7
 10
1089.974408342832
 20
-224.9882833453262
 30
0.0
 40
25.0
  0
LINE
  5
541
  8
DATA
  6
______-12
 62
     7
 10
1074.948816676169
 20
-224.9882833453262
 30
0.0
 11
1104.948816676169
 21
-224.9882833453262
 31
0.0
  0
LINE
  5
542
  8
DATA
  6
______-12
 62
     7
 10
1089.974408342832
 20
-209.976566678663
 30
0.0
 11
1089.974408342832
 21
-239.976566678663
 31
0.0
  0
LINE
  5
543
  8
DATA
  6
CONTINUOUS
 62
     7
 10
1161.000000002396
 20
-240.2133119135988
 30
0.0
 11
1161.000000002396
 21
-227.4244923458901
 31
0.0
  0
LINE
  5
544
  8
DATA
  6
CONTINUOUS
 62
     7
 10
1208.999999997595
 20
-240.2133119135988
 30
0.0
 11
1208.999999997595
 21
-227.4244923458719
 31
0.0
  0
ARC
  5
545
  8
DATA
  6
CONTINUOUS
 62
     7
 10
1185.000000000036
 20
-344.9999999999864
 30
0.0
 40
120.0000000000232
 50
78.46304096837633
 51
101.5369590316637
  0
CIRCLE
  5
546
  8
DATA
  6
CONTINUOUS
 62
     7
 10
820.0000000044929
 20
-664.9999999999932
 30
0.0
 40
16.49999999835927
  0
CIRCLE
  5
547
  8
DATA
  6
CONTINUOUS
 62
     7
 10
909.9999999955071
 20
-664.9999999999932
 30
0.0
 40
16.49999999834108
  0
CIRCLE
  5
548
  8
DATA
  6
CONTINUOUS
 62
     7
 10
959.9744083238329
 20
-784.9999999879924
 30
0.0
 40
25.0
  0
LINE
  5
549
  8
DATA
  6
______-12
 62
     7
 10
944.9488166571609
 20
-784.9999999879924
 30
0.0
 11
974.9488166571609
 21
-784.9999999879924
 31
0.0
  0
LINE
  5
54A
  8
DATA
  6
______-12
 62
     7
 10
959.9744083238329
 20
-769.9882833213292
 30
0.0
 11
959.9744083238329
 21
-799.9882833213292
 31
0.0
  0
CIRCLE
  5
54B
  8
DATA
  6
CONTINUOUS
 62
     7
 10
770.0255916761671
 20
-545.000000011994
 30
0.0
 40
25.0
  0
LINE
  5
54C
  8
DATA
  6
______-12
 62
     7
 10
755.0000000094951
 20
-545.000000011994
 30
0.0
 11
785.0000000094951
 21
-545.000000011994
 31
0.0
  0
LINE
  5
54D
  8
DATA
  6
______-12
 62
     7
 10
770.0255916761671
 20
-529.9882833453262
 30
0.0
 11
770.0255916761671
 21
-559.9882833453262
 31
0.0
  0
CIRCLE
  5
54E
  8
DATA
  6
CONTINUOUS
 62
     7
 10
865.0
 20
-664.9999999999932
 30
0.0
 40
97.50000015681577
  0
CIRCLE
  5
54F
  8
DATA
  6
CONTINUOUS
 62
     7
 10
865.0
 20
-704.4999999960442
 30
0.0
 40
16.49999999834108
  0
ARC
  5
550
  8
DATA
  6
CONTINUOUS
 62
     7
 10
865.0
 20
-664.9999999999932
 30
0.0
 40
78.99999852386203
 50
50.69269454644028
 51
39.30730194582296
  0
LINE
  5
551
  8
DATA
  6
CONTINUOUS
 62
     7
 10
893.4999999972297
 20
-591.3199500072892
 30
0.0
 11
893.4999999972297
 21
-591.3199515816473
 31
0.0
  0
ARC
  5
552
  8
DATA
  6
CONTINUOUS
 62
     7
 10
919.4472233279703
 20
-610.5527800053665
 30
0.0
 40
7.999999999199845
 50
326.612906173291
 51
123.3870903189586
  0
ARC
  5
553
  8
DATA
  6
CONTINUOUS
 62
     7
 10
865.0000000000728
 20
-345.000000000066
 30
0.0
 40
78.99999852386007
 50
140.692698054177
 51
129.3073054535597
  0
CIRCLE
  5
554
  8
DATA
  6
CONTINUOUS
 62
     7
 10
865.0
 20
-344.9999999999932
 30
0.0
 40
97.49999999025184
  0
ARC
  5
555
  8
DATA
  6
CONTINUOUS
 62
     7
 10
865.0
 20
-344.9999999999932
 30
0.0
 40
107.5000000000015
 50
102.9003349199812
 51
77.09966508002354
  0
LINE
  5
556
  8
DATA
  6
CONTINUOUS
 62
     7
 10
888.9999999975953
 20
-269.7338057367847
 30
0.0
 11
888.9999999975953
 21
-269.7338072779644
 31
0.0
  0
LINE
  5
557
  8
DATA
  6
CONTINUOUS
 62
     7
 10
836.5000000028431
 20
-271.319950007362
 30
0.0
 11
836.5000000028431
 21
-271.3199515817201
 31
0.0
  0
ARC
  5
558
  8
DATA
  6
CONTINUOUS
 62
     7
 10
820.0000000044929
 20
-344.9999999999932
 30
0.0
 40
19.99999999800095
 50
32.08918387405087
 51
327.9108161259492
  0
ARC
  5
559
  8
DATA
  6
CONTINUOUS
 62
     7
 10
909.999999995498
 20
-344.9999999999932
 30
0.0
 40
19.99999999800095
 50
212.0891838740509
 51
147.9108161259491
  0
ARC
  5
55A
  8
DATA
  6
CONTINUOUS
 62
     7
 10
865.0
 20
-384.4999999960488
 30
0.0
 40
19.9999999980077
 50
137.8522840898889
 51
42.14771591012867
  0
ARC
  5
55B
  8
DATA
  6
CONTINUOUS
 62
     7
 10
810.5527766721025
 20
-290.5527800054393
 30
0.0
 40
7.99999999920039
 50
56.61290968104122
 51
213.3870938267092
  0
ARC
  5
55C
  8
DATA
  6
CONTINUOUS
 62
     7
 10
865.0
 20
-344.9999999999932
 30
0.0
 40
29.99999999999744
 50
20.74191648508129
 51
159.2580835149249
  0
ARC
  5
55D
  8
DATA
  6
CONTINUOUS
 62
     7
 10
865.0
 20
-344.9999999999932
 30
0.0
 40
30.00000000000594
 50
200.7419164850751
 51
240.3778367991916
  0
ARC
  5
55E
  8
DATA
  6
CONTINUOUS
 62
     7
 10
865.0
 20
-344.9999999999932
 30
0.0
 40
29.99999999999644
 50
299.6221632007934
 51
339.2580835149187
  0
CIRCLE
  5
55F
  8
DATA
  6
CONTINUOUS
 62
     7
 10
959.9999999904958
 20
-464.9999999879925
 30
0.0
 40
25.0
  0
LINE
  5
560
  8
DATA
  6
______-12
 62
     7
 10
944.9744083238329
 20
-464.9999999879925
 30
0.0
 11
974.9744083238329
 21
-464.9999999879925
 31
0.0
  0
LINE
  5
561
  8
DATA
  6
______-12
 62
     7
 10
959.9999999904958
 20
-449.9882833213292
 30
0.0
 11
959.9999999904958
 21
-479.9882833213292
 31
0.0
  0
CIRCLE
  5
562
  8
DATA
  6
CONTINUOUS
 62
     7
 10
769.9744083428322
 20
-224.9882833453262
 30
0.0
 40
25.0
  0
LINE
  5
563
  8
DATA
  6
______-12
 62
     7
 10
754.9488166761694
 20
-224.9882833453262
 30
0.0
 11
784.9488166761694
 21
-224.9882833453262
 31
0.0
  0
LINE
  5
564
  8
DATA
  6
______-12
 62
     7
 10
769.9744083428322
 20
-209.976566678663
 30
0.0
 11
769.9744083428322
 21
-239.976566678663
 31
0.0
  0
LINE
  5
565
  8
DATA
  6
CONTINUOUS
 62
     7
 10
841.0000000023956
 20
-240.2133119135988
 30
0.0
 11
841.0000000023956
 21
-227.4244923458901
 31
0.0
  0
LINE
  5
566
  8
DATA
  6
CONTINUOUS
 62
     7
 10
888.9999999975953
 20
-240.2133119135988
 30
0.0
 11
888.9999999975953
 21
-227.4244923458719
 31
0.0
  0
ARC
  5
567
  8
DATA
  6
CONTINUOUS
 62
     7
 10
865.0000000000364
 20
-344.9999999999864
 30
0.0
 40
120.0000000000232
 50
78.46304096837633
 51
101.5369590316637
  0
CIRCLE
  5
568
  8
DATA
  6
CONTINUOUS
 62
     7
 10
1555.0
 20
305.0000000000068
 30
0.0
 40
15.0
  0
TEXT
  5
569
  8
DATA
 62
     7
 10
1378.13525390625
 20
368.2529296875072
 30
0.0
 40
32.494140625
  1
POWER
 41
0.7
 72
     1
 11
1435.0
 21
384.5000000000072
 31
0.0
 73
     2
  0
TEXT
  5
56A
  8
DATA
 62
     7
 10
1340.225423177083
 20
198.2529296875072
 30
0.0
 40
32.494140625
  1
MAIN/MENU
 41
0.7
 72
     1
 11
1435.0
 21
214.5000000000072
 31
0.0
 73
     2
  0
ARC
  5
56B
  8
DATA
  6
CONTINUOUS
 62
     7
 10
1435.0
 20
305.000000000009
 30
0.0
 40
19.9999999999977
 50
120.0000000000038
 51
59.9999999999962
  0
LINE
  5
56C
  8
DATA
  6
CONTINUOUS
 62
     7
 10
1435.0
 20
305.0000000000068
 30
0.0
 11
1435.0
 21
330.0000000000068
 31
0.0
  0
CIRCLE
  5
56D
  8
DATA
  6
CONTINUOUS
 62
     7
 10
1555.0
 20
-184.9999999999932
 30
0.0
 40
15.0
  0
TEXT
  5
56E
  8
DATA
 62
     7
 10
1393.299186197917
 20
-121.7470703124928
 30
0.0
 40
32.494140625
  1
BACK
 41
0.7
 72
     1
 11
1435.0
 21
-105.4999999999928
 31
0.0
 73
     2
  0
TEXT
  5
56F
  8
DATA
 62
     7
 10
1509.508203125
 20
-121.7470703124928
 30
0.0
 40
32.494140625
  1
LIMIT
 41
0.7
 72
     1
 11
1555.0
 21
-105.4999999999928
 31
0.0
 73
     2
  0
LINE
  5
570
  8
DATA
  6
CONTINUOUS
 62
     7
 10
877.5
 20
-497.4999999996601
 30
0.0
 11
852.5
 21
-497.4999999996601
 31
0.0
  0
LINE
  5
571
  8
DATA
  6
CONTINUOUS
 62
     7
 10
852.5
 20
-497.4999999996601
 30
0.0
 11
865.0
 21
-482.4999999996601
 31
0.0
  0
LINE
  5
572
  8
DATA
  6
CONTINUOUS
 62
     7
 10
877.5
 20
-497.4999999996601
 30
0.0
 11
865.0
 21
-482.4999999996601
 31
0.0
  0
TEXT
  5
573
  8
DATA
 62
     7
 10
838.4631184895833
 20
-543.7470703121601
 30
0.0
 40
32.494140625
  1
CH1
 41
0.7
 72
     1
 11
865.0
 21
-527.4999999996601
 31
0.0
 73
     2
  0
LINE
  5
574
  8
DATA
  6
CONTINUOUS
 62
     7
 10
1197.5
 20
-497.4999999996601
 30
0.0
 11
1172.5
 21
-497.4999999996601
 31
0.0
  0
LINE
  5
575
  8
DATA
  6
CONTINUOUS
 62
     7
 10
1172.5
 20
-497.4999999996601
 30
0.0
 11
1185.0
 21
-482.4999999996601
 31
0.0
  0
LINE
  5
576
  8
DATA
  6
CONTINUOUS
 62
     7
 10
1197.5
 20
-497.4999999996601
 30
0.0
 11
1185.0
 21
-482.4999999996601
 31
0.0
  0
TEXT
  5
577
  8
DATA
 62
     7
 10
1154.672135416667
 20
-543.7470703121601
 30
0.0
 40
32.494140625
  1
CH2
 41
0.7
 72
     1
 11
1185.0
 21
-527.4999999996601
 31
0.0
 73
     2
  0
LINE
  5
578
  8
DATA
  6
CONTINUOUS
 62
     7
 10
877.5
 20
-817.4999999996601
 30
0.0
 11
852.5
 21
-817.4999999996601
 31
0.0
  0
LINE
  5
579
  8
DATA
  6
CONTINUOUS
 62
     7
 10
852.5
 20
-817.4999999996601
 30
0.0
 11
865.0
 21
-802.4999999996601
 31
0.0
  0
LINE
  5
57A
  8
DATA
  6
CONTINUOUS
 62
     7
 10
877.5
 20
-817.4999999996601
 30
0.0
 11
865.0
 21
-802.4999999996601
 31
0.0
  0
TEXT
  5
57B
  8
DATA
 62
     7
 10
763.4016536458333
 20
-863.7470703121601
 30
0.0
 40
32.494140625
  1
PASS THRU1
 41
0.7
 72
     1
 11
865.0
 21
-847.4999999996601
 31
0.0
 73
     2
  0
LINE
  5
57C
  8
DATA
  6
CONTINUOUS
 62
     7
 10
1197.5
 20
-817.4999999996601
 30
0.0
 11
1172.5
 21
-817.4999999996601
 31
0.0
  0
LINE
  5
57D
  8
DATA
  6
CONTINUOUS
 62
     7
 10
1172.5
 20
-817.4999999996601
 30
0.0
 11
1185.0
 21
-802.4999999996601
 31
0.0
  0
LINE
  5
57E
  8
DATA
  6
CONTINUOUS
 62
     7
 10
1197.5
 20
-817.4999999996601
 30
0.0
 11
1185.0
 21
-802.4999999996601
 31
0.0
  0
TEXT
  5
57F
  8
DATA
 62
     7
 10
1079.610670572917
 20
-863.7470703121601
 30
0.0
 40
32.494140625
  1
PASS THRU2
 41
0.7
 72
     1
 11
1185.0
 21
-847.4999999996601
 31
0.0
 73
     2
  0
ARC
  5
580
  8
DATA
  6
CONTINUOUS
 62
     7
 10
1405.0
 20
-1194.999999999993
 30
0.0
 40
30.0
 50
0.0
 51
90.0
  0
LINE
  5
581
  8
DATA
  6
CONTINUOUS
 62
     7
 10
1165.0
 20
-1164.999999999993
 30
0.0
 11
1405.0
 21
-1164.999999999993
 31
0.0
  0
ARC
  5
582
  8
DATA
  6
CONTINUOUS
 62
     7
 10
1165.0
 20
-1194.999999999993
 30
0.0
 40
30.0
 50
90.0
 51
180.0
  0
LINE
  5
583
  8
DATA
  6
CONTINUOUS
 62
     7
 10
1135.0
 20
-1354.999999999994
 30
0.0
 11
1135.0
 21
-1194.999999999993
 31
0.0
  0
ARC
  5
584
  8
DATA
  6
CONTINUOUS
 62
     7
 10
1164.999999999995
 20
-1354.999999999994
 30
0.0
 40
29.99999999999545
 50
180.0
 51
224.9999999999693
  0
ARC
  5
585
  8
DATA
  6
CONTINUOUS
 62
     7
 10
1165.0
 20
-1354.999999999999
 30
0.0
 40
29.99999999999542
 50
225.0000000000061
 51
270.0
  0
LINE
  5
586
  8
DATA
  6
CONTINUOUS
 62
     7
 10
1405.0
 20
-1384.999999999994
 30
0.0
 11
1165.0
 21
-1384.999999999994
 31
0.0
  0
ARC
  5
587
  8
DATA
  6
CONTINUOUS
 62
     7
 10
1405.0
 20
-1354.999999999994
 30
0.0
 40
30.0
 50
270.0
 51
0.0
  0
LINE
  5
588
  8
DATA
  6
CONTINUOUS
 62
     7
 10
1435.0
 20
-1194.999999999993
 30
0.0
 11
1435.0
 21
-1354.999999999994
 31
0.0
  0
LINE
  5
589
  8
DATA
  6
CONTINUOUS
 62
     7
 10
1165.0
 20
-1194.999999999993
 30
0.0
 11
1405.0
 21
-1194.999999999993
 31
0.0
  0
LINE
  5
58A
  8
DATA
  6
CONTINUOUS
 62
     7
 10
1165.0
 20
-1309.999999999994
 30
0.0
 11
1165.0
 21
-1194.999999999993
 31
0.0
  0
LINE
  5
58B
  8
DATA
  6
CONTINUOUS
 62
     7
 10
1350.0
 20
-1354.999999999994
 30
0.0
 11
1220.0
 21
-1354.999999999994
 31
0.0
  0
LINE
  5
58C
  8
DATA
  6
CONTINUOUS
 62
     7
 10
1405.0
 20
-1194.999999999993
 30
0.0
 11
1405.0
 21
-1309.999999999994
 31
0.0
  0
LINE
  5
58D
  8
DATA
  6
CONTINUOUS
 62
     7
 10
1165.0
 20
-1309.999999999994
 30
0.0
 11
1220.0
 21
-1354.999999999994
 31
0.0
  0
LINE
  5
58E
  8
DATA
  6
CONTINUOUS
 62
     7
 10
1350.0
 20
-1354.999999999994
 30
0.0
 11
1405.0
 21
-1309.999999999994
 31
0.0
  0
POLYLINE
  5
58F
  8
DATA
  6
CONTINUOUS
 62
     7
 66
     1
 10
0.0
 20
0.0
 30
0.0
 70
   129
  0
VERTEX
  5
678
  8
DATA
  6
CONTINUOUS
 62
     7
 10
1220.0
 20
-1229.999999999994
 30
0.0
  0
VERTEX
  5
679
  8
DATA
  6
CONTINUOUS
 62
     7
 10
1220.0
 20
-1269.999999999994
 30
0.0
  0
VERTEX
  5
67A
  8
DATA
  6
CONTINUOUS
 62
     7
 10
1210.0
 20
-1269.999999999994
 30
0.0
  0
VERTEX
  5
67B
  8
DATA
  6
CONTINUOUS
 62
     7
 10
1210.0
 20
-1229.999999999994
 30
0.0
  0
SEQEND
  5
69A
  8
DATA
  6
CONTINUOUS
 62
     7
  0
POLYLINE
  5
595
  8
DATA
  6
CONTINUOUS
 62
     7
 66
     1
 10
0.0
 20
0.0
 30
0.0
 70
   129
  0
VERTEX
  5
67C
  8
DATA
  6
CONTINUOUS
 62
     7
 10
1360.0
 20
-1229.999999999994
 30
0.0
  0
VERTEX
  5
67D
  8
DATA
  6
CONTINUOUS
 62
     7
 10
1360.0
 20
-1269.999999999994
 30
0.0
  0
VERTEX
  5
67E
  8
DATA
  6
CONTINUOUS
 62
     7
 10
1350.0
 20
-1269.999999999994
 30
0.0
  0
VERTEX
  5
67F
  8
DATA
  6
CONTINUOUS
 62
     7
 10
1350.0
 20
-1229.999999999994
 30
0.0
  0
SEQEND
  5
69B
  8
DATA
  6
CONTINUOUS
 62
     7
  0
POLYLINE
  5
59B
  8
DATA
  6
CONTINUOUS
 62
     7
 66
     1
 10
0.0
 20
0.0
 30
0.0
 70
   129
  0
VERTEX
  5
680
  8
DATA
  6
CONTINUOUS
 62
     7
 10
1290.0
 20
-1274.999999999994
 30
0.0
  0
VERTEX
  5
681
  8
DATA
  6
CONTINUOUS
 62
     7
 10
1290.0
 20
-1314.999999999994
 30
0.0
  0
VERTEX
  5
682
  8
DATA
  6
CONTINUOUS
 62
     7
 10
1280.0
 20
-1314.999999999994
 30
0.0
  0
VERTEX
  5
683
  8
DATA
  6
CONTINUOUS
 62
     7
 10
1280.0
 20
-1274.999999999994
 30
0.0
  0
SEQEND
  5
69C
  8
DATA
  6
CONTINUOUS
 62
     7
  0
TEXT
  5
5A1
  8
DATA
 62
     7
 10
1191.74181640625
 20
-1082.441514756826
 30
0.0
 40
32.494140625
  1
500W MAX 
 41
0.7
 72
     1
 11
1285.0
 21
-1066.194444444326
 31
0.0
 73
     2
  0
TEXT
  5
5A2
  8
DATA
 62
     7
 10
1121.987727864583
 20
-1124.774848090159
 30
0.0
 40
32.494140625
  1
100-120V?50/60Hz
 41
0.7
 72
     1
 11
1285.0
 21
-1108.527777777659
 31
0.0
 73
     2
  0
TEXT
  5
5A3
  8
DATA
 62
     7
 10
1127.295104166667
 20
-989.9941406249943
 30
0.0
 40
64.98828125
  1
EON 718S
 41
0.7
 72
     1
 11
1285.0
 21
-957.4999999999943
 31
0.0
 73
     2
  0
ARC
  5
5A4
  8
DATA
  6
CONTINUOUS
 62
     7
 10
-168.9814814814815
 20
35.18518518518519
 30
0.0
 40
1920.075750195377
 50
343.8155014491005
 51
18.67522708443619
  0
ARC
  5
5A5
  8
DATA
  6
CONTINUOUS
 62
     7
 10
3493.981481481482
 20
-1114.814814814815
 30
0.0
 40
1920.075750195377
 50
161.3247729155638
 51
196.1844985508995
  0
VIEWPORT
  5
5A6
 67
     1
  8
0
 10
128.5
 20
97.5
 30
0.0
 40
314.226
 41
222.18
 68
     1
 69
     1
1001
ACAD
1000
MVIEW
1002
{
1070
    16
1010
0.0
1020
0.0
1030
0.0
1020
0.0
1030
0.0
1010
0.0
1020
0.0
1030
1.0
1020
0.0
1030
1.0
1040
0.0
1040
222.18
1040
128.5
1040
97.5
1040
50.0
1040
0.0
1040
0.0
1070
     0
1070
   100
1070
     0
1070
     3
1070
     0
1070
     0
1070
     0
1070
     0
1040
0.0
1040
0.0
1040
0.0
1040
10.0
1040
10.0
1040
10.0
1040
10.0
1070
     0
1002
{
1002
}
1002
}
  0
ENDSEC
  0
EOF
