  0
SECTION
  2
HEADER
  9
$ACADVER
  1
AC1009
  9
$DWGCODEPAGE
  3
ansi_932
  9
$INSBASE
 10
0.0
 20
0.0
 30
0.0
  9
$EXTMIN
 10
-1800.0
 20
-2698.168409531249
 30
0.0
  9
$EXTMAX
 10
1800.0
 20
2667.104485
 30
0.0
  9
$LIMMIN
 10
0.0
 20
0.0
  9
$LIMMAX
 10
0.0
 20
0.0
  9
$ORTHOMODE
 70
     0
  9
$REGENMODE
 70
     1
  9
$FILLMODE
 70
     1
  9
$QTEXTMODE
 70
     0
  9
$MIRRTEXT
 70
     1
  9
$DRAGMODE
 70
     2
  9
$LTSCALE
 40
101.6
  9
$OSMODE
 70
    37
  9
$ATTMODE
 70
     1
  9
$TEXTSIZE
 40
0.0
  9
$TRACEWID
 40
1.0
  9
$TEXTSTYLE
  7
STANDARD
  9
$CLAYER
  8
DATA
  9
$CELTYPE
  6
BYLAYER
  9
$CECOLOR
 62
   256
  9
$DIMSCALE
 40
1.0
  9
$DIMASZ
 40
0.18
  9
$DIMEXO
 40
0.0625
  9
$DIMDLI
 40
0.38
  9
$DIMRND
 40
0.0
  9
$DIMDLE
 40
0.0
  9
$DIMEXE
 40
0.18
  9
$DIMTP
 40
0.0
  9
$DIMTM
 40
0.0
  9
$DIMTXT
 40
0.18
  9
$DIMCEN
 40
0.09
  9
$DIMTSZ
 40
0.0
  9
$DIMTOL
 70
     0
  9
$DIMLIM
 70
     0
  9
$DIMTIH
 70
     1
  9
$DIMTOH
 70
     1
  9
$DIMSE1
 70
     0
  9
$DIMSE2
 70
     0
  9
$DIMTAD
 70
     0
  9
$DIMZIN
 70
     0
  9
$DIMBLK
  1

  9
$DIMASO
 70
     1
  9
$DIMSHO
 70
     1
  9
$DIMPOST
  1

  9
$DIMAPOST
  1

  9
$DIMALT
 70
     0
  9
$DIMALTD
 70
     2
  9
$DIMALTF
 40
25.4
  9
$DIMLFAC
 40
1.0
  9
$DIMTOFL
 70
     0
  9
$DIMTVP
 40
0.0
  9
$DIMTIX
 70
     0
  9
$DIMSOXD
 70
     0
  9
$DIMSAH
 70
     0
  9
$DIMBLK1
  1

  9
$DIMBLK2
  1

  9
$DIMSTYLE
  2
STANDARD
  9
$DIMCLRD
 70
     0
  9
$DIMCLRE
 70
     0
  9
$DIMCLRT
 70
     0
  9
$DIMTFAC
 40
1.0
  9
$DIMGAP
 40
0.09
  9
$LUNITS
 70
     2
  9
$LUPREC
 70
     2
  9
$SKETCHINC
 40
0.1
  9
$FILLETRAD
 40
0.0
  9
$AUNITS
 70
     0
  9
$AUPREC
 70
     0
  9
$MENU
  1
acad
  9
$ELEVATION
 40
0.0
  9
$PELEVATION
 40
0.0
  9
$THICKNESS
 40
0.0
  9
$LIMCHECK
 70
     0
  9
$CHAMFERA
 40
0.0
  9
$CHAMFERB
 40
0.0
  9
$SKPOLY
 70
     0
  9
$TDCREATE
 40
2459494.695969815
  9
$TDUPDATE
 40
2459494.696930417
  9
$TDINDWG
 40
2459494.321930845
  9
$TDUSRTIMER
 40
0.0009610301
  9
$USRTIMER
 70
     1
  9
$ANGBASE
 50
0.0
  9
$ANGDIR
 70
     0
  9
$PDMODE
 70
     1
  9
$PDSIZE
 40
-2.0
  9
$PLINEWID
 40
0.0
  9
$COORDS
 70
     1
  9
$SPLFRAME
 70
     0
  9
$SPLINETYPE
 70
     6
  9
$SPLINESEGS
 70
     8
  9
$ATTDIA
 70
     1
  9
$ATTREQ
 70
     1
  9
$HANDLING
 70
     1
  9
$HANDSEED
  5
542
  9
$SURFTAB1
 70
     6
  9
$SURFTAB2
 70
     6
  9
$SURFTYPE
 70
     6
  9
$SURFU
 70
     6
  9
$SURFV
 70
     6
  9
$UCSNAME
  2

  9
$UCSORG
 10
0.0
 20
0.0
 30
0.0
  9
$UCSXDIR
 10
1.0
 20
0.0
 30
0.0
  9
$UCSYDIR
 10
0.0
 20
1.0
 30
0.0
  9
$PUCSNAME
  2

  9
$PUCSORG
 10
0.0
 20
0.0
 30
0.0
  9
$PUCSXDIR
 10
1.0
 20
0.0
 30
0.0
  9
$PUCSYDIR
 10
0.0
 20
1.0
 30
0.0
  9
$USERI1
 70
     0
  9
$USERI2
 70
     0
  9
$USERI3
 70
     0
  9
$USERI4
 70
     0
  9
$USERI5
 70
     0
  9
$USERR1
 40
0.0
  9
$USERR2
 40
0.0
  9
$USERR3
 40
0.0
  9
$USERR4
 40
0.0
  9
$USERR5
 40
0.0
  9
$WORLDVIEW
 70
     1
  9
$SHADEDGE
 70
     3
  9
$SHADEDIF
 70
    70
  9
$TILEMODE
 70
     1
  9
$MAXACTVP
 70
    64
  9
$PLIMCHECK
 70
     0
  9
$PEXTMIN
 10
1.000000000000000E+20
 20
1.000000000000000E+20
 30
1.000000000000000E+20
  9
$PEXTMAX
 10
-1.000000000000000E+20
 20
-1.000000000000000E+20
 30
-1.000000000000000E+20
  9
$PLIMMIN
 10
0.0
 20
0.0
  9
$PLIMMAX
 10
12.0
 20
9.0
  9
$UNITMODE
 70
     0
  9
$VISRETAIN
 70
     0
  9
$PLINEGEN
 70
     1
  9
$PSLTSCALE
 70
     0
  0
ENDSEC
  0
SECTION
  2
TABLES
  0
TABLE
  2
VPORT
 70
     1
  0
VPORT
  2
*ACTIVE
 70
     0
 10
0.0
 20
0.0
 11
1.0
 21
1.0
 12
0.0
 22
-3.531814999999369
 13
0.0
 23
0.0
 14
1.0
 24
1.0
 15
0.0
 25
0.0
 16
0.0
 26
0.0
 36
1.0
 17
0.0
 27
0.0
 37
0.0
 40
5341.272600000001
 41
2.794721407624633
 42
50.0
 43
0.0
 44
0.0
 50
0.0
 51
0.0
 71
     0
 72
  2000
 73
     1
 74
     1
 75
     0
 76
     0
 77
     0
 78
     0
  0
ENDTAB
  0
TABLE
  2
LTYPE
 70
    11
  0
LTYPE
  2
CONTINUOUS
 70
     0
  3
Solid line
 72
    65
 73
     0
 40
0.0
  0
LTYPE
  2
STYLE_06
 70
     0
  3

 72
    65
 73
     4
 40
1.041641235351562
 49
0.625
 49
-0.208282470703125
 49
0.069427490234375
 49
-0.1389312744140625
  0
ENDTAB
  0
TABLE
  2
LAYER
 70
     5
  0
LAYER
  2
0
 70
     0
 62
     7
  6
CONTINUOUS
  0
LAYER
  2
HIBINO-BASE
 70
     0
 62
     7
  6
CONTINUOUS
  0
LAYER
  2
SPEC
 70
     0
 62
     7
  6
CONTINUOUS
  0
LAYER
  2
DIMNSIONS
 70
     0
 62
     7
  6
CONTINUOUS
  0
LAYER
  2
DATA
 70
     0
 62
     7
  6
CONTINUOUS
  0
ENDTAB
  0
TABLE
  2
STYLE
 70
     2
  0
STYLE
  2
STANDARD
 70
     0
 40
0.0
 41
1.0
 50
0.0
 71
     0
 42
0.0
  3
txt
  4
BIGFONT.SHX
  0
ENDTAB
  0
TABLE
  2
VIEW
 70
     0
  0
ENDTAB
  0
TABLE
  2
UCS
 70
     0
  0
ENDTAB
  0
TABLE
  2
APPID
 70
     3
  0
APPID
  2
ACAD
 70
     0
  0
APPID
  2
ACAD_MLEADERVER
 70
     0
  0
APPID
  2
ACADANNOPO
 70
     0
  0
ENDTAB
  0
TABLE
  2
DIMSTYLE
 70
     1
  0
DIMSTYLE
  2
STANDARD
 70
     0
  3

  4

  5

  6

  7

 40
1.0
 41
0.18
 42
0.0625
 43
0.38
 44
0.18
 45
0.0
 46
0.0
 47
0.0
 48
0.0
140
0.18
141
0.09
142
0.0
143
25.4
144
1.0
145
0.0
146
1.0
147
0.09
 71
     0
 72
     0
 73
     1
 74
     1
 75
     0
 76
     0
 77
     0
 78
     0
170
     0
171
     2
172
     0
173
     0
174
     0
175
     0
176
     0
177
     0
178
     0
  0
ENDTAB
  0
ENDSEC
  0
SECTION
  2
BLOCKS
  0
BLOCK
  8
DATA
  2
$MODEL_SPACE
 70
     0
 10
0.0
 20
0.0
 30
0.0
  3
$MODEL_SPACE
  1

  0
ENDBLK
  5
4F6
  8
DATA
  6
CONTINUOUS
  0
BLOCK
 67
     1
  8
DATA
  2
$PAPER_SPACE
 70
     0
 10
0.0
 20
0.0
 30
0.0
  3
$PAPER_SPACE
  1

  0
ENDBLK
  5
4F4
 67
     1
  8
DATA
  6
CONTINUOUS
  0
ENDSEC
  0
SECTION
  2
ENTITIES
  0
LINE
  5
2C
  8
HIBINO-BASE
  6
CONTINUOUS
 62
     7
 10
-1800.0
 20
2667.104485
 30
0.0
 11
1800.0
 21
2667.104485
 31
0.0
  0
LINE
  5
2D
  8
HIBINO-BASE
  6
CONTINUOUS
 62
     7
 10
1800.0
 20
-2532.895514999999
 30
0.0
 11
-1800.0
 21
-2532.895514999999
 31
0.0
  0
LINE
  5
2E
  8
HIBINO-BASE
  6
CONTINUOUS
 62
     7
 10
-1800.0
 20
-2532.895514999999
 30
0.0
 11
-1800.0
 21
2667.104485
 31
0.0
  0
LINE
  5
2F
  8
HIBINO-BASE
  6
CONTINUOUS
 62
     7
 10
1800.0
 20
2667.104485
 30
0.0
 11
1800.0
 21
-2532.895514999999
 31
0.0
  0
LINE
  5
30
  8
HIBINO-BASE
  6
CONTINUOUS
 62
     7
 10
0.0000000000002842
 20
-2082.895514999999
 30
0.0
 11
1800.0
 21
-2082.895514999999
 31
0.0
  0
LINE
  5
31
  8
HIBINO-BASE
  6
CONTINUOUS
 62
     7
 10
0.0000000000002842
 20
-2532.895514999999
 30
0.0
 11
0.0000000000002842
 21
-2082.895514999999
 31
0.0
  0
TEXT
  5
32
  8
HIBINO-BASE
 62
     7
 10
18.0000000000004
 20
-2133.069381666665
 30
0.0
 40
32.57682291666666
  1
NOTE
 41
0.7
 11
18.0000000000004
 21
-2100.492558749999
 31
0.0
 73
     3
  0
LINE
  5
33
  8
HIBINO-BASE
  6
CONTINUOUS
 62
     7
 10
700.0000000000002
 20
-2532.895514999999
 30
0.0
 11
700.0000000000002
 21
-2082.895514999999
 31
0.0
  0
TEXT
  5
34
  8
HIBINO-BASE
 62
     7
 10
717.9999999999998
 20
-2133.069381666665
 30
0.0
 40
32.57682291666666
  1
TITLE
 41
0.7
 11
717.9999999999998
 21
-2100.492558749999
 31
0.0
 73
     3
  0
LINE
  5
35
  8
HIBINO-BASE
  6
CONTINUOUS
 62
     7
 10
0.0000000000002842
 20
-2332.895514999999
 30
0.0
 11
1800.0
 21
-2332.895514999999
 31
0.0
  0
TEXT
  5
36
  8
HIBINO-BASE
 62
     7
 10
967.9999999999998
 20
-2381.942981666666
 30
0.0
 40
32.57682291666666
  1
DRAWN
 41
0.7
 11
967.9999999999998
 21
-2349.36615875
 31
0.0
 73
     3
  0
TEXT
  5
37
  8
HIBINO-BASE
 62
     7
 10
467.9999999999998
 20
-2381.942981666666
 30
0.0
 40
32.57682291666666
  1
DATE
 41
0.7
 11
467.9999999999998
 21
-2349.36615875
 31
0.0
 73
     3
  0
TEXT
  5
38
  8
HIBINO-BASE
 62
     7
 10
267.9999999999998
 20
-2381.942981666666
 30
0.0
 40
32.57682291666666
  1
SCALE
 41
0.7
 11
267.9999999999998
 21
-2349.36615875
 31
0.0
 73
     3
  0
TEXT
  5
39
  8
HIBINO-BASE
 62
     7
 10
717.9999999999998
 20
-2381.942981666666
 30
0.0
 40
32.57682291666666
  1
DESIGN
 41
0.7
 11
717.9999999999998
 21
-2349.36615875
 31
0.0
 73
     3
  0
TEXT
  5
3A
  8
HIBINO-BASE
 62
     7
 10
1468.0
 20
-2381.942981666666
 30
0.0
 40
32.57682291666666
  1
DRAWING NO.
 41
0.7
 11
1468.0
 21
-2349.36615875
 31
0.0
 73
     3
  0
TEXT
  5
3B
  8
HIBINO-BASE
 62
     7
 10
1218.0
 20
-2381.942981666666
 30
0.0
 40
32.57682291666666
  1
CHECK
 41
0.7
 11
1218.0
 21
-2349.36615875
 31
0.0
 73
     3
  0
LINE
  5
3C
  8
HIBINO-BASE
  6
CONTINUOUS
 62
     7
 10
287.5000000000003
 20
-2507.895514999999
 30
0.0
 11
362.5000000000003
 21
-2432.895514999999
 31
0.0
  0
TEXT
  5
3D
  8
HIBINO-BASE
 62
     7
 10
275.0000000000003
 20
-2455.074381666666
 30
0.0
 40
32.57682291666666
  1
1
 41
0.7
 11
275.0000000000003
 21
-2422.497558749999
 31
0.0
 73
     3
  0
LINE
  5
3E
  8
HIBINO-BASE
  6
CONTINUOUS
 62
     7
 10
250.0000000000003
 20
-2532.895514999999
 30
0.0
 11
250.0000000000003
 21
-2332.895514999999
 31
0.0
  0
LINE
  5
3F
  8
HIBINO-BASE
  6
CONTINUOUS
 62
     7
 10
449.9999999999997
 20
-2532.895514999999
 30
0.0
 11
449.9999999999997
 21
-2332.895514999999
 31
0.0
  0
LINE
  5
40
  8
HIBINO-BASE
  6
CONTINUOUS
 62
     7
 10
949.9999999999998
 20
-2332.895514999999
 30
0.0
 11
949.9999999999998
 21
-2532.895514999999
 31
0.0
  0
LINE
  5
41
  8
HIBINO-BASE
  6
CONTINUOUS
 62
     7
 10
1450.0
 20
-2332.895514999999
 30
0.0
 11
1450.0
 21
-2532.895514999999
 31
0.0
  0
LINE
  5
42
  8
HIBINO-BASE
  6
CONTINUOUS
 62
     7
 10
1200.0
 20
-2532.895514999999
 30
0.0
 11
1200.0
 21
-2332.895514999999
 31
0.0
  0
TEXT
  5
43
  8
HIBINO-BASE
 62
     7
 10
467.1308000000002
 20
-2475.622581666665
 30
0.0
 40
32.57682291666666
  1
'21.10.
 41
0.7
 11
467.1308000000002
 21
-2443.045758749999
 31
0.0
 73
     3
  0
TEXT
  5
44
  8
HIBINO-BASE
 62
     7
 10
350.0000000000003
 20
-2492.574381666666
 30
0.0
 40
32.57682291666666
  1
20
 41
0.7
 11
350.0000000000003
 21
-2459.997558749999
 31
0.0
 73
     3
  0
TEXT
  5
45
  8
HIBINO-BASE
 62
     7
 10
980.1162002206925
 20
-2475.622581666665
 30
0.0
 40
32.57682291666666
  1
N.Sasaki
 41
0.7
 11
980.1162002206925
 21
-2443.045758749999
 31
0.0
 73
     3
  0
TEXT
  5
46
  8
HIBINO-BASE
 62
     7
 10
77.66666666666737
 20
-2493.375514999999
 30
0.0
 40
65.15364583333333
  1
A4
 41
0.7
 11
77.66666666666737
 21
-2428.221869166666
 31
0.0
 73
     3
  0
TEXT
  5
47
  8
HIBINO-BASE
 62
     7
 10
19.16666666666657
 20
-2385.284614999999
 30
0.0
 40
32.57682291666666
  1
PAPER SIZE
 41
0.7
 11
19.16666666666657
 21
-2352.707792083333
 31
0.0
 73
     3
  0
TEXT
  5
48
  8
HIBINO-BASE
 62
     7
 10
-1656.319999999999
 20
-2661.069070999999
 30
0.0
 40
72.00088359374999
  1
Hibino Corporation
 41
0.7
 11
-1656.319999999999
 21
-2589.068187406249
 31
0.0
 73
     3
  0
TEXT
  5
49
  8
HIBINO-BASE
 62
     7
 10
1001.3678
 20
-2661.069070999999
 30
0.0
 40
72.00088359374999
  1
ヒビノ株式会社
 41
0.7
 11
1001.3678
 21
-2589.068187406249
 31
0.0
 73
     3
  0
LINE
  5
4A
  8
SPEC
  6
CONTINUOUS
 62
     7
 10
-1650.0
 20
2467.104485000001
 30
0.0
 11
1300.0
 21
2467.104485000001
 31
0.0
  0
LINE
  5
4B
  8
SPEC
  6
CONTINUOUS
 62
     7
 10
-1650.0
 20
2392.104485
 30
0.0
 11
1300.0
 21
2392.104485
 31
0.0
  0
LINE
  5
4C
  8
SPEC
  6
CONTINUOUS
 62
     7
 10
-1650.0
 20
1342.104485
 30
0.0
 11
1300.0
 21
1342.104485
 31
0.0
  0
LINE
  5
4D
  8
SPEC
  6
CONTINUOUS
 62
     7
 10
-1650.0
 20
1417.104485
 30
0.0
 11
1300.0
 21
1417.104485
 31
0.0
  0
LINE
  5
4E
  8
SPEC
  6
CONTINUOUS
 62
     7
 10
-1650.0
 20
1492.104485
 30
0.0
 11
1300.0
 21
1492.104485
 31
0.0
  0
LINE
  5
4F
  8
SPEC
  6
CONTINUOUS
 62
     7
 10
-1650.0
 20
2467.104485000001
 30
0.0
 11
-1650.0
 21
1342.104485
 31
0.0
  0
TEXT
  5
50
  8
SPEC
 62
     7
 10
-1625.0
 20
2494.969885
 30
0.0
 40
48.86523437500001
  1
仕様
 41
0.7
 11
-1625.0
 21
2543.835119375
 31
0.0
 73
     3
  0
LINE
  5
51
  8
SPEC
  6
CONTINUOUS
 62
     7
 10
-775.0
 20
2467.104485000001
 30
0.0
 11
-775.0
 21
1342.104485
 31
0.0
  0
LINE
  5
52
  8
SPEC
  6
CONTINUOUS
 62
     7
 10
1300.0
 20
2467.104485000001
 30
0.0
 11
1300.0
 21
1342.104485
 31
0.0
  0
TEXT
  5
53
  8
SPEC
 62
     7
 10
-1632.0
 20
1357.862840555556
 30
0.0
 40
38.00629340277779
  1
付属品
 41
0.7
 11
-1632.0
 21
1395.869133958334
 31
0.0
 73
     3
  0
TEXT
  5
54
  8
SPEC
 62
     7
 10
-1632.0
 20
1507.862840555556
 30
0.0
 40
38.00629340277779
  1
寸法(W×H×D)
 41
0.7
 11
-1632.0
 21
1545.869133958334
 31
0.0
 73
     3
  0
TEXT
  5
55
  8
SPEC
 62
     7
 10
-1632.0
 20
1432.862840555556
 30
0.0
 40
38.00629340277779
  1
質量
 41
0.7
 11
-1632.0
 21
1470.869133958334
 31
0.0
 73
     3
  0
LINE
  5
56
  8
SPEC
  6
CONTINUOUS
 62
     7
 10
-1650.0
 20
2317.104485
 30
0.0
 11
1300.0
 21
2317.104485
 31
0.0
  0
LINE
  5
57
  8
SPEC
  6
CONTINUOUS
 62
     7
 10
-1650.0
 20
2242.104485
 30
0.0
 11
1300.0
 21
2242.104485
 31
0.0
  0
LINE
  5
58
  8
SPEC
  6
CONTINUOUS
 62
     7
 10
-1650.0
 20
2167.104485
 30
0.0
 11
1300.0
 21
2167.104485
 31
0.0
  0
LINE
  5
59
  8
SPEC
  6
CONTINUOUS
 62
     7
 10
-1650.0
 20
2092.104485
 30
0.0
 11
1300.0
 21
2092.104485
 31
0.0
  0
LINE
  5
5A
  8
SPEC
  6
CONTINUOUS
 62
     7
 10
-1225.0
 20
2017.104485
 30
0.0
 11
1300.0
 21
2017.104485
 31
0.0
  0
LINE
  5
5B
  8
SPEC
  6
CONTINUOUS
 62
     7
 10
-1225.0
 20
1942.104485
 30
0.0
 11
1300.0
 21
1942.104485
 31
0.0
  0
LINE
  5
5C
  8
SPEC
  6
CONTINUOUS
 62
     7
 10
-1650.0
 20
1867.104485
 30
0.0
 11
1300.0
 21
1867.104485
 31
0.0
  0
LINE
  5
5D
  8
SPEC
  6
CONTINUOUS
 62
     7
 10
-1650.0
 20
1792.104485
 30
0.0
 11
1300.0
 21
1792.104485
 31
0.0
  0
LINE
  5
5E
  8
SPEC
  6
CONTINUOUS
 62
     7
 10
-1650.0
 20
1717.104485
 30
0.0
 11
1300.0
 21
1717.104485
 31
0.0
  0
LINE
  5
5F
  8
SPEC
  6
CONTINUOUS
 62
     7
 10
-1650.0
 20
1642.104485
 30
0.0
 11
1300.0
 21
1642.104485
 31
0.0
  0
LINE
  5
60
  8
SPEC
  6
CONTINUOUS
 62
     7
 10
-1650.0
 20
1567.104485
 30
0.0
 11
1300.0
 21
1567.104485
 31
0.0
  0
TEXT
  5
61
  8
SPEC
 62
     7
 10
-757.0
 20
1507.862840555556
 30
0.0
 40
38.00629340277779
  1
481×600×481mm(除突起部)
 41
0.7
 11
-757.0
 21
1545.869133958334
 31
0.0
 73
     3
  0
TEXT
  5
62
  8
SPEC
 62
     7
 10
-757.0
 20
1432.862840555556
 30
0.0
 40
38.00629340277779
  1
29kg
 41
0.7
 11
-757.0
 21
1470.869133958334
 31
0.0
 73
     3
  0
TEXT
  5
63
  8
SPEC
 62
     7
 10
-1632.0
 20
2407.862840555556
 30
0.0
 40
38.00629340277779
  1
周波数レスポンス(-3dB)
 41
0.7
 11
-1632.0
 21
2445.869133958333
 31
0.0
 73
     3
  0
TEXT
  5
64
  8
SPEC
 62
     7
 10
-1632.0
 20
2332.862840555556
 30
0.0
 40
38.00629340277779
  1
最大音圧レベル
 41
0.7
 11
-1632.0
 21
2370.869133958333
 31
0.0
 73
     3
  0
TEXT
  5
65
  8
SPEC
 62
     7
 10
-1632.0
 20
2257.862840555556
 30
0.0
 40
38.00629340277779
  1
ドライバー構成
 41
0.7
 11
-1632.0
 21
2295.869133958333
 31
0.0
 73
     3
  0
TEXT
  5
66
  8
SPEC
 62
     7
 10
-1632.0
 20
2182.862840555556
 30
0.0
 40
38.00629340277779
  1
クロスオーバー周波数
 41
0.7
 11
-1632.0
 21
2220.869133958333
 31
0.0
 73
     3
  0
TEXT
  5
67
  8
SPEC
 62
     7
 10
-1632.0
 20
2107.862840555556
 30
0.0
 40
38.00629340277779
  1
パワーアンプ
 41
0.7
 11
-1632.0
 21
2145.869133958333
 31
0.0
 73
     3
  0
TEXT
  5
68
  8
SPEC
 62
     7
 10
-1207.0
 20
2032.862840555556
 30
0.0
 40
38.00629340277779
  1
チャンネル数
 41
0.7
 11
-1207.0
 21
2070.869133958333
 31
0.0
 73
     3
  0
TEXT
  5
69
  8
SPEC
 62
     7
 10
-1632.0
 20
1807.862840555555
 30
0.0
 40
38.00629340277779
  1
出力
 41
0.7
 11
-1632.0
 21
1845.869133958333
 31
0.0
 73
     3
  0
TEXT
  5
6A
  8
SPEC
 62
     7
 10
-1632.0
 20
2032.862840555556
 30
0.0
 40
38.00629340277779
  1
入力
 41
0.7
 11
-1632.0
 21
2070.869133958333
 31
0.0
 73
     3
  0
TEXT
  5
6B
  8
SPEC
 62
     7
 10
-1632.0
 20
1732.862840555555
 30
0.0
 40
38.00629340277779
  1
電源
 41
0.7
 11
-1632.0
 21
1770.869133958333
 31
0.0
 73
     3
  0
TEXT
  5
6C
  8
SPEC
 62
     7
 10
-1632.0
 20
1657.862840555555
 30
0.0
 40
38.00629340277779
  1
消費電力(1/8出力時、ピンクノイズ)
 41
0.7
 11
-1632.0
 21
1695.869133958333
 31
0.0
 73
     3
  0
TEXT
  5
6D
  8
SPEC
 62
     7
 10
-1632.0
 20
1582.862840555555
 30
0.0
 40
38.00629340277779
  1
エンクロージャー
 41
0.7
 11
-1632.0
 21
1620.869133958333
 31
0.0
 73
     3
  0
TEXT
  5
6E
  8
SPEC
 62
     7
 10
-757.0
 20
2407.862840555556
 30
0.0
 40
38.00629340277779
  1
45Hz～103Hz
 41
0.7
 11
-757.0
 21
2445.869133958333
 31
0.0
 73
     3
  0
TEXT
  5
6F
  8
SPEC
 62
     7
 10
-757.0
 20
2332.862840555556
 30
0.0
 40
38.00629340277779
  1
128dB SPL
 41
0.7
 11
-757.0
 21
2370.869133958333
 31
0.0
 73
     3
  0
TEXT
  5
70
  8
SPEC
 62
     7
 10
-757.0
 20
2257.862840555556
 30
0.0
 40
38.00629340277779
  1
15インチ(381mm)
 41
0.7
 11
-757.0
 21
2295.869133958333
 31
0.0
 73
     3
  0
TEXT
  5
71
  8
SPEC
 62
     7
 10
-757.0
 20
2182.862840555556
 30
0.0
 40
38.00629340277779
  1
80Hz/100Hz/120Hz(スイッチ切替)
 41
0.7
 11
-757.0
 21
2220.869133958333
 31
0.0
 73
     3
  0
TEXT
  5
72
  8
SPEC
 62
     7
 10
-757.0
 20
2107.862840555556
 30
0.0
 40
38.00629340277779
  1
1,300W
 41
0.7
 11
-757.0
 21
2145.869133958333
 31
0.0
 73
     3
  0
TEXT
  5
73
  8
SPEC
 62
     7
 10
-1207.0
 20
1957.862840555555
 30
0.0
 40
38.00629340277779
  1
端子・形式
 41
0.7
 11
-1207.0
 21
1995.869133958333
 31
0.0
 73
     3
  0
TEXT
  5
74
  8
SPEC
 62
     7
 10
-1207.0
 20
1882.862840555555
 30
0.0
 40
38.00629340277779
  1
インピーダンス
 41
0.7
 11
-1207.0
 21
1920.869133958333
 31
0.0
 73
     3
  0
TEXT
  5
75
  8
SPEC
 62
     7
 10
-757.0
 20
2032.862840555556
 30
0.0
 40
38.00629340277779
  1
2
 41
0.7
 11
-757.0
 21
2070.869133958333
 31
0.0
 73
     3
  0
TEXT
  5
76
  8
SPEC
 62
     7
 10
-757.0
 20
1957.862840555555
 30
0.0
 40
38.00629340277779
  1
XLRと標準フォーンジャック(3P)対応の複合型端子×2
 41
0.7
 11
-757.0
 21
1995.869133958333
 31
0.0
 73
     3
  0
TEXT
  5
77
  8
SPEC
 62
     7
 10
-757.0
 20
1882.862840555555
 30
0.0
 40
38.00629340277779
  1
100kΩ(バランス)
 41
0.7
 11
-757.0
 21
1920.869133958333
 31
0.0
 73
     3
  0
LINE
  5
78
  8
SPEC
  6
CONTINUOUS
 62
     7
 10
-1225.0
 20
2092.104485
 30
0.0
 11
-1225.0
 21
1792.104485
 31
0.0
  0
TEXT
  5
79
  8
SPEC
 62
     7
 10
-757.0
 20
1807.862840555555
 30
0.0
 40
38.00629340277779
  1
スルー:XLR×2
 41
0.7
 11
-757.0
 21
1845.869133958333
 31
0.0
 73
     3
  0
TEXT
  5
7A
  8
SPEC
 62
     7
 10
-757.0
 20
1732.862840555555
 30
0.0
 40
38.00629340277779
  1
AC100V、50/60Hz
 41
0.7
 11
-757.0
 21
1770.869133958333
 31
0.0
 73
     3
  0
TEXT
  5
7B
  8
SPEC
 62
     7
 10
-757.0
 20
1657.862840555555
 30
0.0
 40
38.00629340277779
  1
27W
 41
0.7
 11
-757.0
 21
1695.869133958333
 31
0.0
 73
     3
  0
TEXT
  5
7C
  8
SPEC
 62
     7
 10
-757.0
 20
1582.862840555555
 30
0.0
 40
38.00629340277779
  1
MDF(中密度繊維板)、黒
 41
0.7
 11
-757.0
 21
1620.869133958333
 31
0.0
 73
     3
  0
TEXT
  5
7D
  8
SPEC
 62
     7
 10
-757.0
 20
1357.862840555556
 30
0.0
 40
38.00629340277779
  1
電源コード、和文取扱説明書
 41
0.7
 11
-757.0
 21
1395.869133958334
 31
0.0
 73
     3
  0
TEXT
  5
7E
  8
SPEC
 62
     7
 10
-1207.0
 20
1807.862840555555
 30
0.0
 40
38.00629340277779
  1
端子・形式
 41
0.7
 11
-1207.0
 21
1845.869133958333
 31
0.0
 73
     3
  0
TEXT
  5
7F
  8
DIMNSIONS
 62
     7
 10
-399.9999999999999
 20
-2287.505714999999
 30
0.0
 40
48.86523437500001
  1
(単位：mm)
 41
0.7
 11
-399.9999999999999
 21
-2238.640480624999
 31
0.0
 73
     3
  0
LINE
  5
80
  8
DIMNSIONS
  6
CONTINUOUS
 62
     7
 10
-1124.0
 20
-740.25
 30
0.0
 11
-1470.0
 21
-740.25
 31
0.0
  0
LINE
  5
81
  8
DIMNSIONS
  6
CONTINUOUS
 62
     7
 10
-1364.25
 20
-259.75
 30
0.0
 11
-1470.0
 21
-259.75
 31
0.0
  0
LINE
  5
82
  8
DIMNSIONS
  6
CONTINUOUS
 62
     7
 10
-1450.0
 20
-740.25
 30
0.0
 11
-1450.0
 21
-259.75
 31
0.0
  0
LINE
  5
83
  8
DIMNSIONS
  6
CONTINUOUS
 62
     7
 10
-1450.0
 20
-740.25
 30
0.0
 11
-1460.717313524412
 21
-700.25244140625
 31
0.0
  0
LINE
  5
84
  8
DIMNSIONS
  6
CONTINUOUS
 62
     7
 10
-1450.0
 20
-740.25
 30
0.0
 11
-1439.282686475588
 21
-700.25244140625
 31
0.0
  0
LINE
  5
85
  8
DIMNSIONS
  6
CONTINUOUS
 62
     7
 10
-1450.0
 20
-259.75
 30
0.0
 11
-1439.282686475588
 21
-299.74755859375
 31
0.0
  0
LINE
  5
86
  8
DIMNSIONS
  6
CONTINUOUS
 62
     7
 10
-1450.0
 20
-259.75
 30
0.0
 11
-1460.717313524412
 21
-299.74755859375
 31
0.0
  0
TEXT
  5
87
  8
DIMNSIONS
 62
     7
 10
-1469.877777777778
 20
-552.9166666666667
 30
0.0
 40
54.29470486111116
  1
481
 50
90.0
 41
0.7
 11
-1524.172482638889
 21
-552.9166666666667
 31
0.0
 73
     3
  0
LINE
  5
88
  8
DIMNSIONS
  6
CONTINUOUS
 62
     7
 10
-1349.25
 20
-1400.0
 30
0.0
 11
-1470.0
 21
-1400.0
 31
0.0
  0
LINE
  5
89
  8
DIMNSIONS
  6
CONTINUOUS
 62
     7
 10
-1349.25
 20
-800.0
 30
0.0
 11
-1470.0
 21
-800.0
 31
0.0
  0
LINE
  5
8A
  8
DIMNSIONS
  6
CONTINUOUS
 62
     7
 10
-1450.0
 20
-1400.0
 30
0.0
 11
-1450.0
 21
-800.0
 31
0.0
  0
LINE
  5
8B
  8
DIMNSIONS
  6
CONTINUOUS
 62
     7
 10
-1450.0
 20
-1400.0
 30
0.0
 11
-1460.717313524412
 21
-1360.00244140625
 31
0.0
  0
LINE
  5
8C
  8
DIMNSIONS
  6
CONTINUOUS
 62
     7
 10
-1450.0
 20
-1400.0
 30
0.0
 11
-1439.282686475588
 21
-1360.00244140625
 31
0.0
  0
LINE
  5
8D
  8
DIMNSIONS
  6
CONTINUOUS
 62
     7
 10
-1450.0
 20
-800.0
 30
0.0
 11
-1439.282686475588
 21
-839.99755859375
 31
0.0
  0
LINE
  5
8E
  8
DIMNSIONS
  6
CONTINUOUS
 62
     7
 10
-1450.0
 20
-800.0
 30
0.0
 11
-1460.717313524412
 21
-839.99755859375
 31
0.0
  0
TEXT
  5
8F
  8
DIMNSIONS
 62
     7
 10
-1469.877777777778
 20
-1152.916666666667
 30
0.0
 40
54.29470486111116
  1
600
 50
90.0
 41
0.7
 11
-1524.172482638889
 21
-1152.916666666667
 31
0.0
 73
     3
  0
LINE
  5
90
  8
DIMNSIONS
  6
CONTINUOUS
 62
     7
 10
-1340.25
 20
-1409.0
 30
0.0
 11
-1340.25
 21
-1545.0
 31
0.0
  0
LINE
  5
91
  8
DIMNSIONS
  6
CONTINUOUS
 62
     7
 10
-859.75
 20
-1409.0
 30
0.0
 11
-859.75
 21
-1545.0
 31
0.0
  0
LINE
  5
92
  8
DIMNSIONS
  6
CONTINUOUS
 62
     7
 10
-1340.25
 20
-1525.0
 30
0.0
 11
-859.75
 21
-1525.0
 31
0.0
  0
LINE
  5
93
  8
DIMNSIONS
  6
CONTINUOUS
 62
     7
 10
-1340.25
 20
-1525.0
 30
0.0
 11
-1300.25244140625
 21
-1514.282686475588
 31
0.0
  0
LINE
  5
94
  8
DIMNSIONS
  6
CONTINUOUS
 62
     7
 10
-1340.25
 20
-1525.0
 30
0.0
 11
-1300.25244140625
 21
-1535.717313524412
 31
0.0
  0
LINE
  5
95
  8
DIMNSIONS
  6
CONTINUOUS
 62
     7
 10
-859.75
 20
-1525.0
 30
0.0
 11
-899.74755859375
 21
-1535.717313524412
 31
0.0
  0
LINE
  5
96
  8
DIMNSIONS
  6
CONTINUOUS
 62
     7
 10
-859.75
 20
-1525.0
 30
0.0
 11
-899.74755859375
 21
-1514.282686475588
 31
0.0
  0
TEXT
  5
97
  8
DIMNSIONS
 62
     7
 10
-1152.916666666667
 20
-1505.122222222222
 30
0.0
 40
54.29470486111116
  1
481
 41
0.7
 11
-1152.916666666667
 21
-1450.827517361111
 31
0.0
 73
     3
  0
LINE
  5
98
  8
DIMNSIONS
  6
CONTINUOUS
 62
     7
 10
-1089.024804658371
 20
-525.8330321459455
 30
0.0
 11
-825.0
 21
-600.0
 31
0.0
  0
LINE
  5
99
  8
DIMNSIONS
  6
CONTINUOUS
 62
     7
 10
-1089.024804658371
 20
-525.8330321459455
 30
0.0
 11
-1047.616284971705
 21
-525.8330321459455
 31
0.0
  0
LINE
  5
9A
  8
DIMNSIONS
  6
CONTINUOUS
 62
     7
 10
-1089.024804658371
 20
-525.8330321459455
 30
0.0
 11
-1053.16397467661
 21
-546.5372919892785
 31
0.0
  0
LINE
  5
9B
  8
DIMNSIONS
  6
CONTINUOUS
 62
     7
 10
-825.0
 20
-600.0
 30
0.0
 11
-785.0
 21
-600.0
 31
0.0
  0
TEXT
  5
9C
  8
DIMNSIONS
 62
     7
 10
-785.0
 20
-625.4000000000001
 30
0.0
 40
54.29470486111111
  1
M20ねじ込み式
 41
0.7
 11
-785.0
 21
-571.105295138889
 31
0.0
 73
     3
  0
TEXT
  5
9D
  8
DIMNSIONS
 62
     7
 10
-785.0
 20
-695.9555555555555
 30
0.0
 40
54.29470486111111
  1
ポールソケット
 41
0.7
 11
-785.0
 21
-641.6608506944444
 31
0.0
 73
     3
  0
LINE
  5
9E
  8
DIMNSIONS
  6
CONTINUOUS
 62
     7
 10
-835.75
 20
-259.75
 30
0.0
 11
-705.0
 21
-259.75
 31
0.0
  0
LINE
  5
9F
  8
DIMNSIONS
  6
CONTINUOUS
 62
     7
 10
-1076.0
 20
-522.7499999999777
 30
0.0
 11
-705.0
 21
-522.7499999999777
 31
0.0
  0
LINE
  5
A0
  8
DIMNSIONS
  6
CONTINUOUS
 62
     7
 10
-725.0
 20
-259.75
 30
0.0
 11
-725.0
 21
-522.7499999999777
 31
0.0
  0
LINE
  5
A1
  8
DIMNSIONS
  6
CONTINUOUS
 62
     7
 10
-725.0
 20
-259.75
 30
0.0
 11
-714.2826864755882
 21
-299.74755859375
 31
0.0
  0
LINE
  5
A2
  8
DIMNSIONS
  6
CONTINUOUS
 62
     7
 10
-725.0
 20
-259.75
 30
0.0
 11
-735.7173135244118
 21
-299.74755859375
 31
0.0
  0
LINE
  5
A3
  8
DIMNSIONS
  6
CONTINUOUS
 62
     7
 10
-725.0
 20
-522.7499999999777
 30
0.0
 11
-735.7173135244118
 21
-482.7524414062277
 31
0.0
  0
LINE
  5
A4
  8
DIMNSIONS
  6
CONTINUOUS
 62
     7
 10
-725.0
 20
-522.7499999999777
 30
0.0
 11
-714.2826864755882
 21
-482.7524414062277
 31
0.0
  0
TEXT
  5
A5
  8
DIMNSIONS
 62
     7
 10
-744.8777777777777
 20
-444.1666666666555
 30
0.0
 40
54.29470486111116
  1
263
 50
90.0
 41
0.7
 11
-799.1724826388889
 21
-444.1666666666555
 31
0.0
 73
     3
  0
LINE
  5
A6
  8
DIMNSIONS
  6
CONTINUOUS
 62
     7
 10
-1349.25
 20
-1400.0
 30
0.0
 11
-1470.0
 21
-1400.0
 31
0.0
  0
LINE
  5
A7
  8
DIMNSIONS
  6
CONTINUOUS
 62
     7
 10
-1341.0
 20
-1408.0
 30
0.0
 11
-1470.0
 21
-1408.0
 31
0.0
  0
LINE
  5
A8
  8
DIMNSIONS
  6
CONTINUOUS
 62
     7
 10
-1450.0
 20
-1408.0
 30
0.0
 11
-1450.0
 21
-1400.0
 31
0.0
  0
LINE
  5
A9
  8
DIMNSIONS
  6
CONTINUOUS
 62
     7
 10
-1450.0
 20
-1400.0
 30
0.0
 11
-1450.0
 21
-1330.0
 31
0.0
  0
LINE
  5
AA
  8
DIMNSIONS
  6
CONTINUOUS
 62
     7
 10
-1450.0
 20
-1400.0
 30
0.0
 11
-1460.717313524412
 21
-1360.00244140625
 31
0.0
  0
LINE
  5
AB
  8
DIMNSIONS
  6
CONTINUOUS
 62
     7
 10
-1450.0
 20
-1400.0
 30
0.0
 11
-1439.282686475588
 21
-1360.00244140625
 31
0.0
  0
LINE
  5
AC
  8
DIMNSIONS
  6
CONTINUOUS
 62
     7
 10
-1450.0
 20
-1408.0
 30
0.0
 11
-1450.0
 21
-1478.0
 31
0.0
  0
LINE
  5
AD
  8
DIMNSIONS
  6
CONTINUOUS
 62
     7
 10
-1450.0
 20
-1408.0
 30
0.0
 11
-1439.282686475588
 21
-1447.99755859375
 31
0.0
  0
LINE
  5
AE
  8
DIMNSIONS
  6
CONTINUOUS
 62
     7
 10
-1450.0
 20
-1408.0
 30
0.0
 11
-1460.717313524412
 21
-1447.99755859375
 31
0.0
  0
TEXT
  5
AF
  8
DIMNSIONS
 62
     7
 10
-1479.877777777778
 20
-1456.916666666667
 30
0.0
 40
54.29470486111116
  1
8.0
 50
90.0
 41
0.7
 11
-1534.172482638889
 21
-1456.916666666667
 31
0.0
 73
     3
  0
LINE
  5
B0
  8
DATA
  6
CONTINUOUS
 62
     7
 10
902.7678644360344
 20
-1735.0
 30
0.0
 11
1516.087110601126
 21
-1735.0
 31
0.0
  0
TEXT
  5
B1
  8
DATA
 62
     7
 10
-1760.0
 20
-2375.369959444444
 30
0.0
 40
38.00629340277779
  1
※仕様及び外観は予告なく変更されることがあります。
 41
0.7
 11
-1760.0
 21
-2337.363666041666
 31
0.0
 73
     3
  0
TEXT
  5
B2
  8
DATA
 62
     7
 10
-1760.0
 20
-2424.758848333333
 30
0.0
 40
38.00629340277779
  1
　また、同一商品でも若干の個体差があることがあります。ご了承ください。
 41
0.7
 11
-1760.0
 21
-2386.752554930555
 31
0.0
 73
     3
  0
TEXT
  5
B3
  8
DATA
 62
     7
 10
1000.0
 20
-2165.277714999999
 30
0.0
 40
48.86523437500001
  1
JBL PROFESSIONAL
 41
0.7
 11
1000.0
 21
-2116.412480624999
 31
0.0
 73
     3
  0
TEXT
  5
B4
  8
DATA
 62
     7
 10
1023.904173900463
 20
-1702.147352430556
 30
0.0
 40
54.29470486111111
  1
背面パネル拡大図
 41
0.7
 72
     1
 11
1200.0
 21
-1675.0
 31
0.0
 73
     2
  0
LINE
  5
B5
  8
DATA
  6
CONTINUOUS
 62
     7
 10
-1340.25
 20
-726.75
 30
0.0
 11
-1340.25
 21
-259.75
 31
0.0
  0
LINE
  5
B6
  8
DATA
  6
CONTINUOUS
 62
     7
 10
-859.75
 20
-259.75
 30
0.0
 11
-859.75
 21
-726.75
 31
0.0
  0
LINE
  5
B7
  8
DATA
  6
CONTINUOUS
 62
     7
 10
-1340.25
 20
-259.75
 30
0.0
 11
-859.75
 21
-259.75
 31
0.0
  0
LINE
  5
B8
  8
DATA
  6
CONTINUOUS
 62
     7
 10
-1339.0
 20
-1385.0
 30
0.0
 11
-1339.0
 21
-815.0
 31
0.0
  0
LINE
  5
B9
  8
DATA
  6
CONTINUOUS
 62
     7
 10
-861.0
 20
-815.0
 30
0.0
 11
-861.0
 21
-1385.0
 31
0.0
  0
LINE
  5
BA
  8
DATA
  6
CONTINUOUS
 62
     7
 10
-790.25
 20
-1385.0
 30
0.0
 11
-790.25
 21
-814.9999999999999
 31
0.0
  0
LINE
  5
BB
  8
DATA
  6
CONTINUOUS
 62
     7
 10
-324.75
 20
-1400.0
 30
0.0
 11
-775.2499999999998
 21
-1400.0
 31
0.0
  0
LINE
  5
BC
  8
DATA
  6
CONTINUOUS
 62
     7
 10
-309.75
 20
-815.0
 30
0.0
 11
-309.75
 21
-1385.0
 31
0.0
  0
LINE
  5
BD
  8
DATA
  6
CONTINUOUS
 62
     7
 10
-775.2499999999999
 20
-800.0
 30
0.0
 11
-324.7499999999999
 21
-800.0
 31
0.0
  0
TEXT
  5
BE
  8
DATA
 62
     7
 10
949.9999999999998
 20
-2239.896814999999
 30
0.0
 40
43.43576388888889
  1
パワード・サブウーファー
 41
0.7
 11
949.9999999999998
 21
-2196.46105111111
 31
0.0
 73
     3
  0
ARC
  5
BF
  8
DATA
  6
CONTINUOUS
 62
     7
 10
-1100.0
 20
1404.280092592593
 30
0.0
 40
2144.530092592593
 50
263.5676964349815
 51
276.4323035650186
  0
LINE
  5
C0
  8
DATA
  6
CONTINUOUS
 62
     7
 10
-1340.25
 20
-1573.25
 30
0.0
 11
-1340.25
 21
-2040.25
 31
0.0
  0
LINE
  5
C1
  8
DATA
  6
CONTINUOUS
 62
     7
 10
-859.75
 20
-2040.25
 30
0.0
 11
-859.75
 21
-1573.25
 31
0.0
  0
LINE
  5
C2
  8
DATA
  6
CONTINUOUS
 62
     7
 10
-1340.25
 20
-2040.25
 30
0.0
 11
-859.75
 21
-2040.25
 31
0.0
  0
ARC
  5
C3
  8
DATA
  6
CONTINUOUS
 62
     7
 10
-1100.0
 20
-3704.280092592593
 30
0.0
 40
2144.530092592593
 50
83.56769643498141
 51
96.4323035650186
  0
CIRCLE
  5
C4
  8
DATA
  6
CONTINUOUS
 62
     7
 10
-1100.0
 20
-522.7499999999777
 30
0.0
 40
9.0
  0
CIRCLE
  5
C5
  8
DATA
  6
CONTINUOUS
 62
     7
 10
-1100.0
 20
-522.7499999999777
 30
0.0
 40
11.40000000000009
  0
CIRCLE
  5
C6
  8
DATA
  6
CONTINUOUS
 62
     7
 10
-1100.0
 20
-522.7499999999777
 30
0.0
 40
51.90000000000009
  0
CIRCLE
  5
C7
  8
DATA
  6
CONTINUOUS
 62
     7
 10
-1100.0
 20
-522.7499999999777
 30
0.0
 40
50.90000000000009
  0
CIRCLE
  5
C8
  8
DATA
  6
CONTINUOUS
 62
     7
 10
-1100.0
 20
-482.1399999999778
 30
0.0
 40
6.0
  0
ARC
  5
C9
  8
DATA
  6
CONTINUOUS
 62
     7
 10
-1100.0
 20
-479.7127274871612
 30
0.0
 40
0.3177274877834656
 50
356.8251528743965
 51
183.1748471255932
  0
ARC
  5
CA
  8
DATA
  6
CONTINUOUS
 62
     7
 10
-1101.479989505056
 20
-479.5765829824082
 30
0.0
 40
1.17286963484616
 50
247.5320803524663
 51
352.4679196225471
  0
ARC
  5
CB
  8
DATA
  6
CONTINUOUS
 62
     7
 10
-1102.102079658007
 20
-480.9263637435695
 30
0.0
 40
0.3177274877835802
 50
56.82515287441206
 51
243.1748471255677
  0
ARC
  5
CC
  8
DATA
  6
CONTINUOUS
 62
     7
 10
-1102.959979010237
 20
-482.1399999999059
 30
0.0
 40
1.172869634846198
 50
307.5320803524665
 51
52.46791962254576
  0
ARC
  5
CD
  8
DATA
  6
CONTINUOUS
 62
     7
 10
-1100.0
 20
-484.5672725127944
 30
0.0
 40
0.3177274877834624
 50
176.8251528744068
 51
3.174847125593231
  0
ARC
  5
CE
  8
DATA
  6
CONTINUOUS
 62
     7
 10
-1101.479989505056
 20
-484.7034170175475
 30
0.0
 40
1.172869634846164
 50
7.532080377455628
 51
112.4679196475327
  0
ARC
  5
CF
  8
DATA
  6
CONTINUOUS
 62
     7
 10
-1102.102079658007
 20
-483.3536362563861
 30
0.0
 40
0.3177274877834972
 50
116.8251528744415
 51
303.1748471255649
  0
ARC
  5
D0
  8
DATA
  6
CONTINUOUS
 62
     7
 10
-1098.520010494944
 20
-479.5765829824082
 30
0.0
 40
1.172869634846164
 50
187.5320803774556
 51
292.4679196475337
  0
ARC
  5
D1
  8
DATA
  6
CONTINUOUS
 62
     7
 10
-1097.897920341994
 20
-480.9263637435695
 30
0.0
 40
0.3177274877834465
 50
296.8251528744462
 51
123.1748471255649
  0
ARC
  5
D2
  8
DATA
  6
CONTINUOUS
 62
     7
 10
-1097.040020989763
 20
-482.1399999999059
 30
0.0
 40
1.172869634846152
 50
127.5320803774559
 51
232.4679196475335
  0
ARC
  5
D3
  8
DATA
  6
CONTINUOUS
 62
     7
 10
-1098.520010494944
 20
-484.7034170175475
 30
0.0
 40
1.17286963484616
 50
67.53208035246631
 51
172.4679196225444
  0
ARC
  5
D4
  8
DATA
  6
CONTINUOUS
 62
     7
 10
-1097.897920341994
 20
-483.3536362563861
 30
0.0
 40
0.317727487783485
 50
236.8251528744008
 51
63.1748471255678
  0
CIRCLE
  5
D5
  8
DATA
  6
CONTINUOUS
 62
     7
 10
-1135.169291647687
 20
-543.0549999999776
 30
0.0
 40
6.0
  0
ARC
  5
D6
  8
DATA
  6
CONTINUOUS
 62
     7
 10
-1135.169291647687
 20
-540.627727487161
 30
0.0
 40
0.3177274877834656
 50
356.8251528743965
 51
183.1748471256012
  0
ARC
  5
D7
  8
DATA
  6
CONTINUOUS
 62
     7
 10
-1136.649281152743
 20
-540.491582982408
 30
0.0
 40
1.17286963484616
 50
247.5320803524663
 51
352.4679196225444
  0
ARC
  5
D8
  8
DATA
  6
CONTINUOUS
 62
     7
 10
-1137.271371305694
 20
-541.8413637435693
 30
0.0
 40
0.3177274877837046
 50
56.82515287437774
 51
243.1748471256044
  0
ARC
  5
D9
  8
DATA
  6
CONTINUOUS
 62
     7
 10
-1138.129270657924
 20
-543.0549999999057
 30
0.0
 40
1.172869634846198
 50
307.5320803524665
 51
52.46791962254576
  0
ARC
  5
DA
  8
DATA
  6
CONTINUOUS
 62
     7
 10
-1135.169291647687
 20
-545.4822725127942
 30
0.0
 40
0.3177274877834656
 50
176.8251528743965
 51
3.174847125605766
  0
ARC
  5
DB
  8
DATA
  6
CONTINUOUS
 62
     7
 10
-1136.649281152743
 20
-545.6184170175472
 30
0.0
 40
1.172869634846164
 50
7.532080377455628
 51
112.4679196475337
  0
ARC
  5
DC
  8
DATA
  6
CONTINUOUS
 62
     7
 10
-1137.271371305694
 20
-544.2686362563859
 30
0.0
 40
0.3177274877833946
 50
116.8251528744049
 51
303.1748471255992
  0
ARC
  5
DD
  8
DATA
  6
CONTINUOUS
 62
     7
 10
-1133.689302142631
 20
-540.491582982408
 30
0.0
 40
1.172869634846164
 50
187.5320803774556
 51
292.4679196475337
  0
ARC
  5
DE
  8
DATA
  6
CONTINUOUS
 62
     7
 10
-1133.06721198968
 20
-541.8413637435693
 30
0.0
 40
0.3177274877834972
 50
296.8251528744415
 51
123.1748471255992
  0
ARC
  5
DF
  8
DATA
  6
CONTINUOUS
 62
     7
 10
-1132.20931263745
 20
-543.0549999999057
 30
0.0
 40
1.172869634845969
 50
127.5320803774488
 51
232.4679196475424
  0
ARC
  5
E0
  8
DATA
  6
CONTINUOUS
 62
     7
 10
-1133.689302142631
 20
-545.6184170175472
 30
0.0
 40
1.17286963484616
 50
67.53208035246631
 51
172.4679196225444
  0
ARC
  5
E1
  8
DATA
  6
CONTINUOUS
 62
     7
 10
-1133.06721198968
 20
-544.2686362563859
 30
0.0
 40
0.317727487783485
 50
236.8251528744008
 51
63.1748471255678
  0
CIRCLE
  5
E2
  8
DATA
  6
CONTINUOUS
 62
     7
 10
-1064.830708352314
 20
-543.0549999999776
 30
0.0
 40
6.0
  0
ARC
  5
E3
  8
DATA
  6
CONTINUOUS
 62
     7
 10
-1064.830708352314
 20
-540.627727487161
 30
0.0
 40
0.3177274877834656
 50
356.8251528743965
 51
183.1748471256035
  0
ARC
  5
E4
  8
DATA
  6
CONTINUOUS
 62
     7
 10
-1066.31069785737
 20
-540.491582982408
 30
0.0
 40
1.17286963484616
 50
247.5320803524663
 51
352.4679196225444
  0
ARC
  5
E5
  8
DATA
  6
CONTINUOUS
 62
     7
 10
-1066.932788010321
 20
-541.8413637435693
 30
0.0
 40
0.3177274877835802
 50
56.82515287441206
 51
243.1748471255677
  0
ARC
  5
E6
  8
DATA
  6
CONTINUOUS
 62
     7
 10
-1067.790687362551
 20
-543.0549999999057
 30
0.0
 40
1.172869634846198
 50
307.5320803524665
 51
52.46791962254576
  0
ARC
  5
E7
  8
DATA
  6
CONTINUOUS
 62
     7
 10
-1064.830708352314
 20
-545.4822725127942
 30
0.0
 40
0.3177274877834656
 50
176.8251528743965
 51
3.174847125603492
  0
ARC
  5
E8
  8
DATA
  6
CONTINUOUS
 62
     7
 10
-1066.31069785737
 20
-545.6184170175472
 30
0.0
 40
1.172869634846164
 50
7.532080377455628
 51
112.4679196475337
  0
ARC
  5
E9
  8
DATA
  6
CONTINUOUS
 62
     7
 10
-1066.932788010321
 20
-544.2686362563859
 30
0.0
 40
0.3177274877834972
 50
116.8251528744415
 51
303.1748471255649
  0
ARC
  5
EA
  8
DATA
  6
CONTINUOUS
 62
     7
 10
-1063.350718847258
 20
-540.491582982408
 30
0.0
 40
1.172869634846164
 50
187.5320803774556
 51
292.4679196475337
  0
ARC
  5
EB
  8
DATA
  6
CONTINUOUS
 62
     7
 10
-1062.728628694307
 20
-541.8413637435693
 30
0.0
 40
0.3177274877834972
 50
296.8251528744415
 51
123.1748471255648
  0
ARC
  5
EC
  8
DATA
  6
CONTINUOUS
 62
     7
 10
-1061.870729342077
 20
-543.0549999999057
 30
0.0
 40
1.172869634846107
 50
127.5320803774576
 51
232.4679196475335
  0
ARC
  5
ED
  8
DATA
  6
CONTINUOUS
 62
     7
 10
-1063.350718847258
 20
-545.6184170175472
 30
0.0
 40
1.17286963484616
 50
67.53208035246631
 51
172.4679196225458
  0
ARC
  5
EE
  8
DATA
  6
CONTINUOUS
 62
     7
 10
-1062.728628694307
 20
-544.2686362563859
 30
0.0
 40
0.317727487783485
 50
236.8251528744008
 51
63.1748471255678
  0
LINE
  5
EF
  8
DATA
  6
CONTINUOUS
 62
     7
 10
-1325.0
 20
-1385.0
 30
0.0
 11
-1325.0
 21
-815.0
 31
0.0
  0
LINE
  5
F0
  8
DATA
  6
CONTINUOUS
 62
     7
 10
-875.0
 20
-815.0
 30
0.0
 11
-875.0
 21
-1385.0
 31
0.0
  0
ARC
  5
F1
  8
DATA
  6
CONTINUOUS
 62
     7
 10
-1029.875000000023
 20
-1373.559288632908
 30
0.0
 40
0.1892886329077032
 50
359.0566788815885
 51
180.9433209280187
  0
ARC
  5
F2
  8
DATA
  6
CONTINUOUS
 62
     7
 10
-1030.738184193107
 20
-1373.504921121286
 30
0.0
 40
0.6763683861877037
 50
244.8753886700349
 51
355.124611351884
  0
ARC
  5
F3
  8
DATA
  6
CONTINUOUS
 62
     7
 10
-1031.122692643428
 20
-1374.279644316485
 30
0.0
 40
0.189288632907681
 50
59.05667888157139
 51
240.9433209280191
  0
ARC
  5
F4
  8
DATA
  6
CONTINUOUS
 62
     7
 10
-1031.601368386175
 20
-1375.00000000003
 30
0.0
 40
0.6763683861879403
 50
304.875388670037
 51
55.1246113518757
  0
ARC
  5
F5
  8
DATA
  6
CONTINUOUS
 62
     7
 10
-1029.875000000023
 20
-1376.440711367092
 30
0.0
 40
0.1892886329078069
 50
179.0566790719813
 51
0.9433211184115464
  0
ARC
  5
F6
  8
DATA
  6
CONTINUOUS
 62
     7
 10
-1030.738184193107
 20
-1376.495078878714
 30
0.0
 40
0.6763683861879238
 50
4.875388648116016
 51
115.1246113299651
  0
ARC
  5
F7
  8
DATA
  6
CONTINUOUS
 62
     7
 10
-1031.122692643428
 20
-1375.720355683515
 30
0.0
 40
0.1892886329075335
 50
119.0566790719809
 51
300.9433211184286
  0
ARC
  5
F8
  8
DATA
  6
CONTINUOUS
 62
     7
 10
-1029.011815806939
 20
-1373.504921121286
 30
0.0
 40
0.6763683861879238
 50
184.875388648116
 51
295.1246113299825
  0
ARC
  5
F9
  8
DATA
  6
CONTINUOUS
 62
     7
 10
-1028.627307356618
 20
-1374.279644316485
 30
0.0
 40
0.1892886329076439
 50
299.056679072041
 51
120.9433211183696
  0
ARC
  5
FA
  8
DATA
  6
CONTINUOUS
 62
     7
 10
-1028.148631613871
 20
-1375.00000000003
 30
0.0
 40
0.6763683861879456
 50
124.8753886481085
 51
235.124611329963
  0
ARC
  5
FB
  8
DATA
  6
CONTINUOUS
 62
     7
 10
-1029.011815806939
 20
-1376.495078878714
 30
0.0
 40
0.6763683861878003
 50
64.8753886700175
 51
175.124611351884
  0
ARC
  5
FC
  8
DATA
  6
CONTINUOUS
 62
     7
 10
-1028.627307356618
 20
-1375.720355683515
 30
0.0
 40
0.1892886329075641
 50
239.0566788816305
 51
60.94332092795898
  0
CIRCLE
  5
FD
  8
DATA
  6
CONTINUOUS
 62
     7
 10
-1029.875
 20
-1375.0
 30
0.0
 40
3.25
  0
ARC
  5
FE
  8
DATA
  6
CONTINUOUS
 62
     7
 10
-1170.125000000023
 20
-1373.559288632908
 30
0.0
 40
0.1892886329077032
 50
359.0566788815885
 51
180.9433209280187
  0
ARC
  5
FF
  8
DATA
  6
CONTINUOUS
 62
     7
 10
-1170.988184193107
 20
-1373.504921121286
 30
0.0
 40
0.6763683861877037
 50
244.8753886700349
 51
355.124611351884
  0
ARC
  5
100
  8
DATA
  6
CONTINUOUS
 62
     7
 10
-1171.372692643428
 20
-1374.279644316485
 30
0.0
 40
0.189288632907681
 50
59.05667888157139
 51
240.9433209280191
  0
ARC
  5
101
  8
DATA
  6
CONTINUOUS
 62
     7
 10
-1171.851368386175
 20
-1375.00000000003
 30
0.0
 40
0.6763683861879403
 50
304.875388670037
 51
55.1246113518757
  0
ARC
  5
102
  8
DATA
  6
CONTINUOUS
 62
     7
 10
-1170.125000000023
 20
-1376.440711367092
 30
0.0
 40
0.1892886329078069
 50
179.0566790719813
 51
0.9433211184115464
  0
ARC
  5
103
  8
DATA
  6
CONTINUOUS
 62
     7
 10
-1170.988184193107
 20
-1376.495078878714
 30
0.0
 40
0.6763683861879238
 50
4.875388648116016
 51
115.1246113299651
  0
ARC
  5
104
  8
DATA
  6
CONTINUOUS
 62
     7
 10
-1171.372692643428
 20
-1375.720355683515
 30
0.0
 40
0.1892886329075335
 50
119.0566790719809
 51
300.9433211184286
  0
ARC
  5
105
  8
DATA
  6
CONTINUOUS
 62
     7
 10
-1169.261815806939
 20
-1373.504921121286
 30
0.0
 40
0.6763683861879238
 50
184.875388648116
 51
295.1246113299825
  0
ARC
  5
106
  8
DATA
  6
CONTINUOUS
 62
     7
 10
-1168.877307356618
 20
-1374.279644316485
 30
0.0
 40
0.1892886329076439
 50
299.056679072041
 51
120.9433211183696
  0
ARC
  5
107
  8
DATA
  6
CONTINUOUS
 62
     7
 10
-1168.398631613871
 20
-1375.00000000003
 30
0.0
 40
0.6763683861879456
 50
124.8753886481085
 51
235.124611329963
  0
ARC
  5
108
  8
DATA
  6
CONTINUOUS
 62
     7
 10
-1169.261815806939
 20
-1376.495078878714
 30
0.0
 40
0.6763683861878003
 50
64.8753886700175
 51
175.124611351884
  0
ARC
  5
109
  8
DATA
  6
CONTINUOUS
 62
     7
 10
-1168.877307356618
 20
-1375.720355683515
 30
0.0
 40
0.1892886329075641
 50
239.0566788816305
 51
60.94332092795898
  0
CIRCLE
  5
10A
  8
DATA
  6
CONTINUOUS
 62
     7
 10
-1170.125
 20
-1375.0
 30
0.0
 40
3.25
  0
ARC
  5
10B
  8
DATA
  6
CONTINUOUS
 62
     7
 10
-894.875000000023
 20
-1373.559288632908
 30
0.0
 40
0.1892886329077032
 50
359.0566788815885
 51
180.9433209280187
  0
ARC
  5
10C
  8
DATA
  6
CONTINUOUS
 62
     7
 10
-895.7381841931068
 20
-1373.504921121286
 30
0.0
 40
0.676368386187752
 50
244.8753886700262
 51
355.1246113518832
  0
ARC
  5
10D
  8
DATA
  6
CONTINUOUS
 62
     7
 10
-896.1226926434277
 20
-1374.279644316485
 30
0.0
 40
0.1892886329076225
 50
59.05667888160091
 51
240.943320927989
  0
ARC
  5
10E
  8
DATA
  6
CONTINUOUS
 62
     7
 10
-896.601368386175
 20
-1375.00000000003
 30
0.0
 40
0.6763683861879403
 50
304.875388670037
 51
55.1246113518757
  0
ARC
  5
10F
  8
DATA
  6
CONTINUOUS
 62
     7
 10
-894.875000000023
 20
-1376.440711367092
 30
0.0
 40
0.1892886329078069
 50
179.0566790719813
 51
0.9433211184115464
  0
ARC
  5
110
  8
DATA
  6
CONTINUOUS
 62
     7
 10
-895.7381841931068
 20
-1376.495078878714
 30
0.0
 40
0.6763683861878106
 50
4.875388648116833
 51
115.1246113299738
  0
ARC
  5
111
  8
DATA
  6
CONTINUOUS
 62
     7
 10
-896.1226926434277
 20
-1375.720355683515
 30
0.0
 40
0.1892886329075887
 50
119.056679072011
 51
300.9433211183991
  0
ARC
  5
112
  8
DATA
  6
CONTINUOUS
 62
     7
 10
-894.0118158069392
 20
-1373.504921121286
 30
0.0
 40
0.6763683861879238
 50
184.875388648116
 51
295.1246113299738
  0
ARC
  5
113
  8
DATA
  6
CONTINUOUS
 62
     7
 10
-893.6273073566183
 20
-1374.279644316485
 30
0.0
 40
0.1892886329075887
 50
299.056679072011
 51
120.9433211183991
  0
ARC
  5
114
  8
DATA
  6
CONTINUOUS
 62
     7
 10
-893.1486316138712
 20
-1375.00000000003
 30
0.0
 40
0.6763683861880107
 50
124.8753886481164
 51
235.124611329971
  0
ARC
  5
115
  8
DATA
  6
CONTINUOUS
 62
     7
 10
-894.0118158069392
 20
-1376.495078878714
 30
0.0
 40
0.676368386187752
 50
64.87538867002621
 51
175.124611351884
  0
ARC
  5
116
  8
DATA
  6
CONTINUOUS
 62
     7
 10
-893.6273073566183
 20
-1375.720355683515
 30
0.0
 40
0.1892886329076225
 50
239.0566788816009
 51
60.94332092798902
  0
CIRCLE
  5
117
  8
DATA
  6
CONTINUOUS
 62
     7
 10
-894.875
 20
-1375.0
 30
0.0
 40
3.25
  0
ARC
  5
118
  8
DATA
  6
CONTINUOUS
 62
     7
 10
-1304.875000000023
 20
-1373.559288632908
 30
0.0
 40
0.1892886329077032
 50
359.0566788815885
 51
180.9433209280187
  0
ARC
  5
119
  8
DATA
  6
CONTINUOUS
 62
     7
 10
-1305.738184193107
 20
-1373.504921121286
 30
0.0
 40
0.6763683861877037
 50
244.8753886700349
 51
355.124611351884
  0
ARC
  5
11A
  8
DATA
  6
CONTINUOUS
 62
     7
 10
-1306.122692643428
 20
-1374.279644316485
 30
0.0
 40
0.189288632907681
 50
59.05667888157139
 51
240.9433209280191
  0
ARC
  5
11B
  8
DATA
  6
CONTINUOUS
 62
     7
 10
-1306.601368386175
 20
-1375.00000000003
 30
0.0
 40
0.6763683861879403
 50
304.875388670037
 51
55.1246113518757
  0
ARC
  5
11C
  8
DATA
  6
CONTINUOUS
 62
     7
 10
-1304.875000000023
 20
-1376.440711367092
 30
0.0
 40
0.1892886329078069
 50
179.0566790719813
 51
0.9433211184115464
  0
ARC
  5
11D
  8
DATA
  6
CONTINUOUS
 62
     7
 10
-1305.738184193107
 20
-1376.495078878714
 30
0.0
 40
0.6763683861879238
 50
4.875388648116016
 51
115.1246113299651
  0
ARC
  5
11E
  8
DATA
  6
CONTINUOUS
 62
     7
 10
-1306.122692643428
 20
-1375.720355683515
 30
0.0
 40
0.1892886329075335
 50
119.0566790719809
 51
300.9433211184286
  0
ARC
  5
11F
  8
DATA
  6
CONTINUOUS
 62
     7
 10
-1304.011815806939
 20
-1373.504921121286
 30
0.0
 40
0.6763683861879238
 50
184.875388648116
 51
295.1246113299825
  0
ARC
  5
120
  8
DATA
  6
CONTINUOUS
 62
     7
 10
-1303.627307356618
 20
-1374.279644316485
 30
0.0
 40
0.1892886329076439
 50
299.056679072041
 51
120.9433211183696
  0
ARC
  5
121
  8
DATA
  6
CONTINUOUS
 62
     7
 10
-1303.148631613871
 20
-1375.00000000003
 30
0.0
 40
0.6763683861879456
 50
124.8753886481085
 51
235.124611329963
  0
ARC
  5
122
  8
DATA
  6
CONTINUOUS
 62
     7
 10
-1304.011815806939
 20
-1376.495078878714
 30
0.0
 40
0.6763683861878003
 50
64.8753886700175
 51
175.124611351884
  0
ARC
  5
123
  8
DATA
  6
CONTINUOUS
 62
     7
 10
-1303.627307356618
 20
-1375.720355683515
 30
0.0
 40
0.1892886329075641
 50
239.0566788816305
 51
60.94332092795898
  0
CIRCLE
  5
124
  8
DATA
  6
CONTINUOUS
 62
     7
 10
-1304.875
 20
-1375.0
 30
0.0
 40
3.25
  0
ARC
  5
125
  8
DATA
  6
CONTINUOUS
 62
     7
 10
-1029.875000000023
 20
-823.5592886329077
 30
0.0
 40
0.1892886329077032
 50
359.0566788815885
 51
180.9433209280187
  0
ARC
  5
126
  8
DATA
  6
CONTINUOUS
 62
     7
 10
-1030.738184193107
 20
-823.5049211212859
 30
0.0
 40
0.6763683861877037
 50
244.8753886700349
 51
355.124611351884
  0
ARC
  5
127
  8
DATA
  6
CONTINUOUS
 62
     7
 10
-1031.122692643428
 20
-824.2796443164852
 30
0.0
 40
0.189288632907681
 50
59.05667888157139
 51
240.9433209280191
  0
ARC
  5
128
  8
DATA
  6
CONTINUOUS
 62
     7
 10
-1031.601368386175
 20
-825.00000000003
 30
0.0
 40
0.6763683861879403
 50
304.875388670037
 51
55.1246113518757
  0
ARC
  5
129
  8
DATA
  6
CONTINUOUS
 62
     7
 10
-1029.875000000023
 20
-826.4407113670923
 30
0.0
 40
0.1892886329078069
 50
179.0566790719813
 51
0.9433211184115464
  0
ARC
  5
12A
  8
DATA
  6
CONTINUOUS
 62
     7
 10
-1030.738184193107
 20
-826.4950788787141
 30
0.0
 40
0.6763683861879238
 50
4.875388648116016
 51
115.1246113299651
  0
ARC
  5
12B
  8
DATA
  6
CONTINUOUS
 62
     7
 10
-1031.122692643428
 20
-825.7203556835148
 30
0.0
 40
0.1892886329075335
 50
119.0566790719809
 51
300.9433211184286
  0
ARC
  5
12C
  8
DATA
  6
CONTINUOUS
 62
     7
 10
-1029.011815806939
 20
-823.5049211212859
 30
0.0
 40
0.6763683861879238
 50
184.875388648116
 51
295.1246113299825
  0
ARC
  5
12D
  8
DATA
  6
CONTINUOUS
 62
     7
 10
-1028.627307356618
 20
-824.2796443164852
 30
0.0
 40
0.1892886329076439
 50
299.056679072041
 51
120.9433211183696
  0
ARC
  5
12E
  8
DATA
  6
CONTINUOUS
 62
     7
 10
-1028.148631613871
 20
-825.00000000003
 30
0.0
 40
0.6763683861879456
 50
124.8753886481085
 51
235.124611329963
  0
ARC
  5
12F
  8
DATA
  6
CONTINUOUS
 62
     7
 10
-1029.011815806939
 20
-826.4950788787141
 30
0.0
 40
0.6763683861878003
 50
64.8753886700175
 51
175.124611351884
  0
ARC
  5
130
  8
DATA
  6
CONTINUOUS
 62
     7
 10
-1028.627307356618
 20
-825.7203556835148
 30
0.0
 40
0.1892886329075641
 50
239.0566788816305
 51
60.94332092795898
  0
CIRCLE
  5
131
  8
DATA
  6
CONTINUOUS
 62
     7
 10
-1029.875
 20
-825.0
 30
0.0
 40
3.25
  0
ARC
  5
132
  8
DATA
  6
CONTINUOUS
 62
     7
 10
-1170.125000000023
 20
-823.5592886329077
 30
0.0
 40
0.1892886329077032
 50
359.0566788815885
 51
180.9433209280187
  0
ARC
  5
133
  8
DATA
  6
CONTINUOUS
 62
     7
 10
-1170.988184193107
 20
-823.5049211212859
 30
0.0
 40
0.6763683861877037
 50
244.8753886700349
 51
355.124611351884
  0
ARC
  5
134
  8
DATA
  6
CONTINUOUS
 62
     7
 10
-1171.372692643428
 20
-824.2796443164852
 30
0.0
 40
0.189288632907681
 50
59.05667888157139
 51
240.9433209280191
  0
ARC
  5
135
  8
DATA
  6
CONTINUOUS
 62
     7
 10
-1171.851368386175
 20
-825.00000000003
 30
0.0
 40
0.6763683861879403
 50
304.875388670037
 51
55.1246113518757
  0
ARC
  5
136
  8
DATA
  6
CONTINUOUS
 62
     7
 10
-1170.125000000023
 20
-826.4407113670923
 30
0.0
 40
0.1892886329078069
 50
179.0566790719813
 51
0.9433211184115464
  0
ARC
  5
137
  8
DATA
  6
CONTINUOUS
 62
     7
 10
-1170.988184193107
 20
-826.4950788787141
 30
0.0
 40
0.6763683861879238
 50
4.875388648116016
 51
115.1246113299651
  0
ARC
  5
138
  8
DATA
  6
CONTINUOUS
 62
     7
 10
-1171.372692643428
 20
-825.7203556835148
 30
0.0
 40
0.1892886329075335
 50
119.0566790719809
 51
300.9433211184286
  0
ARC
  5
139
  8
DATA
  6
CONTINUOUS
 62
     7
 10
-1169.261815806939
 20
-823.5049211212859
 30
0.0
 40
0.6763683861879238
 50
184.875388648116
 51
295.1246113299825
  0
ARC
  5
13A
  8
DATA
  6
CONTINUOUS
 62
     7
 10
-1168.877307356618
 20
-824.2796443164852
 30
0.0
 40
0.1892886329076439
 50
299.056679072041
 51
120.9433211183696
  0
ARC
  5
13B
  8
DATA
  6
CONTINUOUS
 62
     7
 10
-1168.398631613871
 20
-825.00000000003
 30
0.0
 40
0.6763683861879456
 50
124.8753886481085
 51
235.124611329963
  0
ARC
  5
13C
  8
DATA
  6
CONTINUOUS
 62
     7
 10
-1169.261815806939
 20
-826.4950788787141
 30
0.0
 40
0.6763683861878003
 50
64.8753886700175
 51
175.124611351884
  0
ARC
  5
13D
  8
DATA
  6
CONTINUOUS
 62
     7
 10
-1168.877307356618
 20
-825.7203556835148
 30
0.0
 40
0.1892886329075641
 50
239.0566788816305
 51
60.94332092795898
  0
CIRCLE
  5
13E
  8
DATA
  6
CONTINUOUS
 62
     7
 10
-1170.125
 20
-825.0
 30
0.0
 40
3.25
  0
ARC
  5
13F
  8
DATA
  6
CONTINUOUS
 62
     7
 10
-894.875000000023
 20
-823.5592886329077
 30
0.0
 40
0.1892886329077032
 50
359.0566788815885
 51
180.9433209280187
  0
ARC
  5
140
  8
DATA
  6
CONTINUOUS
 62
     7
 10
-895.7381841931068
 20
-823.5049211212859
 30
0.0
 40
0.676368386187752
 50
244.8753886700262
 51
355.1246113518832
  0
ARC
  5
141
  8
DATA
  6
CONTINUOUS
 62
     7
 10
-896.1226926434277
 20
-824.2796443164852
 30
0.0
 40
0.1892886329076225
 50
59.05667888160091
 51
240.943320927989
  0
ARC
  5
142
  8
DATA
  6
CONTINUOUS
 62
     7
 10
-896.601368386175
 20
-825.00000000003
 30
0.0
 40
0.6763683861879403
 50
304.875388670037
 51
55.1246113518757
  0
ARC
  5
143
  8
DATA
  6
CONTINUOUS
 62
     7
 10
-894.875000000023
 20
-826.4407113670923
 30
0.0
 40
0.1892886329078069
 50
179.0566790719813
 51
0.9433211184115464
  0
ARC
  5
144
  8
DATA
  6
CONTINUOUS
 62
     7
 10
-895.7381841931068
 20
-826.4950788787141
 30
0.0
 40
0.6763683861878106
 50
4.875388648116833
 51
115.1246113299738
  0
ARC
  5
145
  8
DATA
  6
CONTINUOUS
 62
     7
 10
-896.1226926434277
 20
-825.7203556835148
 30
0.0
 40
0.1892886329075887
 50
119.056679072011
 51
300.9433211183991
  0
ARC
  5
146
  8
DATA
  6
CONTINUOUS
 62
     7
 10
-894.0118158069392
 20
-823.5049211212859
 30
0.0
 40
0.6763683861879238
 50
184.875388648116
 51
295.1246113299738
  0
ARC
  5
147
  8
DATA
  6
CONTINUOUS
 62
     7
 10
-893.6273073566183
 20
-824.2796443164852
 30
0.0
 40
0.1892886329075887
 50
299.056679072011
 51
120.9433211183991
  0
ARC
  5
148
  8
DATA
  6
CONTINUOUS
 62
     7
 10
-893.1486316138712
 20
-825.00000000003
 30
0.0
 40
0.6763683861880107
 50
124.8753886481164
 51
235.124611329971
  0
ARC
  5
149
  8
DATA
  6
CONTINUOUS
 62
     7
 10
-894.0118158069392
 20
-826.4950788787141
 30
0.0
 40
0.676368386187752
 50
64.87538867002621
 51
175.124611351884
  0
ARC
  5
14A
  8
DATA
  6
CONTINUOUS
 62
     7
 10
-893.6273073566183
 20
-825.7203556835148
 30
0.0
 40
0.1892886329076225
 50
239.0566788816009
 51
60.94332092798902
  0
CIRCLE
  5
14B
  8
DATA
  6
CONTINUOUS
 62
     7
 10
-894.875
 20
-825.0
 30
0.0
 40
3.25
  0
ARC
  5
14C
  8
DATA
  6
CONTINUOUS
 62
     7
 10
-1304.875000000023
 20
-823.5592886329077
 30
0.0
 40
0.1892886329077032
 50
359.0566788815885
 51
180.9433209280187
  0
ARC
  5
14D
  8
DATA
  6
CONTINUOUS
 62
     7
 10
-1305.738184193107
 20
-823.5049211212859
 30
0.0
 40
0.6763683861877037
 50
244.8753886700349
 51
355.124611351884
  0
ARC
  5
14E
  8
DATA
  6
CONTINUOUS
 62
     7
 10
-1306.122692643428
 20
-824.2796443164852
 30
0.0
 40
0.189288632907681
 50
59.05667888157139
 51
240.9433209280191
  0
ARC
  5
14F
  8
DATA
  6
CONTINUOUS
 62
     7
 10
-1306.601368386175
 20
-825.00000000003
 30
0.0
 40
0.6763683861879403
 50
304.875388670037
 51
55.1246113518757
  0
ARC
  5
150
  8
DATA
  6
CONTINUOUS
 62
     7
 10
-1304.875000000023
 20
-826.4407113670923
 30
0.0
 40
0.1892886329078069
 50
179.0566790719813
 51
0.9433211184115464
  0
ARC
  5
151
  8
DATA
  6
CONTINUOUS
 62
     7
 10
-1305.738184193107
 20
-826.4950788787141
 30
0.0
 40
0.6763683861879238
 50
4.875388648116016
 51
115.1246113299651
  0
ARC
  5
152
  8
DATA
  6
CONTINUOUS
 62
     7
 10
-1306.122692643428
 20
-825.7203556835148
 30
0.0
 40
0.1892886329075335
 50
119.0566790719809
 51
300.9433211184286
  0
ARC
  5
153
  8
DATA
  6
CONTINUOUS
 62
     7
 10
-1304.011815806939
 20
-823.5049211212859
 30
0.0
 40
0.6763683861879238
 50
184.875388648116
 51
295.1246113299825
  0
ARC
  5
154
  8
DATA
  6
CONTINUOUS
 62
     7
 10
-1303.627307356618
 20
-824.2796443164852
 30
0.0
 40
0.1892886329076439
 50
299.056679072041
 51
120.9433211183696
  0
ARC
  5
155
  8
DATA
  6
CONTINUOUS
 62
     7
 10
-1303.148631613871
 20
-825.00000000003
 30
0.0
 40
0.6763683861879456
 50
124.8753886481085
 51
235.124611329963
  0
ARC
  5
156
  8
DATA
  6
CONTINUOUS
 62
     7
 10
-1304.011815806939
 20
-826.4950788787141
 30
0.0
 40
0.6763683861878003
 50
64.8753886700175
 51
175.124611351884
  0
ARC
  5
157
  8
DATA
  6
CONTINUOUS
 62
     7
 10
-1303.627307356618
 20
-825.7203556835148
 30
0.0
 40
0.1892886329075641
 50
239.0566788816305
 51
60.94332092795898
  0
CIRCLE
  5
158
  8
DATA
  6
CONTINUOUS
 62
     7
 10
-1304.875
 20
-825.0
 30
0.0
 40
3.25
  0
ARC
  5
159
  8
DATA
  6
CONTINUOUS
 62
     7
 10
-1304.875000000023
 20
-983.5592886329077
 30
0.0
 40
0.1892886329077032
 50
359.0566788815885
 51
180.9433209280187
  0
ARC
  5
15A
  8
DATA
  6
CONTINUOUS
 62
     7
 10
-1305.738184193107
 20
-983.5049211212859
 30
0.0
 40
0.6763683861877037
 50
244.8753886700349
 51
355.124611351884
  0
ARC
  5
15B
  8
DATA
  6
CONTINUOUS
 62
     7
 10
-1306.122692643428
 20
-984.2796443164852
 30
0.0
 40
0.189288632907681
 50
59.05667888157139
 51
240.9433209280191
  0
ARC
  5
15C
  8
DATA
  6
CONTINUOUS
 62
     7
 10
-1306.601368386175
 20
-985.00000000003
 30
0.0
 40
0.6763683861879403
 50
304.875388670037
 51
55.1246113518757
  0
ARC
  5
15D
  8
DATA
  6
CONTINUOUS
 62
     7
 10
-1304.875000000023
 20
-986.4407113670923
 30
0.0
 40
0.1892886329078069
 50
179.0566790719813
 51
0.9433211184115464
  0
ARC
  5
15E
  8
DATA
  6
CONTINUOUS
 62
     7
 10
-1305.738184193107
 20
-986.4950788787141
 30
0.0
 40
0.6763683861879238
 50
4.875388648116016
 51
115.1246113299651
  0
ARC
  5
15F
  8
DATA
  6
CONTINUOUS
 62
     7
 10
-1306.122692643428
 20
-985.7203556835148
 30
0.0
 40
0.1892886329075335
 50
119.0566790719809
 51
300.9433211184286
  0
ARC
  5
160
  8
DATA
  6
CONTINUOUS
 62
     7
 10
-1304.011815806939
 20
-983.5049211212859
 30
0.0
 40
0.6763683861879238
 50
184.875388648116
 51
295.1246113299825
  0
ARC
  5
161
  8
DATA
  6
CONTINUOUS
 62
     7
 10
-1303.627307356618
 20
-984.2796443164852
 30
0.0
 40
0.1892886329076439
 50
299.056679072041
 51
120.9433211183696
  0
ARC
  5
162
  8
DATA
  6
CONTINUOUS
 62
     7
 10
-1303.148631613871
 20
-985.00000000003
 30
0.0
 40
0.6763683861879456
 50
124.8753886481085
 51
235.124611329963
  0
ARC
  5
163
  8
DATA
  6
CONTINUOUS
 62
     7
 10
-1304.011815806939
 20
-986.4950788787141
 30
0.0
 40
0.6763683861878003
 50
64.8753886700175
 51
175.124611351884
  0
ARC
  5
164
  8
DATA
  6
CONTINUOUS
 62
     7
 10
-1303.627307356618
 20
-985.7203556835148
 30
0.0
 40
0.1892886329075641
 50
239.0566788816305
 51
60.94332092795898
  0
CIRCLE
  5
165
  8
DATA
  6
CONTINUOUS
 62
     7
 10
-1304.875
 20
-985.0
 30
0.0
 40
3.25
  0
ARC
  5
166
  8
DATA
  6
CONTINUOUS
 62
     7
 10
-894.875000000023
 20
-983.5592886329077
 30
0.0
 40
0.1892886329077032
 50
359.0566788815885
 51
180.9433209280187
  0
ARC
  5
167
  8
DATA
  6
CONTINUOUS
 62
     7
 10
-895.7381841931068
 20
-983.5049211212859
 30
0.0
 40
0.676368386187752
 50
244.8753886700262
 51
355.1246113518832
  0
ARC
  5
168
  8
DATA
  6
CONTINUOUS
 62
     7
 10
-896.1226926434277
 20
-984.2796443164852
 30
0.0
 40
0.1892886329076225
 50
59.05667888160091
 51
240.943320927989
  0
ARC
  5
169
  8
DATA
  6
CONTINUOUS
 62
     7
 10
-896.601368386175
 20
-985.00000000003
 30
0.0
 40
0.6763683861879403
 50
304.875388670037
 51
55.1246113518757
  0
ARC
  5
16A
  8
DATA
  6
CONTINUOUS
 62
     7
 10
-894.875000000023
 20
-986.4407113670923
 30
0.0
 40
0.1892886329078069
 50
179.0566790719813
 51
0.9433211184115464
  0
ARC
  5
16B
  8
DATA
  6
CONTINUOUS
 62
     7
 10
-895.7381841931068
 20
-986.4950788787141
 30
0.0
 40
0.6763683861878106
 50
4.875388648116833
 51
115.1246113299738
  0
ARC
  5
16C
  8
DATA
  6
CONTINUOUS
 62
     7
 10
-896.1226926434277
 20
-985.7203556835148
 30
0.0
 40
0.1892886329075887
 50
119.056679072011
 51
300.9433211183991
  0
ARC
  5
16D
  8
DATA
  6
CONTINUOUS
 62
     7
 10
-894.0118158069392
 20
-983.5049211212859
 30
0.0
 40
0.6763683861879238
 50
184.875388648116
 51
295.1246113299738
  0
ARC
  5
16E
  8
DATA
  6
CONTINUOUS
 62
     7
 10
-893.6273073566183
 20
-984.2796443164852
 30
0.0
 40
0.1892886329075887
 50
299.056679072011
 51
120.9433211183991
  0
ARC
  5
16F
  8
DATA
  6
CONTINUOUS
 62
     7
 10
-893.1486316138712
 20
-985.00000000003
 30
0.0
 40
0.6763683861880107
 50
124.8753886481164
 51
235.124611329971
  0
ARC
  5
170
  8
DATA
  6
CONTINUOUS
 62
     7
 10
-894.0118158069392
 20
-986.4950788787141
 30
0.0
 40
0.676368386187752
 50
64.87538867002621
 51
175.124611351884
  0
ARC
  5
171
  8
DATA
  6
CONTINUOUS
 62
     7
 10
-893.6273073566183
 20
-985.7203556835148
 30
0.0
 40
0.1892886329076225
 50
239.0566788816009
 51
60.94332092798902
  0
CIRCLE
  5
172
  8
DATA
  6
CONTINUOUS
 62
     7
 10
-894.875
 20
-985.0
 30
0.0
 40
3.25
  0
ARC
  5
173
  8
DATA
  6
CONTINUOUS
 62
     7
 10
-1304.875000000023
 20
-1213.559288632908
 30
0.0
 40
0.1892886329077032
 50
359.0566788815885
 51
180.9433209280187
  0
ARC
  5
174
  8
DATA
  6
CONTINUOUS
 62
     7
 10
-1305.738184193107
 20
-1213.504921121286
 30
0.0
 40
0.6763683861877037
 50
244.8753886700349
 51
355.124611351884
  0
ARC
  5
175
  8
DATA
  6
CONTINUOUS
 62
     7
 10
-1306.122692643428
 20
-1214.279644316485
 30
0.0
 40
0.189288632907681
 50
59.05667888157139
 51
240.9433209280191
  0
ARC
  5
176
  8
DATA
  6
CONTINUOUS
 62
     7
 10
-1306.601368386175
 20
-1215.00000000003
 30
0.0
 40
0.6763683861879403
 50
304.875388670037
 51
55.1246113518757
  0
ARC
  5
177
  8
DATA
  6
CONTINUOUS
 62
     7
 10
-1304.875000000023
 20
-1216.440711367092
 30
0.0
 40
0.1892886329078069
 50
179.0566790719813
 51
0.9433211184115464
  0
ARC
  5
178
  8
DATA
  6
CONTINUOUS
 62
     7
 10
-1305.738184193107
 20
-1216.495078878714
 30
0.0
 40
0.6763683861879238
 50
4.875388648116016
 51
115.1246113299651
  0
ARC
  5
179
  8
DATA
  6
CONTINUOUS
 62
     7
 10
-1306.122692643428
 20
-1215.720355683515
 30
0.0
 40
0.1892886329075335
 50
119.0566790719809
 51
300.9433211184286
  0
ARC
  5
17A
  8
DATA
  6
CONTINUOUS
 62
     7
 10
-1304.011815806939
 20
-1213.504921121286
 30
0.0
 40
0.6763683861879238
 50
184.875388648116
 51
295.1246113299825
  0
ARC
  5
17B
  8
DATA
  6
CONTINUOUS
 62
     7
 10
-1303.627307356618
 20
-1214.279644316485
 30
0.0
 40
0.1892886329076439
 50
299.056679072041
 51
120.9433211183696
  0
ARC
  5
17C
  8
DATA
  6
CONTINUOUS
 62
     7
 10
-1303.148631613871
 20
-1215.00000000003
 30
0.0
 40
0.6763683861879456
 50
124.8753886481085
 51
235.124611329963
  0
ARC
  5
17D
  8
DATA
  6
CONTINUOUS
 62
     7
 10
-1304.011815806939
 20
-1216.495078878714
 30
0.0
 40
0.6763683861878003
 50
64.8753886700175
 51
175.124611351884
  0
ARC
  5
17E
  8
DATA
  6
CONTINUOUS
 62
     7
 10
-1303.627307356618
 20
-1215.720355683515
 30
0.0
 40
0.1892886329075641
 50
239.0566788816305
 51
60.94332092795898
  0
CIRCLE
  5
17F
  8
DATA
  6
CONTINUOUS
 62
     7
 10
-1304.875
 20
-1215.0
 30
0.0
 40
3.25
  0
ARC
  5
180
  8
DATA
  6
CONTINUOUS
 62
     7
 10
-894.875000000023
 20
-1213.559288632908
 30
0.0
 40
0.1892886329077032
 50
359.0566788815885
 51
180.9433209280187
  0
ARC
  5
181
  8
DATA
  6
CONTINUOUS
 62
     7
 10
-895.7381841931068
 20
-1213.504921121286
 30
0.0
 40
0.676368386187752
 50
244.8753886700262
 51
355.1246113518832
  0
ARC
  5
182
  8
DATA
  6
CONTINUOUS
 62
     7
 10
-896.1226926434277
 20
-1214.279644316485
 30
0.0
 40
0.1892886329076225
 50
59.05667888160091
 51
240.943320927989
  0
ARC
  5
183
  8
DATA
  6
CONTINUOUS
 62
     7
 10
-896.601368386175
 20
-1215.00000000003
 30
0.0
 40
0.6763683861879403
 50
304.875388670037
 51
55.1246113518757
  0
ARC
  5
184
  8
DATA
  6
CONTINUOUS
 62
     7
 10
-894.875000000023
 20
-1216.440711367092
 30
0.0
 40
0.1892886329078069
 50
179.0566790719813
 51
0.9433211184115464
  0
ARC
  5
185
  8
DATA
  6
CONTINUOUS
 62
     7
 10
-895.7381841931068
 20
-1216.495078878714
 30
0.0
 40
0.6763683861878106
 50
4.875388648116833
 51
115.1246113299738
  0
ARC
  5
186
  8
DATA
  6
CONTINUOUS
 62
     7
 10
-896.1226926434277
 20
-1215.720355683515
 30
0.0
 40
0.1892886329075887
 50
119.056679072011
 51
300.9433211183991
  0
ARC
  5
187
  8
DATA
  6
CONTINUOUS
 62
     7
 10
-894.0118158069392
 20
-1213.504921121286
 30
0.0
 40
0.6763683861879238
 50
184.875388648116
 51
295.1246113299738
  0
ARC
  5
188
  8
DATA
  6
CONTINUOUS
 62
     7
 10
-893.6273073566183
 20
-1214.279644316485
 30
0.0
 40
0.1892886329075887
 50
299.056679072011
 51
120.9433211183991
  0
ARC
  5
189
  8
DATA
  6
CONTINUOUS
 62
     7
 10
-893.1486316138712
 20
-1215.00000000003
 30
0.0
 40
0.6763683861880107
 50
124.8753886481164
 51
235.124611329971
  0
ARC
  5
18A
  8
DATA
  6
CONTINUOUS
 62
     7
 10
-894.0118158069392
 20
-1216.495078878714
 30
0.0
 40
0.676368386187752
 50
64.87538867002621
 51
175.124611351884
  0
ARC
  5
18B
  8
DATA
  6
CONTINUOUS
 62
     7
 10
-893.6273073566183
 20
-1215.720355683515
 30
0.0
 40
0.1892886329076225
 50
239.0566788816009
 51
60.94332092798902
  0
CIRCLE
  5
18C
  8
DATA
  6
CONTINUOUS
 62
     7
 10
-894.875
 20
-1215.0
 30
0.0
 40
3.25
  0
ARC
  5
18D
  8
DATA
  6
CONTINUOUS
 62
     7
 10
-579.2500000000005
 20
-1030.28
 30
0.0
 40
49.99999999999966
 50
89.99999999999947
 51
180.0000000000002
  0
LINE
  5
18E
  8
DATA
  6
CONTINUOUS
 62
     7
 10
-629.25
 20
-1148.28
 30
0.0
 11
-629.25
 21
-1030.28
 31
0.0
  0
ARC
  5
18F
  8
DATA
  6
CONTINUOUS
 62
     7
 10
-579.2500000000003
 20
-1148.28
 30
0.0
 40
49.99999999999966
 50
179.9999999999997
 51
270.0000000000004
  0
LINE
  5
190
  8
DATA
  6
CONTINUOUS
 62
     7
 10
-505.25
 20
-1198.28
 30
0.0
 11
-579.25
 21
-1198.28
 31
0.0
  0
ARC
  5
191
  8
DATA
  6
CONTINUOUS
 62
     7
 10
-505.2499999999998
 20
-1148.28
 30
0.0
 40
50.0
 50
269.9999999999998
 51
0.0
  0
LINE
  5
192
  8
DATA
  6
CONTINUOUS
 62
     7
 10
-455.25
 20
-1030.28
 30
0.0
 11
-455.25
 21
-1148.28
 31
0.0
  0
ARC
  5
193
  8
DATA
  6
CONTINUOUS
 62
     7
 10
-505.25
 20
-1030.28
 30
0.0
 40
50.0
 50
0.0
 51
90.00000000000006
  0
LINE
  5
194
  8
DATA
  6
CONTINUOUS
 62
     7
 10
-579.25
 20
-980.2799999999999
 30
0.0
 11
-505.2500000000001
 21
-980.2799999999999
 31
0.0
  0
CIRCLE
  5
195
  8
DATA
  6
CONTINUOUS
 62
     7
 10
-900.0
 20
-1614.25
 30
0.0
 40
20.0
  0
CIRCLE
  5
196
  8
DATA
  6
CONTINUOUS
 62
     7
 10
-900.0
 20
-1614.25
 30
0.0
 40
6.0
  0
CIRCLE
  5
197
  8
DATA
  6
CONTINUOUS
 62
     7
 10
-900.0
 20
-1614.25
 30
0.0
 40
4.0
  0
LINE
  5
198
  8
DATA
  6
CONTINUOUS
 62
     7
 10
-902.5
 20
-1614.25
 30
0.0
 11
-897.5
 21
-1614.25
 31
0.0
  0
LINE
  5
199
  8
DATA
  6
CONTINUOUS
 62
     7
 10
-900.0
 20
-1616.75
 30
0.0
 11
-900.0
 21
-1611.75
 31
0.0
  0
CIRCLE
  5
19A
  8
DATA
  6
CONTINUOUS
 62
     7
 10
-900.0
 20
-2000.25
 30
0.0
 40
20.0
  0
CIRCLE
  5
19B
  8
DATA
  6
CONTINUOUS
 62
     7
 10
-900.0
 20
-2000.25
 30
0.0
 40
6.0
  0
CIRCLE
  5
19C
  8
DATA
  6
CONTINUOUS
 62
     7
 10
-900.0
 20
-2000.25
 30
0.0
 40
4.0
  0
LINE
  5
19D
  8
DATA
  6
CONTINUOUS
 62
     7
 10
-902.5
 20
-2000.25
 30
0.0
 11
-897.5
 21
-2000.25
 31
0.0
  0
LINE
  5
19E
  8
DATA
  6
CONTINUOUS
 62
     7
 10
-900.0
 20
-2002.75
 30
0.0
 11
-900.0
 21
-1997.75
 31
0.0
  0
CIRCLE
  5
19F
  8
DATA
  6
CONTINUOUS
 62
     7
 10
-1300.0
 20
-2000.25
 30
0.0
 40
20.0
  0
CIRCLE
  5
1A0
  8
DATA
  6
CONTINUOUS
 62
     7
 10
-1300.0
 20
-2000.25
 30
0.0
 40
6.0
  0
CIRCLE
  5
1A1
  8
DATA
  6
CONTINUOUS
 62
     7
 10
-1300.0
 20
-2000.25
 30
0.0
 40
4.0
  0
LINE
  5
1A2
  8
DATA
  6
CONTINUOUS
 62
     7
 10
-1302.5
 20
-2000.25
 30
0.0
 11
-1297.5
 21
-2000.25
 31
0.0
  0
LINE
  5
1A3
  8
DATA
  6
CONTINUOUS
 62
     7
 10
-1300.0
 20
-2002.75
 30
0.0
 11
-1300.0
 21
-1997.75
 31
0.0
  0
CIRCLE
  5
1A4
  8
DATA
  6
CONTINUOUS
 62
     7
 10
-1300.0
 20
-1614.25
 30
0.0
 40
20.0
  0
CIRCLE
  5
1A5
  8
DATA
  6
CONTINUOUS
 62
     7
 10
-1300.0
 20
-1614.25
 30
0.0
 40
6.0
  0
CIRCLE
  5
1A6
  8
DATA
  6
CONTINUOUS
 62
     7
 10
-1300.0
 20
-1614.25
 30
0.0
 40
4.0
  0
LINE
  5
1A7
  8
DATA
  6
CONTINUOUS
 62
     7
 10
-1302.5
 20
-1614.25
 30
0.0
 11
-1297.5
 21
-1614.25
 31
0.0
  0
LINE
  5
1A8
  8
DATA
  6
CONTINUOUS
 62
     7
 10
-1300.0
 20
-1616.75
 30
0.0
 11
-1300.0
 21
-1611.75
 31
0.0
  0
LINE
  5
1A9
  8
DATA
  6
CONTINUOUS
 62
     7
 10
-189.0
 20
-1385.0
 30
0.0
 11
-189.0
 21
-815.0
 31
0.0
  0
LINE
  5
1AA
  8
DATA
  6
CONTINUOUS
 62
     7
 10
289.0
 20
-815.0
 30
0.0
 11
289.0
 21
-1385.0
 31
0.0
  0
LINE
  5
1AB
  8
DATA
  6
CONTINUOUS
 62
     7
 10
-455.25
 20
-1140.28
 30
0.0
 11
-472.25
 21
-1140.28
 31
0.0
  0
LINE
  5
1AC
  8
DATA
  6
CONTINUOUS
 62
     7
 10
-612.25
 20
-1140.28
 30
0.0
 11
-629.25
 21
-1140.28
 31
0.0
  0
LINE
  5
1AD
  8
DATA
  6
CONTINUOUS
 62
     7
 10
-455.25
 20
-1056.78
 30
0.0
 11
-472.25
 21
-1056.78
 31
0.0
  0
LINE
  5
1AE
  8
DATA
  6
CONTINUOUS
 62
     7
 10
-612.25
 20
-1056.78
 30
0.0
 11
-629.25
 21
-1056.78
 31
0.0
  0
ARC
  5
1AF
  8
DATA
  6
CONTINUOUS
 62
     7
 10
-542.250000000023
 20
-987.5892886329075
 30
0.0
 40
0.1892886329077032
 50
359.0566788815885
 51
180.9433209280187
  0
ARC
  5
1B0
  8
DATA
  6
CONTINUOUS
 62
     7
 10
-543.1131841931068
 20
-987.5349211212856
 30
0.0
 40
0.676368386187752
 50
244.8753886700262
 51
355.1246113518832
  0
ARC
  5
1B1
  8
DATA
  6
CONTINUOUS
 62
     7
 10
-543.4976926434277
 20
-988.309644316485
 30
0.0
 40
0.1892886329076225
 50
59.05667888160091
 51
240.943320927989
  0
ARC
  5
1B2
  8
DATA
  6
CONTINUOUS
 62
     7
 10
-543.976368386175
 20
-989.0300000000298
 30
0.0
 40
0.6763683861879403
 50
304.875388670037
 51
55.1246113518757
  0
ARC
  5
1B3
  8
DATA
  6
CONTINUOUS
 62
     7
 10
-542.250000000023
 20
-990.470711367092
 30
0.0
 40
0.1892886329078069
 50
179.0566790719813
 51
0.9433211184115464
  0
ARC
  5
1B4
  8
DATA
  6
CONTINUOUS
 62
     7
 10
-543.1131841931068
 20
-990.5250788787139
 30
0.0
 40
0.6763683861878106
 50
4.875388648116833
 51
115.1246113299738
  0
ARC
  5
1B5
  8
DATA
  6
CONTINUOUS
 62
     7
 10
-543.4976926434277
 20
-989.7503556835145
 30
0.0
 40
0.1892886329075887
 50
119.056679072011
 51
300.9433211183991
  0
ARC
  5
1B6
  8
DATA
  6
CONTINUOUS
 62
     7
 10
-541.3868158069392
 20
-987.5349211212856
 30
0.0
 40
0.6763683861879238
 50
184.875388648116
 51
295.1246113299738
  0
ARC
  5
1B7
  8
DATA
  6
CONTINUOUS
 62
     7
 10
-541.0023073566183
 20
-988.309644316485
 30
0.0
 40
0.1892886329075887
 50
299.056679072011
 51
120.9433211183991
  0
ARC
  5
1B8
  8
DATA
  6
CONTINUOUS
 62
     7
 10
-540.5236316138712
 20
-989.0300000000298
 30
0.0
 40
0.6763683861880107
 50
124.8753886481164
 51
235.124611329971
  0
ARC
  5
1B9
  8
DATA
  6
CONTINUOUS
 62
     7
 10
-541.3868158069392
 20
-990.5250788787139
 30
0.0
 40
0.676368386187752
 50
64.87538867002621
 51
175.124611351884
  0
ARC
  5
1BA
  8
DATA
  6
CONTINUOUS
 62
     7
 10
-541.0023073566183
 20
-989.7503556835145
 30
0.0
 40
0.1892886329076225
 50
239.0566788816009
 51
60.94332092798902
  0
CIRCLE
  5
1BB
  8
DATA
  6
CONTINUOUS
 62
     7
 10
-542.25
 20
-989.0299999999997
 30
0.0
 40
4.0
  0
ARC
  5
1BC
  8
DATA
  6
CONTINUOUS
 62
     7
 10
-542.250000000023
 20
-1188.089288632907
 30
0.0
 40
0.1892886329077032
 50
359.0566788815885
 51
180.9433209280187
  0
ARC
  5
1BD
  8
DATA
  6
CONTINUOUS
 62
     7
 10
-543.1131841931068
 20
-1188.034921121286
 30
0.0
 40
0.676368386187752
 50
244.8753886700262
 51
355.1246113518832
  0
ARC
  5
1BE
  8
DATA
  6
CONTINUOUS
 62
     7
 10
-543.4976926434277
 20
-1188.809644316485
 30
0.0
 40
0.1892886329076225
 50
59.05667888160091
 51
240.943320927989
  0
ARC
  5
1BF
  8
DATA
  6
CONTINUOUS
 62
     7
 10
-543.976368386175
 20
-1189.53000000003
 30
0.0
 40
0.6763683861877537
 50
304.875388670048
 51
55.12461135187576
  0
ARC
  5
1C0
  8
DATA
  6
CONTINUOUS
 62
     7
 10
-542.250000000023
 20
-1190.970711367092
 30
0.0
 40
0.1892886329078069
 50
179.0566790719813
 51
0.9433211184115464
  0
ARC
  5
1C1
  8
DATA
  6
CONTINUOUS
 62
     7
 10
-543.1131841931068
 20
-1191.025078878714
 30
0.0
 40
0.6763683861878106
 50
4.875388648116833
 51
115.1246113299738
  0
ARC
  5
1C2
  8
DATA
  6
CONTINUOUS
 62
     7
 10
-543.4976926434277
 20
-1190.250355683514
 30
0.0
 40
0.1892886329075887
 50
119.056679072011
 51
300.9433211183991
  0
ARC
  5
1C3
  8
DATA
  6
CONTINUOUS
 62
     7
 10
-541.3868158069392
 20
-1188.034921121286
 30
0.0
 40
0.6763683861879238
 50
184.875388648116
 51
295.1246113299738
  0
ARC
  5
1C4
  8
DATA
  6
CONTINUOUS
 62
     7
 10
-541.0023073566183
 20
-1188.809644316485
 30
0.0
 40
0.1892886329075887
 50
299.056679072011
 51
120.9433211183991
  0
ARC
  5
1C5
  8
DATA
  6
CONTINUOUS
 62
     7
 10
-540.5236316138712
 20
-1189.53000000003
 30
0.0
 40
0.6763683861880107
 50
124.8753886481164
 51
235.1246113299599
  0
ARC
  5
1C6
  8
DATA
  6
CONTINUOUS
 62
     7
 10
-541.3868158069392
 20
-1191.025078878714
 30
0.0
 40
0.676368386187752
 50
64.87538867002621
 51
175.124611351884
  0
ARC
  5
1C7
  8
DATA
  6
CONTINUOUS
 62
     7
 10
-541.0023073566183
 20
-1190.250355683514
 30
0.0
 40
0.1892886329076225
 50
239.0566788816009
 51
60.94332092798902
  0
CIRCLE
  5
1C8
  8
DATA
  6
CONTINUOUS
 62
     7
 10
-542.25
 20
-1189.53
 30
0.0
 40
4.0
  0
ARC
  5
1C9
  8
DATA
  6
CONTINUOUS
 62
     7
 10
-608.250000000023
 20
-1175.089288632907
 30
0.0
 40
0.1892886329077032
 50
359.0566788815885
 51
180.9433209280187
  0
ARC
  5
1CA
  8
DATA
  6
CONTINUOUS
 62
     7
 10
-609.1131841931068
 20
-1175.034921121286
 30
0.0
 40
0.676368386187752
 50
244.8753886700262
 51
355.1246113518832
  0
ARC
  5
1CB
  8
DATA
  6
CONTINUOUS
 62
     7
 10
-609.4976926434277
 20
-1175.809644316485
 30
0.0
 40
0.1892886329076225
 50
59.05667888160091
 51
240.943320927989
  0
ARC
  5
1CC
  8
DATA
  6
CONTINUOUS
 62
     7
 10
-609.976368386175
 20
-1176.53000000003
 30
0.0
 40
0.6763683861879403
 50
304.875388670037
 51
55.1246113518757
  0
ARC
  5
1CD
  8
DATA
  6
CONTINUOUS
 62
     7
 10
-608.250000000023
 20
-1177.970711367092
 30
0.0
 40
0.1892886329078069
 50
179.0566790719813
 51
0.9433211184115464
  0
ARC
  5
1CE
  8
DATA
  6
CONTINUOUS
 62
     7
 10
-609.1131841931068
 20
-1178.025078878714
 30
0.0
 40
0.6763683861878106
 50
4.875388648116833
 51
115.1246113299738
  0
ARC
  5
1CF
  8
DATA
  6
CONTINUOUS
 62
     7
 10
-609.4976926434277
 20
-1177.250355683514
 30
0.0
 40
0.1892886329075887
 50
119.056679072011
 51
300.9433211183991
  0
ARC
  5
1D0
  8
DATA
  6
CONTINUOUS
 62
     7
 10
-607.3868158069392
 20
-1175.034921121286
 30
0.0
 40
0.6763683861879238
 50
184.875388648116
 51
295.1246113299738
  0
ARC
  5
1D1
  8
DATA
  6
CONTINUOUS
 62
     7
 10
-607.0023073566183
 20
-1175.809644316485
 30
0.0
 40
0.1892886329075887
 50
299.056679072011
 51
120.9433211183991
  0
ARC
  5
1D2
  8
DATA
  6
CONTINUOUS
 62
     7
 10
-606.5236316138712
 20
-1176.53000000003
 30
0.0
 40
0.6763683861880107
 50
124.8753886481164
 51
235.124611329971
  0
ARC
  5
1D3
  8
DATA
  6
CONTINUOUS
 62
     7
 10
-607.3868158069392
 20
-1178.025078878714
 30
0.0
 40
0.676368386187752
 50
64.87538867002621
 51
175.124611351884
  0
ARC
  5
1D4
  8
DATA
  6
CONTINUOUS
 62
     7
 10
-607.0023073566183
 20
-1177.250355683514
 30
0.0
 40
0.1892886329076225
 50
239.0566788816009
 51
60.94332092798902
  0
CIRCLE
  5
1D5
  8
DATA
  6
CONTINUOUS
 62
     7
 10
-608.25
 20
-1176.53
 30
0.0
 40
4.0
  0
ARC
  5
1D6
  8
DATA
  6
CONTINUOUS
 62
     7
 10
-476.250000000023
 20
-1175.089288632907
 30
0.0
 40
0.1892886329077032
 50
359.0566788815885
 51
180.9433209280187
  0
ARC
  5
1D7
  8
DATA
  6
CONTINUOUS
 62
     7
 10
-477.1131841931068
 20
-1175.034921121286
 30
0.0
 40
0.676368386187752
 50
244.8753886700262
 51
355.1246113518832
  0
ARC
  5
1D8
  8
DATA
  6
CONTINUOUS
 62
     7
 10
-477.4976926434277
 20
-1175.809644316485
 30
0.0
 40
0.1892886329076225
 50
59.05667888160091
 51
240.943320927989
  0
ARC
  5
1D9
  8
DATA
  6
CONTINUOUS
 62
     7
 10
-477.976368386175
 20
-1176.53000000003
 30
0.0
 40
0.6763683861879403
 50
304.875388670037
 51
55.1246113518757
  0
ARC
  5
1DA
  8
DATA
  6
CONTINUOUS
 62
     7
 10
-476.250000000023
 20
-1177.970711367092
 30
0.0
 40
0.1892886329078069
 50
179.0566790719813
 51
0.9433211184115464
  0
ARC
  5
1DB
  8
DATA
  6
CONTINUOUS
 62
     7
 10
-477.1131841931068
 20
-1178.025078878714
 30
0.0
 40
0.6763683861878106
 50
4.875388648116833
 51
115.1246113299738
  0
ARC
  5
1DC
  8
DATA
  6
CONTINUOUS
 62
     7
 10
-477.4976926434277
 20
-1177.250355683514
 30
0.0
 40
0.1892886329075887
 50
119.056679072011
 51
300.9433211183991
  0
ARC
  5
1DD
  8
DATA
  6
CONTINUOUS
 62
     7
 10
-475.3868158069392
 20
-1175.034921121286
 30
0.0
 40
0.6763683861879238
 50
184.875388648116
 51
295.1246113299738
  0
ARC
  5
1DE
  8
DATA
  6
CONTINUOUS
 62
     7
 10
-475.0023073566183
 20
-1175.809644316485
 30
0.0
 40
0.1892886329075887
 50
299.056679072011
 51
120.9433211183991
  0
ARC
  5
1DF
  8
DATA
  6
CONTINUOUS
 62
     7
 10
-474.5236316138712
 20
-1176.53000000003
 30
0.0
 40
0.6763683861880107
 50
124.8753886481164
 51
235.124611329971
  0
ARC
  5
1E0
  8
DATA
  6
CONTINUOUS
 62
     7
 10
-475.3868158069392
 20
-1178.025078878714
 30
0.0
 40
0.676368386187752
 50
64.87538867002621
 51
175.124611351884
  0
ARC
  5
1E1
  8
DATA
  6
CONTINUOUS
 62
     7
 10
-475.0023073566183
 20
-1177.250355683514
 30
0.0
 40
0.1892886329076225
 50
239.0566788816009
 51
60.94332092798902
  0
CIRCLE
  5
1E2
  8
DATA
  6
CONTINUOUS
 62
     7
 10
-476.25
 20
-1176.53
 30
0.0
 40
4.0
  0
ARC
  5
1E3
  8
DATA
  6
CONTINUOUS
 62
     7
 10
-608.250000000023
 20
-1000.589288632907
 30
0.0
 40
0.1892886329077032
 50
359.0566788815885
 51
180.9433209280187
  0
ARC
  5
1E4
  8
DATA
  6
CONTINUOUS
 62
     7
 10
-609.1131841931068
 20
-1000.534921121286
 30
0.0
 40
0.676368386187752
 50
244.8753886700262
 51
355.1246113518832
  0
ARC
  5
1E5
  8
DATA
  6
CONTINUOUS
 62
     7
 10
-609.4976926434277
 20
-1001.309644316485
 30
0.0
 40
0.1892886329076225
 50
59.05667888160091
 51
240.943320927989
  0
ARC
  5
1E6
  8
DATA
  6
CONTINUOUS
 62
     7
 10
-609.976368386175
 20
-1002.03000000003
 30
0.0
 40
0.6763683861879403
 50
304.875388670037
 51
55.1246113518757
  0
ARC
  5
1E7
  8
DATA
  6
CONTINUOUS
 62
     7
 10
-608.250000000023
 20
-1003.470711367092
 30
0.0
 40
0.1892886329078069
 50
179.0566790719813
 51
0.9433211184115464
  0
ARC
  5
1E8
  8
DATA
  6
CONTINUOUS
 62
     7
 10
-609.1131841931068
 20
-1003.525078878714
 30
0.0
 40
0.6763683861878106
 50
4.875388648116833
 51
115.1246113299738
  0
ARC
  5
1E9
  8
DATA
  6
CONTINUOUS
 62
     7
 10
-609.4976926434277
 20
-1002.750355683514
 30
0.0
 40
0.1892886329075887
 50
119.056679072011
 51
300.9433211183991
  0
ARC
  5
1EA
  8
DATA
  6
CONTINUOUS
 62
     7
 10
-607.3868158069392
 20
-1000.534921121286
 30
0.0
 40
0.6763683861879238
 50
184.875388648116
 51
295.1246113299738
  0
ARC
  5
1EB
  8
DATA
  6
CONTINUOUS
 62
     7
 10
-607.0023073566183
 20
-1001.309644316485
 30
0.0
 40
0.1892886329075887
 50
299.056679072011
 51
120.9433211183991
  0
ARC
  5
1EC
  8
DATA
  6
CONTINUOUS
 62
     7
 10
-606.5236316138712
 20
-1002.03000000003
 30
0.0
 40
0.6763683861880107
 50
124.8753886481164
 51
235.124611329971
  0
ARC
  5
1ED
  8
DATA
  6
CONTINUOUS
 62
     7
 10
-607.3868158069392
 20
-1003.525078878714
 30
0.0
 40
0.676368386187752
 50
64.87538867002621
 51
175.124611351884
  0
ARC
  5
1EE
  8
DATA
  6
CONTINUOUS
 62
     7
 10
-607.0023073566183
 20
-1002.750355683514
 30
0.0
 40
0.1892886329076225
 50
239.0566788816009
 51
60.94332092798902
  0
CIRCLE
  5
1EF
  8
DATA
  6
CONTINUOUS
 62
     7
 10
-608.25
 20
-1002.03
 30
0.0
 40
4.0
  0
ARC
  5
1F0
  8
DATA
  6
CONTINUOUS
 62
     7
 10
-476.250000000023
 20
-1000.589288632907
 30
0.0
 40
0.1892886329077032
 50
359.0566788815885
 51
180.9433209280187
  0
ARC
  5
1F1
  8
DATA
  6
CONTINUOUS
 62
     7
 10
-477.1131841931068
 20
-1000.534921121286
 30
0.0
 40
0.676368386187752
 50
244.8753886700262
 51
355.1246113518832
  0
ARC
  5
1F2
  8
DATA
  6
CONTINUOUS
 62
     7
 10
-477.4976926434277
 20
-1001.309644316485
 30
0.0
 40
0.1892886329076225
 50
59.05667888160091
 51
240.943320927989
  0
ARC
  5
1F3
  8
DATA
  6
CONTINUOUS
 62
     7
 10
-477.976368386175
 20
-1002.03000000003
 30
0.0
 40
0.6763683861879403
 50
304.875388670037
 51
55.1246113518757
  0
ARC
  5
1F4
  8
DATA
  6
CONTINUOUS
 62
     7
 10
-476.250000000023
 20
-1003.470711367092
 30
0.0
 40
0.1892886329078069
 50
179.0566790719813
 51
0.9433211184115464
  0
ARC
  5
1F5
  8
DATA
  6
CONTINUOUS
 62
     7
 10
-477.1131841931068
 20
-1003.525078878714
 30
0.0
 40
0.6763683861878106
 50
4.875388648116833
 51
115.1246113299738
  0
ARC
  5
1F6
  8
DATA
  6
CONTINUOUS
 62
     7
 10
-477.4976926434277
 20
-1002.750355683514
 30
0.0
 40
0.1892886329075887
 50
119.056679072011
 51
300.9433211183991
  0
ARC
  5
1F7
  8
DATA
  6
CONTINUOUS
 62
     7
 10
-475.3868158069392
 20
-1000.534921121286
 30
0.0
 40
0.6763683861879238
 50
184.875388648116
 51
295.1246113299738
  0
ARC
  5
1F8
  8
DATA
  6
CONTINUOUS
 62
     7
 10
-475.0023073566183
 20
-1001.309644316485
 30
0.0
 40
0.1892886329075887
 50
299.056679072011
 51
120.9433211183991
  0
ARC
  5
1F9
  8
DATA
  6
CONTINUOUS
 62
     7
 10
-474.5236316138712
 20
-1002.03000000003
 30
0.0
 40
0.6763683861880107
 50
124.8753886481164
 51
235.124611329971
  0
ARC
  5
1FA
  8
DATA
  6
CONTINUOUS
 62
     7
 10
-475.3868158069392
 20
-1003.525078878714
 30
0.0
 40
0.676368386187752
 50
64.87538867002621
 51
175.124611351884
  0
ARC
  5
1FB
  8
DATA
  6
CONTINUOUS
 62
     7
 10
-475.0023073566183
 20
-1002.750355683514
 30
0.0
 40
0.1892886329076225
 50
239.0566788816009
 51
60.94332092798902
  0
CIRCLE
  5
1FC
  8
DATA
  6
CONTINUOUS
 62
     7
 10
-476.25
 20
-1002.03
 30
0.0
 40
4.0
  0
LINE
  5
1FD
  8
DATA
  6
CONTINUOUS
 62
     7
 10
-581.2500000000003
 20
-999.2799999999997
 30
0.0
 11
-503.2499999999999
 21
-999.2799999999997
 31
0.0
  0
LINE
  5
1FE
  8
DATA
  6
CONTINUOUS
 62
     7
 10
-472.25
 20
-1030.28
 30
0.0
 11
-472.25
 21
-1148.28
 31
0.0
  0
LINE
  5
1FF
  8
DATA
  6
CONTINUOUS
 62
     7
 10
-503.2499999999998
 20
-1179.28
 30
0.0
 11
-581.2500000000001
 21
-1179.28
 31
0.0
  0
LINE
  5
200
  8
DATA
  6
CONTINUOUS
 62
     7
 10
-612.25
 20
-1148.28
 30
0.0
 11
-612.25
 21
-1030.279999999999
 31
0.0
  0
ARC
  5
201
  8
DATA
  6
CONTINUOUS
 62
     7
 10
-581.25
 20
-1148.28
 30
0.0
 40
31.0
 50
179.9999999999996
 51
270.0
  0
ARC
  5
202
  8
DATA
  6
CONTINUOUS
 62
     7
 10
-503.2499999999998
 20
-1148.28
 30
0.0
 40
31.0
 50
269.9999999999994
 51
0.0
  0
ARC
  5
203
  8
DATA
  6
CONTINUOUS
 62
     7
 10
-581.2500000000003
 20
-1030.279999999999
 30
0.0
 40
31.0
 50
89.99999999999898
 51
180.0
  0
ARC
  5
204
  8
DATA
  6
CONTINUOUS
 62
     7
 10
-503.2499999999999
 20
-1030.28
 30
0.0
 40
30.99999999999989
 50
0.0
 51
89.99999999999989
  0
ARC
  5
205
  8
DATA
  6
CONTINUOUS
 62
     7
 10
-621.500000000023
 20
-1068.089288632907
 30
0.0
 40
0.1892886329077032
 50
359.0566788815885
 51
180.9433209280187
  0
ARC
  5
206
  8
DATA
  6
CONTINUOUS
 62
     7
 10
-622.3631841931068
 20
-1068.034921121286
 30
0.0
 40
0.676368386187752
 50
244.8753886700262
 51
355.1246113518832
  0
ARC
  5
207
  8
DATA
  6
CONTINUOUS
 62
     7
 10
-622.7476926434277
 20
-1068.809644316485
 30
0.0
 40
0.1892886329076225
 50
59.05667888160091
 51
240.943320927989
  0
ARC
  5
208
  8
DATA
  6
CONTINUOUS
 62
     7
 10
-623.226368386175
 20
-1069.53000000003
 30
0.0
 40
0.6763683861877537
 50
304.875388670048
 51
55.12461135187576
  0
ARC
  5
209
  8
DATA
  6
CONTINUOUS
 62
     7
 10
-621.500000000023
 20
-1070.970711367092
 30
0.0
 40
0.1892886329078069
 50
179.0566790719813
 51
0.9433211184115464
  0
ARC
  5
20A
  8
DATA
  6
CONTINUOUS
 62
     7
 10
-622.3631841931068
 20
-1071.025078878714
 30
0.0
 40
0.6763683861878106
 50
4.875388648116833
 51
115.1246113299738
  0
ARC
  5
20B
  8
DATA
  6
CONTINUOUS
 62
     7
 10
-622.7476926434277
 20
-1070.250355683514
 30
0.0
 40
0.1892886329075887
 50
119.056679072011
 51
300.9433211183991
  0
ARC
  5
20C
  8
DATA
  6
CONTINUOUS
 62
     7
 10
-620.6368158069392
 20
-1068.034921121286
 30
0.0
 40
0.6763683861879238
 50
184.875388648116
 51
295.1246113299738
  0
ARC
  5
20D
  8
DATA
  6
CONTINUOUS
 62
     7
 10
-620.2523073566183
 20
-1068.809644316485
 30
0.0
 40
0.1892886329075887
 50
299.056679072011
 51
120.9433211183991
  0
ARC
  5
20E
  8
DATA
  6
CONTINUOUS
 62
     7
 10
-619.7736316138712
 20
-1069.53000000003
 30
0.0
 40
0.6763683861880107
 50
124.8753886481164
 51
235.1246113299599
  0
ARC
  5
20F
  8
DATA
  6
CONTINUOUS
 62
     7
 10
-620.6368158069392
 20
-1071.025078878714
 30
0.0
 40
0.676368386187752
 50
64.87538867002621
 51
175.124611351884
  0
ARC
  5
210
  8
DATA
  6
CONTINUOUS
 62
     7
 10
-620.2523073566183
 20
-1070.250355683514
 30
0.0
 40
0.1892886329076225
 50
239.0566788816009
 51
60.94332092798902
  0
CIRCLE
  5
211
  8
DATA
  6
CONTINUOUS
 62
     7
 10
-621.5
 20
-1069.53
 30
0.0
 40
4.0
  0
ARC
  5
212
  8
DATA
  6
CONTINUOUS
 62
     7
 10
-621.500000000023
 20
-1126.089288632907
 30
0.0
 40
0.1892886329077032
 50
359.0566788815885
 51
180.9433209280187
  0
ARC
  5
213
  8
DATA
  6
CONTINUOUS
 62
     7
 10
-622.3631841931068
 20
-1126.034921121286
 30
0.0
 40
0.676368386187752
 50
244.8753886700262
 51
355.1246113518832
  0
ARC
  5
214
  8
DATA
  6
CONTINUOUS
 62
     7
 10
-622.7476926434277
 20
-1126.809644316485
 30
0.0
 40
0.1892886329076225
 50
59.05667888160091
 51
240.943320927989
  0
ARC
  5
215
  8
DATA
  6
CONTINUOUS
 62
     7
 10
-623.226368386175
 20
-1127.53000000003
 30
0.0
 40
0.6763683861877537
 50
304.875388670048
 51
55.12461135187576
  0
ARC
  5
216
  8
DATA
  6
CONTINUOUS
 62
     7
 10
-621.500000000023
 20
-1128.970711367092
 30
0.0
 40
0.1892886329078069
 50
179.0566790719813
 51
0.9433211184115464
  0
ARC
  5
217
  8
DATA
  6
CONTINUOUS
 62
     7
 10
-622.3631841931068
 20
-1129.025078878714
 30
0.0
 40
0.6763683861878106
 50
4.875388648116833
 51
115.1246113299738
  0
ARC
  5
218
  8
DATA
  6
CONTINUOUS
 62
     7
 10
-622.7476926434277
 20
-1128.250355683514
 30
0.0
 40
0.1892886329075887
 50
119.056679072011
 51
300.9433211183991
  0
ARC
  5
219
  8
DATA
  6
CONTINUOUS
 62
     7
 10
-620.6368158069392
 20
-1126.034921121286
 30
0.0
 40
0.6763683861879238
 50
184.875388648116
 51
295.1246113299738
  0
ARC
  5
21A
  8
DATA
  6
CONTINUOUS
 62
     7
 10
-620.2523073566183
 20
-1126.809644316485
 30
0.0
 40
0.1892886329075887
 50
299.056679072011
 51
120.9433211183991
  0
ARC
  5
21B
  8
DATA
  6
CONTINUOUS
 62
     7
 10
-619.7736316138712
 20
-1127.53000000003
 30
0.0
 40
0.6763683861880107
 50
124.8753886481164
 51
235.1246113299599
  0
ARC
  5
21C
  8
DATA
  6
CONTINUOUS
 62
     7
 10
-620.6368158069392
 20
-1129.025078878714
 30
0.0
 40
0.676368386187752
 50
64.87538867002621
 51
175.124611351884
  0
ARC
  5
21D
  8
DATA
  6
CONTINUOUS
 62
     7
 10
-620.2523073566183
 20
-1128.250355683514
 30
0.0
 40
0.1892886329076225
 50
239.0566788816009
 51
60.94332092798902
  0
CIRCLE
  5
21E
  8
DATA
  6
CONTINUOUS
 62
     7
 10
-621.5
 20
-1127.53
 30
0.0
 40
4.0
  0
ARC
  5
21F
  8
DATA
  6
CONTINUOUS
 62
     7
 10
-463.000000000023
 20
-1068.089288632907
 30
0.0
 40
0.1892886329077032
 50
359.0566788815885
 51
180.9433209280187
  0
ARC
  5
220
  8
DATA
  6
CONTINUOUS
 62
     7
 10
-463.8631841931068
 20
-1068.034921121286
 30
0.0
 40
0.676368386187752
 50
244.8753886700262
 51
355.1246113518832
  0
ARC
  5
221
  8
DATA
  6
CONTINUOUS
 62
     7
 10
-464.2476926434277
 20
-1068.809644316485
 30
0.0
 40
0.1892886329076225
 50
59.05667888160091
 51
240.943320927989
  0
ARC
  5
222
  8
DATA
  6
CONTINUOUS
 62
     7
 10
-464.726368386175
 20
-1069.53000000003
 30
0.0
 40
0.6763683861877537
 50
304.875388670048
 51
55.12461135187576
  0
ARC
  5
223
  8
DATA
  6
CONTINUOUS
 62
     7
 10
-463.000000000023
 20
-1070.970711367092
 30
0.0
 40
0.1892886329078069
 50
179.0566790719813
 51
0.9433211184115464
  0
ARC
  5
224
  8
DATA
  6
CONTINUOUS
 62
     7
 10
-463.8631841931068
 20
-1071.025078878714
 30
0.0
 40
0.6763683861878106
 50
4.875388648116833
 51
115.1246113299738
  0
ARC
  5
225
  8
DATA
  6
CONTINUOUS
 62
     7
 10
-464.2476926434277
 20
-1070.250355683514
 30
0.0
 40
0.1892886329075887
 50
119.056679072011
 51
300.9433211183991
  0
ARC
  5
226
  8
DATA
  6
CONTINUOUS
 62
     7
 10
-462.1368158069392
 20
-1068.034921121286
 30
0.0
 40
0.6763683861879238
 50
184.875388648116
 51
295.1246113299738
  0
ARC
  5
227
  8
DATA
  6
CONTINUOUS
 62
     7
 10
-461.7523073566183
 20
-1068.809644316485
 30
0.0
 40
0.1892886329075887
 50
299.056679072011
 51
120.9433211183991
  0
ARC
  5
228
  8
DATA
  6
CONTINUOUS
 62
     7
 10
-461.2736316138712
 20
-1069.53000000003
 30
0.0
 40
0.6763683861880107
 50
124.8753886481164
 51
235.1246113299599
  0
ARC
  5
229
  8
DATA
  6
CONTINUOUS
 62
     7
 10
-462.1368158069392
 20
-1071.025078878714
 30
0.0
 40
0.676368386187752
 50
64.87538867002621
 51
175.124611351884
  0
ARC
  5
22A
  8
DATA
  6
CONTINUOUS
 62
     7
 10
-461.7523073566183
 20
-1070.250355683514
 30
0.0
 40
0.1892886329076225
 50
239.0566788816009
 51
60.94332092798902
  0
CIRCLE
  5
22B
  8
DATA
  6
CONTINUOUS
 62
     7
 10
-463.0
 20
-1069.53
 30
0.0
 40
4.0
  0
ARC
  5
22C
  8
DATA
  6
CONTINUOUS
 62
     7
 10
-463.000000000023
 20
-1126.089288632907
 30
0.0
 40
0.1892886329077032
 50
359.0566788815885
 51
180.9433209280187
  0
ARC
  5
22D
  8
DATA
  6
CONTINUOUS
 62
     7
 10
-463.8631841931068
 20
-1126.034921121286
 30
0.0
 40
0.676368386187752
 50
244.8753886700262
 51
355.1246113518832
  0
ARC
  5
22E
  8
DATA
  6
CONTINUOUS
 62
     7
 10
-464.2476926434277
 20
-1126.809644316485
 30
0.0
 40
0.1892886329076225
 50
59.05667888160091
 51
240.943320927989
  0
ARC
  5
22F
  8
DATA
  6
CONTINUOUS
 62
     7
 10
-464.726368386175
 20
-1127.53000000003
 30
0.0
 40
0.6763683861877537
 50
304.875388670048
 51
55.12461135187576
  0
ARC
  5
230
  8
DATA
  6
CONTINUOUS
 62
     7
 10
-463.000000000023
 20
-1128.970711367092
 30
0.0
 40
0.1892886329078069
 50
179.0566790719813
 51
0.9433211184115464
  0
ARC
  5
231
  8
DATA
  6
CONTINUOUS
 62
     7
 10
-463.8631841931068
 20
-1129.025078878714
 30
0.0
 40
0.6763683861878106
 50
4.875388648116833
 51
115.1246113299738
  0
ARC
  5
232
  8
DATA
  6
CONTINUOUS
 62
     7
 10
-464.2476926434277
 20
-1128.250355683514
 30
0.0
 40
0.1892886329075887
 50
119.056679072011
 51
300.9433211183991
  0
ARC
  5
233
  8
DATA
  6
CONTINUOUS
 62
     7
 10
-462.1368158069392
 20
-1126.034921121286
 30
0.0
 40
0.6763683861879238
 50
184.875388648116
 51
295.1246113299738
  0
ARC
  5
234
  8
DATA
  6
CONTINUOUS
 62
     7
 10
-461.7523073566183
 20
-1126.809644316485
 30
0.0
 40
0.1892886329075887
 50
299.056679072011
 51
120.9433211183991
  0
ARC
  5
235
  8
DATA
  6
CONTINUOUS
 62
     7
 10
-461.2736316138712
 20
-1127.53000000003
 30
0.0
 40
0.6763683861880107
 50
124.8753886481164
 51
235.1246113299599
  0
ARC
  5
236
  8
DATA
  6
CONTINUOUS
 62
     7
 10
-462.1368158069392
 20
-1129.025078878714
 30
0.0
 40
0.676368386187752
 50
64.87538867002621
 51
175.124611351884
  0
ARC
  5
237
  8
DATA
  6
CONTINUOUS
 62
     7
 10
-461.7523073566183
 20
-1128.250355683514
 30
0.0
 40
0.1892886329076225
 50
239.0566788816009
 51
60.94332092798902
  0
CIRCLE
  5
238
  8
DATA
  6
CONTINUOUS
 62
     7
 10
-463.0
 20
-1127.53
 30
0.0
 40
4.0
  0
ARC
  5
239
  8
DATA
  6
CONTINUOUS
 62
     7
 10
-580.7500000000003
 20
-1030.279999999999
 30
0.0
 40
25.99999999999955
 50
90.0
 51
180.0
  0
ARC
  5
23A
  8
DATA
  6
CONTINUOUS
 62
     7
 10
-503.7499999999997
 20
-1030.279999999999
 30
0.0
 40
25.99999999999966
 50
0.0
 51
90.0
  0
ARC
  5
23B
  8
DATA
  6
CONTINUOUS
 62
     7
 10
-580.7500000000003
 20
-1148.28
 30
0.0
 40
25.99999999999966
 50
180.0
 51
270.0
  0
ARC
  5
23C
  8
DATA
  6
CONTINUOUS
 62
     7
 10
-503.7499999999997
 20
-1148.28
 30
0.0
 40
25.99999999999955
 50
270.0
 51
0.0
  0
LINE
  5
23D
  8
DATA
  6
CONTINUOUS
 62
     7
 10
-580.7500000000003
 20
-1004.28
 30
0.0
 11
-503.7499999999997
 21
-1004.28
 31
0.0
  0
LINE
  5
23E
  8
DATA
  6
CONTINUOUS
 62
     7
 10
-503.7499999999997
 20
-1174.28
 30
0.0
 11
-580.7500000000003
 21
-1174.28
 31
0.0
  0
LINE
  5
23F
  8
DATA
  6
CONTINUOUS
 62
     7
 10
-606.75
 20
-1148.28
 30
0.0
 11
-606.75
 21
-1030.279999999999
 31
0.0
  0
LINE
  5
240
  8
DATA
  6
CONTINUOUS
 62
     7
 10
-477.75
 20
-1030.279999999999
 30
0.0
 11
-477.75
 21
-1148.28
 31
0.0
  0
ARC
  5
241
  8
DATA
  6
CONTINUOUS
 62
     7
 10
-572.75
 20
-1142.78
 30
0.0
 40
28.5
 50
90.0
 51
270.0
  0
ARC
  5
242
  8
DATA
  6
CONTINUOUS
 62
     7
 10
-511.75
 20
-1142.78
 30
0.0
 40
28.5
 50
270.0
 51
90.0
  0
LINE
  5
243
  8
DATA
  6
CONTINUOUS
 62
     7
 10
-572.75
 20
-1114.28
 30
0.0
 11
-511.75
 21
-1114.28
 31
0.0
  0
LINE
  5
244
  8
DATA
  6
CONTINUOUS
 62
     7
 10
-572.75
 20
-1171.28
 30
0.0
 11
-511.75
 21
-1171.28
 31
0.0
  0
ARC
  5
245
  8
DATA
  6
CONTINUOUS
 62
     7
 10
-572.75
 20
-1055.78
 30
0.0
 40
28.5
 50
180.0
 51
270.0
  0
ARC
  5
246
  8
DATA
  6
CONTINUOUS
 62
     7
 10
-572.75
 20
-1036.78
 30
0.0
 40
28.50000000000011
 50
90.0
 51
180.0
  0
ARC
  5
247
  8
DATA
  6
CONTINUOUS
 62
     7
 10
-511.75
 20
-1055.78
 30
0.0
 40
28.5
 50
270.0
 51
0.0
  0
ARC
  5
248
  8
DATA
  6
CONTINUOUS
 62
     7
 10
-511.75
 20
-1036.78
 30
0.0
 40
28.5
 50
0.0
 51
90.0
  0
LINE
  5
249
  8
DATA
  6
CONTINUOUS
 62
     7
 10
-601.25
 20
-1036.78
 30
0.0
 11
-601.25
 21
-1055.78
 31
0.0
  0
LINE
  5
24A
  8
DATA
  6
CONTINUOUS
 62
     7
 10
-572.75
 20
-1084.28
 30
0.0
 11
-511.75
 21
-1084.28
 31
0.0
  0
LINE
  5
24B
  8
DATA
  6
CONTINUOUS
 62
     7
 10
-483.25
 20
-1055.78
 30
0.0
 11
-483.25
 21
-1036.78
 31
0.0
  0
LINE
  5
24C
  8
DATA
  6
CONTINUOUS
 62
     7
 10
-511.75
 20
-1008.28
 30
0.0
 11
-572.75
 21
-1008.28
 31
0.0
  0
LINE
  5
24D
  8
DATA
  6
CONTINUOUS
 62
     7
 10
-606.75
 20
-1138.78
 30
0.0
 11
-600.967902119045
 21
-1138.78
 31
0.0
  0
LINE
  5
24E
  8
DATA
  6
CONTINUOUS
 62
     7
 10
-606.75
 20
-1138.78
 30
0.0
 11
-612.25
 21
-1140.28
 31
0.0
  0
LINE
  5
24F
  8
DATA
  6
CONTINUOUS
 62
     7
 10
-477.75
 20
-1138.78
 30
0.0
 11
-483.532097880955
 21
-1138.78
 31
0.0
  0
LINE
  5
250
  8
DATA
  6
CONTINUOUS
 62
     7
 10
-477.75
 20
-1138.78
 30
0.0
 11
-472.25
 21
-1140.28
 31
0.0
  0
LINE
  5
251
  8
DATA
  6
CONTINUOUS
 62
     7
 10
-606.75
 20
-1058.279999999999
 30
0.0
 11
-601.1401391331568
 21
-1058.279999999999
 31
0.0
  0
LINE
  5
252
  8
DATA
  6
CONTINUOUS
 62
     7
 10
-606.75
 20
-1058.279999999999
 30
0.0
 11
-612.25
 21
-1056.78
 31
0.0
  0
LINE
  5
253
  8
DATA
  6
CONTINUOUS
 62
     7
 10
-477.75
 20
-1058.279999999999
 30
0.0
 11
-483.3598608668432
 21
-1058.279999999999
 31
0.0
  0
LINE
  5
254
  8
DATA
  6
CONTINUOUS
 62
     7
 10
-477.75
 20
-1058.279999999999
 30
0.0
 11
-472.25
 21
-1056.78
 31
0.0
  0
ARC
  5
255
  8
DATA
  6
CONTINUOUS
 62
     7
 10
-552.249774
 20
-1103.41474
 30
0.0
 40
4.384050822785327
 50
264.690856221535
 51
323.9911991542437
  0
ARC
  5
256
  8
DATA
  6
CONTINUOUS
 62
     7
 10
-553.061065
 20
-1103.41474
 30
0.0
 40
4.384043702809195
 50
216.0088008457572
 51
275.3091437784642
  0
ARC
  5
257
  8
DATA
  6
CONTINUOUS
 62
     7
 10
-541.109555
 20
-1104.552754
 30
0.0
 40
3.234439399920584
 50
273.8309816091167
 51
351.1351473098064
  0
ARC
  5
258
  8
DATA
  6
CONTINUOUS
 62
     7
 10
-541.077306
 20
-1094.002282
 30
0.0
 40
3.229540885949502
 50
8.226923859014095
 51
86.15412669215195
  0
ARC
  5
259
  8
DATA
  6
CONTINUOUS
 62
     7
 10
-541.4326716819255
 20
-1105.37345612315
 30
0.0
 40
0.5419312951913328
 50
307.6419024975662
 51
354.2670192894097
  0
LINE
  5
25A
  8
DATA
  6
CONTINUOUS
 62
     7
 10
-555.352835
 20
-1096.833496
 30
0.0
 11
-552.812253
 21
-1090.78
 31
0.0
  0
LINE
  5
25B
  8
DATA
  6
CONTINUOUS
 62
     7
 10
-555.352835
 20
-1096.833496
 30
0.0
 11
-557.862069
 21
-1090.78
 31
0.0
  0
LINE
  5
25C
  8
DATA
  6
CONTINUOUS
 62
     7
 10
-536.094555
 20
-1107.78
 30
0.0
 11
-536.094555
 21
-1090.78
 31
0.0
  0
LINE
  5
25D
  8
DATA
  6
CONTINUOUS
 62
     7
 10
-532.8325609999999
 20
-1090.78
 30
0.0
 11
-532.8325609999999
 21
-1105.176688
 31
0.0
  0
LINE
  5
25E
  8
DATA
  6
CONTINUOUS
 62
     7
 10
-551.620366
 20
-1090.78
 30
0.0
 11
-551.620366
 21
-1105.176688
 31
0.0
  0
LINE
  5
25F
  8
DATA
  6
CONTINUOUS
 62
     7
 10
-548.483832
 20
-1090.78
 30
0.0
 11
-548.483832
 21
-1105.176688
 31
0.0
  0
LINE
  5
260
  8
DATA
  6
CONTINUOUS
 62
     7
 10
-546.852835
 20
-1090.78
 30
0.0
 11
-546.852835
 21
-1107.78
 31
0.0
  0
LINE
  5
261
  8
DATA
  6
CONTINUOUS
 62
     7
 10
-543.9985859999999
 20
-1092.379615
 30
0.0
 11
-543.9985859999999
 21
-1097.837193
 31
0.0
  0
LINE
  5
262
  8
DATA
  6
CONTINUOUS
 62
     7
 10
-537.8810000000001
 20
-1097.521401
 30
0.0
 11
-537.8810000000001
 21
-1093.540154
 31
0.0
  0
LINE
  5
263
  8
DATA
  6
CONTINUOUS
 62
     7
 10
-540.8934509999999
 20
-1093.132392
 30
0.0
 11
-540.8934509999999
 21
-1097.084433
 31
0.0
  0
LINE
  5
264
  8
DATA
  6
CONTINUOUS
 62
     7
 10
-554.0041229999999
 20
-1102.447882
 30
0.0
 11
-554.0041229999999
 21
-1105.176654
 31
0.0
  0
LINE
  5
265
  8
DATA
  6
CONTINUOUS
 62
     7
 10
-554.0041229999999
 20
-1102.447882
 30
0.0
 11
-556.827007
 21
-1102.447882
 31
0.0
  0
LINE
  5
266
  8
DATA
  6
CONTINUOUS
 62
     7
 10
-556.827007
 20
-1102.447882
 30
0.0
 11
-556.827007
 21
-1105.176654
 31
0.0
  0
ARC
  5
267
  8
DATA
  6
CONTINUOUS
 62
     7
 10
-552.8062689999999
 20
-1105.213442
 30
0.0
 40
1.186479004611853
 50
269.7118487927481
 51
1.775987005703314
  0
ARC
  5
268
  8
DATA
  6
CONTINUOUS
 62
     7
 10
-552.81822
 20
-1105.213442
 30
0.0
 40
1.186472937681201
 50
178.2240129943114
 51
270.2881512072513
  0
ARC
  5
269
  8
DATA
  6
CONTINUOUS
 62
     7
 10
-554.845759
 20
-1105.080553
 30
0.0
 40
1.983560353899496
 50
182.7769954499898
 51
207.3596066671452
  0
CIRCLE
  5
26A
  8
DATA
  6
CONTINUOUS
 62
     7
 10
-555.180319
 20
-1099.185905
 30
0.0
 40
1.615306000000032
  0
LINE
  5
26B
  8
DATA
  6
CONTINUOUS
 62
     7
 10
-527.594555
 20
-1107.779983
 30
0.0
 11
-536.094555
 21
-1107.779983
 31
0.0
  0
LINE
  5
26C
  8
DATA
  6
CONTINUOUS
 62
     7
 10
-527.594555
 20
-1107.779983
 30
0.0
 11
-527.594555
 21
-1102.447865
 31
0.0
  0
LINE
  5
26D
  8
DATA
  6
CONTINUOUS
 62
     7
 10
-527.594555
 20
-1102.447882
 30
0.0
 11
-530.448787
 21
-1102.447882
 31
0.0
  0
LINE
  5
26E
  8
DATA
  6
CONTINUOUS
 62
     7
 10
-530.448787
 20
-1102.447882
 30
0.0
 11
-530.448787
 21
-1105.176654
 31
0.0
  0
LINE
  5
26F
  8
DATA
  6
CONTINUOUS
 62
     7
 10
-546.852835
 20
-1107.779983
 30
0.0
 11
-540.8934509999999
 21
-1107.779966
 31
0.0
  0
LINE
  5
270
  8
DATA
  6
CONTINUOUS
 62
     7
 10
-543.998603
 20
-1106.180351
 30
0.0
 11
-542.461701
 21
-1106.180351
 31
0.0
  0
LINE
  5
271
  8
DATA
  6
CONTINUOUS
 62
     7
 10
-543.9985859999999
 20
-1106.180351
 30
0.0
 11
-543.9985859999999
 21
-1099.468173
 31
0.0
  0
LINE
  5
272
  8
DATA
  6
CONTINUOUS
 62
     7
 10
-543.998603
 20
-1099.468173
 30
0.0
 11
-542.461701
 21
-1099.468173
 31
0.0
  0
LINE
  5
273
  8
DATA
  6
CONTINUOUS
 62
     7
 10
-540.8934509999999
 20
-1105.427591
 30
0.0
 11
-540.8934509999999
 21
-1100.220933
 31
0.0
  0
ARC
  5
274
  8
DATA
  6
CONTINUOUS
 62
     7
 10
-550.46508
 20
-1105.080553
 30
0.0
 40
1.983557531370478
 50
332.6403933328552
 51
357.223004550004
  0
ARC
  5
275
  8
DATA
  6
CONTINUOUS
 62
     7
 10
-531.6347069999999
 20
-1105.213442
 30
0.0
 40
1.186479004611853
 50
269.7118487927481
 51
1.775987005703314
  0
ARC
  5
276
  8
DATA
  6
CONTINUOUS
 62
     7
 10
-531.646641
 20
-1105.213442
 30
0.0
 40
1.186472937681201
 50
178.2240129943114
 51
270.2881512072513
  0
LINE
  5
277
  8
DATA
  6
CONTINUOUS
 62
     7
 10
-537.882377
 20
-1105.051194
 30
0.0
 11
-537.882377
 21
-1100.5346
 31
0.0
  0
LINE
  5
278
  8
DATA
  6
CONTINUOUS
 62
     7
 10
-543.998603
 20
-1097.837193
 30
0.0
 11
-542.461701
 21
-1097.837193
 31
0.0
  0
LINE
  5
279
  8
DATA
  6
CONTINUOUS
 62
     7
 10
-551.620366
 20
-1090.78
 30
0.0
 11
-548.483832
 21
-1090.78
 31
0.0
  0
LINE
  5
27A
  8
DATA
  6
CONTINUOUS
 62
     7
 10
-557.862069
 20
-1090.78
 30
0.0
 11
-552.812253
 21
-1090.78
 31
0.0
  0
LINE
  5
27B
  8
DATA
  6
CONTINUOUS
 62
     7
 10
-536.094555
 20
-1090.78
 30
0.0
 11
-532.8325609999999
 21
-1090.78
 31
0.0
  0
LINE
  5
27C
  8
DATA
  6
CONTINUOUS
 62
     7
 10
-546.852835
 20
-1090.78
 30
0.0
 11
-540.8606917821506
 21
-1090.780013759359
 31
0.0
  0
LINE
  5
27D
  8
DATA
  6
CONTINUOUS
 62
     7
 10
-543.998603
 20
-1092.379632
 30
0.0
 11
-542.461701
 21
-1092.379632
 31
0.0
  0
ARC
  5
27E
  8
DATA
  6
CONTINUOUS
 62
     7
 10
-542.4435527135745
 20
-1103.199081467002
 30
0.0
 40
2.981324770748778
 50
269.6512199376178
 51
282.8264828068724
  0
ARC
  5
27F
  8
DATA
  6
CONTINUOUS
 62
     7
 10
-542.1087027533066
 20
-1104.459526529086
 30
0.0
 40
1.678644436278404
 50
281.2331036226577
 51
306.8620088940635
  0
ARC
  5
280
  8
DATA
  6
CONTINUOUS
 62
     7
 10
-541.4326716819255
 20
-1100.27506787685
 30
0.0
 40
0.5419312951914366
 50
5.732980710613018
 51
52.35809750242434
  0
ARC
  5
281
  8
DATA
  6
CONTINUOUS
 62
     7
 10
-542.4435527135745
 20
-1102.449442532998
 30
0.0
 40
2.981324770748992
 50
77.17351719312761
 51
90.34878006238218
  0
ARC
  5
282
  8
DATA
  6
CONTINUOUS
 62
     7
 10
-542.1087027533066
 20
-1101.188997470914
 30
0.0
 40
1.67864443627828
 50
53.13799110593644
 51
78.76689637734381
  0
ARC
  5
283
  8
DATA
  6
CONTINUOUS
 62
     7
 10
-539.527433
 20
-1100.645797
 30
0.0
 40
1.648809878653339
 50
3.867006359820255
 51
88.3616345678977
  0
ARC
  5
284
  8
DATA
  6
CONTINUOUS
 62
     7
 10
-539.528946
 20
-1097.347933
 30
0.0
 40
1.650448297910653
 50
271.6892821046506
 51
356.0782829826558
  0
ARC
  5
285
  8
DATA
  6
CONTINUOUS
 62
     7
 10
-541.4326716819255
 20
-1097.03029812315
 30
0.0
 40
0.5419312951913328
 50
307.6419024975662
 51
354.2670192894109
  0
ARC
  5
286
  8
DATA
  6
CONTINUOUS
 62
     7
 10
-542.4435527135745
 20
-1094.855923467002
 30
0.0
 40
2.981324770748778
 50
269.6512199376178
 51
282.8264828068734
  0
ARC
  5
287
  8
DATA
  6
CONTINUOUS
 62
     7
 10
-542.1087027533066
 20
-1096.116368529086
 30
0.0
 40
1.678644436278404
 50
281.2331036226577
 51
306.8620088940589
  0
ARC
  5
288
  8
DATA
  6
CONTINUOUS
 62
     7
 10
-541.4326716819255
 20
-1093.18652687685
 30
0.0
 40
0.5419312951914366
 50
5.732980710613018
 51
52.35809750243385
  0
ARC
  5
289
  8
DATA
  6
CONTINUOUS
 62
     7
 10
-542.4435527135745
 20
-1095.360901532998
 30
0.0
 40
2.981324770749214
 50
77.17351719312859
 51
90.34878006238218
  0
ARC
  5
28A
  8
DATA
  6
CONTINUOUS
 62
     7
 10
-542.1087027533066
 20
-1094.100456470914
 30
0.0
 40
1.678644436278462
 50
53.1379911059411
 51
78.76689637734381
  0
LINE
  5
28B
  8
DATA
  6
STYLE_06
 62
     7
 10
-1100.0
 20
-775.0
 30
0.0
 11
-1100.0
 21
-225.0
 31
0.0
  0
LINE
  5
28C
  8
DATA
  6
CONTINUOUS
 62
     7
 10
-4.999999999999886
 20
-913.22
 30
0.0
 11
105.0
 21
-913.22
 31
0.0
  0
ARC
  5
28D
  8
DATA
  6
CONTINUOUS
 62
     7
 10
-5.000000000022965
 20
-918.2792886329078
 30
0.0
 40
0.1892886329077032
 50
359.0566788815885
 51
180.9433209280187
  0
ARC
  5
28E
  8
DATA
  6
CONTINUOUS
 62
     7
 10
-5.863184193106804
 20
-918.2249211212859
 30
0.0
 40
0.676368386187752
 50
244.8753886700262
 51
355.1246113518832
  0
ARC
  5
28F
  8
DATA
  6
CONTINUOUS
 62
     7
 10
-6.24769264342774
 20
-918.9996443164853
 30
0.0
 40
0.1892886329076225
 50
59.05667888160091
 51
240.943320927989
  0
ARC
  5
290
  8
DATA
  6
CONTINUOUS
 62
     7
 10
-6.726368386174954
 20
-919.72000000003
 30
0.0
 40
0.6763683861879403
 50
304.875388670037
 51
55.1246113518757
  0
ARC
  5
291
  8
DATA
  6
CONTINUOUS
 62
     7
 10
-5.000000000022965
 20
-921.1607113670923
 30
0.0
 40
0.1892886329078069
 50
179.0566790719813
 51
0.9433211184115464
  0
ARC
  5
292
  8
DATA
  6
CONTINUOUS
 62
     7
 10
-5.863184193106804
 20
-921.2150788787142
 30
0.0
 40
0.6763683861878106
 50
4.875388648116833
 51
115.1246113299738
  0
ARC
  5
293
  8
DATA
  6
CONTINUOUS
 62
     7
 10
-6.24769264342774
 20
-920.4403556835148
 30
0.0
 40
0.1892886329075887
 50
119.056679072011
 51
300.9433211183991
  0
ARC
  5
294
  8
DATA
  6
CONTINUOUS
 62
     7
 10
-4.136815806939239
 20
-918.2249211212859
 30
0.0
 40
0.6763683861879238
 50
184.875388648116
 51
295.1246113299738
  0
ARC
  5
295
  8
DATA
  6
CONTINUOUS
 62
     7
 10
-3.752307356618303
 20
-918.9996443164853
 30
0.0
 40
0.1892886329075887
 50
299.056679072011
 51
120.9433211183991
  0
ARC
  5
296
  8
DATA
  6
CONTINUOUS
 62
     7
 10
-3.273631613871203
 20
-919.72000000003
 30
0.0
 40
0.6763683861880107
 50
124.8753886481164
 51
235.124611329971
  0
ARC
  5
297
  8
DATA
  6
CONTINUOUS
 62
     7
 10
-4.136815806939239
 20
-921.2150788787142
 30
0.0
 40
0.676368386187752
 50
64.87538867002621
 51
175.124611351884
  0
ARC
  5
298
  8
DATA
  6
CONTINUOUS
 62
     7
 10
-3.752307356618303
 20
-920.4403556835148
 30
0.0
 40
0.1892886329076225
 50
239.0566788816009
 51
60.94332092798902
  0
CIRCLE
  5
299
  8
DATA
  6
CONTINUOUS
 62
     7
 10
-5.0
 20
-919.72
 30
0.0
 40
3.5
  0
ARC
  5
29A
  8
DATA
  6
CONTINUOUS
 62
     7
 10
104.999999999977
 20
-918.2792886329078
 30
0.0
 40
0.1892886329077032
 50
359.0566788815885
 51
180.9433209280187
  0
ARC
  5
29B
  8
DATA
  6
CONTINUOUS
 62
     7
 10
104.1368158068932
 20
-918.2249211212859
 30
0.0
 40
0.676368386187752
 50
244.8753886700262
 51
355.1246113518832
  0
ARC
  5
29C
  8
DATA
  6
CONTINUOUS
 62
     7
 10
103.7523073565723
 20
-918.9996443164853
 30
0.0
 40
0.1892886329076225
 50
59.05667888160091
 51
240.943320927989
  0
ARC
  5
29D
  8
DATA
  6
CONTINUOUS
 62
     7
 10
103.273631613825
 20
-919.72000000003
 30
0.0
 40
0.6763683861879403
 50
304.875388670037
 51
55.1246113518757
  0
ARC
  5
29E
  8
DATA
  6
CONTINUOUS
 62
     7
 10
104.999999999977
 20
-921.1607113670923
 30
0.0
 40
0.1892886329078069
 50
179.0566790719813
 51
0.9433211184115464
  0
ARC
  5
29F
  8
DATA
  6
CONTINUOUS
 62
     7
 10
104.1368158068932
 20
-921.2150788787142
 30
0.0
 40
0.6763683861878106
 50
4.875388648116833
 51
115.1246113299738
  0
ARC
  5
2A0
  8
DATA
  6
CONTINUOUS
 62
     7
 10
103.7523073565723
 20
-920.4403556835148
 30
0.0
 40
0.1892886329075887
 50
119.056679072011
 51
300.9433211183991
  0
ARC
  5
2A1
  8
DATA
  6
CONTINUOUS
 62
     7
 10
105.8631841930608
 20
-918.2249211212859
 30
0.0
 40
0.6763683861879238
 50
184.875388648116
 51
295.1246113299738
  0
ARC
  5
2A2
  8
DATA
  6
CONTINUOUS
 62
     7
 10
106.2476926433817
 20
-918.9996443164853
 30
0.0
 40
0.1892886329075887
 50
299.056679072011
 51
120.9433211183991
  0
ARC
  5
2A3
  8
DATA
  6
CONTINUOUS
 62
     7
 10
106.7263683861288
 20
-919.72000000003
 30
0.0
 40
0.6763683861880107
 50
124.8753886481164
 51
235.124611329971
  0
ARC
  5
2A4
  8
DATA
  6
CONTINUOUS
 62
     7
 10
105.8631841930608
 20
-921.2150788787142
 30
0.0
 40
0.676368386187752
 50
64.87538867002621
 51
175.124611351884
  0
ARC
  5
2A5
  8
DATA
  6
CONTINUOUS
 62
     7
 10
106.2476926433817
 20
-920.4403556835148
 30
0.0
 40
0.1892886329076225
 50
239.0566788816009
 51
60.94332092798902
  0
CIRCLE
  5
2A6
  8
DATA
  6
CONTINUOUS
 62
     7
 10
105.0
 20
-919.72
 30
0.0
 40
3.5
  0
ARC
  5
2A7
  8
DATA
  6
CONTINUOUS
 62
     7
 10
-5.000000000022965
 20
-1178.160711367092
 30
0.0
 40
0.1892886329078069
 50
179.0566790719813
 51
0.9433211184115464
  0
ARC
  5
2A8
  8
DATA
  6
CONTINUOUS
 62
     7
 10
-5.863184193106804
 20
-1178.215078878714
 30
0.0
 40
0.6763683861878106
 50
4.875388648116833
 51
115.1246113299738
  0
ARC
  5
2A9
  8
DATA
  6
CONTINUOUS
 62
     7
 10
-6.24769264342774
 20
-1177.440355683515
 30
0.0
 40
0.1892886329075887
 50
119.056679072011
 51
300.9433211183991
  0
ARC
  5
2AA
  8
DATA
  6
CONTINUOUS
 62
     7
 10
-6.726368386174954
 20
-1176.71999999997
 30
0.0
 40
0.6763683861880757
 50
304.8753886481243
 51
55.12461132996302
  0
ARC
  5
2AB
  8
DATA
  6
CONTINUOUS
 62
     7
 10
-5.000000000022965
 20
-1175.279288632908
 30
0.0
 40
0.1892886329077032
 50
359.0566788815885
 51
180.9433209280187
  0
ARC
  5
2AC
  8
DATA
  6
CONTINUOUS
 62
     7
 10
-5.863184193106804
 20
-1175.224921121286
 30
0.0
 40
0.676368386187752
 50
244.8753886700262
 51
355.1246113518832
  0
ARC
  5
2AD
  8
DATA
  6
CONTINUOUS
 62
     7
 10
-6.24769264342774
 20
-1175.999644316485
 30
0.0
 40
0.1892886329076225
 50
59.05667888160091
 51
240.943320927989
  0
ARC
  5
2AE
  8
DATA
  6
CONTINUOUS
 62
     7
 10
-4.136815806939239
 20
-1178.215078878714
 30
0.0
 40
0.676368386187752
 50
64.87538867002621
 51
175.124611351884
  0
ARC
  5
2AF
  8
DATA
  6
CONTINUOUS
 62
     7
 10
-3.752307356618303
 20
-1177.440355683515
 30
0.0
 40
0.1892886329076225
 50
239.0566788816009
 51
60.94332092798902
  0
ARC
  5
2B0
  8
DATA
  6
CONTINUOUS
 62
     7
 10
-3.273631613871203
 20
-1176.71999999997
 30
0.0
 40
0.6763683861878752
 50
124.8753886700291
 51
235.1246113518836
  0
ARC
  5
2B1
  8
DATA
  6
CONTINUOUS
 62
     7
 10
-4.136815806939239
 20
-1175.224921121286
 30
0.0
 40
0.6763683861879238
 50
184.875388648116
 51
295.1246113299738
  0
ARC
  5
2B2
  8
DATA
  6
CONTINUOUS
 62
     7
 10
-3.752307356618303
 20
-1175.999644316485
 30
0.0
 40
0.1892886329075887
 50
299.056679072011
 51
120.9433211183991
  0
CIRCLE
  5
2B3
  8
DATA
  6
CONTINUOUS
 62
     7
 10
-5.0
 20
-1176.72
 30
0.0
 40
3.5
  0
ARC
  5
2B4
  8
DATA
  6
CONTINUOUS
 62
     7
 10
104.999999999977
 20
-1178.160711367092
 30
0.0
 40
0.1892886329078069
 50
179.0566790719813
 51
0.9433211184115464
  0
ARC
  5
2B5
  8
DATA
  6
CONTINUOUS
 62
     7
 10
104.1368158068932
 20
-1178.215078878714
 30
0.0
 40
0.6763683861878106
 50
4.875388648116833
 51
115.1246113299738
  0
ARC
  5
2B6
  8
DATA
  6
CONTINUOUS
 62
     7
 10
103.7523073565723
 20
-1177.440355683515
 30
0.0
 40
0.1892886329075887
 50
119.056679072011
 51
300.9433211183991
  0
ARC
  5
2B7
  8
DATA
  6
CONTINUOUS
 62
     7
 10
103.273631613825
 20
-1176.71999999997
 30
0.0
 40
0.6763683861880757
 50
304.8753886481243
 51
55.12461132996302
  0
ARC
  5
2B8
  8
DATA
  6
CONTINUOUS
 62
     7
 10
104.999999999977
 20
-1175.279288632908
 30
0.0
 40
0.1892886329077032
 50
359.0566788815885
 51
180.9433209280187
  0
ARC
  5
2B9
  8
DATA
  6
CONTINUOUS
 62
     7
 10
104.1368158068932
 20
-1175.224921121286
 30
0.0
 40
0.676368386187752
 50
244.8753886700262
 51
355.1246113518832
  0
ARC
  5
2BA
  8
DATA
  6
CONTINUOUS
 62
     7
 10
103.7523073565723
 20
-1175.999644316485
 30
0.0
 40
0.1892886329076225
 50
59.05667888160091
 51
240.943320927989
  0
ARC
  5
2BB
  8
DATA
  6
CONTINUOUS
 62
     7
 10
105.8631841930608
 20
-1178.215078878714
 30
0.0
 40
0.676368386187752
 50
64.87538867002621
 51
175.124611351884
  0
ARC
  5
2BC
  8
DATA
  6
CONTINUOUS
 62
     7
 10
106.2476926433817
 20
-1177.440355683515
 30
0.0
 40
0.1892886329076225
 50
239.0566788816009
 51
60.94332092798902
  0
ARC
  5
2BD
  8
DATA
  6
CONTINUOUS
 62
     7
 10
106.7263683861288
 20
-1176.71999999997
 30
0.0
 40
0.6763683861878752
 50
124.8753886700291
 51
235.1246113518836
  0
ARC
  5
2BE
  8
DATA
  6
CONTINUOUS
 62
     7
 10
105.8631841930608
 20
-1175.224921121286
 30
0.0
 40
0.6763683861879238
 50
184.875388648116
 51
295.1246113299738
  0
ARC
  5
2BF
  8
DATA
  6
CONTINUOUS
 62
     7
 10
106.2476926433817
 20
-1175.999644316485
 30
0.0
 40
0.1892886329075887
 50
299.056679072011
 51
120.9433211183991
  0
CIRCLE
  5
2C0
  8
DATA
  6
CONTINUOUS
 62
     7
 10
105.0
 20
-1176.72
 30
0.0
 40
3.5
  0
ARC
  5
2C1
  8
DATA
  6
CONTINUOUS
 62
     7
 10
-30.00000000000045
 20
-943.2199999999996
 30
0.0
 40
29.99999999999955
 50
89.99999999999892
 51
180.0000000000009
  0
LINE
  5
2C2
  8
DATA
  6
CONTINUOUS
 62
     7
 10
-60.00000000000011
 20
-1153.22
 30
0.0
 11
-60.0
 21
-943.22
 31
0.0
  0
ARC
  5
2C3
  8
DATA
  6
CONTINUOUS
 62
     7
 10
-29.99999999999989
 20
-1153.22
 30
0.0
 40
30.00000000000023
 50
180.0000000000004
 51
269.9999999999996
  0
LINE
  5
2C4
  8
DATA
  6
CONTINUOUS
 62
     7
 10
130.0
 20
-1183.22
 30
0.0
 11
-30.00000000000011
 21
-1183.22
 31
0.0
  0
ARC
  5
2C5
  8
DATA
  6
CONTINUOUS
 62
     7
 10
130.0000000000002
 20
-1153.22
 30
0.0
 40
29.99999999999955
 50
269.9999999999996
 51
0.0000000000008527
  0
LINE
  5
2C6
  8
DATA
  6
CONTINUOUS
 62
     7
 10
160.0000000000001
 20
-943.22
 30
0.0
 11
160.0
 21
-1153.22
 31
0.0
  0
ARC
  5
2C7
  8
DATA
  6
CONTINUOUS
 62
     7
 10
130.0000000000003
 20
-943.2199999999999
 30
0.0
 40
29.99999999999977
 50
359.9999999999998
 51
90.00000000000063
  0
LINE
  5
2C8
  8
DATA
  6
CONTINUOUS
 62
     7
 10
130.0
 20
-913.2199999999999
 30
0.0
 11
-30.00000000000011
 21
-913.22
 31
0.0
  0
ARC
  5
2C9
  8
DATA
  6
CONTINUOUS
 62
     7
 10
-54.00000000002296
 20
-962.2792886329078
 30
0.0
 40
0.1892886329077032
 50
359.0566788815885
 51
180.9433209280187
  0
ARC
  5
2CA
  8
DATA
  6
CONTINUOUS
 62
     7
 10
-54.8631841931068
 20
-962.2249211212859
 30
0.0
 40
0.676368386187752
 50
244.8753886700262
 51
355.1246113518832
  0
ARC
  5
2CB
  8
DATA
  6
CONTINUOUS
 62
     7
 10
-55.24769264342774
 20
-962.9996443164853
 30
0.0
 40
0.1892886329076225
 50
59.05667888160091
 51
240.943320927989
  0
ARC
  5
2CC
  8
DATA
  6
CONTINUOUS
 62
     7
 10
-55.72636838617495
 20
-963.72000000003
 30
0.0
 40
0.6763683861879403
 50
304.875388670037
 51
55.1246113518757
  0
ARC
  5
2CD
  8
DATA
  6
CONTINUOUS
 62
     7
 10
-54.00000000002296
 20
-965.1607113670923
 30
0.0
 40
0.1892886329078069
 50
179.0566790719813
 51
0.9433211184115464
  0
ARC
  5
2CE
  8
DATA
  6
CONTINUOUS
 62
     7
 10
-54.8631841931068
 20
-965.2150788787142
 30
0.0
 40
0.6763683861878106
 50
4.875388648116833
 51
115.1246113299738
  0
ARC
  5
2CF
  8
DATA
  6
CONTINUOUS
 62
     7
 10
-55.24769264342774
 20
-964.4403556835148
 30
0.0
 40
0.1892886329075887
 50
119.056679072011
 51
300.9433211183991
  0
ARC
  5
2D0
  8
DATA
  6
CONTINUOUS
 62
     7
 10
-53.13681580693924
 20
-962.2249211212859
 30
0.0
 40
0.6763683861879238
 50
184.875388648116
 51
295.1246113299738
  0
ARC
  5
2D1
  8
DATA
  6
CONTINUOUS
 62
     7
 10
-52.7523073566183
 20
-962.9996443164853
 30
0.0
 40
0.1892886329075887
 50
299.056679072011
 51
120.9433211183991
  0
ARC
  5
2D2
  8
DATA
  6
CONTINUOUS
 62
     7
 10
-52.2736316138712
 20
-963.72000000003
 30
0.0
 40
0.6763683861880107
 50
124.8753886481164
 51
235.124611329971
  0
ARC
  5
2D3
  8
DATA
  6
CONTINUOUS
 62
     7
 10
-53.13681580693924
 20
-965.2150788787142
 30
0.0
 40
0.676368386187752
 50
64.87538867002621
 51
175.124611351884
  0
ARC
  5
2D4
  8
DATA
  6
CONTINUOUS
 62
     7
 10
-52.7523073566183
 20
-964.4403556835148
 30
0.0
 40
0.1892886329076225
 50
239.0566788816009
 51
60.94332092798902
  0
CIRCLE
  5
2D5
  8
DATA
  6
CONTINUOUS
 62
     7
 10
-54.0
 20
-963.72
 30
0.0
 40
3.5
  0
ARC
  5
2D6
  8
DATA
  6
CONTINUOUS
 62
     7
 10
-54.00000000002296
 20
-1046.779288632908
 30
0.0
 40
0.1892886329077032
 50
359.0566788815885
 51
180.9433209280187
  0
ARC
  5
2D7
  8
DATA
  6
CONTINUOUS
 62
     7
 10
-54.8631841931068
 20
-1046.724921121286
 30
0.0
 40
0.676368386187752
 50
244.8753886700262
 51
355.1246113518832
  0
ARC
  5
2D8
  8
DATA
  6
CONTINUOUS
 62
     7
 10
-55.24769264342774
 20
-1047.499644316485
 30
0.0
 40
0.1892886329076225
 50
59.05667888160091
 51
240.943320927989
  0
ARC
  5
2D9
  8
DATA
  6
CONTINUOUS
 62
     7
 10
-55.72636838617495
 20
-1048.22000000003
 30
0.0
 40
0.6763683861879403
 50
304.875388670037
 51
55.1246113518757
  0
ARC
  5
2DA
  8
DATA
  6
CONTINUOUS
 62
     7
 10
-54.00000000002296
 20
-1049.660711367092
 30
0.0
 40
0.1892886329078069
 50
179.0566790719813
 51
0.9433211184115464
  0
ARC
  5
2DB
  8
DATA
  6
CONTINUOUS
 62
     7
 10
-54.8631841931068
 20
-1049.715078878714
 30
0.0
 40
0.6763683861878106
 50
4.875388648116833
 51
115.1246113299738
  0
ARC
  5
2DC
  8
DATA
  6
CONTINUOUS
 62
     7
 10
-55.24769264342774
 20
-1048.940355683515
 30
0.0
 40
0.1892886329075887
 50
119.056679072011
 51
300.9433211183991
  0
ARC
  5
2DD
  8
DATA
  6
CONTINUOUS
 62
     7
 10
-53.13681580693924
 20
-1046.724921121286
 30
0.0
 40
0.6763683861879238
 50
184.875388648116
 51
295.1246113299738
  0
ARC
  5
2DE
  8
DATA
  6
CONTINUOUS
 62
     7
 10
-52.7523073566183
 20
-1047.499644316485
 30
0.0
 40
0.1892886329075887
 50
299.056679072011
 51
120.9433211183991
  0
ARC
  5
2DF
  8
DATA
  6
CONTINUOUS
 62
     7
 10
-52.2736316138712
 20
-1048.22000000003
 30
0.0
 40
0.6763683861880107
 50
124.8753886481164
 51
235.124611329971
  0
ARC
  5
2E0
  8
DATA
  6
CONTINUOUS
 62
     7
 10
-53.13681580693924
 20
-1049.715078878714
 30
0.0
 40
0.676368386187752
 50
64.87538867002621
 51
175.124611351884
  0
ARC
  5
2E1
  8
DATA
  6
CONTINUOUS
 62
     7
 10
-52.7523073566183
 20
-1048.940355683515
 30
0.0
 40
0.1892886329076225
 50
239.0566788816009
 51
60.94332092798902
  0
CIRCLE
  5
2E2
  8
DATA
  6
CONTINUOUS
 62
     7
 10
-54.0
 20
-1048.22
 30
0.0
 40
3.5
  0
ARC
  5
2E3
  8
DATA
  6
CONTINUOUS
 62
     7
 10
-54.00000000002296
 20
-1131.279288632908
 30
0.0
 40
0.1892886329077032
 50
359.0566788815885
 51
180.9433209280187
  0
ARC
  5
2E4
  8
DATA
  6
CONTINUOUS
 62
     7
 10
-54.8631841931068
 20
-1131.224921121286
 30
0.0
 40
0.676368386187752
 50
244.8753886700262
 51
355.1246113518832
  0
ARC
  5
2E5
  8
DATA
  6
CONTINUOUS
 62
     7
 10
-55.24769264342774
 20
-1131.999644316485
 30
0.0
 40
0.1892886329076225
 50
59.05667888160091
 51
240.943320927989
  0
ARC
  5
2E6
  8
DATA
  6
CONTINUOUS
 62
     7
 10
-55.72636838617495
 20
-1132.72000000003
 30
0.0
 40
0.6763683861879403
 50
304.875388670037
 51
55.1246113518757
  0
ARC
  5
2E7
  8
DATA
  6
CONTINUOUS
 62
     7
 10
-54.00000000002296
 20
-1134.160711367092
 30
0.0
 40
0.1892886329078069
 50
179.0566790719813
 51
0.9433211184115464
  0
ARC
  5
2E8
  8
DATA
  6
CONTINUOUS
 62
     7
 10
-54.8631841931068
 20
-1134.215078878714
 30
0.0
 40
0.6763683861878106
 50
4.875388648116833
 51
115.1246113299738
  0
ARC
  5
2E9
  8
DATA
  6
CONTINUOUS
 62
     7
 10
-55.24769264342774
 20
-1133.440355683515
 30
0.0
 40
0.1892886329075887
 50
119.056679072011
 51
300.9433211183991
  0
ARC
  5
2EA
  8
DATA
  6
CONTINUOUS
 62
     7
 10
-53.13681580693924
 20
-1131.224921121286
 30
0.0
 40
0.6763683861879238
 50
184.875388648116
 51
295.1246113299738
  0
ARC
  5
2EB
  8
DATA
  6
CONTINUOUS
 62
     7
 10
-52.7523073566183
 20
-1131.999644316485
 30
0.0
 40
0.1892886329075887
 50
299.056679072011
 51
120.9433211183991
  0
ARC
  5
2EC
  8
DATA
  6
CONTINUOUS
 62
     7
 10
-52.2736316138712
 20
-1132.72000000003
 30
0.0
 40
0.6763683861880107
 50
124.8753886481164
 51
235.124611329971
  0
ARC
  5
2ED
  8
DATA
  6
CONTINUOUS
 62
     7
 10
-53.13681580693924
 20
-1134.215078878714
 30
0.0
 40
0.676368386187752
 50
64.87538867002621
 51
175.124611351884
  0
ARC
  5
2EE
  8
DATA
  6
CONTINUOUS
 62
     7
 10
-52.7523073566183
 20
-1133.440355683515
 30
0.0
 40
0.1892886329076225
 50
239.0566788816009
 51
60.94332092798902
  0
CIRCLE
  5
2EF
  8
DATA
  6
CONTINUOUS
 62
     7
 10
-54.0
 20
-1132.72
 30
0.0
 40
3.5
  0
ARC
  5
2F0
  8
DATA
  6
CONTINUOUS
 62
     7
 10
154.000000000023
 20
-962.2792886329078
 30
0.0
 40
0.1892886329078069
 50
359.0566790719813
 51
180.9433211184115
  0
ARC
  5
2F1
  8
DATA
  6
CONTINUOUS
 62
     7
 10
154.8631841931068
 20
-962.2249211212859
 30
0.0
 40
0.6763683861878106
 50
184.8753886481168
 51
295.1246113299738
  0
ARC
  5
2F2
  8
DATA
  6
CONTINUOUS
 62
     7
 10
155.2476926434277
 20
-962.9996443164853
 30
0.0
 40
0.1892886329075887
 50
299.056679072011
 51
120.9433211183991
  0
ARC
  5
2F3
  8
DATA
  6
CONTINUOUS
 62
     7
 10
155.726368386175
 20
-963.72000000003
 30
0.0
 40
0.6763683861880757
 50
124.8753886481243
 51
235.124611329963
  0
ARC
  5
2F4
  8
DATA
  6
CONTINUOUS
 62
     7
 10
154.000000000023
 20
-965.1607113670923
 30
0.0
 40
0.1892886329077032
 50
179.0566788815885
 51
0.9433209280187499
  0
ARC
  5
2F5
  8
DATA
  6
CONTINUOUS
 62
     7
 10
154.8631841931068
 20
-965.2150788787142
 30
0.0
 40
0.676368386187752
 50
64.87538867002621
 51
175.1246113518832
  0
ARC
  5
2F6
  8
DATA
  6
CONTINUOUS
 62
     7
 10
155.2476926434277
 20
-964.4403556835148
 30
0.0
 40
0.1892886329076225
 50
239.0566788816009
 51
60.94332092798902
  0
ARC
  5
2F7
  8
DATA
  6
CONTINUOUS
 62
     7
 10
153.1368158069392
 20
-962.2249211212859
 30
0.0
 40
0.676368386187752
 50
244.8753886700262
 51
355.124611351884
  0
ARC
  5
2F8
  8
DATA
  6
CONTINUOUS
 62
     7
 10
152.7523073566183
 20
-962.9996443164853
 30
0.0
 40
0.1892886329076225
 50
59.05667888160091
 51
240.943320927989
  0
ARC
  5
2F9
  8
DATA
  6
CONTINUOUS
 62
     7
 10
152.2736316138712
 20
-963.72000000003
 30
0.0
 40
0.6763683861878752
 50
304.8753886700291
 51
55.12461135188364
  0
ARC
  5
2FA
  8
DATA
  6
CONTINUOUS
 62
     7
 10
153.1368158069392
 20
-965.2150788787142
 30
0.0
 40
0.6763683861879238
 50
4.875388648116016
 51
115.1246113299738
  0
ARC
  5
2FB
  8
DATA
  6
CONTINUOUS
 62
     7
 10
152.7523073566183
 20
-964.4403556835148
 30
0.0
 40
0.1892886329075887
 50
119.056679072011
 51
300.9433211183991
  0
CIRCLE
  5
2FC
  8
DATA
  6
CONTINUOUS
 62
     7
 10
154.0
 20
-963.72
 30
0.0
 40
3.5
  0
ARC
  5
2FD
  8
DATA
  6
CONTINUOUS
 62
     7
 10
154.000000000023
 20
-1046.779288632908
 30
0.0
 40
0.1892886329078069
 50
359.0566790719813
 51
180.9433211184115
  0
ARC
  5
2FE
  8
DATA
  6
CONTINUOUS
 62
     7
 10
154.8631841931068
 20
-1046.724921121286
 30
0.0
 40
0.6763683861878106
 50
184.8753886481168
 51
295.1246113299738
  0
ARC
  5
2FF
  8
DATA
  6
CONTINUOUS
 62
     7
 10
155.2476926434277
 20
-1047.499644316485
 30
0.0
 40
0.1892886329075887
 50
299.056679072011
 51
120.9433211183991
  0
ARC
  5
300
  8
DATA
  6
CONTINUOUS
 62
     7
 10
155.726368386175
 20
-1048.22000000003
 30
0.0
 40
0.6763683861880757
 50
124.8753886481243
 51
235.124611329963
  0
ARC
  5
301
  8
DATA
  6
CONTINUOUS
 62
     7
 10
154.000000000023
 20
-1049.660711367092
 30
0.0
 40
0.1892886329077032
 50
179.0566788815885
 51
0.9433209280187499
  0
ARC
  5
302
  8
DATA
  6
CONTINUOUS
 62
     7
 10
154.8631841931068
 20
-1049.715078878714
 30
0.0
 40
0.676368386187752
 50
64.87538867002621
 51
175.1246113518832
  0
ARC
  5
303
  8
DATA
  6
CONTINUOUS
 62
     7
 10
155.2476926434277
 20
-1048.940355683515
 30
0.0
 40
0.1892886329076225
 50
239.0566788816009
 51
60.94332092798902
  0
ARC
  5
304
  8
DATA
  6
CONTINUOUS
 62
     7
 10
153.1368158069392
 20
-1046.724921121286
 30
0.0
 40
0.676368386187752
 50
244.8753886700262
 51
355.124611351884
  0
ARC
  5
305
  8
DATA
  6
CONTINUOUS
 62
     7
 10
152.7523073566183
 20
-1047.499644316485
 30
0.0
 40
0.1892886329076225
 50
59.05667888160091
 51
240.943320927989
  0
ARC
  5
306
  8
DATA
  6
CONTINUOUS
 62
     7
 10
152.2736316138712
 20
-1048.22000000003
 30
0.0
 40
0.6763683861878752
 50
304.8753886700291
 51
55.12461135188364
  0
ARC
  5
307
  8
DATA
  6
CONTINUOUS
 62
     7
 10
153.1368158069392
 20
-1049.715078878714
 30
0.0
 40
0.6763683861879238
 50
4.875388648116016
 51
115.1246113299738
  0
ARC
  5
308
  8
DATA
  6
CONTINUOUS
 62
     7
 10
152.7523073566183
 20
-1048.940355683515
 30
0.0
 40
0.1892886329075887
 50
119.056679072011
 51
300.9433211183991
  0
CIRCLE
  5
309
  8
DATA
  6
CONTINUOUS
 62
     7
 10
154.0
 20
-1048.22
 30
0.0
 40
3.5
  0
ARC
  5
30A
  8
DATA
  6
CONTINUOUS
 62
     7
 10
154.000000000023
 20
-1131.279288632908
 30
0.0
 40
0.1892886329078069
 50
359.0566790719813
 51
180.9433211184115
  0
ARC
  5
30B
  8
DATA
  6
CONTINUOUS
 62
     7
 10
154.8631841931068
 20
-1131.224921121286
 30
0.0
 40
0.6763683861878106
 50
184.8753886481168
 51
295.1246113299738
  0
ARC
  5
30C
  8
DATA
  6
CONTINUOUS
 62
     7
 10
155.2476926434277
 20
-1131.999644316485
 30
0.0
 40
0.1892886329075887
 50
299.056679072011
 51
120.9433211183991
  0
ARC
  5
30D
  8
DATA
  6
CONTINUOUS
 62
     7
 10
155.726368386175
 20
-1132.72000000003
 30
0.0
 40
0.6763683861880757
 50
124.8753886481243
 51
235.124611329963
  0
ARC
  5
30E
  8
DATA
  6
CONTINUOUS
 62
     7
 10
154.000000000023
 20
-1134.160711367092
 30
0.0
 40
0.1892886329077032
 50
179.0566788815885
 51
0.9433209280187499
  0
ARC
  5
30F
  8
DATA
  6
CONTINUOUS
 62
     7
 10
154.8631841931068
 20
-1134.215078878714
 30
0.0
 40
0.676368386187752
 50
64.87538867002621
 51
175.1246113518832
  0
ARC
  5
310
  8
DATA
  6
CONTINUOUS
 62
     7
 10
155.2476926434277
 20
-1133.440355683515
 30
0.0
 40
0.1892886329076225
 50
239.0566788816009
 51
60.94332092798902
  0
ARC
  5
311
  8
DATA
  6
CONTINUOUS
 62
     7
 10
153.1368158069392
 20
-1131.224921121286
 30
0.0
 40
0.676368386187752
 50
244.8753886700262
 51
355.124611351884
  0
ARC
  5
312
  8
DATA
  6
CONTINUOUS
 62
     7
 10
152.7523073566183
 20
-1131.999644316485
 30
0.0
 40
0.1892886329076225
 50
59.05667888160091
 51
240.943320927989
  0
ARC
  5
313
  8
DATA
  6
CONTINUOUS
 62
     7
 10
152.2736316138712
 20
-1132.72000000003
 30
0.0
 40
0.6763683861878752
 50
304.8753886700291
 51
55.12461135188364
  0
ARC
  5
314
  8
DATA
  6
CONTINUOUS
 62
     7
 10
153.1368158069392
 20
-1134.215078878714
 30
0.0
 40
0.6763683861879238
 50
4.875388648116016
 51
115.1246113299738
  0
ARC
  5
315
  8
DATA
  6
CONTINUOUS
 62
     7
 10
152.7523073566183
 20
-1133.440355683515
 30
0.0
 40
0.1892886329075887
 50
119.056679072011
 51
300.9433211183991
  0
CIRCLE
  5
316
  8
DATA
  6
CONTINUOUS
 62
     7
 10
154.0
 20
-1132.72
 30
0.0
 40
3.5
  0
ARC
  5
317
  8
DATA
  6
CONTINUOUS
 62
     7
 10
-31.00000000000045
 20
-943.2199999999996
 30
0.0
 40
13.99999999999955
 50
90.0
 51
180.0
  0
ARC
  5
318
  8
DATA
  6
CONTINUOUS
 62
     7
 10
-31.00000000000045
 20
-1153.22
 30
0.0
 40
13.99999999999955
 50
180.0
 51
270.0
  0
ARC
  5
319
  8
DATA
  6
CONTINUOUS
 62
     7
 10
131.0000000000005
 20
-943.2199999999996
 30
0.0
 40
13.99999999999955
 50
0.0
 51
90.0
  0
ARC
  5
31A
  8
DATA
  6
CONTINUOUS
 62
     7
 10
131.0000000000005
 20
-1153.22
 30
0.0
 40
13.99999999999955
 50
270.0
 51
0.0
  0
LINE
  5
31B
  8
DATA
  6
CONTINUOUS
 62
     7
 10
-31.00000000000045
 20
-929.22
 30
0.0
 11
131.0000000000005
 21
-929.22
 31
0.0
  0
LINE
  5
31C
  8
DATA
  6
CONTINUOUS
 62
     7
 10
145.0
 20
-1153.22
 30
0.0
 11
145.0
 21
-943.2199999999996
 31
0.0
  0
LINE
  5
31D
  8
DATA
  6
CONTINUOUS
 62
     7
 10
131.0000000000005
 20
-1167.22
 30
0.0
 11
-31.00000000000034
 21
-1167.22
 31
0.0
  0
LINE
  5
31E
  8
DATA
  6
CONTINUOUS
 62
     7
 10
-45.0
 20
-1153.22
 30
0.0
 11
-45.0
 21
-943.2199999999996
 31
0.0
  0
LINE
  5
31F
  8
DATA
  6
CONTINUOUS
 62
     7
 10
-40.0
 20
-1153.22
 30
0.0
 11
-40.0
 21
-943.2199999999996
 31
0.0
  0
LINE
  5
320
  8
DATA
  6
CONTINUOUS
 62
     7
 10
-30.00000000000045
 20
-933.22
 30
0.0
 11
130.0000000000005
 21
-933.22
 31
0.0
  0
LINE
  5
321
  8
DATA
  6
CONTINUOUS
 62
     7
 10
130.0000000000006
 20
-1163.22
 30
0.0
 11
-30.00000000000045
 21
-1163.22
 31
0.0
  0
ARC
  5
322
  8
DATA
  6
CONTINUOUS
 62
     7
 10
-30.00000000000045
 20
-943.2199999999996
 30
0.0
 40
9.999999999999545
 50
90.0
 51
180.0
  0
ARC
  5
323
  8
DATA
  6
CONTINUOUS
 62
     7
 10
130.0000000000005
 20
-943.2199999999996
 30
0.0
 40
9.999999999999545
 50
0.0
 51
90.0
  0
ARC
  5
324
  8
DATA
  6
CONTINUOUS
 62
     7
 10
-30.00000000000045
 20
-1153.22
 30
0.0
 40
9.999999999999545
 50
180.0
 51
270.0
  0
ARC
  5
325
  8
DATA
  6
CONTINUOUS
 62
     7
 10
130.0000000000005
 20
-1153.22
 30
0.0
 40
9.999999999999545
 50
270.0
 51
0.0
  0
LINE
  5
326
  8
DATA
  6
CONTINUOUS
 62
     7
 10
140.0
 20
-943.2199999999996
 30
0.0
 11
140.0
 21
-1153.22
 31
0.0
  0
CIRCLE
  5
327
  8
DATA
  6
CONTINUOUS
 62
     7
 10
24.0
 20
-975.22
 30
0.0
 40
10.5
  0
ARC
  5
328
  8
DATA
  6
CONTINUOUS
 62
     7
 10
23.9999999999992
 20
-975.2200000000006
 30
0.0
 40
3.999999999999142
 50
247.1807557814674
 51
232.8192442185452
  0
LINE
  5
329
  8
DATA
  6
CONTINUOUS
 62
     7
 10
21.58267381480925
 20
-978.4069317712169
 30
0.0
 11
18.32294305725725
 21
-984.0529510622923
 31
0.0
  0
LINE
  5
32A
  8
DATA
  6
CONTINUOUS
 62
     7
 10
22.44869921859379
 20
-978.9069317712168
 30
0.0
 11
19.18896846104155
 21
-984.5529510622925
 31
0.0
  0
LINE
  5
32B
  8
DATA
  6
CONTINUOUS
 62
     7
 10
13.5
 20
-975.22
 30
0.0
 11
12.0
 21
-975.22
 31
0.0
  0
LINE
  5
32C
  8
DATA
  6
CONTINUOUS
 62
     7
 10
13.58982895557506
 20
-973.8494749816895
 30
0.0
 11
12.10266166351437
 21
-973.6536856933594
 31
0.0
  0
LINE
  5
32D
  8
DATA
  6
CONTINUOUS
 62
     7
 10
13.85777882396496
 20
-972.5024000264235
 30
0.0
 11
12.40889008453132
 21
-972.1141714587698
 31
0.0
  0
LINE
  5
32E
  8
DATA
  6
CONTINUOUS
 62
     7
 10
14.2992649086317
 20
-971.2018239601665
 30
0.0
 11
12.91344560986477
 21
-970.627798811619
 31
0.0
  0
LINE
  5
32F
  8
DATA
  6
CONTINUOUS
 62
     7
 10
14.90673326026376
 20
-969.9699999999999
 30
0.0
 11
13.60769515458708
 21
-969.22
 31
0.0
  0
LINE
  5
330
  8
DATA
  6
CONTINUOUS
 62
     7
 10
15.66978992694249
 20
-968.8280049954085
 30
0.0
 11
14.47975991650583
 21
-967.9148628518955
 31
0.0
  0
LINE
  5
331
  8
DATA
  6
CONTINUOUS
 62
     7
 10
16.57537879754204
 20
-967.7953787975414
 30
0.0
 11
15.51471862576216
 21
-966.7347186257615
 31
0.0
  0
LINE
  5
332
  8
DATA
  6
CONTINUOUS
 62
     7
 10
17.60800499540926
 20
-966.8897899269423
 30
0.0
 11
16.69486285189623
 21
-965.6997599165055
 31
0.0
  0
LINE
  5
333
  8
DATA
  6
CONTINUOUS
 62
     7
 10
18.75000000000114
 20
-966.1267332602637
 30
0.0
 11
18.00000000000102
 21
-964.8276951545871
 31
0.0
  0
LINE
  5
334
  8
DATA
  6
CONTINUOUS
 62
     7
 10
19.9818239601675
 20
-965.5192649086312
 30
0.0
 11
19.40779881161984
 21
-964.1334456098642
 31
0.0
  0
LINE
  5
335
  8
DATA
  6
CONTINUOUS
 62
     7
 10
21.28240002642451
 20
-965.0777788239648
 30
0.0
 11
20.89417145877076
 21
-963.628890084531
 31
0.0
  0
LINE
  5
336
  8
DATA
  6
CONTINUOUS
 62
     7
 10
22.62947498169046
 20
-964.8098289555751
 30
0.0
 11
22.43368569336042
 21
-963.3226616635143
 31
0.0
  0
LINE
  5
337
  8
DATA
  6
CONTINUOUS
 62
     7
 10
24.00000000000114
 20
-964.7200000000003
 30
0.0
 11
24.00000000000114
 21
-963.2200000000003
 31
0.0
  0
LINE
  5
338
  8
DATA
  6
CONTINUOUS
 62
     7
 10
17.60800499540835
 20
-983.5502100730582
 30
0.0
 11
16.69486285189544
 21
-984.7402400834951
 31
0.0
  0
LINE
  5
339
  8
DATA
  6
CONTINUOUS
 62
     7
 10
16.57537879754125
 20
-982.6446212024589
 30
0.0
 11
15.51471862576147
 21
-983.7052813742389
 31
0.0
  0
LINE
  5
33A
  8
DATA
  6
CONTINUOUS
 62
     7
 10
15.66978992694192
 20
-981.6119950045918
 30
0.0
 11
14.47975991650515
 21
-982.5251371481049
 31
0.0
  0
LINE
  5
33B
  8
DATA
  6
CONTINUOUS
 62
     7
 10
14.90673326026308
 20
-980.4700000000003
 30
0.0
 11
13.60769515458662
 21
-981.2200000000004
 31
0.0
  0
LINE
  5
33C
  8
DATA
  6
CONTINUOUS
 62
     7
 10
14.29926490863124
 20
-979.2381760398335
 30
0.0
 11
12.91344560986443
 21
-979.8122011883813
 31
0.0
  0
LINE
  5
33D
  8
DATA
  6
CONTINUOUS
 62
     7
 10
13.85777882396451
 20
-977.9375999735767
 30
0.0
 11
12.40889008453109
 21
-978.3258285412304
 31
0.0
  0
LINE
  5
33E
  8
DATA
  6
CONTINUOUS
 62
     7
 10
13.58982895557483
 20
-976.5905250183105
 30
0.0
 11
12.10266166351414
 21
-976.7863143066407
 31
0.0
  0
LINE
  5
33F
  8
DATA
  6
CONTINUOUS
 62
     7
 10
18.75000000000057
 20
-984.3132667397373
 30
0.0
 11
18.00000000000091
 21
-985.6123048454139
 31
0.0
  0
LINE
  5
340
  8
DATA
  6
CONTINUOUS
 62
     7
 10
34.49999999999841
 20
-975.22
 30
0.0
 11
35.99999999999841
 21
-975.22
 31
0.0
  0
LINE
  5
341
  8
DATA
  6
CONTINUOUS
 62
     7
 10
34.41017104442335
 20
-973.8494749816895
 30
0.0
 11
35.89733833648404
 21
-973.6536856933594
 31
0.0
  0
LINE
  5
342
  8
DATA
  6
CONTINUOUS
 62
     7
 10
34.14222117603344
 20
-972.5024000264235
 30
0.0
 11
35.59110991546709
 21
-972.1141714587698
 31
0.0
  0
LINE
  5
343
  8
DATA
  6
CONTINUOUS
 62
     7
 10
33.70073509136671
 20
-971.2018239601665
 30
0.0
 11
35.08655439013364
 21
-970.627798811619
 31
0.0
  0
LINE
  5
344
  8
DATA
  6
CONTINUOUS
 62
     7
 10
33.09326673973464
 20
-969.9699999999999
 30
0.0
 11
34.39230484541133
 21
-969.22
 31
0.0
  0
LINE
  5
345
  8
DATA
  6
CONTINUOUS
 62
     7
 10
32.33021007305592
 20
-968.8280049954085
 30
0.0
 11
33.52024008349258
 21
-967.9148628518955
 31
0.0
  0
LINE
  5
346
  8
DATA
  6
CONTINUOUS
 62
     7
 10
31.42462120245636
 20
-967.7953787975414
 30
0.0
 11
32.48528137423625
 21
-966.7347186257615
 31
0.0
  0
LINE
  5
347
  8
DATA
  6
CONTINUOUS
 62
     7
 10
30.39199500458915
 20
-966.8897899269423
 30
0.0
 11
31.30513714810218
 21
-965.6997599165055
 31
0.0
  0
LINE
  5
348
  8
DATA
  6
CONTINUOUS
 62
     7
 10
29.24999999999727
 20
-966.1267332602637
 30
0.0
 11
29.99999999999739
 21
-964.8276951545871
 31
0.0
  0
LINE
  5
349
  8
DATA
  6
CONTINUOUS
 62
     7
 10
28.01817603983091
 20
-965.5192649086312
 30
0.0
 11
28.59220118837857
 21
-964.1334456098642
 31
0.0
  0
LINE
  5
34A
  8
DATA
  6
CONTINUOUS
 62
     7
 10
26.7175999735739
 20
-965.0777788239648
 30
0.0
 11
27.10582854122765
 21
-963.628890084531
 31
0.0
  0
LINE
  5
34B
  8
DATA
  6
CONTINUOUS
 62
     7
 10
25.37052501830794
 20
-964.8098289555751
 30
0.0
 11
25.56631430663799
 21
-963.3226616635143
 31
0.0
  0
LINE
  5
34C
  8
DATA
  6
CONTINUOUS
 62
     7
 10
30.39199500459006
 20
-983.5502100730582
 30
0.0
 11
31.30513714810297
 21
-984.7402400834951
 31
0.0
  0
LINE
  5
34D
  8
DATA
  6
CONTINUOUS
 62
     7
 10
31.42462120245716
 20
-982.6446212024589
 30
0.0
 11
32.48528137423693
 21
-983.7052813742389
 31
0.0
  0
LINE
  5
34E
  8
DATA
  6
CONTINUOUS
 62
     7
 10
32.33021007305649
 20
-981.6119950045918
 30
0.0
 11
33.52024008349326
 21
-982.5251371481049
 31
0.0
  0
LINE
  5
34F
  8
DATA
  6
CONTINUOUS
 62
     7
 10
33.09326673973533
 20
-980.4700000000003
 30
0.0
 11
34.39230484541179
 21
-981.2200000000004
 31
0.0
  0
LINE
  5
350
  8
DATA
  6
CONTINUOUS
 62
     7
 10
33.70073509136716
 20
-979.2381760398335
 30
0.0
 11
35.08655439013398
 21
-979.8122011883813
 31
0.0
  0
LINE
  5
351
  8
DATA
  6
CONTINUOUS
 62
     7
 10
34.1422211760339
 20
-977.9375999735767
 30
0.0
 11
35.59110991546731
 21
-978.3258285412304
 31
0.0
  0
LINE
  5
352
  8
DATA
  6
CONTINUOUS
 62
     7
 10
34.41017104442358
 20
-976.5905250183105
 30
0.0
 11
35.89733833648427
 21
-976.7863143066407
 31
0.0
  0
LINE
  5
353
  8
DATA
  6
CONTINUOUS
 62
     7
 10
29.24999999999784
 20
-984.3132667397373
 30
0.0
 11
29.9999999999975
 21
-985.6123048454139
 31
0.0
  0
CIRCLE
  5
354
  8
DATA
  6
CONTINUOUS
 62
     7
 10
-7.0
 20
-964.22
 30
0.0
 40
1.5
  0
CIRCLE
  5
355
  8
DATA
  6
CONTINUOUS
 62
     7
 10
32.0
 20
-959.22
 30
0.0
 40
1.5
  0
CIRCLE
  5
356
  8
DATA
  6
CONTINUOUS
 62
     7
 10
-7.0
 20
-973.22
 30
0.0
 40
3.75
  0
CIRCLE
  5
357
  8
DATA
  6
CONTINUOUS
 62
     7
 10
-7.0
 20
-990.72
 30
0.0
 40
3.75
  0
CIRCLE
  5
358
  8
DATA
  6
CONTINUOUS
 62
     7
 10
-7.0
 20
-1008.22
 30
0.0
 40
3.75
  0
CIRCLE
  5
359
  8
DATA
  6
CONTINUOUS
 62
     7
 10
5.0
 20
-990.72
 30
0.0
 40
1.5
  0
CIRCLE
  5
35A
  8
DATA
  6
CONTINUOUS
 62
     7
 10
17.5
 20
-990.72
 30
0.0
 40
1.5
  0
CIRCLE
  5
35B
  8
DATA
  6
CONTINUOUS
 62
     7
 10
30.0
 20
-990.72
 30
0.0
 40
1.5
  0
CIRCLE
  5
35C
  8
DATA
  6
CONTINUOUS
 62
     7
 10
5.0
 20
-1008.22
 30
0.0
 40
1.5
  0
ARC
  5
35D
  8
DATA
  6
CONTINUOUS
 62
     7
 10
-11.0500000000593
 20
-1036.22
 30
0.0
 40
1.249999999359646
 50
43.02037653382775
 51
316.9796234661723
  0
ARC
  5
35E
  8
DATA
  6
CONTINUOUS
 62
     7
 10
-7.0
 20
-1040.1699999994
 30
0.0
 40
1.249999999360322
 50
138.0403109326137
 51
41.95968906738636
  0
CIRCLE
  5
35F
  8
DATA
  6
CONTINUOUS
 62
     7
 10
-7.0
 20
-1036.22
 30
0.0
 40
9.749999999579813
  0
ARC
  5
360
  8
DATA
  6
CONTINUOUS
 62
     7
 10
-7.0
 20
-1036.22
 30
0.0
 40
7.84999999973978
 50
140.3930036383988
 51
129.6069963616012
  0
ARC
  5
361
  8
DATA
  6
CONTINUOUS
 62
     7
 10
-7.0
 20
-1036.22
 30
0.0
 40
3.249999999860068
 50
286.6189871434956
 51
344.7870620456986
  0
ARC
  5
362
  8
DATA
  6
CONTINUOUS
 62
     7
 10
-7.0
 20
-1036.22
 30
0.0
 40
3.249999999859666
 50
15.2129379543014
 51
164.7870620457028
  0
ARC
  5
363
  8
DATA
  6
CONTINUOUS
 62
     7
 10
-7.0
 20
-1036.22
 30
0.0
 40
3.249999999860544
 50
195.2129379542972
 51
253.3810128565044
  0
CIRCLE
  5
364
  8
DATA
  6
CONTINUOUS
 62
     7
 10
-16.89999999929933
 20
-1026.31999999816
 30
0.0
 40
1.750000000120053
  0
ARC
  5
365
  8
DATA
  6
CONTINUOUS
 62
     7
 10
-12.62149890938053
 20
-1030.59850108808
 30
0.0
 40
0.7500000011406873
 50
34.6497774144613
 51
235.3502225854992
  0
CIRCLE
  5
366
  8
DATA
  6
CONTINUOUS
 62
     7
 10
2.900000001840453
 20
-1046.1199999993
 30
0.0
 40
1.750000000120053
  0
ARC
  5
367
  8
DATA
  6
CONTINUOUS
 62
     7
 10
-2.949999999939791
 20
-1036.22
 30
0.0
 40
1.249999999359646
 50
223.0203765338277
 51
136.9796234661723
  0
LINE
  5
368
  8
DATA
  6
CONTINUOUS
 62
     7
 10
-15.74999999806005
 20
-1026.31999999816
 30
0.0
 11
-18.05000000053951
 21
-1026.31999999816
 31
0.0
  0
LINE
  5
369
  8
DATA
  6
CONTINUOUS
 62
     7
 10
-16.89999999929933
 20
-1027.4699999994
 30
0.0
 11
-16.89999999929933
 21
-1025.16999999692
 31
0.0
  0
LINE
  5
36A
  8
DATA
  6
CONTINUOUS
 62
     7
 10
4.050000003079731
 20
-1046.1199999993
 30
0.0
 11
1.750000000600267
 21
-1046.1199999993
 31
0.0
  0
LINE
  5
36B
  8
DATA
  6
CONTINUOUS
 62
     7
 10
2.900000001840453
 20
-1047.27000000054
 30
0.0
 11
2.900000001840453
 21
-1044.96999999806
 31
0.0
  0
ARC
  5
36C
  8
DATA
  6
CONTINUOUS
 62
     7
 10
-7.000000000000114
 20
-1070.22
 30
0.0
 40
7.84999999973978
 50
50.39300363839879
 51
39.60699636160123
  0
ARC
  5
36D
  8
DATA
  6
CONTINUOUS
 62
     7
 10
-1.378501090619579
 20
-1064.59850108808
 30
0.0
 40
0.7500000011399391
 50
304.6497774145008
 51
145.3502225855387
  0
CIRCLE
  5
36E
  8
DATA
  6
CONTINUOUS
 62
     7
 10
-7.000000000000114
 20
-1070.22
 30
0.0
 40
11.2499999993197
  0
CIRCLE
  5
36F
  8
DATA
  6
CONTINUOUS
 62
     7
 10
-7.000000000000114
 20
-1070.22
 30
0.0
 40
9.749999999579813
  0
CIRCLE
  5
370
  8
DATA
  6
CONTINUOUS
 62
     7
 10
-16.89999999929944
 20
-1060.31999999816
 30
0.0
 40
1.750000000120053
  0
CIRCLE
  5
371
  8
DATA
  6
CONTINUOUS
 62
     7
 10
2.90000000184034
 20
-1080.1199999993
 30
0.0
 40
1.750000000120053
  0
LINE
  5
372
  8
DATA
  6
CONTINUOUS
 62
     7
 10
-15.74999999806016
 20
-1060.31999999816
 30
0.0
 11
-18.05000000053963
 21
-1060.31999999816
 31
0.0
  0
LINE
  5
373
  8
DATA
  6
CONTINUOUS
 62
     7
 10
-16.89999999929944
 20
-1061.4699999994
 30
0.0
 11
-16.89999999929944
 21
-1059.16999999692
 31
0.0
  0
LINE
  5
374
  8
DATA
  6
CONTINUOUS
 62
     7
 10
4.050000003079617
 20
-1080.1199999993
 30
0.0
 11
1.750000000600153
 21
-1080.1199999993
 31
0.0
  0
LINE
  5
375
  8
DATA
  6
CONTINUOUS
 62
     7
 10
2.90000000184034
 20
-1081.27000000054
 30
0.0
 11
2.90000000184034
 21
-1078.96999999806
 31
0.0
  0
CIRCLE
  5
376
  8
DATA
  6
CONTINUOUS
 62
     7
 10
-11.05000000005941
 20
-1070.22
 30
0.0
 40
1.149999999999864
  0
CIRCLE
  5
377
  8
DATA
  6
CONTINUOUS
 62
     7
 10
-2.949999999939905
 20
-1070.22
 30
0.0
 40
1.149999999999864
  0
CIRCLE
  5
378
  8
DATA
  6
CONTINUOUS
 62
     7
 10
-7.000000000000114
 20
-1074.1699999994
 30
0.0
 40
1.149999999999864
  0
ARC
  5
379
  8
DATA
  6
CONTINUOUS
 62
     7
 10
21.4499999999407
 20
-1036.22
 30
0.0
 40
1.249999999359646
 50
43.02037653382775
 51
316.9796234661723
  0
ARC
  5
37A
  8
DATA
  6
CONTINUOUS
 62
     7
 10
25.5
 20
-1040.1699999994
 30
0.0
 40
1.249999999360322
 50
138.0403109326137
 51
41.95968906738636
  0
CIRCLE
  5
37B
  8
DATA
  6
CONTINUOUS
 62
     7
 10
25.5
 20
-1036.22
 30
0.0
 40
11.2499999993197
  0
CIRCLE
  5
37C
  8
DATA
  6
CONTINUOUS
 62
     7
 10
25.5
 20
-1036.22
 30
0.0
 40
9.749999999579813
  0
ARC
  5
37D
  8
DATA
  6
CONTINUOUS
 62
     7
 10
25.5
 20
-1036.22
 30
0.0
 40
7.84999999973978
 50
140.3930036383988
 51
129.6069963616012
  0
ARC
  5
37E
  8
DATA
  6
CONTINUOUS
 62
     7
 10
25.5
 20
-1036.22
 30
0.0
 40
3.249999999860068
 50
286.6189871434956
 51
344.7870620456986
  0
ARC
  5
37F
  8
DATA
  6
CONTINUOUS
 62
     7
 10
25.5
 20
-1036.22
 30
0.0
 40
3.249999999859666
 50
15.2129379543014
 51
164.7870620457028
  0
ARC
  5
380
  8
DATA
  6
CONTINUOUS
 62
     7
 10
25.5
 20
-1036.22
 30
0.0
 40
3.249999999860544
 50
195.2129379542972
 51
253.3810128565044
  0
CIRCLE
  5
381
  8
DATA
  6
CONTINUOUS
 62
     7
 10
15.60000000070067
 20
-1026.31999999816
 30
0.0
 40
1.750000000120053
  0
ARC
  5
382
  8
DATA
  6
CONTINUOUS
 62
     7
 10
19.87850109061947
 20
-1030.59850108808
 30
0.0
 40
0.7500000011406873
 50
34.6497774144613
 51
235.3502225854992
  0
CIRCLE
  5
383
  8
DATA
  6
CONTINUOUS
 62
     7
 10
35.40000000184045
 20
-1046.1199999993
 30
0.0
 40
1.750000000120053
  0
ARC
  5
384
  8
DATA
  6
CONTINUOUS
 62
     7
 10
29.55000000006021
 20
-1036.22
 30
0.0
 40
1.249999999359646
 50
223.0203765338277
 51
136.9796234661723
  0
LINE
  5
385
  8
DATA
  6
CONTINUOUS
 62
     7
 10
16.75000000193995
 20
-1026.31999999816
 30
0.0
 11
14.44999999946049
 21
-1026.31999999816
 31
0.0
  0
LINE
  5
386
  8
DATA
  6
CONTINUOUS
 62
     7
 10
15.60000000070067
 20
-1027.4699999994
 30
0.0
 11
15.60000000070067
 21
-1025.16999999692
 31
0.0
  0
LINE
  5
387
  8
DATA
  6
CONTINUOUS
 62
     7
 10
36.55000000307973
 20
-1046.1199999993
 30
0.0
 11
34.25000000060027
 21
-1046.1199999993
 31
0.0
  0
LINE
  5
388
  8
DATA
  6
CONTINUOUS
 62
     7
 10
35.40000000184045
 20
-1047.27000000054
 30
0.0
 11
35.40000000184045
 21
-1044.96999999806
 31
0.0
  0
ARC
  5
389
  8
DATA
  6
CONTINUOUS
 62
     7
 10
25.49999999999989
 20
-1070.22
 30
0.0
 40
7.84999999973978
 50
50.39300363839879
 51
39.60699636160123
  0
ARC
  5
38A
  8
DATA
  6
CONTINUOUS
 62
     7
 10
31.12149890938042
 20
-1064.59850108808
 30
0.0
 40
0.7500000011399391
 50
304.6497774145008
 51
145.3502225855387
  0
CIRCLE
  5
38B
  8
DATA
  6
CONTINUOUS
 62
     7
 10
25.49999999999989
 20
-1070.22
 30
0.0
 40
11.2499999993197
  0
CIRCLE
  5
38C
  8
DATA
  6
CONTINUOUS
 62
     7
 10
25.49999999999989
 20
-1070.22
 30
0.0
 40
9.749999999579813
  0
CIRCLE
  5
38D
  8
DATA
  6
CONTINUOUS
 62
     7
 10
15.60000000070056
 20
-1060.31999999816
 30
0.0
 40
1.750000000120053
  0
CIRCLE
  5
38E
  8
DATA
  6
CONTINUOUS
 62
     7
 10
35.40000000184034
 20
-1080.1199999993
 30
0.0
 40
1.750000000120053
  0
LINE
  5
38F
  8
DATA
  6
CONTINUOUS
 62
     7
 10
16.75000000193984
 20
-1060.31999999816
 30
0.0
 11
14.44999999946037
 21
-1060.31999999816
 31
0.0
  0
LINE
  5
390
  8
DATA
  6
CONTINUOUS
 62
     7
 10
15.60000000070056
 20
-1061.4699999994
 30
0.0
 11
15.60000000070056
 21
-1059.16999999692
 31
0.0
  0
LINE
  5
391
  8
DATA
  6
CONTINUOUS
 62
     7
 10
36.55000000307962
 20
-1080.1199999993
 30
0.0
 11
34.25000000060015
 21
-1080.1199999993
 31
0.0
  0
LINE
  5
392
  8
DATA
  6
CONTINUOUS
 62
     7
 10
35.40000000184034
 20
-1081.27000000054
 30
0.0
 11
35.40000000184034
 21
-1078.96999999806
 31
0.0
  0
CIRCLE
  5
393
  8
DATA
  6
CONTINUOUS
 62
     7
 10
21.44999999994059
 20
-1070.22
 30
0.0
 40
1.149999999999864
  0
CIRCLE
  5
394
  8
DATA
  6
CONTINUOUS
 62
     7
 10
29.55000000006009
 20
-1070.22
 30
0.0
 40
1.149999999999864
  0
CIRCLE
  5
395
  8
DATA
  6
CONTINUOUS
 62
     7
 10
25.49999999999989
 20
-1074.1699999994
 30
0.0
 40
1.149999999999864
  0
LINE
  5
396
  8
DATA
  6
CONTINUOUS
 62
     7
 10
18.65837884843393
 20
-1130.32
 30
0.0
 11
5.341621151565846
 21
-1130.32
 31
0.0
  0
LINE
  5
397
  8
DATA
  6
CONTINUOUS
 62
     7
 10
21.89999999999952
 20
-1114.12
 30
0.0
 11
2.10000000000025
 21
-1114.12
 31
0.0
  0
LINE
  5
398
  8
DATA
  6
CONTINUOUS
 62
     7
 10
0.1000000000002501
 20
-1125.004705640444
 30
0.0
 11
0.1000000000002501
 21
-1116.12
 31
0.0
  0
LINE
  5
399
  8
DATA
  6
CONTINUOUS
 62
     7
 10
23.89999999999952
 20
-1125.004705640444
 30
0.0
 11
23.89999999999952
 21
-1116.12
 31
0.0
  0
LINE
  5
39A
  8
DATA
  6
CONTINUOUS
 62
     7
 10
23.33001333802611
 20
-1126.402940904291
 30
0.0
 11
20.0883921864596
 21
-1129.718235263847
 31
0.0
  0
LINE
  5
39B
  8
DATA
  6
CONTINUOUS
 62
     7
 10
0.6699866619736667
 20
-1126.402940904291
 30
0.0
 11
3.911607813540172
 21
-1129.718235263847
 31
0.0
  0
ARC
  5
39C
  8
DATA
  6
CONTINUOUS
 62
     7
 10
21.89999999999952
 20
-1125.004705640444
 30
0.0
 40
2.000000000000301
 50
315.6437457141857
 51
0.0
  0
ARC
  5
39D
  8
DATA
  6
CONTINUOUS
 62
     7
 10
2.10000000000025
 20
-1125.004705640443
 30
0.0
 40
2.0
 50
180.0
 51
224.3562542858143
  0
ARC
  5
39E
  8
DATA
  6
CONTINUOUS
 62
     7
 10
5.341621151565846
 20
-1128.319999999999
 30
0.0
 40
1.999999999999651
 50
224.3562542858325
 51
270.0
  0
ARC
  5
39F
  8
DATA
  6
CONTINUOUS
 62
     7
 10
18.65837884843393
 20
-1128.32
 30
0.0
 40
2.0
 50
270.0
 51
315.6437457141676
  0
ARC
  5
3A0
  8
DATA
  6
CONTINUOUS
 62
     7
 10
21.89999999999952
 20
-1116.120000000001
 30
0.0
 40
2.0
 50
0.0
 51
90.0
  0
ARC
  5
3A1
  8
DATA
  6
CONTINUOUS
 62
     7
 10
2.10000000000025
 20
-1116.12
 30
0.0
 40
2.0
 50
90.0
 51
180.0
  0
LINE
  5
3A2
  8
DATA
  6
CONTINUOUS
 62
     7
 10
4.85000000000025
 20
-1122.32
 30
0.0
 11
4.85000000000025
 21
-1118.32
 31
0.0
  0
LINE
  5
3A3
  8
DATA
  6
CONTINUOUS
 62
     7
 10
18.85000000000025
 20
-1122.32
 30
0.0
 11
18.85000000000025
 21
-1118.32
 31
0.0
  0
LINE
  5
3A4
  8
DATA
  6
CONTINUOUS
 62
     7
 10
20.35000000000025
 20
-1122.32
 30
0.0
 11
20.35000000000025
 21
-1118.32
 31
0.0
  0
LINE
  5
3A5
  8
DATA
  6
CONTINUOUS
 62
     7
 10
6.35000000000025
 20
-1122.32
 30
0.0
 11
6.35000000000025
 21
-1118.32
 31
0.0
  0
LINE
  5
3A6
  8
DATA
  6
CONTINUOUS
 62
     7
 10
11.35000000000025
 20
-1126.32
 30
0.0
 11
11.35000000000025
 21
-1122.32
 31
0.0
  0
LINE
  5
3A7
  8
DATA
  6
CONTINUOUS
 62
     7
 10
12.85000000000025
 20
-1126.32
 30
0.0
 11
12.85000000000025
 21
-1122.32
 31
0.0
  0
LINE
  5
3A8
  8
DATA
  6
CONTINUOUS
 62
     7
 10
20.35000000000025
 20
-1122.32
 30
0.0
 11
18.85000000000025
 21
-1122.32
 31
0.0
  0
LINE
  5
3A9
  8
DATA
  6
CONTINUOUS
 62
     7
 10
12.85000000000025
 20
-1122.32
 30
0.0
 11
11.35000000000025
 21
-1122.32
 31
0.0
  0
LINE
  5
3AA
  8
DATA
  6
CONTINUOUS
 62
     7
 10
6.35000000000025
 20
-1122.32
 30
0.0
 11
4.85000000000025
 21
-1122.32
 31
0.0
  0
LINE
  5
3AB
  8
DATA
  6
CONTINUOUS
 62
     7
 10
12.85000000000025
 20
-1126.32
 30
0.0
 11
11.35000000000025
 21
-1126.32
 31
0.0
  0
LINE
  5
3AC
  8
DATA
  6
CONTINUOUS
 62
     7
 10
20.35000000000025
 20
-1118.32
 30
0.0
 11
18.85000000000025
 21
-1118.32
 31
0.0
  0
LINE
  5
3AD
  8
DATA
  6
CONTINUOUS
 62
     7
 10
6.35000000000025
 20
-1118.32
 30
0.0
 11
4.85000000000025
 21
-1118.32
 31
0.0
  0
LINE
  5
3AE
  8
DATA
  6
CONTINUOUS
 62
     7
 10
27.20000000000061
 20
-1114.72
 30
0.0
 11
27.20000000000061
 21
-1129.72
 31
0.0
  0
LINE
  5
3AF
  8
DATA
  6
CONTINUOUS
 62
     7
 10
23.20000000000061
 20
-1133.72
 30
0.0
 11
0.7999999999991587
 21
-1133.72
 31
0.0
  0
LINE
  5
3B0
  8
DATA
  6
CONTINUOUS
 62
     7
 10
23.20000000000061
 20
-1110.72
 30
0.0
 11
0.7999999999991587
 21
-1110.72
 31
0.0
  0
LINE
  5
3B1
  8
DATA
  6
CONTINUOUS
 62
     7
 10
-3.200000000000841
 20
-1114.72
 30
0.0
 11
-3.200000000000841
 21
-1129.72
 31
0.0
  0
ARC
  5
3B2
  8
DATA
  6
CONTINUOUS
 62
     7
 10
23.20000000000061
 20
-1129.72
 30
0.0
 40
4.0
 50
270.0
 51
0.0
  0
ARC
  5
3B3
  8
DATA
  6
CONTINUOUS
 62
     7
 10
0.7999999999991587
 20
-1129.72
 30
0.0
 40
4.0
 50
180.0
 51
270.0
  0
ARC
  5
3B4
  8
DATA
  6
CONTINUOUS
 62
     7
 10
0.7999999999991587
 20
-1114.72
 30
0.0
 40
4.0
 50
90.0
 51
180.0
  0
ARC
  5
3B5
  8
DATA
  6
CONTINUOUS
 62
     7
 10
23.20000000000061
 20
-1114.72
 30
0.0
 40
4.0
 50
0.0
 51
90.0
  0
TEXT
  5
3B6
  8
DATA
 62
     7
 10
18.61577510127429
 20
-959.1857009548389
 30
0.0
 40
2.714735243055556
  1
MASTER
 41
0.7
 72
     1
 11
24.00000000000114
 21
-957.8283333333111
 31
0.0
 73
     2
  0
TEXT
  5
3B7
  8
DATA
 62
     7
 10
18.29905598958447
 20
-962.7134787326167
 30
0.0
 40
2.714735243055556
  1
VOLUME
 41
0.7
 72
     1
 11
24.00000000000114
 21
-961.3561111110889
 31
0.0
 73
     2
  0
TEXT
  5
3B8
  8
DATA
 62
     7
 10
34.66823236014602
 20
-959.1857009548389
 30
0.0
 40
2.714735243055556
  1
SIGNAL
 41
0.7
 11
34.66823236014602
 21
-957.8283333333111
 31
0.0
 73
     2
  0
TEXT
  5
3B9
  8
DATA
 62
     7
 10
34.66823236014602
 20
-962.7134787326167
 30
0.0
 40
2.714735243055556
  1
/LIMIT
 41
0.7
 11
34.66823236014602
 21
-961.3561111110889
 31
0.0
 73
     2
  0
TEXT
  5
3BA
  8
DATA
 62
     7
 10
-11.75078667534722
 20
-981.0912565104278
 30
0.0
 40
2.714735243055556
  1
POWER
 41
0.7
 72
     1
 11
-7.0
 21
-979.7338888889
 31
0.0
 73
     2
  0
TEXT
  5
3BB
  8
DATA
 62
     7
 10
-12.70094401041667
 20
-998.5912565104278
 30
0.0
 40
2.714735243055556
  1
X-OVER
 41
0.7
 72
     1
 11
-7.0
 21
-997.2338888889
 31
0.0
 73
     2
  0
TEXT
  5
3BC
  8
DATA
 62
     7
 10
1.674449327256945
 20
-998.5912565104278
 30
0.0
 40
2.714735243055556
  1
80Hz
 41
0.7
 72
     1
 11
5.0
 21
-997.2338888889
 31
0.0
 73
     2
  0
TEXT
  5
3BD
  8
DATA
 62
     7
 10
13.69937065972222
 20
-998.5912565104278
 30
0.0
 40
2.714735243055556
  1
100Hz
 41
0.7
 72
     1
 11
17.5
 21
-997.2338888889
 31
0.0
 73
     2
  0
TEXT
  5
3BE
  8
DATA
 62
     7
 10
26.04101110387732
 20
-998.5912565104278
 30
0.0
 40
2.714735243055556
  1
120Hz
 41
0.7
 72
     1
 11
30.0
 21
-997.2338888889
 31
0.0
 73
     2
  0
TEXT
  5
3BF
  8
DATA
 62
     7
 10
-13.96782045717593
 20
-1016.091256510428
 30
0.0
 40
2.714735243055556
  1
POLARITY
 41
0.7
 72
     1
 11
-7.0
 21
-1014.7338888889
 31
0.0
 73
     2
  0
TEXT
  5
3C0
  8
DATA
 62
     7
 10
-11.68744285300937
 20
-1087.327367620828
 30
0.0
 40
2.714735243055556
  1
THRU 1
 41
0.7
 72
     1
 11
-7.000000000000114
 21
-1085.9699999993
 31
0.0
 73
     2
  0
TEXT
  5
3C1
  8
DATA
 62
     7
 10
20.49583803530081
 20
-1087.327367620828
 30
0.0
 40
2.714735243055556
  1
THRU 2
 41
0.7
 72
     1
 11
25.49999999999989
 21
-1085.9699999993
 31
0.0
 73
     2
  0
TEXT
  5
3C2
  8
DATA
 62
     7
 10
5.095523365161924
 20
-1139.577367621508
 30
0.0
 40
2.714735243055556
  1
400W MAX
 41
0.7
 72
     1
 11
11.99999999999989
 21
-1138.21999999998
 31
0.0
 73
     2
  0
TEXT
  5
3C3
  8
DATA
 62
     7
 10
-3.107501627604281
 20
-1143.105145399286
 30
0.0
 40
2.714735243055556
  1
100-120V ～ 50/60Hz
 41
0.7
 72
     1
 11
11.99999999999989
 21
-1141.747777777758
 31
0.0
 73
     2
  0
TEXT
  5
3C4
  8
DATA
 62
     7
 10
-9.470409071180555
 20
-1051.827367621088
 30
0.0
 40
2.714735243055556
  1
IN 1
 41
0.7
 72
     1
 11
-7.0
 21
-1050.46999999956
 31
0.0
 73
     2
  0
TEXT
  5
3C5
  8
DATA
 62
     7
 10
22.71287181712963
 20
-1051.827367621088
 30
0.0
 40
2.714735243055556
  1
IN 2
 41
0.7
 72
     1
 11
25.5
 21
-1050.46999999956
 31
0.0
 73
     2
  0
LINE
  5
3C6
  8
DATA
  6
CONTINUOUS
 62
     7
 10
781.0857319079182
 20
-1530.632676914985
 30
0.0
 11
781.0857319079182
 21
96.64134720682662
 31
0.0
  0
LINE
  5
3C7
  8
DATA
  6
CONTINUOUS
 62
     7
 10
881.0857319079137
 20
196.6413472068221
 30
0.0
 11
1718.914268092086
 21
196.6413472068221
 31
0.0
  0
ARC
  5
3C8
  8
DATA
  6
CONTINUOUS
 62
     7
 10
881.0857319079137
 20
96.64134720682662
 30
0.0
 40
99.99999999999545
 50
90.0
 51
180.0
  0
CIRCLE
  5
3C9
  8
DATA
  6
CONTINUOUS
 62
     7
 10
1421.085731907918
 20
-223.3586527931779
 30
0.0
 40
105.0
  0
ARC
  5
3CA
  8
DATA
  6
CONTINUOUS
 62
     7
 10
1421.085731907909
 20
-223.3586527931825
 30
0.0
 40
39.99999999999206
 50
247.1807557814695
 51
232.8192442185487
  0
LINE
  5
3CB
  8
DATA
  6
CONTINUOUS
 62
     7
 10
1396.912470056012
 20
-255.227970505347
 30
0.0
 11
1364.315162480492
 21
-311.6881634161009
 31
0.0
  0
LINE
  5
3CC
  8
DATA
  6
CONTINUOUS
 62
     7
 10
1405.572724093857
 20
-260.2279705053447
 30
0.0
 11
1372.975416518333
 21
-316.6881634161032
 31
0.0
  0
LINE
  5
3CD
  8
DATA
  6
CONTINUOUS
 62
     7
 10
1316.085731907918
 20
-223.3586527931779
 30
0.0
 11
1301.085731907918
 21
-223.3586527931779
 31
0.0
  0
LINE
  5
3CE
  8
DATA
  6
CONTINUOUS
 62
     7
 10
1316.984021463671
 20
-209.6534026100712
 30
0.0
 11
1302.112348543063
 21
-207.6955097267719
 31
0.0
  0
LINE
  5
3CF
  8
DATA
  6
CONTINUOUS
 62
     7
 10
1319.663520147568
 20
-196.1826530574139
 30
0.0
 11
1305.174632753231
 21
-192.3003673808753
 31
0.0
  0
LINE
  5
3D0
  8
DATA
  6
CONTINUOUS
 62
     7
 10
1324.078380994236
 20
-183.1768923948416
 30
0.0
 11
1310.220188006564
 21
-177.4366409093672
 31
0.0
  0
LINE
  5
3D1
  8
DATA
  6
CONTINUOUS
 62
     7
 10
1330.153064510554
 20
-170.8586527931779
 30
0.0
 11
1317.162683453788
 21
-163.3586527931779
 31
0.0
  0
LINE
  5
3D2
  8
DATA
  6
CONTINUOUS
 62
     7
 10
1337.783631177343
 20
-159.4387027472626
 30
0.0
 11
1325.883331072976
 21
-150.3072813121312
 31
0.0
  0
LINE
  5
3D3
  8
DATA
  6
CONTINUOUS
 62
     7
 10
1346.839519883336
 20
-149.1124407685915
 30
0.0
 11
1336.232918165541
 21
-138.5058390507915
 31
0.0
  0
LINE
  5
3D4
  8
DATA
  6
CONTINUOUS
 62
     7
 10
1357.165781862012
 20
-140.0565520626005
 30
0.0
 11
1348.034360426881
 21
-128.1562519582316
 31
0.0
  0
LINE
  5
3D5
  8
DATA
  6
CONTINUOUS
 62
     7
 10
1368.585731907927
 20
-132.4259853958133
 30
0.0
 11
1361.085731907927
 21
-119.4356043390476
 31
0.0
  0
LINE
  5
3D6
  8
DATA
  6
CONTINUOUS
 62
     7
 10
1380.903971509591
 20
-126.3513018794892
 30
0.0
 11
1375.163720024114
 21
-112.4931088918188
 31
0.0
  0
LINE
  5
3D7
  8
DATA
  6
CONTINUOUS
 62
     7
 10
1393.909732172163
 20
-121.9364410328253
 30
0.0
 11
1390.027446495627
 21
-107.4475536384866
 31
0.0
  0
LINE
  5
3D8
  8
DATA
  6
CONTINUOUS
 62
     7
 10
1407.380481724825
 20
-119.2569423489285
 30
0.0
 11
1405.422588841524
 21
-104.3852694283205
 31
0.0
  0
LINE
  5
3D9
  8
DATA
  6
CONTINUOUS
 62
     7
 10
1421.085731907927
 20
-118.3586527931802
 30
0.0
 11
1421.085731907927
 21
-103.3586527931802
 31
0.0
  0
LINE
  5
3DA
  8
DATA
  6
CONTINUOUS
 62
     7
 10
1357.165781862003
 20
-306.6607535237599
 30
0.0
 11
1348.034360426871
 21
-318.5610536281288
 31
0.0
  0
LINE
  5
3DB
  8
DATA
  6
CONTINUOUS
 62
     7
 10
1346.839519883332
 20
-297.6048648177666
 30
0.0
 11
1336.232918165532
 21
-308.2114665355666
 31
0.0
  0
LINE
  5
3DC
  8
DATA
  6
CONTINUOUS
 62
     7
 10
1337.783631177339
 20
-287.2786028390956
 30
0.0
 11
1325.883331072967
 21
-296.410024274227
 31
0.0
  0
LINE
  5
3DD
  8
DATA
  6
CONTINUOUS
 62
     7
 10
1330.153064510549
 20
-275.8586527931802
 30
0.0
 11
1317.162683453783
 21
-283.3586527931825
 31
0.0
  0
LINE
  5
3DE
  8
DATA
  6
CONTINUOUS
 62
     7
 10
1324.078380994232
 20
-263.5404131915143
 30
0.0
 11
1310.220188006564
 21
-269.2806646769909
 31
0.0
  0
LINE
  5
3DF
  8
DATA
  6
CONTINUOUS
 62
     7
 10
1319.663520147563
 20
-250.5346525289442
 30
0.0
 11
1305.174632753227
 21
-254.4169382054829
 31
0.0
  0
LINE
  5
3E0
  8
DATA
  6
CONTINUOUS
 62
     7
 10
1316.984021463667
 20
-237.0639029762824
 30
0.0
 11
1302.112348543058
 21
-239.0217958595863
 31
0.0
  0
LINE
  5
3E1
  8
DATA
  6
CONTINUOUS
 62
     7
 10
1368.585731907923
 20
-314.2913201905517
 30
0.0
 11
1361.085731907927
 21
-327.2817012473174
 31
0.0
  0
LINE
  5
3E2
  8
DATA
  6
CONTINUOUS
 62
     7
 10
1526.0857319079
 20
-223.3586527931779
 30
0.0
 11
1541.0857319079
 21
-223.3586527931779
 31
0.0
  0
LINE
  5
3E3
  8
DATA
  6
CONTINUOUS
 62
     7
 10
1525.187442352152
 20
-209.6534026100712
 30
0.0
 11
1540.05911527276
 21
-207.6955097267719
 31
0.0
  0
LINE
  5
3E4
  8
DATA
  6
CONTINUOUS
 62
     7
 10
1522.507943668255
 20
-196.1826530574139
 30
0.0
 11
1536.996831062591
 21
-192.3003673808753
 31
0.0
  0
LINE
  5
3E5
  8
DATA
  6
CONTINUOUS
 62
     7
 10
1518.093082821586
 20
-183.1768923948416
 30
0.0
 11
1531.951275809255
 21
-177.4366409093672
 31
0.0
  0
LINE
  5
3E6
  8
DATA
  6
CONTINUOUS
 62
     7
 10
1512.018399305265
 20
-170.8586527931779
 30
0.0
 11
1525.00878036203
 21
-163.3586527931779
 31
0.0
  0
LINE
  5
3E7
  8
DATA
  6
CONTINUOUS
 62
     7
 10
1504.38783263848
 20
-159.4387027472626
 30
0.0
 11
1516.288132742842
 21
-150.3072813121312
 31
0.0
  0
LINE
  5
3E8
  8
DATA
  6
CONTINUOUS
 62
     7
 10
1495.331943932482
 20
-149.1124407685915
 30
0.0
 11
1505.938545650282
 21
-138.5058390507915
 31
0.0
  0
LINE
  5
3E9
  8
DATA
  6
CONTINUOUS
 62
     7
 10
1485.005681953811
 20
-140.0565520626005
 30
0.0
 11
1494.137103388942
 21
-128.1562519582316
 31
0.0
  0
LINE
  5
3EA
  8
DATA
  6
CONTINUOUS
 62
     7
 10
1473.585731907891
 20
-132.4259853958133
 30
0.0
 11
1481.085731907891
 21
-119.4356043390476
 31
0.0
  0
LINE
  5
3EB
  8
DATA
  6
CONTINUOUS
 62
     7
 10
1461.267492306227
 20
-126.3513018794892
 30
0.0
 11
1467.007743791704
 21
-112.4931088918188
 31
0.0
  0
LINE
  5
3EC
  8
DATA
  6
CONTINUOUS
 62
     7
 10
1448.261731643655
 20
-121.9364410328253
 30
0.0
 11
1452.144017320196
 21
-107.4475536384866
 31
0.0
  0
LINE
  5
3ED
  8
DATA
  6
CONTINUOUS
 62
     7
 10
1434.790982090998
 20
-119.2569423489285
 30
0.0
 11
1436.748874974299
 21
-104.3852694283205
 31
0.0
  0
LINE
  5
3EE
  8
DATA
  6
CONTINUOUS
 62
     7
 10
1485.00568195382
 20
-306.6607535237599
 30
0.0
 11
1494.137103388947
 21
-318.5610536281288
 31
0.0
  0
LINE
  5
3EF
  8
DATA
  6
CONTINUOUS
 62
     7
 10
1495.331943932491
 20
-297.6048648177666
 30
0.0
 11
1505.938545650286
 21
-308.2114665355666
 31
0.0
  0
LINE
  5
3F0
  8
DATA
  6
CONTINUOUS
 62
     7
 10
1504.387832638484
 20
-287.2786028390956
 30
0.0
 11
1516.288132742851
 21
-296.410024274227
 31
0.0
  0
LINE
  5
3F1
  8
DATA
  6
CONTINUOUS
 62
     7
 10
1512.018399305274
 20
-275.8586527931802
 30
0.0
 11
1525.008780362035
 21
-283.3586527931825
 31
0.0
  0
LINE
  5
3F2
  8
DATA
  6
CONTINUOUS
 62
     7
 10
1518.093082821591
 20
-263.5404131915143
 30
0.0
 11
1531.951275809259
 21
-269.2806646769909
 31
0.0
  0
LINE
  5
3F3
  8
DATA
  6
CONTINUOUS
 62
     7
 10
1522.507943668255
 20
-250.5346525289442
 30
0.0
 11
1536.996831062591
 21
-254.4169382054829
 31
0.0
  0
LINE
  5
3F4
  8
DATA
  6
CONTINUOUS
 62
     7
 10
1525.187442352156
 20
-237.0639029762824
 30
0.0
 11
1540.05911527276
 21
-239.0217958595863
 31
0.0
  0
LINE
  5
3F5
  8
DATA
  6
CONTINUOUS
 62
     7
 10
1473.585731907895
 20
-314.2913201905517
 30
0.0
 11
1481.085731907891
 21
-327.2817012473174
 31
0.0
  0
CIRCLE
  5
3F6
  8
DATA
  6
CONTINUOUS
 62
     7
 10
1111.085731907918
 20
-113.3586527931779
 30
0.0
 40
15.0
  0
CIRCLE
  5
3F7
  8
DATA
  6
CONTINUOUS
 62
     7
 10
1501.085731907918
 20
-63.35865279317792
 30
0.0
 40
15.0
  0
CIRCLE
  5
3F8
  8
DATA
  6
CONTINUOUS
 62
     7
 10
1111.085731907918
 20
-203.3586527931779
 30
0.0
 40
37.5
  0
CIRCLE
  5
3F9
  8
DATA
  6
CONTINUOUS
 62
     7
 10
1111.085731907918
 20
-378.358652793178
 30
0.0
 40
37.5
  0
CIRCLE
  5
3FA
  8
DATA
  6
CONTINUOUS
 62
     7
 10
1111.085731907918
 20
-553.358652793178
 30
0.0
 40
37.5
  0
CIRCLE
  5
3FB
  8
DATA
  6
CONTINUOUS
 62
     7
 10
1231.085731907918
 20
-378.358652793178
 30
0.0
 40
15.0
  0
CIRCLE
  5
3FC
  8
DATA
  6
CONTINUOUS
 62
     7
 10
1356.085731907918
 20
-378.358652793178
 30
0.0
 40
15.0
  0
CIRCLE
  5
3FD
  8
DATA
  6
CONTINUOUS
 62
     7
 10
1481.085731907918
 20
-378.358652793178
 30
0.0
 40
15.0
  0
CIRCLE
  5
3FE
  8
DATA
  6
CONTINUOUS
 62
     7
 10
1231.085731907918
 20
-553.358652793178
 30
0.0
 40
15.0
  0
ARC
  5
3FF
  8
DATA
  6
CONTINUOUS
 62
     7
 10
1070.585731907325
 20
-833.3586527931778
 30
0.0
 40
12.49999999359646
 50
43.02037653382775
 51
316.9796234661723
  0
ARC
  5
400
  8
DATA
  6
CONTINUOUS
 62
     7
 10
1111.085731907918
 20
-872.8586527871779
 30
0.0
 40
12.49999999360322
 50
138.0403109326137
 51
41.95968906738636
  0
CIRCLE
  5
401
  8
DATA
  6
CONTINUOUS
 62
     7
 10
1111.085731907918
 20
-833.3586527931778
 30
0.0
 40
97.49999999579813
  0
ARC
  5
402
  8
DATA
  6
CONTINUOUS
 62
     7
 10
1111.085731907918
 20
-833.3586527931778
 30
0.0
 40
78.49999999739781
 50
140.3930036383988
 51
129.6069963616012
  0
ARC
  5
403
  8
DATA
  6
CONTINUOUS
 62
     7
 10
1111.085731907918
 20
-833.3586527931778
 30
0.0
 40
32.49999999860069
 50
286.6189871434956
 51
344.7870620456985
  0
ARC
  5
404
  8
DATA
  6
CONTINUOUS
 62
     7
 10
1111.085731907918
 20
-833.3586527931778
 30
0.0
 40
32.49999999859666
 50
15.2129379543014
 51
164.7870620457028
  0
ARC
  5
405
  8
DATA
  6
CONTINUOUS
 62
     7
 10
1111.085731907918
 20
-833.3586527931778
 30
0.0
 40
32.49999999860544
 50
195.2129379542972
 51
253.3810128565044
  0
CIRCLE
  5
406
  8
DATA
  6
CONTINUOUS
 62
     7
 10
1012.085731914925
 20
-734.3586527747779
 30
0.0
 40
17.50000000120053
  0
ARC
  5
407
  8
DATA
  6
CONTINUOUS
 62
     7
 10
1054.870742814113
 20
-777.1436636739794
 30
0.0
 40
7.500000011406873
 50
34.6497774144613
 51
235.3502225855001
  0
CIRCLE
  5
408
  8
DATA
  6
CONTINUOUS
 62
     7
 10
1210.085731926323
 20
-932.3586527861802
 30
0.0
 40
17.50000000120053
  0
ARC
  5
409
  8
DATA
  6
CONTINUOUS
 62
     7
 10
1151.58573190852
 20
-833.3586527931778
 30
0.0
 40
12.49999999359646
 50
223.0203765338277
 51
136.9796234661723
  0
LINE
  5
40A
  8
DATA
  6
CONTINUOUS
 62
     7
 10
1023.585731927318
 20
-734.3586527747779
 30
0.0
 11
1000.585731902523
 21
-734.3586527747779
 31
0.0
  0
LINE
  5
40B
  8
DATA
  6
CONTINUOUS
 62
     7
 10
1012.085731914925
 20
-745.8586527871752
 30
0.0
 11
1012.085731914925
 21
-722.8586527623805
 31
0.0
  0
LINE
  5
40C
  8
DATA
  6
CONTINUOUS
 62
     7
 10
1221.585731938716
 20
-932.3586527861802
 30
0.0
 11
1198.585731913921
 21
-932.3586527861802
 31
0.0
  0
LINE
  5
40D
  8
DATA
  6
CONTINUOUS
 62
     7
 10
1210.085731926323
 20
-943.858652798573
 30
0.0
 11
1210.085731926323
 21
-920.8586527737783
 31
0.0
  0
ARC
  5
40E
  8
DATA
  6
CONTINUOUS
 62
     7
 10
1111.085731907918
 20
-1173.358652793178
 30
0.0
 40
78.49999999739781
 50
50.39300363839879
 51
39.60699636160123
  0
ARC
  5
40F
  8
DATA
  6
CONTINUOUS
 62
     7
 10
1167.300721001724
 20
-1117.14366367398
 30
0.0
 40
7.500000011399391
 50
304.6497774145008
 51
145.3502225855392
  0
CIRCLE
  5
410
  8
DATA
  6
CONTINUOUS
 62
     7
 10
1111.085731907918
 20
-1173.358652793178
 30
0.0
 40
112.499999993197
  0
CIRCLE
  5
411
  8
DATA
  6
CONTINUOUS
 62
     7
 10
1111.085731907918
 20
-1173.358652793178
 30
0.0
 40
97.49999999579813
  0
CIRCLE
  5
412
  8
DATA
  6
CONTINUOUS
 62
     7
 10
1012.085731914925
 20
-1074.358652774778
 30
0.0
 40
17.50000000120053
  0
CIRCLE
  5
413
  8
DATA
  6
CONTINUOUS
 62
     7
 10
1210.085731926323
 20
-1272.35865278618
 30
0.0
 40
17.50000000120053
  0
LINE
  5
414
  8
DATA
  6
CONTINUOUS
 62
     7
 10
1023.585731927318
 20
-1074.358652774778
 30
0.0
 11
1000.585731902523
 21
-1074.358652774778
 31
0.0
  0
LINE
  5
415
  8
DATA
  6
CONTINUOUS
 62
     7
 10
1012.085731914925
 20
-1085.858652787175
 30
0.0
 11
1012.085731914925
 21
-1062.858652762381
 31
0.0
  0
LINE
  5
416
  8
DATA
  6
CONTINUOUS
 62
     7
 10
1221.585731938716
 20
-1272.35865278618
 30
0.0
 11
1198.585731913921
 21
-1272.35865278618
 31
0.0
  0
LINE
  5
417
  8
DATA
  6
CONTINUOUS
 62
     7
 10
1210.085731926323
 20
-1283.858652798573
 30
0.0
 11
1210.085731926323
 21
-1260.858652773778
 31
0.0
  0
CIRCLE
  5
418
  8
DATA
  6
CONTINUOUS
 62
     7
 10
1070.585731907325
 20
-1173.358652793178
 30
0.0
 40
11.49999999999864
  0
CIRCLE
  5
419
  8
DATA
  6
CONTINUOUS
 62
     7
 10
1151.58573190852
 20
-1173.358652793178
 30
0.0
 40
11.49999999999864
  0
CIRCLE
  5
41A
  8
DATA
  6
CONTINUOUS
 62
     7
 10
1111.085731907918
 20
-1212.858652787178
 30
0.0
 40
11.49999999999864
  0
ARC
  5
41B
  8
DATA
  6
CONTINUOUS
 62
     7
 10
1395.585731907325
 20
-833.3586527931778
 30
0.0
 40
12.49999999359646
 50
43.02037653382775
 51
316.9796234661723
  0
ARC
  5
41C
  8
DATA
  6
CONTINUOUS
 62
     7
 10
1436.085731907918
 20
-872.8586527871779
 30
0.0
 40
12.49999999360322
 50
138.0403109326137
 51
41.95968906738636
  0
CIRCLE
  5
41D
  8
DATA
  6
CONTINUOUS
 62
     7
 10
1436.085731907918
 20
-833.3586527931778
 30
0.0
 40
112.499999993197
  0
CIRCLE
  5
41E
  8
DATA
  6
CONTINUOUS
 62
     7
 10
1436.085731907918
 20
-833.3586527931778
 30
0.0
 40
97.49999999579813
  0
ARC
  5
41F
  8
DATA
  6
CONTINUOUS
 62
     7
 10
1436.085731907918
 20
-833.3586527931778
 30
0.0
 40
78.49999999739781
 50
140.3930036383988
 51
129.6069963616012
  0
ARC
  5
420
  8
DATA
  6
CONTINUOUS
 62
     7
 10
1436.085731907918
 20
-833.3586527931778
 30
0.0
 40
32.49999999860069
 50
286.6189871434956
 51
344.7870620456985
  0
ARC
  5
421
  8
DATA
  6
CONTINUOUS
 62
     7
 10
1436.085731907918
 20
-833.3586527931778
 30
0.0
 40
32.49999999859666
 50
15.2129379543014
 51
164.7870620457028
  0
ARC
  5
422
  8
DATA
  6
CONTINUOUS
 62
     7
 10
1436.085731907918
 20
-833.3586527931778
 30
0.0
 40
32.49999999860544
 50
195.2129379542972
 51
253.3810128565044
  0
CIRCLE
  5
423
  8
DATA
  6
CONTINUOUS
 62
     7
 10
1337.085731914925
 20
-734.3586527747779
 30
0.0
 40
17.50000000120053
  0
ARC
  5
424
  8
DATA
  6
CONTINUOUS
 62
     7
 10
1379.870742814113
 20
-777.1436636739794
 30
0.0
 40
7.500000011406873
 50
34.6497774144613
 51
235.3502225854987
  0
CIRCLE
  5
425
  8
DATA
  6
CONTINUOUS
 62
     7
 10
1535.085731926323
 20
-932.3586527861802
 30
0.0
 40
17.50000000120053
  0
ARC
  5
426
  8
DATA
  6
CONTINUOUS
 62
     7
 10
1476.58573190852
 20
-833.3586527931778
 30
0.0
 40
12.49999999359646
 50
223.0203765338277
 51
136.9796234661723
  0
LINE
  5
427
  8
DATA
  6
CONTINUOUS
 62
     7
 10
1348.585731927318
 20
-734.3586527747779
 30
0.0
 11
1325.585731902523
 21
-734.3586527747779
 31
0.0
  0
LINE
  5
428
  8
DATA
  6
CONTINUOUS
 62
     7
 10
1337.085731914925
 20
-745.8586527871752
 30
0.0
 11
1337.085731914925
 21
-722.8586527623805
 31
0.0
  0
LINE
  5
429
  8
DATA
  6
CONTINUOUS
 62
     7
 10
1546.585731938716
 20
-932.3586527861802
 30
0.0
 11
1523.585731913921
 21
-932.3586527861802
 31
0.0
  0
LINE
  5
42A
  8
DATA
  6
CONTINUOUS
 62
     7
 10
1535.085731926323
 20
-943.858652798573
 30
0.0
 11
1535.085731926323
 21
-920.8586527737783
 31
0.0
  0
ARC
  5
42B
  8
DATA
  6
CONTINUOUS
 62
     7
 10
1436.085731907918
 20
-1173.358652793178
 30
0.0
 40
78.49999999739781
 50
50.39300363839879
 51
39.60699636160123
  0
ARC
  5
42C
  8
DATA
  6
CONTINUOUS
 62
     7
 10
1492.300721001724
 20
-1117.14366367398
 30
0.0
 40
7.500000011399391
 50
304.6497774145008
 51
145.3502225855392
  0
CIRCLE
  5
42D
  8
DATA
  6
CONTINUOUS
 62
     7
 10
1436.085731907918
 20
-1173.358652793178
 30
0.0
 40
112.499999993197
  0
CIRCLE
  5
42E
  8
DATA
  6
CONTINUOUS
 62
     7
 10
1436.085731907918
 20
-1173.358652793178
 30
0.0
 40
97.49999999579813
  0
CIRCLE
  5
42F
  8
DATA
  6
CONTINUOUS
 62
     7
 10
1337.085731914925
 20
-1074.358652774778
 30
0.0
 40
17.50000000120053
  0
CIRCLE
  5
430
  8
DATA
  6
CONTINUOUS
 62
     7
 10
1535.085731926323
 20
-1272.35865278618
 30
0.0
 40
17.50000000120053
  0
LINE
  5
431
  8
DATA
  6
CONTINUOUS
 62
     7
 10
1348.585731927318
 20
-1074.358652774778
 30
0.0
 11
1325.585731902523
 21
-1074.358652774778
 31
0.0
  0
LINE
  5
432
  8
DATA
  6
CONTINUOUS
 62
     7
 10
1337.085731914925
 20
-1085.858652787175
 30
0.0
 11
1337.085731914925
 21
-1062.858652762381
 31
0.0
  0
LINE
  5
433
  8
DATA
  6
CONTINUOUS
 62
     7
 10
1546.585731938716
 20
-1272.35865278618
 30
0.0
 11
1523.585731913921
 21
-1272.35865278618
 31
0.0
  0
LINE
  5
434
  8
DATA
  6
CONTINUOUS
 62
     7
 10
1535.085731926323
 20
-1283.858652798573
 30
0.0
 11
1535.085731926323
 21
-1260.858652773778
 31
0.0
  0
CIRCLE
  5
435
  8
DATA
  6
CONTINUOUS
 62
     7
 10
1395.585731907325
 20
-1173.358652793178
 30
0.0
 40
11.49999999999864
  0
CIRCLE
  5
436
  8
DATA
  6
CONTINUOUS
 62
     7
 10
1476.58573190852
 20
-1173.358652793178
 30
0.0
 40
11.49999999999864
  0
CIRCLE
  5
437
  8
DATA
  6
CONTINUOUS
 62
     7
 10
1436.085731907918
 20
-1212.858652787178
 30
0.0
 40
11.49999999999864
  0
TEXT
  5
438
  8
DATA
 62
     7
 10
1367.243482920659
 20
-63.01566234156662
 30
0.0
 40
27.14735243055556
  1
MASTER
 41
0.7
 72
     1
 11
1421.085731907927
 21
-49.44198612628884
 31
0.0
 73
     2
  0
TEXT
  5
439
  8
DATA
 62
     7
 10
1364.076291803761
 20
-98.29344011934438
 30
0.0
 40
27.14735243055556
  1
VOLUME
 41
0.7
 72
     1
 11
1421.085731907927
 21
-84.71976390406661
 31
0.0
 73
     2
  0
TEXT
  5
43A
  8
DATA
 62
     7
 10
1527.768055509381
 20
-63.01566234156662
 30
0.0
 40
27.14735243055556
  1
SIGNAL
 41
0.7
 11
1527.768055509381
 21
-49.44198612628884
 31
0.0
 73
     2
  0
TEXT
  5
43B
  8
DATA
 62
     7
 10
1527.768055509381
 20
-98.29344011934438
 30
0.0
 40
27.14735243055556
  1
/LIMIT
 41
0.7
 11
1527.768055509381
 21
-84.71976390406661
 31
0.0
 73
     2
  0
TEXT
  5
43C
  8
DATA
 62
     7
 10
1063.577865154446
 20
-282.0712178974563
 30
0.0
 40
27.14735243055556
  1
POWER
 41
0.7
 72
     1
 11
1111.085731907918
 21
-268.4975416821785
 31
0.0
 73
     2
  0
TEXT
  5
43D
  8
DATA
 62
     7
 10
1054.076291803751
 20
-457.0712178974563
 30
0.0
 40
27.14735243055556
  1
X-OVER
 41
0.7
 72
     1
 11
1111.085731907918
 21
-443.4975416821785
 31
0.0
 73
     2
  0
TEXT
  5
43E
  8
DATA
 62
     7
 10
1197.830225180488
 20
-457.0712178974563
 30
0.0
 40
27.14735243055556
  1
80Hz
 41
0.7
 72
     1
 11
1231.085731907918
 21
-443.4975416821785
 31
0.0
 73
     2
  0
TEXT
  5
43F
  8
DATA
 62
     7
 10
1318.07943850514
 20
-457.0712178974563
 30
0.0
 40
27.14735243055556
  1
100Hz
 41
0.7
 72
     1
 11
1356.085731907918
 21
-443.4975416821785
 31
0.0
 73
     2
  0
TEXT
  5
440
  8
DATA
 62
     7
 10
1441.495842946691
 20
-457.0712178974563
 30
0.0
 40
27.14735243055556
  1
120Hz
 41
0.7
 72
     1
 11
1481.085731907918
 21
-443.4975416821785
 31
0.0
 73
     2
  0
TEXT
  5
441
  8
DATA
 62
     7
 10
1041.407527336159
 20
-632.0712178974562
 30
0.0
 40
27.14735243055556
  1
POLARITY
 41
0.7
 72
     1
 11
1111.085731907918
 21
-618.4975416821784
 31
0.0
 73
     2
  0
TEXT
  5
442
  8
DATA
 62
     7
 10
1064.211303377826
 20
-1344.432329001455
 30
0.0
 40
27.14735243055556
  1
THRU 1
 41
0.7
 72
     1
 11
1111.085731907918
 21
-1330.858652786177
 31
0.0
 73
     2
  0
TEXT
  5
443
  8
DATA
 62
     7
 10
1386.044112260927
 20
-1344.432329001455
 30
0.0
 40
27.14735243055556
  1
THRU 2
 41
0.7
 72
     1
 11
1436.085731907918
 21
-1330.858652786177
 31
0.0
 73
     2
  0
TEXT
  5
444
  8
DATA
 62
     7
 10
1086.381641196113
 20
-989.432329004056
 30
0.0
 40
27.14735243055556
  1
IN 1
 41
0.7
 72
     1
 11
1111.085731907918
 21
-975.8586527887782
 31
0.0
 73
     2
  0
TEXT
  5
445
  8
DATA
 62
     7
 10
1408.214450079214
 20
-989.432329004056
 30
0.0
 40
27.14735243055556
  1
IN 2
 41
0.7
 72
     1
 11
1436.085731907918
 21
-975.8586527887782
 31
0.0
 73
     2
  0
ARC
  5
446
  8
DATA
  6
CONTINUOUS
 62
     7
 10
1181.085731907918
 20
-3522.108652793178
 30
0.0
 40
2031.25
 50
75.74996730219641
 51
104.2500326978036
  0
ARC
  5
447
  8
DATA
  6
CONTINUOUS
 62
     7
 10
3649.835731907918
 20
-1118.983652793178
 30
0.0
 40
2031.25
 50
165.7499673021964
 51
194.2500326978036
  0
ARC
  5
448
  8
DATA
  6
CONTINUOUS
 62
     7
 10
-287.6642680920818
 20
-118.9836527931779
 30
0.0
 40
2031.25
 50
345.7499673021964
 51
14.25003269780353
  0
LINE
  5
449
  8
DATA
  6
CONTINUOUS
 62
     7
 10
-1325.25
 20
-800.0
 30
0.0
 11
-874.75
 21
-800.0
 31
0.0
  0
LINE
  5
44A
  8
DATA
  6
CONTINUOUS
 62
     7
 10
-1340.25
 20
-815.0
 30
0.0
 11
-859.75
 21
-815.0
 31
0.0
  0
ARC
  5
44B
  8
DATA
  6
CONTINUOUS
 62
     7
 10
-1325.25
 20
-815.0
 30
0.0
 40
15.0
 50
90.0
 51
180.0
  0
ARC
  5
44C
  8
DATA
  6
CONTINUOUS
 62
     7
 10
-874.75
 20
-815.0
 30
0.0
 40
15.0
 50
0.0
 51
90.0
  0
LINE
  5
44D
  8
DATA
  6
CONTINUOUS
 62
     7
 10
-790.25
 20
-815.0
 30
0.0
 11
-309.75
 21
-815.0
 31
0.0
  0
LINE
  5
44E
  8
DATA
  6
CONTINUOUS
 62
     7
 10
-175.25
 20
-800.0
 30
0.0
 11
275.25
 21
-800.0
 31
0.0
  0
LINE
  5
44F
  8
DATA
  6
CONTINUOUS
 62
     7
 10
-190.25
 20
-815.0
 30
0.0
 11
290.25
 21
-815.0
 31
0.0
  0
ARC
  5
450
  8
DATA
  6
CONTINUOUS
 62
     7
 10
-175.25
 20
-815.0
 30
0.0
 40
15.0
 50
90.0
 51
180.0
  0
ARC
  5
451
  8
DATA
  6
CONTINUOUS
 62
     7
 10
275.25
 20
-815.0
 30
0.0
 40
15.0
 50
0.0
 51
90.0
  0
LINE
  5
452
  8
DATA
  6
CONTINUOUS
 62
     7
 10
-874.75
 20
-1400.0
 30
0.0
 11
-1325.25
 21
-1400.0
 31
0.0
  0
LINE
  5
453
  8
DATA
  6
CONTINUOUS
 62
     7
 10
-859.75
 20
-1385.0
 30
0.0
 11
-1340.25
 21
-1385.0
 31
0.0
  0
POLYLINE
  5
454
  8
DATA
  6
CONTINUOUS
 62
     7
 66
     1
 10
0.0
 20
0.0
 30
0.0
 70
     1
  0
VERTEX
  5
536
  8
DATA
  6
CONTINUOUS
 62
     7
 10
-1125.0
 20
-1281.0
 30
0.0
  0
VERTEX
  5
537
  8
DATA
  6
CONTINUOUS
 62
     7
 10
-1075.0
 20
-1281.0
 30
0.0
  0
VERTEX
  5
538
  8
DATA
  6
CONTINUOUS
 62
     7
 10
-1075.0
 20
-1321.0
 30
0.0
  0
VERTEX
  5
539
  8
DATA
  6
CONTINUOUS
 62
     7
 10
-1125.0
 20
-1321.0
 30
0.0
  0
SEQEND
  5
540
  8
DATA
  6
CONTINUOUS
 62
     7
  0
ARC
  5
45B
  8
DATA
  6
CONTINUOUS
 62
     7
 10
-1110.587996
 20
-1305.368006
 30
0.0
 40
4.641936165301929
 50
264.6908562215362
 51
323.9911991542452
  0
ARC
  5
45C
  8
DATA
  6
CONTINUOUS
 62
     7
 10
-1111.44701
 20
-1305.368006
 30
0.0
 40
4.641928626503962
 50
216.0088008457563
 51
275.3091437784622
  0
ARC
  5
45D
  8
DATA
  6
CONTINUOUS
 62
     7
 10
-1098.79247
 20
-1306.572962
 30
0.0
 40
3.424700541092633
 50
273.8309816091158
 51
351.1351473098021
  0
ARC
  5
45E
  8
DATA
  6
CONTINUOUS
 62
     7
 10
-1098.758324
 20
-1295.401874
 30
0.0
 40
3.419513879240634
 50
8.226923859018658
 51
86.15412669215222
  0
ARC
  5
45F
  8
DATA
  6
CONTINUOUS
 62
     7
 10
-1099.134593545568
 20
-1307.441940718629
 30
0.0
 40
0.5738096066732651
 50
307.641902497593
 51
354.2670192893806
  0
LINE
  5
460
  8
DATA
  6
CONTINUOUS
 62
     7
 10
-1113.87359
 20
-1298.39963
 30
0.0
 11
-1111.183562
 21
-1291.990046
 31
0.0
  0
LINE
  5
461
  8
DATA
  6
CONTINUOUS
 62
     7
 10
-1113.87359
 20
-1298.39963
 30
0.0
 11
-1116.530426
 21
-1291.990046
 31
0.0
  0
LINE
  5
462
  8
DATA
  6
CONTINUOUS
 62
     7
 10
-1093.48247
 20
-1309.990046
 30
0.0
 11
-1093.48247
 21
-1291.990046
 31
0.0
  0
LINE
  5
463
  8
DATA
  6
CONTINUOUS
 62
     7
 10
-1090.028594
 20
-1291.990046
 30
0.0
 11
-1090.028594
 21
-1307.233598
 31
0.0
  0
LINE
  5
464
  8
DATA
  6
CONTINUOUS
 62
     7
 10
-1109.921564
 20
-1291.990046
 30
0.0
 11
-1109.921564
 21
-1307.233598
 31
0.0
  0
LINE
  5
465
  8
DATA
  6
CONTINUOUS
 62
     7
 10
-1106.600528
 20
-1291.990046
 30
0.0
 11
-1106.600528
 21
-1307.233598
 31
0.0
  0
LINE
  5
466
  8
DATA
  6
CONTINUOUS
 62
     7
 10
-1104.87359
 20
-1291.990046
 30
0.0
 11
-1104.87359
 21
-1309.990046
 31
0.0
  0
LINE
  5
467
  8
DATA
  6
CONTINUOUS
 62
     7
 10
-1101.851444
 20
-1293.683756
 30
0.0
 11
-1101.851444
 21
-1299.462368
 31
0.0
  0
LINE
  5
468
  8
DATA
  6
CONTINUOUS
 62
     7
 10
-1095.374
 20
-1299.128
 30
0.0
 11
-1095.374
 21
-1294.912562
 31
0.0
  0
LINE
  5
469
  8
DATA
  6
CONTINUOUS
 62
     7
 10
-1098.563654
 20
-1294.480814
 30
0.0
 11
-1098.563654
 21
-1298.665328
 31
0.0
  0
LINE
  5
46A
  8
DATA
  6
CONTINUOUS
 62
     7
 10
-1112.445542
 20
-1304.344274
 30
0.0
 11
-1112.445542
 21
-1307.233562
 31
0.0
  0
LINE
  5
46B
  8
DATA
  6
CONTINUOUS
 62
     7
 10
-1112.445542
 20
-1304.344274
 30
0.0
 11
-1115.434478
 21
-1304.344274
 31
0.0
  0
LINE
  5
46C
  8
DATA
  6
CONTINUOUS
 62
     7
 10
-1115.434478
 20
-1304.344274
 30
0.0
 11
-1115.434478
 21
-1307.233562
 31
0.0
  0
ARC
  5
46D
  8
DATA
  6
CONTINUOUS
 62
     7
 10
-1111.177226
 20
-1307.272514
 30
0.0
 40
1.25627188723632
 50
269.7118487927524
 51
1.775987005677734
  0
ARC
  5
46E
  8
DATA
  6
CONTINUOUS
 62
     7
 10
-1111.18988
 20
-1307.272514
 30
0.0
 40
1.256265463427244
 50
178.2240129943171
 51
270.2881512072482
  0
ARC
  5
46F
  8
DATA
  6
CONTINUOUS
 62
     7
 10
-1113.336686
 20
-1307.131808
 30
0.0
 40
2.100240374716988
 50
182.7769954499946
 51
207.3596066671549
  0
CIRCLE
  5
470
  8
DATA
  6
CONTINUOUS
 62
     7
 10
-1113.690926
 20
-1300.890416
 30
0.0
 40
1.7103239999999
  0
LINE
  5
471
  8
DATA
  6
CONTINUOUS
 62
     7
 10
-1084.48247
 20
-1309.990028
 30
0.0
 11
-1093.48247
 21
-1309.990028
 31
0.0
  0
LINE
  5
472
  8
DATA
  6
CONTINUOUS
 62
     7
 10
-1084.48247
 20
-1309.990028
 30
0.0
 11
-1084.48247
 21
-1304.344256
 31
0.0
  0
LINE
  5
473
  8
DATA
  6
CONTINUOUS
 62
     7
 10
-1084.48247
 20
-1304.344274
 30
0.0
 11
-1087.504598
 21
-1304.344274
 31
0.0
  0
LINE
  5
474
  8
DATA
  6
CONTINUOUS
 62
     7
 10
-1087.504598
 20
-1304.344274
 30
0.0
 11
-1087.504598
 21
-1307.233562
 31
0.0
  0
LINE
  5
475
  8
DATA
  6
CONTINUOUS
 62
     7
 10
-1104.87359
 20
-1309.990028
 30
0.0
 11
-1098.563654
 21
-1309.99001
 31
0.0
  0
LINE
  5
476
  8
DATA
  6
CONTINUOUS
 62
     7
 10
-1101.851462
 20
-1308.2963
 30
0.0
 11
-1100.224154
 21
-1308.2963
 31
0.0
  0
LINE
  5
477
  8
DATA
  6
CONTINUOUS
 62
     7
 10
-1101.851444
 20
-1308.2963
 30
0.0
 11
-1101.851444
 21
-1301.189288
 31
0.0
  0
LINE
  5
478
  8
DATA
  6
CONTINUOUS
 62
     7
 10
-1101.851462
 20
-1301.189288
 30
0.0
 11
-1100.224154
 21
-1301.189288
 31
0.0
  0
LINE
  5
479
  8
DATA
  6
CONTINUOUS
 62
     7
 10
-1098.563654
 20
-1307.49926
 30
0.0
 11
-1098.563654
 21
-1301.986328
 31
0.0
  0
ARC
  5
47A
  8
DATA
  6
CONTINUOUS
 62
     7
 10
-1108.69832
 20
-1307.131808
 30
0.0
 40
2.100237386157163
 50
332.6403933328431
 51
357.2230045500067
  0
ARC
  5
47B
  8
DATA
  6
CONTINUOUS
 62
     7
 10
-1088.760278
 20
-1307.272514
 30
0.0
 40
1.25627188723632
 50
269.7118487927524
 51
1.775987005678076
  0
ARC
  5
47C
  8
DATA
  6
CONTINUOUS
 62
     7
 10
-1088.772914
 20
-1307.272514
 30
0.0
 40
1.256265463427471
 50
178.2240129943174
 51
270.2881512072482
  0
LINE
  5
47D
  8
DATA
  6
CONTINUOUS
 62
     7
 10
-1095.375458
 20
-1307.100722
 30
0.0
 11
-1095.375458
 21
-1302.318446
 31
0.0
  0
LINE
  5
47E
  8
DATA
  6
CONTINUOUS
 62
     7
 10
-1101.851462
 20
-1299.462368
 30
0.0
 11
-1100.224154
 21
-1299.462368
 31
0.0
  0
LINE
  5
47F
  8
DATA
  6
CONTINUOUS
 62
     7
 10
-1109.921564
 20
-1291.990046
 30
0.0
 11
-1106.600528
 21
-1291.990046
 31
0.0
  0
LINE
  5
480
  8
DATA
  6
CONTINUOUS
 62
     7
 10
-1116.530426
 20
-1291.990046
 30
0.0
 11
-1111.183562
 21
-1291.990046
 31
0.0
  0
LINE
  5
481
  8
DATA
  6
CONTINUOUS
 62
     7
 10
-1093.48247
 20
-1291.990046
 30
0.0
 11
-1090.028594
 21
-1291.990046
 31
0.0
  0
LINE
  5
482
  8
DATA
  6
CONTINUOUS
 62
     7
 10
-1104.87359
 20
-1291.990046
 30
0.0
 11
-1098.528967769336
 21
-1291.990060568732
 31
0.0
  0
LINE
  5
483
  8
DATA
  6
CONTINUOUS
 62
     7
 10
-1101.851462
 20
-1293.683774
 30
0.0
 11
-1100.224154
 21
-1293.683774
 31
0.0
  0
ARC
  5
484
  8
DATA
  6
CONTINUOUS
 62
     7
 10
-1100.204938167314
 20
-1305.139661670943
 30
0.0
 40
3.156696816087303
 50
269.6512199376164
 51
282.8264828068716
  0
ARC
  5
485
  8
DATA
  6
CONTINUOUS
 62
     7
 10
-1099.85039115056
 20
-1306.474250560208
 30
0.0
 40
1.777388226647971
 50
281.2331036226583
 51
306.8620088940601
  0
ARC
  5
486
  8
DATA
  6
CONTINUOUS
 62
     7
 10
-1099.134593545568
 20
-1302.04364728137
 30
0.0
 40
0.5738096066732736
 50
5.732980710574215
 51
52.358097502407
  0
ARC
  5
487
  8
DATA
  6
CONTINUOUS
 62
     7
 10
-1100.204938167314
 20
-1304.345926329056
 30
0.0
 40
3.156696816086934
 50
77.17351719312664
 51
90.34878006238365
  0
ARC
  5
488
  8
DATA
  6
CONTINUOUS
 62
     7
 10
-1099.85039115056
 20
-1303.011337439791
 30
0.0
 40
1.777388226647797
 50
53.13799110593549
 51
78.76689637734027
  0
ARC
  5
489
  8
DATA
  6
CONTINUOUS
 62
     7
 10
-1097.117282
 20
-1302.436184
 30
0.0
 40
1.745798695044725
 50
3.867006359826823
 51
88.36163456790243
  0
ARC
  5
48A
  8
DATA
  6
CONTINUOUS
 62
     7
 10
-1097.118884
 20
-1298.944328
 30
0.0
 40
1.747533491905395
 50
271.6892821046484
 51
356.078282982661
  0
ARC
  5
48B
  8
DATA
  6
CONTINUOUS
 62
     7
 10
-1099.134593545568
 20
-1298.608008718629
 30
0.0
 40
0.5738096066732651
 50
307.641902497593
 51
354.2670192893806
  0
ARC
  5
48C
  8
DATA
  6
CONTINUOUS
 62
     7
 10
-1100.204938167314
 20
-1296.305729670943
 30
0.0
 40
3.156696816087303
 50
269.6512199376164
 51
282.8264828068716
  0
ARC
  5
48D
  8
DATA
  6
CONTINUOUS
 62
     7
 10
-1099.85039115056
 20
-1297.640318560209
 30
0.0
 40
1.777388226647524
 50
281.2331036226611
 51
306.862008894063
  0
ARC
  5
48E
  8
DATA
  6
CONTINUOUS
 62
     7
 10
-1099.134593545568
 20
-1294.53813328137
 30
0.0
 40
0.5738096066733192
 50
5.732980710619397
 51
52.35809750240699
  0
ARC
  5
48F
  8
DATA
  6
CONTINUOUS
 62
     7
 10
-1100.204938167314
 20
-1296.840412329057
 30
0.0
 40
3.156696816087377
 50
77.17351719312846
 51
90.34878006238361
  0
ARC
  5
490
  8
DATA
  6
CONTINUOUS
 62
     7
 10
-1099.85039115056
 20
-1295.505823439791
 30
0.0
 40
1.777388226647797
 50
53.13799110593549
 51
78.76689637734746
  0
POLYLINE
  5
491
  8
DATA
  6
CONTINUOUS
 62
     7
 66
     1
 10
0.0
 20
0.0
 30
0.0
 70
     1
  0
VERTEX
  5
53A
  8
DATA
  6
CONTINUOUS
 62
     7
 10
-1137.0
 20
-1267.0
 30
0.0
  0
VERTEX
  5
53B
  8
DATA
  6
CONTINUOUS
 62
     7
 10
-1063.0
 20
-1267.0
 30
0.0
  0
VERTEX
  5
53C
  8
DATA
  6
CONTINUOUS
 62
     7
 10
-1063.0
 20
-1335.0
 30
0.0
  0
VERTEX
  5
53D
  8
DATA
  6
CONTINUOUS
 62
     7
 10
-1137.0
 20
-1335.0
 30
0.0
  0
SEQEND
  5
541
  8
DATA
  6
CONTINUOUS
 62
     7
  0
ARC
  5
498
  8
DATA
  6
CONTINUOUS
 62
     7
 10
-1325.25
 20
-1385.0
 30
0.0
 40
15.0
 50
180.0
 51
270.0
  0
ARC
  5
499
  8
DATA
  6
CONTINUOUS
 62
     7
 10
-874.75
 20
-1385.0
 30
0.0
 40
15.0
 50
270.0
 51
0.0
  0
LINE
  5
49A
  8
DATA
  6
CONTINUOUS
 62
     7
 10
-309.75
 20
-1385.0
 30
0.0
 11
-790.25
 21
-1385.0
 31
0.0
  0
LINE
  5
49B
  8
DATA
  6
CONTINUOUS
 62
     7
 10
-755.75
 20
-1405.0
 30
0.0
 11
-755.75
 21
-1400.0
 31
0.0
  0
LINE
  5
49C
  8
DATA
  6
CONTINUOUS
 62
     7
 10
-715.75
 20
-1405.0
 30
0.0
 11
-715.75
 21
-1400.0
 31
0.0
  0
LINE
  5
49D
  8
DATA
  6
CONTINUOUS
 62
     7
 10
-752.75
 20
-1408.0
 30
0.0
 11
-718.75
 21
-1408.0
 31
0.0
  0
ARC
  5
49E
  8
DATA
  6
CONTINUOUS
 62
     7
 10
-752.75
 20
-1405.0
 30
0.0
 40
3.0
 50
180.0
 51
270.0
  0
ARC
  5
49F
  8
DATA
  6
CONTINUOUS
 62
     7
 10
-718.75
 20
-1405.0
 30
0.0
 40
3.0
 50
270.0
 51
0.0
  0
LINE
  5
4A0
  8
DATA
  6
CONTINUOUS
 62
     7
 10
-369.75
 20
-1405.0
 30
0.0
 11
-369.75
 21
-1400.0
 31
0.0
  0
LINE
  5
4A1
  8
DATA
  6
CONTINUOUS
 62
     7
 10
-329.75
 20
-1405.0
 30
0.0
 11
-329.75
 21
-1400.0
 31
0.0
  0
LINE
  5
4A2
  8
DATA
  6
CONTINUOUS
 62
     7
 10
-366.75
 20
-1408.0
 30
0.0
 11
-332.75
 21
-1408.0
 31
0.0
  0
ARC
  5
4A3
  8
DATA
  6
CONTINUOUS
 62
     7
 10
-366.75
 20
-1405.0
 30
0.0
 40
3.0
 50
180.0
 51
270.0
  0
ARC
  5
4A4
  8
DATA
  6
CONTINUOUS
 62
     7
 10
-332.75
 20
-1405.0
 30
0.0
 40
3.0
 50
270.0
 51
0.0
  0
LINE
  5
4A5
  8
DATA
  6
CONTINUOUS
 62
     7
 10
-920.0
 20
-1405.0
 30
0.0
 11
-920.0
 21
-1400.0
 31
0.0
  0
LINE
  5
4A6
  8
DATA
  6
CONTINUOUS
 62
     7
 10
-880.0
 20
-1405.0
 30
0.0
 11
-880.0
 21
-1400.0
 31
0.0
  0
LINE
  5
4A7
  8
DATA
  6
CONTINUOUS
 62
     7
 10
-917.0
 20
-1408.0
 30
0.0
 11
-883.0
 21
-1408.0
 31
0.0
  0
ARC
  5
4A8
  8
DATA
  6
CONTINUOUS
 62
     7
 10
-917.0
 20
-1405.0
 30
0.0
 40
3.0
 50
180.0
 51
270.0
  0
ARC
  5
4A9
  8
DATA
  6
CONTINUOUS
 62
     7
 10
-883.0
 20
-1405.0
 30
0.0
 40
3.0
 50
270.0
 51
0.0
  0
LINE
  5
4AA
  8
DATA
  6
CONTINUOUS
 62
     7
 10
-1320.0
 20
-1405.0
 30
0.0
 11
-1320.0
 21
-1400.0
 31
0.0
  0
LINE
  5
4AB
  8
DATA
  6
CONTINUOUS
 62
     7
 10
-1280.0
 20
-1405.0
 30
0.0
 11
-1280.0
 21
-1400.0
 31
0.0
  0
LINE
  5
4AC
  8
DATA
  6
CONTINUOUS
 62
     7
 10
-1317.0
 20
-1408.0
 30
0.0
 11
-1283.0
 21
-1408.0
 31
0.0
  0
ARC
  5
4AD
  8
DATA
  6
CONTINUOUS
 62
     7
 10
-1317.0
 20
-1405.0
 30
0.0
 40
3.0
 50
180.0
 51
270.0
  0
ARC
  5
4AE
  8
DATA
  6
CONTINUOUS
 62
     7
 10
-1283.0
 20
-1405.0
 30
0.0
 40
3.0
 50
270.0
 51
0.0
  0
LINE
  5
4AF
  8
DATA
  6
CONTINUOUS
 62
     7
 10
275.25
 20
-1400.0
 30
0.0
 11
-175.25
 21
-1400.0
 31
0.0
  0
LINE
  5
4B0
  8
DATA
  6
CONTINUOUS
 62
     7
 10
290.25
 20
-1385.0
 30
0.0
 11
-190.25
 21
-1385.0
 31
0.0
  0
ARC
  5
4B1
  8
DATA
  6
CONTINUOUS
 62
     7
 10
-175.25
 20
-1385.0
 30
0.0
 40
15.0
 50
180.0
 51
270.0
  0
ARC
  5
4B2
  8
DATA
  6
CONTINUOUS
 62
     7
 10
275.25
 20
-1385.0
 30
0.0
 40
15.0
 50
270.0
 51
0.0
  0
LINE
  5
4B3
  8
DATA
  6
CONTINUOUS
 62
     7
 10
230.0
 20
-1405.0
 30
0.0
 11
230.0
 21
-1400.0
 31
0.0
  0
LINE
  5
4B4
  8
DATA
  6
CONTINUOUS
 62
     7
 10
270.0
 20
-1405.0
 30
0.0
 11
270.0
 21
-1400.0
 31
0.0
  0
LINE
  5
4B5
  8
DATA
  6
CONTINUOUS
 62
     7
 10
233.0
 20
-1408.0
 30
0.0
 11
267.0
 21
-1408.0
 31
0.0
  0
ARC
  5
4B6
  8
DATA
  6
CONTINUOUS
 62
     7
 10
233.0
 20
-1405.0
 30
0.0
 40
3.0
 50
180.0
 51
270.0
  0
ARC
  5
4B7
  8
DATA
  6
CONTINUOUS
 62
     7
 10
267.0
 20
-1405.0
 30
0.0
 40
3.0
 50
270.0
 51
0.0
  0
LINE
  5
4B8
  8
DATA
  6
CONTINUOUS
 62
     7
 10
-170.0
 20
-1405.0
 30
0.0
 11
-170.0
 21
-1400.0
 31
0.0
  0
LINE
  5
4B9
  8
DATA
  6
CONTINUOUS
 62
     7
 10
-130.0
 20
-1405.0
 30
0.0
 11
-130.0
 21
-1400.0
 31
0.0
  0
LINE
  5
4BA
  8
DATA
  6
CONTINUOUS
 62
     7
 10
-167.0
 20
-1408.0
 30
0.0
 11
-133.0
 21
-1408.0
 31
0.0
  0
ARC
  5
4BB
  8
DATA
  6
CONTINUOUS
 62
     7
 10
-167.0
 20
-1405.0
 30
0.0
 40
3.0
 50
180.0
 51
270.0
  0
ARC
  5
4BC
  8
DATA
  6
CONTINUOUS
 62
     7
 10
-133.0
 20
-1405.0
 30
0.0
 40
3.0
 50
270.0
 51
0.0
  0
ARC
  5
4BD
  8
DATA
  6
CONTINUOUS
 62
     7
 10
-324.75
 20
-815.0
 30
0.0
 40
15.0
 50
0.0
 51
90.0
  0
ARC
  5
4BE
  8
DATA
  6
CONTINUOUS
 62
     7
 10
-775.25
 20
-815.0
 30
0.0
 40
15.0
 50
90.0
 51
180.0
  0
ARC
  5
4BF
  8
DATA
  6
CONTINUOUS
 62
     7
 10
-324.75
 20
-1385.0
 30
0.0
 40
15.0
 50
270.0
 51
0.0
  0
ARC
  5
4C0
  8
DATA
  6
CONTINUOUS
 62
     7
 10
-775.25
 20
-1385.0
 30
0.0
 40
15.0
 50
180.0
 51
270.0
  0
TEXT
  5
4C1
  8
DATA
 62
     7
 10
1000.0
 20
-2310.277714999999
 30
0.0
 40
48.86523437500001
  1
IRX115S-Y3
 41
0.7
 11
1000.0
 21
-2261.412480624999
 31
0.0
 73
     3
  0
ENDSEC
  0
EOF
