  0
SECTION
  2
HEADER
  9
$ACADVER
  1
AC1009
  9
$INSBASE
 10
0.0
 20
0.0
 30
0.0
  9
$EXTMIN
 10
-574.99999999999989
 20
-867.35954249999963
 30
0.0
  9
$EXTMAX
 10
775.0
 20
1137.9567975
 30
0.0
  9
$LIMMIN
 10
0.0
 20
0.0
  9
$LIMMAX
 10
0.0
 20
0.0
  9
$ORTHOMODE
 70
     0
  9
$REGENMODE
 70
     1
  9
$FILLMODE
 70
     1
  9
$QTEXTMODE
 70
     0
  9
$MIRRTEXT
 70
     1
  9
$DRAGMODE
 70
     2
  9
$LTSCALE
 40
38.100000000000001
  9
$OSMODE
 70
   231
  9
$ATTMODE
 70
     1
  9
$TEXTSIZE
 40
0.0
  9
$TRACEWID
 40
1.0
  9
$TEXTSTYLE
  7
STANDARD
  9
$CLAYER
  8
DATA
  9
$CELTYPE
  6
BYLAYER
  9
$CECOLOR
 62
   256
  9
$DIMSCALE
 40
1.0
  9
$DIMASZ
 40
0.18
  9
$DIMEXO
 40
0.0625
  9
$DIMDLI
 40
0.38
  9
$DIMRND
 40
0.0
  9
$DIMDLE
 40
0.0
  9
$DIMEXE
 40
0.18
  9
$DIMTP
 40
0.0
  9
$DIMTM
 40
0.0
  9
$DIMTXT
 40
0.18
  9
$DIMCEN
 40
0.09
  9
$DIMTSZ
 40
0.0
  9
$DIMTOL
 70
     0
  9
$DIMLIM
 70
     0
  9
$DIMTIH
 70
     1
  9
$DIMTOH
 70
     1
  9
$DIMSE1
 70
     0
  9
$DIMSE2
 70
     0
  9
$DIMTAD
 70
     0
  9
$DIMZIN
 70
     0
  9
$DIMBLK
  1

  9
$DIMASO
 70
     1
  9
$DIMSHO
 70
     1
  9
$DIMPOST
  1

  9
$DIMAPOST
  1

  9
$DIMALT
 70
     0
  9
$DIMALTD
 70
     2
  9
$DIMALTF
 40
25.399999999999999
  9
$DIMLFAC
 40
1.0
  9
$DIMTOFL
 70
     0
  9
$DIMTVP
 40
0.0
  9
$DIMTIX
 70
     0
  9
$DIMSOXD
 70
     0
  9
$DIMSAH
 70
     0
  9
$DIMBLK1
  1

  9
$DIMBLK2
  1

  9
$DIMSTYLE
  2
STANDARD
  9
$DIMCLRD
 70
     0
  9
$DIMCLRE
 70
     0
  9
$DIMCLRT
 70
     0
  9
$DIMTFAC
 40
1.0
  9
$DIMGAP
 40
0.09
  9
$LUNITS
 70
     2
  9
$LUPREC
 70
     4
  9
$SKETCHINC
 40
0.1
  9
$FILLETRAD
 40
0.0
  9
$AUNITS
 70
     0
  9
$AUPREC
 70
     0
  9
$MENU
  1
acad
  9
$ELEVATION
 40
0.0
  9
$PELEVATION
 40
0.0
  9
$THICKNESS
 40
0.0
  9
$LIMCHECK
 70
     0
  9
$BLIPMODE
 70
     0
  9
$CHAMFERA
 40
0.0
  9
$CHAMFERB
 40
0.0
  9
$SKPOLY
 70
     0
  9
$TDCREATE
 40
2452878.8829513891
  9
$TDUPDATE
 40
2455607.7388722571
  9
$TDINDWG
 40
0.001578831
  9
$TDUSRTIMER
 40
0.0015786458
  9
$USRTIMER
 70
     1
  9
$ANGBASE
 50
0.0
  9
$ANGDIR
 70
     0
  9
$PDMODE
 70
     1
  9
$PDSIZE
 40
-2.0
  9
$PLINEWID
 40
0.0
  9
$COORDS
 70
     1
  9
$SPLFRAME
 70
     0
  9
$SPLINETYPE
 70
     6
  9
$SPLINESEGS
 70
     8
  9
$ATTDIA
 70
     0
  9
$ATTREQ
 70
     1
  9
$HANDLING
 70
     1
  9
$HANDSEED
  5
C66
  9
$SURFTAB1
 70
     6
  9
$SURFTAB2
 70
     6
  9
$SURFTYPE
 70
     6
  9
$SURFU
 70
     6
  9
$SURFV
 70
     6
  9
$UCSNAME
  2

  9
$UCSORG
 10
0.0
 20
0.0
 30
0.0
  9
$UCSXDIR
 10
1.0
 20
0.0
 30
0.0
  9
$UCSYDIR
 10
0.0
 20
1.0
 30
0.0
  9
$PUCSNAME
  2

  9
$PUCSORG
 10
0.0
 20
0.0
 30
0.0
  9
$PUCSXDIR
 10
1.0
 20
0.0
 30
0.0
  9
$PUCSYDIR
 10
0.0
 20
1.0
 30
0.0
  9
$USERI1
 70
     0
  9
$USERI2
 70
     0
  9
$USERI3
 70
     0
  9
$USERI4
 70
     0
  9
$USERI5
 70
     0
  9
$USERR1
 40
0.0
  9
$USERR2
 40
0.0
  9
$USERR3
 40
0.0
  9
$USERR4
 40
0.0
  9
$USERR5
 40
0.0
  9
$WORLDVIEW
 70
     1
  9
$SHADEDGE
 70
     3
  9
$SHADEDIF
 70
    70
  9
$TILEMODE
 70
     1
  9
$MAXACTVP
 70
    16
  9
$PLIMCHECK
 70
     0
  9
$PEXTMIN
 10
1.0000000000000000E+020
 20
1.0000000000000000E+020
 30
1.0000000000000000E+020
  9
$PEXTMAX
 10
-1.0000000000000000E+020
 20
-1.0000000000000000E+020
 30
-1.0000000000000000E+020
  9
$PLIMMIN
 10
0.0
 20
0.0
  9
$PLIMMAX
 10
12.0
 20
9.0
  9
$UNITMODE
 70
     0
  9
$VISRETAIN
 70
     0
  9
$PLINEGEN
 70
     1
  9
$PSLTSCALE
 70
     0
  0
ENDSEC
  0
SECTION
  2
TABLES
  0
TABLE
  2
VPORT
 70
     1
  0
VPORT
  2
*ACTIVE
 70
     0
 10
0.0
 20
0.0
 11
1.0
 21
1.0
 12
100.00000314321549
 22
135.29863216899111
 13
0.0
 23
0.0
 14
1.0
 24
1.0
 15
0.0
 25
0.0
 16
0.0
 26
0.0
 36
1.0
 17
0.0
 27
0.0
 37
0.0
 40
2020.202700942024
 41
1.9619164619164611
 42
50.0
 43
0.0
 44
0.0
 50
0.0
 51
0.0
 71
     0
 72
   100
 73
     1
 74
     1
 75
     0
 76
     0
 77
     0
 78
     0
  0
ENDTAB
  0
TABLE
  2
LTYPE
 70
     1
  0
LTYPE
  2
CONTINUOUS
 70
     0
  3
Solid line
 72
    65
 73
     0
 40
0.0
  0
ENDTAB
  0
TABLE
  2
LAYER
 70
     5
  0
LAYER
  2
0
 70
     0
 62
     7
  6
CONTINUOUS
  0
LAYER
  2
DATA
 70
     0
 62
     7
  6
CONTINUOUS
  0
LAYER
  2
DEFPOINTS
 70
     0
 62
     7
  6
CONTINUOUS
  0
LAYER
  2
HIBINO-BASE
 70
     0
 62
     7
  6
CONTINUOUS
  0
LAYER
  2
DIMNSIONS
 70
     0
 62
     7
  6
CONTINUOUS
  0
ENDTAB
  0
TABLE
  2
STYLE
 70
     2
  0
STYLE
  2
STANDARD
 70
     0
 40
0.0
 41
1.0
 50
0.0
 71
     0
 42
0.0
  3
txt
  4
BIGFONT.SHX
  0
ENDTAB
  0
TABLE
  2
VIEW
 70
     0
  0
ENDTAB
  0
TABLE
  2
UCS
 70
     0
  0
ENDTAB
  0
TABLE
  2
APPID
 70
     3
  0
APPID
  2
ACAD
 70
     0
  0
APPID
  2
ACADANNOTATIVE
 70
     0
  0
APPID
  2
ACAD_MLEADERVER
 70
     0
  0
ENDTAB
  0
TABLE
  2
DIMSTYLE
 70
     2
  0
DIMSTYLE
  2
STANDARD
 70
     0
  3

  4

  5

  6

  7

 40
1.0
 41
0.18
 42
0.0625
 43
0.38
 44
0.18
 45
0.0
 46
0.0
 47
0.0
 48
0.0
140
0.18
141
0.09
142
0.0
143
25.399999999999999
144
1.0
145
0.0
146
1.0
147
0.09
 71
     0
 72
     0
 73
     1
 74
     1
 75
     0
 76
     0
 77
     0
 78
     0
170
     0
171
     2
172
     0
173
     0
174
     0
175
     0
176
     0
177
     0
178
     0
  0
ENDTAB
  0
ENDSEC
  0
SECTION
  2
BLOCKS
  0
BLOCK
  8
0
  2
$MODEL_SPACE
 70
     0
 10
0.0
 20
0.0
 30
0.0
  3
$MODEL_SPACE
  1

  0
ENDBLK
  5
A89
  8
0
  0
BLOCK
 67
     1
  8
0
  2
$PAPER_SPACE
 70
     0
 10
0.0
 20
0.0
 30
0.0
  3
$PAPER_SPACE
  1

  0
ENDBLK
  5
A85
 67
     1
  8
0
  0
ENDSEC
  0
SECTION
  2
ENTITIES
  0
LINE
  5
2D
  8
HIBINO-BASE
 62
     7
 10
-574.99999999999989
 20
1137.9567975
 30
0.0
 11
775.0
 21
1137.9567975
 31
0.0
  0
LINE
  5
2E
  8
HIBINO-BASE
 62
     7
 10
775.0
 20
-812.04320250000012
 30
0.0
 11
-574.99999999999989
 21
-812.04320250000012
 31
0.0
  0
LINE
  5
2F
  8
HIBINO-BASE
 62
     7
 10
-574.99999999999989
 20
-812.04320250000012
 30
0.0
 11
-574.99999999999989
 21
1137.9567975
 31
0.0
  0
TEXT
  5
30
  8
HIBINO-BASE
 62
     7
 10
-521.11999999999978
 20
-858.00308249999955
 30
0.0
 40
28.069379999999999
  1
Hibino Corporation
 41
0.7
 11
-521.11999999999978
 21
-829.93370249999964
 31
0.0
 73
     3
  0
LINE
  5
31
  8
HIBINO-BASE
 62
     7
 10
775.0
 20
1137.9567975
 30
0.0
 11
775.0
 21
-812.04320250000012
 31
0.0
  0
LINE
  5
32
  8
HIBINO-BASE
 62
     7
 10
100.0
 20
-643.29320250000001
 30
0.0
 11
775.0
 21
-643.29320250000001
 31
0.0
  0
LINE
  5
33
  8
HIBINO-BASE
 62
     7
 10
100.0
 20
-812.04320250000012
 30
0.0
 11
100.0
 21
-643.29320250000001
 31
0.0
  0
TEXT
  5
34
  8
HIBINO-BASE
 62
     7
 10
106.75
 20
-661.15590250000002
 30
0.0
 40
12.699999999999999
  1
NOTE
 41
0.7
 11
106.75
 21
-648.45590249999998
 31
0.0
 73
     3
  0
LINE
  5
35
  8
HIBINO-BASE
 62
     7
 10
362.5
 20
-812.04320250000012
 30
0.0
 11
362.5
 21
-643.29320250000001
 31
0.0
  0
TEXT
  5
36
  8
HIBINO-BASE
 62
     7
 10
369.25
 20
-661.15590250000002
 30
0.0
 40
12.699999999999999
  1
TITLE
 41
0.7
 11
369.25
 21
-648.45590249999998
 31
0.0
 73
     3
  0
TEXT
  5
37
  8
HIBINO-BASE
 62
     7
 10
475.51292499999988
 20
-858.00308249999955
 30
0.0
 40
28.069379999999999
  1
ヒビノ株式会社
 41
0.7
 11
475.51292499999988
 21
-829.93370249999964
 31
0.0
 73
     3
  0
LINE
  5
38
  8
HIBINO-BASE
 62
     7
 10
100.0
 20
-737.04320250000001
 30
0.0
 11
775.0
 21
-737.04320250000001
 31
0.0
  0
TEXT
  5
39
  8
HIBINO-BASE
 62
     7
 10
463.0
 20
-754.4835025000001
 30
0.0
 40
12.699999999999999
  1
DRAWN
 41
0.7
 11
463.0
 21
-741.78350250000005
 31
0.0
 73
     3
  0
TEXT
  5
3A
  8
HIBINO-BASE
 62
     7
 10
275.5
 20
-754.4835025000001
 30
0.0
 40
12.699999999999999
  1
DATE
 41
0.7
 11
275.5
 21
-741.78350250000005
 31
0.0
 73
     3
  0
TEXT
  5
3B
  8
HIBINO-BASE
 62
     7
 10
200.5
 20
-754.4835025000001
 30
0.0
 40
12.699999999999999
  1
SCALE
 41
0.7
 11
200.5
 21
-741.78350250000005
 31
0.0
 73
     3
  0
TEXT
  5
3C
  8
HIBINO-BASE
 62
     7
 10
369.25
 20
-754.4835025000001
 30
0.0
 40
12.699999999999999
  1
DESIGN
 41
0.7
 11
369.25
 21
-741.78350250000005
 31
0.0
 73
     3
  0
TEXT
  5
3D
  8
HIBINO-BASE
 62
     7
 10
650.49999999999989
 20
-754.4835025000001
 30
0.0
 40
12.699999999999999
  1
DRAWING NO.
 41
0.7
 11
650.49999999999989
 21
-741.78350250000005
 31
0.0
 73
     3
  0
TEXT
  5
3E
  8
HIBINO-BASE
 62
     7
 10
556.74999999999989
 20
-754.4835025000001
 30
0.0
 40
12.699999999999999
  1
CHECK
 41
0.7
 11
556.74999999999989
 21
-741.78350250000005
 31
0.0
 73
     3
  0
LINE
  5
3F
  8
HIBINO-BASE
 62
     7
 10
207.8125
 20
-802.66820250000012
 30
0.0
 11
235.9375
 21
-774.54320250000001
 31
0.0
  0
TEXT
  5
40
  8
HIBINO-BASE
 62
     7
 10
203.125
 20
-781.90777750000007
 30
0.0
 40
12.699999999999999
  1
1
 41
0.7
 11
203.125
 21
-769.20777750000002
 31
0.0
 73
     3
  0
LINE
  5
41
  8
HIBINO-BASE
 62
     7
 10
193.75
 20
-812.04320250000012
 30
0.0
 11
193.75
 21
-737.04320250000001
 31
0.0
  0
LINE
  5
42
  8
HIBINO-BASE
 62
     7
 10
268.75
 20
-812.04320250000012
 30
0.0
 11
268.75
 21
-737.04320250000001
 31
0.0
  0
LINE
  5
43
  8
HIBINO-BASE
 62
     7
 10
456.24999999999989
 20
-737.04320250000001
 30
0.0
 11
456.24999999999989
 21
-812.04320250000012
 31
0.0
  0
LINE
  5
44
  8
HIBINO-BASE
 62
     7
 10
643.75
 20
-737.04320250000001
 30
0.0
 11
643.75
 21
-812.04320250000012
 31
0.0
  0
LINE
  5
45
  8
HIBINO-BASE
 62
     7
 10
549.99999999999989
 20
-812.04320250000012
 30
0.0
 11
549.99999999999989
 21
-737.04320250000001
 31
0.0
  0
TEXT
  5
46
  8
HIBINO-BASE
 62
     7
 10
275.17405000000002
 20
-789.61335249999979
 30
0.0
 40
12.699999999999999
  1
'03.08.
 41
0.7
 11
275.17405000000002
 21
-776.91335249999986
 31
0.0
 73
     3
  0
TEXT
  5
47
  8
HIBINO-BASE
 62
     7
 10
231.25
 20
-795.97027750000007
 30
0.0
 40
12.699999999999999
  1
7.5
 41
0.7
 11
231.25
 21
-783.27027750000002
 31
0.0
 73
     3
  0
TEXT
  5
48
  8
HIBINO-BASE
 62
     7
 10
467.54357508275939
 20
-789.61335249999979
 30
0.0
 40
12.699999999999999
  1
N.Sasaki
 41
0.7
 11
467.54357508275939
 21
-776.91335249999986
 31
0.0
 73
     3
  0
TEXT
  5
49
  8
HIBINO-BASE
 62
     7
 10
129.12500000000011
 20
-795.31820249999998
 30
0.0
 40
25.399999999999999
  1
A4
 41
0.7
 11
129.12500000000011
 21
-769.91820249999989
 31
0.0
 73
     3
  0
TEXT
  5
4A
  8
HIBINO-BASE
 62
     7
 10
107.1874999999999
 20
-753.61994833333335
 30
0.0
 40
10.58333333333333
  1
PAPER SIZE
 41
0.7
 11
107.1874999999999
 21
-743.03661499999998
 31
0.0
 73
     3
  0
TEXT
  5
4B
  8
DIMNSIONS
 62
     7
 10
-50.0
 20
-753.02360770903294
 30
0.0
 40
19.050000000000001
  1
(単位：mm)
 41
0.7
 11
-50.0
 21
-733.97360770903299
 31
0.0
 73
     3
  0
LINE
  5
4C
  8
DIMNSIONS
 62
     7
 10
282.91289383518267
 20
1023.5602035763339
 30
0.0
 11
325.0
 21
1075.0
 31
0.0
  0
LINE
  5
4D
  8
DIMNSIONS
 62
     7
 10
282.91289383518267
 20
1023.5602035763339
 30
0.0
 11
291.11856085085742
 21
1041.1573132788451
 31
0.0
  0
LINE
  5
4E
  8
DIMNSIONS
 62
     7
 10
282.91289383518267
 20
1023.5602035763339
 30
0.0
 11
298.81776477700868
 21
1034.696914104052
 31
0.0
  0
LINE
  5
4F
  8
DIMNSIONS
 62
     7
 10
325.0
 20
1075.0
 30
0.0
 11
445.83333333333331
 21
1075.0
 31
0.0
  0
TEXT
  5
50
  8
DIMNSIONS
 62
     7
 10
340.0
 20
1084.0416666666661
 30
0.0
 40
21.166666666666671
  1
10-\U+03C69.2
 41
0.7
 11
340.0
 21
1105.208333333333
 31
0.0
 73
     3
  0
LINE
  5
51
  8
DIMNSIONS
 62
     7
 10
161.71026313764861
 20
1026.2709648380439
 30
0.0
 11
175.0
 21
1075.0
 31
0.0
  0
LINE
  5
52
  8
DIMNSIONS
 62
     7
 10
161.71026313764861
 20
1026.2709648380439
 30
0.0
 11
162.04912363850991
 21
1045.6842699305651
 31
0.0
  0
LINE
  5
53
  8
DIMNSIONS
 62
     7
 10
161.71026313764861
 20
1026.2709648380439
 30
0.0
 11
171.7103774859942
 21
1042.9139499691551
 31
0.0
  0
LINE
  5
54
  8
DIMNSIONS
 62
     7
 10
175.0
 20
1075.0
 30
0.0
 11
269.375
 21
1075.0
 31
0.0
  0
TEXT
  5
55
  8
DIMNSIONS
 62
     7
 10
190.0
 20
1084.0416666666661
 30
0.0
 40
21.166666666666671
  1
4-\U+03C613
 41
0.7
 11
190.0
 21
1105.208333333333
 31
0.0
 73
     3
  0
LINE
  5
56
  8
DIMNSIONS
 62
     7
 10
122.0499999999999
 20
1037.5999999999999
 30
0.0
 11
-65.000000000000014
 21
1037.5999999999999
 31
0.0
  0
LINE
  5
57
  8
DIMNSIONS
 62
     7
 10
122.0499999999999
 20
862.39999999999998
 30
0.0
 11
-65.000000000000014
 21
862.39999999999998
 31
0.0
  0
LINE
  5
58
  8
DIMNSIONS
 62
     7
 10
-50.0
 20
1037.5999999999999
 30
0.0
 11
-50.0
 21
862.39999999999998
 31
0.0
  0
LINE
  5
59
  8
DIMNSIONS
 62
     7
 10
-50.0
 20
1037.5999999999999
 30
0.0
 11
-44.974701536373182
 21
1018.845330810547
 31
0.0
  0
LINE
  5
5A
  8
DIMNSIONS
 62
     7
 10
-50.0
 20
1037.5999999999999
 30
0.0
 11
-55.025298463626832
 21
1018.845330810547
 31
0.0
  0
LINE
  5
5B
  8
DIMNSIONS
 62
     7
 10
-50.0
 20
862.39999999999998
 30
0.0
 11
-55.025298463626832
 21
881.15466918945299
 31
0.0
  0
LINE
  5
5C
  8
DIMNSIONS
 62
     7
 10
-50.0
 20
862.39999999999998
 30
0.0
 11
-44.974701536373182
 21
881.15466918945299
 31
0.0
  0
TEXT
  5
5D
  8
DIMNSIONS
 62
     7
 10
-59.04166666666665
 20
916.92708333333314
 30
0.0
 40
21.166666666666671
  1
175.2
 50
90.0
 41
0.7
 11
-80.208333333333329
 21
916.92708333333314
 31
0.0
 73
     3
  0
LINE
  5
5E
  8
DIMNSIONS
 62
     7
 10
138.5000000000002
 20
1020.0
 30
0.0
 11
-15.000000000000011
 21
1020.0
 31
0.0
  0
LINE
  5
5F
  8
DIMNSIONS
 62
     7
 10
138.5000000000002
 20
880.0
 30
0.0
 11
-15.000000000000011
 21
880.0
 31
0.0
  0
LINE
  5
60
  8
DIMNSIONS
 62
     7
 10
-0.0000000000000142
 20
1020.0
 30
0.0
 11
-0.0000000000000142
 21
880.0
 31
0.0
  0
LINE
  5
61
  8
DIMNSIONS
 62
     7
 10
-0.0000000000000142
 20
1020.0
 30
0.0
 11
5.0252984636267932
 21
1001.245330810547
 31
0.0
  0
LINE
  5
62
  8
DIMNSIONS
 62
     7
 10
-0.0000000000000142
 20
1020.0
 30
0.0
 11
-5.0252984636268403
 21
1001.245330810547
 31
0.0
  0
LINE
  5
63
  8
DIMNSIONS
 62
     7
 10
-0.0000000000000142
 20
880.0
 30
0.0
 11
-5.0252984636268403
 21
898.75466918945312
 31
0.0
  0
LINE
  5
64
  8
DIMNSIONS
 62
     7
 10
-0.0000000000000142
 20
880.0
 30
0.0
 11
5.0252984636268092
 21
898.75466918945312
 31
0.0
  0
TEXT
  5
65
  8
DIMNSIONS
 62
     7
 10
-9.0416666666666856
 20
930.15625000000011
 30
0.0
 40
21.166666666666671
  1
140
 50
90.0
 41
0.7
 11
-30.208333333333361
 21
930.15625000000011
 31
0.0
 73
     3
  0
LINE
  5
66
  8
DIMNSIONS
 62
     7
 10
138.5000000000002
 20
1020.0
 30
0.0
 11
-15.000000000000011
 21
1020.0
 31
0.0
  0
LINE
  5
67
  8
DIMNSIONS
 62
     7
 10
122.0499999999999
 20
1037.5999999999999
 30
0.0
 11
-15.000000000000011
 21
1037.5999999999999
 31
0.0
  0
LINE
  5
68
  8
DIMNSIONS
 62
     7
 10
-0.0000000000000142
 20
1037.5999999999999
 30
0.0
 11
-0.0000000000000142
 21
1020.0
 31
0.0
  0
LINE
  5
69
  8
DIMNSIONS
 62
     7
 10
-0.0000000000000142
 20
1020.0
 30
0.0
 11
-0.0000000000000142
 21
982.50000000000011
 31
0.0
  0
LINE
  5
6A
  8
DIMNSIONS
 62
     7
 10
-0.0000000000000142
 20
1020.0
 30
0.0
 11
5.0252984636267932
 21
1001.245330810547
 31
0.0
  0
LINE
  5
6B
  8
DIMNSIONS
 62
     7
 10
-0.0000000000000142
 20
1020.0
 30
0.0
 11
-5.0252984636268403
 21
1001.245330810547
 31
0.0
  0
LINE
  5
6C
  8
DIMNSIONS
 62
     7
 10
-0.0000000000000142
 20
1037.5999999999999
 30
0.0
 11
-0.0000000000000142
 21
1102.916670931666
 31
0.0
  0
LINE
  5
6D
  8
DIMNSIONS
 62
     7
 10
-0.0000000000000142
 20
1037.5999999999999
 30
0.0
 11
-5.0252984636268403
 21
1056.354669189453
 31
0.0
  0
LINE
  5
6E
  8
DIMNSIONS
 62
     7
 10
-0.0000000000000142
 20
1037.5999999999999
 30
0.0
 11
5.0252984636268092
 21
1056.354669189453
 31
0.0
  0
TEXT
  5
6F
  8
DIMNSIONS
 62
     7
 10
-9.0416666666666856
 20
1050.0000042649999
 30
0.0
 40
21.166666666666671
  1
17.6
 50
90.0
 41
0.7
 11
-30.208333333333361
 21
1050.0000042649999
 31
0.0
 73
     3
  0
LINE
  5
70
  8
DIMNSIONS
 62
     7
 10
138.5000000000002
 20
880.0
 30
0.0
 11
-15.000000000000011
 21
880.0
 31
0.0
  0
LINE
  5
71
  8
DIMNSIONS
 62
     7
 10
122.0499999999999
 20
862.39999999999998
 30
0.0
 11
-15.000000000000011
 21
862.39999999999998
 31
0.0
  0
LINE
  5
72
  8
DIMNSIONS
 62
     7
 10
-0.0000000000000142
 20
862.39999999999998
 30
0.0
 11
-0.0000000000000142
 21
880.0
 31
0.0
  0
LINE
  5
73
  8
DIMNSIONS
 62
     7
 10
-0.0000000000000142
 20
880.0
 30
0.0
 11
-0.0000000000000142
 21
917.5
 31
0.0
  0
LINE
  5
74
  8
DIMNSIONS
 62
     7
 10
-0.0000000000000142
 20
880.0
 30
0.0
 11
-5.0252984636268403
 21
898.75466918945312
 31
0.0
  0
LINE
  5
75
  8
DIMNSIONS
 62
     7
 10
-0.0000000000000142
 20
880.0
 30
0.0
 11
5.0252984636268092
 21
898.75466918945312
 31
0.0
  0
LINE
  5
76
  8
DIMNSIONS
 62
     7
 10
-0.0000000000000142
 20
862.39999999999998
 30
0.0
 11
-0.0000000000000142
 21
790.73333333333312
 31
0.0
  0
LINE
  5
77
  8
DIMNSIONS
 62
     7
 10
-0.0000000000000142
 20
862.39999999999998
 30
0.0
 11
5.0252984636267932
 21
843.64533081054685
 31
0.0
  0
LINE
  5
78
  8
DIMNSIONS
 62
     7
 10
-0.0000000000000142
 20
862.39999999999998
 30
0.0
 11
-5.0252984636268403
 21
843.64533081054685
 31
0.0
  0
TEXT
  5
79
  8
DIMNSIONS
 62
     7
 10
-9.0416666666666856
 20
790.73333333333312
 30
0.0
 40
21.166666666666671
  1
17.6
 50
90.0
 41
0.7
 11
-30.208333333333361
 21
790.73333333333312
 31
0.0
 73
     3
  0
LINE
  5
7A
  8
DIMNSIONS
 62
     7
 10
134.44999999999999
 20
850.0
 30
0.0
 11
134.44999999999999
 21
685.0
 31
0.0
  0
LINE
  5
7B
  8
DIMNSIONS
 62
     7
 10
665.55000000000007
 20
850.0
 30
0.0
 11
665.55000000000007
 21
685.0
 31
0.0
  0
LINE
  5
7C
  8
DIMNSIONS
 62
     7
 10
134.44999999999999
 20
700.0
 30
0.0
 11
665.55000000000007
 21
700.0
 31
0.0
  0
LINE
  5
7D
  8
DIMNSIONS
 62
     7
 10
134.44999999999999
 20
700.0
 30
0.0
 11
153.20466918945311
 21
705.02529846362654
 31
0.0
  0
LINE
  5
7E
  8
DIMNSIONS
 62
     7
 10
134.44999999999999
 20
700.0
 30
0.0
 11
153.20466918945311
 21
694.97470153637335
 31
0.0
  0
LINE
  5
7F
  8
DIMNSIONS
 62
     7
 10
665.55000000000007
 20
700.0
 30
0.0
 11
646.7953308105466
 21
694.97470153637335
 31
0.0
  0
LINE
  5
80
  8
DIMNSIONS
 62
     7
 10
665.55000000000007
 20
700.0
 30
0.0
 11
646.7953308105466
 21
705.02529846362654
 31
0.0
  0
TEXT
  5
81
  8
DIMNSIONS
 62
     7
 10
366.92708333333343
 20
709.04166666666652
 30
0.0
 40
21.166666666666671
  1
531.1
 41
0.7
 11
366.92708333333343
 21
730.20833333333314
 31
0.0
 73
     3
  0
LINE
  5
82
  8
DIMNSIONS
 62
     7
 10
134.44999999999999
 20
850.0
 30
0.0
 11
134.44999999999999
 21
735.0
 31
0.0
  0
LINE
  5
83
  8
DIMNSIONS
 62
     7
 10
160.0000000000002
 20
858.5
 30
0.0
 11
160.0000000000002
 21
735.0
 31
0.0
  0
LINE
  5
84
  8
DIMNSIONS
 62
     7
 10
160.0000000000002
 20
750.0
 30
0.0
 11
134.44999999999999
 21
750.0
 31
0.0
  0
LINE
  5
85
  8
DIMNSIONS
 62
     7
 10
134.44999999999999
 20
750.0
 30
0.0
 11
58.854166666666657
 21
750.0
 31
0.0
  0
LINE
  5
86
  8
DIMNSIONS
 62
     7
 10
134.44999999999999
 20
750.0
 30
0.0
 11
115.69533081054691
 21
744.97470153637312
 31
0.0
  0
LINE
  5
87
  8
DIMNSIONS
 62
     7
 10
134.44999999999999
 20
750.0
 30
0.0
 11
115.69533081054691
 21
755.02529846362654
 31
0.0
  0
LINE
  5
88
  8
DIMNSIONS
 62
     7
 10
160.0000000000002
 20
750.0
 30
0.0
 11
197.5000000000002
 21
750.0
 31
0.0
  0
LINE
  5
89
  8
DIMNSIONS
 62
     7
 10
160.0000000000002
 20
750.0
 30
0.0
 11
178.7546691894533
 21
755.02529846362654
 31
0.0
  0
LINE
  5
8A
  8
DIMNSIONS
 62
     7
 10
160.0000000000002
 20
750.0
 30
0.0
 11
178.7546691894533
 21
744.97470153637312
 31
0.0
  0
TEXT
  5
8B
  8
DIMNSIONS
 62
     7
 10
58.854166666666657
 20
759.04166666666652
 30
0.0
 40
21.166666666666671
  1
25.55
 41
0.7
 11
58.854166666666657
 21
780.20833333333314
 31
0.0
 73
     3
  0
LINE
  5
8C
  8
DIMNSIONS
 62
     7
 10
160.0000000000002
 20
858.5
 30
0.0
 11
160.0000000000002
 21
735.0
 31
0.0
  0
LINE
  5
8D
  8
DIMNSIONS
 62
     7
 10
640.0
 20
858.5
 30
0.0
 11
640.0
 21
735.0
 31
0.0
  0
LINE
  5
8E
  8
DIMNSIONS
 62
     7
 10
160.0000000000002
 20
750.0
 30
0.0
 11
640.0
 21
750.0
 31
0.0
  0
LINE
  5
8F
  8
DIMNSIONS
 62
     7
 10
160.0000000000002
 20
750.0
 30
0.0
 11
178.7546691894533
 21
755.02529846362654
 31
0.0
  0
LINE
  5
90
  8
DIMNSIONS
 62
     7
 10
160.0000000000002
 20
750.0
 30
0.0
 11
178.7546691894533
 21
744.97470153637312
 31
0.0
  0
LINE
  5
91
  8
DIMNSIONS
 62
     7
 10
640.0
 20
750.0
 30
0.0
 11
621.24533081054687
 21
744.97470153637312
 31
0.0
  0
LINE
  5
92
  8
DIMNSIONS
 62
     7
 10
640.0
 20
750.0
 30
0.0
 11
621.24533081054687
 21
755.02529846362654
 31
0.0
  0
TEXT
  5
93
  8
DIMNSIONS
 62
     7
 10
380.15625000000011
 20
759.04166666666652
 30
0.0
 40
21.166666666666671
  1
480
 41
0.7
 11
380.15625000000011
 21
780.20833333333314
 31
0.0
 73
     3
  0
LINE
  5
94
  8
DIMNSIONS
 62
     7
 10
134.45000000000019
 20
849.99999999999955
 30
0.0
 11
134.45000000000019
 21
785.0
 31
0.0
  0
LINE
  5
95
  8
DIMNSIONS
 62
     7
 10
180.0
 20
860.39999999999952
 30
0.0
 11
180.0
 21
785.0
 31
0.0
  0
LINE
  5
96
  8
DIMNSIONS
 62
     7
 10
134.45000000000019
 20
800.0
 30
0.0
 11
58.854166666666892
 21
800.0
 31
0.0
  0
LINE
  5
97
  8
DIMNSIONS
 62
     7
 10
134.45000000000019
 20
800.0
 30
0.0
 11
180.0
 21
800.0
 31
0.0
  0
LINE
  5
98
  8
DIMNSIONS
 62
     7
 10
134.45000000000019
 20
800.0
 30
0.0
 11
153.2046691894534
 21
805.02529846362665
 31
0.0
  0
LINE
  5
99
  8
DIMNSIONS
 62
     7
 10
134.45000000000019
 20
800.0
 30
0.0
 11
153.2046691894534
 21
794.97470153637312
 31
0.0
  0
LINE
  5
9A
  8
DIMNSIONS
 62
     7
 10
180.0
 20
800.0
 30
0.0
 11
161.2453308105469
 21
794.97470153637312
 31
0.0
  0
LINE
  5
9B
  8
DIMNSIONS
 62
     7
 10
180.0
 20
800.0
 30
0.0
 11
161.2453308105469
 21
805.02529846362688
 31
0.0
  0
TEXT
  5
9C
  8
DIMNSIONS
 62
     7
 10
58.854166666666892
 20
809.04166666666663
 30
0.0
 40
21.166666666666671
  1
45.55
 41
0.7
 11
58.854166666666892
 21
830.20833333333314
 31
0.0
 73
     3
  0
LINE
  5
9D
  8
DIMNSIONS
 62
     7
 10
180.0000000000002
 20
860.39999999999986
 30
0.0
 11
180.0000000000002
 21
785.0
 31
0.0
  0
LINE
  5
9E
  8
DIMNSIONS
 62
     7
 10
280.00000000000028
 20
860.39999999999986
 30
0.0
 11
280.00000000000028
 21
785.0
 31
0.0
  0
LINE
  5
9F
  8
DIMNSIONS
 62
     7
 10
180.0000000000002
 20
800.0
 30
0.0
 11
280.00000000000028
 21
800.0
 31
0.0
  0
LINE
  5
A0
  8
DIMNSIONS
 62
     7
 10
180.0000000000002
 20
800.0
 30
0.0
 11
198.7546691894533
 21
805.02529846362665
 31
0.0
  0
LINE
  5
A1
  8
DIMNSIONS
 62
     7
 10
180.0000000000002
 20
800.0
 30
0.0
 11
198.7546691894533
 21
794.97470153637312
 31
0.0
  0
LINE
  5
A2
  8
DIMNSIONS
 62
     7
 10
280.00000000000028
 20
800.0
 30
0.0
 11
261.2453308105471
 21
794.97470153637312
 31
0.0
  0
LINE
  5
A3
  8
DIMNSIONS
 62
     7
 10
280.00000000000028
 20
800.0
 30
0.0
 11
261.2453308105471
 21
805.02529846362688
 31
0.0
  0
TEXT
  5
A4
  8
DIMNSIONS
 62
     7
 10
210.1562500000002
 20
809.04166666666663
 30
0.0
 40
21.166666666666671
  1
100
 41
0.7
 11
210.1562500000002
 21
830.20833333333314
 31
0.0
 73
     3
  0
LINE
  5
A5
  8
DIMNSIONS
 62
     7
 10
280.00000000000028
 20
860.39999999999986
 30
0.0
 11
280.00000000000028
 21
785.0
 31
0.0
  0
LINE
  5
A6
  8
DIMNSIONS
 62
     7
 10
400.0
 20
860.39999999999986
 30
0.0
 11
400.0
 21
785.0
 31
0.0
  0
LINE
  5
A7
  8
DIMNSIONS
 62
     7
 10
280.00000000000028
 20
800.0
 30
0.0
 11
400.0
 21
800.0
 31
0.0
  0
LINE
  5
A8
  8
DIMNSIONS
 62
     7
 10
280.00000000000028
 20
800.0
 30
0.0
 11
298.75466918945341
 21
805.02529846362665
 31
0.0
  0
LINE
  5
A9
  8
DIMNSIONS
 62
     7
 10
280.00000000000028
 20
800.0
 30
0.0
 11
298.75466918945341
 21
794.97470153637312
 31
0.0
  0
LINE
  5
AA
  8
DIMNSIONS
 62
     7
 10
400.0
 20
800.0
 30
0.0
 11
381.2453308105471
 21
794.97470153637312
 31
0.0
  0
LINE
  5
AB
  8
DIMNSIONS
 62
     7
 10
400.0
 20
800.0
 30
0.0
 11
381.2453308105471
 21
805.02529846362688
 31
0.0
  0
TEXT
  5
AC
  8
DIMNSIONS
 62
     7
 10
320.15625000000028
 20
809.04166666666663
 30
0.0
 40
21.166666666666671
  1
120
 41
0.7
 11
320.15625000000028
 21
830.20833333333314
 31
0.0
 73
     3
  0
LINE
  5
AD
  8
DIMNSIONS
 62
     7
 10
400.0
 20
860.39999999999986
 30
0.0
 11
400.0
 21
785.0
 31
0.0
  0
LINE
  5
AE
  8
DIMNSIONS
 62
     7
 10
520.0
 20
860.39999999999986
 30
0.0
 11
520.0
 21
785.0
 31
0.0
  0
LINE
  5
AF
  8
DIMNSIONS
 62
     7
 10
400.0
 20
800.0
 30
0.0
 11
520.0
 21
800.0
 31
0.0
  0
LINE
  5
B0
  8
DIMNSIONS
 62
     7
 10
400.0
 20
800.0
 30
0.0
 11
418.75466918945318
 21
805.02529846362665
 31
0.0
  0
LINE
  5
B1
  8
DIMNSIONS
 62
     7
 10
400.0
 20
800.0
 30
0.0
 11
418.75466918945318
 21
794.97470153637312
 31
0.0
  0
LINE
  5
B2
  8
DIMNSIONS
 62
     7
 10
520.0
 20
800.0
 30
0.0
 11
501.24533081054682
 21
794.97470153637312
 31
0.0
  0
LINE
  5
B3
  8
DIMNSIONS
 62
     7
 10
520.0
 20
800.0
 30
0.0
 11
501.24533081054682
 21
805.02529846362688
 31
0.0
  0
TEXT
  5
B4
  8
DIMNSIONS
 62
     7
 10
440.15624999999989
 20
809.04166666666663
 30
0.0
 40
21.166666666666671
  1
120
 41
0.7
 11
440.15624999999989
 21
830.20833333333314
 31
0.0
 73
     3
  0
LINE
  5
B5
  8
DIMNSIONS
 62
     7
 10
520.0
 20
860.39999999999986
 30
0.0
 11
520.0
 21
785.0
 31
0.0
  0
LINE
  5
B6
  8
DIMNSIONS
 62
     7
 10
620.0
 20
860.39999999999986
 30
0.0
 11
620.0
 21
785.0
 31
0.0
  0
LINE
  5
B7
  8
DIMNSIONS
 62
     7
 10
520.0
 20
800.0
 30
0.0
 11
620.0
 21
800.0
 31
0.0
  0
LINE
  5
B8
  8
DIMNSIONS
 62
     7
 10
520.0
 20
800.0
 30
0.0
 11
538.75466918945312
 21
805.02529846362665
 31
0.0
  0
LINE
  5
B9
  8
DIMNSIONS
 62
     7
 10
520.0
 20
800.0
 30
0.0
 11
538.75466918945312
 21
794.97470153637312
 31
0.0
  0
LINE
  5
BA
  8
DIMNSIONS
 62
     7
 10
620.0
 20
800.0
 30
0.0
 11
601.24533081054676
 21
794.97470153637312
 31
0.0
  0
LINE
  5
BB
  8
DIMNSIONS
 62
     7
 10
620.0
 20
800.0
 30
0.0
 11
601.24533081054676
 21
805.02529846362688
 31
0.0
  0
TEXT
  5
BC
  8
DIMNSIONS
 62
     7
 10
550.15625
 20
809.04166666666663
 30
0.0
 40
21.166666666666671
  1
100
 41
0.7
 11
550.15625
 21
830.20833333333314
 31
0.0
 73
     3
  0
LINE
  5
BD
  8
DIMNSIONS
 62
     7
 10
174.9999999999998
 20
-102.4500000000003
 30
0.0
 11
250.0
 21
49.99999573500002
 31
0.0
  0
LINE
  5
BE
  8
DIMNSIONS
 62
     7
 10
174.9999999999998
 20
-102.4500000000003
 30
0.0
 11
178.2284932533679
 21
-87.261133431956239
 31
0.0
  0
LINE
  5
BF
  8
DIMNSIONS
 62
     7
 10
174.9999999999998
 20
-102.4500000000003
 30
0.0
 11
185.39039045738531
 21
-90.910302324066066
 31
0.0
  0
LINE
  5
C0
  8
DIMNSIONS
 62
     7
 10
-167.07739912899979
 20
-154.62786846
 30
0.0
 11
-150.0
 21
-300.00000426499997
 31
0.0
  0
LINE
  5
C1
  8
DIMNSIONS
 62
     7
 10
-167.07739912899979
 20
-154.62786846
 30
0.0
 11
-161.51259176881851
 21
-169.1246872611357
 31
0.0
  0
LINE
  5
C2
  8
DIMNSIONS
 62
     7
 10
-167.07739912899979
 20
-154.62786846
 30
0.0
 11
-169.50654398848411
 21
-169.96488549593411
 31
0.0
  0
LINE
  5
C3
  8
DIMNSIONS
 62
     7
 10
-203.0
 20
49.99999573500002
 30
0.0
 11
22.0
 21
49.99999573500002
 31
0.0
  0
LINE
  5
C4
  8
DIMNSIONS
 62
     7
 10
-150.0
 20
-300.00000426499997
 30
0.0
 11
25.000000000000021
 21
-300.00000426499997
 31
0.0
  0
TEXT
  5
C5
  8
DIMNSIONS
 62
     7
 10
-128.12500150998429
 20
-291.12500426499997
 30
0.0
 40
15.0
  1
角度固定ねじ
 41
0.7
  0
TEXT
  5
C6
  8
DIMNSIONS
 62
     7
 10
-128.12500150998429
 20
-322.37500426499997
 30
0.0
 40
15.0
  1
Ｍ６→Ｍ５変更
 41
0.7
  0
TEXT
  5
C7
  8
DIMNSIONS
 62
     7
 10
-193.62500381469721
 20
58.87499573500002
 30
0.0
 40
15.0
  1
文字・矢印　マーキング
 41
0.7
  0
LINE
  5
C8
  8
DIMNSIONS
 62
     7
 10
250.0
 20
49.99999573500002
 30
0.0
 11
425.0
 21
49.99999573500002
 31
0.0
  0
TEXT
  5
C9
  8
DIMNSIONS
 62
     7
 10
271.87499849001563
 20
65.124995735000013
 30
0.0
 40
15.0
  1
文字　スリット
 41
0.7
  0
TEXT
  5
CA
  8
DIMNSIONS
 62
     7
 10
271.87499849001563
 20
21.374995735000031
 30
0.0
 40
15.0
  1
矢印　穴抜き
 41
0.7
  0
LINE
  5
CB
  8
DIMNSIONS
 62
     7
 10
-222.44949999999969
 20
-74.050000000000026
 30
0.0
 11
-203.0
 21
49.99999573500002
 31
0.0
  0
LINE
  5
CC
  8
DIMNSIONS
 62
     7
 10
-222.44949999999969
 20
-74.050000000000026
 30
0.0
 11
-224.0726383483881
 21
-58.60687019380844
 31
0.0
  0
LINE
  5
CD
  8
DIMNSIONS
 62
     7
 10
-222.44949999999969
 20
-74.050000000000026
 30
0.0
 11
-216.133614140465
 21
-59.864288099703302
 31
0.0
  0
LINE
  5
CE
  8
DIMNSIONS
 62
     7
 10
283.02912119619452
 20
-223.4618570606512
 30
0.0
 11
350.0
 21
-300.00000426499997
 31
0.0
  0
LINE
  5
CF
  8
DIMNSIONS
 62
     7
 10
283.02912119619452
 20
-223.4618570606512
 30
0.0
 11
299.1259321476432
 21
-234.31929314140581
 31
0.0
  0
LINE
  5
D0
  8
DIMNSIONS
 62
     7
 10
283.02912119619452
 20
-223.4618570606512
 30
0.0
 11
291.54065035968739
 21
-240.91307800227489
 31
0.0
  0
LINE
  5
D1
  8
DIMNSIONS
 62
     7
 10
350.0
 20
-300.00000426499997
 30
0.0
 11
470.83333333333331
 21
-300.00000426499997
 31
0.0
  0
TEXT
  5
D2
  8
DIMNSIONS
 62
     7
 10
365.0
 20
-290.95833759833329
 30
0.0
 40
21.166666666666671
  1
10-\U+03C69.2
 41
0.7
 11
365.0
 21
-269.7916709316666
 31
0.0
 73
     3
  0
LINE
  5
D3
  8
DIMNSIONS
 62
     7
 10
162.90688837074981
 20
-225.8137810064992
 30
0.0
 11
200.0
 21
-300.00000426499997
 31
0.0
  0
LINE
  5
D4
  8
DIMNSIONS
 62
     7
 10
162.90688837074981
 20
-225.8137810064992
 30
0.0
 11
175.64510255096431
 21
-240.46742016383271
 31
0.0
  0
LINE
  5
D5
  8
DIMNSIONS
 62
     7
 10
162.90688837074981
 20
-225.8137810064992
 30
0.0
 11
166.61168587099601
 21
-244.87331186474759
 31
0.0
  0
LINE
  5
D6
  8
DIMNSIONS
 62
     7
 10
200.0
 20
-300.00000426499997
 30
0.0
 11
294.37500000000011
 21
-300.00000426499997
 31
0.0
  0
TEXT
  5
D7
  8
DIMNSIONS
 62
     7
 10
215.0
 20
-290.95833759833329
 30
0.0
 40
21.166666666666671
  1
4-\U+03C613
 41
0.7
 11
215.0
 21
-269.7916709316666
 31
0.0
 73
     3
  0
LINE
  5
D8
  8
DIMNSIONS
 62
     7
 10
-150.0
 20
-50.000004264999973
 30
0.0
 11
-150.0
 21
-10.000004264999969
 31
0.0
  0
LINE
  5
D9
  8
DIMNSIONS
 62
     7
 10
-390.0
 20
-99.000004265000001
 30
0.0
 11
-390.0
 21
-10.000004264999969
 31
0.0
  0
LINE
  5
DA
  8
DIMNSIONS
 62
     7
 10
-150.0
 20
-25.000004264999969
 30
0.0
 11
-390.0
 21
-25.000004264999969
 31
0.0
  0
LINE
  5
DB
  8
DIMNSIONS
 62
     7
 10
-150.0
 20
-25.000004264999969
 30
0.0
 11
-168.7546691894531
 21
-30.025302728626801
 31
0.0
  0
LINE
  5
DC
  8
DIMNSIONS
 62
     7
 10
-150.0
 20
-25.000004264999969
 30
0.0
 11
-168.7546691894531
 21
-19.974705801373151
 31
0.0
  0
LINE
  5
DD
  8
DIMNSIONS
 62
     7
 10
-390.0
 20
-25.000004264999969
 30
0.0
 11
-371.24533081054687
 21
-19.974705801373151
 31
0.0
  0
LINE
  5
DE
  8
DIMNSIONS
 62
     7
 10
-390.0
 20
-25.000004264999969
 30
0.0
 11
-371.24533081054687
 21
-30.025302728626801
 31
0.0
  0
TEXT
  5
DF
  8
DIMNSIONS
 62
     7
 10
-289.84375
 20
-15.9583375983333
 30
0.0
 40
21.166666666666671
  1
240
 41
0.7
 11
-289.84375
 21
5.2083290683333692
 31
0.0
 73
     3
  0
LINE
  5
E0
  8
DIMNSIONS
 62
     7
 10
134.44999999999999
 20
-249.999995735
 30
0.0
 11
134.44999999999999
 21
-365.00000426499997
 31
0.0
  0
LINE
  5
E1
  8
DIMNSIONS
 62
     7
 10
665.54999999999995
 20
-250.00000426500009
 30
0.0
 11
665.54999999999995
 21
-365.00000426499997
 31
0.0
  0
LINE
  5
E2
  8
DIMNSIONS
 62
     7
 10
134.44999999999999
 20
-350.00000426499997
 30
0.0
 11
665.54999999999995
 21
-350.00000426499997
 31
0.0
  0
LINE
  5
E3
  8
DIMNSIONS
 62
     7
 10
134.44999999999999
 20
-350.00000426499997
 30
0.0
 11
153.20466918945311
 21
-344.97470580137309
 31
0.0
  0
LINE
  5
E4
  8
DIMNSIONS
 62
     7
 10
134.44999999999999
 20
-350.00000426499997
 30
0.0
 11
153.20466918945311
 21
-355.0253027286268
 31
0.0
  0
LINE
  5
E5
  8
DIMNSIONS
 62
     7
 10
665.54999999999995
 20
-350.00000426499997
 30
0.0
 11
646.7953308105466
 21
-355.0253027286268
 31
0.0
  0
LINE
  5
E6
  8
DIMNSIONS
 62
     7
 10
665.54999999999995
 20
-350.00000426499997
 30
0.0
 11
646.7953308105466
 21
-344.97470580137309
 31
0.0
  0
TEXT
  5
E7
  8
DIMNSIONS
 62
     7
 10
366.92708333333331
 20
-340.95833759833329
 30
0.0
 40
21.166666666666671
  1
531.1
 41
0.7
 11
366.92708333333331
 21
-319.7916709316666
 31
0.0
 73
     3
  0
LINE
  5
E8
  8
DIMNSIONS
 62
     7
 10
122.0499999999999
 20
-237.60000426500019
 30
0.0
 11
85.0
 21
-237.60000426500019
 31
0.0
  0
LINE
  5
E9
  8
DIMNSIONS
 62
     7
 10
122.0499999999999
 20
-62.400004265000071
 30
0.0
 11
85.0
 21
-62.400004265000071
 31
0.0
  0
LINE
  5
EA
  8
DIMNSIONS
 62
     7
 10
100.0
 20
-237.60000426500019
 30
0.0
 11
100.0
 21
-62.400004265000071
 31
0.0
  0
LINE
  5
EB
  8
DIMNSIONS
 62
     7
 10
100.0
 20
-237.60000426500019
 30
0.0
 11
94.974701536373161
 21
-218.8453350755471
 31
0.0
  0
LINE
  5
EC
  8
DIMNSIONS
 62
     7
 10
100.0
 20
-237.60000426500019
 30
0.0
 11
105.0252984636268
 21
-218.8453350755471
 31
0.0
  0
LINE
  5
ED
  8
DIMNSIONS
 62
     7
 10
100.0
 20
-62.400004265000071
 30
0.0
 11
105.0252984636268
 21
-81.154673454453203
 31
0.0
  0
LINE
  5
EE
  8
DIMNSIONS
 62
     7
 10
100.0
 20
-62.400004265000071
 30
0.0
 11
94.974701536373161
 21
-81.154673454453203
 31
0.0
  0
TEXT
  5
EF
  8
DIMNSIONS
 62
     7
 10
90.958333333333329
 20
-183.0729209316668
 30
0.0
 40
21.166666666666671
  1
175.2
 50
90.0
 41
0.7
 11
69.791666666666657
 21
-183.0729209316668
 31
0.0
 73
     3
  0
LINE
  5
F0
  8
DIMNSIONS
 62
     7
 10
122.0499999999999
 20
128.69999573499999
 30
0.0
 11
85.0
 21
128.69999573499999
 31
0.0
  0
LINE
  5
F1
  8
DIMNSIONS
 62
     7
 10
122.0499999999999
 20
416.69999573599978
 30
0.0
 11
85.0
 21
416.69999573599978
 31
0.0
  0
LINE
  5
F2
  8
DIMNSIONS
 62
     7
 10
100.0
 20
128.69999573499999
 30
0.0
 11
100.0
 21
416.69999573599978
 31
0.0
  0
LINE
  5
F3
  8
DIMNSIONS
 62
     7
 10
100.0
 20
128.69999573499999
 30
0.0
 11
94.974701536373161
 21
147.45466492445311
 31
0.0
  0
LINE
  5
F4
  8
DIMNSIONS
 62
     7
 10
100.0
 20
128.69999573499999
 30
0.0
 11
105.0252984636268
 21
147.45466492445311
 31
0.0
  0
LINE
  5
F5
  8
DIMNSIONS
 62
     7
 10
100.0
 20
416.69999573599978
 30
0.0
 11
105.0252984636268
 21
397.94532654654682
 31
0.0
  0
LINE
  5
F6
  8
DIMNSIONS
 62
     7
 10
100.0
 20
416.69999573599978
 30
0.0
 11
94.974701536373161
 21
397.94532654654682
 31
0.0
  0
TEXT
  5
F7
  8
DIMNSIONS
 62
     7
 10
90.958333333333329
 20
252.85624573550001
 30
0.0
 40
21.166666666666671
  1
288
 50
90.0
 41
0.7
 11
69.791666666666657
 21
252.85624573550001
 31
0.0
 73
     3
  0
LINE
  5
F8
  8
DIMNSIONS
 62
     7
 10
-390.0
 20
-99.000004265000001
 30
0.0
 11
-390.0
 21
-10.000004264999969
 31
0.0
  0
LINE
  5
F9
  8
DIMNSIONS
 62
     7
 10
-438.0
 20
-90.000004264999959
 30
0.0
 11
-438.0
 21
-10.000004264999969
 31
0.0
  0
LINE
  5
FA
  8
DIMNSIONS
 62
     7
 10
-390.0
 20
-25.000004264999969
 30
0.0
 11
-438.0
 21
-25.000004264999969
 31
0.0
  0
LINE
  5
FB
  8
DIMNSIONS
 62
     7
 10
-390.0
 20
-25.000004264999969
 30
0.0
 11
-408.75466918945312
 21
-30.025302728626801
 31
0.0
  0
LINE
  5
FC
  8
DIMNSIONS
 62
     7
 10
-390.0
 20
-25.000004264999969
 30
0.0
 11
-408.75466918945312
 21
-19.974705801373151
 31
0.0
  0
LINE
  5
FD
  8
DIMNSIONS
 62
     7
 10
-438.0
 20
-25.000004264999969
 30
0.0
 11
-419.24533081054682
 21
-19.974705801373151
 31
0.0
  0
LINE
  5
FE
  8
DIMNSIONS
 62
     7
 10
-438.0
 20
-25.000004264999969
 30
0.0
 11
-419.24533081054682
 21
-30.025302728626801
 31
0.0
  0
TEXT
  5
FF
  8
DIMNSIONS
 62
     7
 10
-427.22916666666652
 20
-15.9583375983333
 30
0.0
 40
21.166666666666671
  1
48
 41
0.7
 11
-427.22916666666652
 21
5.2083290683333692
 31
0.0
 73
     3
  0
LINE
  5
100
  8
DIMNSIONS
 62
     7
 10
605.54999999999995
 20
-187.5
 30
0.0
 11
194.44999999999999
 21
-187.5
 31
0.0
  0
LINE
  5
101
  8
DIMNSIONS
 62
     7
 10
605.54999999999995
 20
-187.5
 30
0.0
 11
586.79533081054672
 21
-192.5252984636268
 31
0.0
  0
LINE
  5
102
  8
DIMNSIONS
 62
     7
 10
605.54999999999995
 20
-187.5
 30
0.0
 11
586.79533081054672
 21
-182.47470153637309
 31
0.0
  0
LINE
  5
103
  8
DIMNSIONS
 62
     7
 10
194.44999999999999
 20
-187.5
 30
0.0
 11
213.2046691894532
 21
-182.47470153637309
 31
0.0
  0
LINE
  5
104
  8
DIMNSIONS
 62
     7
 10
194.44999999999999
 20
-187.5
 30
0.0
 11
213.2046691894532
 21
-192.5252984636268
 31
0.0
  0
TEXT
  5
105
  8
DIMNSIONS
 62
     7
 10
380.15625
 20
-178.4583333333334
 30
0.0
 40
21.166666666666671
  1
411
 41
0.7
 11
380.15625
 21
-157.29166666666671
 31
0.0
 73
     3
  0
TEXT
  5
106
  8
DIMNSIONS
 62
     7
 10
373.54166666666657
 20
-145.43749999999989
 30
0.0
 40
21.166666666666671
  1
抜き
 41
0.7
 11
373.54166666666657
 21
-124.2708333333333
 31
0.0
 73
     3
  0
LINE
  5
107
  8
DIMNSIONS
 62
     7
 10
475.0
 20
-102.5000042649999
 30
0.0
 11
475.0
 21
-197.50000426500009
 31
0.0
  0
LINE
  5
108
  8
DIMNSIONS
 62
     7
 10
475.0
 20
-102.5000042649999
 30
0.0
 11
480.02529846362683
 21
-121.2546734544531
 31
0.0
  0
LINE
  5
109
  8
DIMNSIONS
 62
     7
 10
475.0
 20
-102.5000042649999
 30
0.0
 11
469.97470153637312
 21
-121.2546734544531
 31
0.0
  0
LINE
  5
10A
  8
DIMNSIONS
 62
     7
 10
475.0
 20
-197.50000426500009
 30
0.0
 11
469.97470153637312
 21
-178.74533507554699
 31
0.0
  0
LINE
  5
10B
  8
DIMNSIONS
 62
     7
 10
475.0
 20
-197.50000426500009
 30
0.0
 11
480.02529846362683
 21
-178.74533507554699
 31
0.0
  0
TEXT
  5
10C
  8
DIMNSIONS
 62
     7
 10
465.9583333333332
 20
-163.22917093166669
 30
0.0
 40
21.166666666666671
  1
95
 50
90.0
 41
0.7
 11
444.79166666666657
 21
-163.22917093166669
 31
0.0
 73
     3
  0
TEXT
  5
10D
  8
DATA
 62
     7
 10
474.99999999999989
 20
-719.04999999999995
 30
0.0
 40
19.050000000000001
  1
(CONTROL29AV 壁用)
 41
0.7
 11
474.99999999999989
 21
-700.0
 31
0.0
 73
     3
  0
TEXT
  5
10E
  8
DATA
 62
     7
 10
456.24999999999989
 20
-682.14374999999984
 30
0.0
 40
19.050000000000001
  1
JBL-29-1
 41
0.7
 11
456.24999999999989
 21
-663.09374999999989
 31
0.0
 73
     3
  0
TEXT
  5
10F
  8
DATA
 62
     7
 10
-499.99999999999989
 20
-779.30570250000005
 30
0.0
 40
12.699999999999999
  1
仕様および外観は予告なく変更されることがありますので、ご了承ください。
 41
0.7
 11
-499.99999999999989
 21
-766.60570250000001
 31
0.0
 73
     3
  0
TEXT
  5
110
  8
DATA
 62
     7
 10
294.16666666666657
 20
642.06249999999989
 30
0.0
 40
21.166666666666671
  1
金具取付け面(壁)
 41
0.7
 11
294.16666666666657
 21
663.22916666666652
 31
0.0
 73
     3
  0
LINE
  5
111
  8
DATA
 62
     7
 10
275.0
 20
625.0
 30
0.0
 11
525.0
 21
625.0
 31
0.0
  0
LINE
  5
112
  8
DATA
 62
     7
 10
137.0499999999999
 20
368.69999573500002
 30
0.0
 11
134.44999999999999
 21
368.69999573500002
 31
0.0
  0
LINE
  5
113
  8
DATA
 62
     7
 10
662.95000000000005
 20
368.69999573500002
 30
0.0
 11
665.54999999999995
 21
368.69999573500002
 31
0.0
  0
LINE
  5
114
  8
DATA
 62
     7
 10
134.44999999999999
 20
368.69999573500002
 30
0.0
 11
134.44999999999999
 21
131.29999573500001
 31
0.0
  0
ARC
  5
115
  8
DATA
 62
     7
 10
137.0499999999999
 20
131.29999573500001
 30
0.0
 40
2.5999999999999082
 50
180.0
 51
270.0
  0
LINE
  5
116
  8
DATA
 62
     7
 10
137.0499999999999
 20
368.69999573500002
 30
0.0
 11
137.0499999999999
 21
128.69999573499999
 31
0.0
  0
LINE
  5
117
  8
DATA
 62
     7
 10
662.95000000000005
 20
143.69999573499999
 30
0.0
 11
137.0499999999999
 21
143.69999573499999
 31
0.0
  0
LINE
  5
118
  8
DATA
 62
     7
 10
662.95000000000005
 20
131.29999573500001
 30
0.0
 11
137.0499999999999
 21
131.29999573500001
 31
0.0
  0
LINE
  5
119
  8
DATA
 62
     7
 10
662.95000000000005
 20
368.69999573500002
 30
0.0
 11
662.95000000000005
 21
128.69999573499999
 31
0.0
  0
LINE
  5
11A
  8
DATA
 62
     7
 10
665.54999999999995
 20
368.69999573500002
 30
0.0
 11
665.54999999999995
 21
131.29999573500001
 31
0.0
  0
LINE
  5
11B
  8
DATA
 62
     7
 10
662.95000000000005
 20
128.69999573499999
 30
0.0
 11
137.0499999999999
 21
128.69999573499999
 31
0.0
  0
ARC
  5
11C
  8
DATA
 62
     7
 10
662.95000000000005
 20
131.29999573500001
 30
0.0
 40
2.6000000000000201
 50
270.0
 51
0.0
  0
POLYLINE
  5
11D
  8
DATA
 62
     7
 66
     1
 10
0.0
 20
0.0
 30
0.0
 70
     1
  0
VERTEX
  5
AAC
  8
DATA
 62
     7
 10
660.35000000000014
 20
416.69999573499979
 30
0.0
  0
VERTEX
  5
AAD
  8
DATA
 62
     7
 10
662.95000000000005
 20
416.69999573499979
 30
0.0
  0
VERTEX
  5
AAE
  8
DATA
 62
     7
 10
662.95000000000005
 20
137.69999573499999
 30
0.0
  0
VERTEX
  5
AAF
  8
DATA
 62
     7
 10
660.35000000000014
 20
137.69999573499999
 30
0.0
  0
SEQEND
  5
AB0
  8
DATA
 62
     7
  0
POLYLINE
  5
123
  8
DATA
 62
     7
 66
     1
 10
0.0
 20
0.0
 30
0.0
 70
     1
  0
VERTEX
  5
AB1
  8
DATA
 62
     7
 10
137.0499999999999
 20
416.69999573599978
 30
0.0
  0
VERTEX
  5
AB2
  8
DATA
 62
     7
 10
139.64999999999981
 20
416.69999573599978
 30
0.0
  0
VERTEX
  5
AB3
  8
DATA
 62
     7
 10
139.64999999999981
 20
137.69999573600001
 30
0.0
  0
VERTEX
  5
AB4
  8
DATA
 62
     7
 10
137.0499999999999
 20
137.69999573600001
 30
0.0
  0
SEQEND
  5
AB5
  8
DATA
 62
     7
  0
ARC
  5
129
  8
DATA
 62
     7
 10
204.4500000000003
 20
987.5
 30
0.0
 40
10.0
 50
90.0
 51
180.0
  0
LINE
  5
12A
  8
DATA
 62
     7
 10
194.4500000000003
 20
912.50000852999995
 30
0.0
 11
194.4500000000003
 21
987.5
 31
0.0
  0
ARC
  5
12B
  8
DATA
 62
     7
 10
204.4500000000003
 20
912.49999999999955
 30
0.0
 40
10.0
 50
179.9999511260001
 51
270.0
  0
LINE
  5
12C
  8
DATA
 62
     7
 10
204.4500000000003
 20
902.49999999999955
 30
0.0
 11
595.55000000000007
 21
902.49999999999955
 31
0.0
  0
ARC
  5
12D
  8
DATA
 62
     7
 10
595.55000000000007
 20
912.49999999999955
 30
0.0
 40
10.0
 50
270.0
 51
0.0000378559998353
  0
LINE
  5
12E
  8
DATA
 62
     7
 10
605.55000000000018
 20
912.50000660699993
 30
0.0
 11
605.55000000000018
 21
987.5
 31
0.0
  0
ARC
  5
12F
  8
DATA
 62
     7
 10
595.55000000000007
 20
987.5
 30
0.0
 40
10.0
 50
0.0
 51
89.999912573998131
  0
LINE
  5
130
  8
DATA
 62
     7
 10
204.4500000000003
 20
997.49999999999989
 30
0.0
 11
595.55001525900025
 21
997.49999999999989
 31
0.0
  0
LINE
  5
131
  8
DATA
 62
     7
 10
665.55000000000007
 20
864.99999999999955
 30
0.0
 11
665.55000000000007
 21
1035.0
 31
0.0
  0
LINE
  5
132
  8
DATA
 62
     7
 10
662.95000000000005
 20
1037.5999999999999
 30
0.0
 11
137.05000000000021
 21
1037.5999999999999
 31
0.0
  0
LINE
  5
133
  8
DATA
 62
     7
 10
662.95000000000005
 20
862.39999999999975
 30
0.0
 11
137.05000000000021
 21
862.39999999999975
 31
0.0
  0
LINE
  5
134
  8
DATA
 62
     7
 10
134.45000000000019
 20
864.99999999999955
 30
0.0
 11
134.45000000000019
 21
1035.0
 31
0.0
  0
LINE
  5
135
  8
DATA
 62
     7
 10
139.65000000000001
 20
1035.0
 30
0.0
 11
139.65000000000001
 21
1037.5999999999999
 31
0.0
  0
ARC
  5
136
  8
DATA
 62
     7
 10
137.05000000000021
 20
1035.0
 30
0.0
 40
2.600000000000362
 50
270.0
 51
0.0
  0
LINE
  5
137
  8
DATA
 62
     7
 10
137.05000000000021
 20
1032.399999999999
 30
0.0
 11
134.45000000000019
 21
1032.399999999999
 31
0.0
  0
LINE
  5
138
  8
DATA
 62
     7
 10
137.05000000000021
 20
1032.399999999999
 30
0.0
 11
137.05000000000021
 21
1037.5999999999999
 31
0.0
  0
LINE
  5
139
  8
DATA
 62
     7
 10
139.65000000000001
 20
1035.0
 30
0.0
 11
134.45000000000019
 21
1035.0
 31
0.0
  0
LINE
  5
13A
  8
DATA
 62
     7
 10
660.35000000000025
 20
1035.0
 30
0.0
 11
660.35000000000025
 21
1037.5999999999999
 31
0.0
  0
ARC
  5
13B
  8
DATA
 62
     7
 10
662.95000000000005
 20
1035.0
 30
0.0
 40
2.5999999999999082
 50
180.0
 51
270.0
  0
LINE
  5
13C
  8
DATA
 62
     7
 10
662.95000000000005
 20
1032.399999999999
 30
0.0
 11
665.55000000000007
 21
1032.399999999999
 31
0.0
  0
LINE
  5
13D
  8
DATA
 62
     7
 10
662.95000000000005
 20
1032.399999999999
 30
0.0
 11
662.95000000000005
 21
1037.5999999999999
 31
0.0
  0
LINE
  5
13E
  8
DATA
 62
     7
 10
660.35000000000025
 20
1035.0
 30
0.0
 11
665.55000000000007
 21
1035.0
 31
0.0
  0
LINE
  5
13F
  8
DATA
 62
     7
 10
139.65000000000001
 20
865.00000852999983
 30
0.0
 11
139.65000000000001
 21
862.40000852999981
 31
0.0
  0
ARC
  5
140
  8
DATA
 62
     7
 10
137.05000000000021
 20
865.00000852999983
 30
0.0
 40
2.5999999999999082
 50
0.0
 51
90.0
  0
LINE
  5
141
  8
DATA
 62
     7
 10
137.05000000000021
 20
867.60000852999985
 30
0.0
 11
134.45000000000019
 21
867.60000852999985
 31
0.0
  0
LINE
  5
142
  8
DATA
 62
     7
 10
137.05000000000021
 20
867.60000852999985
 30
0.0
 11
137.05000000000021
 21
862.40000852999981
 31
0.0
  0
LINE
  5
143
  8
DATA
 62
     7
 10
139.65000000000001
 20
865.00000852999983
 30
0.0
 11
134.45000000000019
 21
865.00000852999983
 31
0.0
  0
LINE
  5
144
  8
DATA
 62
     7
 10
660.35000000000025
 20
865.0000066069997
 30
0.0
 11
660.35000000000025
 21
862.4000066069998
 31
0.0
  0
ARC
  5
145
  8
DATA
 62
     7
 10
662.95000000000005
 20
865.0000066069997
 30
0.0
 40
2.6000000000001351
 50
90.0
 51
180.0
  0
LINE
  5
146
  8
DATA
 62
     7
 10
662.95000000000005
 20
867.60000660699995
 30
0.0
 11
665.55000000000007
 21
867.60000660699995
 31
0.0
  0
LINE
  5
147
  8
DATA
 62
     7
 10
662.95000000000005
 20
867.60000660699995
 30
0.0
 11
662.95000000000005
 21
862.4000066069998
 31
0.0
  0
LINE
  5
148
  8
DATA
 62
     7
 10
660.35000000000025
 20
865.0000066069997
 30
0.0
 11
665.55000000000007
 21
865.0000066069997
 31
0.0
  0
LINE
  5
149
  8
DATA
 62
     7
 10
660.35000000000025
 20
1035.0
 30
0.0
 11
139.65000000000001
 21
1035.0
 31
0.0
  0
LINE
  5
14A
  8
DATA
 62
     7
 10
662.95000000000005
 20
867.60000660699995
 30
0.0
 11
662.95000000000005
 21
1032.399999999999
 31
0.0
  0
LINE
  5
14B
  8
DATA
 62
     7
 10
137.05000000000021
 20
867.60000852999985
 30
0.0
 11
137.05000000000021
 21
1032.399999999999
 31
0.0
  0
LINE
  5
14C
  8
DATA
 62
     7
 10
660.35000000000025
 20
864.99999999999955
 30
0.0
 11
139.65000000000001
 21
864.99999999999955
 31
0.0
  0
LINE
  5
14D
  8
DATA
 62
     7
 10
154.4500000000003
 20
955.00000426499957
 30
0.0
 11
159.4500000000001
 21
955.00000426499957
 31
0.0
  0
LINE
  5
14E
  8
DATA
 62
     7
 10
154.4500000000003
 20
955.00000426499957
 30
0.0
 11
164.45000000000019
 21
965.00000426500014
 31
0.0
  0
LINE
  5
14F
  8
DATA
 62
     7
 10
159.4500000000001
 20
950.00000426500003
 30
0.0
 11
159.4500000000001
 21
955.00000426499957
 31
0.0
  0
LINE
  5
150
  8
DATA
 62
     7
 10
164.45000000000019
 20
965.00000426500014
 30
0.0
 11
174.4500000000003
 21
955.00000426499957
 31
0.0
  0
LINE
  5
151
  8
DATA
 62
     7
 10
169.4500000000003
 20
950.00000426500003
 30
0.0
 11
169.4500000000003
 21
955.00000426499957
 31
0.0
  0
LINE
  5
152
  8
DATA
 62
     7
 10
169.4500000000003
 20
955.00000426499957
 30
0.0
 11
174.4500000000003
 21
955.00000426499957
 31
0.0
  0
LINE
  5
153
  8
DATA
 62
     7
 10
159.4500000000001
 20
950.00000426500003
 30
0.0
 11
169.4500000000003
 21
950.00000426500003
 31
0.0
  0
LINE
  5
154
  8
DATA
 62
     7
 10
176.4324218750003
 20
980.71875426499957
 30
0.0
 11
176.4324218750003
 21
973.10156676499957
 31
0.0
  0
LINE
  5
155
  8
DATA
 62
     7
 10
167.9949218750001
 20
973.10156676499957
 30
0.0
 11
167.9949218750001
 21
980.71875426499957
 31
0.0
  0
LINE
  5
156
  8
DATA
 62
     7
 10
160.9050781250003
 20
980.71875426499957
 30
0.0
 11
160.9050781250003
 21
969.00000426499957
 31
0.0
  0
LINE
  5
157
  8
DATA
 62
     7
 10
155.6316406250003
 20
980.71875426499957
 30
0.0
 11
159.90507812500019
 21
980.71875426499957
 31
0.0
  0
LINE
  5
158
  8
DATA
 62
     7
 10
159.90507812500019
 20
974.27344176499957
 30
0.0
 11
155.6316406250003
 21
974.27344176499957
 31
0.0
  0
POLYLINE
  5
159
  8
DATA
 62
     7
 66
     1
 10
0.0
 20
0.0
 30
0.0
 70
   128
  0
VERTEX
  5
AB6
  8
DATA
 62
     7
 10
155.6316406250003
 20
974.27344176499957
 30
0.0
 42
-0.0243765490006949
  0
VERTEX
  5
AB7
  8
DATA
 62
     7
 10
155.37759159500041
 20
974.3129395779996
 30
0.0
  0
VERTEX
  5
AB8
  8
DATA
 62
     7
 10
155.37759159500041
 20
974.3129395779996
 30
0.0
  0
VERTEX
  5
AB9
  8
DATA
 62
     7
 10
155.37759159500041
 20
974.3129395779996
 30
0.0
 42
-0.024208642000912
  0
VERTEX
  5
ABA
  8
DATA
 62
     7
 10
155.1276540960001
 20
974.37711352300005
 30
0.0
  0
VERTEX
  5
ABB
  8
DATA
 62
     7
 10
155.1276540960001
 20
974.37711352300005
 30
0.0
  0
VERTEX
  5
ABC
  8
DATA
 62
     7
 10
155.1276540960001
 20
974.37711352300005
 30
0.0
 42
-0.0239653980002683
  0
VERTEX
  5
ABD
  8
DATA
 62
     7
 10
154.88376566700009
 20
974.46546611799943
 30
0.0
  0
VERTEX
  5
ABE
  8
DATA
 62
     7
 10
154.88376566700009
 20
974.46546611799943
 30
0.0
  0
VERTEX
  5
ABF
  8
DATA
 62
     7
 10
154.88376566699711
 20
974.46546611800068
 30
0.0
 42
-0.0236586449991909
  0
VERTEX
  5
AC0
  8
DATA
 62
     7
 10
154.64781695200011
 20
974.57731244499962
 30
0.0
  0
VERTEX
  5
AC1
  8
DATA
 62
     7
 10
154.64781695200011
 20
974.57731244499962
 30
0.0
  0
VERTEX
  5
AC2
  8
DATA
 62
     7
 10
154.64781695199511
 20
974.57731244500246
 30
0.0
 42
-0.0233024819990923
  0
VERTEX
  5
AC3
  8
DATA
 62
     7
 10
154.42163704900031
 20
974.71178546099964
 30
0.0
  0
VERTEX
  5
AC4
  8
DATA
 62
     7
 10
154.42163704900031
 20
974.71178546099964
 30
0.0
  0
VERTEX
  5
AC5
  8
DATA
 62
     7
 10
154.42163704899281
 20
974.71178546100464
 30
0.0
 42
-0.0229121639986681
  0
VERTEX
  5
AC6
  8
DATA
 62
     7
 10
154.2069793220069
 20
974.86784271999466
 30
0.0
  0
VERTEX
  5
AC7
  8
DATA
 62
     7
 10
154.20697932200031
 20
974.86784271999954
 30
0.0
  0
VERTEX
  5
AC8
  8
DATA
 62
     7
 10
154.20697932200031
 20
974.86784271999954
 30
0.0
  0
VERTEX
  5
AC9
  8
DATA
 62
     7
 10
154.20697932199911
 20
974.86784272000034
 30
0.0
 42
-0.0225030649998763
  0
VERTEX
  5
ACA
  8
DATA
 62
     7
 10
154.0055078200003
 20
975.04427445099964
 30
0.0
  0
VERTEX
  5
ACB
  8
DATA
 62
     7
 10
154.0055078200003
 20
975.04427445099964
 30
0.0
  0
VERTEX
  5
ACC
  8
DATA
 62
     7
 10
154.0055078200003
 20
975.04427445099964
 30
0.0
 42
-0.0220898390002687
  0
VERTEX
  5
ACD
  8
DATA
 62
     7
 10
153.81878436700021
 20
975.23971293999955
 30
0.0
  0
VERTEX
  5
ACE
  8
DATA
 62
     7
 10
153.81878436700021
 20
975.23971293999955
 30
0.0
  0
VERTEX
  5
ACF
  8
DATA
 62
     7
 10
153.8187843669981
 20
975.23971294000182
 30
0.0
 42
-0.0216858179993791
  0
VERTEX
  5
AD0
  8
DATA
 62
     7
 10
153.64825645900009
 20
975.45264312999996
 30
0.0
  0
VERTEX
  5
AD1
  8
DATA
 62
     7
 10
153.64825645900009
 20
975.45264312999996
 30
0.0
  0
VERTEX
  5
AD2
  8
DATA
 62
     7
 10
153.64825645899731
 20
975.45264313000325
 30
0.0
 42
-0.0213026569993096
  0
VERTEX
  5
AD3
  8
DATA
 62
     7
 10
153.49524604600029
 20
975.6814143659999
 30
0.0
  0
VERTEX
  5
AD4
  8
DATA
 62
     7
 10
153.49524604600029
 20
975.6814143659999
 30
0.0
  0
VERTEX
  5
AD5
  8
DATA
 62
     7
 10
153.49524604600029
 20
975.6814143659999
 30
0.0
 42
-0.0209501920000445
  0
VERTEX
  5
AD6
  8
DATA
 62
     7
 10
153.3609392770004
 20
975.92425319500001
 30
0.0
  0
VERTEX
  5
AD7
  8
DATA
 62
     7
 10
153.3609392770004
 20
975.92425319500001
 30
0.0
  0
VERTEX
  5
AD8
  8
DATA
 62
     7
 10
153.3609392770004
 20
975.92425319500001
 30
0.0
 42
-0.0206364630009794
  0
VERTEX
  5
AD9
  8
DATA
 62
     7
 10
153.2463773100003
 20
976.17927710599986
 30
0.0
  0
VERTEX
  5
ADA
  8
DATA
 62
     7
 10
153.2463773100003
 20
976.17927710599986
 30
0.0
  0
VERTEX
  5
ADB
  8
DATA
 62
     7
 10
153.2463773099997
 20
976.17927710600134
 30
0.0
 42
-0.0203678369995974
  0
VERTEX
  5
ADC
  8
DATA
 62
     7
 10
153.1524482410004
 20
976.44450913199967
 30
0.0
  0
VERTEX
  5
ADD
  8
DATA
 62
     7
 10
153.1524482410004
 20
976.44450913199967
 30
0.0
  0
VERTEX
  5
ADE
  8
DATA
 62
     7
 10
153.1524482410004
 20
976.44450913199967
 30
0.0
 42
-0.0201491930004346
  0
VERTEX
  5
ADF
  8
DATA
 62
     7
 10
153.07988021600019
 20
976.71789317000002
 30
0.0
  0
VERTEX
  5
AE0
  8
DATA
 62
     7
 10
153.07988021600019
 20
976.71789317000002
 30
0.0
  0
VERTEX
  5
AE1
  8
DATA
 62
     7
 10
153.07988021599971
 20
976.71789317000173
 30
0.0
 42
-0.019984125999665
  0
VERTEX
  5
AE2
  8
DATA
 62
     7
 10
153.02923578800019
 20
976.99730992299953
 30
0.0
  0
VERTEX
  5
AE3
  8
DATA
 62
     7
 10
153.02923578800019
 20
976.99730992299953
 30
0.0
  0
SEQEND
  5
AE4
  8
DATA
 62
     7
  0
POLYLINE
  5
189
  8
DATA
 62
     7
 66
     1
 10
0.0
 20
0.0
 30
0.0
 70
   128
  0
VERTEX
  5
AE5
  8
DATA
 62
     7
 10
153.0292357880009
 20
977.9948861090046
 30
0.0
 42
-0.0199515439995479
  0
VERTEX
  5
AE6
  8
DATA
 62
     7
 10
153.07988021600019
 20
978.27430286099957
 30
0.0
  0
VERTEX
  5
AE7
  8
DATA
 62
     7
 10
153.07988021600019
 20
978.27430286099957
 30
0.0
  0
VERTEX
  5
AE8
  8
DATA
 62
     7
 10
153.07988021600019
 20
978.27430286099957
 30
0.0
 42
-0.0201027890000551
  0
VERTEX
  5
AE9
  8
DATA
 62
     7
 10
153.1524482410004
 20
978.54768689899993
 30
0.0
  0
VERTEX
  5
AEA
  8
DATA
 62
     7
 10
153.1524482410004
 20
978.54768689899993
 30
0.0
  0
VERTEX
  5
AEB
  8
DATA
 62
     7
 10
153.15244824100179
 20
978.54768689900447
 30
0.0
 42
-0.0203083289993125
  0
VERTEX
  5
AEC
  8
DATA
 62
     7
 10
153.24637731100029
 20
978.81291892499985
 30
0.0
  0
VERTEX
  5
AED
  8
DATA
 62
     7
 10
153.24637731100029
 20
978.81291892499985
 30
0.0
  0
VERTEX
  5
AEE
  8
DATA
 62
     7
 10
153.246377311
 20
978.81291892499985
 30
0.0
 42
-0.020564863999854
  0
VERTEX
  5
AEF
  8
DATA
 62
     7
 10
153.3609392770004
 20
979.06794283599982
 30
0.0
  0
VERTEX
  5
AF0
  8
DATA
 62
     7
 10
153.3609392770004
 20
979.06794283599982
 30
0.0
  0
VERTEX
  5
AF1
  8
DATA
 62
     7
 10
153.36093927700099
 20
979.06794283600073
 30
0.0
 42
-0.0208678529999531
  0
VERTEX
  5
AF2
  8
DATA
 62
     7
 10
153.49524604600029
 20
979.31078166500004
 30
0.0
  0
VERTEX
  5
AF3
  8
DATA
 62
     7
 10
153.49524604600029
 20
979.31078166500004
 30
0.0
  0
VERTEX
  5
AF4
  8
DATA
 62
     7
 10
153.4952460460016
 20
979.31078166500163
 30
0.0
 42
-0.0212113189994815
  0
VERTEX
  5
AF5
  8
DATA
 62
     7
 10
153.64825646000011
 20
979.53955290099952
 30
0.0
  0
VERTEX
  5
AF6
  8
DATA
 62
     7
 10
153.64825646000011
 20
979.53955290099952
 30
0.0
  0
VERTEX
  5
AF7
  8
DATA
 62
     7
 10
153.64825646000011
 20
979.53955290099952
 30
0.0
 42
-0.0215876560007952
  0
VERTEX
  5
AF8
  8
DATA
 62
     7
 10
153.81878436700021
 20
979.75248309100004
 30
0.0
  0
VERTEX
  5
AF9
  8
DATA
 62
     7
 10
153.81878436700021
 20
979.75248309100004
 30
0.0
  0
VERTEX
  5
AFA
  8
DATA
 62
     7
 10
153.81878436700021
 20
979.75248309100004
 30
0.0
 42
-0.0219874850010305
  0
VERTEX
  5
AFB
  8
DATA
 62
     7
 10
154.00550782100021
 20
979.94792157999984
 30
0.0
  0
VERTEX
  5
AFC
  8
DATA
 62
     7
 10
154.00550782100021
 20
979.94792157999984
 30
0.0
  0
VERTEX
  5
AFD
  8
DATA
 62
     7
 10
154.00550782100439
 20
979.94792158000348
 30
0.0
 42
-0.0223995979990281
  0
VERTEX
  5
AFE
  8
DATA
 62
     7
 10
154.20697932300021
 20
980.12435331100005
 30
0.0
  0
VERTEX
  5
AFF
  8
DATA
 62
     7
 10
154.20697932300021
 20
980.12435331100005
 30
0.0
  0
VERTEX
  5
B00
  8
DATA
 62
     7
 10
154.2069793230003
 20
980.12435331100005
 30
0.0
 42
-0.0228110600002158
  0
VERTEX
  5
B01
  8
DATA
 62
     7
 10
154.42163704900031
 20
980.28041056899974
 30
0.0
  0
VERTEX
  5
B02
  8
DATA
 62
     7
 10
154.42163704900031
 20
980.28041056899974
 30
0.0
  0
VERTEX
  5
B03
  8
DATA
 62
     7
 10
154.42163704900031
 20
980.28041056899974
 30
0.0
 42
-0.0232074990007167
  0
VERTEX
  5
B04
  8
DATA
 62
     7
 10
154.6478169530005
 20
980.41488358599952
 30
0.0
  0
VERTEX
  5
B05
  8
DATA
 62
     7
 10
154.6478169530005
 20
980.41488358599952
 30
0.0
  0
VERTEX
  5
B06
  8
DATA
 62
     7
 10
154.6478169530005
 20
980.41488358599952
 30
0.0
 42
-0.023573652000185
  0
VERTEX
  5
B07
  8
DATA
 62
     7
 10
154.88376566700009
 20
980.52672991199995
 30
0.0
  0
VERTEX
  5
B08
  8
DATA
 62
     7
 10
154.88376566700009
 20
980.52672991199995
 30
0.0
  0
VERTEX
  5
B09
  8
DATA
 62
     7
 10
154.88376566700009
 20
980.52672991199995
 30
0.0
 42
-0.0238941429999199
  0
VERTEX
  5
B0A
  8
DATA
 62
     7
 10
155.1276540960001
 20
980.61508250699956
 30
0.0
  0
VERTEX
  5
B0B
  8
DATA
 62
     7
 10
155.1276540960001
 20
980.61508250699956
 30
0.0
  0
VERTEX
  5
B0C
  8
DATA
 62
     7
 10
155.1276540960001
 20
980.61508250699956
 30
0.0
 42
-0.0241544810010392
  0
VERTEX
  5
B0D
  8
DATA
 62
     7
 10
155.37759159500041
 20
980.67925645199955
 30
0.0
  0
VERTEX
  5
B0E
  8
DATA
 62
     7
 10
155.37759159500041
 20
980.67925645199955
 30
0.0
  0
VERTEX
  5
B0F
  8
DATA
 62
     7
 10
155.3775915950049
 20
980.67925645200046
 30
0.0
 42
-0.0243421659992489
  0
VERTEX
  5
B10
  8
DATA
 62
     7
 10
155.6316406250003
 20
980.71875426499957
 30
0.0
  0
VERTEX
  5
B11
  8
DATA
 62
     7
 10
155.6316406250003
 20
980.71875426499957
 30
0.0
  0
SEQEND
  5
B12
  8
DATA
 62
     7
  0
POLYLINE
  5
1B8
  8
DATA
 62
     7
 66
     1
 10
0.0
 20
0.0
 30
0.0
 70
   128
  0
VERTEX
  5
B13
  8
DATA
 62
     7
 10
176.4324218750003
 20
973.10156676499957
 30
0.0
 42
-0.0199078940004593
  0
VERTEX
  5
B14
  8
DATA
 62
     7
 10
176.36643359800021
 20
972.69199368599993
 30
0.0
  0
VERTEX
  5
B15
  8
DATA
 62
     7
 10
176.36643359800021
 20
972.69199368599993
 30
0.0
  0
VERTEX
  5
B16
  8
DATA
 62
     7
 10
176.36643359799979
 20
972.69199368599755
 30
0.0
 42
-0.0200452239998808
  0
VERTEX
  5
B17
  8
DATA
 62
     7
 10
176.26830162200031
 20
972.29045012899985
 30
0.0
  0
VERTEX
  5
B18
  8
DATA
 62
     7
 10
176.26830162200031
 20
972.29045012899985
 30
0.0
  0
VERTEX
  5
B19
  8
DATA
 62
     7
 10
176.268301621999
 20
972.29045012899553
 30
0.0
 42
-0.0202373669995666
  0
VERTEX
  5
B1A
  8
DATA
 62
     7
 10
176.13878552200001
 20
971.9000441689999
 30
0.0
  0
VERTEX
  5
B1B
  8
DATA
 62
     7
 10
176.13878552200001
 20
971.9000441689999
 30
0.0
  0
VERTEX
  5
B1C
  8
DATA
 62
     7
 10
176.13878552200001
 20
971.9000441689999
 30
0.0
 42
-0.0204813090002588
  0
VERTEX
  5
B1D
  8
DATA
 62
     7
 10
175.97888779100049
 20
971.52379767200011
 30
0.0
  0
VERTEX
  5
B1E
  8
DATA
 62
     7
 10
175.97888779100049
 20
971.52379767200011
 30
0.0
  0
VERTEX
  5
B1F
  8
DATA
 62
     7
 10
175.97888779100049
 20
971.52379767200011
 30
0.0
 42
-0.020772845000313
  0
VERTEX
  5
B20
  8
DATA
 62
     7
 10
175.78984609099999
 20
971.16462290599952
 30
0.0
  0
VERTEX
  5
B21
  8
DATA
 62
     7
 10
175.78984609099999
 20
971.16462290599952
 30
0.0
  0
VERTEX
  5
B22
  8
DATA
 62
     7
 10
175.78984609099999
 20
971.16462290599952
 30
0.0
 42
-0.0211063900002522
  0
VERTEX
  5
B23
  8
DATA
 62
     7
 10
175.57312366300039
 20
970.82529999899998
 30
0.0
  0
VERTEX
  5
B24
  8
DATA
 62
     7
 10
175.57312366300039
 20
970.82529999899998
 30
0.0
  0
VERTEX
  5
B25
  8
DATA
 62
     7
 10
175.57312366300039
 20
970.82529999899998
 30
0.0
 42
-0.0214747810003162
  0
VERTEX
  5
B26
  8
DATA
 62
     7
 10
175.33039800900039
 20
970.50845541699982
 30
0.0
  0
VERTEX
  5
B27
  8
DATA
 62
     7
 10
175.33039800900039
 20
970.50845541699982
 30
0.0
  0
VERTEX
  5
B28
  8
DATA
 62
     7
 10
175.33039800900039
 20
970.50845541699982
 30
0.0
 42
-0.0218691170000838
  0
VERTEX
  5
B29
  8
DATA
 62
     7
 10
175.06354790200021
 20
970.21654163899996
 30
0.0
  0
VERTEX
  5
B2A
  8
DATA
 62
     7
 10
175.06354790200021
 20
970.21654163899996
 30
0.0
  0
VERTEX
  5
B2B
  8
DATA
 62
     7
 10
175.06354790199811
 20
970.21654163899814
 30
0.0
 42
-0.0222786789996927
  0
VERTEX
  5
B2C
  8
DATA
 62
     7
 10
174.77463884599999
 20
969.95181816899992
 30
0.0
  0
VERTEX
  5
B2D
  8
DATA
 62
     7
 10
174.77463884599999
 20
969.95181816899992
 30
0.0
  0
VERTEX
  5
B2E
  8
DATA
 62
     7
 10
174.77463884599939
 20
969.95181816899924
 30
0.0
 42
-0.0226909799999554
  0
VERTEX
  5
B2F
  8
DATA
 62
     7
 10
174.4659070910001
 20
969.71633405299963
 30
0.0
  0
VERTEX
  5
B30
  8
DATA
 62
     7
 10
174.4659070910001
 20
969.71633405299963
 30
0.0
  0
VERTEX
  5
B31
  8
DATA
 62
     7
 10
174.4659070910001
 20
969.71633405299963
 30
0.0
 42
-0.0230920160001649
  0
VERTEX
  5
B32
  8
DATA
 62
     7
 10
174.13974231900011
 20
969.5119120119997
 30
0.0
  0
VERTEX
  5
B33
  8
DATA
 62
     7
 10
174.13974231900011
 20
969.5119120119997
 30
0.0
  0
VERTEX
  5
B34
  8
DATA
 62
     7
 10
174.1397423189994
 20
969.51191201199924
 30
0.0
 42
-0.0234667270000534
  0
VERTEX
  5
B35
  8
DATA
 62
     7
 10
173.798669147
 20
969.34013433699965
 30
0.0
  0
VERTEX
  5
B36
  8
DATA
 62
     7
 10
173.798669147
 20
969.34013433699965
 30
0.0
  0
VERTEX
  5
B37
  8
DATA
 62
     7
 10
173.798669146999
 20
969.34013433699909
 30
0.0
 42
-0.0237997269997965
  0
VERTEX
  5
B38
  8
DATA
 62
     7
 10
173.4453275920003
 20
969.20233064299941
 30
0.0
  0
VERTEX
  5
B39
  8
DATA
 62
     7
 10
173.4453275920003
 20
969.20233064299941
 30
0.0
  0
VERTEX
  5
B3A
  8
DATA
 62
     7
 10
173.4453275920003
 20
969.20233064299941
 30
0.0
 42
-0.0240762410004165
  0
VERTEX
  5
B3B
  8
DATA
 62
     7
 10
173.0824526300002
 20
969.09956757500004
 30
0.0
  0
VERTEX
  5
B3C
  8
DATA
 62
     7
 10
173.0824526300002
 20
969.09956757500004
 30
0.0
  0
VERTEX
  5
B3D
  8
DATA
 62
     7
 10
173.0824526300002
 20
969.09956757500004
 30
0.0
 42
-0.0242831960004886
  0
VERTEX
  5
B3E
  8
DATA
 62
     7
 10
172.7128530280001
 20
969.03264055
 30
0.0
  0
VERTEX
  5
B3F
  8
DATA
 62
     7
 10
172.7128530280001
 20
969.03264055
 30
0.0
  0
SEQEND
  5
B40
  8
DATA
 62
     7
  0
POLYLINE
  5
1E7
  8
DATA
 62
     7
 66
     1
 10
0.0
 20
0.0
 30
0.0
 70
   128
  0
VERTEX
  5
B41
  8
DATA
 62
     7
 10
171.71449072199991
 20
969.03264055
 30
0.0
 42
-0.0243227860003547
  0
VERTEX
  5
B42
  8
DATA
 62
     7
 10
171.34489112000031
 20
969.09956757500004
 30
0.0
  0
VERTEX
  5
B43
  8
DATA
 62
     7
 10
171.34489112000031
 20
969.09956757500004
 30
0.0
  0
VERTEX
  5
B44
  8
DATA
 62
     7
 10
171.3448911200004
 20
969.09956757500004
 30
0.0
 42
-0.0241349579997098
  0
VERTEX
  5
B45
  8
DATA
 62
     7
 10
170.98201615800011
 20
969.20233064299941
 30
0.0
  0
VERTEX
  5
B46
  8
DATA
 62
     7
 10
170.98201615800011
 20
969.20233064299941
 30
0.0
  0
VERTEX
  5
B47
  8
DATA
 62
     7
 10
170.9820161579899
 20
969.20233064300282
 30
0.0
 42
-0.0238746989987103
  0
VERTEX
  5
B48
  8
DATA
 62
     7
 10
170.6286746030114
 20
969.34013433699431
 30
0.0
  0
VERTEX
  5
B49
  8
DATA
 62
     7
 10
170.62867460299981
 20
969.34013433699965
 30
0.0
  0
VERTEX
  5
B4A
  8
DATA
 62
     7
 10
170.62867460299981
 20
969.34013433699965
 30
0.0
  0
VERTEX
  5
B4B
  8
DATA
 62
     7
 10
170.6286746029939
 20
969.34013433700227
 30
0.0
 42
-0.0235544829992261
  0
VERTEX
  5
B4C
  8
DATA
 62
     7
 10
170.28760143100041
 20
969.5119120119997
 30
0.0
  0
VERTEX
  5
B4D
  8
DATA
 62
     7
 10
170.28760143100041
 20
969.5119120119997
 30
0.0
  0
VERTEX
  5
B4E
  8
DATA
 62
     7
 10
170.28760143100041
 20
969.5119120119997
 30
0.0
 42
-0.0231887640001497
  0
VERTEX
  5
B4F
  8
DATA
 62
     7
 10
169.9614366590003
 20
969.71633405299963
 30
0.0
  0
VERTEX
  5
B50
  8
DATA
 62
     7
 10
169.9614366590003
 20
969.71633405299963
 30
0.0
  0
VERTEX
  5
B51
  8
DATA
 62
     7
 10
169.96143665899959
 20
969.71633405299997
 30
0.0
 42
-0.0227928700000233
  0
VERTEX
  5
B52
  8
DATA
 62
     7
 10
169.6527049040001
 20
969.95181816899992
 30
0.0
  0
VERTEX
  5
B53
  8
DATA
 62
     7
 10
169.6527049040001
 20
969.95181816899992
 30
0.0
  0
VERTEX
  5
B54
  8
DATA
 62
     7
 10
169.6527049040001
 20
969.95181816899992
 30
0.0
 42
-0.0223820210004686
  0
VERTEX
  5
B55
  8
DATA
 62
     7
 10
169.36379584800031
 20
970.21654163899996
 30
0.0
  0
VERTEX
  5
B56
  8
DATA
 62
     7
 10
169.36379584800031
 20
970.21654163899996
 30
0.0
  0
VERTEX
  5
B57
  8
DATA
 62
     7
 10
169.36379584800031
 20
970.21654163899996
 30
0.0
 42
-0.0219705390002968
  0
VERTEX
  5
B58
  8
DATA
 62
     7
 10
169.0969457410001
 20
970.50845541699982
 30
0.0
  0
VERTEX
  5
B59
  8
DATA
 62
     7
 10
169.0969457410001
 20
970.50845541699982
 30
0.0
  0
VERTEX
  5
B5A
  8
DATA
 62
     7
 10
169.09694574100001
 20
970.50845541699994
 30
0.0
 42
-0.0215713210000213
  0
VERTEX
  5
B5B
  8
DATA
 62
     7
 10
168.8542200870001
 20
970.82529999899998
 30
0.0
  0
VERTEX
  5
B5C
  8
DATA
 62
     7
 10
168.8542200870001
 20
970.82529999899998
 30
0.0
  0
VERTEX
  5
B5D
  8
DATA
 62
     7
 10
168.8542200870001
 20
970.82529999899998
 30
0.0
 42
-0.021195538000142
  0
VERTEX
  5
B5E
  8
DATA
 62
     7
 10
168.63749765900039
 20
971.16462290599952
 30
0.0
  0
VERTEX
  5
B5F
  8
DATA
 62
     7
 10
168.63749765900039
 20
971.16462290599952
 30
0.0
  0
VERTEX
  5
B60
  8
DATA
 62
     7
 10
168.63749765900039
 20
971.16462290599952
 30
0.0
 42
-0.0208525440003331
  0
VERTEX
  5
B61
  8
DATA
 62
     7
 10
168.448455959
 20
971.52379767200011
 30
0.0
  0
VERTEX
  5
B62
  8
DATA
 62
     7
 10
168.448455959
 20
971.52379767200011
 30
0.0
  0
VERTEX
  5
B63
  8
DATA
 62
     7
 10
168.44845595900031
 20
971.52379767199966
 30
0.0
 42
-0.0205499240000226
  0
VERTEX
  5
B64
  8
DATA
 62
     7
 10
168.28855822800051
 20
971.9000441689999
 30
0.0
  0
VERTEX
  5
B65
  8
DATA
 62
     7
 10
168.28855822800051
 20
971.9000441689999
 30
0.0
  0
VERTEX
  5
B66
  8
DATA
 62
     7
 10
168.28855822800051
 20
971.9000441689999
 30
0.0
 42
-0.020293639000171
  0
VERTEX
  5
B67
  8
DATA
 62
     7
 10
168.15904212800021
 20
972.29045012899985
 30
0.0
  0
VERTEX
  5
B68
  8
DATA
 62
     7
 10
168.15904212800021
 20
972.29045012899985
 30
0.0
  0
VERTEX
  5
B69
  8
DATA
 62
     7
 10
168.15904212800021
 20
972.29045012899985
 30
0.0
 42
-0.0200882200001199
  0
VERTEX
  5
B6A
  8
DATA
 62
     7
 10
168.0609101520003
 20
972.69199368599993
 30
0.0
  0
VERTEX
  5
B6B
  8
DATA
 62
     7
 10
168.0609101520003
 20
972.69199368599993
 30
0.0
  0
VERTEX
  5
B6C
  8
DATA
 62
     7
 10
168.0609101520003
 20
972.69199368599993
 30
0.0
 42
-0.0199369620005761
  0
VERTEX
  5
B6D
  8
DATA
 62
     7
 10
167.9949218750001
 20
973.10156676499957
 30
0.0
  0
VERTEX
  5
B6E
  8
DATA
 62
     7
 10
167.9949218750001
 20
973.10156676499957
 30
0.0
  0
SEQEND
  5
B6F
  8
DATA
 62
     7
  0
CIRCLE
  5
217
  8
DATA
 62
     7
 10
400.0
 20
1020.0
 30
0.0
 40
4.600000000000362
  0
CIRCLE
  5
218
  8
DATA
 62
     7
 10
400.0
 20
879.99999999999966
 30
0.0
 40
4.600000000000362
  0
CIRCLE
  5
219
  8
DATA
 62
     7
 10
280.0
 20
1020.0
 30
0.0
 40
4.600000000000362
  0
CIRCLE
  5
21A
  8
DATA
 62
     7
 10
520.0
 20
1020.0
 30
0.0
 40
4.5999999999999091
  0
CIRCLE
  5
21B
  8
DATA
 62
     7
 10
280.0
 20
879.99999999999966
 30
0.0
 40
4.600000000000362
  0
CIRCLE
  5
21C
  8
DATA
 62
     7
 10
520.0
 20
879.99999999999966
 30
0.0
 40
4.5999999999999091
  0
CIRCLE
  5
21D
  8
DATA
 62
     7
 10
180.0
 20
1020.0
 30
0.0
 40
4.600000000000362
  0
CIRCLE
  5
21E
  8
DATA
 62
     7
 10
180.0
 20
879.99999999999966
 30
0.0
 40
4.600000000000362
  0
CIRCLE
  5
21F
  8
DATA
 62
     7
 10
620.0
 20
1020.0
 30
0.0
 40
4.5999999999999091
  0
CIRCLE
  5
220
  8
DATA
 62
     7
 10
620.0
 20
879.99999999999966
 30
0.0
 40
4.5999999999999091
  0
CIRCLE
  5
221
  8
DATA
 62
     7
 10
160.0000000000004
 20
1020.0
 30
0.0
 40
6.5
  0
CIRCLE
  5
222
  8
DATA
 62
     7
 10
160.0000000000004
 20
879.99999999999966
 30
0.0
 40
6.5
  0
CIRCLE
  5
223
  8
DATA
 62
     7
 10
640.0
 20
1020.0
 30
0.0
 40
6.5
  0
CIRCLE
  5
224
  8
DATA
 62
     7
 10
640.0
 20
879.99999999999966
 30
0.0
 40
6.5
  0
LINE
  5
225
  8
DATA
 62
     7
 10
139.65000000000001
 20
891.84193429799984
 30
0.0
 11
139.65000000000001
 21
1008.158065702
 31
0.0
  0
LINE
  5
226
  8
DATA
 62
     7
 10
137.05000000000021
 20
1008.158065702
 30
0.0
 11
139.65000000000001
 21
1008.158065702
 31
0.0
  0
LINE
  5
227
  8
DATA
 62
     7
 10
137.05000000000021
 20
891.84193429799984
 30
0.0
 11
139.65000000000001
 21
891.84193429799984
 31
0.0
  0
LINE
  5
228
  8
DATA
 62
     7
 10
660.35000000000025
 20
891.84193429799984
 30
0.0
 11
660.35000000000025
 21
1008.158065702
 31
0.0
  0
LINE
  5
229
  8
DATA
 62
     7
 10
662.95000000000005
 20
1008.158065702
 30
0.0
 11
660.35000000000025
 21
1008.158065702
 31
0.0
  0
LINE
  5
22A
  8
DATA
 62
     7
 10
662.95000000000005
 20
891.84193429799984
 30
0.0
 11
660.35000000000025
 21
891.84193429799984
 31
0.0
  0
ARC
  5
22B
  8
DATA
 62
     7
 10
204.4500000000001
 20
-112.5000042649999
 30
0.0
 40
10.0
 50
90.0
 51
180.0
  0
LINE
  5
22C
  8
DATA
 62
     7
 10
194.44999999999999
 20
-187.499995735
 30
0.0
 11
194.44999999999999
 21
-112.5000042649999
 31
0.0
  0
ARC
  5
22D
  8
DATA
 62
     7
 10
204.4500000000001
 20
-187.50000426500009
 30
0.0
 40
10.0
 50
179.9999511260001
 51
270.0
  0
LINE
  5
22E
  8
DATA
 62
     7
 10
204.4500000000001
 20
-197.50000426500009
 30
0.0
 11
595.54999999999995
 21
-197.50000426500009
 31
0.0
  0
ARC
  5
22F
  8
DATA
 62
     7
 10
595.54999999999995
 20
-187.50000426500009
 30
0.0
 40
10.0
 50
270.0
 51
0.0000378559998353
  0
LINE
  5
230
  8
DATA
 62
     7
 10
605.54999999999995
 20
-187.4999976580001
 30
0.0
 11
605.54999999999995
 21
-112.5000042649999
 31
0.0
  0
ARC
  5
231
  8
DATA
 62
     7
 10
595.54999999999995
 20
-112.5000042649999
 30
0.0
 40
10.0
 50
0.0
 51
89.999912573998131
  0
LINE
  5
232
  8
DATA
 62
     7
 10
204.4500000000001
 20
-102.5000042649999
 30
0.0
 11
595.55001525899991
 21
-102.5000042649999
 31
0.0
  0
LINE
  5
233
  8
DATA
 62
     7
 10
665.54999999999995
 20
-235.00000426500009
 30
0.0
 11
665.54999999999995
 21
-65.000004264999973
 31
0.0
  0
LINE
  5
234
  8
DATA
 62
     7
 10
662.95000000000005
 20
-62.400004265000071
 30
0.0
 11
137.0499999999999
 21
-62.400004265000071
 31
0.0
  0
LINE
  5
235
  8
DATA
 62
     7
 10
662.95000000000005
 20
-237.60000426500019
 30
0.0
 11
137.0499999999999
 21
-237.60000426500019
 31
0.0
  0
LINE
  5
236
  8
DATA
 62
     7
 10
134.44999999999999
 20
-235.00000426500009
 30
0.0
 11
134.44999999999999
 21
-65.000004264999973
 31
0.0
  0
LINE
  5
237
  8
DATA
 62
     7
 10
139.64999999999981
 20
-65.000004264999973
 30
0.0
 11
139.64999999999981
 21
-62.400004265000071
 31
0.0
  0
ARC
  5
238
  8
DATA
 62
     7
 10
137.0499999999999
 20
-65.000004264999973
 30
0.0
 40
2.600000000000362
 50
270.0
 51
0.0
  0
LINE
  5
239
  8
DATA
 62
     7
 10
137.0499999999999
 20
-67.600004265000337
 30
0.0
 11
134.44999999999999
 21
-67.600004265000337
 31
0.0
  0
LINE
  5
23A
  8
DATA
 62
     7
 10
137.0499999999999
 20
-67.600004265000337
 30
0.0
 11
137.0499999999999
 21
-62.400004265000071
 31
0.0
  0
LINE
  5
23B
  8
DATA
 62
     7
 10
139.64999999999981
 20
-65.000004264999973
 30
0.0
 11
134.44999999999999
 21
-65.000004264999973
 31
0.0
  0
LINE
  5
23C
  8
DATA
 62
     7
 10
660.35000000000014
 20
-65.000004264999973
 30
0.0
 11
660.35000000000014
 21
-62.400004265000071
 31
0.0
  0
ARC
  5
23D
  8
DATA
 62
     7
 10
662.95000000000005
 20
-65.000004264999973
 30
0.0
 40
2.5999999999999082
 50
180.0
 51
270.0
  0
LINE
  5
23E
  8
DATA
 62
     7
 10
662.95000000000005
 20
-67.600004265000337
 30
0.0
 11
665.54999999999995
 21
-67.600004265000337
 31
0.0
  0
LINE
  5
23F
  8
DATA
 62
     7
 10
662.95000000000005
 20
-67.600004265000337
 30
0.0
 11
662.95000000000005
 21
-62.400004265000071
 31
0.0
  0
LINE
  5
240
  8
DATA
 62
     7
 10
660.35000000000014
 20
-65.000004264999973
 30
0.0
 11
665.54999999999995
 21
-65.000004264999973
 31
0.0
  0
LINE
  5
241
  8
DATA
 62
     7
 10
139.64999999999981
 20
-234.999995735
 30
0.0
 11
139.64999999999981
 21
-237.59999573500019
 31
0.0
  0
ARC
  5
242
  8
DATA
 62
     7
 10
137.0499999999999
 20
-234.999995735
 30
0.0
 40
2.5999999999999082
 50
0.0
 51
90.0
  0
LINE
  5
243
  8
DATA
 62
     7
 10
137.0499999999999
 20
-232.39999573500009
 30
0.0
 11
134.44999999999999
 21
-232.39999573500009
 31
0.0
  0
LINE
  5
244
  8
DATA
 62
     7
 10
137.0499999999999
 20
-232.39999573500009
 30
0.0
 11
137.0499999999999
 21
-237.59999573500019
 31
0.0
  0
LINE
  5
245
  8
DATA
 62
     7
 10
139.64999999999981
 20
-234.999995735
 30
0.0
 11
134.44999999999999
 21
-234.999995735
 31
0.0
  0
LINE
  5
246
  8
DATA
 62
     7
 10
660.35000000000014
 20
-234.99999765800021
 30
0.0
 11
660.35000000000014
 21
-237.59999765800009
 31
0.0
  0
ARC
  5
247
  8
DATA
 62
     7
 10
662.95000000000005
 20
-234.99999765800021
 30
0.0
 40
2.6000000000001351
 50
90.0
 51
180.0
  0
LINE
  5
248
  8
DATA
 62
     7
 10
662.95000000000005
 20
-232.39999765799999
 30
0.0
 11
665.54999999999995
 21
-232.39999765799999
 31
0.0
  0
LINE
  5
249
  8
DATA
 62
     7
 10
662.95000000000005
 20
-232.39999765799999
 30
0.0
 11
662.95000000000005
 21
-237.59999765800009
 31
0.0
  0
LINE
  5
24A
  8
DATA
 62
     7
 10
660.35000000000014
 20
-234.99999765800021
 30
0.0
 11
665.54999999999995
 21
-234.99999765800021
 31
0.0
  0
LINE
  5
24B
  8
DATA
 62
     7
 10
660.35000000000014
 20
-65.000004264999973
 30
0.0
 11
139.64999999999981
 21
-65.000004264999973
 31
0.0
  0
LINE
  5
24C
  8
DATA
 62
     7
 10
662.95000000000005
 20
-232.39999765799999
 30
0.0
 11
662.95000000000005
 21
-67.600004265000337
 31
0.0
  0
LINE
  5
24D
  8
DATA
 62
     7
 10
137.0499999999999
 20
-232.39999573500009
 30
0.0
 11
137.0499999999999
 21
-67.600004265000337
 31
0.0
  0
LINE
  5
24E
  8
DATA
 62
     7
 10
660.35000000000014
 20
-235.00000426500009
 30
0.0
 11
139.64999999999981
 21
-235.00000426500009
 31
0.0
  0
LINE
  5
24F
  8
DATA
 62
     7
 10
154.44999999999999
 20
-145.00000000000011
 30
0.0
 11
159.44999999999999
 21
-145.00000000000011
 31
0.0
  0
LINE
  5
250
  8
DATA
 62
     7
 10
154.44999999999999
 20
-145.00000000000011
 30
0.0
 11
164.44999999999999
 21
-135.0
 31
0.0
  0
LINE
  5
251
  8
DATA
 62
     7
 10
159.44999999999999
 20
-150.00000000000011
 30
0.0
 11
159.44999999999999
 21
-145.00000000000011
 31
0.0
  0
LINE
  5
252
  8
DATA
 62
     7
 10
164.44999999999999
 20
-135.0
 30
0.0
 11
174.44999999999999
 21
-145.00000000000011
 31
0.0
  0
LINE
  5
253
  8
DATA
 62
     7
 10
169.44999999999999
 20
-150.00000000000011
 30
0.0
 11
169.44999999999999
 21
-145.00000000000011
 31
0.0
  0
LINE
  5
254
  8
DATA
 62
     7
 10
169.44999999999999
 20
-145.00000000000011
 30
0.0
 11
174.44999999999999
 21
-145.00000000000011
 31
0.0
  0
LINE
  5
255
  8
DATA
 62
     7
 10
159.44999999999999
 20
-150.00000000000011
 30
0.0
 11
169.44999999999999
 21
-150.00000000000011
 31
0.0
  0
LINE
  5
256
  8
DATA
 62
     7
 10
176.43242187499999
 20
-119.28125
 30
0.0
 11
176.43242187499999
 21
-126.8984375
 31
0.0
  0
LINE
  5
257
  8
DATA
 62
     7
 10
167.99492187499999
 20
-126.8984375
 30
0.0
 11
167.99492187499999
 21
-119.28125
 31
0.0
  0
LINE
  5
258
  8
DATA
 62
     7
 10
160.90507812499999
 20
-119.28125
 30
0.0
 11
160.90507812499999
 21
-131.0
 31
0.0
  0
LINE
  5
259
  8
DATA
 62
     7
 10
155.63164062499999
 20
-119.28125
 30
0.0
 11
159.90507812499999
 21
-119.28125
 31
0.0
  0
LINE
  5
25A
  8
DATA
 62
     7
 10
159.90507812499999
 20
-125.7265625
 30
0.0
 11
155.63164062499999
 21
-125.7265625
 31
0.0
  0
POLYLINE
  5
25B
  8
DATA
 62
     7
 66
     1
 10
0.0
 20
0.0
 30
0.0
 70
   128
  0
VERTEX
  5
B70
  8
DATA
 62
     7
 10
155.63164062499999
 20
-125.7265625
 30
0.0
 42
-0.024376549000692
  0
VERTEX
  5
B71
  8
DATA
 62
     7
 10
155.37759159500021
 20
-125.6870646870002
 30
0.0
  0
VERTEX
  5
B72
  8
DATA
 62
     7
 10
155.37759159500021
 20
-125.6870646870002
 30
0.0
  0
VERTEX
  5
B73
  8
DATA
 62
     7
 10
155.37759159500021
 20
-125.6870646870002
 30
0.0
 42
-0.0242086420009131
  0
VERTEX
  5
B74
  8
DATA
 62
     7
 10
155.12765409599999
 20
-125.622890742
 30
0.0
  0
VERTEX
  5
B75
  8
DATA
 62
     7
 10
155.12765409599999
 20
-125.622890742
 30
0.0
  0
VERTEX
  5
B76
  8
DATA
 62
     7
 10
155.12765409599999
 20
-125.622890742
 30
0.0
 42
-0.0239653980002712
  0
VERTEX
  5
B77
  8
DATA
 62
     7
 10
154.88376566700001
 20
-125.53453814700021
 30
0.0
  0
VERTEX
  5
B78
  8
DATA
 62
     7
 10
154.88376566700001
 20
-125.53453814700021
 30
0.0
  0
VERTEX
  5
B79
  8
DATA
 62
     7
 10
154.88376566699611
 20
-125.5345381469985
 30
0.0
 42
-0.023658644999422
  0
VERTEX
  5
B7A
  8
DATA
 62
     7
 10
154.6478169519998
 20
-125.4226918200002
 30
0.0
  0
VERTEX
  5
B7B
  8
DATA
 62
     7
 10
154.6478169519998
 20
-125.4226918200002
 30
0.0
  0
VERTEX
  5
B7C
  8
DATA
 62
     7
 10
154.64781695199531
 20
-125.42269181999779
 30
0.0
 42
-0.0233024819990263
  0
VERTEX
  5
B7D
  8
DATA
 62
     7
 10
154.42163704900011
 20
-125.28821880400019
 30
0.0
  0
VERTEX
  5
B7E
  8
DATA
 62
     7
 10
154.42163704900011
 20
-125.28821880400019
 30
0.0
  0
VERTEX
  5
B7F
  8
DATA
 62
     7
 10
154.42163704899309
 20
-125.2882188039957
 30
0.0
 42
-0.0229121639986736
  0
VERTEX
  5
B80
  8
DATA
 62
     7
 10
154.2069793220067
 20
-125.1321615450055
 30
0.0
  0
VERTEX
  5
B81
  8
DATA
 62
     7
 10
154.206979322
 20
-125.1321615450002
 30
0.0
  0
VERTEX
  5
B82
  8
DATA
 62
     7
 10
154.206979322
 20
-125.1321615450002
 30
0.0
  0
VERTEX
  5
B83
  8
DATA
 62
     7
 10
154.2069793219986
 20
-125.13216154499899
 30
0.0
 42
-0.0225030649996819
  0
VERTEX
  5
B84
  8
DATA
 62
     7
 10
154.00550781999999
 20
-124.95572981400031
 30
0.0
  0
VERTEX
  5
B85
  8
DATA
 62
     7
 10
154.00550781999999
 20
-124.95572981400031
 30
0.0
  0
VERTEX
  5
B86
  8
DATA
 62
     7
 10
154.00550781999999
 20
-124.95572981400031
 30
0.0
 42
-0.0220898390002599
  0
VERTEX
  5
B87
  8
DATA
 62
     7
 10
153.81878436700001
 20
-124.7602913250003
 30
0.0
  0
VERTEX
  5
B88
  8
DATA
 62
     7
 10
153.81878436700001
 20
-124.7602913250003
 30
0.0
  0
VERTEX
  5
B89
  8
DATA
 62
     7
 10
153.81878436699799
 20
-124.76029132499799
 30
0.0
 42
-0.0216858179996337
  0
VERTEX
  5
B8A
  8
DATA
 62
     7
 10
153.64825645899981
 20
-124.5473611349999
 30
0.0
  0
VERTEX
  5
B8B
  8
DATA
 62
     7
 10
153.64825645899981
 20
-124.5473611349999
 30
0.0
  0
VERTEX
  5
B8C
  8
DATA
 62
     7
 10
153.6482564589972
 20
-124.54736113499629
 30
0.0
 42
-0.0213026569992851
  0
VERTEX
  5
B8D
  8
DATA
 62
     7
 10
153.49524604600009
 20
-124.3185898990001
 30
0.0
  0
VERTEX
  5
B8E
  8
DATA
 62
     7
 10
153.49524604600009
 20
-124.3185898990001
 30
0.0
  0
VERTEX
  5
B8F
  8
DATA
 62
     7
 10
153.49524604600009
 20
-124.3185898990001
 30
0.0
 42
-0.0209501920000585
  0
VERTEX
  5
B90
  8
DATA
 62
     7
 10
153.36093927700011
 20
-124.07575107000009
 30
0.0
  0
VERTEX
  5
B91
  8
DATA
 62
     7
 10
153.36093927700011
 20
-124.07575107000009
 30
0.0
  0
VERTEX
  5
B92
  8
DATA
 62
     7
 10
153.36093927700011
 20
-124.07575107000009
 30
0.0
 42
-0.0206364630009851
  0
VERTEX
  5
B93
  8
DATA
 62
     7
 10
153.24637731000001
 20
-123.820727159
 30
0.0
  0
VERTEX
  5
B94
  8
DATA
 62
     7
 10
153.24637731000001
 20
-123.820727159
 30
0.0
  0
VERTEX
  5
B95
  8
DATA
 62
     7
 10
153.2463773099991
 20
-123.8207271589977
 30
0.0
 42
-0.0203678369994763
  0
VERTEX
  5
B96
  8
DATA
 62
     7
 10
153.1524482410002
 20
-123.55549513299999
 30
0.0
  0
VERTEX
  5
B97
  8
DATA
 62
     7
 10
153.1524482410002
 20
-123.55549513299999
 30
0.0
  0
VERTEX
  5
B98
  8
DATA
 62
     7
 10
153.1524482410002
 20
-123.55549513299999
 30
0.0
 42
-0.0201491930004332
  0
VERTEX
  5
B99
  8
DATA
 62
     7
 10
153.07988021599999
 20
-123.28211109499991
 30
0.0
  0
VERTEX
  5
B9A
  8
DATA
 62
     7
 10
153.07988021599999
 20
-123.28211109499991
 30
0.0
  0
VERTEX
  5
B9B
  8
DATA
 62
     7
 10
153.07988021599951
 20
-123.2821110949978
 30
0.0
 42
-0.0199841259996525
  0
VERTEX
  5
B9C
  8
DATA
 62
     7
 10
153.02923578799999
 20
-123.0026943420003
 30
0.0
  0
VERTEX
  5
B9D
  8
DATA
 62
     7
 10
153.02923578799999
 20
-123.0026943420003
 30
0.0
  0
SEQEND
  5
B9E
  8
DATA
 62
     7
  0
POLYLINE
  5
28B
  8
DATA
 62
     7
 66
     1
 10
0.0
 20
0.0
 30
0.0
 70
   128
  0
VERTEX
  5
B9F
  8
DATA
 62
     7
 10
153.02923578800059
 20
-122.0051181559957
 30
0.0
 42
-0.0199515439994019
  0
VERTEX
  5
BA0
  8
DATA
 62
     7
 10
153.07988021599999
 20
-121.7257014040002
 30
0.0
  0
VERTEX
  5
BA1
  8
DATA
 62
     7
 10
153.07988021599999
 20
-121.7257014040002
 30
0.0
  0
VERTEX
  5
BA2
  8
DATA
 62
     7
 10
153.07988021599999
 20
-121.7257014040002
 30
0.0
 42
-0.0201027890000614
  0
VERTEX
  5
BA3
  8
DATA
 62
     7
 10
153.1524482410002
 20
-121.452317366
 30
0.0
  0
VERTEX
  5
BA4
  8
DATA
 62
     7
 10
153.1524482410002
 20
-121.452317366
 30
0.0
  0
VERTEX
  5
BA5
  8
DATA
 62
     7
 10
153.15244824100199
 20
-121.4523173659942
 30
0.0
 42
-0.0203083289991914
  0
VERTEX
  5
BA6
  8
DATA
 62
     7
 10
153.246377311
 20
-121.1870853400001
 30
0.0
  0
VERTEX
  5
BA7
  8
DATA
 62
     7
 10
153.246377311
 20
-121.1870853400001
 30
0.0
  0
VERTEX
  5
BA8
  8
DATA
 62
     7
 10
153.24637731100029
 20
-121.1870853399995
 30
0.0
 42
-0.0205648639998736
  0
VERTEX
  5
BA9
  8
DATA
 62
     7
 10
153.36093927700011
 20
-120.932061429
 30
0.0
  0
VERTEX
  5
BAA
  8
DATA
 62
     7
 10
153.36093927700011
 20
-120.932061429
 30
0.0
  0
VERTEX
  5
BAB
  8
DATA
 62
     7
 10
153.36093927700071
 20
-120.93206142899891
 30
0.0
 42
-0.0208678529997366
  0
VERTEX
  5
BAC
  8
DATA
 62
     7
 10
153.49524604600009
 20
-120.68922259999999
 30
0.0
  0
VERTEX
  5
BAD
  8
DATA
 62
     7
 10
153.49524604600009
 20
-120.68922259999999
 30
0.0
  0
VERTEX
  5
BAE
  8
DATA
 62
     7
 10
153.49524604600111
 20
-120.6892225999984
 30
0.0
 42
-0.0212113189996191
  0
VERTEX
  5
BAF
  8
DATA
 62
     7
 10
153.6482564599998
 20
-120.46045136400021
 30
0.0
  0
VERTEX
  5
BB0
  8
DATA
 62
     7
 10
153.6482564599998
 20
-120.46045136400021
 30
0.0
  0
VERTEX
  5
BB1
  8
DATA
 62
     7
 10
153.6482564599998
 20
-120.46045136400021
 30
0.0
 42
-0.0215876560007968
  0
VERTEX
  5
BB2
  8
DATA
 62
     7
 10
153.81878436700001
 20
-120.2475211740003
 30
0.0
  0
VERTEX
  5
BB3
  8
DATA
 62
     7
 10
153.81878436700001
 20
-120.2475211740003
 30
0.0
  0
VERTEX
  5
BB4
  8
DATA
 62
     7
 10
153.81878436700001
 20
-120.2475211740003
 30
0.0
 42
-0.0219874850010217
  0
VERTEX
  5
BB5
  8
DATA
 62
     7
 10
154.00550782100001
 20
-120.0520826850002
 30
0.0
  0
VERTEX
  5
BB6
  8
DATA
 62
     7
 10
154.00550782100001
 20
-120.0520826850002
 30
0.0
  0
VERTEX
  5
BB7
  8
DATA
 62
     7
 10
154.0055078210041
 20
-120.05208268499619
 30
0.0
 42
-0.0223995979989359
  0
VERTEX
  5
BB8
  8
DATA
 62
     7
 10
154.20697932300001
 20
-119.87565095399989
 30
0.0
  0
VERTEX
  5
BB9
  8
DATA
 62
     7
 10
154.20697932300001
 20
-119.87565095399989
 30
0.0
  0
VERTEX
  5
BBA
  8
DATA
 62
     7
 10
154.2069793229997
 20
-119.87565095400009
 30
0.0
 42
-0.0228110600002069
  0
VERTEX
  5
BBB
  8
DATA
 62
     7
 10
154.42163704900011
 20
-119.7195936960002
 30
0.0
  0
VERTEX
  5
BBC
  8
DATA
 62
     7
 10
154.42163704900011
 20
-119.7195936960002
 30
0.0
  0
VERTEX
  5
BBD
  8
DATA
 62
     7
 10
154.42163704900011
 20
-119.7195936960002
 30
0.0
 42
-0.02320749900072
  0
VERTEX
  5
BBE
  8
DATA
 62
     7
 10
154.6478169530003
 20
-119.5851206790003
 30
0.0
  0
VERTEX
  5
BBF
  8
DATA
 62
     7
 10
154.6478169530003
 20
-119.5851206790003
 30
0.0
  0
VERTEX
  5
BC0
  8
DATA
 62
     7
 10
154.6478169530003
 20
-119.5851206790003
 30
0.0
 42
-0.0235736520001859
  0
VERTEX
  5
BC1
  8
DATA
 62
     7
 10
154.88376566700001
 20
-119.47327435299989
 30
0.0
  0
VERTEX
  5
BC2
  8
DATA
 62
     7
 10
154.88376566700001
 20
-119.47327435299989
 30
0.0
  0
VERTEX
  5
BC3
  8
DATA
 62
     7
 10
154.88376566700001
 20
-119.47327435299989
 30
0.0
 42
-0.0238941429999213
  0
VERTEX
  5
BC4
  8
DATA
 62
     7
 10
155.12765409599999
 20
-119.3849217580001
 30
0.0
  0
VERTEX
  5
BC5
  8
DATA
 62
     7
 10
155.12765409599999
 20
-119.3849217580001
 30
0.0
  0
VERTEX
  5
BC6
  8
DATA
 62
     7
 10
155.12765409599999
 20
-119.3849217580001
 30
0.0
 42
-0.0241544810010464
  0
VERTEX
  5
BC7
  8
DATA
 62
     7
 10
155.37759159500021
 20
-119.3207478130003
 30
0.0
  0
VERTEX
  5
BC8
  8
DATA
 62
     7
 10
155.37759159500021
 20
-119.3207478130003
 30
0.0
  0
VERTEX
  5
BC9
  8
DATA
 62
     7
 10
155.3775915950016
 20
-119.320747813
 30
0.0
 42
-0.0243421659995912
  0
VERTEX
  5
BCA
  8
DATA
 62
     7
 10
155.63164062499999
 20
-119.28125
 30
0.0
  0
VERTEX
  5
BCB
  8
DATA
 62
     7
 10
155.63164062499999
 20
-119.28125
 30
0.0
  0
SEQEND
  5
BCC
  8
DATA
 62
     7
  0
POLYLINE
  5
2BA
  8
DATA
 62
     7
 66
     1
 10
0.0
 20
0.0
 30
0.0
 70
   128
  0
VERTEX
  5
BCD
  8
DATA
 62
     7
 10
176.43242187499999
 20
-126.8984375
 30
0.0
 42
-0.0199078940004603
  0
VERTEX
  5
BCE
  8
DATA
 62
     7
 10
176.3664335979999
 20
-127.308010579
 30
0.0
  0
VERTEX
  5
BCF
  8
DATA
 62
     7
 10
176.3664335979999
 20
-127.308010579
 30
0.0
  0
VERTEX
  5
BD0
  8
DATA
 62
     7
 10
176.3664335979995
 20
-127.3080105790023
 30
0.0
 42
-0.0200452239997022
  0
VERTEX
  5
BD1
  8
DATA
 62
     7
 10
176.26830162200011
 20
-127.70955413599999
 30
0.0
  0
VERTEX
  5
BD2
  8
DATA
 62
     7
 10
176.26830162200011
 20
-127.70955413599999
 30
0.0
  0
VERTEX
  5
BD3
  8
DATA
 62
     7
 10
176.2683016219986
 20
-127.7095541360048
 30
0.0
 42
-0.0202373669994783
  0
VERTEX
  5
BD4
  8
DATA
 62
     7
 10
176.13878552199981
 20
-128.0999600959999
 30
0.0
  0
VERTEX
  5
BD5
  8
DATA
 62
     7
 10
176.13878552199981
 20
-128.0999600959999
 30
0.0
  0
VERTEX
  5
BD6
  8
DATA
 62
     7
 10
176.13878552199981
 20
-128.0999600959999
 30
0.0
 42
-0.0204813090002526
  0
VERTEX
  5
BD7
  8
DATA
 62
     7
 10
175.97888779100009
 20
-128.47620659299989
 30
0.0
  0
VERTEX
  5
BD8
  8
DATA
 62
     7
 10
175.97888779100009
 20
-128.47620659299989
 30
0.0
  0
VERTEX
  5
BD9
  8
DATA
 62
     7
 10
175.97888779100009
 20
-128.47620659299989
 30
0.0
 42
-0.0207728450003066
  0
VERTEX
  5
BDA
  8
DATA
 62
     7
 10
175.78984609099979
 20
-128.83538135900019
 30
0.0
  0
VERTEX
  5
BDB
  8
DATA
 62
     7
 10
175.78984609099979
 20
-128.83538135900019
 30
0.0
  0
VERTEX
  5
BDC
  8
DATA
 62
     7
 10
175.78984609099979
 20
-128.83538135900019
 30
0.0
 42
-0.0211063900002512
  0
VERTEX
  5
BDD
  8
DATA
 62
     7
 10
175.5731236630001
 20
-129.17470426599999
 30
0.0
  0
VERTEX
  5
BDE
  8
DATA
 62
     7
 10
175.5731236630001
 20
-129.17470426599999
 30
0.0
  0
VERTEX
  5
BDF
  8
DATA
 62
     7
 10
175.5731236630001
 20
-129.17470426599999
 30
0.0
 42
-0.0214747810003152
  0
VERTEX
  5
BE0
  8
DATA
 62
     7
 10
175.33039800900019
 20
-129.49154884800001
 30
0.0
  0
VERTEX
  5
BE1
  8
DATA
 62
     7
 10
175.33039800900019
 20
-129.49154884800001
 30
0.0
  0
VERTEX
  5
BE2
  8
DATA
 62
     7
 10
175.33039800900019
 20
-129.49154884800001
 30
0.0
 42
-0.0218691170000851
  0
VERTEX
  5
BE3
  8
DATA
 62
     7
 10
175.06354790200001
 20
-129.7834626260001
 30
0.0
  0
VERTEX
  5
BE4
  8
DATA
 62
     7
 10
175.06354790200001
 20
-129.7834626260001
 30
0.0
  0
VERTEX
  5
BE5
  8
DATA
 62
     7
 10
175.06354790199791
 20
-129.7834626260022
 30
0.0
 42
-0.022278678999664
  0
VERTEX
  5
BE6
  8
DATA
 62
     7
 10
174.77463884599979
 20
-130.04818609599991
 30
0.0
  0
VERTEX
  5
BE7
  8
DATA
 62
     7
 10
174.77463884599979
 20
-130.04818609599991
 30
0.0
  0
VERTEX
  5
BE8
  8
DATA
 62
     7
 10
174.77463884599931
 20
-130.04818609600039
 30
0.0
 42
-0.0226909799998457
  0
VERTEX
  5
BE9
  8
DATA
 62
     7
 10
174.46590709099991
 20
-130.28367021200029
 30
0.0
  0
VERTEX
  5
BEA
  8
DATA
 62
     7
 10
174.46590709099991
 20
-130.28367021200029
 30
0.0
  0
VERTEX
  5
BEB
  8
DATA
 62
     7
 10
174.46590709099991
 20
-130.28367021200029
 30
0.0
 42
-0.0230920160001694
  0
VERTEX
  5
BEC
  8
DATA
 62
     7
 10
174.13974231899991
 20
-130.4880922530001
 30
0.0
  0
VERTEX
  5
BED
  8
DATA
 62
     7
 10
174.13974231899991
 20
-130.4880922530001
 30
0.0
  0
VERTEX
  5
BEE
  8
DATA
 62
     7
 10
174.13974231899991
 20
-130.4880922530001
 30
0.0
 42
-0.0234667269999877
  0
VERTEX
  5
BEF
  8
DATA
 62
     7
 10
173.7986691469998
 20
-130.65986992800029
 30
0.0
  0
VERTEX
  5
BF0
  8
DATA
 62
     7
 10
173.7986691469998
 20
-130.65986992800029
 30
0.0
  0
VERTEX
  5
BF1
  8
DATA
 62
     7
 10
173.7986691469996
 20
-130.6598699280004
 30
0.0
 42
-0.0237997269998886
  0
VERTEX
  5
BF2
  8
DATA
 62
     7
 10
173.44532759200021
 20
-130.7976736220003
 30
0.0
  0
VERTEX
  5
BF3
  8
DATA
 62
     7
 10
173.44532759200021
 20
-130.7976736220003
 30
0.0
  0
VERTEX
  5
BF4
  8
DATA
 62
     7
 10
173.44532759200021
 20
-130.7976736220003
 30
0.0
 42
-0.0240762410004116
  0
VERTEX
  5
BF5
  8
DATA
 62
     7
 10
173.08245263000001
 20
-130.90043668999991
 30
0.0
  0
VERTEX
  5
BF6
  8
DATA
 62
     7
 10
173.08245263000001
 20
-130.90043668999991
 30
0.0
  0
VERTEX
  5
BF7
  8
DATA
 62
     7
 10
173.08245263000001
 20
-130.90043668999991
 30
0.0
 42
-0.0242831960004903
  0
VERTEX
  5
BF8
  8
DATA
 62
     7
 10
172.7128530279999
 20
-130.96736371499969
 30
0.0
  0
VERTEX
  5
BF9
  8
DATA
 62
     7
 10
172.7128530279999
 20
-130.96736371499969
 30
0.0
  0
SEQEND
  5
BFA
  8
DATA
 62
     7
  0
POLYLINE
  5
2E9
  8
DATA
 62
     7
 66
     1
 10
0.0
 20
0.0
 30
0.0
 70
   128
  0
VERTEX
  5
BFB
  8
DATA
 62
     7
 10
171.71449072199971
 20
-130.96736371499969
 30
0.0
 42
-0.0243227860003567
  0
VERTEX
  5
BFC
  8
DATA
 62
     7
 10
171.34489112
 20
-130.90043668999991
 30
0.0
  0
VERTEX
  5
BFD
  8
DATA
 62
     7
 10
171.34489112
 20
-130.90043668999991
 30
0.0
  0
VERTEX
  5
BFE
  8
DATA
 62
     7
 10
171.34489111999881
 20
-130.90043668999959
 30
0.0
 42
-0.0241349579998864
  0
VERTEX
  5
BFF
  8
DATA
 62
     7
 10
170.98201615799979
 20
-130.7976736220003
 30
0.0
  0
VERTEX
  5
C00
  8
DATA
 62
     7
 10
170.98201615799979
 20
-130.7976736220003
 30
0.0
  0
VERTEX
  5
C01
  8
DATA
 62
     7
 10
170.9820161579901
 20
-130.79767362199701
 30
0.0
 42
-0.0238746989986584
  0
VERTEX
  5
C02
  8
DATA
 62
     7
 10
170.62867460300961
 20
-130.6598699280047
 30
0.0
  0
VERTEX
  5
C03
  8
DATA
 62
     7
 10
170.62867460299981
 20
-130.65986992800029
 30
0.0
  0
VERTEX
  5
C04
  8
DATA
 62
     7
 10
170.62867460299981
 20
-130.65986992800029
 30
0.0
  0
VERTEX
  5
C05
  8
DATA
 62
     7
 10
170.62867460299501
 20
-130.65986992799799
 30
0.0
 42
-0.0235544829993755
  0
VERTEX
  5
C06
  8
DATA
 62
     7
 10
170.28760143100021
 20
-130.4880922530001
 30
0.0
  0
VERTEX
  5
C07
  8
DATA
 62
     7
 10
170.28760143100021
 20
-130.4880922530001
 30
0.0
  0
VERTEX
  5
C08
  8
DATA
 62
     7
 10
170.28760143100021
 20
-130.4880922530001
 30
0.0
 42
-0.0231887640001449
  0
VERTEX
  5
C09
  8
DATA
 62
     7
 10
169.9614366590001
 20
-130.28367021200029
 30
0.0
  0
VERTEX
  5
C0A
  8
DATA
 62
     7
 10
169.9614366590001
 20
-130.28367021200029
 30
0.0
  0
VERTEX
  5
C0B
  8
DATA
 62
     7
 10
169.96143665899831
 20
-130.28367021199901
 30
0.0
 42
-0.0227928699999302
  0
VERTEX
  5
C0C
  8
DATA
 62
     7
 10
169.65270490399979
 20
-130.04818609599991
 30
0.0
  0
VERTEX
  5
C0D
  8
DATA
 62
     7
 10
169.65270490399979
 20
-130.04818609599991
 30
0.0
  0
VERTEX
  5
C0E
  8
DATA
 62
     7
 10
169.65270490399979
 20
-130.04818609599991
 30
0.0
 42
-0.0223820210004714
  0
VERTEX
  5
C0F
  8
DATA
 62
     7
 10
169.36379584800011
 20
-129.7834626260001
 30
0.0
  0
VERTEX
  5
C10
  8
DATA
 62
     7
 10
169.36379584800011
 20
-129.7834626260001
 30
0.0
  0
VERTEX
  5
C11
  8
DATA
 62
     7
 10
169.36379584800011
 20
-129.7834626260001
 30
0.0
 42
-0.0219705390002911
  0
VERTEX
  5
C12
  8
DATA
 62
     7
 10
169.0969457409999
 20
-129.49154884800001
 30
0.0
  0
VERTEX
  5
C13
  8
DATA
 62
     7
 10
169.0969457409999
 20
-129.49154884800001
 30
0.0
  0
VERTEX
  5
C14
  8
DATA
 62
     7
 10
169.09694574100001
 20
-129.49154884800029
 30
0.0
 42
-0.0215713209999424
  0
VERTEX
  5
C15
  8
DATA
 62
     7
 10
168.8542200869999
 20
-129.17470426599999
 30
0.0
  0
VERTEX
  5
C16
  8
DATA
 62
     7
 10
168.8542200869999
 20
-129.17470426599999
 30
0.0
  0
VERTEX
  5
C17
  8
DATA
 62
     7
 10
168.8542200869999
 20
-129.17470426599999
 30
0.0
 42
-0.0211955380001465
  0
VERTEX
  5
C18
  8
DATA
 62
     7
 10
168.63749765900019
 20
-128.83538135900019
 30
0.0
  0
VERTEX
  5
C19
  8
DATA
 62
     7
 10
168.63749765900019
 20
-128.83538135900019
 30
0.0
  0
VERTEX
  5
C1A
  8
DATA
 62
     7
 10
168.63749765900019
 20
-128.83538135900019
 30
0.0
 42
-0.0208525440003271
  0
VERTEX
  5
C1B
  8
DATA
 62
     7
 10
168.4484559589998
 20
-128.47620659299989
 30
0.0
  0
VERTEX
  5
C1C
  8
DATA
 62
     7
 10
168.4484559589998
 20
-128.47620659299989
 30
0.0
  0
VERTEX
  5
C1D
  8
DATA
 62
     7
 10
168.4484559589994
 20
-128.4762065929992
 30
0.0
 42
-0.0205499239998538
  0
VERTEX
  5
C1E
  8
DATA
 62
     7
 10
168.28855822800031
 20
-128.0999600959999
 30
0.0
  0
VERTEX
  5
C1F
  8
DATA
 62
     7
 10
168.28855822800031
 20
-128.0999600959999
 30
0.0
  0
VERTEX
  5
C20
  8
DATA
 62
     7
 10
168.28855822800031
 20
-128.0999600960001
 30
0.0
 42
-0.0202936390000213
  0
VERTEX
  5
C21
  8
DATA
 62
     7
 10
168.15904212800001
 20
-127.70955413599999
 30
0.0
  0
VERTEX
  5
C22
  8
DATA
 62
     7
 10
168.15904212800001
 20
-127.70955413599999
 30
0.0
  0
VERTEX
  5
C23
  8
DATA
 62
     7
 10
168.15904212800001
 20
-127.70955413599999
 30
0.0
 42
-0.0200882200000569
  0
VERTEX
  5
C24
  8
DATA
 62
     7
 10
168.0609101520001
 20
-127.308010579
 30
0.0
  0
VERTEX
  5
C25
  8
DATA
 62
     7
 10
168.0609101520001
 20
-127.308010579
 30
0.0
  0
VERTEX
  5
C26
  8
DATA
 62
     7
 10
168.0609101520001
 20
-127.308010579
 30
0.0
 42
-0.0199369620005747
  0
VERTEX
  5
C27
  8
DATA
 62
     7
 10
167.99492187499999
 20
-126.8984375
 30
0.0
  0
VERTEX
  5
C28
  8
DATA
 62
     7
 10
167.99492187499999
 20
-126.8984375
 30
0.0
  0
SEQEND
  5
C29
  8
DATA
 62
     7
  0
CIRCLE
  5
319
  8
DATA
 62
     7
 10
399.99999999999977
 20
-80.000004264999973
 30
0.0
 40
4.600000000000362
  0
CIRCLE
  5
31A
  8
DATA
 62
     7
 10
399.99999999999977
 20
-220.00000426500009
 30
0.0
 40
4.600000000000362
  0
CIRCLE
  5
31B
  8
DATA
 62
     7
 10
279.99999999999972
 20
-80.000004264999973
 30
0.0
 40
4.600000000000362
  0
CIRCLE
  5
31C
  8
DATA
 62
     7
 10
519.99999999999955
 20
-80.000004264999973
 30
0.0
 40
4.5999999999999091
  0
CIRCLE
  5
31D
  8
DATA
 62
     7
 10
279.99999999999972
 20
-220.00000426500009
 30
0.0
 40
4.600000000000362
  0
CIRCLE
  5
31E
  8
DATA
 62
     7
 10
519.99999999999955
 20
-220.00000426500009
 30
0.0
 40
4.5999999999999091
  0
CIRCLE
  5
31F
  8
DATA
 62
     7
 10
179.9999999999998
 20
-80.000004264999973
 30
0.0
 40
4.600000000000362
  0
CIRCLE
  5
320
  8
DATA
 62
     7
 10
179.9999999999998
 20
-220.00000426500009
 30
0.0
 40
4.600000000000362
  0
CIRCLE
  5
321
  8
DATA
 62
     7
 10
619.99999999999955
 20
-80.000004264999973
 30
0.0
 40
4.5999999999999091
  0
CIRCLE
  5
322
  8
DATA
 62
     7
 10
619.99999999999955
 20
-220.00000426500009
 30
0.0
 40
4.5999999999999091
  0
CIRCLE
  5
323
  8
DATA
 62
     7
 10
160.0000000000002
 20
-80.000004264999973
 30
0.0
 40
6.5
  0
CIRCLE
  5
324
  8
DATA
 62
     7
 10
160.0000000000002
 20
-220.00000426500009
 30
0.0
 40
6.5
  0
CIRCLE
  5
325
  8
DATA
 62
     7
 10
639.99999999999955
 20
-80.000004264999973
 30
0.0
 40
6.5
  0
CIRCLE
  5
326
  8
DATA
 62
     7
 10
639.99999999999955
 20
-220.00000426500009
 30
0.0
 40
6.5
  0
LINE
  5
327
  8
DATA
 62
     7
 10
139.64999999999981
 20
-208.15806996699999
 30
0.0
 11
139.64999999999981
 21
-91.841938563000056
 31
0.0
  0
LINE
  5
328
  8
DATA
 62
     7
 10
137.0499999999999
 20
-91.841938563000056
 30
0.0
 11
139.64999999999981
 21
-91.841938563000056
 31
0.0
  0
LINE
  5
329
  8
DATA
 62
     7
 10
137.0499999999999
 20
-208.15806996699999
 30
0.0
 11
139.64999999999981
 21
-208.15806996699999
 31
0.0
  0
LINE
  5
32A
  8
DATA
 62
     7
 10
660.35000000000014
 20
-208.15806996699999
 30
0.0
 11
660.35000000000014
 21
-91.841938563000056
 31
0.0
  0
LINE
  5
32B
  8
DATA
 62
     7
 10
662.95000000000005
 20
-91.841938563000056
 30
0.0
 11
660.35000000000014
 21
-91.841938563000056
 31
0.0
  0
LINE
  5
32C
  8
DATA
 62
     7
 10
662.95000000000005
 20
-208.15806996699999
 30
0.0
 11
660.35000000000014
 21
-208.15806996699999
 31
0.0
  0
CIRCLE
  5
32D
  8
DATA
 62
     7
 10
-210.0
 20
-150.0000042649998
 30
0.0
 40
3.100000000000362
  0
CIRCLE
  5
32E
  8
DATA
 62
     7
 10
-200.013707436
 20
-148.42928768600001
 30
0.0
 40
3.100000000000362
  0
CIRCLE
  5
32F
  8
DATA
 62
     7
 10
-190.06091729800011
 20
-146.51005459500001
 30
0.0
 40
3.100000000000362
  0
CIRCLE
  5
330
  8
DATA
 62
     7
 10
-180.15075117699959
 20
-144.24304907800001
 30
0.0
 40
3.0999999999994521
  0
CIRCLE
  5
331
  8
DATA
 62
     7
 10
-170.29231396900011
 20
-141.62922741600011
 30
0.0
 40
3.100000000000362
  0
CIRCLE
  5
332
  8
DATA
 62
     7
 10
-210.3044241529997
 20
-143.02754484499999
 30
0.0
 40
3.0999999999994521
  0
CIRCLE
  5
333
  8
DATA
 62
     7
 10
-200.49302941699989
 20
-140.59244257099999
 30
0.0
 40
3.0999999999999082
  0
CIRCLE
  5
334
  8
DATA
 62
     7
 10
-190.74538483600011
 20
-137.8130699240001
 30
0.0
 40
3.100000000000362
  0
CIRCLE
  5
335
  8
DATA
 62
     7
 10
-181.07051243800009
 20
-134.69096315900001
 30
0.0
 40
3.100000000000362
  0
CIRCLE
  5
336
  8
DATA
 62
     7
 10
-171.47739912899991
 20
-131.22786846
 30
0.0
 40
3.0999999999999082
  0
CIRCLE
  5
337
  8
DATA
 62
     7
 10
-211.21537975899989
 20
-136.10815005200001
 30
0.0
 40
3.0999999999999082
  0
CIRCLE
  5
338
  8
DATA
 62
     7
 10
-201.65355348999989
 20
-132.82719468100009
 30
0.0
 40
3.0999999999999082
  0
CIRCLE
  5
339
  8
DATA
 62
     7
 10
-192.18523992700011
 20
-129.2088351830001
 30
0.0
 40
3.100000000000362
  0
CIRCLE
  5
33A
  8
DATA
 62
     7
 10
-182.81929287400001
 20
-125.255388287
 30
0.0
 40
3.0999999999999082
  0
CIRCLE
  5
33B
  8
DATA
 62
     7
 10
-173.56451284699961
 20
-120.969376793
 30
0.0
 40
3.0999999999994521
  0
CIRCLE
  5
33C
  8
DATA
 62
     7
 10
-212.72593389699981
 20
-129.29448065699981
 30
0.0
 40
3.0999999999999082
  0
CIRCLE
  5
33D
  8
DATA
 62
     7
 10
-203.48644736599999
 20
-125.1926422410001
 30
0.0
 40
3.100000000000362
  0
CIRCLE
  5
33E
  8
DATA
 62
     7
 10
-194.369524404
 20
-120.7628337930001
 30
0.0
 40
3.100000000000362
  0
CIRCLE
  5
33F
  8
DATA
 62
     7
 10
-185.38378320799981
 20
-116.0081348840001
 30
0.0
 40
3.0999999999999082
  0
CIRCLE
  5
340
  8
DATA
 62
     7
 10
-176.5377709280001
 20
-110.9318257299999
 30
0.0
 40
3.100000000000362
  0
CIRCLE
  5
341
  8
DATA
 62
     7
 10
-214.82459033699971
 20
-122.6383927990001
 30
0.0
 40
3.0999999999999082
  0
CIRCLE
  5
342
  8
DATA
 62
     7
 10
-205.97776161499999
 20
-117.7468888060001
 30
0.0
 40
3.0999999999999082
  0
CIRCLE
  5
343
  8
DATA
 62
     7
 10
-197.28161454299971
 20
-112.539344923
 30
0.0
 40
3.0999999999994521
  0
CIRCLE
  5
344
  8
DATA
 62
     7
 10
-188.74446611999969
 20
-107.019580131
 30
0.0
 40
3.0999999999999082
  0
CIRCLE
  5
345
  8
DATA
 62
     7
 10
-180.3745450830001
 20
-101.191607096
 30
0.0
 40
3.100000000000362
  0
CIRCLE
  5
346
  8
DATA
 62
     7
 10
-217.4953770369998
 20
-116.190543326
 30
0.0
 40
3.0999999999999082
  0
CIRCLE
  5
347
  8
DATA
 62
     7
 10
-209.1085358330001
 20
-110.54660105400001
 30
0.0
 40
3.100000000000362
  0
CIRCLE
  5
348
  8
DATA
 62
     7
 10
-200.8993475809998
 20
-104.60095429099999
 30
0.0
 40
3.0999999999999082
  0
CIRCLE
  5
349
  8
DATA
 62
     7
 10
-192.8757647860001
 20
-98.358132359000052
 30
0.0
 40
3.100000000000362
  0
CIRCLE
  5
34A
  8
DATA
 62
     7
 10
-185.04563514300011
 20
-91.822849835
 30
0.0
 40
3.100000000000362
  0
CIRCLE
  5
34B
  8
DATA
 62
     7
 10
-220.71796769700001
 20
-110.000004265
 30
0.0
 40
3.100000000000362
  0
CIRCLE
  5
34C
  8
DATA
 62
     7
 10
-212.854942937
 20
-103.6465775230001
 30
0.0
 40
3.0999999999999082
  0
CIRCLE
  5
34D
  8
DATA
 62
     7
 10
-205.195190384
 20
-97.008077841999935
 30
0.0
 40
3.0999999999999082
  0
CIRCLE
  5
34E
  8
DATA
 62
     7
 10
-197.7462375260001
 20
-90.089710412999949
 30
0.0
 40
3.100000000000362
  0
CIRCLE
  5
34F
  8
DATA
 62
     7
 10
-190.5154912930002
 20
-82.896855849000133
 30
0.0
 40
3.100000000000362
  0
CIRCLE
  5
350
  8
DATA
 62
     7
 10
-224.467836457
 20
-104.11388935700001
 30
0.0
 40
3.100000000000362
  0
ARC
  5
351
  8
DATA
 62
     7
 10
-353.58168877899971
 20
-203.35137586900001
 30
0.0
 40
3.6000000000001711
 50
219.99973690699809
 51
40.000455689999043
  0
ARC
  5
352
  8
DATA
 62
     7
 10
-290.0
 20
-150.0000042649998
 30
0.0
 40
86.599999999999866
 50
179.99998573900001
 51
219.99998906299999
  0
ARC
  5
353
  8
DATA
 62
     7
 10
-373.0
 20
-150.0000042649998
 30
0.0
 40
3.6000000000001111
 50
0.0004857020008206
 51
179.99965655600059
  0
ARC
  5
354
  8
DATA
 62
     7
 10
-290.0
 20
-150.0000042649998
 30
0.0
 40
79.400000000000034
 50
179.99997796700001
 51
219.99997933899999
  0
CIRCLE
  5
355
  8
DATA
 62
     7
 10
-217.1884705060001
 20
-97.099331559000049
 30
0.0
 40
3.100000000000362
  0
CIRCLE
  5
356
  8
DATA
 62
     7
 10
-228.7164445500002
 20
-98.576995490000016
 30
0.0
 40
3.100000000000362
  0
CIRCLE
  5
357
  8
DATA
 62
     7
 10
-210.13644899500011
 20
-89.818501949999984
 30
0.0
 40
3.100000000000362
  0
CIRCLE
  5
358
  8
DATA
 62
     7
 10
-203.3188171029997
 20
-82.277241979000038
 30
0.0
 40
3.0999999999994521
  0
CIRCLE
  5
359
  8
DATA
 62
     7
 10
-196.74248462499961
 20
-74.481557339000062
 30
0.0
 40
3.0999999999994521
  0
ARC
  5
35A
  8
DATA
 62
     7
 10
-290.0
 20
-150.0000042649998
 30
0.0
 40
3.599999999999655
 50
179.9996787380008
 51
0.0000607139994884
  0
LINE
  5
35B
  8
DATA
 62
     7
 10
-304.99999618499987
 20
-235.000004265
 30
0.0
 11
-150.0
 21
-235.000004265
 31
0.0
  0
LINE
  5
35C
  8
DATA
 62
     7
 10
-152.59999999999991
 20
-235.000004265
 30
0.0
 11
-152.59999999999991
 21
-65.000004264999973
 31
0.0
  0
LINE
  5
35D
  8
DATA
 62
     7
 10
-366.0
 20
-90.000004264999959
 30
0.0
 11
-390.0
 21
-114.0000042649999
 31
0.0
  0
LINE
  5
35E
  8
DATA
 62
     7
 10
-293.59999999999991
 20
-149.99998407999999
 30
0.0
 11
-293.59999999999991
 21
-112.6463475760001
 31
0.0
  0
LINE
  5
35F
  8
DATA
 62
     7
 10
-316.24634331099969
 20
-90.000004264999959
 30
0.0
 11
-293.59999999999991
 21
-112.6463475760001
 31
0.0
  0
LINE
  5
360
  8
DATA
 62
     7
 10
-366.0
 20
-90.000004264999959
 30
0.0
 11
-316.24634331099969
 21
-90.000004264999959
 31
0.0
  0
LINE
  5
361
  8
DATA
 62
     7
 10
-286.39999999999958
 20
-150.0000004499999
 30
0.0
 11
-286.39999999999958
 21
-112.6463475760001
 31
0.0
  0
LINE
  5
362
  8
DATA
 62
     7
 10
-238.7536566889998
 20
-65.000004264999973
 30
0.0
 11
-286.39999999999958
 21
-112.6463475760001
 31
0.0
  0
LINE
  5
363
  8
DATA
 62
     7
 10
-238.7536566889998
 20
-65.000004264999973
 30
0.0
 11
-150.0
 21
-65.000004264999973
 31
0.0
  0
LINE
  5
364
  8
DATA
 62
     7
 10
-390.0
 20
-150.0000004499999
 30
0.0
 11
-390.0
 21
-114.0000042649999
 31
0.0
  0
ARC
  5
365
  8
DATA
 62
     7
 10
-305.0
 20
-150.0000042649998
 30
0.0
 40
85.000000000000071
 50
179.999997439
 51
270.00000257099998
  0
LINE
  5
366
  8
DATA
 62
     7
 10
-165.0
 20
-65.000004264999973
 30
0.0
 11
-165.0
 21
-62.40000426499995
 31
0.0
  0
LINE
  5
367
  8
DATA
 62
     7
 10
-165.0
 20
-62.40000426499995
 30
0.0
 11
-152.59999999999991
 21
-62.40000426499995
 31
0.0
  0
LINE
  5
368
  8
DATA
 62
     7
 10
-150.0
 20
-235.000004265
 30
0.0
 11
-150.0
 21
-65.000004264999973
 31
0.0
  0
ARC
  5
369
  8
DATA
 62
     7
 10
-152.59999999999991
 20
-65.000004264999973
 30
0.0
 40
2.5999999999999082
 50
0.0
 51
90.0
  0
LINE
  5
36A
  8
DATA
 62
     7
 10
-165.0
 20
-235.000004265
 30
0.0
 11
-165.0
 21
-237.600004265
 31
0.0
  0
LINE
  5
36B
  8
DATA
 62
     7
 10
-165.0
 20
-237.600004265
 30
0.0
 11
-152.59999999999991
 21
-237.600004265
 31
0.0
  0
ARC
  5
36C
  8
DATA
 62
     7
 10
-152.59999999999991
 20
-235.000004265
 30
0.0
 40
2.6000000000000201
 50
270.0
 51
0.0
  0
LINE
  5
36D
  8
DATA
 62
     7
 10
-237.69949999999969
 20
-73.550000000000026
 30
0.0
 11
-235.19949999999969
 21
-73.550000000000026
 31
0.0
  0
LINE
  5
36E
  8
DATA
 62
     7
 10
-237.69949999999969
 20
-73.550000000000026
 30
0.0
 11
-232.69949999999969
 21
-68.550000000000011
 31
0.0
  0
LINE
  5
36F
  8
DATA
 62
     7
 10
-235.19949999999969
 20
-76.050000000000026
 30
0.0
 11
-235.19949999999969
 21
-73.550000000000026
 31
0.0
  0
LINE
  5
370
  8
DATA
 62
     7
 10
-232.69949999999969
 20
-68.550000000000011
 30
0.0
 11
-227.69949999999969
 21
-73.550000000000026
 31
0.0
  0
LINE
  5
371
  8
DATA
 62
     7
 10
-230.19949999999969
 20
-76.050000000000026
 30
0.0
 11
-230.19949999999969
 21
-73.550000000000026
 31
0.0
  0
LINE
  5
372
  8
DATA
 62
     7
 10
-230.19949999999969
 20
-73.550000000000026
 30
0.0
 11
-227.69949999999969
 21
-73.550000000000026
 31
0.0
  0
LINE
  5
373
  8
DATA
 62
     7
 10
-235.19949999999969
 20
-76.050000000000026
 30
0.0
 11
-230.19949999999969
 21
-76.050000000000026
 31
0.0
  0
TEXT
  5
374
  8
DATA
 62
     7
 10
-237.09949999999981
 20
-84.749999999999901
 30
0.0
 40
5.0
  1
ＵＰ
 41
0.7
  0
TEXT
  5
375
  8
DATA
 62
     7
 10
-237.83833343259221
 20
-103.37843353868929
 30
0.0
 40
4.2333333333333298
  1
40
 41
0.7
 11
-237.83833343259221
 21
-99.145100205356016
 31
0.0
 73
     3
  0
TEXT
  5
376
  8
DATA
 62
     7
 10
-233.8552633449944
 20
-108.56927153867311
 30
0.0
 40
4.2333333333333298
  1
35
 41
0.7
 11
-233.8552633449944
 21
-104.3359382053398
 31
0.0
 73
     3
  0
TEXT
  5
377
  8
DATA
 62
     7
 10
-230.33976138283171
 20
-114.0875042649987
 30
0.0
 40
4.2333333333333298
  1
30
 41
0.7
 11
-230.33976138283171
 21
-109.85417093166539
 31
0.0
 73
     3
  0
TEXT
  5
378
  8
DATA
 62
     7
 10
-227.31858263881691
 20
-119.8911346346701
 30
0.0
 40
4.2333333333333298
  1
25
 41
0.7
 11
-227.31858263881691
 21
-115.6578013013368
 31
0.0
 73
     3
  0
TEXT
  5
379
  8
DATA
 62
     7
 10
-224.81472010769269
 20
-125.9359935156573
 30
0.0
 40
4.2333333333333298
  1
20
 41
0.7
 11
-224.81472010769269
 21
-121.702660182324
 31
0.0
 73
     3
  0
TEXT
  5
37A
  8
DATA
 62
     7
 10
-222.84722969494649
 20
-132.1760758824577
 30
0.0
 40
4.2333333333333298
  1
15
 41
0.7
 11
-222.84722969494649
 21
-127.9427425491244
 31
0.0
 73
     3
  0
TEXT
  5
37B
  8
DATA
 62
     7
 10
-221.89998097647069
 20
-138.6465699184771
 30
0.0
 40
4.2333333333333298
  1
10
 41
0.7
 11
-221.89998097647069
 21
-134.41323658514381
 31
0.0
 73
     3
  0
TEXT
  5
37C
  8
DATA
 62
     7
 10
-217.93123097647069
 20
-145.05082355872381
 30
0.0
 40
4.2333333333333298
  1
5
 41
0.7
 11
-217.93123097647069
 21
-140.81749022539049
 31
0.0
 73
     3
  0
TEXT
  5
37D
  8
DATA
 62
     7
 10
-217.64583333333329
 20
-151.58750426499989
 30
0.0
 40
4.2333333333333298
  1
0
 41
0.7
 11
-217.64583333333329
 21
-147.3541709316666
 31
0.0
 73
     3
  0
TEXT
  5
37E
  8
DATA
 62
     7
 10
-199.7116240157431
 20
-156.3876210193333
 30
0.0
 40
4.2333333333333298
  1
1
 41
0.7
 11
-199.7116240157431
 21
-152.154287686
 31
0.0
 73
     3
  0
TEXT
  5
37F
  8
DATA
 62
     7
 10
-189.7588338777434
 20
-154.4683879283333
 30
0.0
 40
4.2333333333333298
  1
2
 41
0.7
 11
-189.7588338777434
 21
-150.23505459500001
 31
0.0
 73
     3
  0
TEXT
  5
380
  8
DATA
 62
     7
 10
-179.84866775674271
 20
-152.2013824113333
 30
0.0
 40
4.2333333333333298
  1
3
 41
0.7
 11
-179.84866775674271
 21
-147.96804907800001
 31
0.0
 73
     3
  0
TEXT
  5
381
  8
DATA
 62
     7
 10
-169.990230548743
 20
-149.58756074933331
 30
0.0
 40
4.2333333333333298
  1
4
 41
0.7
 11
-169.990230548743
 21
-145.35422741599999
 31
0.0
 73
     3
  0
CIRCLE
  5
382
  8
DATA
 62
     7
 10
-419.5
 20
-150.0000042649998
 30
0.0
 40
3.5999999999999082
  0
CIRCLE
  5
383
  8
DATA
 62
     7
 10
-290.0
 20
-150.0000042649998
 30
0.0
 40
3.600000000000362
  0
CIRCLE
  5
384
  8
DATA
 62
     7
 10
-373.0
 20
-150.0000042649998
 30
0.0
 40
3.600000000000362
  0
LINE
  5
385
  8
DATA
 62
     7
 10
-438.0
 20
-195.00000426499989
 30
0.0
 11
-438.0
 21
-105.000004265
 31
0.0
  0
LINE
  5
386
  8
DATA
 62
     7
 10
-381.13060943431088
 20
-187.8038441117705
 30
0.0
 11
-168.61908953400001
 21
-160.9129821490001
 31
0.0
  0
ARC
  5
387
  8
DATA
 62
     7
 10
-170.0
 20
-150.0000042649998
 30
0.0
 40
11.00000000000005
 50
277.21178609699871
 51
82.788213903001264
  0
LINE
  5
388
  8
DATA
 62
     7
 10
-387.4025224809775
 20
-111.4025267459773
 30
0.0
 11
-168.61908953400001
 21
-139.08702638099999
 31
0.0
  0
CIRCLE
  5
389
  8
DATA
 62
     7
 10
-210.0
 20
-150.0000042649998
 30
0.0
 40
2.100000000000362
  0
CIRCLE
  5
38A
  8
DATA
 62
     7
 10
-200.0
 20
-150.0000042649998
 30
0.0
 40
2.100000000000362
  0
CIRCLE
  5
38B
  8
DATA
 62
     7
 10
-190.0
 20
-150.0000042649998
 30
0.0
 40
2.100000000000362
  0
CIRCLE
  5
38C
  8
DATA
 62
     7
 10
-180.0
 20
-150.0000042649998
 30
0.0
 40
2.100000000000362
  0
CIRCLE
  5
38D
  8
DATA
 62
     7
 10
-170.0
 20
-150.0000042649998
 30
0.0
 40
2.100000000000362
  0
LINE
  5
38E
  8
DATA
 62
     7
 10
-438.0
 20
-195.00000426499989
 30
0.0
 11
-381.13060943431088
 21
-187.8038441117705
 31
0.0
  0
LINE
  5
38F
  8
DATA
 62
     7
 10
-438.0
 20
-105.000004265
 30
0.0
 11
-387.4025224809775
 21
-111.4025267459773
 31
0.0
  0
LINE
  5
390
  8
DATA
 62
     7
 10
202.66127340149509
 20
-197.33872659850491
 30
0.0
 11
297.49999573500008
 21
-102.5000042649999
 31
0.0
  0
LINE
  5
391
  8
DATA
 62
     7
 10
227.49999573499991
 20
-197.50000426500009
 30
0.0
 11
322.49999573500008
 21
-102.5000042649999
 31
0.0
  0
LINE
  5
392
  8
DATA
 62
     7
 10
194.44999999999999
 20
-180.5499999999999
 30
0.0
 11
272.49999573500003
 21
-102.5000042649999
 31
0.0
  0
LINE
  5
393
  8
DATA
 62
     7
 10
194.44999999999999
 20
-155.5499999999999
 30
0.0
 11
247.499995735
 21
-102.5000042649999
 31
0.0
  0
LINE
  5
394
  8
DATA
 62
     7
 10
194.44999999999999
 20
-130.5499999999999
 30
0.0
 11
222.499995735
 21
-102.5000042649999
 31
0.0
  0
LINE
  5
395
  8
DATA
 62
     7
 10
252.49999573499991
 20
-197.50000426500009
 30
0.0
 11
347.49999573500008
 21
-102.5000042649999
 31
0.0
  0
LINE
  5
396
  8
DATA
 62
     7
 10
277.49999573499991
 20
-197.50000426500009
 30
0.0
 11
372.49999573500008
 21
-102.5000042649999
 31
0.0
  0
LINE
  5
397
  8
DATA
 62
     7
 10
302.49999573499991
 20
-197.50000426500009
 30
0.0
 11
367.5
 21
-132.50000000000011
 31
0.0
  0
LINE
  5
398
  8
DATA
 62
     7
 10
377.5
 20
-122.5
 30
0.0
 11
397.49999573500003
 21
-102.5000042649999
 31
0.0
  0
LINE
  5
399
  8
DATA
 62
     7
 10
327.49999573499991
 20
-197.50000426500009
 30
0.0
 11
372.5
 21
-152.5
 31
0.0
  0
LINE
  5
39A
  8
DATA
 62
     7
 10
402.5
 20
-122.5
 30
0.0
 11
422.49999573500003
 21
-102.5000042649999
 31
0.0
  0
LINE
  5
39B
  8
DATA
 62
     7
 10
352.49999573499991
 20
-197.50000426500009
 30
0.0
 11
377.5
 21
-172.5
 31
0.0
  0
LINE
  5
39C
  8
DATA
 62
     7
 10
427.5
 20
-122.5
 30
0.0
 11
447.49999573500003
 21
-102.5000042649999
 31
0.0
  0
LINE
  5
39D
  8
DATA
 62
     7
 10
377.49999573500003
 20
-197.50000426500009
 30
0.0
 11
389.47916666666657
 21
-185.52083333333329
 31
0.0
  0
LINE
  5
39E
  8
DATA
 62
     7
 10
432.5
 20
-142.5
 30
0.0
 11
472.49999573500003
 21
-102.5000042649999
 31
0.0
  0
LINE
  5
39F
  8
DATA
 62
     7
 10
402.49999573499991
 20
-197.50000426500009
 30
0.0
 11
414.47916666666652
 21
-185.52083333333329
 31
0.0
  0
LINE
  5
3A0
  8
DATA
 62
     7
 10
422.49999999999989
 20
-177.5
 30
0.0
 11
443.02083333333292
 21
-156.97916666666671
 31
0.0
  0
LINE
  5
3A1
  8
DATA
 62
     7
 10
467.4999957349998
 20
-132.500004265
 30
0.0
 11
497.49999573500003
 21
-102.5000042649999
 31
0.0
  0
LINE
  5
3A2
  8
DATA
 62
     7
 10
427.49999573499991
 20
-197.50000426500009
 30
0.0
 11
457.49999573500003
 21
-167.500004265
 31
0.0
  0
LINE
  5
3A3
  8
DATA
 62
     7
 10
473.02083333333292
 20
-151.97916666666671
 30
0.0
 11
522.49999573499986
 21
-102.5000042649999
 31
0.0
  0
LINE
  5
3A4
  8
DATA
 62
     7
 10
452.49999573499991
 20
-197.50000426500009
 30
0.0
 11
547.49999573499986
 21
-102.5000042649999
 31
0.0
  0
LINE
  5
3A5
  8
DATA
 62
     7
 10
477.49999573499991
 20
-197.50000426500009
 30
0.0
 11
572.49999573499986
 21
-102.5000042649999
 31
0.0
  0
LINE
  5
3A6
  8
DATA
 62
     7
 10
502.49999573499991
 20
-197.50000426500009
 30
0.0
 11
597.49999573499986
 21
-102.5000042649999
 31
0.0
  0
LINE
  5
3A7
  8
DATA
 62
     7
 10
527.49999573499986
 20
-197.50000426500009
 30
0.0
 11
605.54999999999995
 21
-119.4500000000001
 31
0.0
  0
LINE
  5
3A8
  8
DATA
 62
     7
 10
552.49999573499986
 20
-197.50000426500009
 30
0.0
 11
605.54999999999984
 21
-144.4500000000001
 31
0.0
  0
LINE
  5
3A9
  8
DATA
 62
     7
 10
577.49999573499986
 20
-197.50000426500009
 30
0.0
 11
605.54999999999995
 21
-169.44999999999999
 31
0.0
  0
ENDSEC
  0
EOF
