  0
SECTION
  2
HEADER
  9
$ACADVER
  1
AC1009
  9
$INSBASE
 10
0.0
 20
0.0
 30
0.0
  9
$EXTMIN
 10
-350.02746372486848
 20
-533.98230819777791
 30
-0.0015258207003583
  9
$EXTMAX
 10
550.02746791582013
 20
804.16801378504158
 30
0.0000000349246037
  9
$LIMMIN
 10
0.0
 20
0.0
  9
$LIMMAX
 10
0.0
 20
0.0
  9
$ORTHOMODE
 70
     0
  9
$REGENMODE
 70
     1
  9
$FILLMODE
 70
     1
  9
$QTEXTMODE
 70
     0
  9
$MIRRTEXT
 70
     1
  9
$DRAGMODE
 70
     2
  9
$LTSCALE
 40
25.399999999999999
  9
$OSMODE
 70
   231
  9
$ATTMODE
 70
     1
  9
$TEXTSIZE
 40
0.0
  9
$TRACEWID
 40
1.0
  9
$TEXTSTYLE
  7
STANDARD
  9
$CLAYER
  8
DATA
  9
$CELTYPE
  6
BYLAYER
  9
$CECOLOR
 62
   256
  9
$DIMSCALE
 40
1.0
  9
$DIMASZ
 40
0.18
  9
$DIMEXO
 40
0.0625
  9
$DIMDLI
 40
0.38
  9
$DIMRND
 40
0.0
  9
$DIMDLE
 40
0.0
  9
$DIMEXE
 40
0.18
  9
$DIMTP
 40
0.0
  9
$DIMTM
 40
0.0
  9
$DIMTXT
 40
0.18
  9
$DIMCEN
 40
0.09
  9
$DIMTSZ
 40
0.0
  9
$DIMTOL
 70
     0
  9
$DIMLIM
 70
     0
  9
$DIMTIH
 70
     1
  9
$DIMTOH
 70
     1
  9
$DIMSE1
 70
     0
  9
$DIMSE2
 70
     0
  9
$DIMTAD
 70
     0
  9
$DIMZIN
 70
     0
  9
$DIMBLK
  1

  9
$DIMASO
 70
     1
  9
$DIMSHO
 70
     1
  9
$DIMPOST
  1

  9
$DIMAPOST
  1

  9
$DIMALT
 70
     0
  9
$DIMALTD
 70
     2
  9
$DIMALTF
 40
25.399999999999999
  9
$DIMLFAC
 40
1.0
  9
$DIMTOFL
 70
     0
  9
$DIMTVP
 40
0.0
  9
$DIMTIX
 70
     0
  9
$DIMSOXD
 70
     0
  9
$DIMSAH
 70
     0
  9
$DIMBLK1
  1

  9
$DIMBLK2
  1

  9
$DIMSTYLE
  2
STANDARD
  9
$DIMCLRD
 70
     0
  9
$DIMCLRE
 70
     0
  9
$DIMCLRT
 70
     0
  9
$DIMTFAC
 40
1.0
  9
$DIMGAP
 40
0.09
  9
$LUNITS
 70
     2
  9
$LUPREC
 70
     4
  9
$SKETCHINC
 40
0.1
  9
$FILLETRAD
 40
0.0
  9
$AUNITS
 70
     0
  9
$AUPREC
 70
     0
  9
$MENU
  1
acad
  9
$ELEVATION
 40
0.0
  9
$PELEVATION
 40
0.0
  9
$THICKNESS
 40
0.0
  9
$LIMCHECK
 70
     0
  9
$BLIPMODE
 70
     0
  9
$CHAMFERA
 40
0.0
  9
$CHAMFERB
 40
0.0
  9
$SKPOLY
 70
     0
  9
$TDCREATE
 40
2455155.4789004629
  9
$TDUPDATE
 40
2455155.4800225808
  9
$TDINDWG
 40
0.0002517824
  9
$TDUSRTIMER
 40
0.0002515972
  9
$USRTIMER
 70
     1
  9
$ANGBASE
 50
0.0
  9
$ANGDIR
 70
     0
  9
$PDMODE
 70
     1
  9
$PDSIZE
 40
-2.0
  9
$PLINEWID
 40
0.0
  9
$COORDS
 70
     1
  9
$SPLFRAME
 70
     0
  9
$SPLINETYPE
 70
     6
  9
$SPLINESEGS
 70
     8
  9
$ATTDIA
 70
     0
  9
$ATTREQ
 70
     1
  9
$HANDLING
 70
     1
  9
$HANDSEED
  5
D92
  9
$SURFTAB1
 70
     6
  9
$SURFTAB2
 70
     6
  9
$SURFTYPE
 70
     6
  9
$SURFU
 70
     6
  9
$SURFV
 70
     6
  9
$UCSNAME
  2

  9
$UCSORG
 10
0.0
 20
0.0
 30
0.0
  9
$UCSXDIR
 10
1.0
 20
0.0
 30
0.0
  9
$UCSYDIR
 10
0.0
 20
1.0
 30
0.0
  9
$PUCSNAME
  2

  9
$PUCSORG
 10
0.0
 20
0.0
 30
0.0
  9
$PUCSXDIR
 10
1.0
 20
0.0
 30
0.0
  9
$PUCSYDIR
 10
0.0
 20
1.0
 30
0.0
  9
$USERI1
 70
     0
  9
$USERI2
 70
     0
  9
$USERI3
 70
     0
  9
$USERI4
 70
     0
  9
$USERI5
 70
     0
  9
$USERR1
 40
0.0
  9
$USERR2
 40
0.0
  9
$USERR3
 40
0.0
  9
$USERR4
 40
0.0
  9
$USERR5
 40
0.0
  9
$WORLDVIEW
 70
     1
  9
$SHADEDGE
 70
     3
  9
$SHADEDIF
 70
    70
  9
$TILEMODE
 70
     1
  9
$MAXACTVP
 70
    64
  9
$PLIMCHECK
 70
     0
  9
$PEXTMIN
 10
1.0000000000000000E+020
 20
1.0000000000000000E+020
 30
1.0000000000000000E+020
  9
$PEXTMAX
 10
-1.0000000000000000E+020
 20
-1.0000000000000000E+020
 30
-1.0000000000000000E+020
  9
$PLIMMIN
 10
0.0
 20
0.0
  9
$PLIMMAX
 10
12.0
 20
9.0
  9
$UNITMODE
 70
     0
  9
$VISRETAIN
 70
     0
  9
$PLINEGEN
 70
     1
  9
$PSLTSCALE
 70
     0
  0
ENDSEC
  0
SECTION
  2
TABLES
  0
TABLE
  2
VPORT
 70
     1
  0
VPORT
  2
*ACTIVE
 70
     0
 10
0.0
 20
0.0
 11
1.0
 21
1.0
 12
100.00000209547581
 22
135.09285279363189
 13
0.0
 23
0.0
 14
1.0
 24
1.0
 15
0.0
 25
0.0
 16
0.0
 26
0.0
 36
1.0
 17
0.0
 27
0.0
 37
0.0
 40
1348.00173539619
 41
1.9729729729729719
 42
50.0
 43
0.0
 44
0.0
 50
0.0
 51
0.0
 71
     0
 72
  2000
 73
     1
 74
     1
 75
     0
 76
     0
 77
     0
 78
     0
  0
ENDTAB
  0
TABLE
  2
LTYPE
 70
    11
  0
LTYPE
  2
CONTINUOUS
 70
     0
  3
Solid line
 72
    65
 73
     0
 40
0.0
  0
LTYPE
  2
STYLE_01
 70
     0
  3

 72
    65
 73
     2
 40
0.2083333333333333
 49
0.0694444444444444
 49
-0.1388888888888889
  0
LTYPE
  2
STYLE_06
 70
     0
  3

 72
    65
 73
     4
 40
1.0416412353515621
 49
0.625
 49
-0.208282470703125
 49
0.069427490234375
 49
-0.1389312744140625
  0
ENDTAB
  0
TABLE
  2
LAYER
 70
     6
  0
LAYER
  2
0
 70
     0
 62
     7
  6
CONTINUOUS
  0
LAYER
  2
DATA
 70
     0
 62
     7
  6
CONTINUOUS
  0
LAYER
  2
HIBINO-BASE
 70
     0
 62
     7
  6
CONTINUOUS
  0
LAYER
  2
TOP30
 70
     0
 62
     7
  6
CONTINUOUS
  0
LAYER
  2
SPEC
 70
     0
 62
     7
  6
CONTINUOUS
  0
LAYER
  2
DIMNSIONS
 70
     0
 62
     7
  6
CONTINUOUS
  0
ENDTAB
  0
TABLE
  2
STYLE
 70
     3
  0
STYLE
  2
STANDARD
 70
     0
 40
0.0
 41
1.0
 50
0.0
 71
     0
 42
0.0
  3
txt
  4
BIGFONT.SHX
  0
ENDTAB
  0
TABLE
  2
VIEW
 70
     0
  0
ENDTAB
  0
TABLE
  2
UCS
 70
     0
  0
ENDTAB
  0
TABLE
  2
APPID
 70
     3
  0
APPID
  2
ACAD
 70
     0
  0
APPID
  2
ACADANNOTATIVE
 70
     0
  0
APPID
  2
ACAD_MLEADERVER
 70
     0
  0
ENDTAB
  0
TABLE
  2
DIMSTYLE
 70
     2
  0
DIMSTYLE
  2
STANDARD
 70
     0
  3

  4

  5

  6

  7

 40
1.0
 41
0.18
 42
0.0625
 43
0.38
 44
0.18
 45
0.0
 46
0.0
 47
0.0
 48
0.0
140
0.18
141
0.09
142
0.0
143
25.399999999999999
144
1.0
145
0.0
146
1.0
147
0.09
 71
     0
 72
     0
 73
     1
 74
     1
 75
     0
 76
     0
 77
     0
 78
     0
170
     0
171
     2
172
     0
173
     0
174
     0
175
     0
176
     0
177
     0
178
     0
  0
ENDTAB
  0
ENDSEC
  0
SECTION
  2
BLOCKS
  0
BLOCK
  8
0
  2
$MODEL_SPACE
 70
     0
 10
0.0
 20
0.0
 30
0.0
  3
$MODEL_SPACE
  1

  0
ENDBLK
  5
860
  8
0
  0
BLOCK
 67
     1
  8
0
  2
$PAPER_SPACE
 70
     0
 10
0.0
 20
0.0
 30
0.0
  3
$PAPER_SPACE
  1

  0
ENDBLK
  5
85C
 67
     1
  8
0
  0
ENDSEC
  0
SECTION
  2
ENTITIES
  0
LINE
  5
2D
  8
HIBINO-BASE
  6
CONTINUOUS
 62
     7
 10
-350.0
 20
804.12725999999986
 30
0.0
 11
549.99999999999989
 21
804.12725999999986
 31
0.0
  0
LINE
  5
2E
  8
HIBINO-BASE
  6
CONTINUOUS
 62
     7
 10
549.99999999999989
 20
-495.87273999999991
 30
0.0
 11
-350.0
 21
-495.87273999999991
 31
0.0
  0
LINE
  5
2F
  8
HIBINO-BASE
  6
CONTINUOUS
 62
     7
 10
-350.0
 20
-495.87273999999991
 30
0.0
 11
-350.0
 21
804.12725999999986
 31
0.0
  0
TEXT
  5
30
  8
HIBINO-BASE
 62
     7
 10
-314.07999999999993
 20
-527.91612899999984
 30
0.0
 40
18.00022089843749
  1
Hibino Corporation
 41
0.7
 11
-314.07999999999993
 21
-509.91590810156231
 31
0.0
 73
     3
  0
LINE
  5
31
  8
HIBINO-BASE
  6
CONTINUOUS
 62
     7
 10
549.99999999999989
 20
804.12725999999986
 30
0.0
 11
549.99999999999989
 21
-495.87273999999991
 31
0.0
  0
LINE
  5
32
  8
HIBINO-BASE
  6
CONTINUOUS
 62
     7
 10
100.0
 20
-383.37274000000002
 30
0.0
 11
549.99999999999989
 21
-383.37274000000002
 31
0.0
  0
LINE
  5
33
  8
HIBINO-BASE
  6
CONTINUOUS
 62
     7
 10
100.0
 20
-495.87273999999991
 30
0.0
 11
100.0
 21
-383.37274000000002
 31
0.0
  0
TEXT
  5
34
  8
HIBINO-BASE
 62
     7
 10
104.5
 20
-395.91620666666671
 30
0.0
 40
8.1442057291666661
  1
NOTE
 41
0.7
 11
104.5
 21
-387.77200093750002
 31
0.0
 73
     3
  0
LINE
  5
35
  8
HIBINO-BASE
  6
CONTINUOUS
 62
     7
 10
275.0
 20
-495.87273999999991
 30
0.0
 11
275.0
 21
-383.37274000000002
 31
0.0
  0
TEXT
  5
36
  8
HIBINO-BASE
 62
     7
 10
279.5
 20
-395.91620666666671
 30
0.0
 40
8.1442057291666661
  1
TITLE
 41
0.7
 11
279.5
 21
-387.77200093750002
 31
0.0
 73
     3
  0
TEXT
  5
37
  8
HIBINO-BASE
 62
     7
 10
350.34195
 20
-527.91612899999984
 30
0.0
 40
18.00022089843749
  1
ヒビノ株式会社
 41
0.7
 11
350.34195
 21
-509.91590810156231
 31
0.0
 73
     3
  0
LINE
  5
38
  8
HIBINO-BASE
  6
CONTINUOUS
 62
     7
 10
100.0
 20
-445.87273999999991
 30
0.0
 11
549.99999999999989
 21
-445.87273999999991
 31
0.0
  0
TEXT
  5
39
  8
HIBINO-BASE
 62
     7
 10
342.0
 20
-458.13460666666663
 30
0.0
 40
8.1442057291666661
  1
DRAWN
 41
0.7
 11
342.0
 21
-449.9904009375
 31
0.0
 73
     3
  0
TEXT
  5
3A
  8
HIBINO-BASE
 62
     7
 10
217.0
 20
-458.13460666666663
 30
0.0
 40
8.1442057291666661
  1
DATE
 41
0.7
 11
217.0
 21
-449.9904009375
 31
0.0
 73
     3
  0
TEXT
  5
3B
  8
HIBINO-BASE
 62
     7
 10
105.5
 20
-458.9700209999998
 30
0.0
 40
8.1442185546874981
  1
図面サイズ
 41
0.7
 11
105.5
 21
-450.82580244531232
 31
0.0
 73
     3
  0
TEXT
  5
3C
  8
HIBINO-BASE
 62
     7
 10
167.0
 20
-458.13460666666663
 30
0.0
 40
8.1442057291666661
  1
SCALE
 41
0.7
 11
167.0
 21
-449.9904009375
 31
0.0
 73
     3
  0
TEXT
  5
3D
  8
HIBINO-BASE
 62
     7
 10
279.5
 20
-458.13460666666663
 30
0.0
 40
8.1442057291666661
  1
DESIGN
 41
0.7
 11
279.5
 21
-449.9904009375
 31
0.0
 73
     3
  0
TEXT
  5
3E
  8
HIBINO-BASE
 62
     7
 10
467.0
 20
-458.13460666666663
 30
0.0
 40
8.1442057291666661
  1
DRAWING NO.
 41
0.7
 11
467.0
 21
-449.9904009375
 31
0.0
 73
     3
  0
TEXT
  5
3F
  8
HIBINO-BASE
 62
     7
 10
404.49999999999989
 20
-458.13460666666663
 30
0.0
 40
8.1442057291666661
  1
CHECK
 41
0.7
 11
404.49999999999989
 21
-449.9904009375
 31
0.0
 73
     3
  0
LINE
  5
40
  8
HIBINO-BASE
  6
CONTINUOUS
 62
     7
 10
171.875
 20
-489.62273999999991
 30
0.0
 11
190.625
 21
-470.87273999999991
 31
0.0
  0
TEXT
  5
41
  8
HIBINO-BASE
 62
     7
 10
168.75
 20
-476.41745666666651
 30
0.0
 40
8.1442057291666661
  1
1
 41
0.7
 11
168.75
 21
-468.27325093749982
 31
0.0
 73
     3
  0
LINE
  5
42
  8
HIBINO-BASE
  6
CONTINUOUS
 62
     7
 10
162.5
 20
-495.87273999999991
 30
0.0
 11
162.5
 21
-445.87273999999991
 31
0.0
  0
LINE
  5
43
  8
HIBINO-BASE
  6
CONTINUOUS
 62
     7
 10
212.5
 20
-495.87273999999991
 30
0.0
 11
212.5
 21
-445.87273999999991
 31
0.0
  0
LINE
  5
44
  8
HIBINO-BASE
  6
CONTINUOUS
 62
     7
 10
337.5
 20
-445.87273999999991
 30
0.0
 11
337.5
 21
-495.87273999999991
 31
0.0
  0
LINE
  5
45
  8
HIBINO-BASE
  6
CONTINUOUS
 62
     7
 10
462.5
 20
-445.87273999999991
 30
0.0
 11
462.5
 21
-495.87273999999991
 31
0.0
  0
LINE
  5
46
  8
HIBINO-BASE
  6
CONTINUOUS
 62
     7
 10
400.0
 20
-495.87273999999991
 30
0.0
 11
400.0
 21
-445.87273999999991
 31
0.0
  0
TEXT
  5
47
  8
HIBINO-BASE
 62
     7
 10
216.78270000000001
 20
-481.55450666666661
 30
0.0
 40
8.1442057291666661
  1
'03.06.30.
 41
0.7
 11
216.78270000000001
 21
-473.41030093749993
 31
0.0
 73
     3
  0
TEXT
  5
48
  8
HIBINO-BASE
 62
     7
 10
187.5
 20
-485.79245666666651
 30
0.0
 40
8.1442057291666661
  1
5
 41
0.7
 11
187.5
 21
-477.64825093749982
 31
0.0
 73
     3
  0
TEXT
  5
49
  8
HIBINO-BASE
 62
     7
 10
345.02905005517312
 20
-481.55450666666661
 30
0.0
 40
8.1442057291666661
  1
N.Sasaki
 41
0.7
 11
345.02905005517312
 21
-473.41030093749993
 31
0.0
 73
     3
  0
TEXT
  5
4A
  8
HIBINO-BASE
 62
     7
 10
119.4166666666667
 20
-485.99274000000008
 30
0.0
 40
16.288411458333329
  1
A4
 41
0.7
 11
119.4166666666667
 21
-469.70432854166671
 31
0.0
 73
     3
  0
LINE
  5
4B
  8
TOP30
  6
STYLE_01
 62
     7
 10
-127.58808277372199
 20
185.90906568928011
 30
0.0
 11
-129.388082773722
 21
189.0267571429041
 31
0.0
  0
LINE
  5
4C
  8
TOP30
  6
STYLE_01
 62
     7
 10
-40.985542395278088
 20
235.9090656892802
 30
0.0
 11
-42.785542395278107
 21
239.02675714290419
 31
0.0
  0
LINE
  5
4D
  8
TOP30
  6
STYLE_01
 62
     7
 10
-128.388082773722
 20
187.29470633533521
 30
0.0
 11
-41.785542395278107
 21
237.29470633533529
 31
0.0
  0
LINE
  5
4E
  8
TOP30
  6
STYLE_01
 62
     7
 10
-127.58808277372199
 20
185.90906568928011
 30
0.0
 11
-40.985542395278088
 21
235.9090656892802
 31
0.0
  0
ARC
  5
4F
  8
TOP30
  6
STYLE_01
 62
     7
 10
-70.632329912595722
 20
225.258807950473
 30
0.0
 40
3.999999999999984
 50
210.00000000000011
 51
300.0
  0
LINE
  5
50
  8
TOP30
  6
STYLE_01
 62
     7
 10
-69.632329912595722
 20
223.52675714290419
 30
0.0
 11
-42.785542395278107
 21
239.02675714290419
 31
0.0
  0
ARC
  5
51
  8
TOP30
  6
STYLE_01
 62
     7
 10
-70.632329912595722
 20
225.258807950473
 30
0.0
 40
1.999999999999992
 50
210.00000000000011
 51
300.0
  0
LINE
  5
52
  8
TOP30
  6
STYLE_01
 62
     7
 10
-102.5412952564044
 20
204.52675714290419
 30
0.0
 11
-129.388082773722
 21
189.0267571429041
 31
0.0
  0
ARC
  5
53
  8
TOP30
  6
STYLE_01
 62
     7
 10
-103.5412952564044
 20
206.258807950473
 30
0.0
 40
1.999999999999992
 50
300.0
 51
30.00000000000011
  0
ARC
  5
54
  8
TOP30
  6
STYLE_01
 62
     7
 10
-103.5412952564044
 20
206.258807950473
 30
0.0
 40
3.999999999999984
 50
300.0
 51
29.99999999999995
  0
LINE
  5
55
  8
TOP30
  6
STYLE_01
 62
     7
 10
-101.8092444488355
 20
207.258807950473
 30
0.0
 11
-135.96965511460289
 21
266.42637483099998
 31
0.0
  0
LINE
  5
56
  8
TOP30
  6
STYLE_01
 62
     7
 10
-100.0771936412666
 20
208.258807950473
 30
0.0
 11
-133.66025403784451
 21
266.42637483099998
 31
0.0
  0
LINE
  5
57
  8
TOP30
  6
STYLE_01
 62
     7
 10
-74.096431527733472
 20
223.258807950473
 30
0.0
 11
-105.6052323647438
 21
277.8336518857439
 31
0.0
  0
LINE
  5
58
  8
TOP30
  6
STYLE_01
 62
     7
 10
-72.36438072016459
 20
224.258807950473
 30
0.0
 11
-104.9742193506852
 21
280.74070528515722
 31
0.0
  0
LINE
  5
59
  8
TOP30
  6
STYLE_01
 62
     7
 10
-101.1615427318801
 20
276.13695566855682
 30
0.0
 11
-102.0275681356645
 21
275.63695566855682
 31
0.0
  0
ARC
  5
5A
  8
TOP30
  6
STYLE_01
 62
     7
 10
-104.1892995454465
 20
284.78118430261668
 30
0.0
 40
3.0
 50
30.0
 51
76.033663008417307
  0
LINE
  5
5B
  8
TOP30
  6
STYLE_01
 62
     7
 10
-100.1892995454465
 20
277.85298107234121
 30
0.0
 11
-101.6615427318801
 21
277.00298107234119
 31
0.0
  0
LINE
  5
5C
  8
TOP30
  6
STYLE_01
 62
     7
 10
-99.091223334093215
 20
281.95105728369452
 30
0.0
 11
-101.5912233340932
 21
286.28118430261668
 31
0.0
  0
ARC
  5
5D
  8
TOP30
  6
STYLE_01
 62
     7
 10
-101.6892995454465
 20
280.45105728369441
 30
0.0
 40
3.0
 50
300.0
 51
30.0
  0
LINE
  5
5E
  8
TOP30
  6
STYLE_01
 62
     7
 10
-100.6223122473387
 20
277.60298107234121
 30
0.0
 11
-104.2801050352208
 21
283.9384640245118
 31
0.0
  0
LINE
  5
5F
  8
TOP30
  6
STYLE_01
 62
     7
 10
-101.1615427318801
 20
276.13695566855682
 30
0.0
 11
-104.65871284365591
 21
282.19423198486368
 31
0.0
  0
LINE
  5
60
  8
TOP30
  6
STYLE_01
 62
     7
 10
-132.3384572681199
 20
258.13695566855682
 30
0.0
 11
-131.4724318643355
 21
258.63695566855682
 31
0.0
  0
ARC
  5
61
  8
TOP30
  6
STYLE_01
 62
     7
 10
-138.3107004545534
 20
265.0811843026168
 30
0.0
 40
2.9999999999999991
 50
146.64447848016621
 51
210.0
  0
LINE
  5
62
  8
TOP30
  6
STYLE_01
 62
     7
 10
-134.3107004545534
 20
258.15298107234122
 30
0.0
 11
-132.8384572681199
 21
259.00298107234119
 31
0.0
  0
LINE
  5
63
  8
TOP30
  6
STYLE_01
 62
     7
 10
-138.40877666590669
 20
259.25105728369448
 30
0.0
 11
-140.90877666590669
 21
263.58118430261669
 31
0.0
  0
ARC
  5
64
  8
TOP30
  6
STYLE_01
 62
     7
 10
-135.8107004545534
 20
260.75105728369448
 30
0.0
 40
3.0
 50
210.0
 51
300.0
  0
LINE
  5
65
  8
TOP30
  6
STYLE_01
 62
     7
 10
-133.87768775266119
 20
258.40298107234122
 30
0.0
 11
-138.50999629903711
 21
266.42637483099998
 31
0.0
  0
LINE
  5
66
  8
TOP30
  6
STYLE_01
 62
     7
 10
-132.3384572681199
 20
258.13695566855682
 30
0.0
 11
-135.5884572681199
 21
263.76612079315561
 31
0.0
  0
LINE
  5
67
  8
TOP30
  6
STYLE_01
 62
     7
 10
-127.7738745713206
 20
256.73086652235048
 30
0.0
 11
-125.00259328421021
 21
258.3308665310106
 31
0.0
  0
LINE
  5
68
  8
TOP30
  6
STYLE_01
 62
     7
 10
-102.2261251596796
 20
271.48086652235048
 30
0.0
 11
-104.9974064567897
 21
269.88086653101072
 31
0.0
  0
LINE
  5
69
  8
TOP30
  6
STYLE_01
 62
     7
 10
-125.0025933242103
 20
258.33086660029272
 30
0.0
 11
-129.6765371804359
 21
266.42637483099998
 31
0.0
  0
LINE
  5
6A
  8
TOP30
  6
STYLE_01
 62
     7
 10
-104.9974064517897
 20
269.88086652235052
 30
0.0
 11
-106.69372981399481
 21
272.81898477175582
 31
0.0
  0
LINE
  5
6B
  8
TOP30
  6
STYLE_01
 62
     7
 10
-102.2261251596796
 20
271.48086652235048
 30
0.0
 11
-105.68410899150111
 21
277.47027021081698
 31
0.0
  0
LINE
  5
6C
  8
TOP30
  6
STYLE_01
 62
     7
 10
-127.7738746163205
 20
256.7308666002927
 30
0.0
 11
-133.3715789032496
 21
266.42637483099998
 31
0.0
  0
LINE
  5
6D
  8
TOP30
  6
STYLE_06
 62
     7
 10
-171.78681258450001
 20
362.4635113515568
 30
0.0
 11
-71.786812584500012
 21
189.25843059466919
 31
0.0
  0
LINE
  5
6E
  8
SPEC
  6
CONTINUOUS
 62
     7
 10
-312.5
 20
754.12725999999998
 30
0.0
 11
100.0
 21
754.12725999999998
 31
0.0
  0
LINE
  5
6F
  8
SPEC
  6
CONTINUOUS
 62
     7
 10
-312.5
 20
735.37725999999998
 30
0.0
 11
100.0
 21
735.37725999999998
 31
0.0
  0
LINE
  5
70
  8
SPEC
  6
CONTINUOUS
 62
     7
 10
-312.5
 20
754.12725999999998
 30
0.0
 11
-312.5
 21
716.62725999999998
 31
0.0
  0
TEXT
  5
71
  8
SPEC
 62
     7
 10
-306.25
 20
761.09361000000013
 30
0.0
 40
12.21630859375
  1
仕様
 41
0.7
 11
-306.25
 21
773.30991859375013
 31
0.0
 73
     3
  0
LINE
  5
72
  8
SPEC
  6
CONTINUOUS
 62
     7
 10
-150.0
 20
754.12725999999998
 30
0.0
 11
-150.0
 21
716.62725999999998
 31
0.0
  0
LINE
  5
73
  8
SPEC
  6
CONTINUOUS
 62
     7
 10
100.0
 20
754.12725999999998
 30
0.0
 11
100.0
 21
716.62725999999998
 31
0.0
  0
TEXT
  5
74
  8
SPEC
 62
     7
 10
-308.0
 20
739.31686799999966
 30
0.0
 40
9.5015562499999984
  1
寸法
 41
0.7
 11
-308.0
 21
748.81842424999979
 31
0.0
 73
     3
  0
TEXT
  5
75
  8
SPEC
 62
     7
 10
-145.5
 20
739.31686799999966
 30
0.0
 40
9.5015562499999984
  1
145(W)×190(H)×155(D)mm
 41
0.7
 11
-145.5
 21
748.81842424999979
 31
0.0
 73
     3
  0
LINE
  5
76
  8
SPEC
  6
CONTINUOUS
 62
     7
 10
-312.5
 20
716.62725999999998
 30
0.0
 11
100.0
 21
716.62725999999998
 31
0.0
  0
TEXT
  5
77
  8
SPEC
 62
     7
 10
-308.0
 20
720.56686799999966
 30
0.0
 40
9.5015562499999984
  1
重量
 41
0.7
 11
-308.0
 21
730.06842424999979
 31
0.0
 73
     3
  0
TEXT
  5
78
  8
SPEC
 62
     7
 10
-145.5
 20
720.56686799999966
 30
0.0
 40
9.5015562499999984
  1
約2.5kg
 41
0.7
 11
-145.5
 21
730.06842424999979
 31
0.0
 73
     3
  0
LINE
  5
79
  8
DIMNSIONS
  6
CONTINUOUS
 62
     7
 10
361.99430961593049
 20
460.64947833336709
 30
0.0
 11
400.0
 21
350.0
 31
0.0
  0
LINE
  5
7A
  8
DIMNSIONS
  6
CONTINUOUS
 62
     7
 10
361.99430961593049
 20
460.64947833336709
 30
0.0
 11
369.23260033643362
 21
449.91827103240121
 31
0.0
  0
LINE
  5
7B
  8
DIMNSIONS
  6
CONTINUOUS
 62
     7
 10
361.99430961593049
 20
460.64947833336709
 30
0.0
 11
362.89724960938042
 21
447.73683483720191
 31
0.0
  0
LINE
  5
7C
  8
DIMNSIONS
  6
CONTINUOUS
 62
     7
 10
400.0
 20
350.0
 30
0.0
 11
471.73611111111109
 21
350.0
 31
0.0
  0
TEXT
  5
7D
  8
DIMNSIONS
 62
     7
 10
410.0
 20
354.96944444444438
 30
0.0
 40
13.57367621527778
  1
6-φ9.2
 41
0.7
 11
410.0
 21
368.54312065972221
 31
0.0
 73
     3
  0
TEXT
  5
7E
  8
DIMNSIONS
 62
     7
 10
-0.000000000000015
 20
-436.04223444444432
 30
0.0
 40
13.57367621527778
  1
(単位：mm)
 41
0.7
 11
-0.0000000000000142
 21
-422.46855822916649
 31
0.0
 73
     3
  0
LINE
  5
7F
  8
DIMNSIONS
  6
CONTINUOUS
 62
     7
 10
179.6263745680001
 20
-210.0
 30
0.0
 11
179.6263745680001
 21
-310.0
 31
0.0
  0
LINE
  5
80
  8
DIMNSIONS
  6
CONTINUOUS
 62
     7
 10
24.999999472999999
 20
-175.09688067499991
 30
0.0
 11
24.999999472999999
 21
-310.0
 31
0.0
  0
LINE
  5
81
  8
DIMNSIONS
  6
CONTINUOUS
 62
     7
 10
179.6263745680001
 20
-300.0
 30
0.0
 11
24.999999472999999
 21
-300.0
 31
0.0
  0
LINE
  5
82
  8
DIMNSIONS
  6
CONTINUOUS
 62
     7
 10
179.6263745680001
 20
-300.0
 30
0.0
 11
167.1232617750313
 21
-303.3501989757512
 31
0.0
  0
LINE
  5
83
  8
DIMNSIONS
  6
CONTINUOUS
 62
     7
 10
179.6263745680001
 20
-300.0
 30
0.0
 11
167.1232617750313
 21
-296.6498010242488
 31
0.0
  0
LINE
  5
84
  8
DIMNSIONS
  6
CONTINUOUS
 62
     7
 10
24.999999472999999
 20
-300.0
 30
0.0
 11
37.503112265968753
 21
-296.6498010242488
 31
0.0
  0
LINE
  5
85
  8
DIMNSIONS
  6
CONTINUOUS
 62
     7
 10
24.999999472999999
 20
-300.0
 30
0.0
 11
37.503112265968753
 21
-303.3501989757512
 31
0.0
  0
TEXT
  5
86
  8
DIMNSIONS
 62
     7
 10
89.084020353833353
 20
-295.03055555555551
 30
0.0
 40
13.57367621527778
  1
155
 41
0.7
 11
89.084020353833353
 21
-281.45687934027768
 31
0.0
 73
     3
  0
LINE
  5
87
  8
DIMNSIONS
  6
CONTINUOUS
 62
     7
 10
-173.4708
 20
-24.096880699189509
 30
0.0
 11
-235.0
 21
-24.096880699189509
 31
0.0
  0
LINE
  5
88
  8
DIMNSIONS
  6
CONTINUOUS
 62
     7
 10
-173.4708
 20
-151.09688069918951
 30
0.0
 11
-235.0
 21
-151.09688069918951
 31
0.0
  0
LINE
  5
89
  8
DIMNSIONS
  6
CONTINUOUS
 62
     7
 10
-225.0
 20
-24.096880699189509
 30
0.0
 11
-225.0
 21
-151.09688069918951
 31
0.0
  0
LINE
  5
8A
  8
DIMNSIONS
  6
CONTINUOUS
 62
     7
 10
-225.0
 20
-24.096880699189509
 30
0.0
 11
-221.6498010242488
 21
-36.599993492158262
 31
0.0
  0
LINE
  5
8B
  8
DIMNSIONS
  6
CONTINUOUS
 62
     7
 10
-225.0
 20
-24.096880699189509
 30
0.0
 11
-228.3501989757512
 21
-36.599993492158262
 31
0.0
  0
LINE
  5
8C
  8
DIMNSIONS
  6
CONTINUOUS
 62
     7
 10
-225.0
 20
-151.09688069918951
 30
0.0
 11
-228.3501989757512
 21
-138.59376790622071
 31
0.0
  0
LINE
  5
8D
  8
DIMNSIONS
  6
CONTINUOUS
 62
     7
 10
-225.0
 20
-151.09688069918951
 30
0.0
 11
-221.6498010242488
 21
-138.59376790622071
 31
0.0
  0
TEXT
  5
8E
  8
DIMNSIONS
 62
     7
 10
-229.96944444444449
 20
-100.8260473658562
 30
0.0
 40
13.57367621527778
  1
127
 50
90.0
 41
0.7
 11
-243.54312065972229
 21
-100.8260473658562
 31
0.0
 73
     3
  0
LINE
  5
8F
  8
DIMNSIONS
  6
CONTINUOUS
 62
     7
 10
-185.0
 20
-165.09688069918951
 30
0.0
 11
-260.0
 21
-165.09688069918951
 31
0.0
  0
LINE
  5
90
  8
DIMNSIONS
  6
CONTINUOUS
 62
     7
 10
-185.0
 20
-10.09688069918951
 30
0.0
 11
-260.0
 21
-10.09688069918951
 31
0.0
  0
LINE
  5
91
  8
DIMNSIONS
  6
CONTINUOUS
 62
     7
 10
-250.0
 20
-165.09688069918951
 30
0.0
 11
-250.0
 21
-10.09688069918951
 31
0.0
  0
LINE
  5
92
  8
DIMNSIONS
  6
CONTINUOUS
 62
     7
 10
-250.0
 20
-165.09688069918951
 30
0.0
 11
-253.3501989757512
 21
-152.59376790622071
 31
0.0
  0
LINE
  5
93
  8
DIMNSIONS
  6
CONTINUOUS
 62
     7
 10
-250.0
 20
-165.09688069918951
 30
0.0
 11
-246.6498010242488
 21
-152.59376790622071
 31
0.0
  0
LINE
  5
94
  8
DIMNSIONS
  6
CONTINUOUS
 62
     7
 10
-250.0
 20
-10.09688069918951
 30
0.0
 11
-246.6498010242488
 21
-22.599993492158269
 31
0.0
  0
LINE
  5
95
  8
DIMNSIONS
  6
CONTINUOUS
 62
     7
 10
-250.0
 20
-10.09688069918951
 30
0.0
 11
-253.3501989757512
 21
-22.599993492158269
 31
0.0
  0
TEXT
  5
96
  8
DIMNSIONS
 62
     7
 10
-254.96944444444449
 20
-100.8260473658562
 30
0.0
 40
13.57367621527778
  1
155
 50
90.0
 41
0.7
 11
-268.54312065972232
 21
-100.8260473658562
 31
0.0
 73
     3
  0
LINE
  5
97
  8
DIMNSIONS
  6
CONTINUOUS
 62
     7
 10
-159.87079999999989
 20
-10.496880156499911
 30
0.0
 11
-159.87079999999989
 21
35.000019843500091
 31
0.0
  0
LINE
  5
98
  8
DIMNSIONS
  6
CONTINUOUS
 62
     7
 10
-90.020800000000023
 20
-10.496880156499911
 30
0.0
 11
-90.020800000000023
 21
35.000019843500091
 31
0.0
  0
LINE
  5
99
  8
DIMNSIONS
  6
CONTINUOUS
 62
     7
 10
-159.87079999999989
 20
25.000019843500091
 30
0.0
 11
-90.020800000000023
 21
25.000019843500091
 31
0.0
  0
LINE
  5
9A
  8
DIMNSIONS
  6
CONTINUOUS
 62
     7
 10
-159.87079999999989
 20
25.000019843500091
 30
0.0
 11
-147.36768720703111
 21
28.3502188192513
 31
0.0
  0
LINE
  5
9B
  8
DIMNSIONS
  6
CONTINUOUS
 62
     7
 10
-159.87079999999989
 20
25.000019843500091
 30
0.0
 11
-147.36768720703111
 21
21.649820867748868
 31
0.0
  0
LINE
  5
9C
  8
DIMNSIONS
  6
CONTINUOUS
 62
     7
 10
-90.020800000000023
 20
25.000019843500091
 30
0.0
 11
-102.5239127929687
 21
21.649820867748868
 31
0.0
  0
LINE
  5
9D
  8
DIMNSIONS
  6
CONTINUOUS
 62
     7
 10
-90.020800000000023
 20
25.000019843500091
 30
0.0
 11
-102.5239127929687
 21
28.3502188192513
 31
0.0
  0
TEXT
  5
9E
  8
DIMNSIONS
 62
     7
 10
-133.76524444444439
 20
29.969464287944529
 30
0.0
 40
13.57367621527778
  1
70
 41
0.7
 11
-133.76524444444439
 21
43.543140503222297
 31
0.0
 73
     3
  0
LINE
  5
9F
  8
DIMNSIONS
  6
CONTINUOUS
 62
     7
 10
-175.0
 20
-0.0968801564998785
 30
0.0
 11
-175.0
 21
85.000019843500127
 31
0.0
  0
LINE
  5
A0
  8
DIMNSIONS
  6
CONTINUOUS
 62
     7
 10
-75.000000000000014
 20
-0.0968801564998785
 30
0.0
 11
-75.000000000000014
 21
85.000019843500127
 31
0.0
  0
LINE
  5
A1
  8
DIMNSIONS
  6
CONTINUOUS
 62
     7
 10
-175.0
 20
75.000019843500112
 30
0.0
 11
-75.000000000000014
 21
75.000019843500112
 31
0.0
  0
LINE
  5
A2
  8
DIMNSIONS
  6
CONTINUOUS
 62
     7
 10
-175.0
 20
75.000019843500112
 30
0.0
 11
-162.49688720703119
 21
78.350218819251324
 31
0.0
  0
LINE
  5
A3
  8
DIMNSIONS
  6
CONTINUOUS
 62
     7
 10
-175.0
 20
75.000019843500112
 30
0.0
 11
-162.49688720703119
 21
71.649820867748915
 31
0.0
  0
LINE
  5
A4
  8
DIMNSIONS
  6
CONTINUOUS
 62
     7
 10
-75.000000000000014
 20
75.000019843500112
 30
0.0
 11
-87.503112792968764
 21
71.649820867748915
 31
0.0
  0
LINE
  5
A5
  8
DIMNSIONS
  6
CONTINUOUS
 62
     7
 10
-75.000000000000014
 20
75.000019843500112
 30
0.0
 11
-87.503112792968764
 21
78.350218819251324
 31
0.0
  0
TEXT
  5
A6
  8
DIMNSIONS
 62
     7
 10
-138.22916666666671
 20
79.969464287944533
 30
0.0
 40
13.57367621527778
  1
100
 41
0.7
 11
-138.22916666666671
 21
93.543140503222318
 31
0.0
 73
     3
  0
LINE
  5
A7
  8
DIMNSIONS
  6
CONTINUOUS
 62
     7
 10
-185.0
 20
-10.09688069918951
 30
0.0
 11
-285.0
 21
-10.09688069918951
 31
0.0
  0
LINE
  5
A8
  8
DIMNSIONS
  6
CONTINUOUS
 62
     7
 10
-201.5
 20
-199.99998069918951
 30
0.0
 11
-285.0
 21
-199.99998069918951
 31
0.0
  0
LINE
  5
A9
  8
DIMNSIONS
  6
CONTINUOUS
 62
     7
 10
-275.0
 20
-10.09688069918951
 30
0.0
 11
-275.0
 21
-199.99998069918951
 31
0.0
  0
LINE
  5
AA
  8
DIMNSIONS
  6
CONTINUOUS
 62
     7
 10
-275.0
 20
-10.09688069918951
 30
0.0
 11
-271.6498010242488
 21
-22.599993492158269
 31
0.0
  0
LINE
  5
AB
  8
DIMNSIONS
  6
CONTINUOUS
 62
     7
 10
-275.0
 20
-10.09688069918951
 30
0.0
 11
-278.3501989757512
 21
-22.599993492158269
 31
0.0
  0
LINE
  5
AC
  8
DIMNSIONS
  6
CONTINUOUS
 62
     7
 10
-275.0
 20
-199.99998069918951
 30
0.0
 11
-278.3501989757512
 21
-187.49686790622081
 31
0.0
  0
LINE
  5
AD
  8
DIMNSIONS
  6
CONTINUOUS
 62
     7
 10
-275.0
 20
-199.99998069918951
 30
0.0
 11
-271.6498010242488
 21
-187.49686790622081
 31
0.0
  0
TEXT
  5
AE
  8
DIMNSIONS
 62
     7
 10
-279.96944444444449
 20
-118.2775973658562
 30
0.0
 40
13.57367621527778
  1
190
 50
90.0
 41
0.7
 11
-293.54312065972232
 21
-118.2775973658562
 31
0.0
 73
     3
  0
LINE
  5
AF
  8
DIMNSIONS
  6
CONTINUOUS
 62
     7
 10
-197.5
 20
-203.9999801564999
 30
0.0
 11
-197.5
 21
-310.0
 31
0.0
  0
LINE
  5
B0
  8
DIMNSIONS
  6
CONTINUOUS
 62
     7
 10
-52.500000000000021
 20
-203.9999801564999
 30
0.0
 11
-52.500000000000021
 21
-310.0
 31
0.0
  0
LINE
  5
B1
  8
DIMNSIONS
  6
CONTINUOUS
 62
     7
 10
-197.5
 20
-300.0
 30
0.0
 11
-52.500000000000021
 21
-300.0
 31
0.0
  0
LINE
  5
B2
  8
DIMNSIONS
  6
CONTINUOUS
 62
     7
 10
-197.5
 20
-300.0
 30
0.0
 11
-184.99688720703119
 21
-296.6498010242488
 31
0.0
  0
LINE
  5
B3
  8
DIMNSIONS
  6
CONTINUOUS
 62
     7
 10
-197.5
 20
-300.0
 30
0.0
 11
-184.99688720703119
 21
-303.3501989757512
 31
0.0
  0
LINE
  5
B4
  8
DIMNSIONS
  6
CONTINUOUS
 62
     7
 10
-52.500000000000021
 20
-300.0
 30
0.0
 11
-65.003112792968764
 21
-303.3501989757512
 31
0.0
  0
LINE
  5
B5
  8
DIMNSIONS
  6
CONTINUOUS
 62
     7
 10
-52.500000000000021
 20
-300.0
 30
0.0
 11
-65.003112792968764
 21
-296.6498010242488
 31
0.0
  0
TEXT
  5
B6
  8
DIMNSIONS
 62
     7
 10
-138.22916666666671
 20
-295.03055555555551
 30
0.0
 40
13.57367621527778
  1
145
 41
0.7
 11
-138.22916666666671
 21
-281.45687934027768
 31
0.0
 73
     3
  0
LINE
  5
B7
  8
DIMNSIONS
  6
CONTINUOUS
 62
     7
 10
-185.0
 20
200.0
 30
0.0
 11
-260.0
 21
200.0
 31
0.0
  0
LINE
  5
B8
  8
DIMNSIONS
  6
CONTINUOUS
 62
     7
 10
-207.5
 20
354.62637456799979
 30
0.0
 11
-260.0
 21
354.62637456799979
 31
0.0
  0
LINE
  5
B9
  8
DIMNSIONS
  6
CONTINUOUS
 62
     7
 10
-250.0
 20
200.0
 30
0.0
 11
-250.0
 21
354.62637456799979
 31
0.0
  0
LINE
  5
BA
  8
DIMNSIONS
  6
CONTINUOUS
 62
     7
 10
-250.0
 20
200.0
 30
0.0
 11
-253.3501989757512
 21
212.50311279296881
 31
0.0
  0
LINE
  5
BB
  8
DIMNSIONS
  6
CONTINUOUS
 62
     7
 10
-250.0
 20
200.0
 30
0.0
 11
-246.6498010242488
 21
212.50311279296881
 31
0.0
  0
LINE
  5
BC
  8
DIMNSIONS
  6
CONTINUOUS
 62
     7
 10
-250.0
 20
354.62637456799979
 30
0.0
 11
-246.6498010242488
 21
342.12326177503121
 31
0.0
  0
LINE
  5
BD
  8
DIMNSIONS
  6
CONTINUOUS
 62
     7
 10
-250.0
 20
354.62637456799979
 30
0.0
 11
-253.3501989757512
 21
342.12326177503121
 31
0.0
  0
TEXT
  5
BE
  8
DIMNSIONS
 62
     7
 10
-254.96944444444449
 20
264.08402061733318
 30
0.0
 40
13.57367621527778
  1
155
 50
90.0
 41
0.7
 11
-268.54312065972232
 21
264.08402061733318
 31
0.0
 73
     3
  0
ARC
  5
BF
  8
DIMNSIONS
  6
CONTINUOUS
 62
     7
 10
96.426374568000128
 20
-53.999999999999943
 30
0.0
 40
151.61024857000001
 50
250.0
 51
270.0
  0
SOLID
  5
C0
  8
DIMNSIONS
 62
     7
 10
96.426374568000128
 20
-205.6102485699999
 30
0.0
 11
86.381747147153263
 21
-208.1146554641436
 31
0.0
 12
86.475268602925169
 22
-202.75681485131781
 32
0.0
 13
86.475268602925169
 23
-202.75681485131781
 33
0.0
  0
SOLID
  5
C1
  8
DIMNSIONS
 62
     7
 10
44.572615622448467
 20
-196.4670318167463
 30
0.0
 11
54.910558309841193
 21
-197.0088204353479
 31
0.0
 12
53.254642303297331
 22
-202.10520586763289
 32
0.0
 13
53.254642303297331
 23
-202.10520586763289
 33
0.0
  0
LINE
  5
C2
  8
DIMNSIONS
  6
CONTINUOUS
 62
     7
 10
54.357897004546217
 20
-169.58219217754441
 30
0.0
 11
43.204535050000231
 21
-200.22580229999991
 31
0.0
  0
LINE
  5
C3
  8
DIMNSIONS
  6
CONTINUOUS
 62
     7
 10
96.426374568000043
 20
-176.99999979699999
 30
0.0
 11
96.426374568000043
 21
-209.6102485700001
 31
0.0
  0
LINE
  5
C4
  8
DIMNSIONS
  6
CONTINUOUS
 62
     7
 10
100.18859621035629
 20
-43.663380992100173
 30
0.0
 11
125.8048766890001
 21
26.716771193999989
 31
0.0
  0
ARC
  5
C5
  8
DIMNSIONS
  6
CONTINUOUS
 62
     7
 10
58.120118516000048
 20
-159.24557352799999
 30
0.0
 40
193.89699377100001
 50
50.000000000000021
 51
70.0
  0
SOLID
  5
C6
  8
DIMNSIONS
 62
     7
 10
124.43679611597371
 20
22.958000711179888
 30
0.0
 11
134.7322159867681
 21
21.875908478921009
 31
0.0
 12
132.8118451505793
 22
16.873171413408681
 32
0.0
 13
132.8118451505793
 23
16.873171413408681
 33
0.0
  0
SOLID
  5
C7
  8
DIMNSIONS
 62
     7
 10
182.75470366746691
 20
-10.71185891225036
 30
0.0
 11
173.29756240060229
 21
-6.5012683392271811
 31
0.0
 12
176.66987436969561
 22
-2.3368098776447819
 32
0.0
 13
176.66987436969561
 23
-2.3368098776447819
 33
0.0
  0
LINE
  5
C8
  8
DIMNSIONS
  6
CONTINUOUS
 62
     7
 10
137.18299460750981
 20
-65.02210690533056
 30
0.0
 11
185.32585410599989
 21
-7.6476811400000297
 31
0.0
  0
TEXT
  5
C9
  8
DIMNSIONS
 62
     7
 10
44.001929726675819
 20
-224.24752286505549
 30
0.0
 40
13.57367621527778
  1
0～20°
 50
348.00000000728352
 41
0.7
 11
46.824055697519249
 21
-210.9704640415853
 31
0.0
 73
     3
  0
TEXT
  5
CA
  8
DIMNSIONS
 62
     7
 10
29.054739726675841
 20
-243.9757228650555
 30
0.0
 40
13.57367621527778
  1
(1°刻み)
 50
348.00000000728352
 41
0.7
 11
31.876865697519271
 21
-230.6986640415852
 31
0.0
 73
     3
  0
TEXT
  5
CB
  8
DIMNSIONS
 62
     7
 10
154.84504867992649
 20
45.067667679880401
 30
0.0
 40
13.57367621527778
  1
20～40°
 50
323.9999999905391
 41
0.7
 11
162.82345538047309
 21
56.049002412865718
 31
0.0
 73
     3
  0
TEXT
  5
CC
  8
DIMNSIONS
 62
     7
 10
134.9652486799265
 20
35.242777679880398
 30
0.0
 40
13.57367621527778
  1
(1°刻み)
 50
323.9999999905391
 41
0.7
 11
142.9436553804731
 21
46.224112412865708
 31
0.0
 73
     3
  0
LINE
  5
CD
  8
DIMNSIONS
  6
CONTINUOUS
 62
     7
 10
264.5
 20
-20.399999999999999
 30
0.0
 11
264.5
 21
35.0
 31
0.0
  0
LINE
  5
CE
  8
DIMNSIONS
  6
CONTINUOUS
 62
     7
 10
385.50000000000011
 20
-20.399999999999999
 30
0.0
 11
385.50000000000011
 21
35.0
 31
0.0
  0
LINE
  5
CF
  8
DIMNSIONS
  6
CONTINUOUS
 62
     7
 10
264.5
 20
25.0
 30
0.0
 11
385.50000000000011
 21
25.0
 31
0.0
  0
LINE
  5
D0
  8
DIMNSIONS
  6
CONTINUOUS
 62
     7
 10
264.5
 20
25.0
 30
0.0
 11
277.00311279296881
 21
28.350198975751209
 31
0.0
  0
LINE
  5
D1
  8
DIMNSIONS
  6
CONTINUOUS
 62
     7
 10
264.5
 20
25.0
 30
0.0
 11
277.00311279296881
 21
21.649801024248791
 31
0.0
  0
LINE
  5
D2
  8
DIMNSIONS
  6
CONTINUOUS
 62
     7
 10
385.50000000000011
 20
25.0
 30
0.0
 11
372.99688720703119
 21
21.64980102424877
 31
0.0
  0
LINE
  5
D3
  8
DIMNSIONS
  6
CONTINUOUS
 62
     7
 10
385.50000000000011
 20
25.0
 30
0.0
 11
372.99688720703119
 21
28.350198975751209
 31
0.0
  0
TEXT
  5
D4
  8
DIMNSIONS
 62
     7
 10
311.77083333333343
 20
29.969444444444441
 30
0.0
 40
13.57367621527778
  1
121
 41
0.7
 11
311.77083333333343
 21
43.54312065972222
 31
0.0
 73
     3
  0
LINE
  5
D5
  8
DIMNSIONS
  6
CONTINUOUS
 62
     7
 10
252.50000000000011
 20
-16.0
 30
0.0
 11
252.50000000000011
 21
85.0
 31
0.0
  0
LINE
  5
D6
  8
DIMNSIONS
  6
CONTINUOUS
 62
     7
 10
397.50000000000011
 20
-16.0
 30
0.0
 11
397.50000000000011
 21
85.0
 31
0.0
  0
LINE
  5
D7
  8
DIMNSIONS
  6
CONTINUOUS
 62
     7
 10
252.50000000000011
 20
75.0
 30
0.0
 11
397.50000000000011
 21
75.0
 31
0.0
  0
LINE
  5
D8
  8
DIMNSIONS
  6
CONTINUOUS
 62
     7
 10
252.50000000000011
 20
75.0
 30
0.0
 11
265.00311279296881
 21
78.350198975751212
 31
0.0
  0
LINE
  5
D9
  8
DIMNSIONS
  6
CONTINUOUS
 62
     7
 10
252.50000000000011
 20
75.0
 30
0.0
 11
265.00311279296881
 21
71.649801024248802
 31
0.0
  0
LINE
  5
DA
  8
DIMNSIONS
  6
CONTINUOUS
 62
     7
 10
397.50000000000011
 20
75.0
 30
0.0
 11
384.99688720703119
 21
71.64980102424876
 31
0.0
  0
LINE
  5
DB
  8
DIMNSIONS
  6
CONTINUOUS
 62
     7
 10
397.50000000000011
 20
75.0
 30
0.0
 11
384.99688720703119
 21
78.350198975751212
 31
0.0
  0
TEXT
  5
DC
  8
DIMNSIONS
 62
     7
 10
311.77083333333343
 20
79.969444444444434
 30
0.0
 40
13.57367621527778
  1
145
 41
0.7
 11
311.77083333333343
 21
93.543120659722206
 31
0.0
 73
     3
  0
LINE
  5
DD
  8
DIMNSIONS
  6
CONTINUOUS
 62
     7
 10
400.10000000000002
 20
-35.0
 30
0.0
 11
447.5
 21
-35.0
 31
0.0
  0
LINE
  5
DE
  8
DIMNSIONS
  6
CONTINUOUS
 62
     7
 10
400.10000000000002
 20
-110.0
 30
0.0
 11
447.5
 21
-110.0
 31
0.0
  0
LINE
  5
DF
  8
DIMNSIONS
  6
CONTINUOUS
 62
     7
 10
437.5
 20
-35.0
 30
0.0
 11
437.5
 21
-110.0
 31
0.0
  0
LINE
  5
E0
  8
DIMNSIONS
  6
CONTINUOUS
 62
     7
 10
437.5
 20
-35.0
 30
0.0
 11
440.85019897575108
 21
-47.50311279296875
 31
0.0
  0
LINE
  5
E1
  8
DIMNSIONS
  6
CONTINUOUS
 62
     7
 10
437.5
 20
-35.0
 30
0.0
 11
434.1498010242488
 21
-47.50311279296875
 31
0.0
  0
LINE
  5
E2
  8
DIMNSIONS
  6
CONTINUOUS
 62
     7
 10
437.5
 20
-110.0
 30
0.0
 11
434.1498010242488
 21
-97.496887207031236
 31
0.0
  0
LINE
  5
E3
  8
DIMNSIONS
  6
CONTINUOUS
 62
     7
 10
437.5
 20
-110.0
 30
0.0
 11
440.85019897575108
 21
-97.496887207031236
 31
0.0
  0
TEXT
  5
E4
  8
DIMNSIONS
 62
     7
 10
432.53055555555551
 20
-81.319444444444457
 30
0.0
 40
13.57367621527778
  1
75
 50
90.0
 41
0.7
 11
418.95687934027768
 21
-81.319444444444457
 31
0.0
 73
     3
  0
LINE
  5
E5
  8
DIMNSIONS
  6
CONTINUOUS
 62
     7
 10
400.10000000000002
 20
-110.0
 30
0.0
 11
447.5
 21
-110.0
 31
0.0
  0
LINE
  5
E6
  8
DIMNSIONS
  6
CONTINUOUS
 62
     7
 10
400.10000000000002
 20
-185.0
 30
0.0
 11
447.5
 21
-185.0
 31
0.0
  0
LINE
  5
E7
  8
DIMNSIONS
  6
CONTINUOUS
 62
     7
 10
437.5
 20
-110.0
 30
0.0
 11
437.5
 21
-185.0
 31
0.0
  0
LINE
  5
E8
  8
DIMNSIONS
  6
CONTINUOUS
 62
     7
 10
437.5
 20
-110.0
 30
0.0
 11
440.85019897575108
 21
-122.50311279296869
 31
0.0
  0
LINE
  5
E9
  8
DIMNSIONS
  6
CONTINUOUS
 62
     7
 10
437.5
 20
-110.0
 30
0.0
 11
434.1498010242488
 21
-122.50311279296869
 31
0.0
  0
LINE
  5
EA
  8
DIMNSIONS
  6
CONTINUOUS
 62
     7
 10
437.5
 20
-185.0
 30
0.0
 11
434.1498010242488
 21
-172.49688720703119
 31
0.0
  0
LINE
  5
EB
  8
DIMNSIONS
  6
CONTINUOUS
 62
     7
 10
437.5
 20
-185.0
 30
0.0
 11
440.85019897575108
 21
-172.49688720703119
 31
0.0
  0
TEXT
  5
EC
  8
DIMNSIONS
 62
     7
 10
432.53055555555551
 20
-156.3194444444444
 30
0.0
 40
13.57367621527778
  1
75
 50
90.0
 41
0.7
 11
418.95687934027768
 21
-156.3194444444444
 31
0.0
 73
     3
  0
LINE
  5
ED
  8
DIMNSIONS
  6
CONTINUOUS
 62
     7
 10
401.5
 20
-200.0
 30
0.0
 11
485.0
 21
-200.0
 31
0.0
  0
LINE
  5
EE
  8
DIMNSIONS
  6
CONTINUOUS
 62
     7
 10
401.5
 20
-20.0
 30
0.0
 11
485.0
 21
-20.0
 31
0.0
  0
LINE
  5
EF
  8
DIMNSIONS
  6
CONTINUOUS
 62
     7
 10
475.0
 20
-200.0
 30
0.0
 11
475.0
 21
-20.0
 31
0.0
  0
LINE
  5
F0
  8
DIMNSIONS
  6
CONTINUOUS
 62
     7
 10
475.0
 20
-200.0
 30
0.0
 11
471.6498010242488
 21
-187.49688720703119
 31
0.0
  0
LINE
  5
F1
  8
DIMNSIONS
  6
CONTINUOUS
 62
     7
 10
475.0
 20
-200.0
 30
0.0
 11
478.35019897575108
 21
-187.49688720703119
 31
0.0
  0
LINE
  5
F2
  8
DIMNSIONS
  6
CONTINUOUS
 62
     7
 10
475.0
 20
-20.0
 30
0.0
 11
478.35019897575108
 21
-32.50311279296875
 31
0.0
  0
LINE
  5
F3
  8
DIMNSIONS
  6
CONTINUOUS
 62
     7
 10
475.0
 20
-20.0
 30
0.0
 11
471.6498010242488
 21
-32.50311279296875
 31
0.0
  0
TEXT
  5
F4
  8
DIMNSIONS
 62
     7
 10
470.03055555555551
 20
-123.2291666666667
 30
0.0
 40
13.57367621527778
  1
180
 50
90.0
 41
0.7
 11
456.45687934027768
 21
-123.2291666666667
 31
0.0
 73
     3
  0
LINE
  5
F5
  8
DIMNSIONS
  6
CONTINUOUS
 62
     7
 10
223.50017762900021
 20
450.00044000000003
 30
0.0
 11
165.00000762900009
 21
450.00044000000003
 31
0.0
  0
LINE
  5
F6
  8
DIMNSIONS
  6
CONTINUOUS
 62
     7
 10
223.50017762900021
 20
630.0
 30
0.0
 11
165.00000762900009
 21
630.0
 31
0.0
  0
LINE
  5
F7
  8
DIMNSIONS
  6
CONTINUOUS
 62
     7
 10
175.00000762900021
 20
450.00044000000003
 30
0.0
 11
175.00000762900021
 21
630.0
 31
0.0
  0
LINE
  5
F8
  8
DIMNSIONS
  6
CONTINUOUS
 62
     7
 10
175.00000762900021
 20
450.00044000000003
 30
0.0
 11
171.64980865324901
 21
462.50355279296878
 31
0.0
  0
LINE
  5
F9
  8
DIMNSIONS
  6
CONTINUOUS
 62
     7
 10
175.00000762900021
 20
450.00044000000003
 30
0.0
 11
178.35020660475129
 21
462.50355279296878
 31
0.0
  0
LINE
  5
FA
  8
DIMNSIONS
  6
CONTINUOUS
 62
     7
 10
175.00000762900021
 20
630.0
 30
0.0
 11
178.35020660475129
 21
617.49688720703125
 31
0.0
  0
LINE
  5
FB
  8
DIMNSIONS
  6
CONTINUOUS
 62
     7
 10
175.00000762900021
 20
630.0
 30
0.0
 11
171.64980865324901
 21
617.49688720703125
 31
0.0
  0
TEXT
  5
FC
  8
DIMNSIONS
 62
     7
 10
170.03056318455569
 20
526.77105333333338
 30
0.0
 40
13.57367621527778
  1
180
 50
90.0
 41
0.7
 11
156.45688696927789
 21
526.77105333333338
 31
0.0
 73
     3
  0
LINE
  5
FD
  8
DIMNSIONS
  6
CONTINUOUS
 62
     7
 10
227.5001876290001
 20
446.00042999999999
 30
0.0
 11
227.5001876290001
 21
315.0
 31
0.0
  0
LINE
  5
FE
  8
DIMNSIONS
  6
CONTINUOUS
 62
     7
 10
372.49999999999858
 20
414.45299227594478
 30
0.0
 11
372.49999999999858
 21
315.0
 31
0.0
  0
LINE
  5
FF
  8
DIMNSIONS
  6
CONTINUOUS
 62
     7
 10
227.5001876290001
 20
325.0
 30
0.0
 11
372.49999999999858
 21
325.0
 31
0.0
  0
LINE
  5
100
  8
DIMNSIONS
  6
CONTINUOUS
 62
     7
 10
227.5001876290001
 20
325.0
 30
0.0
 11
240.00330042196899
 21
328.35019897575131
 31
0.0
  0
LINE
  5
101
  8
DIMNSIONS
  6
CONTINUOUS
 62
     7
 10
227.5001876290001
 20
325.0
 30
0.0
 11
240.00330042196899
 21
321.64980102424869
 31
0.0
  0
LINE
  5
102
  8
DIMNSIONS
  6
CONTINUOUS
 62
     7
 10
372.49999999999858
 20
325.0
 30
0.0
 11
359.99688720703
 21
321.64980102424869
 31
0.0
  0
LINE
  5
103
  8
DIMNSIONS
  6
CONTINUOUS
 62
     7
 10
372.49999999999858
 20
325.0
 30
0.0
 11
359.99688720703
 21
328.35019897575131
 31
0.0
  0
TEXT
  5
104
  8
DIMNSIONS
 62
     7
 10
286.77092714783282
 20
329.96944444444438
 30
0.0
 40
13.57367621527778
  1
145
 41
0.7
 11
286.77092714783282
 21
343.54312065972209
 31
0.0
 73
     3
  0
LINE
  5
105
  8
DIMNSIONS
  6
CONTINUOUS
 62
     7
 10
224.90016762900021
 20
615.00004000000001
 30
0.0
 11
202.50000762900009
 21
615.00004000000001
 31
0.0
  0
LINE
  5
106
  8
DIMNSIONS
  6
CONTINUOUS
 62
     7
 10
224.90016762900021
 20
540.00022000000001
 30
0.0
 11
202.50000762900009
 21
540.00022000000001
 31
0.0
  0
LINE
  5
107
  8
DIMNSIONS
  6
CONTINUOUS
 62
     7
 10
212.50000762900009
 20
615.00004000000001
 30
0.0
 11
212.50000762900009
 21
540.00022000000001
 31
0.0
  0
LINE
  5
108
  8
DIMNSIONS
  6
CONTINUOUS
 62
     7
 10
212.50000762900009
 20
615.00004000000001
 30
0.0
 11
215.85020660475129
 21
602.49692720703115
 31
0.0
  0
LINE
  5
109
  8
DIMNSIONS
  6
CONTINUOUS
 62
     7
 10
212.50000762900009
 20
615.00004000000001
 30
0.0
 11
209.1498086532489
 21
602.49692720703115
 31
0.0
  0
LINE
  5
10A
  8
DIMNSIONS
  6
CONTINUOUS
 62
     7
 10
212.50000762900009
 20
540.00022000000001
 30
0.0
 11
209.1498086532489
 21
552.50333279296888
 31
0.0
  0
LINE
  5
10B
  8
DIMNSIONS
  6
CONTINUOUS
 62
     7
 10
212.50000762900009
 20
540.00022000000001
 30
0.0
 11
215.85020660475129
 21
552.50333279296888
 31
0.0
  0
TEXT
  5
10C
  8
DIMNSIONS
 62
     7
 10
207.53056318455569
 20
568.68068555555556
 30
0.0
 40
13.57367621527778
  1
75
 50
90.0
 41
0.7
 11
193.95688696927789
 21
568.68068555555556
 31
0.0
 73
     3
  0
LINE
  5
10D
  8
DIMNSIONS
  6
CONTINUOUS
 62
     7
 10
224.90016762900021
 20
540.00022000000001
 30
0.0
 11
202.50000762900009
 21
540.00022000000001
 31
0.0
  0
LINE
  5
10E
  8
DIMNSIONS
  6
CONTINUOUS
 62
     7
 10
224.90016762900021
 20
465.00040999999999
 30
0.0
 11
202.50000762900009
 21
465.00040999999999
 31
0.0
  0
LINE
  5
10F
  8
DIMNSIONS
  6
CONTINUOUS
 62
     7
 10
212.50000762900009
 20
540.00022000000001
 30
0.0
 11
212.50000762900009
 21
465.00040999999999
 31
0.0
  0
LINE
  5
110
  8
DIMNSIONS
  6
CONTINUOUS
 62
     7
 10
212.50000762900009
 20
540.00022000000001
 30
0.0
 11
215.85020660475129
 21
527.49710720703126
 31
0.0
  0
LINE
  5
111
  8
DIMNSIONS
  6
CONTINUOUS
 62
     7
 10
212.50000762900009
 20
540.00022000000001
 30
0.0
 11
209.1498086532489
 21
527.49710720703126
 31
0.0
  0
LINE
  5
112
  8
DIMNSIONS
  6
CONTINUOUS
 62
     7
 10
212.50000762900009
 20
465.00040999999999
 30
0.0
 11
209.1498086532489
 21
477.50352279296879
 31
0.0
  0
LINE
  5
113
  8
DIMNSIONS
  6
CONTINUOUS
 62
     7
 10
212.50000762900009
 20
465.00040999999999
 30
0.0
 11
215.85020660475129
 21
477.50352279296879
 31
0.0
  0
TEXT
  5
114
  8
DIMNSIONS
 62
     7
 10
207.53056318455569
 20
493.68087055555549
 30
0.0
 40
13.57367621527778
  1
75
 50
90.0
 41
0.7
 11
193.95688696927789
 21
493.68087055555549
 31
0.0
 73
     3
  0
LINE
  5
115
  8
DIMNSIONS
  6
CONTINUOUS
 62
     7
 10
239.50015762900011
 20
450.40041999999988
 30
0.0
 11
239.50015762900011
 21
352.5
 31
0.0
  0
LINE
  5
116
  8
DIMNSIONS
  6
CONTINUOUS
 62
     7
 10
360.49985762900008
 20
450.40041999999988
 30
0.0
 11
360.49985762900008
 21
352.5
 31
0.0
  0
LINE
  5
117
  8
DIMNSIONS
  6
CONTINUOUS
 62
     7
 10
239.50015762900011
 20
362.5
 30
0.0
 11
360.49985762900008
 21
362.5
 31
0.0
  0
LINE
  5
118
  8
DIMNSIONS
  6
CONTINUOUS
 62
     7
 10
239.50015762900011
 20
362.5
 30
0.0
 11
252.00327042196889
 21
365.85019897575131
 31
0.0
  0
LINE
  5
119
  8
DIMNSIONS
  6
CONTINUOUS
 62
     7
 10
239.50015762900011
 20
362.5
 30
0.0
 11
252.00327042196889
 21
359.14980102424869
 31
0.0
  0
LINE
  5
11A
  8
DIMNSIONS
  6
CONTINUOUS
 62
     7
 10
360.49985762900008
 20
362.5
 30
0.0
 11
347.99674483603133
 21
359.14980102424869
 31
0.0
  0
LINE
  5
11B
  8
DIMNSIONS
  6
CONTINUOUS
 62
     7
 10
360.49985762900008
 20
362.5
 30
0.0
 11
347.99674483603133
 21
365.85019897575131
 31
0.0
  0
TEXT
  5
11C
  8
DIMNSIONS
 62
     7
 10
286.7708409623333
 20
367.46944444444438
 30
0.0
 40
13.57367621527778
  1
121
 41
0.7
 11
286.7708409623333
 21
381.04312065972221
 31
0.0
 73
     3
  0
LINE
  5
11D
  8
DIMNSIONS
  6
CONTINUOUS
 62
     7
 10
454.14363830000002
 20
640.0
 30
0.0
 11
454.14363830000002
 21
660.0
 31
0.0
  0
LINE
  5
11E
  8
DIMNSIONS
  6
CONTINUOUS
 62
     7
 10
461.34363830000001
 20
640.0
 30
0.0
 11
461.34363830000001
 21
660.0
 31
0.0
  0
LINE
  5
11F
  8
DIMNSIONS
  6
CONTINUOUS
 62
     7
 10
461.34363830000001
 20
650.0
 30
0.0
 11
454.14363830000002
 21
650.0
 31
0.0
  0
LINE
  5
120
  8
DIMNSIONS
  6
CONTINUOUS
 62
     7
 10
454.14363830000002
 20
650.0
 30
0.0
 11
429.14363830000002
 21
650.0
 31
0.0
  0
LINE
  5
121
  8
DIMNSIONS
  6
CONTINUOUS
 62
     7
 10
454.14363830000002
 20
650.0
 30
0.0
 11
441.64052550703121
 21
646.64980102424875
 31
0.0
  0
LINE
  5
122
  8
DIMNSIONS
  6
CONTINUOUS
 62
     7
 10
454.14363830000002
 20
650.0
 30
0.0
 11
441.64052550703121
 21
653.35019897575125
 31
0.0
  0
LINE
  5
123
  8
DIMNSIONS
  6
CONTINUOUS
 62
     7
 10
461.34363830000001
 20
650.0
 30
0.0
 11
513.95833333333314
 21
650.0
 31
0.0
  0
LINE
  5
124
  8
DIMNSIONS
  6
CONTINUOUS
 62
     7
 10
461.34363830000001
 20
650.0
 30
0.0
 11
473.8467510929687
 21
653.35019897575125
 31
0.0
  0
LINE
  5
125
  8
DIMNSIONS
  6
CONTINUOUS
 62
     7
 10
461.34363830000001
 20
650.0
 30
0.0
 11
473.8467510929687
 21
646.64980102424875
 31
0.0
  0
TEXT
  5
126
  8
DIMNSIONS
 62
     7
 10
487.5
 20
654.96944444444455
 30
0.0
 40
13.57367621527778
  1
7.2
 41
0.7
 11
487.5
 21
668.54312065972238
 31
0.0
 73
     3
  0
LINE
  5
127
  8
DIMNSIONS
  6
CONTINUOUS
 62
     7
 10
461.34363830000001
 20
640.0
 30
0.0
 11
461.34363830000001
 21
685.0
 31
0.0
  0
LINE
  5
128
  8
DIMNSIONS
  6
CONTINUOUS
 62
     7
 10
450.0
 20
640.0
 30
0.0
 11
450.0
 21
685.0
 31
0.0
  0
LINE
  5
129
  8
DIMNSIONS
  6
CONTINUOUS
 62
     7
 10
450.0
 20
675.0
 30
0.0
 11
461.34363830000001
 21
675.0
 31
0.0
  0
LINE
  5
12A
  8
DIMNSIONS
  6
CONTINUOUS
 62
     7
 10
461.34363830000001
 20
675.0
 30
0.0
 11
486.34363830000001
 21
675.0
 31
0.0
  0
LINE
  5
12B
  8
DIMNSIONS
  6
CONTINUOUS
 62
     7
 10
461.34363830000001
 20
675.0
 30
0.0
 11
473.8467510929687
 21
678.35019897575125
 31
0.0
  0
LINE
  5
12C
  8
DIMNSIONS
  6
CONTINUOUS
 62
     7
 10
461.34363830000001
 20
675.0
 30
0.0
 11
473.8467510929687
 21
671.64980102424875
 31
0.0
  0
LINE
  5
12D
  8
DIMNSIONS
  6
CONTINUOUS
 62
     7
 10
450.0
 20
675.0
 30
0.0
 11
402.22222222222217
 21
675.0
 31
0.0
  0
LINE
  5
12E
  8
DIMNSIONS
  6
CONTINUOUS
 62
     7
 10
450.0
 20
675.0
 30
0.0
 11
437.49688720703119
 21
671.64980102424875
 31
0.0
  0
LINE
  5
12F
  8
DIMNSIONS
  6
CONTINUOUS
 62
     7
 10
450.0
 20
675.0
 30
0.0
 11
437.49688720703119
 21
678.35019897575125
 31
0.0
  0
TEXT
  5
130
  8
DIMNSIONS
 62
     7
 10
402.22222222222217
 20
679.96944444444466
 30
0.0
 40
13.57367621527778
  1
11.3
 41
0.7
 11
402.22222222222217
 21
693.54312065972249
 31
0.0
 73
     3
  0
LINE
  5
131
  8
DIMNSIONS
  6
CONTINUOUS
 62
     7
 10
-125.0
 20
165.0
 30
0.0
 11
-125.0
 21
137.64337142167849
 31
0.0
  0
LINE
  5
132
  8
DIMNSIONS
  6
CONTINUOUS
 62
     7
 10
-66.786812584500026
 20
180.5981765568248
 30
0.0
 11
-53.108498295339317
 21
156.90664124610299
 31
0.0
  0
ARC
  5
133
  8
DIMNSIONS
  6
CONTINUOUS
 62
     7
 10
-125.0
 20
281.42637483099992
 30
0.0
 40
133.78300340932131
 50
270.0
 51
300.0
  0
LINE
  5
134
  8
DIMNSIONS
  6
CONTINUOUS
 62
     7
 10
-58.108498295339317
 20
165.5668952839475
 30
0.0
 11
-67.26141211255684
 21
156.41398146672989
 31
0.0
  0
LINE
  5
135
  8
DIMNSIONS
  6
CONTINUOUS
 62
     7
 10
-58.108498295339317
 20
165.5668952839475
 30
0.0
 11
-70.611611088308052
 21
162.21669630819619
 31
0.0
  0
LINE
  5
136
  8
DIMNSIONS
  6
CONTINUOUS
 62
     7
 10
-125.0
 20
147.64337142167849
 30
0.0
 11
-112.49688720703131
 21
150.99357039742969
 31
0.0
  0
LINE
  5
137
  8
DIMNSIONS
  6
CONTINUOUS
 62
     7
 10
-125.0
 20
147.64337142167849
 30
0.0
 11
-112.49688720703131
 21
144.2931724459273
 31
0.0
  0
TEXT
  5
138
  8
DIMNSIONS
 62
     7
 10
-108.01329969554109
 20
145.85191671941789
 30
0.0
 40
13.57367621527778
  1
30°
 41
0.7
 11
-108.01329969554109
 21
159.42559293469569
 31
0.0
 73
     3
  0
LINE
  5
139
  8
DIMNSIONS
  6
CONTINUOUS
 62
     7
 10
-185.000000013
 20
-10.096880888376459
 30
0.0
 11
-310.0
 21
-10.096880888376459
 31
0.0
  0
LINE
  5
13A
  8
DIMNSIONS
  6
CONTINUOUS
 62
     7
 10
-97.0
 20
-235.54701294800009
 30
0.0
 11
-310.0
 21
-235.54701294800009
 31
0.0
  0
LINE
  5
13B
  8
DIMNSIONS
  6
CONTINUOUS
 62
     7
 10
-300.0
 20
-10.096880888376459
 30
0.0
 11
-300.0
 21
-235.54701294800009
 31
0.0
  0
LINE
  5
13C
  8
DIMNSIONS
  6
CONTINUOUS
 62
     7
 10
-300.0
 20
-10.096880888376459
 30
0.0
 11
-296.6498010242488
 21
-22.599993681345211
 31
0.0
  0
LINE
  5
13D
  8
DIMNSIONS
  6
CONTINUOUS
 62
     7
 10
-300.0
 20
-10.096880888376459
 30
0.0
 11
-303.3501989757512
 21
-22.599993681345211
 31
0.0
  0
LINE
  5
13E
  8
DIMNSIONS
  6
CONTINUOUS
 62
     7
 10
-300.0
 20
-235.54701294800009
 30
0.0
 11
-303.3501989757512
 21
-223.04390015503131
 31
0.0
  0
LINE
  5
13F
  8
DIMNSIONS
  6
CONTINUOUS
 62
     7
 10
-300.0
 20
-235.54701294800009
 30
0.0
 11
-296.6498010242488
 21
-223.04390015503131
 31
0.0
  0
TEXT
  5
140
  8
DIMNSIONS
 62
     7
 10
-304.96944444444449
 20
-136.0511135848549
 30
0.0
 40
13.57367621527778
  1
225
 50
90.0
 41
0.7
 11
-318.54312065972232
 21
-136.0511135848549
 31
0.0
 73
     3
  0
LINE
  5
141
  8
DIMNSIONS
  6
CONTINUOUS
 62
     7
 10
71.915243952524179
 20
-33.743301774481488
 30
0.0
 11
99.999976422999936
 21
150.000018676
 31
0.0
  0
LINE
  5
142
  8
DIMNSIONS
  6
CONTINUOUS
 62
     7
 10
71.915243952524179
 20
-33.743301774481488
 30
0.0
 11
70.56220924660667
 21
-20.870036463170379
 31
0.0
  0
LINE
  5
143
  8
DIMNSIONS
  6
CONTINUOUS
 62
     7
 10
71.915243952524179
 20
-33.743301774481488
 30
0.0
 11
77.180114180653177
 21
-21.91820963227034
 31
0.0
  0
LINE
  5
144
  8
DIMNSIONS
  6
CONTINUOUS
 62
     7
 10
99.999976422999936
 20
150.000018676
 30
0.0
 11
304.02775420077768
 21
150.000018676
 31
0.0
  0
TEXT
  5
145
  8
DIMNSIONS
 62
     7
 10
109.99997642299989
 20
154.96946312044449
 30
0.0
 40
13.57367621527778
  1
φ20安全ワイヤー通し穴
 41
0.7
 11
109.99997642299989
 21
168.5431393357222
 31
0.0
 73
     3
  0
LINE
  5
146
  8
DIMNSIONS
  6
CONTINUOUS
 62
     7
 10
-69.584169987655301
 20
-226.41629260386571
 30
0.0
 11
-37.500000000000021
 21
-337.5
 31
0.0
  0
LINE
  5
147
  8
DIMNSIONS
  6
CONTINUOUS
 62
     7
 10
-69.584169987655301
 20
-226.41629260386571
 30
0.0
 11
-62.724802372101003
 21
-237.39357544642331
 31
0.0
  0
LINE
  5
148
  8
DIMNSIONS
  6
CONTINUOUS
 62
     7
 10
-69.584169987655301
 20
-226.41629260386571
 30
0.0
 11
-69.132424799967751
 21
-239.35258221782479
 31
0.0
  0
LINE
  5
149
  8
DIMNSIONS
  6
CONTINUOUS
 62
     7
 10
-37.500000000000021
 20
-337.5
 30
0.0
 11
166.52777777777769
 21
-337.5
 31
0.0
  0
TEXT
  5
14A
  8
DIMNSIONS
 62
     7
 10
-27.500000000000011
 20
-332.53055555555551
 30
0.0
 40
13.57367621527778
  1
φ20安全ワイヤー通し穴
 41
0.7
 11
-27.500000000000011
 21
-318.95687934027779
 31
0.0
 73
     3
  0
LINE
  5
14B
  8
DIMNSIONS
  6
CONTINUOUS
 62
     7
 10
176.0154637725002
 20
-219.9363941965
 30
0.0
 11
176.0154637725002
 21
-275.9577625151461
 31
0.0
  0
LINE
  5
14C
  8
DIMNSIONS
  6
CONTINUOUS
 62
     7
 10
141.24590733550681
 20
-242.7059506322378
 30
0.0
 11
127.91709296792919
 21
-256.03476499933402
 31
0.0
  0
ARC
  5
14D
  8
DIMNSIONS
  6
CONTINUOUS
 62
     7
 10
176.0154637725002
 20
-207.9363941965
 30
0.0
 40
58.021368318646132
 50
224.99999999896551
 51
270.0
  0
LINE
  5
14E
  8
DIMNSIONS
  6
CONTINUOUS
 62
     7
 10
176.0154637725002
 20
-265.95776251514621
 30
0.0
 11
163.51235097953139
 21
-269.3079614908973
 31
0.0
  0
LINE
  5
14F
  8
DIMNSIONS
  6
CONTINUOUS
 62
     7
 10
176.0154637725002
 20
-265.95776251514621
 30
0.0
 11
163.51235097953139
 21
-262.60756353939502
 31
0.0
  0
LINE
  5
150
  8
DIMNSIONS
  6
CONTINUOUS
 62
     7
 10
134.9881607799224
 20
-248.96369718759621
 30
0.0
 11
146.19814503584871
 21
-255.4357846153668
 31
0.0
  0
LINE
  5
151
  8
DIMNSIONS
  6
CONTINUOUS
 62
     7
 10
134.9881607799224
 20
-248.96369718759621
 30
0.0
 11
141.4602482076929
 21
-260.17368144352258
 31
0.0
  0
TEXT
  5
152
  8
DIMNSIONS
 62
     7
 10
143.81456662621491
 20
-269.32853729792822
 30
0.0
 40
12.21630859375
  1
45°
 41
0.7
 11
143.81456662621491
 21
-257.11222870417822
 31
0.0
 73
     3
  0
LINE
  5
153
  8
DIMNSIONS
  6
CONTINUOUS
 62
     7
 10
223.5000076293577
 20
629.99999999999523
 30
0.0
 11
140.00000762900009
 21
629.99999999999523
 31
0.0
  0
LINE
  5
154
  8
DIMNSIONS
  6
CONTINUOUS
 62
     7
 10
328.00000000000011
 20
414.45298705199991
 30
0.0
 11
140.00000762900009
 21
414.45298705199991
 31
0.0
  0
LINE
  5
155
  8
DIMNSIONS
  6
CONTINUOUS
 62
     7
 10
150.00000762900009
 20
629.99999999999523
 30
0.0
 11
150.00000762900009
 21
414.45298705199991
 31
0.0
  0
LINE
  5
156
  8
DIMNSIONS
  6
CONTINUOUS
 62
     7
 10
150.00000762900009
 20
629.99999999999523
 30
0.0
 11
153.35020660475141
 21
617.49688720702636
 31
0.0
  0
LINE
  5
157
  8
DIMNSIONS
  6
CONTINUOUS
 62
     7
 10
150.00000762900009
 20
629.99999999999523
 30
0.0
 11
146.6498086532489
 21
617.49688720702636
 31
0.0
  0
LINE
  5
158
  8
DIMNSIONS
  6
CONTINUOUS
 62
     7
 10
150.00000762900009
 20
414.45298705199991
 30
0.0
 11
146.6498086532489
 21
426.95609984496872
 31
0.0
  0
LINE
  5
159
  8
DIMNSIONS
  6
CONTINUOUS
 62
     7
 10
150.00000762900009
 20
414.45298705199991
 30
0.0
 11
153.35020660475141
 21
426.95609984496872
 31
0.0
  0
TEXT
  5
15A
  8
DIMNSIONS
 62
     7
 10
145.03056318455569
 20
508.99732685933088
 30
0.0
 40
13.57367621527778
  1
216
 50
90.0
 41
0.7
 11
131.45688696927789
 21
508.99732685933088
 31
0.0
 73
     3
  0
LINE
  5
15B
  8
DIMNSIONS
  6
CONTINUOUS
 62
     7
 10
328.00000000000011
 20
429.31410220911113
 30
0.0
 11
328.00000000000011
 21
377.5
 31
0.0
  0
LINE
  5
15C
  8
DIMNSIONS
  6
CONTINUOUS
 62
     7
 10
372.49999999999858
 20
429.31410338705598
 30
0.0
 11
372.49999999999858
 21
377.5
 31
0.0
  0
LINE
  5
15D
  8
DIMNSIONS
  6
CONTINUOUS
 62
     7
 10
328.00000000000011
 20
387.5
 30
0.0
 11
276.9074733989126
 21
387.5
 31
0.0
  0
LINE
  5
15E
  8
DIMNSIONS
  6
CONTINUOUS
 62
     7
 10
328.00000000000011
 20
387.5
 30
0.0
 11
372.49999999999858
 21
387.5
 31
0.0
  0
LINE
  5
15F
  8
DIMNSIONS
  6
CONTINUOUS
 62
     7
 10
328.00000000000011
 20
387.5
 30
0.0
 11
340.50311279296881
 21
390.8501989757512
 31
0.0
  0
LINE
  5
160
  8
DIMNSIONS
  6
CONTINUOUS
 62
     7
 10
328.00000000000011
 20
387.5
 30
0.0
 11
340.50311279296881
 21
384.1498010242488
 31
0.0
  0
LINE
  5
161
  8
DIMNSIONS
  6
CONTINUOUS
 62
     7
 10
372.49999999999858
 20
387.5
 30
0.0
 11
359.99688720703
 21
384.1498010242488
 31
0.0
  0
LINE
  5
162
  8
DIMNSIONS
  6
CONTINUOUS
 62
     7
 10
372.49999999999858
 20
387.5
 30
0.0
 11
359.99688720703
 21
390.8501989757512
 31
0.0
  0
TEXT
  5
163
  8
DIMNSIONS
 62
     7
 10
276.9074733989126
 20
392.46944444444449
 30
0.0
 40
13.57367621527778
  1
44.5
 41
0.7
 11
276.9074733989126
 21
406.04312065972221
 31
0.0
 73
     3
  0
LINE
  5
164
  8
DIMNSIONS
  6
CONTINUOUS
 62
     7
 10
267.59297492509438
 20
-188.4049168741804
 30
0.0
 11
334.899992371
 21
-262.5
 31
0.0
  0
LINE
  5
165
  8
DIMNSIONS
  6
CONTINUOUS
 62
     7
 10
267.59297492509438
 20
-188.4049168741804
 30
0.0
 11
278.57025776765192
 21
-195.26428448973471
 31
0.0
  0
LINE
  5
166
  8
DIMNSIONS
  6
CONTINUOUS
 62
     7
 10
267.59297492509438
 20
-188.4049168741804
 30
0.0
 11
273.6698969234991
 21
-199.83394490442549
 31
0.0
  0
LINE
  5
167
  8
DIMNSIONS
  6
CONTINUOUS
 62
     7
 10
334.899992371
 20
-262.5
 30
0.0
 11
406.63610348211108
 21
-262.5
 31
0.0
  0
TEXT
  5
168
  8
DIMNSIONS
 62
     7
 10
344.899992371
 20
-257.53055555555551
 30
0.0
 40
13.57367621527778
  1
6-φ9.2
 41
0.7
 11
344.899992371
 21
-243.95687934027771
 31
0.0
 73
     3
  0
LINE
  5
169
  8
DIMNSIONS
  6
CONTINUOUS
 62
     7
 10
461.34363830000001
 20
440.0
 30
0.0
 11
461.34363830000001
 21
390.0
 31
0.0
  0
LINE
  5
16A
  8
DIMNSIONS
  6
CONTINUOUS
 62
     7
 10
427.8593670530002
 20
406.7157287519999
 30
0.0
 11
427.8593670530002
 21
390.0
 31
0.0
  0
LINE
  5
16B
  8
DIMNSIONS
  6
CONTINUOUS
 62
     7
 10
461.34363830000001
 20
400.0
 30
0.0
 11
510.27777777777771
 21
400.0
 31
0.0
  0
LINE
  5
16C
  8
DIMNSIONS
  6
CONTINUOUS
 62
     7
 10
461.34363830000001
 20
400.0
 30
0.0
 11
427.8593670530002
 21
400.0
 31
0.0
  0
LINE
  5
16D
  8
DIMNSIONS
  6
CONTINUOUS
 62
     7
 10
461.34363830000001
 20
400.0
 30
0.0
 11
448.8405255070312
 21
396.6498010242488
 31
0.0
  0
LINE
  5
16E
  8
DIMNSIONS
  6
CONTINUOUS
 62
     7
 10
461.34363830000001
 20
400.0
 30
0.0
 11
448.8405255070312
 21
403.35019897575108
 31
0.0
  0
LINE
  5
16F
  8
DIMNSIONS
  6
CONTINUOUS
 62
     7
 10
427.8593670530002
 20
400.0
 30
0.0
 11
440.36247984596878
 21
403.35019897575108
 31
0.0
  0
LINE
  5
170
  8
DIMNSIONS
  6
CONTINUOUS
 62
     7
 10
427.8593670530002
 20
400.0
 30
0.0
 11
440.36247984596878
 21
396.6498010242488
 31
0.0
  0
TEXT
  5
171
  8
DIMNSIONS
 62
     7
 10
475.0
 20
404.96944444444449
 30
0.0
 40
13.57367621527778
  1
33.5
 41
0.7
 11
475.0
 21
418.54312065972221
 31
0.0
 73
     3
  0
LINE
  5
172
  8
DIMNSIONS
  6
CONTINUOUS
 62
     7
 10
-88.309979010750538
 20
-20.92937335659764
 30
0.0
 11
-50.000000000000021
 21
50.0
 31
0.0
  0
LINE
  5
173
  8
DIMNSIONS
  6
CONTINUOUS
 62
     7
 10
-88.309979010750538
 20
-20.92937335659764
 30
0.0
 11
-85.178499692724486
 21
-8.36969581409687
 31
0.0
  0
LINE
  5
174
  8
DIMNSIONS
  6
CONTINUOUS
 62
     7
 10
-88.309979010750538
 20
-20.92937335659764
 30
0.0
 11
-79.318199598664037
 21
-11.61811320046408
 31
0.0
  0
LINE
  5
175
  8
DIMNSIONS
  6
CONTINUOUS
 62
     7
 10
-50.000000000000021
 20
50.0
 30
0.0
 11
21.7361111111111
 21
50.0
 31
0.0
  0
TEXT
  5
176
  8
DIMNSIONS
 62
     7
 10
-40.000000000000007
 20
54.969444444444441
 30
0.0
 40
13.57367621527778
  1
4-φ7.2
 41
0.7
 11
-40.000000000000007
 21
68.54312065972222
 31
0.0
 73
     3
  0
TEXT
  5
177
  8
DATA
 62
     7
 10
350.0
 20
-403.9682899999998
 30
0.0
 40
12.21630859375
  1
JBL
 41
0.7
 11
350.0
 21
-391.75198140624991
 31
0.0
 73
     3
  0
TEXT
  5
178
  8
DATA
 62
     7
 10
-300.0
 20
-474.68273999999991
 30
0.0
 40
8.1442057291666661
  1
仕様および外観は予告なく変更されることがありますので、ご了承ください。
 41
0.7
 11
-300.0
 21
-466.53853427083322
 31
0.0
 73
     3
  0
LINE
  5
179
  8
DATA
  6
CONTINUOUS
 62
     7
 10
247.0
 20
630.0
 30
0.0
 11
272.0
 21
450.0
 31
0.0
  0
LINE
  5
17A
  8
DATA
  6
CONTINUOUS
 62
     7
 10
353.0
 20
630.0
 30
0.0
 11
328.0
 21
450.0
 31
0.0
  0
LINE
  5
17B
  8
DATA
  6
CONTINUOUS
 62
     7
 10
337.85601512899979
 20
630.0
 30
0.0
 11
319.5
 21
497.83669107199989
 31
0.0
  0
LINE
  5
17C
  8
DATA
  6
CONTINUOUS
 62
     7
 10
262.1439848710001
 20
630.0
 30
0.0
 11
280.5
 21
497.83669107199989
 31
0.0
  0
LINE
  5
17D
  8
DATA
  6
CONTINUOUS
 62
     7
 10
319.5
 20
497.83669107199989
 30
0.0
 11
319.5
 21
450.0
 31
0.0
  0
LINE
  5
17E
  8
DATA
  6
CONTINUOUS
 62
     7
 10
280.5
 20
497.83669107199989
 30
0.0
 11
280.5
 21
450.0
 31
0.0
  0
ARC
  5
17F
  8
DATA
  6
CONTINUOUS
 62
     7
 10
233.5
 20
456.0
 30
0.0
 40
6.0
 50
179.9999684570007
 51
270.0
  0
LINE
  5
180
  8
DATA
  6
CONTINUOUS
 62
     7
 10
233.5
 20
450.0
 30
0.0
 11
366.5
 21
450.0
 31
0.0
  0
ARC
  5
181
  8
DATA
  6
CONTINUOUS
 62
     7
 10
366.5
 20
456.0
 30
0.0
 40
6.0
 50
270.0
 51
0.0000315429992952
  0
LINE
  5
182
  8
DATA
  6
CONTINUOUS
 62
     7
 10
227.5
 20
624.00000762900004
 30
0.0
 11
227.5
 21
456.00000330300003
 31
0.0
  0
ARC
  5
183
  8
DATA
  6
CONTINUOUS
 62
     7
 10
233.5
 20
624.0
 30
0.0
 40
6.0000000000000764
 50
89.999927145000612
 51
179.99992714900009
  0
LINE
  5
184
  8
DATA
  6
CONTINUOUS
 62
     7
 10
233.50000762900001
 20
630.0
 30
0.0
 11
366.50000762900032
 21
630.0
 31
0.0
  0
ARC
  5
185
  8
DATA
  6
CONTINUOUS
 62
     7
 10
366.5
 20
624.0
 30
0.0
 40
5.9999999999998481
 50
0.0000728509999445
 51
89.999927145000612
  0
LINE
  5
186
  8
DATA
  6
CONTINUOUS
 62
     7
 10
372.5
 20
624.00000762900004
 30
0.0
 11
372.49999999999858
 21
424.45299227594489
 31
0.0
  0
CIRCLE
  5
187
  8
DATA
  6
CONTINUOUS
 62
     7
 10
239.5
 20
615.0
 30
0.0
 40
4.5999999999999091
  0
CIRCLE
  5
188
  8
DATA
  6
CONTINUOUS
 62
     7
 10
239.5
 20
540.0
 30
0.0
 40
4.5999999999999091
  0
CIRCLE
  5
189
  8
DATA
  6
CONTINUOUS
 62
     7
 10
239.5
 20
465.0
 30
0.0
 40
4.5999999999999091
  0
CIRCLE
  5
18A
  8
DATA
  6
CONTINUOUS
 62
     7
 10
360.5
 20
465.0
 30
0.0
 40
4.5999999999999091
  0
CIRCLE
  5
18B
  8
DATA
  6
CONTINUOUS
 62
     7
 10
360.5
 20
540.0
 30
0.0
 40
4.5999999999999091
  0
CIRCLE
  5
18C
  8
DATA
  6
CONTINUOUS
 62
     7
 10
360.5
 20
615.0
 30
0.0
 40
4.5999999999999091
  0
TEXT
  5
18D
  8
DATA
 62
     7
 10
354.34604039958782
 20
-442.72747759461078
 30
0.0
 40
12.21630859375
  1
JBL-3 MKII
 41
0.7
 11
354.34604039958782
 21
-430.51116900086078
 31
0.0
 73
     3
  0
TEXT
  5
18E
  8
DATA
 62
     7
 10
337.5
 20
-421.35312499999992
 30
0.0
 40
8.1443339843750007
  1
マウントブラケット（8330A、8340A用）
 41
0.7
 11
337.5
 21
-413.2087910156248
 31
0.0
 73
     3
  0
LINE
  5
18F
  8
DATA
  6
CONTINUOUS
 62
     7
 10
459.34363830000012
 20
630.0
 30
0.0
 11
459.34363830000001
 21
446.0769552619999
 31
0.0
  0
LINE
  5
190
  8
DATA
  6
CONTINUOUS
 62
     7
 10
456.14363830000002
 20
630.0
 30
0.0
 11
456.14363830000008
 21
446.0769552619999
 31
0.0
  0
LINE
  5
191
  8
DATA
  6
CONTINUOUS
 62
     7
 10
454.14363830000002
 20
630.0
 30
0.0
 11
454.14363830000002
 21
450.0
 31
0.0
  0
LINE
  5
192
  8
DATA
  6
CONTINUOUS
 62
     7
 10
461.34363830000001
 20
630.0
 30
0.0
 11
461.34363830000001
 21
450.0
 31
0.0
  0
LINE
  5
193
  8
DATA
  6
CONTINUOUS
 62
     7
 10
461.34363830000001
 20
630.0
 30
0.0
 11
450.0
 21
630.0
 31
0.0
  0
LINE
  5
194
  8
DATA
  6
CONTINUOUS
 62
     7
 10
450.0
 20
630.0
 30
0.0
 11
450.0
 21
497.83669107199989
 31
0.0
  0
LINE
  5
195
  8
DATA
  6
CONTINUOUS
 62
     7
 10
452.41821272999999
 20
450.0
 30
0.0
 11
450.0
 21
497.83669107199989
 31
0.0
  0
LINE
  5
196
  8
DATA
  6
CONTINUOUS
 62
     7
 10
461.34363830000001
 20
450.0
 30
0.0
 11
452.41821272999999
 21
450.0
 31
0.0
  0
LINE
  5
197
  8
DATA
  6
STYLE_06
 62
     7
 10
-125.0
 20
375.0
 30
0.0
 11
-125.0
 21
175.0
 31
0.0
  0
CIRCLE
  5
198
  8
DATA
  6
CONTINUOUS
 62
     7
 10
86.664931381000102
 20
-165.57380598299989
 30
0.0
 40
3.0
  0
CIRCLE
  5
199
  8
DATA
  6
CONTINUOUS
 62
     7
 10
76.977778669999907
 20
-164.29846813399999
 30
0.0
 40
3.0
  0
CIRCLE
  5
19A
  8
DATA
  6
CONTINUOUS
 62
     7
 10
67.438641516999951
 20
-162.1836923409999
 30
0.0
 40
3.0
  0
CIRCLE
  5
19B
  8
DATA
  6
CONTINUOUS
 62
     7
 10
130.1123308010001
 20
-73.448595694999881
 30
0.0
 40
3.0
  0
CIRCLE
  5
19C
  8
DATA
  6
CONTINUOUS
 62
     7
 10
122.3606793870001
 20
-67.500544364000007
 30
0.0
 40
3.0
  0
CIRCLE
  5
19D
  8
DATA
  6
CONTINUOUS
 62
     7
 10
119.249784754
 20
-75.107805909999911
 30
0.0
 40
3.0
  0
CIRCLE
  5
19E
  8
DATA
  6
CONTINUOUS
 62
     7
 10
115.89436073899989
 20
-82.576564359999907
 30
0.0
 40
3.0
  0
CIRCLE
  5
19F
  8
DATA
  6
CONTINUOUS
 62
     7
 10
112.298328345
 20
-89.900627006999926
 30
0.0
 40
3.0
  0
CIRCLE
  5
1A0
  8
DATA
  6
CONTINUOUS
 62
     7
 10
108.4657497999999
 20
-97.073896407999953
 30
0.0
 40
3.0
  0
CIRCLE
  5
1A1
  8
DATA
  6
CONTINUOUS
 62
     7
 10
114.12011851600001
 20
-62.250728100999908
 30
0.0
 40
3.0
  0
CIRCLE
  5
1A2
  8
DATA
  6
CONTINUOUS
 62
     7
 10
111.68407830699989
 20
-70.100174051999943
 30
0.0
 40
3.0
  0
CIRCLE
  5
1A3
  8
DATA
  6
CONTINUOUS
 62
     7
 10
108.992367882
 20
-77.832956093999982
 30
0.0
 40
3.0
  0
CIRCLE
  5
1A4
  8
DATA
  6
CONTINUOUS
 62
     7
 10
106.0483535969999
 20
-85.44256334499994
 30
0.0
 40
3.0
  0
CIRCLE
  5
1A5
  8
DATA
  6
CONTINUOUS
 62
     7
 10
102.855550794
 20
-92.92256751999993
 30
0.0
 40
3.0
  0
CIRCLE
  5
1A6
  8
DATA
  6
CONTINUOUS
 62
     7
 10
105.4533638310001
 20
-57.739101176999917
 30
0.0
 40
3.0
  0
CIRCLE
  5
1A7
  8
DATA
  6
CONTINUOUS
 62
     7
 10
103.7107177820001
 20
-65.770992509999957
 30
0.0
 40
3.0
  0
CIRCLE
  5
1A8
  8
DATA
  6
CONTINUOUS
 62
     7
 10
101.7032064910001
 20
-73.708947002999935
 30
0.0
 40
3.0
  0
CIRCLE
  5
1A9
  8
DATA
  6
CONTINUOUS
 62
     7
 10
99.43361604100005
 20
-81.546185152999882
 30
0.0
 40
3.0
  0
CIRCLE
  5
1AA
  8
DATA
  6
CONTINUOUS
 62
     7
 10
96.904888136000196
 20
-89.275996753999934
 30
0.0
 40
3.0
  0
CIRCLE
  5
1AB
  8
DATA
  6
CONTINUOUS
 62
     7
 10
94.082351484000128
 20
-70.235923285999874
 30
0.0
 40
3.0
  0
CIRCLE
  5
1AC
  8
DATA
  6
CONTINUOUS
 62
     7
 10
92.504457823000166
 20
-78.241146220999894
 30
0.0
 40
3.0
  0
CIRCLE
  5
1AD
  8
DATA
  6
CONTINUOUS
 62
     7
 10
90.659049961999926
 20
-86.161936712999946
 30
0.0
 40
3.0
  0
CIRCLE
  5
1AE
  8
DATA
  6
CONTINUOUS
 62
     7
 10
58.120118516000048
 20
-159.2455733249999
 30
0.0
 40
3.0
  0
LINE
  5
1AF
  8
DATA
  6
CONTINUOUS
 62
     7
 10
26.60000000000014
 20
-10.09688128199994
 30
0.0
 11
26.599999473000029
 21
-165.09688067999991
 31
0.0
  0
LINE
  5
1B0
  8
DATA
  6
CONTINUOUS
 62
     7
 10
28.60000000000014
 20
-10.096881288999979
 30
0.0
 11
28.599999473000029
 21
-165.09688068700001
 31
0.0
  0
LINE
  5
1B1
  8
DATA
  6
CONTINUOUS
 62
     7
 10
25.0
 20
-10.09688127699993
 30
0.0
 11
24.99999947300012
 21
-165.09688067499991
 31
0.0
  0
LINE
  5
1B2
  8
DATA
  6
CONTINUOUS
 62
     7
 10
28.599999473000029
 20
-165.09688068700001
 30
0.0
 11
24.99999947300012
 21
-165.09688067499991
 31
0.0
  0
CIRCLE
  5
1B3
  8
DATA
  6
CONTINUOUS
 62
     7
 10
85.555414389000134
 20
-157.43027691499989
 30
0.0
 40
3.0
  0
CIRCLE
  5
1B4
  8
DATA
  6
CONTINUOUS
 62
     7
 10
76.582239049000009
 20
-156.08922687499989
 30
0.0
 40
3.0
  0
CIRCLE
  5
1B5
  8
DATA
  6
CONTINUOUS
 62
     7
 10
67.76008956400004
 20
-153.97121617399989
 30
0.0
 40
3.0
  0
CIRCLE
  5
1B6
  8
DATA
  6
CONTINUOUS
 62
     7
 10
93.076022884999944
 20
-149.94151918999989
 30
0.0
 40
3.0
  0
CIRCLE
  5
1B7
  8
DATA
  6
CONTINUOUS
 62
     7
 10
84.726917602000185
 20
-149.28443035399991
 30
0.0
 40
3.0
  0
CIRCLE
  5
1B8
  8
DATA
  6
CONTINUOUS
 62
     7
 10
76.466852249999874
 20
-147.90216946699991
 30
0.0
 40
3.0
  0
CIRCLE
  5
1B9
  8
DATA
  6
CONTINUOUS
 62
     7
 10
68.358690915000139
 20
-145.80525636899989
 30
0.0
 40
3.0
  0
CIRCLE
  5
1BA
  8
DATA
  6
CONTINUOUS
 62
     7
 10
91.820810419000054
 20
-141.87939885499989
 30
0.0
 40
3.0
  0
CIRCLE
  5
1BB
  8
DATA
  6
CONTINUOUS
 62
     7
 10
84.179141683999859
 20
-141.14358984599991
 30
0.0
 40
3.0
  0
CIRCLE
  5
1BC
  8
DATA
  6
CONTINUOUS
 62
     7
 10
76.630681786000181
 20
-139.7445654979999
 30
0.0
 40
3.0
  0
CIRCLE
  5
1BD
  8
DATA
  6
CONTINUOUS
 62
     7
 10
69.232879063000155
 20
-137.69297323099991
 30
0.0
 40
3.0
  0
CIRCLE
  5
1BE
  8
DATA
  6
CONTINUOUS
 62
     7
 10
90.845856669000128
 20
-133.80512381700001
 30
0.0
 40
3.0
  0
CIRCLE
  5
1BF
  8
DATA
  6
CONTINUOUS
 62
     7
 10
83.911617364999984
 20
-133.01506704399989
 30
0.0
 40
3.0
  0
CIRCLE
  5
1C0
  8
DATA
  6
CONTINUOUS
 62
     7
 10
77.072622919999972
 20
-131.62365789899991
 30
0.0
 40
3.0
  0
CIRCLE
  5
1C1
  8
DATA
  6
CONTINUOUS
 62
     7
 10
70.380922212000087
 20
-129.64148584499989
 30
0.0
 40
3.0
  0
LINE
  5
1C2
  8
DATA
  6
CONTINUOUS
 62
     7
 10
52.811052845999939
 20
-10.09688137099991
 30
0.0
 11
25.0
 21
-10.09688127699993
 31
0.0
  0
LINE
  5
1C3
  8
DATA
  6
CONTINUOUS
 62
     7
 10
52.811052845999939
 20
-10.09688137099991
 30
0.0
 11
143.11331072199999
 21
-63.147503738999973
 31
0.0
  0
LINE
  5
1C4
  8
DATA
  6
CONTINUOUS
 62
     7
 10
28.599999473000029
 20
-165.09688068700001
 30
0.0
 11
80.477152233999973
 21
-178.9973218749999
 31
0.0
  0
POLYLINE
  5
1C5
  8
DATA
  6
CONTINUOUS
 62
     7
 66
     1
 10
0.0
 20
0.0
 30
0.0
  0
VERTEX
  5
88E
  8
DATA
  6
CONTINUOUS
 62
     7
 10
80.477152233999973
 20
-178.9973218749999
 30
0.0
  0
VERTEX
  5
88F
  8
DATA
  6
CONTINUOUS
 62
     7
 10
99.76428871600001
 20
-182.247962855
 30
0.0
  0
VERTEX
  5
890
  8
DATA
  6
CONTINUOUS
 62
     7
 10
143.11331072199999
 20
-63.147503738999973
 30
0.0
  0
SEQEND
  5
891
  8
DATA
  6
CONTINUOUS
 62
     7
  0
ARC
  5
1CB
  8
DATA
  6
CONTINUOUS
 62
     7
 10
94.611324299000003
 20
-157.9841600929999
 30
0.0
 40
2.9999999999999689
 50
328.6895096589991
 51
236.82750151300101
  0
ARC
  5
1CC
  8
DATA
  6
CONTINUOUS
 62
     7
 10
95.390385269000049
 20
-62.153208968999962
 30
0.0
 40
3.0000000000000542
 50
128.68950965800121
 51
36.827501513000882
  0
LINE
  5
1CD
  8
DATA
  6
CONTINUOUS
 62
     7
 10
172.426374568
 20
-19.999999999999911
 30
0.0
 11
172.426374568
 21
-200.0
 31
0.0
  0
LINE
  5
1CE
  8
DATA
  6
CONTINUOUS
 62
     7
 10
179.6263745680001
 20
-19.999999999999911
 30
0.0
 11
179.6263745680001
 21
-200.0
 31
0.0
  0
LINE
  5
1CF
  8
DATA
  6
CONTINUOUS
 62
     7
 10
179.6263745680001
 20
-19.999999999999911
 30
0.0
 11
168.28273626800001
 21
-19.999999999999911
 31
0.0
  0
LINE
  5
1D0
  8
DATA
  6
CONTINUOUS
 62
     7
 10
168.28273626800001
 20
-19.999999999999911
 30
0.0
 11
168.28273626800001
 21
-152.16330892799991
 31
0.0
  0
LINE
  5
1D1
  8
DATA
  6
CONTINUOUS
 62
     7
 10
170.700948998
 20
-200.0
 30
0.0
 11
168.28273626800001
 21
-152.16330892799991
 31
0.0
  0
LINE
  5
1D2
  8
DATA
  6
CONTINUOUS
 62
     7
 10
179.6263745680001
 20
-200.0
 30
0.0
 11
170.700948998
 21
-200.0
 31
0.0
  0
LINE
  5
1D3
  8
DATA
  6
CONTINUOUS
 62
     7
 10
148.404845021
 20
-235.547012948
 30
0.0
 11
146.14210332100009
 21
-233.2842712479999
 31
0.0
  0
LINE
  5
1D4
  8
DATA
  6
STYLE_01
 62
     7
 10
155.47591283299991
 20
-228.47594513600001
 30
0.0
 11
153.213171133
 21
-226.21320343599999
 31
0.0
  0
LINE
  5
1D5
  8
DATA
  6
STYLE_01
 62
     7
 10
169.618048456
 20
-214.33380951199999
 30
0.0
 11
167.35530675700011
 21
-212.07106781199991
 31
0.0
  0
LINE
  5
1D6
  8
DATA
  6
CONTINUOUS
 62
     7
 10
174.426374568
 20
-19.999999999999911
 30
0.0
 11
174.426374568
 21
-203.92304473799999
 31
0.0
  0
LINE
  5
1D7
  8
DATA
  6
CONTINUOUS
 62
     7
 10
173.66485220000001
 20
-205.76152236900001
 30
0.0
 11
146.14210332100009
 21
-233.2842712479999
 31
0.0
  0
ARC
  5
1D8
  8
DATA
  6
CONTINUOUS
 62
     7
 10
171.82637456800009
 20
-203.92304473799999
 30
0.0
 40
2.599999999999965
 50
314.9999999999992
 51
0.0
  0
LINE
  5
1D9
  8
DATA
  6
CONTINUOUS
 62
     7
 10
177.6263745680001
 20
-19.999999999999911
 30
0.0
 11
177.6263745680001
 21
-203.92304473799999
 31
0.0
  0
LINE
  5
1DA
  8
DATA
  6
CONTINUOUS
 62
     7
 10
175.9275938990001
 20
-208.024264069
 30
0.0
 11
148.404845021
 21
-235.547012948
 31
0.0
  0
ARC
  5
1DB
  8
DATA
  6
CONTINUOUS
 62
     7
 10
171.82637456800009
 20
-203.92304473799999
 30
0.0
 40
5.7999999999998781
 50
314.99999999999881
 51
0.0
  0
LINE
  5
1DC
  8
DATA
  6
CONTINUOUS
 62
     7
 10
91.426374568000043
 20
-24.999999999999918
 30
0.0
 11
91.426374568000043
 21
-27.599999999999941
 31
0.0
  0
LINE
  5
1DD
  8
DATA
  6
CONTINUOUS
 62
     7
 10
91.426374568000043
 20
-195.0
 30
0.0
 11
91.426374568000043
 21
-192.40000000000001
 31
0.0
  0
LINE
  5
1DE
  8
DATA
  6
CONTINUOUS
 62
     7
 10
151.72637456800001
 20
-44.599999999999923
 30
0.0
 11
151.72637456800001
 21
-175.39999999999989
 31
0.0
  0
LINE
  5
1DF
  8
DATA
  6
CONTINUOUS
 62
     7
 10
135.72637456800001
 20
-27.599999999999941
 30
0.0
 11
135.72637456800001
 21
-32.59999999999993
 31
0.0
  0
LINE
  5
1E0
  8
DATA
  6
CONTINUOUS
 62
     7
 10
135.72637456800001
 20
-32.59999999999993
 30
0.0
 11
151.72637456800001
 21
-44.599999999999923
 31
0.0
  0
LINE
  5
1E1
  8
DATA
  6
CONTINUOUS
 62
     7
 10
135.72637456800001
 20
-192.40000000000001
 30
0.0
 11
135.72637456800001
 21
-187.40000000000001
 31
0.0
  0
LINE
  5
1E2
  8
DATA
  6
CONTINUOUS
 62
     7
 10
135.72637456800001
 20
-187.40000000000001
 30
0.0
 11
151.72637456800001
 21
-175.39999999999989
 31
0.0
  0
LINE
  5
1E3
  8
DATA
  6
CONTINUOUS
 62
     7
 10
168.28273626800001
 20
-24.999999999999918
 30
0.0
 11
91.426374568000043
 21
-24.999999999999918
 31
0.0
  0
LINE
  5
1E4
  8
DATA
  6
CONTINUOUS
 62
     7
 10
168.28273626800001
 20
-27.599999999999941
 30
0.0
 11
91.426374568000043
 21
-27.599999999999941
 31
0.0
  0
LINE
  5
1E5
  8
DATA
  6
CONTINUOUS
 62
     7
 10
170.3163745680001
 20
-192.40000000000001
 30
0.0
 11
91.426374568000043
 21
-192.40000000000001
 31
0.0
  0
LINE
  5
1E6
  8
DATA
  6
CONTINUOUS
 62
     7
 10
170.44819189000009
 20
-195.0
 30
0.0
 11
91.426374568000043
 21
-195.0
 31
0.0
  0
CIRCLE
  5
1E7
  8
DATA
  6
CONTINUOUS
 62
     7
 10
96.426374568000043
 20
-53.999999796999958
 30
0.0
 40
5.5
  0
CIRCLE
  5
1E8
  8
DATA
  6
CONTINUOUS
 62
     7
 10
96.426374568000043
 20
-53.999999796999958
 30
0.0
 40
6.5
  0
LINE
  5
1E9
  8
DATA
  6
CONTINUOUS
 62
     7
 10
93.176374568000057
 20
-52.999999796999958
 30
0.0
 11
95.426374568000043
 21
-52.999999796999958
 31
0.0
  0
LINE
  5
1EA
  8
DATA
  6
CONTINUOUS
 62
     7
 10
97.426374568000043
 20
-52.999999796999958
 30
0.0
 11
99.676374568000057
 21
-52.999999796999958
 31
0.0
  0
LINE
  5
1EB
  8
DATA
  6
CONTINUOUS
 62
     7
 10
93.176374568000057
 20
-54.999999796999958
 30
0.0
 11
95.426374568000043
 21
-54.999999796999958
 31
0.0
  0
LINE
  5
1EC
  8
DATA
  6
CONTINUOUS
 62
     7
 10
97.426374568000043
 20
-54.999999796999958
 30
0.0
 11
99.676374568000057
 21
-54.999999796999958
 31
0.0
  0
LINE
  5
1ED
  8
DATA
  6
CONTINUOUS
 62
     7
 10
95.426374568000043
 20
-57.249999796999958
 30
0.0
 11
95.426374568000043
 21
-54.999999796999958
 31
0.0
  0
LINE
  5
1EE
  8
DATA
  6
CONTINUOUS
 62
     7
 10
95.426374568000043
 20
-52.999999796999958
 30
0.0
 11
95.426374568000043
 21
-50.749999796999951
 31
0.0
  0
LINE
  5
1EF
  8
DATA
  6
CONTINUOUS
 62
     7
 10
97.426374568000043
 20
-57.249999796999958
 30
0.0
 11
97.426374568000043
 21
-54.999999796999958
 31
0.0
  0
LINE
  5
1F0
  8
DATA
  6
CONTINUOUS
 62
     7
 10
97.426374568000043
 20
-52.999999796999958
 30
0.0
 11
97.426374568000043
 21
-50.749999796999951
 31
0.0
  0
LINE
  5
1F1
  8
DATA
  6
CONTINUOUS
 62
     7
 10
93.176374568000057
 20
-54.999999796999958
 30
0.0
 11
93.176374568000057
 21
-52.999999796999958
 31
0.0
  0
LINE
  5
1F2
  8
DATA
  6
CONTINUOUS
 62
     7
 10
99.676374568000057
 20
-54.999999796999958
 30
0.0
 11
99.676374568000057
 21
-52.999999796999958
 31
0.0
  0
LINE
  5
1F3
  8
DATA
  6
CONTINUOUS
 62
     7
 10
95.426374568000043
 20
-50.749999796999951
 30
0.0
 11
97.426374568000043
 21
-50.749999796999951
 31
0.0
  0
LINE
  5
1F4
  8
DATA
  6
CONTINUOUS
 62
     7
 10
95.426374568000043
 20
-57.249999796999958
 30
0.0
 11
97.426374568000043
 21
-57.249999796999958
 31
0.0
  0
CIRCLE
  5
1F5
  8
DATA
  6
CONTINUOUS
 62
     7
 10
96.426374568000043
 20
-165.99999979699999
 30
0.0
 40
5.5
  0
CIRCLE
  5
1F6
  8
DATA
  6
CONTINUOUS
 62
     7
 10
96.426374568000043
 20
-165.99999979699999
 30
0.0
 40
6.5
  0
LINE
  5
1F7
  8
DATA
  6
CONTINUOUS
 62
     7
 10
93.176374568000057
 20
-164.99999979699999
 30
0.0
 11
95.426374568000043
 21
-164.99999979699999
 31
0.0
  0
LINE
  5
1F8
  8
DATA
  6
CONTINUOUS
 62
     7
 10
97.426374568000043
 20
-164.99999979699999
 30
0.0
 11
99.676374568000057
 21
-164.99999979699999
 31
0.0
  0
LINE
  5
1F9
  8
DATA
  6
CONTINUOUS
 62
     7
 10
93.176374568000057
 20
-166.99999979699999
 30
0.0
 11
95.426374568000043
 21
-166.99999979699999
 31
0.0
  0
LINE
  5
1FA
  8
DATA
  6
CONTINUOUS
 62
     7
 10
97.426374568000043
 20
-166.99999979699999
 30
0.0
 11
99.676374568000057
 21
-166.99999979699999
 31
0.0
  0
LINE
  5
1FB
  8
DATA
  6
CONTINUOUS
 62
     7
 10
95.426374568000043
 20
-169.24999979699999
 30
0.0
 11
95.426374568000043
 21
-166.99999979699999
 31
0.0
  0
LINE
  5
1FC
  8
DATA
  6
CONTINUOUS
 62
     7
 10
95.426374568000043
 20
-164.99999979699999
 30
0.0
 11
95.426374568000043
 21
-162.74999979699999
 31
0.0
  0
LINE
  5
1FD
  8
DATA
  6
CONTINUOUS
 62
     7
 10
97.426374568000043
 20
-169.24999979699999
 30
0.0
 11
97.426374568000043
 21
-166.99999979699999
 31
0.0
  0
LINE
  5
1FE
  8
DATA
  6
CONTINUOUS
 62
     7
 10
97.426374568000043
 20
-164.99999979699999
 30
0.0
 11
97.426374568000043
 21
-162.74999979699999
 31
0.0
  0
LINE
  5
1FF
  8
DATA
  6
CONTINUOUS
 62
     7
 10
93.176374568000057
 20
-166.99999979699999
 30
0.0
 11
93.176374568000057
 21
-164.99999979699999
 31
0.0
  0
LINE
  5
200
  8
DATA
  6
CONTINUOUS
 62
     7
 10
99.676374568000057
 20
-166.99999979699999
 30
0.0
 11
99.676374568000057
 21
-164.99999979699999
 31
0.0
  0
LINE
  5
201
  8
DATA
  6
CONTINUOUS
 62
     7
 10
95.426374568000043
 20
-162.74999979699999
 30
0.0
 11
97.426374568000043
 21
-162.74999979699999
 31
0.0
  0
LINE
  5
202
  8
DATA
  6
CONTINUOUS
 62
     7
 10
95.426374568000043
 20
-169.24999979699999
 30
0.0
 11
97.426374568000043
 21
-169.24999979699999
 31
0.0
  0
POLYLINE
  5
203
  8
DATA
  6
CONTINUOUS
 62
     7
 66
     1
 10
0.0
 20
0.0
 30
0.0
  0
VERTEX
  5
892
  8
DATA
  6
CONTINUOUS
 62
     7
 10
97.926374568000043
 20
-24.999999796999958
 30
0.0
  0
VERTEX
  5
893
  8
DATA
  6
CONTINUOUS
 62
     7
 10
114.926374568
 20
-24.999999796999958
 30
0.0
  0
VERTEX
  5
894
  8
DATA
  6
CONTINUOUS
 62
     7
 10
114.926374568
 20
-23.399999796999928
 30
0.0
  0
VERTEX
  5
895
  8
DATA
  6
CONTINUOUS
 62
     7
 10
97.926374568000043
 20
-23.399999796999928
 30
0.0
  0
VERTEX
  5
896
  8
DATA
  6
CONTINUOUS
 62
     7
 10
97.926374568000043
 20
-24.999999796999958
 30
0.0
  0
SEQEND
  5
897
  8
DATA
  6
CONTINUOUS
 62
     7
  0
LINE
  5
20B
  8
DATA
  6
CONTINUOUS
 62
     7
 10
114.126374568
 20
-23.399999796999928
 30
0.0
 11
114.126374568
 21
-21.399999796999928
 31
0.0
  0
LINE
  5
20C
  8
DATA
  6
CONTINUOUS
 62
     7
 10
114.126374568
 20
-21.399999796999928
 30
0.0
 11
98.726374567999983
 21
-21.399999796999928
 31
0.0
  0
LINE
  5
20D
  8
DATA
  6
CONTINUOUS
 62
     7
 10
98.726374567999983
 20
-21.399999796999928
 30
0.0
 11
98.726374567999983
 21
-23.399999796999928
 31
0.0
  0
LINE
  5
20E
  8
DATA
  6
CONTINUOUS
 62
     7
 10
98.726374567999983
 20
-23.399999796999928
 30
0.0
 11
114.126374568
 21
-23.399999796999928
 31
0.0
  0
LINE
  5
20F
  8
DATA
  6
CONTINUOUS
 62
     7
 10
98.926374568000043
 20
-21.399999796999928
 30
0.0
 11
98.926374568000043
 21
-16.79999979699997
 31
0.0
  0
LINE
  5
210
  8
DATA
  6
CONTINUOUS
 62
     7
 10
113.926374568
 20
-21.399999796999928
 30
0.0
 11
113.926374568
 21
-16.79999979699997
 31
0.0
  0
LINE
  5
211
  8
DATA
  6
CONTINUOUS
 62
     7
 10
110.226374568
 20
-21.399999796999928
 30
0.0
 11
110.226374568
 21
-16.79999979699997
 31
0.0
  0
LINE
  5
212
  8
DATA
  6
CONTINUOUS
 62
     7
 10
102.6263745680001
 20
-21.399999796999928
 30
0.0
 11
102.6263745680001
 21
-16.79999979699997
 31
0.0
  0
LINE
  5
213
  8
DATA
  6
CONTINUOUS
 62
     7
 10
100.726374568
 20
-16.099999796999931
 30
0.0
 11
112.126374568
 21
-16.099999796999931
 31
0.0
  0
ARC
  5
214
  8
DATA
  6
CONTINUOUS
 62
     7
 10
112.126374568
 20
-18.899999796999928
 30
0.0
 40
2.8000000000000078
 50
48.499999999998977
 51
131.50000000000099
  0
ARC
  5
215
  8
DATA
  6
CONTINUOUS
 62
     7
 10
106.426374568
 20
-26.79999979699997
 30
0.0
 40
10.69999999999999
 50
69.100000000000136
 51
110.89999999999981
  0
ARC
  5
216
  8
DATA
  6
CONTINUOUS
 62
     7
 10
100.726374568
 20
-18.899999796999928
 30
0.0
 40
2.8000000000000078
 50
48.499999999998977
 51
131.50000000000099
  0
LINE
  5
217
  8
DATA
  6
CONTINUOUS
 62
     7
 10
106.426374568
 20
-21.399999796999928
 30
0.0
 11
107.581075107
 21
-23.399999796999928
 31
0.0
  0
LINE
  5
218
  8
DATA
  6
CONTINUOUS
 62
     7
 10
106.426374568
 20
-23.399999796999928
 30
0.0
 11
105.27167403
 21
-21.399999796999928
 31
0.0
  0
POLYLINE
  5
219
  8
DATA
  6
CONTINUOUS
 62
     7
 66
     1
 10
0.0
 20
0.0
 30
0.0
  0
VERTEX
  5
898
  8
DATA
  6
CONTINUOUS
 62
     7
 10
114.926374568
 20
-194.99999979699999
 30
0.0
  0
VERTEX
  5
899
  8
DATA
  6
CONTINUOUS
 62
     7
 10
97.926374568000043
 20
-194.99999979699999
 30
0.0
  0
VERTEX
  5
89A
  8
DATA
  6
CONTINUOUS
 62
     7
 10
97.926374568000043
 20
-196.59999979700001
 30
0.0
  0
VERTEX
  5
89B
  8
DATA
  6
CONTINUOUS
 62
     7
 10
114.926374568
 20
-196.59999979700001
 30
0.0
  0
VERTEX
  5
89C
  8
DATA
  6
CONTINUOUS
 62
     7
 10
114.926374568
 20
-194.99999979699999
 30
0.0
  0
SEQEND
  5
89D
  8
DATA
  6
CONTINUOUS
 62
     7
  0
LINE
  5
221
  8
DATA
  6
CONTINUOUS
 62
     7
 10
98.726374567999983
 20
-196.59999979700001
 30
0.0
 11
98.726374567999983
 21
-198.5999997969999
 31
0.0
  0
LINE
  5
222
  8
DATA
  6
CONTINUOUS
 62
     7
 10
98.726374567999983
 20
-198.5999997969999
 30
0.0
 11
114.126374568
 21
-198.5999997969999
 31
0.0
  0
LINE
  5
223
  8
DATA
  6
CONTINUOUS
 62
     7
 10
114.126374568
 20
-198.5999997969999
 30
0.0
 11
114.126374568
 21
-196.59999979700001
 31
0.0
  0
LINE
  5
224
  8
DATA
  6
CONTINUOUS
 62
     7
 10
114.126374568
 20
-196.59999979700001
 30
0.0
 11
98.726374567999983
 21
-196.59999979700001
 31
0.0
  0
LINE
  5
225
  8
DATA
  6
CONTINUOUS
 62
     7
 10
113.926374568
 20
-198.5999997969999
 30
0.0
 11
113.926374568
 21
-203.19999979699989
 31
0.0
  0
LINE
  5
226
  8
DATA
  6
CONTINUOUS
 62
     7
 10
98.926374568000043
 20
-198.5999997969999
 30
0.0
 11
98.926374568000043
 21
-203.19999979699989
 31
0.0
  0
LINE
  5
227
  8
DATA
  6
CONTINUOUS
 62
     7
 10
102.6263745680001
 20
-198.5999997969999
 30
0.0
 11
102.6263745680001
 21
-203.19999979699989
 31
0.0
  0
LINE
  5
228
  8
DATA
  6
CONTINUOUS
 62
     7
 10
110.226374568
 20
-198.5999997969999
 30
0.0
 11
110.226374568
 21
-203.19999979699989
 31
0.0
  0
LINE
  5
229
  8
DATA
  6
CONTINUOUS
 62
     7
 10
112.126374568
 20
-203.89999979699999
 30
0.0
 11
100.726374568
 21
-203.89999979699999
 31
0.0
  0
ARC
  5
22A
  8
DATA
  6
CONTINUOUS
 62
     7
 10
100.726374568
 20
-201.09999979700001
 30
0.0
 40
2.8000000000000078
 50
228.49999999999889
 51
311.50000000000108
  0
ARC
  5
22B
  8
DATA
  6
CONTINUOUS
 62
     7
 10
106.426374568
 20
-193.19999979699989
 30
0.0
 40
10.70000000000004
 50
249.10000000000031
 51
290.89999999999981
  0
ARC
  5
22C
  8
DATA
  6
CONTINUOUS
 62
     7
 10
112.126374568
 20
-201.09999979700001
 30
0.0
 40
2.8000000000000078
 50
228.49999999999889
 51
311.50000000000108
  0
LINE
  5
22D
  8
DATA
  6
CONTINUOUS
 62
     7
 10
106.426374568
 20
-198.5999997969999
 30
0.0
 11
105.27167403
 21
-196.59999979700001
 31
0.0
  0
LINE
  5
22E
  8
DATA
  6
CONTINUOUS
 62
     7
 10
106.426374568
 20
-196.59999979700001
 30
0.0
 11
107.581075107
 21
-198.5999997969999
 31
0.0
  0
CIRCLE
  5
22F
  8
DATA
  6
CONTINUOUS
 62
     7
 10
70.404315141000083
 20
-43.628497478999947
 30
0.0
 40
10.0
  0
LINE
  5
230
  8
DATA
  6
CONTINUOUS
 62
     7
 10
99.426374568000057
 20
-37.294258373999959
 30
0.0
 11
99.426374568000057
 21
-31.29999999999993
 31
0.0
  0
LINE
  5
231
  8
DATA
  6
CONTINUOUS
 62
     7
 10
99.426374568000057
 20
-182.7057416269999
 30
0.0
 11
99.426374568000057
 21
-188.6999999999999
 31
0.0
  0
LINE
  5
232
  8
DATA
  6
CONTINUOUS
 62
     7
 10
113.426374568
 20
-185.61961722500001
 30
0.0
 11
113.426374568
 21
-188.6999999999999
 31
0.0
  0
LINE
  5
233
  8
DATA
  6
CONTINUOUS
 62
     7
 10
113.426374568
 20
-34.380382774999958
 30
0.0
 11
113.426374568
 21
-31.29999999999993
 31
0.0
  0
LINE
  5
234
  8
DATA
  6
CONTINUOUS
 62
     7
 10
86.426374568000014
 20
-179.99999999999989
 30
0.0
 11
128.22637456800001
 21
-188.6999999999999
 31
0.0
  0
ARC
  5
235
  8
DATA
  6
CONTINUOUS
 62
     7
 10
128.22637456800001
 20
-31.29999999999993
 30
0.0
 40
3.200000000000045
 50
0.0
 51
90.0
  0
ARC
  5
236
  8
DATA
  6
CONTINUOUS
 62
     7
 10
128.22637456800001
 20
-188.6999999999999
 30
0.0
 40
3.1999999999999882
 50
270.0
 51
0.0
  0
LINE
  5
237
  8
DATA
  6
CONTINUOUS
 62
     7
 10
99.189933088000089
 20
-37.343469877999922
 30
0.0
 11
128.22637456800001
 21
-31.29999999999993
 31
0.0
  0
LINE
  5
238
  8
DATA
  6
CONTINUOUS
 62
     7
 10
131.426374568
 20
-56.281681652999929
 30
0.0
 11
131.426374568
 21
-31.29999999999993
 31
0.0
  0
LINE
  5
239
  8
DATA
  6
CONTINUOUS
 62
     7
 10
131.426374568
 20
-188.6999999999999
 30
0.0
 11
131.426374568
 21
-95.257096922999949
 31
0.0
  0
LINE
  5
23A
  8
DATA
  6
CONTINUOUS
 62
     7
 10
94.876374568000074
 20
-28.09999999999993
 30
0.0
 11
94.876374568000074
 21
-31.29999999999993
 31
0.0
  0
LINE
  5
23B
  8
DATA
  6
CONTINUOUS
 62
     7
 10
131.426374568
 20
-31.29999999999993
 30
0.0
 11
94.876374568000074
 21
-31.29999999999993
 31
0.0
  0
LINE
  5
23C
  8
DATA
  6
CONTINUOUS
 62
     7
 10
128.22637456800001
 20
-28.09999999999993
 30
0.0
 11
94.876374568000074
 21
-28.09999999999993
 31
0.0
  0
LINE
  5
23D
  8
DATA
  6
CONTINUOUS
 62
     7
 10
94.876374568000074
 20
-188.6999999999999
 30
0.0
 11
94.876374568000074
 21
-191.90000000000001
 31
0.0
  0
LINE
  5
23E
  8
DATA
  6
CONTINUOUS
 62
     7
 10
131.426374568
 20
-188.6999999999999
 30
0.0
 11
94.876374568000074
 21
-188.6999999999999
 31
0.0
  0
LINE
  5
23F
  8
DATA
  6
CONTINUOUS
 62
     7
 10
128.22637456800001
 20
-191.90000000000001
 30
0.0
 11
94.876374568000074
 21
-191.90000000000001
 31
0.0
  0
LINE
  5
240
  8
DATA
  6
CONTINUOUS
 62
     7
 10
-175.0
 20
200.0
 30
0.0
 11
-175.0
 21
203.60000000000011
 31
0.0
  0
LINE
  5
241
  8
DATA
  6
CONTINUOUS
 62
     7
 10
-75.000000000000014
 20
200.0
 30
0.0
 11
-75.000000000000014
 21
203.60000000000011
 31
0.0
  0
LINE
  5
242
  8
DATA
  6
CONTINUOUS
 62
     7
 10
-175.0
 20
201.60000000000011
 30
0.0
 11
-75.000000000000014
 21
201.60000000000011
 31
0.0
  0
LINE
  5
243
  8
DATA
  6
CONTINUOUS
 62
     7
 10
-175.0
 20
200.0
 30
0.0
 11
-75.000000000000014
 21
200.0
 31
0.0
  0
ARC
  5
244
  8
DATA
  6
CONTINUOUS
 62
     7
 10
-106.0
 20
205.60000000000011
 30
0.0
 40
4.0
 50
180.0
 51
270.0
  0
LINE
  5
245
  8
DATA
  6
CONTINUOUS
 62
     7
 10
-106.0
 20
203.60000000000011
 30
0.0
 11
-75.000000000000014
 21
203.60000000000011
 31
0.0
  0
ARC
  5
246
  8
DATA
  6
CONTINUOUS
 62
     7
 10
-106.0
 20
205.60000000000011
 30
0.0
 40
2.0
 50
180.0
 51
270.0
  0
LINE
  5
247
  8
DATA
  6
CONTINUOUS
 62
     7
 10
-144.0
 20
203.60000000000011
 30
0.0
 11
-175.0
 21
203.60000000000011
 31
0.0
  0
ARC
  5
248
  8
DATA
  6
CONTINUOUS
 62
     7
 10
-144.0
 20
205.60000000000011
 30
0.0
 40
2.0
 50
270.0
 51
0.0
  0
ARC
  5
249
  8
DATA
  6
CONTINUOUS
 62
     7
 10
-144.0
 20
205.60000000000011
 30
0.0
 40
4.0
 50
270.0
 51
0.0
  0
LINE
  5
24A
  8
DATA
  6
CONTINUOUS
 62
     7
 10
-142.0
 20
205.60000000000011
 30
0.0
 11
-142.0
 21
267.76806243599998
 31
0.0
  0
LINE
  5
24B
  8
DATA
  6
CONTINUOUS
 62
     7
 10
-140.0
 20
205.60000000000011
 30
0.0
 11
-140.0
 21
266.46833493999998
 31
0.0
  0
LINE
  5
24C
  8
DATA
  6
CONTINUOUS
 62
     7
 10
-110.0
 20
205.60000000000011
 30
0.0
 11
-110.0
 21
266.46833493999998
 31
0.0
  0
LINE
  5
24D
  8
DATA
  6
CONTINUOUS
 62
     7
 10
-108.0
 20
205.60000000000011
 30
0.0
 11
-108.0
 21
267.76806243599998
 31
0.0
  0
LINE
  5
24E
  8
DATA
  6
CONTINUOUS
 62
     7
 10
-197.5
 20
352.62637456800002
 30
0.0
 11
-52.500000000000021
 21
352.62637456800002
 31
0.0
  0
LINE
  5
24F
  8
DATA
  6
CONTINUOUS
 62
     7
 10
-197.5
 20
354.62637456800002
 30
0.0
 11
-52.500000000000021
 21
354.62637456800002
 31
0.0
  0
LINE
  5
250
  8
DATA
  6
CONTINUOUS
 62
     7
 10
-86.413349640999982
 20
343.28273626700002
 30
0.0
 11
-87.097389927000009
 21
345.16212150900009
 31
0.0
  0
LINE
  5
251
  8
DATA
  6
CONTINUOUS
 62
     7
 10
-87.097389927000009
 20
345.16212150900009
 30
0.0
 11
-76.044223586000001
 21
349.18514505100012
 31
0.0
  0
ARC
  5
252
  8
DATA
  6
CONTINUOUS
 62
     7
 10
-74.67614301299993
 20
345.42637456800003
 30
0.0
 40
4.0
 50
90.0
 51
110.0000000000004
  0
LINE
  5
253
  8
DATA
  6
CONTINUOUS
 62
     7
 10
-74.676143012999972
 20
349.42637456800003
 30
0.0
 11
-52.500000000000021
 21
349.42637456800003
 31
0.0
  0
LINE
  5
254
  8
DATA
  6
CONTINUOUS
 62
     7
 10
-72.000000000000014
 20
352.52637456799988
 30
0.0
 11
-72.000000000000014
 21
349.42637456800003
 31
0.0
  0
LINE
  5
255
  8
DATA
  6
CONTINUOUS
 62
     7
 10
-197.5
 20
354.62637456800002
 30
0.0
 11
-197.5
 21
347.42637456800003
 31
0.0
  0
LINE
  5
256
  8
DATA
  6
CONTINUOUS
 62
     7
 10
-163.58665035999991
 20
343.28273626700002
 30
0.0
 11
-162.90261007299989
 21
345.16212150900009
 31
0.0
  0
LINE
  5
257
  8
DATA
  6
CONTINUOUS
 62
     7
 10
-163.58665035999991
 20
343.28273626700002
 30
0.0
 11
-174.63981670099989
 21
347.30575980999993
 31
0.0
  0
LINE
  5
258
  8
DATA
  6
CONTINUOUS
 62
     7
 10
-175.32385698799979
 20
347.42637456800003
 30
0.0
 11
-197.5
 21
347.42637456800003
 31
0.0
  0
ARC
  5
259
  8
DATA
  6
CONTINUOUS
 62
     7
 10
-175.32385698799979
 20
345.42637456800003
 30
0.0
 40
1.99999999999994
 50
69.999999999999346
 51
90.0
  0
LINE
  5
25A
  8
DATA
  6
CONTINUOUS
 62
     7
 10
-162.90261007299989
 20
345.16212150900009
 30
0.0
 11
-173.9557764139999
 21
349.18514505100012
 31
0.0
  0
ARC
  5
25B
  8
DATA
  6
CONTINUOUS
 62
     7
 10
-175.32385698799979
 20
345.42637456800003
 30
0.0
 40
3.999999999999881
 50
69.999999999999346
 51
90.0
  0
LINE
  5
25C
  8
DATA
  6
CONTINUOUS
 62
     7
 10
-175.32385698799979
 20
349.42637456800003
 30
0.0
 11
-197.5
 21
349.42637456800003
 31
0.0
  0
LINE
  5
25D
  8
DATA
  6
CONTINUOUS
 62
     7
 10
-178.0
 20
352.52637456799988
 30
0.0
 11
-178.0
 21
349.42637456800003
 31
0.0
  0
LINE
  5
25E
  8
DATA
  6
CONTINUOUS
 62
     7
 10
-86.413349640999982
 20
343.28273626700002
 30
0.0
 11
-75.360188063999942
 21
347.30575807600007
 31
0.0
  0
ARC
  5
25F
  8
DATA
  6
CONTINUOUS
 62
     7
 10
-74.67614301299993
 20
345.42637456800003
 30
0.0
 40
2.0
 50
90.000154549999976
 51
110.0001452290015
  0
LINE
  5
260
  8
DATA
  6
CONTINUOUS
 62
     7
 10
-74.676148407999975
 20
347.42637456800003
 30
0.0
 11
-52.500000000000021
 21
347.42637456800003
 31
0.0
  0
LINE
  5
261
  8
DATA
  6
CONTINUOUS
 62
     7
 10
-86.413349640999982
 20
343.28273626700002
 30
0.0
 11
-91.398673927000004
 21
343.28273626700002
 31
0.0
  0
LINE
  5
262
  8
DATA
  6
CONTINUOUS
 62
     7
 10
-87.097389927000009
 20
345.16212150900009
 30
0.0
 11
-90.990729392000006
 21
345.16212150900009
 31
0.0
  0
LINE
  5
263
  8
DATA
  6
CONTINUOUS
 62
     7
 10
-74.676143012999972
 20
349.42637456800003
 30
0.0
 11
-90.065118882999997
 21
349.42637456800003
 31
0.0
  0
LINE
  5
264
  8
DATA
  6
CONTINUOUS
 62
     7
 10
-163.58665035999991
 20
343.28273626700002
 30
0.0
 11
-158.60132607399979
 21
343.28273626700002
 31
0.0
  0
LINE
  5
265
  8
DATA
  6
CONTINUOUS
 62
     7
 10
-162.90261007299989
 20
345.16212150900009
 30
0.0
 11
-159.00927060899991
 21
345.16212150900009
 31
0.0
  0
LINE
  5
266
  8
DATA
  6
CONTINUOUS
 62
     7
 10
-175.32385698799979
 20
349.42637456800003
 30
0.0
 11
-159.93488111699989
 21
349.42637456800003
 31
0.0
  0
ARC
  5
267
  8
DATA
  6
CONTINUOUS
 62
     7
 10
-62.5
 20
331.14210358400021
 30
0.0
 40
10.0
 50
269.99999999999977
 51
0.0000299309999718
  0
POLYLINE
  5
268
  8
DATA
  6
CONTINUOUS
 62
     7
 66
     1
 10
0.0
 20
0.0
 30
0.0
 70
   129
  0
VERTEX
  5
89E
  8
DATA
  6
CONTINUOUS
 62
     7
 10
-84.750000000000014
 20
335.28423920799997
 30
0.0
  0
VERTEX
  5
89F
  8
DATA
  6
CONTINUOUS
 62
     7
 10
-84.750000000000014
 20
335.28423920799941
 30
0.0
 42
0.030828906999966
  0
VERTEX
  5
8A0
  8
DATA
  6
CONTINUOUS
 62
     7
 10
-84.711946980999969
 20
334.66795504100003
 30
0.0
  0
VERTEX
  5
8A1
  8
DATA
  6
CONTINUOUS
 62
     7
 10
-84.711946980999969
 20
334.66795504100003
 30
0.0
  0
VERTEX
  5
8A2
  8
DATA
  6
CONTINUOUS
 62
     7
 10
-84.711946980999969
 20
334.66795504100003
 30
0.0
 42
0.0304257970000302
  0
VERTEX
  5
8A3
  8
DATA
  6
CONTINUOUS
 62
     7
 10
-84.598077530000026
 20
334.05636116800002
 30
0.0
  0
VERTEX
  5
8A4
  8
DATA
  6
CONTINUOUS
 62
     7
 10
-84.598077530000026
 20
334.05636116800002
 30
0.0
  0
VERTEX
  5
8A5
  8
DATA
  6
CONTINUOUS
 62
     7
 10
-84.59807752999987
 20
334.0563611679994
 30
0.0
 42
0.029607755999952
  0
VERTEX
  5
8A6
  8
DATA
  6
CONTINUOUS
 62
     7
 10
-84.409258262999984
 20
333.454112189
 30
0.0
  0
VERTEX
  5
8A7
  8
DATA
  6
CONTINUOUS
 62
     7
 10
-84.409258262999984
 20
333.454112189
 30
0.0
  0
VERTEX
  5
8A8
  8
DATA
  6
CONTINUOUS
 62
     7
 10
-84.409258262999984
 20
333.454112189
 30
0.0
 42
0.028462655000006
  0
VERTEX
  5
8A9
  8
DATA
  6
CONTINUOUS
 62
     7
 10
-84.146926207999982
 20
332.865791581
 30
0.0
  0
VERTEX
  5
8AA
  8
DATA
  6
CONTINUOUS
 62
     7
 10
-84.146926207999982
 20
332.865791581
 30
0.0
  0
VERTEX
  5
8AB
  8
DATA
  6
CONTINUOUS
 62
     7
 10
-84.146926207999456
 20
332.8657915809988
 30
0.0
 42
0.0270987799998704
  0
VERTEX
  5
8AC
  8
DATA
  6
CONTINUOUS
 62
     7
 10
-83.813077871000047
 20
332.29587681999988
 30
0.0
  0
VERTEX
  5
8AD
  8
DATA
  6
CONTINUOUS
 62
     7
 10
-83.813077871000047
 20
332.29587681999988
 30
0.0
  0
VERTEX
  5
8AE
  8
DATA
  6
CONTINUOUS
 62
     7
 10
-83.813077871000047
 20
332.29587681999988
 30
0.0
 42
0.0256239270000689
  0
VERTEX
  5
8AF
  8
DATA
  6
CONTINUOUS
 62
     7
 10
-83.410254037999977
 20
331.74870530200002
 30
0.0
  0
VERTEX
  5
8B0
  8
DATA
  6
CONTINUOUS
 62
     7
 10
-83.410254037999977
 20
331.74870530200002
 30
0.0
  0
VERTEX
  5
8B1
  8
DATA
  6
CONTINUOUS
 62
     7
 10
-83.410254037999977
 20
331.74870530200002
 30
0.0
 42
0.0241305730001225
  0
VERTEX
  5
8B2
  8
DATA
  6
CONTINUOUS
 62
     7
 10
-82.941520442999959
 20
331.228441331
 30
0.0
  0
VERTEX
  5
8B3
  8
DATA
  6
CONTINUOUS
 62
     7
 10
-82.941520442999959
 20
331.228441331
 30
0.0
  0
VERTEX
  5
8B4
  8
DATA
  6
CONTINUOUS
 62
     7
 10
-82.941520442999959
 20
331.228441331
 30
0.0
 42
0.0226890190000229
  0
VERTEX
  5
8B5
  8
DATA
  6
CONTINUOUS
 62
     7
 10
-82.410444431999963
 20
330.73904443100002
 30
0.0
  0
VERTEX
  5
8B6
  8
DATA
  6
CONTINUOUS
 62
     7
 10
-82.410444431999963
 20
330.73904443100002
 30
0.0
  0
VERTEX
  5
8B7
  8
DATA
  6
CONTINUOUS
 62
     7
 10
-82.410444431998229
 20
330.73904443099838
 30
0.0
 42
0.0213470119998412
  0
VERTEX
  5
8B8
  8
DATA
  6
CONTINUOUS
 62
     7
 10
-81.821067811999995
 20
330.28423920799997
 30
0.0
  0
VERTEX
  5
8B9
  8
DATA
  6
CONTINUOUS
 62
     7
 10
-81.821067811999995
 20
330.28423920799997
 30
0.0
  0
VERTEX
  5
8BA
  8
DATA
  6
CONTINUOUS
 62
     7
 10
-81.821067811999384
 20
330.28423920799941
 30
0.0
 42
0.0201331389999283
  0
VERTEX
  5
8BB
  8
DATA
  6
CONTINUOUS
 62
     7
 10
-81.177876096999995
 20
329.86748700399988
 30
0.0
  0
VERTEX
  5
8BC
  8
DATA
  6
CONTINUOUS
 62
     7
 10
-81.177876096999995
 20
329.86748700399988
 30
0.0
  0
VERTEX
  5
8BD
  8
DATA
  6
CONTINUOUS
 62
     7
 10
-81.177876096999995
 20
329.86748700399988
 30
0.0
 42
0.0190615840000721
  0
VERTEX
  5
8BE
  8
DATA
  6
CONTINUOUS
 62
     7
 10
-80.485764363999991
 20
329.491959554
 30
0.0
  0
VERTEX
  5
8BF
  8
DATA
  6
CONTINUOUS
 62
     7
 10
-80.485764363999991
 20
329.491959554
 30
0.0
  0
VERTEX
  5
8C0
  8
DATA
  6
CONTINUOUS
 62
     7
 10
-80.485764363999991
 20
329.491959554
 30
0.0
 42
0.0181367480001051
  0
VERTEX
  5
8C1
  8
DATA
  6
CONTINUOUS
 62
     7
 10
-79.750000000000014
 20
329.1605148509999
 30
0.0
  0
VERTEX
  5
8C2
  8
DATA
  6
CONTINUOUS
 62
     7
 10
-79.750000000000014
 20
329.1605148509999
 30
0.0
  0
VERTEX
  5
8C3
  8
DATA
  6
CONTINUOUS
 62
     7
 10
-79.750000000000014
 20
329.1605148509999
 30
0.0
 42
0.0173570479999848
  0
VERTEX
  5
8C4
  8
DATA
  6
CONTINUOUS
 62
     7
 10
-78.976182617999953
 20
328.875675387
 30
0.0
  0
VERTEX
  5
8C5
  8
DATA
  6
CONTINUOUS
 62
     7
 10
-78.976182617999953
 20
328.875675387
 30
0.0
  0
VERTEX
  5
8C6
  8
DATA
  6
CONTINUOUS
 62
     7
 10
-78.976182617999953
 20
328.875675387
 30
0.0
 42
0.0167177380000739
  0
VERTEX
  5
8C7
  8
DATA
  6
CONTINUOUS
 62
     7
 10
-78.170201433999992
 20
328.63960896399999
 30
0.0
  0
VERTEX
  5
8C8
  8
DATA
  6
CONTINUOUS
 62
     7
 10
-78.170201433999992
 20
328.63960896399999
 30
0.0
  0
VERTEX
  5
8C9
  8
DATA
  6
CONTINUOUS
 62
     7
 10
-78.170201433999992
 20
328.63960896399999
 30
0.0
 42
0.0162128690000537
  0
VERTEX
  5
8CA
  8
DATA
  6
CONTINUOUS
 62
     7
 10
-77.338190451000017
 20
328.45411218899989
 30
0.0
  0
VERTEX
  5
8CB
  8
DATA
  6
CONTINUOUS
 62
     7
 10
-77.338190451000017
 20
328.45411218899989
 30
0.0
  0
VERTEX
  5
8CC
  8
DATA
  6
CONTINUOUS
 62
     7
 10
-77.338190450998596
 20
328.45411218899972
 30
0.0
 42
0.0158365749999411
  0
VERTEX
  5
8CD
  8
DATA
  6
CONTINUOUS
 62
     7
 10
-76.486481777000023
 20
328.32059680499992
 30
0.0
  0
VERTEX
  5
8CE
  8
DATA
  6
CONTINUOUS
 62
     7
 10
-76.486481777000023
 20
328.32059680499992
 30
0.0
  0
VERTEX
  5
8CF
  8
DATA
  6
CONTINUOUS
 62
     7
 10
-76.486481776998673
 20
328.32059680499981
 30
0.0
 42
0.0155838789999237
  0
VERTEX
  5
8D0
  8
DATA
  6
CONTINUOUS
 62
     7
 10
-75.621557427999974
 20
328.240078944
 30
0.0
  0
VERTEX
  5
8D1
  8
DATA
  6
CONTINUOUS
 62
     7
 10
-75.621557427999974
 20
328.240078944
 30
0.0
  0
VERTEX
  5
8D2
  8
DATA
  6
CONTINUOUS
 62
     7
 10
-75.621557427999974
 20
328.240078944
 30
0.0
 42
0.015451170000037
  0
VERTEX
  5
8D3
  8
DATA
  6
CONTINUOUS
 62
     7
 10
-74.750000000000014
 20
328.21317139600001
 30
0.0
  0
VERTEX
  5
8D4
  8
DATA
  6
CONTINUOUS
 62
     7
 10
-74.750000000000014
 20
328.21317139600001
 30
0.0
  0
VERTEX
  5
8D5
  8
DATA
  6
CONTINUOUS
 62
     7
 10
-74.750000000000014
 20
328.21317139600001
 30
0.0
 42
0.0154364710000497
  0
VERTEX
  5
8D6
  8
DATA
  6
CONTINUOUS
 62
     7
 10
-73.878442572999987
 20
328.240078944
 30
0.0
  0
VERTEX
  5
8D7
  8
DATA
  6
CONTINUOUS
 62
     7
 10
-73.878442572999987
 20
328.240078944
 30
0.0
  0
VERTEX
  5
8D8
  8
DATA
  6
CONTINUOUS
 62
     7
 10
-73.878442572996192
 20
328.24007894400017
 30
0.0
 42
0.0155395599998771
  0
VERTEX
  5
8D9
  8
DATA
  6
CONTINUOUS
 62
     7
 10
-73.013518223999952
 20
328.32059680499992
 30
0.0
  0
VERTEX
  5
8DA
  8
DATA
  6
CONTINUOUS
 62
     7
 10
-73.013518223999952
 20
328.32059680499992
 30
0.0
  0
VERTEX
  5
8DB
  8
DATA
  6
CONTINUOUS
 62
     7
 10
-73.013518223999952
 20
328.32059680499992
 30
0.0
 42
0.0157619810000089
  0
VERTEX
  5
8DC
  8
DATA
  6
CONTINUOUS
 62
     7
 10
-72.161809548999955
 20
328.45411218899989
 30
0.0
  0
VERTEX
  5
8DD
  8
DATA
  6
CONTINUOUS
 62
     7
 10
-72.161809548999955
 20
328.45411218899989
 30
0.0
  0
VERTEX
  5
8DE
  8
DATA
  6
CONTINUOUS
 62
     7
 10
-72.161809548999955
 20
328.45411218899989
 30
0.0
 42
0.0161069560000116
  0
VERTEX
  5
8DF
  8
DATA
  6
CONTINUOUS
 62
     7
 10
-71.329798566999955
 20
328.63960896399999
 30
0.0
  0
VERTEX
  5
8E0
  8
DATA
  6
CONTINUOUS
 62
     7
 10
-71.329798566999955
 20
328.63960896399999
 30
0.0
  0
VERTEX
  5
8E1
  8
DATA
  6
CONTINUOUS
 62
     7
 10
-71.329798566998193
 20
328.6396089640005
 30
0.0
 42
0.016579154999985
  0
VERTEX
  5
8E2
  8
DATA
  6
CONTINUOUS
 62
     7
 10
-70.523817383000008
 20
328.875675387
 30
0.0
  0
VERTEX
  5
8E3
  8
DATA
  6
CONTINUOUS
 62
     7
 10
-70.523817383000008
 20
328.875675387
 30
0.0
  0
VERTEX
  5
8E4
  8
DATA
  6
CONTINUOUS
 62
     7
 10
-70.523817382998473
 20
328.87567538700051
 30
0.0
 42
0.0171842829999501
  0
VERTEX
  5
8E5
  8
DATA
  6
CONTINUOUS
 62
     7
 10
-69.750000000000014
 20
329.1605148509999
 30
0.0
  0
VERTEX
  5
8E6
  8
DATA
  6
CONTINUOUS
 62
     7
 10
-69.750000000000014
 20
329.1605148509999
 30
0.0
  0
VERTEX
  5
8E7
  8
DATA
  6
CONTINUOUS
 62
     7
 10
-69.750000000000014
 20
329.1605148509999
 30
0.0
 42
0.017928366000043
  0
VERTEX
  5
8E8
  8
DATA
  6
CONTINUOUS
 62
     7
 10
-69.01423563699997
 20
329.491959554
 30
0.0
  0
VERTEX
  5
8E9
  8
DATA
  6
CONTINUOUS
 62
     7
 10
-69.01423563699997
 20
329.491959554
 30
0.0
  0
VERTEX
  5
8EA
  8
DATA
  6
CONTINUOUS
 62
     7
 10
-69.01423563699997
 20
329.491959554
 30
0.0
 42
0.0188166050000671
  0
VERTEX
  5
8EB
  8
DATA
  6
CONTINUOUS
 62
     7
 10
-68.322123902999991
 20
329.86748700399988
 30
0.0
  0
VERTEX
  5
8EC
  8
DATA
  6
CONTINUOUS
 62
     7
 10
-68.322123902999991
 20
329.86748700399988
 30
0.0
  0
VERTEX
  5
8ED
  8
DATA
  6
CONTINUOUS
 62
     7
 10
-68.322123902999337
 20
329.86748700400028
 30
0.0
 42
0.0198516009999829
  0
VERTEX
  5
8EE
  8
DATA
  6
CONTINUOUS
 62
     7
 10
-67.67893218799999
 20
330.28423920799997
 30
0.0
  0
VERTEX
  5
8EF
  8
DATA
  6
CONTINUOUS
 62
     7
 10
-67.67893218799999
 20
330.28423920799997
 30
0.0
  0
VERTEX
  5
8F0
  8
DATA
  6
CONTINUOUS
 62
     7
 10
-67.678932187999351
 20
330.28423920800037
 30
0.0
 42
0.0210307679999649
  0
VERTEX
  5
8F1
  8
DATA
  6
CONTINUOUS
 62
     7
 10
-67.089555568999984
 20
330.73904443100002
 30
0.0
  0
VERTEX
  5
8F2
  8
DATA
  6
CONTINUOUS
 62
     7
 10
-67.089555568999984
 20
330.73904443100002
 30
0.0
  0
VERTEX
  5
8F3
  8
DATA
  6
CONTINUOUS
 62
     7
 10
-67.089555568997554
 20
330.73904443100201
 30
0.0
 42
0.0223427749999266
  0
VERTEX
  5
8F4
  8
DATA
  6
CONTINUOUS
 62
     7
 10
-66.558479557000013
 20
331.228441331
 30
0.0
  0
VERTEX
  5
8F5
  8
DATA
  6
CONTINUOUS
 62
     7
 10
-66.558479557000013
 20
331.228441331
 30
0.0
  0
VERTEX
  5
8F6
  8
DATA
  6
CONTINUOUS
 62
     7
 10
-66.558479556999885
 20
331.22844133100023
 30
0.0
 42
0.0237630949999343
  0
VERTEX
  5
8F7
  8
DATA
  6
CONTINUOUS
 62
     7
 10
-66.089745962999999
 20
331.74870530200002
 30
0.0
  0
VERTEX
  5
8F8
  8
DATA
  6
CONTINUOUS
 62
     7
 10
-66.089745962999999
 20
331.74870530200002
 30
0.0
  0
VERTEX
  5
8F9
  8
DATA
  6
CONTINUOUS
 62
     7
 10
-66.089745962999999
 20
331.74870530200002
 30
0.0
 42
0.0252491760000216
  0
VERTEX
  5
8FA
  8
DATA
  6
CONTINUOUS
 62
     7
 10
-65.686922130000042
 20
332.29587681999988
 30
0.0
  0
VERTEX
  5
8FB
  8
DATA
  6
CONTINUOUS
 62
     7
 10
-65.686922130000042
 20
332.29587681999988
 30
0.0
  0
VERTEX
  5
8FC
  8
DATA
  6
CONTINUOUS
 62
     7
 10
-65.686922129999928
 20
332.29587681999999
 30
0.0
 42
0.0267365169999546
  0
VERTEX
  5
8FD
  8
DATA
  6
CONTINUOUS
 62
     7
 10
-65.353073791999975
 20
332.865791581
 30
0.0
  0
VERTEX
  5
8FE
  8
DATA
  6
CONTINUOUS
 62
     7
 10
-65.353073791999975
 20
332.865791581
 30
0.0
  0
VERTEX
  5
8FF
  8
DATA
  6
CONTINUOUS
 62
     7
 10
-65.35307379199962
 20
332.86579158100062
 30
0.0
 42
0.0281378349999777
  0
VERTEX
  5
900
  8
DATA
  6
CONTINUOUS
 62
     7
 10
-65.090741736999988
 20
333.454112189
 30
0.0
  0
VERTEX
  5
901
  8
DATA
  6
CONTINUOUS
 62
     7
 10
-65.090741736999988
 20
333.454112189
 30
0.0
  0
VERTEX
  5
902
  8
DATA
  6
CONTINUOUS
 62
     7
 10
-65.090741736999988
 20
333.454112189
 30
0.0
 42
0.0293480880000066
  0
VERTEX
  5
903
  8
DATA
  6
CONTINUOUS
 62
     7
 10
-64.901922470000002
 20
334.05636116800002
 30
0.0
  0
VERTEX
  5
904
  8
DATA
  6
CONTINUOUS
 62
     7
 10
-64.901922470000002
 20
334.05636116800002
 30
0.0
  0
VERTEX
  5
905
  8
DATA
  6
CONTINUOUS
 62
     7
 10
-64.901922469999874
 20
334.05636116800042
 30
0.0
 42
0.0302573149999578
  0
VERTEX
  5
906
  8
DATA
  6
CONTINUOUS
 62
     7
 10
-64.788053018999975
 20
334.66795504100003
 30
0.0
  0
VERTEX
  5
907
  8
DATA
  6
CONTINUOUS
 62
     7
 10
-64.788053018999975
 20
334.66795504100003
 30
0.0
  0
VERTEX
  5
908
  8
DATA
  6
CONTINUOUS
 62
     7
 10
-64.788053018999975
 20
334.66795504100003
 30
0.0
 42
0.0307704460000028
  0
VERTEX
  5
909
  8
DATA
  6
CONTINUOUS
 62
     7
 10
-64.750000000000014
 20
335.28423920799997
 30
0.0
  0
VERTEX
  5
90A
  8
DATA
  6
CONTINUOUS
 62
     7
 10
-64.750000000000014
 20
335.28423920799997
 30
0.0
  0
VERTEX
  5
90B
  8
DATA
  6
CONTINUOUS
 62
     7
 10
-64.750000000000014
 20
335.28423920800009
 30
0.0
 42
0.0308289070000099
  0
VERTEX
  5
90C
  8
DATA
  6
CONTINUOUS
 62
     7
 10
-64.788053018999975
 20
335.90052337500009
 30
0.0
  0
VERTEX
  5
90D
  8
DATA
  6
CONTINUOUS
 62
     7
 10
-64.788053018999975
 20
335.90052337500009
 30
0.0
  0
VERTEX
  5
90E
  8
DATA
  6
CONTINUOUS
 62
     7
 10
-64.788053018999975
 20
335.9005233750002
 30
0.0
 42
0.030425796999991
  0
VERTEX
  5
90F
  8
DATA
  6
CONTINUOUS
 62
     7
 10
-64.901922470000002
 20
336.51211724700011
 30
0.0
  0
VERTEX
  5
910
  8
DATA
  6
CONTINUOUS
 62
     7
 10
-64.901922470000002
 20
336.51211724700011
 30
0.0
  0
VERTEX
  5
911
  8
DATA
  6
CONTINUOUS
 62
     7
 10
-64.901922470000201
 20
336.5121172470009
 30
0.0
 42
0.0296077559999538
  0
VERTEX
  5
912
  8
DATA
  6
CONTINUOUS
 62
     7
 10
-65.090741736999988
 20
337.11436622699989
 30
0.0
  0
VERTEX
  5
913
  8
DATA
  6
CONTINUOUS
 62
     7
 10
-65.090741736999988
 20
337.11436622699989
 30
0.0
  0
VERTEX
  5
914
  8
DATA
  6
CONTINUOUS
 62
     7
 10
-65.0907417370003
 20
337.11436622700069
 30
0.0
 42
0.0284626549999422
  0
VERTEX
  5
915
  8
DATA
  6
CONTINUOUS
 62
     7
 10
-65.353073791999975
 20
337.70268683400008
 30
0.0
  0
VERTEX
  5
916
  8
DATA
  6
CONTINUOUS
 62
     7
 10
-65.353073791999975
 20
337.70268683400008
 30
0.0
  0
VERTEX
  5
917
  8
DATA
  6
CONTINUOUS
 62
     7
 10
-65.353073792000046
 20
337.70268683400019
 30
0.0
 42
0.02709877999995
  0
VERTEX
  5
918
  8
DATA
  6
CONTINUOUS
 62
     7
 10
-65.686922130000042
 20
338.27260159500003
 30
0.0
  0
VERTEX
  5
919
  8
DATA
  6
CONTINUOUS
 62
     7
 10
-65.686922130000042
 20
338.27260159500003
 30
0.0
  0
VERTEX
  5
91A
  8
DATA
  6
CONTINUOUS
 62
     7
 10
-65.68692213000044
 20
338.27260159500048
 30
0.0
 42
0.0256239269999885
  0
VERTEX
  5
91B
  8
DATA
  6
CONTINUOUS
 62
     7
 10
-66.089745962999999
 20
338.81977311400021
 30
0.0
  0
VERTEX
  5
91C
  8
DATA
  6
CONTINUOUS
 62
     7
 10
-66.089745962999999
 20
338.81977311400021
 30
0.0
  0
VERTEX
  5
91D
  8
DATA
  6
CONTINUOUS
 62
     7
 10
-66.089745963000567
 20
338.81977311400078
 30
0.0
 42
0.0241305729999522
  0
VERTEX
  5
91E
  8
DATA
  6
CONTINUOUS
 62
     7
 10
-66.558479557000013
 20
339.34003708400002
 30
0.0
  0
VERTEX
  5
91F
  8
DATA
  6
CONTINUOUS
 62
     7
 10
-66.558479557000013
 20
339.34003708400002
 30
0.0
  0
VERTEX
  5
920
  8
DATA
  6
CONTINUOUS
 62
     7
 10
-66.558479557000013
 20
339.34003708400002
 30
0.0
 42
0.0226890190000597
  0
VERTEX
  5
921
  8
DATA
  6
CONTINUOUS
 62
     7
 10
-67.089555568999984
 20
339.82943398400022
 30
0.0
  0
VERTEX
  5
922
  8
DATA
  6
CONTINUOUS
 62
     7
 10
-67.089555568999984
 20
339.82943398400022
 30
0.0
  0
VERTEX
  5
923
  8
DATA
  6
CONTINUOUS
 62
     7
 10
-67.089555569000254
 20
339.82943398400027
 30
0.0
 42
0.0213470119999672
  0
VERTEX
  5
924
  8
DATA
  6
CONTINUOUS
 62
     7
 10
-67.67893218799999
 20
340.28423920799997
 30
0.0
  0
VERTEX
  5
925
  8
DATA
  6
CONTINUOUS
 62
     7
 10
-67.67893218799999
 20
340.28423920799997
 30
0.0
  0
VERTEX
  5
926
  8
DATA
  6
CONTINUOUS
 62
     7
 10
-67.67893218799999
 20
340.28423920799997
 30
0.0
 42
0.0201331390002283
  0
VERTEX
  5
927
  8
DATA
  6
CONTINUOUS
 62
     7
 10
-68.322123902999991
 20
340.70099141199989
 30
0.0
  0
VERTEX
  5
928
  8
DATA
  6
CONTINUOUS
 62
     7
 10
-68.322123902999991
 20
340.70099141199989
 30
0.0
  0
VERTEX
  5
929
  8
DATA
  6
CONTINUOUS
 62
     7
 10
-68.322123903000474
 20
340.70099141200018
 30
0.0
 42
0.019061583999962
  0
VERTEX
  5
92A
  8
DATA
  6
CONTINUOUS
 62
     7
 10
-69.01423563699997
 20
341.07651886100001
 30
0.0
  0
VERTEX
  5
92B
  8
DATA
  6
CONTINUOUS
 62
     7
 10
-69.01423563699997
 20
341.07651886100001
 30
0.0
  0
VERTEX
  5
92C
  8
DATA
  6
CONTINUOUS
 62
     7
 10
-69.01423563699997
 20
341.07651886100001
 30
0.0
 42
0.0181367480000606
  0
VERTEX
  5
92D
  8
DATA
  6
CONTINUOUS
 62
     7
 10
-69.750000000000014
 20
341.4079635650001
 30
0.0
  0
VERTEX
  5
92E
  8
DATA
  6
CONTINUOUS
 62
     7
 10
-69.750000000000014
 20
341.4079635650001
 30
0.0
  0
VERTEX
  5
92F
  8
DATA
  6
CONTINUOUS
 62
     7
 10
-69.750000000000014
 20
341.4079635650001
 30
0.0
 42
0.0173570480000204
  0
VERTEX
  5
930
  8
DATA
  6
CONTINUOUS
 62
     7
 10
-70.523817383000008
 20
341.69280302799979
 30
0.0
  0
VERTEX
  5
931
  8
DATA
  6
CONTINUOUS
 62
     7
 10
-70.523817383000008
 20
341.69280302799979
 30
0.0
  0
VERTEX
  5
932
  8
DATA
  6
CONTINUOUS
 62
     7
 10
-70.523817383000008
 20
341.69280302799979
 30
0.0
 42
0.0167177380000697
  0
VERTEX
  5
933
  8
DATA
  6
CONTINUOUS
 62
     7
 10
-71.329798566999955
 20
341.9288694519999
 30
0.0
  0
VERTEX
  5
934
  8
DATA
  6
CONTINUOUS
 62
     7
 10
-71.329798566999955
 20
341.9288694519999
 30
0.0
  0
VERTEX
  5
935
  8
DATA
  6
CONTINUOUS
 62
     7
 10
-71.329798566999955
 20
341.9288694519999
 30
0.0
 42
0.0162128690001536
  0
VERTEX
  5
936
  8
DATA
  6
CONTINUOUS
 62
     7
 10
-72.161809548999955
 20
342.11436622699989
 30
0.0
  0
VERTEX
  5
937
  8
DATA
  6
CONTINUOUS
 62
     7
 10
-72.161809548999955
 20
342.11436622699989
 30
0.0
  0
VERTEX
  5
938
  8
DATA
  6
CONTINUOUS
 62
     7
 10
-72.161809548999955
 20
342.11436622699989
 30
0.0
 42
0.0158365750000424
  0
VERTEX
  5
939
  8
DATA
  6
CONTINUOUS
 62
     7
 10
-73.013518223999952
 20
342.24788161100003
 30
0.0
  0
VERTEX
  5
93A
  8
DATA
  6
CONTINUOUS
 62
     7
 10
-73.013518223999952
 20
342.24788161100003
 30
0.0
  0
VERTEX
  5
93B
  8
DATA
  6
CONTINUOUS
 62
     7
 10
-73.013518223999952
 20
342.24788161100003
 30
0.0
 42
0.0155838790000565
  0
VERTEX
  5
93C
  8
DATA
  6
CONTINUOUS
 62
     7
 10
-73.878442572999987
 20
342.328399472
 30
0.0
  0
VERTEX
  5
93D
  8
DATA
  6
CONTINUOUS
 62
     7
 10
-73.878442572999987
 20
342.328399472
 30
0.0
  0
VERTEX
  5
93E
  8
DATA
  6
CONTINUOUS
 62
     7
 10
-73.878442572999987
 20
342.328399472
 30
0.0
 42
0.0154511700000302
  0
VERTEX
  5
93F
  8
DATA
  6
CONTINUOUS
 62
     7
 10
-74.750000000000014
 20
342.35530702
 30
0.0
  0
VERTEX
  5
940
  8
DATA
  6
CONTINUOUS
 62
     7
 10
-74.750000000000014
 20
342.35530702
 30
0.0
  0
VERTEX
  5
941
  8
DATA
  6
CONTINUOUS
 62
     7
 10
-74.750000000000014
 20
342.35530702
 30
0.0
 42
0.0154364710000762
  0
VERTEX
  5
942
  8
DATA
  6
CONTINUOUS
 62
     7
 10
-75.621557427999974
 20
342.328399472
 30
0.0
  0
VERTEX
  5
943
  8
DATA
  6
CONTINUOUS
 62
     7
 10
-75.621557427999974
 20
342.328399472
 30
0.0
  0
VERTEX
  5
944
  8
DATA
  6
CONTINUOUS
 62
     7
 10
-75.621557427999974
 20
342.328399472
 30
0.0
 42
0.0155395600000005
  0
VERTEX
  5
945
  8
DATA
  6
CONTINUOUS
 62
     7
 10
-76.486481777000023
 20
342.24788161100003
 30
0.0
  0
VERTEX
  5
946
  8
DATA
  6
CONTINUOUS
 62
     7
 10
-76.486481777000023
 20
342.24788161100003
 30
0.0
  0
VERTEX
  5
947
  8
DATA
  6
CONTINUOUS
 62
     7
 10
-76.486481777000023
 20
342.24788161100003
 30
0.0
 42
0.0157619810000891
  0
VERTEX
  5
948
  8
DATA
  6
CONTINUOUS
 62
     7
 10
-77.338190451000017
 20
342.11436622699989
 30
0.0
  0
VERTEX
  5
949
  8
DATA
  6
CONTINUOUS
 62
     7
 10
-77.338190451000017
 20
342.11436622699989
 30
0.0
  0
VERTEX
  5
94A
  8
DATA
  6
CONTINUOUS
 62
     7
 10
-77.338190451000017
 20
342.11436622699989
 30
0.0
 42
0.0161069560000371
  0
VERTEX
  5
94B
  8
DATA
  6
CONTINUOUS
 62
     7
 10
-78.170201433999992
 20
341.9288694519999
 30
0.0
  0
VERTEX
  5
94C
  8
DATA
  6
CONTINUOUS
 62
     7
 10
-78.170201433999992
 20
341.9288694519999
 30
0.0
  0
VERTEX
  5
94D
  8
DATA
  6
CONTINUOUS
 62
     7
 10
-78.170201433999992
 20
341.9288694519999
 30
0.0
 42
0.0165791550001982
  0
VERTEX
  5
94E
  8
DATA
  6
CONTINUOUS
 62
     7
 10
-78.976182617999953
 20
341.69280302799979
 30
0.0
  0
VERTEX
  5
94F
  8
DATA
  6
CONTINUOUS
 62
     7
 10
-78.976182617999953
 20
341.69280302799979
 30
0.0
  0
VERTEX
  5
950
  8
DATA
  6
CONTINUOUS
 62
     7
 10
-78.97618261800099
 20
341.6928030279995
 30
0.0
 42
0.0171842829999671
  0
VERTEX
  5
951
  8
DATA
  6
CONTINUOUS
 62
     7
 10
-79.750000000000014
 20
341.4079635650001
 30
0.0
  0
VERTEX
  5
952
  8
DATA
  6
CONTINUOUS
 62
     7
 10
-79.750000000000014
 20
341.4079635650001
 30
0.0
  0
VERTEX
  5
953
  8
DATA
  6
CONTINUOUS
 62
     7
 10
-79.750000000005045
 20
341.407963564998
 30
0.0
 42
0.0179283659998469
  0
VERTEX
  5
954
  8
DATA
  6
CONTINUOUS
 62
     7
 10
-80.485764363999991
 20
341.07651886100001
 30
0.0
  0
VERTEX
  5
955
  8
DATA
  6
CONTINUOUS
 62
     7
 10
-80.485764363999991
 20
341.07651886100001
 30
0.0
  0
VERTEX
  5
956
  8
DATA
  6
CONTINUOUS
 62
     7
 10
-80.485764364001597
 20
341.07651886099927
 30
0.0
 42
0.0188166049999419
  0
VERTEX
  5
957
  8
DATA
  6
CONTINUOUS
 62
     7
 10
-81.177876096999995
 20
340.70099141199989
 30
0.0
  0
VERTEX
  5
958
  8
DATA
  6
CONTINUOUS
 62
     7
 10
-81.177876096999995
 20
340.70099141199989
 30
0.0
  0
VERTEX
  5
959
  8
DATA
  6
CONTINUOUS
 62
     7
 10
-81.177876097002198
 20
340.70099141199847
 30
0.0
 42
0.0198516009999332
  0
VERTEX
  5
95A
  8
DATA
  6
CONTINUOUS
 62
     7
 10
-81.821067811999995
 20
340.28423920799997
 30
0.0
  0
VERTEX
  5
95B
  8
DATA
  6
CONTINUOUS
 62
     7
 10
-81.821067811999995
 20
340.28423920799997
 30
0.0
  0
VERTEX
  5
95C
  8
DATA
  6
CONTINUOUS
 62
     7
 10
-81.821067812000976
 20
340.28423920799929
 30
0.0
 42
0.0210307679998968
  0
VERTEX
  5
95D
  8
DATA
  6
CONTINUOUS
 62
     7
 10
-82.410444431999963
 20
339.82943398400022
 30
0.0
  0
VERTEX
  5
95E
  8
DATA
  6
CONTINUOUS
 62
     7
 10
-82.410444431999963
 20
339.82943398400022
 30
0.0
  0
VERTEX
  5
95F
  8
DATA
  6
CONTINUOUS
 62
     7
 10
-82.410444432000375
 20
339.82943398399982
 30
0.0
 42
0.0223427749999456
  0
VERTEX
  5
960
  8
DATA
  6
CONTINUOUS
 62
     7
 10
-82.941520442999959
 20
339.34003708400002
 30
0.0
  0
VERTEX
  5
961
  8
DATA
  6
CONTINUOUS
 62
     7
 10
-82.941520442999959
 20
339.34003708400002
 30
0.0
  0
VERTEX
  5
962
  8
DATA
  6
CONTINUOUS
 62
     7
 10
-82.941520442999959
 20
339.34003708400002
 30
0.0
 42
0.0237630950000747
  0
VERTEX
  5
963
  8
DATA
  6
CONTINUOUS
 62
     7
 10
-83.410254037999977
 20
338.81977311400021
 30
0.0
  0
VERTEX
  5
964
  8
DATA
  6
CONTINUOUS
 62
     7
 10
-83.410254037999977
 20
338.81977311400021
 30
0.0
  0
VERTEX
  5
965
  8
DATA
  6
CONTINUOUS
 62
     7
 10
-83.410254038000531
 20
338.81977311399942
 30
0.0
 42
0.0252491759999345
  0
VERTEX
  5
966
  8
DATA
  6
CONTINUOUS
 62
     7
 10
-83.813077871000047
 20
338.27260159500003
 30
0.0
  0
VERTEX
  5
967
  8
DATA
  6
CONTINUOUS
 62
     7
 10
-83.813077871000047
 20
338.27260159500003
 30
0.0
  0
VERTEX
  5
968
  8
DATA
  6
CONTINUOUS
 62
     7
 10
-83.813077871000047
 20
338.27260159500003
 30
0.0
 42
0.0267365170000163
  0
VERTEX
  5
969
  8
DATA
  6
CONTINUOUS
 62
     7
 10
-84.146926207999982
 20
337.70268683400008
 30
0.0
  0
VERTEX
  5
96A
  8
DATA
  6
CONTINUOUS
 62
     7
 10
-84.146926207999982
 20
337.70268683400008
 30
0.0
  0
VERTEX
  5
96B
  8
DATA
  6
CONTINUOUS
 62
     7
 10
-84.146926207999982
 20
337.70268683400008
 30
0.0
 42
0.0281378349999916
  0
VERTEX
  5
96C
  8
DATA
  6
CONTINUOUS
 62
     7
 10
-84.409258262999984
 20
337.11436622699989
 30
0.0
  0
VERTEX
  5
96D
  8
DATA
  6
CONTINUOUS
 62
     7
 10
-84.409258262999984
 20
337.11436622699989
 30
0.0
  0
VERTEX
  5
96E
  8
DATA
  6
CONTINUOUS
 62
     7
 10
-84.409258263000225
 20
337.11436622699921
 30
0.0
 42
0.0293480879999317
  0
VERTEX
  5
96F
  8
DATA
  6
CONTINUOUS
 62
     7
 10
-84.598077530000026
 20
336.51211724700011
 30
0.0
  0
VERTEX
  5
970
  8
DATA
  6
CONTINUOUS
 62
     7
 10
-84.598077530000026
 20
336.51211724700011
 30
0.0
  0
VERTEX
  5
971
  8
DATA
  6
CONTINUOUS
 62
     7
 10
-84.598077530000026
 20
336.51211724700011
 30
0.0
 42
0.0302573149999824
  0
VERTEX
  5
972
  8
DATA
  6
CONTINUOUS
 62
     7
 10
-84.711946980999969
 20
335.90052337500009
 30
0.0
  0
VERTEX
  5
973
  8
DATA
  6
CONTINUOUS
 62
     7
 10
-84.711946980999969
 20
335.90052337500009
 30
0.0
  0
VERTEX
  5
974
  8
DATA
  6
CONTINUOUS
 62
     7
 10
-84.711946981000082
 20
335.90052337499952
 30
0.0
 42
0.0307704459999639
  0
VERTEX
  5
975
  8
DATA
  6
CONTINUOUS
 62
     7
 10
-84.750000000000014
 20
335.28423920799997
 30
0.0
  0
SEQEND
  5
976
  8
DATA
  6
CONTINUOUS
 62
     7
  0
POLYLINE
  5
342
  8
DATA
  6
CONTINUOUS
 62
     7
 66
     1
 10
0.0
 20
0.0
 30
0.0
 70
   128
  0
VERTEX
  5
977
  8
DATA
  6
CONTINUOUS
 62
     7
 10
-84.621170143999962
 20
336.41561005900007
 30
0.0
 42
0.0300536240000665
  0
VERTEX
  5
978
  8
DATA
  6
CONTINUOUS
 62
     7
 10
-84.442031278999934
 20
335.80564095
 30
0.0
  0
VERTEX
  5
979
  8
DATA
  6
CONTINUOUS
 62
     7
 10
-84.442031278999934
 20
335.80564095
 30
0.0
  0
VERTEX
  5
97A
  8
DATA
  6
CONTINUOUS
 62
     7
 10
-84.442031278999622
 20
335.8056409499992
 30
0.0
 42
0.0289290130000161
  0
VERTEX
  5
97B
  8
DATA
  6
CONTINUOUS
 62
     7
 10
-84.187661377999973
 20
335.20918838900002
 30
0.0
  0
VERTEX
  5
97C
  8
DATA
  6
CONTINUOUS
 62
     7
 10
-84.187661377999973
 20
335.20918838900002
 30
0.0
  0
VERTEX
  5
97D
  8
DATA
  6
CONTINUOUS
 62
     7
 10
-84.187661377999973
 20
335.20918838900002
 30
0.0
 42
0.0275624570000166
  0
VERTEX
  5
97E
  8
DATA
  6
CONTINUOUS
 62
     7
 10
-83.860034900000031
 20
334.63088213299989
 30
0.0
  0
VERTEX
  5
97F
  8
DATA
  6
CONTINUOUS
 62
     7
 10
-83.860034900000031
 20
334.63088213299989
 30
0.0
  0
VERTEX
  5
980
  8
DATA
  6
CONTINUOUS
 62
     7
 10
-83.860034899999377
 20
334.63088213299881
 30
0.0
 42
0.0260672349999468
  0
VERTEX
  5
981
  8
DATA
  6
CONTINUOUS
 62
     7
 10
-83.461694931000011
 20
334.07521108299989
 30
0.0
  0
VERTEX
  5
982
  8
DATA
  6
CONTINUOUS
 62
     7
 10
-83.461694931000011
 20
334.07521108299989
 30
0.0
  0
VERTEX
  5
983
  8
DATA
  6
CONTINUOUS
 62
     7
 10
-83.461694931000011
 20
334.07521108299989
 30
0.0
 42
0.0245421770000151
  0
VERTEX
  5
984
  8
DATA
  6
CONTINUOUS
 62
     7
 10
-82.995733448999957
 20
333.54648844399998
 30
0.0
  0
VERTEX
  5
985
  8
DATA
  6
CONTINUOUS
 62
     7
 10
-82.995733448999957
 20
333.54648844399998
 30
0.0
  0
VERTEX
  5
986
  8
DATA
  6
CONTINUOUS
 62
     7
 10
-82.995733448999957
 20
333.54648844399998
 30
0.0
 42
0.0230633139999947
  0
VERTEX
  5
987
  8
DATA
  6
CONTINUOUS
 62
     7
 10
-82.465767315999983
 20
333.04881824199992
 30
0.0
  0
VERTEX
  5
988
  8
DATA
  6
CONTINUOUS
 62
     7
 10
-82.465767315999983
 20
333.04881824199992
 30
0.0
  0
VERTEX
  5
989
  8
DATA
  6
CONTINUOUS
 62
     7
 10
-82.465767315999784
 20
333.0488182419997
 30
0.0
 42
0.0216827839999846
  0
VERTEX
  5
98A
  8
DATA
  6
CONTINUOUS
 62
     7
 10
-81.875910212999955
 20
332.58606347
 30
0.0
  0
VERTEX
  5
98B
  8
DATA
  6
CONTINUOUS
 62
     7
 10
-81.875910212999955
 20
332.58606347
 30
0.0
  0
VERTEX
  5
98C
  8
DATA
  6
CONTINUOUS
 62
     7
 10
-81.875910212999955
 20
332.58606347
 30
0.0
 42
0.0204321250000486
  0
VERTEX
  5
98D
  8
DATA
  6
CONTINUOUS
 62
     7
 10
-81.230740700000013
 20
332.16181610099989
 30
0.0
  0
VERTEX
  5
98E
  8
DATA
  6
CONTINUOUS
 62
     7
 10
-81.230740700000013
 20
332.16181610099989
 30
0.0
  0
VERTEX
  5
98F
  8
DATA
  6
CONTINUOUS
 62
     7
 10
-81.230740699998691
 20
332.16181610099909
 30
0.0
 42
0.019327249999939
  0
VERTEX
  5
990
  8
DATA
  6
CONTINUOUS
 62
     7
 10
-80.535266681999985
 20
331.77936920799988
 30
0.0
  0
VERTEX
  5
991
  8
DATA
  6
CONTINUOUS
 62
     7
 10
-80.535266681999985
 20
331.77936920799988
 30
0.0
  0
VERTEX
  5
992
  8
DATA
  6
CONTINUOUS
 62
     7
 10
-80.535266681999985
 20
331.77936920799988
 30
0.0
 42
0.0183734080001475
  0
VERTEX
  5
993
  8
DATA
  6
CONTINUOUS
 62
     7
 10
-79.794886535000003
 20
331.4416914040001
 30
0.0
  0
VERTEX
  5
994
  8
DATA
  6
CONTINUOUS
 62
     7
 10
-79.794886535000003
 20
331.4416914040001
 30
0.0
  0
VERTEX
  5
995
  8
DATA
  6
CONTINUOUS
 62
     7
 10
-79.794886535000003
 20
331.4416914040001
 30
0.0
 42
0.0175692910000844
  0
VERTEX
  5
996
  8
DATA
  6
CONTINUOUS
 62
     7
 10
-79.01534720399998
 20
331.15140379399998
 30
0.0
  0
VERTEX
  5
997
  8
DATA
  6
CONTINUOUS
 62
     7
 10
-79.01534720399998
 20
331.15140379399998
 30
0.0
  0
VERTEX
  5
998
  8
DATA
  6
CONTINUOUS
 62
     7
 10
-79.01534720399998
 20
331.15140379399998
 30
0.0
 42
0.0169100990001091
  0
VERTEX
  5
999
  8
DATA
  6
CONTINUOUS
 62
     7
 10
-78.202699592999977
 20
330.91075963600002
 30
0.0
  0
VERTEX
  5
99A
  8
DATA
  6
CONTINUOUS
 62
     7
 10
-78.202699592999977
 20
330.91075963600002
 30
0.0
  0
VERTEX
  5
99B
  8
DATA
  6
CONTINUOUS
 62
     7
 10
-78.202699592999977
 20
330.91075963600002
 30
0.0
 42
0.016389676000055
  0
VERTEX
  5
99C
  8
DATA
  6
CONTINUOUS
 62
     7
 10
-77.363251597999977
 20
330.72162684800003
 30
0.0
  0
VERTEX
  5
99D
  8
DATA
  6
CONTINUOUS
 62
     7
 10
-77.363251597999977
 20
330.72162684800003
 30
0.0
  0
VERTEX
  5
99E
  8
DATA
  6
CONTINUOUS
 62
     7
 10
-77.363251597999493
 20
330.7216268479998
 30
0.0
 42
0.0160018979999525
  0
VERTEX
  5
99F
  8
DATA
  6
CONTINUOUS
 62
     7
 10
-76.503519141999973
 20
330.58547350499998
 30
0.0
  0
VERTEX
  5
9A0
  8
DATA
  6
CONTINUOUS
 62
     7
 10
-76.503519141999973
 20
330.58547350499998
 30
0.0
  0
VERTEX
  5
9A1
  8
DATA
  6
CONTINUOUS
 62
     7
 10
-76.503519141999973
 20
330.58547350499998
 30
0.0
 42
0.0157415490000459
  0
VERTEX
  5
9A2
  8
DATA
  6
CONTINUOUS
 62
     7
 10
-75.630175601000033
 20
330.50335645299998
 30
0.0
  0
VERTEX
  5
9A3
  8
DATA
  6
CONTINUOUS
 62
     7
 10
-75.630175601000033
 20
330.50335645299998
 30
0.0
  0
VERTEX
  5
9A4
  8
DATA
  6
CONTINUOUS
 62
     7
 10
-75.630175600996736
 20
330.5033564529997
 30
0.0
 42
0.0156048429998609
  0
VERTEX
  5
9A5
  8
DATA
  6
CONTINUOUS
 62
     7
 10
-74.750000001999993
 20
330.47591309599989
 30
0.0
  0
VERTEX
  5
9A6
  8
DATA
  6
CONTINUOUS
 62
     7
 10
-74.750000001999993
 20
330.47591309599989
 30
0.0
  0
VERTEX
  5
9A7
  8
DATA
  6
CONTINUOUS
 62
     7
 10
-74.750000001994863
 20
330.47591309599989
 30
0.0
 42
0.0155897019998391
  0
VERTEX
  5
9A8
  8
DATA
  6
CONTINUOUS
 62
     7
 10
-73.86982440200002
 20
330.50335645299998
 30
0.0
  0
VERTEX
  5
9A9
  8
DATA
  6
CONTINUOUS
 62
     7
 10
-73.86982440200002
 20
330.50335645299998
 30
0.0
  0
VERTEX
  5
9AA
  8
DATA
  6
CONTINUOUS
 62
     7
 10
-73.86982440200002
 20
330.50335645299998
 30
0.0
 42
0.0156958930000333
  0
VERTEX
  5
9AB
  8
DATA
  6
CONTINUOUS
 62
     7
 10
-72.996480862000013
 20
330.58547350499998
 30
0.0
  0
VERTEX
  5
9AC
  8
DATA
  6
CONTINUOUS
 62
     7
 10
-72.996480862000013
 20
330.58547350499998
 30
0.0
  0
VERTEX
  5
9AD
  8
DATA
  6
CONTINUOUS
 62
     7
 10
-72.996480862000013
 20
330.58547350499998
 30
0.0
 42
0.0159250390000073
  0
VERTEX
  5
9AE
  8
DATA
  6
CONTINUOUS
 62
     7
 10
-72.136748405999981
 20
330.72162684699992
 30
0.0
  0
VERTEX
  5
9AF
  8
DATA
  6
CONTINUOUS
 62
     7
 10
-72.136748405999981
 20
330.72162684699992
 30
0.0
  0
VERTEX
  5
9B0
  8
DATA
  6
CONTINUOUS
 62
     7
 10
-72.136748405999981
 20
330.72162684699992
 30
0.0
 42
0.0162805200000706
  0
VERTEX
  5
9B1
  8
DATA
  6
CONTINUOUS
 62
     7
 10
-71.297300410000005
 20
330.91075963600002
 30
0.0
  0
VERTEX
  5
9B2
  8
DATA
  6
CONTINUOUS
 62
     7
 10
-71.297300410000005
 20
330.91075963600002
 30
0.0
  0
VERTEX
  5
9B3
  8
DATA
  6
CONTINUOUS
 62
     7
 10
-71.297300410000005
 20
330.91075963600002
 30
0.0
 42
0.0167672320000166
  0
VERTEX
  5
9B4
  8
DATA
  6
CONTINUOUS
 62
     7
 10
-70.484652798999946
 20
331.15140379299987
 30
0.0
  0
VERTEX
  5
9B5
  8
DATA
  6
CONTINUOUS
 62
     7
 10
-70.484652798999946
 20
331.15140379299987
 30
0.0
  0
VERTEX
  5
9B6
  8
DATA
  6
CONTINUOUS
 62
     7
 10
-70.484652798998013
 20
331.1514037930005
 30
0.0
 42
0.0173911359999307
  0
VERTEX
  5
9B7
  8
DATA
  6
CONTINUOUS
 62
     7
 10
-69.705113467999993
 20
331.44169140300011
 30
0.0
  0
VERTEX
  5
9B8
  8
DATA
  6
CONTINUOUS
 62
     7
 10
-69.705113467999993
 20
331.44169140300011
 30
0.0
  0
VERTEX
  5
9B9
  8
DATA
  6
CONTINUOUS
 62
     7
 10
-69.705113467999993
 20
331.44169140300011
 30
0.0
 42
0.0181584890000937
  0
VERTEX
  5
9BA
  8
DATA
  6
CONTINUOUS
 62
     7
 10
-68.964733320999997
 20
331.77936920699989
 30
0.0
  0
VERTEX
  5
9BB
  8
DATA
  6
CONTINUOUS
 62
     7
 10
-68.964733320999997
 20
331.77936920699989
 30
0.0
  0
VERTEX
  5
9BC
  8
DATA
  6
CONTINUOUS
 62
     7
 10
-68.964733320998576
 20
331.77936920700063
 30
0.0
 42
0.0190745959998249
  0
VERTEX
  5
9BD
  8
DATA
  6
CONTINUOUS
 62
     7
 10
-68.26925930299997
 20
332.1618160999999
 30
0.0
  0
VERTEX
  5
9BE
  8
DATA
  6
CONTINUOUS
 62
     7
 10
-68.26925930299997
 20
332.1618160999999
 30
0.0
  0
VERTEX
  5
9BF
  8
DATA
  6
CONTINUOUS
 62
     7
 10
-68.269259302999231
 20
332.16181610000041
 30
0.0
 42
0.0201418859998862
  0
VERTEX
  5
9C0
  8
DATA
  6
CONTINUOUS
 62
     7
 10
-67.624089790000042
 20
332.58606346900001
 30
0.0
  0
VERTEX
  5
9C1
  8
DATA
  6
CONTINUOUS
 62
     7
 10
-67.624089790000042
 20
332.58606346900001
 30
0.0
  0
VERTEX
  5
9C2
  8
DATA
  6
CONTINUOUS
 62
     7
 10
-67.624089789999189
 20
332.58606346900052
 30
0.0
 42
0.0213570959999452
  0
VERTEX
  5
9C3
  8
DATA
  6
CONTINUOUS
 62
     7
 10
-67.03423268600001
 20
333.04881824099988
 30
0.0
  0
VERTEX
  5
9C4
  8
DATA
  6
CONTINUOUS
 62
     7
 10
-67.03423268600001
 20
333.04881824099988
 30
0.0
  0
VERTEX
  5
9C5
  8
DATA
  6
CONTINUOUS
 62
     7
 10
-67.03423268599964
 20
333.04881824100028
 30
0.0
 42
0.0227074139999106
  0
VERTEX
  5
9C6
  8
DATA
  6
CONTINUOUS
 62
     7
 10
-66.504266553000008
 20
333.54648844299999
 30
0.0
  0
VERTEX
  5
9C7
  8
DATA
  6
CONTINUOUS
 62
     7
 10
-66.504266553000008
 20
333.54648844299999
 30
0.0
  0
VERTEX
  5
9C8
  8
DATA
  6
CONTINUOUS
 62
     7
 10
-66.504266552998601
 20
333.54648844300141
 30
0.0
 42
0.0241656999999296
  0
VERTEX
  5
9C9
  8
DATA
  6
CONTINUOUS
 62
     7
 10
-66.038305070999982
 20
334.0752110819999
 30
0.0
  0
VERTEX
  5
9CA
  8
DATA
  6
CONTINUOUS
 62
     7
 10
-66.038305070999982
 20
334.0752110819999
 30
0.0
  0
VERTEX
  5
9CB
  8
DATA
  6
CONTINUOUS
 62
     7
 10
-66.038305070998973
 20
334.0752110820012
 30
0.0
 42
0.0256853779998531
  0
VERTEX
  5
9CC
  8
DATA
  6
CONTINUOUS
 62
     7
 10
-65.639965101999977
 20
334.63088213100002
 30
0.0
  0
VERTEX
  5
9CD
  8
DATA
  6
CONTINUOUS
 62
     7
 10
-65.639965101999977
 20
334.63088213100002
 30
0.0
  0
VERTEX
  5
9CE
  8
DATA
  6
CONTINUOUS
 62
     7
 10
-65.639965101999977
 20
334.63088213100002
 30
0.0
 42
0.0271965120000363
  0
VERTEX
  5
9CF
  8
DATA
  6
CONTINUOUS
 62
     7
 10
-65.312338623999963
 20
335.20918838699998
 30
0.0
  0
VERTEX
  5
9D0
  8
DATA
  6
CONTINUOUS
 62
     7
 10
-65.312338623999963
 20
335.20918838699998
 30
0.0
  0
VERTEX
  5
9D1
  8
DATA
  6
CONTINUOUS
 62
     7
 10
-65.312338623999963
 20
335.20918838699998
 30
0.0
 42
0.0286055139999888
  0
VERTEX
  5
9D2
  8
DATA
  6
CONTINUOUS
 62
     7
 10
-65.057968723000002
 20
335.80564094800002
 30
0.0
  0
VERTEX
  5
9D3
  8
DATA
  6
CONTINUOUS
 62
     7
 10
-65.057968723000002
 20
335.80564094800002
 30
0.0
  0
VERTEX
  5
9D4
  8
DATA
  6
CONTINUOUS
 62
     7
 10
-65.057968722999703
 20
335.80564094800081
 30
0.0
 42
0.0298014610000209
  0
VERTEX
  5
9D5
  8
DATA
  6
CONTINUOUS
 62
     7
 10
-64.878829856999985
 20
336.41561005699998
 30
0.0
  0
VERTEX
  5
9D6
  8
DATA
  6
CONTINUOUS
 62
     7
 10
-64.878829856999985
 20
336.41561005699998
 30
0.0
  0
SEQEND
  5
9D7
  8
DATA
  6
CONTINUOUS
 62
     7
  0
LINE
  5
3A4
  8
DATA
  6
CONTINUOUS
 62
     7
 10
-52.500000000000021
 20
354.62637456800002
 30
0.0
 11
-52.500000000000021
 21
331.14210880799988
 31
0.0
  0
LINE
  5
3A5
  8
DATA
  6
CONTINUOUS
 62
     7
 10
-87.000000000000014
 20
321.14210358400021
 30
0.0
 11
-62.500000000000021
 21
321.14210358400021
 31
0.0
  0
ARC
  5
3A6
  8
DATA
  6
CONTINUOUS
 62
     7
 10
-86.999999999999986
 20
331.14210358400021
 30
0.0
 40
10.000000000000091
 50
214.3294930190003
 51
269.99999999999989
  0
LINE
  5
3A7
  8
DATA
  6
CONTINUOUS
 62
     7
 10
-177.3059999999999
 20
352.32637483100012
 30
0.0
 11
-177.3059999999999
 21
349.72637483099987
 31
0.0
  0
LINE
  5
3A8
  8
DATA
  6
CONTINUOUS
 62
     7
 10
-177.3059999999999
 20
352.32637483100012
 30
0.0
 11
-72.694000000000031
 21
352.32637483100012
 31
0.0
  0
LINE
  5
3A9
  8
DATA
  6
CONTINUOUS
 62
     7
 10
-160.0
 20
349.72637483099987
 30
0.0
 11
-160.0
 21
352.32637483100012
 31
0.0
  0
LINE
  5
3AA
  8
DATA
  6
CONTINUOUS
 62
     7
 10
-177.3059999999999
 20
349.72637483099987
 30
0.0
 11
-160.0
 21
349.72637483099987
 31
0.0
  0
LINE
  5
3AB
  8
DATA
  6
CONTINUOUS
 62
     7
 10
-72.694000000000031
 20
352.32637483100012
 30
0.0
 11
-72.694000000000031
 21
349.72637483099987
 31
0.0
  0
LINE
  5
3AC
  8
DATA
  6
CONTINUOUS
 62
     7
 10
-90.000000000000014
 20
349.72637483099987
 30
0.0
 11
-72.694000000000031
 21
349.72637483099987
 31
0.0
  0
LINE
  5
3AD
  8
DATA
  6
CONTINUOUS
 62
     7
 10
-90.000000000000014
 20
349.72637483099987
 30
0.0
 11
-107.568271106
 21
268.79000568700008
 31
0.0
  0
LINE
  5
3AE
  8
DATA
  6
CONTINUOUS
 62
     7
 10
-90.000000000000014
 20
349.72637483099987
 30
0.0
 11
-90.000000000000014
 21
352.32637483100012
 31
0.0
  0
LINE
  5
3AF
  8
DATA
  6
CONTINUOUS
 62
     7
 10
-139.5
 20
266.42637483099998
 30
0.0
 11
-110.50001525899989
 21
266.42637483099998
 31
0.0
  0
ARC
  5
3B0
  8
DATA
  6
CONTINUOUS
 62
     7
 10
-110.5
 20
269.42637483099998
 30
0.0
 40
2.9999999999999232
 50
269.99970857900041
 51
347.75320263188019
  0
ARC
  5
3B1
  8
DATA
  6
CONTINUOUS
 62
     7
 10
-139.5
 20
269.42637483099998
 30
0.0
 40
3.0000000000000111
 50
192.2467973640685
 51
270.0
  0
LINE
  5
3B2
  8
DATA
  6
CONTINUOUS
 62
     7
 10
-126.5
 20
338.72637483099987
 30
0.0
 11
-126.5
 21
322.726378646
 31
0.0
  0
LINE
  5
3B3
  8
DATA
  6
CONTINUOUS
 62
     7
 10
-123.5
 20
322.72637483099987
 30
0.0
 11
-123.5
 21
338.72638143900008
 31
0.0
  0
ARC
  5
3B4
  8
DATA
  6
CONTINUOUS
 62
     7
 10
-125.0
 20
322.72637483099987
 30
0.0
 40
1.5
 50
180.0
 51
0.0
  0
ARC
  5
3B5
  8
DATA
  6
CONTINUOUS
 62
     7
 10
-125.0
 20
338.72637483099987
 30
0.0
 40
1.5
 50
0.0
 51
180.0
  0
LINE
  5
3B6
  8
DATA
  6
CONTINUOUS
 62
     7
 10
-160.0
 20
349.72637483099987
 30
0.0
 11
-142.43172889499999
 21
268.79000568700008
 31
0.0
  0
LINE
  5
3B7
  8
DATA
  6
CONTINUOUS
 62
     7
 10
-107.0
 20
264.92637483099998
 30
0.0
 11
-108.0
 21
264.92637483099998
 31
0.0
  0
ARC
  5
3B8
  8
DATA
  6
CONTINUOUS
 62
     7
 10
-105.3
 20
273.92637483099998
 30
0.0
 40
3.0
 50
0.0
 51
90.0
  0
LINE
  5
3B9
  8
DATA
  6
CONTINUOUS
 62
     7
 10
-105.3
 20
265.92637483099998
 30
0.0
 11
-107.0
 21
265.92637483099998
 31
0.0
  0
LINE
  5
3BA
  8
DATA
  6
CONTINUOUS
 62
     7
 10
-102.3
 20
268.92637483099998
 30
0.0
 11
-102.3
 21
273.92637483099998
 31
0.0
  0
ARC
  5
3BB
  8
DATA
  6
CONTINUOUS
 62
     7
 10
-105.3
 20
268.92637483099998
 30
0.0
 40
3.0
 50
270.0
 51
0.0
  0
LINE
  5
3BC
  8
DATA
  6
CONTINUOUS
 62
     7
 10
-105.8
 20
265.92637483099998
 30
0.0
 11
-105.8
 21
276.92637483099998
 31
0.0
  0
LINE
  5
3BD
  8
DATA
  6
CONTINUOUS
 62
     7
 10
-107.0
 20
264.92637483099998
 30
0.0
 11
-107.0
 21
271.42637483099998
 31
0.0
  0
LINE
  5
3BE
  8
DATA
  6
CONTINUOUS
 62
     7
 10
-105.3
 20
276.92637483099998
 30
0.0
 11
-105.80216842
 21
276.92637483099998
 31
0.0
  0
LINE
  5
3BF
  8
DATA
  6
CONTINUOUS
 62
     7
 10
-143.0
 20
264.92637483099998
 30
0.0
 11
-142.0
 21
264.92637483099998
 31
0.0
  0
ARC
  5
3C0
  8
DATA
  6
CONTINUOUS
 62
     7
 10
-144.6999999999999
 20
273.92637483099998
 30
0.0
 40
3.0
 50
90.0
 51
180.0
  0
LINE
  5
3C1
  8
DATA
  6
CONTINUOUS
 62
     7
 10
-144.6999999999999
 20
265.92637483099998
 30
0.0
 11
-143.0
 21
265.92637483099998
 31
0.0
  0
LINE
  5
3C2
  8
DATA
  6
CONTINUOUS
 62
     7
 10
-147.6999999999999
 20
268.92637483099998
 30
0.0
 11
-147.6999999999999
 21
273.92637483099998
 31
0.0
  0
ARC
  5
3C3
  8
DATA
  6
CONTINUOUS
 62
     7
 10
-144.6999999999999
 20
268.92637483099998
 30
0.0
 40
3.0
 50
180.0
 51
270.0
  0
LINE
  5
3C4
  8
DATA
  6
CONTINUOUS
 62
     7
 10
-144.1999999999999
 20
265.92637483099998
 30
0.0
 11
-144.1999999999999
 21
276.92637483099998
 31
0.0
  0
LINE
  5
3C5
  8
DATA
  6
CONTINUOUS
 62
     7
 10
-143.0
 20
264.92637483099998
 30
0.0
 11
-143.0
 21
271.42637483099998
 31
0.0
  0
LINE
  5
3C6
  8
DATA
  6
CONTINUOUS
 62
     7
 10
-144.6999999999999
 20
276.92637483099998
 30
0.0
 11
-144.19783158099989
 21
276.92637483099998
 31
0.0
  0
CIRCLE
  5
3C7
  8
DATA
  6
CONTINUOUS
 62
     7
 10
-125.0
 20
281.42637483099998
 30
0.0
 40
6.5
  0
LINE
  5
3C8
  8
DATA
  6
CONTINUOUS
 62
     7
 10
-131.5
 20
285.22637483099987
 30
0.0
 11
-131.5
 21
277.62637483100002
 31
0.0
  0
LINE
  5
3C9
  8
DATA
  6
CONTINUOUS
 62
     7
 10
-131.5
 20
277.62637483100002
 30
0.0
 11
-125.0
 21
273.92637483099998
 31
0.0
  0
LINE
  5
3CA
  8
DATA
  6
CONTINUOUS
 62
     7
 10
-125.0
 20
273.92637483099998
 30
0.0
 11
-118.5
 21
277.62637483100002
 31
0.0
  0
LINE
  5
3CB
  8
DATA
  6
CONTINUOUS
 62
     7
 10
-118.5
 20
277.62637483100002
 30
0.0
 11
-118.5
 21
285.22637483099987
 31
0.0
  0
LINE
  5
3CC
  8
DATA
  6
CONTINUOUS
 62
     7
 10
-118.5
 20
285.22637483099987
 30
0.0
 11
-125.0
 21
288.92637483099998
 31
0.0
  0
LINE
  5
3CD
  8
DATA
  6
CONTINUOUS
 62
     7
 10
-125.0
 20
288.92637483099998
 30
0.0
 11
-131.5
 21
285.22637483099987
 31
0.0
  0
CIRCLE
  5
3CE
  8
DATA
  6
CONTINUOUS
 62
     7
 10
-125.0
 20
281.42637483099998
 30
0.0
 40
7.7000000000000437
  0
CIRCLE
  5
3CF
  8
DATA
  6
CONTINUOUS
 62
     7
 10
-125.0
 20
281.42637483099998
 30
0.0
 40
8.5
  0
LINE
  5
3D0
  8
DATA
  6
CONTINUOUS
 62
     7
 10
-139.75
 20
261.42637456199992
 30
0.0
 11
-136.5499999999999
 21
261.42637457199999
 31
0.0
  0
LINE
  5
3D1
  8
DATA
  6
CONTINUOUS
 62
     7
 10
-110.25
 20
261.42637456199992
 30
0.0
 11
-113.45
 21
261.42637457199999
 31
0.0
  0
LINE
  5
3D2
  8
DATA
  6
CONTINUOUS
 62
     7
 10
-136.5499999999999
 20
261.42637465200011
 30
0.0
 11
-136.5499999999999
 21
266.42637483099998
 31
0.0
  0
LINE
  5
3D3
  8
DATA
  6
CONTINUOUS
 62
     7
 10
-113.45
 20
261.42637456199992
 30
0.0
 11
-113.45
 21
266.42637483099998
 31
0.0
  0
LINE
  5
3D4
  8
DATA
  6
CONTINUOUS
 62
     7
 10
-110.25
 20
261.42637456199992
 30
0.0
 11
-110.25
 21
266.43680964599997
 31
0.0
  0
LINE
  5
3D5
  8
DATA
  6
CONTINUOUS
 62
     7
 10
-139.75
 20
261.42637465200011
 30
0.0
 11
-139.75
 21
266.43680964599997
 31
0.0
  0
LINE
  5
3D6
  8
DATA
  6
CONTINUOUS
 62
     7
 10
-125.0
 20
269.42637483099998
 30
0.0
 11
-125.0
 21
293.42637483099998
 31
0.0
  0
ARC
  5
3D7
  8
DATA
  6
CONTINUOUS
 62
     7
 10
258.49999237100008
 20
-194.0
 30
0.0
 40
6.0
 50
179.9999684570007
 51
270.0
  0
LINE
  5
3D8
  8
DATA
  6
CONTINUOUS
 62
     7
 10
258.49999237100008
 20
-200.0
 30
0.0
 11
391.49999237100019
 21
-200.0
 31
0.0
  0
ARC
  5
3D9
  8
DATA
  6
CONTINUOUS
 62
     7
 10
391.49999237100019
 20
-194.0
 30
0.0
 40
6.0
 50
270.0
 51
0.0000315429992952
  0
LINE
  5
3DA
  8
DATA
  6
CONTINUOUS
 62
     7
 10
252.49999237100019
 20
-25.999992371000008
 30
0.0
 11
252.49999237100019
 21
-193.999996697
 31
0.0
  0
ARC
  5
3DB
  8
DATA
  6
CONTINUOUS
 62
     7
 10
258.49999237100008
 20
-26.0
 30
0.0
 40
6.0000000000000178
 50
89.999927145000612
 51
179.99992714900009
  0
LINE
  5
3DC
  8
DATA
  6
CONTINUOUS
 62
     7
 10
258.49999999999989
 20
-20.0
 30
0.0
 11
391.5
 21
-20.0
 31
0.0
  0
ARC
  5
3DD
  8
DATA
  6
CONTINUOUS
 62
     7
 10
391.49999237100019
 20
-26.0
 30
0.0
 40
5.9999999999998481
 50
0.0000728509999445
 51
89.999927145000612
  0
LINE
  5
3DE
  8
DATA
  6
CONTINUOUS
 62
     7
 10
397.49999237100019
 20
-25.999992371000008
 30
0.0
 11
397.49999237100019
 21
-193.999996697
 31
0.0
  0
CIRCLE
  5
3DF
  8
DATA
  6
CONTINUOUS
 62
     7
 10
264.49999237100008
 20
-35.0
 30
0.0
 40
4.5999999999999091
  0
CIRCLE
  5
3E0
  8
DATA
  6
CONTINUOUS
 62
     7
 10
264.49999237100008
 20
-110.0
 30
0.0
 40
4.5999999999999091
  0
CIRCLE
  5
3E1
  8
DATA
  6
CONTINUOUS
 62
     7
 10
264.49999237100008
 20
-185.0
 30
0.0
 40
4.5999999999999091
  0
CIRCLE
  5
3E2
  8
DATA
  6
CONTINUOUS
 62
     7
 10
385.49999237100019
 20
-185.0
 30
0.0
 40
4.5999999999999091
  0
CIRCLE
  5
3E3
  8
DATA
  6
CONTINUOUS
 62
     7
 10
385.49999237100019
 20
-110.0
 30
0.0
 40
4.5999999999999091
  0
CIRCLE
  5
3E4
  8
DATA
  6
CONTINUOUS
 62
     7
 10
385.49999237100019
 20
-35.0
 30
0.0
 40
4.5999999999999091
  0
ARC
  5
3E5
  8
DATA
  6
CONTINUOUS
 62
     7
 10
262.49999237100008
 20
-225.54701294800009
 30
0.0
 40
10.0
 50
179.999970069
 51
270.0
  0
LINE
  5
3E6
  8
DATA
  6
CONTINUOUS
 62
     7
 10
252.49999237100019
 20
-193.999996697
 30
0.0
 11
252.49999237100019
 21
-225.54700772400011
 31
0.0
  0
LINE
  5
3E7
  8
DATA
  6
CONTINUOUS
 62
     7
 10
296.99999237100008
 20
-200.0
 30
0.0
 11
296.99999237100008
 21
-225.54700890199999
 31
0.0
  0
ARC
  5
3E8
  8
DATA
  6
CONTINUOUS
 62
     7
 10
286.99999237100008
 20
-225.54701294800009
 30
0.0
 40
10.0
 50
270.0
 51
0.000023194000164
  0
LINE
  5
3E9
  8
DATA
  6
CONTINUOUS
 62
     7
 10
296.99999237100008
 20
-206.3254834
 30
0.0
 11
252.49999237100019
 21
-206.3254834
 31
0.0
  0
LINE
  5
3EA
  8
DATA
  6
CONTINUOUS
 62
     7
 10
286.99999237100008
 20
-235.54701294800009
 30
0.0
 11
262.49999237100008
 21
-235.54701294800009
 31
0.0
  0
POLYLINE
  5
3EB
  8
DATA
  6
CONTINUOUS
 62
     7
 66
     1
 10
0.0
 20
0.0
 30
0.0
 70
   129
  0
VERTEX
  5
9D8
  8
DATA
  6
CONTINUOUS
 62
     7
 10
264.74999237100008
 20
-221.40487732400001
 30
0.0
  0
VERTEX
  5
9D9
  8
DATA
  6
CONTINUOUS
 62
     7
 10
264.74999237100008
 20
-221.40487732399691
 30
0.0
 42
-0.0308289069996337
  0
VERTEX
  5
9DA
  8
DATA
  6
CONTINUOUS
 62
     7
 10
264.78804539000009
 20
-220.78859315700001
 30
0.0
  0
VERTEX
  5
9DB
  8
DATA
  6
CONTINUOUS
 62
     7
 10
264.78804539000009
 20
-220.78859315700001
 30
0.0
  0
VERTEX
  5
9DC
  8
DATA
  6
CONTINUOUS
 62
     7
 10
264.78804539000009
 20
-220.78859315700001
 30
0.0
 42
-0.0304257970000849
  0
VERTEX
  5
9DD
  8
DATA
  6
CONTINUOUS
 62
     7
 10
264.90191484100012
 20
-220.17699928400009
 30
0.0
  0
VERTEX
  5
9DE
  8
DATA
  6
CONTINUOUS
 62
     7
 10
264.90191484100012
 20
-220.17699928400009
 30
0.0
  0
VERTEX
  5
9DF
  8
DATA
  6
CONTINUOUS
 62
     7
 10
264.90191484100052
 20
-220.17699928399881
 30
0.0
 42
-0.0296077559999322
  0
VERTEX
  5
9E0
  8
DATA
  6
CONTINUOUS
 62
     7
 10
265.0907341080005
 20
-219.57475030500009
 30
0.0
  0
VERTEX
  5
9E1
  8
DATA
  6
CONTINUOUS
 62
     7
 10
265.0907341080005
 20
-219.57475030500009
 30
0.0
  0
VERTEX
  5
9E2
  8
DATA
  6
CONTINUOUS
 62
     7
 10
265.0907341080009
 20
-219.5747503049989
 30
0.0
 42
-0.0284626549999079
  0
VERTEX
  5
9E3
  8
DATA
  6
CONTINUOUS
 62
     7
 10
265.35306616300022
 20
-218.98642969700009
 30
0.0
  0
VERTEX
  5
9E4
  8
DATA
  6
CONTINUOUS
 62
     7
 10
265.35306616300022
 20
-218.98642969700009
 30
0.0
  0
VERTEX
  5
9E5
  8
DATA
  6
CONTINUOUS
 62
     7
 10
265.35306616300232
 20
-218.9864296969958
 30
0.0
 42
-0.0270987799995584
  0
VERTEX
  5
9E6
  8
DATA
  6
CONTINUOUS
 62
     7
 10
265.68691450100039
 20
-218.4165149370001
 30
0.0
  0
VERTEX
  5
9E7
  8
DATA
  6
CONTINUOUS
 62
     7
 10
265.68691450100039
 20
-218.4165149370001
 30
0.0
  0
VERTEX
  5
9E8
  8
DATA
  6
CONTINUOUS
 62
     7
 10
265.68691450100039
 20
-218.4165149370001
 30
0.0
 42
-0.0256239270000808
  0
VERTEX
  5
9E9
  8
DATA
  6
CONTINUOUS
 62
     7
 10
266.08973833300013
 20
-217.86934341800011
 30
0.0
  0
VERTEX
  5
9EA
  8
DATA
  6
CONTINUOUS
 62
     7
 10
266.08973833300013
 20
-217.86934341800011
 30
0.0
  0
VERTEX
  5
9EB
  8
DATA
  6
CONTINUOUS
 62
     7
 10
266.08973833300161
 20
-217.86934341799821
 30
0.0
 42
-0.0241305729998934
  0
VERTEX
  5
9EC
  8
DATA
  6
CONTINUOUS
 62
     7
 10
266.55847192800042
 20
-217.34907944700001
 30
0.0
  0
VERTEX
  5
9ED
  8
DATA
  6
CONTINUOUS
 62
     7
 10
266.55847192800042
 20
-217.34907944700001
 30
0.0
  0
VERTEX
  5
9EE
  8
DATA
  6
CONTINUOUS
 62
     7
 10
266.55847192800292
 20
-217.34907944699759
 30
0.0
 42
-0.0226890189997759
  0
VERTEX
  5
9EF
  8
DATA
  6
CONTINUOUS
 62
     7
 10
267.08954793999999
 20
-216.85968254700001
 30
0.0
  0
VERTEX
  5
9F0
  8
DATA
  6
CONTINUOUS
 62
     7
 10
267.08954793999999
 20
-216.85968254700001
 30
0.0
  0
VERTEX
  5
9F1
  8
DATA
  6
CONTINUOUS
 62
     7
 10
267.0895479400034
 20
-216.85968254699719
 30
0.0
 42
-0.0213470119997758
  0
VERTEX
  5
9F2
  8
DATA
  6
CONTINUOUS
 62
     7
 10
267.67892455900022
 20
-216.40487732400001
 30
0.0
  0
VERTEX
  5
9F3
  8
DATA
  6
CONTINUOUS
 62
     7
 10
267.67892455900022
 20
-216.40487732400001
 30
0.0
  0
VERTEX
  5
9F4
  8
DATA
  6
CONTINUOUS
 62
     7
 10
267.6789245590013
 20
-216.40487732399939
 30
0.0
 42
-0.0201331389999059
  0
VERTEX
  5
9F5
  8
DATA
  6
CONTINUOUS
 62
     7
 10
268.322116274
 20
-215.98812512000009
 30
0.0
  0
VERTEX
  5
9F6
  8
DATA
  6
CONTINUOUS
 62
     7
 10
268.322116274
 20
-215.98812512000009
 30
0.0
  0
VERTEX
  5
9F7
  8
DATA
  6
CONTINUOUS
 62
     7
 10
268.3221162740009
 20
-215.98812511999961
 30
0.0
 42
-0.0190615839999672
  0
VERTEX
  5
9F8
  8
DATA
  6
CONTINUOUS
 62
     7
 10
269.01422800800032
 20
-215.61259767000001
 30
0.0
  0
VERTEX
  5
9F9
  8
DATA
  6
CONTINUOUS
 62
     7
 10
269.01422800800032
 20
-215.61259767000001
 30
0.0
  0
VERTEX
  5
9FA
  8
DATA
  6
CONTINUOUS
 62
     7
 10
269.01422800800219
 20
-215.6125976699991
 30
0.0
 42
-0.0181367479999775
  0
VERTEX
  5
9FB
  8
DATA
  6
CONTINUOUS
 62
     7
 10
269.74999237100008
 20
-215.28115296700011
 30
0.0
  0
VERTEX
  5
9FC
  8
DATA
  6
CONTINUOUS
 62
     7
 10
269.74999237100008
 20
-215.28115296700011
 30
0.0
  0
VERTEX
  5
9FD
  8
DATA
  6
CONTINUOUS
 62
     7
 10
269.74999237100172
 20
-215.2811529669994
 30
0.0
 42
-0.0173570479999391
  0
VERTEX
  5
9FE
  8
DATA
  6
CONTINUOUS
 62
     7
 10
270.52380975400041
 20
-214.99631350300001
 30
0.0
  0
VERTEX
  5
9FF
  8
DATA
  6
CONTINUOUS
 62
     7
 10
270.52380975400041
 20
-214.99631350300001
 30
0.0
  0
VERTEX
  5
A00
  8
DATA
  6
CONTINUOUS
 62
     7
 10
270.52380975400041
 20
-214.99631350300001
 30
0.0
 42
-0.0167177380000311
  0
VERTEX
  5
A01
  8
DATA
  6
CONTINUOUS
 62
     7
 10
271.32979093800031
 20
-214.76024708
 30
0.0
  0
VERTEX
  5
A02
  8
DATA
  6
CONTINUOUS
 62
     7
 10
271.32979093800031
 20
-214.76024708
 30
0.0
  0
VERTEX
  5
A03
  8
DATA
  6
CONTINUOUS
 62
     7
 10
271.329790938001
 20
-214.7602470799998
 30
0.0
 42
-0.0162128689998991
  0
VERTEX
  5
A04
  8
DATA
  6
CONTINUOUS
 62
     7
 10
272.16180192000041
 20
-214.57475030500009
 30
0.0
  0
VERTEX
  5
A05
  8
DATA
  6
CONTINUOUS
 62
     7
 10
272.16180192000041
 20
-214.57475030500009
 30
0.0
  0
VERTEX
  5
A06
  8
DATA
  6
CONTINUOUS
 62
     7
 10
272.16180192000041
 20
-214.57475030500009
 30
0.0
 42
-0.0158365750000384
  0
VERTEX
  5
A07
  8
DATA
  6
CONTINUOUS
 62
     7
 10
273.01351059500018
 20
-214.44123492099999
 30
0.0
  0
VERTEX
  5
A08
  8
DATA
  6
CONTINUOUS
 62
     7
 10
273.01351059500018
 20
-214.44123492099999
 30
0.0
  0
VERTEX
  5
A09
  8
DATA
  6
CONTINUOUS
 62
     7
 10
273.01351059500161
 20
-214.44123492099999
 30
0.0
 42
-0.0155838790000512
  0
VERTEX
  5
A0A
  8
DATA
  6
CONTINUOUS
 62
     7
 10
273.87843494400022
 20
-214.3607170600001
 30
0.0
  0
VERTEX
  5
A0B
  8
DATA
  6
CONTINUOUS
 62
     7
 10
273.87843494400022
 20
-214.3607170600001
 30
0.0
  0
VERTEX
  5
A0C
  8
DATA
  6
CONTINUOUS
 62
     7
 10
273.87843494400022
 20
-214.3607170600001
 30
0.0
 42
-0.0154511700000307
  0
VERTEX
  5
A0D
  8
DATA
  6
CONTINUOUS
 62
     7
 10
274.74999237100008
 20
-214.33380951199999
 30
0.0
  0
VERTEX
  5
A0E
  8
DATA
  6
CONTINUOUS
 62
     7
 10
274.74999237100008
 20
-214.33380951199999
 30
0.0
  0
VERTEX
  5
A0F
  8
DATA
  6
CONTINUOUS
 62
     7
 10
274.74999237100093
 20
-214.33380951199999
 30
0.0
 42
-0.0154364709999921
  0
VERTEX
  5
A10
  8
DATA
  6
CONTINUOUS
 62
     7
 10
275.62154979900009
 20
-214.3607170600001
 30
0.0
  0
VERTEX
  5
A11
  8
DATA
  6
CONTINUOUS
 62
     7
 10
275.62154979900009
 20
-214.3607170600001
 30
0.0
  0
VERTEX
  5
A12
  8
DATA
  6
CONTINUOUS
 62
     7
 10
275.62154979900009
 20
-214.3607170600001
 30
0.0
 42
-0.0155395600000523
  0
VERTEX
  5
A13
  8
DATA
  6
CONTINUOUS
 62
     7
 10
276.48647414800053
 20
-214.44123492099999
 30
0.0
  0
VERTEX
  5
A14
  8
DATA
  6
CONTINUOUS
 62
     7
 10
276.48647414800053
 20
-214.44123492099999
 30
0.0
  0
VERTEX
  5
A15
  8
DATA
  6
CONTINUOUS
 62
     7
 10
276.48647414800303
 20
-214.44123492100039
 30
0.0
 42
-0.0157619809999666
  0
VERTEX
  5
A16
  8
DATA
  6
CONTINUOUS
 62
     7
 10
277.33818282200031
 20
-214.57475030500009
 30
0.0
  0
VERTEX
  5
A17
  8
DATA
  6
CONTINUOUS
 62
     7
 10
277.33818282200031
 20
-214.57475030500009
 30
0.0
  0
VERTEX
  5
A18
  8
DATA
  6
CONTINUOUS
 62
     7
 10
277.33818282200212
 20
-214.57475030500041
 30
0.0
 42
-0.0161069559999318
  0
VERTEX
  5
A19
  8
DATA
  6
CONTINUOUS
 62
     7
 10
278.17019380500039
 20
-214.76024708
 30
0.0
  0
VERTEX
  5
A1A
  8
DATA
  6
CONTINUOUS
 62
     7
 10
278.17019380500039
 20
-214.76024708
 30
0.0
  0
VERTEX
  5
A1B
  8
DATA
  6
CONTINUOUS
 62
     7
 10
278.1701938050021
 20
-214.7602470800004
 30
0.0
 42
-0.0165791549998911
  0
VERTEX
  5
A1C
  8
DATA
  6
CONTINUOUS
 62
     7
 10
278.9761749890003
 20
-214.99631350300001
 30
0.0
  0
VERTEX
  5
A1D
  8
DATA
  6
CONTINUOUS
 62
     7
 10
278.9761749890003
 20
-214.99631350300001
 30
0.0
  0
VERTEX
  5
A1E
  8
DATA
  6
CONTINUOUS
 62
     7
 10
278.9761749890003
 20
-214.99631350300001
 30
0.0
 42
-0.0171842830000176
  0
VERTEX
  5
A1F
  8
DATA
  6
CONTINUOUS
 62
     7
 10
279.74999237100019
 20
-215.28115296700011
 30
0.0
  0
VERTEX
  5
A20
  8
DATA
  6
CONTINUOUS
 62
     7
 10
279.74999237100019
 20
-215.28115296700011
 30
0.0
  0
VERTEX
  5
A21
  8
DATA
  6
CONTINUOUS
 62
     7
 10
279.74999237100019
 20
-215.28115296700011
 30
0.0
 42
-0.017928366000036
  0
VERTEX
  5
A22
  8
DATA
  6
CONTINUOUS
 62
     7
 10
280.48575673500039
 20
-215.61259767000001
 30
0.0
  0
VERTEX
  5
A23
  8
DATA
  6
CONTINUOUS
 62
     7
 10
280.48575673500039
 20
-215.61259767000001
 30
0.0
  0
VERTEX
  5
A24
  8
DATA
  6
CONTINUOUS
 62
     7
 10
280.485756735
 20
-215.6125976699997
 30
0.0
 42
-0.0188166050000291
  0
VERTEX
  5
A25
  8
DATA
  6
CONTINUOUS
 62
     7
 10
281.1778684680001
 20
-215.98812512000009
 30
0.0
  0
VERTEX
  5
A26
  8
DATA
  6
CONTINUOUS
 62
     7
 10
281.1778684680001
 20
-215.98812512000009
 30
0.0
  0
VERTEX
  5
A27
  8
DATA
  6
CONTINUOUS
 62
     7
 10
281.17786846800232
 20
-215.98812512000131
 30
0.0
 42
-0.0198516009999083
  0
VERTEX
  5
A28
  8
DATA
  6
CONTINUOUS
 62
     7
 10
281.8210601830005
 20
-216.40487732400001
 30
0.0
  0
VERTEX
  5
A29
  8
DATA
  6
CONTINUOUS
 62
     7
 10
281.8210601830005
 20
-216.40487732400001
 30
0.0
  0
VERTEX
  5
A2A
  8
DATA
  6
CONTINUOUS
 62
     7
 10
281.8210601830005
 20
-216.40487732400001
 30
0.0
 42
-0.0210307680001004
  0
VERTEX
  5
A2B
  8
DATA
  6
CONTINUOUS
 62
     7
 10
282.41043680200022
 20
-216.85968254700001
 30
0.0
  0
VERTEX
  5
A2C
  8
DATA
  6
CONTINUOUS
 62
     7
 10
282.41043680200022
 20
-216.85968254700001
 30
0.0
  0
VERTEX
  5
A2D
  8
DATA
  6
CONTINUOUS
 62
     7
 10
282.41043680200158
 20
-216.8596825470012
 30
0.0
 42
-0.022342774999847
  0
VERTEX
  5
A2E
  8
DATA
  6
CONTINUOUS
 62
     7
 10
282.9415128140003
 20
-217.34907944700001
 30
0.0
  0
VERTEX
  5
A2F
  8
DATA
  6
CONTINUOUS
 62
     7
 10
282.9415128140003
 20
-217.34907944700001
 30
0.0
  0
VERTEX
  5
A30
  8
DATA
  6
CONTINUOUS
 62
     7
 10
282.94151281400082
 20
-217.34907944700049
 30
0.0
 42
-0.0237630949999392
  0
VERTEX
  5
A31
  8
DATA
  6
CONTINUOUS
 62
     7
 10
283.41024640900008
 20
-217.86934341800011
 30
0.0
  0
VERTEX
  5
A32
  8
DATA
  6
CONTINUOUS
 62
     7
 10
283.41024640900008
 20
-217.86934341800011
 30
0.0
  0
VERTEX
  5
A33
  8
DATA
  6
CONTINUOUS
 62
     7
 10
283.41024640900008
 20
-217.86934341800011
 30
0.0
 42
-0.0252491760001359
  0
VERTEX
  5
A34
  8
DATA
  6
CONTINUOUS
 62
     7
 10
283.81307024200032
 20
-218.4165149370001
 30
0.0
  0
VERTEX
  5
A35
  8
DATA
  6
CONTINUOUS
 62
     7
 10
283.81307024200032
 20
-218.4165149370001
 30
0.0
  0
VERTEX
  5
A36
  8
DATA
  6
CONTINUOUS
 62
     7
 10
283.81307024200032
 20
-218.4165149370001
 30
0.0
 42
-0.0267365170003364
  0
VERTEX
  5
A37
  8
DATA
  6
CONTINUOUS
 62
     7
 10
284.14691857900021
 20
-218.98642969700009
 30
0.0
  0
VERTEX
  5
A38
  8
DATA
  6
CONTINUOUS
 62
     7
 10
284.14691857900021
 20
-218.98642969700009
 30
0.0
  0
VERTEX
  5
A39
  8
DATA
  6
CONTINUOUS
 62
     7
 10
284.14691857900038
 20
-218.98642969700049
 30
0.0
 42
-0.028137834999957
  0
VERTEX
  5
A3A
  8
DATA
  6
CONTINUOUS
 62
     7
 10
284.40925063400022
 20
-219.57475030500009
 30
0.0
  0
VERTEX
  5
A3B
  8
DATA
  6
CONTINUOUS
 62
     7
 10
284.40925063400022
 20
-219.57475030500009
 30
0.0
  0
VERTEX
  5
A3C
  8
DATA
  6
CONTINUOUS
 62
     7
 10
284.40925063400078
 20
-219.57475030500169
 30
0.0
 42
-0.0293480879998576
  0
VERTEX
  5
A3D
  8
DATA
  6
CONTINUOUS
 62
     7
 10
284.59806990100009
 20
-220.17699928400009
 30
0.0
  0
VERTEX
  5
A3E
  8
DATA
  6
CONTINUOUS
 62
     7
 10
284.59806990100009
 20
-220.17699928400009
 30
0.0
  0
VERTEX
  5
A3F
  8
DATA
  6
CONTINUOUS
 62
     7
 10
284.59806990100009
 20
-220.17699928400009
 30
0.0
 42
-0.0302573150005935
  0
VERTEX
  5
A40
  8
DATA
  6
CONTINUOUS
 62
     7
 10
284.71193935200012
 20
-220.78859315700001
 30
0.0
  0
VERTEX
  5
A41
  8
DATA
  6
CONTINUOUS
 62
     7
 10
284.71193935200012
 20
-220.78859315700001
 30
0.0
  0
VERTEX
  5
A42
  8
DATA
  6
CONTINUOUS
 62
     7
 10
284.71193935200017
 20
-220.78859315700089
 30
0.0
 42
-0.0307704459999295
  0
VERTEX
  5
A43
  8
DATA
  6
CONTINUOUS
 62
     7
 10
284.74999237100008
 20
-221.40487732400001
 30
0.0
  0
VERTEX
  5
A44
  8
DATA
  6
CONTINUOUS
 62
     7
 10
284.74999237100008
 20
-221.40487732400001
 30
0.0
  0
VERTEX
  5
A45
  8
DATA
  6
CONTINUOUS
 62
     7
 10
284.74999237100008
 20
-221.40487732400001
 30
0.0
 42
-0.0308289070004152
  0
VERTEX
  5
A46
  8
DATA
  6
CONTINUOUS
 62
     7
 10
284.71193935200012
 20
-222.02116149099999
 30
0.0
  0
VERTEX
  5
A47
  8
DATA
  6
CONTINUOUS
 62
     7
 10
284.71193935200012
 20
-222.02116149099999
 30
0.0
  0
VERTEX
  5
A48
  8
DATA
  6
CONTINUOUS
 62
     7
 10
284.71193935200012
 20
-222.02116149099999
 30
0.0
 42
-0.0304257970000872
  0
VERTEX
  5
A49
  8
DATA
  6
CONTINUOUS
 62
     7
 10
284.59806990100009
 20
-222.63275536399999
 30
0.0
  0
VERTEX
  5
A4A
  8
DATA
  6
CONTINUOUS
 62
     7
 10
284.59806990100009
 20
-222.63275536399999
 30
0.0
  0
VERTEX
  5
A4B
  8
DATA
  6
CONTINUOUS
 62
     7
 10
284.59806990100009
 20
-222.63275536399999
 30
0.0
 42
-0.0296077560001582
  0
VERTEX
  5
A4C
  8
DATA
  6
CONTINUOUS
 62
     7
 10
284.40925063400022
 20
-223.23500434300001
 30
0.0
  0
VERTEX
  5
A4D
  8
DATA
  6
CONTINUOUS
 62
     7
 10
284.40925063400022
 20
-223.23500434300001
 30
0.0
  0
VERTEX
  5
A4E
  8
DATA
  6
CONTINUOUS
 62
     7
 10
284.40925063400039
 20
-223.23500434299959
 30
0.0
 42
-0.0284626550000836
  0
VERTEX
  5
A4F
  8
DATA
  6
CONTINUOUS
 62
     7
 10
284.14691857900021
 20
-223.82332495
 30
0.0
  0
VERTEX
  5
A50
  8
DATA
  6
CONTINUOUS
 62
     7
 10
284.14691857900021
 20
-223.82332495
 30
0.0
  0
VERTEX
  5
A51
  8
DATA
  6
CONTINUOUS
 62
     7
 10
284.14691857899919
 20
-223.82332495000179
 30
0.0
 42
-0.0270987799998396
  0
VERTEX
  5
A52
  8
DATA
  6
CONTINUOUS
 62
     7
 10
283.81307024200032
 20
-224.39323971100009
 30
0.0
  0
VERTEX
  5
A53
  8
DATA
  6
CONTINUOUS
 62
     7
 10
283.81307024200032
 20
-224.39323971100009
 30
0.0
  0
VERTEX
  5
A54
  8
DATA
  6
CONTINUOUS
 62
     7
 10
283.81307024199981
 20
-224.3932397110008
 30
0.0
 42
-0.0256239269998826
  0
VERTEX
  5
A55
  8
DATA
  6
CONTINUOUS
 62
     7
 10
283.41024640900008
 20
-224.94041123
 30
0.0
  0
VERTEX
  5
A56
  8
DATA
  6
CONTINUOUS
 62
     7
 10
283.41024640900008
 20
-224.94041123
 30
0.0
  0
VERTEX
  5
A57
  8
DATA
  6
CONTINUOUS
 62
     7
 10
283.41024640900008
 20
-224.94041123
 30
0.0
 42
-0.0241305730001312
  0
VERTEX
  5
A58
  8
DATA
  6
CONTINUOUS
 62
     7
 10
282.9415128140003
 20
-225.4606752010001
 30
0.0
  0
VERTEX
  5
A59
  8
DATA
  6
CONTINUOUS
 62
     7
 10
282.9415128140003
 20
-225.4606752010001
 30
0.0
  0
VERTEX
  5
A5A
  8
DATA
  6
CONTINUOUS
 62
     7
 10
282.9415128140003
 20
-225.4606752010001
 30
0.0
 42
-0.0226890190000138
  0
VERTEX
  5
A5B
  8
DATA
  6
CONTINUOUS
 62
     7
 10
282.41043680200022
 20
-225.95007210099999
 30
0.0
  0
VERTEX
  5
A5C
  8
DATA
  6
CONTINUOUS
 62
     7
 10
282.41043680200022
 20
-225.95007210099999
 30
0.0
  0
VERTEX
  5
A5D
  8
DATA
  6
CONTINUOUS
 62
     7
 10
282.41043680200022
 20
-225.95007210099999
 30
0.0
 42
-0.0213470120000014
  0
VERTEX
  5
A5E
  8
DATA
  6
CONTINUOUS
 62
     7
 10
281.8210601830005
 20
-226.40487732400001
 30
0.0
  0
VERTEX
  5
A5F
  8
DATA
  6
CONTINUOUS
 62
     7
 10
281.8210601830005
 20
-226.40487732400001
 30
0.0
  0
VERTEX
  5
A60
  8
DATA
  6
CONTINUOUS
 62
     7
 10
281.8210601830005
 20
-226.40487732400001
 30
0.0
 42
-0.0201331390000802
  0
VERTEX
  5
A61
  8
DATA
  6
CONTINUOUS
 62
     7
 10
281.1778684680001
 20
-226.82162952799999
 30
0.0
  0
VERTEX
  5
A62
  8
DATA
  6
CONTINUOUS
 62
     7
 10
281.1778684680001
 20
-226.82162952799999
 30
0.0
  0
VERTEX
  5
A63
  8
DATA
  6
CONTINUOUS
 62
     7
 10
281.17786846799982
 20
-226.8216295280003
 30
0.0
 42
-0.0190615839999613
  0
VERTEX
  5
A64
  8
DATA
  6
CONTINUOUS
 62
     7
 10
280.48575673500039
 20
-227.19715697700011
 30
0.0
  0
VERTEX
  5
A65
  8
DATA
  6
CONTINUOUS
 62
     7
 10
280.48575673500039
 20
-227.19715697700011
 30
0.0
  0
VERTEX
  5
A66
  8
DATA
  6
CONTINUOUS
 62
     7
 10
280.48575673500039
 20
-227.19715697700011
 30
0.0
 42
-0.0181367479999993
  0
VERTEX
  5
A67
  8
DATA
  6
CONTINUOUS
 62
     7
 10
279.74999237100019
 20
-227.528601681
 30
0.0
  0
VERTEX
  5
A68
  8
DATA
  6
CONTINUOUS
 62
     7
 10
279.74999237100019
 20
-227.528601681
 30
0.0
  0
VERTEX
  5
A69
  8
DATA
  6
CONTINUOUS
 62
     7
 10
279.749992370999
 20
-227.5286016810004
 30
0.0
 42
-0.0173570480000108
  0
VERTEX
  5
A6A
  8
DATA
  6
CONTINUOUS
 62
     7
 10
278.9761749890003
 20
-227.81344114400011
 30
0.0
  0
VERTEX
  5
A6B
  8
DATA
  6
CONTINUOUS
 62
     7
 10
278.9761749890003
 20
-227.81344114400011
 30
0.0
  0
VERTEX
  5
A6C
  8
DATA
  6
CONTINUOUS
 62
     7
 10
278.97617498899831
 20
-227.81344114400079
 30
0.0
 42
-0.0167177379999152
  0
VERTEX
  5
A6D
  8
DATA
  6
CONTINUOUS
 62
     7
 10
278.17019380500039
 20
-228.04950756800011
 30
0.0
  0
VERTEX
  5
A6E
  8
DATA
  6
CONTINUOUS
 62
     7
 10
278.17019380500039
 20
-228.04950756800011
 30
0.0
  0
VERTEX
  5
A6F
  8
DATA
  6
CONTINUOUS
 62
     7
 10
278.1701938049996
 20
-228.04950756800031
 30
0.0
 42
-0.0162128689999693
  0
VERTEX
  5
A70
  8
DATA
  6
CONTINUOUS
 62
     7
 10
277.33818282200031
 20
-228.23500434300001
 30
0.0
  0
VERTEX
  5
A71
  8
DATA
  6
CONTINUOUS
 62
     7
 10
277.33818282200031
 20
-228.23500434300001
 30
0.0
  0
VERTEX
  5
A72
  8
DATA
  6
CONTINUOUS
 62
     7
 10
277.33818282200031
 20
-228.23500434300001
 30
0.0
 42
-0.015836575000052
  0
VERTEX
  5
A73
  8
DATA
  6
CONTINUOUS
 62
     7
 10
276.48647414800053
 20
-228.36851972700001
 30
0.0
  0
VERTEX
  5
A74
  8
DATA
  6
CONTINUOUS
 62
     7
 10
276.48647414800053
 20
-228.36851972700001
 30
0.0
  0
VERTEX
  5
A75
  8
DATA
  6
CONTINUOUS
 62
     7
 10
276.4864741479991
 20
-228.3685197270002
 30
0.0
 42
-0.0155838789999339
  0
VERTEX
  5
A76
  8
DATA
  6
CONTINUOUS
 62
     7
 10
275.62154979900009
 20
-228.44903758800001
 30
0.0
  0
VERTEX
  5
A77
  8
DATA
  6
CONTINUOUS
 62
     7
 10
275.62154979900009
 20
-228.44903758800001
 30
0.0
  0
VERTEX
  5
A78
  8
DATA
  6
CONTINUOUS
 62
     7
 10
275.62154979900009
 20
-228.44903758800001
 30
0.0
 42
-0.015451170000037
  0
VERTEX
  5
A79
  8
DATA
  6
CONTINUOUS
 62
     7
 10
274.74999237100008
 20
-228.47594513600009
 30
0.0
  0
VERTEX
  5
A7A
  8
DATA
  6
CONTINUOUS
 62
     7
 10
274.74999237100008
 20
-228.47594513600009
 30
0.0
  0
VERTEX
  5
A7B
  8
DATA
  6
CONTINUOUS
 62
     7
 10
274.74999237100008
 20
-228.47594513600009
 30
0.0
 42
-0.0154364710000515
  0
VERTEX
  5
A7C
  8
DATA
  6
CONTINUOUS
 62
     7
 10
273.87843494400022
 20
-228.44903758800001
 30
0.0
  0
VERTEX
  5
A7D
  8
DATA
  6
CONTINUOUS
 62
     7
 10
273.87843494400022
 20
-228.44903758800001
 30
0.0
  0
VERTEX
  5
A7E
  8
DATA
  6
CONTINUOUS
 62
     7
 10
273.87843494400022
 20
-228.44903758800001
 30
0.0
 42
-0.0155395600000926
  0
VERTEX
  5
A7F
  8
DATA
  6
CONTINUOUS
 62
     7
 10
273.01351059500018
 20
-228.36851972700001
 30
0.0
  0
VERTEX
  5
A80
  8
DATA
  6
CONTINUOUS
 62
     7
 10
273.01351059500018
 20
-228.36851972700001
 30
0.0
  0
VERTEX
  5
A81
  8
DATA
  6
CONTINUOUS
 62
     7
 10
273.01351059500018
 20
-228.36851972700001
 30
0.0
 42
-0.0157619810000182
  0
VERTEX
  5
A82
  8
DATA
  6
CONTINUOUS
 62
     7
 10
272.16180192000041
 20
-228.23500434300001
 30
0.0
  0
VERTEX
  5
A83
  8
DATA
  6
CONTINUOUS
 62
     7
 10
272.16180192000041
 20
-228.23500434300001
 30
0.0
  0
VERTEX
  5
A84
  8
DATA
  6
CONTINUOUS
 62
     7
 10
272.16180191999968
 20
-228.2350043429999
 30
0.0
 42
-0.0161069560000138
  0
VERTEX
  5
A85
  8
DATA
  6
CONTINUOUS
 62
     7
 10
271.32979093800031
 20
-228.04950756800011
 30
0.0
  0
VERTEX
  5
A86
  8
DATA
  6
CONTINUOUS
 62
     7
 10
271.32979093800031
 20
-228.04950756800011
 30
0.0
  0
VERTEX
  5
A87
  8
DATA
  6
CONTINUOUS
 62
     7
 10
271.32979093800031
 20
-228.04950756800011
 30
0.0
 42
-0.0165791550000206
  0
VERTEX
  5
A88
  8
DATA
  6
CONTINUOUS
 62
     7
 10
270.52380975400041
 20
-227.81344114400011
 30
0.0
  0
VERTEX
  5
A89
  8
DATA
  6
CONTINUOUS
 62
     7
 10
270.52380975400041
 20
-227.81344114400011
 30
0.0
  0
VERTEX
  5
A8A
  8
DATA
  6
CONTINUOUS
 62
     7
 10
270.52380975399888
 20
-227.8134411439996
 30
0.0
 42
-0.0171842829999185
  0
VERTEX
  5
A8B
  8
DATA
  6
CONTINUOUS
 62
     7
 10
269.74999237100008
 20
-227.528601681
 30
0.0
  0
VERTEX
  5
A8C
  8
DATA
  6
CONTINUOUS
 62
     7
 10
269.74999237100008
 20
-227.528601681
 30
0.0
  0
VERTEX
  5
A8D
  8
DATA
  6
CONTINUOUS
 62
     7
 10
269.74999237100008
 20
-227.528601681
 30
0.0
 42
-0.0179283660000333
  0
VERTEX
  5
A8E
  8
DATA
  6
CONTINUOUS
 62
     7
 10
269.01422800800032
 20
-227.19715697700011
 30
0.0
  0
VERTEX
  5
A8F
  8
DATA
  6
CONTINUOUS
 62
     7
 10
269.01422800800032
 20
-227.19715697700011
 30
0.0
  0
VERTEX
  5
A90
  8
DATA
  6
CONTINUOUS
 62
     7
 10
269.01422800799747
 20
-227.19715697699871
 30
0.0
 42
-0.0188166049998611
  0
VERTEX
  5
A91
  8
DATA
  6
CONTINUOUS
 62
     7
 10
268.322116274
 20
-226.82162952799999
 30
0.0
  0
VERTEX
  5
A92
  8
DATA
  6
CONTINUOUS
 62
     7
 10
268.322116274
 20
-226.82162952799999
 30
0.0
  0
VERTEX
  5
A93
  8
DATA
  6
CONTINUOUS
 62
     7
 10
268.322116274
 20
-226.82162952799999
 30
0.0
 42
-0.0198516010000655
  0
VERTEX
  5
A94
  8
DATA
  6
CONTINUOUS
 62
     7
 10
267.67892455900022
 20
-226.40487732400001
 30
0.0
  0
VERTEX
  5
A95
  8
DATA
  6
CONTINUOUS
 62
     7
 10
267.67892455900022
 20
-226.40487732400001
 30
0.0
  0
VERTEX
  5
A96
  8
DATA
  6
CONTINUOUS
 62
     7
 10
267.67892455899892
 20
-226.4048773239991
 30
0.0
 42
-0.0210307679998932
  0
VERTEX
  5
A97
  8
DATA
  6
CONTINUOUS
 62
     7
 10
267.08954793999999
 20
-225.95007210099999
 30
0.0
  0
VERTEX
  5
A98
  8
DATA
  6
CONTINUOUS
 62
     7
 10
267.08954793999999
 20
-225.95007210099999
 30
0.0
  0
VERTEX
  5
A99
  8
DATA
  6
CONTINUOUS
 62
     7
 10
267.08954793999999
 20
-225.95007210099999
 30
0.0
 42
-0.0223427750001065
  0
VERTEX
  5
A9A
  8
DATA
  6
CONTINUOUS
 62
     7
 10
266.55847192800042
 20
-225.4606752010001
 30
0.0
  0
VERTEX
  5
A9B
  8
DATA
  6
CONTINUOUS
 62
     7
 10
266.55847192800042
 20
-225.4606752010001
 30
0.0
  0
VERTEX
  5
A9C
  8
DATA
  6
CONTINUOUS
 62
     7
 10
266.55847192800042
 20
-225.4606752010001
 30
0.0
 42
-0.0237630950002901
  0
VERTEX
  5
A9D
  8
DATA
  6
CONTINUOUS
 62
     7
 10
266.08973833300013
 20
-224.94041123
 30
0.0
  0
VERTEX
  5
A9E
  8
DATA
  6
CONTINUOUS
 62
     7
 10
266.08973833300013
 20
-224.94041123
 30
0.0
  0
VERTEX
  5
A9F
  8
DATA
  6
CONTINUOUS
 62
     7
 10
266.08973833300013
 20
-224.94041123
 30
0.0
 42
-0.0252491760001252
  0
VERTEX
  5
AA0
  8
DATA
  6
CONTINUOUS
 62
     7
 10
265.68691450100039
 20
-224.39323971100009
 30
0.0
  0
VERTEX
  5
AA1
  8
DATA
  6
CONTINUOUS
 62
     7
 10
265.68691450100039
 20
-224.39323971100009
 30
0.0
  0
VERTEX
  5
AA2
  8
DATA
  6
CONTINUOUS
 62
     7
 10
265.6869145009988
 20
-224.39323971099759
 30
0.0
 42
-0.0267365169997425
  0
VERTEX
  5
AA3
  8
DATA
  6
CONTINUOUS
 62
     7
 10
265.35306616300022
 20
-223.82332495
 30
0.0
  0
VERTEX
  5
AA4
  8
DATA
  6
CONTINUOUS
 62
     7
 10
265.35306616300022
 20
-223.82332495
 30
0.0
  0
VERTEX
  5
AA5
  8
DATA
  6
CONTINUOUS
 62
     7
 10
265.35306616300022
 20
-223.82332495
 30
0.0
 42
-0.0281378350002432
  0
VERTEX
  5
AA6
  8
DATA
  6
CONTINUOUS
 62
     7
 10
265.0907341080005
 20
-223.23500434300001
 30
0.0
  0
VERTEX
  5
AA7
  8
DATA
  6
CONTINUOUS
 62
     7
 10
265.0907341080005
 20
-223.23500434300001
 30
0.0
  0
VERTEX
  5
AA8
  8
DATA
  6
CONTINUOUS
 62
     7
 10
265.0907341080005
 20
-223.23500434300001
 30
0.0
 42
-0.0293480880001188
  0
VERTEX
  5
AA9
  8
DATA
  6
CONTINUOUS
 62
     7
 10
264.90191484100012
 20
-222.63275536399999
 30
0.0
  0
VERTEX
  5
AAA
  8
DATA
  6
CONTINUOUS
 62
     7
 10
264.90191484100012
 20
-222.63275536399999
 30
0.0
  0
VERTEX
  5
AAB
  8
DATA
  6
CONTINUOUS
 62
     7
 10
264.90191484099978
 20
-222.6327553639984
 30
0.0
 42
-0.0302573149998597
  0
VERTEX
  5
AAC
  8
DATA
  6
CONTINUOUS
 62
     7
 10
264.78804539000009
 20
-222.02116149099999
 30
0.0
  0
VERTEX
  5
AAD
  8
DATA
  6
CONTINUOUS
 62
     7
 10
264.78804539000009
 20
-222.02116149099999
 30
0.0
  0
VERTEX
  5
AAE
  8
DATA
  6
CONTINUOUS
 62
     7
 10
264.78804538999998
 20
-222.02116149099939
 30
0.0
 42
-0.0307704459998686
  0
VERTEX
  5
AAF
  8
DATA
  6
CONTINUOUS
 62
     7
 10
264.74999237100008
 20
-221.40487732400001
 30
0.0
  0
SEQEND
  5
AB0
  8
DATA
  6
CONTINUOUS
 62
     7
  0
POLYLINE
  5
4C5
  8
DATA
  6
CONTINUOUS
 62
     7
 66
     1
 10
0.0
 20
0.0
 30
0.0
 70
   128
  0
VERTEX
  5
AB1
  8
DATA
  6
CONTINUOUS
 62
     7
 10
284.62116251499958
 20
-220.2735064740036
 30
0.0
 42
-0.0300536239997159
  0
VERTEX
  5
AB2
  8
DATA
  6
CONTINUOUS
 62
     7
 10
284.4420236490003
 20
-220.88347558300009
 30
0.0
  0
VERTEX
  5
AB3
  8
DATA
  6
CONTINUOUS
 62
     7
 10
284.4420236490003
 20
-220.88347558300009
 30
0.0
  0
VERTEX
  5
AB4
  8
DATA
  6
CONTINUOUS
 62
     7
 10
284.44202364899951
 20
-220.88347558300271
 30
0.0
 42
-0.0289290129998028
  0
VERTEX
  5
AB5
  8
DATA
  6
CONTINUOUS
 62
     7
 10
284.18765374800017
 20
-221.47992814400001
 30
0.0
  0
VERTEX
  5
AB6
  8
DATA
  6
CONTINUOUS
 62
     7
 10
284.18765374800017
 20
-221.47992814400001
 30
0.0
  0
VERTEX
  5
AB7
  8
DATA
  6
CONTINUOUS
 62
     7
 10
284.18765374799841
 20
-221.47992814400371
 30
0.0
 42
-0.0275624569996363
  0
VERTEX
  5
AB8
  8
DATA
  6
CONTINUOUS
 62
     7
 10
283.86002727000039
 20
-222.05823440000009
 30
0.0
  0
VERTEX
  5
AB9
  8
DATA
  6
CONTINUOUS
 62
     7
 10
283.86002727000039
 20
-222.05823440000009
 30
0.0
  0
VERTEX
  5
ABA
  8
DATA
  6
CONTINUOUS
 62
     7
 10
283.86002727000061
 20
-222.05823439999969
 30
0.0
 42
-0.0260672350000207
  0
VERTEX
  5
ABB
  8
DATA
  6
CONTINUOUS
 62
     7
 10
283.46168730200043
 20
-222.6139054490001
 30
0.0
  0
VERTEX
  5
ABC
  8
DATA
  6
CONTINUOUS
 62
     7
 10
283.46168730200043
 20
-222.6139054490001
 30
0.0
  0
VERTEX
  5
ABD
  8
DATA
  6
CONTINUOUS
 62
     7
 10
283.4616873019998
 20
-222.6139054490007
 30
0.0
 42
-0.0245421769999474
  0
VERTEX
  5
ABE
  8
DATA
  6
CONTINUOUS
 62
     7
 10
282.9957258190002
 20
-223.14262808800001
 30
0.0
  0
VERTEX
  5
ABF
  8
DATA
  6
CONTINUOUS
 62
     7
 10
282.9957258190002
 20
-223.14262808800001
 30
0.0
  0
VERTEX
  5
AC0
  8
DATA
  6
CONTINUOUS
 62
     7
 10
282.9957258190002
 20
-223.14262808800001
 30
0.0
 42
-0.0230633140001202
  0
VERTEX
  5
AC1
  8
DATA
  6
CONTINUOUS
 62
     7
 10
282.46575968600013
 20
-223.64029829
 30
0.0
  0
VERTEX
  5
AC2
  8
DATA
  6
CONTINUOUS
 62
     7
 10
282.46575968600013
 20
-223.64029829
 30
0.0
  0
VERTEX
  5
AC3
  8
DATA
  6
CONTINUOUS
 62
     7
 10
282.46575968600013
 20
-223.64029829
 30
0.0
 42
-0.0216827840000449
  0
VERTEX
  5
AC4
  8
DATA
  6
CONTINUOUS
 62
     7
 10
281.87590258300042
 20
-224.1030530620001
 30
0.0
  0
VERTEX
  5
AC5
  8
DATA
  6
CONTINUOUS
 62
     7
 10
281.87590258300042
 20
-224.1030530620001
 30
0.0
  0
VERTEX
  5
AC6
  8
DATA
  6
CONTINUOUS
 62
     7
 10
281.87590258299781
 20
-224.10305306200181
 30
0.0
 42
-0.0204321239998571
  0
VERTEX
  5
AC7
  8
DATA
  6
CONTINUOUS
 62
     7
 10
281.23073307000038
 20
-224.5273004310001
 30
0.0
  0
VERTEX
  5
AC8
  8
DATA
  6
CONTINUOUS
 62
     7
 10
281.23073307000038
 20
-224.5273004310001
 30
0.0
  0
VERTEX
  5
AC9
  8
DATA
  6
CONTINUOUS
 62
     7
 10
281.23073306999942
 20
-224.5273004310007
 30
0.0
 42
-0.0193272499999404
  0
VERTEX
  5
ACA
  8
DATA
  6
CONTINUOUS
 62
     7
 10
280.53525905200007
 20
-224.90974732399999
 30
0.0
  0
VERTEX
  5
ACB
  8
DATA
  6
CONTINUOUS
 62
     7
 10
280.53525905200007
 20
-224.90974732399999
 30
0.0
  0
VERTEX
  5
ACC
  8
DATA
  6
CONTINUOUS
 62
     7
 10
280.53525905200007
 20
-224.90974732399999
 30
0.0
 42
-0.0183734080001929
  0
VERTEX
  5
ACD
  8
DATA
  6
CONTINUOUS
 62
     7
 10
279.79487890500008
 20
-225.247425128
 30
0.0
  0
VERTEX
  5
ACE
  8
DATA
  6
CONTINUOUS
 62
     7
 10
279.79487890500008
 20
-225.247425128
 30
0.0
  0
VERTEX
  5
ACF
  8
DATA
  6
CONTINUOUS
 62
     7
 10
279.79487890500008
 20
-225.247425128
 30
0.0
 42
-0.0175692910001746
  0
VERTEX
  5
AD0
  8
DATA
  6
CONTINUOUS
 62
     7
 10
279.01533957400028
 20
-225.53771273800001
 30
0.0
  0
VERTEX
  5
AD1
  8
DATA
  6
CONTINUOUS
 62
     7
 10
279.01533957400028
 20
-225.53771273800001
 30
0.0
  0
VERTEX
  5
AD2
  8
DATA
  6
CONTINUOUS
 62
     7
 10
279.01533957400028
 20
-225.53771273800001
 30
0.0
 42
-0.0169100990000467
  0
VERTEX
  5
AD3
  8
DATA
  6
CONTINUOUS
 62
     7
 10
278.20269196300012
 20
-225.7783568960001
 30
0.0
  0
VERTEX
  5
AD4
  8
DATA
  6
CONTINUOUS
 62
     7
 10
278.20269196300012
 20
-225.7783568960001
 30
0.0
  0
VERTEX
  5
AD5
  8
DATA
  6
CONTINUOUS
 62
     7
 10
278.20269196299859
 20
-225.7783568960005
 30
0.0
 42
-0.016389675999974
  0
VERTEX
  5
AD6
  8
DATA
  6
CONTINUOUS
 62
     7
 10
277.36324396700041
 20
-225.96748968399999
 30
0.0
  0
VERTEX
  5
AD7
  8
DATA
  6
CONTINUOUS
 62
     7
 10
277.36324396700041
 20
-225.96748968399999
 30
0.0
  0
VERTEX
  5
AD8
  8
DATA
  6
CONTINUOUS
 62
     7
 10
277.36324396699638
 20
-225.96748968400081
 30
0.0
 42
-0.0160018979999256
  0
VERTEX
  5
AD9
  8
DATA
  6
CONTINUOUS
 62
     7
 10
276.50351151100028
 20
-226.1036430260001
 30
0.0
  0
VERTEX
  5
ADA
  8
DATA
  6
CONTINUOUS
 62
     7
 10
276.50351151100028
 20
-226.1036430260001
 30
0.0
  0
VERTEX
  5
ADB
  8
DATA
  6
CONTINUOUS
 62
     7
 10
276.50351151100051
 20
-226.1036430260001
 30
0.0
 42
-0.015741548999981
  0
VERTEX
  5
ADC
  8
DATA
  6
CONTINUOUS
 62
     7
 10
275.6301679700004
 20
-226.185760079
 30
0.0
  0
VERTEX
  5
ADD
  8
DATA
  6
CONTINUOUS
 62
     7
 10
275.6301679700004
 20
-226.185760079
 30
0.0
  0
VERTEX
  5
ADE
  8
DATA
  6
CONTINUOUS
 62
     7
 10
275.63016797000068
 20
-226.185760079
 30
0.0
 42
-0.0156048430000123
  0
VERTEX
  5
ADF
  8
DATA
  6
CONTINUOUS
 62
     7
 10
274.74999237100008
 20
-226.2132034360001
 30
0.0
  0
VERTEX
  5
AE0
  8
DATA
  6
CONTINUOUS
 62
     7
 10
274.74999237100008
 20
-226.2132034360001
 30
0.0
  0
VERTEX
  5
AE1
  8
DATA
  6
CONTINUOUS
 62
     7
 10
274.74999237099928
 20
-226.2132034360001
 30
0.0
 42
-0.0155897019999536
  0
VERTEX
  5
AE2
  8
DATA
  6
CONTINUOUS
 62
     7
 10
273.86981677200032
 20
-226.185760079
 30
0.0
  0
VERTEX
  5
AE3
  8
DATA
  6
CONTINUOUS
 62
     7
 10
273.86981677200032
 20
-226.185760079
 30
0.0
  0
VERTEX
  5
AE4
  8
DATA
  6
CONTINUOUS
 62
     7
 10
273.86981677200032
 20
-226.185760079
 30
0.0
 42
-0.0156958929999598
  0
VERTEX
  5
AE5
  8
DATA
  6
CONTINUOUS
 62
     7
 10
272.99647323100038
 20
-226.1036430260001
 30
0.0
  0
VERTEX
  5
AE6
  8
DATA
  6
CONTINUOUS
 62
     7
 10
272.99647323100038
 20
-226.1036430260001
 30
0.0
  0
VERTEX
  5
AE7
  8
DATA
  6
CONTINUOUS
 62
     7
 10
272.9964732310001
 20
-226.1036430260001
 30
0.0
 42
-0.0159250389999179
  0
VERTEX
  5
AE8
  8
DATA
  6
CONTINUOUS
 62
     7
 10
272.13674077500031
 20
-225.96748968399999
 30
0.0
  0
VERTEX
  5
AE9
  8
DATA
  6
CONTINUOUS
 62
     7
 10
272.13674077500031
 20
-225.96748968399999
 30
0.0
  0
VERTEX
  5
AEA
  8
DATA
  6
CONTINUOUS
 62
     7
 10
272.1367407749965
 20
-225.96748968399939
 30
0.0
 42
-0.0162805199998432
  0
VERTEX
  5
AEB
  8
DATA
  6
CONTINUOUS
 62
     7
 10
271.29729278000008
 20
-225.7783568960001
 30
0.0
  0
VERTEX
  5
AEC
  8
DATA
  6
CONTINUOUS
 62
     7
 10
271.29729278000008
 20
-225.7783568960001
 30
0.0
  0
VERTEX
  5
AED
  8
DATA
  6
CONTINUOUS
 62
     7
 10
271.29729277999701
 20
-225.77835689599931
 30
0.0
 42
-0.0167672319999363
  0
VERTEX
  5
AEE
  8
DATA
  6
CONTINUOUS
 62
     7
 10
270.48464516800038
 20
-225.53771273800001
 30
0.0
  0
VERTEX
  5
AEF
  8
DATA
  6
CONTINUOUS
 62
     7
 10
270.48464516800038
 20
-225.53771273800001
 30
0.0
  0
VERTEX
  5
AF0
  8
DATA
  6
CONTINUOUS
 62
     7
 10
270.48464516800038
 20
-225.53771273800001
 30
0.0
 42
-0.0173911360000465
  0
VERTEX
  5
AF1
  8
DATA
  6
CONTINUOUS
 62
     7
 10
269.70510583800012
 20
-225.247425128
 30
0.0
  0
VERTEX
  5
AF2
  8
DATA
  6
CONTINUOUS
 62
     7
 10
269.70510583800012
 20
-225.247425128
 30
0.0
  0
VERTEX
  5
AF3
  8
DATA
  6
CONTINUOUS
 62
     7
 10
269.70510583799819
 20
-225.24742512799921
 30
0.0
 42
-0.0181584889999525
  0
VERTEX
  5
AF4
  8
DATA
  6
CONTINUOUS
 62
     7
 10
268.96472569100013
 20
-224.90974732399999
 30
0.0
  0
VERTEX
  5
AF5
  8
DATA
  6
CONTINUOUS
 62
     7
 10
268.96472569100013
 20
-224.90974732399999
 30
0.0
  0
VERTEX
  5
AF6
  8
DATA
  6
CONTINUOUS
 62
     7
 10
268.96472569100013
 20
-224.90974732399999
 30
0.0
 42
-0.0190745960000264
  0
VERTEX
  5
AF7
  8
DATA
  6
CONTINUOUS
 62
     7
 10
268.26925167300033
 20
-224.5273004310001
 30
0.0
  0
VERTEX
  5
AF8
  8
DATA
  6
CONTINUOUS
 62
     7
 10
268.26925167300033
 20
-224.5273004310001
 30
0.0
  0
VERTEX
  5
AF9
  8
DATA
  6
CONTINUOUS
 62
     7
 10
268.269251672998
 20
-224.52730043099859
 30
0.0
 42
-0.0201418859998634
  0
VERTEX
  5
AFA
  8
DATA
  6
CONTINUOUS
 62
     7
 10
267.6240821600004
 20
-224.1030530620001
 30
0.0
  0
VERTEX
  5
AFB
  8
DATA
  6
CONTINUOUS
 62
     7
 10
267.6240821600004
 20
-224.1030530620001
 30
0.0
  0
VERTEX
  5
AFC
  8
DATA
  6
CONTINUOUS
 62
     7
 10
267.6240821600004
 20
-224.1030530620001
 30
0.0
 42
-0.0213570960000151
  0
VERTEX
  5
AFD
  8
DATA
  6
CONTINUOUS
 62
     7
 10
267.03422505600008
 20
-223.64029829
 30
0.0
  0
VERTEX
  5
AFE
  8
DATA
  6
CONTINUOUS
 62
     7
 10
267.03422505600008
 20
-223.64029829
 30
0.0
  0
VERTEX
  5
AFF
  8
DATA
  6
CONTINUOUS
 62
     7
 10
267.03422505599769
 20
-223.64029828999799
 30
0.0
 42
-0.0227074139998169
  0
VERTEX
  5
B00
  8
DATA
  6
CONTINUOUS
 62
     7
 10
266.50425892400011
 20
-223.14262808800001
 30
0.0
  0
VERTEX
  5
B01
  8
DATA
  6
CONTINUOUS
 62
     7
 10
266.50425892400011
 20
-223.14262808800001
 30
0.0
  0
VERTEX
  5
B02
  8
DATA
  6
CONTINUOUS
 62
     7
 10
266.50425892399858
 20
-223.14262808799859
 30
0.0
 42
-0.0241656999998295
  0
VERTEX
  5
B03
  8
DATA
  6
CONTINUOUS
 62
     7
 10
266.0382974410004
 20
-222.6139054490001
 30
0.0
  0
VERTEX
  5
B04
  8
DATA
  6
CONTINUOUS
 62
     7
 10
266.0382974410004
 20
-222.6139054490001
 30
0.0
  0
VERTEX
  5
B05
  8
DATA
  6
CONTINUOUS
 62
     7
 10
266.0382974410004
 20
-222.6139054490001
 30
0.0
 42
-0.0256853780000801
  0
VERTEX
  5
B06
  8
DATA
  6
CONTINUOUS
 62
     7
 10
265.63995747200028
 20
-222.05823440000009
 30
0.0
  0
VERTEX
  5
B07
  8
DATA
  6
CONTINUOUS
 62
     7
 10
265.63995747200028
 20
-222.05823440000009
 30
0.0
  0
VERTEX
  5
B08
  8
DATA
  6
CONTINUOUS
 62
     7
 10
265.63995747200028
 20
-222.05823440000009
 30
0.0
 42
-0.0271965120001072
  0
VERTEX
  5
B09
  8
DATA
  6
CONTINUOUS
 62
     7
 10
265.31233099400009
 20
-221.47992814400001
 30
0.0
  0
VERTEX
  5
B0A
  8
DATA
  6
CONTINUOUS
 62
     7
 10
265.31233099400009
 20
-221.47992814400001
 30
0.0
  0
VERTEX
  5
B0B
  8
DATA
  6
CONTINUOUS
 62
     7
 10
265.31233099399952
 20
-221.47992814399879
 30
0.0
 42
-0.0286055139998192
  0
VERTEX
  5
B0C
  8
DATA
  6
CONTINUOUS
 62
     7
 10
265.0579610930003
 20
-220.88347558300009
 30
0.0
  0
VERTEX
  5
B0D
  8
DATA
  6
CONTINUOUS
 62
     7
 10
265.0579610930003
 20
-220.88347558300009
 30
0.0
  0
VERTEX
  5
B0E
  8
DATA
  6
CONTINUOUS
 62
     7
 10
265.0579610930003
 20
-220.88347558300009
 30
0.0
 42
-0.029801461000309
  0
VERTEX
  5
B0F
  8
DATA
  6
CONTINUOUS
 62
     7
 10
264.87882222800039
 20
-220.27350647399999
 30
0.0
  0
VERTEX
  5
B10
  8
DATA
  6
CONTINUOUS
 62
     7
 10
264.87882222800039
 20
-220.27350647399999
 30
0.0
  0
SEQEND
  5
B11
  8
DATA
  6
CONTINUOUS
 62
     7
  0
CIRCLE
  5
527
  8
DATA
  6
CONTINUOUS
 62
     7
 10
324.9999923710003
 20
-65.0
 30
0.0
 40
16.0
  0
CIRCLE
  5
528
  8
DATA
  6
CONTINUOUS
 62
     7
 10
324.9999923710003
 20
-155.0
 30
0.0
 40
16.0
  0
CIRCLE
  5
529
  8
DATA
  6
CONTINUOUS
 62
     7
 10
324.9999923710003
 20
-110.0
 30
0.0
 40
16.0
  0
ARC
  5
52A
  8
DATA
  6
CONTINUOUS
 62
     7
 10
-191.50000000000011
 20
-194.0
 30
0.0
 40
6.0
 50
179.9999684570007
 51
270.0
  0
LINE
  5
52B
  8
DATA
  6
CONTINUOUS
 62
     7
 10
-191.50000000000011
 20
-200.0
 30
0.0
 11
-58.500000000000021
 21
-200.0
 31
0.0
  0
ARC
  5
52C
  8
DATA
  6
CONTINUOUS
 62
     7
 10
-58.500000000000021
 20
-194.0
 30
0.0
 40
6.0
 50
270.0
 51
0.0000315429992952
  0
LINE
  5
52D
  8
DATA
  6
CONTINUOUS
 62
     7
 10
-197.50000000000011
 20
-25.999992371000008
 30
0.0
 11
-197.50000000000011
 21
-193.999996697
 31
0.0
  0
ARC
  5
52E
  8
DATA
  6
CONTINUOUS
 62
     7
 10
-191.50000000000011
 20
-26.0
 30
0.0
 40
6.0000000000000178
 50
89.999927145000612
 51
179.99992714900009
  0
LINE
  5
52F
  8
DATA
  6
CONTINUOUS
 62
     7
 10
-191.4999923710003
 20
-20.0
 30
0.0
 11
-175.00000004667061
 21
-20.0
 31
0.0
  0
LINE
  5
530
  8
DATA
  6
CONTINUOUS
 62
     7
 10
-75.000000046670621
 20
-20.0
 30
0.0
 11
-58.499992371000211
 21
-20.0
 31
0.0
  0
ARC
  5
531
  8
DATA
  6
CONTINUOUS
 62
     7
 10
-58.500000000000021
 20
-26.0
 30
0.0
 40
5.9999999999998481
 50
0.0000728509999445
 51
89.999927145000612
  0
LINE
  5
532
  8
DATA
  6
CONTINUOUS
 62
     7
 10
-52.500000000000021
 20
-25.999992371000008
 30
0.0
 11
-52.500000000000021
 21
-193.999996697
 31
0.0
  0
CIRCLE
  5
533
  8
DATA
  6
CONTINUOUS
 62
     7
 10
-185.50000000000011
 20
-35.0
 30
0.0
 40
4.5999999999999091
  0
CIRCLE
  5
534
  8
DATA
  6
CONTINUOUS
 62
     7
 10
-185.50000000000011
 20
-110.0
 30
0.0
 40
4.5999999999999091
  0
CIRCLE
  5
535
  8
DATA
  6
CONTINUOUS
 62
     7
 10
-185.50000000000011
 20
-185.0
 30
0.0
 40
4.5999999999999091
  0
CIRCLE
  5
536
  8
DATA
  6
CONTINUOUS
 62
     7
 10
-64.500000000000014
 20
-185.0
 30
0.0
 40
4.5999999999999091
  0
CIRCLE
  5
537
  8
DATA
  6
CONTINUOUS
 62
     7
 10
-64.500000000000014
 20
-110.0
 30
0.0
 40
4.5999999999999091
  0
CIRCLE
  5
538
  8
DATA
  6
CONTINUOUS
 62
     7
 10
-64.500000000000014
 20
-35.0
 30
0.0
 40
4.5999999999999091
  0
ARC
  5
539
  8
DATA
  6
CONTINUOUS
 62
     7
 10
-62.500000000000021
 20
-225.54701294800009
 30
0.0
 40
10.0
 50
270.0
 51
0.0000299309999718
  0
LINE
  5
53A
  8
DATA
  6
CONTINUOUS
 62
     7
 10
-52.500000000000021
 20
-193.999996697
 30
0.0
 11
-52.500000000000021
 21
-225.54700772400011
 31
0.0
  0
LINE
  5
53B
  8
DATA
  6
CONTINUOUS
 62
     7
 10
-97.0
 20
-200.0
 30
0.0
 11
-97.0
 21
-225.54700890199999
 31
0.0
  0
ARC
  5
53C
  8
DATA
  6
CONTINUOUS
 62
     7
 10
-87.000000000000014
 20
-225.54701294800009
 30
0.0
 40
10.000000000000361
 50
179.99997680599981
 51
270.0
  0
LINE
  5
53D
  8
DATA
  6
CONTINUOUS
 62
     7
 10
-97.0
 20
-206.3254834
 30
0.0
 11
-52.500000000000021
 21
-206.3254834
 31
0.0
  0
LINE
  5
53E
  8
DATA
  6
CONTINUOUS
 62
     7
 10
-87.000000000000014
 20
-235.54701294800009
 30
0.0
 11
-62.500000000000021
 21
-235.54701294800009
 31
0.0
  0
POLYLINE
  5
53F
  8
DATA
  6
CONTINUOUS
 62
     7
 66
     1
 10
0.0
 20
0.0
 30
0.0
 70
   129
  0
VERTEX
  5
B12
  8
DATA
  6
CONTINUOUS
 62
     7
 10
-64.750000000000014
 20
-221.40487732400001
 30
0.0
  0
VERTEX
  5
B13
  8
DATA
  6
CONTINUOUS
 62
     7
 10
-64.749999999999986
 20
-221.4048773239972
 30
0.0
 42
0.030828906999635
  0
VERTEX
  5
B14
  8
DATA
  6
CONTINUOUS
 62
     7
 10
-64.788053019000031
 20
-220.78859315700001
 30
0.0
  0
VERTEX
  5
B15
  8
DATA
  6
CONTINUOUS
 62
     7
 10
-64.788053019000031
 20
-220.78859315700001
 30
0.0
  0
VERTEX
  5
B16
  8
DATA
  6
CONTINUOUS
 62
     7
 10
-64.788053019000031
 20
-220.78859315700001
 30
0.0
 42
0.0304257970000732
  0
VERTEX
  5
B17
  8
DATA
  6
CONTINUOUS
 62
     7
 10
-64.901922470000073
 20
-220.17699928400009
 30
0.0
  0
VERTEX
  5
B18
  8
DATA
  6
CONTINUOUS
 62
     7
 10
-64.901922470000073
 20
-220.17699928400009
 30
0.0
  0
VERTEX
  5
B19
  8
DATA
  6
CONTINUOUS
 62
     7
 10
-64.901922470000372
 20
-220.1769992839987
 30
0.0
 42
0.0296077559997596
  0
VERTEX
  5
B1A
  8
DATA
  6
CONTINUOUS
 62
     7
 10
-65.090741737000386
 20
-219.57475030500009
 30
0.0
  0
VERTEX
  5
B1B
  8
DATA
  6
CONTINUOUS
 62
     7
 10
-65.090741737000386
 20
-219.57475030500009
 30
0.0
  0
VERTEX
  5
B1C
  8
DATA
  6
CONTINUOUS
 62
     7
 10
-65.090741737000556
 20
-219.57475030499961
 30
0.0
 42
0.0284626549998933
  0
VERTEX
  5
B1D
  8
DATA
  6
CONTINUOUS
 62
     7
 10
-65.353073792000046
 20
-218.98642969700009
 30
0.0
  0
VERTEX
  5
B1E
  8
DATA
  6
CONTINUOUS
 62
     7
 10
-65.353073792000046
 20
-218.98642969700009
 30
0.0
  0
VERTEX
  5
B1F
  8
DATA
  6
CONTINUOUS
 62
     7
 10
-65.353073792002377
 20
-218.98642969699549
 30
0.0
 42
0.0270987799996115
  0
VERTEX
  5
B20
  8
DATA
  6
CONTINUOUS
 62
     7
 10
-65.686922130000326
 20
-218.4165149370001
 30
0.0
  0
VERTEX
  5
B21
  8
DATA
  6
CONTINUOUS
 62
     7
 10
-65.686922130000326
 20
-218.4165149370001
 30
0.0
  0
VERTEX
  5
B22
  8
DATA
  6
CONTINUOUS
 62
     7
 10
-65.686922130000326
 20
-218.4165149370001
 30
0.0
 42
0.0256239270000732
  0
VERTEX
  5
B23
  8
DATA
  6
CONTINUOUS
 62
     7
 10
-66.08974596200008
 20
-217.86934341800011
 30
0.0
  0
VERTEX
  5
B24
  8
DATA
  6
CONTINUOUS
 62
     7
 10
-66.08974596200008
 20
-217.86934341800011
 30
0.0
  0
VERTEX
  5
B25
  8
DATA
  6
CONTINUOUS
 62
     7
 10
-66.089745962001118
 20
-217.86934341799889
 30
0.0
 42
0.0241305729999594
  0
VERTEX
  5
B26
  8
DATA
  6
CONTINUOUS
 62
     7
 10
-66.558479557000297
 20
-217.34907944700001
 30
0.0
  0
VERTEX
  5
B27
  8
DATA
  6
CONTINUOUS
 62
     7
 10
-66.558479557000297
 20
-217.34907944700001
 30
0.0
  0
VERTEX
  5
B28
  8
DATA
  6
CONTINUOUS
 62
     7
 10
-66.558479557004247
 20
-217.349079446996
 30
0.0
 42
0.0226890189997235
  0
VERTEX
  5
B29
  8
DATA
  6
CONTINUOUS
 62
     7
 10
-67.089555568999927
 20
-216.85968254700001
 30
0.0
  0
VERTEX
  5
B2A
  8
DATA
  6
CONTINUOUS
 62
     7
 10
-67.089555568999927
 20
-216.85968254700001
 30
0.0
  0
VERTEX
  5
B2B
  8
DATA
  6
CONTINUOUS
 62
     7
 10
-67.089555569002457
 20
-216.85968254699799
 30
0.0
 42
0.021347011999849
  0
VERTEX
  5
B2C
  8
DATA
  6
CONTINUOUS
 62
     7
 10
-67.678932188000104
 20
-216.40487732400001
 30
0.0
  0
VERTEX
  5
B2D
  8
DATA
  6
CONTINUOUS
 62
     7
 10
-67.678932188000104
 20
-216.40487732400001
 30
0.0
  0
VERTEX
  5
B2E
  8
DATA
  6
CONTINUOUS
 62
     7
 10
-67.678932188001525
 20
-216.40487732399899
 30
0.0
 42
0.0201331389999155
  0
VERTEX
  5
B2F
  8
DATA
  6
CONTINUOUS
 62
     7
 10
-68.322123902999934
 20
-215.98812512000009
 30
0.0
  0
VERTEX
  5
B30
  8
DATA
  6
CONTINUOUS
 62
     7
 10
-68.322123902999934
 20
-215.98812512000009
 30
0.0
  0
VERTEX
  5
B31
  8
DATA
  6
CONTINUOUS
 62
     7
 10
-68.322123903000445
 20
-215.98812511999969
 30
0.0
 42
0.0190615839999949
  0
VERTEX
  5
B32
  8
DATA
  6
CONTINUOUS
 62
     7
 10
-69.014235637000198
 20
-215.61259767000001
 30
0.0
  0
VERTEX
  5
B33
  8
DATA
  6
CONTINUOUS
 62
     7
 10
-69.014235637000198
 20
-215.61259767000001
 30
0.0
  0
VERTEX
  5
B34
  8
DATA
  6
CONTINUOUS
 62
     7
 10
-69.014235637002244
 20
-215.61259766999899
 30
0.0
 42
0.0181367479999465
  0
VERTEX
  5
B35
  8
DATA
  6
CONTINUOUS
 62
     7
 10
-69.750000000000014
 20
-215.28115296700011
 30
0.0
  0
VERTEX
  5
B36
  8
DATA
  6
CONTINUOUS
 62
     7
 10
-69.750000000000014
 20
-215.28115296700011
 30
0.0
  0
VERTEX
  5
B37
  8
DATA
  6
CONTINUOUS
 62
     7
 10
-69.750000000002487
 20
-215.281152966999
 30
0.0
 42
0.0173570480000412
  0
VERTEX
  5
B38
  8
DATA
  6
CONTINUOUS
 62
     7
 10
-70.523817383000292
 20
-214.99631350300001
 30
0.0
  0
VERTEX
  5
B39
  8
DATA
  6
CONTINUOUS
 62
     7
 10
-70.523817383000292
 20
-214.99631350300001
 30
0.0
  0
VERTEX
  5
B3A
  8
DATA
  6
CONTINUOUS
 62
     7
 10
-70.523817383000292
 20
-214.99631350300001
 30
0.0
 42
0.0167177380000535
  0
VERTEX
  5
B3B
  8
DATA
  6
CONTINUOUS
 62
     7
 10
-71.32979856700014
 20
-214.76024708
 30
0.0
  0
VERTEX
  5
B3C
  8
DATA
  6
CONTINUOUS
 62
     7
 10
-71.32979856700014
 20
-214.76024708
 30
0.0
  0
VERTEX
  5
B3D
  8
DATA
  6
CONTINUOUS
 62
     7
 10
-71.329798567003223
 20
-214.7602470799992
 30
0.0
 42
0.0162128689999299
  0
VERTEX
  5
B3E
  8
DATA
  6
CONTINUOUS
 62
     7
 10
-72.161809549000296
 20
-214.57475030500009
 30
0.0
  0
VERTEX
  5
B3F
  8
DATA
  6
CONTINUOUS
 62
     7
 10
-72.161809549000296
 20
-214.57475030500009
 30
0.0
  0
VERTEX
  5
B40
  8
DATA
  6
CONTINUOUS
 62
     7
 10
-72.161809549000296
 20
-214.57475030500009
 30
0.0
 42
0.0158365750000397
  0
VERTEX
  5
B41
  8
DATA
  6
CONTINUOUS
 62
     7
 10
-73.013518224000123
 20
-214.44123492099999
 30
0.0
  0
VERTEX
  5
B42
  8
DATA
  6
CONTINUOUS
 62
     7
 10
-73.013518224000123
 20
-214.44123492099999
 30
0.0
  0
VERTEX
  5
B43
  8
DATA
  6
CONTINUOUS
 62
     7
 10
-73.013518224000123
 20
-214.44123492099999
 30
0.0
 42
0.015583879000003
  0
VERTEX
  5
B44
  8
DATA
  6
CONTINUOUS
 62
     7
 10
-73.878442573000015
 20
-214.3607170600001
 30
0.0
  0
VERTEX
  5
B45
  8
DATA
  6
CONTINUOUS
 62
     7
 10
-73.878442573000015
 20
-214.3607170600001
 30
0.0
  0
VERTEX
  5
B46
  8
DATA
  6
CONTINUOUS
 62
     7
 10
-73.878442573000015
 20
-214.3607170600001
 30
0.0
 42
0.0154511700000253
  0
VERTEX
  5
B47
  8
DATA
  6
CONTINUOUS
 62
     7
 10
-74.750000000000014
 20
-214.33380951199999
 30
0.0
  0
VERTEX
  5
B48
  8
DATA
  6
CONTINUOUS
 62
     7
 10
-74.750000000000014
 20
-214.33380951199999
 30
0.0
  0
VERTEX
  5
B49
  8
DATA
  6
CONTINUOUS
 62
     7
 10
-74.750000000001762
 20
-214.33380951199999
 30
0.0
 42
0.0154364709999556
  0
VERTEX
  5
B4A
  8
DATA
  6
CONTINUOUS
 62
     7
 10
-75.621557427999974
 20
-214.3607170600001
 30
0.0
  0
VERTEX
  5
B4B
  8
DATA
  6
CONTINUOUS
 62
     7
 10
-75.621557427999974
 20
-214.3607170600001
 30
0.0
  0
VERTEX
  5
B4C
  8
DATA
  6
CONTINUOUS
 62
     7
 10
-75.621557427999974
 20
-214.3607170600001
 30
0.0
 42
0.0155395600000559
  0
VERTEX
  5
B4D
  8
DATA
  6
CONTINUOUS
 62
     7
 10
-76.486481777000336
 20
-214.44123492099999
 30
0.0
  0
VERTEX
  5
B4E
  8
DATA
  6
CONTINUOUS
 62
     7
 10
-76.486481777000336
 20
-214.44123492099999
 30
0.0
  0
VERTEX
  5
B4F
  8
DATA
  6
CONTINUOUS
 62
     7
 10
-76.486481777003249
 20
-214.44123492100039
 30
0.0
 42
0.0157619809999296
  0
VERTEX
  5
B50
  8
DATA
  6
CONTINUOUS
 62
     7
 10
-77.338190451000187
 20
-214.57475030500009
 30
0.0
  0
VERTEX
  5
B51
  8
DATA
  6
CONTINUOUS
 62
     7
 10
-77.338190451000187
 20
-214.57475030500009
 30
0.0
  0
VERTEX
  5
B52
  8
DATA
  6
CONTINUOUS
 62
     7
 10
-77.338190451000827
 20
-214.57475030500021
 30
0.0
 42
0.0161069559999512
  0
VERTEX
  5
B53
  8
DATA
  6
CONTINUOUS
 62
     7
 10
-78.170201434000333
 20
-214.76024708
 30
0.0
  0
VERTEX
  5
B54
  8
DATA
  6
CONTINUOUS
 62
     7
 10
-78.170201434000333
 20
-214.76024708
 30
0.0
  0
VERTEX
  5
B55
  8
DATA
  6
CONTINUOUS
 62
     7
 10
-78.170201434002934
 20
-214.76024708000071
 30
0.0
 42
0.0165791549999619
  0
VERTEX
  5
B56
  8
DATA
  6
CONTINUOUS
 62
     7
 10
-78.97618261800018
 20
-214.99631350300001
 30
0.0
  0
VERTEX
  5
B57
  8
DATA
  6
CONTINUOUS
 62
     7
 10
-78.97618261800018
 20
-214.99631350300001
 30
0.0
  0
VERTEX
  5
B58
  8
DATA
  6
CONTINUOUS
 62
     7
 10
-78.97618261800018
 20
-214.99631350300001
 30
0.0
 42
0.0171842830000059
  0
VERTEX
  5
B59
  8
DATA
  6
CONTINUOUS
 62
     7
 10
-79.750000000000014
 20
-215.28115296700011
 30
0.0
  0
VERTEX
  5
B5A
  8
DATA
  6
CONTINUOUS
 62
     7
 10
-79.750000000000014
 20
-215.28115296700011
 30
0.0
  0
VERTEX
  5
B5B
  8
DATA
  6
CONTINUOUS
 62
     7
 10
-79.750000000000014
 20
-215.28115296700011
 30
0.0
 42
0.0179283660000194
  0
VERTEX
  5
B5C
  8
DATA
  6
CONTINUOUS
 62
     7
 10
-80.485764364000261
 20
-215.61259767000001
 30
0.0
  0
VERTEX
  5
B5D
  8
DATA
  6
CONTINUOUS
 62
     7
 10
-80.485764364000261
 20
-215.61259767000001
 30
0.0
  0
VERTEX
  5
B5E
  8
DATA
  6
CONTINUOUS
 62
     7
 10
-80.485764364000261
 20
-215.61259767000001
 30
0.0
 42
0.0188166049999962
  0
VERTEX
  5
B5F
  8
DATA
  6
CONTINUOUS
 62
     7
 10
-81.177876097000095
 20
-215.98812512000009
 30
0.0
  0
VERTEX
  5
B60
  8
DATA
  6
CONTINUOUS
 62
     7
 10
-81.177876097000095
 20
-215.98812512000009
 30
0.0
  0
VERTEX
  5
B61
  8
DATA
  6
CONTINUOUS
 62
     7
 10
-81.177876097000933
 20
-215.9881251200006
 30
0.0
 42
0.019851600999888
  0
VERTEX
  5
B62
  8
DATA
  6
CONTINUOUS
 62
     7
 10
-81.821067812000379
 20
-216.40487732400001
 30
0.0
  0
VERTEX
  5
B63
  8
DATA
  6
CONTINUOUS
 62
     7
 10
-81.821067812000379
 20
-216.40487732400001
 30
0.0
  0
VERTEX
  5
B64
  8
DATA
  6
CONTINUOUS
 62
     7
 10
-81.821067812000379
 20
-216.40487732400001
 30
0.0
 42
0.0210307680000846
  0
VERTEX
  5
B65
  8
DATA
  6
CONTINUOUS
 62
     7
 10
-82.410444431000073
 20
-216.85968254700001
 30
0.0
  0
VERTEX
  5
B66
  8
DATA
  6
CONTINUOUS
 62
     7
 10
-82.410444431000073
 20
-216.85968254700001
 30
0.0
  0
VERTEX
  5
B67
  8
DATA
  6
CONTINUOUS
 62
     7
 10
-82.410444431001409
 20
-216.85968254700111
 30
0.0
 42
0.0223427749998563
  0
VERTEX
  5
B68
  8
DATA
  6
CONTINUOUS
 62
     7
 10
-82.941520443000186
 20
-217.34907944700001
 30
0.0
  0
VERTEX
  5
B69
  8
DATA
  6
CONTINUOUS
 62
     7
 10
-82.941520443000186
 20
-217.34907944700001
 30
0.0
  0
VERTEX
  5
B6A
  8
DATA
  6
CONTINUOUS
 62
     7
 10
-82.941520443000229
 20
-217.34907944700009
 30
0.0
 42
0.0237630949999448
  0
VERTEX
  5
B6B
  8
DATA
  6
CONTINUOUS
 62
     7
 10
-83.410254037999977
 20
-217.86934341800011
 30
0.0
  0
VERTEX
  5
B6C
  8
DATA
  6
CONTINUOUS
 62
     7
 10
-83.410254037999977
 20
-217.86934341800011
 30
0.0
  0
VERTEX
  5
B6D
  8
DATA
  6
CONTINUOUS
 62
     7
 10
-83.410254037999977
 20
-217.86934341800011
 30
0.0
 42
0.0252491760001216
  0
VERTEX
  5
B6E
  8
DATA
  6
CONTINUOUS
 62
     7
 10
-83.813077871000132
 20
-218.4165149370001
 30
0.0
  0
VERTEX
  5
B6F
  8
DATA
  6
CONTINUOUS
 62
     7
 10
-83.813077871000132
 20
-218.4165149370001
 30
0.0
  0
VERTEX
  5
B70
  8
DATA
  6
CONTINUOUS
 62
     7
 10
-83.813077871000132
 20
-218.4165149370001
 30
0.0
 42
0.0267365170003276
  0
VERTEX
  5
B71
  8
DATA
  6
CONTINUOUS
 62
     7
 10
-84.146926207999982
 20
-218.98642969700009
 30
0.0
  0
VERTEX
  5
B72
  8
DATA
  6
CONTINUOUS
 62
     7
 10
-84.146926207999982
 20
-218.98642969700009
 30
0.0
  0
VERTEX
  5
B73
  8
DATA
  6
CONTINUOUS
 62
     7
 10
-84.146926208000224
 20
-218.9864296970006
 30
0.0
 42
0.0281378349999409
  0
VERTEX
  5
B74
  8
DATA
  6
CONTINUOUS
 62
     7
 10
-84.409258263000083
 20
-219.57475030500009
 30
0.0
  0
VERTEX
  5
B75
  8
DATA
  6
CONTINUOUS
 62
     7
 10
-84.409258263000083
 20
-219.57475030500009
 30
0.0
  0
VERTEX
  5
B76
  8
DATA
  6
CONTINUOUS
 62
     7
 10
-84.409258263000638
 20
-219.57475030500149
 30
0.0
 42
0.0293480879998489
  0
VERTEX
  5
B77
  8
DATA
  6
CONTINUOUS
 62
     7
 10
-84.598077529999969
 20
-220.17699928400009
 30
0.0
  0
VERTEX
  5
B78
  8
DATA
  6
CONTINUOUS
 62
     7
 10
-84.598077529999969
 20
-220.17699928400009
 30
0.0
  0
VERTEX
  5
B79
  8
DATA
  6
CONTINUOUS
 62
     7
 10
-84.598077529999969
 20
-220.17699928400009
 30
0.0
 42
0.0302573150005781
  0
VERTEX
  5
B7A
  8
DATA
  6
CONTINUOUS
 62
     7
 10
-84.711946980999969
 20
-220.78859315700001
 30
0.0
  0
VERTEX
  5
B7B
  8
DATA
  6
CONTINUOUS
 62
     7
 10
-84.711946980999969
 20
-220.78859315700001
 30
0.0
  0
VERTEX
  5
B7C
  8
DATA
  6
CONTINUOUS
 62
     7
 10
-84.711946980999969
 20
-220.78859315700001
 30
0.0
 42
0.0307704459999557
  0
VERTEX
  5
B7D
  8
DATA
  6
CONTINUOUS
 62
     7
 10
-84.750000000000014
 20
-221.40487732400001
 30
0.0
  0
VERTEX
  5
B7E
  8
DATA
  6
CONTINUOUS
 62
     7
 10
-84.750000000000014
 20
-221.40487732400001
 30
0.0
  0
VERTEX
  5
B7F
  8
DATA
  6
CONTINUOUS
 62
     7
 10
-84.750000000000014
 20
-221.40487732400001
 30
0.0
 42
0.0308289070004199
  0
VERTEX
  5
B80
  8
DATA
  6
CONTINUOUS
 62
     7
 10
-84.711946980999969
 20
-222.02116149099999
 30
0.0
  0
VERTEX
  5
B81
  8
DATA
  6
CONTINUOUS
 62
     7
 10
-84.711946980999969
 20
-222.02116149099999
 30
0.0
  0
VERTEX
  5
B82
  8
DATA
  6
CONTINUOUS
 62
     7
 10
-84.711946980999969
 20
-222.02116149099999
 30
0.0
 42
0.0304257970000709
  0
VERTEX
  5
B83
  8
DATA
  6
CONTINUOUS
 62
     7
 10
-84.598077529999969
 20
-222.63275536399999
 30
0.0
  0
VERTEX
  5
B84
  8
DATA
  6
CONTINUOUS
 62
     7
 10
-84.598077529999969
 20
-222.63275536399999
 30
0.0
  0
VERTEX
  5
B85
  8
DATA
  6
CONTINUOUS
 62
     7
 10
-84.598077529999969
 20
-222.63275536399999
 30
0.0
 42
0.0296077560001698
  0
VERTEX
  5
B86
  8
DATA
  6
CONTINUOUS
 62
     7
 10
-84.409258263000083
 20
-223.23500434300001
 30
0.0
  0
VERTEX
  5
B87
  8
DATA
  6
CONTINUOUS
 62
     7
 10
-84.409258263000083
 20
-223.23500434300001
 30
0.0
  0
VERTEX
  5
B88
  8
DATA
  6
CONTINUOUS
 62
     7
 10
-84.409258263000083
 20
-223.23500434300001
 30
0.0
 42
0.0284626550000141
  0
VERTEX
  5
B89
  8
DATA
  6
CONTINUOUS
 62
     7
 10
-84.146926207999982
 20
-223.82332495
 30
0.0
  0
VERTEX
  5
B8A
  8
DATA
  6
CONTINUOUS
 62
     7
 10
-84.146926207999982
 20
-223.82332495
 30
0.0
  0
VERTEX
  5
B8B
  8
DATA
  6
CONTINUOUS
 62
     7
 10
-84.146926207998902
 20
-223.8233249500021
 30
0.0
 42
0.0270987799999228
  0
VERTEX
  5
B8C
  8
DATA
  6
CONTINUOUS
 62
     7
 10
-83.813077871000132
 20
-224.39323971100009
 30
0.0
  0
VERTEX
  5
B8D
  8
DATA
  6
CONTINUOUS
 62
     7
 10
-83.813077871000132
 20
-224.39323971100009
 30
0.0
  0
VERTEX
  5
B8E
  8
DATA
  6
CONTINUOUS
 62
     7
 10
-83.813077871000218
 20
-224.39323971100001
 30
0.0
 42
0.0256239269998642
  0
VERTEX
  5
B8F
  8
DATA
  6
CONTINUOUS
 62
     7
 10
-83.410254037999977
 20
-224.94041123
 30
0.0
  0
VERTEX
  5
B90
  8
DATA
  6
CONTINUOUS
 62
     7
 10
-83.410254037999977
 20
-224.94041123
 30
0.0
  0
VERTEX
  5
B91
  8
DATA
  6
CONTINUOUS
 62
     7
 10
-83.410254037999977
 20
-224.94041123
 30
0.0
 42
0.0241305730001447
  0
VERTEX
  5
B92
  8
DATA
  6
CONTINUOUS
 62
     7
 10
-82.941520443000186
 20
-225.4606752010001
 30
0.0
  0
VERTEX
  5
B93
  8
DATA
  6
CONTINUOUS
 62
     7
 10
-82.941520443000186
 20
-225.4606752010001
 30
0.0
  0
VERTEX
  5
B94
  8
DATA
  6
CONTINUOUS
 62
     7
 10
-82.941520443000186
 20
-225.4606752010001
 30
0.0
 42
0.0226890190000076
  0
VERTEX
  5
B95
  8
DATA
  6
CONTINUOUS
 62
     7
 10
-82.410444431000073
 20
-225.95007210099999
 30
0.0
  0
VERTEX
  5
B96
  8
DATA
  6
CONTINUOUS
 62
     7
 10
-82.410444431000073
 20
-225.95007210099999
 30
0.0
  0
VERTEX
  5
B97
  8
DATA
  6
CONTINUOUS
 62
     7
 10
-82.410444430999704
 20
-225.95007210100039
 30
0.0
 42
0.0213470120000079
  0
VERTEX
  5
B98
  8
DATA
  6
CONTINUOUS
 62
     7
 10
-81.821067812000379
 20
-226.40487732400001
 30
0.0
  0
VERTEX
  5
B99
  8
DATA
  6
CONTINUOUS
 62
     7
 10
-81.821067812000379
 20
-226.40487732400001
 30
0.0
  0
VERTEX
  5
B9A
  8
DATA
  6
CONTINUOUS
 62
     7
 10
-81.821067812000379
 20
-226.40487732400001
 30
0.0
 42
0.0201331390000785
  0
VERTEX
  5
B9B
  8
DATA
  6
CONTINUOUS
 62
     7
 10
-81.177876097000095
 20
-226.82162952799999
 30
0.0
  0
VERTEX
  5
B9C
  8
DATA
  6
CONTINUOUS
 62
     7
 10
-81.177876097000095
 20
-226.82162952799999
 30
0.0
  0
VERTEX
  5
B9D
  8
DATA
  6
CONTINUOUS
 62
     7
 10
-81.177876096999682
 20
-226.8216295280003
 30
0.0
 42
0.0190615839999588
  0
VERTEX
  5
B9E
  8
DATA
  6
CONTINUOUS
 62
     7
 10
-80.485764364000261
 20
-227.19715697700011
 30
0.0
  0
VERTEX
  5
B9F
  8
DATA
  6
CONTINUOUS
 62
     7
 10
-80.485764364000261
 20
-227.19715697700011
 30
0.0
  0
VERTEX
  5
BA0
  8
DATA
  6
CONTINUOUS
 62
     7
 10
-80.485764364000659
 20
-227.19715697699991
 30
0.0
 42
0.0181367479999465
  0
VERTEX
  5
BA1
  8
DATA
  6
CONTINUOUS
 62
     7
 10
-79.750000000000014
 20
-227.528601681
 30
0.0
  0
VERTEX
  5
BA2
  8
DATA
  6
CONTINUOUS
 62
     7
 10
-79.750000000000014
 20
-227.528601681
 30
0.0
  0
VERTEX
  5
BA3
  8
DATA
  6
CONTINUOUS
 62
     7
 10
-79.749999999999176
 20
-227.5286016810004
 30
0.0
 42
0.0173570479999523
  0
VERTEX
  5
BA4
  8
DATA
  6
CONTINUOUS
 62
     7
 10
-78.97618261800018
 20
-227.81344114400011
 30
0.0
  0
VERTEX
  5
BA5
  8
DATA
  6
CONTINUOUS
 62
     7
 10
-78.97618261800018
 20
-227.81344114400011
 30
0.0
  0
VERTEX
  5
BA6
  8
DATA
  6
CONTINUOUS
 62
     7
 10
-78.97618261799893
 20
-227.81344114400051
 30
0.0
 42
0.0167177379998857
  0
VERTEX
  5
BA7
  8
DATA
  6
CONTINUOUS
 62
     7
 10
-78.170201434000333
 20
-228.04950756800011
 30
0.0
  0
VERTEX
  5
BA8
  8
DATA
  6
CONTINUOUS
 62
     7
 10
-78.170201434000333
 20
-228.04950756800011
 30
0.0
  0
VERTEX
  5
BA9
  8
DATA
  6
CONTINUOUS
 62
     7
 10
-78.170201433997562
 20
-228.04950756800079
 30
0.0
 42
0.0162128689999539
  0
VERTEX
  5
BAA
  8
DATA
  6
CONTINUOUS
 62
     7
 10
-77.338190451000187
 20
-228.23500434300001
 30
0.0
  0
VERTEX
  5
BAB
  8
DATA
  6
CONTINUOUS
 62
     7
 10
-77.338190451000187
 20
-228.23500434300001
 30
0.0
  0
VERTEX
  5
BAC
  8
DATA
  6
CONTINUOUS
 62
     7
 10
-77.338190451000187
 20
-228.23500434300001
 30
0.0
 42
0.0158365750000345
  0
VERTEX
  5
BAD
  8
DATA
  6
CONTINUOUS
 62
     7
 10
-76.486481777000336
 20
-228.36851972700001
 30
0.0
  0
VERTEX
  5
BAE
  8
DATA
  6
CONTINUOUS
 62
     7
 10
-76.486481777000336
 20
-228.36851972700001
 30
0.0
  0
VERTEX
  5
BAF
  8
DATA
  6
CONTINUOUS
 62
     7
 10
-76.486481776999625
 20
-228.36851972700009
 30
0.0
 42
0.0155838790000226
  0
VERTEX
  5
BB0
  8
DATA
  6
CONTINUOUS
 62
     7
 10
-75.621557427999974
 20
-228.44903758800001
 30
0.0
  0
VERTEX
  5
BB1
  8
DATA
  6
CONTINUOUS
 62
     7
 10
-75.621557427999974
 20
-228.44903758800001
 30
0.0
  0
VERTEX
  5
BB2
  8
DATA
  6
CONTINUOUS
 62
     7
 10
-75.621557427999974
 20
-228.44903758800001
 30
0.0
 42
0.0154511700000478
  0
VERTEX
  5
BB3
  8
DATA
  6
CONTINUOUS
 62
     7
 10
-74.750000000000014
 20
-228.47594513600009
 30
0.0
  0
VERTEX
  5
BB4
  8
DATA
  6
CONTINUOUS
 62
     7
 10
-74.750000000000014
 20
-228.47594513600009
 30
0.0
  0
VERTEX
  5
BB5
  8
DATA
  6
CONTINUOUS
 62
     7
 10
-74.750000000000014
 20
-228.47594513600009
 30
0.0
 42
0.0154364710000506
  0
VERTEX
  5
BB6
  8
DATA
  6
CONTINUOUS
 62
     7
 10
-73.878442573000015
 20
-228.44903758800001
 30
0.0
  0
VERTEX
  5
BB7
  8
DATA
  6
CONTINUOUS
 62
     7
 10
-73.878442573000015
 20
-228.44903758800001
 30
0.0
  0
VERTEX
  5
BB8
  8
DATA
  6
CONTINUOUS
 62
     7
 10
-73.878442573000015
 20
-228.44903758800001
 30
0.0
 42
0.0155395600000801
  0
VERTEX
  5
BB9
  8
DATA
  6
CONTINUOUS
 62
     7
 10
-73.013518224000123
 20
-228.36851972700001
 30
0.0
  0
VERTEX
  5
BBA
  8
DATA
  6
CONTINUOUS
 62
     7
 10
-73.013518224000123
 20
-228.36851972700001
 30
0.0
  0
VERTEX
  5
BBB
  8
DATA
  6
CONTINUOUS
 62
     7
 10
-73.013518224000123
 20
-228.36851972700001
 30
0.0
 42
0.0157619810000168
  0
VERTEX
  5
BBC
  8
DATA
  6
CONTINUOUS
 62
     7
 10
-72.161809549000296
 20
-228.23500434300001
 30
0.0
  0
VERTEX
  5
BBD
  8
DATA
  6
CONTINUOUS
 62
     7
 10
-72.161809549000296
 20
-228.23500434300001
 30
0.0
  0
VERTEX
  5
BBE
  8
DATA
  6
CONTINUOUS
 62
     7
 10
-72.161809549000296
 20
-228.23500434300001
 30
0.0
 42
0.0161069559999875
  0
VERTEX
  5
BBF
  8
DATA
  6
CONTINUOUS
 62
     7
 10
-71.32979856700014
 20
-228.04950756800011
 30
0.0
  0
VERTEX
  5
BC0
  8
DATA
  6
CONTINUOUS
 62
     7
 10
-71.32979856700014
 20
-228.04950756800011
 30
0.0
  0
VERTEX
  5
BC1
  8
DATA
  6
CONTINUOUS
 62
     7
 10
-71.32979856700014
 20
-228.04950756800011
 30
0.0
 42
0.0165791550000051
  0
VERTEX
  5
BC2
  8
DATA
  6
CONTINUOUS
 62
     7
 10
-70.523817383000292
 20
-227.81344114400011
 30
0.0
  0
VERTEX
  5
BC3
  8
DATA
  6
CONTINUOUS
 62
     7
 10
-70.523817383000292
 20
-227.81344114400011
 30
0.0
  0
VERTEX
  5
BC4
  8
DATA
  6
CONTINUOUS
 62
     7
 10
-70.523817382998629
 20
-227.8134411439996
 30
0.0
 42
0.0171842829999048
  0
VERTEX
  5
BC5
  8
DATA
  6
CONTINUOUS
 62
     7
 10
-69.750000000000014
 20
-227.528601681
 30
0.0
  0
VERTEX
  5
BC6
  8
DATA
  6
CONTINUOUS
 62
     7
 10
-69.750000000000014
 20
-227.528601681
 30
0.0
  0
VERTEX
  5
BC7
  8
DATA
  6
CONTINUOUS
 62
     7
 10
-69.75000000000054
 20
-227.52860168100031
 30
0.0
 42
0.0179283660000097
  0
VERTEX
  5
BC8
  8
DATA
  6
CONTINUOUS
 62
     7
 10
-69.014235637000198
 20
-227.19715697700011
 30
0.0
  0
VERTEX
  5
BC9
  8
DATA
  6
CONTINUOUS
 62
     7
 10
-69.014235637000198
 20
-227.19715697700011
 30
0.0
  0
VERTEX
  5
BCA
  8
DATA
  6
CONTINUOUS
 62
     7
 10
-69.014235636998691
 20
-227.19715697699931
 30
0.0
 42
0.0188166049998252
  0
VERTEX
  5
BCB
  8
DATA
  6
CONTINUOUS
 62
     7
 10
-68.322123902999934
 20
-226.82162952799999
 30
0.0
  0
VERTEX
  5
BCC
  8
DATA
  6
CONTINUOUS
 62
     7
 10
-68.322123902999934
 20
-226.82162952799999
 30
0.0
  0
VERTEX
  5
BCD
  8
DATA
  6
CONTINUOUS
 62
     7
 10
-68.322123902999934
 20
-226.82162952799999
 30
0.0
 42
0.0198516010000711
  0
VERTEX
  5
BCE
  8
DATA
  6
CONTINUOUS
 62
     7
 10
-67.678932188000104
 20
-226.40487732400001
 30
0.0
  0
VERTEX
  5
BCF
  8
DATA
  6
CONTINUOUS
 62
     7
 10
-67.678932188000104
 20
-226.40487732400001
 30
0.0
  0
VERTEX
  5
BD0
  8
DATA
  6
CONTINUOUS
 62
     7
 10
-67.678932187998313
 20
-226.40487732399879
 30
0.0
 42
0.0210307679998777
  0
VERTEX
  5
BD1
  8
DATA
  6
CONTINUOUS
 62
     7
 10
-67.089555568999927
 20
-225.95007210099999
 30
0.0
  0
VERTEX
  5
BD2
  8
DATA
  6
CONTINUOUS
 62
     7
 10
-67.089555568999927
 20
-225.95007210099999
 30
0.0
  0
VERTEX
  5
BD3
  8
DATA
  6
CONTINUOUS
 62
     7
 10
-67.089555568999927
 20
-225.95007210099999
 30
0.0
 42
0.0223427750001022
  0
VERTEX
  5
BD4
  8
DATA
  6
CONTINUOUS
 62
     7
 10
-66.558479557000297
 20
-225.4606752010001
 30
0.0
  0
VERTEX
  5
BD5
  8
DATA
  6
CONTINUOUS
 62
     7
 10
-66.558479557000297
 20
-225.4606752010001
 30
0.0
  0
VERTEX
  5
BD6
  8
DATA
  6
CONTINUOUS
 62
     7
 10
-66.558479557000297
 20
-225.4606752010001
 30
0.0
 42
0.0237630950002767
  0
VERTEX
  5
BD7
  8
DATA
  6
CONTINUOUS
 62
     7
 10
-66.08974596200008
 20
-224.94041123
 30
0.0
  0
VERTEX
  5
BD8
  8
DATA
  6
CONTINUOUS
 62
     7
 10
-66.08974596200008
 20
-224.94041123
 30
0.0
  0
VERTEX
  5
BD9
  8
DATA
  6
CONTINUOUS
 62
     7
 10
-66.08974596200008
 20
-224.94041123
 30
0.0
 42
0.0252491760001081
  0
VERTEX
  5
BDA
  8
DATA
  6
CONTINUOUS
 62
     7
 10
-65.686922130000326
 20
-224.39323971100009
 30
0.0
  0
VERTEX
  5
BDB
  8
DATA
  6
CONTINUOUS
 62
     7
 10
-65.686922130000326
 20
-224.39323971100009
 30
0.0
  0
VERTEX
  5
BDC
  8
DATA
  6
CONTINUOUS
 62
     7
 10
-65.686922129998479
 20
-224.39323971099731
 30
0.0
 42
0.0267365169996915
  0
VERTEX
  5
BDD
  8
DATA
  6
CONTINUOUS
 62
     7
 10
-65.353073792000046
 20
-223.82332495
 30
0.0
  0
VERTEX
  5
BDE
  8
DATA
  6
CONTINUOUS
 62
     7
 10
-65.353073792000046
 20
-223.82332495
 30
0.0
  0
VERTEX
  5
BDF
  8
DATA
  6
CONTINUOUS
 62
     7
 10
-65.353073792000046
 20
-223.82332495
 30
0.0
 42
0.0281378350002405
  0
VERTEX
  5
BE0
  8
DATA
  6
CONTINUOUS
 62
     7
 10
-65.090741737000386
 20
-223.23500434300001
 30
0.0
  0
VERTEX
  5
BE1
  8
DATA
  6
CONTINUOUS
 62
     7
 10
-65.090741737000386
 20
-223.23500434300001
 30
0.0
  0
VERTEX
  5
BE2
  8
DATA
  6
CONTINUOUS
 62
     7
 10
-65.090741737000386
 20
-223.23500434300001
 30
0.0
 42
0.0293480880001098
  0
VERTEX
  5
BE3
  8
DATA
  6
CONTINUOUS
 62
     7
 10
-64.901922470000073
 20
-222.63275536399999
 30
0.0
  0
VERTEX
  5
BE4
  8
DATA
  6
CONTINUOUS
 62
     7
 10
-64.901922470000073
 20
-222.63275536399999
 30
0.0
  0
VERTEX
  5
BE5
  8
DATA
  6
CONTINUOUS
 62
     7
 10
-64.901922469999704
 20
-222.63275536399871
 30
0.0
 42
0.0302573149998443
  0
VERTEX
  5
BE6
  8
DATA
  6
CONTINUOUS
 62
     7
 10
-64.788053019000031
 20
-222.02116149099999
 30
0.0
  0
VERTEX
  5
BE7
  8
DATA
  6
CONTINUOUS
 62
     7
 10
-64.788053019000031
 20
-222.02116149099999
 30
0.0
  0
VERTEX
  5
BE8
  8
DATA
  6
CONTINUOUS
 62
     7
 10
-64.788053018999932
 20
-222.02116149099939
 30
0.0
 42
0.0307704459999682
  0
VERTEX
  5
BE9
  8
DATA
  6
CONTINUOUS
 62
     7
 10
-64.750000000000014
 20
-221.40487732400001
 30
0.0
  0
SEQEND
  5
BEA
  8
DATA
  6
CONTINUOUS
 62
     7
  0
POLYLINE
  5
619
  8
DATA
  6
CONTINUOUS
 62
     7
 66
     1
 10
0.0
 20
0.0
 30
0.0
 70
   128
  0
VERTEX
  5
BEB
  8
DATA
  6
CONTINUOUS
 62
     7
 10
-84.621170143999322
 20
-220.2735064740038
 30
0.0
 42
0.0300536239995736
  0
VERTEX
  5
BEC
  8
DATA
  6
CONTINUOUS
 62
     7
 10
-84.4420312780003
 20
-220.88347558300009
 30
0.0
  0
VERTEX
  5
BED
  8
DATA
  6
CONTINUOUS
 62
     7
 10
-84.4420312780003
 20
-220.88347558300009
 30
0.0
  0
VERTEX
  5
BEE
  8
DATA
  6
CONTINUOUS
 62
     7
 10
-84.442031277999462
 20
-220.88347558300239
 30
0.0
 42
0.0289290129997268
  0
VERTEX
  5
BEF
  8
DATA
  6
CONTINUOUS
 62
     7
 10
-84.18766137700004
 20
-221.47992814400001
 30
0.0
  0
VERTEX
  5
BF0
  8
DATA
  6
CONTINUOUS
 62
     7
 10
-84.18766137700004
 20
-221.47992814400001
 30
0.0
  0
VERTEX
  5
BF1
  8
DATA
  6
CONTINUOUS
 62
     7
 10
-84.187661376998307
 20
-221.47992814400359
 30
0.0
 42
0.0275624569997237
  0
VERTEX
  5
BF2
  8
DATA
  6
CONTINUOUS
 62
     7
 10
-83.860034899000325
 20
-222.05823440000009
 30
0.0
  0
VERTEX
  5
BF3
  8
DATA
  6
CONTINUOUS
 62
     7
 10
-83.860034899000325
 20
-222.05823440000009
 30
0.0
  0
VERTEX
  5
BF4
  8
DATA
  6
CONTINUOUS
 62
     7
 10
-83.860034899000325
 20
-222.05823440000009
 30
0.0
 42
0.0260672349999743
  0
VERTEX
  5
BF5
  8
DATA
  6
CONTINUOUS
 62
     7
 10
-83.461694931000267
 20
-222.6139054490001
 30
0.0
  0
VERTEX
  5
BF6
  8
DATA
  6
CONTINUOUS
 62
     7
 10
-83.461694931000267
 20
-222.6139054490001
 30
0.0
  0
VERTEX
  5
BF7
  8
DATA
  6
CONTINUOUS
 62
     7
 10
-83.461694930998547
 20
-222.6139054490022
 30
0.0
 42
0.0245421769999046
  0
VERTEX
  5
BF8
  8
DATA
  6
CONTINUOUS
 62
     7
 10
-82.995733447999996
 20
-223.14262808800001
 30
0.0
  0
VERTEX
  5
BF9
  8
DATA
  6
CONTINUOUS
 62
     7
 10
-82.995733447999996
 20
-223.14262808800001
 30
0.0
  0
VERTEX
  5
BFA
  8
DATA
  6
CONTINUOUS
 62
     7
 10
-82.995733447999996
 20
-223.14262808800001
 30
0.0
 42
0.0230633140001383
  0
VERTEX
  5
BFB
  8
DATA
  6
CONTINUOUS
 62
     7
 10
-82.465767314999994
 20
-223.64029829
 30
0.0
  0
VERTEX
  5
BFC
  8
DATA
  6
CONTINUOUS
 62
     7
 10
-82.465767314999994
 20
-223.64029829
 30
0.0
  0
VERTEX
  5
BFD
  8
DATA
  6
CONTINUOUS
 62
     7
 10
-82.465767314999994
 20
-223.64029829
 30
0.0
 42
0.0216827840000609
  0
VERTEX
  5
BFE
  8
DATA
  6
CONTINUOUS
 62
     7
 10
-81.875910212000264
 20
-224.1030530620001
 30
0.0
  0
VERTEX
  5
BFF
  8
DATA
  6
CONTINUOUS
 62
     7
 10
-81.875910212000264
 20
-224.1030530620001
 30
0.0
  0
VERTEX
  5
C00
  8
DATA
  6
CONTINUOUS
 62
     7
 10
-81.875910211998189
 20
-224.10305306200161
 30
0.0
 42
0.020432123999853
  0
VERTEX
  5
C01
  8
DATA
  6
CONTINUOUS
 62
     7
 10
-81.230740699000307
 20
-224.5273004310001
 30
0.0
  0
VERTEX
  5
C02
  8
DATA
  6
CONTINUOUS
 62
     7
 10
-81.230740699000307
 20
-224.5273004310001
 30
0.0
  0
VERTEX
  5
C03
  8
DATA
  6
CONTINUOUS
 62
     7
 10
-81.230740698998943
 20
-224.5273004310009
 30
0.0
 42
0.0193272499999836
  0
VERTEX
  5
C04
  8
DATA
  6
CONTINUOUS
 62
     7
 10
-80.535266680999953
 20
-224.90974732399999
 30
0.0
  0
VERTEX
  5
C05
  8
DATA
  6
CONTINUOUS
 62
     7
 10
-80.535266680999953
 20
-224.90974732399999
 30
0.0
  0
VERTEX
  5
C06
  8
DATA
  6
CONTINUOUS
 62
     7
 10
-80.535266680999953
 20
-224.90974732399999
 30
0.0
 42
0.0183734080002091
  0
VERTEX
  5
C07
  8
DATA
  6
CONTINUOUS
 62
     7
 10
-79.794886533999943
 20
-225.247425128
 30
0.0
  0
VERTEX
  5
C08
  8
DATA
  6
CONTINUOUS
 62
     7
 10
-79.794886533999943
 20
-225.247425128
 30
0.0
  0
VERTEX
  5
C09
  8
DATA
  6
CONTINUOUS
 62
     7
 10
-79.794886533999943
 20
-225.247425128
 30
0.0
 42
0.0175692910001928
  0
VERTEX
  5
C0A
  8
DATA
  6
CONTINUOUS
 62
     7
 10
-79.015347203000161
 20
-225.53771273800001
 30
0.0
  0
VERTEX
  5
C0B
  8
DATA
  6
CONTINUOUS
 62
     7
 10
-79.015347203000161
 20
-225.53771273800001
 30
0.0
  0
VERTEX
  5
C0C
  8
DATA
  6
CONTINUOUS
 62
     7
 10
-79.015347203000161
 20
-225.53771273800001
 30
0.0
 42
0.0169100990000639
  0
VERTEX
  5
C0D
  8
DATA
  6
CONTINUOUS
 62
     7
 10
-78.202699592000059
 20
-225.7783568960001
 30
0.0
  0
VERTEX
  5
C0E
  8
DATA
  6
CONTINUOUS
 62
     7
 10
-78.202699592000059
 20
-225.7783568960001
 30
0.0
  0
VERTEX
  5
C0F
  8
DATA
  6
CONTINUOUS
 62
     7
 10
-78.202699591999604
 20
-225.77835689600019
 30
0.0
 42
0.0163896759999854
  0
VERTEX
  5
C10
  8
DATA
  6
CONTINUOUS
 62
     7
 10
-77.363251596000296
 20
-225.96748968399999
 30
0.0
  0
VERTEX
  5
C11
  8
DATA
  6
CONTINUOUS
 62
     7
 10
-77.363251596000296
 20
-225.96748968399999
 30
0.0
  0
VERTEX
  5
C12
  8
DATA
  6
CONTINUOUS
 62
     7
 10
-77.363251595998662
 20
-225.96748968400041
 30
0.0
 42
0.0160018979998561
  0
VERTEX
  5
C13
  8
DATA
  6
CONTINUOUS
 62
     7
 10
-76.503519140000222
 20
-226.1036430260001
 30
0.0
  0
VERTEX
  5
C14
  8
DATA
  6
CONTINUOUS
 62
     7
 10
-76.503519140000222
 20
-226.1036430260001
 30
0.0
  0
VERTEX
  5
C15
  8
DATA
  6
CONTINUOUS
 62
     7
 10
-76.503519139999369
 20
-226.1036430260001
 30
0.0
 42
0.0157415490000066
  0
VERTEX
  5
C16
  8
DATA
  6
CONTINUOUS
 62
     7
 10
-75.630175599000296
 20
-226.185760079
 30
0.0
  0
VERTEX
  5
C17
  8
DATA
  6
CONTINUOUS
 62
     7
 10
-75.630175599000296
 20
-226.185760079
 30
0.0
  0
VERTEX
  5
C18
  8
DATA
  6
CONTINUOUS
 62
     7
 10
-75.630175599000296
 20
-226.185760079
 30
0.0
 42
0.0156048429999931
  0
VERTEX
  5
C19
  8
DATA
  6
CONTINUOUS
 62
     7
 10
-74.750000000000014
 20
-226.2132034360001
 30
0.0
  0
VERTEX
  5
C1A
  8
DATA
  6
CONTINUOUS
 62
     7
 10
-74.750000000000014
 20
-226.2132034360001
 30
0.0
  0
VERTEX
  5
C1B
  8
DATA
  6
CONTINUOUS
 62
     7
 10
-74.750000000000426
 20
-226.2132034360001
 30
0.0
 42
0.0155897019999853
  0
VERTEX
  5
C1C
  8
DATA
  6
CONTINUOUS
 62
     7
 10
-73.869824401000187
 20
-226.185760079
 30
0.0
  0
VERTEX
  5
C1D
  8
DATA
  6
CONTINUOUS
 62
     7
 10
-73.869824401000187
 20
-226.185760079
 30
0.0
  0
VERTEX
  5
C1E
  8
DATA
  6
CONTINUOUS
 62
     7
 10
-73.869824401000258
 20
-226.185760079
 30
0.0
 42
0.015695892999939
  0
VERTEX
  5
C1F
  8
DATA
  6
CONTINUOUS
 62
     7
 10
-72.996480860000261
 20
-226.1036430260001
 30
0.0
  0
VERTEX
  5
C20
  8
DATA
  6
CONTINUOUS
 62
     7
 10
-72.996480860000261
 20
-226.1036430260001
 30
0.0
  0
VERTEX
  5
C21
  8
DATA
  6
CONTINUOUS
 62
     7
 10
-72.996480859998897
 20
-226.10364302599999
 30
0.0
 42
0.0159250389999641
  0
VERTEX
  5
C22
  8
DATA
  6
CONTINUOUS
 62
     7
 10
-72.136748404000187
 20
-225.96748968399999
 30
0.0
  0
VERTEX
  5
C23
  8
DATA
  6
CONTINUOUS
 62
     7
 10
-72.136748404000187
 20
-225.96748968399999
 30
0.0
  0
VERTEX
  5
C24
  8
DATA
  6
CONTINUOUS
 62
     7
 10
-72.136748403995782
 20
-225.96748968399919
 30
0.0
 42
0.0162805199998632
  0
VERTEX
  5
C25
  8
DATA
  6
CONTINUOUS
 62
     7
 10
-71.297300408999945
 20
-225.7783568960001
 30
0.0
  0
VERTEX
  5
C26
  8
DATA
  6
CONTINUOUS
 62
     7
 10
-71.297300408999945
 20
-225.7783568960001
 30
0.0
  0
VERTEX
  5
C27
  8
DATA
  6
CONTINUOUS
 62
     7
 10
-71.297300408995923
 20
-225.778356895999
 30
0.0
 42
0.0167672319999524
  0
VERTEX
  5
C28
  8
DATA
  6
CONTINUOUS
 62
     7
 10
-70.484652797000308
 20
-225.53771273800001
 30
0.0
  0
VERTEX
  5
C29
  8
DATA
  6
CONTINUOUS
 62
     7
 10
-70.484652797000308
 20
-225.53771273800001
 30
0.0
  0
VERTEX
  5
C2A
  8
DATA
  6
CONTINUOUS
 62
     7
 10
-70.484652797000308
 20
-225.53771273800001
 30
0.0
 42
0.0173911360000461
  0
VERTEX
  5
C2B
  8
DATA
  6
CONTINUOUS
 62
     7
 10
-69.705113467000061
 20
-225.247425128
 30
0.0
  0
VERTEX
  5
C2C
  8
DATA
  6
CONTINUOUS
 62
     7
 10
-69.705113467000061
 20
-225.247425128
 30
0.0
  0
VERTEX
  5
C2D
  8
DATA
  6
CONTINUOUS
 62
     7
 10
-69.705113466997403
 20
-225.24742512799889
 30
0.0
 42
0.0181584889998361
  0
VERTEX
  5
C2E
  8
DATA
  6
CONTINUOUS
 62
     7
 10
-68.964733320000065
 20
-224.90974732399999
 30
0.0
  0
VERTEX
  5
C2F
  8
DATA
  6
CONTINUOUS
 62
     7
 10
-68.964733320000065
 20
-224.90974732399999
 30
0.0
  0
VERTEX
  5
C30
  8
DATA
  6
CONTINUOUS
 62
     7
 10
-68.964733319999624
 20
-224.9097473239998
 30
0.0
 42
0.0190745959999641
  0
VERTEX
  5
C31
  8
DATA
  6
CONTINUOUS
 62
     7
 10
-68.269259302000151
 20
-224.5273004310001
 30
0.0
  0
VERTEX
  5
C32
  8
DATA
  6
CONTINUOUS
 62
     7
 10
-68.269259302000151
 20
-224.5273004310001
 30
0.0
  0
VERTEX
  5
C33
  8
DATA
  6
CONTINUOUS
 62
     7
 10
-68.26925930199728
 20
-224.52730043099831
 30
0.0
 42
0.020141885999843
  0
VERTEX
  5
C34
  8
DATA
  6
CONTINUOUS
 62
     7
 10
-67.624089789000209
 20
-224.1030530620001
 30
0.0
  0
VERTEX
  5
C35
  8
DATA
  6
CONTINUOUS
 62
     7
 10
-67.624089789000209
 20
-224.1030530620001
 30
0.0
  0
VERTEX
  5
C36
  8
DATA
  6
CONTINUOUS
 62
     7
 10
-67.624089788999171
 20
-224.1030530619993
 30
0.0
 42
0.021357096000117
  0
VERTEX
  5
C37
  8
DATA
  6
CONTINUOUS
 62
     7
 10
-67.034232685000021
 20
-223.64029829
 30
0.0
  0
VERTEX
  5
C38
  8
DATA
  6
CONTINUOUS
 62
     7
 10
-67.034232685000021
 20
-223.64029829
 30
0.0
  0
VERTEX
  5
C39
  8
DATA
  6
CONTINUOUS
 62
     7
 10
-67.034232684997605
 20
-223.64029828999799
 30
0.0
 42
0.0227074139998546
  0
VERTEX
  5
C3A
  8
DATA
  6
CONTINUOUS
 62
     7
 10
-66.504266553000008
 20
-223.14262808800001
 30
0.0
  0
VERTEX
  5
C3B
  8
DATA
  6
CONTINUOUS
 62
     7
 10
-66.504266553000008
 20
-223.14262808800001
 30
0.0
  0
VERTEX
  5
C3C
  8
DATA
  6
CONTINUOUS
 62
     7
 10
-66.504266552998232
 20
-223.1426280879983
 30
0.0
 42
0.0241656999998387
  0
VERTEX
  5
C3D
  8
DATA
  6
CONTINUOUS
 62
     7
 10
-66.03830507000022
 20
-222.6139054490001
 30
0.0
  0
VERTEX
  5
C3E
  8
DATA
  6
CONTINUOUS
 62
     7
 10
-66.03830507000022
 20
-222.6139054490001
 30
0.0
  0
VERTEX
  5
C3F
  8
DATA
  6
CONTINUOUS
 62
     7
 10
-66.03830507000022
 20
-222.6139054490001
 30
0.0
 42
0.0256853780000709
  0
VERTEX
  5
C40
  8
DATA
  6
CONTINUOUS
 62
     7
 10
-65.639965101000143
 20
-222.05823440000009
 30
0.0
  0
VERTEX
  5
C41
  8
DATA
  6
CONTINUOUS
 62
     7
 10
-65.639965101000143
 20
-222.05823440000009
 30
0.0
  0
VERTEX
  5
C42
  8
DATA
  6
CONTINUOUS
 62
     7
 10
-65.639965101000143
 20
-222.05823440000009
 30
0.0
 42
0.0271965120000983
  0
VERTEX
  5
C43
  8
DATA
  6
CONTINUOUS
 62
     7
 10
-65.312338622999974
 20
-221.47992814400001
 30
0.0
  0
VERTEX
  5
C44
  8
DATA
  6
CONTINUOUS
 62
     7
 10
-65.312338622999974
 20
-221.47992814400001
 30
0.0
  0
VERTEX
  5
C45
  8
DATA
  6
CONTINUOUS
 62
     7
 10
-65.312338622999434
 20
-221.47992814399899
 30
0.0
 42
0.028605513999907
  0
VERTEX
  5
C46
  8
DATA
  6
CONTINUOUS
 62
     7
 10
-65.057968722000183
 20
-220.88347558300009
 30
0.0
  0
VERTEX
  5
C47
  8
DATA
  6
CONTINUOUS
 62
     7
 10
-65.057968722000183
 20
-220.88347558300009
 30
0.0
  0
VERTEX
  5
C48
  8
DATA
  6
CONTINUOUS
 62
     7
 10
-65.057968722000183
 20
-220.88347558300009
 30
0.0
 42
0.0298014610002971
  0
VERTEX
  5
C49
  8
DATA
  6
CONTINUOUS
 62
     7
 10
-64.878829857000255
 20
-220.27350647399999
 30
0.0
  0
VERTEX
  5
C4A
  8
DATA
  6
CONTINUOUS
 62
     7
 10
-64.878829857000255
 20
-220.27350647399999
 30
0.0
  0
SEQEND
  5
C4B
  8
DATA
  6
CONTINUOUS
 62
     7
  0
LINE
  5
67B
  8
DATA
  6
CONTINUOUS
 62
     7
 10
-105.5
 20
-165.0968805226764
 30
0.0
 11
-105.5
 21
-200.0
 31
0.0
  0
LINE
  5
67C
  8
DATA
  6
CONTINUOUS
 62
     7
 10
-144.5
 20
-165.0968805226764
 30
0.0
 11
-144.5
 21
-200.0
 31
0.0
  0
LINE
  5
67D
  8
DATA
  6
CONTINUOUS
 62
     7
 10
-178.0
 20
-20.0
 30
0.0
 11
-175.0000001201106
 21
-41.599999135203682
 31
0.0
  0
LINE
  5
67E
  8
DATA
  6
CONTINUOUS
 62
     7
 10
-157.84765550768131
 20
-165.0968803446944
 30
0.0
 11
-153.0
 21
-200.0
 31
0.0
  0
LINE
  5
67F
  8
DATA
  6
CONTINUOUS
 62
     7
 10
-72.000000000000014
 20
-20.0
 30
0.0
 11
-75.000000120110371
 21
-41.600000864794652
 31
0.0
  0
LINE
  5
680
  8
DATA
  6
CONTINUOUS
 62
     7
 10
-92.152344523341441
 20
-165.09688056805851
 30
0.0
 11
-97.0
 21
-200.0
 31
0.0
  0
TEXT
  5
681
  8
DATA
 62
     7
 10
-129.83251551820589
 20
-30.0
 30
0.0
 40
4.8095703125
  1
Ｕ
 41
0.7
  0
TEXT
  5
682
  8
DATA
 62
     7
 10
-124.4669937927176
 20
-30.0
 30
0.0
 40
4.8095703125
  1
Ｐ
 41
0.7
  0
CIRCLE
  5
683
  8
DATA
  6
CONTINUOUS
 62
     7
 10
-159.870795757
 20
-24.096881219376481
 30
0.0
 40
3.6000000000000218
  0
CIRCLE
  5
684
  8
DATA
  6
CONTINUOUS
 62
     7
 10
-159.870795757
 20
-151.0968807033764
 30
0.0
 40
3.6000000000000218
  0
CIRCLE
  5
685
  8
DATA
  6
CONTINUOUS
 62
     7
 10
-90.020795756999988
 20
-151.0968807033764
 30
0.0
 40
3.6000000000000218
  0
CIRCLE
  5
686
  8
DATA
  6
CONTINUOUS
 62
     7
 10
-90.020795756999988
 20
-24.096881219376481
 30
0.0
 40
3.6000000000000218
  0
LINE
  5
687
  8
DATA
  6
CONTINUOUS
 62
     7
 10
-175.00000001299989
 20
-10.096880888376459
 30
0.0
 11
-175.00000054
 21
-165.09688028637649
 31
0.0
  0
LINE
  5
688
  8
DATA
  6
CONTINUOUS
 62
     7
 10
-175.00000054
 20
-165.09688028637649
 30
0.0
 11
-75.000000540000002
 21
-165.0968806263765
 31
0.0
  0
LINE
  5
689
  8
DATA
  6
CONTINUOUS
 62
     7
 10
-75.000000012999976
 20
-10.096881228376439
 30
0.0
 11
-75.000000540000002
 21
-165.0968806263765
 31
0.0
  0
LINE
  5
68A
  8
DATA
  6
CONTINUOUS
 62
     7
 10
-175.00000001299989
 20
-10.096880888376459
 30
0.0
 11
-75.000000012999976
 21
-10.096881228376439
 31
0.0
  0
CIRCLE
  5
68B
  8
DATA
  6
CONTINUOUS
 62
     7
 10
-125.00000011500001
 20
-106.0968804563765
 30
0.0
 40
12.5
  0
CIRCLE
  5
68C
  8
DATA
  6
CONTINUOUS
 62
     7
 10
-125.000000136
 20
-69.096880757376482
 30
0.0
 40
12.5
  0
CIRCLE
  5
68D
  8
DATA
  6
CONTINUOUS
 62
     7
 10
-125.000000129
 20
-32.096880757376482
 30
0.0
 40
12.5
  0
CIRCLE
  5
68E
  8
DATA
  6
CONTINUOUS
 62
     7
 10
-125.00000010700001
 20
-143.0968804563764
 30
0.0
 40
12.5
  0
TEXT
  5
68F
  8
DATA
 62
     7
 10
-124.4669937927176
 20
-30.0
 30
0.0
 40
4.8095703125
  1
Ｐ
 41
0.7
  0
ARC
  5
690
  8
DATA
  6
CONTINUOUS
 62
     7
 10
-125.0
 20
-155.0
 30
0.0
 40
16.0
 50
39.334918862236798
 51
140.66508216785439
  0
ARC
  5
691
  8
DATA
  6
CONTINUOUS
 62
     7
 10
-125.0
 20
-155.0
 30
0.0
 40
16.000000000000011
 50
219.12800339460691
 51
320.87199621578168
  0
CIRCLE
  5
692
  8
DATA
  6
CONTINUOUS
 62
     7
 10
300.0000000000004
 20
585.0
 30
0.0
 40
16.0
  0
CIRCLE
  5
693
  8
DATA
  6
CONTINUOUS
 62
     7
 10
300.0000000000004
 20
495.0
 30
0.0
 40
16.0
  0
CIRCLE
  5
694
  8
DATA
  6
CONTINUOUS
 62
     7
 10
300.0000000000004
 20
540.0
 30
0.0
 40
16.0
  0
TEXT
  5
695
  8
DATA
 62
     7
 10
295.16748448215208
 20
619.99999999999523
 30
0.0
 40
4.8095703125
  1
Ｕ
 41
0.7
  0
TEXT
  5
696
  8
DATA
 62
     7
 10
300.53300620764043
 20
619.99999999999523
 30
0.0
 40
4.8095703125
  1
Ｐ
 41
0.7
  0
TEXT
  5
697
  8
DATA
 62
     7
 10
211.6251876290001
 20
669.28544999999997
 30
0.0
 40
12.21630859375
  1
刻印
 41
0.7
 11
211.6251876290001
 21
681.50175859374986
 31
0.0
 73
     3
  0
LINE
  5
698
  8
DATA
  6
CONTINUOUS
 62
     7
 10
252.5001876290001
 20
675.00045
 30
0.0
 11
277.5001876290001
 21
675.00045
 31
0.0
  0
LINE
  5
699
  8
DATA
  6
CONTINUOUS
 62
     7
 10
277.5001876290001
 20
675.00045
 30
0.0
 11
298.25470219141931
 21
627.46783999999991
 31
0.0
  0
LINE
  5
69A
  8
DATA
  6
CONTINUOUS
 62
     7
 10
298.25470219141931
 20
627.46783999999991
 30
0.0
 11
288.13630007938173
 21
640.41880411446721
 31
0.0
  0
LINE
  5
69B
  8
DATA
  6
CONTINUOUS
 62
     7
 10
298.25470219141931
 20
627.46783999999991
 30
0.0
 11
295.96739097392231
 21
643.7429049826477
 31
0.0
  0
ARC
  5
69C
  8
DATA
  6
CONTINUOUS
 62
     7
 10
362.5
 20
424.45298705200003
 30
0.0
 40
10.0
 50
270.0
 51
0.0000299309999718
  0
LINE
  5
69D
  8
DATA
  6
CONTINUOUS
 62
     7
 10
328.00000000000011
 20
450.0
 30
0.0
 11
328.00000000000011
 21
424.45299109799998
 31
0.0
  0
ARC
  5
69E
  8
DATA
  6
CONTINUOUS
 62
     7
 10
338.00000000000011
 20
424.45298705200003
 30
0.0
 40
10.000000000000361
 50
179.99997680599981
 51
270.0
  0
LINE
  5
69F
  8
DATA
  6
CONTINUOUS
 62
     7
 10
328.00000000000011
 20
443.6745166
 30
0.0
 11
372.5
 21
443.6745166
 31
0.0
  0
LINE
  5
6A0
  8
DATA
  6
CONTINUOUS
 62
     7
 10
338.00000000000011
 20
414.45298705199991
 30
0.0
 11
362.5
 21
414.45298705199991
 31
0.0
  0
POLYLINE
  5
6A1
  8
DATA
  6
CONTINUOUS
 62
     7
 66
     1
 10
0.0
 20
0.0
 30
0.0
 70
   129
  0
VERTEX
  5
C4C
  8
DATA
  6
CONTINUOUS
 62
     7
 10
360.25
 20
428.5951226759999
 30
0.0
  0
VERTEX
  5
C4D
  8
DATA
  6
CONTINUOUS
 62
     7
 10
360.25
 20
428.59512267600343
 30
0.0
 42
0.0308289069997478
  0
VERTEX
  5
C4E
  8
DATA
  6
CONTINUOUS
 62
     7
 10
360.21194698099998
 20
429.21140684300002
 30
0.0
  0
VERTEX
  5
C4F
  8
DATA
  6
CONTINUOUS
 62
     7
 10
360.21194698099998
 20
429.21140684300002
 30
0.0
  0
VERTEX
  5
C50
  8
DATA
  6
CONTINUOUS
 62
     7
 10
360.21194698099998
 20
429.21140684300002
 30
0.0
 42
0.0304257970000727
  0
VERTEX
  5
C51
  8
DATA
  6
CONTINUOUS
 62
     7
 10
360.09807753000001
 20
429.82300071599991
 30
0.0
  0
VERTEX
  5
C52
  8
DATA
  6
CONTINUOUS
 62
     7
 10
360.09807753000001
 20
429.82300071599991
 30
0.0
  0
VERTEX
  5
C53
  8
DATA
  6
CONTINUOUS
 62
     7
 10
360.09807752999978
 20
429.82300071600071
 30
0.0
 42
0.0296077559998452
  0
VERTEX
  5
C54
  8
DATA
  6
CONTINUOUS
 62
     7
 10
359.90925826299969
 20
430.42524969499988
 30
0.0
  0
VERTEX
  5
C55
  8
DATA
  6
CONTINUOUS
 62
     7
 10
359.90925826299969
 20
430.42524969499988
 30
0.0
  0
VERTEX
  5
C56
  8
DATA
  6
CONTINUOUS
 62
     7
 10
359.90925826299957
 20
430.42524969500028
 30
0.0
 42
0.0284626549998727
  0
VERTEX
  5
C57
  8
DATA
  6
CONTINUOUS
 62
     7
 10
359.64692620800002
 20
431.01357030299999
 30
0.0
  0
VERTEX
  5
C58
  8
DATA
  6
CONTINUOUS
 62
     7
 10
359.64692620800002
 20
431.01357030299999
 30
0.0
  0
VERTEX
  5
C59
  8
DATA
  6
CONTINUOUS
 62
     7
 10
359.64692620799798
 20
431.01357030300369
 30
0.0
 42
0.0270987799996382
  0
VERTEX
  5
C5A
  8
DATA
  6
CONTINUOUS
 62
     7
 10
359.31307786999969
 20
431.5834850629999
 30
0.0
  0
VERTEX
  5
C5B
  8
DATA
  6
CONTINUOUS
 62
     7
 10
359.31307786999969
 20
431.5834850629999
 30
0.0
  0
VERTEX
  5
C5C
  8
DATA
  6
CONTINUOUS
 62
     7
 10
359.31307786999969
 20
431.5834850629999
 30
0.0
 42
0.0256239270000727
  0
VERTEX
  5
C5D
  8
DATA
  6
CONTINUOUS
 62
     7
 10
358.91025403800001
 20
432.13065658199992
 30
0.0
  0
VERTEX
  5
C5E
  8
DATA
  6
CONTINUOUS
 62
     7
 10
358.91025403800001
 20
432.13065658199992
 30
0.0
  0
VERTEX
  5
C5F
  8
DATA
  6
CONTINUOUS
 62
     7
 10
358.91025403799938
 20
432.13065658200071
 30
0.0
 42
0.0241305729998277
  0
VERTEX
  5
C60
  8
DATA
  6
CONTINUOUS
 62
     7
 10
358.44152044299972
 20
432.65092055299999
 30
0.0
  0
VERTEX
  5
C61
  8
DATA
  6
CONTINUOUS
 62
     7
 10
358.44152044299972
 20
432.65092055299999
 30
0.0
  0
VERTEX
  5
C62
  8
DATA
  6
CONTINUOUS
 62
     7
 10
358.44152044299631
 20
432.6509205530034
 30
0.0
 42
0.0226890189997355
  0
VERTEX
  5
C63
  8
DATA
  6
CONTINUOUS
 62
     7
 10
357.91044443100009
 20
433.14031745300002
 30
0.0
  0
VERTEX
  5
C64
  8
DATA
  6
CONTINUOUS
 62
     7
 10
357.91044443100009
 20
433.14031745300002
 30
0.0
  0
VERTEX
  5
C65
  8
DATA
  6
CONTINUOUS
 62
     7
 10
357.91044443099679
 20
433.14031745300258
 30
0.0
 42
0.0213470119998581
  0
VERTEX
  5
C66
  8
DATA
  6
CONTINUOUS
 62
     7
 10
357.32106781200002
 20
433.5951226759999
 30
0.0
  0
VERTEX
  5
C67
  8
DATA
  6
CONTINUOUS
 62
     7
 10
357.32106781200002
 20
433.5951226759999
 30
0.0
  0
VERTEX
  5
C68
  8
DATA
  6
CONTINUOUS
 62
     7
 10
357.32106781199968
 20
433.59512267600007
 30
0.0
 42
0.0201331389998216
  0
VERTEX
  5
C69
  8
DATA
  6
CONTINUOUS
 62
     7
 10
356.67787609700008
 20
434.01187487999999
 30
0.0
  0
VERTEX
  5
C6A
  8
DATA
  6
CONTINUOUS
 62
     7
 10
356.67787609700008
 20
434.01187487999999
 30
0.0
  0
VERTEX
  5
C6B
  8
DATA
  6
CONTINUOUS
 62
     7
 10
356.67787609699923
 20
434.01187488000051
 30
0.0
 42
0.0190615840000218
  0
VERTEX
  5
C6C
  8
DATA
  6
CONTINUOUS
 62
     7
 10
355.98576436299987
 20
434.38740232999987
 30
0.0
  0
VERTEX
  5
C6D
  8
DATA
  6
CONTINUOUS
 62
     7
 10
355.98576436299987
 20
434.38740232999987
 30
0.0
  0
VERTEX
  5
C6E
  8
DATA
  6
CONTINUOUS
 62
     7
 10
355.98576436299919
 20
434.38740233000033
 30
0.0
 42
0.0181367479999181
  0
VERTEX
  5
C6F
  8
DATA
  6
CONTINUOUS
 62
     7
 10
355.25000000000011
 20
434.71884703299997
 30
0.0
  0
VERTEX
  5
C70
  8
DATA
  6
CONTINUOUS
 62
     7
 10
355.25000000000011
 20
434.71884703299997
 30
0.0
  0
VERTEX
  5
C71
  8
DATA
  6
CONTINUOUS
 62
     7
 10
355.2500000000004
 20
434.71884703299992
 30
0.0
 42
0.0173570479999223
  0
VERTEX
  5
C72
  8
DATA
  6
CONTINUOUS
 62
     7
 10
354.47618261699972
 20
435.00368649699988
 30
0.0
  0
VERTEX
  5
C73
  8
DATA
  6
CONTINUOUS
 62
     7
 10
354.47618261699972
 20
435.00368649699988
 30
0.0
  0
VERTEX
  5
C74
  8
DATA
  6
CONTINUOUS
 62
     7
 10
354.47618261699972
 20
435.00368649699988
 30
0.0
 42
0.0167177380000531
  0
VERTEX
  5
C75
  8
DATA
  6
CONTINUOUS
 62
     7
 10
353.67020143299987
 20
435.23975292
 30
0.0
  0
VERTEX
  5
C76
  8
DATA
  6
CONTINUOUS
 62
     7
 10
353.67020143299987
 20
435.23975292
 30
0.0
  0
VERTEX
  5
C77
  8
DATA
  6
CONTINUOUS
 62
     7
 10
353.67020143299658
 20
435.2397529200008
 30
0.0
 42
0.0162128689999436
  0
VERTEX
  5
C78
  8
DATA
  6
CONTINUOUS
 62
     7
 10
352.83819045099978
 20
435.42524969499988
 30
0.0
  0
VERTEX
  5
C79
  8
DATA
  6
CONTINUOUS
 62
     7
 10
352.83819045099978
 20
435.42524969499988
 30
0.0
  0
VERTEX
  5
C7A
  8
DATA
  6
CONTINUOUS
 62
     7
 10
352.83819045099978
 20
435.42524969499988
 30
0.0
 42
0.0158365750000389
  0
VERTEX
  5
C7B
  8
DATA
  6
CONTINUOUS
 62
     7
 10
351.98648177599989
 20
435.55876507900001
 30
0.0
  0
VERTEX
  5
C7C
  8
DATA
  6
CONTINUOUS
 62
     7
 10
351.98648177599989
 20
435.55876507900001
 30
0.0
  0
VERTEX
  5
C7D
  8
DATA
  6
CONTINUOUS
 62
     7
 10
351.98648177599853
 20
435.55876507900001
 30
0.0
 42
0.0155838790000449
  0
VERTEX
  5
C7E
  8
DATA
  6
CONTINUOUS
 62
     7
 10
351.12155742700003
 20
435.63928293999987
 30
0.0
  0
VERTEX
  5
C7F
  8
DATA
  6
CONTINUOUS
 62
     7
 10
351.12155742700003
 20
435.63928293999987
 30
0.0
  0
VERTEX
  5
C80
  8
DATA
  6
CONTINUOUS
 62
     7
 10
351.12155742700003
 20
435.63928293999987
 30
0.0
 42
0.0154511700000258
  0
VERTEX
  5
C81
  8
DATA
  6
CONTINUOUS
 62
     7
 10
350.25000000000011
 20
435.66619048799998
 30
0.0
  0
VERTEX
  5
C82
  8
DATA
  6
CONTINUOUS
 62
     7
 10
350.25000000000011
 20
435.66619048799998
 30
0.0
  0
VERTEX
  5
C83
  8
DATA
  6
CONTINUOUS
 62
     7
 10
350.24999999999841
 20
435.66619048799998
 30
0.0
 42
0.0154364709999322
  0
VERTEX
  5
C84
  8
DATA
  6
CONTINUOUS
 62
     7
 10
349.3784425720001
 20
435.63928293999987
 30
0.0
  0
VERTEX
  5
C85
  8
DATA
  6
CONTINUOUS
 62
     7
 10
349.3784425720001
 20
435.63928293999987
 30
0.0
  0
VERTEX
  5
C86
  8
DATA
  6
CONTINUOUS
 62
     7
 10
349.3784425720001
 20
435.63928293999987
 30
0.0
 42
0.015539560000055
  0
VERTEX
  5
C87
  8
DATA
  6
CONTINUOUS
 62
     7
 10
348.51351822299972
 20
435.55876507900001
 30
0.0
  0
VERTEX
  5
C88
  8
DATA
  6
CONTINUOUS
 62
     7
 10
348.51351822299972
 20
435.55876507900001
 30
0.0
  0
VERTEX
  5
C89
  8
DATA
  6
CONTINUOUS
 62
     7
 10
348.51351822299841
 20
435.55876507899973
 30
0.0
 42
0.0157619809999406
  0
VERTEX
  5
C8A
  8
DATA
  6
CONTINUOUS
 62
     7
 10
347.66180954899988
 20
435.42524969499988
 30
0.0
  0
VERTEX
  5
C8B
  8
DATA
  6
CONTINUOUS
 62
     7
 10
347.66180954899988
 20
435.42524969499988
 30
0.0
  0
VERTEX
  5
C8C
  8
DATA
  6
CONTINUOUS
 62
     7
 10
347.66180954899983
 20
435.42524969499988
 30
0.0
 42
0.016106955999965
  0
VERTEX
  5
C8D
  8
DATA
  6
CONTINUOUS
 62
     7
 10
346.82979856599968
 20
435.23975292
 30
0.0
  0
VERTEX
  5
C8E
  8
DATA
  6
CONTINUOUS
 62
     7
 10
346.82979856599968
 20
435.23975292
 30
0.0
  0
VERTEX
  5
C8F
  8
DATA
  6
CONTINUOUS
 62
     7
 10
346.82979856599809
 20
435.2397529199996
 30
0.0
 42
0.0165791549999611
  0
VERTEX
  5
C90
  8
DATA
  6
CONTINUOUS
 62
     7
 10
346.02381738199989
 20
435.00368649699988
 30
0.0
  0
VERTEX
  5
C91
  8
DATA
  6
CONTINUOUS
 62
     7
 10
346.02381738199989
 20
435.00368649699988
 30
0.0
  0
VERTEX
  5
C92
  8
DATA
  6
CONTINUOUS
 62
     7
 10
346.02381738199989
 20
435.00368649699988
 30
0.0
 42
0.0171842830000079
  0
VERTEX
  5
C93
  8
DATA
  6
CONTINUOUS
 62
     7
 10
345.25000000000011
 20
434.71884703299997
 30
0.0
  0
VERTEX
  5
C94
  8
DATA
  6
CONTINUOUS
 62
     7
 10
345.25000000000011
 20
434.71884703299997
 30
0.0
  0
VERTEX
  5
C95
  8
DATA
  6
CONTINUOUS
 62
     7
 10
345.25000000000011
 20
434.71884703299997
 30
0.0
 42
0.0179283660000221
  0
VERTEX
  5
C96
  8
DATA
  6
CONTINUOUS
 62
     7
 10
344.5142356359998
 20
434.38740232999987
 30
0.0
  0
VERTEX
  5
C97
  8
DATA
  6
CONTINUOUS
 62
     7
 10
344.5142356359998
 20
434.38740232999987
 30
0.0
  0
VERTEX
  5
C98
  8
DATA
  6
CONTINUOUS
 62
     7
 10
344.5142356359998
 20
434.38740232999987
 30
0.0
 42
0.0188166049999966
  0
VERTEX
  5
C99
  8
DATA
  6
CONTINUOUS
 62
     7
 10
343.82212390299998
 20
434.01187487999999
 30
0.0
  0
VERTEX
  5
C9A
  8
DATA
  6
CONTINUOUS
 62
     7
 10
343.82212390299998
 20
434.01187487999999
 30
0.0
  0
VERTEX
  5
C9B
  8
DATA
  6
CONTINUOUS
 62
     7
 10
343.8221239029989
 20
434.01187487999931
 30
0.0
 42
0.0198516009998617
  0
VERTEX
  5
C9C
  8
DATA
  6
CONTINUOUS
 62
     7
 10
343.17893218799969
 20
433.5951226759999
 30
0.0
  0
VERTEX
  5
C9D
  8
DATA
  6
CONTINUOUS
 62
     7
 10
343.17893218799969
 20
433.5951226759999
 30
0.0
  0
VERTEX
  5
C9E
  8
DATA
  6
CONTINUOUS
 62
     7
 10
343.17893218799969
 20
433.5951226759999
 30
0.0
 42
0.0210307680000826
  0
VERTEX
  5
C9F
  8
DATA
  6
CONTINUOUS
 62
     7
 10
342.58955556900003
 20
433.14031745300002
 30
0.0
  0
VERTEX
  5
CA0
  8
DATA
  6
CONTINUOUS
 62
     7
 10
342.58955556900003
 20
433.14031745300002
 30
0.0
  0
VERTEX
  5
CA1
  8
DATA
  6
CONTINUOUS
 62
     7
 10
342.58955556899878
 20
433.14031745299889
 30
0.0
 42
0.0223427749998946
  0
VERTEX
  5
CA2
  8
DATA
  6
CONTINUOUS
 62
     7
 10
342.05847955699988
 20
432.65092055299999
 30
0.0
  0
VERTEX
  5
CA3
  8
DATA
  6
CONTINUOUS
 62
     7
 10
342.05847955699988
 20
432.65092055299999
 30
0.0
  0
VERTEX
  5
CA4
  8
DATA
  6
CONTINUOUS
 62
     7
 10
342.05847955699949
 20
432.65092055299959
 30
0.0
 42
0.0237630949999381
  0
VERTEX
  5
CA5
  8
DATA
  6
CONTINUOUS
 62
     7
 10
341.58974596199999
 20
432.13065658199992
 30
0.0
  0
VERTEX
  5
CA6
  8
DATA
  6
CONTINUOUS
 62
     7
 10
341.58974596199999
 20
432.13065658199992
 30
0.0
  0
VERTEX
  5
CA7
  8
DATA
  6
CONTINUOUS
 62
     7
 10
341.58974596199999
 20
432.13065658199992
 30
0.0
 42
0.0252491760001241
  0
VERTEX
  5
CA8
  8
DATA
  6
CONTINUOUS
 62
     7
 10
341.18692212899992
 20
431.5834850629999
 30
0.0
  0
VERTEX
  5
CA9
  8
DATA
  6
CONTINUOUS
 62
     7
 10
341.18692212899992
 20
431.5834850629999
 30
0.0
  0
VERTEX
  5
CAA
  8
DATA
  6
CONTINUOUS
 62
     7
 10
341.18692212899992
 20
431.5834850629999
 30
0.0
 42
0.0267365170003286
  0
VERTEX
  5
CAB
  8
DATA
  6
CONTINUOUS
 62
     7
 10
340.85307379199998
 20
431.01357030299999
 30
0.0
  0
VERTEX
  5
CAC
  8
DATA
  6
CONTINUOUS
 62
     7
 10
340.85307379199998
 20
431.01357030299999
 30
0.0
  0
VERTEX
  5
CAD
  8
DATA
  6
CONTINUOUS
 62
     7
 10
340.8530737919998
 20
431.01357030299943
 30
0.0
 42
0.0281378349999755
  0
VERTEX
  5
CAE
  8
DATA
  6
CONTINUOUS
 62
     7
 10
340.59074173699997
 20
430.42524969499988
 30
0.0
  0
VERTEX
  5
CAF
  8
DATA
  6
CONTINUOUS
 62
     7
 10
340.59074173699997
 20
430.42524969499988
 30
0.0
  0
VERTEX
  5
CB0
  8
DATA
  6
CONTINUOUS
 62
     7
 10
340.59074173699958
 20
430.4252496949988
 30
0.0
 42
0.0293480879998712
  0
VERTEX
  5
CB1
  8
DATA
  6
CONTINUOUS
 62
     7
 10
340.4019224700001
 20
429.82300071599991
 30
0.0
  0
VERTEX
  5
CB2
  8
DATA
  6
CONTINUOUS
 62
     7
 10
340.4019224700001
 20
429.82300071599991
 30
0.0
  0
VERTEX
  5
CB3
  8
DATA
  6
CONTINUOUS
 62
     7
 10
340.4019224700001
 20
429.82300071599991
 30
0.0
 42
0.0302573150005795
  0
VERTEX
  5
CB4
  8
DATA
  6
CONTINUOUS
 62
     7
 10
340.28805301900007
 20
429.21140684300002
 30
0.0
  0
VERTEX
  5
CB5
  8
DATA
  6
CONTINUOUS
 62
     7
 10
340.28805301900007
 20
429.21140684300002
 30
0.0
  0
VERTEX
  5
CB6
  8
DATA
  6
CONTINUOUS
 62
     7
 10
340.28805301900002
 20
429.21140684299911
 30
0.0
 42
0.030770446000071
  0
VERTEX
  5
CB7
  8
DATA
  6
CONTINUOUS
 62
     7
 10
340.25000000000011
 20
428.5951226759999
 30
0.0
  0
VERTEX
  5
CB8
  8
DATA
  6
CONTINUOUS
 62
     7
 10
340.25000000000011
 20
428.5951226759999
 30
0.0
  0
VERTEX
  5
CB9
  8
DATA
  6
CONTINUOUS
 62
     7
 10
340.25000000000011
 20
428.5951226759999
 30
0.0
 42
0.030828907000424
  0
VERTEX
  5
CBA
  8
DATA
  6
CONTINUOUS
 62
     7
 10
340.28805301900007
 20
427.9788385089999
 30
0.0
  0
VERTEX
  5
CBB
  8
DATA
  6
CONTINUOUS
 62
     7
 10
340.28805301900007
 20
427.9788385089999
 30
0.0
  0
VERTEX
  5
CBC
  8
DATA
  6
CONTINUOUS
 62
     7
 10
340.28805301900007
 20
427.9788385089999
 30
0.0
 42
0.0304257970000766
  0
VERTEX
  5
CBD
  8
DATA
  6
CONTINUOUS
 62
     7
 10
340.4019224700001
 20
427.3672446359999
 30
0.0
  0
VERTEX
  5
CBE
  8
DATA
  6
CONTINUOUS
 62
     7
 10
340.4019224700001
 20
427.3672446359999
 30
0.0
  0
VERTEX
  5
CBF
  8
DATA
  6
CONTINUOUS
 62
     7
 10
340.4019224700001
 20
427.3672446359999
 30
0.0
 42
0.0296077560001719
  0
VERTEX
  5
CC0
  8
DATA
  6
CONTINUOUS
 62
     7
 10
340.59074173699997
 20
426.76499565699987
 30
0.0
  0
VERTEX
  5
CC1
  8
DATA
  6
CONTINUOUS
 62
     7
 10
340.59074173699997
 20
426.76499565699987
 30
0.0
  0
VERTEX
  5
CC2
  8
DATA
  6
CONTINUOUS
 62
     7
 10
340.59074173699997
 20
426.76499565699987
 30
0.0
 42
0.0284626550000119
  0
VERTEX
  5
CC3
  8
DATA
  6
CONTINUOUS
 62
     7
 10
340.85307379199998
 20
426.17667504999991
 30
0.0
  0
VERTEX
  5
CC4
  8
DATA
  6
CONTINUOUS
 62
     7
 10
340.85307379199998
 20
426.17667504999991
 30
0.0
  0
VERTEX
  5
CC5
  8
DATA
  6
CONTINUOUS
 62
     7
 10
340.85307379200083
 20
426.17667504999861
 30
0.0
 42
0.0270987799998575
  0
VERTEX
  5
CC6
  8
DATA
  6
CONTINUOUS
 62
     7
 10
341.18692212899992
 20
425.60676028899991
 30
0.0
  0
VERTEX
  5
CC7
  8
DATA
  6
CONTINUOUS
 62
     7
 10
341.18692212899992
 20
425.60676028899991
 30
0.0
  0
VERTEX
  5
CC8
  8
DATA
  6
CONTINUOUS
 62
     7
 10
341.18692212900049
 20
425.60676028899911
 30
0.0
 42
0.0256239269999994
  0
VERTEX
  5
CC9
  8
DATA
  6
CONTINUOUS
 62
     7
 10
341.58974596199999
 20
425.05958877
 30
0.0
  0
VERTEX
  5
CCA
  8
DATA
  6
CONTINUOUS
 62
     7
 10
341.58974596199999
 20
425.05958877
 30
0.0
  0
VERTEX
  5
CCB
  8
DATA
  6
CONTINUOUS
 62
     7
 10
341.58974596199999
 20
425.05958877
 30
0.0
 42
0.0241305730001447
  0
VERTEX
  5
CCC
  8
DATA
  6
CONTINUOUS
 62
     7
 10
342.05847955699988
 20
424.53932479899993
 30
0.0
  0
VERTEX
  5
CCD
  8
DATA
  6
CONTINUOUS
 62
     7
 10
342.05847955699988
 20
424.53932479899993
 30
0.0
  0
VERTEX
  5
CCE
  8
DATA
  6
CONTINUOUS
 62
     7
 10
342.05847955699971
 20
424.53932479899998
 30
0.0
 42
0.0226890190000141
  0
VERTEX
  5
CCF
  8
DATA
  6
CONTINUOUS
 62
     7
 10
342.58955556900003
 20
424.0499278989999
 30
0.0
  0
VERTEX
  5
CD0
  8
DATA
  6
CONTINUOUS
 62
     7
 10
342.58955556900003
 20
424.0499278989999
 30
0.0
  0
VERTEX
  5
CD1
  8
DATA
  6
CONTINUOUS
 62
     7
 10
342.58955556900088
 20
424.0499278989991
 30
0.0
 42
0.0213470120001167
  0
VERTEX
  5
CD2
  8
DATA
  6
CONTINUOUS
 62
     7
 10
343.17893218799969
 20
423.5951226759999
 30
0.0
  0
VERTEX
  5
CD3
  8
DATA
  6
CONTINUOUS
 62
     7
 10
343.17893218799969
 20
423.5951226759999
 30
0.0
  0
VERTEX
  5
CD4
  8
DATA
  6
CONTINUOUS
 62
     7
 10
343.17893218799969
 20
423.5951226759999
 30
0.0
 42
0.0201331390000778
  0
VERTEX
  5
CD5
  8
DATA
  6
CONTINUOUS
 62
     7
 10
343.82212390299998
 20
423.17837047199993
 30
0.0
  0
VERTEX
  5
CD6
  8
DATA
  6
CONTINUOUS
 62
     7
 10
343.82212390299998
 20
423.17837047199993
 30
0.0
  0
VERTEX
  5
CD7
  8
DATA
  6
CONTINUOUS
 62
     7
 10
343.82212390299958
 20
423.17837047200021
 30
0.0
 42
0.0190615839999329
  0
VERTEX
  5
CD8
  8
DATA
  6
CONTINUOUS
 62
     7
 10
344.5142356359998
 20
422.80284302299998
 30
0.0
  0
VERTEX
  5
CD9
  8
DATA
  6
CONTINUOUS
 62
     7
 10
344.5142356359998
 20
422.80284302299998
 30
0.0
  0
VERTEX
  5
CDA
  8
DATA
  6
CONTINUOUS
 62
     7
 10
344.5142356359998
 20
422.80284302299998
 30
0.0
 42
0.0181367480000135
  0
VERTEX
  5
CDB
  8
DATA
  6
CONTINUOUS
 62
     7
 10
345.25000000000011
 20
422.471398319
 30
0.0
  0
VERTEX
  5
CDC
  8
DATA
  6
CONTINUOUS
 62
     7
 10
345.25000000000011
 20
422.471398319
 30
0.0
  0
VERTEX
  5
CDD
  8
DATA
  6
CONTINUOUS
 62
     7
 10
345.25000000000091
 20
422.4713983189996
 30
0.0
 42
0.0173570479999355
  0
VERTEX
  5
CDE
  8
DATA
  6
CONTINUOUS
 62
     7
 10
346.02381738199989
 20
422.18655885599992
 30
0.0
  0
VERTEX
  5
CDF
  8
DATA
  6
CONTINUOUS
 62
     7
 10
346.02381738199989
 20
422.18655885599992
 30
0.0
  0
VERTEX
  5
CE0
  8
DATA
  6
CONTINUOUS
 62
     7
 10
346.02381738200103
 20
422.18655885599952
 30
0.0
 42
0.0167177379998898
  0
VERTEX
  5
CE1
  8
DATA
  6
CONTINUOUS
 62
     7
 10
346.82979856599968
 20
421.95049243199992
 30
0.0
  0
VERTEX
  5
CE2
  8
DATA
  6
CONTINUOUS
 62
     7
 10
346.82979856599968
 20
421.95049243199992
 30
0.0
  0
VERTEX
  5
CE3
  8
DATA
  6
CONTINUOUS
 62
     7
 10
346.82979856600292
 20
421.95049243199901
 30
0.0
 42
0.0162128689999578
  0
VERTEX
  5
CE4
  8
DATA
  6
CONTINUOUS
 62
     7
 10
347.66180954899988
 20
421.76499565699987
 30
0.0
  0
VERTEX
  5
CE5
  8
DATA
  6
CONTINUOUS
 62
     7
 10
347.66180954899988
 20
421.76499565699987
 30
0.0
  0
VERTEX
  5
CE6
  8
DATA
  6
CONTINUOUS
 62
     7
 10
347.66180954899988
 20
421.76499565699987
 30
0.0
 42
0.0158365750000327
  0
VERTEX
  5
CE7
  8
DATA
  6
CONTINUOUS
 62
     7
 10
348.51351822299972
 20
421.63148027300002
 30
0.0
  0
VERTEX
  5
CE8
  8
DATA
  6
CONTINUOUS
 62
     7
 10
348.51351822299972
 20
421.63148027300002
 30
0.0
  0
VERTEX
  5
CE9
  8
DATA
  6
CONTINUOUS
 62
     7
 10
348.51351822299972
 20
421.63148027300002
 30
0.0
 42
0.0155838789999473
  0
VERTEX
  5
CEA
  8
DATA
  6
CONTINUOUS
 62
     7
 10
349.3784425720001
 20
421.55096241199999
 30
0.0
  0
VERTEX
  5
CEB
  8
DATA
  6
CONTINUOUS
 62
     7
 10
349.3784425720001
 20
421.55096241199999
 30
0.0
  0
VERTEX
  5
CEC
  8
DATA
  6
CONTINUOUS
 62
     7
 10
349.3784425720001
 20
421.55096241199999
 30
0.0
 42
0.0154511700000491
  0
VERTEX
  5
CED
  8
DATA
  6
CONTINUOUS
 62
     7
 10
350.25000000000011
 20
421.52405486399988
 30
0.0
  0
VERTEX
  5
CEE
  8
DATA
  6
CONTINUOUS
 62
     7
 10
350.25000000000011
 20
421.52405486399988
 30
0.0
  0
VERTEX
  5
CEF
  8
DATA
  6
CONTINUOUS
 62
     7
 10
350.25000000000011
 20
421.52405486399988
 30
0.0
 42
0.0154364710000492
  0
VERTEX
  5
CF0
  8
DATA
  6
CONTINUOUS
 62
     7
 10
351.12155742700003
 20
421.55096241199999
 30
0.0
  0
VERTEX
  5
CF1
  8
DATA
  6
CONTINUOUS
 62
     7
 10
351.12155742700003
 20
421.55096241199999
 30
0.0
  0
VERTEX
  5
CF2
  8
DATA
  6
CONTINUOUS
 62
     7
 10
351.12155742700003
 20
421.55096241199999
 30
0.0
 42
0.0155395600000814
  0
VERTEX
  5
CF3
  8
DATA
  6
CONTINUOUS
 62
     7
 10
351.98648177599989
 20
421.63148027300002
 30
0.0
  0
VERTEX
  5
CF4
  8
DATA
  6
CONTINUOUS
 62
     7
 10
351.98648177599989
 20
421.63148027300002
 30
0.0
  0
VERTEX
  5
CF5
  8
DATA
  6
CONTINUOUS
 62
     7
 10
351.98648177599989
 20
421.63148027300002
 30
0.0
 42
0.0157619810000168
  0
VERTEX
  5
CF6
  8
DATA
  6
CONTINUOUS
 62
     7
 10
352.83819045099978
 20
421.76499565699987
 30
0.0
  0
VERTEX
  5
CF7
  8
DATA
  6
CONTINUOUS
 62
     7
 10
352.83819045099978
 20
421.76499565699987
 30
0.0
  0
VERTEX
  5
CF8
  8
DATA
  6
CONTINUOUS
 62
     7
 10
352.83819045100063
 20
421.76499565700021
 30
0.0
 42
0.0161069560000125
  0
VERTEX
  5
CF9
  8
DATA
  6
CONTINUOUS
 62
     7
 10
353.67020143299987
 20
421.95049243199992
 30
0.0
  0
VERTEX
  5
CFA
  8
DATA
  6
CONTINUOUS
 62
     7
 10
353.67020143299987
 20
421.95049243199992
 30
0.0
  0
VERTEX
  5
CFB
  8
DATA
  6
CONTINUOUS
 62
     7
 10
353.67020143299987
 20
421.95049243199992
 30
0.0
 42
0.0165791550000047
  0
VERTEX
  5
CFC
  8
DATA
  6
CONTINUOUS
 62
     7
 10
354.47618261699972
 20
422.18655885599992
 30
0.0
  0
VERTEX
  5
CFD
  8
DATA
  6
CONTINUOUS
 62
     7
 10
354.47618261699972
 20
422.18655885599992
 30
0.0
  0
VERTEX
  5
CFE
  8
DATA
  6
CONTINUOUS
 62
     7
 10
354.47618261700171
 20
422.18655885600049
 30
0.0
 42
0.0171842829999509
  0
VERTEX
  5
CFF
  8
DATA
  6
CONTINUOUS
 62
     7
 10
355.25000000000011
 20
422.471398319
 30
0.0
  0
VERTEX
  5
D00
  8
DATA
  6
CONTINUOUS
 62
     7
 10
355.25000000000011
 20
422.471398319
 30
0.0
  0
VERTEX
  5
D01
  8
DATA
  6
CONTINUOUS
 62
     7
 10
355.25000000000011
 20
422.471398319
 30
0.0
 42
0.0179283660000345
  0
VERTEX
  5
D02
  8
DATA
  6
CONTINUOUS
 62
     7
 10
355.98576436299987
 20
422.80284302299998
 30
0.0
  0
VERTEX
  5
D03
  8
DATA
  6
CONTINUOUS
 62
     7
 10
355.98576436299987
 20
422.80284302299998
 30
0.0
  0
VERTEX
  5
D04
  8
DATA
  6
CONTINUOUS
 62
     7
 10
355.98576436300141
 20
422.80284302300072
 30
0.0
 42
0.0188166049998337
  0
VERTEX
  5
D05
  8
DATA
  6
CONTINUOUS
 62
     7
 10
356.67787609700008
 20
423.17837047199993
 30
0.0
  0
VERTEX
  5
D06
  8
DATA
  6
CONTINUOUS
 62
     7
 10
356.67787609700008
 20
423.17837047199993
 30
0.0
  0
VERTEX
  5
D07
  8
DATA
  6
CONTINUOUS
 62
     7
 10
356.67787609700008
 20
423.17837047199993
 30
0.0
 42
0.0198516010000693
  0
VERTEX
  5
D08
  8
DATA
  6
CONTINUOUS
 62
     7
 10
357.32106781200002
 20
423.5951226759999
 30
0.0
  0
VERTEX
  5
D09
  8
DATA
  6
CONTINUOUS
 62
     7
 10
357.32106781200002
 20
423.5951226759999
 30
0.0
  0
VERTEX
  5
D0A
  8
DATA
  6
CONTINUOUS
 62
     7
 10
357.32106781200167
 20
423.5951226760011
 30
0.0
 42
0.0210307679998876
  0
VERTEX
  5
D0B
  8
DATA
  6
CONTINUOUS
 62
     7
 10
357.91044443100009
 20
424.0499278989999
 30
0.0
  0
VERTEX
  5
D0C
  8
DATA
  6
CONTINUOUS
 62
     7
 10
357.91044443100009
 20
424.0499278989999
 30
0.0
  0
VERTEX
  5
D0D
  8
DATA
  6
CONTINUOUS
 62
     7
 10
357.91044443100009
 20
424.0499278989999
 30
0.0
 42
0.0223427750000978
  0
VERTEX
  5
D0E
  8
DATA
  6
CONTINUOUS
 62
     7
 10
358.44152044299972
 20
424.53932479899993
 30
0.0
  0
VERTEX
  5
D0F
  8
DATA
  6
CONTINUOUS
 62
     7
 10
358.44152044299972
 20
424.53932479899993
 30
0.0
  0
VERTEX
  5
D10
  8
DATA
  6
CONTINUOUS
 62
     7
 10
358.44152044299972
 20
424.53932479899993
 30
0.0
 42
0.0237630950002749
  0
VERTEX
  5
D11
  8
DATA
  6
CONTINUOUS
 62
     7
 10
358.91025403800001
 20
425.05958877
 30
0.0
  0
VERTEX
  5
D12
  8
DATA
  6
CONTINUOUS
 62
     7
 10
358.91025403800001
 20
425.05958877
 30
0.0
  0
VERTEX
  5
D13
  8
DATA
  6
CONTINUOUS
 62
     7
 10
358.91025403800001
 20
425.05958877
 30
0.0
 42
0.0252491760001078
  0
VERTEX
  5
D14
  8
DATA
  6
CONTINUOUS
 62
     7
 10
359.31307786999969
 20
425.60676028899991
 30
0.0
  0
VERTEX
  5
D15
  8
DATA
  6
CONTINUOUS
 62
     7
 10
359.31307786999969
 20
425.60676028899991
 30
0.0
  0
VERTEX
  5
D16
  8
DATA
  6
CONTINUOUS
 62
     7
 10
359.31307787000139
 20
425.6067602890023
 30
0.0
 42
0.0267365169997336
  0
VERTEX
  5
D17
  8
DATA
  6
CONTINUOUS
 62
     7
 10
359.64692620800002
 20
426.17667504999991
 30
0.0
  0
VERTEX
  5
D18
  8
DATA
  6
CONTINUOUS
 62
     7
 10
359.64692620800002
 20
426.17667504999991
 30
0.0
  0
VERTEX
  5
D19
  8
DATA
  6
CONTINUOUS
 62
     7
 10
359.64692620800002
 20
426.17667504999991
 30
0.0
 42
0.0281378350002405
  0
VERTEX
  5
D1A
  8
DATA
  6
CONTINUOUS
 62
     7
 10
359.90925826299969
 20
426.76499565699987
 30
0.0
  0
VERTEX
  5
D1B
  8
DATA
  6
CONTINUOUS
 62
     7
 10
359.90925826299969
 20
426.76499565699987
 30
0.0
  0
VERTEX
  5
D1C
  8
DATA
  6
CONTINUOUS
 62
     7
 10
359.90925826299969
 20
426.76499565699987
 30
0.0
 42
0.0293480880001058
  0
VERTEX
  5
D1D
  8
DATA
  6
CONTINUOUS
 62
     7
 10
360.09807753000001
 20
427.3672446359999
 30
0.0
  0
VERTEX
  5
D1E
  8
DATA
  6
CONTINUOUS
 62
     7
 10
360.09807753000001
 20
427.3672446359999
 30
0.0
  0
VERTEX
  5
D1F
  8
DATA
  6
CONTINUOUS
 62
     7
 10
360.0980775300003
 20
427.3672446360012
 30
0.0
 42
0.0302573149998943
  0
VERTEX
  5
D20
  8
DATA
  6
CONTINUOUS
 62
     7
 10
360.21194698099998
 20
427.9788385089999
 30
0.0
  0
VERTEX
  5
D21
  8
DATA
  6
CONTINUOUS
 62
     7
 10
360.21194698099998
 20
427.9788385089999
 30
0.0
  0
VERTEX
  5
D22
  8
DATA
  6
CONTINUOUS
 62
     7
 10
360.21194698100021
 20
427.97883850900052
 30
0.0
 42
0.030770445999989
  0
VERTEX
  5
D23
  8
DATA
  6
CONTINUOUS
 62
     7
 10
360.25
 20
428.5951226759999
 30
0.0
  0
SEQEND
  5
D24
  8
DATA
  6
CONTINUOUS
 62
     7
  0
POLYLINE
  5
77B
  8
DATA
  6
CONTINUOUS
 62
     7
 66
     1
 10
0.0
 20
0.0
 30
0.0
 70
   128
  0
VERTEX
  5
D25
  8
DATA
  6
CONTINUOUS
 62
     7
 10
340.378829856001
 20
429.72649352599541
 30
0.0
 42
0.0300536239996645
  0
VERTEX
  5
D26
  8
DATA
  6
CONTINUOUS
 62
     7
 10
340.55796872199971
 20
429.11652441699999
 30
0.0
  0
VERTEX
  5
D27
  8
DATA
  6
CONTINUOUS
 62
     7
 10
340.55796872199971
 20
429.11652441699999
 30
0.0
  0
VERTEX
  5
D28
  8
DATA
  6
CONTINUOUS
 62
     7
 10
340.55796872200062
 20
429.11652441699761
 30
0.0
 42
0.0289290129998124
  0
VERTEX
  5
D29
  8
DATA
  6
CONTINUOUS
 62
     7
 10
340.81233862300002
 20
428.5200718559999
 30
0.0
  0
VERTEX
  5
D2A
  8
DATA
  6
CONTINUOUS
 62
     7
 10
340.81233862300002
 20
428.5200718559999
 30
0.0
  0
VERTEX
  5
D2B
  8
DATA
  6
CONTINUOUS
 62
     7
 10
340.81233862300161
 20
428.52007185599672
 30
0.0
 42
0.0275624569997328
  0
VERTEX
  5
D2C
  8
DATA
  6
CONTINUOUS
 62
     7
 10
341.13996510099969
 20
427.94176559999988
 30
0.0
  0
VERTEX
  5
D2D
  8
DATA
  6
CONTINUOUS
 62
     7
 10
341.13996510099969
 20
427.94176559999988
 30
0.0
  0
VERTEX
  5
D2E
  8
DATA
  6
CONTINUOUS
 62
     7
 10
341.13996510099952
 20
427.94176560000028
 30
0.0
 42
0.0260672349999479
  0
VERTEX
  5
D2F
  8
DATA
  6
CONTINUOUS
 62
     7
 10
341.53830506899982
 20
427.38609455099993
 30
0.0
  0
VERTEX
  5
D30
  8
DATA
  6
CONTINUOUS
 62
     7
 10
341.53830506899982
 20
427.38609455099993
 30
0.0
  0
VERTEX
  5
D31
  8
DATA
  6
CONTINUOUS
 62
     7
 10
341.53830506900152
 20
427.38609455099771
 30
0.0
 42
0.0245421769998221
  0
VERTEX
  5
D32
  8
DATA
  6
CONTINUOUS
 62
     7
 10
342.00426655199999
 20
426.85737191199991
 30
0.0
  0
VERTEX
  5
D33
  8
DATA
  6
CONTINUOUS
 62
     7
 10
342.00426655199999
 20
426.85737191199991
 30
0.0
  0
VERTEX
  5
D34
  8
DATA
  6
CONTINUOUS
 62
     7
 10
342.00426655199999
 20
426.85737191199991
 30
0.0
 42
0.023063314000137
  0
VERTEX
  5
D35
  8
DATA
  6
CONTINUOUS
 62
     7
 10
342.53423268500001
 20
426.35970171000002
 30
0.0
  0
VERTEX
  5
D36
  8
DATA
  6
CONTINUOUS
 62
     7
 10
342.53423268500001
 20
426.35970171000002
 30
0.0
  0
VERTEX
  5
D37
  8
DATA
  6
CONTINUOUS
 62
     7
 10
342.53423268500001
 20
426.35970171000002
 30
0.0
 42
0.02168278400006
  0
VERTEX
  5
D38
  8
DATA
  6
CONTINUOUS
 62
     7
 10
343.12408978799982
 20
425.89694693799993
 30
0.0
  0
VERTEX
  5
D39
  8
DATA
  6
CONTINUOUS
 62
     7
 10
343.12408978799982
 20
425.89694693799993
 30
0.0
  0
VERTEX
  5
D3A
  8
DATA
  6
CONTINUOUS
 62
     7
 10
343.12408978800278
 20
425.89694693799782
 30
0.0
 42
0.0204321239998282
  0
VERTEX
  5
D3B
  8
DATA
  6
CONTINUOUS
 62
     7
 10
343.76925930099981
 20
425.47269956899987
 30
0.0
  0
VERTEX
  5
D3C
  8
DATA
  6
CONTINUOUS
 62
     7
 10
343.76925930099981
 20
425.47269956899987
 30
0.0
  0
VERTEX
  5
D3D
  8
DATA
  6
CONTINUOUS
 62
     7
 10
343.76925930100128
 20
425.47269956899902
 30
0.0
 42
0.0193272499999419
  0
VERTEX
  5
D3E
  8
DATA
  6
CONTINUOUS
 62
     7
 10
344.46473331900012
 20
425.09025267599998
 30
0.0
  0
VERTEX
  5
D3F
  8
DATA
  6
CONTINUOUS
 62
     7
 10
344.46473331900012
 20
425.09025267599998
 30
0.0
  0
VERTEX
  5
D40
  8
DATA
  6
CONTINUOUS
 62
     7
 10
344.46473331900012
 20
425.09025267599998
 30
0.0
 42
0.018373408000208
  0
VERTEX
  5
D41
  8
DATA
  6
CONTINUOUS
 62
     7
 10
345.205113466
 20
424.75257487199991
 30
0.0
  0
VERTEX
  5
D42
  8
DATA
  6
CONTINUOUS
 62
     7
 10
345.205113466
 20
424.75257487199991
 30
0.0
  0
VERTEX
  5
D43
  8
DATA
  6
CONTINUOUS
 62
     7
 10
345.205113466
 20
424.75257487199991
 30
0.0
 42
0.017569291000192
  0
VERTEX
  5
D44
  8
DATA
  6
CONTINUOUS
 62
     7
 10
345.98465279700002
 20
424.4622872619999
 30
0.0
  0
VERTEX
  5
D45
  8
DATA
  6
CONTINUOUS
 62
     7
 10
345.98465279700002
 20
424.4622872619999
 30
0.0
  0
VERTEX
  5
D46
  8
DATA
  6
CONTINUOUS
 62
     7
 10
345.98465279700002
 20
424.4622872619999
 30
0.0
 42
0.0169100990000652
  0
VERTEX
  5
D47
  8
DATA
  6
CONTINUOUS
 62
     7
 10
346.79730040800001
 20
424.22164310399978
 30
0.0
  0
VERTEX
  5
D48
  8
DATA
  6
CONTINUOUS
 62
     7
 10
346.79730040800001
 20
424.22164310399978
 30
0.0
  0
VERTEX
  5
D49
  8
DATA
  6
CONTINUOUS
 62
     7
 10
346.79730040800001
 20
424.22164310399978
 30
0.0
 42
0.0163896760000024
  0
VERTEX
  5
D4A
  8
DATA
  6
CONTINUOUS
 62
     7
 10
347.63674840399977
 20
424.0325103159999
 30
0.0
  0
VERTEX
  5
D4B
  8
DATA
  6
CONTINUOUS
 62
     7
 10
347.63674840399977
 20
424.0325103159999
 30
0.0
  0
VERTEX
  5
D4C
  8
DATA
  6
CONTINUOUS
 62
     7
 10
347.63674840400188
 20
424.03251031599962
 30
0.0
 42
0.0160018979999586
  0
VERTEX
  5
D4D
  8
DATA
  6
CONTINUOUS
 62
     7
 10
348.49648085999991
 20
423.89635697399979
 30
0.0
  0
VERTEX
  5
D4E
  8
DATA
  6
CONTINUOUS
 62
     7
 10
348.49648085999991
 20
423.89635697399979
 30
0.0
  0
VERTEX
  5
D4F
  8
DATA
  6
CONTINUOUS
 62
     7
 10
348.49648086000002
 20
423.89635697399979
 30
0.0
 42
0.0157415489999312
  0
VERTEX
  5
D50
  8
DATA
  6
CONTINUOUS
 62
     7
 10
349.36982440099968
 20
423.81423992100002
 30
0.0
  0
VERTEX
  5
D51
  8
DATA
  6
CONTINUOUS
 62
     7
 10
349.36982440099968
 20
423.81423992100002
 30
0.0
  0
VERTEX
  5
D52
  8
DATA
  6
CONTINUOUS
 62
     7
 10
349.36982440099968
 20
423.81423992100002
 30
0.0
 42
0.0156048429999753
  0
VERTEX
  5
D53
  8
DATA
  6
CONTINUOUS
 62
     7
 10
350.25000000000011
 20
423.78679656399993
 30
0.0
  0
VERTEX
  5
D54
  8
DATA
  6
CONTINUOUS
 62
     7
 10
350.25000000000011
 20
423.78679656399993
 30
0.0
  0
VERTEX
  5
D55
  8
DATA
  6
CONTINUOUS
 62
     7
 10
350.24999999999977
 20
423.78679656399993
 30
0.0
 42
0.0155897019999527
  0
VERTEX
  5
D56
  8
DATA
  6
CONTINUOUS
 62
     7
 10
351.13017559899993
 20
423.81423992100002
 30
0.0
  0
VERTEX
  5
D57
  8
DATA
  6
CONTINUOUS
 62
     7
 10
351.13017559899993
 20
423.81423992100002
 30
0.0
  0
VERTEX
  5
D58
  8
DATA
  6
CONTINUOUS
 62
     7
 10
351.13017559900021
 20
423.81423992100002
 30
0.0
 42
0.0156958929999138
  0
VERTEX
  5
D59
  8
DATA
  6
CONTINUOUS
 62
     7
 10
352.00351913999981
 20
423.89635697399979
 30
0.0
  0
VERTEX
  5
D5A
  8
DATA
  6
CONTINUOUS
 62
     7
 10
352.00351913999981
 20
423.89635697399979
 30
0.0
  0
VERTEX
  5
D5B
  8
DATA
  6
CONTINUOUS
 62
     7
 10
352.00351914000038
 20
423.89635697400001
 30
0.0
 42
0.0159250389999423
  0
VERTEX
  5
D5C
  8
DATA
  6
CONTINUOUS
 62
     7
 10
352.86325159599988
 20
424.0325103159999
 30
0.0
  0
VERTEX
  5
D5D
  8
DATA
  6
CONTINUOUS
 62
     7
 10
352.86325159599988
 20
424.0325103159999
 30
0.0
  0
VERTEX
  5
D5E
  8
DATA
  6
CONTINUOUS
 62
     7
 10
352.86325159600318
 20
424.03251031600058
 30
0.0
 42
0.0162805199998449
  0
VERTEX
  5
D5F
  8
DATA
  6
CONTINUOUS
 62
     7
 10
353.70269959100011
 20
424.22164310399978
 30
0.0
  0
VERTEX
  5
D60
  8
DATA
  6
CONTINUOUS
 62
     7
 10
353.70269959100011
 20
424.22164310399978
 30
0.0
  0
VERTEX
  5
D61
  8
DATA
  6
CONTINUOUS
 62
     7
 10
353.70269959100227
 20
424.22164310400041
 30
0.0
 42
0.0167672319998484
  0
VERTEX
  5
D62
  8
DATA
  6
CONTINUOUS
 62
     7
 10
354.51534720299981
 20
424.4622872619999
 30
0.0
  0
VERTEX
  5
D63
  8
DATA
  6
CONTINUOUS
 62
     7
 10
354.51534720299981
 20
424.4622872619999
 30
0.0
  0
VERTEX
  5
D64
  8
DATA
  6
CONTINUOUS
 62
     7
 10
354.51534720299981
 20
424.4622872619999
 30
0.0
 42
0.0173911360000453
  0
VERTEX
  5
D65
  8
DATA
  6
CONTINUOUS
 62
     7
 10
355.29488653300001
 20
424.75257487199991
 30
0.0
  0
VERTEX
  5
D66
  8
DATA
  6
CONTINUOUS
 62
     7
 10
355.29488653300001
 20
424.75257487199991
 30
0.0
  0
VERTEX
  5
D67
  8
DATA
  6
CONTINUOUS
 62
     7
 10
355.2948865330028
 20
424.75257487200099
 30
0.0
 42
0.0181584889998863
  0
VERTEX
  5
D68
  8
DATA
  6
CONTINUOUS
 62
     7
 10
356.03526668000001
 20
425.09025267599998
 30
0.0
  0
VERTEX
  5
D69
  8
DATA
  6
CONTINUOUS
 62
     7
 10
356.03526668000001
 20
425.09025267599998
 30
0.0
  0
VERTEX
  5
D6A
  8
DATA
  6
CONTINUOUS
 62
     7
 10
356.03526668000143
 20
425.09025267600077
 30
0.0
 42
0.0190745960000042
  0
VERTEX
  5
D6B
  8
DATA
  6
CONTINUOUS
 62
     7
 10
356.73074069799998
 20
425.47269956899987
 30
0.0
  0
VERTEX
  5
D6C
  8
DATA
  6
CONTINUOUS
 62
     7
 10
356.73074069799998
 20
425.47269956899987
 30
0.0
  0
VERTEX
  5
D6D
  8
DATA
  6
CONTINUOUS
 62
     7
 10
356.7307406980014
 20
425.47269956900072
 30
0.0
 42
0.020141885999832
  0
VERTEX
  5
D6E
  8
DATA
  6
CONTINUOUS
 62
     7
 10
357.3759102109999
 20
425.89694693799993
 30
0.0
  0
VERTEX
  5
D6F
  8
DATA
  6
CONTINUOUS
 62
     7
 10
357.3759102109999
 20
425.89694693799993
 30
0.0
  0
VERTEX
  5
D70
  8
DATA
  6
CONTINUOUS
 62
     7
 10
357.3759102109999
 20
425.89694693799993
 30
0.0
 42
0.0213570960000034
  0
VERTEX
  5
D71
  8
DATA
  6
CONTINUOUS
 62
     7
 10
357.96576731500011
 20
426.35970171000002
 30
0.0
  0
VERTEX
  5
D72
  8
DATA
  6
CONTINUOUS
 62
     7
 10
357.96576731500011
 20
426.35970171000002
 30
0.0
  0
VERTEX
  5
D73
  8
DATA
  6
CONTINUOUS
 62
     7
 10
357.96576731500198
 20
426.35970171000162
 30
0.0
 42
0.0227074139998319
  0
VERTEX
  5
D74
  8
DATA
  6
CONTINUOUS
 62
     7
 10
358.49573344700002
 20
426.85737191199991
 30
0.0
  0
VERTEX
  5
D75
  8
DATA
  6
CONTINUOUS
 62
     7
 10
358.49573344700002
 20
426.85737191199991
 30
0.0
  0
VERTEX
  5
D76
  8
DATA
  6
CONTINUOUS
 62
     7
 10
358.49573344700201
 20
426.85737191200201
 30
0.0
 42
0.0241656999998309
  0
VERTEX
  5
D77
  8
DATA
  6
CONTINUOUS
 62
     7
 10
358.96169492999979
 20
427.38609455099993
 30
0.0
  0
VERTEX
  5
D78
  8
DATA
  6
CONTINUOUS
 62
     7
 10
358.96169492999979
 20
427.38609455099993
 30
0.0
  0
VERTEX
  5
D79
  8
DATA
  6
CONTINUOUS
 62
     7
 10
358.96169492999979
 20
427.38609455099993
 30
0.0
 42
0.0256853780000682
  0
VERTEX
  5
D7A
  8
DATA
  6
CONTINUOUS
 62
     7
 10
359.36003489899991
 20
427.94176559999988
 30
0.0
  0
VERTEX
  5
D7B
  8
DATA
  6
CONTINUOUS
 62
     7
 10
359.36003489899991
 20
427.94176559999988
 30
0.0
  0
VERTEX
  5
D7C
  8
DATA
  6
CONTINUOUS
 62
     7
 10
359.36003489899991
 20
427.94176559999988
 30
0.0
 42
0.0271965120000985
  0
VERTEX
  5
D7D
  8
DATA
  6
CONTINUOUS
 62
     7
 10
359.6876613770001
 20
428.5200718559999
 30
0.0
  0
VERTEX
  5
D7E
  8
DATA
  6
CONTINUOUS
 62
     7
 10
359.6876613770001
 20
428.5200718559999
 30
0.0
  0
VERTEX
  5
D7F
  8
DATA
  6
CONTINUOUS
 62
     7
 10
359.68766137700072
 20
428.52007185600121
 30
0.0
 42
0.0286055139998559
  0
VERTEX
  5
D80
  8
DATA
  6
CONTINUOUS
 62
     7
 10
359.94203127799989
 20
429.11652441699999
 30
0.0
  0
VERTEX
  5
D81
  8
DATA
  6
CONTINUOUS
 62
     7
 10
359.94203127799989
 20
429.11652441699999
 30
0.0
  0
VERTEX
  5
D82
  8
DATA
  6
CONTINUOUS
 62
     7
 10
359.94203127799989
 20
429.11652441699999
 30
0.0
 42
0.0298014610002934
  0
VERTEX
  5
D83
  8
DATA
  6
CONTINUOUS
 62
     7
 10
360.1211701429998
 20
429.72649352600001
 30
0.0
  0
VERTEX
  5
D84
  8
DATA
  6
CONTINUOUS
 62
     7
 10
360.1211701429998
 20
429.72649352600001
 30
0.0
  0
SEQEND
  5
D85
  8
DATA
  6
CONTINUOUS
 62
     7
  0
LINE
  5
7DD
  8
DATA
  6
CONTINUOUS
 62
     7
 10
274.99999235800033
 20
-10.096880888376431
 30
0.0
 11
374.99999235800033
 21
-10.096881228376409
 31
0.0
  0
LINE
  5
7DE
  8
DATA
  6
CONTINUOUS
 62
     7
 10
274.99999235800033
 20
-10.096880888376431
 30
0.0
 11
274.99999235800033
 21
-20.0
 31
0.0
  0
LINE
  5
7DF
  8
DATA
  6
CONTINUOUS
 62
     7
 10
374.99999235800033
 20
-10.096881228376409
 30
0.0
 11
374.99999235800033
 21
-20.0
 31
0.0
  0
LINE
  5
7E0
  8
DATA
  6
CONTINUOUS
 62
     7
 10
430.12210875300002
 20
414.45298705199991
 30
0.0
 11
427.8593670530002
 21
416.7157287519999
 31
0.0
  0
LINE
  5
7E1
  8
DATA
  6
STYLE_01
 62
     7
 10
437.19317656499987
 20
421.52405486399988
 30
0.0
 11
434.930434865
 21
423.78679656399999
 31
0.0
  0
LINE
  5
7E2
  8
DATA
  6
STYLE_01
 62
     7
 10
451.33531218799999
 20
435.66619048799998
 30
0.0
 11
449.07257048899999
 21
437.92893218799998
 31
0.0
  0
LINE
  5
7E3
  8
DATA
  6
CONTINUOUS
 62
     7
 10
455.38211593199992
 20
444.23847763099991
 30
0.0
 11
427.8593670530002
 21
416.7157287519999
 31
0.0
  0
ARC
  5
7E4
  8
DATA
  6
CONTINUOUS
 62
     7
 10
453.5436383
 20
446.0769552619999
 30
0.0
 40
2.599999999999965
 50
314.9999999999992
 51
0.0
  0
LINE
  5
7E5
  8
DATA
  6
CONTINUOUS
 62
     7
 10
457.64485763100021
 20
441.97573593099997
 30
0.0
 11
430.12210875300002
 21
414.45298705199991
 31
0.0
  0
ARC
  5
7E6
  8
DATA
  6
CONTINUOUS
 62
     7
 10
453.5436383
 20
446.0769552619999
 30
0.0
 40
5.7999999999998781
 50
314.99999999999881
 51
0.0
  0
TEXT
  5
7E7
  8
DATA
 62
     7
 10
245.625
 20
284.83055555555552
 30
0.0
 40
13.57367621527778
  1
壁面取り付けプレート
 41
0.7
 11
245.625
 21
298.40423177083329
 31
0.0
 73
     3
  0
LINE
  5
7E8
  8
DATA
  6
CONTINUOUS
 62
     7
 10
225.0
 20
275.0
 30
0.0
 11
425.0
 21
275.0
 31
0.0
  0
ENDSEC
  0
EOF
