  0
SECTION
  2
HEADER
  9
$ACADVER
  1
AC1009
  9
$INSBASE
 10
0.0
 20
0.0
 30
0.0
  9
$EXTMIN
 10
-530.03844921481641
 20
-800.45097708439334
 30
-0.0015258207003583
  9
$EXTMAX
 10
730.03845508214806
 20
1071.2479452990581
 30
0.0000000349246037
  9
$LIMMIN
 10
0.0
 20
0.0
  9
$LIMMAX
 10
0.0
 20
0.0
  9
$ORTHOMODE
 70
     0
  9
$REGENMODE
 70
     1
  9
$FILLMODE
 70
     1
  9
$QTEXTMODE
 70
     0
  9
$MIRRTEXT
 70
     1
  9
$DRAGMODE
 70
     2
  9
$LTSCALE
 40
35.559999999999988
  9
$OSMODE
 70
   167
  9
$ATTMODE
 70
     1
  9
$TEXTSIZE
 40
0.0
  9
$TRACEWID
 40
1.0
  9
$TEXTSTYLE
  7
STANDARD
  9
$CLAYER
  8
0
  9
$CELTYPE
  6
CONTINUOUS
  9
$CECOLOR
 62
   256
  9
$DIMSCALE
 40
1.0
  9
$DIMASZ
 40
0.18
  9
$DIMEXO
 40
0.0625
  9
$DIMDLI
 40
0.38
  9
$DIMRND
 40
0.0
  9
$DIMDLE
 40
0.0
  9
$DIMEXE
 40
0.18
  9
$DIMTP
 40
0.0
  9
$DIMTM
 40
0.0
  9
$DIMTXT
 40
0.18
  9
$DIMCEN
 40
0.09
  9
$DIMTSZ
 40
0.0
  9
$DIMTOL
 70
     0
  9
$DIMLIM
 70
     0
  9
$DIMTIH
 70
     1
  9
$DIMTOH
 70
     1
  9
$DIMSE1
 70
     0
  9
$DIMSE2
 70
     0
  9
$DIMTAD
 70
     0
  9
$DIMZIN
 70
     0
  9
$DIMBLK
  1

  9
$DIMASO
 70
     1
  9
$DIMSHO
 70
     1
  9
$DIMPOST
  1

  9
$DIMAPOST
  1

  9
$DIMALT
 70
     0
  9
$DIMALTD
 70
     2
  9
$DIMALTF
 40
25.399999999999999
  9
$DIMLFAC
 40
1.0
  9
$DIMTOFL
 70
     0
  9
$DIMTVP
 40
0.0
  9
$DIMTIX
 70
     0
  9
$DIMSOXD
 70
     0
  9
$DIMSAH
 70
     0
  9
$DIMBLK1
  1

  9
$DIMBLK2
  1

  9
$DIMSTYLE
  2
STANDARD
  9
$DIMCLRD
 70
     0
  9
$DIMCLRE
 70
     0
  9
$DIMCLRT
 70
     0
  9
$DIMTFAC
 40
1.0
  9
$DIMGAP
 40
0.09
  9
$LUNITS
 70
     2
  9
$LUPREC
 70
     4
  9
$SKETCHINC
 40
0.1
  9
$FILLETRAD
 40
0.0
  9
$AUNITS
 70
     0
  9
$AUPREC
 70
     0
  9
$MENU
  1
acad
  9
$ELEVATION
 40
0.0
  9
$PELEVATION
 40
0.0
  9
$THICKNESS
 40
0.0
  9
$LIMCHECK
 70
     0
  9
$BLIPMODE
 70
     0
  9
$CHAMFERA
 40
0.0
  9
$CHAMFERB
 40
0.0
  9
$SKPOLY
 70
     0
  9
$TDCREATE
 40
2452821.5752893519
  9
$TDUPDATE
 40
2452821.5763221532
  9
$TDINDWG
 40
0.0002537269
  9
$TDUSRTIMER
 40
0.0002535417
  9
$USRTIMER
 70
     1
  9
$ANGBASE
 50
0.0
  9
$ANGDIR
 70
     0
  9
$PDMODE
 70
     1
  9
$PDSIZE
 40
-2.0
  9
$PLINEWID
 40
0.0
  9
$COORDS
 70
     1
  9
$SPLFRAME
 70
     0
  9
$SPLINETYPE
 70
     6
  9
$SPLINESEGS
 70
     8
  9
$ATTDIA
 70
     0
  9
$ATTREQ
 70
     1
  9
$HANDLING
 70
     1
  9
$HANDSEED
  5
956
  9
$SURFTAB1
 70
     6
  9
$SURFTAB2
 70
     6
  9
$SURFTYPE
 70
     6
  9
$SURFU
 70
     6
  9
$SURFV
 70
     6
  9
$UCSNAME
  2

  9
$UCSORG
 10
0.0
 20
0.0
 30
0.0
  9
$UCSXDIR
 10
1.0
 20
0.0
 30
0.0
  9
$UCSYDIR
 10
0.0
 20
1.0
 30
0.0
  9
$PUCSNAME
  2

  9
$PUCSORG
 10
0.0
 20
0.0
 30
0.0
  9
$PUCSXDIR
 10
1.0
 20
0.0
 30
0.0
  9
$PUCSYDIR
 10
0.0
 20
1.0
 30
0.0
  9
$USERI1
 70
     0
  9
$USERI2
 70
     0
  9
$USERI3
 70
     0
  9
$USERI4
 70
     0
  9
$USERI5
 70
     0
  9
$USERR1
 40
0.0
  9
$USERR2
 40
0.0
  9
$USERR3
 40
0.0
  9
$USERR4
 40
0.0
  9
$USERR5
 40
0.0
  9
$WORLDVIEW
 70
     1
  9
$SHADEDGE
 70
     3
  9
$SHADEDIF
 70
    70
  9
$TILEMODE
 70
     1
  9
$MAXACTVP
 70
    16
  9
$PLIMCHECK
 70
     0
  9
$PEXTMIN
 10
1.0000000000000000E+020
 20
1.0000000000000000E+020
 30
1.0000000000000000E+020
  9
$PEXTMAX
 10
-1.0000000000000000E+020
 20
-1.0000000000000000E+020
 30
-1.0000000000000000E+020
  9
$PLIMMIN
 10
0.0
 20
0.0
  9
$PLIMMAX
 10
12.0
 20
9.0
  9
$UNITMODE
 70
     0
  9
$VISRETAIN
 70
     0
  9
$PLINEGEN
 70
     1
  9
$PSLTSCALE
 70
     0
  0
ENDSEC
  0
SECTION
  2
TABLES
  0
TABLE
  2
VPORT
 70
     2
  0
VPORT
  2
*ACTIVE
 70
     0
 10
0.0
 20
0.0
 11
1.0
 21
1.0
 12
100.000002933666
 22
135.39848410733251
 13
0.0
 23
0.0
 14
1.0
 24
1.0
 15
0.0
 25
0.0
 16
0.0
 26
0.0
 36
1.0
 17
0.0
 27
0.0
 37
0.0
 40
1888.740187230645
 41
1.6382978723404249
 42
50.0
 43
0.0
 44
0.0
 50
0.0
 51
0.0
 71
     0
 72
   100
 73
     1
 74
     1
 75
     0
 76
     0
 77
     0
 78
     0
  0
ENDTAB
  0
TABLE
  2
LTYPE
 70
    14
  0
LTYPE
  2
CONTINUOUS
 70
     0
  3
Solid line
 72
    65
 73
     0
 40
0.0
  0
LTYPE
  2
STYLE_01
 70
     0
  3

 72
    65
 73
     2
 40
0.4166412353515625
 49
0.208282470703125
 49
-0.2083587646484375
  0
LTYPE
  2
STYLE_02
 70
     0
  3

 72
    65
 73
     2
 40
0.694427490234375
 49
0.4860687255859375
 49
-0.2083587646484375
  0
LTYPE
  2
STYLE_03
 70
     0
  3

 72
    65
 73
     2
 40
1.25
 49
1.0416412353515621
 49
-0.2083587646484375
  0
LTYPE
  2
STYLE_04
 70
     0
  3

 72
    65
 73
     2
 40
1.5277099609375
 49
1.319427490234375
 49
-0.208282470703125
  0
LTYPE
  2
STYLE_05
 70
     0
  3

 72
    65
 73
     2
 40
0.208282470703125
 49
0.069427490234375
 49
-0.13885498046875
  0
LTYPE
  2
STYLE_06
 70
     0
  3

 72
    65
 73
     4
 40
1.0416412353515621
 49
0.625
 49
-0.208282470703125
 49
0.069427490234375
 49
-0.1389312744140625
  0
LTYPE
  2
STYLE_07
 70
     0
  3

 72
    65
 73
     6
 40
1.875
 49
0.625
 49
-0.208282470703125
 49
0.625
 49
-0.2083587646484375
 49
0.069427490234375
 49
-0.1389312744140625
  0
LTYPE
  2
STYLE_08
 70
     0
  3

 72
    65
 73
     6
 40
1.25
 49
0.625
 49
-0.208282470703125
 49
0.069427490234375
 49
-0.1389312744140625
 49
0.069427490234375
 49
-0.1389312744140625
  0
LTYPE
  2
STYLE_09
 70
     0
  3

 72
    65
 73
     4
 40
5.0
 49
3.75
 49
-0.2777862548828125
 49
0.694427490234375
 49
-0.2777862548828125
  0
LTYPE
  2
STYLE_10
 70
     0
  3

 72
    65
 73
     6
 40
5.9375
 49
3.75
 49
-0.2777862548828125
 49
0.694427490234375
 49
-0.2777862548828125
 49
0.625
 49
-0.3125
  0
LTYPE
  2
STYLE_11
 70
     0
  3

 72
    65
 73
     2
 40
0.1875
 49
0.125
 49
-0.0625
  0
LTYPE
  2
STYLE_12
 70
     0
  3

 72
    65
 73
     4
 40
2.3622047244094482
 49
1.653543307086613
 49
-0.236220472440945
 49
0.236220472440945
 49
-0.236220472440945
  0
LTYPE
  2
STYLE_13
 70
     0
  3

 72
    65
 73
     2
 40
0.3937007874015748
 49
0.2362204724409449
 49
-0.1574803149606299
  0
ENDTAB
  0
TABLE
  2
LAYER
 70
     4
  0
LAYER
  2
0
 70
     0
 62
     7
  6
CONTINUOUS
  0
LAYER
  2
HIBINO-BASE
 70
     0
 62
     7
  6
CONTINUOUS
  0
LAYER
  2
DIMNSIONS
 70
     0
 62
     7
  6
CONTINUOUS
  0
LAYER
  2
DATA
 70
     0
 62
     7
  6
CONTINUOUS
  0
ENDTAB
  0
TABLE
  2
STYLE
 70
     2
  0
STYLE
  2
STANDARD
 70
     0
 40
0.0
 41
1.0
 50
0.0
 71
     0
 42
0.0
  3
txt
  4
BIGFONT.SHX
  0
ENDTAB
  0
TABLE
  2
VIEW
 70
     0
  0
ENDTAB
  0
TABLE
  2
UCS
 70
     0
  0
ENDTAB
  0
TABLE
  2
APPID
 70
     1
  0
APPID
  2
ACAD
 70
     0
  0
ENDTAB
  0
TABLE
  2
DIMSTYLE
 70
     1
  0
DIMSTYLE
  2
STANDARD
 70
     0
  3

  4

  5

  6

  7

 40
1.0
 41
0.18
 42
0.0625
 43
0.38
 44
0.18
 45
0.0
 46
0.0
 47
0.0
 48
0.0
140
0.18
141
0.09
142
0.0
143
25.399999999999999
144
1.0
145
0.0
146
1.0
147
0.09
 71
     0
 72
     0
 73
     1
 74
     1
 75
     0
 76
     0
 77
     0
 78
     0
170
     0
171
     2
172
     0
173
     0
174
     0
175
     0
176
     0
177
     0
178
     0
  0
ENDTAB
  0
ENDSEC
  0
SECTION
  2
BLOCKS
  0
BLOCK
  8
0
  2
$MODEL_SPACE
 70
     0
 10
0.0
 20
0.0
 30
0.0
  3
$MODEL_SPACE
  1

  0
ENDBLK
  5
6A2
  8
0
  0
BLOCK
 67
     1
  8
0
  2
$PAPER_SPACE
 70
     0
 10
0.0
 20
0.0
 30
0.0
  3
$PAPER_SPACE
  1

  0
ENDBLK
  5
69E
 67
     1
  8
0
  0
BLOCK
  8
DATA
  2
*U0
 70
     1
 10
0.0
 20
0.0
 30
0.0
  3
*U0
  1

  0
LINE
  5
3D
  8
DATA
  6
CONTINUOUS
 62
     7
 10
-416.85087847597282
 20
-147.2499037448369
 30
0.0
 11
-281.23281302002721
 21
-519.85747625516331
 31
0.0
  0
LINE
  5
3E
  8
DATA
  6
CONTINUOUS
 62
     7
 10
-380.24301947294771
 20
-101.6389497220716
 30
0.0
 11
-223.87140994445139
 21
-531.26641594538808
 31
0.0
  0
LINE
  5
3F
  8
DATA
  6
CONTINUOUS
 62
     7
 10
-158.2000003695527
 20
-139.9786354887419
 30
0.0
 11
-158.20000036955199
 21
-480.13455464174922
 31
0.0
  0
LINE
  5
40
  8
DATA
  6
CONTINUOUS
 62
     7
 10
-337.19682055489108
 20
-89.79811343552592
 30
0.0
 11
-184.35511447090229
 21
-509.72724965220539
 31
0.0
  0
LINE
  5
41
  8
DATA
  6
CONTINUOUS
 62
     7
 10
-316.48772535101068
 20
-86.757894682181359
 30
0.0
 11
-166.84892041195911
 21
-497.88713232639969
 31
0.0
  0
LINE
  5
42
  8
DATA
  6
STYLE_11
 62
     7
 10
-215.3345885962149
 20
-117.17381134918379
 30
0.0
 11
-161.12439587909529
 21
-266.11509174375078
 31
0.0
  0
LINE
  5
43
  8
DATA
  6
CONTINUOUS
 62
     7
 10
-248.01046378471071
 20
-537.41463091816922
 30
0.0
 11
-223.87140994445139
 21
-531.26641594538808
 31
0.0
  0
ARC
  5
44
  8
DATA
  6
CONTINUOUS
 62
     7
 10
-254.794750334188
 20
-510.04122352656623
 30
0.0
 40
28.201595277786801
 50
200.36958060494791
 51
283.91982625755543
  0
ARC
  5
45
  8
DATA
  6
CONTINUOUS
 62
     7
 10
-180.70000036955281
 20
-480.13455464174922
 30
0.0
 40
22.500000000000011
 50
305.67303112010262
 51
0.0000000000011937
  0
ARC
  5
46
  8
DATA
  6
CONTINUOUS
 62
     7
 10
-369.37265052632438
 20
-217.30780822430009
 30
0.0
 40
346.03557385480963
 50
294.8649325546038
 51
305.67303112010319
  0
LINE
  5
47
  8
DATA
  6
STYLE_11
 62
     7
 10
-161.12439587909529
 20
-266.11509174375078
 30
0.0
 11
-158.20000036955281
 21
-265.05069882505592
 31
0.0
  0
ARC
  5
48
  8
DATA
  6
STYLE_11
 62
     7
 10
-172.23241558864359
 20
-251.53496926134039
 30
0.0
 40
8.9514285714531905
 50
327.51730069588717
 51
72.482699304131941
  0
ARC
  5
49
  8
DATA
  6
CONTINUOUS
 62
     7
 10
-288.01464741613802
 20
-352.76061502165209
 30
0.0
 40
267.52226710142071
 50
64.729525117010397
 51
110.1665516682032
  0
LINE
  5
4A
  8
DATA
  6
CONTINUOUS
 62
     7
 10
-402.68660393557951
 20
-112.44542852512581
 30
0.0
 11
-380.24301947294771
 21
-101.6389497220716
 31
0.0
  0
ARC
  5
4B
  8
DATA
  6
CONTINUOUS
 62
     7
 10
-390.28838184115051
 20
-137.7755304812822
 30
0.0
 40
28.201595277786819
 50
116.080173742445
 51
199.63041939505251
  0
ARC
  5
4C
  8
DATA
  6
CONTINUOUS
 62
     7
 10
-193.20000036955341
 20
-139.97863548874241
 30
0.0
 40
35.000000000000107
 50
0.000000000000739
 51
56.361186640583973
  0
LINE
  5
4D
  8
DATA
  6
STYLE_11
 62
     7
 10
-243.1741003960733
 20
-100.6233715137755
 30
0.0
 11
-235.6565594297858
 21
-97.887210367170155
 31
0.0
  0
LINE
  5
4E
  8
DATA
  6
STYLE_11
 62
     7
 10
-235.60594044857359
 20
-98.026284875045789
 30
0.0
 11
-230.52625727990161
 21
-111.98259967895859
 31
0.0
  0
LINE
  5
4F
  8
DATA
  6
STYLE_11
 62
     7
 10
-238.0437982461884
 20
-114.71876082556351
 30
0.0
 11
-230.52625727990161
 21
-111.98259967895859
 31
0.0
  0
LINE
  5
50
  8
DATA
  6
STYLE_11
 62
     7
 10
-234.19476533721169
 20
-101.903456628409
 30
0.0
 11
-225.26768543974629
 21
-98.654265266814477
 31
0.0
  0
LINE
  5
51
  8
DATA
  6
STYLE_11
 62
     7
 10
-231.93743239126269
 20
-108.1054279255963
 30
0.0
 11
-223.0103524937964
 21
-104.8562365640018
 31
0.0
  0
LINE
  5
52
  8
DATA
  6
STYLE_11
 62
     7
 10
-235.32343181018689
 20
-98.802470979815084
 30
0.0
 11
-226.39635191272041
 21
-95.553279618221495
 31
0.0
  0
LINE
  5
53
  8
DATA
  6
STYLE_11
 62
     7
 10
-221.88168602082209
 20
-107.9572222125953
 30
0.0
 11
-230.8087659182886
 21
-111.2064135741898
 31
0.0
  0
LINE
  5
54
  8
DATA
  6
STYLE_11
 62
     7
 10
-226.39635191272041
 20
-95.553279618221495
 30
0.0
 11
-221.88168602082209
 21
-107.9572222125953
 31
0.0
  0
LINE
  5
55
  8
DATA
  6
STYLE_11
 62
     7
 10
-247.8814560237295
 20
-102.30904022226331
 30
0.0
 11
-243.18299291979989
 21
-100.5989395056349
 31
0.0
  0
LINE
  5
56
  8
DATA
  6
STYLE_11
 62
     7
 10
-242.68274984517879
 20
-116.5923680582091
 30
0.0
 11
-237.98428674124921
 21
-114.8822673415807
 31
0.0
  0
LINE
  5
57
  8
DATA
  6
STYLE_11
 62
     7
 10
-243.18299291979989
 20
-100.5989395056349
 30
0.0
 11
-237.98428674124949
 21
-114.8822673415811
 31
0.0
  0
LINE
  5
58
  8
DATA
  6
STYLE_11
 62
     7
 10
-252.9306049871459
 20
-88.436617457812631
 30
0.0
 11
-239.29675042625561
 21
-125.89532500398811
 31
0.0
  0
LINE
  5
59
  8
DATA
  6
STYLE_11
 62
     7
 10
-239.29675042625561
 20
-125.89532500398811
 30
0.0
 11
-215.3345885962149
 21
-117.17381134918379
 31
0.0
  0
ARC
  5
5A
  8
DATA
  6
STYLE_11
 62
     7
 10
-215.6689737910032
 20
-132.19400642152959
 30
0.0
 40
8.9514285714535298
 50
327.51730069588518
 51
72.482699304132865
  0
ARC
  5
5B
  8
DATA
  6
CONTINUOUS
 62
     7
 10
-309.49900729056873
 20
-129.6923082736248
 30
0.0
 40
6.1328125000003411
 50
130.35102168609541
 51
269.64897831391198
  0
ARC
  5
5C
  8
DATA
  6
CONTINUOUS
 62
     7
 10
-313.50738362610952
 20
-131.1512379474988
 30
0.0
 40
6.1328125000001936
 50
310.3510216860937
 51
89.648978313914071
  0
ARC
  5
5D
  8
DATA
  6
CONTINUOUS
 62
     7
 10
-269.3116404498025
 20
-240.10619121596889
 30
0.0
 40
6.1328125000004148
 50
130.35102168609609
 51
269.64897831391198
  0
ARC
  5
5E
  8
DATA
  6
CONTINUOUS
 62
     7
 10
-273.3200167853434
 20
-241.565120889843
 30
0.0
 40
6.1328125000006128
 50
310.35102168609183
 51
89.648978313914071
  0
ARC
  5
5F
  8
DATA
  6
CONTINUOUS
 62
     7
 10
-229.12427360903649
 20
-350.52007415831298
 30
0.0
 40
6.1328125000002673
 50
130.35102168609461
 51
269.64897831391198
  0
ARC
  5
60
  8
DATA
  6
CONTINUOUS
 62
     7
 10
-233.13264994457731
 20
-351.97900383218712
 30
0.0
 40
6.13281250000054
 50
310.35102168609092
 51
89.648978313913034
  0
ARC
  5
61
  8
DATA
  6
CONTINUOUS
 62
     7
 10
-188.9369067682704
 20
-460.93395710065721
 30
0.0
 40
6.1328125000003411
 50
130.35102168609541
 51
269.64897831391312
  0
ARC
  5
62
  8
DATA
  6
CONTINUOUS
 62
     7
 10
-192.94528310381119
 20
-462.39288677453118
 30
0.0
 40
6.13281250000054
 50
310.35102168609092
 51
89.648978313915165
  0
ENDBLK
  5
63
  8
DATA
  0
BLOCK
  8
DATA
  2
*U1
 70
     1
 10
0.0
 20
0.0
 30
0.0
  3
*U1
  1

  0
ARC
  5
65
  8
DATA
  6
CONTINUOUS
 62
     7
 10
-269.27339638458199
 20
849.0260662898753
 30
0.0
 40
19.48892053753924
 50
280.46894050261369
 51
299.31230421675019
  0
LINE
  5
66
  8
DATA
  6
CONTINUOUS
 62
     7
 10
-404.27637457800017
 20
863.59999999999968
 30
0.0
 11
-404.27637457800017
 21
456.40000000000032
 31
0.0
  0
LINE
  5
67
  8
DATA
  6
CONTINUOUS
 62
     7
 10
-366.02941693201041
 20
888.59999999999968
 30
0.0
 11
-366.02941693201041
 21
431.39999999999992
 31
0.0
  0
LINE
  5
68
  8
DATA
  6
CONTINUOUS
 62
     7
 10
-143.9863978286165
 20
840.01426966023257
 30
0.0
 11
-143.98639782861619
 21
677.00000000000045
 31
0.0
  0
LINE
  5
69
  8
DATA
  6
CONTINUOUS
 62
     7
 10
-143.98639782861619
 20
675.00000000000057
 30
0.0
 11
-143.98639782861611
 21
645.00000000000045
 31
0.0
  0
LINE
  5
6A
  8
DATA
  6
CONTINUOUS
 62
     7
 10
-143.98639782861611
 20
643.00000000000045
 30
0.0
 11
-143.98639782861579
 21
480.00656232891441
 31
0.0
  0
ARC
  5
6B
  8
DATA
  6
CONTINUOUS
 62
     7
 10
-346.2365330567082
 20
601.26268358146785
 30
0.0
 40
8.5000000000688676
 50
331.92751306453698
 51
28.072486935862688
  0
LINE
  5
6C
  8
DATA
  6
CONTINUOUS
 62
     7
 10
-338.73653305664823
 20
605.26268358150105
 30
0.0
 11
-338.73653305664777
 21
597.26268358150105
 31
0.0
  0
LINE
  5
6D
  8
DATA
  6
CONTINUOUS
 62
     7
 10
-340.736533056648
 20
608.26268358150139
 30
0.0
 11
-340.73653305664777
 21
594.26268358150105
 31
0.0
  0
LINE
  5
6E
  8
DATA
  6
CONTINUOUS
 62
     7
 10
-201.12098605527771
 20
711.01979646124084
 30
0.0
 11
-201.12098605527771
 21
609.01979646124187
 31
0.0
  0
LINE
  5
6F
  8
DATA
  6
CONTINUOUS
 62
     7
 10
-146.9107933381589
 20
711.01979646124084
 30
0.0
 11
-146.9107933381587
 21
677.00000000000045
 31
0.0
  0
LINE
  5
70
  8
DATA
  6
CONTINUOUS
 62
     7
 10
-146.9107933381587
 20
675.00000000000057
 30
0.0
 11
-146.91079333815861
 21
645.00000000000045
 31
0.0
  0
LINE
  5
71
  8
DATA
  6
CONTINUOUS
 62
     7
 10
-146.91079333815861
 20
643.00000000000045
 30
0.0
 11
-146.91079333815841
 21
609.01979646124187
 31
0.0
  0
LINE
  5
72
  8
DATA
  6
CONTINUOUS
 62
     7
 10
-238.7170024462088
 20
711.01979646124084
 30
0.0
 11
-238.7170024462088
 21
609.01979646124187
 31
0.0
  0
LINE
  5
73
  8
DATA
  6
CONTINUOUS
 62
     7
 10
-225.0831478853184
 20
711.01979646124084
 30
0.0
 11
-225.08314788531871
 21
675.94379646124105
 31
0.0
  0
LINE
  5
74
  8
DATA
  6
CONTINUOUS
 62
     7
 10
-238.7170024462088
 20
711.01979646124084
 30
0.0
 11
-143.98639782861579
 21
711.01979646124084
 31
0.0
  0
LINE
  5
75
  8
DATA
  6
CONTINUOUS
 62
     7
 10
-143.9863978286163
 20
714.01979646124096
 30
0.0
 11
-238.7170024462088
 21
711.01979646124084
 31
0.0
  0
LINE
  5
76
  8
DATA
  6
CONTINUOUS
 62
     7
 10
-149.55441789499639
 20
845.97786691178635
 30
0.0
 11
-301.24685276352608
 21
856.92763092593702
 31
0.0
  0
ARC
  5
77
  8
DATA
  6
CONTINUOUS
 62
     7
 10
-384.27637457800017
 20
863.59999999999968
 30
0.0
 40
20.000000000000082
 50
102.5358800697759
 51
180.0
  0
LINE
  5
78
  8
DATA
  6
CONTINUOUS
 62
     7
 10
-366.02941693201041
 20
888.59999999999968
 30
0.0
 11
-388.61739363341979
 21
883.12320551447681
 31
0.0
  0
ARC
  5
79
  8
DATA
  6
CONTINUOUS
 62
     7
 10
-346.2365330567082
 20
718.7626835814674
 30
0.0
 40
8.5000000000686526
 50
331.92751306453982
 51
28.072486935862688
  0
LINE
  5
7A
  8
DATA
  6
CONTINUOUS
 62
     7
 10
-338.73653305664823
 20
722.76268358150185
 30
0.0
 11
-338.73653305664777
 21
714.76268358150105
 31
0.0
  0
LINE
  5
7B
  8
DATA
  6
CONTINUOUS
 62
     7
 10
-340.73653305664777
 20
714.76268358150105
 30
0.0
 11
-338.73653305664777
 21
714.76268358150105
 31
0.0
  0
LINE
  5
7C
  8
DATA
  6
CONTINUOUS
 62
     7
 10
-340.73653305664777
 20
722.76268358150105
 30
0.0
 11
-338.73653305664777
 21
722.76268358150105
 31
0.0
  0
LINE
  5
7D
  8
DATA
  6
CONTINUOUS
 62
     7
 10
-340.736533056648
 20
725.76268358150105
 30
0.0
 11
-340.73653305664777
 21
711.76268358150207
 31
0.0
  0
ARC
  5
7E
  8
DATA
  6
CONTINUOUS
 62
     7
 10
-346.2365330567082
 20
836.2626835814674
 30
0.0
 40
8.5000000000688676
 50
331.92751306453698
 51
28.072486935862688
  0
LINE
  5
7F
  8
DATA
  6
CONTINUOUS
 62
     7
 10
-338.73653305664823
 20
840.26268358150151
 30
0.0
 11
-338.73653305664777
 21
832.26268358150151
 31
0.0
  0
LINE
  5
80
  8
DATA
  6
CONTINUOUS
 62
     7
 10
-340.73653305664777
 20
832.26268358150151
 30
0.0
 11
-338.73653305664777
 21
832.26268358150151
 31
0.0
  0
LINE
  5
81
  8
DATA
  6
CONTINUOUS
 62
     7
 10
-340.73653305664777
 20
840.26268358150151
 30
0.0
 11
-338.73653305664777
 21
840.26268358150151
 31
0.0
  0
LINE
  5
82
  8
DATA
  6
CONTINUOUS
 62
     7
 10
-340.736533056648
 20
843.26268358150185
 30
0.0
 11
-340.73653305664777
 21
829.26268358150151
 31
0.0
  0
LINE
  5
83
  8
DATA
  6
CONTINUOUS
 62
     7
 10
-340.736533056648
 20
843.26268358150185
 30
0.0
 11
-271.7365330566484
 21
843.26268358150185
 31
0.0
  0
LINE
  5
84
  8
DATA
  6
CONTINUOUS
 62
     7
 10
-340.73653305664823
 20
829.26268358150151
 30
0.0
 11
-271.7365330566484
 21
829.26268358150151
 31
0.0
  0
LINE
  5
85
  8
DATA
  6
CONTINUOUS
 62
     7
 10
-340.736533056648
 20
725.76268358150105
 30
0.0
 11
-271.7365330566484
 21
725.76268358150105
 31
0.0
  0
LINE
  5
86
  8
DATA
  6
CONTINUOUS
 62
     7
 10
-340.73653305664823
 20
711.76268358150207
 30
0.0
 11
-271.7365330566484
 21
711.76268358150207
 31
0.0
  0
ARC
  5
87
  8
DATA
  6
CONTINUOUS
 62
     7
 10
-301.10285945231959
 20
858.92244067283639
 30
0.0
 40
1.999999999999819
 50
217.62060343384999
 51
265.87132339717618
  0
LINE
  5
88
  8
DATA
  6
CONTINUOUS
 62
     7
 10
-323.595189027544
 20
883.83210922421711
 30
0.0
 11
-366.02941693201001
 21
888.59999999999968
 31
0.0
  0
LINE
  5
89
  8
DATA
  6
CONTINUOUS
 62
     7
 10
-302.68699982292208
 20
857.70158061278585
 30
0.0
 11
-322.23436254730478
 21
883.06547566003383
 31
0.0
  0
ARC
  5
8A
  8
DATA
  6
CONTINUOUS
 62
     7
 10
-323.81850291790732
 20
881.84461559998351
 30
0.0
 40
1.999999999999819
 50
37.620603433849958
 51
83.589159979765654
  0
ARC
  5
8B
  8
DATA
  6
CONTINUOUS
 62
     7
 10
-149.9863978286167
 20
840.01426966023257
 30
0.0
 40
6.0
 50
0.0
 51
85.871323397178713
  0
LINE
  5
8C
  8
DATA
  6
CONTINUOUS
 62
     7
 10
-238.71700244620919
 20
676.76979646124175
 30
0.0
 11
-233.71700244620899
 21
676.76979646124175
 31
0.0
  0
LINE
  5
8D
  8
DATA
  6
CONTINUOUS
 62
     7
 10
-238.7170024462088
 20
609.01979646124187
 30
0.0
 11
-143.98639782861579
 21
609.01979646124187
 31
0.0
  0
LINE
  5
8E
  8
DATA
  6
CONTINUOUS
 62
     7
 10
-238.7170024462088
 20
609.01979646124187
 30
0.0
 11
-143.9863978286163
 21
606.01979646124175
 31
0.0
  0
LINE
  5
8F
  8
DATA
  6
CONTINUOUS
 62
     7
 10
-238.71700244620919
 20
643.26979646124175
 30
0.0
 11
-233.71700244620899
 21
643.26979646124175
 31
0.0
  0
LINE
  5
90
  8
DATA
  6
CONTINUOUS
 62
     7
 10
-340.73653305664777
 20
605.26268358150105
 30
0.0
 11
-338.73653305664777
 21
605.26268358150105
 31
0.0
  0
LINE
  5
91
  8
DATA
  6
CONTINUOUS
 62
     7
 10
-340.736533056648
 20
608.26268358150139
 30
0.0
 11
-271.7365330566484
 21
608.26268358150139
 31
0.0
  0
LINE
  5
92
  8
DATA
  6
CONTINUOUS
 62
     7
 10
-233.7170024462088
 20
676.9177964612411
 30
0.0
 11
-233.71700244620919
 21
643.1217964612415
 31
0.0
  0
LINE
  5
93
  8
DATA
  6
CONTINUOUS
 62
     7
 10
-216.21700244620899
 20
657.14779646124111
 30
0.0
 11
-216.21700244620899
 21
643.94779646124175
 31
0.0
  0
LINE
  5
94
  8
DATA
  6
CONTINUOUS
 62
     7
 10
-225.71700244620899
 20
657.97379646124114
 30
0.0
 11
-225.71700244620919
 21
643.1217964612415
 31
0.0
  0
LINE
  5
95
  8
DATA
  6
CONTINUOUS
 62
     7
 10
-225.08314788531871
 20
662.74379646124157
 30
0.0
 11
-225.08314788531871
 21
657.14779646124111
 31
0.0
  0
LINE
  5
96
  8
DATA
  6
CONTINUOUS
 62
     7
 10
-225.71700244620919
 20
657.14779646124111
 30
0.0
 11
-216.21700244620851
 21
657.14779646124111
 31
0.0
  0
LINE
  5
97
  8
DATA
  6
CONTINUOUS
 62
     7
 10
-225.71700244620899
 20
653.84779646124139
 30
0.0
 11
-216.21700244620899
 21
653.84779646124139
 31
0.0
  0
LINE
  5
98
  8
DATA
  6
CONTINUOUS
 62
     7
 10
-233.71700244620899
 20
658.12179646124116
 30
0.0
 11
-225.7170024462088
 21
658.12179646124116
 31
0.0
  0
LINE
  5
99
  8
DATA
  6
CONTINUOUS
 62
     7
 10
-216.21700244620899
 20
675.94379646124105
 30
0.0
 11
-216.21700244620899
 21
662.74379646124157
 31
0.0
  0
LINE
  5
9A
  8
DATA
  6
CONTINUOUS
 62
     7
 10
-216.21700244620899
 20
662.74379646124157
 30
0.0
 11
-225.71700244620919
 21
662.74379646124157
 31
0.0
  0
LINE
  5
9B
  8
DATA
  6
CONTINUOUS
 62
     7
 10
-225.71700244620919
 20
675.94379646124105
 30
0.0
 11
-216.21700244620851
 21
675.94379646124105
 31
0.0
  0
LINE
  5
9C
  8
DATA
  6
CONTINUOUS
 62
     7
 10
-225.71700244620939
 20
666.04379646124085
 30
0.0
 11
-216.2170024462088
 21
666.04379646124085
 31
0.0
  0
LINE
  5
9D
  8
DATA
  6
CONTINUOUS
 62
     7
 10
-225.71700244620899
 20
672.64379646124155
 30
0.0
 11
-216.21700244620899
 21
672.64379646124155
 31
0.0
  0
LINE
  5
9E
  8
DATA
  6
CONTINUOUS
 62
     7
 10
-233.71700244620899
 20
661.91779646124166
 30
0.0
 11
-225.71700244620919
 21
661.91779646124166
 31
0.0
  0
LINE
  5
9F
  8
DATA
  6
CONTINUOUS
 62
     7
 10
-225.71700244620899
 20
676.76979646124084
 30
0.0
 11
-225.71700244620919
 21
661.91779646124166
 31
0.0
  0
LINE
  5
A0
  8
DATA
  6
CONTINUOUS
 62
     7
 10
-233.71700244620899
 20
676.9177964612411
 30
0.0
 11
-225.7170024462088
 21
676.9177964612411
 31
0.0
  0
LINE
  5
A1
  8
DATA
  6
CONTINUOUS
 62
     7
 10
-225.08314788531871
 20
643.94779646124175
 30
0.0
 11
-225.0831478853184
 21
609.01979646124187
 31
0.0
  0
LINE
  5
A2
  8
DATA
  6
CONTINUOUS
 62
     7
 10
-216.21700244620899
 20
643.94779646124175
 30
0.0
 11
-225.71700244620919
 21
643.94779646124175
 31
0.0
  0
LINE
  5
A3
  8
DATA
  6
CONTINUOUS
 62
     7
 10
-225.71700244620939
 20
647.24779646124091
 30
0.0
 11
-216.2170024462088
 21
647.24779646124091
 31
0.0
  0
LINE
  5
A4
  8
DATA
  6
CONTINUOUS
 62
     7
 10
-233.71700244620899
 20
643.1217964612415
 30
0.0
 11
-225.71700244620919
 21
643.1217964612415
 31
0.0
  0
LINE
  5
A5
  8
DATA
  6
CONTINUOUS
 62
     7
 10
-149.55441789499639
 20
474.02213308821382
 30
0.0
 11
-301.24685276352608
 21
463.07236907406298
 31
0.0
  0
ARC
  5
A6
  8
DATA
  6
CONTINUOUS
 62
     7
 10
-384.27637457800017
 20
456.40000000000032
 30
0.0
 40
20.0
 50
180.0
 51
257.46411993022213
  0
LINE
  5
A7
  8
DATA
  6
CONTINUOUS
 62
     7
 10
-388.61739363342019
 20
436.87679448552421
 30
0.0
 11
-366.02941693201041
 21
431.39999999999992
 31
0.0
  0
LINE
  5
A8
  8
DATA
  6
CONTINUOUS
 62
     7
 10
-340.73653305664823
 20
476.76268358150139
 30
0.0
 11
-271.7365330566484
 21
476.76268358150139
 31
0.0
  0
ARC
  5
A9
  8
DATA
  6
CONTINUOUS
 62
     7
 10
-346.2365330567082
 20
483.7626835814682
 30
0.0
 40
8.5000000000688676
 50
331.92751306453698
 51
28.072486935862688
  0
LINE
  5
AA
  8
DATA
  6
CONTINUOUS
 62
     7
 10
-338.73653305664823
 20
487.76268358150139
 30
0.0
 11
-338.73653305664777
 21
479.76268358150139
 31
0.0
  0
LINE
  5
AB
  8
DATA
  6
CONTINUOUS
 62
     7
 10
-340.73653305664777
 20
479.76268358150139
 30
0.0
 11
-338.73653305664777
 21
479.76268358150139
 31
0.0
  0
LINE
  5
AC
  8
DATA
  6
CONTINUOUS
 62
     7
 10
-340.73653305664777
 20
487.76268358150139
 30
0.0
 11
-338.73653305664777
 21
487.76268358150139
 31
0.0
  0
LINE
  5
AD
  8
DATA
  6
CONTINUOUS
 62
     7
 10
-340.736533056648
 20
490.76268358150202
 30
0.0
 11
-340.73653305664777
 21
476.76268358150139
 31
0.0
  0
LINE
  5
AE
  8
DATA
  6
CONTINUOUS
 62
     7
 10
-340.73653305664777
 20
597.26268358150105
 30
0.0
 11
-338.73653305664777
 21
597.26268358150105
 31
0.0
  0
LINE
  5
AF
  8
DATA
  6
CONTINUOUS
 62
     7
 10
-340.736533056648
 20
490.76268358150202
 30
0.0
 11
-271.7365330566484
 21
490.76268358150202
 31
0.0
  0
LINE
  5
B0
  8
DATA
  6
CONTINUOUS
 62
     7
 10
-340.73653305664823
 20
594.26268358150105
 30
0.0
 11
-271.7365330566484
 21
594.26268358150105
 31
0.0
  0
ARC
  5
B1
  8
DATA
  6
CONTINUOUS
 62
     7
 10
-301.10285945231959
 20
461.07755932716339
 30
0.0
 40
1.9999999999999081
 50
94.128676602823774
 51
142.37939656613969
  0
LINE
  5
B2
  8
DATA
  6
CONTINUOUS
 62
     7
 10
-323.59518902754422
 20
436.16789077578312
 30
0.0
 11
-366.02941693201001
 21
431.39999999999992
 31
0.0
  0
LINE
  5
B3
  8
DATA
  6
CONTINUOUS
 62
     7
 10
-302.6869998229223
 20
462.29841938721421
 30
0.0
 11
-322.23436254730512
 21
436.93452433996589
 31
0.0
  0
ARC
  5
B4
  8
DATA
  6
CONTINUOUS
 62
     7
 10
-323.81850291790749
 20
438.1553844000166
 30
0.0
 40
2.0000000000000608
 50
276.41084002023439
 51
322.37939656614998
  0
ARC
  5
B5
  8
DATA
  6
CONTINUOUS
 62
     7
 10
-149.98639782861611
 20
480.00656232891441
 30
0.0
 40
6.0000000000001608
 50
274.1286766028212
 51
0.0
  0
ARC
  5
B6
  8
DATA
  6
CONTINUOUS
 62
     7
 10
-262.22244312263018
 20
836.97238393112229
 30
0.0
 40
5.5321278855154796
 50
296.75266650194487
 51
352.60135540982827
  0
ARC
  5
B7
  8
DATA
  6
CONTINUOUS
 62
     7
 10
-272.62484457541387
 20
868.62599894576954
 30
0.0
 40
39.372446903527958
 50
271.29909411885808
 51
280.08228712371232
  0
ARC
  5
B8
  8
DATA
  6
CONTINUOUS
 62
     7
 10
-269.27339638458199
 20
823.49393371012445
 30
0.0
 40
19.488920537539329
 50
60.687695783250113
 51
79.531059497386337
  0
ARC
  5
B9
  8
DATA
  6
CONTINUOUS
 62
     7
 10
-262.22244312263018
 20
835.54761606887769
 30
0.0
 40
5.5321278855156084
 50
7.3986445901763691
 51
63.247333498056072
  0
ARC
  5
BA
  8
DATA
  6
CONTINUOUS
 62
     7
 10
-272.62484457541387
 20
803.89400105423101
 30
0.0
 40
39.372446903527738
 50
79.917712876287624
 51
88.700905881141864
  0
ARC
  5
BB
  8
DATA
  6
CONTINUOUS
 62
     7
 10
-269.27339638458199
 20
731.5260662898753
 30
0.0
 40
19.48892053753924
 50
280.46894050261369
 51
299.31230421675019
  0
ARC
  5
BC
  8
DATA
  6
CONTINUOUS
 62
     7
 10
-262.22244312263018
 20
719.47238393112229
 30
0.0
 40
5.5321278855154796
 50
296.75266650194487
 51
352.60135540982827
  0
ARC
  5
BD
  8
DATA
  6
CONTINUOUS
 62
     7
 10
-272.62484457541387
 20
751.12599894576954
 30
0.0
 40
39.372446903527958
 50
271.29909411885808
 51
280.08228712371232
  0
ARC
  5
BE
  8
DATA
  6
CONTINUOUS
 62
     7
 10
-269.27339638458199
 20
705.99393371012445
 30
0.0
 40
19.488920537539329
 50
60.687695783250113
 51
79.531059497386337
  0
ARC
  5
BF
  8
DATA
  6
CONTINUOUS
 62
     7
 10
-262.22244312263018
 20
718.04761606887746
 30
0.0
 40
5.5321278855156084
 50
7.3986445901763691
 51
63.247333498056072
  0
ARC
  5
C0
  8
DATA
  6
CONTINUOUS
 62
     7
 10
-272.62484457541387
 20
686.39400105423101
 30
0.0
 40
39.372446903527738
 50
79.917712876287624
 51
88.700905881141864
  0
ARC
  5
C1
  8
DATA
  6
CONTINUOUS
 62
     7
 10
-269.27339638458199
 20
614.02606628987542
 30
0.0
 40
19.48892053753924
 50
280.46894050261369
 51
299.31230421675019
  0
ARC
  5
C2
  8
DATA
  6
CONTINUOUS
 62
     7
 10
-262.22244312263018
 20
601.97238393112241
 30
0.0
 40
5.5321278855154796
 50
296.75266650194487
 51
352.60135540982827
  0
ARC
  5
C3
  8
DATA
  6
CONTINUOUS
 62
     7
 10
-272.62484457541387
 20
633.62599894576954
 30
0.0
 40
39.372446903527958
 50
271.29909411885808
 51
280.08228712371232
  0
ARC
  5
C4
  8
DATA
  6
CONTINUOUS
 62
     7
 10
-269.27339638458199
 20
588.49393371012445
 30
0.0
 40
19.488920537539329
 50
60.687695783250113
 51
79.531059497386337
  0
ARC
  5
C5
  8
DATA
  6
CONTINUOUS
 62
     7
 10
-262.22244312263018
 20
600.54761606887757
 30
0.0
 40
5.5321278855156084
 50
7.3986445901763691
 51
63.247333498056072
  0
ARC
  5
C6
  8
DATA
  6
CONTINUOUS
 62
     7
 10
-272.62484457541387
 20
568.8940010542309
 30
0.0
 40
39.372446903527738
 50
79.917712876287624
 51
88.700905881141864
  0
ARC
  5
C7
  8
DATA
  6
CONTINUOUS
 62
     7
 10
-269.27339638458199
 20
496.52606628987542
 30
0.0
 40
19.48892053753924
 50
280.46894050261369
 51
299.31230421675019
  0
ARC
  5
C8
  8
DATA
  6
CONTINUOUS
 62
     7
 10
-262.22244312263018
 20
484.47238393112229
 30
0.0
 40
5.5321278855154796
 50
296.75266650194487
 51
352.60135540982827
  0
ARC
  5
C9
  8
DATA
  6
CONTINUOUS
 62
     7
 10
-272.62484457541387
 20
516.12599894576942
 30
0.0
 40
39.372446903527958
 50
271.29909411885808
 51
280.08228712371232
  0
ARC
  5
CA
  8
DATA
  6
CONTINUOUS
 62
     7
 10
-269.27339638458199
 20
470.99393371012451
 30
0.0
 40
19.488920537539329
 50
60.687695783250113
 51
79.531059497386337
  0
ARC
  5
CB
  8
DATA
  6
CONTINUOUS
 62
     7
 10
-262.22244312263018
 20
483.04761606887769
 30
0.0
 40
5.5321278855156084
 50
7.3986445901763691
 51
63.247333498056072
  0
ARC
  5
CC
  8
DATA
  6
CONTINUOUS
 62
     7
 10
-272.62484457541387
 20
451.3940010542309
 30
0.0
 40
39.372446903527738
 50
79.917712876287624
 51
88.700905881141864
  0
ENDBLK
  5
CD
  8
DATA
  0
BLOCK
  8
DATA
  2
*U2
 70
     1
 10
0.0
 20
0.0
 30
0.0
  3
*U2
  1

  0
LINE
  5
CF
  8
DATA
  6
STYLE_01
 62
     7
 10
-404.27637574800031
 20
-49.436541739137738
 30
0.0
 11
-404.27637574800002
 21
-113.28745169436981
 31
0.0
  0
LINE
  5
D0
  8
DATA
  6
STYLE_01
 62
     7
 10
-354.27637574800002
 20
-19.096890000000251
 30
0.0
 11
-354.27637574799979
 21
-93.574298342784004
 31
0.0
  0
LINE
  5
D1
  8
DATA
  6
STYLE_01
 62
     7
 10
-158.73713402049319
 20
-131.0675950163986
 30
0.0
 11
-159.10396403368929
 21
-132.07545219443321
 31
0.0
  0
LINE
  5
D2
  8
DATA
  6
STYLE_01
 62
     7
 10
-309.77637574799962
 20
-22.692810641178308
 30
0.0
 11
-309.77637574799962
 21
-86.124926159312935
 31
0.0
  0
LINE
  5
D3
  8
DATA
  6
STYLE_01
 62
     7
 10
-289.27637574800008
 20
-26.918867222861529
 30
0.0
 11
-289.27637574800008
 21
-85.241323312249278
 31
0.0
  0
LINE
  5
D4
  8
DATA
  6
STYLE_01
 62
     7
 10
-204.6263757480005
 20
-90.096889999998865
 30
0.0
 11
-204.6263757480005
 21
-98.566674214077452
 31
0.0
  0
ARC
  5
D5
  8
DATA
  6
STYLE_01
 62
     7
 10
-353.4987230570618
 20
-286.61802683104759
 30
0.0
 40
267.52226710142048
 50
44.729525117010397
 51
90.166551668203226
  0
LINE
  5
D6
  8
DATA
  6
STYLE_01
 62
     7
 10
-379.06247988058669
 20
-21.5755004132584
 30
0.0
 11
-354.27637574800002
 21
-19.096890000000251
 31
0.0
  0
ARC
  5
D7
  8
DATA
  6
STYLE_01
 62
     7
 10
-376.07536716908521
 20
-49.618452002933282
 30
0.0
 40
28.20159527778646
 50
96.080173742445055
 51
179.63041939505311
  0
ARC
  5
D8
  8
DATA
  6
STYLE_01
 62
     7
 10
-191.62637574800041
 20
-119.0968899999998
 30
0.0
 40
35.000000000000071
 50
339.99999999999932
 51
36.361186640584002
  0
LINE
  5
D9
  8
DATA
  6
STYLE_01
 62
     7
 10
-225.12637574800041
 20
-65.022890000000643
 30
0.0
 11
-217.12637574799999
 21
-65.022890000000643
 31
0.0
  0
LINE
  5
DA
  8
DATA
  6
STYLE_01
 62
     7
 10
-217.12637574799999
 20
-65.170890000000327
 30
0.0
 11
-217.1263757480009
 21
-80.022890000000174
 31
0.0
  0
LINE
  5
DB
  8
DATA
  6
STYLE_01
 62
     7
 10
-225.12637574800041
 20
-80.022890000000174
 30
0.0
 11
-217.1263757480009
 21
-80.022890000000174
 31
0.0
  0
LINE
  5
DC
  8
DATA
  6
STYLE_01
 62
     7
 10
-217.12637574799999
 20
-69.296890000000531
 30
0.0
 11
-207.6263757480007
 21
-69.296890000000076
 31
0.0
  0
LINE
  5
DD
  8
DATA
  6
STYLE_01
 62
     7
 10
-217.12637574800021
 20
-75.896890000000909
 30
0.0
 11
-207.62637574799999
 21
-75.896889999999985
 31
0.0
  0
LINE
  5
DE
  8
DATA
  6
STYLE_01
 62
     7
 10
-217.1263757480005
 20
-65.996890000000349
 30
0.0
 11
-207.62637574799999
 21
-65.996890000000349
 31
0.0
  0
LINE
  5
DF
  8
DATA
  6
STYLE_01
 62
     7
 10
-207.62637574800041
 20
-79.196890000000153
 30
0.0
 11
-217.1263757480009
 21
-79.196890000000636
 31
0.0
  0
LINE
  5
E0
  8
DATA
  6
STYLE_01
 62
     7
 10
-207.62637574799999
 20
-65.996890000000349
 30
0.0
 11
-207.62637574800041
 21
-79.196890000000153
 31
0.0
  0
LINE
  5
E1
  8
DATA
  6
STYLE_01
 62
     7
 10
-230.1263757480005
 20
-64.996890000000349
 30
0.0
 11
-225.12637574800021
 21
-64.996890000000349
 31
0.0
  0
LINE
  5
E2
  8
DATA
  6
STYLE_01
 62
     7
 10
-230.12637574799999
 20
-80.196890000000636
 30
0.0
 11
-225.12637574799999
 21
-80.196890000000153
 31
0.0
  0
LINE
  5
E3
  8
DATA
  6
STYLE_01
 62
     7
 10
-225.12637574800021
 20
-64.996890000000349
 30
0.0
 11
-225.12637574800041
 21
-80.196890000000636
 31
0.0
  0
LINE
  5
E4
  8
DATA
  6
STYLE_01
 62
     7
 10
-230.12637574799999
 20
-50.23416604368321
 30
0.0
 11
-230.1263757480005
 21
-90.096889999998865
 31
0.0
  0
LINE
  5
E5
  8
DATA
  6
STYLE_01
 62
     7
 10
-230.1263757480005
 20
-90.096889999998865
 30
0.0
 11
-204.6263757480005
 21
-90.096889999998865
 31
0.0
  0
ARC
  5
E6
  8
DATA
  6
STYLE_01
 62
     7
 10
-210.07780431946631
 20
-104.0968899999998
 30
0.0
 40
8.9514285714534392
 50
32.720016278984467
 51
52.48269930413251
  0
ARC
  5
E7
  8
DATA
  6
STYLE_01
 62
     7
 10
-297.39356324799871
 20
-69.654301205206139
 30
0.0
 40
6.1328125000003162
 50
110.3510216860943
 51
249.64897831391301
  0
ARC
  5
E8
  8
DATA
  6
STYLE_01
 62
     7
 10
-301.65918824799962
 20
-69.654301205206139
 30
0.0
 40
6.1328125000006644
 50
290.35102168609092
 51
69.64897831391356
  0
ENDBLK
  5
E9
  8
DATA
  0
BLOCK
  8
DATA
  2
*U3
 70
     1
 10
0.0
 20
0.0
 30
0.0
  3
*U3
  1

  0
LINE
  5
EB
  8
DATA
  6
STYLE_01
 62
     7
 10
-205.43164086480959
 20
-522.04369998008031
 30
0.0
 11
-178.64056574801751
 21
-553.97205999997823
 31
0.0
  0
LINE
  5
EC
  8
DATA
  6
STYLE_01
 62
     7
 10
-163.32843307775181
 20
-494.43415777702648
 30
0.0
 11
-120.8363913719282
 21
-545.07420113660419
 31
0.0
  0
LINE
  5
ED
  8
DATA
  6
STYLE_01
 62
     7
 10
-158.20000036955281
 20
-250.40817282629769
 30
0.0
 11
-76.613578929365161
 21
-474.56502346732032
 31
0.0
  0
LINE
  5
EE
  8
DATA
  6
STYLE_01
 62
     7
 10
-158.20000036955281
 20
-431.31627558611223
 30
0.0
 11
-91.070048857348283
 21
-511.31863647145752
 31
0.0
  0
LINE
  5
EF
  8
DATA
  6
STYLE_01
 62
     7
 10
-158.20000036955281
 20
-399.42393713547432
 30
0.0
 11
-78.66916610687791
 21
-494.20509459003188
 31
0.0
  0
LINE
  5
F0
  8
DATA
  6
STYLE_01
 62
     7
 10
-158.20000036955281
 20
-267.73191519173997
 30
0.0
 11
-152.56057918479871
 21
-274.45271564882302
 31
0.0
  0
LINE
  5
F1
  8
DATA
  6
STYLE_01
 62
     7
 10
-141.41686877218589
 20
-559.1076760317236
 30
0.0
 11
-120.8363913719282
 21
-545.07420113660419
 31
0.0
  0
ARC
  5
F2
  8
DATA
  6
STYLE_01
 62
     7
 10
-157.15426949941471
 20
-535.70544975808286
 30
0.0
 40
28.201595277786598
 50
220.36958060494661
 51
303.91982625755571
  0
ARC
  5
F3
  8
DATA
  6
STYLE_01
 62
     7
 10
-97.756662897048813
 20
-482.26047669214807
 30
0.0
 40
22.50000000000011
 50
325.67303112010251
 51
19.999999999999719
  0
ARC
  5
F4
  8
DATA
  6
STYLE_01
 62
     7
 10
-364.94300147300339
 20
-299.81396938675482
 30
0.0
 40
346.03557385481008
 50
314.8649325546038
 51
325.67303112010319
  0
LINE
  5
F5
  8
DATA
  6
STYLE_01
 62
     7
 10
-152.56057918479871
 20
-274.45271564882302
 30
0.0
 11
-150.176590122829
 21
-272.45231130619368
 31
0.0
  0
ARC
  5
F6
  8
DATA
  6
STYLE_01
 62
     7
 10
-112.0638141809707
 20
-467.0350047751536
 30
0.0
 40
6.1328125000002753
 50
150.35102168609461
 51
289.64897831391107
  0
ARC
  5
F7
  8
DATA
  6
STYLE_01
 62
     7
 10
-115.331472508651
 20
-469.77689567272307
 30
0.0
 40
6.1328125000005
 50
330.35102168609092
 51
109.64897831391249
  0
ENDBLK
  5
F8
  8
DATA
  0
BLOCK
  8
DATA
  2
*U4
 70
     1
 10
0.0
 20
0.0
 30
0.0
  3
*U4
  1

  0
LINE
  5
FA
  8
DATA
  6
CONTINUOUS
 62
     7
 10
-91.766665747999795
 20
100.9031099999997
 30
0.0
 11
-519.86528574799991
 21
100.9031099999997
 31
0.0
  0
LINE
  5
FB
  8
DATA
  6
CONTINUOUS
 62
     7
 10
-500.52159574799992
 20
100.9031099999997
 30
0.0
 11
-450.52159574799992
 21
150.90310999999971
 31
0.0
  0
LINE
  5
FC
  8
DATA
  6
CONTINUOUS
 62
     7
 10
-408.09519574799998
 20
150.90310999999971
 30
0.0
 11
-458.09519574799992
 21
100.9031099999997
 31
0.0
  0
LINE
  5
FD
  8
DATA
  6
CONTINUOUS
 62
     7
 10
-415.66878574799989
 20
100.9031099999997
 30
0.0
 11
-365.668785748
 21
150.90310999999971
 31
0.0
  0
LINE
  5
FE
  8
DATA
  6
CONTINUOUS
 62
     7
 10
-323.24237574799997
 20
150.90310999999971
 30
0.0
 11
-373.24237574799997
 21
100.9031099999997
 31
0.0
  0
LINE
  5
FF
  8
DATA
  6
CONTINUOUS
 62
     7
 10
-330.81597574800003
 20
100.9031099999997
 30
0.0
 11
-280.81597574799991
 21
150.90310999999971
 31
0.0
  0
LINE
  5
100
  8
DATA
  6
CONTINUOUS
 62
     7
 10
-238.38956574799991
 20
150.90310999999971
 30
0.0
 11
-288.38956574799988
 21
100.9031099999997
 31
0.0
  0
LINE
  5
101
  8
DATA
  6
CONTINUOUS
 62
     7
 10
-245.96316574799991
 20
100.9031099999997
 30
0.0
 11
-195.9631657479998
 21
150.90310999999971
 31
0.0
  0
LINE
  5
102
  8
DATA
  6
CONTINUOUS
 62
     7
 10
-153.53676574799999
 20
150.90310999999971
 30
0.0
 11
-203.53676574799999
 21
100.9031099999997
 31
0.0
  0
LINE
  5
103
  8
DATA
  6
CONTINUOUS
 62
     7
 10
-161.1103557479999
 20
100.9031099999997
 30
0.0
 11
-111.1103557479999
 21
150.90310999999971
 31
0.0
  0
LINE
  5
104
  8
DATA
  6
CONTINUOUS
 62
     7
 10
-91.766665747999795
 20
127.8203899999998
 30
0.0
 11
-118.6839457479999
 21
100.9031099999997
 31
0.0
  0
ENDBLK
  5
105
  8
DATA
  0
BLOCK
  8
DATA
  2
*U5
 70
     1
 10
0.0
 20
0.0
 30
0.0
  3
*U5
  1

  0
LINE
  5
107
  8
DATA
  6
CONTINUOUS
 62
     7
 10
-50.000015748000003
 20
8.9131299999999101
 30
0.0
 11
-50.000015748000003
 21
-660.83999000000028
 31
0.0
  0
LINE
  5
108
  8
DATA
  6
CONTINUOUS
 62
     7
 10
-29.534705747999951
 20
8.9131099999997332
 30
0.0
 11
-50.000005748000021
 21
-11.55219000000011
 31
0.0
  0
LINE
  5
109
  8
DATA
  6
CONTINUOUS
 62
     7
 10
-50.000015748000003
 20
-53.978600000000363
 30
0.0
 11
-0.0000157479999956
 21
-3.9786000000001418
 31
0.0
  0
LINE
  5
10A
  8
DATA
  6
CONTINUOUS
 62
     7
 10
-0.0000157479999956
 20
-46.405000000000193
 30
0.0
 11
-50.000015748000003
 21
-96.405000000000214
 31
0.0
  0
LINE
  5
10B
  8
DATA
  6
CONTINUOUS
 62
     7
 10
-50.000015748000003
 20
-138.8314100000002
 30
0.0
 11
-0.0000157479999956
 21
-88.831410000000204
 31
0.0
  0
LINE
  5
10C
  8
DATA
  6
CONTINUOUS
 62
     7
 10
-0.0000157479999956
 20
-131.25782000000029
 30
0.0
 11
-50.000015748000003
 21
-181.25782000000021
 31
0.0
  0
LINE
  5
10D
  8
DATA
  6
CONTINUOUS
 62
     7
 10
-50.000015748000003
 20
-223.6842200000001
 30
0.0
 11
-0.0000157479999956
 21
-173.68422000000001
 31
0.0
  0
LINE
  5
10E
  8
DATA
  6
CONTINUOUS
 62
     7
 10
-0.0000157479999956
 20
-216.1106300000001
 30
0.0
 11
-50.000015748000003
 21
-266.11063000000013
 31
0.0
  0
LINE
  5
10F
  8
DATA
  6
CONTINUOUS
 62
     7
 10
-50.000015748000003
 20
-308.53703000000041
 30
0.0
 11
-0.0000157479999956
 21
-258.53703000000002
 31
0.0
  0
LINE
  5
110
  8
DATA
  6
CONTINUOUS
 62
     7
 10
-0.0000157479999956
 20
-300.96343000000019
 30
0.0
 11
-50.000015748000003
 21
-350.96343000000019
 31
0.0
  0
LINE
  5
111
  8
DATA
  6
CONTINUOUS
 62
     7
 10
-50.000015748000003
 20
-393.38984000000022
 30
0.0
 11
-0.0000157479999956
 21
-343.38984000000028
 31
0.0
  0
LINE
  5
112
  8
DATA
  6
CONTINUOUS
 62
     7
 10
-0.0000157479999956
 20
-385.81625000000031
 30
0.0
 11
-50.000015748000003
 21
-435.81625000000031
 31
0.0
  0
LINE
  5
113
  8
DATA
  6
CONTINUOUS
 62
     7
 10
-50.000015748000003
 20
-478.24265999999989
 30
0.0
 11
-0.0000157479999956
 21
-428.24265999999989
 31
0.0
  0
LINE
  5
114
  8
DATA
  6
CONTINUOUS
 62
     7
 10
-0.0000157479999956
 20
-470.66906000000012
 30
0.0
 11
-50.000015748000003
 21
-520.66906000000006
 31
0.0
  0
LINE
  5
115
  8
DATA
  6
CONTINUOUS
 62
     7
 10
-50.000015748000003
 20
-563.09547000000009
 30
0.0
 11
-0.0000157479999956
 21
-513.09547000000009
 31
0.0
  0
LINE
  5
116
  8
DATA
  6
CONTINUOUS
 62
     7
 10
-0.0000157479999956
 20
-555.52188000000012
 30
0.0
 11
-50.000015748000003
 21
-605.52188000000012
 31
0.0
  0
LINE
  5
117
  8
DATA
  6
CONTINUOUS
 62
     7
 10
-50.000015748000003
 20
-647.94828000000018
 30
0.0
 11
-0.0000157479999956
 21
-597.94828000000018
 31
0.0
  0
ENDBLK
  5
118
  8
DATA
  0
BLOCK
  8
DATA
  2
*U6
 70
     1
 10
0.0
 20
0.0
 30
0.0
  3
*U6
  1

  0
CIRCLE
  5
11A
  8
DATA
  6
CONTINUOUS
 62
     7
 10
-133.19999999999999
 20
-133.99998934200011
 30
0.0
 40
5.5
  0
CIRCLE
  5
11B
  8
DATA
  6
CONTINUOUS
 62
     7
 10
-133.19999999999999
 20
-133.99998934200011
 30
0.0
 40
6.5
  0
LINE
  5
11C
  8
DATA
  6
CONTINUOUS
 62
     7
 10
-136.44999999999999
 20
-132.99998934200011
 30
0.0
 11
-134.19999999999999
 21
-132.99998934200011
 31
0.0
  0
LINE
  5
11D
  8
DATA
  6
CONTINUOUS
 62
     7
 10
-132.19999999999999
 20
-132.99998934200011
 30
0.0
 11
-129.94999999999999
 21
-132.99998934200011
 31
0.0
  0
LINE
  5
11E
  8
DATA
  6
CONTINUOUS
 62
     7
 10
-136.44999999999999
 20
-134.99998934200011
 30
0.0
 11
-134.19999999999999
 21
-134.99998934200011
 31
0.0
  0
LINE
  5
11F
  8
DATA
  6
CONTINUOUS
 62
     7
 10
-132.19999999999999
 20
-134.99998934200011
 30
0.0
 11
-129.94999999999999
 21
-134.99998934200011
 31
0.0
  0
LINE
  5
120
  8
DATA
  6
CONTINUOUS
 62
     7
 10
-134.19999999999999
 20
-137.24998934200011
 30
0.0
 11
-134.19999999999999
 21
-134.99998934200011
 31
0.0
  0
LINE
  5
121
  8
DATA
  6
CONTINUOUS
 62
     7
 10
-134.19999999999999
 20
-132.99998934200011
 30
0.0
 11
-134.19999999999999
 21
-130.74998934200011
 31
0.0
  0
LINE
  5
122
  8
DATA
  6
CONTINUOUS
 62
     7
 10
-132.19999999999999
 20
-137.24998934200011
 30
0.0
 11
-132.19999999999999
 21
-134.99998934200011
 31
0.0
  0
LINE
  5
123
  8
DATA
  6
CONTINUOUS
 62
     7
 10
-132.19999999999999
 20
-132.99998934200011
 30
0.0
 11
-132.19999999999999
 21
-130.74998934200011
 31
0.0
  0
LINE
  5
124
  8
DATA
  6
CONTINUOUS
 62
     7
 10
-136.44999999999999
 20
-134.99998934200011
 30
0.0
 11
-136.44999999999999
 21
-132.99998934200011
 31
0.0
  0
LINE
  5
125
  8
DATA
  6
CONTINUOUS
 62
     7
 10
-129.94999999999999
 20
-134.99998934200011
 30
0.0
 11
-129.94999999999999
 21
-132.99998934200011
 31
0.0
  0
LINE
  5
126
  8
DATA
  6
CONTINUOUS
 62
     7
 10
-134.19999999999999
 20
-130.74998934200011
 30
0.0
 11
-132.19999999999999
 21
-130.74998934200011
 31
0.0
  0
LINE
  5
127
  8
DATA
  6
CONTINUOUS
 62
     7
 10
-134.19999999999999
 20
-137.24998934200011
 30
0.0
 11
-132.19999999999999
 21
-137.24998934200011
 31
0.0
  0
ENDBLK
  5
128
  8
DATA
  0
BLOCK
  8
DATA
  2
*U7
 70
     1
 10
0.0
 20
0.0
 30
0.0
  3
*U7
  1

  0
CIRCLE
  5
12A
  8
DATA
  6
CONTINUOUS
 62
     7
 10
-133.19999999999999
 20
-245.99998934200019
 30
0.0
 40
5.5
  0
CIRCLE
  5
12B
  8
DATA
  6
CONTINUOUS
 62
     7
 10
-133.19999999999999
 20
-245.99998934200019
 30
0.0
 40
6.5
  0
LINE
  5
12C
  8
DATA
  6
CONTINUOUS
 62
     7
 10
-136.44999999999999
 20
-244.99998934200019
 30
0.0
 11
-134.19999999999999
 21
-244.99998934200019
 31
0.0
  0
LINE
  5
12D
  8
DATA
  6
CONTINUOUS
 62
     7
 10
-132.19999999999999
 20
-244.99998934200019
 30
0.0
 11
-129.94999999999999
 21
-244.99998934200019
 31
0.0
  0
LINE
  5
12E
  8
DATA
  6
CONTINUOUS
 62
     7
 10
-136.44999999999999
 20
-246.99998934200019
 30
0.0
 11
-134.19999999999999
 21
-246.99998934200019
 31
0.0
  0
LINE
  5
12F
  8
DATA
  6
CONTINUOUS
 62
     7
 10
-132.19999999999999
 20
-246.99998934200019
 30
0.0
 11
-129.94999999999999
 21
-246.99998934200019
 31
0.0
  0
LINE
  5
130
  8
DATA
  6
CONTINUOUS
 62
     7
 10
-134.19999999999999
 20
-249.24998934200011
 30
0.0
 11
-134.19999999999999
 21
-246.99998934200019
 31
0.0
  0
LINE
  5
131
  8
DATA
  6
CONTINUOUS
 62
     7
 10
-134.19999999999999
 20
-244.99998934200019
 30
0.0
 11
-134.19999999999999
 21
-242.74998934200019
 31
0.0
  0
LINE
  5
132
  8
DATA
  6
CONTINUOUS
 62
     7
 10
-132.19999999999999
 20
-249.24998934200011
 30
0.0
 11
-132.19999999999999
 21
-246.99998934200019
 31
0.0
  0
LINE
  5
133
  8
DATA
  6
CONTINUOUS
 62
     7
 10
-132.19999999999999
 20
-244.99998934200019
 30
0.0
 11
-132.19999999999999
 21
-242.74998934200019
 31
0.0
  0
LINE
  5
134
  8
DATA
  6
CONTINUOUS
 62
     7
 10
-136.44999999999999
 20
-246.99998934200019
 30
0.0
 11
-136.44999999999999
 21
-244.99998934200019
 31
0.0
  0
LINE
  5
135
  8
DATA
  6
CONTINUOUS
 62
     7
 10
-129.94999999999999
 20
-246.99998934200019
 30
0.0
 11
-129.94999999999999
 21
-244.99998934200019
 31
0.0
  0
LINE
  5
136
  8
DATA
  6
CONTINUOUS
 62
     7
 10
-134.19999999999999
 20
-242.74998934200019
 30
0.0
 11
-132.19999999999999
 21
-242.74998934200019
 31
0.0
  0
LINE
  5
137
  8
DATA
  6
CONTINUOUS
 62
     7
 10
-134.19999999999999
 20
-249.24998934200011
 30
0.0
 11
-132.19999999999999
 21
-249.24998934200011
 31
0.0
  0
ENDBLK
  5
138
  8
DATA
  0
BLOCK
  8
DATA
  2
*U8
 70
     1
 10
0.0
 20
0.0
 30
0.0
  3
*U8
  1

  0
LINE
  5
13A
  8
DATA
  6
CONTINUOUS
 62
     7
 10
-57.200000000000053
 20
-99.999989545000076
 30
0.0
 11
-57.200000000000053
 21
-279.99998954500018
 31
0.0
  0
LINE
  5
13B
  8
DATA
  6
CONTINUOUS
 62
     7
 10
-50.0
 20
-99.999989545000076
 30
0.0
 11
-50.0
 21
-279.99998954500018
 31
0.0
  0
LINE
  5
13C
  8
DATA
  6
CONTINUOUS
 62
     7
 10
-50.0
 20
-99.999989545000076
 30
0.0
 11
-61.343638300000059
 21
-99.999989545000076
 31
0.0
  0
LINE
  5
13D
  8
DATA
  6
CONTINUOUS
 62
     7
 10
-61.343638300000059
 20
-99.999989545000076
 30
0.0
 11
-61.343638300000059
 21
-232.163298473
 31
0.0
  0
LINE
  5
13E
  8
DATA
  6
CONTINUOUS
 62
     7
 10
-58.925425570000023
 20
-279.99998954500018
 30
0.0
 11
-61.343638300000059
 21
-232.163298473
 31
0.0
  0
LINE
  5
13F
  8
DATA
  6
CONTINUOUS
 62
     7
 10
-50.0
 20
-279.99998954500018
 30
0.0
 11
-58.925425570000023
 21
-279.99998954500018
 31
0.0
  0
LINE
  5
140
  8
DATA
  6
CONTINUOUS
 62
     7
 10
-81.221529547000046
 20
-315.54700249300009
 30
0.0
 11
-83.484271246999924
 21
-313.2842607930001
 31
0.0
  0
LINE
  5
141
  8
DATA
  6
STYLE_05
 62
     7
 10
-74.150461735000121
 20
-308.47593468100013
 30
0.0
 11
-76.413203435000014
 21
-306.21319298100008
 31
0.0
  0
LINE
  5
142
  8
DATA
  6
STYLE_05
 62
     7
 10
-60.00832611200007
 20
-294.33379905700019
 30
0.0
 11
-62.271067810999973
 21
-292.07105735699997
 31
0.0
  0
LINE
  5
143
  8
DATA
  6
CONTINUOUS
 62
     7
 10
-55.200000000000038
 20
-99.999989545000076
 30
0.0
 11
-55.200000000000038
 21
-283.92303428300011
 31
0.0
  0
LINE
  5
144
  8
DATA
  6
CONTINUOUS
 62
     7
 10
-55.961522368000033
 20
-285.7615119140001
 30
0.0
 11
-83.484271246999924
 21
-313.2842607930001
 31
0.0
  0
ARC
  5
145
  8
DATA
  6
CONTINUOUS
 62
     7
 10
-57.799999999999962
 20
-283.92303428300011
 30
0.0
 40
2.6000000000000041
 50
314.99999999999829
 51
0.0
  0
LINE
  5
146
  8
DATA
  6
CONTINUOUS
 62
     7
 10
-52.0
 20
-99.999989545000076
 30
0.0
 11
-52.0
 21
-283.92303428300011
 31
0.0
  0
LINE
  5
147
  8
DATA
  6
CONTINUOUS
 62
     7
 10
-53.69878066899993
 20
-288.0242536140002
 30
0.0
 11
-81.221529547000046
 21
-315.54700249300009
 31
0.0
  0
ARC
  5
148
  8
DATA
  6
CONTINUOUS
 62
     7
 10
-57.799999999999962
 20
-283.92303428300011
 30
0.0
 40
5.7999999999998364
 50
314.9999999999992
 51
0.0
  0
LINE
  5
149
  8
DATA
  6
CONTINUOUS
 62
     7
 10
-138.19999999999999
 20
-104.99998954500001
 30
0.0
 11
-138.19999999999999
 21
-107.599989545
 31
0.0
  0
LINE
  5
14A
  8
DATA
  6
CONTINUOUS
 62
     7
 10
-138.19999999999999
 20
-274.99998954500018
 30
0.0
 11
-138.19999999999999
 21
-272.3999895450001
 31
0.0
  0
LINE
  5
14B
  8
DATA
  6
CONTINUOUS
 62
     7
 10
-77.900000000000091
 20
-124.599989545
 30
0.0
 11
-77.900000000000091
 21
-255.3999895450001
 31
0.0
  0
LINE
  5
14C
  8
DATA
  6
CONTINUOUS
 62
     7
 10
-93.900000000000077
 20
-107.599989545
 30
0.0
 11
-93.900000000000077
 21
-112.5999895450001
 31
0.0
  0
LINE
  5
14D
  8
DATA
  6
CONTINUOUS
 62
     7
 10
-93.900000000000077
 20
-112.5999895450001
 30
0.0
 11
-77.900000000000091
 21
-124.599989545
 31
0.0
  0
LINE
  5
14E
  8
DATA
  6
CONTINUOUS
 62
     7
 10
-93.900000000000077
 20
-272.3999895450001
 30
0.0
 11
-93.900000000000077
 21
-267.3999895450001
 31
0.0
  0
LINE
  5
14F
  8
DATA
  6
CONTINUOUS
 62
     7
 10
-93.900000000000077
 20
-267.3999895450001
 30
0.0
 11
-77.900000000000091
 21
-255.3999895450001
 31
0.0
  0
LINE
  5
150
  8
DATA
  6
CONTINUOUS
 62
     7
 10
-61.343638300000059
 20
-104.99998954500001
 30
0.0
 11
-138.19999999999999
 21
-104.99998954500001
 31
0.0
  0
LINE
  5
151
  8
DATA
  6
CONTINUOUS
 62
     7
 10
-61.343638300000059
 20
-107.599989545
 30
0.0
 11
-138.19999999999999
 21
-107.599989545
 31
0.0
  0
LINE
  5
152
  8
DATA
  6
CONTINUOUS
 62
     7
 10
-59.309999999999931
 20
-272.3999895450001
 30
0.0
 11
-138.19999999999999
 21
-272.3999895450001
 31
0.0
  0
LINE
  5
153
  8
DATA
  6
CONTINUOUS
 62
     7
 10
-59.178182677999992
 20
-274.99998954500018
 30
0.0
 11
-138.19999999999999
 21
-274.99998954500018
 31
0.0
  0
POLYLINE
  5
154
  8
DATA
  6
CONTINUOUS
 62
     7
 66
     1
 10
0.0
 20
0.0
 30
0.0
  0
VERTEX
  5
6CE
  8
DATA
  6
CONTINUOUS
 62
     7
 10
-131.69999999999999
 20
-104.99998934200011
 30
0.0
  0
VERTEX
  5
6CF
  8
DATA
  6
CONTINUOUS
 62
     7
 10
-114.7
 20
-104.99998934200011
 30
0.0
  0
VERTEX
  5
6D0
  8
DATA
  6
CONTINUOUS
 62
     7
 10
-114.7
 20
-103.3999893420001
 30
0.0
  0
VERTEX
  5
6D1
  8
DATA
  6
CONTINUOUS
 62
     7
 10
-131.69999999999999
 20
-103.3999893420001
 30
0.0
  0
VERTEX
  5
6D2
  8
DATA
  6
CONTINUOUS
 62
     7
 10
-131.69999999999999
 20
-104.99998934200011
 30
0.0
  0
SEQEND
  5
6D3
  8
DATA
  6
CONTINUOUS
 62
     7
  0
LINE
  5
15B
  8
DATA
  6
CONTINUOUS
 62
     7
 10
-115.5
 20
-103.3999893420001
 30
0.0
 11
-115.5
 21
-101.3999893420001
 31
0.0
  0
LINE
  5
15C
  8
DATA
  6
CONTINUOUS
 62
     7
 10
-115.5
 20
-101.3999893420001
 30
0.0
 11
-130.90000000000001
 21
-101.3999893420001
 31
0.0
  0
LINE
  5
15D
  8
DATA
  6
CONTINUOUS
 62
     7
 10
-130.90000000000001
 20
-101.3999893420001
 30
0.0
 11
-130.90000000000001
 21
-103.3999893420001
 31
0.0
  0
LINE
  5
15E
  8
DATA
  6
CONTINUOUS
 62
     7
 10
-130.90000000000001
 20
-103.3999893420001
 30
0.0
 11
-115.5
 21
-103.3999893420001
 31
0.0
  0
LINE
  5
15F
  8
DATA
  6
CONTINUOUS
 62
     7
 10
-130.69999999999999
 20
-101.3999893420001
 30
0.0
 11
-130.69999999999999
 21
-96.799989342000117
 31
0.0
  0
LINE
  5
160
  8
DATA
  6
CONTINUOUS
 62
     7
 10
-115.7
 20
-101.3999893420001
 30
0.0
 11
-115.7
 21
-96.799989342000117
 31
0.0
  0
LINE
  5
161
  8
DATA
  6
CONTINUOUS
 62
     7
 10
-119.40000000000011
 20
-101.3999893420001
 30
0.0
 11
-119.40000000000011
 21
-96.799989342000117
 31
0.0
  0
LINE
  5
162
  8
DATA
  6
CONTINUOUS
 62
     7
 10
-127.0
 20
-101.3999893420001
 30
0.0
 11
-127.0
 21
-96.799989342000117
 31
0.0
  0
LINE
  5
163
  8
DATA
  6
CONTINUOUS
 62
     7
 10
-128.90000000000001
 20
-96.099989342000086
 30
0.0
 11
-117.5
 21
-96.099989342000086
 31
0.0
  0
ARC
  5
164
  8
DATA
  6
CONTINUOUS
 62
     7
 10
-117.5
 20
-98.899989342000154
 30
0.0
 40
2.8000000000000509
 50
48.499999999999751
 51
131.50000000000031
  0
ARC
  5
165
  8
DATA
  6
CONTINUOUS
 62
     7
 10
-123.2
 20
-106.7999893420001
 30
0.0
 40
10.69999999999993
 50
69.100000000000023
 51
110.90000000000001
  0
ARC
  5
166
  8
DATA
  6
CONTINUOUS
 62
     7
 10
-128.90000000000001
 20
-98.899989342000154
 30
0.0
 40
2.8000000000000509
 50
48.499999999999751
 51
131.50000000000031
  0
LINE
  5
167
  8
DATA
  6
CONTINUOUS
 62
     7
 10
-123.2
 20
-101.3999893420001
 30
0.0
 11
-122.045299461
 21
-103.3999893420001
 31
0.0
  0
LINE
  5
168
  8
DATA
  6
CONTINUOUS
 62
     7
 10
-123.2
 20
-103.3999893420001
 30
0.0
 11
-124.3547005380001
 21
-101.3999893420001
 31
0.0
  0
POLYLINE
  5
169
  8
DATA
  6
CONTINUOUS
 62
     7
 66
     1
 10
0.0
 20
0.0
 30
0.0
  0
VERTEX
  5
6D4
  8
DATA
  6
CONTINUOUS
 62
     7
 10
-114.7
 20
-274.99998934200022
 30
0.0
  0
VERTEX
  5
6D5
  8
DATA
  6
CONTINUOUS
 62
     7
 10
-131.69999999999999
 20
-274.99998934200022
 30
0.0
  0
VERTEX
  5
6D6
  8
DATA
  6
CONTINUOUS
 62
     7
 10
-131.69999999999999
 20
-276.59998934200019
 30
0.0
  0
VERTEX
  5
6D7
  8
DATA
  6
CONTINUOUS
 62
     7
 10
-114.7
 20
-276.59998934200019
 30
0.0
  0
VERTEX
  5
6D8
  8
DATA
  6
CONTINUOUS
 62
     7
 10
-114.7
 20
-274.99998934200022
 30
0.0
  0
SEQEND
  5
6D9
  8
DATA
  6
CONTINUOUS
 62
     7
  0
LINE
  5
170
  8
DATA
  6
CONTINUOUS
 62
     7
 10
-130.90000000000001
 20
-276.59998934200019
 30
0.0
 11
-130.90000000000001
 21
-278.59998934200019
 31
0.0
  0
LINE
  5
171
  8
DATA
  6
CONTINUOUS
 62
     7
 10
-130.90000000000001
 20
-278.59998934200019
 30
0.0
 11
-115.5
 21
-278.59998934200019
 31
0.0
  0
LINE
  5
172
  8
DATA
  6
CONTINUOUS
 62
     7
 10
-115.5
 20
-278.59998934200019
 30
0.0
 11
-115.5
 21
-276.59998934200019
 31
0.0
  0
LINE
  5
173
  8
DATA
  6
CONTINUOUS
 62
     7
 10
-115.5
 20
-276.59998934200019
 30
0.0
 11
-130.90000000000001
 21
-276.59998934200019
 31
0.0
  0
LINE
  5
174
  8
DATA
  6
CONTINUOUS
 62
     7
 10
-115.7
 20
-278.59998934200019
 30
0.0
 11
-115.7
 21
-283.19998934199998
 31
0.0
  0
LINE
  5
175
  8
DATA
  6
CONTINUOUS
 62
     7
 10
-130.69999999999999
 20
-278.59998934200019
 30
0.0
 11
-130.69999999999999
 21
-283.19998934199998
 31
0.0
  0
LINE
  5
176
  8
DATA
  6
CONTINUOUS
 62
     7
 10
-127.0
 20
-278.59998934200019
 30
0.0
 11
-127.0
 21
-283.19998934199998
 31
0.0
  0
LINE
  5
177
  8
DATA
  6
CONTINUOUS
 62
     7
 10
-119.40000000000011
 20
-278.59998934200019
 30
0.0
 11
-119.40000000000011
 21
-283.19998934199998
 31
0.0
  0
LINE
  5
178
  8
DATA
  6
CONTINUOUS
 62
     7
 10
-117.5
 20
-283.89998934200008
 30
0.0
 11
-128.90000000000001
 21
-283.89998934200008
 31
0.0
  0
ARC
  5
179
  8
DATA
  6
CONTINUOUS
 62
     7
 10
-128.90000000000001
 20
-281.09998934200019
 30
0.0
 40
2.7999999999999661
 50
228.49999999999821
 51
311.50000000000188
  0
ARC
  5
17A
  8
DATA
  6
CONTINUOUS
 62
     7
 10
-123.2
 20
-273.19998934200009
 30
0.0
 40
10.70000000000004
 50
249.10000000000031
 51
290.89999999999981
  0
ARC
  5
17B
  8
DATA
  6
CONTINUOUS
 62
     7
 10
-117.5
 20
-281.09998934200019
 30
0.0
 40
2.7999999999999661
 50
228.49999999999821
 51
311.50000000000188
  0
LINE
  5
17C
  8
DATA
  6
CONTINUOUS
 62
     7
 10
-123.2
 20
-278.59998934200019
 30
0.0
 11
-124.3547005380001
 21
-276.59998934200019
 31
0.0
  0
LINE
  5
17D
  8
DATA
  6
CONTINUOUS
 62
     7
 10
-123.2
 20
-276.59998934200019
 30
0.0
 11
-122.045299461
 21
-278.59998934200019
 31
0.0
  0
LINE
  5
17E
  8
DATA
  6
CONTINUOUS
 62
     7
 10
-130.19999999999999
 20
-117.2942479190001
 30
0.0
 11
-130.19999999999999
 21
-111.2999895450001
 31
0.0
  0
LINE
  5
17F
  8
DATA
  6
CONTINUOUS
 62
     7
 10
-130.19999999999999
 20
-262.70573117200013
 30
0.0
 11
-130.19999999999999
 21
-268.69998954499999
 31
0.0
  0
LINE
  5
180
  8
DATA
  6
CONTINUOUS
 62
     7
 10
-116.2
 20
-265.61960677000008
 30
0.0
 11
-116.2
 21
-268.69998954499999
 31
0.0
  0
LINE
  5
181
  8
DATA
  6
CONTINUOUS
 62
     7
 10
-116.2
 20
-114.38037232000011
 30
0.0
 11
-116.2
 21
-111.2999895450001
 31
0.0
  0
LINE
  5
182
  8
DATA
  6
CONTINUOUS
 62
     7
 10
-143.19999999999999
 20
-259.99998954500018
 30
0.0
 11
-101.40000000000001
 21
-268.69998954499999
 31
0.0
  0
ARC
  5
183
  8
DATA
  6
CONTINUOUS
 62
     7
 10
-101.40000000000001
 20
-111.2999895450001
 30
0.0
 40
3.200000000000045
 50
0.0
 51
90.0
  0
ARC
  5
184
  8
DATA
  6
CONTINUOUS
 62
     7
 10
-101.40000000000001
 20
-268.69998954499999
 30
0.0
 40
3.1999999999999309
 50
270.0
 51
0.0
  0
LINE
  5
185
  8
DATA
  6
CONTINUOUS
 62
     7
 10
-130.43644148000001
 20
-117.3434594230001
 30
0.0
 11
-101.40000000000001
 21
-111.2999895450001
 31
0.0
  0
LINE
  5
186
  8
DATA
  6
CONTINUOUS
 62
     7
 10
-98.200000000000031
 20
-124.4183334960201
 30
0.0
 11
-98.200000000000031
 21
-111.2999895450001
 31
0.0
  0
LINE
  5
187
  8
DATA
  6
CONTINUOUS
 62
     7
 10
-98.200000000000031
 20
-268.69998954499999
 30
0.0
 11
-98.200000000000031
 21
-255.5816451871197
 31
0.0
  0
LINE
  5
188
  8
DATA
  6
CONTINUOUS
 62
     7
 10
-134.75
 20
-108.099989545
 30
0.0
 11
-134.75
 21
-111.2999895450001
 31
0.0
  0
LINE
  5
189
  8
DATA
  6
CONTINUOUS
 62
     7
 10
-98.200000000000031
 20
-111.2999895450001
 30
0.0
 11
-134.75
 21
-111.2999895450001
 31
0.0
  0
LINE
  5
18A
  8
DATA
  6
CONTINUOUS
 62
     7
 10
-101.40000000000001
 20
-108.099989545
 30
0.0
 11
-134.75
 21
-108.099989545
 31
0.0
  0
LINE
  5
18B
  8
DATA
  6
CONTINUOUS
 62
     7
 10
-134.75
 20
-268.69998954499999
 30
0.0
 11
-134.75
 21
-271.8999895450001
 31
0.0
  0
LINE
  5
18C
  8
DATA
  6
CONTINUOUS
 62
     7
 10
-98.200000000000031
 20
-268.69998954499999
 30
0.0
 11
-134.75
 21
-268.69998954499999
 31
0.0
  0
LINE
  5
18D
  8
DATA
  6
CONTINUOUS
 62
     7
 10
-101.40000000000001
 20
-271.8999895450001
 30
0.0
 11
-134.75
 21
-271.8999895450001
 31
0.0
  0
INSERT
  5
18E
  8
DATA
 62
     7
  2
*U6
 10
0.0
 20
0.0
 30
0.0
  0
INSERT
  5
18F
  8
DATA
 62
     7
  2
*U7
 10
0.0
 20
0.0
 30
0.0
  0
CIRCLE
  5
190
  8
DATA
  6
CONTINUOUS
 62
     7
 10
-104.21226694791859
 20
-242.1836818858645
 30
0.0
 40
2.9999999999999911
  0
CIRCLE
  5
191
  8
DATA
  6
CONTINUOUS
 62
     7
 10
-113.7514041007754
 20
-244.2984576787841
 30
0.0
 40
3.0000000000000182
  0
CIRCLE
  5
192
  8
DATA
  6
CONTINUOUS
 62
     7
 10
-123.4385568119377
 20
-245.5737955277576
 30
0.0
 40
2.9999999999999911
  0
CIRCLE
  5
193
  8
DATA
  6
CONTINUOUS
 62
     7
 10
-94.893743947215839
 20
-140.75441581312481
 30
0.0
 40
2.9999999999999911
  0
CIRCLE
  5
194
  8
DATA
  6
CONTINUOUS
 62
     7
 10
-104.2122669485933
 20
-137.8162967969553
 30
0.0
 40
2.9999999999999911
  0
CIRCLE
  5
195
  8
DATA
  6
CONTINUOUS
 62
     7
 10
-104.53371499498721
 20
-146.02877296436961
 30
0.0
 40
3.0000000000000182
  0
CIRCLE
  5
196
  8
DATA
  6
CONTINUOUS
 62
     7
 10
-105.1323163459568
 20
-154.19473276879569
 30
0.0
 40
3.0000000000000049
  0
CIRCLE
  5
197
  8
DATA
  6
CONTINUOUS
 62
     7
 10
-106.0065044944525
 20
-162.30701590715489
 30
0.0
 40
3.0000000000000049
  0
CIRCLE
  5
198
  8
DATA
  6
CONTINUOUS
 62
     7
 10
-107.1545476431279
 20
-170.35850329345169
 30
0.0
 40
3.0000000000000049
  0
CIRCLE
  5
199
  8
DATA
  6
CONTINUOUS
 62
     7
 10
-113.7514041009138
 20
-135.70152100431559
 30
0.0
 40
2.9999999999999911
  0
CIRCLE
  5
19A
  8
DATA
  6
CONTINUOUS
 62
     7
 10
-113.3558644800609
 20
-143.91076226315741
 30
0.0
 40
3.0000000000000049
  0
CIRCLE
  5
19B
  8
DATA
  6
CONTINUOUS
 62
     7
 10
-113.2404776814148
 20
-152.0978196715204
 30
0.0
 40
2.9999999999999911
  0
CIRCLE
  5
19C
  8
DATA
  6
CONTINUOUS
 62
     7
 10
-113.4043072178786
 20
-160.25542364007251
 30
0.0
 40
2.9999999999999911
  0
CIRCLE
  5
19D
  8
DATA
  6
CONTINUOUS
 62
     7
 10
-113.8462483514722
 20
-168.37633123906039
 30
0.0
 40
3.0000000000000049
  0
CIRCLE
  5
19E
  8
DATA
  6
CONTINUOUS
 62
     7
 10
-123.4385568117484
 20
-134.42618315562589
 30
0.0
 40
2.9999999999999911
  0
CIRCLE
  5
19F
  8
DATA
  6
CONTINUOUS
 62
     7
 10
-122.3290398197466
 20
-142.56971222364521
 30
0.0
 40
2.9999999999999911
  0
CIRCLE
  5
1A0
  8
DATA
  6
CONTINUOUS
 62
     7
 10
-121.50054303263509
 20
-150.71555878432741
 30
0.0
 40
2.9999999999999911
  0
CIRCLE
  5
1A1
  8
DATA
  6
CONTINUOUS
 62
     7
 10
-120.952767115366
 20
-158.8563992922237
 30
0.0
 40
2.9999999999999911
  0
CIRCLE
  5
1A2
  8
DATA
  6
CONTINUOUS
 62
     7
 10
-120.6852427960154
 20
-166.9849220942485
 30
0.0
 40
3.0000000000000182
  0
CIRCLE
  5
1A3
  8
DATA
  6
CONTINUOUS
 62
     7
 10
-129.84964831625419
 20
-150.05846994740631
 30
0.0
 40
3.0000000000000182
  0
CIRCLE
  5
1A4
  8
DATA
  6
CONTINUOUS
 62
     7
 10
-128.59443585029811
 20
-158.1205902832597
 30
0.0
 40
3.0000000000000182
  0
CIRCLE
  5
1A5
  8
DATA
  6
CONTINUOUS
 62
     7
 10
-127.61948210029389
 20
-166.194865320497
 30
0.0
 40
3.0000000000000049
  0
CIRCLE
  5
1A6
  8
DATA
  6
CONTINUOUS
 62
     7
 10
-108.0401228569517
 20
-234.91074487413539
 30
0.0
 40
3.0000000000000182
  0
CIRCLE
  5
1A7
  8
DATA
  6
CONTINUOUS
 62
     7
 10
-116.93081563585559
 20
-236.71957676331601
 30
0.0
 40
2.9999999999999911
  0
CIRCLE
  5
1A8
  8
DATA
  6
CONTINUOUS
 62
     7
 10
-125.94532672990159
 20
-237.74665056814089
 30
0.0
 40
2.9999999999999911
  0
CIRCLE
  5
1A9
  8
DATA
  6
CONTINUOUS
 62
     7
 10
-103.5343685398766
 20
-225.30141490540149
 30
0.0
 40
3.0000000000000049
  0
CIRCLE
  5
1AA
  8
DATA
  6
CONTINUOUS
 62
     7
 10
-111.6046987823425
 20
-227.53951556054409
 30
0.0
 40
3.0000000000000182
  0
CIRCLE
  5
1AB
  8
DATA
  6
CONTINUOUS
 62
     7
 10
-119.8393823075118
 20
-229.0657239405997
 30
0.0
 40
2.9999999999999911
  0
CIRCLE
  5
1AC
  8
DATA
  6
CONTINUOUS
 62
     7
 10
-128.1757482004721
 20
-229.86842467788409
 30
0.0
 40
2.9999999999999911
  0
CIRCLE
  5
1AD
  8
DATA
  6
CONTINUOUS
 62
     7
 10
-107.4712899841806
 20
-218.15480786623939
 30
0.0
 40
2.9999999999999911
  0
CIRCLE
  5
1AE
  8
DATA
  6
CONTINUOUS
 62
     7
 10
-114.90377120766919
 20
-220.0769782061663
 30
0.0
 40
2.9999999999999911
  0
CIRCLE
  5
1AF
  8
DATA
  6
CONTINUOUS
 62
     7
 10
-122.47549778013691
 20
-221.34405068625281
 30
0.0
 40
2.9999999999999911
  0
CIRCLE
  5
1B0
  8
DATA
  6
CONTINUOUS
 62
     7
 10
-130.1288442901751
 20
-221.9463821197069
 30
0.0
 40
2.9999999999999911
  0
CIRCLE
  5
1B1
  8
DATA
  6
CONTINUOUS
 62
     7
 10
-111.1490115344108
 20
-210.90092501614581
 30
0.0
 40
3.0000000000000049
  0
CIRCLE
  5
1B2
  8
DATA
  6
CONTINUOUS
 62
     7
 10
-117.9352803698802
 20
-212.5301640171644
 30
0.0
 40
2.9999999999999911
  0
CIRCLE
  5
1B3
  8
DATA
  6
CONTINUOUS
 62
     7
 10
-124.8377229386401
 20
-213.5617409713962
 30
0.0
 40
2.9999999999999911
  0
CIRCLE
  5
1B4
  8
DATA
  6
CONTINUOUS
 62
     7
 10
-131.80380748446061
 20
-213.98780495436691
 30
0.0
 40
2.999999999999964
  0
LINE
  5
1B5
  8
DATA
  6
CONTINUOUS
 62
     7
 10
-175.01887621881519
 20
-110.27325640969021
 30
0.0
 11
-86.199999999668407
 21
-126.6279587000801
 31
0.0
  0
LINE
  5
1B6
  8
DATA
  6
CONTINUOUS
 62
     7
 10
-158.2000003695527
 20
-261.5302783015041
 30
0.0
 11
-105.4357645220914
 21
-256.91400582530378
 31
0.0
  0
LINE
  5
1B7
  8
DATA
  6
CONTINUOUS
 62
     7
 10
-86.199999999985351
 20
-253.3720199831188
 30
0.0
 11
-86.199999999668407
 21
-126.6279587000801
 31
0.0
  0
LINE
  5
1B8
  8
DATA
  6
CONTINUOUS
 62
     7
 10
-105.4357645220914
 20
-256.91400582530378
 30
0.0
 11
-86.199999999985351
 21
-253.3720199831188
 31
0.0
  0
ARC
  5
1B9
  8
DATA
  6
CONTINUOUS
 62
     7
 10
-131.38494972991191
 20
-142.01582904518031
 30
0.0
 40
3.0000000000000862
 50
148.68950965800121
 51
56.827501513000954
  0
CIRCLE
  5
1BA
  8
DATA
  6
CONTINUOUS
 62
     7
 10
-94.893743947525138
 20
-239.2455628700219
 30
0.0
 40
3.0000000000000102
  0
CIRCLE
  5
1BB
  8
DATA
  6
CONTINUOUS
 62
     7
 10
-99.340911936097655
 20
-232.33392120391699
 30
0.0
 40
3.0000000000000102
  0
ARC
  5
1BC
  8
DATA
  6
CONTINUOUS
 62
     7
 10
-161.19999993050911
 20
-133.1540336421632
 30
0.0
 40
9.9999999999999503
 50
287.4576004867256
 51
97.268332529956751
  0
ENDBLK
  5
1BD
  8
DATA
  0
BLOCK
  8
DATA
  2
*U9
 70
     1
 10
0.0
 20
0.0
 30
0.0
  3
*U9
  1

  0
ARC
  5
1BF
  8
DATA
  6
CONTINUOUS
 62
     7
 10
-269.27339638458199
 20
849.0260662898753
 30
0.0
 40
19.48892053753924
 50
280.46894050261369
 51
299.31230421675019
  0
LINE
  5
1C0
  8
DATA
  6
CONTINUOUS
 62
     7
 10
-404.27637457800017
 20
863.59999999999968
 30
0.0
 11
-404.27637457800017
 21
456.40000000000032
 31
0.0
  0
LINE
  5
1C1
  8
DATA
  6
CONTINUOUS
 62
     7
 10
-366.02941693201041
 20
888.59999999999968
 30
0.0
 11
-366.02941693201041
 21
431.39999999999992
 31
0.0
  0
LINE
  5
1C2
  8
DATA
  6
CONTINUOUS
 62
     7
 10
-143.9863978286165
 20
840.01426966023257
 30
0.0
 11
-143.98639782861619
 21
677.00000000000045
 31
0.0
  0
LINE
  5
1C3
  8
DATA
  6
CONTINUOUS
 62
     7
 10
-143.98639782861619
 20
675.00000000000057
 30
0.0
 11
-143.98639782861611
 21
645.00000000000045
 31
0.0
  0
LINE
  5
1C4
  8
DATA
  6
CONTINUOUS
 62
     7
 10
-143.98639782861611
 20
643.00000000000045
 30
0.0
 11
-143.98639782861579
 21
480.00656232891441
 31
0.0
  0
ARC
  5
1C5
  8
DATA
  6
CONTINUOUS
 62
     7
 10
-346.2365330567082
 20
601.26268358146785
 30
0.0
 40
8.5000000000688676
 50
331.92751306453698
 51
28.072486935862688
  0
LINE
  5
1C6
  8
DATA
  6
CONTINUOUS
 62
     7
 10
-338.73653305664823
 20
605.26268358150105
 30
0.0
 11
-338.73653305664777
 21
597.26268358150105
 31
0.0
  0
LINE
  5
1C7
  8
DATA
  6
CONTINUOUS
 62
     7
 10
-340.736533056648
 20
608.26268358150139
 30
0.0
 11
-340.73653305664777
 21
594.26268358150105
 31
0.0
  0
LINE
  5
1C8
  8
DATA
  6
CONTINUOUS
 62
     7
 10
-201.12098605527771
 20
711.01979646124084
 30
0.0
 11
-201.12098605527771
 21
609.01979646124187
 31
0.0
  0
LINE
  5
1C9
  8
DATA
  6
CONTINUOUS
 62
     7
 10
-146.9107933381589
 20
711.01979646124084
 30
0.0
 11
-146.9107933381587
 21
677.00000000000045
 31
0.0
  0
LINE
  5
1CA
  8
DATA
  6
CONTINUOUS
 62
     7
 10
-146.9107933381587
 20
675.00000000000057
 30
0.0
 11
-146.91079333815861
 21
645.00000000000045
 31
0.0
  0
LINE
  5
1CB
  8
DATA
  6
CONTINUOUS
 62
     7
 10
-146.91079333815861
 20
643.00000000000045
 30
0.0
 11
-146.91079333815841
 21
609.01979646124187
 31
0.0
  0
LINE
  5
1CC
  8
DATA
  6
CONTINUOUS
 62
     7
 10
-238.7170024462088
 20
711.01979646124084
 30
0.0
 11
-238.7170024462088
 21
609.01979646124187
 31
0.0
  0
LINE
  5
1CD
  8
DATA
  6
CONTINUOUS
 62
     7
 10
-225.0831478853184
 20
711.01979646124084
 30
0.0
 11
-225.08314788531871
 21
675.94379646124105
 31
0.0
  0
LINE
  5
1CE
  8
DATA
  6
CONTINUOUS
 62
     7
 10
-238.7170024462088
 20
711.01979646124084
 30
0.0
 11
-143.98639782861579
 21
711.01979646124084
 31
0.0
  0
LINE
  5
1CF
  8
DATA
  6
CONTINUOUS
 62
     7
 10
-143.9863978286163
 20
714.01979646124096
 30
0.0
 11
-238.7170024462088
 21
711.01979646124084
 31
0.0
  0
LINE
  5
1D0
  8
DATA
  6
CONTINUOUS
 62
     7
 10
-149.55441789499639
 20
845.97786691178635
 30
0.0
 11
-301.24685276352608
 21
856.92763092593702
 31
0.0
  0
ARC
  5
1D1
  8
DATA
  6
CONTINUOUS
 62
     7
 10
-384.27637457800017
 20
863.59999999999968
 30
0.0
 40
20.000000000000082
 50
102.5358800697759
 51
180.0
  0
LINE
  5
1D2
  8
DATA
  6
CONTINUOUS
 62
     7
 10
-366.02941693201041
 20
888.59999999999968
 30
0.0
 11
-388.61739363341979
 21
883.12320551447681
 31
0.0
  0
ARC
  5
1D3
  8
DATA
  6
CONTINUOUS
 62
     7
 10
-346.2365330567082
 20
718.7626835814674
 30
0.0
 40
8.5000000000686526
 50
331.92751306453982
 51
28.072486935862688
  0
LINE
  5
1D4
  8
DATA
  6
CONTINUOUS
 62
     7
 10
-338.73653305664823
 20
722.76268358150185
 30
0.0
 11
-338.73653305664777
 21
714.76268358150105
 31
0.0
  0
LINE
  5
1D5
  8
DATA
  6
CONTINUOUS
 62
     7
 10
-340.73653305664777
 20
714.76268358150105
 30
0.0
 11
-338.73653305664777
 21
714.76268358150105
 31
0.0
  0
LINE
  5
1D6
  8
DATA
  6
CONTINUOUS
 62
     7
 10
-340.73653305664777
 20
722.76268358150105
 30
0.0
 11
-338.73653305664777
 21
722.76268358150105
 31
0.0
  0
LINE
  5
1D7
  8
DATA
  6
CONTINUOUS
 62
     7
 10
-340.736533056648
 20
725.76268358150105
 30
0.0
 11
-340.73653305664777
 21
711.76268358150207
 31
0.0
  0
ARC
  5
1D8
  8
DATA
  6
CONTINUOUS
 62
     7
 10
-346.2365330567082
 20
836.2626835814674
 30
0.0
 40
8.5000000000688676
 50
331.92751306453698
 51
28.072486935862688
  0
LINE
  5
1D9
  8
DATA
  6
CONTINUOUS
 62
     7
 10
-338.73653305664823
 20
840.26268358150151
 30
0.0
 11
-338.73653305664777
 21
832.26268358150151
 31
0.0
  0
LINE
  5
1DA
  8
DATA
  6
CONTINUOUS
 62
     7
 10
-340.73653305664777
 20
832.26268358150151
 30
0.0
 11
-338.73653305664777
 21
832.26268358150151
 31
0.0
  0
LINE
  5
1DB
  8
DATA
  6
CONTINUOUS
 62
     7
 10
-340.73653305664777
 20
840.26268358150151
 30
0.0
 11
-338.73653305664777
 21
840.26268358150151
 31
0.0
  0
LINE
  5
1DC
  8
DATA
  6
CONTINUOUS
 62
     7
 10
-340.736533056648
 20
843.26268358150185
 30
0.0
 11
-340.73653305664777
 21
829.26268358150151
 31
0.0
  0
LINE
  5
1DD
  8
DATA
  6
CONTINUOUS
 62
     7
 10
-340.736533056648
 20
843.26268358150185
 30
0.0
 11
-271.7365330566484
 21
843.26268358150185
 31
0.0
  0
LINE
  5
1DE
  8
DATA
  6
CONTINUOUS
 62
     7
 10
-340.73653305664823
 20
829.26268358150151
 30
0.0
 11
-271.7365330566484
 21
829.26268358150151
 31
0.0
  0
LINE
  5
1DF
  8
DATA
  6
CONTINUOUS
 62
     7
 10
-340.736533056648
 20
725.76268358150105
 30
0.0
 11
-271.7365330566484
 21
725.76268358150105
 31
0.0
  0
LINE
  5
1E0
  8
DATA
  6
CONTINUOUS
 62
     7
 10
-340.73653305664823
 20
711.76268358150207
 30
0.0
 11
-271.7365330566484
 21
711.76268358150207
 31
0.0
  0
ARC
  5
1E1
  8
DATA
  6
CONTINUOUS
 62
     7
 10
-301.10285945231959
 20
858.92244067283639
 30
0.0
 40
1.999999999999819
 50
217.62060343384999
 51
265.87132339717618
  0
LINE
  5
1E2
  8
DATA
  6
CONTINUOUS
 62
     7
 10
-323.595189027544
 20
883.83210922421711
 30
0.0
 11
-366.02941693201001
 21
888.59999999999968
 31
0.0
  0
LINE
  5
1E3
  8
DATA
  6
CONTINUOUS
 62
     7
 10
-302.68699982292208
 20
857.70158061278585
 30
0.0
 11
-322.23436254730478
 21
883.06547566003383
 31
0.0
  0
ARC
  5
1E4
  8
DATA
  6
CONTINUOUS
 62
     7
 10
-323.81850291790732
 20
881.84461559998351
 30
0.0
 40
1.999999999999819
 50
37.620603433849958
 51
83.589159979765654
  0
ARC
  5
1E5
  8
DATA
  6
CONTINUOUS
 62
     7
 10
-149.9863978286167
 20
840.01426966023257
 30
0.0
 40
6.0
 50
0.0
 51
85.871323397178713
  0
LINE
  5
1E6
  8
DATA
  6
CONTINUOUS
 62
     7
 10
-238.71700244620919
 20
676.76979646124175
 30
0.0
 11
-233.71700244620899
 21
676.76979646124175
 31
0.0
  0
LINE
  5
1E7
  8
DATA
  6
CONTINUOUS
 62
     7
 10
-238.7170024462088
 20
609.01979646124187
 30
0.0
 11
-143.98639782861579
 21
609.01979646124187
 31
0.0
  0
LINE
  5
1E8
  8
DATA
  6
CONTINUOUS
 62
     7
 10
-238.7170024462088
 20
609.01979646124187
 30
0.0
 11
-143.9863978286163
 21
606.01979646124175
 31
0.0
  0
LINE
  5
1E9
  8
DATA
  6
CONTINUOUS
 62
     7
 10
-238.71700244620919
 20
643.26979646124175
 30
0.0
 11
-233.71700244620899
 21
643.26979646124175
 31
0.0
  0
LINE
  5
1EA
  8
DATA
  6
CONTINUOUS
 62
     7
 10
-340.73653305664777
 20
605.26268358150105
 30
0.0
 11
-338.73653305664777
 21
605.26268358150105
 31
0.0
  0
LINE
  5
1EB
  8
DATA
  6
CONTINUOUS
 62
     7
 10
-340.736533056648
 20
608.26268358150139
 30
0.0
 11
-271.7365330566484
 21
608.26268358150139
 31
0.0
  0
LINE
  5
1EC
  8
DATA
  6
CONTINUOUS
 62
     7
 10
-233.7170024462088
 20
676.9177964612411
 30
0.0
 11
-233.71700244620919
 21
643.1217964612415
 31
0.0
  0
LINE
  5
1ED
  8
DATA
  6
CONTINUOUS
 62
     7
 10
-216.21700244620899
 20
657.14779646124111
 30
0.0
 11
-216.21700244620899
 21
643.94779646124175
 31
0.0
  0
LINE
  5
1EE
  8
DATA
  6
CONTINUOUS
 62
     7
 10
-225.71700244620899
 20
657.97379646124114
 30
0.0
 11
-225.71700244620919
 21
643.1217964612415
 31
0.0
  0
LINE
  5
1EF
  8
DATA
  6
CONTINUOUS
 62
     7
 10
-225.08314788531871
 20
662.74379646124157
 30
0.0
 11
-225.08314788531871
 21
657.14779646124111
 31
0.0
  0
LINE
  5
1F0
  8
DATA
  6
CONTINUOUS
 62
     7
 10
-225.71700244620919
 20
657.14779646124111
 30
0.0
 11
-216.21700244620851
 21
657.14779646124111
 31
0.0
  0
LINE
  5
1F1
  8
DATA
  6
CONTINUOUS
 62
     7
 10
-225.71700244620899
 20
653.84779646124139
 30
0.0
 11
-216.21700244620899
 21
653.84779646124139
 31
0.0
  0
LINE
  5
1F2
  8
DATA
  6
CONTINUOUS
 62
     7
 10
-233.71700244620899
 20
658.12179646124116
 30
0.0
 11
-225.7170024462088
 21
658.12179646124116
 31
0.0
  0
LINE
  5
1F3
  8
DATA
  6
CONTINUOUS
 62
     7
 10
-216.21700244620899
 20
675.94379646124105
 30
0.0
 11
-216.21700244620899
 21
662.74379646124157
 31
0.0
  0
LINE
  5
1F4
  8
DATA
  6
CONTINUOUS
 62
     7
 10
-216.21700244620899
 20
662.74379646124157
 30
0.0
 11
-225.71700244620919
 21
662.74379646124157
 31
0.0
  0
LINE
  5
1F5
  8
DATA
  6
CONTINUOUS
 62
     7
 10
-225.71700244620919
 20
675.94379646124105
 30
0.0
 11
-216.21700244620851
 21
675.94379646124105
 31
0.0
  0
LINE
  5
1F6
  8
DATA
  6
CONTINUOUS
 62
     7
 10
-225.71700244620939
 20
666.04379646124085
 30
0.0
 11
-216.2170024462088
 21
666.04379646124085
 31
0.0
  0
LINE
  5
1F7
  8
DATA
  6
CONTINUOUS
 62
     7
 10
-225.71700244620899
 20
672.64379646124155
 30
0.0
 11
-216.21700244620899
 21
672.64379646124155
 31
0.0
  0
LINE
  5
1F8
  8
DATA
  6
CONTINUOUS
 62
     7
 10
-233.71700244620899
 20
661.91779646124166
 30
0.0
 11
-225.71700244620919
 21
661.91779646124166
 31
0.0
  0
LINE
  5
1F9
  8
DATA
  6
CONTINUOUS
 62
     7
 10
-225.71700244620899
 20
676.76979646124084
 30
0.0
 11
-225.71700244620919
 21
661.91779646124166
 31
0.0
  0
LINE
  5
1FA
  8
DATA
  6
CONTINUOUS
 62
     7
 10
-233.71700244620899
 20
676.9177964612411
 30
0.0
 11
-225.7170024462088
 21
676.9177964612411
 31
0.0
  0
LINE
  5
1FB
  8
DATA
  6
CONTINUOUS
 62
     7
 10
-225.08314788531871
 20
643.94779646124175
 30
0.0
 11
-225.0831478853184
 21
609.01979646124187
 31
0.0
  0
LINE
  5
1FC
  8
DATA
  6
CONTINUOUS
 62
     7
 10
-216.21700244620899
 20
643.94779646124175
 30
0.0
 11
-225.71700244620919
 21
643.94779646124175
 31
0.0
  0
LINE
  5
1FD
  8
DATA
  6
CONTINUOUS
 62
     7
 10
-225.71700244620939
 20
647.24779646124091
 30
0.0
 11
-216.2170024462088
 21
647.24779646124091
 31
0.0
  0
LINE
  5
1FE
  8
DATA
  6
CONTINUOUS
 62
     7
 10
-233.71700244620899
 20
643.1217964612415
 30
0.0
 11
-225.71700244620919
 21
643.1217964612415
 31
0.0
  0
LINE
  5
1FF
  8
DATA
  6
CONTINUOUS
 62
     7
 10
-149.55441789499639
 20
474.02213308821382
 30
0.0
 11
-301.24685276352608
 21
463.07236907406298
 31
0.0
  0
ARC
  5
200
  8
DATA
  6
CONTINUOUS
 62
     7
 10
-384.27637457800017
 20
456.40000000000032
 30
0.0
 40
20.0
 50
180.0
 51
257.46411993022213
  0
LINE
  5
201
  8
DATA
  6
CONTINUOUS
 62
     7
 10
-388.61739363342019
 20
436.87679448552421
 30
0.0
 11
-366.02941693201041
 21
431.39999999999992
 31
0.0
  0
LINE
  5
202
  8
DATA
  6
CONTINUOUS
 62
     7
 10
-340.73653305664823
 20
476.76268358150139
 30
0.0
 11
-271.7365330566484
 21
476.76268358150139
 31
0.0
  0
ARC
  5
203
  8
DATA
  6
CONTINUOUS
 62
     7
 10
-346.2365330567082
 20
483.7626835814682
 30
0.0
 40
8.5000000000688676
 50
331.92751306453698
 51
28.072486935862688
  0
LINE
  5
204
  8
DATA
  6
CONTINUOUS
 62
     7
 10
-338.73653305664823
 20
487.76268358150139
 30
0.0
 11
-338.73653305664777
 21
479.76268358150139
 31
0.0
  0
LINE
  5
205
  8
DATA
  6
CONTINUOUS
 62
     7
 10
-340.73653305664777
 20
479.76268358150139
 30
0.0
 11
-338.73653305664777
 21
479.76268358150139
 31
0.0
  0
LINE
  5
206
  8
DATA
  6
CONTINUOUS
 62
     7
 10
-340.73653305664777
 20
487.76268358150139
 30
0.0
 11
-338.73653305664777
 21
487.76268358150139
 31
0.0
  0
LINE
  5
207
  8
DATA
  6
CONTINUOUS
 62
     7
 10
-340.736533056648
 20
490.76268358150202
 30
0.0
 11
-340.73653305664777
 21
476.76268358150139
 31
0.0
  0
LINE
  5
208
  8
DATA
  6
CONTINUOUS
 62
     7
 10
-340.73653305664777
 20
597.26268358150105
 30
0.0
 11
-338.73653305664777
 21
597.26268358150105
 31
0.0
  0
LINE
  5
209
  8
DATA
  6
CONTINUOUS
 62
     7
 10
-340.736533056648
 20
490.76268358150202
 30
0.0
 11
-271.7365330566484
 21
490.76268358150202
 31
0.0
  0
LINE
  5
20A
  8
DATA
  6
CONTINUOUS
 62
     7
 10
-340.73653305664823
 20
594.26268358150105
 30
0.0
 11
-271.7365330566484
 21
594.26268358150105
 31
0.0
  0
ARC
  5
20B
  8
DATA
  6
CONTINUOUS
 62
     7
 10
-301.10285945231959
 20
461.07755932716339
 30
0.0
 40
1.9999999999999081
 50
94.128676602823774
 51
142.37939656613969
  0
LINE
  5
20C
  8
DATA
  6
CONTINUOUS
 62
     7
 10
-323.59518902754422
 20
436.16789077578312
 30
0.0
 11
-366.02941693201001
 21
431.39999999999992
 31
0.0
  0
LINE
  5
20D
  8
DATA
  6
CONTINUOUS
 62
     7
 10
-302.6869998229223
 20
462.29841938721421
 30
0.0
 11
-322.23436254730512
 21
436.93452433996589
 31
0.0
  0
ARC
  5
20E
  8
DATA
  6
CONTINUOUS
 62
     7
 10
-323.81850291790749
 20
438.1553844000166
 30
0.0
 40
2.0000000000000608
 50
276.41084002023439
 51
322.37939656614998
  0
ARC
  5
20F
  8
DATA
  6
CONTINUOUS
 62
     7
 10
-149.98639782861611
 20
480.00656232891441
 30
0.0
 40
6.0000000000001608
 50
274.1286766028212
 51
0.0
  0
ARC
  5
210
  8
DATA
  6
CONTINUOUS
 62
     7
 10
-262.22244312263018
 20
836.97238393112229
 30
0.0
 40
5.5321278855154796
 50
296.75266650194487
 51
352.60135540982827
  0
ARC
  5
211
  8
DATA
  6
CONTINUOUS
 62
     7
 10
-272.62484457541387
 20
868.62599894576954
 30
0.0
 40
39.372446903527958
 50
271.29909411885808
 51
280.08228712371232
  0
ARC
  5
212
  8
DATA
  6
CONTINUOUS
 62
     7
 10
-269.27339638458199
 20
823.49393371012445
 30
0.0
 40
19.488920537539329
 50
60.687695783250113
 51
79.531059497386337
  0
ARC
  5
213
  8
DATA
  6
CONTINUOUS
 62
     7
 10
-262.22244312263018
 20
835.54761606887769
 30
0.0
 40
5.5321278855156084
 50
7.3986445901763691
 51
63.247333498056072
  0
ARC
  5
214
  8
DATA
  6
CONTINUOUS
 62
     7
 10
-272.62484457541387
 20
803.89400105423101
 30
0.0
 40
39.372446903527738
 50
79.917712876287624
 51
88.700905881141864
  0
ARC
  5
215
  8
DATA
  6
CONTINUOUS
 62
     7
 10
-269.27339638458199
 20
731.5260662898753
 30
0.0
 40
19.48892053753924
 50
280.46894050261369
 51
299.31230421675019
  0
ARC
  5
216
  8
DATA
  6
CONTINUOUS
 62
     7
 10
-262.22244312263018
 20
719.47238393112229
 30
0.0
 40
5.5321278855154796
 50
296.75266650194487
 51
352.60135540982827
  0
ARC
  5
217
  8
DATA
  6
CONTINUOUS
 62
     7
 10
-272.62484457541387
 20
751.12599894576954
 30
0.0
 40
39.372446903527958
 50
271.29909411885808
 51
280.08228712371232
  0
ARC
  5
218
  8
DATA
  6
CONTINUOUS
 62
     7
 10
-269.27339638458199
 20
705.99393371012445
 30
0.0
 40
19.488920537539329
 50
60.687695783250113
 51
79.531059497386337
  0
ARC
  5
219
  8
DATA
  6
CONTINUOUS
 62
     7
 10
-262.22244312263018
 20
718.04761606887746
 30
0.0
 40
5.5321278855156084
 50
7.3986445901763691
 51
63.247333498056072
  0
ARC
  5
21A
  8
DATA
  6
CONTINUOUS
 62
     7
 10
-272.62484457541387
 20
686.39400105423101
 30
0.0
 40
39.372446903527738
 50
79.917712876287624
 51
88.700905881141864
  0
ARC
  5
21B
  8
DATA
  6
CONTINUOUS
 62
     7
 10
-269.27339638458199
 20
614.02606628987542
 30
0.0
 40
19.48892053753924
 50
280.46894050261369
 51
299.31230421675019
  0
ARC
  5
21C
  8
DATA
  6
CONTINUOUS
 62
     7
 10
-262.22244312263018
 20
601.97238393112241
 30
0.0
 40
5.5321278855154796
 50
296.75266650194487
 51
352.60135540982827
  0
ARC
  5
21D
  8
DATA
  6
CONTINUOUS
 62
     7
 10
-272.62484457541387
 20
633.62599894576954
 30
0.0
 40
39.372446903527958
 50
271.29909411885808
 51
280.08228712371232
  0
ARC
  5
21E
  8
DATA
  6
CONTINUOUS
 62
     7
 10
-269.27339638458199
 20
588.49393371012445
 30
0.0
 40
19.488920537539329
 50
60.687695783250113
 51
79.531059497386337
  0
ARC
  5
21F
  8
DATA
  6
CONTINUOUS
 62
     7
 10
-262.22244312263018
 20
600.54761606887757
 30
0.0
 40
5.5321278855156084
 50
7.3986445901763691
 51
63.247333498056072
  0
ARC
  5
220
  8
DATA
  6
CONTINUOUS
 62
     7
 10
-272.62484457541387
 20
568.8940010542309
 30
0.0
 40
39.372446903527738
 50
79.917712876287624
 51
88.700905881141864
  0
ARC
  5
221
  8
DATA
  6
CONTINUOUS
 62
     7
 10
-269.27339638458199
 20
496.52606628987542
 30
0.0
 40
19.48892053753924
 50
280.46894050261369
 51
299.31230421675019
  0
ARC
  5
222
  8
DATA
  6
CONTINUOUS
 62
     7
 10
-262.22244312263018
 20
484.47238393112229
 30
0.0
 40
5.5321278855154796
 50
296.75266650194487
 51
352.60135540982827
  0
ARC
  5
223
  8
DATA
  6
CONTINUOUS
 62
     7
 10
-272.62484457541387
 20
516.12599894576942
 30
0.0
 40
39.372446903527958
 50
271.29909411885808
 51
280.08228712371232
  0
ARC
  5
224
  8
DATA
  6
CONTINUOUS
 62
     7
 10
-269.27339638458199
 20
470.99393371012451
 30
0.0
 40
19.488920537539329
 50
60.687695783250113
 51
79.531059497386337
  0
ARC
  5
225
  8
DATA
  6
CONTINUOUS
 62
     7
 10
-262.22244312263018
 20
483.04761606887769
 30
0.0
 40
5.5321278855156084
 50
7.3986445901763691
 51
63.247333498056072
  0
ARC
  5
226
  8
DATA
  6
CONTINUOUS
 62
     7
 10
-272.62484457541387
 20
451.3940010542309
 30
0.0
 40
39.372446903527738
 50
79.917712876287624
 51
88.700905881141864
  0
ENDBLK
  5
227
  8
DATA
  0
BLOCK
  8
DATA
  2
*U10
 70
     1
 10
0.0
 20
0.0
 30
0.0
  3
*U10
  1

  0
LINE
  5
229
  8
DATA
  6
CONTINUOUS
 62
     7
 10
-204.6263745680001
 20
710.00000000000045
 30
0.0
 11
-201.02637456799999
 21
710.00000000000045
 31
0.0
  0
LINE
  5
22A
  8
DATA
  6
CONTINUOUS
 62
     7
 10
-204.6263745680001
 20
610.00000000000045
 30
0.0
 11
-201.02637456799999
 21
610.00000000000045
 31
0.0
  0
LINE
  5
22B
  8
DATA
  6
CONTINUOUS
 62
     7
 10
-203.02637456799999
 20
710.00000000000045
 30
0.0
 11
-203.02637456799999
 21
610.00000000000045
 31
0.0
  0
LINE
  5
22C
  8
DATA
  6
CONTINUOUS
 62
     7
 10
-204.6263745680001
 20
710.00000000000045
 30
0.0
 11
-204.6263745680001
 21
610.00000000000045
 31
0.0
  0
ARC
  5
22D
  8
DATA
  6
CONTINUOUS
 62
     7
 10
-199.02637456799991
 20
641.00000000000045
 30
0.0
 40
4.0
 50
90.0
 51
180.0
  0
LINE
  5
22E
  8
DATA
  6
CONTINUOUS
 62
     7
 10
-201.02637456799999
 20
641.00000000000045
 30
0.0
 11
-201.02637456799999
 21
610.00000000000045
 31
0.0
  0
ARC
  5
22F
  8
DATA
  6
CONTINUOUS
 62
     7
 10
-199.02637456799991
 20
641.00000000000045
 30
0.0
 40
2.0
 50
90.0
 51
180.0
  0
LINE
  5
230
  8
DATA
  6
CONTINUOUS
 62
     7
 10
-201.02637456799999
 20
679.00000000000057
 30
0.0
 11
-201.02637456799999
 21
710.00000000000045
 31
0.0
  0
ARC
  5
231
  8
DATA
  6
CONTINUOUS
 62
     7
 10
-199.02637456799991
 20
679.00000000000057
 30
0.0
 40
2.0
 50
180.0
 51
270.0
  0
ARC
  5
232
  8
DATA
  6
CONTINUOUS
 62
     7
 10
-199.02637456799991
 20
679.00000000000057
 30
0.0
 40
4.0
 50
180.0
 51
270.0
  0
LINE
  5
233
  8
DATA
  6
CONTINUOUS
 62
     7
 10
-199.02637456799991
 20
677.00000000000045
 30
0.0
 11
-136.85831213200001
 21
677.00000000000045
 31
0.0
  0
LINE
  5
234
  8
DATA
  6
CONTINUOUS
 62
     7
 10
-199.02637456799991
 20
675.00000000000057
 30
0.0
 11
-138.1580396280001
 21
675.00000000000057
 31
0.0
  0
LINE
  5
235
  8
DATA
  6
CONTINUOUS
 62
     7
 10
-199.02637456799991
 20
645.00000000000045
 30
0.0
 11
-138.1580396280001
 21
645.00000000000045
 31
0.0
  0
LINE
  5
236
  8
DATA
  6
CONTINUOUS
 62
     7
 10
-199.02637456799991
 20
643.00000000000045
 30
0.0
 11
-136.85831213200001
 21
643.00000000000045
 31
0.0
  0
LINE
  5
237
  8
DATA
  6
CONTINUOUS
 62
     7
 10
-51.999999999999993
 20
732.50000000000034
 30
0.0
 11
-51.999999999999993
 21
587.50000000000057
 31
0.0
  0
LINE
  5
238
  8
DATA
  6
CONTINUOUS
 62
     7
 10
-50.0
 20
732.50000000000034
 30
0.0
 11
-50.0
 21
587.50000000000057
 31
0.0
  0
LINE
  5
239
  8
DATA
  6
CONTINUOUS
 62
     7
 10
-61.343638301000041
 20
621.41334964100042
 30
0.0
 11
-59.464253058999923
 21
622.09738992700045
 31
0.0
  0
LINE
  5
23A
  8
DATA
  6
CONTINUOUS
 62
     7
 10
-59.464253058999923
 20
622.09738992700045
 30
0.0
 11
-55.441229516999996
 21
611.0442235860005
 31
0.0
  0
ARC
  5
23B
  8
DATA
  6
CONTINUOUS
 62
     7
 10
-59.200000000000031
 20
609.67614301300046
 30
0.0
 40
4.0
 50
0.0
 51
20.000000000000629
  0
LINE
  5
23C
  8
DATA
  6
CONTINUOUS
 62
     7
 10
-55.200000000000031
 20
609.67614301300046
 30
0.0
 11
-55.200000000000031
 21
587.50000000000057
 31
0.0
  0
LINE
  5
23D
  8
DATA
  6
CONTINUOUS
 62
     7
 10
-52.100000000000108
 20
607.00000000000045
 30
0.0
 11
-55.200000000000031
 21
607.00000000000045
 31
0.0
  0
LINE
  5
23E
  8
DATA
  6
CONTINUOUS
 62
     7
 10
-50.0
 20
732.50000000000034
 30
0.0
 11
-57.200000000000031
 21
732.50000000000034
 31
0.0
  0
LINE
  5
23F
  8
DATA
  6
CONTINUOUS
 62
     7
 10
-61.343638301000041
 20
698.58665036000036
 30
0.0
 11
-59.464253058999923
 21
697.90261007300023
 31
0.0
  0
LINE
  5
240
  8
DATA
  6
CONTINUOUS
 62
     7
 10
-61.343638301000041
 20
698.58665036000036
 30
0.0
 11
-57.320614758000133
 21
709.6398167010002
 31
0.0
  0
LINE
  5
241
  8
DATA
  6
CONTINUOUS
 62
     7
 10
-57.200000000000031
 20
710.32385698800044
 30
0.0
 11
-57.200000000000031
 21
732.50000000000034
 31
0.0
  0
ARC
  5
242
  8
DATA
  6
CONTINUOUS
 62
     7
 10
-59.200000000000031
 20
710.32385698800044
 30
0.0
 40
1.99999999999998
 50
339.99999999999631
 51
0.0
  0
LINE
  5
243
  8
DATA
  6
CONTINUOUS
 62
     7
 10
-59.464253058999923
 20
697.90261007300023
 30
0.0
 11
-55.441229516999996
 21
708.9557764140003
 31
0.0
  0
ARC
  5
244
  8
DATA
  6
CONTINUOUS
 62
     7
 10
-59.200000000000031
 20
710.32385698800044
 30
0.0
 40
3.99999999999996
 50
339.99999999999631
 51
0.0
  0
LINE
  5
245
  8
DATA
  6
CONTINUOUS
 62
     7
 10
-55.200000000000031
 20
710.32385698800044
 30
0.0
 11
-55.200000000000031
 21
732.50000000000034
 31
0.0
  0
LINE
  5
246
  8
DATA
  6
CONTINUOUS
 62
     7
 10
-52.100000000000108
 20
713.00000000000045
 30
0.0
 11
-55.200000000000031
 21
713.00000000000045
 31
0.0
  0
LINE
  5
247
  8
DATA
  6
CONTINUOUS
 62
     7
 10
-61.343638301000041
 20
621.41334964100042
 30
0.0
 11
-57.320616491999992
 21
610.36018806400034
 31
0.0
  0
ARC
  5
248
  8
DATA
  6
CONTINUOUS
 62
     7
 10
-59.200000000000031
 20
609.67614301300046
 30
0.0
 40
2.0
 50
0.0001545499983582
 51
20.000145228998448
  0
LINE
  5
249
  8
DATA
  6
CONTINUOUS
 62
     7
 10
-57.200000000000031
 20
609.67614840800047
 30
0.0
 11
-57.200000000000031
 21
587.50000000000057
 31
0.0
  0
LINE
  5
24A
  8
DATA
  6
CONTINUOUS
 62
     7
 10
-61.343638301000041
 20
621.41334964100042
 30
0.0
 11
-61.343638301000041
 21
626.39867392700035
 31
0.0
  0
LINE
  5
24B
  8
DATA
  6
CONTINUOUS
 62
     7
 10
-59.464253058999923
 20
622.09738992700045
 30
0.0
 11
-59.464253058999923
 21
625.99072939200039
 31
0.0
  0
LINE
  5
24C
  8
DATA
  6
CONTINUOUS
 62
     7
 10
-55.200000000000031
 20
609.67614301300046
 30
0.0
 11
-55.200000000000031
 21
625.06511888300042
 31
0.0
  0
LINE
  5
24D
  8
DATA
  6
CONTINUOUS
 62
     7
 10
-61.343638301000041
 20
698.58665036000036
 30
0.0
 11
-61.343638301000041
 21
693.60132607400044
 31
0.0
  0
LINE
  5
24E
  8
DATA
  6
CONTINUOUS
 62
     7
 10
-59.464253058999923
 20
697.90261007300023
 30
0.0
 11
-59.464253058999923
 21
694.0092706090004
 31
0.0
  0
LINE
  5
24F
  8
DATA
  6
CONTINUOUS
 62
     7
 10
-55.200000000000031
 20
710.32385698800044
 30
0.0
 11
-55.200000000000031
 21
694.93488111700015
 31
0.0
  0
ARC
  5
250
  8
DATA
  6
CONTINUOUS
 62
     7
 10
-73.484270983999934
 20
597.50000000000045
 30
0.0
 40
10.0
 50
180.0
 51
270.00002993099997
  0
POLYLINE
  5
251
  8
DATA
  6
CONTINUOUS
 62
     7
 66
     1
 10
0.0
 20
0.0
 30
0.0
 70
   129
  0
VERTEX
  5
6DA
  8
DATA
  6
CONTINUOUS
 62
     7
 10
-69.342135360000142
 20
619.75000000000057
 30
0.0
  0
VERTEX
  5
6DB
  8
DATA
  6
CONTINUOUS
 62
     7
 10
-69.342135359999617
 20
619.75000000000057
 30
0.0
 42
0.0308289069999645
  0
VERTEX
  5
6DC
  8
DATA
  6
CONTINUOUS
 62
     7
 10
-69.958419527000146
 20
619.71194698100055
 30
0.0
  0
VERTEX
  5
6DD
  8
DATA
  6
CONTINUOUS
 62
     7
 10
-69.958419527000146
 20
619.71194698100055
 30
0.0
  0
VERTEX
  5
6DE
  8
DATA
  6
CONTINUOUS
 62
     7
 10
-69.958419527000146
 20
619.71194698100055
 30
0.0
 42
0.0304257970000748
  0
VERTEX
  5
6DF
  8
DATA
  6
CONTINUOUS
 62
     7
 10
-70.570013400000093
 20
619.59807753000041
 30
0.0
  0
VERTEX
  5
6E0
  8
DATA
  6
CONTINUOUS
 62
     7
 10
-70.570013400000093
 20
619.59807753000041
 30
0.0
  0
VERTEX
  5
6E1
  8
DATA
  6
CONTINUOUS
 62
     7
 10
-70.570013400000121
 20
619.59807753000041
 30
0.0
 42
0.0296077559998339
  0
VERTEX
  5
6E2
  8
DATA
  6
CONTINUOUS
 62
     7
 10
-71.172262379000131
 20
619.40925826300054
 30
0.0
  0
VERTEX
  5
6E3
  8
DATA
  6
CONTINUOUS
 62
     7
 10
-71.172262379000131
 20
619.40925826300054
 30
0.0
  0
VERTEX
  5
6E4
  8
DATA
  6
CONTINUOUS
 62
     7
 10
-71.172262378999974
 20
619.40925826300054
 30
0.0
 42
0.0284626549998566
  0
VERTEX
  5
6E5
  8
DATA
  6
CONTINUOUS
 62
     7
 10
-71.76058298700012
 20
619.14692620800042
 30
0.0
  0
VERTEX
  5
6E6
  8
DATA
  6
CONTINUOUS
 62
     7
 10
-71.76058298700012
 20
619.14692620800042
 30
0.0
  0
VERTEX
  5
6E7
  8
DATA
  6
CONTINUOUS
 62
     7
 10
-71.760582987003559
 20
619.14692620799872
 30
0.0
 42
0.0270987799996906
  0
VERTEX
  5
6E8
  8
DATA
  6
CONTINUOUS
 62
     7
 10
-72.330497748000184
 20
618.81307787100047
 30
0.0
  0
VERTEX
  5
6E9
  8
DATA
  6
CONTINUOUS
 62
     7
 10
-72.330497748000184
 20
618.81307787100047
 30
0.0
  0
VERTEX
  5
6EA
  8
DATA
  6
CONTINUOUS
 62
     7
 10
-72.330497748000184
 20
618.81307787100047
 30
0.0
 42
0.0256239269999956
  0
VERTEX
  5
6EB
  8
DATA
  6
CONTINUOUS
 62
     7
 10
-72.877669266000083
 20
618.4102540380004
 30
0.0
  0
VERTEX
  5
6EC
  8
DATA
  6
CONTINUOUS
 62
     7
 10
-72.877669266000083
 20
618.4102540380004
 30
0.0
  0
VERTEX
  5
6ED
  8
DATA
  6
CONTINUOUS
 62
     7
 10
-72.877669266000083
 20
618.4102540380004
 30
0.0
 42
0.0241305730001234
  0
VERTEX
  5
6EE
  8
DATA
  6
CONTINUOUS
 62
     7
 10
-73.397933236999947
 20
617.9415204430004
 30
0.0
  0
VERTEX
  5
6EF
  8
DATA
  6
CONTINUOUS
 62
     7
 10
-73.397933236999947
 20
617.9415204430004
 30
0.0
  0
VERTEX
  5
6F0
  8
DATA
  6
CONTINUOUS
 62
     7
 10
-73.397933237001979
 20
617.94152044299835
 30
0.0
 42
0.0226890189999028
  0
VERTEX
  5
6F1
  8
DATA
  6
CONTINUOUS
 62
     7
 10
-73.887330137000163
 20
617.41044443200053
 30
0.0
  0
VERTEX
  5
6F2
  8
DATA
  6
CONTINUOUS
 62
     7
 10
-73.887330137000163
 20
617.41044443200053
 30
0.0
  0
VERTEX
  5
6F3
  8
DATA
  6
CONTINUOUS
 62
     7
 10
-73.887330137002493
 20
617.41044443199758
 30
0.0
 42
0.0213470119998871
  0
VERTEX
  5
6F4
  8
DATA
  6
CONTINUOUS
 62
     7
 10
-74.342135360000142
 20
616.82106781200025
 30
0.0
  0
VERTEX
  5
6F5
  8
DATA
  6
CONTINUOUS
 62
     7
 10
-74.342135360000142
 20
616.82106781200025
 30
0.0
  0
VERTEX
  5
6F6
  8
DATA
  6
CONTINUOUS
 62
     7
 10
-74.342135360000142
 20
616.82106781200025
 30
0.0
 42
0.0201331389999666
  0
VERTEX
  5
6F7
  8
DATA
  6
CONTINUOUS
 62
     7
 10
-74.758887564000133
 20
616.17787609700054
 30
0.0
  0
VERTEX
  5
6F8
  8
DATA
  6
CONTINUOUS
 62
     7
 10
-74.758887564000133
 20
616.17787609700054
 30
0.0
  0
VERTEX
  5
6F9
  8
DATA
  6
CONTINUOUS
 62
     7
 10
-74.758887564000133
 20
616.17787609700054
 30
0.0
 42
0.0190615840000856
  0
VERTEX
  5
6FA
  8
DATA
  6
CONTINUOUS
 62
     7
 10
-75.134415014000041
 20
615.48576436400049
 30
0.0
  0
VERTEX
  5
6FB
  8
DATA
  6
CONTINUOUS
 62
     7
 10
-75.134415014000041
 20
615.48576436400049
 30
0.0
  0
VERTEX
  5
6FC
  8
DATA
  6
CONTINUOUS
 62
     7
 10
-75.134415014000041
 20
615.48576436400049
 30
0.0
 42
0.0181367480000534
  0
VERTEX
  5
6FD
  8
DATA
  6
CONTINUOUS
 62
     7
 10
-75.465859717000029
 20
614.75000000000057
 30
0.0
  0
VERTEX
  5
6FE
  8
DATA
  6
CONTINUOUS
 62
     7
 10
-75.465859717000029
 20
614.75000000000057
 30
0.0
  0
VERTEX
  5
6FF
  8
DATA
  6
CONTINUOUS
 62
     7
 10
-75.465859717000029
 20
614.75000000000057
 30
0.0
 42
0.017357047999984
  0
VERTEX
  5
700
  8
DATA
  6
CONTINUOUS
 62
     7
 10
-75.750699181000044
 20
613.97618261800039
 30
0.0
  0
VERTEX
  5
701
  8
DATA
  6
CONTINUOUS
 62
     7
 10
-75.750699181000044
 20
613.97618261800039
 30
0.0
  0
VERTEX
  5
702
  8
DATA
  6
CONTINUOUS
 62
     7
 10
-75.750699181000044
 20
613.97618261800039
 30
0.0
 42
0.0167177380001333
  0
VERTEX
  5
703
  8
DATA
  6
CONTINUOUS
 62
     7
 10
-75.98676560400007
 20
613.17020143400043
 30
0.0
  0
VERTEX
  5
704
  8
DATA
  6
CONTINUOUS
 62
     7
 10
-75.98676560400007
 20
613.17020143400043
 30
0.0
  0
VERTEX
  5
705
  8
DATA
  6
CONTINUOUS
 62
     7
 10
-75.98676560400007
 20
613.17020143400043
 30
0.0
 42
0.016212869000079
  0
VERTEX
  5
706
  8
DATA
  6
CONTINUOUS
 62
     7
 10
-76.172262379000117
 20
612.33819045100029
 30
0.0
  0
VERTEX
  5
707
  8
DATA
  6
CONTINUOUS
 62
     7
 10
-76.172262379000117
 20
612.33819045100029
 30
0.0
  0
VERTEX
  5
708
  8
DATA
  6
CONTINUOUS
 62
     7
 10
-76.172262379000301
 20
612.33819045099915
 30
0.0
 42
0.0158365749999555
  0
VERTEX
  5
709
  8
DATA
  6
CONTINUOUS
 62
     7
 10
-76.305777763000123
 20
611.48648177700034
 30
0.0
  0
VERTEX
  5
70A
  8
DATA
  6
CONTINUOUS
 62
     7
 10
-76.305777763000123
 20
611.48648177700034
 30
0.0
  0
VERTEX
  5
70B
  8
DATA
  6
CONTINUOUS
 62
     7
 10
-76.30577776300035
 20
611.4864817769984
 30
0.0
 42
0.0155838789999665
  0
VERTEX
  5
70C
  8
DATA
  6
CONTINUOUS
 62
     7
 10
-76.386295623999999
 20
610.62155742800041
 30
0.0
  0
VERTEX
  5
70D
  8
DATA
  6
CONTINUOUS
 62
     7
 10
-76.386295623999999
 20
610.62155742800041
 30
0.0
  0
VERTEX
  5
70E
  8
DATA
  6
CONTINUOUS
 62
     7
 10
-76.386295623999999
 20
610.62155742800041
 30
0.0
 42
0.0154511700000316
  0
VERTEX
  5
70F
  8
DATA
  6
CONTINUOUS
 62
     7
 10
-76.413203172000053
 20
609.75000000000045
 30
0.0
  0
VERTEX
  5
710
  8
DATA
  6
CONTINUOUS
 62
     7
 10
-76.413203172000053
 20
609.75000000000045
 30
0.0
  0
VERTEX
  5
711
  8
DATA
  6
CONTINUOUS
 62
     7
 10
-76.413203172000053
 20
609.75000000000045
 30
0.0
 42
0.0154364710000528
  0
VERTEX
  5
712
  8
DATA
  6
CONTINUOUS
 62
     7
 10
-76.386295623999999
 20
608.87844257300037
 30
0.0
  0
VERTEX
  5
713
  8
DATA
  6
CONTINUOUS
 62
     7
 10
-76.386295623999999
 20
608.87844257300037
 30
0.0
  0
VERTEX
  5
714
  8
DATA
  6
CONTINUOUS
 62
     7
 10
-76.386295623999743
 20
608.87844257299673
 30
0.0
 42
0.0155395599998669
  0
VERTEX
  5
715
  8
DATA
  6
CONTINUOUS
 62
     7
 10
-76.305777763000123
 20
608.01351822400045
 30
0.0
  0
VERTEX
  5
716
  8
DATA
  6
CONTINUOUS
 62
     7
 10
-76.305777763000123
 20
608.01351822400045
 30
0.0
  0
VERTEX
  5
717
  8
DATA
  6
CONTINUOUS
 62
     7
 10
-76.305777763000052
 20
608.01351822399965
 30
0.0
 42
0.0157619810000204
  0
VERTEX
  5
718
  8
DATA
  6
CONTINUOUS
 62
     7
 10
-76.172262379000117
 20
607.16180954900017
 30
0.0
  0
VERTEX
  5
719
  8
DATA
  6
CONTINUOUS
 62
     7
 10
-76.172262379000117
 20
607.16180954900017
 30
0.0
  0
VERTEX
  5
71A
  8
DATA
  6
CONTINUOUS
 62
     7
 10
-76.172262379000031
 20
607.16180954900005
 30
0.0
 42
0.0161069560000254
  0
VERTEX
  5
71B
  8
DATA
  6
CONTINUOUS
 62
     7
 10
-75.98676560400007
 20
606.32979856700035
 30
0.0
  0
VERTEX
  5
71C
  8
DATA
  6
CONTINUOUS
 62
     7
 10
-75.98676560400007
 20
606.32979856700035
 30
0.0
  0
VERTEX
  5
71D
  8
DATA
  6
CONTINUOUS
 62
     7
 10
-75.986765603999785
 20
606.32979856699933
 30
0.0
 42
0.0165791549998714
  0
VERTEX
  5
71E
  8
DATA
  6
CONTINUOUS
 62
     7
 10
-75.750699181000044
 20
605.52381738300051
 30
0.0
  0
VERTEX
  5
71F
  8
DATA
  6
CONTINUOUS
 62
     7
 10
-75.750699181000044
 20
605.52381738300051
 30
0.0
  0
VERTEX
  5
720
  8
DATA
  6
CONTINUOUS
 62
     7
 10
-75.750699180999447
 20
605.52381738299857
 30
0.0
 42
0.0171842829998935
  0
VERTEX
  5
721
  8
DATA
  6
CONTINUOUS
 62
     7
 10
-75.465859717000029
 20
604.75000000000045
 30
0.0
  0
VERTEX
  5
722
  8
DATA
  6
CONTINUOUS
 62
     7
 10
-75.465859717000029
 20
604.75000000000045
 30
0.0
  0
VERTEX
  5
723
  8
DATA
  6
CONTINUOUS
 62
     7
 10
-75.465859717000029
 20
604.75000000000045
 30
0.0
 42
0.0179283660000721
  0
VERTEX
  5
724
  8
DATA
  6
CONTINUOUS
 62
     7
 10
-75.134415014000041
 20
604.0142356370003
 30
0.0
  0
VERTEX
  5
725
  8
DATA
  6
CONTINUOUS
 62
     7
 10
-75.134415014000041
 20
604.0142356370003
 30
0.0
  0
VERTEX
  5
726
  8
DATA
  6
CONTINUOUS
 62
     7
 10
-75.134415014000041
 20
604.0142356370003
 30
0.0
 42
0.0188166050000531
  0
VERTEX
  5
727
  8
DATA
  6
CONTINUOUS
 62
     7
 10
-74.758887564000133
 20
603.32212390300026
 30
0.0
  0
VERTEX
  5
728
  8
DATA
  6
CONTINUOUS
 62
     7
 10
-74.758887564000133
 20
603.32212390300026
 30
0.0
  0
VERTEX
  5
729
  8
DATA
  6
CONTINUOUS
 62
     7
 10
-74.758887563999252
 20
603.32212390299878
 30
0.0
 42
0.0198516009999927
  0
VERTEX
  5
72A
  8
DATA
  6
CONTINUOUS
 62
     7
 10
-74.342135360000142
 20
602.67893218800054
 30
0.0
  0
VERTEX
  5
72B
  8
DATA
  6
CONTINUOUS
 62
     7
 10
-74.342135360000142
 20
602.67893218800054
 30
0.0
  0
VERTEX
  5
72C
  8
DATA
  6
CONTINUOUS
 62
     7
 10
-74.34213535999956
 20
602.67893218799975
 30
0.0
 42
0.0210307679999044
  0
VERTEX
  5
72D
  8
DATA
  6
CONTINUOUS
 62
     7
 10
-73.887330137000163
 20
602.08955556900025
 30
0.0
  0
VERTEX
  5
72E
  8
DATA
  6
CONTINUOUS
 62
     7
 10
-73.887330137000163
 20
602.08955556900025
 30
0.0
  0
VERTEX
  5
72F
  8
DATA
  6
CONTINUOUS
 62
     7
 10
-73.887330136998841
 20
602.08955556899855
 30
0.0
 42
0.0223427749997511
  0
VERTEX
  5
730
  8
DATA
  6
CONTINUOUS
 62
     7
 10
-73.397933236999947
 20
601.55847955700051
 30
0.0
  0
VERTEX
  5
731
  8
DATA
  6
CONTINUOUS
 62
     7
 10
-73.397933236999947
 20
601.55847955700051
 30
0.0
  0
VERTEX
  5
732
  8
DATA
  6
CONTINUOUS
 62
     7
 10
-73.397933236999947
 20
601.55847955700051
 30
0.0
 42
0.0237630950000782
  0
VERTEX
  5
733
  8
DATA
  6
CONTINUOUS
 62
     7
 10
-72.877669266000083
 20
601.0897459630005
 30
0.0
  0
VERTEX
  5
734
  8
DATA
  6
CONTINUOUS
 62
     7
 10
-72.877669266000083
 20
601.0897459630005
 30
0.0
  0
VERTEX
  5
735
  8
DATA
  6
CONTINUOUS
 62
     7
 10
-72.877669266000083
 20
601.0897459630005
 30
0.0
 42
0.0252491760000877
  0
VERTEX
  5
736
  8
DATA
  6
CONTINUOUS
 62
     7
 10
-72.330497748000184
 20
600.68692213000054
 30
0.0
  0
VERTEX
  5
737
  8
DATA
  6
CONTINUOUS
 62
     7
 10
-72.330497748000184
 20
600.68692213000054
 30
0.0
  0
VERTEX
  5
738
  8
DATA
  6
CONTINUOUS
 62
     7
 10
-72.330497748000184
 20
600.68692213000054
 30
0.0
 42
0.0267365170001907
  0
VERTEX
  5
739
  8
DATA
  6
CONTINUOUS
 62
     7
 10
-71.76058298700012
 20
600.35307379200037
 30
0.0
  0
VERTEX
  5
73A
  8
DATA
  6
CONTINUOUS
 62
     7
 10
-71.76058298700012
 20
600.35307379200037
 30
0.0
  0
VERTEX
  5
73B
  8
DATA
  6
CONTINUOUS
 62
     7
 10
-71.760582986998131
 20
600.35307379199935
 30
0.0
 42
0.0281378349999251
  0
VERTEX
  5
73C
  8
DATA
  6
CONTINUOUS
 62
     7
 10
-71.172262379000131
 20
600.09074173700037
 30
0.0
  0
VERTEX
  5
73D
  8
DATA
  6
CONTINUOUS
 62
     7
 10
-71.172262379000131
 20
600.09074173700037
 30
0.0
  0
VERTEX
  5
73E
  8
DATA
  6
CONTINUOUS
 62
     7
 10
-71.172262378998497
 20
600.09074173699958
 30
0.0
 42
0.0293480879998126
  0
VERTEX
  5
73F
  8
DATA
  6
CONTINUOUS
 62
     7
 10
-70.570013400000093
 20
599.90192247000039
 30
0.0
  0
VERTEX
  5
740
  8
DATA
  6
CONTINUOUS
 62
     7
 10
-70.570013400000093
 20
599.90192247000039
 30
0.0
  0
VERTEX
  5
741
  8
DATA
  6
CONTINUOUS
 62
     7
 10
-70.570013399999738
 20
599.90192247000039
 30
0.0
 42
0.0302573149997727
  0
VERTEX
  5
742
  8
DATA
  6
CONTINUOUS
 62
     7
 10
-69.958419527000146
 20
599.78805301900047
 30
0.0
  0
VERTEX
  5
743
  8
DATA
  6
CONTINUOUS
 62
     7
 10
-69.958419527000146
 20
599.78805301900047
 30
0.0
  0
VERTEX
  5
744
  8
DATA
  6
CONTINUOUS
 62
     7
 10
-69.958419526998696
 20
599.78805301900024
 30
0.0
 42
0.0307704460001332
  0
VERTEX
  5
745
  8
DATA
  6
CONTINUOUS
 62
     7
 10
-69.342135360000142
 20
599.75000000000045
 30
0.0
  0
VERTEX
  5
746
  8
DATA
  6
CONTINUOUS
 62
     7
 10
-69.342135360000142
 20
599.75000000000045
 30
0.0
  0
VERTEX
  5
747
  8
DATA
  6
CONTINUOUS
 62
     7
 10
-69.342135360000142
 20
599.75000000000045
 30
0.0
 42
0.0308289070000433
  0
VERTEX
  5
748
  8
DATA
  6
CONTINUOUS
 62
     7
 10
-68.725851192999912
 20
599.78805301900047
 30
0.0
  0
VERTEX
  5
749
  8
DATA
  6
CONTINUOUS
 62
     7
 10
-68.725851192999912
 20
599.78805301900047
 30
0.0
  0
VERTEX
  5
74A
  8
DATA
  6
CONTINUOUS
 62
     7
 10
-68.725851192999912
 20
599.78805301900047
 30
0.0
 42
0.0304257970000064
  0
VERTEX
  5
74B
  8
DATA
  6
CONTINUOUS
 62
     7
 10
-68.114257320999954
 20
599.90192247000039
 30
0.0
  0
VERTEX
  5
74C
  8
DATA
  6
CONTINUOUS
 62
     7
 10
-68.114257320999954
 20
599.90192247000039
 30
0.0
  0
VERTEX
  5
74D
  8
DATA
  6
CONTINUOUS
 62
     7
 10
-68.114257320999954
 20
599.90192247000039
 30
0.0
 42
0.0296077560000214
  0
VERTEX
  5
74E
  8
DATA
  6
CONTINUOUS
 62
     7
 10
-67.512008341000183
 20
600.09074173700037
 30
0.0
  0
VERTEX
  5
74F
  8
DATA
  6
CONTINUOUS
 62
     7
 10
-67.512008341000183
 20
600.09074173700037
 30
0.0
  0
VERTEX
  5
750
  8
DATA
  6
CONTINUOUS
 62
     7
 10
-67.512008341000353
 20
600.09074173700014
 30
0.0
 42
0.0284626549998478
  0
VERTEX
  5
751
  8
DATA
  6
CONTINUOUS
 62
     7
 10
-66.923687733999927
 20
600.35307379200037
 30
0.0
  0
VERTEX
  5
752
  8
DATA
  6
CONTINUOUS
 62
     7
 10
-66.923687733999927
 20
600.35307379200037
 30
0.0
  0
VERTEX
  5
753
  8
DATA
  6
CONTINUOUS
 62
     7
 10
-66.923687733999827
 20
600.35307379200037
 30
0.0
 42
0.0270987799998976
  0
VERTEX
  5
754
  8
DATA
  6
CONTINUOUS
 62
     7
 10
-66.35377297300009
 20
600.68692213000054
 30
0.0
  0
VERTEX
  5
755
  8
DATA
  6
CONTINUOUS
 62
     7
 10
-66.35377297300009
 20
600.68692213000054
 30
0.0
  0
VERTEX
  5
756
  8
DATA
  6
CONTINUOUS
 62
     7
 10
-66.35377297300009
 20
600.68692213000054
 30
0.0
 42
0.025623927000108
  0
VERTEX
  5
757
  8
DATA
  6
CONTINUOUS
 62
     7
 10
-65.806601453999946
 20
601.0897459630005
 30
0.0
  0
VERTEX
  5
758
  8
DATA
  6
CONTINUOUS
 62
     7
 10
-65.806601453999946
 20
601.0897459630005
 30
0.0
  0
VERTEX
  5
759
  8
DATA
  6
CONTINUOUS
 62
     7
 10
-65.806601453999946
 20
601.0897459630005
 30
0.0
 42
0.0241305730000038
  0
VERTEX
  5
75A
  8
DATA
  6
CONTINUOUS
 62
     7
 10
-65.2863374840001
 20
601.55847955700051
 30
0.0
  0
VERTEX
  5
75B
  8
DATA
  6
CONTINUOUS
 62
     7
 10
-65.2863374840001
 20
601.55847955700051
 30
0.0
  0
VERTEX
  5
75C
  8
DATA
  6
CONTINUOUS
 62
     7
 10
-65.2863374840001
 20
601.55847955700051
 30
0.0
 42
0.0226890190001195
  0
VERTEX
  5
75D
  8
DATA
  6
CONTINUOUS
 62
     7
 10
-64.796940583999898
 20
602.08955556900025
 30
0.0
  0
VERTEX
  5
75E
  8
DATA
  6
CONTINUOUS
 62
     7
 10
-64.796940583999898
 20
602.08955556900025
 30
0.0
  0
VERTEX
  5
75F
  8
DATA
  6
CONTINUOUS
 62
     7
 10
-64.796940583999273
 20
602.08955556900105
 30
0.0
 42
0.0213470120000568
  0
VERTEX
  5
760
  8
DATA
  6
CONTINUOUS
 62
     7
 10
-64.342135360000142
 20
602.67893218800054
 30
0.0
  0
VERTEX
  5
761
  8
DATA
  6
CONTINUOUS
 62
     7
 10
-64.342135360000142
 20
602.67893218800054
 30
0.0
  0
VERTEX
  5
762
  8
DATA
  6
CONTINUOUS
 62
     7
 10
-64.342135360000142
 20
602.67893218800054
 30
0.0
 42
0.0201331390002131
  0
VERTEX
  5
763
  8
DATA
  6
CONTINUOUS
 62
     7
 10
-63.925383156000173
 20
603.32212390300026
 30
0.0
  0
VERTEX
  5
764
  8
DATA
  6
CONTINUOUS
 62
     7
 10
-63.925383156000173
 20
603.32212390300026
 30
0.0
  0
VERTEX
  5
765
  8
DATA
  6
CONTINUOUS
 62
     7
 10
-63.925383155999299
 20
603.32212390300185
 30
0.0
 42
0.01906158399993
  0
VERTEX
  5
766
  8
DATA
  6
CONTINUOUS
 62
     7
 10
-63.549855706999992
 20
604.0142356370003
 30
0.0
  0
VERTEX
  5
767
  8
DATA
  6
CONTINUOUS
 62
     7
 10
-63.549855706999992
 20
604.0142356370003
 30
0.0
  0
VERTEX
  5
768
  8
DATA
  6
CONTINUOUS
 62
     7
 10
-63.549855706999992
 20
604.0142356370003
 30
0.0
 42
0.0181367480000304
  0
VERTEX
  5
769
  8
DATA
  6
CONTINUOUS
 62
     7
 10
-63.218411003000021
 20
604.75000000000045
 30
0.0
  0
VERTEX
  5
76A
  8
DATA
  6
CONTINUOUS
 62
     7
 10
-63.218411003000021
 20
604.75000000000045
 30
0.0
  0
VERTEX
  5
76B
  8
DATA
  6
CONTINUOUS
 62
     7
 10
-63.218411003000021
 20
604.75000000000045
 30
0.0
 42
0.0173570480000564
  0
VERTEX
  5
76C
  8
DATA
  6
CONTINUOUS
 62
     7
 10
-62.933571540000209
 20
605.52381738300051
 30
0.0
  0
VERTEX
  5
76D
  8
DATA
  6
CONTINUOUS
 62
     7
 10
-62.933571540000209
 20
605.52381738300051
 30
0.0
  0
VERTEX
  5
76E
  8
DATA
  6
CONTINUOUS
 62
     7
 10
-62.933571540000209
 20
605.52381738300051
 30
0.0
 42
0.0167177380000498
  0
VERTEX
  5
76F
  8
DATA
  6
CONTINUOUS
 62
     7
 10
-62.697505116000222
 20
606.32979856700035
 30
0.0
  0
VERTEX
  5
770
  8
DATA
  6
CONTINUOUS
 62
     7
 10
-62.697505116000222
 20
606.32979856700035
 30
0.0
  0
VERTEX
  5
771
  8
DATA
  6
CONTINUOUS
 62
     7
 10
-62.697505116000222
 20
606.32979856700035
 30
0.0
 42
0.016212869000163
  0
VERTEX
  5
772
  8
DATA
  6
CONTINUOUS
 62
     7
 10
-62.512008341000183
 20
607.16180954900017
 30
0.0
  0
VERTEX
  5
773
  8
DATA
  6
CONTINUOUS
 62
     7
 10
-62.512008341000183
 20
607.16180954900017
 30
0.0
  0
VERTEX
  5
774
  8
DATA
  6
CONTINUOUS
 62
     7
 10
-62.512008341000239
 20
607.16180954899983
 30
0.0
 42
0.0158365750000468
  0
VERTEX
  5
775
  8
DATA
  6
CONTINUOUS
 62
     7
 10
-62.378492957000148
 20
608.01351822400045
 30
0.0
  0
VERTEX
  5
776
  8
DATA
  6
CONTINUOUS
 62
     7
 10
-62.378492957000148
 20
608.01351822400045
 30
0.0
  0
VERTEX
  5
777
  8
DATA
  6
CONTINUOUS
 62
     7
 10
-62.378492957000148
 20
608.01351822400045
 30
0.0
 42
0.0155838790000471
  0
VERTEX
  5
778
  8
DATA
  6
CONTINUOUS
 62
     7
 10
-62.297975096000059
 20
608.87844257300037
 30
0.0
  0
VERTEX
  5
779
  8
DATA
  6
CONTINUOUS
 62
     7
 10
-62.297975096000059
 20
608.87844257300037
 30
0.0
  0
VERTEX
  5
77A
  8
DATA
  6
CONTINUOUS
 62
     7
 10
-62.297975096000059
 20
608.87844257300037
 30
0.0
 42
0.0154511700000258
  0
VERTEX
  5
77B
  8
DATA
  6
CONTINUOUS
 62
     7
 10
-62.271067548000012
 20
609.75000000000045
 30
0.0
  0
VERTEX
  5
77C
  8
DATA
  6
CONTINUOUS
 62
     7
 10
-62.271067548000012
 20
609.75000000000045
 30
0.0
  0
VERTEX
  5
77D
  8
DATA
  6
CONTINUOUS
 62
     7
 10
-62.271067548000012
 20
609.75000000000045
 30
0.0
 42
0.0154364710000749
  0
VERTEX
  5
77E
  8
DATA
  6
CONTINUOUS
 62
     7
 10
-62.297975096000059
 20
610.62155742800041
 30
0.0
  0
VERTEX
  5
77F
  8
DATA
  6
CONTINUOUS
 62
     7
 10
-62.297975096000059
 20
610.62155742800041
 30
0.0
  0
VERTEX
  5
780
  8
DATA
  6
CONTINUOUS
 62
     7
 10
-62.297975096000059
 20
610.62155742800041
 30
0.0
 42
0.0155395600000148
  0
VERTEX
  5
781
  8
DATA
  6
CONTINUOUS
 62
     7
 10
-62.378492957000148
 20
611.48648177700034
 30
0.0
  0
VERTEX
  5
782
  8
DATA
  6
CONTINUOUS
 62
     7
 10
-62.378492957000148
 20
611.48648177700034
 30
0.0
  0
VERTEX
  5
783
  8
DATA
  6
CONTINUOUS
 62
     7
 10
-62.378492957000148
 20
611.48648177700034
 30
0.0
 42
0.0157619810001155
  0
VERTEX
  5
784
  8
DATA
  6
CONTINUOUS
 62
     7
 10
-62.512008341000183
 20
612.33819045100029
 30
0.0
  0
VERTEX
  5
785
  8
DATA
  6
CONTINUOUS
 62
     7
 10
-62.512008341000183
 20
612.33819045100029
 30
0.0
  0
VERTEX
  5
786
  8
DATA
  6
CONTINUOUS
 62
     7
 10
-62.512008341000183
 20
612.33819045100029
 30
0.0
 42
0.016106956000072
  0
VERTEX
  5
787
  8
DATA
  6
CONTINUOUS
 62
     7
 10
-62.697505116000222
 20
613.17020143400043
 30
0.0
  0
VERTEX
  5
788
  8
DATA
  6
CONTINUOUS
 62
     7
 10
-62.697505116000222
 20
613.17020143400043
 30
0.0
  0
VERTEX
  5
789
  8
DATA
  6
CONTINUOUS
 62
     7
 10
-62.697505116000222
 20
613.17020143400043
 30
0.0
 42
0.0165791550002293
  0
VERTEX
  5
78A
  8
DATA
  6
CONTINUOUS
 62
     7
 10
-62.933571540000209
 20
613.97618261800039
 30
0.0
  0
VERTEX
  5
78B
  8
DATA
  6
CONTINUOUS
 62
     7
 10
-62.933571540000209
 20
613.97618261800039
 30
0.0
  0
VERTEX
  5
78C
  8
DATA
  6
CONTINUOUS
 62
     7
 10
-62.933571540000209
 20
613.97618261800039
 30
0.0
 42
0.0171842830000127
  0
VERTEX
  5
78D
  8
DATA
  6
CONTINUOUS
 62
     7
 10
-63.218411003000021
 20
614.75000000000057
 30
0.0
  0
VERTEX
  5
78E
  8
DATA
  6
CONTINUOUS
 62
     7
 10
-63.218411003000021
 20
614.75000000000057
 30
0.0
  0
VERTEX
  5
78F
  8
DATA
  6
CONTINUOUS
 62
     7
 10
-63.218411003001393
 20
614.75000000000387
 30
0.0
 42
0.0179283659998256
  0
VERTEX
  5
790
  8
DATA
  6
CONTINUOUS
 62
     7
 10
-63.549855706999992
 20
615.48576436400049
 30
0.0
  0
VERTEX
  5
791
  8
DATA
  6
CONTINUOUS
 62
     7
 10
-63.549855706999992
 20
615.48576436400049
 30
0.0
  0
VERTEX
  5
792
  8
DATA
  6
CONTINUOUS
 62
     7
 10
-63.549855707001782
 20
615.48576436400413
 30
0.0
 42
0.0188166049998895
  0
VERTEX
  5
793
  8
DATA
  6
CONTINUOUS
 62
     7
 10
-63.925383156000173
 20
616.17787609700054
 30
0.0
  0
VERTEX
  5
794
  8
DATA
  6
CONTINUOUS
 62
     7
 10
-63.925383156000173
 20
616.17787609700054
 30
0.0
  0
VERTEX
  5
795
  8
DATA
  6
CONTINUOUS
 62
     7
 10
-63.925383156000777
 20
616.17787609700156
 30
0.0
 42
0.0198516009999181
  0
VERTEX
  5
796
  8
DATA
  6
CONTINUOUS
 62
     7
 10
-64.342135360000142
 20
616.82106781200025
 30
0.0
  0
VERTEX
  5
797
  8
DATA
  6
CONTINUOUS
 62
     7
 10
-64.342135360000142
 20
616.82106781200025
 30
0.0
  0
VERTEX
  5
798
  8
DATA
  6
CONTINUOUS
 62
     7
 10
-64.342135359999901
 20
616.82106781200002
 30
0.0
 42
0.0210307679999626
  0
VERTEX
  5
799
  8
DATA
  6
CONTINUOUS
 62
     7
 10
-64.796940583999898
 20
617.41044443200053
 30
0.0
  0
VERTEX
  5
79A
  8
DATA
  6
CONTINUOUS
 62
     7
 10
-64.796940583999898
 20
617.41044443200053
 30
0.0
  0
VERTEX
  5
79B
  8
DATA
  6
CONTINUOUS
 62
     7
 10
-64.796940584000851
 20
617.41044443200167
 30
0.0
 42
0.0223427749999114
  0
VERTEX
  5
79C
  8
DATA
  6
CONTINUOUS
 62
     7
 10
-65.2863374840001
 20
617.9415204430004
 30
0.0
  0
VERTEX
  5
79D
  8
DATA
  6
CONTINUOUS
 62
     7
 10
-65.2863374840001
 20
617.9415204430004
 30
0.0
  0
VERTEX
  5
79E
  8
DATA
  6
CONTINUOUS
 62
     7
 10
-65.2863374840001
 20
617.9415204430004
 30
0.0
 42
0.0237630950000753
  0
VERTEX
  5
79F
  8
DATA
  6
CONTINUOUS
 62
     7
 10
-65.806601453999946
 20
618.4102540380004
 30
0.0
  0
VERTEX
  5
7A0
  8
DATA
  6
CONTINUOUS
 62
     7
 10
-65.806601453999946
 20
618.4102540380004
 30
0.0
  0
VERTEX
  5
7A1
  8
DATA
  6
CONTINUOUS
 62
     7
 10
-65.806601454001338
 20
618.41025403800165
 30
0.0
 42
0.0252491759997744
  0
VERTEX
  5
7A2
  8
DATA
  6
CONTINUOUS
 62
     7
 10
-66.35377297300009
 20
618.81307787100047
 30
0.0
  0
VERTEX
  5
7A3
  8
DATA
  6
CONTINUOUS
 62
     7
 10
-66.35377297300009
 20
618.81307787100047
 30
0.0
  0
VERTEX
  5
7A4
  8
DATA
  6
CONTINUOUS
 62
     7
 10
-66.353772973001369
 20
618.81307787100127
 30
0.0
 42
0.026736516999843
  0
VERTEX
  5
7A5
  8
DATA
  6
CONTINUOUS
 62
     7
 10
-66.923687733999927
 20
619.14692620800042
 30
0.0
  0
VERTEX
  5
7A6
  8
DATA
  6
CONTINUOUS
 62
     7
 10
-66.923687733999927
 20
619.14692620800042
 30
0.0
  0
VERTEX
  5
7A7
  8
DATA
  6
CONTINUOUS
 62
     7
 10
-66.923687734000822
 20
619.14692620800076
 30
0.0
 42
0.0281378349999208
  0
VERTEX
  5
7A8
  8
DATA
  6
CONTINUOUS
 62
     7
 10
-67.512008341000183
 20
619.40925826300054
 30
0.0
  0
VERTEX
  5
7A9
  8
DATA
  6
CONTINUOUS
 62
     7
 10
-67.512008341000183
 20
619.40925826300054
 30
0.0
  0
VERTEX
  5
7AA
  8
DATA
  6
CONTINUOUS
 62
     7
 10
-67.512008341000183
 20
619.40925826300054
 30
0.0
 42
0.029348088000061
  0
VERTEX
  5
7AB
  8
DATA
  6
CONTINUOUS
 62
     7
 10
-68.114257320999954
 20
619.59807753000041
 30
0.0
  0
VERTEX
  5
7AC
  8
DATA
  6
CONTINUOUS
 62
     7
 10
-68.114257320999954
 20
619.59807753000041
 30
0.0
  0
VERTEX
  5
7AD
  8
DATA
  6
CONTINUOUS
 62
     7
 10
-68.114257320999954
 20
619.59807753000041
 30
0.0
 42
0.0302573150002038
  0
VERTEX
  5
7AE
  8
DATA
  6
CONTINUOUS
 62
     7
 10
-68.725851192999912
 20
619.71194698100055
 30
0.0
  0
VERTEX
  5
7AF
  8
DATA
  6
CONTINUOUS
 62
     7
 10
-68.725851192999912
 20
619.71194698100055
 30
0.0
  0
VERTEX
  5
7B0
  8
DATA
  6
CONTINUOUS
 62
     7
 10
-68.725851192999954
 20
619.71194698100055
 30
0.0
 42
0.0307704459999089
  0
VERTEX
  5
7B1
  8
DATA
  6
CONTINUOUS
 62
     7
 10
-69.342135360000142
 20
619.75000000000057
 30
0.0
  0
SEQEND
  5
7B2
  8
DATA
  6
CONTINUOUS
 62
     7
  0
POLYLINE
  5
32B
  8
DATA
  6
CONTINUOUS
 62
     7
 66
     1
 10
0.0
 20
0.0
 30
0.0
 70
   128
  0
VERTEX
  5
7B3
  8
DATA
  6
CONTINUOUS
 62
     7
 10
-68.210764509000001
 20
619.62117014400042
 30
0.0
 42
0.0300536240001504
  0
VERTEX
  5
7B4
  8
DATA
  6
CONTINUOUS
 62
     7
 10
-68.820733618000062
 20
619.44203127900016
 30
0.0
  0
VERTEX
  5
7B5
  8
DATA
  6
CONTINUOUS
 62
     7
 10
-68.820733618000062
 20
619.44203127900016
 30
0.0
  0
VERTEX
  5
7B6
  8
DATA
  6
CONTINUOUS
 62
     7
 10
-68.820733618000062
 20
619.44203127900016
 30
0.0
 42
0.0289290130000213
  0
VERTEX
  5
7B7
  8
DATA
  6
CONTINUOUS
 62
     7
 10
-69.417186179000041
 20
619.18766137800048
 30
0.0
  0
VERTEX
  5
7B8
  8
DATA
  6
CONTINUOUS
 62
     7
 10
-69.417186179000041
 20
619.18766137800048
 30
0.0
  0
VERTEX
  5
7B9
  8
DATA
  6
CONTINUOUS
 62
     7
 10
-69.417186179001504
 20
619.18766137799969
 30
0.0
 42
0.0275624569999383
  0
VERTEX
  5
7BA
  8
DATA
  6
CONTINUOUS
 62
     7
 10
-69.995492435000173
 20
618.86003490000041
 30
0.0
  0
VERTEX
  5
7BB
  8
DATA
  6
CONTINUOUS
 62
     7
 10
-69.995492435000173
 20
618.86003490000041
 30
0.0
  0
VERTEX
  5
7BC
  8
DATA
  6
CONTINUOUS
 62
     7
 10
-69.995492435002305
 20
618.86003489999916
 30
0.0
 42
0.0260672349998771
  0
VERTEX
  5
7BD
  8
DATA
  6
CONTINUOUS
 62
     7
 10
-70.551163485000188
 20
618.46169493100035
 30
0.0
  0
VERTEX
  5
7BE
  8
DATA
  6
CONTINUOUS
 62
     7
 10
-70.551163485000188
 20
618.46169493100035
 30
0.0
  0
VERTEX
  5
7BF
  8
DATA
  6
CONTINUOUS
 62
     7
 10
-70.551163485000188
 20
618.46169493100035
 30
0.0
 42
0.024542177000048
  0
VERTEX
  5
7C0
  8
DATA
  6
CONTINUOUS
 62
     7
 10
-71.079886124000012
 20
617.99573344900045
 30
0.0
  0
VERTEX
  5
7C1
  8
DATA
  6
CONTINUOUS
 62
     7
 10
-71.079886124000012
 20
617.99573344900045
 30
0.0
  0
VERTEX
  5
7C2
  8
DATA
  6
CONTINUOUS
 62
     7
 10
-71.079886124001135
 20
617.99573344899943
 30
0.0
 42
0.0230633139999188
  0
VERTEX
  5
7C3
  8
DATA
  6
CONTINUOUS
 62
     7
 10
-71.577556326000135
 20
617.46576731600055
 30
0.0
  0
VERTEX
  5
7C4
  8
DATA
  6
CONTINUOUS
 62
     7
 10
-71.577556326000135
 20
617.46576731600055
 30
0.0
  0
VERTEX
  5
7C5
  8
DATA
  6
CONTINUOUS
 62
     7
 10
-71.577556326000135
 20
617.46576731600055
 30
0.0
 42
0.0216827840000154
  0
VERTEX
  5
7C6
  8
DATA
  6
CONTINUOUS
 62
     7
 10
-72.04031109800006
 20
616.87591021300045
 30
0.0
  0
VERTEX
  5
7C7
  8
DATA
  6
CONTINUOUS
 62
     7
 10
-72.04031109800006
 20
616.87591021300045
 30
0.0
  0
VERTEX
  5
7C8
  8
DATA
  6
CONTINUOUS
 62
     7
 10
-72.04031109800006
 20
616.87591021300045
 30
0.0
 42
0.0204321250000466
  0
VERTEX
  5
7C9
  8
DATA
  6
CONTINUOUS
 62
     7
 10
-72.464558467000188
 20
616.23074070000052
 30
0.0
  0
VERTEX
  5
7CA
  8
DATA
  6
CONTINUOUS
 62
     7
 10
-72.464558467000188
 20
616.23074070000052
 30
0.0
  0
VERTEX
  5
7CB
  8
DATA
  6
CONTINUOUS
 62
     7
 10
-72.464558467001623
 20
616.23074069999814
 30
0.0
 42
0.0193272499998656
  0
VERTEX
  5
7CC
  8
DATA
  6
CONTINUOUS
 62
     7
 10
-72.847005360000125
 20
615.53526668200038
 30
0.0
  0
VERTEX
  5
7CD
  8
DATA
  6
CONTINUOUS
 62
     7
 10
-72.847005360000125
 20
615.53526668200038
 30
0.0
  0
VERTEX
  5
7CE
  8
DATA
  6
CONTINUOUS
 62
     7
 10
-72.847005360000125
 20
615.53526668200038
 30
0.0
 42
0.0183734080001464
  0
VERTEX
  5
7CF
  8
DATA
  6
CONTINUOUS
 62
     7
 10
-73.18468316400002
 20
614.79488653500027
 30
0.0
  0
VERTEX
  5
7D0
  8
DATA
  6
CONTINUOUS
 62
     7
 10
-73.18468316400002
 20
614.79488653500027
 30
0.0
  0
VERTEX
  5
7D1
  8
DATA
  6
CONTINUOUS
 62
     7
 10
-73.18468316400002
 20
614.79488653500027
 30
0.0
 42
0.0175692910001347
  0
VERTEX
  5
7D2
  8
DATA
  6
CONTINUOUS
 62
     7
 10
-73.474970773999971
 20
614.01534720400036
 30
0.0
  0
VERTEX
  5
7D3
  8
DATA
  6
CONTINUOUS
 62
     7
 10
-73.474970773999971
 20
614.01534720400036
 30
0.0
  0
VERTEX
  5
7D4
  8
DATA
  6
CONTINUOUS
 62
     7
 10
-73.474970773999971
 20
614.01534720400036
 30
0.0
 42
0.0169100990000668
  0
VERTEX
  5
7D5
  8
DATA
  6
CONTINUOUS
 62
     7
 10
-73.715614932000094
 20
613.20269959300037
 30
0.0
  0
VERTEX
  5
7D6
  8
DATA
  6
CONTINUOUS
 62
     7
 10
-73.715614932000094
 20
613.20269959300037
 30
0.0
  0
VERTEX
  5
7D7
  8
DATA
  6
CONTINUOUS
 62
     7
 10
-73.715614932000094
 20
613.20269959300037
 30
0.0
 42
0.0163896760000511
  0
VERTEX
  5
7D8
  8
DATA
  6
CONTINUOUS
 62
     7
 10
-73.904747720000145
 20
612.36325159800049
 30
0.0
  0
VERTEX
  5
7D9
  8
DATA
  6
CONTINUOUS
 62
     7
 10
-73.904747720000145
 20
612.36325159800049
 30
0.0
  0
VERTEX
  5
7DA
  8
DATA
  6
CONTINUOUS
 62
     7
 10
-73.904747720000586
 20
612.3632515979981
 30
0.0
 42
0.0160018979999955
  0
VERTEX
  5
7DB
  8
DATA
  6
CONTINUOUS
 62
     7
 10
-74.040901063000064
 20
611.5035191420003
 30
0.0
  0
VERTEX
  5
7DC
  8
DATA
  6
CONTINUOUS
 62
     7
 10
-74.040901063000064
 20
611.5035191420003
 30
0.0
  0
VERTEX
  5
7DD
  8
DATA
  6
CONTINUOUS
 62
     7
 10
-74.040901063000064
 20
611.5035191420003
 30
0.0
 42
0.0157415490000344
  0
VERTEX
  5
7DE
  8
DATA
  6
CONTINUOUS
 62
     7
 10
-74.123018115000121
 20
610.63017560100047
 30
0.0
  0
VERTEX
  5
7DF
  8
DATA
  6
CONTINUOUS
 62
     7
 10
-74.123018115000121
 20
610.63017560100047
 30
0.0
  0
VERTEX
  5
7E0
  8
DATA
  6
CONTINUOUS
 62
     7
 10
-74.123018115000349
 20
610.63017560099729
 30
0.0
 42
0.0156048429998569
  0
VERTEX
  5
7E1
  8
DATA
  6
CONTINUOUS
 62
     7
 10
-74.150461472000188
 20
609.75000000200032
 30
0.0
  0
VERTEX
  5
7E2
  8
DATA
  6
CONTINUOUS
 62
     7
 10
-74.150461472000188
 20
609.75000000200032
 30
0.0
  0
VERTEX
  5
7E3
  8
DATA
  6
CONTINUOUS
 62
     7
 10
-74.150461472000188
 20
609.75000000199555
 30
0.0
 42
0.0155897019998071
  0
VERTEX
  5
7E4
  8
DATA
  6
CONTINUOUS
 62
     7
 10
-74.123018115000121
 20
608.8698244020004
 30
0.0
  0
VERTEX
  5
7E5
  8
DATA
  6
CONTINUOUS
 62
     7
 10
-74.123018115000121
 20
608.8698244020004
 30
0.0
  0
VERTEX
  5
7E6
  8
DATA
  6
CONTINUOUS
 62
     7
 10
-74.123018115000121
 20
608.8698244020004
 30
0.0
 42
0.0156958930000364
  0
VERTEX
  5
7E7
  8
DATA
  6
CONTINUOUS
 62
     7
 10
-74.040901063000064
 20
607.99648086200045
 30
0.0
  0
VERTEX
  5
7E8
  8
DATA
  6
CONTINUOUS
 62
     7
 10
-74.040901063000064
 20
607.99648086200045
 30
0.0
  0
VERTEX
  5
7E9
  8
DATA
  6
CONTINUOUS
 62
     7
 10
-74.040901063000007
 20
607.99648086199988
 30
0.0
 42
0.0159250389998952
  0
VERTEX
  5
7EA
  8
DATA
  6
CONTINUOUS
 62
     7
 10
-73.904747721000135
 20
607.13674840600038
 30
0.0
  0
VERTEX
  5
7EB
  8
DATA
  6
CONTINUOUS
 62
     7
 10
-73.904747721000135
 20
607.13674840600038
 30
0.0
  0
VERTEX
  5
7EC
  8
DATA
  6
CONTINUOUS
 62
     7
 10
-73.904747721000135
 20
607.13674840600038
 30
0.0
 42
0.0162805200000825
  0
VERTEX
  5
7ED
  8
DATA
  6
CONTINUOUS
 62
     7
 10
-73.715614932000094
 20
606.29730041000039
 30
0.0
  0
VERTEX
  5
7EE
  8
DATA
  6
CONTINUOUS
 62
     7
 10
-73.715614932000094
 20
606.29730041000039
 30
0.0
  0
VERTEX
  5
7EF
  8
DATA
  6
CONTINUOUS
 62
     7
 10
-73.715614932000094
 20
606.29730041000039
 30
0.0
 42
0.0167672320000034
  0
VERTEX
  5
7F0
  8
DATA
  6
CONTINUOUS
 62
     7
 10
-73.474970775000187
 20
605.48465279900029
 30
0.0
  0
VERTEX
  5
7F1
  8
DATA
  6
CONTINUOUS
 62
     7
 10
-73.474970775000187
 20
605.48465279900029
 30
0.0
  0
VERTEX
  5
7F2
  8
DATA
  6
CONTINUOUS
 62
     7
 10
-73.474970774999733
 20
605.48465279899892
 30
0.0
 42
0.0173911359999055
  0
VERTEX
  5
7F3
  8
DATA
  6
CONTINUOUS
 62
     7
 10
-73.184683165000024
 20
604.70511346800038
 30
0.0
  0
VERTEX
  5
7F4
  8
DATA
  6
CONTINUOUS
 62
     7
 10
-73.184683165000024
 20
604.70511346800038
 30
0.0
  0
VERTEX
  5
7F5
  8
DATA
  6
CONTINUOUS
 62
     7
 10
-73.184683165000024
 20
604.70511346800038
 30
0.0
 42
0.0181584890001752
  0
VERTEX
  5
7F6
  8
DATA
  6
CONTINUOUS
 62
     7
 10
-72.847005361000114
 20
603.96473332100038
 30
0.0
  0
VERTEX
  5
7F7
  8
DATA
  6
CONTINUOUS
 62
     7
 10
-72.847005361000114
 20
603.96473332100038
 30
0.0
  0
VERTEX
  5
7F8
  8
DATA
  6
CONTINUOUS
 62
     7
 10
-72.847005360999333
 20
603.96473332099879
 30
0.0
 42
0.0190745959999076
  0
VERTEX
  5
7F9
  8
DATA
  6
CONTINUOUS
 62
     7
 10
-72.464558468000149
 20
603.26925930300035
 30
0.0
  0
VERTEX
  5
7FA
  8
DATA
  6
CONTINUOUS
 62
     7
 10
-72.464558468000149
 20
603.26925930300035
 30
0.0
  0
VERTEX
  5
7FB
  8
DATA
  6
CONTINUOUS
 62
     7
 10
-72.464558467999652
 20
603.26925930299933
 30
0.0
 42
0.0201418859999863
  0
VERTEX
  5
7FC
  8
DATA
  6
CONTINUOUS
 62
     7
 10
-72.04031109900005
 20
602.62408979000043
 30
0.0
  0
VERTEX
  5
7FD
  8
DATA
  6
CONTINUOUS
 62
     7
 10
-72.04031109900005
 20
602.62408979000043
 30
0.0
  0
VERTEX
  5
7FE
  8
DATA
  6
CONTINUOUS
 62
     7
 10
-72.040311099000064
 20
602.62408979000054
 30
0.0
 42
0.0213570960000744
  0
VERTEX
  5
7FF
  8
DATA
  6
CONTINUOUS
 62
     7
 10
-71.577556327000124
 20
602.03423268600056
 30
0.0
  0
VERTEX
  5
800
  8
DATA
  6
CONTINUOUS
 62
     7
 10
-71.577556327000124
 20
602.03423268600056
 30
0.0
  0
VERTEX
  5
801
  8
DATA
  6
CONTINUOUS
 62
     7
 10
-71.577556327000465
 20
602.03423268600068
 30
0.0
 42
0.0227074139999467
  0
VERTEX
  5
802
  8
DATA
  6
CONTINUOUS
 62
     7
 10
-71.079886125000016
 20
601.50426655300043
 30
0.0
  0
VERTEX
  5
803
  8
DATA
  6
CONTINUOUS
 62
     7
 10
-71.079886125000016
 20
601.50426655300043
 30
0.0
  0
VERTEX
  5
804
  8
DATA
  6
CONTINUOUS
 62
     7
 10
-71.07988612499868
 20
601.5042665529993
 30
0.0
 42
0.0241656999999693
  0
VERTEX
  5
805
  8
DATA
  6
CONTINUOUS
 62
     7
 10
-70.551163486000149
 20
601.03830507100042
 30
0.0
  0
VERTEX
  5
806
  8
DATA
  6
CONTINUOUS
 62
     7
 10
-70.551163486000149
 20
601.03830507100042
 30
0.0
  0
VERTEX
  5
807
  8
DATA
  6
CONTINUOUS
 62
     7
 10
-70.551163485997662
 20
601.03830507099826
 30
0.0
 42
0.0256853779996383
  0
VERTEX
  5
808
  8
DATA
  6
CONTINUOUS
 62
     7
 10
-69.995492437000152
 20
600.63996510200036
 30
0.0
  0
VERTEX
  5
809
  8
DATA
  6
CONTINUOUS
 62
     7
 10
-69.995492437000152
 20
600.63996510200036
 30
0.0
  0
VERTEX
  5
80A
  8
DATA
  6
CONTINUOUS
 62
     7
 10
-69.995492437000152
 20
600.63996510200036
 30
0.0
 42
0.0271965120000005
  0
VERTEX
  5
80B
  8
DATA
  6
CONTINUOUS
 62
     7
 10
-69.417186181000019
 20
600.31233862400029
 30
0.0
  0
VERTEX
  5
80C
  8
DATA
  6
CONTINUOUS
 62
     7
 10
-69.417186181000019
 20
600.31233862400029
 30
0.0
  0
VERTEX
  5
80D
  8
DATA
  6
CONTINUOUS
 62
     7
 10
-69.417186180998002
 20
600.31233862399938
 30
0.0
 42
0.0286055139997922
  0
VERTEX
  5
80E
  8
DATA
  6
CONTINUOUS
 62
     7
 10
-68.820733620000041
 20
600.05796872300027
 30
0.0
  0
VERTEX
  5
80F
  8
DATA
  6
CONTINUOUS
 62
     7
 10
-68.820733620000041
 20
600.05796872300027
 30
0.0
  0
VERTEX
  5
810
  8
DATA
  6
CONTINUOUS
 62
     7
 10
-68.820733620000041
 20
600.05796872300027
 30
0.0
 42
0.0298014609999943
  0
VERTEX
  5
811
  8
DATA
  6
CONTINUOUS
 62
     7
 10
-68.210764510999965
 20
599.87882985700048
 30
0.0
  0
VERTEX
  5
812
  8
DATA
  6
CONTINUOUS
 62
     7
 10
-68.210764510999965
 20
599.87882985700048
 30
0.0
  0
SEQEND
  5
813
  8
DATA
  6
CONTINUOUS
 62
     7
  0
LINE
  5
38D
  8
DATA
  6
CONTINUOUS
 62
     7
 10
-50.0
 20
587.50000000000057
 30
0.0
 11
-73.484265760000184
 21
587.50000000000057
 31
0.0
  0
LINE
  5
38E
  8
DATA
  6
CONTINUOUS
 62
     7
 10
-83.484270983999963
 20
622.00000000000045
 30
0.0
 11
-83.484270983999963
 21
597.50000000000045
 31
0.0
  0
ARC
  5
38F
  8
DATA
  6
CONTINUOUS
 62
     7
 10
-73.484270983999963
 20
622.00000000000045
 30
0.0
 40
10.000000000000069
 50
124.3294930190003
 51
180.0
  0
LINE
  5
390
  8
DATA
  6
CONTINUOUS
 62
     7
 10
-52.299999736999993
 20
712.30600000000049
 30
0.0
 11
-54.89999973700013
 21
712.30600000000049
 31
0.0
  0
LINE
  5
391
  8
DATA
  6
CONTINUOUS
 62
     7
 10
-52.299999736999993
 20
712.30600000000049
 30
0.0
 11
-52.299999736999993
 21
607.69400000000041
 31
0.0
  0
LINE
  5
392
  8
DATA
  6
CONTINUOUS
 62
     7
 10
-54.89999973700013
 20
695.00000000000045
 30
0.0
 11
-52.299999736999993
 21
695.00000000000045
 31
0.0
  0
LINE
  5
393
  8
DATA
  6
CONTINUOUS
 62
     7
 10
-54.89999973700013
 20
712.30600000000049
 30
0.0
 11
-54.89999973700013
 21
695.00000000000045
 31
0.0
  0
LINE
  5
394
  8
DATA
  6
CONTINUOUS
 62
     7
 10
-52.299999736999993
 20
607.69400000000041
 30
0.0
 11
-54.89999973700013
 21
607.69400000000041
 31
0.0
  0
LINE
  5
395
  8
DATA
  6
CONTINUOUS
 62
     7
 10
-54.89999973700013
 20
625.00000000000057
 30
0.0
 11
-54.89999973700013
 21
607.69400000000041
 31
0.0
  0
LINE
  5
396
  8
DATA
  6
CONTINUOUS
 62
     7
 10
-54.89999973700013
 20
625.00000000000057
 30
0.0
 11
-135.836368881
 21
642.56827110600034
 31
0.0
  0
LINE
  5
397
  8
DATA
  6
CONTINUOUS
 62
     7
 10
-54.89999973700013
 20
625.00000000000057
 30
0.0
 11
-52.299999736999993
 21
625.00000000000057
 31
0.0
  0
LINE
  5
398
  8
DATA
  6
CONTINUOUS
 62
     7
 10
-138.1999997370001
 20
674.50000000000045
 30
0.0
 11
-138.1999997370001
 21
645.50001525900052
 31
0.0
  0
ARC
  5
399
  8
DATA
  6
CONTINUOUS
 62
     7
 10
-135.1999997370001
 20
645.50000000000045
 30
0.0
 40
2.9999999999999232
 50
179.9997085789993
 51
270.0
  0
ARC
  5
39A
  8
DATA
  6
CONTINUOUS
 62
     7
 10
-135.1999997370001
 20
674.50000000000045
 30
0.0
 40
3.0
 50
90.0
 51
180.0
  0
LINE
  5
39B
  8
DATA
  6
CONTINUOUS
 62
     7
 10
-65.89999973700013
 20
661.50000000000045
 30
0.0
 11
-81.899995922000016
 21
661.50000000000045
 31
0.0
  0
LINE
  5
39C
  8
DATA
  6
CONTINUOUS
 62
     7
 10
-81.899999737000115
 20
658.50000000000057
 30
0.0
 11
-65.899993128999981
 21
658.50000000000057
 31
0.0
  0
ARC
  5
39D
  8
DATA
  6
CONTINUOUS
 62
     7
 10
-81.899999737000115
 20
660.00000000000045
 30
0.0
 40
1.5
 50
90.0
 51
270.0
  0
ARC
  5
39E
  8
DATA
  6
CONTINUOUS
 62
     7
 10
-65.89999973700013
 20
660.00000000000045
 30
0.0
 40
1.5
 50
270.0
 51
90.0
  0
LINE
  5
39F
  8
DATA
  6
CONTINUOUS
 62
     7
 10
-54.89999973700013
 20
695.00000000000045
 30
0.0
 11
-135.836368881
 21
677.43172889500056
 31
0.0
  0
LINE
  5
3A0
  8
DATA
  6
CONTINUOUS
 62
     7
 10
-139.6999997370001
 20
642.00000000000057
 30
0.0
 11
-139.6999997370001
 21
643.00000000000045
 31
0.0
  0
ARC
  5
3A1
  8
DATA
  6
CONTINUOUS
 62
     7
 10
-130.6999997370001
 20
640.30000000000041
 30
0.0
 40
3.0
 50
270.0
 51
0.0
  0
LINE
  5
3A2
  8
DATA
  6
CONTINUOUS
 62
     7
 10
-138.6999997370001
 20
640.30000000000041
 30
0.0
 11
-138.6999997370001
 21
642.00000000000057
 31
0.0
  0
LINE
  5
3A3
  8
DATA
  6
CONTINUOUS
 62
     7
 10
-135.6999997370001
 20
637.30000000000041
 30
0.0
 11
-130.6999997370001
 21
637.30000000000041
 31
0.0
  0
ARC
  5
3A4
  8
DATA
  6
CONTINUOUS
 62
     7
 10
-135.6999997370001
 20
640.30000000000041
 30
0.0
 40
3.0
 50
180.0
 51
270.0
  0
LINE
  5
3A5
  8
DATA
  6
CONTINUOUS
 62
     7
 10
-138.6999997370001
 20
640.8000000000003
 30
0.0
 11
-127.6999997370001
 21
640.8000000000003
 31
0.0
  0
LINE
  5
3A6
  8
DATA
  6
CONTINUOUS
 62
     7
 10
-139.6999997370001
 20
642.00000000000057
 30
0.0
 11
-133.1999997370001
 21
642.00000000000057
 31
0.0
  0
LINE
  5
3A7
  8
DATA
  6
CONTINUOUS
 62
     7
 10
-127.6999997370001
 20
640.30000000000041
 30
0.0
 11
-127.6999997370001
 21
640.80216842000038
 31
0.0
  0
LINE
  5
3A8
  8
DATA
  6
CONTINUOUS
 62
     7
 10
-139.6999997370001
 20
678.00000000000045
 30
0.0
 11
-139.6999997370001
 21
677.00000000000045
 31
0.0
  0
ARC
  5
3A9
  8
DATA
  6
CONTINUOUS
 62
     7
 10
-130.6999997370001
 20
679.70000000000027
 30
0.0
 40
3.0000000000000142
 50
0.0
 51
90.0
  0
LINE
  5
3AA
  8
DATA
  6
CONTINUOUS
 62
     7
 10
-138.6999997370001
 20
679.70000000000027
 30
0.0
 11
-138.6999997370001
 21
678.00000000000045
 31
0.0
  0
LINE
  5
3AB
  8
DATA
  6
CONTINUOUS
 62
     7
 10
-135.6999997370001
 20
682.70000000000016
 30
0.0
 11
-130.6999997370001
 21
682.70000000000016
 31
0.0
  0
ARC
  5
3AC
  8
DATA
  6
CONTINUOUS
 62
     7
 10
-135.6999997370001
 20
679.70000000000027
 30
0.0
 40
3.0
 50
90.0
 51
180.0
  0
LINE
  5
3AD
  8
DATA
  6
CONTINUOUS
 62
     7
 10
-138.6999997370001
 20
679.20000000000016
 30
0.0
 11
-127.6999997370001
 21
679.20000000000016
 31
0.0
  0
LINE
  5
3AE
  8
DATA
  6
CONTINUOUS
 62
     7
 10
-139.6999997370001
 20
678.00000000000045
 30
0.0
 11
-133.1999997370001
 21
678.00000000000045
 31
0.0
  0
LINE
  5
3AF
  8
DATA
  6
CONTINUOUS
 62
     7
 10
-127.6999997370001
 20
679.70000000000027
 30
0.0
 11
-127.6999997370001
 21
679.1978315810004
 31
0.0
  0
CIRCLE
  5
3B0
  8
DATA
  6
CONTINUOUS
 62
     7
 10
-123.1999997370001
 20
660.00000000000045
 30
0.0
 40
6.5
  0
LINE
  5
3B1
  8
DATA
  6
CONTINUOUS
 62
     7
 10
-119.3999997370001
 20
666.50000000000057
 30
0.0
 11
-126.999999737
 21
666.50000000000057
 31
0.0
  0
LINE
  5
3B2
  8
DATA
  6
CONTINUOUS
 62
     7
 10
-126.999999737
 20
666.50000000000057
 30
0.0
 11
-130.6999997370001
 21
660.00000000000045
 31
0.0
  0
LINE
  5
3B3
  8
DATA
  6
CONTINUOUS
 62
     7
 10
-130.6999997370001
 20
660.00000000000045
 30
0.0
 11
-126.999999737
 21
653.50000000000045
 31
0.0
  0
LINE
  5
3B4
  8
DATA
  6
CONTINUOUS
 62
     7
 10
-126.999999737
 20
653.50000000000045
 30
0.0
 11
-119.3999997370001
 21
653.50000000000045
 31
0.0
  0
LINE
  5
3B5
  8
DATA
  6
CONTINUOUS
 62
     7
 10
-119.3999997370001
 20
653.50000000000045
 30
0.0
 11
-115.6999997370001
 21
660.00000000000045
 31
0.0
  0
LINE
  5
3B6
  8
DATA
  6
CONTINUOUS
 62
     7
 10
-115.6999997370001
 20
660.00000000000045
 30
0.0
 11
-119.3999997370001
 21
666.50000000000057
 31
0.0
  0
CIRCLE
  5
3B7
  8
DATA
  6
CONTINUOUS
 62
     7
 10
-123.1999997370001
 20
660.00000000000045
 30
0.0
 40
7.7000000000000437
  0
CIRCLE
  5
3B8
  8
DATA
  6
CONTINUOUS
 62
     7
 10
-123.1999997370001
 20
660.00000000000045
 30
0.0
 40
8.5
  0
LINE
  5
3B9
  8
DATA
  6
CONTINUOUS
 62
     7
 10
-143.20000000600021
 20
674.75000000000045
 30
0.0
 11
-143.19999999600009
 21
671.55000000000041
 31
0.0
  0
LINE
  5
3BA
  8
DATA
  6
CONTINUOUS
 62
     7
 10
-143.20000000600021
 20
645.25000000000045
 30
0.0
 11
-143.19999999600009
 21
648.4500000000005
 31
0.0
  0
LINE
  5
3BB
  8
DATA
  6
CONTINUOUS
 62
     7
 10
-143.199999916
 20
671.55000000000041
 30
0.0
 11
-138.1999997370001
 21
671.55000000000041
 31
0.0
  0
LINE
  5
3BC
  8
DATA
  6
CONTINUOUS
 62
     7
 10
-143.20000000600021
 20
648.4500000000005
 30
0.0
 11
-138.1999997370001
 21
648.4500000000005
 31
0.0
  0
LINE
  5
3BD
  8
DATA
  6
CONTINUOUS
 62
     7
 10
-143.20000000600021
 20
645.25000000000045
 30
0.0
 11
-138.18956492199999
 21
645.25000000000045
 31
0.0
  0
LINE
  5
3BE
  8
DATA
  6
CONTINUOUS
 62
     7
 10
-143.199999916
 20
674.75000000000045
 30
0.0
 11
-138.18956492199999
 21
674.75000000000045
 31
0.0
  0
ENDBLK
  5
3BF
  8
DATA
  0
BLOCK
  8
DATA
  2
*U11
 70
     1
 10
0.0
 20
0.0
 30
0.0
  3
*U11
  1

  0
ARC
  5
3C1
  8
DATA
  6
CONTINUOUS
 62
     7
 10
205.78369480417589
 20
750.66467706068249
 30
0.0
 40
19.48892053753918
 50
310.4689405026138
 51
329.31230421675048
  0
LINE
  5
3C2
  8
DATA
  6
CONTINUOUS
 62
     7
 10
81.580719247056933
 20
695.78458479001142
 30
0.0
 11
285.18071924705657
 21
343.1390403689885
 31
0.0
  0
LINE
  5
3C3
  8
DATA
  6
CONTINUOUS
 62
     7
 10
102.2035561859515
 20
736.5586987076174
 30
0.0
 11
330.80355618595149
 21
340.61188409737213
 31
0.0
  0
LINE
  5
3C4
  8
DATA
  6
CONTINUOUS
 62
     7
 10
318.79131663236763
 20
805.50373152365546
 30
0.0
 11
400.29845146248402
 21
664.32923281852777
 31
0.0
  0
LINE
  5
3C5
  8
DATA
  6
CONTINUOUS
 62
     7
 10
401.29845146248391
 20
662.59718201095882
 30
0.0
 11
416.29845146248408
 21
636.61641989742566
 31
0.0
  0
LINE
  5
3C6
  8
DATA
  6
CONTINUOUS
 62
     7
 10
417.29845146248402
 20
634.88436908985682
 30
0.0
 11
498.7951702980273
 21
493.72791141654079
 31
0.0
  0
ARC
  5
3C7
  8
DATA
  6
CONTINUOUS
 62
     7
 10
263.0133546453846
 20
497.61372517157213
 30
0.0
 40
8.5000000000688605
 50
1.927513064536782
 51
58.072486935862699
  0
LINE
  5
3C8
  8
DATA
  6
CONTINUOUS
 62
     7
 10
267.50854517380321
 20
504.8278267867687
 30
0.0
 11
271.50854517380372
 21
497.89962355649351
 31
0.0
  0
LINE
  5
3C9
  8
DATA
  6
CONTINUOUS
 62
     7
 10
264.27649436623432
 20
506.42590299812258
 30
0.0
 11
271.27649436623472
 21
494.30154734514008
 31
0.0
  0
LINE
  5
3CA
  8
DATA
  6
CONTINUOUS
 62
     7
 10
333.8085483928117
 20
665.22394667220715
 30
0.0
 11
384.80854839281119
 21
576.8893554861952
 31
0.0
  0
LINE
  5
3CB
  8
DATA
  6
CONTINUOUS
 62
     7
 10
380.75595242988658
 20
692.32904303076646
 30
0.0
 11
397.76585066050711
 21
662.86703506375636
 31
0.0
  0
LINE
  5
3CC
  8
DATA
  6
CONTINUOUS
 62
     7
 10
398.76585066050711
 20
661.13498425618764
 30
0.0
 11
413.76585066050723
 21
635.15422214265436
 31
0.0
  0
LINE
  5
3CD
  8
DATA
  6
CONTINUOUS
 62
     7
 10
414.76585066050723
 20
633.42217133508564
 30
0.0
 11
431.75595242988652
 21
603.99445184475496
 31
0.0
  0
LINE
  5
3CE
  8
DATA
  6
CONTINUOUS
 62
     7
 10
301.24944311716922
 20
646.42593847674175
 30
0.0
 11
352.24944311716871
 21
558.0913472907298
 31
0.0
  0
LINE
  5
3CF
  8
DATA
  6
CONTINUOUS
 62
     7
 10
313.0567075184025
 20
653.24286575718691
 30
0.0
 11
330.59470751840217
 21
622.86615869404375
 31
0.0
  0
LINE
  5
3D0
  8
DATA
  6
CONTINUOUS
 62
     7
 10
301.24944311716922
 20
646.42593847674175
 30
0.0
 11
383.28855323186411
 21
693.79124078553821
 31
0.0
  0
LINE
  5
3D1
  8
DATA
  6
CONTINUOUS
 62
     7
 10
381.78855323186372
 20
696.38931699689113
 30
0.0
 11
301.24944311716922
 21
646.42593847674175
 31
0.0
  0
LINE
  5
3D2
  8
DATA
  6
CONTINUOUS
 62
     7
 10
310.98747118032429
 20
807.88434820825012
 30
0.0
 11
174.1430870151859
 21
741.52090457568454
 31
0.0
  0
ARC
  5
3D3
  8
DATA
  6
CONTINUOUS
 62
     7
 10
98.901227322745754
 20
705.78458479001142
 30
0.0
 40
20.000000000000011
 50
132.53588006977611
 51
210.0
  0
LINE
  5
3D4
  8
DATA
  6
CONTINUOUS
 62
     7
 10
102.2035561859515
 20
736.5586987076174
 30
0.0
 11
85.380191785201603
 21
720.52166720114315
 31
0.0
  0
ARC
  5
3D5
  8
DATA
  6
CONTINUOUS
 62
     7
 10
204.26335464538479
 20
599.37171011624332
 30
0.0
 40
8.5000000000686491
 50
1.927513064539897
 51
58.072486935862699
  0
LINE
  5
3D6
  8
DATA
  6
CONTINUOUS
 62
     7
 10
208.75854517380279
 20
606.58581173144114
 30
0.0
 11
212.7585451738037
 21
599.65760850116499
 31
0.0
  0
LINE
  5
3D7
  8
DATA
  6
CONTINUOUS
 62
     7
 10
211.02649436623469
 20
598.65760850116487
 30
0.0
 11
212.7585451738037
 21
599.65760850116499
 31
0.0
  0
LINE
  5
3D8
  8
DATA
  6
CONTINUOUS
 62
     7
 10
207.02649436623469
 20
605.58581173144046
 30
0.0
 11
208.7585451738037
 21
606.58581173144034
 31
0.0
  0
LINE
  5
3D9
  8
DATA
  6
CONTINUOUS
 62
     7
 10
205.52649436623449
 20
608.1838879427936
 30
0.0
 11
212.52649436623429
 21
596.05953228981252
 31
0.0
  0
ARC
  5
3DA
  8
DATA
  6
CONTINUOUS
 62
     7
 10
145.51335464538479
 20
701.12969506091508
 30
0.0
 40
8.5000000000688605
 50
1.927513064536782
 51
58.072486935862699
  0
LINE
  5
3DB
  8
DATA
  6
CONTINUOUS
 62
     7
 10
150.00854517380299
 20
708.34379667611199
 30
0.0
 11
154.00854517380341
 21
701.41559344583686
 31
0.0
  0
LINE
  5
3DC
  8
DATA
  6
CONTINUOUS
 62
     7
 10
152.27649436623449
 20
700.41559344583698
 30
0.0
 11
154.00854517380341
 21
701.41559344583686
 31
0.0
  0
LINE
  5
3DD
  8
DATA
  6
CONTINUOUS
 62
     7
 10
148.27649436623449
 20
707.34379667611245
 30
0.0
 11
150.00854517380341
 21
708.34379667611245
 31
0.0
  0
LINE
  5
3DE
  8
DATA
  6
CONTINUOUS
 62
     7
 10
146.77649436623409
 20
709.94187288746605
 30
0.0
 11
153.77649436623449
 21
697.8175172344836
 31
0.0
  0
LINE
  5
3DF
  8
DATA
  6
CONTINUOUS
 62
     7
 10
146.77649436623409
 20
709.94187288746605
 30
0.0
 11
206.53224722735999
 21
744.44187288746582
 31
0.0
  0
LINE
  5
3E0
  8
DATA
  6
CONTINUOUS
 62
     7
 10
153.77649436623409
 20
697.81751723448326
 30
0.0
 11
213.5322472273603
 21
732.31751723448315
 31
0.0
  0
LINE
  5
3E1
  8
DATA
  6
CONTINUOUS
 62
     7
 10
205.52649436623449
 20
608.1838879427936
 30
0.0
 11
265.28224722736047
 21
642.68388794279338
 31
0.0
  0
LINE
  5
3E2
  8
DATA
  6
CONTINUOUS
 62
     7
 10
212.52649436623381
 20
596.05953228981218
 30
0.0
 11
272.28224722736002
 21
630.55953228981195
 31
0.0
  0
ARC
  5
3E3
  8
DATA
  6
CONTINUOUS
 62
     7
 10
173.27038400721591
 20
743.32045714781952
 30
0.0
 40
1.9999999999998801
 50
247.6206034338505
 51
295.87132339717522
  0
LINE
  5
3E4
  8
DATA
  6
CONTINUOUS
 62
     7
 10
141.33662092908929
 20
753.64669812555314
 30
0.0
 11
102.2035561859517
 21
736.5586987076174
 31
0.0
  0
LINE
  5
3E5
  8
DATA
  6
CONTINUOUS
 62
     7
 10
172.50890823313901
 20
741.47109113604859
 30
0.0
 11
142.8984480132105
 21
753.66318722369647
 31
0.0
  0
ARC
  5
3E6
  8
DATA
  6
CONTINUOUS
 62
     7
 10
142.1369722391336
 20
751.81382121192564
 30
0.0
 40
1.9999999999997751
 50
67.620603433849382
 51
113.58915997976661
  0
ARC
  5
3E7
  8
DATA
  6
CONTINUOUS
 62
     7
 10
313.59516420966082
 20
802.50373152365535
 30
0.0
 40
6.0
 50
30.0
 51
115.8713233971784
  0
LINE
  5
3E8
  8
DATA
  6
CONTINUOUS
 62
     7
 10
318.37444311716831
 20
616.76456839712523
 30
0.0
 11
322.70457013609069
 21
619.26456839712523
 31
0.0
  0
LINE
  5
3E9
  8
DATA
  6
CONTINUOUS
 62
     7
 10
352.24944311716871
 20
558.0913472907298
 30
0.0
 11
434.28855323186372
 21
605.45664959952626
 31
0.0
  0
LINE
  5
3EA
  8
DATA
  6
CONTINUOUS
 62
     7
 10
352.24944311716871
 20
558.0913472907298
 30
0.0
 11
435.78855323186309
 21
602.85857338817266
 31
0.0
  0
LINE
  5
3EB
  8
DATA
  6
CONTINUOUS
 62
     7
 10
335.12444311716831
 20
587.75271737034655
 30
0.0
 11
339.45457013609069
 21
590.25271737034655
 31
0.0
  0
LINE
  5
3EC
  8
DATA
  6
CONTINUOUS
 62
     7
 10
265.77649436623472
 20
503.82782678676881
 30
0.0
 11
267.50854517380372
 21
504.82782678676892
 31
0.0
  0
LINE
  5
3ED
  8
DATA
  6
CONTINUOUS
 62
     7
 10
264.27649436623432
 20
506.42590299812258
 30
0.0
 11
324.03224722736019
 21
540.92590299812241
 31
0.0
  0
LINE
  5
3EE
  8
DATA
  6
CONTINUOUS
 62
     7
 10
322.63057013609119
 20
619.39274015688477
 30
0.0
 11
339.52857013609048
 21
590.12454561058644
 31
0.0
  0
LINE
  5
3EF
  8
DATA
  6
CONTINUOUS
 62
     7
 10
347.67101470231881
 20
611.02141792406644
 30
0.0
 11
354.27101470231838
 21
599.58988259411228
 31
0.0
  0
LINE
  5
3F0
  8
DATA
  6
CONTINUOUS
 62
     7
 10
339.03077336636647
 20
606.98675490759229
 30
0.0
 11
346.45677336636612
 21
594.12454561058644
 31
0.0
  0
LINE
  5
3F1
  8
DATA
  6
CONTINUOUS
 62
     7
 10
337.19470751840203
 20
611.4346233640897
 30
0.0
 11
339.9927075184022
 21
606.5883452045116
 31
0.0
  0
LINE
  5
3F2
  8
DATA
  6
CONTINUOUS
 62
     7
 10
339.44377336636637
 20
606.27141792406644
 30
0.0
 11
347.67101470231921
 21
611.02141792406655
 31
0.0
  0
LINE
  5
3F3
  8
DATA
  6
CONTINUOUS
 62
     7
 10
341.09377336636641
 20
603.41353409157807
 30
0.0
 11
349.32101470231862
 21
608.16353409157819
 31
0.0
  0
LINE
  5
3F4
  8
DATA
  6
CONTINUOUS
 62
     7
 10
332.02857013609088
 20
603.11492666735262
 30
0.0
 11
338.95677336636669
 21
607.11492666735273
 31
0.0
  0
LINE
  5
3F5
  8
DATA
  6
CONTINUOUS
 62
     7
 10
338.27301470231879
 20
627.29923141359848
 30
0.0
 11
344.87301470231853
 21
615.86769608364443
 31
0.0
  0
LINE
  5
3F6
  8
DATA
  6
CONTINUOUS
 62
     7
 10
344.87301470231853
 20
615.86769608364443
 30
0.0
 11
336.64577336636609
 21
611.11769608364443
 31
0.0
  0
LINE
  5
3F7
  8
DATA
  6
CONTINUOUS
 62
     7
 10
330.04577336636652
 20
622.54923141359836
 30
0.0
 11
338.27301470231919
 21
627.29923141359882
 31
0.0
  0
LINE
  5
3F8
  8
DATA
  6
CONTINUOUS
 62
     7
 10
334.99577336636639
 20
613.97557991613235
 30
0.0
 11
343.22301470231912
 21
618.72557991613257
 31
0.0
  0
LINE
  5
3F9
  8
DATA
  6
CONTINUOUS
 62
     7
 10
331.69577336636621
 20
619.69134758111045
 30
0.0
 11
339.92301470231848
 21
624.44134758111045
 31
0.0
  0
LINE
  5
3FA
  8
DATA
  6
CONTINUOUS
 62
     7
 10
330.1305701360908
 20
606.40235910011836
 30
0.0
 11
337.0587733663661
 21
610.40235910011836
 31
0.0
  0
LINE
  5
3FB
  8
DATA
  6
CONTINUOUS
 62
     7
 10
329.63277336636662
 20
623.26456839712444
 30
0.0
 11
337.0587733663661
 21
610.40235910011836
 31
0.0
  0
LINE
  5
3FC
  8
DATA
  6
CONTINUOUS
 62
     7
 10
322.63057013609108
 20
619.39274015688466
 30
0.0
 11
329.55877336636678
 21
623.39274015688477
 31
0.0
  0
LINE
  5
3FD
  8
DATA
  6
CONTINUOUS
 62
     7
 10
346.59270751840188
 20
595.15680987455767
 30
0.0
 11
364.05670751840211
 21
564.90827457117496
 31
0.0
  0
LINE
  5
3FE
  8
DATA
  6
CONTINUOUS
 62
     7
 10
354.27101470231838
 20
599.58988259411228
 30
0.0
 11
346.04377336636611
 21
594.83988259411217
 31
0.0
  0
LINE
  5
3FF
  8
DATA
  6
CONTINUOUS
 62
     7
 10
344.3937733663663
 20
597.6977664266002
 30
0.0
 11
352.62101470231897
 21
602.44776642660054
 31
0.0
  0
LINE
  5
400
  8
DATA
  6
CONTINUOUS
 62
     7
 10
339.52857013609082
 20
590.12454561058644
 30
0.0
 11
346.45677336636612
 21
594.12454561058644
 31
0.0
  0
LINE
  5
401
  8
DATA
  6
CONTINUOUS
 62
     7
 10
496.96533809211053
 20
485.76123363375359
 30
0.0
 11
371.07071794112278
 21
400.43224239778948
 31
0.0
  0
ARC
  5
402
  8
DATA
  6
CONTINUOUS
 62
     7
 10
302.50122732274542
 20
353.1390403689885
 30
0.0
 40
20.000000000000021
 50
210.0
 51
287.46411993022213
  0
LINE
  5
403
  8
DATA
  6
CONTINUOUS
 62
     7
 10
308.50339729967737
 20
334.06093890243773
 30
0.0
 11
330.80355618595149
 21
340.61188409737213
 31
0.0
  0
LINE
  5
404
  8
DATA
  6
CONTINUOUS
 62
     7
 10
330.02649436623409
 20
392.54356240046889
 30
0.0
 11
389.78224722736007
 21
427.04356240046872
 31
0.0
  0
ARC
  5
405
  8
DATA
  6
CONTINUOUS
 62
     7
 10
321.76335464538431
 20
395.85574022690122
 30
0.0
 40
8.5000000000688605
 50
1.927513064536782
 51
58.072486935862699
  0
LINE
  5
406
  8
DATA
  6
CONTINUOUS
 62
     7
 10
326.25854517380287
 20
403.06984184209762
 30
0.0
 11
330.25854517380338
 21
396.14163861182237
 31
0.0
  0
LINE
  5
407
  8
DATA
  6
CONTINUOUS
 62
     7
 10
328.52649436623449
 20
395.14163861182237
 30
0.0
 11
330.25854517380338
 21
396.14163861182237
 31
0.0
  0
LINE
  5
408
  8
DATA
  6
CONTINUOUS
 62
     7
 10
324.52649436623449
 20
402.06984184209779
 30
0.0
 11
326.25854517380338
 21
403.06984184209767
 31
0.0
  0
LINE
  5
409
  8
DATA
  6
CONTINUOUS
 62
     7
 10
323.02649436623398
 20
404.66791805345127
 30
0.0
 11
330.02649436623449
 21
392.543562400469
 31
0.0
  0
LINE
  5
40A
  8
DATA
  6
CONTINUOUS
 62
     7
 10
269.77649436623472
 20
496.89962355649351
 30
0.0
 11
271.50854517380372
 21
497.89962355649351
 31
0.0
  0
LINE
  5
40B
  8
DATA
  6
CONTINUOUS
 62
     7
 10
323.02649436623398
 20
404.66791805345127
 30
0.0
 11
382.78224722736002
 21
439.1679180534511
 31
0.0
  0
LINE
  5
40C
  8
DATA
  6
CONTINUOUS
 62
     7
 10
271.27649436623437
 20
494.30154734514002
 30
0.0
 11
331.03224722736047
 21
528.80154734513985
 31
0.0
  0
ARC
  5
40D
  8
DATA
  6
CONTINUOUS
 62
     7
 10
372.19282468005241
 20
398.77668313686092
 30
0.0
 40
1.9999999999999489
 50
124.1286766028222
 51
172.37939656613941
  0
LINE
  5
40E
  8
DATA
  6
CONTINUOUS
 62
     7
 10
365.16873015330611
 20
365.9581125839029
 30
0.0
 11
330.80355618595161
 21
340.61188409737218
 31
0.0
  0
LINE
  5
40F
  8
DATA
  6
CONTINUOUS
 62
     7
 10
370.21048884592477
 20
399.04190877802932
 30
0.0
 11
365.96392367324432
 21
367.30244996599862
 31
0.0
  0
ARC
  5
410
  8
DATA
  6
CONTINUOUS
 62
     7
 10
363.9815878391168
 20
367.56767560716708
 30
0.0
 40
2.0000000000000391
 50
306.41084002023331
 51
352.37939656614992
  0
ARC
  5
411
  8
DATA
  6
CONTINUOUS
 62
     7
 10
493.5990178753205
 20
490.72791141654091
 30
0.0
 40
6.0000000000000702
 50
304.12867660282149
 51
30.0
  0
ARC
  5
412
  8
DATA
  6
CONTINUOUS
 62
     7
 10
217.9168406292994
 20
743.75135855982978
 30
0.0
 40
5.5321278855154912
 50
326.75266650194487
 51
22.601355409828049
  0
ARC
  5
413
  8
DATA
  6
CONTINUOUS
 62
     7
 10
193.08128920350109
 20
765.96299255773488
 30
0.0
 40
39.372446903527923
 50
301.29909411885819
 51
310.08228712371232
  0
ARC
  5
414
  8
DATA
  6
CONTINUOUS
 62
     7
 10
218.54976109405129
 20
728.55320163382578
 30
0.0
 40
19.488920537539268
 50
90.687695783250106
 51
109.5310594973862
  0
ARC
  5
415
  8
DATA
  6
CONTINUOUS
 62
     7
 10
218.6292245604217
 20
742.51747339663029
 30
0.0
 40
5.5321278855155853
 50
37.398644590176282
 51
93.247333498056065
  0
ARC
  5
416
  8
DATA
  6
CONTINUOUS
 62
     7
 10
225.44728814927029
 20
709.90343794594196
 30
0.0
 40
39.372446903527752
 50
109.9177128762876
 51
118.70090588114191
  0
ARC
  5
417
  8
DATA
  6
CONTINUOUS
 62
     7
 10
264.53369480417592
 20
648.90669211601084
 30
0.0
 40
19.488920537539201
 50
310.46894050261392
 51
329.31230421675048
  0
ARC
  5
418
  8
DATA
  6
CONTINUOUS
 62
     7
 10
276.66684062929937
 20
641.99337361515825
 30
0.0
 40
5.5321278855154761
 50
326.75266650194618
 51
22.601355409829068
  0
ARC
  5
419
  8
DATA
  6
CONTINUOUS
 62
     7
 10
251.83128920350109
 20
664.20500761306334
 30
0.0
 40
39.372446903527937
 50
301.29909411885819
 51
310.08228712371232
  0
ARC
  5
41A
  8
DATA
  6
CONTINUOUS
 62
     7
 10
277.29976109405129
 20
626.79521668915447
 30
0.0
 40
19.488920537539268
 50
90.687695783250007
 51
109.5310594973862
  0
ARC
  5
41B
  8
DATA
  6
CONTINUOUS
 62
     7
 10
277.37922456042168
 20
640.75948845195876
 30
0.0
 40
5.5321278855156084
 50
37.398644590176097
 51
93.24733349805544
  0
ARC
  5
41C
  8
DATA
  6
CONTINUOUS
 62
     7
 10
284.19728814927032
 20
608.14545300127043
 30
0.0
 40
39.372446903527738
 50
109.9177128762876
 51
118.70090588114169
  0
ARC
  5
41D
  8
DATA
  6
CONTINUOUS
 62
     7
 10
323.28369480417592
 20
547.14870717133931
 30
0.0
 40
19.488920537539201
 50
310.46894050261392
 51
329.31230421675019
  0
ARC
  5
41E
  8
DATA
  6
CONTINUOUS
 62
     7
 10
335.41684062929937
 20
540.23538867048671
 30
0.0
 40
5.5321278855155391
 50
326.75266650194533
 51
22.601355409829068
  0
ARC
  5
41F
  8
DATA
  6
CONTINUOUS
 62
     7
 10
310.58128920350111
 20
562.44702266839192
 30
0.0
 40
39.372446903527937
 50
301.29909411885819
 51
310.08228712371232
  0
ARC
  5
420
  8
DATA
  6
CONTINUOUS
 62
     7
 10
336.04976109405129
 20
525.03723174448282
 30
0.0
 40
19.488920537539379
 50
90.687695783250007
 51
109.5310594973861
  0
ARC
  5
421
  8
DATA
  6
CONTINUOUS
 62
     7
 10
336.12922456042168
 20
539.00150350728723
 30
0.0
 40
5.5321278855156768
 50
37.398644590177049
 51
93.247333498055369
  0
ARC
  5
422
  8
DATA
  6
CONTINUOUS
 62
     7
 10
342.94728814927032
 20
506.38746805659878
 30
0.0
 40
39.372446903527738
 50
109.9177128762876
 51
118.70090588114169
  0
ARC
  5
423
  8
DATA
  6
CONTINUOUS
 62
     7
 10
382.03369480417592
 20
445.39072222666789
 30
0.0
 40
19.48892053753929
 50
310.46894050261369
 51
329.31230421675019
  0
ARC
  5
424
  8
DATA
  6
CONTINUOUS
 62
     7
 10
394.16684062929937
 20
438.47740372581518
 30
0.0
 40
5.5321278855154912
 50
326.75266650194487
 51
22.601355409827871
  0
ARC
  5
425
  8
DATA
  6
CONTINUOUS
 62
     7
 10
369.33128920350111
 20
460.68903772372039
 30
0.0
 40
39.372446903528008
 50
301.29909411885819
 51
310.08228712371221
  0
ARC
  5
426
  8
DATA
  6
CONTINUOUS
 62
     7
 10
394.79976109405129
 20
423.27924679981118
 30
0.0
 40
19.488920537539379
 50
90.687695783250007
 51
109.5310594973861
  0
ARC
  5
427
  8
DATA
  6
CONTINUOUS
 62
     7
 10
394.87922456042168
 20
437.24351856261558
 30
0.0
 40
5.5321278855156084
 50
37.398644590176097
 51
93.247333498055994
  0
ARC
  5
428
  8
DATA
  6
CONTINUOUS
 62
     7
 10
401.69728814927032
 20
404.6294831119273
 30
0.0
 40
39.372446903527752
 50
109.9177128762876
 51
118.70090588114191
  0
ENDBLK
  5
429
  8
DATA
  0
BLOCK
  8
DATA
  2
*U12
 70
     1
 10
0.0
 20
0.0
 30
0.0
  3
*U12
  1

  0
LINE
  5
42B
  8
DATA
  6
CONTINUOUS
 62
     7
 10
331.2826911212801
 20
662.58808277372236
 30
0.0
 11
334.4003825749042
 21
664.38808277372243
 31
0.0
  0
LINE
  5
42C
  8
DATA
  6
CONTINUOUS
 62
     7
 10
381.28269112128021
 20
575.98554239527834
 30
0.0
 11
384.4003825749042
 21
577.78554239527853
 31
0.0
  0
LINE
  5
42D
  8
DATA
  6
CONTINUOUS
 62
     7
 10
332.6683317673353
 20
663.38808277372243
 30
0.0
 11
382.6683317673353
 21
576.78554239527853
 31
0.0
  0
LINE
  5
42E
  8
DATA
  6
CONTINUOUS
 62
     7
 10
331.2826911212801
 20
662.58808277372236
 30
0.0
 11
381.28269112128021
 21
575.98554239527834
 31
0.0
  0
ARC
  5
42F
  8
DATA
  6
CONTINUOUS
 62
     7
 10
370.63243338247321
 20
605.63232991259611
 30
0.0
 40
3.9999999999999338
 50
120.0000000000005
 51
210.00000000000011
  0
LINE
  5
430
  8
DATA
  6
CONTINUOUS
 62
     7
 10
368.9003825749042
 20
604.63232991259611
 30
0.0
 11
384.4003825749042
 21
577.78554239527853
 31
0.0
  0
ARC
  5
431
  8
DATA
  6
CONTINUOUS
 62
     7
 10
370.63243338247321
 20
605.63232991259611
 30
0.0
 40
1.9999999999999669
 50
120.0000000000005
 51
209.99999999999969
  0
LINE
  5
432
  8
DATA
  6
CONTINUOUS
 62
     7
 10
349.9003825749042
 20
637.54129525640485
 30
0.0
 11
334.4003825749042
 21
664.38808277372243
 31
0.0
  0
ARC
  5
433
  8
DATA
  6
CONTINUOUS
 62
     7
 10
351.6324333824731
 20
638.54129525640485
 30
0.0
 40
2.000000000000016
 50
209.99999999999969
 51
300.00000000000051
  0
ARC
  5
434
  8
DATA
  6
CONTINUOUS
 62
     7
 10
351.6324333824731
 20
638.54129525640485
 30
0.0
 40
3.999999999999984
 50
210.00000000000011
 51
299.99999999999972
  0
LINE
  5
435
  8
DATA
  6
CONTINUOUS
 62
     7
 10
352.63243338247321
 20
636.80924444883601
 30
0.0
 11
411.80000026299979
 21
670.96965511460405
 31
0.0
  0
LINE
  5
436
  8
DATA
  6
CONTINUOUS
 62
     7
 10
353.6324333824731
 20
635.07719364126694
 30
0.0
 11
411.80000026299979
 21
668.66025403784545
 31
0.0
  0
LINE
  5
437
  8
DATA
  6
CONTINUOUS
 62
     7
 10
368.63243338247321
 20
609.09643152773378
 30
0.0
 11
423.20727731774292
 21
640.60523236474444
 31
0.0
  0
LINE
  5
438
  8
DATA
  6
CONTINUOUS
 62
     7
 10
369.63243338247321
 20
607.36438072016495
 30
0.0
 11
426.11433071715618
 21
639.97421935068587
 31
0.0
  0
LINE
  5
439
  8
DATA
  6
CONTINUOUS
 62
     7
 10
421.51058110055669
 20
636.16154273188044
 30
0.0
 11
421.01058110055669
 21
637.02756813566486
 31
0.0
  0
ARC
  5
43A
  8
DATA
  6
CONTINUOUS
 62
     7
 10
430.15480973461672
 20
639.18929954544683
 30
0.0
 40
3.0000000000000488
 50
299.99999999999937
 51
346.03366300839912
  0
LINE
  5
43B
  8
DATA
  6
CONTINUOUS
 62
     7
 10
423.22660650434108
 20
635.18929954544683
 30
0.0
 11
422.37660650434111
 21
636.66154273188044
 31
0.0
  0
LINE
  5
43C
  8
DATA
  6
CONTINUOUS
 62
     7
 10
427.32468271569451
 20
634.09122333409368
 30
0.0
 11
431.65480973461672
 21
636.59122333409357
 31
0.0
  0
ARC
  5
43D
  8
DATA
  6
CONTINUOUS
 62
     7
 10
425.82468271569451
 20
636.68929954544683
 30
0.0
 40
3.0
 50
210.0
 51
299.99999999999937
  0
LINE
  5
43E
  8
DATA
  6
CONTINUOUS
 62
     7
 10
422.97660650434108
 20
635.62231224733921
 30
0.0
 11
429.31208945651179
 21
639.28010503522125
 31
0.0
  0
LINE
  5
43F
  8
DATA
  6
CONTINUOUS
 62
     7
 10
421.51058110055669
 20
636.16154273188044
 30
0.0
 11
427.56785741686372
 21
639.65871284365642
 31
0.0
  0
LINE
  5
440
  8
DATA
  6
CONTINUOUS
 62
     7
 10
403.51058110055669
 20
667.33845726812035
 30
0.0
 11
404.01058110055669
 21
666.47243186433582
 31
0.0
  0
ARC
  5
441
  8
DATA
  6
CONTINUOUS
 62
     7
 10
410.45480973461667
 20
673.31070045455374
 30
0.0
 40
2.99999999999996
 50
56.644478480168331
 51
120.0000000000005
  0
LINE
  5
442
  8
DATA
  6
CONTINUOUS
 62
     7
 10
403.5266065043412
 20
669.31070045455374
 30
0.0
 11
404.37660650434111
 21
667.83845726812035
 31
0.0
  0
LINE
  5
443
  8
DATA
  6
CONTINUOUS
 62
     7
 10
404.62468271569452
 20
673.408776665907
 30
0.0
 11
408.95480973461679
 21
675.908776665907
 31
0.0
  0
ARC
  5
444
  8
DATA
  6
CONTINUOUS
 62
     7
 10
406.12468271569452
 20
670.81070045455374
 30
0.0
 40
2.9999999999999498
 50
120.0000000000005
 51
210.0
  0
LINE
  5
445
  8
DATA
  6
CONTINUOUS
 62
     7
 10
403.77660650434109
 20
668.87768775266136
 30
0.0
 11
411.80000026299979
 21
673.50999629903765
 31
0.0
  0
LINE
  5
446
  8
DATA
  6
CONTINUOUS
 62
     7
 10
403.51058110055669
 20
667.33845726812035
 30
0.0
 11
411.80000026299979
 21
672.12435565298256
 31
0.0
  0
LINE
  5
447
  8
DATA
  6
CONTINUOUS
 62
     7
 10
402.10449195435029
 20
662.77387457132056
 30
0.0
 11
403.70449196301058
 21
660.00259328421066
 31
0.0
  0
LINE
  5
448
  8
DATA
  6
CONTINUOUS
 62
     7
 10
416.85449195435029
 20
637.2261251596799
 30
0.0
 11
415.25449196301048
 21
639.99740645679015
 31
0.0
  0
LINE
  5
449
  8
DATA
  6
CONTINUOUS
 62
     7
 10
403.70449203229271
 20
660.00259332421069
 30
0.0
 11
411.80000026299979
 21
664.67653718043641
 31
0.0
  0
LINE
  5
44A
  8
DATA
  6
CONTINUOUS
 62
     7
 10
415.25449195435021
 20
639.9974064517902
 30
0.0
 11
418.19261020375569
 21
641.69372981399533
 31
0.0
  0
LINE
  5
44B
  8
DATA
  6
CONTINUOUS
 62
     7
 10
416.85449195435029
 20
637.2261251596799
 30
0.0
 11
422.84389564281707
 21
640.68410899150149
 31
0.0
  0
LINE
  5
44C
  8
DATA
  6
CONTINUOUS
 62
     7
 10
402.10449203229268
 20
662.77387461632088
 30
0.0
 11
411.80000026299979
 21
668.37157890325
 31
0.0
  0
ENDBLK
  5
44D
  8
DATA
  0
BLOCK
  8
DATA
  2
*U13
 70
     1
 10
0.0
 20
0.0
 30
0.0
  3
*U13
  1

  0
LINE
  5
44F
  8
DATA
  6
CONTINUOUS
 62
     7
 10
498.0
 20
732.50000000000034
 30
0.0
 11
498.0
 21
587.50000000000057
 31
0.0
  0
LINE
  5
450
  8
DATA
  6
CONTINUOUS
 62
     7
 10
500.0
 20
732.50000000000034
 30
0.0
 11
500.0
 21
587.50000000000057
 31
0.0
  0
LINE
  5
451
  8
DATA
  6
CONTINUOUS
 62
     7
 10
488.656361699
 20
621.41334964100042
 30
0.0
 11
490.53574694100013
 21
622.09738992700045
 31
0.0
  0
LINE
  5
452
  8
DATA
  6
CONTINUOUS
 62
     7
 10
490.53574694100013
 20
622.09738992700045
 30
0.0
 11
494.55877048299999
 21
611.0442235860005
 31
0.0
  0
ARC
  5
453
  8
DATA
  6
CONTINUOUS
 62
     7
 10
490.80000000000001
 20
609.67614301300046
 30
0.0
 40
4.0
 50
0.0
 51
20.000000000000629
  0
LINE
  5
454
  8
DATA
  6
CONTINUOUS
 62
     7
 10
494.80000000000001
 20
609.67614301300046
 30
0.0
 11
494.80000000000001
 21
587.50000000000057
 31
0.0
  0
LINE
  5
455
  8
DATA
  6
CONTINUOUS
 62
     7
 10
497.89999999999992
 20
607.00000000000045
 30
0.0
 11
494.80000000000001
 21
607.00000000000045
 31
0.0
  0
LINE
  5
456
  8
DATA
  6
CONTINUOUS
 62
     7
 10
500.0
 20
732.50000000000034
 30
0.0
 11
492.7999999999999
 21
732.50000000000034
 31
0.0
  0
LINE
  5
457
  8
DATA
  6
CONTINUOUS
 62
     7
 10
488.656361699
 20
698.58665036000036
 30
0.0
 11
490.53574694100013
 21
697.90261007300023
 31
0.0
  0
LINE
  5
458
  8
DATA
  6
CONTINUOUS
 62
     7
 10
488.656361699
 20
698.58665036000036
 30
0.0
 11
492.67938524199991
 21
709.6398167010002
 31
0.0
  0
LINE
  5
459
  8
DATA
  6
CONTINUOUS
 62
     7
 10
492.7999999999999
 20
710.32385698800044
 30
0.0
 11
492.7999999999999
 21
732.50000000000034
 31
0.0
  0
ARC
  5
45A
  8
DATA
  6
CONTINUOUS
 62
     7
 10
490.80000000000001
 20
710.32385698800044
 30
0.0
 40
1.99999999999998
 50
339.99999999999631
 51
0.0
  0
LINE
  5
45B
  8
DATA
  6
CONTINUOUS
 62
     7
 10
490.53574694100013
 20
697.90261007300023
 30
0.0
 11
494.55877048299999
 21
708.9557764140003
 31
0.0
  0
ARC
  5
45C
  8
DATA
  6
CONTINUOUS
 62
     7
 10
490.80000000000001
 20
710.32385698800044
 30
0.0
 40
3.99999999999996
 50
339.99999999999631
 51
0.0
  0
LINE
  5
45D
  8
DATA
  6
CONTINUOUS
 62
     7
 10
494.80000000000001
 20
710.32385698800044
 30
0.0
 11
494.80000000000001
 21
732.50000000000034
 31
0.0
  0
LINE
  5
45E
  8
DATA
  6
CONTINUOUS
 62
     7
 10
497.89999999999992
 20
713.00000000000045
 30
0.0
 11
494.80000000000001
 21
713.00000000000045
 31
0.0
  0
LINE
  5
45F
  8
DATA
  6
CONTINUOUS
 62
     7
 10
488.656361699
 20
621.41334964100042
 30
0.0
 11
492.679383508
 21
610.36018806400034
 31
0.0
  0
ARC
  5
460
  8
DATA
  6
CONTINUOUS
 62
     7
 10
490.80000000000001
 20
609.67614301300046
 30
0.0
 40
2.0
 50
0.0001545499983582
 51
20.000145228998448
  0
LINE
  5
461
  8
DATA
  6
CONTINUOUS
 62
     7
 10
492.7999999999999
 20
609.67614840800047
 30
0.0
 11
492.7999999999999
 21
587.50000000000057
 31
0.0
  0
LINE
  5
462
  8
DATA
  6
CONTINUOUS
 62
     7
 10
488.656361699
 20
621.41334964100042
 30
0.0
 11
488.656361699
 21
626.39867392700035
 31
0.0
  0
LINE
  5
463
  8
DATA
  6
CONTINUOUS
 62
     7
 10
490.53574694100013
 20
622.09738992700045
 30
0.0
 11
490.53574694100013
 21
625.99072939200039
 31
0.0
  0
LINE
  5
464
  8
DATA
  6
CONTINUOUS
 62
     7
 10
494.80000000000001
 20
609.67614301300046
 30
0.0
 11
494.80000000000001
 21
625.06511888300042
 31
0.0
  0
LINE
  5
465
  8
DATA
  6
CONTINUOUS
 62
     7
 10
488.656361699
 20
698.58665036000036
 30
0.0
 11
488.656361699
 21
693.60132607400044
 31
0.0
  0
LINE
  5
466
  8
DATA
  6
CONTINUOUS
 62
     7
 10
490.53574694100013
 20
697.90261007300023
 30
0.0
 11
490.53574694100013
 21
694.0092706090004
 31
0.0
  0
LINE
  5
467
  8
DATA
  6
CONTINUOUS
 62
     7
 10
494.80000000000001
 20
710.32385698800044
 30
0.0
 11
494.80000000000001
 21
694.93488111700015
 31
0.0
  0
ARC
  5
468
  8
DATA
  6
CONTINUOUS
 62
     7
 10
476.51572901599991
 20
597.50000000000045
 30
0.0
 40
10.0
 50
180.0
 51
270.00002993099997
  0
POLYLINE
  5
469
  8
DATA
  6
CONTINUOUS
 62
     7
 66
     1
 10
0.0
 20
0.0
 30
0.0
 70
   129
  0
VERTEX
  5
814
  8
DATA
  6
CONTINUOUS
 62
     7
 10
480.65786463999979
 20
619.75000000000057
 30
0.0
  0
VERTEX
  5
815
  8
DATA
  6
CONTINUOUS
 62
     7
 10
480.65786463999979
 20
619.75000000000057
 30
0.0
 42
0.0308289070000587
  0
VERTEX
  5
816
  8
DATA
  6
CONTINUOUS
 62
     7
 10
480.04158047299978
 20
619.71194698100055
 30
0.0
  0
VERTEX
  5
817
  8
DATA
  6
CONTINUOUS
 62
     7
 10
480.04158047299978
 20
619.71194698100055
 30
0.0
  0
VERTEX
  5
818
  8
DATA
  6
CONTINUOUS
 62
     7
 10
480.04158047299978
 20
619.71194698100055
 30
0.0
 42
0.0304257970000695
  0
VERTEX
  5
819
  8
DATA
  6
CONTINUOUS
 62
     7
 10
479.42998659999989
 20
619.59807753000041
 30
0.0
  0
VERTEX
  5
81A
  8
DATA
  6
CONTINUOUS
 62
     7
 10
479.42998659999989
 20
619.59807753000041
 30
0.0
  0
VERTEX
  5
81B
  8
DATA
  6
CONTINUOUS
 62
     7
 10
479.42998659999768
 20
619.59807752999984
 30
0.0
 42
0.0296077559998784
  0
VERTEX
  5
81C
  8
DATA
  6
CONTINUOUS
 62
     7
 10
478.82773762099993
 20
619.40925826300054
 30
0.0
  0
VERTEX
  5
81D
  8
DATA
  6
CONTINUOUS
 62
     7
 10
478.82773762099993
 20
619.40925826300054
 30
0.0
  0
VERTEX
  5
81E
  8
DATA
  6
CONTINUOUS
 62
     7
 10
478.82773762099907
 20
619.40925826300042
 30
0.0
 42
0.0284626549998639
  0
VERTEX
  5
81F
  8
DATA
  6
CONTINUOUS
 62
     7
 10
478.23941701299992
 20
619.14692620800042
 30
0.0
  0
VERTEX
  5
820
  8
DATA
  6
CONTINUOUS
 62
     7
 10
478.23941701299992
 20
619.14692620800042
 30
0.0
  0
VERTEX
  5
821
  8
DATA
  6
CONTINUOUS
 62
     7
 10
478.23941701299623
 20
619.14692620799838
 30
0.0
 42
0.0270987799997702
  0
VERTEX
  5
822
  8
DATA
  6
CONTINUOUS
 62
     7
 10
477.6695022519998
 20
618.81307787100047
 30
0.0
  0
VERTEX
  5
823
  8
DATA
  6
CONTINUOUS
 62
     7
 10
477.6695022519998
 20
618.81307787100047
 30
0.0
  0
VERTEX
  5
824
  8
DATA
  6
CONTINUOUS
 62
     7
 10
477.6695022519998
 20
618.81307787100047
 30
0.0
 42
0.0256239270000053
  0
VERTEX
  5
825
  8
DATA
  6
CONTINUOUS
 62
     7
 10
477.12233073399989
 20
618.4102540380004
 30
0.0
  0
VERTEX
  5
826
  8
DATA
  6
CONTINUOUS
 62
     7
 10
477.12233073399989
 20
618.4102540380004
 30
0.0
  0
VERTEX
  5
827
  8
DATA
  6
CONTINUOUS
 62
     7
 10
477.12233073399989
 20
618.4102540380004
 30
0.0
 42
0.0241305730001257
  0
VERTEX
  5
828
  8
DATA
  6
CONTINUOUS
 62
     7
 10
476.60206676299998
 20
617.9415204430004
 30
0.0
  0
VERTEX
  5
829
  8
DATA
  6
CONTINUOUS
 62
     7
 10
476.60206676299998
 20
617.9415204430004
 30
0.0
  0
VERTEX
  5
82A
  8
DATA
  6
CONTINUOUS
 62
     7
 10
476.60206676299822
 20
617.94152044299869
 30
0.0
 42
0.0226890189999445
  0
VERTEX
  5
82B
  8
DATA
  6
CONTINUOUS
 62
     7
 10
476.11266986299978
 20
617.41044443200053
 30
0.0
  0
VERTEX
  5
82C
  8
DATA
  6
CONTINUOUS
 62
     7
 10
476.11266986299978
 20
617.41044443200053
 30
0.0
  0
VERTEX
  5
82D
  8
DATA
  6
CONTINUOUS
 62
     7
 10
476.11266986299859
 20
617.41044443199928
 30
0.0
 42
0.0213470119999337
  0
VERTEX
  5
82E
  8
DATA
  6
CONTINUOUS
 62
     7
 10
475.65786463999979
 20
616.82106781200025
 30
0.0
  0
VERTEX
  5
82F
  8
DATA
  6
CONTINUOUS
 62
     7
 10
475.65786463999979
 20
616.82106781200025
 30
0.0
  0
VERTEX
  5
830
  8
DATA
  6
CONTINUOUS
 62
     7
 10
475.6578646399991
 20
616.82106781199946
 30
0.0
 42
0.0201331389999224
  0
VERTEX
  5
831
  8
DATA
  6
CONTINUOUS
 62
     7
 10
475.24111243599992
 20
616.17787609700054
 30
0.0
  0
VERTEX
  5
832
  8
DATA
  6
CONTINUOUS
 62
     7
 10
475.24111243599992
 20
616.17787609700054
 30
0.0
  0
VERTEX
  5
833
  8
DATA
  6
CONTINUOUS
 62
     7
 10
475.24111243599992
 20
616.17787609700054
 30
0.0
 42
0.0190615840000882
  0
VERTEX
  5
834
  8
DATA
  6
CONTINUOUS
 62
     7
 10
474.86558498599987
 20
615.48576436400049
 30
0.0
  0
VERTEX
  5
835
  8
DATA
  6
CONTINUOUS
 62
     7
 10
474.86558498599987
 20
615.48576436400049
 30
0.0
  0
VERTEX
  5
836
  8
DATA
  6
CONTINUOUS
 62
     7
 10
474.86558498599987
 20
615.48576436400049
 30
0.0
 42
0.0181367480000549
  0
VERTEX
  5
837
  8
DATA
  6
CONTINUOUS
 62
     7
 10
474.534140283
 20
614.75000000000057
 30
0.0
  0
VERTEX
  5
838
  8
DATA
  6
CONTINUOUS
 62
     7
 10
474.534140283
 20
614.75000000000057
 30
0.0
  0
VERTEX
  5
839
  8
DATA
  6
CONTINUOUS
 62
     7
 10
474.5341402829992
 20
614.74999999999875
 30
0.0
 42
0.0173570479999211
  0
VERTEX
  5
83A
  8
DATA
  6
CONTINUOUS
 62
     7
 10
474.24930081899993
 20
613.97618261800039
 30
0.0
  0
VERTEX
  5
83B
  8
DATA
  6
CONTINUOUS
 62
     7
 10
474.24930081899993
 20
613.97618261800039
 30
0.0
  0
VERTEX
  5
83C
  8
DATA
  6
CONTINUOUS
 62
     7
 10
474.24930081899993
 20
613.97618261800039
 30
0.0
 42
0.0167177380001341
  0
VERTEX
  5
83D
  8
DATA
  6
CONTINUOUS
 62
     7
 10
474.01323439599992
 20
613.17020143400043
 30
0.0
  0
VERTEX
  5
83E
  8
DATA
  6
CONTINUOUS
 62
     7
 10
474.01323439599992
 20
613.17020143400043
 30
0.0
  0
VERTEX
  5
83F
  8
DATA
  6
CONTINUOUS
 62
     7
 10
474.01323439599992
 20
613.17020143400043
 30
0.0
 42
0.016212869000082
  0
VERTEX
  5
840
  8
DATA
  6
CONTINUOUS
 62
     7
 10
473.82773762099993
 20
612.33819045100029
 30
0.0
  0
VERTEX
  5
841
  8
DATA
  6
CONTINUOUS
 62
     7
 10
473.82773762099993
 20
612.33819045100029
 30
0.0
  0
VERTEX
  5
842
  8
DATA
  6
CONTINUOUS
 62
     7
 10
473.8277376209997
 20
612.3381904509987
 30
0.0
 42
0.0158365750000533
  0
VERTEX
  5
843
  8
DATA
  6
CONTINUOUS
 62
     7
 10
473.69422223699991
 20
611.48648177700034
 30
0.0
  0
VERTEX
  5
844
  8
DATA
  6
CONTINUOUS
 62
     7
 10
473.69422223699991
 20
611.48648177700034
 30
0.0
  0
VERTEX
  5
845
  8
DATA
  6
CONTINUOUS
 62
     7
 10
473.69422223699968
 20
611.48648177699909
 30
0.0
 42
0.0155838789999495
  0
VERTEX
  5
846
  8
DATA
  6
CONTINUOUS
 62
     7
 10
473.61370437599999
 20
610.62155742800041
 30
0.0
  0
VERTEX
  5
847
  8
DATA
  6
CONTINUOUS
 62
     7
 10
473.61370437599999
 20
610.62155742800041
 30
0.0
  0
VERTEX
  5
848
  8
DATA
  6
CONTINUOUS
 62
     7
 10
473.61370437599999
 20
610.62155742800064
 30
0.0
 42
0.0154511699999795
  0
VERTEX
  5
849
  8
DATA
  6
CONTINUOUS
 62
     7
 10
473.58679682799988
 20
609.75000000000045
 30
0.0
  0
VERTEX
  5
84A
  8
DATA
  6
CONTINUOUS
 62
     7
 10
473.58679682799988
 20
609.75000000000045
 30
0.0
  0
VERTEX
  5
84B
  8
DATA
  6
CONTINUOUS
 62
     7
 10
473.58679682799988
 20
609.75000000000045
 30
0.0
 42
0.0154364710000533
  0
VERTEX
  5
84C
  8
DATA
  6
CONTINUOUS
 62
     7
 10
473.61370437599999
 20
608.87844257300037
 30
0.0
  0
VERTEX
  5
84D
  8
DATA
  6
CONTINUOUS
 62
     7
 10
473.61370437599999
 20
608.87844257300037
 30
0.0
  0
VERTEX
  5
84E
  8
DATA
  6
CONTINUOUS
 62
     7
 10
473.61370437600021
 20
608.8784425729981
 30
0.0
 42
0.0155395599998391
  0
VERTEX
  5
84F
  8
DATA
  6
CONTINUOUS
 62
     7
 10
473.69422223699991
 20
608.01351822400045
 30
0.0
  0
VERTEX
  5
850
  8
DATA
  6
CONTINUOUS
 62
     7
 10
473.69422223699991
 20
608.01351822400045
 30
0.0
  0
VERTEX
  5
851
  8
DATA
  6
CONTINUOUS
 62
     7
 10
473.69422223699991
 20
608.01351822400045
 30
0.0
 42
0.0157619809999974
  0
VERTEX
  5
852
  8
DATA
  6
CONTINUOUS
 62
     7
 10
473.82773762099993
 20
607.16180954900017
 30
0.0
  0
VERTEX
  5
853
  8
DATA
  6
CONTINUOUS
 62
     7
 10
473.82773762099993
 20
607.16180954900017
 30
0.0
  0
VERTEX
  5
854
  8
DATA
  6
CONTINUOUS
 62
     7
 10
473.82773762099953
 20
607.16180954900165
 30
0.0
 42
0.0161069559999021
  0
VERTEX
  5
855
  8
DATA
  6
CONTINUOUS
 62
     7
 10
474.01323439599992
 20
606.32979856700035
 30
0.0
  0
VERTEX
  5
856
  8
DATA
  6
CONTINUOUS
 62
     7
 10
474.01323439599992
 20
606.32979856700035
 30
0.0
  0
VERTEX
  5
857
  8
DATA
  6
CONTINUOUS
 62
     7
 10
474.01323439600031
 20
606.32979856699865
 30
0.0
 42
0.0165791549998719
  0
VERTEX
  5
858
  8
DATA
  6
CONTINUOUS
 62
     7
 10
474.24930081899993
 20
605.52381738300051
 30
0.0
  0
VERTEX
  5
859
  8
DATA
  6
CONTINUOUS
 62
     7
 10
474.24930081899993
 20
605.52381738300051
 30
0.0
  0
VERTEX
  5
85A
  8
DATA
  6
CONTINUOUS
 62
     7
 10
474.24930081900038
 20
605.52381738299925
 30
0.0
 42
0.0171842830001154
  0
VERTEX
  5
85B
  8
DATA
  6
CONTINUOUS
 62
     7
 10
474.534140283
 20
604.75000000000045
 30
0.0
  0
VERTEX
  5
85C
  8
DATA
  6
CONTINUOUS
 62
     7
 10
474.534140283
 20
604.75000000000045
 30
0.0
  0
VERTEX
  5
85D
  8
DATA
  6
CONTINUOUS
 62
     7
 10
474.534140283
 20
604.75000000000045
 30
0.0
 42
0.0179283660000682
  0
VERTEX
  5
85E
  8
DATA
  6
CONTINUOUS
 62
     7
 10
474.86558498599987
 20
604.0142356370003
 30
0.0
  0
VERTEX
  5
85F
  8
DATA
  6
CONTINUOUS
 62
     7
 10
474.86558498599987
 20
604.0142356370003
 30
0.0
  0
VERTEX
  5
860
  8
DATA
  6
CONTINUOUS
 62
     7
 10
474.86558498599987
 20
604.0142356370003
 30
0.0
 42
0.018816605000049
  0
VERTEX
  5
861
  8
DATA
  6
CONTINUOUS
 62
     7
 10
475.24111243599992
 20
603.32212390300026
 30
0.0
  0
VERTEX
  5
862
  8
DATA
  6
CONTINUOUS
 62
     7
 10
475.24111243599992
 20
603.32212390300026
 30
0.0
  0
VERTEX
  5
863
  8
DATA
  6
CONTINUOUS
 62
     7
 10
475.24111243600078
 20
603.32212390299867
 30
0.0
 42
0.0198516010000735
  0
VERTEX
  5
864
  8
DATA
  6
CONTINUOUS
 62
     7
 10
475.65786463999979
 20
602.67893218800054
 30
0.0
  0
VERTEX
  5
865
  8
DATA
  6
CONTINUOUS
 62
     7
 10
475.65786463999979
 20
602.67893218800054
 30
0.0
  0
VERTEX
  5
866
  8
DATA
  6
CONTINUOUS
 62
     7
 10
475.65786464000013
 20
602.67893218799986
 30
0.0
 42
0.0210307679998506
  0
VERTEX
  5
867
  8
DATA
  6
CONTINUOUS
 62
     7
 10
476.11266986299978
 20
602.08955556900025
 30
0.0
  0
VERTEX
  5
868
  8
DATA
  6
CONTINUOUS
 62
     7
 10
476.11266986299978
 20
602.08955556900025
 30
0.0
  0
VERTEX
  5
869
  8
DATA
  6
CONTINUOUS
 62
     7
 10
476.11266986300149
 20
602.08955556899843
 30
0.0
 42
0.022342774999922
  0
VERTEX
  5
86A
  8
DATA
  6
CONTINUOUS
 62
     7
 10
476.60206676299998
 20
601.55847955700051
 30
0.0
  0
VERTEX
  5
86B
  8
DATA
  6
CONTINUOUS
 62
     7
 10
476.60206676299998
 20
601.55847955700051
 30
0.0
  0
VERTEX
  5
86C
  8
DATA
  6
CONTINUOUS
 62
     7
 10
476.60206676299998
 20
601.55847955700051
 30
0.0
 42
0.0237630950000736
  0
VERTEX
  5
86D
  8
DATA
  6
CONTINUOUS
 62
     7
 10
477.12233073399989
 20
601.0897459630005
 30
0.0
  0
VERTEX
  5
86E
  8
DATA
  6
CONTINUOUS
 62
     7
 10
477.12233073399989
 20
601.0897459630005
 30
0.0
  0
VERTEX
  5
86F
  8
DATA
  6
CONTINUOUS
 62
     7
 10
477.12233073399989
 20
601.0897459630005
 30
0.0
 42
0.0252491760000893
  0
VERTEX
  5
870
  8
DATA
  6
CONTINUOUS
 62
     7
 10
477.6695022519998
 20
600.68692213000054
 30
0.0
  0
VERTEX
  5
871
  8
DATA
  6
CONTINUOUS
 62
     7
 10
477.6695022519998
 20
600.68692213000054
 30
0.0
  0
VERTEX
  5
872
  8
DATA
  6
CONTINUOUS
 62
     7
 10
477.6695022519998
 20
600.68692213000054
 30
0.0
 42
0.026736517000187
  0
VERTEX
  5
873
  8
DATA
  6
CONTINUOUS
 62
     7
 10
478.23941701299992
 20
600.35307379200037
 30
0.0
  0
VERTEX
  5
874
  8
DATA
  6
CONTINUOUS
 62
     7
 10
478.23941701299992
 20
600.35307379200037
 30
0.0
  0
VERTEX
  5
875
  8
DATA
  6
CONTINUOUS
 62
     7
 10
478.23941701300163
 20
600.35307379199946
 30
0.0
 42
0.0281378350000774
  0
VERTEX
  5
876
  8
DATA
  6
CONTINUOUS
 62
     7
 10
478.82773762099993
 20
600.09074173700037
 30
0.0
  0
VERTEX
  5
877
  8
DATA
  6
CONTINUOUS
 62
     7
 10
478.82773762099993
 20
600.09074173700037
 30
0.0
  0
VERTEX
  5
878
  8
DATA
  6
CONTINUOUS
 62
     7
 10
478.82773762100192
 20
600.09074173699958
 30
0.0
 42
0.0293480879998638
  0
VERTEX
  5
879
  8
DATA
  6
CONTINUOUS
 62
     7
 10
479.42998659999989
 20
599.90192247000039
 30
0.0
  0
VERTEX
  5
87A
  8
DATA
  6
CONTINUOUS
 62
     7
 10
479.42998659999989
 20
599.90192247000039
 30
0.0
  0
VERTEX
  5
87B
  8
DATA
  6
CONTINUOUS
 62
     7
 10
479.42998660000148
 20
599.90192247000004
 30
0.0
 42
0.0302573149999757
  0
VERTEX
  5
87C
  8
DATA
  6
CONTINUOUS
 62
     7
 10
480.04158047299978
 20
599.78805301900047
 30
0.0
  0
VERTEX
  5
87D
  8
DATA
  6
CONTINUOUS
 62
     7
 10
480.04158047299978
 20
599.78805301900047
 30
0.0
  0
VERTEX
  5
87E
  8
DATA
  6
CONTINUOUS
 62
     7
 10
480.04158047299973
 20
599.78805301900047
 30
0.0
 42
0.030770445999932
  0
VERTEX
  5
87F
  8
DATA
  6
CONTINUOUS
 62
     7
 10
480.65786463999979
 20
599.75000000000045
 30
0.0
  0
VERTEX
  5
880
  8
DATA
  6
CONTINUOUS
 62
     7
 10
480.65786463999979
 20
599.75000000000045
 30
0.0
  0
VERTEX
  5
881
  8
DATA
  6
CONTINUOUS
 62
     7
 10
480.65786463999979
 20
599.75000000000045
 30
0.0
 42
0.0308289070000532
  0
VERTEX
  5
882
  8
DATA
  6
CONTINUOUS
 62
     7
 10
481.27414880700007
 20
599.78805301900047
 30
0.0
  0
VERTEX
  5
883
  8
DATA
  6
CONTINUOUS
 62
     7
 10
481.27414880700007
 20
599.78805301900047
 30
0.0
  0
VERTEX
  5
884
  8
DATA
  6
CONTINUOUS
 62
     7
 10
481.27414880700059
 20
599.78805301900047
 30
0.0
 42
0.0304257970000659
  0
VERTEX
  5
885
  8
DATA
  6
CONTINUOUS
 62
     7
 10
481.88574267899997
 20
599.90192247000039
 30
0.0
  0
VERTEX
  5
886
  8
DATA
  6
CONTINUOUS
 62
     7
 10
481.88574267899997
 20
599.90192247000039
 30
0.0
  0
VERTEX
  5
887
  8
DATA
  6
CONTINUOUS
 62
     7
 10
481.88574267899929
 20
599.90192247000027
 30
0.0
 42
0.0296077559999026
  0
VERTEX
  5
888
  8
DATA
  6
CONTINUOUS
 62
     7
 10
482.4879916589997
 20
600.09074173700037
 30
0.0
  0
VERTEX
  5
889
  8
DATA
  6
CONTINUOUS
 62
     7
 10
482.4879916589997
 20
600.09074173700037
 30
0.0
  0
VERTEX
  5
88A
  8
DATA
  6
CONTINUOUS
 62
     7
 10
482.48799165900198
 20
600.09074173700117
 30
0.0
 42
0.0284626549999424
  0
VERTEX
  5
88B
  8
DATA
  6
CONTINUOUS
 62
     7
 10
483.076312266
 20
600.35307379200037
 30
0.0
  0
VERTEX
  5
88C
  8
DATA
  6
CONTINUOUS
 62
     7
 10
483.076312266
 20
600.35307379200037
 30
0.0
  0
VERTEX
  5
88D
  8
DATA
  6
CONTINUOUS
 62
     7
 10
483.07631226600103
 20
600.35307379200106
 30
0.0
 42
0.027098780000006
  0
VERTEX
  5
88E
  8
DATA
  6
CONTINUOUS
 62
     7
 10
483.6462270269999
 20
600.68692213000054
 30
0.0
  0
VERTEX
  5
88F
  8
DATA
  6
CONTINUOUS
 62
     7
 10
483.6462270269999
 20
600.68692213000054
 30
0.0
  0
VERTEX
  5
890
  8
DATA
  6
CONTINUOUS
 62
     7
 10
483.6462270269999
 20
600.68692213000054
 30
0.0
 42
0.0256239270001096
  0
VERTEX
  5
891
  8
DATA
  6
CONTINUOUS
 62
     7
 10
484.19339854599991
 20
601.0897459630005
 30
0.0
  0
VERTEX
  5
892
  8
DATA
  6
CONTINUOUS
 62
     7
 10
484.19339854599991
 20
601.0897459630005
 30
0.0
  0
VERTEX
  5
893
  8
DATA
  6
CONTINUOUS
 62
     7
 10
484.19339854599991
 20
601.0897459630005
 30
0.0
 42
0.0241305730000032
  0
VERTEX
  5
894
  8
DATA
  6
CONTINUOUS
 62
     7
 10
484.71366251599989
 20
601.55847955700051
 30
0.0
  0
VERTEX
  5
895
  8
DATA
  6
CONTINUOUS
 62
     7
 10
484.71366251599989
 20
601.55847955700051
 30
0.0
  0
VERTEX
  5
896
  8
DATA
  6
CONTINUOUS
 62
     7
 10
484.71366251599989
 20
601.55847955700051
 30
0.0
 42
0.0226890190001124
  0
VERTEX
  5
897
  8
DATA
  6
CONTINUOUS
 62
     7
 10
485.20305941600009
 20
602.08955556900025
 30
0.0
  0
VERTEX
  5
898
  8
DATA
  6
CONTINUOUS
 62
     7
 10
485.20305941600009
 20
602.08955556900025
 30
0.0
  0
VERTEX
  5
899
  8
DATA
  6
CONTINUOUS
 62
     7
 10
485.20305941600009
 20
602.08955556900025
 30
0.0
 42
0.0213470120000118
  0
VERTEX
  5
89A
  8
DATA
  6
CONTINUOUS
 62
     7
 10
485.65786463999979
 20
602.67893218800054
 30
0.0
  0
VERTEX
  5
89B
  8
DATA
  6
CONTINUOUS
 62
     7
 10
485.65786463999979
 20
602.67893218800054
 30
0.0
  0
VERTEX
  5
89C
  8
DATA
  6
CONTINUOUS
 62
     7
 10
485.65786463999979
 20
602.67893218800054
 30
0.0
 42
0.0201331390002117
  0
VERTEX
  5
89D
  8
DATA
  6
CONTINUOUS
 62
     7
 10
486.07461684399971
 20
603.32212390300026
 30
0.0
  0
VERTEX
  5
89E
  8
DATA
  6
CONTINUOUS
 62
     7
 10
486.07461684399971
 20
603.32212390300026
 30
0.0
  0
VERTEX
  5
89F
  8
DATA
  6
CONTINUOUS
 62
     7
 10
486.0746168440001
 20
603.32212390300106
 30
0.0
 42
0.0190615839999314
  0
VERTEX
  5
8A0
  8
DATA
  6
CONTINUOUS
 62
     7
 10
486.45014429299999
 20
604.0142356370003
 30
0.0
  0
VERTEX
  5
8A1
  8
DATA
  6
CONTINUOUS
 62
     7
 10
486.45014429299999
 20
604.0142356370003
 30
0.0
  0
VERTEX
  5
8A2
  8
DATA
  6
CONTINUOUS
 62
     7
 10
486.45014429299999
 20
604.0142356370003
 30
0.0
 42
0.018136748000025
  0
VERTEX
  5
8A3
  8
DATA
  6
CONTINUOUS
 62
     7
 10
486.78158899699997
 20
604.75000000000045
 30
0.0
  0
VERTEX
  5
8A4
  8
DATA
  6
CONTINUOUS
 62
     7
 10
486.78158899699997
 20
604.75000000000045
 30
0.0
  0
VERTEX
  5
8A5
  8
DATA
  6
CONTINUOUS
 62
     7
 10
486.78158899699997
 20
604.75000000000045
 30
0.0
 42
0.0173570480000588
  0
VERTEX
  5
8A6
  8
DATA
  6
CONTINUOUS
 62
     7
 10
487.06642845999971
 20
605.52381738300051
 30
0.0
  0
VERTEX
  5
8A7
  8
DATA
  6
CONTINUOUS
 62
     7
 10
487.06642845999971
 20
605.52381738300051
 30
0.0
  0
VERTEX
  5
8A8
  8
DATA
  6
CONTINUOUS
 62
     7
 10
487.06642845999971
 20
605.52381738300051
 30
0.0
 42
0.0167177380000535
  0
VERTEX
  5
8A9
  8
DATA
  6
CONTINUOUS
 62
     7
 10
487.30249488399971
 20
606.32979856700035
 30
0.0
  0
VERTEX
  5
8AA
  8
DATA
  6
CONTINUOUS
 62
     7
 10
487.30249488399971
 20
606.32979856700035
 30
0.0
  0
VERTEX
  5
8AB
  8
DATA
  6
CONTINUOUS
 62
     7
 10
487.30249488399971
 20
606.32979856700035
 30
0.0
 42
0.0162128690001626
  0
VERTEX
  5
8AC
  8
DATA
  6
CONTINUOUS
 62
     7
 10
487.4879916589997
 20
607.16180954900017
 30
0.0
  0
VERTEX
  5
8AD
  8
DATA
  6
CONTINUOUS
 62
     7
 10
487.4879916589997
 20
607.16180954900017
 30
0.0
  0
VERTEX
  5
8AE
  8
DATA
  6
CONTINUOUS
 62
     7
 10
487.48799165899987
 20
607.16180954900017
 30
0.0
 42
0.0158365750000248
  0
VERTEX
  5
8AF
  8
DATA
  6
CONTINUOUS
 62
     7
 10
487.62150704299978
 20
608.01351822400045
 30
0.0
  0
VERTEX
  5
8B0
  8
DATA
  6
CONTINUOUS
 62
     7
 10
487.62150704299978
 20
608.01351822400045
 30
0.0
  0
VERTEX
  5
8B1
  8
DATA
  6
CONTINUOUS
 62
     7
 10
487.62150704299978
 20
608.01351822400045
 30
0.0
 42
0.0155838790000476
  0
VERTEX
  5
8B2
  8
DATA
  6
CONTINUOUS
 62
     7
 10
487.70202490399993
 20
608.87844257300037
 30
0.0
  0
VERTEX
  5
8B3
  8
DATA
  6
CONTINUOUS
 62
     7
 10
487.70202490399993
 20
608.87844257300037
 30
0.0
  0
VERTEX
  5
8B4
  8
DATA
  6
CONTINUOUS
 62
     7
 10
487.70202490399993
 20
608.87844257300037
 30
0.0
 42
0.0154511700000253
  0
VERTEX
  5
8B5
  8
DATA
  6
CONTINUOUS
 62
     7
 10
487.72893245199992
 20
609.75000000000045
 30
0.0
  0
VERTEX
  5
8B6
  8
DATA
  6
CONTINUOUS
 62
     7
 10
487.72893245199992
 20
609.75000000000045
 30
0.0
  0
VERTEX
  5
8B7
  8
DATA
  6
CONTINUOUS
 62
     7
 10
487.72893245199992
 20
609.75000000000045
 30
0.0
 42
0.0154364710000726
  0
VERTEX
  5
8B8
  8
DATA
  6
CONTINUOUS
 62
     7
 10
487.70202490399993
 20
610.62155742800041
 30
0.0
  0
VERTEX
  5
8B9
  8
DATA
  6
CONTINUOUS
 62
     7
 10
487.70202490399993
 20
610.62155742800041
 30
0.0
  0
VERTEX
  5
8BA
  8
DATA
  6
CONTINUOUS
 62
     7
 10
487.70202490399993
 20
610.62155742800041
 30
0.0
 42
0.0155395600000161
  0
VERTEX
  5
8BB
  8
DATA
  6
CONTINUOUS
 62
     7
 10
487.62150704299978
 20
611.48648177700034
 30
0.0
  0
VERTEX
  5
8BC
  8
DATA
  6
CONTINUOUS
 62
     7
 10
487.62150704299978
 20
611.48648177700034
 30
0.0
  0
VERTEX
  5
8BD
  8
DATA
  6
CONTINUOUS
 62
     7
 10
487.62150704299978
 20
611.48648177700034
 30
0.0
 42
0.0157619810001177
  0
VERTEX
  5
8BE
  8
DATA
  6
CONTINUOUS
 62
     7
 10
487.4879916589997
 20
612.33819045100029
 30
0.0
  0
VERTEX
  5
8BF
  8
DATA
  6
CONTINUOUS
 62
     7
 10
487.4879916589997
 20
612.33819045100029
 30
0.0
  0
VERTEX
  5
8C0
  8
DATA
  6
CONTINUOUS
 62
     7
 10
487.4879916589997
 20
612.33819045100029
 30
0.0
 42
0.0161069560000707
  0
VERTEX
  5
8C1
  8
DATA
  6
CONTINUOUS
 62
     7
 10
487.30249488399971
 20
613.17020143400043
 30
0.0
  0
VERTEX
  5
8C2
  8
DATA
  6
CONTINUOUS
 62
     7
 10
487.30249488399971
 20
613.17020143400043
 30
0.0
  0
VERTEX
  5
8C3
  8
DATA
  6
CONTINUOUS
 62
     7
 10
487.30249488399971
 20
613.17020143400043
 30
0.0
 42
0.0165791550002309
  0
VERTEX
  5
8C4
  8
DATA
  6
CONTINUOUS
 62
     7
 10
487.06642845999971
 20
613.97618261800039
 30
0.0
  0
VERTEX
  5
8C5
  8
DATA
  6
CONTINUOUS
 62
     7
 10
487.06642845999971
 20
613.97618261800039
 30
0.0
  0
VERTEX
  5
8C6
  8
DATA
  6
CONTINUOUS
 62
     7
 10
487.06642845999971
 20
613.97618261800039
 30
0.0
 42
0.0171842830000136
  0
VERTEX
  5
8C7
  8
DATA
  6
CONTINUOUS
 62
     7
 10
486.78158899699997
 20
614.75000000000057
 30
0.0
  0
VERTEX
  5
8C8
  8
DATA
  6
CONTINUOUS
 62
     7
 10
486.78158899699997
 20
614.75000000000057
 30
0.0
  0
VERTEX
  5
8C9
  8
DATA
  6
CONTINUOUS
 62
     7
 10
486.78158899699838
 20
614.75000000000432
 30
0.0
 42
0.0179283659998306
  0
VERTEX
  5
8CA
  8
DATA
  6
CONTINUOUS
 62
     7
 10
486.45014429299999
 20
615.48576436400049
 30
0.0
  0
VERTEX
  5
8CB
  8
DATA
  6
CONTINUOUS
 62
     7
 10
486.45014429299999
 20
615.48576436400049
 30
0.0
  0
VERTEX
  5
8CC
  8
DATA
  6
CONTINUOUS
 62
     7
 10
486.45014429299829
 20
615.48576436400378
 30
0.0
 42
0.0188166049999043
  0
VERTEX
  5
8CD
  8
DATA
  6
CONTINUOUS
 62
     7
 10
486.07461684399971
 20
616.17787609700054
 30
0.0
  0
VERTEX
  5
8CE
  8
DATA
  6
CONTINUOUS
 62
     7
 10
486.07461684399971
 20
616.17787609700054
 30
0.0
  0
VERTEX
  5
8CF
  8
DATA
  6
CONTINUOUS
 62
     7
 10
486.07461684399988
 20
616.17787609700065
 30
0.0
 42
0.019851600999742
  0
VERTEX
  5
8D0
  8
DATA
  6
CONTINUOUS
 62
     7
 10
485.65786463999979
 20
616.82106781200025
 30
0.0
  0
VERTEX
  5
8D1
  8
DATA
  6
CONTINUOUS
 62
     7
 10
485.65786463999979
 20
616.82106781200025
 30
0.0
  0
VERTEX
  5
8D2
  8
DATA
  6
CONTINUOUS
 62
     7
 10
485.65786463999939
 20
616.82106781200105
 30
0.0
 42
0.0210307679999319
  0
VERTEX
  5
8D3
  8
DATA
  6
CONTINUOUS
 62
     7
 10
485.20305941600009
 20
617.41044443200053
 30
0.0
  0
VERTEX
  5
8D4
  8
DATA
  6
CONTINUOUS
 62
     7
 10
485.20305941600009
 20
617.41044443200053
 30
0.0
  0
VERTEX
  5
8D5
  8
DATA
  6
CONTINUOUS
 62
     7
 10
485.20305941600009
 20
617.41044443200053
 30
0.0
 42
0.0223427749999459
  0
VERTEX
  5
8D6
  8
DATA
  6
CONTINUOUS
 62
     7
 10
484.71366251599989
 20
617.9415204430004
 30
0.0
  0
VERTEX
  5
8D7
  8
DATA
  6
CONTINUOUS
 62
     7
 10
484.71366251599989
 20
617.9415204430004
 30
0.0
  0
VERTEX
  5
8D8
  8
DATA
  6
CONTINUOUS
 62
     7
 10
484.71366251600023
 20
617.94152044299994
 30
0.0
 42
0.0237630949999149
  0
VERTEX
  5
8D9
  8
DATA
  6
CONTINUOUS
 62
     7
 10
484.19339854599991
 20
618.4102540380004
 30
0.0
  0
VERTEX
  5
8DA
  8
DATA
  6
CONTINUOUS
 62
     7
 10
484.19339854599991
 20
618.4102540380004
 30
0.0
  0
VERTEX
  5
8DB
  8
DATA
  6
CONTINUOUS
 62
     7
 10
484.19339854599821
 20
618.41025403800188
 30
0.0
 42
0.025249175999808
  0
VERTEX
  5
8DC
  8
DATA
  6
CONTINUOUS
 62
     7
 10
483.6462270269999
 20
618.81307787100047
 30
0.0
  0
VERTEX
  5
8DD
  8
DATA
  6
CONTINUOUS
 62
     7
 10
483.6462270269999
 20
618.81307787100047
 30
0.0
  0
VERTEX
  5
8DE
  8
DATA
  6
CONTINUOUS
 62
     7
 10
483.64622702699933
 20
618.81307787100093
 30
0.0
 42
0.026736516999788
  0
VERTEX
  5
8DF
  8
DATA
  6
CONTINUOUS
 62
     7
 10
483.076312266
 20
619.14692620800042
 30
0.0
  0
VERTEX
  5
8E0
  8
DATA
  6
CONTINUOUS
 62
     7
 10
483.076312266
 20
619.14692620800042
 30
0.0
  0
VERTEX
  5
8E1
  8
DATA
  6
CONTINUOUS
 62
     7
 10
483.07631226599852
 20
619.14692620800122
 30
0.0
 42
0.0281378349998014
  0
VERTEX
  5
8E2
  8
DATA
  6
CONTINUOUS
 62
     7
 10
482.4879916589997
 20
619.40925826300054
 30
0.0
  0
VERTEX
  5
8E3
  8
DATA
  6
CONTINUOUS
 62
     7
 10
482.4879916589997
 20
619.40925826300054
 30
0.0
  0
VERTEX
  5
8E4
  8
DATA
  6
CONTINUOUS
 62
     7
 10
482.4879916589997
 20
619.40925826300054
 30
0.0
 42
0.0293480880000605
  0
VERTEX
  5
8E5
  8
DATA
  6
CONTINUOUS
 62
     7
 10
481.88574267899997
 20
619.59807753000041
 30
0.0
  0
VERTEX
  5
8E6
  8
DATA
  6
CONTINUOUS
 62
     7
 10
481.88574267899997
 20
619.59807753000041
 30
0.0
  0
VERTEX
  5
8E7
  8
DATA
  6
CONTINUOUS
 62
     7
 10
481.88574267899997
 20
619.59807753000041
 30
0.0
 42
0.0302573150001983
  0
VERTEX
  5
8E8
  8
DATA
  6
CONTINUOUS
 62
     7
 10
481.27414880700007
 20
619.71194698100055
 30
0.0
  0
VERTEX
  5
8E9
  8
DATA
  6
CONTINUOUS
 62
     7
 10
481.27414880700007
 20
619.71194698100055
 30
0.0
  0
VERTEX
  5
8EA
  8
DATA
  6
CONTINUOUS
 62
     7
 10
481.2741488069986
 20
619.71194698100055
 30
0.0
 42
0.0307704460000735
  0
VERTEX
  5
8EB
  8
DATA
  6
CONTINUOUS
 62
     7
 10
480.65786463999979
 20
619.75000000000057
 30
0.0
  0
SEQEND
  5
8EC
  8
DATA
  6
CONTINUOUS
 62
     7
  0
POLYLINE
  5
543
  8
DATA
  6
CONTINUOUS
 62
     7
 66
     1
 10
0.0
 20
0.0
 30
0.0
 70
   128
  0
VERTEX
  5
8ED
  8
DATA
  6
CONTINUOUS
 62
     7
 10
481.78923549099989
 20
619.62117014400042
 30
0.0
 42
0.0300536240001608
  0
VERTEX
  5
8EE
  8
DATA
  6
CONTINUOUS
 62
     7
 10
481.17926638199992
 20
619.44203127900016
 30
0.0
  0
VERTEX
  5
8EF
  8
DATA
  6
CONTINUOUS
 62
     7
 10
481.17926638199992
 20
619.44203127900016
 30
0.0
  0
VERTEX
  5
8F0
  8
DATA
  6
CONTINUOUS
 62
     7
 10
481.1792663819993
 20
619.44203127900005
 30
0.0
 42
0.0289290129999932
  0
VERTEX
  5
8F1
  8
DATA
  6
CONTINUOUS
 62
     7
 10
480.58281382099989
 20
619.18766137800048
 30
0.0
  0
VERTEX
  5
8F2
  8
DATA
  6
CONTINUOUS
 62
     7
 10
480.58281382099989
 20
619.18766137800048
 30
0.0
  0
VERTEX
  5
8F3
  8
DATA
  6
CONTINUOUS
 62
     7
 10
480.58281382099773
 20
619.18766137799935
 30
0.0
 42
0.0275624569998378
  0
VERTEX
  5
8F4
  8
DATA
  6
CONTINUOUS
 62
     7
 10
480.00450756499993
 20
618.86003490000041
 30
0.0
  0
VERTEX
  5
8F5
  8
DATA
  6
CONTINUOUS
 62
     7
 10
480.00450756499993
 20
618.86003490000041
 30
0.0
  0
VERTEX
  5
8F6
  8
DATA
  6
CONTINUOUS
 62
     7
 10
480.00450756499703
 20
618.86003489999882
 30
0.0
 42
0.0260672349997453
  0
VERTEX
  5
8F7
  8
DATA
  6
CONTINUOUS
 62
     7
 10
479.44883651499981
 20
618.46169493100035
 30
0.0
  0
VERTEX
  5
8F8
  8
DATA
  6
CONTINUOUS
 62
     7
 10
479.44883651499981
 20
618.46169493100035
 30
0.0
  0
VERTEX
  5
8F9
  8
DATA
  6
CONTINUOUS
 62
     7
 10
479.44883651499981
 20
618.46169493100035
 30
0.0
 42
0.0245421770000508
  0
VERTEX
  5
8FA
  8
DATA
  6
CONTINUOUS
 62
     7
 10
478.9201138759999
 20
617.99573344900045
 30
0.0
  0
VERTEX
  5
8FB
  8
DATA
  6
CONTINUOUS
 62
     7
 10
478.9201138759999
 20
617.99573344900045
 30
0.0
  0
VERTEX
  5
8FC
  8
DATA
  6
CONTINUOUS
 62
     7
 10
478.92011387599911
 20
617.99573344899943
 30
0.0
 42
0.0230633139999842
  0
VERTEX
  5
8FD
  8
DATA
  6
CONTINUOUS
 62
     7
 10
478.42244367399991
 20
617.46576731600055
 30
0.0
  0
VERTEX
  5
8FE
  8
DATA
  6
CONTINUOUS
 62
     7
 10
478.42244367399991
 20
617.46576731600055
 30
0.0
  0
VERTEX
  5
8FF
  8
DATA
  6
CONTINUOUS
 62
     7
 10
478.42244367399968
 20
617.46576731600055
 30
0.0
 42
0.0216827840000497
  0
VERTEX
  5
900
  8
DATA
  6
CONTINUOUS
 62
     7
 10
477.95968890199993
 20
616.87591021300045
 30
0.0
  0
VERTEX
  5
901
  8
DATA
  6
CONTINUOUS
 62
     7
 10
477.95968890199993
 20
616.87591021300045
 30
0.0
  0
VERTEX
  5
902
  8
DATA
  6
CONTINUOUS
 62
     7
 10
477.95968890199993
 20
616.87591021300045
 30
0.0
 42
0.0204321250000472
  0
VERTEX
  5
903
  8
DATA
  6
CONTINUOUS
 62
     7
 10
477.53544153299981
 20
616.23074070000052
 30
0.0
  0
VERTEX
  5
904
  8
DATA
  6
CONTINUOUS
 62
     7
 10
477.53544153299981
 20
616.23074070000052
 30
0.0
  0
VERTEX
  5
905
  8
DATA
  6
CONTINUOUS
 62
     7
 10
477.5354415329989
 20
616.23074069999882
 30
0.0
 42
0.0193272499999318
  0
VERTEX
  5
906
  8
DATA
  6
CONTINUOUS
 62
     7
 10
477.15299463999992
 20
615.53526668200038
 30
0.0
  0
VERTEX
  5
907
  8
DATA
  6
CONTINUOUS
 62
     7
 10
477.15299463999992
 20
615.53526668200038
 30
0.0
  0
VERTEX
  5
908
  8
DATA
  6
CONTINUOUS
 62
     7
 10
477.15299463999992
 20
615.53526668200038
 30
0.0
 42
0.0183734080001509
  0
VERTEX
  5
909
  8
DATA
  6
CONTINUOUS
 62
     7
 10
476.81531683599991
 20
614.79488653500027
 30
0.0
  0
VERTEX
  5
90A
  8
DATA
  6
CONTINUOUS
 62
     7
 10
476.81531683599991
 20
614.79488653500027
 30
0.0
  0
VERTEX
  5
90B
  8
DATA
  6
CONTINUOUS
 62
     7
 10
476.81531683599991
 20
614.79488653500027
 30
0.0
 42
0.0175692910001374
  0
VERTEX
  5
90C
  8
DATA
  6
CONTINUOUS
 62
     7
 10
476.5250292259999
 20
614.01534720400036
 30
0.0
  0
VERTEX
  5
90D
  8
DATA
  6
CONTINUOUS
 62
     7
 10
476.5250292259999
 20
614.01534720400036
 30
0.0
  0
VERTEX
  5
90E
  8
DATA
  6
CONTINUOUS
 62
     7
 10
476.5250292259999
 20
614.01534720400036
 30
0.0
 42
0.016910099000068
  0
VERTEX
  5
90F
  8
DATA
  6
CONTINUOUS
 62
     7
 10
476.28438506799989
 20
613.20269959300037
 30
0.0
  0
VERTEX
  5
910
  8
DATA
  6
CONTINUOUS
 62
     7
 10
476.28438506799989
 20
613.20269959300037
 30
0.0
  0
VERTEX
  5
911
  8
DATA
  6
CONTINUOUS
 62
     7
 10
476.28438506799989
 20
613.20269959300037
 30
0.0
 42
0.0163896760000511
  0
VERTEX
  5
912
  8
DATA
  6
CONTINUOUS
 62
     7
 10
476.09525227999978
 20
612.36325159800049
 30
0.0
  0
VERTEX
  5
913
  8
DATA
  6
CONTINUOUS
 62
     7
 10
476.09525227999978
 20
612.36325159800049
 30
0.0
  0
VERTEX
  5
914
  8
DATA
  6
CONTINUOUS
 62
     7
 10
476.09525227999922
 20
612.36325159799765
 30
0.0
 42
0.0160018980000289
  0
VERTEX
  5
915
  8
DATA
  6
CONTINUOUS
 62
     7
 10
475.95909893699991
 20
611.5035191420003
 30
0.0
  0
VERTEX
  5
916
  8
DATA
  6
CONTINUOUS
 62
     7
 10
475.95909893699991
 20
611.5035191420003
 30
0.0
  0
VERTEX
  5
917
  8
DATA
  6
CONTINUOUS
 62
     7
 10
475.95909893699991
 20
611.5035191420003
 30
0.0
 42
0.0157415490000371
  0
VERTEX
  5
918
  8
DATA
  6
CONTINUOUS
 62
     7
 10
475.87698188499991
 20
610.63017560100047
 30
0.0
  0
VERTEX
  5
919
  8
DATA
  6
CONTINUOUS
 62
     7
 10
475.87698188499991
 20
610.63017560100047
 30
0.0
  0
VERTEX
  5
91A
  8
DATA
  6
CONTINUOUS
 62
     7
 10
475.87698188499962
 20
610.63017560099809
 30
0.0
 42
0.0156048429999215
  0
VERTEX
  5
91B
  8
DATA
  6
CONTINUOUS
 62
     7
 10
475.84953852799981
 20
609.75000000200032
 30
0.0
  0
VERTEX
  5
91C
  8
DATA
  6
CONTINUOUS
 62
     7
 10
475.84953852799981
 20
609.75000000200032
 30
0.0
  0
VERTEX
  5
91D
  8
DATA
  6
CONTINUOUS
 62
     7
 10
475.84953852799981
 20
609.75000000199486
 30
0.0
 42
0.015589701999848
  0
VERTEX
  5
91E
  8
DATA
  6
CONTINUOUS
 62
     7
 10
475.87698188499991
 20
608.8698244020004
 30
0.0
  0
VERTEX
  5
91F
  8
DATA
  6
CONTINUOUS
 62
     7
 10
475.87698188499991
 20
608.8698244020004
 30
0.0
  0
VERTEX
  5
920
  8
DATA
  6
CONTINUOUS
 62
     7
 10
475.87698188499991
 20
608.86982440200063
 30
0.0
 42
0.0156958930000793
  0
VERTEX
  5
921
  8
DATA
  6
CONTINUOUS
 62
     7
 10
475.95909893699991
 20
607.99648086200045
 30
0.0
  0
VERTEX
  5
922
  8
DATA
  6
CONTINUOUS
 62
     7
 10
475.95909893699991
 20
607.99648086200045
 30
0.0
  0
VERTEX
  5
923
  8
DATA
  6
CONTINUOUS
 62
     7
 10
475.95909893700031
 20
607.99648086199818
 30
0.0
 42
0.0159250390000531
  0
VERTEX
  5
924
  8
DATA
  6
CONTINUOUS
 62
     7
 10
476.09525227899991
 20
607.13674840600038
 30
0.0
  0
VERTEX
  5
925
  8
DATA
  6
CONTINUOUS
 62
     7
 10
476.09525227899991
 20
607.13674840600038
 30
0.0
  0
VERTEX
  5
926
  8
DATA
  6
CONTINUOUS
 62
     7
 10
476.09525227899991
 20
607.13674840600038
 30
0.0
 42
0.0162805200000838
  0
VERTEX
  5
927
  8
DATA
  6
CONTINUOUS
 62
     7
 10
476.28438506799989
 20
606.29730041000039
 30
0.0
  0
VERTEX
  5
928
  8
DATA
  6
CONTINUOUS
 62
     7
 10
476.28438506799989
 20
606.29730041000039
 30
0.0
  0
VERTEX
  5
929
  8
DATA
  6
CONTINUOUS
 62
     7
 10
476.28438506799989
 20
606.29730041000039
 30
0.0
 42
0.0167672320000055
  0
VERTEX
  5
92A
  8
DATA
  6
CONTINUOUS
 62
     7
 10
476.5250292249998
 20
605.48465279900029
 30
0.0
  0
VERTEX
  5
92B
  8
DATA
  6
CONTINUOUS
 62
     7
 10
476.5250292249998
 20
605.48465279900029
 30
0.0
  0
VERTEX
  5
92C
  8
DATA
  6
CONTINUOUS
 62
     7
 10
476.52502922500048
 20
605.48465279899801
 30
0.0
 42
0.0173911359999838
  0
VERTEX
  5
92D
  8
DATA
  6
CONTINUOUS
 62
     7
 10
476.81531683499992
 20
604.70511346800038
 30
0.0
  0
VERTEX
  5
92E
  8
DATA
  6
CONTINUOUS
 62
     7
 10
476.81531683499992
 20
604.70511346800038
 30
0.0
  0
VERTEX
  5
92F
  8
DATA
  6
CONTINUOUS
 62
     7
 10
476.81531683499992
 20
604.70511346800038
 30
0.0
 42
0.0181584890001744
  0
VERTEX
  5
930
  8
DATA
  6
CONTINUOUS
 62
     7
 10
477.15299463899993
 20
603.96473332100038
 30
0.0
  0
VERTEX
  5
931
  8
DATA
  6
CONTINUOUS
 62
     7
 10
477.15299463899993
 20
603.96473332100038
 30
0.0
  0
VERTEX
  5
932
  8
DATA
  6
CONTINUOUS
 62
     7
 10
477.15299463900061
 20
603.96473332099902
 30
0.0
 42
0.0190745959999157
  0
VERTEX
  5
933
  8
DATA
  6
CONTINUOUS
 62
     7
 10
477.53544153199982
 20
603.26925930300035
 30
0.0
  0
VERTEX
  5
934
  8
DATA
  6
CONTINUOUS
 62
     7
 10
477.53544153199982
 20
603.26925930300035
 30
0.0
  0
VERTEX
  5
935
  8
DATA
  6
CONTINUOUS
 62
     7
 10
477.53544153199999
 20
603.2692593029999
 30
0.0
 42
0.0201418859999621
  0
VERTEX
  5
936
  8
DATA
  6
CONTINUOUS
 62
     7
 10
477.95968890099999
 20
602.62408979000043
 30
0.0
  0
VERTEX
  5
937
  8
DATA
  6
CONTINUOUS
 62
     7
 10
477.95968890099999
 20
602.62408979000043
 30
0.0
  0
VERTEX
  5
938
  8
DATA
  6
CONTINUOUS
 62
     7
 10
477.95968890099999
 20
602.62408979000043
 30
0.0
 42
0.0213570959999839
  0
VERTEX
  5
939
  8
DATA
  6
CONTINUOUS
 62
     7
 10
478.42244367299992
 20
602.03423268600056
 30
0.0
  0
VERTEX
  5
93A
  8
DATA
  6
CONTINUOUS
 62
     7
 10
478.42244367299992
 20
602.03423268600056
 30
0.0
  0
VERTEX
  5
93B
  8
DATA
  6
CONTINUOUS
 62
     7
 10
478.42244367299838
 20
602.03423268600216
 30
0.0
 42
0.0227074139998937
  0
VERTEX
  5
93C
  8
DATA
  6
CONTINUOUS
 62
     7
 10
478.92011387500003
 20
601.50426655300043
 30
0.0
  0
VERTEX
  5
93D
  8
DATA
  6
CONTINUOUS
 62
     7
 10
478.92011387500003
 20
601.50426655300043
 30
0.0
  0
VERTEX
  5
93E
  8
DATA
  6
CONTINUOUS
 62
     7
 10
478.9201138750019
 20
601.5042665529985
 30
0.0
 42
0.0241656999999452
  0
VERTEX
  5
93F
  8
DATA
  6
CONTINUOUS
 62
     7
 10
479.44883651399971
 20
601.03830507100042
 30
0.0
  0
VERTEX
  5
940
  8
DATA
  6
CONTINUOUS
 62
     7
 10
479.44883651399971
 20
601.03830507100042
 30
0.0
  0
VERTEX
  5
941
  8
DATA
  6
CONTINUOUS
 62
     7
 10
479.44883651400357
 20
601.03830507099735
 30
0.0
 42
0.0256853779996901
  0
VERTEX
  5
942
  8
DATA
  6
CONTINUOUS
 62
     7
 10
480.00450756299978
 20
600.63996510200036
 30
0.0
  0
VERTEX
  5
943
  8
DATA
  6
CONTINUOUS
 62
     7
 10
480.00450756299978
 20
600.63996510200036
 30
0.0
  0
VERTEX
  5
944
  8
DATA
  6
CONTINUOUS
 62
     7
 10
480.00450756299989
 20
600.63996510200025
 30
0.0
 42
0.0271965120001221
  0
VERTEX
  5
945
  8
DATA
  6
CONTINUOUS
 62
     7
 10
480.58281381900002
 20
600.31233862400029
 30
0.0
  0
VERTEX
  5
946
  8
DATA
  6
CONTINUOUS
 62
     7
 10
480.58281381900002
 20
600.31233862400029
 30
0.0
  0
VERTEX
  5
947
  8
DATA
  6
CONTINUOUS
 62
     7
 10
480.58281381900252
 20
600.31233862399915
 30
0.0
 42
0.0286055139998172
  0
VERTEX
  5
948
  8
DATA
  6
CONTINUOUS
 62
     7
 10
481.17926638
 20
600.05796872300027
 30
0.0
  0
VERTEX
  5
949
  8
DATA
  6
CONTINUOUS
 62
     7
 10
481.17926638
 20
600.05796872300027
 30
0.0
  0
VERTEX
  5
94A
  8
DATA
  6
CONTINUOUS
 62
     7
 10
481.17926638
 20
600.05796872300027
 30
0.0
 42
0.0298014609999936
  0
VERTEX
  5
94B
  8
DATA
  6
CONTINUOUS
 62
     7
 10
481.78923548900002
 20
599.87882985700048
 30
0.0
  0
VERTEX
  5
94C
  8
DATA
  6
CONTINUOUS
 62
     7
 10
481.78923548900002
 20
599.87882985700048
 30
0.0
  0
SEQEND
  5
94D
  8
DATA
  6
CONTINUOUS
 62
     7
  0
LINE
  5
5A5
  8
DATA
  6
CONTINUOUS
 62
     7
 10
500.0
 20
587.50000000000057
 30
0.0
 11
476.5157342399998
 21
587.50000000000057
 31
0.0
  0
LINE
  5
5A6
  8
DATA
  6
CONTINUOUS
 62
     7
 10
466.51572901599991
 20
622.00000000000045
 30
0.0
 11
466.51572901599991
 21
597.50000000000045
 31
0.0
  0
ARC
  5
5A7
  8
DATA
  6
CONTINUOUS
 62
     7
 10
476.51572901599991
 20
622.00000000000045
 30
0.0
 40
10.000000000000069
 50
124.3294930190003
 51
180.0
  0
LINE
  5
5A8
  8
DATA
  6
CONTINUOUS
 62
     7
 10
497.70000026299999
 20
712.30600000000049
 30
0.0
 11
495.10000026299991
 21
712.30600000000049
 31
0.0
  0
LINE
  5
5A9
  8
DATA
  6
CONTINUOUS
 62
     7
 10
497.70000026299999
 20
712.30600000000049
 30
0.0
 11
497.70000026299999
 21
607.69400000000041
 31
0.0
  0
LINE
  5
5AA
  8
DATA
  6
CONTINUOUS
 62
     7
 10
495.10000026299991
 20
695.00000000000045
 30
0.0
 11
497.70000026299999
 21
695.00000000000045
 31
0.0
  0
LINE
  5
5AB
  8
DATA
  6
CONTINUOUS
 62
     7
 10
495.10000026299991
 20
712.30600000000049
 30
0.0
 11
495.10000026299991
 21
695.00000000000045
 31
0.0
  0
LINE
  5
5AC
  8
DATA
  6
CONTINUOUS
 62
     7
 10
497.70000026299999
 20
607.69400000000041
 30
0.0
 11
495.10000026299991
 21
607.69400000000041
 31
0.0
  0
LINE
  5
5AD
  8
DATA
  6
CONTINUOUS
 62
     7
 10
495.10000026299991
 20
625.00000000000057
 30
0.0
 11
495.10000026299991
 21
607.69400000000041
 31
0.0
  0
LINE
  5
5AE
  8
DATA
  6
CONTINUOUS
 62
     7
 10
495.10000026299991
 20
625.00000000000057
 30
0.0
 11
414.163631119
 21
642.56827110600034
 31
0.0
  0
LINE
  5
5AF
  8
DATA
  6
CONTINUOUS
 62
     7
 10
495.10000026299991
 20
625.00000000000057
 30
0.0
 11
497.70000026299999
 21
625.00000000000057
 31
0.0
  0
LINE
  5
5B0
  8
DATA
  6
CONTINUOUS
 62
     7
 10
411.80000026299979
 20
674.50000000000045
 30
0.0
 11
411.80000026299979
 21
645.50001525900052
 31
0.0
  0
ARC
  5
5B1
  8
DATA
  6
CONTINUOUS
 62
     7
 10
414.8000002629999
 20
645.50000000000045
 30
0.0
 40
2.9999999999999232
 50
179.9997085789993
 51
257.7532026318803
  0
ARC
  5
5B2
  8
DATA
  6
CONTINUOUS
 62
     7
 10
414.8000002629999
 20
674.50000000000045
 30
0.0
 40
2.9999999999999778
 50
102.2467973640681
 51
180.0
  0
LINE
  5
5B3
  8
DATA
  6
CONTINUOUS
 62
     7
 10
484.10000026299991
 20
661.50000000000045
 30
0.0
 11
468.10000407799998
 21
661.50000000000045
 31
0.0
  0
LINE
  5
5B4
  8
DATA
  6
CONTINUOUS
 62
     7
 10
468.10000026299991
 20
658.50000000000057
 30
0.0
 11
484.10000687100001
 21
658.50000000000057
 31
0.0
  0
ARC
  5
5B5
  8
DATA
  6
CONTINUOUS
 62
     7
 10
468.10000026299991
 20
660.00000000000045
 30
0.0
 40
1.5
 50
90.0
 51
270.0
  0
ARC
  5
5B6
  8
DATA
  6
CONTINUOUS
 62
     7
 10
484.10000026299991
 20
660.00000000000045
 30
0.0
 40
1.5
 50
270.0
 51
90.0
  0
LINE
  5
5B7
  8
DATA
  6
CONTINUOUS
 62
     7
 10
495.10000026299991
 20
695.00000000000045
 30
0.0
 11
414.163631119
 21
677.43172889500056
 31
0.0
  0
CIRCLE
  5
5B8
  8
DATA
  6
CONTINUOUS
 62
     7
 10
426.8000002629999
 20
660.00000000000045
 30
0.0
 40
6.5
  0
LINE
  5
5B9
  8
DATA
  6
CONTINUOUS
 62
     7
 10
430.60000026299991
 20
666.50000000000057
 30
0.0
 11
423.00000026299989
 21
666.50000000000057
 31
0.0
  0
LINE
  5
5BA
  8
DATA
  6
CONTINUOUS
 62
     7
 10
423.00000026299989
 20
666.50000000000057
 30
0.0
 11
419.30000026299979
 21
660.00000000000045
 31
0.0
  0
LINE
  5
5BB
  8
DATA
  6
CONTINUOUS
 62
     7
 10
419.30000026299979
 20
660.00000000000045
 30
0.0
 11
423.00000026299989
 21
653.50000000000045
 31
0.0
  0
LINE
  5
5BC
  8
DATA
  6
CONTINUOUS
 62
     7
 10
423.00000026299989
 20
653.50000000000045
 30
0.0
 11
430.60000026299991
 21
653.50000000000045
 31
0.0
  0
LINE
  5
5BD
  8
DATA
  6
CONTINUOUS
 62
     7
 10
430.60000026299991
 20
653.50000000000045
 30
0.0
 11
434.3000002629999
 21
660.00000000000045
 31
0.0
  0
LINE
  5
5BE
  8
DATA
  6
CONTINUOUS
 62
     7
 10
434.3000002629999
 20
660.00000000000045
 30
0.0
 11
430.60000026299991
 21
666.50000000000057
 31
0.0
  0
CIRCLE
  5
5BF
  8
DATA
  6
CONTINUOUS
 62
     7
 10
426.8000002629999
 20
660.00000000000045
 30
0.0
 40
7.7000000000000437
  0
CIRCLE
  5
5C0
  8
DATA
  6
CONTINUOUS
 62
     7
 10
426.8000002629999
 20
660.00000000000045
 30
0.0
 40
8.5
  0
ENDBLK
  5
5C1
  8
DATA
  0
ENDSEC
  0
SECTION
  2
ENTITIES
  0
LINE
  5
5C2
  8
HIBINO-BASE
  6
CONTINUOUS
 62
     7
 10
-529.99999999999977
 20
1071.1908900000001
 30
0.0
 11
730.0
 21
1071.1908900000001
 31
0.0
  0
LINE
  5
5C3
  8
HIBINO-BASE
  6
CONTINUOUS
 62
     7
 10
730.0
 20
-748.80911000000015
 30
0.0
 11
-529.99999999999977
 21
-748.80911000000015
 31
0.0
  0
LINE
  5
5C4
  8
HIBINO-BASE
  6
CONTINUOUS
 62
     7
 10
-529.99999999999977
 20
-748.80911000000015
 30
0.0
 11
-529.99999999999977
 21
1071.1908900000001
 31
0.0
  0
TEXT
  5
5C5
  8
HIBINO-BASE
  6
CONTINUOUS
 62
     7
 10
-479.71199999999988
 20
-791.70499799999982
 30
0.0
 40
26.198087999999998
  1
Hibino Corporation
 41
0.85
 11
-479.71199999999988
 21
-765.50690999999983
 31
0.0
 73
     3
  0
LINE
  5
5C6
  8
HIBINO-BASE
  6
CONTINUOUS
 62
     7
 10
730.0
 20
1071.1908900000001
 30
0.0
 11
730.0
 21
-748.80911000000015
 31
0.0
  0
LINE
  5
5C7
  8
HIBINO-BASE
  6
CONTINUOUS
 62
     7
 10
100.0
 20
-591.30910999999981
 30
0.0
 11
730.0
 21
-591.30910999999981
 31
0.0
  0
LINE
  5
5C8
  8
HIBINO-BASE
  6
CONTINUOUS
 62
     7
 10
100.0
 20
-748.80911000000015
 30
0.0
 11
100.0
 21
-591.30910999999981
 31
0.0
  0
TEXT
  5
5C9
  8
HIBINO-BASE
  6
CONTINUOUS
 62
     7
 10
106.3
 20
-607.98096333333331
 30
0.0
 40
11.85333333333333
  1
NOTE
 41
0.85
 11
106.3
 21
-596.12762999999995
 31
0.0
 73
     3
  0
LINE
  5
5CA
  8
HIBINO-BASE
  6
CONTINUOUS
 62
     7
 10
345.0
 20
-748.80911000000015
 30
0.0
 11
345.0
 21
-591.30910999999981
 31
0.0
  0
TEXT
  5
5CB
  8
HIBINO-BASE
  6
CONTINUOUS
 62
     7
 10
351.2999999999999
 20
-607.98096333333331
 30
0.0
 40
11.85333333333333
  1
TITLE
 41
0.85
 11
351.2999999999999
 21
-596.12762999999995
 31
0.0
 73
     3
  0
TEXT
  5
5CC
  8
HIBINO-BASE
  6
CONTINUOUS
 62
     7
 10
450.47872999999993
 20
-791.70499799999982
 30
0.0
 40
26.198087999999998
  1
ヒビノ株式会社
 41
0.85
 11
450.47872999999993
 21
-765.50690999999983
 31
0.0
 73
     3
  0
LINE
  5
5CD
  8
HIBINO-BASE
  6
CONTINUOUS
 62
     7
 10
100.0
 20
-678.80910999999981
 30
0.0
 11
730.0
 21
-678.80910999999981
 31
0.0
  0
TEXT
  5
5CE
  8
HIBINO-BASE
  6
CONTINUOUS
 62
     7
 10
438.7999999999999
 20
-695.08672333333323
 30
0.0
 40
11.85333333333333
  1
DRAWN
 41
0.85
 11
438.7999999999999
 21
-683.23338999999987
 31
0.0
 73
     3
  0
TEXT
  5
5CF
  8
HIBINO-BASE
  6
CONTINUOUS
 62
     7
 10
263.7999999999999
 20
-695.08672333333323
 30
0.0
 40
11.85333333333333
  1
DATE
 41
0.85
 11
263.7999999999999
 21
-683.23338999999987
 31
0.0
 73
     3
  0
TEXT
  5
5D0
  8
HIBINO-BASE
  6
CONTINUOUS
 62
     7
 10
107.7
 20
-696.25630199999966
 30
0.0
 40
11.853351999999999
  1
図面サイズ
 41
0.85
 11
107.7
 21
-684.40294999999969
 31
0.0
 73
     3
  0
TEXT
  5
5D1
  8
HIBINO-BASE
  6
CONTINUOUS
 62
     7
 10
193.7999999999999
 20
-695.08672333333323
 30
0.0
 40
11.85333333333333
  1
SCALE
 41
0.85
 11
193.7999999999999
 21
-683.23338999999987
 31
0.0
 73
     3
  0
TEXT
  5
5D2
  8
HIBINO-BASE
  6
CONTINUOUS
 62
     7
 10
351.2999999999999
 20
-695.08672333333323
 30
0.0
 40
11.85333333333333
  1
DESIGN
 41
0.85
 11
351.2999999999999
 21
-683.23338999999987
 31
0.0
 73
     3
  0
TEXT
  5
5D3
  8
HIBINO-BASE
  6
CONTINUOUS
 62
     7
 10
613.79999999999995
 20
-695.08672333333323
 30
0.0
 40
11.85333333333333
  1
DRAWING NO.
 41
0.85
 11
613.79999999999995
 21
-683.23338999999987
 31
0.0
 73
     3
  0
TEXT
  5
5D4
  8
HIBINO-BASE
  6
CONTINUOUS
 62
     7
 10
526.29999999999995
 20
-695.08672333333323
 30
0.0
 40
11.85333333333333
  1
CHECK
 41
0.85
 11
526.29999999999995
 21
-683.23338999999987
 31
0.0
 73
     3
  0
LINE
  5
5D5
  8
HIBINO-BASE
  6
CONTINUOUS
 62
     7
 10
200.625
 20
-740.05911000000015
 30
0.0
 11
226.875
 21
-713.80910999999969
 31
0.0
  0
TEXT
  5
5D6
  8
HIBINO-BASE
  6
CONTINUOUS
 62
     7
 10
196.25
 20
-720.68271333333325
 30
0.0
 40
11.85333333333333
  1
1
 41
0.85
 11
196.25
 21
-708.82937999999979
 31
0.0
 73
     3
  0
LINE
  5
5D7
  8
HIBINO-BASE
  6
CONTINUOUS
 62
     7
 10
187.5
 20
-748.80911000000015
 30
0.0
 11
187.5
 21
-678.80910999999981
 31
0.0
  0
LINE
  5
5D8
  8
HIBINO-BASE
  6
CONTINUOUS
 62
     7
 10
257.49999999999989
 20
-748.80911000000015
 30
0.0
 11
257.49999999999989
 21
-678.80910999999981
 31
0.0
  0
LINE
  5
5D9
  8
HIBINO-BASE
  6
CONTINUOUS
 62
     7
 10
432.5
 20
-678.80910999999981
 30
0.0
 11
432.5
 21
-748.80911000000015
 31
0.0
  0
LINE
  5
5DA
  8
HIBINO-BASE
  6
CONTINUOUS
 62
     7
 10
607.5
 20
-678.80910999999981
 30
0.0
 11
607.5
 21
-748.80911000000015
 31
0.0
  0
LINE
  5
5DB
  8
HIBINO-BASE
  6
CONTINUOUS
 62
     7
 10
519.99999999999989
 20
-748.80911000000015
 30
0.0
 11
519.99999999999989
 21
-678.80910999999981
 31
0.0
  0
TEXT
  5
5DC
  8
HIBINO-BASE
  6
CONTINUOUS
 62
     7
 10
263.49578000000002
 20
-727.87458333333325
 30
0.0
 40
11.85333333333333
  1
'03.06.
 41
0.85
 11
263.49578000000002
 21
-716.02125000000001
 31
0.0
 73
     3
  0
TEXT
  5
5DD
  8
HIBINO-BASE
  6
CONTINUOUS
 62
     7
 10
222.5
 20
-733.80771333333325
 30
0.0
 40
11.85333333333333
  1
7
 41
0.85
 11
222.5
 21
-721.9543799999999
 31
0.0
 73
     3
  0
TEXT
  5
5DE
  8
HIBINO-BASE
  6
CONTINUOUS
 62
     7
 10
443.04067007724228
 20
-727.87458333333325
 30
0.0
 40
11.85333333333333
  1
N.Sasaki
 41
0.85
 11
443.04067007724228
 21
-716.02125000000001
 31
0.0
 73
     3
  0
TEXT
  5
5DF
  8
HIBINO-BASE
  6
CONTINUOUS
 62
     7
 10
127.18333333333339
 20
-733.19911000000002
 30
0.0
 40
23.70666666666666
  1
A4
 41
0.85
 11
127.18333333333339
 21
-709.49244333333331
 31
0.0
 73
     3
  0
TEXT
  5
5E0
  8
DIMNSIONS
  6
CONTINUOUS
 62
     7
 10
-40.000000000000007
 20
-661.58917999999994
 30
0.0
 40
17.77999999999999
  1
(単位：mm)
 41
0.85
 11
-40.000000000000007
 21
-643.80917999999986
 31
0.0
 73
     3
  0
LINE
  5
5E2
  8
DIMNSIONS
  6
CONTINUOUS
 62
     7
 10
216.78578604827189
 20
621.01320996993957
 30
0.0
 11
204.19729487135061
 21
634.04897418852681
 31
0.0
  0
LINE
  5
5E3
  8
DIMNSIONS
  6
CONTINUOUS
 62
     7
 10
216.78578604827189
 20
621.01320996993957
 30
0.0
 11
212.40171500303529
 21
638.59675852944088
 31
0.0
  0
LINE
  5
5E4
  8
DIMNSIONS
  6
CONTINUOUS
 62
     7
 10
168.855425302973
 20
799.89175149649998
 30
0.0
 11
173.54570386902469
 21
782.38739358634382
 31
0.0
  0
LINE
  5
5E5
  8
DIMNSIONS
  6
CONTINUOUS
 62
     7
 10
168.855425302973
 20
799.89175149649998
 30
0.0
 11
164.1651467369212
 21
782.38739358634382
 31
0.0
  0
ARC
  5
5E1
  8
DIMNSIONS
  6
CONTINUOUS
 62
     7
 10
526.61250835609394
 20
799.89175149649998
 30
0.0
 40
357.75708305312088
 50
180.0
 51
210.0
  0
TEXT
  5
5E6
  8
DIMNSIONS
  6
CONTINUOUS
 62
     7
 10
150.55322485412921
 20
725.69505632898824
 30
0.0
 40
19.75555555555556
  1
30°
 50
284.85493992252992
 41
0.85
 11
169.64851026528299
 21
730.75984165269347
 31
0.0
 73
     3
  0
LINE
  5
5E7
  8
DIMNSIONS
  6
CONTINUOUS
 62
     7
 10
-266.71431574799988
 20
120.9031099999997
 30
0.0
 11
-383.86528574799991
 21
120.9031099999997
 31
0.0
  0
LINE
  5
5E8
  8
DIMNSIONS
  6
CONTINUOUS
 62
     7
 10
-203.27637574799979
 20
54.758659999999963
 30
0.0
 11
-383.86528574799991
 21
54.758659999999963
 31
0.0
  0
LINE
  5
5EA
  8
DIMNSIONS
  6
CONTINUOUS
 62
     7
 10
-369.86528574799991
 20
120.9031099999997
 30
0.0
 11
-365.17500718194822
 21
103.3987520898435
 31
0.0
  0
LINE
  5
5EB
  8
DIMNSIONS
  6
CONTINUOUS
 62
     7
 10
-369.86528574799991
 20
120.9031099999997
 30
0.0
 11
-374.55556431405148
 21
103.3987520898435
 31
0.0
  0
LINE
  5
5EC
  8
DIMNSIONS
  6
CONTINUOUS
 62
     7
 10
-369.86528574799991
 20
54.758659999999963
 30
0.0
 11
-374.55556431405148
 21
72.263017910156179
 31
0.0
  0
LINE
  5
5ED
  8
DIMNSIONS
  6
CONTINUOUS
 62
     7
 10
-369.86528574799991
 20
54.758659999999963
 30
0.0
 11
-365.17500718194822
 21
72.263017910156179
 31
0.0
  0
LINE
  5
5E9
  8
DIMNSIONS
  6
CONTINUOUS
 62
     7
 10
-369.86528574799991
 20
120.9031099999997
 30
0.0
 11
-369.86528574799991
 21
54.758659999999963
 31
0.0
  0
TEXT
  5
5EE
  8
DIMNSIONS
  6
CONTINUOUS
 62
     7
 10
-378.04028574799997
 20
71.955884999999853
 30
0.0
 40
12.699999999999999
  1
66.1
 50
90.0
 41
0.85
 11
-390.74028574800002
 21
71.955884999999853
 31
0.0
 73
     3
  0
LINE
  5
5EF
  8
DIMNSIONS
  6
CONTINUOUS
 62
     7
 10
-268.27637574800008
 20
120.9031099999997
 30
0.0
 11
-383.86528574800002
 21
120.9031099999997
 31
0.0
  0
LINE
  5
5F0
  8
DIMNSIONS
  6
CONTINUOUS
 62
     7
 10
-268.27637574800008
 20
240.90310999999971
 30
0.0
 11
-383.86528574800002
 21
240.90310999999971
 31
0.0
  0
LINE
  5
5F2
  8
DIMNSIONS
  6
CONTINUOUS
 62
     7
 10
-369.86528574800002
 20
120.9031099999997
 30
0.0
 11
-374.55556431405182
 21
138.40746791015599
 31
0.0
  0
LINE
  5
5F3
  8
DIMNSIONS
  6
CONTINUOUS
 62
     7
 10
-369.86528574800002
 20
120.9031099999997
 30
0.0
 11
-365.17500718194839
 21
138.40746791015599
 31
0.0
  0
LINE
  5
5F4
  8
DIMNSIONS
  6
CONTINUOUS
 62
     7
 10
-369.86528574800002
 20
240.90310999999971
 30
0.0
 11
-365.17500718194839
 21
223.39875208984341
 31
0.0
  0
LINE
  5
5F5
  8
DIMNSIONS
  6
CONTINUOUS
 62
     7
 10
-369.86528574800002
 20
240.90310999999971
 30
0.0
 11
-374.55556431405182
 21
223.39875208984341
 31
0.0
  0
LINE
  5
5F1
  8
DIMNSIONS
  6
CONTINUOUS
 62
     7
 10
-369.86528574800002
 20
120.9031099999997
 30
0.0
 11
-369.86528574800002
 21
240.90310999999971
 31
0.0
  0
TEXT
  5
5F6
  8
DIMNSIONS
  6
CONTINUOUS
 62
     7
 10
-378.04028574799997
 20
168.99685999999971
 30
0.0
 40
12.699999999999999
  1
120
 50
90.0
 41
0.85
 11
-390.74028574800002
 21
168.99685999999971
 31
0.0
 73
     3
  0
LINE
  5
5F7
  8
DIMNSIONS
  6
CONTINUOUS
 62
     7
 10
-203.27637574799979
 20
54.758659999999963
 30
0.0
 11
-514.0
 21
54.758659999999963
 31
0.0
  0
LINE
  5
5F8
  8
DIMNSIONS
  6
CONTINUOUS
 62
     7
 10
-168.794755748
 20
-398.24282000000039
 30
0.0
 11
-514.0
 21
-398.24282000000039
 31
0.0
  0
LINE
  5
5FA
  8
DIMNSIONS
  6
CONTINUOUS
 62
     7
 10
-500.0
 20
54.758659999999963
 30
0.0
 11
-495.30972143394831
 21
37.254302089843719
 31
0.0
  0
LINE
  5
5FB
  8
DIMNSIONS
  6
CONTINUOUS
 62
     7
 10
-500.0
 20
54.758659999999963
 30
0.0
 11
-504.69027856605169
 21
37.254302089843719
 31
0.0
  0
LINE
  5
5FC
  8
DIMNSIONS
  6
CONTINUOUS
 62
     7
 10
-500.0
 20
-398.24282000000039
 30
0.0
 11
-504.69027856605169
 21
-380.73846208984401
 31
0.0
  0
LINE
  5
5FD
  8
DIMNSIONS
  6
CONTINUOUS
 62
     7
 10
-500.0
 20
-398.24282000000039
 30
0.0
 11
-495.30972143394831
 21
-380.73846208984401
 31
0.0
  0
LINE
  5
5F9
  8
DIMNSIONS
  6
CONTINUOUS
 62
     7
 10
-500.0
 20
54.758659999999963
 30
0.0
 11
-500.0
 21
-398.24282000000039
 31
0.0
  0
TEXT
  5
5FE
  8
DIMNSIONS
  6
CONTINUOUS
 62
     7
 10
-508.17500000000001
 20
-183.64833000000019
 30
0.0
 40
12.699999999999999
  1
453
 50
90.0
 41
0.85
 11
-520.875
 21
-183.64833000000019
 31
0.0
 73
     3
  0
LINE
  5
5FF
  8
DIMNSIONS
  6
CONTINUOUS
 62
     7
 10
-168.794755748
 20
-398.24282000000039
 30
0.0
 11
-383.86528574800002
 21
-398.24282000000039
 31
0.0
  0
LINE
  5
600
  8
DIMNSIONS
  6
CONTINUOUS
 62
     7
 10
-71.154275748000046
 20
-423.90704000000011
 30
0.0
 11
-383.86528574800002
 21
-423.90704000000011
 31
0.0
  0
LINE
  5
601
  8
DIMNSIONS
  6
CONTINUOUS
 62
     7
 10
-369.86528574800002
 20
-423.90704000000011
 30
0.0
 11
-369.86528574800002
 21
-398.24282000000039
 31
0.0
  0
LINE
  5
603
  8
DIMNSIONS
  6
CONTINUOUS
 62
     7
 10
-369.86528574800002
 20
-398.24282000000039
 30
0.0
 11
-374.55556431405159
 21
-380.73846208984401
 31
0.0
  0
LINE
  5
604
  8
DIMNSIONS
  6
CONTINUOUS
 62
     7
 10
-369.86528574800002
 20
-398.24282000000039
 30
0.0
 11
-365.17500718194827
 21
-380.73846208984401
 31
0.0
  0
LINE
  5
602
  8
DIMNSIONS
  6
CONTINUOUS
 62
     7
 10
-369.86528574800002
 20
-398.24282000000039
 30
0.0
 11
-369.86528574800002
 21
-363.24282000000039
 31
0.0
  0
LINE
  5
606
  8
DIMNSIONS
  6
CONTINUOUS
 62
     7
 10
-369.86528574800002
 20
-423.90704000000011
 30
0.0
 11
-365.17500718194827
 21
-441.41139791015632
 31
0.0
  0
LINE
  5
607
  8
DIMNSIONS
  6
CONTINUOUS
 62
     7
 10
-369.86528574800002
 20
-423.90704000000011
 30
0.0
 11
-374.55556431405159
 21
-441.41139791015632
 31
0.0
  0
LINE
  5
605
  8
DIMNSIONS
  6
CONTINUOUS
 62
     7
 10
-369.86528574800002
 20
-423.90704000000011
 30
0.0
 11
-369.86528574800002
 21
-458.90703999999999
 31
0.0
  0
TEXT
  5
608
  8
DIMNSIONS
  6
CONTINUOUS
 62
     7
 10
-378.04028574799997
 20
-426.94993000000011
 30
0.0
 40
12.699999999999999
  1
25.7
 50
90.0
 41
0.85
 11
-390.74028574800002
 21
-426.94993000000011
 31
0.0
 73
     3
  0
LINE
  5
609
  8
DIMNSIONS
  6
CONTINUOUS
 62
     7
 10
-318.48997574799989
 20
-11.77555000000029
 30
0.0
 11
-318.48997574799989
 21
-573.09689000000014
 31
0.0
  0
LINE
  5
60A
  8
DIMNSIONS
  6
CONTINUOUS
 62
     7
 10
-58.200015748000069
 20
-354.13456000000042
 30
0.0
 11
-58.200015748000069
 21
-573.09689000000014
 31
0.0
  0
LINE
  5
60C
  8
DIMNSIONS
  6
CONTINUOUS
 62
     7
 10
-318.48997574799989
 20
-559.09689000000014
 30
0.0
 11
-300.98561783784362
 21
-554.40661143394846
 31
0.0
  0
LINE
  5
60D
  8
DIMNSIONS
  6
CONTINUOUS
 62
     7
 10
-318.48997574799989
 20
-559.09689000000014
 30
0.0
 11
-300.98561783784362
 21
-563.78716856605195
 31
0.0
  0
LINE
  5
60E
  8
DIMNSIONS
  6
CONTINUOUS
 62
     7
 10
-58.200015748000069
 20
-559.09689000000014
 30
0.0
 11
-75.7043736581563
 21
-563.78716856605195
 31
0.0
  0
LINE
  5
60F
  8
DIMNSIONS
  6
CONTINUOUS
 62
     7
 10
-58.200015748000069
 20
-559.09689000000014
 30
0.0
 11
-75.7043736581563
 21
-554.40661143394846
 31
0.0
  0
LINE
  5
60B
  8
DIMNSIONS
  6
CONTINUOUS
 62
     7
 10
-318.48997574799989
 20
-559.09689000000014
 30
0.0
 11
-58.200015748000069
 21
-559.09689000000014
 31
0.0
  0
TEXT
  5
610
  8
DIMNSIONS
  6
CONTINUOUS
 62
     7
 10
-208.188745748
 20
-550.9218900000003
 30
0.0
 40
12.699999999999999
  1
260.3
 41
0.85
 11
-208.188745748
 21
-538.22189000000014
 31
0.0
 73
     3
  0
LINE
  5
611
  8
DIMNSIONS
  6
CONTINUOUS
 62
     7
 10
-58.200015748000069
 20
-354.13456000000042
 30
0.0
 11
-58.200015748000069
 21
-573.09689000000037
 31
0.0
  0
LINE
  5
612
  8
DIMNSIONS
  6
CONTINUOUS
 62
     7
 10
49.99998425199999
 20
-534.83999000000028
 30
0.0
 11
49.99998425199999
 21
-573.09689000000037
 31
0.0
  0
LINE
  5
614
  8
DIMNSIONS
  6
CONTINUOUS
 62
     7
 10
-58.200015748000069
 20
-559.09689000000026
 30
0.0
 11
-40.695657837843832
 21
-554.4066114339488
 31
0.0
  0
LINE
  5
615
  8
DIMNSIONS
  6
CONTINUOUS
 62
     7
 10
-58.200015748000069
 20
-559.09689000000026
 30
0.0
 11
-40.695657837843832
 21
-563.78716856605195
 31
0.0
  0
LINE
  5
616
  8
DIMNSIONS
  6
CONTINUOUS
 62
     7
 10
49.99998425199999
 20
-559.09689000000026
 30
0.0
 11
32.495626341843753
 21
-563.78716856605195
 31
0.0
  0
LINE
  5
617
  8
DIMNSIONS
  6
CONTINUOUS
 62
     7
 10
49.99998425199999
 20
-559.09689000000026
 30
0.0
 11
32.495626341843753
 21
-554.4066114339488
 31
0.0
  0
LINE
  5
613
  8
DIMNSIONS
  6
CONTINUOUS
 62
     7
 10
-58.200015748000069
 20
-559.09689000000026
 30
0.0
 11
49.99998425199999
 21
-559.09689000000026
 31
0.0
  0
TEXT
  5
618
  8
DIMNSIONS
  6
CONTINUOUS
 62
     7
 10
-23.94376574800005
 20
-550.92189000000042
 30
0.0
 40
12.699999999999999
  1
108.2
 41
0.85
 11
-23.94376574800005
 21
-538.22189000000037
 31
0.0
 73
     3
  0
LINE
  5
619
  8
DIMNSIONS
  6
CONTINUOUS
 62
     7
 10
24.74332425200021
 20
-356.26047000000023
 30
0.0
 11
24.74332425200021
 21
-502.22189000000009
 31
0.0
  0
LINE
  5
61A
  8
DIMNSIONS
  6
CONTINUOUS
 62
     7
 10
49.99998425199999
 20
-356.26047000000023
 30
0.0
 11
49.99998425199999
 21
-502.22189000000009
 31
0.0
  0
LINE
  5
61B
  8
DIMNSIONS
  6
CONTINUOUS
 62
     7
 10
49.99998425199999
 20
-488.22189000000009
 30
0.0
 11
24.74332425200021
 21
-488.22189000000009
 31
0.0
  0
LINE
  5
61D
  8
DIMNSIONS
  6
CONTINUOUS
 62
     7
 10
24.74332425200021
 20
-488.22189000000009
 30
0.0
 11
7.2389663418439607
 21
-492.91216856605178
 31
0.0
  0
LINE
  5
61E
  8
DIMNSIONS
  6
CONTINUOUS
 62
     7
 10
24.74332425200021
 20
-488.22189000000009
 30
0.0
 11
7.2389663418439607
 21
-483.53161143394851
 31
0.0
  0
LINE
  5
61C
  8
DIMNSIONS
  6
CONTINUOUS
 62
     7
 10
24.74332425200021
 20
-488.22189000000009
 30
0.0
 11
-26.615285747999788
 21
-488.22189000000009
 31
0.0
  0
LINE
  5
620
  8
DIMNSIONS
  6
CONTINUOUS
 62
     7
 10
49.99998425199999
 20
-488.22189000000009
 30
0.0
 11
67.504342162156235
 21
-483.53161143394851
 31
0.0
  0
LINE
  5
621
  8
DIMNSIONS
  6
CONTINUOUS
 62
     7
 10
49.99998425199999
 20
-488.22189000000009
 30
0.0
 11
67.504342162156235
 21
-492.91216856605178
 31
0.0
  0
LINE
  5
61F
  8
DIMNSIONS
  6
CONTINUOUS
 62
     7
 10
49.99998425199999
 20
-488.22189000000009
 30
0.0
 11
84.99998425199999
 21
-488.22189000000009
 31
0.0
  0
TEXT
  5
622
  8
DIMNSIONS
  6
CONTINUOUS
 62
     7
 10
-26.615285747999788
 20
-480.04689000000008
 30
0.0
 40
12.699999999999999
  1
25.3
 41
0.85
 11
-26.615285747999788
 21
-467.34689000000009
 31
0.0
 73
     3
  0
LINE
  5
623
  8
DIMNSIONS
  6
CONTINUOUS
 62
     7
 10
22.233334252000191
 20
240.90310999999971
 30
0.0
 11
194.13471425200009
 21
240.90310999999971
 31
0.0
  0
LINE
  5
624
  8
DIMNSIONS
  6
CONTINUOUS
 62
     7
 10
63.99998425199999
 20
24.999999999999549
 30
0.0
 11
194.13471425200009
 21
24.999999999999549
 31
0.0
  0
LINE
  5
626
  8
DIMNSIONS
  6
CONTINUOUS
 62
     7
 10
180.13471425200021
 20
240.90310999999971
 30
0.0
 11
184.82499281805181
 21
223.39875208984341
 31
0.0
  0
LINE
  5
627
  8
DIMNSIONS
  6
CONTINUOUS
 62
     7
 10
180.13471425200021
 20
240.90310999999971
 30
0.0
 11
175.44443568594849
 21
223.39875208984341
 31
0.0
  0
LINE
  5
628
  8
DIMNSIONS
  6
CONTINUOUS
 62
     7
 10
180.13471425200021
 20
24.999999999999549
 30
0.0
 11
175.44443568594849
 21
42.504357910155782
 31
0.0
  0
LINE
  5
629
  8
DIMNSIONS
  6
CONTINUOUS
 62
     7
 10
180.13471425200021
 20
24.999999999999549
 30
0.0
 11
184.8249928180519
 21
42.504357910155782
 31
0.0
  0
LINE
  5
625
  8
DIMNSIONS
  6
CONTINUOUS
 62
     7
 10
180.13471425200021
 20
240.90310999999971
 30
0.0
 11
180.13471425200021
 21
24.999999999999549
 31
0.0
  0
TEXT
  5
62A
  8
DIMNSIONS
  6
CONTINUOUS
 62
     7
 10
171.95971425200011
 20
113.1078049999996
 30
0.0
 40
12.699999999999999
  1
215.9
 50
90.0
 41
0.85
 11
159.25971425200021
 21
113.1078049999996
 31
0.0
 73
     3
  0
LINE
  5
62B
  8
DIMNSIONS
  6
CONTINUOUS
 62
     7
 10
63.99998425199999
 20
24.999999999999549
 30
0.0
 11
194.13471425200001
 21
24.999999999999549
 31
0.0
  0
LINE
  5
62C
  8
DIMNSIONS
  6
CONTINUOUS
 62
     7
 10
63.99998425199999
 20
-50.0
 30
0.0
 11
194.13471425200001
 21
-50.0
 31
0.0
  0
LINE
  5
62E
  8
DIMNSIONS
  6
CONTINUOUS
 62
     7
 10
180.13471425200001
 20
24.999999999999549
 30
0.0
 11
184.82499281805161
 21
7.4956420898433
 31
0.0
  0
LINE
  5
62F
  8
DIMNSIONS
  6
CONTINUOUS
 62
     7
 10
180.13471425200001
 20
24.999999999999549
 30
0.0
 11
175.44443568594829
 21
7.4956420898433
 31
0.0
  0
LINE
  5
630
  8
DIMNSIONS
  6
CONTINUOUS
 62
     7
 10
180.13471425200001
 20
-50.0
 30
0.0
 11
175.44443568594829
 21
-32.495642089843763
 31
0.0
  0
LINE
  5
631
  8
DIMNSIONS
  6
CONTINUOUS
 62
     7
 10
180.13471425200001
 20
-50.0
 30
0.0
 11
184.82499281805161
 21
-32.495642089843763
 31
0.0
  0
LINE
  5
62D
  8
DIMNSIONS
  6
CONTINUOUS
 62
     7
 10
180.13471425200001
 20
24.999999999999549
 30
0.0
 11
180.13471425200001
 21
-50.0
 31
0.0
  0
TEXT
  5
632
  8
DIMNSIONS
  6
CONTINUOUS
 62
     7
 10
171.95971425199991
 20
-20.437500000000231
 30
0.0
 40
12.699999999999999
  1
75
 50
90.0
 41
0.85
 11
159.25971425200001
 21
-20.437500000000231
 31
0.0
 73
     3
  0
LINE
  5
633
  8
DIMNSIONS
  6
CONTINUOUS
 62
     7
 10
63.99998425199999
 20
-50.0
 30
0.0
 11
194.13471425200001
 21
-50.0
 31
0.0
  0
LINE
  5
634
  8
DIMNSIONS
  6
CONTINUOUS
 62
     7
 10
63.99998425199999
 20
-125.0
 30
0.0
 11
194.13471425200001
 21
-125.0
 31
0.0
  0
LINE
  5
636
  8
DIMNSIONS
  6
CONTINUOUS
 62
     7
 10
180.13471425200001
 20
-50.0
 30
0.0
 11
184.82499281805161
 21
-67.504357910156244
 31
0.0
  0
LINE
  5
637
  8
DIMNSIONS
  6
CONTINUOUS
 62
     7
 10
180.13471425200001
 20
-50.0
 30
0.0
 11
175.44443568594829
 21
-67.504357910156244
 31
0.0
  0
LINE
  5
638
  8
DIMNSIONS
  6
CONTINUOUS
 62
     7
 10
180.13471425200001
 20
-125.0
 30
0.0
 11
175.44443568594829
 21
-107.4956420898437
 31
0.0
  0
LINE
  5
639
  8
DIMNSIONS
  6
CONTINUOUS
 62
     7
 10
180.13471425200001
 20
-125.0
 30
0.0
 11
184.82499281805161
 21
-107.4956420898437
 31
0.0
  0
LINE
  5
635
  8
DIMNSIONS
  6
CONTINUOUS
 62
     7
 10
180.13471425200001
 20
-50.0
 30
0.0
 11
180.13471425200001
 21
-125.0
 31
0.0
  0
TEXT
  5
63A
  8
DIMNSIONS
  6
CONTINUOUS
 62
     7
 10
171.95971427062639
 20
-95.437500000000014
 30
0.0
 40
12.699999999999999
  1
75
 50
90.0
 41
0.85
 11
159.2597142706264
 21
-95.437500000000014
 31
0.0
 73
     3
  0
LINE
  5
63B
  8
DIMNSIONS
  6
CONTINUOUS
 62
     7
 10
-302.68660574800009
 20
13.55454999999983
 30
0.0
 11
-302.68660574800009
 21
-523.09689000000014
 31
0.0
  0
LINE
  5
63C
  8
DIMNSIONS
  6
CONTINUOUS
 62
     7
 10
24.74332425200021
 20
-356.26047000000023
 30
0.0
 11
24.74332425200021
 21
-523.09689000000014
 31
0.0
  0
LINE
  5
63E
  8
DIMNSIONS
  6
CONTINUOUS
 62
     7
 10
-302.68660574800009
 20
-509.09689000000009
 30
0.0
 11
-285.1822478378437
 21
-504.40661143394851
 31
0.0
  0
LINE
  5
63F
  8
DIMNSIONS
  6
CONTINUOUS
 62
     7
 10
-302.68660574800009
 20
-509.09689000000009
 30
0.0
 11
-285.1822478378437
 21
-513.78716856605183
 31
0.0
  0
LINE
  5
640
  8
DIMNSIONS
  6
CONTINUOUS
 62
     7
 10
24.74332425200021
 20
-509.09689000000009
 30
0.0
 11
7.2389663418439607
 21
-513.78716856605183
 31
0.0
  0
LINE
  5
641
  8
DIMNSIONS
  6
CONTINUOUS
 62
     7
 10
24.74332425200021
 20
-509.09689000000009
 30
0.0
 11
7.2389663418439607
 21
-504.40661143394851
 31
0.0
  0
LINE
  5
63D
  8
DIMNSIONS
  6
CONTINUOUS
 62
     7
 10
-302.68660574800009
 20
-509.09689000000009
 30
0.0
 11
24.74332425200021
 21
-509.09689000000009
 31
0.0
  0
TEXT
  5
642
  8
DIMNSIONS
  6
CONTINUOUS
 62
     7
 10
-158.81539074799991
 20
-500.92189000000008
 30
0.0
 40
12.699999999999999
  1
327.4
 41
0.85
 11
-158.81539074799991
 21
-488.22189000000009
 31
0.0
 73
     3
  0
TEXT
  5
643
  8
DIMNSIONS
  6
CONTINUOUS
 62
     7
 10
-344.86528574800002
 20
176.1406099999997
 30
0.0
 40
12.699999999999999
  1
取付必要スペース
 41
0.85
 11
-344.86528574800002
 21
188.84060999999971
 31
0.0
 73
     3
  0
TEXT
  5
644
  8
DIMNSIONS
  6
CONTINUOUS
 62
     7
 10
209.897214252
 20
77.389049999999756
 30
0.0
 40
12.699999999999999
  1
取付穴最小寸法
 50
90.0
 41
0.85
 11
197.19721425200001
 21
77.389049999999756
 31
0.0
 73
     3
  0
LINE
  5
645
  8
DIMNSIONS
  6
CONTINUOUS
 62
     7
 10
-235.04184574799999
 20
-193.5536900000001
 30
0.0
 11
269.13471425199998
 21
-193.5536900000001
 31
0.0
  0
LINE
  5
646
  8
DIMNSIONS
  6
CONTINUOUS
 62
     7
 10
63.99998425199999
 20
-140.0
 30
0.0
 11
269.13471425200009
 21
-140.0
 31
0.0
  0
LINE
  5
648
  8
DIMNSIONS
  6
CONTINUOUS
 62
     7
 10
255.13471425200001
 20
-193.5536900000001
 30
0.0
 11
250.44443568594841
 21
-176.04933208984389
 31
0.0
  0
LINE
  5
649
  8
DIMNSIONS
  6
CONTINUOUS
 62
     7
 10
255.13471425200001
 20
-193.5536900000001
 30
0.0
 11
259.82499281805173
 21
-176.04933208984389
 31
0.0
  0
LINE
  5
64A
  8
DIMNSIONS
  6
CONTINUOUS
 62
     7
 10
255.13471425200001
 20
-140.0
 30
0.0
 11
259.82499281805173
 21
-157.5043579101563
 31
0.0
  0
LINE
  5
64B
  8
DIMNSIONS
  6
CONTINUOUS
 62
     7
 10
255.13471425200001
 20
-140.0
 30
0.0
 11
250.44443568594841
 21
-157.5043579101563
 31
0.0
  0
LINE
  5
647
  8
DIMNSIONS
  6
CONTINUOUS
 62
     7
 10
255.13471425200001
 20
-193.5536900000001
 30
0.0
 11
255.13471425200001
 21
-140.0
 31
0.0
  0
TEXT
  5
64C
  8
DIMNSIONS
  6
CONTINUOUS
 62
     7
 10
246.60693649284869
 20
-184.41573388888901
 30
0.0
 40
14.111111111111111
  1
53.6
 50
90.0
 41
0.85
 11
232.4958253817376
 21
-184.41573388888901
 31
0.0
 73
     3
  0
LINE
  5
64D
  8
DIMNSIONS
  6
CONTINUOUS
 62
     7
 10
63.99998425199999
 20
-140.0
 30
0.0
 11
269.13471425199998
 21
-140.0
 31
0.0
  0
LINE
  5
64E
  8
DIMNSIONS
  6
CONTINUOUS
 62
     7
 10
63.999994251999972
 20
39.999999999999552
 30
0.0
 11
269.13471425199998
 21
39.999999999999552
 31
0.0
  0
LINE
  5
650
  8
DIMNSIONS
  6
CONTINUOUS
 62
     7
 10
255.13471425200001
 20
-140.0
 30
0.0
 11
250.44443568594829
 21
-122.4956420898437
 31
0.0
  0
LINE
  5
651
  8
DIMNSIONS
  6
CONTINUOUS
 62
     7
 10
255.13471425200001
 20
-140.0
 30
0.0
 11
259.82499281805173
 21
-122.4956420898437
 31
0.0
  0
LINE
  5
652
  8
DIMNSIONS
  6
CONTINUOUS
 62
     7
 10
255.13471425200001
 20
39.999999999999552
 30
0.0
 11
259.82499281805173
 21
22.495642089843301
 31
0.0
  0
LINE
  5
653
  8
DIMNSIONS
  6
CONTINUOUS
 62
     7
 10
255.13471425200001
 20
39.999999999999552
 30
0.0
 11
250.44443568594829
 21
22.495642089843301
 31
0.0
  0
LINE
  5
64F
  8
DIMNSIONS
  6
CONTINUOUS
 62
     7
 10
255.13471425200001
 20
-140.0
 30
0.0
 11
255.13471425200001
 21
39.999999999999552
 31
0.0
  0
TEXT
  5
654
  8
DIMNSIONS
  6
CONTINUOUS
 62
     7
 10
246.6069364928486
 20
-63.229166666666899
 30
0.0
 40
14.111111111111111
  1
180
 50
90.0
 41
0.85
 11
232.49582538173749
 21
-63.229166666666899
 31
0.0
 73
     3
  0
LINE
  5
655
  8
DIMNSIONS
  6
CONTINUOUS
 62
     7
 10
63.99998425199999
 20
-125.0
 30
0.0
 11
231.63471425200001
 21
-125.0
 31
0.0
  0
LINE
  5
656
  8
DIMNSIONS
  6
CONTINUOUS
 62
     7
 10
63.99998425199999
 20
-140.0
 30
0.0
 11
231.6347142519999
 21
-140.0
 31
0.0
  0
LINE
  5
657
  8
DIMNSIONS
  6
CONTINUOUS
 62
     7
 10
217.63471425200001
 20
-140.0
 30
0.0
 11
217.63471425200001
 21
-125.0
 31
0.0
  0
LINE
  5
659
  8
DIMNSIONS
  6
CONTINUOUS
 62
     7
 10
217.63471425200001
 20
-125.0
 30
0.0
 11
212.94443568594829
 21
-107.4956420898437
 31
0.0
  0
LINE
  5
65A
  8
DIMNSIONS
  6
CONTINUOUS
 62
     7
 10
217.63471425200001
 20
-125.0
 30
0.0
 11
222.3249928180517
 21
-107.4956420898437
 31
0.0
  0
LINE
  5
658
  8
DIMNSIONS
  6
CONTINUOUS
 62
     7
 10
217.63471425200001
 20
-125.0
 30
0.0
 11
217.63471425200001
 21
-91.458001111111116
 31
0.0
  0
LINE
  5
65C
  8
DIMNSIONS
  6
CONTINUOUS
 62
     7
 10
217.63471425200001
 20
-140.0
 30
0.0
 11
222.32499281805161
 21
-157.5043579101563
 31
0.0
  0
LINE
  5
65D
  8
DIMNSIONS
  6
CONTINUOUS
 62
     7
 10
217.63471425200001
 20
-140.0
 30
0.0
 11
212.94443568594829
 21
-157.5043579101563
 31
0.0
  0
LINE
  5
65B
  8
DIMNSIONS
  6
CONTINUOUS
 62
     7
 10
217.63471425200001
 20
-140.0
 30
0.0
 11
217.63471425200001
 21
-175.0
 31
0.0
  0
TEXT
  5
65E
  8
DIMNSIONS
  6
CONTINUOUS
 62
     7
 10
209.1069364928486
 20
-109.09689
 30
0.0
 40
14.111111111111111
  1
15
 50
90.0
 41
0.85
 11
194.99582538173749
 21
-109.09689
 31
0.0
 73
     3
  0
LINE
  5
65F
  8
DIMNSIONS
  6
CONTINUOUS
 62
     7
 10
394.5033972996207
 20
474.06093890143723
 30
0.0
 11
111.0
 21
474.06093890143723
 31
0.0
  0
LINE
  5
660
  8
DIMNSIONS
  6
CONTINUOUS
 62
     7
 10
188.30345621040999
 20
799.89175149649998
 30
0.0
 11
111.0
 21
799.89175149649998
 31
0.0
  0
LINE
  5
662
  8
DIMNSIONS
  6
CONTINUOUS
 62
     7
 10
125.0
 20
474.06093890143723
 30
0.0
 11
120.3097214339483
 21
491.56529681159361
 31
0.0
  0
LINE
  5
663
  8
DIMNSIONS
  6
CONTINUOUS
 62
     7
 10
125.0
 20
474.06093890143723
 30
0.0
 11
129.69027856605169
 21
491.56529681159361
 31
0.0
  0
LINE
  5
664
  8
DIMNSIONS
  6
CONTINUOUS
 62
     7
 10
125.0
 20
799.89175149649998
 30
0.0
 11
129.69027856605169
 21
782.38739358634382
 31
0.0
  0
LINE
  5
665
  8
DIMNSIONS
  6
CONTINUOUS
 62
     7
 10
125.0
 20
799.89175149649998
 30
0.0
 11
120.3097214339483
 21
782.38739358634382
 31
0.0
  0
LINE
  5
661
  8
DIMNSIONS
  6
CONTINUOUS
 62
     7
 10
125.0
 20
474.06093890143723
 30
0.0
 11
125.0
 21
799.89175149649998
 31
0.0
  0
TEXT
  5
666
  8
DIMNSIONS
  6
CONTINUOUS
 62
     7
 10
116.5611111111111
 20
618.45551186563534
 30
0.0
 40
19.75555555555556
  1
326
 50
90.0
 41
0.85
 11
96.805555555555571
 21
618.45551186563534
 31
0.0
 73
     3
  0
TEXT
  5
667
  8
DATA
  6
CONTINUOUS
 62
     7
 10
450.0
 20
-618.80937999999981
 30
0.0
 40
17.77999999999999
  1
JBL
 41
0.85
 11
450.0
 21
-601.02937999999995
 31
0.0
 73
     3
  0
TEXT
  5
668
  8
DATA
  6
CONTINUOUS
 62
     7
 10
-459.99999999999989
 20
-718.25410999999986
 30
0.0
 40
11.85333333333333
  1
仕様および外観は予告なく変更されることがありますので、ご了承ください。
 41
0.85
 11
-459.99999999999989
 21
-706.40077666666662
 31
0.0
 73
     3
  0
INSERT
  5
669
  8
DATA
  6
CONTINUOUS
 62
     7
  2
*U0
 10
100.0
 20
140.0
 30
0.0
  0
TEXT
  5
66A
  8
DATA
  6
CONTINUOUS
 62
     7
 10
450.0
 20
-669.55937999999981
 30
0.0
 40
17.77999999999999
  1
JBL-3 MKII金具装着外観図
 41
0.85
 11
450.0
 21
-651.77937999999983
 31
0.0
 73
     3
  0
TEXT
  5
66B
  8
DATA
  6
CONTINUOUS
 62
     7
 10
432.5
 20
-643.59256499999969
 30
0.0
 40
11.85333333333333
  1
8330A & 8340A用
 41
0.85
 11
432.5
 21
-631.73923166666646
 31
0.0
 73
     3
  0
LINE
  5
66C
  8
DATA
  6
CONTINUOUS
 62
     7
 10
-529.99999999999977
 20
400.0
 30
0.0
 11
730.0
 21
400.0
 31
0.0
  0
LINE
  5
66D
  8
DATA
  6
CONTINUOUS
 62
     7
 10
-529.99999999999977
 20
390.0
 30
0.0
 11
730.0
 21
390.0
 31
0.0
  0
TEXT
  5
66E
  8
DATA
  6
CONTINUOUS
 62
     7
 10
-229.67637457800009
 20
490.85599999999999
 30
0.0
 40
20.32
  1
０°
 41
0.85
  0
TEXT
  5
66F
  8
DATA
  6
CONTINUOUS
 62
     7
 10
372.90084670400012
 20
415.84391501407231
 30
0.0
 40
20.32
  1
３０°
 41
0.85
  0
TEXT
  5
670
  8
DATA
  6
CONTINUOUS
 62
     7
 10
-450.0
 20
340.85599999999999
 30
0.0
 40
20.32
  1
垂直方向角度変化
 41
0.85
  0
INSERT
  5
671
  8
DATA
  6
CONTINUOUS
 62
     7
  2
*U1
 10
100.0
 20
140.0
 30
0.0
  0
TEXT
  5
672
  8
DATA
  6
CONTINUOUS
 62
     7
 10
-450.0
 20
440.85599999999999
 30
0.0
 40
20.32
  1
水平方向角度変化
 41
0.85
  0
LINE
  5
673
  8
DATA
  6
CONTINUOUS
 62
     7
 10
650.0
 20
800.0
 30
0.0
 11
100.0
 21
800.0
 31
0.0
  0
INSERT
  5
674
  8
DATA
  6
CONTINUOUS
 62
     7
  2
*U2
 10
100.0
 20
140.0
 30
0.0
  0
INSERT
  5
675
  8
DATA
  6
CONTINUOUS
 62
     7
  2
*U3
 10
100.0
 20
140.0
 30
0.0
  0
INSERT
  5
676
  8
DATA
  6
CONTINUOUS
 62
     7
  2
*U4
 10
100.0
 20
140.0
 30
0.0
  0
INSERT
  5
677
  8
DATA
  6
CONTINUOUS
 62
     7
  2
*U5
 10
100.0
 20
140.0
 30
0.0
  0
INSERT
  5
678
  8
DATA
  6
CONTINUOUS
 62
     7
  2
*U8
 10
100.0
 20
140.0
 30
0.0
  0
INSERT
  5
679
  8
DATA
  6
CONTINUOUS
 62
     7
  2
*U9
 10
100.0
 20
140.0
 30
0.0
  0
INSERT
  5
67A
  8
DATA
  6
CONTINUOUS
 62
     7
  2
*U10
 10
100.0
 20
140.0
 30
0.0
  0
INSERT
  5
67B
  8
DATA
  6
CONTINUOUS
 62
     7
  2
*U11
 10
100.0
 20
140.0
 30
0.0
  0
LINE
  5
67C
  8
DATA
  6
CONTINUOUS
 62
     7
 10
633.49432978147831
 20
861.59999986849994
 30
0.0
 11
157.18035770003709
 21
586.59999986850005
 31
0.0
  0
INSERT
  5
67D
  8
DATA
  6
CONTINUOUS
 62
     7
  2
*U12
 10
100.0
 20
140.0
 30
0.0
  0
INSERT
  5
67E
  8
DATA
  6
CONTINUOUS
 62
     7
  2
*U13
 10
100.0
 20
140.0
 30
0.0
  0
ENDSEC
  0
EOF
