  0
SECTION
  2
HEADER
  9
$ACADVER
  1
AC1009
  9
$INSBASE
 10
0.0
 20
0.0
 30
0.0
  9
$EXTMIN
 10
-1350.0823911746061
 20
-2014.8832945933329
 30
-0.0015258207003583
  9
$EXTMAX
 10
1350.0824037474611
 20
1999.567671355127
 30
0.0000000349246037
  9
$LIMMIN
 10
0.0
 20
0.0
  9
$LIMMAX
 10
0.0
 20
0.0
  9
$ORTHOMODE
 70
     0
  9
$REGENMODE
 70
     1
  9
$FILLMODE
 70
     1
  9
$QTEXTMODE
 70
     0
  9
$MIRRTEXT
 70
     1
  9
$DRAGMODE
 70
     2
  9
$LTSCALE
 40
76.200000000000003
  9
$OSMODE
 70
   231
  9
$ATTMODE
 70
     1
  9
$TEXTSIZE
 40
0.0
  9
$TRACEWID
 40
1.0
  9
$TEXTSTYLE
  7
STANDARD
  9
$CLAYER
  8
DATA
  9
$CELTYPE
  6
BYLAYER
  9
$CECOLOR
 62
   256
  9
$DIMSCALE
 40
1.0
  9
$DIMASZ
 40
0.18
  9
$DIMEXO
 40
0.0625
  9
$DIMDLI
 40
0.38
  9
$DIMRND
 40
0.0
  9
$DIMDLE
 40
0.0
  9
$DIMEXE
 40
0.18
  9
$DIMTP
 40
0.0
  9
$DIMTM
 40
0.0
  9
$DIMTXT
 40
0.18
  9
$DIMCEN
 40
0.09
  9
$DIMTSZ
 40
0.0
  9
$DIMTOL
 70
     0
  9
$DIMLIM
 70
     0
  9
$DIMTIH
 70
     1
  9
$DIMTOH
 70
     1
  9
$DIMSE1
 70
     0
  9
$DIMSE2
 70
     0
  9
$DIMTAD
 70
     0
  9
$DIMZIN
 70
     0
  9
$DIMBLK
  1

  9
$DIMASO
 70
     1
  9
$DIMSHO
 70
     1
  9
$DIMPOST
  1

  9
$DIMAPOST
  1

  9
$DIMALT
 70
     0
  9
$DIMALTD
 70
     2
  9
$DIMALTF
 40
25.399999999999999
  9
$DIMLFAC
 40
1.0
  9
$DIMTOFL
 70
     0
  9
$DIMTVP
 40
0.0
  9
$DIMTIX
 70
     0
  9
$DIMSOXD
 70
     0
  9
$DIMSAH
 70
     0
  9
$DIMBLK1
  1

  9
$DIMBLK2
  1

  9
$DIMSTYLE
  2
STANDARD
  9
$DIMCLRD
 70
     0
  9
$DIMCLRE
 70
     0
  9
$DIMCLRT
 70
     0
  9
$DIMTFAC
 40
1.0
  9
$DIMGAP
 40
0.09
  9
$LUNITS
 70
     2
  9
$LUPREC
 70
     4
  9
$SKETCHINC
 40
0.1
  9
$FILLETRAD
 40
0.0
  9
$AUNITS
 70
     0
  9
$AUPREC
 70
     0
  9
$MENU
  1
acad
  9
$ELEVATION
 40
0.0
  9
$PELEVATION
 40
0.0
  9
$THICKNESS
 40
0.0
  9
$LIMCHECK
 70
     0
  9
$BLIPMODE
 70
     0
  9
$CHAMFERA
 40
0.0
  9
$CHAMFERB
 40
0.0
  9
$SKPOLY
 70
     0
  9
$TDCREATE
 40
2456693.7597685191
  9
$TDUPDATE
 40
2456693.7682141429
  9
$TDINDWG
 40
0.0004178009
  9
$TDUSRTIMER
 40
0.0004177662
  9
$USRTIMER
 70
     1
  9
$ANGBASE
 50
0.0
  9
$ANGDIR
 70
     0
  9
$PDMODE
 70
     1
  9
$PDSIZE
 40
-2.0
  9
$PLINEWID
 40
0.0
  9
$COORDS
 70
     2
  9
$SPLFRAME
 70
     0
  9
$SPLINETYPE
 70
     6
  9
$SPLINESEGS
 70
     8
  9
$ATTDIA
 70
     0
  9
$ATTREQ
 70
     1
  9
$HANDLING
 70
     1
  9
$HANDSEED
  5
373
  9
$SURFTAB1
 70
     6
  9
$SURFTAB2
 70
     6
  9
$SURFTYPE
 70
     6
  9
$SURFU
 70
     6
  9
$SURFV
 70
     6
  9
$UCSNAME
  2

  9
$UCSORG
 10
0.0
 20
0.0
 30
0.0
  9
$UCSXDIR
 10
1.0
 20
0.0
 30
0.0
  9
$UCSYDIR
 10
0.0
 20
1.0
 30
0.0
  9
$PUCSNAME
  2

  9
$PUCSORG
 10
0.0
 20
0.0
 30
0.0
  9
$PUCSXDIR
 10
1.0
 20
0.0
 30
0.0
  9
$PUCSYDIR
 10
0.0
 20
1.0
 30
0.0
  9
$USERI1
 70
     0
  9
$USERI2
 70
     0
  9
$USERI3
 70
     0
  9
$USERI4
 70
     0
  9
$USERI5
 70
     0
  9
$USERR1
 40
0.0
  9
$USERR2
 40
0.0
  9
$USERR3
 40
0.0
  9
$USERR4
 40
0.0
  9
$USERR5
 40
0.0
  9
$WORLDVIEW
 70
     1
  9
$SHADEDGE
 70
     3
  9
$SHADEDIF
 70
    70
  9
$TILEMODE
 70
     1
  9
$MAXACTVP
 70
    64
  9
$PLIMCHECK
 70
     0
  9
$PEXTMIN
 10
1.0000000000000000E+020
 20
1.0000000000000000E+020
 30
1.0000000000000000E+020
  9
$PEXTMAX
 10
-1.0000000000000000E+020
 20
-1.0000000000000000E+020
 30
-1.0000000000000000E+020
  9
$PLIMMIN
 10
0.0
 20
0.0
  9
$PLIMMAX
 10
12.0
 20
9.0
  9
$UNITMODE
 70
     0
  9
$VISRETAIN
 70
     0
  9
$PLINEGEN
 70
     1
  9
$PSLTSCALE
 70
     0
  0
ENDSEC
  0
SECTION
  2
TABLES
  0
TABLE
  2
VPORT
 70
     1
  0
VPORT
  2
*ACTIVE
 70
     0
 10
0.0
 20
0.0
 11
1.0
 21
1.0
 12
0.0000062864273787
 22
-7.6578116191026311
 13
0.0
 23
0.0
 14
1.0
 24
1.0
 15
0.0
 25
0.0
 16
0.0
 26
0.0
 36
1.0
 17
0.0
 27
0.0
 37
0.0
 40
4046.060816074038
 41
2.1787122207621552
 42
50.0
 43
0.0
 44
0.0
 50
0.0
 51
0.0
 71
     0
 72
  2000
 73
     1
 74
     1
 75
     0
 76
     0
 77
     0
 78
     0
  0
ENDTAB
  0
TABLE
  2
LTYPE
 70
    11
  0
LTYPE
  2
CONTINUOUS
 70
     0
  3
Solid line
 72
    65
 73
     0
 40
0.0
  0
ENDTAB
  0
TABLE
  2
LAYER
 70
     5
  0
LAYER
  2
0
 70
     0
 62
     7
  6
CONTINUOUS
  0
LAYER
  2
DATA
 70
     0
 62
     7
  6
CONTINUOUS
  0
LAYER
  2
HIBINO-BASE
 70
     0
 62
     7
  6
CONTINUOUS
  0
LAYER
  2
SPEC
 70
     0
 62
     7
  6
CONTINUOUS
  0
LAYER
  2
DIMNSIONS
 70
     0
 62
     7
  6
CONTINUOUS
  0
ENDTAB
  0
TABLE
  2
STYLE
 70
     3
  0
STYLE
  2
STANDARD
 70
     0
 40
0.0
 41
1.0
 50
0.0
 71
     0
 42
0.0
  3
txt
  4
BIGFONT.SHX
  0
ENDTAB
  0
TABLE
  2
VIEW
 70
     0
  0
ENDTAB
  0
TABLE
  2
UCS
 70
     0
  0
ENDTAB
  0
TABLE
  2
APPID
 70
     4
  0
APPID
  2
ACAD
 70
     0
  0
APPID
  2
ACADANNOTATIVE
 70
     0
  0
APPID
  2
ACAD_NAV_VCDISPLAY
 70
     0
  0
APPID
  2
ACAD_MLEADERVER
 70
     0
  0
ENDTAB
  0
TABLE
  2
DIMSTYLE
 70
     2
  0
DIMSTYLE
  2
STANDARD
 70
     0
  3

  4

  5

  6

  7

 40
1.0
 41
0.18
 42
0.0625
 43
0.38
 44
0.18
 45
0.0
 46
0.0
 47
0.0
 48
0.0
140
0.18
141
0.09
142
0.0
143
25.399999999999999
144
1.0
145
0.0
146
1.0
147
0.09
 71
     0
 72
     0
 73
     1
 74
     1
 75
     0
 76
     0
 77
     0
 78
     0
170
     0
171
     2
172
     0
173
     0
174
     0
175
     0
176
     0
177
     0
178
     0
  0
ENDTAB
  0
ENDSEC
  0
SECTION
  2
BLOCKS
  0
BLOCK
  8
0
  2
$MODEL_SPACE
 70
     0
 10
0.0
 20
0.0
 30
0.0
  3
$MODEL_SPACE
  1

  0
ENDBLK
  5
302
  8
0
  0
BLOCK
 67
     1
  8
0
  2
$PAPER_SPACE
 70
     0
 10
0.0
 20
0.0
 30
0.0
  3
$PAPER_SPACE
  1

  0
ENDBLK
  5
2FE
 67
     1
  8
0
  0
ENDSEC
  0
SECTION
  2
ENTITIES
  0
LINE
  5
2C
  8
HIBINO-BASE
  6
CONTINUOUS
 62
     7
 10
-1350.0
 20
1999.44541
 30
0.0
 11
1350.0
 21
1999.44541
 31
0.0
  0
LINE
  5
2D
  8
HIBINO-BASE
  6
CONTINUOUS
 62
     7
 10
1350.0
 20
-1900.5545900000011
 30
0.0
 11
-1350.0
 21
-1900.5545900000011
 31
0.0
  0
LINE
  5
2E
  8
HIBINO-BASE
  6
CONTINUOUS
 62
     7
 10
-1350.0
 20
-1900.5545900000011
 30
0.0
 11
-1350.0
 21
1999.44541
 31
0.0
  0
LINE
  5
2F
  8
HIBINO-BASE
  6
CONTINUOUS
 62
     7
 10
1350.0
 20
1999.44541
 30
0.0
 11
1350.0
 21
-1900.5545900000011
 31
0.0
  0
LINE
  5
30
  8
HIBINO-BASE
  6
CONTINUOUS
 62
     7
 10
0.0000000000001066
 20
-1563.0545900000011
 30
0.0
 11
1350.0
 21
-1563.0545900000011
 31
0.0
  0
LINE
  5
31
  8
HIBINO-BASE
  6
CONTINUOUS
 62
     7
 10
0.0000000000001066
 20
-1900.5545900000011
 30
0.0
 11
0.0000000000001066
 21
-1563.0545900000011
 31
0.0
  0
TEXT
  5
32
  8
HIBINO-BASE
 62
     7
 10
13.50000000000019
 20
-1600.68499
 30
0.0
 40
24.4326171875
  1
NOTE
 41
0.7
 11
13.50000000000019
 21
-1576.2523728125
 31
0.0
 73
     3
  0
LINE
  5
33
  8
HIBINO-BASE
  6
CONTINUOUS
 62
     7
 10
525.00000000000034
 20
-1900.5545900000011
 30
0.0
 11
525.00000000000034
 21
-1563.0545900000011
 31
0.0
  0
TEXT
  5
34
  8
HIBINO-BASE
 62
     7
 10
538.49999999999989
 20
-1600.68499
 30
0.0
 40
24.4326171875
  1
TITLE
 41
0.7
 11
538.49999999999989
 21
-1576.2523728125
 31
0.0
 73
     3
  0
LINE
  5
35
  8
HIBINO-BASE
  6
CONTINUOUS
 62
     7
 10
0.0000000000001066
 20
-1750.5545900000011
 30
0.0
 11
1350.0
 21
-1750.5545900000011
 31
0.0
  0
TEXT
  5
36
  8
HIBINO-BASE
 62
     7
 10
726.0
 20
-1787.3401899999999
 30
0.0
 40
24.4326171875
  1
DRAWN
 41
0.7
 11
726.0
 21
-1762.9075728124999
 31
0.0
 73
     3
  0
TEXT
  5
37
  8
HIBINO-BASE
 62
     7
 10
351.0
 20
-1787.3401899999999
 30
0.0
 40
24.4326171875
  1
DATE
 41
0.7
 11
351.0
 21
-1762.9075728124999
 31
0.0
 73
     3
  0
TEXT
  5
38
  8
HIBINO-BASE
 62
     7
 10
201.0
 20
-1787.3401899999999
 30
0.0
 40
24.4326171875
  1
SCALE
 41
0.7
 11
201.0
 21
-1762.9075728124999
 31
0.0
 73
     3
  0
TEXT
  5
39
  8
HIBINO-BASE
 62
     7
 10
538.49999999999989
 20
-1787.3401899999999
 30
0.0
 40
24.4326171875
  1
DESIGN
 41
0.7
 11
538.49999999999989
 21
-1762.9075728124999
 31
0.0
 73
     3
  0
TEXT
  5
3A
  8
HIBINO-BASE
 62
     7
 10
1100.9999999999991
 20
-1787.3401899999999
 30
0.0
 40
24.4326171875
  1
DRAWING NO.
 41
0.7
 11
1100.9999999999991
 21
-1762.9075728124999
 31
0.0
 73
     3
  0
TEXT
  5
3B
  8
HIBINO-BASE
 62
     7
 10
913.49999999999989
 20
-1787.3401899999999
 30
0.0
 40
24.4326171875
  1
CHECK
 41
0.7
 11
913.49999999999989
 21
-1762.9075728124999
 31
0.0
 73
     3
  0
LINE
  5
3C
  8
HIBINO-BASE
  6
CONTINUOUS
 62
     7
 10
215.62500000000011
 20
-1881.8045900000011
 30
0.0
 11
271.8750000000004
 21
-1825.5545900000011
 31
0.0
  0
TEXT
  5
3D
  8
HIBINO-BASE
 62
     7
 10
206.25000000000011
 20
-1842.1887400000001
 30
0.0
 40
24.4326171875
  1
1
 41
0.7
 11
206.25000000000011
 21
-1817.7561228125001
 31
0.0
 73
     3
  0
LINE
  5
3E
  8
HIBINO-BASE
  6
CONTINUOUS
 62
     7
 10
187.50000000000011
 20
-1900.5545900000011
 30
0.0
 11
187.50000000000011
 21
-1750.5545900000011
 31
0.0
  0
LINE
  5
3F
  8
HIBINO-BASE
  6
CONTINUOUS
 62
     7
 10
337.49999999999989
 20
-1900.5545900000011
 30
0.0
 11
337.49999999999989
 21
-1750.5545900000011
 31
0.0
  0
LINE
  5
40
  8
HIBINO-BASE
  6
CONTINUOUS
 62
     7
 10
712.49999999999955
 20
-1750.5545900000011
 30
0.0
 11
712.49999999999955
 21
-1900.5545900000011
 31
0.0
  0
LINE
  5
41
  8
HIBINO-BASE
  6
CONTINUOUS
 62
     7
 10
1087.5
 20
-1750.5545900000011
 30
0.0
 11
1087.5
 21
-1900.5545900000011
 31
0.0
  0
LINE
  5
42
  8
HIBINO-BASE
  6
CONTINUOUS
 62
     7
 10
899.99999999999955
 20
-1900.5545900000011
 30
0.0
 11
899.99999999999955
 21
-1750.5545900000011
 31
0.0
  0
TEXT
  5
43
  8
HIBINO-BASE
 62
     7
 10
350.34810000000022
 20
-1857.59989
 30
0.0
 40
24.4326171875
  1
'14.01.
 41
0.7
 11
350.34810000000022
 21
-1833.1672728125
 31
0.0
 73
     3
  0
TEXT
  5
44
  8
HIBINO-BASE
 62
     7
 10
262.5
 20
-1870.3137400000001
 30
0.0
 40
24.4326171875
  1
15
 41
0.7
 11
262.5
 21
-1845.8811228125001
 31
0.0
 73
     3
  0
TEXT
  5
45
  8
HIBINO-BASE
 62
     7
 10
735.08715016551935
 20
-1857.59989
 30
0.0
 40
24.4326171875
  1
N.Sasaki
 41
0.7
 11
735.08715016551935
 21
-1833.1672728125
 31
0.0
 73
     3
  0
TEXT
  5
46
  8
HIBINO-BASE
 62
     7
 10
58.250000000000412
 20
-1870.9145900000001
 30
0.0
 40
48.865234374999993
  1
A4
 41
0.7
 11
58.250000000000412
 21
-1822.0493556250001
 31
0.0
 73
     3
  0
TEXT
  5
47
  8
HIBINO-BASE
 62
     7
 10
14.37500000000003
 20
-1789.846415
 30
0.0
 40
24.4326171875
  1
PAPER SIZE
 41
0.7
 11
14.37500000000003
 21
-1765.4137978125
 31
0.0
 73
     3
  0
TEXT
  5
48
  8
HIBINO-BASE
 62
     7
 10
-1242.24
 20
-1996.684757
 30
0.0
 40
54.000662695312492
  1
Hibino Corporation
 41
0.7
 11
-1242.24
 21
-1942.684094304688
 31
0.0
 73
     3
  0
TEXT
  5
49
  8
HIBINO-BASE
 62
     7
 10
751.02584999999999
 20
-1996.684757
 30
0.0
 40
54.000662695312492
  1
ヒビノ株式会社
 41
0.7
 11
751.02584999999999
 21
-1942.684094304688
 31
0.0
 73
     3
  0
LINE
  5
4A
  8
SPEC
  6
CONTINUOUS
 62
     7
 10
-1237.5
 20
1849.44541
 30
0.0
 11
975.00000000000034
 21
1849.44541
 31
0.0
  0
LINE
  5
4B
  8
SPEC
  6
CONTINUOUS
 62
     7
 10
-1237.5
 20
1793.1954099999989
 30
0.0
 11
975.00000000000034
 21
1793.1954099999989
 31
0.0
  0
LINE
  5
4C
  8
SPEC
  6
CONTINUOUS
 62
     7
 10
-1237.5
 20
1849.44541
 30
0.0
 11
-1237.5
 21
1230.69541
 31
0.0
  0
TEXT
  5
4D
  8
SPEC
 62
     7
 10
-1218.75
 20
1870.3444599999989
 30
0.0
 40
36.64892578125
  1
仕様
 41
0.7
 11
-1218.75
 21
1906.9933857812489
 31
0.0
 73
     3
  0
LINE
  5
4E
  8
SPEC
  6
CONTINUOUS
 62
     7
 10
-750.0
 20
1849.44541
 30
0.0
 11
-750.0
 21
1230.69541
 31
0.0
  0
LINE
  5
4F
  8
SPEC
  6
CONTINUOUS
 62
     7
 10
975.00000000000034
 20
1849.44541
 30
0.0
 11
975.00000000000034
 21
1230.69541
 31
0.0
  0
TEXT
  5
50
  8
SPEC
 62
     7
 10
-1224.0
 20
1298.7641766666659
 30
0.0
 40
28.504720052083339
  1
寸法(W\U+00D7H\U+00D7D)
 41
0.7
 11
-1224.0
 21
1327.2688967187501
 31
0.0
 73
     3
  0
TEXT
  5
51
  8
SPEC
 62
     7
 10
-1224.0
 20
1242.5141766666659
 30
0.0
 40
28.504720052083339
  1
質量
 41
0.7
 11
-1224.0
 21
1271.0188967187489
 31
0.0
 73
     3
  0
LINE
  5
52
  8
SPEC
  6
CONTINUOUS
 62
     7
 10
-1237.5
 20
1736.9454099999989
 30
0.0
 11
975.00000000000034
 21
1736.9454099999989
 31
0.0
  0
LINE
  5
53
  8
SPEC
  6
CONTINUOUS
 62
     7
 10
-1237.5
 20
1680.6954099999989
 30
0.0
 11
975.00000000000034
 21
1680.6954099999989
 31
0.0
  0
LINE
  5
54
  8
SPEC
  6
CONTINUOUS
 62
     7
 10
-1237.5
 20
1624.4454099999989
 30
0.0
 11
975.00000000000034
 21
1624.4454099999989
 31
0.0
  0
LINE
  5
55
  8
SPEC
  6
CONTINUOUS
 62
     7
 10
-1237.5
 20
1568.1954099999989
 30
0.0
 11
975.00000000000034
 21
1568.1954099999989
 31
0.0
  0
LINE
  5
56
  8
SPEC
  6
CONTINUOUS
 62
     7
 10
-1237.5
 20
1511.9454099999989
 30
0.0
 11
975.00000000000034
 21
1511.9454099999989
 31
0.0
  0
LINE
  5
57
  8
SPEC
  6
CONTINUOUS
 62
     7
 10
-1237.5
 20
1455.6954099999989
 30
0.0
 11
975.00000000000034
 21
1455.6954099999989
 31
0.0
  0
LINE
  5
58
  8
SPEC
  6
CONTINUOUS
 62
     7
 10
-1237.5
 20
1399.4454099999989
 30
0.0
 11
975.00000000000034
 21
1399.4454099999989
 31
0.0
  0
LINE
  5
59
  8
SPEC
  6
CONTINUOUS
 62
     7
 10
-1237.5
 20
1343.19541
 30
0.0
 11
975.00000000000034
 21
1343.19541
 31
0.0
  0
LINE
  5
5A
  8
SPEC
  6
CONTINUOUS
 62
     7
 10
-1237.5
 20
1286.9454099999989
 30
0.0
 11
975.00000000000034
 21
1286.9454099999989
 31
0.0
  0
LINE
  5
5B
  8
SPEC
  6
CONTINUOUS
 62
     7
 10
-1237.5
 20
1230.69541
 30
0.0
 11
975.00000000000034
 21
1230.69541
 31
0.0
  0
TEXT
  5
5C
  8
SPEC
 62
     7
 10
-1200.0
 20
1161.665
 30
0.0
 40
28.504720052083329
  1
※ IEC ピンクノイズ、クレストファクタ ー6dB、100時間
 41
0.7
 11
-1200.0
 21
1190.169720052083
 31
0.0
 73
     3
  0
TEXT
  5
5D
  8
SPEC
 62
     7
 10
-1224.0
 20
1805.0141766666659
 30
0.0
 40
28.504720052083329
  1
形式
 41
0.7
 11
-1224.0
 21
1833.5188967187489
 31
0.0
 73
     3
  0
TEXT
  5
5E
  8
SPEC
 62
     7
 10
-1224.0
 20
1748.7641766666659
 30
0.0
 40
28.504720052083329
  1
周波数レンジ(-10dB)
 41
0.7
 11
-1224.0
 21
1777.2688967187489
 31
0.0
 73
     3
  0
TEXT
  5
5F
  8
SPEC
 62
     7
 10
-1224.0
 20
1692.5141766666659
 30
0.0
 40
28.504720052083329
  1
最大音圧レベル(1m)
 41
0.7
 11
-1224.0
 21
1721.0188967187489
 31
0.0
 73
     3
  0
TEXT
  5
60
  8
SPEC
 62
     7
 10
-1224.0
 20
1636.2641766666659
 30
0.0
 40
28.504720052083329
  1
感度(1W、1m)
 41
0.7
 11
-1224.0
 21
1664.7688967187489
 31
0.0
 73
     3
  0
TEXT
  5
61
  8
SPEC
 62
     7
 10
-1223.538036773745
 20
1583.3680291168071
 30
0.0
 40
28.504720052083329
  1
公称インピーダンス
 41
0.7
 11
-1223.538036773745
 21
1611.8727491688901
 31
0.0
 73
     3
  0
TEXT
  5
62
  8
SPEC
 62
     7
 10
-736.5
 20
1580.0141766666659
 30
0.0
 40
28.504720052083329
  1
4\U+03A9
 41
0.7
 11
-736.5
 21
1608.5188967187489
 31
0.0
 73
     3
  0
TEXT
  5
63
  8
SPEC
 62
     7
 10
-1224.0
 20
1523.7641766666659
 30
0.0
 40
28.504720052083329
  1
許容入力 ※
 41
0.7
 11
-1224.0
 21
1552.2688967187489
 31
0.0
 73
     3
  0
TEXT
  5
64
  8
SPEC
 62
     7
 10
-736.5
 20
1523.7641766666659
 30
0.0
 40
28.504720052083329
  1
350W(連続)
 41
0.7
 11
-736.5
 21
1552.2688967187489
 31
0.0
 73
     3
  0
TEXT
  5
65
  8
SPEC
 62
     7
 10
-1224.0
 20
1467.5141766666659
 30
0.0
 40
28.504720052083329
  1
ドライバー構成
 41
0.7
 11
-1224.0
 21
1496.0188967187489
 31
0.0
 73
     3
  0
TEXT
  5
66
  8
SPEC
 62
     7
 10
-1224.0
 20
1411.2641766666659
 30
0.0
 40
28.504720052083329
  1
入力端子
 41
0.7
 11
-1224.0
 21
1439.7688967187489
 31
0.0
 73
     3
  0
TEXT
  5
67
  8
SPEC
 62
     7
 10
-736.5
 20
1411.2641766666659
 30
0.0
 40
28.504720052083329
  1
4Pスピコン\U+00D72
 41
0.7
 11
-736.5
 21
1439.7688967187489
 31
0.0
 73
     3
  0
TEXT
  5
68
  8
SPEC
 62
     7
 10
-1224.0
 20
1355.0141766666659
 30
0.0
 40
28.504720052083329
  1
エンクロージャー
 41
0.7
 11
-1224.0
 21
1383.5188967187489
 31
0.0
 73
     3
  0
TEXT
  5
69
  8
SPEC
 62
     7
 10
-736.5
 20
1355.0141766666659
 30
0.0
 40
28.504720052083329
  1
黒カーペット仕上げ
 41
0.7
 11
-736.5
 21
1383.5188967187489
 31
0.0
 73
     3
  0
TEXT
  5
6A
  8
SPEC
 62
     7
 10
-736.5
 20
1242.5142006666661
 30
0.0
 40
28.50466875
  1
36kg
 41
0.7
 11
-736.5
 21
1271.0188694166659
 31
0.0
 73
     3
  0
TEXT
  5
6B
  8
SPEC
 62
     7
 10
-736.5
 20
1692.5141766666659
 30
0.0
 40
28.504720052083329
  1
133dB SPL(ピーク)
 41
0.7
 11
-736.5
 21
1721.0188967187489
 31
0.0
 73
     3
  0
TEXT
  5
6C
  8
SPEC
 62
     7
 10
-736.5
 20
1636.2641766666659
 30
0.0
 40
28.504720052083329
  1
98dB SPL
 41
0.7
 11
-736.5
 21
1664.7688967187489
 31
0.0
 73
     3
  0
TEXT
  5
6D
  8
SPEC
 62
     7
 10
-736.5
 20
1298.7641766666659
 30
0.0
 40
28.504720052083339
  1
520\U+00D7600\U+00D7560mm(除突起部)
 41
0.7
 11
-736.5
 21
1327.2688967187501
 31
0.0
 73
     3
  0
TEXT
  5
6E
  8
SPEC
 62
     7
 10
-736.5
 20
1805.0141766666659
 30
0.0
 40
28.504720052083329
  1
サブウーファー
 41
0.7
 11
-736.5
 21
1833.5188967187489
 31
0.0
 73
     3
  0
TEXT
  5
6F
  8
SPEC
 62
     7
 10
-736.5
 20
1748.764176666665
 30
0.0
 40
28.504720052083329
  1
34Hz～250Hz
 41
0.7
 11
-736.5
 21
1777.2688967187489
 31
0.0
 73
     3
  0
TEXT
  5
70
  8
SPEC
 62
     7
 10
-736.5
 20
1467.5141766666659
 30
0.0
 40
28.504720052083329
  1
460mm(M118－4)
 41
0.7
 11
-736.5
 21
1496.0188967187489
 31
0.0
 73
     3
  0
TEXT
  5
71
  8
DIMNSIONS
 62
     7
 10
-299.99999999999989
 20
-1716.51224
 30
0.0
 40
36.64892578125
  1
(単位：mm)
 41
0.7
 11
-299.99999999999989
 21
-1679.86331421875
 31
0.0
 73
     3
  0
LINE
  5
72
  8
DIMNSIONS
  6
CONTINUOUS
 62
     7
 10
-1080.0
 20
50.0
 30
0.0
 11
-1180.0
 21
50.0
 31
0.0
  0
LINE
  5
73
  8
DIMNSIONS
  6
CONTINUOUS
 62
     7
 10
-1080.0
 20
610.0
 30
0.0
 11
-1180.0
 21
610.0
 31
0.0
  0
LINE
  5
74
  8
DIMNSIONS
  6
CONTINUOUS
 62
     7
 10
-1150.0
 20
50.0
 30
0.0
 11
-1150.0
 21
610.0
 31
0.0
  0
LINE
  5
75
  8
DIMNSIONS
  6
CONTINUOUS
 62
     7
 10
-1150.0
 20
50.0
 30
0.0
 11
-1160.0505969272531
 21
87.509338378906264
 31
0.0
  0
LINE
  5
76
  8
DIMNSIONS
  6
CONTINUOUS
 62
     7
 10
-1150.0
 20
50.0
 30
0.0
 11
-1139.949403072746
 21
87.509338378906264
 31
0.0
  0
LINE
  5
77
  8
DIMNSIONS
  6
CONTINUOUS
 62
     7
 10
-1150.0
 20
610.0
 30
0.0
 11
-1139.949403072746
 21
572.49066162109375
 31
0.0
  0
LINE
  5
78
  8
DIMNSIONS
  6
CONTINUOUS
 62
     7
 10
-1150.0
 20
610.0
 30
0.0
 11
-1160.0505969272531
 21
572.49066162109375
 31
0.0
  0
TEXT
  5
79
  8
DIMNSIONS
 62
     7
 10
-1164.9083333333331
 20
290.3125
 30
0.0
 40
40.721028645833343
  1
560
 50
90.0
 41
0.7
 11
-1205.6293619791661
 21
290.3125
 31
0.0
 73
     3
  0
LINE
  5
7A
  8
DIMNSIONS
  6
CONTINUOUS
 62
     7
 10
-1080.0
 20
-100.0
 30
0.0
 11
-1180.0
 21
-100.0
 31
0.0
  0
LINE
  5
7B
  8
DIMNSIONS
  6
CONTINUOUS
 62
     7
 10
-1080.0
 20
-700.0
 30
0.0
 11
-1180.0
 21
-700.0
 31
0.0
  0
LINE
  5
7C
  8
DIMNSIONS
  6
CONTINUOUS
 62
     7
 10
-1150.0
 20
-100.0
 30
0.0
 11
-1150.0
 21
-700.0
 31
0.0
  0
LINE
  5
7D
  8
DIMNSIONS
  6
CONTINUOUS
 62
     7
 10
-1150.0
 20
-100.0
 30
0.0
 11
-1139.949403072746
 21
-137.50933837890619
 31
0.0
  0
LINE
  5
7E
  8
DIMNSIONS
  6
CONTINUOUS
 62
     7
 10
-1150.0
 20
-100.0
 30
0.0
 11
-1160.0505969272531
 21
-137.50933837890619
 31
0.0
  0
LINE
  5
7F
  8
DIMNSIONS
  6
CONTINUOUS
 62
     7
 10
-1150.0
 20
-700.0
 30
0.0
 11
-1160.0505969272531
 21
-662.49066162109375
 31
0.0
  0
LINE
  5
80
  8
DIMNSIONS
  6
CONTINUOUS
 62
     7
 10
-1150.0
 20
-700.0
 30
0.0
 11
-1139.949403072746
 21
-662.49066162109375
 31
0.0
  0
TEXT
  5
81
  8
DIMNSIONS
 62
     7
 10
-1164.9083333333331
 20
-439.6875
 30
0.0
 40
40.721028645833343
  1
600
 50
90.0
 41
0.7
 11
-1205.6293619791661
 21
-439.6875
 31
0.0
 73
     3
  0
LINE
  5
82
  8
DIMNSIONS
  6
CONTINUOUS
 62
     7
 10
-1060.0
 20
-720.0
 30
0.0
 11
-1060.0
 21
-880.0
 31
0.0
  0
LINE
  5
83
  8
DIMNSIONS
  6
CONTINUOUS
 62
     7
 10
-540.0
 20
-720.0
 30
0.0
 11
-540.0
 21
-880.0
 31
0.0
  0
LINE
  5
84
  8
DIMNSIONS
  6
CONTINUOUS
 62
     7
 10
-1060.0
 20
-850.0
 30
0.0
 11
-540.0
 21
-850.0
 31
0.0
  0
LINE
  5
85
  8
DIMNSIONS
  6
CONTINUOUS
 62
     7
 10
-1060.0
 20
-850.0
 30
0.0
 11
-1022.490661621094
 21
-839.94940307274624
 31
0.0
  0
LINE
  5
86
  8
DIMNSIONS
  6
CONTINUOUS
 62
     7
 10
-1060.0
 20
-850.0
 30
0.0
 11
-1022.490661621094
 21
-860.05059692725365
 31
0.0
  0
LINE
  5
87
  8
DIMNSIONS
  6
CONTINUOUS
 62
     7
 10
-540.0
 20
-850.0
 30
0.0
 11
-577.50933837890625
 21
-860.05059692725365
 31
0.0
  0
LINE
  5
88
  8
DIMNSIONS
  6
CONTINUOUS
 62
     7
 10
-540.0
 20
-850.0
 30
0.0
 11
-577.50933837890625
 21
-839.94940307274624
 31
0.0
  0
TEXT
  5
89
  8
DIMNSIONS
 62
     7
 10
-839.68749999999989
 20
-835.09166666666658
 30
0.0
 40
40.721028645833343
  1
520
 41
0.7
 11
-839.68749999999989
 21
-794.37063802083333
 31
0.0
 73
     3
  0
LINE
  5
8A
  8
DIMNSIONS
  6
CONTINUOUS
 62
     7
 10
-773.21936673212554
 20
336.24881442927091
 30
0.0
 11
-500.0
 21
400.0
 31
0.0
  0
LINE
  5
8B
  8
DIMNSIONS
  6
CONTINUOUS
 62
     7
 10
-773.21936673212554
 20
336.24881442927091
 30
0.0
 11
-738.93228264139043
 21
354.47958042448522
 31
0.0
  0
LINE
  5
8C
  8
DIMNSIONS
  6
CONTINUOUS
 62
     7
 10
-773.21936673212554
 20
336.24881442927091
 30
0.0
 11
-734.41049789024851
 21
334.89357886620832
 31
0.0
  0
LINE
  5
8D
  8
DIMNSIONS
  6
CONTINUOUS
 62
     7
 10
-500.0
 20
400.0
 30
0.0
 11
6.250000000000056
 21
400.0
 31
0.0
  0
TEXT
  5
8E
  8
DIMNSIONS
 62
     7
 10
-470.0
 20
414.9083333333333
 30
0.0
 40
40.721028645833343
  1
\U+03C635ポールソケット
 41
0.7
 11
-470.0
 21
455.62936197916662
 31
0.0
 73
     3
  0
LINE
  5
8F
  8
DIMNSIONS
  6
CONTINUOUS
 62
     7
 10
-1080.0
 20
-700.0
 30
0.0
 11
-1180.0
 21
-700.0
 31
0.0
  0
LINE
  5
90
  8
DIMNSIONS
  6
CONTINUOUS
 62
     7
 10
-1068.490024875776
 20
-712.0
 30
0.0
 11
-1180.0
 21
-712.0
 31
0.0
  0
LINE
  5
91
  8
DIMNSIONS
  6
CONTINUOUS
 62
     7
 10
-1150.0
 20
-712.0
 30
0.0
 11
-1150.0
 21
-700.0
 31
0.0
  0
LINE
  5
92
  8
DIMNSIONS
  6
CONTINUOUS
 62
     7
 10
-1150.0
 20
-700.0
 30
0.0
 11
-1150.0
 21
-625.0
 31
0.0
  0
LINE
  5
93
  8
DIMNSIONS
  6
CONTINUOUS
 62
     7
 10
-1150.0
 20
-700.0
 30
0.0
 11
-1160.0505969272531
 21
-662.49066162109375
 31
0.0
  0
LINE
  5
94
  8
DIMNSIONS
  6
CONTINUOUS
 62
     7
 10
-1150.0
 20
-700.0
 30
0.0
 11
-1139.949403072746
 21
-662.49066162109375
 31
0.0
  0
LINE
  5
95
  8
DIMNSIONS
  6
CONTINUOUS
 62
     7
 10
-1150.0
 20
-712.0
 30
0.0
 11
-1150.0
 21
-855.83333333333326
 31
0.0
  0
LINE
  5
96
  8
DIMNSIONS
  6
CONTINUOUS
 62
     7
 10
-1150.0
 20
-712.0
 30
0.0
 11
-1139.949403072746
 21
-749.50933837890625
 31
0.0
  0
LINE
  5
97
  8
DIMNSIONS
  6
CONTINUOUS
 62
     7
 10
-1150.0
 20
-712.0
 30
0.0
 11
-1160.0505969272531
 21
-749.50933837890625
 31
0.0
  0
TEXT
  5
98
  8
DIMNSIONS
 62
     7
 10
-1164.9083333333331
 20
-855.83333333333326
 30
0.0
 40
40.721028645833343
  1
12.0
 50
90.0
 41
0.7
 11
-1205.629361979167
 21
-855.83333333333326
 31
0.0
 73
     3
  0
TEXT
  5
99
  8
DATA
 62
     7
 10
-1312.5
 20
-1782.4104233333339
 30
0.0
 40
28.504720052083339
  1
※仕様及び外観は予告なく変更されることがあります。
 41
0.7
 11
-1312.5
 21
-1753.9057032812509
 31
0.0
 73
     3
  0
TEXT
  5
9A
  8
DATA
 62
     7
 10
-1312.5
 20
-1819.45209
 30
0.0
 40
28.504720052083339
  1
　また、同一商品でも若干の個体差があることがあります。ご了承ください。
 41
0.7
 11
-1312.5
 21
-1790.947369947917
 31
0.0
 73
     3
  0
TEXT
  5
9B
  8
DATA
 62
     7
 10
749.99999999999955
 20
-1733.59124
 30
0.0
 40
36.64892578125
  1
JRX218S
 41
0.7
 11
749.99999999999955
 21
-1696.94231421875
 31
0.0
 73
     3
  0
TEXT
  5
9C
  8
DATA
 62
     7
 10
749.99999999999955
 20
-1624.84124
 30
0.0
 40
36.64892578125
  1
JBL PROFESSIONAL
 41
0.7
 11
749.99999999999955
 21
-1588.19231421875
 31
0.0
 73
     3
  0
TEXT
  5
9D
  8
DATA
 62
     7
 10
514.71931966145871
 20
954.63948567708326
 30
0.0
 40
40.721028645833343
  1
コネクターパネル拡大図
 41
0.7
 72
     1
 11
700.00000000000045
 21
975.0
 31
0.0
 73
     2
  0
LINE
  5
9E
  8
DATA
  6
CONTINUOUS
 62
     7
 10
400.00000000000051
 20
925.0
 30
0.0
 11
1000.0
 21
925.0
 31
0.0
  0
LINE
  5
9F
  8
DATA
  6
CONTINUOUS
 62
     7
 10
340.0
 20
-690.0
 30
0.0
 11
340.0
 21
-110.0
 31
0.0
  0
LINE
  5
A0
  8
DATA
  6
CONTINUOUS
 62
     7
 10
860.0
 20
-110.0
 30
0.0
 11
860.0
 21
-690.0
 31
0.0
  0
LINE
  5
A1
  8
DATA
  6
CONTINUOUS
 62
     7
 10
350.0
 20
-100.0
 30
0.0
 11
850.0
 21
-100.0
 31
0.0
  0
ARC
  5
A2
  8
DATA
  6
CONTINUOUS
 62
     7
 10
850.0
 20
-110.0
 30
0.0
 40
10.0
 50
0.0
 51
90.0
  0
ARC
  5
A3
  8
DATA
  6
CONTINUOUS
 62
     7
 10
350.0
 20
-110.0
 30
0.0
 40
10.0
 50
90.0
 51
180.0
  0
ARC
  5
A4
  8
DATA
  6
CONTINUOUS
 62
     7
 10
350.0
 20
-690.0
 30
0.0
 40
10.0
 50
180.0
 51
270.0
  0
ARC
  5
A5
  8
DATA
  6
CONTINUOUS
 62
     7
 10
850.0
 20
-690.0
 30
0.0
 40
10.0
 50
270.0
 51
0.0
  0
LINE
  5
A6
  8
DATA
  6
CONTINUOUS
 62
     7
 10
-400.0
 20
-690.0
 30
0.0
 11
-400.0
 21
-110.0
 31
0.0
  0
ARC
  5
A7
  8
DATA
  6
CONTINUOUS
 62
     7
 10
-390.0
 20
-690.0
 30
0.0
 40
10.0
 50
180.0
 51
270.0
  0
LINE
  5
A8
  8
DATA
  6
CONTINUOUS
 62
     7
 10
150.0
 20
-700.0
 30
0.0
 11
-390.0
 21
-700.0
 31
0.0
  0
ARC
  5
A9
  8
DATA
  6
CONTINUOUS
 62
     7
 10
150.0
 20
-690.0
 30
0.0
 40
10.0
 50
270.0
 51
0.0
  0
LINE
  5
AA
  8
DATA
  6
CONTINUOUS
 62
     7
 10
160.0
 20
-110.0
 30
0.0
 11
160.0
 21
-690.0
 31
0.0
  0
ARC
  5
AB
  8
DATA
  6
CONTINUOUS
 62
     7
 10
150.0
 20
-110.0
 30
0.0
 40
10.0
 50
0.0
 51
90.0
  0
LINE
  5
AC
  8
DATA
  6
CONTINUOUS
 62
     7
 10
-390.0
 20
-100.0
 30
0.0
 11
150.0
 21
-100.0
 31
0.0
  0
ARC
  5
AD
  8
DATA
  6
CONTINUOUS
 62
     7
 10
-390.0
 20
-110.0
 30
0.0
 40
10.0
 50
90.0
 51
180.0
  0
LINE
  5
AE
  8
DATA
  6
CONTINUOUS
 62
     7
 10
-203.0
 20
-400.0
 30
0.0
 11
-203.0
 21
-200.0
 31
0.0
  0
LINE
  5
AF
  8
DATA
  6
CONTINUOUS
 62
     7
 10
-178.0
 20
-382.0
 30
0.0
 11
-178.0
 21
-218.0
 31
0.0
  0
LINE
  5
B0
  8
DATA
  6
CONTINUOUS
 62
     7
 10
-50.0
 20
-410.0
 30
0.0
 11
-193.0
 21
-410.0
 31
0.0
  0
LINE
  5
B1
  8
DATA
  6
CONTINUOUS
 62
     7
 10
-65.0
 20
-382.0
 30
0.0
 11
-178.0
 21
-382.0
 31
0.0
  0
LINE
  5
B2
  8
DATA
  6
CONTINUOUS
 62
     7
 10
-65.0
 20
-332.0
 30
0.0
 11
-178.0
 21
-332.0
 31
0.0
  0
LINE
  5
B3
  8
DATA
  6
CONTINUOUS
 62
     7
 10
-65.0
 20
-326.0
 30
0.0
 11
-178.0
 21
-326.0
 31
0.0
  0
LINE
  5
B4
  8
DATA
  6
CONTINUOUS
 62
     7
 10
-40.0
 20
-200.0
 30
0.0
 11
-40.0
 21
-400.0
 31
0.0
  0
LINE
  5
B5
  8
DATA
  6
CONTINUOUS
 62
     7
 10
-65.0
 20
-218.0
 30
0.0
 11
-65.0
 21
-382.0
 31
0.0
  0
LINE
  5
B6
  8
DATA
  6
CONTINUOUS
 62
     7
 10
-193.0
 20
-190.0
 30
0.0
 11
-50.0
 21
-190.0
 31
0.0
  0
LINE
  5
B7
  8
DATA
  6
CONTINUOUS
 62
     7
 10
-178.0
 20
-218.0
 30
0.0
 11
-65.0
 21
-218.0
 31
0.0
  0
LINE
  5
B8
  8
DATA
  6
CONTINUOUS
 62
     7
 10
-178.0
 20
-268.0
 30
0.0
 11
-65.0
 21
-268.0
 31
0.0
  0
LINE
  5
B9
  8
DATA
  6
CONTINUOUS
 62
     7
 10
-178.0
 20
-274.0
 30
0.0
 11
-65.0
 21
-274.0
 31
0.0
  0
ARC
  5
BA
  8
DATA
  6
CONTINUOUS
 62
     7
 10
-193.0
 20
-200.0
 30
0.0
 40
10.0
 50
90.0
 51
180.0
  0
ARC
  5
BB
  8
DATA
  6
CONTINUOUS
 62
     7
 10
-50.0
 20
-200.0
 30
0.0
 40
10.0
 50
0.0
 51
90.0
  0
ARC
  5
BC
  8
DATA
  6
CONTINUOUS
 62
     7
 10
-193.0
 20
-400.0
 30
0.0
 40
10.0
 50
180.0
 51
270.0
  0
ARC
  5
BD
  8
DATA
  6
CONTINUOUS
 62
     7
 10
-50.0
 20
-400.0
 30
0.0
 40
10.0
 50
270.0
 51
0.0
  0
CIRCLE
  5
BE
  8
DATA
  6
CONTINUOUS
 62
     7
 10
-190.5
 20
-204.0
 30
0.0
 40
3.9999999999997109
  0
CIRCLE
  5
BF
  8
DATA
  6
CONTINUOUS
 62
     7
 10
-190.5
 20
-300.0
 30
0.0
 40
4.0
  0
CIRCLE
  5
C0
  8
DATA
  6
CONTINUOUS
 62
     7
 10
-190.5
 20
-396.0
 30
0.0
 40
4.0
  0
CIRCLE
  5
C1
  8
DATA
  6
CONTINUOUS
 62
     7
 10
-52.5
 20
-396.0
 30
0.0
 40
4.0000000000003268
  0
CIRCLE
  5
C2
  8
DATA
  6
CONTINUOUS
 62
     7
 10
-52.5
 20
-302.0
 30
0.0
 40
4.0000000000000524
  0
CIRCLE
  5
C3
  8
DATA
  6
CONTINUOUS
 62
     7
 10
-52.5
 20
-204.0
 30
0.0
 40
3.9999999999997109
  0
LINE
  5
C4
  8
DATA
  6
CONTINUOUS
 62
     7
 10
-540.0
 20
-690.0
 30
0.0
 11
-540.0
 21
-110.0
 31
0.0
  0
LINE
  5
C5
  8
DATA
  6
CONTINUOUS
 62
     7
 10
-565.0
 20
-675.0
 30
0.0
 11
-565.0
 21
-125.0
 31
0.0
  0
LINE
  5
C6
  8
DATA
  6
CONTINUOUS
 62
     7
 10
-579.0
 20
-661.0
 30
0.0
 11
-579.0
 21
-139.0
 31
0.0
  0
LINE
  5
C7
  8
DATA
  6
CONTINUOUS
 62
     7
 10
-1050.0
 20
-700.0
 30
0.0
 11
-550.0
 21
-700.0
 31
0.0
  0
LINE
  5
C8
  8
DATA
  6
CONTINUOUS
 62
     7
 10
-1035.0
 20
-675.0
 30
0.0
 11
-565.0
 21
-675.0
 31
0.0
  0
LINE
  5
C9
  8
DATA
  6
CONTINUOUS
 62
     7
 10
-1021.0
 20
-661.0
 30
0.0
 11
-579.0
 21
-661.0
 31
0.0
  0
LINE
  5
CA
  8
DATA
  6
CONTINUOUS
 62
     7
 10
-1060.0
 20
-110.0
 30
0.0
 11
-1060.0
 21
-690.0
 31
0.0
  0
LINE
  5
CB
  8
DATA
  6
CONTINUOUS
 62
     7
 10
-1035.0
 20
-125.0
 30
0.0
 11
-1035.0
 21
-675.0
 31
0.0
  0
LINE
  5
CC
  8
DATA
  6
CONTINUOUS
 62
     7
 10
-1021.0
 20
-139.0
 30
0.0
 11
-1021.0
 21
-661.0
 31
0.0
  0
LINE
  5
CD
  8
DATA
  6
CONTINUOUS
 62
     7
 10
-550.0
 20
-100.0
 30
0.0
 11
-1050.0
 21
-100.0
 31
0.0
  0
LINE
  5
CE
  8
DATA
  6
CONTINUOUS
 62
     7
 10
-565.0
 20
-125.0
 30
0.0
 11
-1035.0
 21
-125.0
 31
0.0
  0
LINE
  5
CF
  8
DATA
  6
CONTINUOUS
 62
     7
 10
-579.0
 20
-139.0
 30
0.0
 11
-1021.0
 21
-139.0
 31
0.0
  0
ARC
  5
D0
  8
DATA
  6
CONTINUOUS
 62
     7
 10
-1050.0
 20
-110.0
 30
0.0
 40
10.0
 50
90.0
 51
180.0
  0
ARC
  5
D1
  8
DATA
  6
CONTINUOUS
 62
     7
 10
-550.0
 20
-110.0
 30
0.0
 40
10.0
 50
0.0
 51
90.0
  0
ARC
  5
D2
  8
DATA
  6
CONTINUOUS
 62
     7
 10
-550.0
 20
-690.0
 30
0.0
 40
10.0
 50
270.0
 51
0.0
  0
ARC
  5
D3
  8
DATA
  6
CONTINUOUS
 62
     7
 10
-1050.0
 20
-690.0
 30
0.0
 40
10.0
 50
180.0
 51
270.0
  0
LINE
  5
D4
  8
DATA
  6
CONTINUOUS
 62
     7
 10
-820.0
 20
-650.0
 30
0.0
 11
-820.0
 21
-610.0
 31
0.0
  0
LINE
  5
D5
  8
DATA
  6
CONTINUOUS
 62
     7
 10
-780.0
 20
-650.0
 30
0.0
 11
-820.0
 21
-650.0
 31
0.0
  0
LINE
  5
D6
  8
DATA
  6
CONTINUOUS
 62
     7
 10
-780.0
 20
-610.0
 30
0.0
 11
-780.0
 21
-650.0
 31
0.0
  0
LINE
  5
D7
  8
DATA
  6
CONTINUOUS
 62
     7
 10
-820.0
 20
-610.0
 30
0.0
 11
-780.0
 21
-610.0
 31
0.0
  0
LINE
  5
D8
  8
DATA
  6
CONTINUOUS
 62
     7
 10
-1005.519900743804
 20
-710.1990074380418
 30
0.0
 11
-1004.5
 21
-700.0
 31
0.0
  0
LINE
  5
D9
  8
DATA
  6
CONTINUOUS
 62
     7
 10
-1040.5
 20
-710.0
 30
0.0
 11
-1005.5
 21
-710.0
 31
0.0
  0
LINE
  5
DA
  8
DATA
  6
CONTINUOUS
 62
     7
 10
-1038.490024875776
 20
-712.0
 30
0.0
 11
-1007.509975124224
 21
-712.0
 31
0.0
  0
LINE
  5
DB
  8
DATA
  6
CONTINUOUS
 62
     7
 10
-1041.5
 20
-700.0
 30
0.0
 11
-1040.4800992561959
 21
-710.1990074380418
 31
0.0
  0
ARC
  5
DC
  8
DATA
  6
CONTINUOUS
 62
     7
 10
-1007.509975124224
 20
-710.0
 30
0.0
 40
2.0
 50
270.0
 51
354.28940686250291
  0
ARC
  5
DD
  8
DATA
  6
CONTINUOUS
 62
     7
 10
-1038.490024875776
 20
-710.0
 30
0.0
 40
2.000000000000095
 50
185.710593137497
 51
270.0
  0
LINE
  5
DE
  8
DATA
  6
CONTINUOUS
 62
     7
 10
-382.4800992561959
 20
-710.1990074380418
 30
0.0
 11
-383.5
 21
-700.0
 31
0.0
  0
LINE
  5
DF
  8
DATA
  6
CONTINUOUS
 62
     7
 10
-347.5
 20
-710.0
 30
0.0
 11
-382.5
 21
-710.0
 31
0.0
  0
LINE
  5
E0
  8
DATA
  6
CONTINUOUS
 62
     7
 10
-349.50997512422418
 20
-712.0
 30
0.0
 11
-380.49002487577582
 21
-712.0
 31
0.0
  0
LINE
  5
E1
  8
DATA
  6
CONTINUOUS
 62
     7
 10
-346.5
 20
-700.0
 30
0.0
 11
-347.5199007438041
 21
-710.1990074380418
 31
0.0
  0
ARC
  5
E2
  8
DATA
  6
CONTINUOUS
 62
     7
 10
-380.49002487577582
 20
-710.0
 30
0.0
 40
2.000000000000095
 50
185.710593137497
 51
270.0
  0
ARC
  5
E3
  8
DATA
  6
CONTINUOUS
 62
     7
 10
-349.50997512422418
 20
-710.0
 30
0.0
 40
2.0
 50
270.0
 51
354.28940686250291
  0
LINE
  5
E4
  8
DATA
  6
CONTINUOUS
 62
     7
 10
-1060.0
 20
-1500.0
 30
0.0
 11
-1060.0
 21
-960.0
 31
0.0
  0
LINE
  5
E5
  8
DATA
  6
CONTINUOUS
 62
     7
 10
-550.0
 20
-1510.0
 30
0.0
 11
-1050.0
 21
-1510.0
 31
0.0
  0
LINE
  5
E6
  8
DATA
  6
CONTINUOUS
 62
     7
 10
-540.0
 20
-960.0
 30
0.0
 11
-540.0
 21
-1500.0
 31
0.0
  0
LINE
  5
E7
  8
DATA
  6
CONTINUOUS
 62
     7
 10
-1050.0
 20
-950.0
 30
0.0
 11
-550.0
 21
-950.0
 31
0.0
  0
CIRCLE
  5
E8
  8
DATA
  6
CONTINUOUS
 62
     7
 10
-577.0
 20
-985.0
 30
0.0
 40
18.499999999999972
  0
CIRCLE
  5
E9
  8
DATA
  6
CONTINUOUS
 62
     7
 10
-577.0
 20
-985.0
 30
0.0
 40
17.499999999999879
  0
CIRCLE
  5
EA
  8
DATA
  6
CONTINUOUS
 62
     7
 10
-577.0
 20
-985.0
 30
0.0
 40
15.499999999999931
  0
CIRCLE
  5
EB
  8
DATA
  6
CONTINUOUS
 62
     7
 10
-1023.0
 20
-985.0
 30
0.0
 40
18.499999999999972
  0
CIRCLE
  5
EC
  8
DATA
  6
CONTINUOUS
 62
     7
 10
-1023.0
 20
-985.0
 30
0.0
 40
17.499999999999879
  0
CIRCLE
  5
ED
  8
DATA
  6
CONTINUOUS
 62
     7
 10
-1023.0
 20
-985.0
 30
0.0
 40
15.499999999999931
  0
CIRCLE
  5
EE
  8
DATA
  6
CONTINUOUS
 62
     7
 10
-1023.0
 20
-1475.0
 30
0.0
 40
18.499999999999972
  0
CIRCLE
  5
EF
  8
DATA
  6
CONTINUOUS
 62
     7
 10
-1023.0
 20
-1475.0
 30
0.0
 40
17.499999999999879
  0
CIRCLE
  5
F0
  8
DATA
  6
CONTINUOUS
 62
     7
 10
-1023.0
 20
-1475.0
 30
0.0
 40
15.499999999999931
  0
CIRCLE
  5
F1
  8
DATA
  6
CONTINUOUS
 62
     7
 10
-577.0
 20
-1475.0
 30
0.0
 40
18.499999999999972
  0
CIRCLE
  5
F2
  8
DATA
  6
CONTINUOUS
 62
     7
 10
-577.0
 20
-1475.0
 30
0.0
 40
17.499999999999879
  0
CIRCLE
  5
F3
  8
DATA
  6
CONTINUOUS
 62
     7
 10
-577.0
 20
-1475.0
 30
0.0
 40
15.499999999999931
  0
ARC
  5
F4
  8
DATA
  6
CONTINUOUS
 62
     7
 10
-1050.0
 20
-960.0
 30
0.0
 40
10.0
 50
90.0
 51
180.0
  0
ARC
  5
F5
  8
DATA
  6
CONTINUOUS
 62
     7
 10
-550.0
 20
-960.0
 30
0.0
 40
10.0
 50
0.0
 51
90.0
  0
ARC
  5
F6
  8
DATA
  6
CONTINUOUS
 62
     7
 10
-550.0
 20
-1500.0
 30
0.0
 40
10.0
 50
270.0
 51
0.0
  0
ARC
  5
F7
  8
DATA
  6
CONTINUOUS
 62
     7
 10
-1050.0
 20
-1500.0
 30
0.0
 40
10.0
 50
180.0
 51
270.0
  0
LINE
  5
F8
  8
DATA
  6
CONTINUOUS
 62
     7
 10
-1060.0
 20
600.0
 30
0.0
 11
-1060.0
 21
60.0
 31
0.0
  0
LINE
  5
F9
  8
DATA
  6
CONTINUOUS
 62
     7
 10
-550.0
 20
610.0
 30
0.0
 11
-1050.0
 21
610.0
 31
0.0
  0
LINE
  5
FA
  8
DATA
  6
CONTINUOUS
 62
     7
 10
-540.0
 20
60.0
 30
0.0
 11
-540.0
 21
600.0
 31
0.0
  0
LINE
  5
FB
  8
DATA
  6
CONTINUOUS
 62
     7
 10
-1050.0
 20
50.0
 30
0.0
 11
-550.0
 21
50.0
 31
0.0
  0
ARC
  5
FC
  8
DATA
  6
CONTINUOUS
 62
     7
 10
-1050.0
 20
60.0
 30
0.0
 40
10.0
 50
180.0
 51
270.0
  0
ARC
  5
FD
  8
DATA
  6
CONTINUOUS
 62
     7
 10
-550.0
 20
60.0
 30
0.0
 40
10.0
 50
270.0
 51
0.0
  0
ARC
  5
FE
  8
DATA
  6
CONTINUOUS
 62
     7
 10
-550.0
 20
600.0
 30
0.0
 40
10.0
 50
0.0
 51
90.0
  0
ARC
  5
FF
  8
DATA
  6
CONTINUOUS
 62
     7
 10
-1050.0
 20
600.0
 30
0.0
 40
10.0
 50
90.0
 51
180.0
  0
LINE
  5
100
  8
DATA
  6
CONTINUOUS
 62
     7
 10
534.0
 20
-213.0
 30
0.0
 11
666.0
 21
-213.0
 31
0.0
  0
LINE
  5
101
  8
DATA
  6
CONTINUOUS
 62
     7
 10
545.0
 20
-227.0
 30
0.0
 11
655.0
 21
-227.0
 31
0.0
  0
LINE
  5
102
  8
DATA
  6
CONTINUOUS
 62
     7
 10
531.0
 20
-308.0
 30
0.0
 11
531.0
 21
-216.0
 31
0.0
  0
LINE
  5
103
  8
DATA
  6
CONTINUOUS
 62
     7
 10
545.0
 20
-297.0
 30
0.0
 11
545.0
 21
-227.0
 31
0.0
  0
LINE
  5
104
  8
DATA
  6
CONTINUOUS
 62
     7
 10
666.0
 20
-311.0
 30
0.0
 11
534.0
 21
-311.0
 31
0.0
  0
LINE
  5
105
  8
DATA
  6
CONTINUOUS
 62
     7
 10
655.0
 20
-297.0
 30
0.0
 11
545.0
 21
-297.0
 31
0.0
  0
LINE
  5
106
  8
DATA
  6
CONTINUOUS
 62
     7
 10
669.0
 20
-216.0
 30
0.0
 11
669.0
 21
-308.0
 31
0.0
  0
LINE
  5
107
  8
DATA
  6
CONTINUOUS
 62
     7
 10
655.0
 20
-227.0
 30
0.0
 11
655.0
 21
-297.0
 31
0.0
  0
ARC
  5
108
  8
DATA
  6
CONTINUOUS
 62
     7
 10
666.0
 20
-308.0
 30
0.0
 40
3.0
 50
270.0
 51
0.0
  0
ARC
  5
109
  8
DATA
  6
CONTINUOUS
 62
     7
 10
666.0
 20
-216.0
 30
0.0
 40
3.0
 50
0.0
 51
90.0
  0
ARC
  5
10A
  8
DATA
  6
CONTINUOUS
 62
     7
 10
534.0
 20
-216.0
 30
0.0
 40
3.0
 50
90.0
 51
180.0
  0
ARC
  5
10B
  8
DATA
  6
CONTINUOUS
 62
     7
 10
534.0
 20
-308.0
 30
0.0
 40
3.0
 50
180.0
 51
270.0
  0
TEXT
  5
10C
  8
DATA
 62
     7
 10
558.46025797526045
 20
-280.8540771484374
 30
0.0
 40
6.108154296875
  1
JRX218S
 41
0.7
 72
     1
 11
572.0
 21
-277.80000000000001
 31
0.0
 73
     2
  0
CIRCLE
  5
10D
  8
DATA
  6
CONTINUOUS
 62
     7
 10
629.0
 20
-247.2999999999999
 30
0.0
 40
11.75
  0
CIRCLE
  5
10E
  8
DATA
  6
CONTINUOUS
 62
     7
 10
638.49999999999989
 20
-259.2999999999999
 30
0.0
 40
2.0
  0
CIRCLE
  5
10F
  8
DATA
  6
CONTINUOUS
 62
     7
 10
619.5
 20
-235.30000000000001
 30
0.0
 40
2.0
  0
LINE
  5
110
  8
DATA
  6
CONTINUOUS
 62
     7
 10
618.0
 20
-231.80000000000001
 30
0.0
 11
640.0
 21
-231.80000000000001
 31
0.0
  0
LINE
  5
111
  8
DATA
  6
CONTINUOUS
 62
     7
 10
616.0
 20
-233.80000000000001
 30
0.0
 11
616.0
 21
-260.80000000000001
 31
0.0
  0
LINE
  5
112
  8
DATA
  6
CONTINUOUS
 62
     7
 10
618.0
 20
-262.80000000000001
 30
0.0
 11
640.0
 21
-262.80000000000001
 31
0.0
  0
LINE
  5
113
  8
DATA
  6
CONTINUOUS
 62
     7
 10
642.0
 20
-233.80000000000001
 30
0.0
 11
642.0
 21
-260.80000000000001
 31
0.0
  0
ARC
  5
114
  8
DATA
  6
CONTINUOUS
 62
     7
 10
618.0
 20
-233.80000000000001
 30
0.0
 40
2.0
 50
90.0
 51
180.0
  0
ARC
  5
115
  8
DATA
  6
CONTINUOUS
 62
     7
 10
618.0
 20
-260.80000000000001
 30
0.0
 40
2.0
 50
180.0
 51
270.0
  0
ARC
  5
116
  8
DATA
  6
CONTINUOUS
 62
     7
 10
640.0
 20
-260.80000000000001
 30
0.0
 40
2.0
 50
270.0
 51
0.0
  0
ARC
  5
117
  8
DATA
  6
CONTINUOUS
 62
     7
 10
640.0
 20
-233.80000000000001
 30
0.0
 40
2.0
 50
0.0
 51
90.0
  0
LINE
  5
118
  8
DATA
  6
CONTINUOUS
 62
     7
 10
626.0
 20
-237.30000000000001
 30
0.0
 11
632.0
 21
-237.30000000000001
 31
0.0
  0
LINE
  5
119
  8
DATA
  6
CONTINUOUS
 62
     7
 10
627.0
 20
-257.2999999999999
 30
0.0
 11
631.0
 21
-257.2999999999999
 31
0.0
  0
LINE
  5
11A
  8
DATA
  6
CONTINUOUS
 62
     7
 10
627.0
 20
-257.2999999999999
 30
0.0
 11
627.0
 21
-256.10000000000002
 31
0.0
  0
LINE
  5
11B
  8
DATA
  6
CONTINUOUS
 62
     7
 10
631.0
 20
-257.2999999999999
 30
0.0
 11
631.0
 21
-256.10000000000002
 31
0.0
  0
LINE
  5
11C
  8
DATA
  6
CONTINUOUS
 62
     7
 10
626.0
 20
-237.30000000000001
 30
0.0
 11
626.0
 21
-239.02715000000001
 31
0.0
  0
LINE
  5
11D
  8
DATA
  6
CONTINUOUS
 62
     7
 10
632.0
 20
-237.30000000000001
 30
0.0
 11
632.0
 21
-239.02715000000001
 31
0.0
  0
ARC
  5
11E
  8
DATA
  6
CONTINUOUS
 62
     7
 10
629.0
 20
-247.2999999999999
 30
0.0
 40
8.8000026774143176
 50
109.932264150679
 51
257.19616681970149
  0
ARC
  5
11F
  8
DATA
  6
CONTINUOUS
 62
     7
 10
629.0
 20
-247.2999999999999
 30
0.0
 40
8.8000035043457725
 50
282.9999995554183
 51
69.999994237961289
  0
ARC
  5
120
  8
DATA
  6
CONTINUOUS
 62
     7
 10
629.0
 20
-247.2999999999999
 30
0.0
 40
6.2000021620643446
 50
60.000011535558009
 51
150.00001153555911
  0
LINE
  5
121
  8
DATA
  6
CONTINUOUS
 62
     7
 10
623.63065999999981
 20
-244.19997000000001
 30
0.0
 11
624.12861999999939
 21
-244.48746999999989
 31
0.0
  0
LINE
  5
122
  8
DATA
  6
CONTINUOUS
 62
     7
 10
632.0999700000001
 20
-241.93062
 30
0.0
 11
631.81246999999985
 21
-242.42859000000001
 31
0.0
  0
ARC
  5
123
  8
DATA
  6
CONTINUOUS
 62
     7
 10
629.0
 20
-247.2999999999999
 30
0.0
 40
6.2000021620643446
 50
240.000011535558
 51
330.00001153555911
  0
LINE
  5
124
  8
DATA
  6
CONTINUOUS
 62
     7
 10
625.89999999999964
 20
-252.66936000000001
 30
0.0
 11
626.18749999999989
 21
-252.17139
 31
0.0
  0
LINE
  5
125
  8
DATA
  6
CONTINUOUS
 62
     7
 10
634.36937000000034
 20
-250.39998
 30
0.0
 11
633.87139999999999
 21
-250.11247999999989
 31
0.0
  0
ARC
  5
126
  8
DATA
  6
CONTINUOUS
 62
     7
 10
629.0
 20
-247.2999999999999
 30
0.0
 40
5.6250038315813677
 50
149.9996696821047
 51
240.0002126043008
  0
ARC
  5
127
  8
DATA
  6
CONTINUOUS
 62
     7
 10
629.0
 20
-247.2999999999999
 30
0.0
 40
5.62499615203423
 50
330.00021260430287
 51
60.000718243125888
  0
ARC
  5
128
  8
DATA
  6
CONTINUOUS
 62
     7
 10
629.0
 20
-247.2999999999999
 30
0.0
 40
3.5999900808752709
 50
59.999908854702333
 51
149.9999088547082
  0
ARC
  5
129
  8
DATA
  6
CONTINUOUS
 62
     7
 10
629.0
 20
-247.2999999999999
 30
0.0
 40
3.5999900808753198
 50
239.99990885470271
 51
329.99990885470822
  0
LINE
  5
12A
  8
DATA
  6
CONTINUOUS
 62
     7
 10
630.79997999999966
 20
-244.18231
 30
0.0
 11
630.44999000000018
 21
-244.78851999999989
 31
0.0
  0
LINE
  5
12B
  8
DATA
  6
CONTINUOUS
 62
     7
 10
625.88233000000025
 20
-245.49999
 30
0.0
 11
626.48852999999951
 21
-245.84998999999999
 31
0.0
  0
LINE
  5
12C
  8
DATA
  6
CONTINUOUS
 62
     7
 10
627.19999999999982
 20
-250.41767999999999
 30
0.0
 11
627.55000000000007
 21
-249.81147000000001
 31
0.0
  0
LINE
  5
12D
  8
DATA
  6
CONTINUOUS
 62
     7
 10
632.11769000000004
 20
-249.09997999999999
 30
0.0
 11
631.51148000000012
 21
-248.74999
 31
0.0
  0
ARC
  5
12E
  8
DATA
  6
CONTINUOUS
 62
     7
 10
629.0
 20
-247.2999999999999
 30
0.0
 40
2.9000018208617999
 50
149.99979263403469
 51
240.00023362383081
  0
ARC
  5
12F
  8
DATA
  6
CONTINUOUS
 62
     7
 10
629.0
 20
-247.2999999999999
 30
0.0
 40
2.90000048112076
 50
330.00023362383109
 51
59.999792634038769
  0
LINE
  5
130
  8
DATA
  6
CONTINUOUS
 62
     7
 10
638.49999999999989
 20
-258.30000000000001
 30
0.0
 11
638.49999999999989
 21
-260.30000000000001
 31
0.0
  0
LINE
  5
131
  8
DATA
  6
CONTINUOUS
 62
     7
 10
637.5
 20
-259.2999999999999
 30
0.0
 11
639.5
 21
-259.2999999999999
 31
0.0
  0
LINE
  5
132
  8
DATA
  6
CONTINUOUS
 62
     7
 10
619.5
 20
-234.2999999999999
 30
0.0
 11
619.5
 21
-236.2999999999999
 31
0.0
  0
LINE
  5
133
  8
DATA
  6
CONTINUOUS
 62
     7
 10
618.5
 20
-235.30000000000001
 30
0.0
 11
620.5
 21
-235.30000000000001
 31
0.0
  0
CIRCLE
  5
134
  8
DATA
  6
CONTINUOUS
 62
     7
 10
571.0
 20
-247.2999999999999
 30
0.0
 40
11.75
  0
CIRCLE
  5
135
  8
DATA
  6
CONTINUOUS
 62
     7
 10
580.49999999999989
 20
-259.2999999999999
 30
0.0
 40
2.0
  0
CIRCLE
  5
136
  8
DATA
  6
CONTINUOUS
 62
     7
 10
561.5
 20
-235.30000000000001
 30
0.0
 40
2.0
  0
LINE
  5
137
  8
DATA
  6
CONTINUOUS
 62
     7
 10
560.0
 20
-231.80000000000001
 30
0.0
 11
582.0
 21
-231.80000000000001
 31
0.0
  0
LINE
  5
138
  8
DATA
  6
CONTINUOUS
 62
     7
 10
558.0
 20
-233.80000000000001
 30
0.0
 11
558.0
 21
-260.80000000000001
 31
0.0
  0
LINE
  5
139
  8
DATA
  6
CONTINUOUS
 62
     7
 10
560.0
 20
-262.80000000000001
 30
0.0
 11
582.0
 21
-262.80000000000001
 31
0.0
  0
LINE
  5
13A
  8
DATA
  6
CONTINUOUS
 62
     7
 10
584.0
 20
-233.80000000000001
 30
0.0
 11
584.0
 21
-260.80000000000001
 31
0.0
  0
ARC
  5
13B
  8
DATA
  6
CONTINUOUS
 62
     7
 10
560.0
 20
-233.80000000000001
 30
0.0
 40
2.0
 50
90.0
 51
180.0
  0
ARC
  5
13C
  8
DATA
  6
CONTINUOUS
 62
     7
 10
560.0
 20
-260.80000000000001
 30
0.0
 40
2.0
 50
180.0
 51
270.0
  0
ARC
  5
13D
  8
DATA
  6
CONTINUOUS
 62
     7
 10
582.0
 20
-260.80000000000001
 30
0.0
 40
2.0
 50
270.0
 51
0.0
  0
ARC
  5
13E
  8
DATA
  6
CONTINUOUS
 62
     7
 10
582.0
 20
-233.80000000000001
 30
0.0
 40
2.0
 50
0.0
 51
90.0
  0
LINE
  5
13F
  8
DATA
  6
CONTINUOUS
 62
     7
 10
568.0
 20
-237.30000000000001
 30
0.0
 11
574.0
 21
-237.30000000000001
 31
0.0
  0
LINE
  5
140
  8
DATA
  6
CONTINUOUS
 62
     7
 10
569.0
 20
-257.2999999999999
 30
0.0
 11
573.0
 21
-257.2999999999999
 31
0.0
  0
LINE
  5
141
  8
DATA
  6
CONTINUOUS
 62
     7
 10
569.0
 20
-257.2999999999999
 30
0.0
 11
569.0
 21
-256.10000000000002
 31
0.0
  0
LINE
  5
142
  8
DATA
  6
CONTINUOUS
 62
     7
 10
573.0
 20
-257.2999999999999
 30
0.0
 11
573.0
 21
-256.10000000000002
 31
0.0
  0
LINE
  5
143
  8
DATA
  6
CONTINUOUS
 62
     7
 10
568.0
 20
-237.30000000000001
 30
0.0
 11
568.0
 21
-239.02715000000001
 31
0.0
  0
LINE
  5
144
  8
DATA
  6
CONTINUOUS
 62
     7
 10
574.0
 20
-237.30000000000001
 30
0.0
 11
574.0
 21
-239.02715000000001
 31
0.0
  0
ARC
  5
145
  8
DATA
  6
CONTINUOUS
 62
     7
 10
571.0
 20
-247.2999999999999
 30
0.0
 40
8.8000026774143176
 50
109.932264150679
 51
257.19616681970149
  0
ARC
  5
146
  8
DATA
  6
CONTINUOUS
 62
     7
 10
571.0
 20
-247.2999999999999
 30
0.0
 40
8.8000035043457725
 50
282.9999995554183
 51
69.999994237961289
  0
ARC
  5
147
  8
DATA
  6
CONTINUOUS
 62
     7
 10
571.0
 20
-247.2999999999999
 30
0.0
 40
6.2000021620643446
 50
60.000011535558009
 51
150.00001153555911
  0
LINE
  5
148
  8
DATA
  6
CONTINUOUS
 62
     7
 10
565.63065999999969
 20
-244.19997000000001
 30
0.0
 11
566.12861999999939
 21
-244.48746999999989
 31
0.0
  0
LINE
  5
149
  8
DATA
  6
CONTINUOUS
 62
     7
 10
574.0999700000001
 20
-241.93062
 30
0.0
 11
573.81246999999985
 21
-242.42859000000001
 31
0.0
  0
ARC
  5
14A
  8
DATA
  6
CONTINUOUS
 62
     7
 10
571.0
 20
-247.2999999999999
 30
0.0
 40
6.2000021620643446
 50
240.000011535558
 51
330.00001153555911
  0
LINE
  5
14B
  8
DATA
  6
CONTINUOUS
 62
     7
 10
567.89999999999964
 20
-252.66936000000001
 30
0.0
 11
568.18749999999989
 21
-252.17139
 31
0.0
  0
LINE
  5
14C
  8
DATA
  6
CONTINUOUS
 62
     7
 10
576.36937000000034
 20
-250.39998
 30
0.0
 11
575.87139999999999
 21
-250.11247999999989
 31
0.0
  0
ARC
  5
14D
  8
DATA
  6
CONTINUOUS
 62
     7
 10
571.0
 20
-247.2999999999999
 30
0.0
 40
5.6250038315813677
 50
149.9996696821047
 51
240.0002126043008
  0
ARC
  5
14E
  8
DATA
  6
CONTINUOUS
 62
     7
 10
571.0
 20
-247.2999999999999
 30
0.0
 40
5.62499615203423
 50
330.00021260430287
 51
60.000718243125888
  0
ARC
  5
14F
  8
DATA
  6
CONTINUOUS
 62
     7
 10
571.0
 20
-247.2999999999999
 30
0.0
 40
3.5999900808752709
 50
59.999908854702333
 51
149.9999088547082
  0
ARC
  5
150
  8
DATA
  6
CONTINUOUS
 62
     7
 10
571.0
 20
-247.2999999999999
 30
0.0
 40
3.5999900808753198
 50
239.99990885470271
 51
329.99990885470822
  0
LINE
  5
151
  8
DATA
  6
CONTINUOUS
 62
     7
 10
572.79997999999978
 20
-244.18231
 30
0.0
 11
572.44999000000018
 21
-244.78851999999989
 31
0.0
  0
LINE
  5
152
  8
DATA
  6
CONTINUOUS
 62
     7
 10
567.88233000000025
 20
-245.49999
 30
0.0
 11
568.48852999999963
 21
-245.84998999999999
 31
0.0
  0
LINE
  5
153
  8
DATA
  6
CONTINUOUS
 62
     7
 10
569.19999999999982
 20
-250.41767999999999
 30
0.0
 11
569.55000000000007
 21
-249.81147000000001
 31
0.0
  0
LINE
  5
154
  8
DATA
  6
CONTINUOUS
 62
     7
 10
574.11769000000004
 20
-249.09997999999999
 30
0.0
 11
573.51148000000012
 21
-248.74999
 31
0.0
  0
ARC
  5
155
  8
DATA
  6
CONTINUOUS
 62
     7
 10
571.0
 20
-247.2999999999999
 30
0.0
 40
2.9000018208617999
 50
149.99979263403469
 51
240.00023362383081
  0
ARC
  5
156
  8
DATA
  6
CONTINUOUS
 62
     7
 10
571.0
 20
-247.2999999999999
 30
0.0
 40
2.90000048112076
 50
330.00023362383109
 51
59.999792634038769
  0
LINE
  5
157
  8
DATA
  6
CONTINUOUS
 62
     7
 10
580.49999999999989
 20
-258.30000000000001
 30
0.0
 11
580.49999999999989
 21
-260.30000000000001
 31
0.0
  0
LINE
  5
158
  8
DATA
  6
CONTINUOUS
 62
     7
 10
579.49999999999989
 20
-259.2999999999999
 30
0.0
 11
581.5
 21
-259.2999999999999
 31
0.0
  0
LINE
  5
159
  8
DATA
  6
CONTINUOUS
 62
     7
 10
561.5
 20
-234.2999999999999
 30
0.0
 11
561.5
 21
-236.2999999999999
 31
0.0
  0
LINE
  5
15A
  8
DATA
  6
CONTINUOUS
 62
     7
 10
560.5
 20
-235.30000000000001
 30
0.0
 11
562.5
 21
-235.30000000000001
 31
0.0
  0
LINE
  5
15B
  8
DATA
  6
CONTINUOUS
 62
     7
 10
584.0
 20
-259.2999999999999
 30
0.0
 11
592.49999999999989
 21
-259.2999999999999
 31
0.0
  0
LINE
  5
15C
  8
DATA
  6
CONTINUOUS
 62
     7
 10
607.5
 20
-259.2999999999999
 30
0.0
 11
616.0
 21
-259.2999999999999
 31
0.0
  0
TEXT
  5
15D
  8
DATA
 62
     7
 10
712.49999999999955
 20
-1676.9955650000011
 30
0.0
 40
24.4326171875
  1
サブウーファー
 41
0.7
 11
712.49999999999955
 21
-1652.5629478124999
 31
0.0
 73
     3
  0
LINE
  5
15E
  8
DATA
  6
CONTINUOUS
 62
     7
 10
-594.48009925619579
 20
-710.1990074380418
 30
0.0
 11
-595.5
 21
-700.0
 31
0.0
  0
LINE
  5
15F
  8
DATA
  6
CONTINUOUS
 62
     7
 10
-559.49999999999989
 20
-710.0
 30
0.0
 11
-594.5
 21
-710.0
 31
0.0
  0
LINE
  5
160
  8
DATA
  6
CONTINUOUS
 62
     7
 10
-561.50997512422407
 20
-712.0
 30
0.0
 11
-592.49002487577593
 21
-712.0
 31
0.0
  0
LINE
  5
161
  8
DATA
  6
CONTINUOUS
 62
     7
 10
-558.49999999999989
 20
-700.0
 30
0.0
 11
-559.5199007438041
 21
-710.1990074380418
 31
0.0
  0
ARC
  5
162
  8
DATA
  6
CONTINUOUS
 62
     7
 10
-592.49002487577593
 20
-710.0
 30
0.0
 40
2.000000000000095
 50
185.710593137497
 51
270.0
  0
ARC
  5
163
  8
DATA
  6
CONTINUOUS
 62
     7
 10
-561.50997512422407
 20
-710.0
 30
0.0
 40
2.0
 50
270.0
 51
354.28940686250291
  0
LINE
  5
164
  8
DATA
  6
CONTINUOUS
 62
     7
 10
142.4800992561959
 20
-710.1990074380418
 30
0.0
 11
143.5
 21
-700.0
 31
0.0
  0
LINE
  5
165
  8
DATA
  6
CONTINUOUS
 62
     7
 10
107.5
 20
-710.0
 30
0.0
 11
142.5
 21
-710.0
 31
0.0
  0
LINE
  5
166
  8
DATA
  6
CONTINUOUS
 62
     7
 10
109.5099751242242
 20
-712.0
 30
0.0
 11
140.49002487577579
 21
-712.0
 31
0.0
  0
LINE
  5
167
  8
DATA
  6
CONTINUOUS
 62
     7
 10
106.5
 20
-700.0
 30
0.0
 11
107.5199007438041
 21
-710.1990074380418
 31
0.0
  0
ARC
  5
168
  8
DATA
  6
CONTINUOUS
 62
     7
 10
140.49002487577579
 20
-710.0
 30
0.0
 40
2.0
 50
270.0
 51
354.28940686250291
  0
ARC
  5
169
  8
DATA
  6
CONTINUOUS
 62
     7
 10
109.5099751242242
 20
-710.0
 30
0.0
 40
2.000000000000095
 50
185.710593137497
 51
270.0
  0
LINE
  5
16A
  8
DATA
  6
CONTINUOUS
 62
     7
 10
-1005.519900743804
 20
-710.1990074380418
 30
0.0
 11
-1004.5
 21
-700.0
 31
0.0
  0
LINE
  5
16B
  8
DATA
  6
CONTINUOUS
 62
     7
 10
-1040.5
 20
-710.0
 30
0.0
 11
-1005.5
 21
-710.0
 31
0.0
  0
LINE
  5
16C
  8
DATA
  6
CONTINUOUS
 62
     7
 10
-1038.490024875776
 20
-712.0
 30
0.0
 11
-1007.509975124224
 21
-712.0
 31
0.0
  0
LINE
  5
16D
  8
DATA
  6
CONTINUOUS
 62
     7
 10
-1041.5
 20
-700.0
 30
0.0
 11
-1040.4800992561959
 21
-710.1990074380418
 31
0.0
  0
ARC
  5
16E
  8
DATA
  6
CONTINUOUS
 62
     7
 10
-1007.509975124224
 20
-710.0
 30
0.0
 40
2.0
 50
270.0
 51
354.28940686250291
  0
ARC
  5
16F
  8
DATA
  6
CONTINUOUS
 62
     7
 10
-1038.490024875776
 20
-710.0
 30
0.0
 40
2.000000000000095
 50
185.710593137497
 51
270.0
  0
LINE
  5
170
  8
DATA
  6
CONTINUOUS
 62
     7
 10
-594.48009925619579
 20
-710.1990074380418
 30
0.0
 11
-595.5
 21
-700.0
 31
0.0
  0
LINE
  5
171
  8
DATA
  6
CONTINUOUS
 62
     7
 10
-559.49999999999989
 20
-710.0
 30
0.0
 11
-594.5
 21
-710.0
 31
0.0
  0
LINE
  5
172
  8
DATA
  6
CONTINUOUS
 62
     7
 10
-561.50997512422407
 20
-712.0
 30
0.0
 11
-592.49002487577593
 21
-712.0
 31
0.0
  0
LINE
  5
173
  8
DATA
  6
CONTINUOUS
 62
     7
 10
-558.49999999999989
 20
-700.0
 30
0.0
 11
-559.5199007438041
 21
-710.1990074380418
 31
0.0
  0
ARC
  5
174
  8
DATA
  6
CONTINUOUS
 62
     7
 10
-592.49002487577593
 20
-710.0
 30
0.0
 40
2.000000000000095
 50
185.710593137497
 51
270.0
  0
ARC
  5
175
  8
DATA
  6
CONTINUOUS
 62
     7
 10
-561.50997512422407
 20
-710.0
 30
0.0
 40
2.0
 50
270.0
 51
354.28940686250291
  0
LINE
  5
176
  8
DATA
  6
CONTINUOUS
 62
     7
 10
350.0
 20
-700.0
 30
0.0
 11
850.0
 21
-700.0
 31
0.0
  0
LINE
  5
177
  8
DATA
  6
CONTINUOUS
 62
     7
 10
394.4800992561959
 20
-710.1990074380418
 30
0.0
 11
395.5
 21
-700.0
 31
0.0
  0
LINE
  5
178
  8
DATA
  6
CONTINUOUS
 62
     7
 10
359.5
 20
-710.0
 30
0.0
 11
394.5
 21
-710.0
 31
0.0
  0
LINE
  5
179
  8
DATA
  6
CONTINUOUS
 62
     7
 10
361.50997512422418
 20
-712.0
 30
0.0
 11
392.49002487577582
 21
-712.0
 31
0.0
  0
LINE
  5
17A
  8
DATA
  6
CONTINUOUS
 62
     7
 10
358.5
 20
-700.0
 30
0.0
 11
359.5199007438041
 21
-710.1990074380418
 31
0.0
  0
ARC
  5
17B
  8
DATA
  6
CONTINUOUS
 62
     7
 10
392.49002487577582
 20
-710.0
 30
0.0
 40
2.0
 50
270.0
 51
354.28940686250291
  0
ARC
  5
17C
  8
DATA
  6
CONTINUOUS
 62
     7
 10
361.50997512422418
 20
-710.0
 30
0.0
 40
2.000000000000095
 50
185.710593137497
 51
270.0
  0
LINE
  5
17D
  8
DATA
  6
CONTINUOUS
 62
     7
 10
805.51990074380433
 20
-710.1990074380418
 30
0.0
 11
804.49999999999989
 21
-700.0
 31
0.0
  0
LINE
  5
17E
  8
DATA
  6
CONTINUOUS
 62
     7
 10
840.49999999999989
 20
-710.0
 30
0.0
 11
805.49999999999989
 21
-710.0
 31
0.0
  0
LINE
  5
17F
  8
DATA
  6
CONTINUOUS
 62
     7
 10
838.49002487577593
 20
-712.0
 30
0.0
 11
807.50997512422452
 21
-712.0
 31
0.0
  0
LINE
  5
180
  8
DATA
  6
CONTINUOUS
 62
     7
 10
841.5
 20
-700.0
 30
0.0
 11
840.48009925619567
 21
-710.1990074380418
 31
0.0
  0
ARC
  5
181
  8
DATA
  6
CONTINUOUS
 62
     7
 10
807.50997512422452
 20
-710.0
 30
0.0
 40
2.000000000000095
 50
185.710593137497
 51
270.0
  0
ARC
  5
182
  8
DATA
  6
CONTINUOUS
 62
     7
 10
838.49002487577593
 20
-710.0
 30
0.0
 40
2.0
 50
270.0
 51
354.28940686250291
  0
LINE
  5
183
  8
DATA
  6
CONTINUOUS
 62
     7
 10
394.4800992561959
 20
-710.1990074380418
 30
0.0
 11
395.5
 21
-700.0
 31
0.0
  0
LINE
  5
184
  8
DATA
  6
CONTINUOUS
 62
     7
 10
359.5
 20
-710.0
 30
0.0
 11
394.5
 21
-710.0
 31
0.0
  0
LINE
  5
185
  8
DATA
  6
CONTINUOUS
 62
     7
 10
361.50997512422418
 20
-712.0
 30
0.0
 11
392.49002487577582
 21
-712.0
 31
0.0
  0
LINE
  5
186
  8
DATA
  6
CONTINUOUS
 62
     7
 10
358.5
 20
-700.0
 30
0.0
 11
359.5199007438041
 21
-710.1990074380418
 31
0.0
  0
ARC
  5
187
  8
DATA
  6
CONTINUOUS
 62
     7
 10
392.49002487577582
 20
-710.0
 30
0.0
 40
2.0
 50
270.0
 51
354.28940686250291
  0
ARC
  5
188
  8
DATA
  6
CONTINUOUS
 62
     7
 10
361.50997512422418
 20
-710.0
 30
0.0
 40
2.000000000000095
 50
185.710593137497
 51
270.0
  0
LINE
  5
189
  8
DATA
  6
CONTINUOUS
 62
     7
 10
805.51990074380433
 20
-710.1990074380418
 30
0.0
 11
804.49999999999989
 21
-700.0
 31
0.0
  0
LINE
  5
18A
  8
DATA
  6
CONTINUOUS
 62
     7
 10
840.49999999999989
 20
-710.0
 30
0.0
 11
805.49999999999989
 21
-710.0
 31
0.0
  0
LINE
  5
18B
  8
DATA
  6
CONTINUOUS
 62
     7
 10
838.49002487577593
 20
-712.0
 30
0.0
 11
807.50997512422452
 21
-712.0
 31
0.0
  0
LINE
  5
18C
  8
DATA
  6
CONTINUOUS
 62
     7
 10
841.5
 20
-700.0
 30
0.0
 11
840.48009925619567
 21
-710.1990074380418
 31
0.0
  0
ARC
  5
18D
  8
DATA
  6
CONTINUOUS
 62
     7
 10
807.50997512422452
 20
-710.0
 30
0.0
 40
2.000000000000095
 50
185.710593137497
 51
270.0
  0
ARC
  5
18E
  8
DATA
  6
CONTINUOUS
 62
     7
 10
838.49002487577593
 20
-710.0
 30
0.0
 40
2.0
 50
270.0
 51
354.28940686250291
  0
CIRCLE
  5
18F
  8
DATA
  6
CONTINUOUS
 62
     7
 10
537.5
 20
-306.0
 30
0.0
 40
3.999999999999944
  0
LINE
  5
190
  8
DATA
  6
CONTINUOUS
 62
     7
 10
537.5
 20
-308.5
 30
0.0
 11
537.5
 21
-303.5
 31
0.0
  0
LINE
  5
191
  8
DATA
  6
CONTINUOUS
 62
     7
 10
535.0
 20
-306.0
 30
0.0
 11
540.0
 21
-306.0
 31
0.0
  0
CIRCLE
  5
192
  8
DATA
  6
CONTINUOUS
 62
     7
 10
537.5
 20
-218.0
 30
0.0
 40
3.999999999999944
  0
LINE
  5
193
  8
DATA
  6
CONTINUOUS
 62
     7
 10
537.5
 20
-220.5
 30
0.0
 11
537.5
 21
-215.5
 31
0.0
  0
LINE
  5
194
  8
DATA
  6
CONTINUOUS
 62
     7
 10
535.0
 20
-218.0
 30
0.0
 11
540.0
 21
-218.0
 31
0.0
  0
CIRCLE
  5
195
  8
DATA
  6
CONTINUOUS
 62
     7
 10
664.0
 20
-306.0
 30
0.0
 40
3.999999999999944
  0
LINE
  5
196
  8
DATA
  6
CONTINUOUS
 62
     7
 10
664.0
 20
-308.5
 30
0.0
 11
664.0
 21
-303.5
 31
0.0
  0
LINE
  5
197
  8
DATA
  6
CONTINUOUS
 62
     7
 10
661.5
 20
-306.0
 30
0.0
 11
666.5
 21
-306.0
 31
0.0
  0
CIRCLE
  5
198
  8
DATA
  6
CONTINUOUS
 62
     7
 10
664.0
 20
-218.0
 30
0.0
 40
3.999999999999944
  0
LINE
  5
199
  8
DATA
  6
CONTINUOUS
 62
     7
 10
664.0
 20
-220.5
 30
0.0
 11
664.0
 21
-215.5
 31
0.0
  0
LINE
  5
19A
  8
DATA
  6
CONTINUOUS
 62
     7
 10
661.5
 20
-218.0
 30
0.0
 11
666.5
 21
-218.0
 31
0.0
  0
CIRCLE
  5
19B
  8
DATA
  6
CONTINUOUS
 62
     7
 10
600.75
 20
-306.0
 30
0.0
 40
3.999999999999944
  0
LINE
  5
19C
  8
DATA
  6
CONTINUOUS
 62
     7
 10
600.75
 20
-308.5
 30
0.0
 11
600.75
 21
-303.5
 31
0.0
  0
LINE
  5
19D
  8
DATA
  6
CONTINUOUS
 62
     7
 10
598.24999999999989
 20
-306.0
 30
0.0
 11
603.24999999999989
 21
-306.0
 31
0.0
  0
CIRCLE
  5
19E
  8
DATA
  6
CONTINUOUS
 62
     7
 10
600.75
 20
-218.0
 30
0.0
 40
3.999999999999944
  0
LINE
  5
19F
  8
DATA
  6
CONTINUOUS
 62
     7
 10
600.75
 20
-220.5
 30
0.0
 11
600.75
 21
-215.5
 31
0.0
  0
LINE
  5
1A0
  8
DATA
  6
CONTINUOUS
 62
     7
 10
598.24999999999989
 20
-218.0
 30
0.0
 11
603.24999999999989
 21
-218.0
 31
0.0
  0
TEXT
  5
1A1
  8
DATA
 62
     7
 10
594.7902110785642
 20
-258.53595322179632
 30
0.0
 40
2.5394531250000001
  1
\U+00B11 SUB
 41
0.7
 72
     1
 11
599.17500014106406
 21
-257.26622665929631
 31
0.0
 73
     2
  0
TEXT
  5
1A2
  8
DATA
 62
     7
 10
594.43013281250001
 20
-262.60349990320361
 30
0.0
 40
2.5394531250000001
  1
\U+00B12 THRU
 41
0.7
 72
     1
 11
600.0
 21
-261.3337733407036
 31
0.0
 73
     2
  0
LINE
  5
1A3
  8
DATA
  6
CONTINUOUS
 62
     7
 10
150.0
 20
875.0
 30
0.0
 11
1250.0
 21
875.0
 31
0.0
  0
LINE
  5
1A4
  8
DATA
  6
CONTINUOUS
 62
     7
 10
150.0
 20
175.0
 30
0.0
 11
150.0
 21
875.0
 31
0.0
  0
LINE
  5
1A5
  8
DATA
  6
CONTINUOUS
 62
     7
 10
1250.0
 20
175.0
 30
0.0
 11
150.0
 21
175.0
 31
0.0
  0
LINE
  5
1A6
  8
DATA
  6
CONTINUOUS
 62
     7
 10
1250.0
 20
875.0
 30
0.0
 11
1250.0
 21
175.0
 31
0.0
  0
TEXT
  5
1A7
  8
DATA
 62
     7
 10
284.60257975260419
 20
336.45922851562551
 30
0.0
 40
61.08154296875
  1
JRX218S
 41
0.7
 72
     1
 11
420.0
 21
367.00000000000051
 31
0.0
 73
     2
  0
CIRCLE
  5
1A8
  8
DATA
  6
CONTINUOUS
 62
     7
 10
990.0
 20
672.00000000000045
 30
0.0
 40
117.5
  0
CIRCLE
  5
1A9
  8
DATA
  6
CONTINUOUS
 62
     7
 10
1085.0
 20
552.00000000000045
 30
0.0
 40
20.0
  0
CIRCLE
  5
1AA
  8
DATA
  6
CONTINUOUS
 62
     7
 10
895.0
 20
792.00000000000034
 30
0.0
 40
20.0
  0
LINE
  5
1AB
  8
DATA
  6
CONTINUOUS
 62
     7
 10
880.0
 20
827.00000000000034
 30
0.0
 11
1100.0
 21
827.00000000000034
 31
0.0
  0
LINE
  5
1AC
  8
DATA
  6
CONTINUOUS
 62
     7
 10
860.0
 20
807.00000000000034
 30
0.0
 11
860.0
 21
537.00000000000045
 31
0.0
  0
LINE
  5
1AD
  8
DATA
  6
CONTINUOUS
 62
     7
 10
880.0
 20
517.00000000000057
 30
0.0
 11
1100.0
 21
517.00000000000057
 31
0.0
  0
LINE
  5
1AE
  8
DATA
  6
CONTINUOUS
 62
     7
 10
1120.0
 20
807.00000000000034
 30
0.0
 11
1120.0
 21
537.00000000000045
 31
0.0
  0
ARC
  5
1AF
  8
DATA
  6
CONTINUOUS
 62
     7
 10
880.0
 20
807.00000000000034
 30
0.0
 40
20.0
 50
90.0
 51
180.0
  0
ARC
  5
1B0
  8
DATA
  6
CONTINUOUS
 62
     7
 10
880.0
 20
537.00000000000045
 30
0.0
 40
20.0
 50
180.0
 51
270.0
  0
ARC
  5
1B1
  8
DATA
  6
CONTINUOUS
 62
     7
 10
1100.0
 20
537.00000000000045
 30
0.0
 40
20.0
 50
270.0
 51
0.0
  0
ARC
  5
1B2
  8
DATA
  6
CONTINUOUS
 62
     7
 10
1100.0
 20
807.00000000000034
 30
0.0
 40
20.0
 50
0.0
 51
90.0
  0
LINE
  5
1B3
  8
DATA
  6
CONTINUOUS
 62
     7
 10
960.0
 20
772.00000000000034
 30
0.0
 11
1020.0
 21
772.00000000000034
 31
0.0
  0
LINE
  5
1B4
  8
DATA
  6
CONTINUOUS
 62
     7
 10
970.0
 20
572.00000000000045
 30
0.0
 11
1010.0
 21
572.00000000000045
 31
0.0
  0
LINE
  5
1B5
  8
DATA
  6
CONTINUOUS
 62
     7
 10
970.0
 20
572.00000000000045
 30
0.0
 11
970.0
 21
584.00000000000034
 31
0.0
  0
LINE
  5
1B6
  8
DATA
  6
CONTINUOUS
 62
     7
 10
1010.0
 20
572.00000000000045
 30
0.0
 11
1010.0
 21
584.00000000000034
 31
0.0
  0
LINE
  5
1B7
  8
DATA
  6
CONTINUOUS
 62
     7
 10
960.0
 20
772.00000000000034
 30
0.0
 11
960.0
 21
754.72849999999983
 31
0.0
  0
LINE
  5
1B8
  8
DATA
  6
CONTINUOUS
 62
     7
 10
1020.0
 20
772.00000000000034
 30
0.0
 11
1020.0
 21
754.72849999999983
 31
0.0
  0
ARC
  5
1B9
  8
DATA
  6
CONTINUOUS
 62
     7
 10
990.0
 20
672.00000000000045
 30
0.0
 40
88.000026774143166
 50
109.932264150679
 51
257.1961668197016
  0
ARC
  5
1BA
  8
DATA
  6
CONTINUOUS
 62
     7
 10
990.0
 20
672.00000000000045
 30
0.0
 40
88.0000350434577
 50
282.9999995554183
 51
69.999994237961374
  0
ARC
  5
1BB
  8
DATA
  6
CONTINUOUS
 62
     7
 10
990.0
 20
672.00000000000045
 30
0.0
 40
62.000021620643473
 50
60.000011535558009
 51
150.0000115355592
  0
LINE
  5
1BC
  8
DATA
  6
CONTINUOUS
 62
     7
 10
936.30659999999818
 20
703.00029999999981
 30
0.0
 11
941.28619999999501
 21
700.12530000000072
 31
0.0
  0
LINE
  5
1BD
  8
DATA
  6
CONTINUOUS
 62
     7
 10
1020.999700000002
 20
725.69380000000012
 30
0.0
 11
1018.124699999998
 21
720.71410000000014
 31
0.0
  0
ARC
  5
1BE
  8
DATA
  6
CONTINUOUS
 62
     7
 10
990.0
 20
672.00000000000045
 30
0.0
 40
62.000021620643473
 50
240.000011535558
 51
330.00001153555922
  0
LINE
  5
1BF
  8
DATA
  6
CONTINUOUS
 62
     7
 10
958.99999999999636
 20
618.30640000000005
 30
0.0
 11
961.875
 21
623.28610000000015
 31
0.0
  0
LINE
  5
1C0
  8
DATA
  6
CONTINUOUS
 62
     7
 10
1043.693700000003
 20
641.00020000000018
 30
0.0
 11
1038.7139999999999
 21
643.87520000000052
 31
0.0
  0
ARC
  5
1C1
  8
DATA
  6
CONTINUOUS
 62
     7
 10
990.0
 20
672.00000000000045
 30
0.0
 40
56.250038315813669
 50
149.9996696821047
 51
240.00021260430091
  0
ARC
  5
1C2
  8
DATA
  6
CONTINUOUS
 62
     7
 10
990.0
 20
672.00000000000045
 30
0.0
 40
56.24996152034231
 50
330.00021260430287
 51
60.000718243125839
  0
ARC
  5
1C3
  8
DATA
  6
CONTINUOUS
 62
     7
 10
990.0
 20
672.00000000000045
 30
0.0
 40
35.99990080875272
 50
59.999908854702333
 51
149.99990885470811
  0
ARC
  5
1C4
  8
DATA
  6
CONTINUOUS
 62
     7
 10
990.0
 20
672.00000000000045
 30
0.0
 40
35.99990080875321
 50
239.99990885470271
 51
329.99990885470822
  0
LINE
  5
1C5
  8
DATA
  6
CONTINUOUS
 62
     7
 10
1007.999799999997
 20
703.17690000000027
 30
0.0
 11
1004.499900000001
 21
697.11480000000051
 31
0.0
  0
LINE
  5
1C6
  8
DATA
  6
CONTINUOUS
 62
     7
 10
958.82330000000366
 20
690.00010000000032
 30
0.0
 11
964.88529999999605
 21
686.5001000000002
 31
0.0
  0
LINE
  5
1C7
  8
DATA
  6
CONTINUOUS
 62
     7
 10
971.99999999999818
 20
640.82320000000038
 30
0.0
 11
975.50000000000159
 21
646.88530000000014
 31
0.0
  0
LINE
  5
1C8
  8
DATA
  6
CONTINUOUS
 62
     7
 10
1021.1769
 20
654.00020000000029
 30
0.0
 11
1015.114800000001
 21
657.50010000000043
 31
0.0
  0
ARC
  5
1C9
  8
DATA
  6
CONTINUOUS
 62
     7
 10
990.0
 20
672.00000000000045
 30
0.0
 40
29.000018208618009
 50
149.99979263403469
 51
240.00023362383081
  0
ARC
  5
1CA
  8
DATA
  6
CONTINUOUS
 62
     7
 10
990.0
 20
672.00000000000045
 30
0.0
 40
29.00000481120761
 50
330.00023362383109
 51
59.999792634038769
  0
LINE
  5
1CB
  8
DATA
  6
CONTINUOUS
 62
     7
 10
1085.0
 20
562.00000000000045
 30
0.0
 11
1085.0
 21
542.00000000000057
 31
0.0
  0
LINE
  5
1CC
  8
DATA
  6
CONTINUOUS
 62
     7
 10
1075.0
 20
552.00000000000045
 30
0.0
 11
1095.0
 21
552.00000000000045
 31
0.0
  0
LINE
  5
1CD
  8
DATA
  6
CONTINUOUS
 62
     7
 10
895.0
 20
802.00000000000034
 30
0.0
 11
895.0
 21
782.00000000000034
 31
0.0
  0
LINE
  5
1CE
  8
DATA
  6
CONTINUOUS
 62
     7
 10
885.0
 20
792.00000000000034
 30
0.0
 11
905.0
 21
792.00000000000034
 31
0.0
  0
CIRCLE
  5
1CF
  8
DATA
  6
CONTINUOUS
 62
     7
 10
410.0
 20
672.00000000000045
 30
0.0
 40
117.5
  0
CIRCLE
  5
1D0
  8
DATA
  6
CONTINUOUS
 62
     7
 10
505.0
 20
552.00000000000045
 30
0.0
 40
20.0
  0
CIRCLE
  5
1D1
  8
DATA
  6
CONTINUOUS
 62
     7
 10
315.0
 20
792.00000000000034
 30
0.0
 40
20.0
  0
LINE
  5
1D2
  8
DATA
  6
CONTINUOUS
 62
     7
 10
300.0
 20
827.00000000000034
 30
0.0
 11
520.0
 21
827.00000000000034
 31
0.0
  0
LINE
  5
1D3
  8
DATA
  6
CONTINUOUS
 62
     7
 10
280.0
 20
807.00000000000034
 30
0.0
 11
280.0
 21
537.00000000000045
 31
0.0
  0
LINE
  5
1D4
  8
DATA
  6
CONTINUOUS
 62
     7
 10
300.0
 20
517.00000000000057
 30
0.0
 11
520.0
 21
517.00000000000057
 31
0.0
  0
LINE
  5
1D5
  8
DATA
  6
CONTINUOUS
 62
     7
 10
540.0
 20
807.00000000000034
 30
0.0
 11
540.0
 21
537.00000000000045
 31
0.0
  0
ARC
  5
1D6
  8
DATA
  6
CONTINUOUS
 62
     7
 10
300.0
 20
807.00000000000034
 30
0.0
 40
20.0
 50
90.0
 51
180.0
  0
ARC
  5
1D7
  8
DATA
  6
CONTINUOUS
 62
     7
 10
300.0
 20
537.00000000000045
 30
0.0
 40
20.0
 50
180.0
 51
270.0
  0
ARC
  5
1D8
  8
DATA
  6
CONTINUOUS
 62
     7
 10
520.0
 20
537.00000000000045
 30
0.0
 40
20.0
 50
270.0
 51
0.0
  0
ARC
  5
1D9
  8
DATA
  6
CONTINUOUS
 62
     7
 10
520.0
 20
807.00000000000034
 30
0.0
 40
20.0
 50
0.0
 51
90.0
  0
LINE
  5
1DA
  8
DATA
  6
CONTINUOUS
 62
     7
 10
380.0
 20
772.00000000000034
 30
0.0
 11
440.0
 21
772.00000000000034
 31
0.0
  0
LINE
  5
1DB
  8
DATA
  6
CONTINUOUS
 62
     7
 10
390.0
 20
572.00000000000045
 30
0.0
 11
430.0
 21
572.00000000000045
 31
0.0
  0
LINE
  5
1DC
  8
DATA
  6
CONTINUOUS
 62
     7
 10
390.0
 20
572.00000000000045
 30
0.0
 11
390.0
 21
584.00000000000034
 31
0.0
  0
LINE
  5
1DD
  8
DATA
  6
CONTINUOUS
 62
     7
 10
430.0
 20
572.00000000000045
 30
0.0
 11
430.0
 21
584.00000000000034
 31
0.0
  0
LINE
  5
1DE
  8
DATA
  6
CONTINUOUS
 62
     7
 10
380.0
 20
772.00000000000034
 30
0.0
 11
380.0
 21
754.72849999999983
 31
0.0
  0
LINE
  5
1DF
  8
DATA
  6
CONTINUOUS
 62
     7
 10
440.0
 20
772.00000000000034
 30
0.0
 11
440.0
 21
754.72849999999983
 31
0.0
  0
ARC
  5
1E0
  8
DATA
  6
CONTINUOUS
 62
     7
 10
410.0
 20
672.00000000000045
 30
0.0
 40
88.000026774143166
 50
109.932264150679
 51
257.1961668197016
  0
ARC
  5
1E1
  8
DATA
  6
CONTINUOUS
 62
     7
 10
410.0
 20
672.00000000000045
 30
0.0
 40
88.0000350434577
 50
282.9999995554183
 51
69.999994237961289
  0
ARC
  5
1E2
  8
DATA
  6
CONTINUOUS
 62
     7
 10
410.0
 20
672.00000000000045
 30
0.0
 40
62.000021620643473
 50
60.000011535558009
 51
150.0000115355592
  0
LINE
  5
1E3
  8
DATA
  6
CONTINUOUS
 62
     7
 10
356.30659999999813
 20
703.00029999999981
 30
0.0
 11
361.28619999999501
 21
700.12530000000072
 31
0.0
  0
LINE
  5
1E4
  8
DATA
  6
CONTINUOUS
 62
     7
 10
440.99970000000212
 20
725.69380000000012
 30
0.0
 11
438.12469999999848
 21
720.71410000000014
 31
0.0
  0
ARC
  5
1E5
  8
DATA
  6
CONTINUOUS
 62
     7
 10
410.0
 20
672.00000000000045
 30
0.0
 40
62.000021620643473
 50
240.000011535558
 51
330.00001153555922
  0
LINE
  5
1E6
  8
DATA
  6
CONTINUOUS
 62
     7
 10
378.99999999999642
 20
618.30640000000005
 30
0.0
 11
381.875
 21
623.28610000000015
 31
0.0
  0
LINE
  5
1E7
  8
DATA
  6
CONTINUOUS
 62
     7
 10
463.69370000000339
 20
641.00020000000018
 30
0.0
 11
458.71399999999988
 21
643.87520000000052
 31
0.0
  0
ARC
  5
1E8
  8
DATA
  6
CONTINUOUS
 62
     7
 10
410.0
 20
672.00000000000045
 30
0.0
 40
56.250038315813669
 50
149.9996696821047
 51
240.0002126043008
  0
ARC
  5
1E9
  8
DATA
  6
CONTINUOUS
 62
     7
 10
410.0
 20
672.00000000000045
 30
0.0
 40
56.24996152034231
 50
330.00021260430287
 51
60.000718243125888
  0
ARC
  5
1EA
  8
DATA
  6
CONTINUOUS
 62
     7
 10
410.0
 20
672.00000000000045
 30
0.0
 40
35.99990080875272
 50
59.999908854702333
 51
149.99990885470811
  0
ARC
  5
1EB
  8
DATA
  6
CONTINUOUS
 62
     7
 10
410.0
 20
672.00000000000045
 30
0.0
 40
35.99990080875321
 50
239.99990885470271
 51
329.99990885470822
  0
LINE
  5
1EC
  8
DATA
  6
CONTINUOUS
 62
     7
 10
427.99979999999772
 20
703.17690000000027
 30
0.0
 11
424.49990000000071
 21
697.11480000000051
 31
0.0
  0
LINE
  5
1ED
  8
DATA
  6
CONTINUOUS
 62
     7
 10
378.82330000000371
 20
690.00010000000032
 30
0.0
 11
384.88529999999628
 21
686.5001000000002
 31
0.0
  0
LINE
  5
1EE
  8
DATA
  6
CONTINUOUS
 62
     7
 10
391.99999999999818
 20
640.82320000000038
 30
0.0
 11
395.50000000000182
 21
646.88530000000014
 31
0.0
  0
LINE
  5
1EF
  8
DATA
  6
CONTINUOUS
 62
     7
 10
441.17690000000039
 20
654.00020000000029
 30
0.0
 11
435.11480000000108
 21
657.50010000000043
 31
0.0
  0
ARC
  5
1F0
  8
DATA
  6
CONTINUOUS
 62
     7
 10
410.0
 20
672.00000000000045
 30
0.0
 40
29.000018208618009
 50
149.99979263403469
 51
240.00023362383081
  0
ARC
  5
1F1
  8
DATA
  6
CONTINUOUS
 62
     7
 10
410.0
 20
672.00000000000045
 30
0.0
 40
29.00000481120761
 50
330.00023362383109
 51
59.999792634038769
  0
LINE
  5
1F2
  8
DATA
  6
CONTINUOUS
 62
     7
 10
505.0
 20
562.00000000000045
 30
0.0
 11
505.0
 21
542.00000000000057
 31
0.0
  0
LINE
  5
1F3
  8
DATA
  6
CONTINUOUS
 62
     7
 10
495.0
 20
552.00000000000045
 30
0.0
 11
515.0
 21
552.00000000000045
 31
0.0
  0
LINE
  5
1F4
  8
DATA
  6
CONTINUOUS
 62
     7
 10
315.0
 20
802.00000000000034
 30
0.0
 11
315.0
 21
782.00000000000034
 31
0.0
  0
LINE
  5
1F5
  8
DATA
  6
CONTINUOUS
 62
     7
 10
305.0
 20
792.00000000000034
 30
0.0
 11
325.0
 21
792.00000000000034
 31
0.0
  0
LINE
  5
1F6
  8
DATA
  6
CONTINUOUS
 62
     7
 10
540.0
 20
552.00000000000045
 30
0.0
 11
625.0
 21
552.00000000000045
 31
0.0
  0
LINE
  5
1F7
  8
DATA
  6
CONTINUOUS
 62
     7
 10
775.0
 20
552.00000000000045
 30
0.0
 11
860.0
 21
552.00000000000045
 31
0.0
  0
TEXT
  5
1F8
  8
DATA
 62
     7
 10
647.90211078564289
 20
559.64046778203692
 30
0.0
 40
25.39453125
  1
\U+00B11 SUB
 41
0.7
 72
     1
 11
691.75000141064288
 21
572.33773340703692
 31
0.0
 73
     2
  0
TEXT
  5
1F9
  8
DATA
 62
     7
 10
644.30132812499994
 20
518.96500096796387
 30
0.0
 40
25.39453125
  1
\U+00B12 THRU
 41
0.7
 72
     1
 11
700.0
 21
531.66226659296399
 31
0.0
 73
     2
  0
CIRCLE
  5
1FA
  8
DATA
  6
CONTINUOUS
 62
     7
 10
-800.00000000002797
 20
330.00000000010363
 30
0.0
 40
52.250000000000021
  0
CIRCLE
  5
1FB
  8
DATA
  6
CONTINUOUS
 62
     7
 10
-800.00000000002797
 20
330.00000000010363
 30
0.0
 40
27.5
  0
CIRCLE
  5
1FC
  8
DATA
  6
CONTINUOUS
 62
     7
 10
-800.00000000002797
 20
330.00000000010363
 30
0.0
 40
50.000000000000021
  0
LINE
  5
1FD
  8
DATA
  6
CONTINUOUS
 62
     7
 10
-766.58446479581187
 20
306.37740473591202
 30
0.0
 11
-765.83446479581175
 21
307.67644284158871
 31
0.0
  0
LINE
  5
1FE
  8
DATA
  6
CONTINUOUS
 62
     7
 10
-763.58446479581175
 20
311.57355715861848
 30
0.0
 11
-762.83446479581175
 21
312.87259526429523
 31
0.0
  0
CIRCLE
  5
1FF
  8
DATA
  6
CONTINUOUS
 62
     7
 10
-764.05994574297335
 20
309.25000000010363
 30
0.0
 40
6.5000000000000409
  0
LINE
  5
200
  8
DATA
  6
CONTINUOUS
 62
     7
 10
-765.28542669013518
 20
305.62740473591202
 30
0.0
 11
-764.53542669013507
 21
306.92644284158871
 31
0.0
  0
LINE
  5
201
  8
DATA
  6
CONTINUOUS
 62
     7
 10
-762.28542669013507
 20
310.82355715861848
 30
0.0
 11
-761.53542669013507
 21
312.12259526429523
 31
0.0
  0
LINE
  5
202
  8
DATA
  6
CONTINUOUS
 62
     7
 10
-766.93254100716501
 20
311.7745190529418
 30
0.0
 11
-765.63350290148855
 21
311.0245190529418
 31
0.0
  0
LINE
  5
203
  8
DATA
  6
CONTINUOUS
 62
     7
 10
-761.7363885844585
 20
308.7745190529418
 30
0.0
 11
-760.43735047878192
 21
308.0245190529418
 31
0.0
  0
LINE
  5
204
  8
DATA
  6
CONTINUOUS
 62
     7
 10
-767.68254100716501
 20
310.47548094726523
 30
0.0
 11
-766.38350290148867
 21
309.72548094726523
 31
0.0
  0
LINE
  5
205
  8
DATA
  6
CONTINUOUS
 62
     7
 10
-762.48638858445838
 20
307.47548094726523
 30
0.0
 11
-761.18735047878192
 21
306.72548094726523
 31
0.0
  0
LINE
  5
206
  8
DATA
  6
CONTINUOUS
 62
     7
 10
-767.68254100716501
 20
310.47548094726523
 30
0.0
 11
-766.93254100716501
 21
311.7745190529418
 31
0.0
  0
LINE
  5
207
  8
DATA
  6
CONTINUOUS
 62
     7
 10
-766.58446479581187
 20
306.37740473591202
 30
0.0
 11
-765.28542669013518
 21
305.62740473591202
 31
0.0
  0
LINE
  5
208
  8
DATA
  6
CONTINUOUS
 62
     7
 10
-761.18735047878192
 20
306.72548094726523
 30
0.0
 11
-760.43735047878192
 21
308.0245190529418
 31
0.0
  0
LINE
  5
209
  8
DATA
  6
CONTINUOUS
 62
     7
 10
-761.53542669013507
 20
312.12259526429523
 30
0.0
 11
-762.83446479581175
 21
312.87259526429523
 31
0.0
  0
ARC
  5
20A
  8
DATA
  6
CONTINUOUS
 62
     7
 10
-767.13350290148855
 20
308.4264428415886
 30
0.0
 40
1.500000000000024
 50
330.00000000000063
 51
60.000000000000583
  0
ARC
  5
20B
  8
DATA
  6
CONTINUOUS
 62
     7
 10
-763.2363885844585
 20
306.1764428415886
 30
0.0
 40
1.500000000000024
 50
60.00000000000054
 51
150.00000000000051
  0
ARC
  5
20C
  8
DATA
  6
CONTINUOUS
 62
     7
 10
-760.9863885844585
 20
310.07355715861848
 30
0.0
 40
1.500000000000024
 50
150.00000000000051
 51
240.0000000000006
  0
ARC
  5
20D
  8
DATA
  6
CONTINUOUS
 62
     7
 10
-764.88350290148855
 20
312.32355715861848
 30
0.0
 40
1.500000000000024
 50
240.0000000000006
 51
330.00000000000063
  0
LINE
  5
20E
  8
DATA
  6
CONTINUOUS
 62
     7
 10
-796.25000000002751
 20
370.75000000010368
 30
0.0
 11
-797.75000000002751
 21
370.75000000010363
 31
0.0
  0
LINE
  5
20F
  8
DATA
  6
CONTINUOUS
 62
     7
 10
-802.25000000002785
 20
370.75000000010368
 30
0.0
 11
-803.75000000002763
 21
370.75000000010368
 31
0.0
  0
CIRCLE
  5
210
  8
DATA
  6
CONTINUOUS
 62
     7
 10
-800.00000000002774
 20
371.50000000010368
 30
0.0
 40
6.4999999999998863
  0
LINE
  5
211
  8
DATA
  6
CONTINUOUS
 62
     7
 10
-796.25000000002763
 20
372.25000000010363
 30
0.0
 11
-797.75000000002751
 21
372.25000000010363
 31
0.0
  0
LINE
  5
212
  8
DATA
  6
CONTINUOUS
 62
     7
 10
-802.25000000002785
 20
372.25000000010368
 30
0.0
 11
-803.75000000002763
 21
372.25000000010363
 31
0.0
  0
LINE
  5
213
  8
DATA
  6
CONTINUOUS
 62
     7
 10
-800.75000000002751
 20
367.75000000010363
 30
0.0
 11
-800.75000000002751
 21
369.25000000010363
 31
0.0
  0
LINE
  5
214
  8
DATA
  6
CONTINUOUS
 62
     7
 10
-800.75000000002751
 20
373.7500000001034
 30
0.0
 11
-800.75000000002751
 21
375.25000000010363
 31
0.0
  0
LINE
  5
215
  8
DATA
  6
CONTINUOUS
 62
     7
 10
-799.25000000002785
 20
367.75000000010368
 30
0.0
 11
-799.25000000002785
 21
369.25000000010363
 31
0.0
  0
LINE
  5
216
  8
DATA
  6
CONTINUOUS
 62
     7
 10
-799.25000000002785
 20
373.75000000010363
 30
0.0
 11
-799.25000000002763
 21
375.25000000010368
 31
0.0
  0
LINE
  5
217
  8
DATA
  6
CONTINUOUS
 62
     7
 10
-799.25000000002785
 20
367.75000000010368
 30
0.0
 11
-800.75000000002751
 21
367.75000000010363
 31
0.0
  0
LINE
  5
218
  8
DATA
  6
CONTINUOUS
 62
     7
 10
-796.25000000002751
 20
370.75000000010368
 30
0.0
 11
-796.25000000002763
 21
372.25000000010363
 31
0.0
  0
LINE
  5
219
  8
DATA
  6
CONTINUOUS
 62
     7
 10
-799.25000000002763
 20
375.25000000010368
 30
0.0
 11
-800.75000000002751
 21
375.25000000010363
 31
0.0
  0
LINE
  5
21A
  8
DATA
  6
CONTINUOUS
 62
     7
 10
-803.75000000002763
 20
372.25000000010363
 30
0.0
 11
-803.75000000002763
 21
370.75000000010368
 31
0.0
  0
ARC
  5
21B
  8
DATA
  6
CONTINUOUS
 62
     7
 10
-797.75000000002751
 20
369.25000000010351
 30
0.0
 40
1.500000000000113
 50
90.0
 51
179.99999999999559
  0
ARC
  5
21C
  8
DATA
  6
CONTINUOUS
 62
     7
 10
-797.75000000002751
 20
373.7500000001034
 30
0.0
 40
1.5000000000002269
 50
179.99999999999559
 51
270.0
  0
ARC
  5
21D
  8
DATA
  6
CONTINUOUS
 62
     7
 10
-802.25000000002785
 20
373.75000000010363
 30
0.0
 40
1.4999999999998861
 50
270.0
 51
359.99999999999562
  0
ARC
  5
21E
  8
DATA
  6
CONTINUOUS
 62
     7
 10
-802.25000000002785
 20
369.25000000010363
 30
0.0
 40
1.500000000000113
 50
0.0
 51
90.0
  0
LINE
  5
21F
  8
DATA
  6
CONTINUOUS
 62
     7
 10
-837.16553520424338
 20
312.87259526429528
 30
0.0
 11
-836.41553520424338
 21
311.57355715861848
 31
0.0
  0
LINE
  5
220
  8
DATA
  6
CONTINUOUS
 62
     7
 10
-834.1655352042435
 20
307.67644284158871
 30
0.0
 11
-833.4155352042435
 21
306.37740473591202
 31
0.0
  0
CIRCLE
  5
221
  8
DATA
  6
CONTINUOUS
 62
     7
 10
-835.94005425708212
 20
309.25000000010363
 30
0.0
 40
6.5000000000000409
  0
LINE
  5
222
  8
DATA
  6
CONTINUOUS
 62
     7
 10
-838.4645733099203
 20
312.12259526429523
 30
0.0
 11
-837.7145733099203
 21
310.82355715861843
 31
0.0
  0
LINE
  5
223
  8
DATA
  6
CONTINUOUS
 62
     7
 10
-835.46457330992018
 20
306.92644284158848
 30
0.0
 11
-834.7145733099203
 21
305.62740473591202
 31
0.0
  0
LINE
  5
224
  8
DATA
  6
CONTINUOUS
 62
     7
 10
-832.31745899289035
 20
310.47548094726523
 30
0.0
 11
-833.61649709856704
 21
309.72548094726523
 31
0.0
  0
LINE
  5
225
  8
DATA
  6
CONTINUOUS
 62
     7
 10
-837.5136114155971
 20
307.47548094726523
 30
0.0
 11
-838.81264952127378
 21
306.72548094726523
 31
0.0
  0
LINE
  5
226
  8
DATA
  6
CONTINUOUS
 62
     7
 10
-833.06745899289035
 20
311.7745190529418
 30
0.0
 11
-834.36649709856704
 21
311.0245190529418
 31
0.0
  0
LINE
  5
227
  8
DATA
  6
CONTINUOUS
 62
     7
 10
-838.2636114155971
 20
308.77451905294203
 30
0.0
 11
-839.56264952127356
 21
308.0245190529418
 31
0.0
  0
LINE
  5
228
  8
DATA
  6
CONTINUOUS
 62
     7
 10
-833.06745899289035
 20
311.7745190529418
 30
0.0
 11
-832.31745899289035
 21
310.47548094726523
 31
0.0
  0
LINE
  5
229
  8
DATA
  6
CONTINUOUS
 62
     7
 10
-837.16553520424338
 20
312.87259526429528
 30
0.0
 11
-838.4645733099203
 21
312.12259526429523
 31
0.0
  0
LINE
  5
22A
  8
DATA
  6
CONTINUOUS
 62
     7
 10
-839.56264952127356
 20
308.0245190529418
 30
0.0
 11
-838.81264952127378
 21
306.72548094726523
 31
0.0
  0
LINE
  5
22B
  8
DATA
  6
CONTINUOUS
 62
     7
 10
-834.7145733099203
 20
305.62740473591202
 30
0.0
 11
-833.4155352042435
 21
306.37740473591202
 31
0.0
  0
ARC
  5
22C
  8
DATA
  6
CONTINUOUS
 62
     7
 10
-835.11649709856692
 20
312.32355715861848
 30
0.0
 40
1.4999999999999261
 50
210.00000000000159
 51
299.99999999999568
  0
ARC
  5
22D
  8
DATA
  6
CONTINUOUS
 62
     7
 10
-839.01361141559676
 20
310.07355715861848
 30
0.0
 40
1.499999999999869
 50
299.9999999999979
 51
29.99999999999574
  0
ARC
  5
22E
  8
DATA
  6
CONTINUOUS
 62
     7
 10
-836.76361141559676
 20
306.1764428415886
 30
0.0
 40
1.499999999999869
 50
29.999999999997868
 51
120.0000000000032
  0
ARC
  5
22F
  8
DATA
  6
CONTINUOUS
 62
     7
 10
-832.86649709856681
 20
308.4264428415886
 30
0.0
 40
1.500000000000081
 50
120.0000000000032
 51
209.9999999999994
  0
ARC
  5
230
  8
DATA
  6
CONTINUOUS
 62
     7
 10
-799.99999999992406
 20
330.00000000007577
 30
0.0
 40
21.500000000107129
 50
168.3330294939272
 51
191.666970505932
  0
ARC
  5
231
  8
DATA
  6
CONTINUOUS
 62
     7
 10
-799.99999999992406
 20
330.00000000007577
 30
0.0
 40
21.50000000010715
 50
198.33302949378219
 51
221.66697050582761
  0
ARC
  5
232
  8
DATA
  6
CONTINUOUS
 62
     7
 10
-799.99999999992406
 20
330.00000000007577
 30
0.0
 40
21.50000000010715
 50
228.33302949367771
 51
251.66697050578861
  0
ARC
  5
233
  8
DATA
  6
CONTINUOUS
 62
     7
 10
-799.99999999992406
 20
330.00000000007577
 30
0.0
 40
21.500000000107089
 50
258.33302949363861
 51
281.66697050582621
  0
ARC
  5
234
  8
DATA
  6
CONTINUOUS
 62
     7
 10
-799.99999999992406
 20
330.00000000007577
 30
0.0
 40
21.500000000107178
 50
288.33302949367749
 51
311.66697050593081
  0
ARC
  5
235
  8
DATA
  6
CONTINUOUS
 62
     7
 10
-799.99999999992406
 20
330.00000000007577
 30
0.0
 40
21.500000000107189
 50
318.33302949378287
 51
341.66697050607092
  0
ARC
  5
236
  8
DATA
  6
CONTINUOUS
 62
     7
 10
-799.99999999992406
 20
330.00000000007577
 30
0.0
 40
21.500000000107342
 50
348.33302949392743
 51
11.66697050621735
  0
ARC
  5
237
  8
DATA
  6
CONTINUOUS
 62
     7
 10
-799.99999999992406
 20
330.00000000007577
 30
0.0
 40
21.500000000107288
 50
18.33302949406842
 51
41.666970506322258
  0
ARC
  5
238
  8
DATA
  6
CONTINUOUS
 62
     7
 10
-799.99999999992406
 20
330.00000000007577
 30
0.0
 40
21.5000000001072
 50
48.3330294941739
 51
71.666970506361153
  0
ARC
  5
239
  8
DATA
  6
CONTINUOUS
 62
     7
 10
-799.99999999992406
 20
330.00000000007577
 30
0.0
 40
21.500000000107111
 50
78.333029494212155
 51
101.6669705063229
  0
ARC
  5
23A
  8
DATA
  6
CONTINUOUS
 62
     7
 10
-799.99999999992406
 20
330.00000000007577
 30
0.0
 40
21.500000000107288
 50
108.3330294941734
 51
131.6669705062196
  0
ARC
  5
23B
  8
DATA
  6
CONTINUOUS
 62
     7
 10
-799.99999999992406
 20
330.00000000007577
 30
0.0
 40
21.500000000107221
 50
138.33302949407181
 51
161.66697050607351
  0
LINE
  5
23C
  8
DATA
  6
CONTINUOUS
 62
     7
 10
-775.21061331826695
 20
322.06360863235022
 30
0.0
 11
-782.79197005925903
 21
324.09502704863132
 31
0.0
  0
LINE
  5
23D
  8
DATA
  6
CONTINUOUS
 62
     7
 10
-774.56356570551065
 20
324.4784231980729
 30
0.0
 11
-782.14492244650273
 21
326.509841614354
 31
0.0
  0
LINE
  5
23E
  8
DATA
  6
CONTINUOUS
 62
     7
 10
-783.1455234498527
 20
324.7073994843272
 30
0.0
 11
-782.75729488219883
 21
326.15628822376078
 31
0.0
  0
ARC
  5
23F
  8
DATA
  6
CONTINUOUS
 62
     7
 10
-774.82238475061354
 20
323.51249737178381
 30
0.0
 40
1.4999999999998921
 50
255.00000000000441
 51
335.40593177315168
  0
ARC
  5
240
  8
DATA
  6
CONTINUOUS
 62
     7
 10
-774.95179427316452
 20
323.02953445863972
 30
0.0
 40
1.4999999999998761
 50
354.59406822685611
 51
74.999999999997954
  0
ARC
  5
241
  8
DATA
  6
CONTINUOUS
 62
     7
 10
-782.66256053670804
 20
324.57798996177598
 30
0.0
 40
0.5000000000001104
 50
165.0000000000089
 51
255.00000000002149
  0
ARC
  5
242
  8
DATA
  6
CONTINUOUS
 62
     7
 10
-782.27433196905395
 20
326.0268787012094
 30
0.0
 40
0.5000000000000301
 50
74.999999999992951
 51
164.99999999999289
  0
LINE
  5
243
  8
DATA
  6
CONTINUOUS
 62
     7
 10
-774.56356570551054
 20
335.52157680213412
 30
0.0
 11
-782.14492244650273
 21
333.49015838585291
 31
0.0
  0
LINE
  5
244
  8
DATA
  6
CONTINUOUS
 62
     7
 10
-775.21061331826695
 20
337.9363913678568
 30
0.0
 11
-782.79197005925937
 21
335.90497295157559
 31
0.0
  0
LINE
  5
245
  8
DATA
  6
CONTINUOUS
 62
     7
 10
-782.75729488219883
 20
333.8437117764463
 30
0.0
 11
-783.14552344985236
 21
335.29260051587983
 31
0.0
  0
ARC
  5
246
  8
DATA
  6
CONTINUOUS
 62
     7
 10
-774.95179427316452
 20
336.97046554156759
 30
0.0
 40
1.499999999999921
 50
284.99999999999972
 51
5.4059317731438901
  0
ARC
  5
247
  8
DATA
  6
CONTINUOUS
 62
     7
 10
-774.8223847506132
 20
336.48750262842339
 30
0.0
 40
1.499999999999825
 50
24.594068226853999
 51
105.0000000000051
  0
ARC
  5
248
  8
DATA
  6
CONTINUOUS
 62
     7
 10
-782.2743319690544
 20
333.97312129899751
 30
0.0
 40
0.5000000000000006
 50
194.9999999999944
 51
285.00000000001961
  0
ARC
  5
249
  8
DATA
  6
CONTINUOUS
 62
     7
 10
-782.66256053670793
 20
335.42201003843098
 30
0.0
 40
0.5000000000000595
 50
105.0000000000196
 51
194.9999999999944
  0
LINE
  5
24A
  8
DATA
  6
CONTINUOUS
 62
     7
 10
-780.73219012029779
 20
347.50004292686759
 30
0.0
 11
-786.28212844500865
 21
341.95010460215627
 31
0.0
  0
LINE
  5
24B
  8
DATA
  6
CONTINUOUS
 62
     7
 10
-782.49995707326389
 20
349.26780987983381
 30
0.0
 11
-788.04989539797532
 21
343.7178715551226
 31
0.0
  0
LINE
  5
24C
  8
DATA
  6
CONTINUOUS
 62
     7
 10
-786.98923522619532
 20
341.9501046021565
 30
0.0
 11
-788.04989539797475
 21
343.01076477393622
 31
0.0
  0
ARC
  5
24D
  8
DATA
  6
CONTINUOUS
 62
     7
 10
-781.79285029207745
 20
348.56070309864708
 30
0.0
 40
1.4999999999997711
 50
315.0000000000062
 51
35.405931773144061
  0
ARC
  5
24E
  8
DATA
  6
CONTINUOUS
 62
     7
 10
-781.43929690148445
 20
348.20714970805398
 30
0.0
 40
1.4999999999999909
 50
54.594068226855917
 51
134.99999999999079
  0
ARC
  5
24F
  8
DATA
  6
CONTINUOUS
 62
     7
 10
-786.63568183560221
 20
342.30365799274949
 30
0.0
 40
0.499999999999763
 50
225.0
 51
315.00000000001842
  0
ARC
  5
250
  8
DATA
  6
CONTINUOUS
 62
     7
 10
-787.69634200738165
 20
343.36431816452932
 30
0.0
 40
0.500000000000004
 50
135.00000000000921
 51
225.0
  0
LINE
  5
251
  8
DATA
  6
CONTINUOUS
 62
     7
 10
-792.06360863227451
 20
354.78938668186441
 30
0.0
 11
-794.09502704855595
 21
347.208029940872
 31
0.0
  0
LINE
  5
252
  8
DATA
  6
CONTINUOUS
 62
     7
 10
-794.47842319799713
 20
355.4364342946206
 30
0.0
 11
-796.50984161427857
 21
347.85507755362852
 31
0.0
  0
LINE
  5
253
  8
DATA
  6
CONTINUOUS
 62
     7
 10
-794.70739948425125
 20
346.85447655027878
 30
0.0
 11
-796.15628822368512
 21
347.24270511793247
 31
0.0
  0
ARC
  5
254
  8
DATA
  6
CONTINUOUS
 62
     7
 10
-793.51249737170804
 20
355.17761524951788
 30
0.0
 40
1.4999999999998621
 50
345.00000000000858
 51
65.405931773143891
  0
ARC
  5
255
  8
DATA
  6
CONTINUOUS
 62
     7
 10
-793.02953445856383
 20
355.0482057269669
 30
0.0
 40
1.499999999999784
 50
84.594068226847071
 51
164.99999999999801
  0
ARC
  5
256
  8
DATA
  6
CONTINUOUS
 62
     7
 10
-794.57798996170038
 20
347.33743946342338
 30
0.0
 40
0.5000000000000516
 50
255.00000000003411
 51
344.99999999999289
  0
ARC
  5
257
  8
DATA
  6
CONTINUOUS
 62
     7
 10
-796.02687870113414
 20
347.72566803107719
 30
0.0
 40
0.5000000000000301
 50
164.99999999999301
 51
255.00000000002149
  0
LINE
  5
258
  8
DATA
  6
CONTINUOUS
 62
     7
 10
-805.52157680205823
 20
355.43643429462082
 30
0.0
 11
-803.49015838577725
 21
347.8550775536284
 31
0.0
  0
LINE
  5
259
  8
DATA
  6
CONTINUOUS
 62
     7
 10
-807.93639136778108
 20
354.78938668186441
 30
0.0
 11
-805.90497295149987
 21
347.208029940872
 31
0.0
  0
LINE
  5
25A
  8
DATA
  6
CONTINUOUS
 62
     7
 10
-803.84371177637058
 20
347.24270511793247
 30
0.0
 11
-805.292600515804
 21
346.85447655027878
 31
0.0
  0
ARC
  5
25B
  8
DATA
  6
CONTINUOUS
 62
     7
 10
-806.97046554149165
 20
355.0482057269669
 30
0.0
 40
1.4999999999998399
 50
15.000000000005089
 51
95.405931773148211
  0
ARC
  5
25C
  8
DATA
  6
CONTINUOUS
 62
     7
 10
-806.48750262834733
 20
355.177615249518
 30
0.0
 40
1.4999999999999289
 50
114.5940682268522
 51
194.9999999999967
  0
ARC
  5
25D
  8
DATA
  6
CONTINUOUS
 62
     7
 10
-803.9731212989218
 20
347.72566803107719
 30
0.0
 40
0.5000000000001104
 50
284.99999999999108
 51
14.999999999994429
  0
ARC
  5
25E
  8
DATA
  6
CONTINUOUS
 62
     7
 10
-805.42201003835555
 20
347.33743946342321
 30
0.0
 40
0.4999999999998103
 50
195.00000000001381
 51
285.00000000001972
  0
LINE
  5
25F
  8
DATA
  6
CONTINUOUS
 62
     7
 10
-817.50004292679171
 20
349.26780987983381
 30
0.0
 11
-811.95010460208084
 21
343.7178715551226
 31
0.0
  0
LINE
  5
260
  8
DATA
  6
CONTINUOUS
 62
     7
 10
-819.26780987975815
 20
347.50004292686742
 30
0.0
 11
-813.71787155504694
 21
341.95010460215627
 31
0.0
  0
LINE
  5
261
  8
DATA
  6
CONTINUOUS
 62
     7
 10
-811.95010460208084
 20
343.01076477393599
 30
0.0
 11
-813.01076477386061
 21
341.95010460215639
 31
0.0
  0
ARC
  5
262
  8
DATA
  6
CONTINUOUS
 62
     7
 10
-818.56070309857159
 20
348.2071497080542
 30
0.0
 40
1.499999999999851
 50
44.99999999999693
 51
125.4059317731481
  0
ARC
  5
263
  8
DATA
  6
CONTINUOUS
 62
     7
 10
-818.20714970797849
 20
348.56070309864708
 30
0.0
 40
1.4999999999999249
 50
144.59406822685941
 51
224.99999999999699
  0
ARC
  5
264
  8
DATA
  6
CONTINUOUS
 62
     7
 10
-812.30365799267395
 20
343.36431816452932
 30
0.0
 40
0.500000000000004
 50
314.99999999999079
 51
45.000000000009209
  0
ARC
  5
265
  8
DATA
  6
CONTINUOUS
 62
     7
 10
-813.36431816445361
 20
342.30365799274972
 30
0.0
 40
0.5000000000000844
 50
225.00000000001839
 51
314.99999999999079
  0
LINE
  5
266
  8
DATA
  6
CONTINUOUS
 62
     7
 10
-824.78938668178864
 20
337.93639136785669
 30
0.0
 11
-817.20802994079622
 21
335.90497295157559
 31
0.0
  0
LINE
  5
267
  8
DATA
  6
CONTINUOUS
 62
     7
 10
-825.4364342945446
 20
335.52157680213412
 30
0.0
 11
-817.85507755355252
 21
333.49015838585279
 31
0.0
  0
LINE
  5
268
  8
DATA
  6
CONTINUOUS
 62
     7
 10
-816.85447655020278
 20
335.29260051587971
 30
0.0
 11
-817.2427051178571
 21
333.8437117764463
 31
0.0
  0
ARC
  5
269
  8
DATA
  6
CONTINUOUS
 62
     7
 10
-825.17761524944228
 20
336.48750262842321
 30
0.0
 40
1.4999999999998399
 50
74.999999999994913
 51
155.40593177314599
  0
ARC
  5
26A
  8
DATA
  6
CONTINUOUS
 62
     7
 10
-825.04820572689107
 20
336.97046554156748
 30
0.0
 40
1.4999999999998761
 50
174.59406822685611
 51
255.0000000000033
  0
ARC
  5
26B
  8
DATA
  6
CONTINUOUS
 62
     7
 10
-817.33743946334755
 20
335.42201003843098
 30
0.0
 40
0.5000000000000301
 50
344.99999999999289
 51
74.999999999992951
  0
ARC
  5
26C
  8
DATA
  6
CONTINUOUS
 62
     7
 10
-817.72566803100165
 20
333.97312129899751
 30
0.0
 40
0.5000000000000516
 50
255.00000000003411
 51
345.00000000000881
  0
LINE
  5
26D
  8
DATA
  6
CONTINUOUS
 62
     7
 10
-825.43643429454482
 20
324.47842319807302
 30
0.0
 11
-817.85507755355252
 21
326.50984161435417
 31
0.0
  0
LINE
  5
26E
  8
DATA
  6
CONTINUOUS
 62
     7
 10
-824.78938668178864
 20
322.06360863235022
 30
0.0
 11
-817.20802994079622
 21
324.09502704863138
 31
0.0
  0
LINE
  5
26F
  8
DATA
  6
CONTINUOUS
 62
     7
 10
-817.2427051178571
 20
326.15628822376101
 30
0.0
 11
-816.85447655020334
 21
324.7073994843272
 31
0.0
  0
ARC
  5
270
  8
DATA
  6
CONTINUOUS
 62
     7
 10
-825.0482057268913
 20
323.02953445863972
 30
0.0
 40
1.499999999999752
 50
104.9999999999925
 51
185.4059317731442
  0
ARC
  5
271
  8
DATA
  6
CONTINUOUS
 62
     7
 10
-825.17761524944228
 20
323.51249737178392
 30
0.0
 40
1.4999999999999289
 50
204.5940682268521
 51
284.99999999999869
  0
ARC
  5
272
  8
DATA
  6
CONTINUOUS
 62
     7
 10
-817.72566803100142
 20
326.02687870120951
 30
0.0
 40
0.4999999999998397
 50
15.000000000026359
 51
105.00000000000369
  0
ARC
  5
273
  8
DATA
  6
CONTINUOUS
 62
     7
 10
-817.33743946334778
 20
324.57798996177598
 30
0.0
 40
0.5000000000000595
 50
285.00000000001961
 51
15.000000000010401
  0
LINE
  5
274
  8
DATA
  6
CONTINUOUS
 62
     7
 10
-819.26780987975769
 20
312.49995707333949
 30
0.0
 11
-813.71787155504671
 21
318.04989539805069
 31
0.0
  0
LINE
  5
275
  8
DATA
  6
CONTINUOUS
 62
     7
 10
-817.50004292679137
 20
310.73219012037322
 30
0.0
 11
-811.95010460208039
 21
316.28212844508448
 31
0.0
  0
LINE
  5
276
  8
DATA
  6
CONTINUOUS
 62
     7
 10
-813.01076477386005
 20
318.04989539805081
 30
0.0
 11
-811.95010460208039
 21
316.98923522627098
 31
0.0
  0
ARC
  5
277
  8
DATA
  6
CONTINUOUS
 62
     7
 10
-818.20714970797781
 20
311.43929690155983
 30
0.0
 40
1.499999999999851
 50
135.00000000000301
 51
215.4059317731431
  0
ARC
  5
278
  8
DATA
  6
CONTINUOUS
 62
     7
 10
-818.56070309857103
 20
311.79285029215282
 30
0.0
 40
1.499999999999674
 50
234.59406822685801
 51
315.0
  0
ARC
  5
279
  8
DATA
  6
CONTINUOUS
 62
     7
 10
-813.36431816445315
 20
317.69634200745747
 30
0.0
 40
0.500000000000004
 50
45.000000000009209
 51
135.00000000000921
  0
ARC
  5
27A
  8
DATA
  6
CONTINUOUS
 62
     7
 10
-812.30365799267383
 20
316.6356818356777
 30
0.0
 40
0.500000000000004
 50
315.00000000000921
 51
45.0
  0
LINE
  5
27B
  8
DATA
  6
CONTINUOUS
 62
     7
 10
-807.93639136778108
 20
305.21061331834278
 30
0.0
 11
-805.90497295149987
 21
312.79197005933509
 31
0.0
  0
LINE
  5
27C
  8
DATA
  6
CONTINUOUS
 62
     7
 10
-805.52157680205823
 20
304.56356570558648
 30
0.0
 11
-803.49015838577702
 21
312.14492244657868
 31
0.0
  0
LINE
  5
27D
  8
DATA
  6
CONTINUOUS
 62
     7
 10
-805.292600515804
 20
313.14552344992842
 30
0.0
 11
-803.84371177637058
 21
312.75729488227449
 31
0.0
  0
ARC
  5
27E
  8
DATA
  6
CONTINUOUS
 62
     7
 10
-806.48750262834733
 20
304.82238475068903
 30
0.0
 40
1.499999999999811
 50
164.99999999999909
 51
245.40593177315171
  0
ARC
  5
27F
  8
DATA
  6
CONTINUOUS
 62
     7
 10
-806.97046554149165
 20
304.9517942732403
 30
0.0
 40
1.4999999999999889
 50
264.59406822685662
 51
344.99999999999909
  0
ARC
  5
280
  8
DATA
  6
CONTINUOUS
 62
     7
 10
-805.42201003835544
 20
312.66256053678381
 30
0.0
 40
0.5000000000000811
 50
75.000000000021501
 51
164.99999999999289
  0
ARC
  5
281
  8
DATA
  6
CONTINUOUS
 62
     7
 10
-803.97312129892168
 20
312.27433196912989
 30
0.0
 40
0.5000000000000006
 50
345.00000000000563
 51
75.000000000021501
  0
LINE
  5
282
  8
DATA
  6
CONTINUOUS
 62
     7
 10
-794.47842319799724
 20
304.56356570558643
 30
0.0
 11
-796.50984161427823
 21
312.14492244657868
 31
0.0
  0
LINE
  5
283
  8
DATA
  6
CONTINUOUS
 62
     7
 10
-792.06360863227451
 20
305.21061331834278
 30
0.0
 11
-794.09502704855538
 21
312.79197005933497
 31
0.0
  0
LINE
  5
284
  8
DATA
  6
CONTINUOUS
 62
     7
 10
-796.15628822368512
 20
312.75729488227432
 30
0.0
 11
-794.70739948425125
 21
313.14552344992808
 31
0.0
  0
ARC
  5
285
  8
DATA
  6
CONTINUOUS
 62
     7
 10
-793.02953445856383
 20
304.95179427324001
 30
0.0
 40
1.4999999999997811
 50
194.9999999999967
 51
275.40593177315333
  0
ARC
  5
286
  8
DATA
  6
CONTINUOUS
 62
     7
 10
-793.51249737170804
 20
304.82238475068891
 30
0.0
 40
1.49999999999977
 50
294.59406822685969
 51
15.00000000000392
  0
ARC
  5
287
  8
DATA
  6
CONTINUOUS
 62
     7
 10
-796.02687870113368
 20
312.27433196912989
 30
0.0
 40
0.4999999999999495
 50
105.00000000002299
 51
194.9999999999944
  0
ARC
  5
288
  8
DATA
  6
CONTINUOUS
 62
     7
 10
-794.57798996169981
 20
312.66256053678359
 30
0.0
 40
0.4999999999998103
 50
15.000000000013779
 51
105.00000000002299
  0
LINE
  5
289
  8
DATA
  6
CONTINUOUS
 62
     7
 10
-782.49995707326389
 20
310.73219012037339
 30
0.0
 11
-788.04989539797532
 21
316.28212844508448
 31
0.0
  0
LINE
  5
28A
  8
DATA
  6
CONTINUOUS
 62
     7
 10
-780.73219012029756
 20
312.49995707333977
 30
0.0
 11
-786.28212844500899
 21
318.04989539805081
 31
0.0
  0
LINE
  5
28B
  8
DATA
  6
CONTINUOUS
 62
     7
 10
-788.04989539797532
 20
316.98923522627109
 30
0.0
 11
-786.98923522619532
 21
318.04989539805069
 31
0.0
  0
ARC
  5
28C
  8
DATA
  6
CONTINUOUS
 62
     7
 10
-781.43929690148411
 20
311.79285029215322
 30
0.0
 40
1.5000000000000919
 50
224.99999999999389
 51
305.40593177313849
  0
ARC
  5
28D
  8
DATA
  6
CONTINUOUS
 62
     7
 10
-781.79285029207722
 20
311.43929690156011
 30
0.0
 40
1.499999999999581
 50
324.59406822685543
 51
45.000000000006132
  0
ARC
  5
28E
  8
DATA
  6
CONTINUOUS
 62
     7
 10
-787.69634200738199
 20
316.63568183567781
 30
0.0
 40
0.4999999999999237
 50
134.99999999998161
 51
225.00000000001839
  0
ARC
  5
28F
  8
DATA
  6
CONTINUOUS
 62
     7
 10
-786.63568183560199
 20
317.69634200745747
 30
0.0
 40
0.4999999999999237
 50
45.000000000018417
 51
135.00000000000921
  0
ENDSEC
  0
EOF
