  0
SECTION
  2
HEADER
  9
$ACADVER
  1
AC1009
  9
$INSBASE
 10
0.0
 20
0.0
 30
0.0
  9
$EXTMIN
 10
-1350.0823911746061
 20
-2014.6849778984381
 30
-0.0015258207003583
  9
$EXTMAX
 10
1350.0824037474611
 20
1999.567671355127
 30
0.0000000349246037
  9
$LIMMIN
 10
0.0
 20
0.0
  9
$LIMMAX
 10
0.0
 20
0.0
  9
$ORTHOMODE
 70
     0
  9
$REGENMODE
 70
     1
  9
$FILLMODE
 70
     1
  9
$QTEXTMODE
 70
     0
  9
$MIRRTEXT
 70
     1
  9
$DRAGMODE
 70
     2
  9
$LTSCALE
 40
76.200000000000003
  9
$OSMODE
 70
   231
  9
$ATTMODE
 70
     1
  9
$TEXTSIZE
 40
0.0
  9
$TRACEWID
 40
1.0
  9
$TEXTSTYLE
  7
STANDARD
  9
$CLAYER
  8
DATA
  9
$CELTYPE
  6
BYLAYER
  9
$CECOLOR
 62
   256
  9
$DIMSCALE
 40
1.0
  9
$DIMASZ
 40
0.18
  9
$DIMEXO
 40
0.0625
  9
$DIMDLI
 40
0.38
  9
$DIMRND
 40
0.0
  9
$DIMDLE
 40
0.0
  9
$DIMEXE
 40
0.18
  9
$DIMTP
 40
0.0
  9
$DIMTM
 40
0.0
  9
$DIMTXT
 40
0.18
  9
$DIMCEN
 40
0.09
  9
$DIMTSZ
 40
0.0
  9
$DIMTOL
 70
     0
  9
$DIMLIM
 70
     0
  9
$DIMTIH
 70
     1
  9
$DIMTOH
 70
     1
  9
$DIMSE1
 70
     0
  9
$DIMSE2
 70
     0
  9
$DIMTAD
 70
     0
  9
$DIMZIN
 70
     0
  9
$DIMBLK
  1

  9
$DIMASO
 70
     1
  9
$DIMSHO
 70
     1
  9
$DIMPOST
  1

  9
$DIMAPOST
  1

  9
$DIMALT
 70
     0
  9
$DIMALTD
 70
     2
  9
$DIMALTF
 40
25.399999999999999
  9
$DIMLFAC
 40
1.0
  9
$DIMTOFL
 70
     0
  9
$DIMTVP
 40
0.0
  9
$DIMTIX
 70
     0
  9
$DIMSOXD
 70
     0
  9
$DIMSAH
 70
     0
  9
$DIMBLK1
  1

  9
$DIMBLK2
  1

  9
$DIMSTYLE
  2
STANDARD
  9
$DIMCLRD
 70
     0
  9
$DIMCLRE
 70
     0
  9
$DIMCLRT
 70
     0
  9
$DIMTFAC
 40
1.0
  9
$DIMGAP
 40
0.09
  9
$LUNITS
 70
     2
  9
$LUPREC
 70
     4
  9
$SKETCHINC
 40
0.1
  9
$FILLETRAD
 40
0.0
  9
$AUNITS
 70
     0
  9
$AUPREC
 70
     0
  9
$MENU
  1
acad
  9
$ELEVATION
 40
0.0
  9
$PELEVATION
 40
0.0
  9
$THICKNESS
 40
0.0
  9
$LIMCHECK
 70
     0
  9
$BLIPMODE
 70
     0
  9
$CHAMFERA
 40
0.0
  9
$CHAMFERB
 40
0.0
  9
$SKPOLY
 70
     0
  9
$TDCREATE
 40
2456693.7688657409
  9
$TDUPDATE
 40
2456693.7692937269
  9
$TDINDWG
 40
0.0003420255
  9
$TDUSRTIMER
 40
0.0003418403
  9
$USRTIMER
 70
     1
  9
$ANGBASE
 50
0.0
  9
$ANGDIR
 70
     0
  9
$PDMODE
 70
     1
  9
$PDSIZE
 40
-2.0
  9
$PLINEWID
 40
0.0
  9
$COORDS
 70
     2
  9
$SPLFRAME
 70
     0
  9
$SPLINETYPE
 70
     6
  9
$SPLINESEGS
 70
     8
  9
$ATTDIA
 70
     0
  9
$ATTREQ
 70
     1
  9
$HANDLING
 70
     1
  9
$HANDSEED
  5
2CC
  9
$SURFTAB1
 70
     6
  9
$SURFTAB2
 70
     6
  9
$SURFTYPE
 70
     6
  9
$SURFU
 70
     6
  9
$SURFV
 70
     6
  9
$UCSNAME
  2

  9
$UCSORG
 10
0.0
 20
0.0
 30
0.0
  9
$UCSXDIR
 10
1.0
 20
0.0
 30
0.0
  9
$UCSYDIR
 10
0.0
 20
1.0
 30
0.0
  9
$PUCSNAME
  2

  9
$PUCSORG
 10
0.0
 20
0.0
 30
0.0
  9
$PUCSXDIR
 10
1.0
 20
0.0
 30
0.0
  9
$PUCSYDIR
 10
0.0
 20
1.0
 30
0.0
  9
$USERI1
 70
     0
  9
$USERI2
 70
     0
  9
$USERI3
 70
     0
  9
$USERI4
 70
     0
  9
$USERI5
 70
     0
  9
$USERR1
 40
0.0
  9
$USERR2
 40
0.0
  9
$USERR3
 40
0.0
  9
$USERR4
 40
0.0
  9
$USERR5
 40
0.0
  9
$WORLDVIEW
 70
     1
  9
$SHADEDGE
 70
     3
  9
$SHADEDIF
 70
    70
  9
$TILEMODE
 70
     1
  9
$MAXACTVP
 70
    64
  9
$PLIMCHECK
 70
     0
  9
$PEXTMIN
 10
1.0000000000000000E+020
 20
1.0000000000000000E+020
 30
1.0000000000000000E+020
  9
$PEXTMAX
 10
-1.0000000000000000E+020
 20
-1.0000000000000000E+020
 30
-1.0000000000000000E+020
  9
$PLIMMIN
 10
0.0
 20
0.0
  9
$PLIMMAX
 10
12.0
 20
9.0
  9
$UNITMODE
 70
     0
  9
$VISRETAIN
 70
     0
  9
$PLINEGEN
 70
     1
  9
$PSLTSCALE
 70
     0
  0
ENDSEC
  0
SECTION
  2
TABLES
  0
TABLE
  2
VPORT
 70
     1
  0
VPORT
  2
*ACTIVE
 70
     0
 10
0.0
 20
0.0
 11
1.0
 21
1.0
 12
0.0000062864282881
 22
-3.531805672908376
 13
0.0
 23
0.0
 14
1.0
 24
1.0
 15
0.0
 25
0.0
 16
0.0
 26
0.0
 36
1.0
 17
0.0
 27
0.0
 37
0.0
 40
4037.7438277100559
 41
2.1787122207621552
 42
50.0
 43
0.0
 44
0.0
 50
0.0
 51
0.0
 71
     0
 72
  2000
 73
     1
 74
     1
 75
     0
 76
     0
 77
     0
 78
     0
  0
ENDTAB
  0
TABLE
  2
LTYPE
 70
    11
  0
LTYPE
  2
CONTINUOUS
 70
     0
  3
Solid line
 72
    65
 73
     0
 40
0.0
  0
ENDTAB
  0
TABLE
  2
LAYER
 70
     5
  0
LAYER
  2
0
 70
     0
 62
     7
  6
CONTINUOUS
  0
LAYER
  2
DATA
 70
     0
 62
     7
  6
CONTINUOUS
  0
LAYER
  2
HIBINO-BASE
 70
     0
 62
     7
  6
CONTINUOUS
  0
LAYER
  2
SPEC
 70
     0
 62
     7
  6
CONTINUOUS
  0
LAYER
  2
DIMNSIONS
 70
     0
 62
     7
  6
CONTINUOUS
  0
ENDTAB
  0
TABLE
  2
STYLE
 70
     3
  0
STYLE
  2
STANDARD
 70
     0
 40
0.0
 41
1.0
 50
0.0
 71
     0
 42
0.0
  3
txt
  4
BIGFONT.SHX
  0
ENDTAB
  0
TABLE
  2
VIEW
 70
     0
  0
ENDTAB
  0
TABLE
  2
UCS
 70
     0
  0
ENDTAB
  0
TABLE
  2
APPID
 70
     4
  0
APPID
  2
ACAD
 70
     0
  0
APPID
  2
ACADANNOTATIVE
 70
     0
  0
APPID
  2
ACAD_NAV_VCDISPLAY
 70
     0
  0
APPID
  2
ACAD_MLEADERVER
 70
     0
  0
ENDTAB
  0
TABLE
  2
DIMSTYLE
 70
     2
  0
DIMSTYLE
  2
STANDARD
 70
     0
  3

  4

  5

  6

  7

 40
1.0
 41
0.18
 42
0.0625
 43
0.38
 44
0.18
 45
0.0
 46
0.0
 47
0.0
 48
0.0
140
0.18
141
0.09
142
0.0
143
25.399999999999999
144
1.0
145
0.0
146
1.0
147
0.09
 71
     0
 72
     0
 73
     1
 74
     1
 75
     0
 76
     0
 77
     0
 78
     0
170
     0
171
     2
172
     0
173
     0
174
     0
175
     0
176
     0
177
     0
178
     0
  0
ENDTAB
  0
ENDSEC
  0
SECTION
  2
BLOCKS
  0
BLOCK
  8
0
  2
$MODEL_SPACE
 70
     0
 10
0.0
 20
0.0
 30
0.0
  3
$MODEL_SPACE
  1

  0
ENDBLK
  5
24D
  8
0
  0
BLOCK
 67
     1
  8
0
  2
$PAPER_SPACE
 70
     0
 10
0.0
 20
0.0
 30
0.0
  3
$PAPER_SPACE
  1

  0
ENDBLK
  5
249
 67
     1
  8
0
  0
ENDSEC
  0
SECTION
  2
ENTITIES
  0
LINE
  5
2C
  8
HIBINO-BASE
  6
CONTINUOUS
 62
     7
 10
-1350.0
 20
1999.44541
 30
0.0
 11
1350.0
 21
1999.44541
 31
0.0
  0
LINE
  5
2D
  8
HIBINO-BASE
  6
CONTINUOUS
 62
     7
 10
1350.0
 20
-1900.5545900000011
 30
0.0
 11
-1350.0
 21
-1900.5545900000011
 31
0.0
  0
LINE
  5
2E
  8
HIBINO-BASE
  6
CONTINUOUS
 62
     7
 10
-1350.0
 20
-1900.5545900000011
 30
0.0
 11
-1350.0
 21
1999.44541
 31
0.0
  0
LINE
  5
2F
  8
HIBINO-BASE
  6
CONTINUOUS
 62
     7
 10
1350.0
 20
1999.44541
 30
0.0
 11
1350.0
 21
-1900.5545900000011
 31
0.0
  0
LINE
  5
30
  8
HIBINO-BASE
  6
CONTINUOUS
 62
     7
 10
0.0000000000001066
 20
-1563.0545900000011
 30
0.0
 11
1350.0
 21
-1563.0545900000011
 31
0.0
  0
LINE
  5
31
  8
HIBINO-BASE
  6
CONTINUOUS
 62
     7
 10
0.0000000000001066
 20
-1900.5545900000011
 30
0.0
 11
0.0000000000001066
 21
-1563.0545900000011
 31
0.0
  0
TEXT
  5
32
  8
HIBINO-BASE
 62
     7
 10
13.50000000000019
 20
-1600.68499
 30
0.0
 40
24.4326171875
  1
NOTE
 41
0.7
 11
13.50000000000019
 21
-1576.2523728125
 31
0.0
 73
     3
  0
LINE
  5
33
  8
HIBINO-BASE
  6
CONTINUOUS
 62
     7
 10
525.00000000000034
 20
-1900.5545900000011
 30
0.0
 11
525.00000000000034
 21
-1563.0545900000011
 31
0.0
  0
TEXT
  5
34
  8
HIBINO-BASE
 62
     7
 10
538.49999999999989
 20
-1600.68499
 30
0.0
 40
24.4326171875
  1
TITLE
 41
0.7
 11
538.49999999999989
 21
-1576.2523728125
 31
0.0
 73
     3
  0
LINE
  5
35
  8
HIBINO-BASE
  6
CONTINUOUS
 62
     7
 10
0.0000000000001066
 20
-1750.5545900000011
 30
0.0
 11
1350.0
 21
-1750.5545900000011
 31
0.0
  0
TEXT
  5
36
  8
HIBINO-BASE
 62
     7
 10
726.0
 20
-1787.3401899999999
 30
0.0
 40
24.4326171875
  1
DRAWN
 41
0.7
 11
726.0
 21
-1762.9075728124999
 31
0.0
 73
     3
  0
TEXT
  5
37
  8
HIBINO-BASE
 62
     7
 10
351.0
 20
-1787.3401899999999
 30
0.0
 40
24.4326171875
  1
DATE
 41
0.7
 11
351.0
 21
-1762.9075728124999
 31
0.0
 73
     3
  0
TEXT
  5
38
  8
HIBINO-BASE
 62
     7
 10
201.0
 20
-1787.3401899999999
 30
0.0
 40
24.4326171875
  1
SCALE
 41
0.7
 11
201.0
 21
-1762.9075728124999
 31
0.0
 73
     3
  0
TEXT
  5
39
  8
HIBINO-BASE
 62
     7
 10
538.49999999999989
 20
-1787.3401899999999
 30
0.0
 40
24.4326171875
  1
DESIGN
 41
0.7
 11
538.49999999999989
 21
-1762.9075728124999
 31
0.0
 73
     3
  0
TEXT
  5
3A
  8
HIBINO-BASE
 62
     7
 10
1100.9999999999991
 20
-1787.3401899999999
 30
0.0
 40
24.4326171875
  1
DRAWING NO.
 41
0.7
 11
1100.9999999999991
 21
-1762.9075728124999
 31
0.0
 73
     3
  0
TEXT
  5
3B
  8
HIBINO-BASE
 62
     7
 10
913.49999999999989
 20
-1787.3401899999999
 30
0.0
 40
24.4326171875
  1
CHECK
 41
0.7
 11
913.49999999999989
 21
-1762.9075728124999
 31
0.0
 73
     3
  0
LINE
  5
3C
  8
HIBINO-BASE
  6
CONTINUOUS
 62
     7
 10
215.62500000000011
 20
-1881.8045900000011
 30
0.0
 11
271.8750000000004
 21
-1825.5545900000011
 31
0.0
  0
TEXT
  5
3D
  8
HIBINO-BASE
 62
     7
 10
206.25000000000011
 20
-1842.1887400000001
 30
0.0
 40
24.4326171875
  1
1
 41
0.7
 11
206.25000000000011
 21
-1817.7561228125001
 31
0.0
 73
     3
  0
LINE
  5
3E
  8
HIBINO-BASE
  6
CONTINUOUS
 62
     7
 10
187.50000000000011
 20
-1900.5545900000011
 30
0.0
 11
187.50000000000011
 21
-1750.5545900000011
 31
0.0
  0
LINE
  5
3F
  8
HIBINO-BASE
  6
CONTINUOUS
 62
     7
 10
337.49999999999989
 20
-1900.5545900000011
 30
0.0
 11
337.49999999999989
 21
-1750.5545900000011
 31
0.0
  0
LINE
  5
40
  8
HIBINO-BASE
  6
CONTINUOUS
 62
     7
 10
712.49999999999955
 20
-1750.5545900000011
 30
0.0
 11
712.49999999999955
 21
-1900.5545900000011
 31
0.0
  0
LINE
  5
41
  8
HIBINO-BASE
  6
CONTINUOUS
 62
     7
 10
1087.5
 20
-1750.5545900000011
 30
0.0
 11
1087.5
 21
-1900.5545900000011
 31
0.0
  0
LINE
  5
42
  8
HIBINO-BASE
  6
CONTINUOUS
 62
     7
 10
899.99999999999955
 20
-1900.5545900000011
 30
0.0
 11
899.99999999999955
 21
-1750.5545900000011
 31
0.0
  0
TEXT
  5
43
  8
HIBINO-BASE
 62
     7
 10
350.34810000000022
 20
-1857.59989
 30
0.0
 40
24.4326171875
  1
'14.01.
 41
0.7
 11
350.34810000000022
 21
-1833.1672728125
 31
0.0
 73
     3
  0
TEXT
  5
44
  8
HIBINO-BASE
 62
     7
 10
262.5
 20
-1870.3137400000001
 30
0.0
 40
24.4326171875
  1
15
 41
0.7
 11
262.5
 21
-1845.8811228125001
 31
0.0
 73
     3
  0
TEXT
  5
45
  8
HIBINO-BASE
 62
     7
 10
735.08715016551935
 20
-1857.59989
 30
0.0
 40
24.4326171875
  1
N.Sasaki
 41
0.7
 11
735.08715016551935
 21
-1833.1672728125
 31
0.0
 73
     3
  0
TEXT
  5
46
  8
HIBINO-BASE
 62
     7
 10
58.250000000000412
 20
-1870.9145900000001
 30
0.0
 40
48.865234374999993
  1
A4
 41
0.7
 11
58.250000000000412
 21
-1822.0493556250001
 31
0.0
 73
     3
  0
TEXT
  5
47
  8
HIBINO-BASE
 62
     7
 10
14.37500000000003
 20
-1789.846415
 30
0.0
 40
24.4326171875
  1
PAPER SIZE
 41
0.7
 11
14.37500000000003
 21
-1765.4137978125
 31
0.0
 73
     3
  0
TEXT
  5
48
  8
HIBINO-BASE
 62
     7
 10
-1242.24
 20
-1996.684757
 30
0.0
 40
54.000662695312492
  1
Hibino Corporation
 41
0.7
 11
-1242.24
 21
-1942.684094304688
 31
0.0
 73
     3
  0
TEXT
  5
49
  8
HIBINO-BASE
 62
     7
 10
751.02584999999999
 20
-1996.684757
 30
0.0
 40
54.000662695312492
  1
ヒビノ株式会社
 41
0.7
 11
751.02584999999999
 21
-1942.684094304688
 31
0.0
 73
     3
  0
LINE
  5
4A
  8
SPEC
  6
CONTINUOUS
 62
     7
 10
-1237.5
 20
1849.44541
 30
0.0
 11
975.00000000000034
 21
1849.44541
 31
0.0
  0
LINE
  5
4B
  8
SPEC
  6
CONTINUOUS
 62
     7
 10
-1237.5
 20
1793.1954099999989
 30
0.0
 11
975.00000000000034
 21
1793.1954099999989
 31
0.0
  0
LINE
  5
4C
  8
SPEC
  6
CONTINUOUS
 62
     7
 10
-1237.5
 20
1849.44541
 30
0.0
 11
-1237.5
 21
1061.9454099999989
 31
0.0
  0
TEXT
  5
4D
  8
SPEC
 62
     7
 10
-1218.75
 20
1870.3444599999989
 30
0.0
 40
36.64892578125
  1
仕様
 41
0.7
 11
-1218.75
 21
1906.9933857812489
 31
0.0
 73
     3
  0
LINE
  5
4E
  8
SPEC
  6
CONTINUOUS
 62
     7
 10
-750.0
 20
1849.44541
 30
0.0
 11
-750.0
 21
1061.9454099999989
 31
0.0
  0
LINE
  5
4F
  8
SPEC
  6
CONTINUOUS
 62
     7
 10
975.00000000000034
 20
1849.44541
 30
0.0
 11
975.00000000000034
 21
1061.9454099999989
 31
0.0
  0
TEXT
  5
50
  8
SPEC
 62
     7
 10
-1224.0
 20
1130.0141766666659
 30
0.0
 40
28.504720052083339
  1
寸法(W\U+00D7H\U+00D7D)
 41
0.7
 11
-1224.0
 21
1158.5188967187489
 31
0.0
 73
     3
  0
TEXT
  5
51
  8
SPEC
 62
     7
 10
-1224.0
 20
1073.7641766666659
 30
0.0
 40
28.504720052083339
  1
質量
 41
0.7
 11
-1224.0
 21
1102.2688967187489
 31
0.0
 73
     3
  0
LINE
  5
52
  8
SPEC
  6
CONTINUOUS
 62
     7
 10
-1237.5
 20
1736.9454099999989
 30
0.0
 11
975.00000000000034
 21
1736.9454099999989
 31
0.0
  0
LINE
  5
53
  8
SPEC
  6
CONTINUOUS
 62
     7
 10
-1237.5
 20
1680.6954099999989
 30
0.0
 11
975.00000000000034
 21
1680.6954099999989
 31
0.0
  0
LINE
  5
54
  8
SPEC
  6
CONTINUOUS
 62
     7
 10
-1237.5
 20
1624.4454099999989
 30
0.0
 11
975.00000000000034
 21
1624.4454099999989
 31
0.0
  0
LINE
  5
55
  8
SPEC
  6
CONTINUOUS
 62
     7
 10
-1237.5
 20
1568.1954099999989
 30
0.0
 11
975.00000000000034
 21
1568.1954099999989
 31
0.0
  0
LINE
  5
56
  8
SPEC
  6
CONTINUOUS
 62
     7
 10
-1237.5
 20
1511.9454099999989
 30
0.0
 11
975.00000000000034
 21
1511.9454099999989
 31
0.0
  0
LINE
  5
57
  8
SPEC
  6
CONTINUOUS
 62
     7
 10
-1237.5
 20
1455.6954099999989
 30
0.0
 11
975.00000000000034
 21
1455.6954099999989
 31
0.0
  0
LINE
  5
58
  8
SPEC
  6
CONTINUOUS
 62
     7
 10
-900.0
 20
1399.4454099999989
 30
0.0
 11
975.00000000000034
 21
1399.4454099999989
 31
0.0
  0
LINE
  5
59
  8
SPEC
  6
CONTINUOUS
 62
     7
 10
-1237.5
 20
1343.19541
 30
0.0
 11
975.00000000000034
 21
1343.19541
 31
0.0
  0
LINE
  5
5A
  8
SPEC
  6
CONTINUOUS
 62
     7
 10
-1237.5
 20
1286.9454099999989
 30
0.0
 11
975.00000000000034
 21
1286.9454099999989
 31
0.0
  0
LINE
  5
5B
  8
SPEC
  6
CONTINUOUS
 62
     7
 10
-1237.5
 20
1230.69541
 30
0.0
 11
975.00000000000034
 21
1230.69541
 31
0.0
  0
LINE
  5
5C
  8
SPEC
  6
CONTINUOUS
 62
     7
 10
-1237.5
 20
1174.4454099999989
 30
0.0
 11
975.00000000000034
 21
1174.4454099999989
 31
0.0
  0
LINE
  5
5D
  8
SPEC
  6
CONTINUOUS
 62
     7
 10
-1237.5
 20
1118.1954099999989
 30
0.0
 11
975.00000000000034
 21
1118.1954099999989
 31
0.0
  0
LINE
  5
5E
  8
SPEC
  6
CONTINUOUS
 62
     7
 10
-1237.5
 20
1061.9454099999989
 30
0.0
 11
975.00000000000034
 21
1061.9454099999989
 31
0.0
  0
TEXT
  5
5F
  8
SPEC
 62
     7
 10
-1200.0
 20
986.66499999999985
 30
0.0
 40
28.504720052083329
  1
※ IEC ピンクノイズ、クレストファクタ ー6dB、100時間
 41
0.7
 11
-1200.0
 21
1015.169720052083
 31
0.0
 73
     3
  0
TEXT
  5
60
  8
SPEC
 62
     7
 10
-1224.0
 20
1805.0141766666659
 30
0.0
 40
28.504720052083329
  1
形式
 41
0.7
 11
-1224.0
 21
1833.5188967187489
 31
0.0
 73
     3
  0
TEXT
  5
61
  8
SPEC
 62
     7
 10
-1224.0
 20
1748.7641766666659
 30
0.0
 40
28.504720052083329
  1
周波数レンジ(-10dB)
 41
0.7
 11
-1224.0
 21
1777.2688967187489
 31
0.0
 73
     3
  0
TEXT
  5
62
  8
SPEC
 62
     7
 10
-1224.0
 20
1692.5141766666659
 30
0.0
 40
28.504720052083329
  1
指向角度(水平\U+00D7垂直)
 41
0.7
 11
-1224.0
 21
1721.0188967187489
 31
0.0
 73
     3
  0
TEXT
  5
63
  8
SPEC
 62
     7
 10
-1224.0
 20
1636.2641766666659
 30
0.0
 40
28.504720052083329
  1
最大音圧レベル(1m)
 41
0.7
 11
-1224.0
 21
1664.7688967187489
 31
0.0
 73
     3
  0
TEXT
  5
64
  8
SPEC
 62
     7
 10
-1224.0
 20
1580.0141766666659
 30
0.0
 40
28.504720052083329
  1
感度(1W、1m)
 41
0.7
 11
-1224.0
 21
1608.5188967187489
 31
0.0
 73
     3
  0
TEXT
  5
65
  8
SPEC
 62
     7
 10
-1223.538036773745
 20
1527.1180291168071
 30
0.0
 40
28.504720052083329
  1
公称インピーダンス
 41
0.7
 11
-1223.538036773745
 21
1555.6227491688901
 31
0.0
 73
     3
  0
TEXT
  5
66
  8
SPEC
 62
     7
 10
-736.5
 20
1523.7641766666659
 30
0.0
 40
28.504720052083329
  1
4\U+03A9
 41
0.7
 11
-736.5
 21
1552.2688967187489
 31
0.0
 73
     3
  0
TEXT
  5
67
  8
SPEC
 62
     7
 10
-1224.0
 20
1467.5141766666659
 30
0.0
 40
28.504720052083329
  1
許容入力 ※
 41
0.7
 11
-1224.0
 21
1496.0188967187489
 31
0.0
 73
     3
  0
TEXT
  5
68
  8
SPEC
 62
     7
 10
-736.5
 20
1467.5141766666659
 30
0.0
 40
28.504720052083329
  1
500W(連続)
 41
0.7
 11
-736.5
 21
1496.0188967187489
 31
0.0
 73
     3
  0
TEXT
  5
69
  8
SPEC
 62
     7
 10
-1224.0
 20
1411.2641766666659
 30
0.0
 40
28.504720052083329
  1
ドライバー構成
 41
0.7
 11
-1224.0
 21
1439.7688967187489
 31
0.0
 73
     3
  0
TEXT
  5
6A
  8
SPEC
 62
     7
 10
-875.0
 20
1411.665
 30
0.0
 40
28.504720052083329
  1
低域
 41
0.7
 11
-875.0
 21
1440.169720052083
 31
0.0
 73
     3
  0
TEXT
  5
6B
  8
SPEC
 62
     7
 10
-875.0
 20
1355.415
 30
0.0
 40
28.504720052083329
  1
高域
 41
0.7
 11
-875.0
 21
1383.919720052083
 31
0.0
 73
     3
  0
LINE
  5
6C
  8
SPEC
  6
CONTINUOUS
 62
     7
 10
-900.0
 20
1455.6954099999989
 30
0.0
 11
-900.0
 21
1343.19541
 31
0.0
  0
TEXT
  5
6D
  8
SPEC
 62
     7
 10
-1224.0
 20
1298.7641766666659
 30
0.0
 40
28.504720052083329
  1
クロスオーバー周波数
 41
0.7
 11
-1224.0
 21
1327.2688967187501
 31
0.0
 73
     3
  0
TEXT
  5
6E
  8
SPEC
 62
     7
 10
-736.5
 20
1298.7641766666659
 30
0.0
 40
28.504720052083329
  1
2.2kHz
 41
0.7
 11
-736.5
 21
1327.2688967187501
 31
0.0
 73
     3
  0
TEXT
  5
6F
  8
SPEC
 62
     7
 10
-1224.0
 20
1242.5141766666659
 30
0.0
 40
28.504720052083329
  1
入力端子
 41
0.7
 11
-1224.0
 21
1271.0188967187489
 31
0.0
 73
     3
  0
TEXT
  5
70
  8
SPEC
 62
     7
 10
-736.5
 20
1242.5141766666659
 30
0.0
 40
28.504720052083329
  1
4Pスピコン\U+00D71、標準フォーンジャック(2P)\U+00D71
 41
0.7
 11
-736.5
 21
1271.0188967187489
 31
0.0
 73
     3
  0
TEXT
  5
71
  8
SPEC
 62
     7
 10
-1224.0
 20
1186.2641766666659
 30
0.0
 40
28.504720052083329
  1
エンクロージャー
 41
0.7
 11
-1224.0
 21
1214.7688967187489
 31
0.0
 73
     3
  0
TEXT
  5
72
  8
SPEC
 62
     7
 10
-736.5
 20
1186.2641766666659
 30
0.0
 40
28.504720052083329
  1
黒カーペット仕上げ
 41
0.7
 11
-736.5
 21
1214.7688967187489
 31
0.0
 73
     3
  0
TEXT
  5
73
  8
SPEC
 62
     7
 10
-736.5
 20
1073.7642006666661
 30
0.0
 40
28.50466875
  1
43kg
 41
0.7
 11
-736.5
 21
1102.2688694166659
 31
0.0
 73
     3
  0
TEXT
  5
74
  8
SPEC
 62
     7
 10
-736.5
 20
1805.0141766666659
 30
0.0
 40
28.504720052083329
  1
2-Wayフルレンジ
 41
0.7
 11
-736.5
 21
1833.5188967187489
 31
0.0
 73
     3
  0
TEXT
  5
75
  8
SPEC
 62
     7
 10
-736.5
 20
1748.7641766666659
 30
0.0
 40
28.504720052083329
  1
42Hz～18kHz
 41
0.7
 11
-736.5
 21
1777.2688967187489
 31
0.0
 73
     3
  0
TEXT
  5
76
  8
SPEC
 62
     7
 10
-736.5
 20
1692.5141766666659
 30
0.0
 40
28.504720052083329
  1
90\U+00B0\U+00D750\U+00B0
 41
0.7
 11
-736.5
 21
1721.0188967187489
 31
0.0
 73
     3
  0
TEXT
  5
77
  8
SPEC
 62
     7
 10
-736.5
 20
1636.2641766666659
 30
0.0
 40
28.504720052083329
  1
133dB SPL(ピーク)
 41
0.7
 11
-736.5
 21
1664.7688967187489
 31
0.0
 73
     3
  0
TEXT
  5
78
  8
SPEC
 62
     7
 10
-736.5
 20
1580.0141766666659
 30
0.0
 40
28.504720052083329
  1
100dB SPL
 41
0.7
 11
-736.5
 21
1608.5188967187489
 31
0.0
 73
     3
  0
TEXT
  5
79
  8
SPEC
 62
     7
 10
-736.5
 20
1411.2641766666659
 30
0.0
 40
28.504720052083329
  1
380mm(M115－8A)\U+00D72
 41
0.7
 11
-736.5
 21
1439.7688967187489
 31
0.0
 73
     3
  0
TEXT
  5
7A
  8
SPEC
 62
     7
 10
-736.5
 20
1355.0141766666659
 30
0.0
 40
28.504720052083329
  1
25mm(2414H－C)
 41
0.7
 11
-736.5
 21
1383.5188967187489
 31
0.0
 73
     3
  0
TEXT
  5
7B
  8
SPEC
 62
     7
 10
-736.5
 20
1130.0141766666659
 30
0.0
 40
28.504720052083329
  1
470\U+00D71087\U+00D7438mm(除突起部)
 41
0.7
 11
-736.5
 21
1158.5188967187489
 31
0.0
 73
     3
  0
TEXT
  5
7C
  8
DIMNSIONS
 62
     7
 10
-299.99999999999989
 20
-1716.51224
 30
0.0
 40
36.64892578125
  1
(単位：mm)
 41
0.7
 11
-299.99999999999989
 21
-1679.86331421875
 31
0.0
 73
     3
  0
LINE
  5
7D
  8
DIMNSIONS
  6
CONTINUOUS
 62
     7
 10
-955.0
 20
-1000.0
 30
0.0
 11
-1080.0
 21
-1000.0
 31
0.0
  0
LINE
  5
7E
  8
DIMNSIONS
  6
CONTINUOUS
 62
     7
 10
-955.0
 20
87.000000000000114
 30
0.0
 11
-1080.0
 21
87.000000000000114
 31
0.0
  0
LINE
  5
7F
  8
DIMNSIONS
  6
CONTINUOUS
 62
     7
 10
-1050.0
 20
-1000.0
 30
0.0
 11
-1050.0
 21
87.000000000000114
 31
0.0
  0
LINE
  5
80
  8
DIMNSIONS
  6
CONTINUOUS
 62
     7
 10
-1050.0
 20
-1000.0
 30
0.0
 11
-1060.0505969272531
 21
-962.49066162109352
 31
0.0
  0
LINE
  5
81
  8
DIMNSIONS
  6
CONTINUOUS
 62
     7
 10
-1050.0
 20
-1000.0
 30
0.0
 11
-1039.949403072746
 21
-962.49066162109352
 31
0.0
  0
LINE
  5
82
  8
DIMNSIONS
  6
CONTINUOUS
 62
     7
 10
-1050.0
 20
87.000000000000114
 30
0.0
 11
-1039.949403072746
 21
49.490661621093849
 31
0.0
  0
LINE
  5
83
  8
DIMNSIONS
  6
CONTINUOUS
 62
     7
 10
-1050.0
 20
87.000000000000114
 30
0.0
 11
-1060.0505969272531
 21
49.490661621093849
 31
0.0
  0
TEXT
  5
84
  8
DIMNSIONS
 62
     7
 10
-1064.9083333333331
 20
-509.41666666666652
 30
0.0
 40
40.721028645833343
  1
1087
 50
90.0
 41
0.7
 11
-1105.629361979167
 21
-509.41666666666652
 31
0.0
 73
     3
  0
LINE
  5
85
  8
DIMNSIONS
  6
CONTINUOUS
 62
     7
 10
-955.0
 20
200.0
 30
0.0
 11
-1080.0
 21
200.0
 31
0.0
  0
LINE
  5
86
  8
DIMNSIONS
  6
CONTINUOUS
 62
     7
 10
-898.75544259714172
 20
638.0
 30
0.0
 11
-1080.0
 21
638.0
 31
0.0
  0
LINE
  5
87
  8
DIMNSIONS
  6
CONTINUOUS
 62
     7
 10
-1050.0
 20
200.0
 30
0.0
 11
-1050.0
 21
638.0
 31
0.0
  0
LINE
  5
88
  8
DIMNSIONS
  6
CONTINUOUS
 62
     7
 10
-1050.0
 20
200.0
 30
0.0
 11
-1060.0505969272531
 21
237.50933837890619
 31
0.0
  0
LINE
  5
89
  8
DIMNSIONS
  6
CONTINUOUS
 62
     7
 10
-1050.0
 20
200.0
 30
0.0
 11
-1039.949403072746
 21
237.50933837890619
 31
0.0
  0
LINE
  5
8A
  8
DIMNSIONS
  6
CONTINUOUS
 62
     7
 10
-1050.0
 20
638.0
 30
0.0
 11
-1039.949403072746
 21
600.49066162109375
 31
0.0
  0
LINE
  5
8B
  8
DIMNSIONS
  6
CONTINUOUS
 62
     7
 10
-1050.0
 20
638.0
 30
0.0
 11
-1060.0505969272531
 21
600.49066162109375
 31
0.0
  0
TEXT
  5
8C
  8
DIMNSIONS
 62
     7
 10
-1064.9083333333331
 20
379.3125
 30
0.0
 40
40.721028645833343
  1
438
 50
90.0
 41
0.7
 11
-1105.6293619791661
 21
379.3125
 31
0.0
 73
     3
  0
LINE
  5
8D
  8
DIMNSIONS
  6
CONTINUOUS
 62
     7
 10
-877.5
 20
668.0
 30
0.0
 11
-877.5
 21
780.0
 31
0.0
  0
LINE
  5
8E
  8
DIMNSIONS
  6
CONTINUOUS
 62
     7
 10
-522.5
 20
668.0
 30
0.0
 11
-522.5
 21
780.0
 31
0.0
  0
LINE
  5
8F
  8
DIMNSIONS
  6
CONTINUOUS
 62
     7
 10
-877.5
 20
750.0
 30
0.0
 11
-522.5
 21
750.0
 31
0.0
  0
LINE
  5
90
  8
DIMNSIONS
  6
CONTINUOUS
 62
     7
 10
-877.5
 20
750.0
 30
0.0
 11
-839.99066162109375
 21
760.05059692725354
 31
0.0
  0
LINE
  5
91
  8
DIMNSIONS
  6
CONTINUOUS
 62
     7
 10
-877.5
 20
750.0
 30
0.0
 11
-839.99066162109375
 21
739.94940307274624
 31
0.0
  0
LINE
  5
92
  8
DIMNSIONS
  6
CONTINUOUS
 62
     7
 10
-522.5
 20
750.0
 30
0.0
 11
-560.00933837890625
 21
739.94940307274624
 31
0.0
  0
LINE
  5
93
  8
DIMNSIONS
  6
CONTINUOUS
 62
     7
 10
-522.5
 20
750.0
 30
0.0
 11
-560.00933837890625
 21
760.05059692725354
 31
0.0
  0
TEXT
  5
94
  8
DIMNSIONS
 62
     7
 10
-739.6875
 20
764.90833333333308
 30
0.0
 40
40.721028645833343
  1
355
 41
0.7
 11
-739.6875
 21
805.62936197916645
 31
0.0
 73
     3
  0
LINE
  5
95
  8
DIMNSIONS
  6
CONTINUOUS
 62
     7
 10
-935.0
 20
-1020.0
 30
0.0
 11
-935.0
 21
-1155.0
 31
0.0
  0
LINE
  5
96
  8
DIMNSIONS
  6
CONTINUOUS
 62
     7
 10
-465.0
 20
-1020.0
 30
0.0
 11
-465.0
 21
-1155.0
 31
0.0
  0
LINE
  5
97
  8
DIMNSIONS
  6
CONTINUOUS
 62
     7
 10
-935.0
 20
-1125.0
 30
0.0
 11
-465.0
 21
-1125.0
 31
0.0
  0
LINE
  5
98
  8
DIMNSIONS
  6
CONTINUOUS
 62
     7
 10
-935.0
 20
-1125.0
 30
0.0
 11
-897.49066162109375
 21
-1114.949403072746
 31
0.0
  0
LINE
  5
99
  8
DIMNSIONS
  6
CONTINUOUS
 62
     7
 10
-935.0
 20
-1125.0
 30
0.0
 11
-897.49066162109375
 21
-1135.0505969272531
 31
0.0
  0
LINE
  5
9A
  8
DIMNSIONS
  6
CONTINUOUS
 62
     7
 10
-465.0
 20
-1125.0
 30
0.0
 11
-502.50933837890619
 21
-1135.0505969272531
 31
0.0
  0
LINE
  5
9B
  8
DIMNSIONS
  6
CONTINUOUS
 62
     7
 10
-465.0
 20
-1125.0
 30
0.0
 11
-502.50933837890619
 21
-1114.949403072746
 31
0.0
  0
TEXT
  5
9C
  8
DIMNSIONS
 62
     7
 10
-739.6875
 20
-1110.091666666666
 30
0.0
 40
40.721028645833343
  1
470
 41
0.7
 11
-739.6875
 21
-1069.370638020833
 31
0.0
 73
     3
  0
LINE
  5
9D
  8
DIMNSIONS
  6
CONTINUOUS
 62
     7
 10
-955.0
 20
-1000.0
 30
0.0
 11
-1080.0
 21
-1000.0
 31
0.0
  0
LINE
  5
9E
  8
DIMNSIONS
  6
CONTINUOUS
 62
     7
 10
-939.7752078581351
 20
-1012.0
 30
0.0
 11
-1080.0
 21
-1012.0
 31
0.0
  0
LINE
  5
9F
  8
DIMNSIONS
  6
CONTINUOUS
 62
     7
 10
-1050.0
 20
-1012.0
 30
0.0
 11
-1050.0
 21
-1000.0
 31
0.0
  0
LINE
  5
A0
  8
DIMNSIONS
  6
CONTINUOUS
 62
     7
 10
-1050.0
 20
-1000.0
 30
0.0
 11
-1050.0
 21
-925.0
 31
0.0
  0
LINE
  5
A1
  8
DIMNSIONS
  6
CONTINUOUS
 62
     7
 10
-1050.0
 20
-1000.0
 30
0.0
 11
-1060.0505969272531
 21
-962.49066162109352
 31
0.0
  0
LINE
  5
A2
  8
DIMNSIONS
  6
CONTINUOUS
 62
     7
 10
-1050.0
 20
-1000.0
 30
0.0
 11
-1039.949403072746
 21
-962.49066162109352
 31
0.0
  0
LINE
  5
A3
  8
DIMNSIONS
  6
CONTINUOUS
 62
     7
 10
-1050.0
 20
-1012.0
 30
0.0
 11
-1050.0
 21
-1130.833333333333
 31
0.0
  0
LINE
  5
A4
  8
DIMNSIONS
  6
CONTINUOUS
 62
     7
 10
-1050.0
 20
-1012.0
 30
0.0
 11
-1039.949403072746
 21
-1049.509338378906
 31
0.0
  0
LINE
  5
A5
  8
DIMNSIONS
  6
CONTINUOUS
 62
     7
 10
-1050.0
 20
-1012.0
 30
0.0
 11
-1060.0505969272531
 21
-1049.509338378906
 31
0.0
  0
TEXT
  5
A6
  8
DIMNSIONS
 62
     7
 10
-1064.9083333333331
 20
-1130.833333333333
 30
0.0
 40
40.721028645833343
  1
12.0
 50
90.0
 41
0.7
 11
-1105.629361979167
 21
-1130.833333333333
 31
0.0
 73
     3
  0
TEXT
  5
A7
  8
DATA
 62
     7
 10
-1312.5
 20
-1782.4104233333339
 30
0.0
 40
28.504720052083339
  1
※仕様及び外観は予告なく変更されることがあります。
 41
0.7
 11
-1312.5
 21
-1753.9057032812509
 31
0.0
 73
     3
  0
TEXT
  5
A8
  8
DATA
 62
     7
 10
-1312.5
 20
-1819.45209
 30
0.0
 40
28.504720052083339
  1
　また、同一商品でも若干の個体差があることがあります。ご了承ください。
 41
0.7
 11
-1312.5
 21
-1790.947369947917
 31
0.0
 73
     3
  0
TEXT
  5
A9
  8
DATA
 62
     7
 10
749.99999999999955
 20
-1733.59124
 30
0.0
 40
36.64892578125
  1
JRX225
 41
0.7
 11
749.99999999999955
 21
-1696.94231421875
 31
0.0
 73
     3
  0
TEXT
  5
AA
  8
DATA
 62
     7
 10
749.99999999999955
 20
-1624.84124
 30
0.0
 40
36.64892578125
  1
JBL PROFESSIONAL
 41
0.7
 11
749.99999999999955
 21
-1588.19231421875
 31
0.0
 73
     3
  0
TEXT
  5
AB
  8
DATA
 62
     7
 10
514.71931966145871
 20
954.63948567708326
 30
0.0
 40
40.721028645833343
  1
コネクターパネル拡大図
 41
0.7
 72
     1
 11
700.00000000000045
 21
975.0
 31
0.0
 73
     2
  0
LINE
  5
AC
  8
DATA
  6
CONTINUOUS
 62
     7
 10
400.00000000000051
 20
925.0
 30
0.0
 11
1000.0
 21
925.0
 31
0.0
  0
TEXT
  5
AD
  8
DATA
 62
     7
 10
712.49999999999955
 20
-1676.9955650000011
 30
0.0
 40
24.4326171875
  1
2-Wayフルレンジ・スピーカー
 41
0.7
 11
712.49999999999955
 21
-1652.5629478124999
 31
0.0
 73
     3
  0
LINE
  5
AE
  8
DATA
  6
CONTINUOUS
 62
     7
 10
315.0
 20
-990.0
 30
0.0
 11
315.0
 21
77.000000000000085
 31
0.0
  0
LINE
  5
AF
  8
DATA
  6
CONTINUOUS
 62
     7
 10
775.0
 20
-1000.0
 30
0.0
 11
325.0
 21
-1000.0
 31
0.0
  0
LINE
  5
B0
  8
DATA
  6
CONTINUOUS
 62
     7
 10
785.0
 20
77.000000000000085
 30
0.0
 11
785.0
 21
-990.0
 31
0.0
  0
LINE
  5
B1
  8
DATA
  6
CONTINUOUS
 62
     7
 10
325.0
 20
87.000000000000114
 30
0.0
 11
775.0
 21
87.000000000000114
 31
0.0
  0
LINE
  5
B2
  8
DATA
  6
CONTINUOUS
 62
     7
 10
372.5
 20
-1000.0
 30
0.0
 11
372.5
 21
87.000000000000114
 31
0.0
  0
LINE
  5
B3
  8
DATA
  6
CONTINUOUS
 62
     7
 10
727.5
 20
87.000000000000114
 30
0.0
 11
727.5
 21
-1000.0
 31
0.0
  0
ARC
  5
B4
  8
DATA
  6
CONTINUOUS
 62
     7
 10
775.0
 20
77.000000000000085
 30
0.0
 40
10.0
 50
0.0
 51
90.0
  0
ARC
  5
B5
  8
DATA
  6
CONTINUOUS
 62
     7
 10
325.0
 20
77.000000000000085
 30
0.0
 40
10.0
 50
90.0
 51
180.0
  0
ARC
  5
B6
  8
DATA
  6
CONTINUOUS
 62
     7
 10
325.0
 20
-990.0
 30
0.0
 40
10.0
 50
180.0
 51
270.0
  0
ARC
  5
B7
  8
DATA
  6
CONTINUOUS
 62
     7
 10
775.0
 20
-990.0
 30
0.0
 40
10.00000000000011
 50
270.0
 51
0.0
  0
LINE
  5
B8
  8
DATA
  6
CONTINUOUS
 62
     7
 10
-300.0
 20
-990.0
 30
0.0
 11
-300.0
 21
77.000000000000085
 31
0.0
  0
ARC
  5
B9
  8
DATA
  6
CONTINUOUS
 62
     7
 10
-290.0
 20
-990.0
 30
0.0
 40
10.0
 50
180.0
 51
270.0
  0
LINE
  5
BA
  8
DATA
  6
CONTINUOUS
 62
     7
 10
128.0
 20
-1000.0
 30
0.0
 11
-290.0
 21
-1000.0
 31
0.0
  0
ARC
  5
BB
  8
DATA
  6
CONTINUOUS
 62
     7
 10
128.0
 20
-990.0
 30
0.0
 40
10.00000000000011
 50
270.0
 51
0.0
  0
LINE
  5
BC
  8
DATA
  6
CONTINUOUS
 62
     7
 10
138.0
 20
77.000000000000085
 30
0.0
 11
138.0
 21
-990.0
 31
0.0
  0
ARC
  5
BD
  8
DATA
  6
CONTINUOUS
 62
     7
 10
128.0
 20
77.000000000000085
 30
0.0
 40
10.0
 50
0.0
 51
90.0
  0
LINE
  5
BE
  8
DATA
  6
CONTINUOUS
 62
     7
 10
-290.0
 20
87.000000000000114
 30
0.0
 11
128.0
 21
87.000000000000114
 31
0.0
  0
ARC
  5
BF
  8
DATA
  6
CONTINUOUS
 62
     7
 10
-290.0
 20
77.000000000000085
 30
0.0
 40
10.0
 50
90.0
 51
180.0
  0
LINE
  5
C0
  8
DATA
  6
CONTINUOUS
 62
     7
 10
-185.0
 20
-342.99999999999989
 30
0.0
 11
-185.0
 21
-142.9999999999998
 31
0.0
  0
LINE
  5
C1
  8
DATA
  6
CONTINUOUS
 62
     7
 10
-160.0
 20
-324.99999999999989
 30
0.0
 11
-160.0
 21
-160.9999999999998
 31
0.0
  0
LINE
  5
C2
  8
DATA
  6
CONTINUOUS
 62
     7
 10
-32.0
 20
-352.99999999999977
 30
0.0
 11
-175.0
 21
-352.99999999999977
 31
0.0
  0
LINE
  5
C3
  8
DATA
  6
CONTINUOUS
 62
     7
 10
-47.0
 20
-324.99999999999989
 30
0.0
 11
-160.0
 21
-324.99999999999989
 31
0.0
  0
LINE
  5
C4
  8
DATA
  6
CONTINUOUS
 62
     7
 10
-47.0
 20
-274.99999999999989
 30
0.0
 11
-160.0
 21
-274.99999999999989
 31
0.0
  0
LINE
  5
C5
  8
DATA
  6
CONTINUOUS
 62
     7
 10
-47.0
 20
-268.99999999999989
 30
0.0
 11
-160.0
 21
-268.99999999999989
 31
0.0
  0
LINE
  5
C6
  8
DATA
  6
CONTINUOUS
 62
     7
 10
-22.0
 20
-142.9999999999998
 30
0.0
 11
-22.0
 21
-342.99999999999989
 31
0.0
  0
LINE
  5
C7
  8
DATA
  6
CONTINUOUS
 62
     7
 10
-47.0
 20
-160.9999999999998
 30
0.0
 11
-47.0
 21
-324.99999999999989
 31
0.0
  0
LINE
  5
C8
  8
DATA
  6
CONTINUOUS
 62
     7
 10
-175.0
 20
-132.9999999999998
 30
0.0
 11
-32.0
 21
-132.9999999999998
 31
0.0
  0
LINE
  5
C9
  8
DATA
  6
CONTINUOUS
 62
     7
 10
-160.0
 20
-160.9999999999998
 30
0.0
 11
-47.0
 21
-160.9999999999998
 31
0.0
  0
LINE
  5
CA
  8
DATA
  6
CONTINUOUS
 62
     7
 10
-160.0
 20
-210.99999999999989
 30
0.0
 11
-47.0
 21
-210.99999999999989
 31
0.0
  0
LINE
  5
CB
  8
DATA
  6
CONTINUOUS
 62
     7
 10
-160.0
 20
-216.99999999999989
 30
0.0
 11
-47.0
 21
-216.99999999999989
 31
0.0
  0
ARC
  5
CC
  8
DATA
  6
CONTINUOUS
 62
     7
 10
-175.0
 20
-142.9999999999998
 30
0.0
 40
10.0
 50
90.0
 51
180.0
  0
ARC
  5
CD
  8
DATA
  6
CONTINUOUS
 62
     7
 10
-32.0
 20
-142.9999999999998
 30
0.0
 40
10.0
 50
0.0
 51
90.0
  0
ARC
  5
CE
  8
DATA
  6
CONTINUOUS
 62
     7
 10
-175.0
 20
-342.99999999999989
 30
0.0
 40
10.0
 50
180.0
 51
270.0
  0
ARC
  5
CF
  8
DATA
  6
CONTINUOUS
 62
     7
 10
-32.0
 20
-342.99999999999989
 30
0.0
 40
10.0
 50
270.0
 51
0.0
  0
CIRCLE
  5
D0
  8
DATA
  6
CONTINUOUS
 62
     7
 10
-172.5
 20
-146.9999999999998
 30
0.0
 40
3.9999999999997109
  0
CIRCLE
  5
D1
  8
DATA
  6
CONTINUOUS
 62
     7
 10
-172.5
 20
-242.99999999999989
 30
0.0
 40
4.0
  0
CIRCLE
  5
D2
  8
DATA
  6
CONTINUOUS
 62
     7
 10
-172.5
 20
-338.99999999999989
 30
0.0
 40
4.0
  0
CIRCLE
  5
D3
  8
DATA
  6
CONTINUOUS
 62
     7
 10
-34.5
 20
-338.99999999999989
 30
0.0
 40
4.0000000000003268
  0
CIRCLE
  5
D4
  8
DATA
  6
CONTINUOUS
 62
     7
 10
-34.5
 20
-244.99999999999989
 30
0.0
 40
4.0000000000000524
  0
CIRCLE
  5
D5
  8
DATA
  6
CONTINUOUS
 62
     7
 10
-34.5
 20
-146.9999999999998
 30
0.0
 40
3.9999999999997109
  0
LINE
  5
D6
  8
DATA
  6
CONTINUOUS
 62
     7
 10
-465.0
 20
-990.0
 30
0.0
 11
-465.0
 21
77.000000000000085
 31
0.0
  0
LINE
  5
D7
  8
DATA
  6
CONTINUOUS
 62
     7
 10
-490.0
 20
-975.0
 30
0.0
 11
-490.0
 21
62.000000000000099
 31
0.0
  0
LINE
  5
D8
  8
DATA
  6
CONTINUOUS
 62
     7
 10
-504.0
 20
-961.0
 30
0.0
 11
-504.0
 21
48.000000000000107
 31
0.0
  0
LINE
  5
D9
  8
DATA
  6
CONTINUOUS
 62
     7
 10
-925.0
 20
-1000.0
 30
0.0
 11
-475.0
 21
-1000.0
 31
0.0
  0
LINE
  5
DA
  8
DATA
  6
CONTINUOUS
 62
     7
 10
-910.0
 20
-975.0
 30
0.0
 11
-490.0
 21
-975.0
 31
0.0
  0
LINE
  5
DB
  8
DATA
  6
CONTINUOUS
 62
     7
 10
-896.0
 20
-961.0
 30
0.0
 11
-504.0
 21
-961.0
 31
0.0
  0
LINE
  5
DC
  8
DATA
  6
CONTINUOUS
 62
     7
 10
-935.0
 20
77.000000000000085
 30
0.0
 11
-935.0
 21
-990.0
 31
0.0
  0
LINE
  5
DD
  8
DATA
  6
CONTINUOUS
 62
     7
 10
-910.0
 20
62.000000000000099
 30
0.0
 11
-910.0
 21
-975.0
 31
0.0
  0
LINE
  5
DE
  8
DATA
  6
CONTINUOUS
 62
     7
 10
-896.0
 20
48.000000000000107
 30
0.0
 11
-896.0
 21
-961.0
 31
0.0
  0
LINE
  5
DF
  8
DATA
  6
CONTINUOUS
 62
     7
 10
-475.0
 20
87.000000000000114
 30
0.0
 11
-925.0
 21
87.000000000000114
 31
0.0
  0
LINE
  5
E0
  8
DATA
  6
CONTINUOUS
 62
     7
 10
-490.0
 20
62.000000000000099
 30
0.0
 11
-910.0
 21
62.000000000000099
 31
0.0
  0
LINE
  5
E1
  8
DATA
  6
CONTINUOUS
 62
     7
 10
-504.0
 20
48.000000000000107
 30
0.0
 11
-896.0
 21
48.000000000000107
 31
0.0
  0
ARC
  5
E2
  8
DATA
  6
CONTINUOUS
 62
     7
 10
-925.0
 20
77.000000000000085
 30
0.0
 40
10.0
 50
90.0
 51
180.0
  0
ARC
  5
E3
  8
DATA
  6
CONTINUOUS
 62
     7
 10
-475.0
 20
77.000000000000085
 30
0.0
 40
10.0
 50
0.0
 51
90.0
  0
ARC
  5
E4
  8
DATA
  6
CONTINUOUS
 62
     7
 10
-475.0
 20
-990.0
 30
0.0
 40
10.0
 50
270.0
 51
0.0
  0
ARC
  5
E5
  8
DATA
  6
CONTINUOUS
 62
     7
 10
-925.0
 20
-990.0
 30
0.0
 40
10.0
 50
180.0
 51
270.0
  0
LINE
  5
E6
  8
DATA
  6
CONTINUOUS
 62
     7
 10
-720.0
 20
-943.0
 30
0.0
 11
-720.0
 21
-903.0
 31
0.0
  0
LINE
  5
E7
  8
DATA
  6
CONTINUOUS
 62
     7
 10
-680.0
 20
-943.0
 30
0.0
 11
-720.0
 21
-943.0
 31
0.0
  0
LINE
  5
E8
  8
DATA
  6
CONTINUOUS
 62
     7
 10
-680.0
 20
-903.0
 30
0.0
 11
-680.0
 21
-943.0
 31
0.0
  0
LINE
  5
E9
  8
DATA
  6
CONTINUOUS
 62
     7
 10
-720.0
 20
-903.0
 30
0.0
 11
-680.0
 21
-903.0
 31
0.0
  0
LINE
  5
EA
  8
DATA
  6
CONTINUOUS
 62
     7
 10
484.0
 20
-623.99999999999989
 30
0.0
 11
615.99999999999989
 21
-623.99999999999989
 31
0.0
  0
LINE
  5
EB
  8
DATA
  6
CONTINUOUS
 62
     7
 10
495.00000000000011
 20
-637.99999999999989
 30
0.0
 11
604.99999999999977
 21
-637.99999999999989
 31
0.0
  0
LINE
  5
EC
  8
DATA
  6
CONTINUOUS
 62
     7
 10
481.0
 20
-718.99999999999977
 30
0.0
 11
481.0
 21
-626.99999999999977
 31
0.0
  0
LINE
  5
ED
  8
DATA
  6
CONTINUOUS
 62
     7
 10
495.00000000000011
 20
-707.99999999999989
 30
0.0
 11
495.00000000000011
 21
-637.99999999999989
 31
0.0
  0
LINE
  5
EE
  8
DATA
  6
CONTINUOUS
 62
     7
 10
615.99999999999989
 20
-722.0
 30
0.0
 11
484.0
 21
-722.0
 31
0.0
  0
LINE
  5
EF
  8
DATA
  6
CONTINUOUS
 62
     7
 10
604.99999999999977
 20
-707.99999999999989
 30
0.0
 11
495.00000000000011
 21
-707.99999999999989
 31
0.0
  0
LINE
  5
F0
  8
DATA
  6
CONTINUOUS
 62
     7
 10
618.99999999999977
 20
-626.99999999999977
 30
0.0
 11
618.99999999999977
 21
-718.99999999999977
 31
0.0
  0
LINE
  5
F1
  8
DATA
  6
CONTINUOUS
 62
     7
 10
604.99999999999977
 20
-637.99999999999989
 30
0.0
 11
604.99999999999977
 21
-707.99999999999989
 31
0.0
  0
ARC
  5
F2
  8
DATA
  6
CONTINUOUS
 62
     7
 10
615.99999999999989
 20
-718.99999999999977
 30
0.0
 40
3.0
 50
270.0
 51
0.0
  0
ARC
  5
F3
  8
DATA
  6
CONTINUOUS
 62
     7
 10
615.99999999999989
 20
-626.99999999999977
 30
0.0
 40
3.0
 50
0.0
 51
90.0
  0
ARC
  5
F4
  8
DATA
  6
CONTINUOUS
 62
     7
 10
484.0
 20
-626.99999999999977
 30
0.0
 40
3.0
 50
90.0
 51
180.0
  0
ARC
  5
F5
  8
DATA
  6
CONTINUOUS
 62
     7
 10
484.0
 20
-718.99999999999977
 30
0.0
 40
3.0
 50
180.0
 51
270.0
  0
CIRCLE
  5
F6
  8
DATA
  6
CONTINUOUS
 62
     7
 10
571.99999999999977
 20
-658.30000000000007
 30
0.0
 40
11.75
  0
CIRCLE
  5
F7
  8
DATA
  6
CONTINUOUS
 62
     7
 10
581.49999999999977
 20
-670.30000000000018
 30
0.0
 40
2.0
  0
CIRCLE
  5
F8
  8
DATA
  6
CONTINUOUS
 62
     7
 10
562.49999999999989
 20
-646.30000000000007
 30
0.0
 40
2.0
  0
LINE
  5
F9
  8
DATA
  6
CONTINUOUS
 62
     7
 10
560.99999999999977
 20
-642.80000000000007
 30
0.0
 11
582.99999999999989
 21
-642.80000000000007
 31
0.0
  0
LINE
  5
FA
  8
DATA
  6
CONTINUOUS
 62
     7
 10
558.99999999999977
 20
-644.80000000000018
 30
0.0
 11
558.99999999999977
 21
-671.80000000000007
 31
0.0
  0
LINE
  5
FB
  8
DATA
  6
CONTINUOUS
 62
     7
 10
560.99999999999977
 20
-673.80000000000018
 30
0.0
 11
582.99999999999989
 21
-673.80000000000018
 31
0.0
  0
LINE
  5
FC
  8
DATA
  6
CONTINUOUS
 62
     7
 10
584.99999999999977
 20
-644.80000000000018
 30
0.0
 11
584.99999999999977
 21
-671.80000000000007
 31
0.0
  0
ARC
  5
FD
  8
DATA
  6
CONTINUOUS
 62
     7
 10
560.99999999999977
 20
-644.80000000000018
 30
0.0
 40
2.0
 50
90.0
 51
180.0
  0
ARC
  5
FE
  8
DATA
  6
CONTINUOUS
 62
     7
 10
560.99999999999977
 20
-671.80000000000007
 30
0.0
 40
2.0
 50
180.0
 51
270.0
  0
ARC
  5
FF
  8
DATA
  6
CONTINUOUS
 62
     7
 10
582.99999999999989
 20
-671.80000000000007
 30
0.0
 40
2.0
 50
270.0
 51
0.0
  0
ARC
  5
100
  8
DATA
  6
CONTINUOUS
 62
     7
 10
582.99999999999989
 20
-644.80000000000018
 30
0.0
 40
2.0
 50
0.0
 51
90.0
  0
LINE
  5
101
  8
DATA
  6
CONTINUOUS
 62
     7
 10
568.99999999999977
 20
-648.30000000000018
 30
0.0
 11
574.99999999999989
 21
-648.30000000000018
 31
0.0
  0
LINE
  5
102
  8
DATA
  6
CONTINUOUS
 62
     7
 10
569.99999999999989
 20
-668.30000000000007
 30
0.0
 11
573.99999999999989
 21
-668.30000000000007
 31
0.0
  0
LINE
  5
103
  8
DATA
  6
CONTINUOUS
 62
     7
 10
569.99999999999989
 20
-668.30000000000007
 30
0.0
 11
569.99999999999989
 21
-667.10000000000002
 31
0.0
  0
LINE
  5
104
  8
DATA
  6
CONTINUOUS
 62
     7
 10
573.99999999999989
 20
-668.30000000000007
 30
0.0
 11
573.99999999999989
 21
-667.10000000000002
 31
0.0
  0
LINE
  5
105
  8
DATA
  6
CONTINUOUS
 62
     7
 10
568.99999999999977
 20
-648.30000000000018
 30
0.0
 11
568.99999999999977
 21
-650.02715000000012
 31
0.0
  0
LINE
  5
106
  8
DATA
  6
CONTINUOUS
 62
     7
 10
574.99999999999989
 20
-648.30000000000018
 30
0.0
 11
574.99999999999989
 21
-650.02715000000012
 31
0.0
  0
ARC
  5
107
  8
DATA
  6
CONTINUOUS
 62
     7
 10
571.99999999999977
 20
-658.30000000000007
 30
0.0
 40
8.8000026774143176
 50
109.932264150679
 51
257.19616681970012
  0
ARC
  5
108
  8
DATA
  6
CONTINUOUS
 62
     7
 10
571.99999999999977
 20
-658.30000000000007
 30
0.0
 40
8.8000035043459288
 50
282.9999995554212
 51
69.99999423796271
  0
ARC
  5
109
  8
DATA
  6
CONTINUOUS
 62
     7
 10
571.99999999999977
 20
-658.30000000000007
 30
0.0
 40
6.2000021620642309
 50
60.000011535559842
 51
150.00001153556019
  0
LINE
  5
10A
  8
DATA
  6
CONTINUOUS
 62
     7
 10
566.63065999999969
 20
-655.19997000000012
 30
0.0
 11
567.12862000000007
 21
-655.48747000000003
 31
0.0
  0
LINE
  5
10B
  8
DATA
  6
CONTINUOUS
 62
     7
 10
575.09996999999976
 20
-652.9306200000002
 30
0.0
 11
574.81246999999985
 21
-653.4285900000001
 31
0.0
  0
ARC
  5
10C
  8
DATA
  6
CONTINUOUS
 62
     7
 10
571.99999999999977
 20
-658.30000000000007
 30
0.0
 40
6.2000021620642309
 50
240.00001153555979
 51
330.0000115355603
  0
LINE
  5
10D
  8
DATA
  6
CONTINUOUS
 62
     7
 10
568.89999999999975
 20
-663.66935999999998
 30
0.0
 11
569.18749999999977
 21
-663.1713900000002
 31
0.0
  0
LINE
  5
10E
  8
DATA
  6
CONTINUOUS
 62
     7
 10
577.36936999999989
 20
-661.39998000000003
 30
0.0
 11
576.87139999999988
 21
-661.11248000000012
 31
0.0
  0
ARC
  5
10F
  8
DATA
  6
CONTINUOUS
 62
     7
 10
571.99999999999977
 20
-658.30000000000007
 30
0.0
 40
5.6250038315807771
 50
149.9996696821012
 51
240.0002126043025
  0
ARC
  5
110
  8
DATA
  6
CONTINUOUS
 62
     7
 10
571.99999999999977
 20
-658.30000000000007
 30
0.0
 40
5.6249961520342593
 50
330.00021260430242
 51
60.000718243123622
  0
ARC
  5
111
  8
DATA
  6
CONTINUOUS
 62
     7
 10
571.99999999999977
 20
-658.30000000000007
 30
0.0
 40
3.5999900808751581
 50
59.99990885470546
 51
149.99990885470629
  0
ARC
  5
112
  8
DATA
  6
CONTINUOUS
 62
     7
 10
571.99999999999977
 20
-658.30000000000007
 30
0.0
 40
3.5999900808751581
 50
239.9999088547055
 51
329.9999088547064
  0
LINE
  5
113
  8
DATA
  6
CONTINUOUS
 62
     7
 10
573.79997999999978
 20
-655.18231000000003
 30
0.0
 11
573.4499899999995
 21
-655.78852000000018
 31
0.0
  0
LINE
  5
114
  8
DATA
  6
CONTINUOUS
 62
     7
 10
568.88233000000002
 20
-656.49999000000003
 30
0.0
 11
569.48852999999963
 21
-656.84999000000005
 31
0.0
  0
LINE
  5
115
  8
DATA
  6
CONTINUOUS
 62
     7
 10
570.19999999999982
 20
-661.41768000000002
 30
0.0
 11
570.54999999999984
 21
-660.8114700000001
 31
0.0
  0
LINE
  5
116
  8
DATA
  6
CONTINUOUS
 62
     7
 10
575.11768999999981
 20
-660.09998000000019
 30
0.0
 11
574.51147999999966
 21
-659.74999000000003
 31
0.0
  0
ARC
  5
117
  8
DATA
  6
CONTINUOUS
 62
     7
 10
571.99999999999977
 20
-658.30000000000007
 30
0.0
 40
2.9000018208616321
 50
149.99979263403151
 51
240.00023362382649
  0
ARC
  5
118
  8
DATA
  6
CONTINUOUS
 62
     7
 10
571.99999999999977
 20
-658.30000000000007
 30
0.0
 40
2.900000481120534
 50
330.00023362382979
 51
59.999792634027699
  0
LINE
  5
119
  8
DATA
  6
CONTINUOUS
 62
     7
 10
581.49999999999977
 20
-669.30000000000018
 30
0.0
 11
581.49999999999977
 21
-671.30000000000007
 31
0.0
  0
LINE
  5
11A
  8
DATA
  6
CONTINUOUS
 62
     7
 10
580.49999999999977
 20
-670.30000000000018
 30
0.0
 11
582.49999999999989
 21
-670.30000000000018
 31
0.0
  0
LINE
  5
11B
  8
DATA
  6
CONTINUOUS
 62
     7
 10
562.49999999999989
 20
-645.30000000000018
 30
0.0
 11
562.49999999999989
 21
-647.30000000000007
 31
0.0
  0
LINE
  5
11C
  8
DATA
  6
CONTINUOUS
 62
     7
 10
561.49999999999989
 20
-646.30000000000007
 30
0.0
 11
563.49999999999977
 21
-646.30000000000007
 31
0.0
  0
CIRCLE
  5
11D
  8
DATA
  6
CONTINUOUS
 62
     7
 10
527.99999999999989
 20
-658.30000000000007
 30
0.0
 40
8.4999999999999982
  0
CIRCLE
  5
11E
  8
DATA
  6
CONTINUOUS
 62
     7
 10
527.99999999999989
 20
-658.30000000000007
 30
0.0
 40
5.2500000000006031
  0
CIRCLE
  5
11F
  8
DATA
  6
CONTINUOUS
 62
     7
 10
527.99999999999989
 20
-658.30000000000007
 30
0.0
 40
4.5000000000005853
  0
CIRCLE
  5
120
  8
DATA
  6
CONTINUOUS
 62
     7
 10
527.99999999999989
 20
-658.30000000000007
 30
0.0
 40
3.4999999999997442
  0
POLYLINE
  5
121
  8
DATA
  6
CONTINUOUS
 62
     7
 66
     1
 10
0.0
 20
0.0
 30
0.0
 70
     1
  0
VERTEX
  5
27D
  8
DATA
  6
CONTINUOUS
 62
     7
 10
536.49999999999989
 20
-658.30000000000007
 30
0.0
  0
VERTEX
  5
27E
  8
DATA
  6
CONTINUOUS
 62
     7
 10
532.24999999999977
 20
-650.93878406783165
 30
0.0
  0
VERTEX
  5
27F
  8
DATA
  6
CONTINUOUS
 62
     7
 10
523.74999999999977
 20
-650.93878406783165
 30
0.0
  0
VERTEX
  5
280
  8
DATA
  6
CONTINUOUS
 62
     7
 10
519.49999999999989
 20
-658.30000000000007
 30
0.0
  0
VERTEX
  5
281
  8
DATA
  6
CONTINUOUS
 62
     7
 10
523.74999999999977
 20
-665.66121593216735
 30
0.0
  0
VERTEX
  5
282
  8
DATA
  6
CONTINUOUS
 62
     7
 10
532.24999999999977
 20
-665.66121593216735
 30
0.0
  0
SEQEND
  5
283
  8
DATA
  6
CONTINUOUS
 62
     7
  0
TEXT
  5
12A
  8
DATA
 62
     7
 10
543.94937065972215
 20
-657.99510904947942
 30
0.0
 40
2.0360514322916661
  1
IN/OUT
 41
0.7
 72
     1
 11
547.74999999999989
 21
-656.97708333333355
 31
0.0
 73
     2
  0
TEXT
  5
12B
  8
DATA
 62
     7
 10
537.34577718098944
 20
-660.64094238281245
 30
0.0
 40
2.0360514322916661
  1
(PARALLEL JACKS)
 41
0.7
 72
     1
 11
547.74999999999989
 21
-659.6229166666667
 31
0.0
 73
     2
  0
TEXT
  5
12C
  8
DATA
 62
     7
 10
509.88549397786471
 20
-691.85407714843757
 30
0.0
 40
6.108154296875
  1
JRX225
 41
0.7
 72
     1
 11
522.00000000000011
 21
-688.80000000000007
 31
0.0
 73
     2
  0
TEXT
  5
12D
  8
DATA
 62
     7
 10
500.344027257493
 20
-642.96699999999987
 30
0.0
 40
2.6548828124999999
  1
Recommended Amplifier Power
 41
0.7
 11
500.344027257493
 21
-640.31211718750001
 31
0.0
 73
     3
  0
TEXT
  5
12E
  8
DATA
 62
     7
 10
500.344027257493
 20
-646.41700000000014
 30
0.0
 40
2.6548828124999999
  1
500 - 1,000 watts , 4 ohms
 41
0.7
 11
500.344027257493
 21
-643.76211718750005
 31
0.0
 73
     3
  0
CIRCLE
  5
12F
  8
DATA
  6
CONTINUOUS
 62
     7
 10
612.75000000000011
 20
-715.99999999999989
 30
0.0
 40
3.999999999999944
  0
LINE
  5
130
  8
DATA
  6
CONTINUOUS
 62
     7
 10
612.75000000000011
 20
-718.49999999999977
 30
0.0
 11
612.75000000000011
 21
-713.49999999999977
 31
0.0
  0
LINE
  5
131
  8
DATA
  6
CONTINUOUS
 62
     7
 10
610.25
 20
-715.99999999999989
 30
0.0
 11
615.25000000000011
 21
-715.99999999999989
 31
0.0
  0
CIRCLE
  5
132
  8
DATA
  6
CONTINUOUS
 62
     7
 10
612.75000000000011
 20
-629.99999999999977
 30
0.0
 40
3.999999999999944
  0
LINE
  5
133
  8
DATA
  6
CONTINUOUS
 62
     7
 10
612.75000000000011
 20
-632.49999999999989
 30
0.0
 11
612.75000000000011
 21
-627.49999999999977
 31
0.0
  0
LINE
  5
134
  8
DATA
  6
CONTINUOUS
 62
     7
 10
610.25
 20
-629.99999999999977
 30
0.0
 11
615.25000000000011
 21
-629.99999999999977
 31
0.0
  0
CIRCLE
  5
135
  8
DATA
  6
CONTINUOUS
 62
     7
 10
550.75
 20
-715.99999999999989
 30
0.0
 40
3.999999999999944
  0
LINE
  5
136
  8
DATA
  6
CONTINUOUS
 62
     7
 10
550.75
 20
-718.49999999999977
 30
0.0
 11
550.75
 21
-713.49999999999977
 31
0.0
  0
LINE
  5
137
  8
DATA
  6
CONTINUOUS
 62
     7
 10
548.24999999999989
 20
-715.99999999999989
 30
0.0
 11
553.24999999999989
 21
-715.99999999999989
 31
0.0
  0
CIRCLE
  5
138
  8
DATA
  6
CONTINUOUS
 62
     7
 10
550.75
 20
-629.99999999999977
 30
0.0
 40
3.999999999999944
  0
LINE
  5
139
  8
DATA
  6
CONTINUOUS
 62
     7
 10
550.75
 20
-632.49999999999989
 30
0.0
 11
550.75
 21
-627.49999999999977
 31
0.0
  0
LINE
  5
13A
  8
DATA
  6
CONTINUOUS
 62
     7
 10
548.24999999999989
 20
-629.99999999999977
 30
0.0
 11
553.24999999999989
 21
-629.99999999999977
 31
0.0
  0
CIRCLE
  5
13B
  8
DATA
  6
CONTINUOUS
 62
     7
 10
488.75
 20
-715.99999999999989
 30
0.0
 40
3.999999999999944
  0
LINE
  5
13C
  8
DATA
  6
CONTINUOUS
 62
     7
 10
488.75
 20
-718.49999999999977
 30
0.0
 11
488.75
 21
-713.49999999999977
 31
0.0
  0
LINE
  5
13D
  8
DATA
  6
CONTINUOUS
 62
     7
 10
486.24999999999989
 20
-715.99999999999989
 30
0.0
 11
491.25
 21
-715.99999999999989
 31
0.0
  0
CIRCLE
  5
13E
  8
DATA
  6
CONTINUOUS
 62
     7
 10
488.75
 20
-629.99999999999977
 30
0.0
 40
3.999999999999944
  0
LINE
  5
13F
  8
DATA
  6
CONTINUOUS
 62
     7
 10
488.75
 20
-632.49999999999989
 30
0.0
 11
488.75
 21
-627.49999999999977
 31
0.0
  0
LINE
  5
140
  8
DATA
  6
CONTINUOUS
 62
     7
 10
486.24999999999989
 20
-629.99999999999977
 30
0.0
 11
491.25
 21
-629.99999999999977
 31
0.0
  0
TEXT
  5
141
  8
DATA
 62
     7
 10
559.92500045895565
 20
-681.36347715737384
 30
0.0
 40
2.6548828124999999
  1
\U+00B12 N/C
 41
0.7
 11
559.92500045895565
 21
-678.70859434487375
 31
0.0
 73
     3
  0
TEXT
  5
142
  8
DATA
 62
     7
 10
559.92500045895565
 20
-677.63003796422561
 30
0.0
 40
2.6548828124999999
  1
\U+00B11 Full-Range
 41
0.7
 11
559.92500045895565
 21
-674.97515515172563
 31
0.0
 73
     3
  0
LINE
  5
143
  8
DATA
  6
CONTINUOUS
 62
     7
 10
-475.0
 20
200.0
 30
0.0
 11
-925.0
 21
200.0
 31
0.0
  0
LINE
  5
144
  8
DATA
  6
CONTINUOUS
 62
     7
 10
-868.75544259714161
 20
638.0
 30
0.0
 11
-531.24455740285805
 21
638.0
 31
0.0
  0
LINE
  5
145
  8
DATA
  6
CONTINUOUS
 62
     7
 10
-934.91068394789932
 20
211.33354553160089
 30
0.0
 11
-878.66612654504104
 21
629.33354553160086
 31
0.0
  0
LINE
  5
146
  8
DATA
  6
CONTINUOUS
 62
     7
 10
-465.0893160521008
 20
211.33354553160089
 30
0.0
 11
-521.33387345495908
 21
629.33354553160086
 31
0.0
  0
ARC
  5
147
  8
DATA
  6
CONTINUOUS
 62
     7
 10
-925.0
 20
210.0
 30
0.0
 40
9.9999999999999911
 50
172.33651757751821
 51
270.0
  0
ARC
  5
148
  8
DATA
  6
CONTINUOUS
 62
     7
 10
-475.0
 20
210.0
 30
0.0
 40
10.0
 50
270.0
 51
7.6634824224817644
  0
ARC
  5
149
  8
DATA
  6
CONTINUOUS
 62
     7
 10
-531.24455740285805
 20
628.0
 30
0.0
 40
9.9999999999998792
 50
7.6634824224818097
 51
89.999999999999986
  0
ARC
  5
14A
  8
DATA
  6
CONTINUOUS
 62
     7
 10
-868.75544259714161
 20
628.0
 30
0.0
 40
10.0
 50
90.0
 51
172.33651757751821
  0
LINE
  5
14B
  8
DATA
  6
CONTINUOUS
 62
     7
 10
-925.0
 20
-1200.0
 30
0.0
 11
-475.0
 21
-1200.0
 31
0.0
  0
LINE
  5
14C
  8
DATA
  6
CONTINUOUS
 62
     7
 10
-531.24455740285805
 20
-1638.0
 30
0.0
 11
-868.75544259714161
 21
-1638.0
 31
0.0
  0
LINE
  5
14D
  8
DATA
  6
CONTINUOUS
 62
     7
 10
-465.0893160521008
 20
-1211.333545531601
 30
0.0
 11
-521.33387345495908
 21
-1629.333545531601
 31
0.0
  0
LINE
  5
14E
  8
DATA
  6
CONTINUOUS
 62
     7
 10
-934.91068394789932
 20
-1211.333545531601
 30
0.0
 11
-878.66612654504104
 21
-1629.333545531601
 31
0.0
  0
ARC
  5
14F
  8
DATA
  6
CONTINUOUS
 62
     7
 10
-475.0
 20
-1210.0
 30
0.0
 40
9.9999999999998792
 50
352.33651757751818
 51
90.0
  0
ARC
  5
150
  8
DATA
  6
CONTINUOUS
 62
     7
 10
-925.0
 20
-1210.0
 30
0.0
 40
10.0
 50
90.0
 51
187.66348242248179
  0
ARC
  5
151
  8
DATA
  6
CONTINUOUS
 62
     7
 10
-868.75544259714161
 20
-1628.0
 30
0.0
 40
9.9999999999998792
 50
187.66348242248179
 51
270.0
  0
ARC
  5
152
  8
DATA
  6
CONTINUOUS
 62
     7
 10
-531.24455740285805
 20
-1628.0
 30
0.0
 40
10.0
 50
270.0
 51
352.33651757751818
  0
CIRCLE
  5
153
  8
DATA
  6
CONTINUOUS
 62
     7
 10
-504.89505646436271
 20
-1235.0
 30
0.0
 40
18.499999999999879
  0
CIRCLE
  5
154
  8
DATA
  6
CONTINUOUS
 62
     7
 10
-504.89505646436271
 20
-1235.0
 30
0.0
 40
17.499999999999812
  0
CIRCLE
  5
155
  8
DATA
  6
CONTINUOUS
 62
     7
 10
-504.89505646436271
 20
-1235.0
 30
0.0
 40
15.499999999999851
  0
CIRCLE
  5
156
  8
DATA
  6
CONTINUOUS
 62
     7
 10
-895.10494353563763
 20
-1235.0
 30
0.0
 40
18.499999999999879
  0
CIRCLE
  5
157
  8
DATA
  6
CONTINUOUS
 62
     7
 10
-895.10494353563763
 20
-1235.0
 30
0.0
 40
17.499999999999812
  0
CIRCLE
  5
158
  8
DATA
  6
CONTINUOUS
 62
     7
 10
-895.10494353563763
 20
-1235.0
 30
0.0
 40
15.499999999999851
  0
CIRCLE
  5
159
  8
DATA
  6
CONTINUOUS
 62
     7
 10
-846.79444125253247
 20
-1603.0
 30
0.0
 40
18.499999999999879
  0
CIRCLE
  5
15A
  8
DATA
  6
CONTINUOUS
 62
     7
 10
-846.79444125253247
 20
-1603.0
 30
0.0
 40
17.499999999999812
  0
CIRCLE
  5
15B
  8
DATA
  6
CONTINUOUS
 62
     7
 10
-846.79444125253247
 20
-1603.0
 30
0.0
 40
15.499999999999851
  0
CIRCLE
  5
15C
  8
DATA
  6
CONTINUOUS
 62
     7
 10
-553.20555874746799
 20
-1603.0
 30
0.0
 40
18.499999999999879
  0
CIRCLE
  5
15D
  8
DATA
  6
CONTINUOUS
 62
     7
 10
-553.20555874746799
 20
-1603.0
 30
0.0
 40
17.499999999999812
  0
CIRCLE
  5
15E
  8
DATA
  6
CONTINUOUS
 62
     7
 10
-553.20555874746799
 20
-1603.0
 30
0.0
 40
15.499999999999851
  0
LINE
  5
15F
  8
DATA
  6
CONTINUOUS
 62
     7
 10
-864.27454050872836
 20
-1010.199007438042
 30
0.0
 11
-865.29444125253247
 21
-1000.0
 31
0.0
  0
LINE
  5
160
  8
DATA
  6
CONTINUOUS
 62
     7
 10
-829.29444125253235
 20
-1010.0
 30
0.0
 11
-864.29444125253235
 21
-1010.0
 31
0.0
  0
LINE
  5
161
  8
DATA
  6
CONTINUOUS
 62
     7
 10
-831.30441637675665
 20
-1012.0
 30
0.0
 11
-862.2844661283084
 21
-1012.0
 31
0.0
  0
LINE
  5
162
  8
DATA
  6
CONTINUOUS
 62
     7
 10
-828.29444125253235
 20
-1000.0
 30
0.0
 11
-829.31434199633668
 21
-1010.199007438042
 31
0.0
  0
ARC
  5
163
  8
DATA
  6
CONTINUOUS
 62
     7
 10
-862.2844661283084
 20
-1010.0
 30
0.0
 40
2.000000000000095
 50
185.710593137497
 51
270.0
  0
ARC
  5
164
  8
DATA
  6
CONTINUOUS
 62
     7
 10
-831.30441637675665
 20
-1010.0
 30
0.0
 40
2.0
 50
270.0
 51
354.28940686250291
  0
LINE
  5
165
  8
DATA
  6
CONTINUOUS
 62
     7
 10
-911.76528223855541
 20
-1010.199007438042
 30
0.0
 11
-912.78518298235963
 21
-1000.0
 31
0.0
  0
LINE
  5
166
  8
DATA
  6
CONTINUOUS
 62
     7
 10
-876.78518298235952
 20
-1010.0
 30
0.0
 11
-911.78518298235963
 21
-1010.0
 31
0.0
  0
LINE
  5
167
  8
DATA
  6
CONTINUOUS
 62
     7
 10
-878.79515810658359
 20
-1012.0
 30
0.0
 11
-909.77520785813522
 21
-1012.0
 31
0.0
  0
LINE
  5
168
  8
DATA
  6
CONTINUOUS
 62
     7
 10
-875.78518298235952
 20
-1000.0
 30
0.0
 11
-876.80508372616339
 21
-1010.199007438042
 31
0.0
  0
ARC
  5
169
  8
DATA
  6
CONTINUOUS
 62
     7
 10
-909.77520785813522
 20
-1010.0
 30
0.0
 40
2.000000000000095
 50
185.710593137497
 51
270.0
  0
ARC
  5
16A
  8
DATA
  6
CONTINUOUS
 62
     7
 10
-878.79515810658359
 20
-1010.0
 30
0.0
 40
2.0
 50
270.0
 51
354.28940686250291
  0
LINE
  5
16B
  8
DATA
  6
CONTINUOUS
 62
     7
 10
-535.72545949127152
 20
-1010.199007438042
 30
0.0
 11
-534.70555874746731
 21
-1000.0
 31
0.0
  0
LINE
  5
16C
  8
DATA
  6
CONTINUOUS
 62
     7
 10
-570.70555874746719
 20
-1010.0
 30
0.0
 11
-535.70555874746731
 21
-1010.0
 31
0.0
  0
LINE
  5
16D
  8
DATA
  6
CONTINUOUS
 62
     7
 10
-568.69558362324324
 20
-1012.0
 30
0.0
 11
-537.71553387169149
 21
-1012.0
 31
0.0
  0
LINE
  5
16E
  8
DATA
  6
CONTINUOUS
 62
     7
 10
-571.70555874746731
 20
-1000.0
 30
0.0
 11
-570.68565800366321
 21
-1010.199007438042
 31
0.0
  0
ARC
  5
16F
  8
DATA
  6
CONTINUOUS
 62
     7
 10
-537.71553387169149
 20
-1010.0
 30
0.0
 40
2.0
 50
270.0
 51
354.28940686250291
  0
ARC
  5
170
  8
DATA
  6
CONTINUOUS
 62
     7
 10
-568.69558362324324
 20
-1010.0
 30
0.0
 40
2.000000000000095
 50
185.710593137497
 51
270.0
  0
LINE
  5
171
  8
DATA
  6
CONTINUOUS
 62
     7
 10
-488.23471776144447
 20
-1010.199007438042
 30
0.0
 11
-487.21481701764048
 21
-1000.0
 31
0.0
  0
LINE
  5
172
  8
DATA
  6
CONTINUOUS
 62
     7
 10
-523.21481701764037
 20
-1010.0
 30
0.0
 11
-488.21481701764048
 21
-1010.0
 31
0.0
  0
LINE
  5
173
  8
DATA
  6
CONTINUOUS
 62
     7
 10
-521.2048418934163
 20
-1012.0
 30
0.0
 11
-490.22479214186478
 21
-1012.0
 31
0.0
  0
LINE
  5
174
  8
DATA
  6
CONTINUOUS
 62
     7
 10
-524.21481701764037
 20
-1000.0
 30
0.0
 11
-523.19491627383638
 21
-1010.199007438042
 31
0.0
  0
ARC
  5
175
  8
DATA
  6
CONTINUOUS
 62
     7
 10
-490.22479214186478
 20
-1010.0
 30
0.0
 40
2.0
 50
270.0
 51
354.28940686250291
  0
ARC
  5
176
  8
DATA
  6
CONTINUOUS
 62
     7
 10
-521.2048418934163
 20
-1010.0
 30
0.0
 40
2.000000000000095
 50
185.710593137497
 51
270.0
  0
LINE
  5
177
  8
DATA
  6
CONTINUOUS
 62
     7
 10
-247.5199007438041
 20
-1010.199007438042
 30
0.0
 11
-246.5
 21
-1000.0
 31
0.0
  0
LINE
  5
178
  8
DATA
  6
CONTINUOUS
 62
     7
 10
-282.5
 20
-1010.0
 30
0.0
 11
-247.5
 21
-1010.0
 31
0.0
  0
LINE
  5
179
  8
DATA
  6
CONTINUOUS
 62
     7
 10
-280.49002487577582
 20
-1012.0
 30
0.0
 11
-249.5099751242241
 21
-1012.0
 31
0.0
  0
LINE
  5
17A
  8
DATA
  6
CONTINUOUS
 62
     7
 10
-283.5
 20
-1000.0
 30
0.0
 11
-282.4800992561959
 21
-1010.199007438042
 31
0.0
  0
ARC
  5
17B
  8
DATA
  6
CONTINUOUS
 62
     7
 10
-249.5099751242241
 20
-1010.0
 30
0.0
 40
2.0
 50
270.0
 51
354.28940686250291
  0
ARC
  5
17C
  8
DATA
  6
CONTINUOUS
 62
     7
 10
-280.49002487577582
 20
-1010.0
 30
0.0
 40
2.000000000000095
 50
185.710593137497
 51
270.0
  0
LINE
  5
17D
  8
DATA
  6
CONTINUOUS
 62
     7
 10
120.4800992561959
 20
-1010.199007438042
 30
0.0
 11
121.5
 21
-1000.0
 31
0.0
  0
LINE
  5
17E
  8
DATA
  6
CONTINUOUS
 62
     7
 10
85.5
 20
-1010.0
 30
0.0
 11
120.5
 21
-1010.0
 31
0.0
  0
LINE
  5
17F
  8
DATA
  6
CONTINUOUS
 62
     7
 10
87.509975124224184
 20
-1012.0
 30
0.0
 11
118.4900248757758
 21
-1012.0
 31
0.0
  0
LINE
  5
180
  8
DATA
  6
CONTINUOUS
 62
     7
 10
84.500000000000014
 20
-1000.0
 30
0.0
 11
85.519900743804087
 21
-1010.199007438042
 31
0.0
  0
ARC
  5
181
  8
DATA
  6
CONTINUOUS
 62
     7
 10
118.4900248757758
 20
-1010.0
 30
0.0
 40
2.0
 50
270.0
 51
354.28940686250291
  0
ARC
  5
182
  8
DATA
  6
CONTINUOUS
 62
     7
 10
87.509975124224184
 20
-1010.0
 30
0.0
 40
2.000000000000095
 50
185.710593137497
 51
270.0
  0
LINE
  5
183
  8
DATA
  6
CONTINUOUS
 62
     7
 10
325.0
 20
-1000.0
 30
0.0
 11
775.0
 21
-1000.0
 31
0.0
  0
LINE
  5
184
  8
DATA
  6
CONTINUOUS
 62
     7
 10
385.72545949127152
 20
-1010.199007438042
 30
0.0
 11
384.70555874746742
 21
-1000.0
 31
0.0
  0
LINE
  5
185
  8
DATA
  6
CONTINUOUS
 62
     7
 10
420.70555874746731
 20
-1010.0
 30
0.0
 11
385.70555874746742
 21
-1010.0
 31
0.0
  0
LINE
  5
186
  8
DATA
  6
CONTINUOUS
 62
     7
 10
418.69558362324312
 20
-1012.0
 30
0.0
 11
387.7155338716916
 21
-1012.0
 31
0.0
  0
LINE
  5
187
  8
DATA
  6
CONTINUOUS
 62
     7
 10
421.70555874746731
 20
-1000.0
 30
0.0
 11
420.68565800366332
 21
-1010.199007438042
 31
0.0
  0
ARC
  5
188
  8
DATA
  6
CONTINUOUS
 62
     7
 10
387.7155338716916
 20
-1010.0
 30
0.0
 40
2.000000000000095
 50
185.710593137497
 51
270.0
  0
ARC
  5
189
  8
DATA
  6
CONTINUOUS
 62
     7
 10
418.69558362324312
 20
-1010.0
 30
0.0
 40
2.0
 50
270.0
 51
354.28940686250291
  0
LINE
  5
18A
  8
DATA
  6
CONTINUOUS
 62
     7
 10
338.23471776144447
 20
-1010.199007438042
 30
0.0
 11
337.21481701764048
 21
-1000.0
 31
0.0
  0
LINE
  5
18B
  8
DATA
  6
CONTINUOUS
 62
     7
 10
373.21481701764048
 20
-1010.0
 30
0.0
 11
338.21481701764048
 21
-1010.0
 31
0.0
  0
LINE
  5
18C
  8
DATA
  6
CONTINUOUS
 62
     7
 10
371.2048418934163
 20
-1012.0
 30
0.0
 11
340.22479214186473
 21
-1012.0
 31
0.0
  0
LINE
  5
18D
  8
DATA
  6
CONTINUOUS
 62
     7
 10
374.2148170176406
 20
-1000.0
 30
0.0
 11
373.19491627383638
 21
-1010.199007438042
 31
0.0
  0
ARC
  5
18E
  8
DATA
  6
CONTINUOUS
 62
     7
 10
340.22479214186473
 20
-1010.0
 30
0.0
 40
2.000000000000095
 50
185.710593137497
 51
270.0
  0
ARC
  5
18F
  8
DATA
  6
CONTINUOUS
 62
     7
 10
371.2048418934163
 20
-1010.0
 30
0.0
 40
2.0
 50
270.0
 51
354.28940686250291
  0
LINE
  5
190
  8
DATA
  6
CONTINUOUS
 62
     7
 10
714.27454050872848
 20
-1010.199007438042
 30
0.0
 11
715.29444125253235
 21
-1000.0
 31
0.0
  0
LINE
  5
191
  8
DATA
  6
CONTINUOUS
 62
     7
 10
679.29444125253235
 20
-1010.0
 30
0.0
 11
714.29444125253235
 21
-1010.0
 31
0.0
  0
LINE
  5
192
  8
DATA
  6
CONTINUOUS
 62
     7
 10
681.30441637675676
 20
-1012.0
 30
0.0
 11
712.2844661283084
 21
-1012.0
 31
0.0
  0
LINE
  5
193
  8
DATA
  6
CONTINUOUS
 62
     7
 10
678.29444125253235
 20
-1000.0
 30
0.0
 11
679.31434199633668
 21
-1010.199007438042
 31
0.0
  0
ARC
  5
194
  8
DATA
  6
CONTINUOUS
 62
     7
 10
712.2844661283084
 20
-1010.0
 30
0.0
 40
2.0
 50
270.0
 51
354.28940686250291
  0
ARC
  5
195
  8
DATA
  6
CONTINUOUS
 62
     7
 10
681.30441637675676
 20
-1010.0
 30
0.0
 40
2.000000000000095
 50
185.710593137497
 51
270.0
  0
LINE
  5
196
  8
DATA
  6
CONTINUOUS
 62
     7
 10
761.7652822385553
 20
-1010.199007438042
 30
0.0
 11
762.78518298235952
 21
-1000.0
 31
0.0
  0
LINE
  5
197
  8
DATA
  6
CONTINUOUS
 62
     7
 10
726.78518298235952
 20
-1010.0
 30
0.0
 11
761.78518298235952
 21
-1010.0
 31
0.0
  0
LINE
  5
198
  8
DATA
  6
CONTINUOUS
 62
     7
 10
728.79515810658359
 20
-1012.0
 30
0.0
 11
759.77520785813533
 21
-1012.0
 31
0.0
  0
LINE
  5
199
  8
DATA
  6
CONTINUOUS
 62
     7
 10
725.78518298235952
 20
-1000.0
 30
0.0
 11
726.80508372616339
 21
-1010.199007438042
 31
0.0
  0
ARC
  5
19A
  8
DATA
  6
CONTINUOUS
 62
     7
 10
759.77520785813533
 20
-1010.0
 30
0.0
 40
2.0
 50
270.0
 51
354.28940686250291
  0
ARC
  5
19B
  8
DATA
  6
CONTINUOUS
 62
     7
 10
728.79515810658359
 20
-1010.0
 30
0.0
 40
2.000000000000095
 50
185.710593137497
 51
270.0
  0
LINE
  5
19C
  8
DATA
  6
CONTINUOUS
 62
     7
 10
150.00000000000119
 20
875.0
 30
0.0
 11
1249.9999999999991
 21
875.0
 31
0.0
  0
LINE
  5
19D
  8
DATA
  6
CONTINUOUS
 62
     7
 10
150.00000000000119
 20
175.0
 30
0.0
 11
150.00000000000119
 21
875.0
 31
0.0
  0
LINE
  5
19E
  8
DATA
  6
CONTINUOUS
 62
     7
 10
1249.9999999999991
 20
175.0
 30
0.0
 11
150.00000000000119
 21
175.0
 31
0.0
  0
LINE
  5
19F
  8
DATA
  6
CONTINUOUS
 62
     7
 10
1249.9999999999991
 20
875.0
 30
0.0
 11
1249.9999999999991
 21
175.0
 31
0.0
  0
CIRCLE
  5
1A0
  8
DATA
  6
CONTINUOUS
 62
     7
 10
919.99999999999864
 20
671.99999999999807
 30
0.0
 40
117.5
  0
CIRCLE
  5
1A1
  8
DATA
  6
CONTINUOUS
 62
     7
 10
1014.999999999999
 20
551.99999999999807
 30
0.0
 40
20.0
  0
CIRCLE
  5
1A2
  8
DATA
  6
CONTINUOUS
 62
     7
 10
824.99999999999886
 20
791.99999999999818
 30
0.0
 40
20.0
  0
LINE
  5
1A3
  8
DATA
  6
CONTINUOUS
 62
     7
 10
809.99999999999898
 20
826.99999999999807
 30
0.0
 11
1029.9999999999991
 21
826.99999999999807
 31
0.0
  0
LINE
  5
1A4
  8
DATA
  6
CONTINUOUS
 62
     7
 10
789.99999999999886
 20
806.99999999999818
 30
0.0
 11
789.99999999999886
 21
536.99999999999818
 31
0.0
  0
LINE
  5
1A5
  8
DATA
  6
CONTINUOUS
 62
     7
 10
809.99999999999898
 20
516.99999999999818
 30
0.0
 11
1029.9999999999991
 21
516.99999999999818
 31
0.0
  0
LINE
  5
1A6
  8
DATA
  6
CONTINUOUS
 62
     7
 10
1049.9999999999991
 20
806.99999999999818
 30
0.0
 11
1049.9999999999991
 21
536.99999999999818
 31
0.0
  0
ARC
  5
1A7
  8
DATA
  6
CONTINUOUS
 62
     7
 10
809.99999999999898
 20
806.99999999999818
 30
0.0
 40
20.0
 50
90.0
 51
180.0
  0
ARC
  5
1A8
  8
DATA
  6
CONTINUOUS
 62
     7
 10
809.99999999999898
 20
536.99999999999818
 30
0.0
 40
20.0
 50
180.0
 51
270.0
  0
ARC
  5
1A9
  8
DATA
  6
CONTINUOUS
 62
     7
 10
1029.9999999999991
 20
536.99999999999818
 30
0.0
 40
20.0
 50
270.0
 51
0.0
  0
ARC
  5
1AA
  8
DATA
  6
CONTINUOUS
 62
     7
 10
1029.9999999999991
 20
806.99999999999818
 30
0.0
 40
20.0
 50
0.0
 51
90.0
  0
LINE
  5
1AB
  8
DATA
  6
CONTINUOUS
 62
     7
 10
889.99999999999886
 20
771.99999999999807
 30
0.0
 11
949.99999999999875
 21
771.99999999999807
 31
0.0
  0
LINE
  5
1AC
  8
DATA
  6
CONTINUOUS
 62
     7
 10
899.99999999999875
 20
571.99999999999807
 30
0.0
 11
939.99999999999875
 21
571.99999999999807
 31
0.0
  0
LINE
  5
1AD
  8
DATA
  6
CONTINUOUS
 62
     7
 10
899.99999999999875
 20
571.99999999999807
 30
0.0
 11
899.99999999999875
 21
583.99999999999852
 31
0.0
  0
LINE
  5
1AE
  8
DATA
  6
CONTINUOUS
 62
     7
 10
939.99999999999875
 20
571.99999999999807
 30
0.0
 11
939.99999999999875
 21
583.99999999999852
 31
0.0
  0
LINE
  5
1AF
  8
DATA
  6
CONTINUOUS
 62
     7
 10
889.99999999999886
 20
771.99999999999807
 30
0.0
 11
889.99999999999886
 21
754.72849999999755
 31
0.0
  0
LINE
  5
1B0
  8
DATA
  6
CONTINUOUS
 62
     7
 10
949.99999999999875
 20
771.99999999999807
 30
0.0
 11
949.99999999999875
 21
754.72849999999755
 31
0.0
  0
ARC
  5
1B1
  8
DATA
  6
CONTINUOUS
 62
     7
 10
919.99999999999864
 20
671.99999999999807
 30
0.0
 40
88.000026774143123
 50
109.932264150679
 51
257.19616681970012
  0
ARC
  5
1B2
  8
DATA
  6
CONTINUOUS
 62
     7
 10
919.99999999999864
 20
671.99999999999807
 30
0.0
 40
88.000035043459306
 50
282.9999995554212
 51
69.999994237962682
  0
ARC
  5
1B3
  8
DATA
  6
CONTINUOUS
 62
     7
 10
919.99999999999864
 20
671.99999999999807
 30
0.0
 40
62.000021620642322
 50
60.000011535559842
 51
150.00001153556011
  0
LINE
  5
1B4
  8
DATA
  6
CONTINUOUS
 62
     7
 10
866.30659999999955
 20
703.00029999999754
 30
0.0
 11
871.2862000000008
 21
700.12529999999845
 31
0.0
  0
LINE
  5
1B5
  8
DATA
  6
CONTINUOUS
 62
     7
 10
950.99969999999871
 20
725.69379999999785
 30
0.0
 11
948.12469999999973
 21
720.71409999999776
 31
0.0
  0
ARC
  5
1B6
  8
DATA
  6
CONTINUOUS
 62
     7
 10
919.99999999999864
 20
671.99999999999807
 30
0.0
 40
62.000021620642258
 50
240.00001153555991
 51
330.00001153556019
  0
LINE
  5
1B7
  8
DATA
  6
CONTINUOUS
 62
     7
 10
888.9999999999975
 20
618.30639999999789
 30
0.0
 11
891.87499999999898
 21
623.28609999999799
 31
0.0
  0
LINE
  5
1B8
  8
DATA
  6
CONTINUOUS
 62
     7
 10
973.69370000000015
 20
641.00019999999836
 30
0.0
 11
968.7139999999988
 21
643.87519999999756
 31
0.0
  0
ARC
  5
1B9
  8
DATA
  6
CONTINUOUS
 62
     7
 10
919.99999999999864
 20
671.99999999999807
 30
0.0
 40
56.250038315807679
 50
149.99966968210111
 51
240.0002126043027
  0
ARC
  5
1BA
  8
DATA
  6
CONTINUOUS
 62
     7
 10
919.99999999999864
 20
671.99999999999807
 30
0.0
 40
56.249961520342602
 50
330.00021260430242
 51
60.000718243123622
  0
ARC
  5
1BB
  8
DATA
  6
CONTINUOUS
 62
     7
 10
919.99999999999864
 20
671.99999999999807
 30
0.0
 40
35.999900808751583
 50
59.99990885470546
 51
149.99990885470629
  0
ARC
  5
1BC
  8
DATA
  6
CONTINUOUS
 62
     7
 10
919.99999999999864
 20
671.99999999999807
 30
0.0
 40
35.999900808751583
 50
239.9999088547055
 51
329.99990885470652
  0
LINE
  5
1BD
  8
DATA
  6
CONTINUOUS
 62
     7
 10
937.9997999999988
 20
703.17689999999845
 30
0.0
 11
934.49989999999718
 21
697.11479999999835
 31
0.0
  0
LINE
  5
1BE
  8
DATA
  6
CONTINUOUS
 62
     7
 10
888.82330000000024
 20
690.0000999999985
 30
0.0
 11
894.88529999999741
 21
686.50009999999838
 31
0.0
  0
LINE
  5
1BF
  8
DATA
  6
CONTINUOUS
 62
     7
 10
901.9999999999992
 20
640.82319999999856
 30
0.0
 11
905.49999999999829
 21
646.88529999999776
 31
0.0
  0
LINE
  5
1C0
  8
DATA
  6
CONTINUOUS
 62
     7
 10
951.17689999999675
 20
654.00019999999813
 30
0.0
 11
945.11479999999756
 21
657.5000999999985
 31
0.0
  0
ARC
  5
1C1
  8
DATA
  6
CONTINUOUS
 62
     7
 10
919.99999999999864
 20
671.99999999999807
 30
0.0
 40
29.000018208616329
 50
149.99979263403151
 51
240.00023362382649
  0
ARC
  5
1C2
  8
DATA
  6
CONTINUOUS
 62
     7
 10
919.99999999999864
 20
671.99999999999807
 30
0.0
 40
29.000004811205361
 50
330.00023362382979
 51
59.999792634027472
  0
LINE
  5
1C3
  8
DATA
  6
CONTINUOUS
 62
     7
 10
1014.999999999999
 20
561.99999999999818
 30
0.0
 11
1014.999999999999
 21
541.99999999999818
 31
0.0
  0
LINE
  5
1C4
  8
DATA
  6
CONTINUOUS
 62
     7
 10
1004.999999999999
 20
551.99999999999807
 30
0.0
 11
1024.9999999999991
 21
551.99999999999807
 31
0.0
  0
LINE
  5
1C5
  8
DATA
  6
CONTINUOUS
 62
     7
 10
824.99999999999886
 20
801.99999999999807
 30
0.0
 11
824.99999999999886
 21
781.99999999999807
 31
0.0
  0
LINE
  5
1C6
  8
DATA
  6
CONTINUOUS
 62
     7
 10
814.99999999999886
 20
791.99999999999818
 30
0.0
 11
834.99999999999898
 21
791.99999999999818
 31
0.0
  0
CIRCLE
  5
1C7
  8
DATA
  6
CONTINUOUS
 62
     7
 10
479.99999999999892
 20
671.99999999999807
 30
0.0
 40
84.999999999999986
  0
CIRCLE
  5
1C8
  8
DATA
  6
CONTINUOUS
 62
     7
 10
479.99999999999892
 20
671.99999999999807
 30
0.0
 40
52.500000000006033
  0
CIRCLE
  5
1C9
  8
DATA
  6
CONTINUOUS
 62
     7
 10
479.99999999999892
 20
671.99999999999807
 30
0.0
 40
45.000000000005862
  0
CIRCLE
  5
1CA
  8
DATA
  6
CONTINUOUS
 62
     7
 10
479.99999999999892
 20
671.99999999999807
 30
0.0
 40
34.999999999997442
  0
POLYLINE
  5
1CB
  8
DATA
  6
CONTINUOUS
 62
     7
 66
     1
 10
0.0
 20
0.0
 30
0.0
 70
     1
  0
VERTEX
  5
284
  8
DATA
  6
CONTINUOUS
 62
     7
 10
564.99999999999886
 20
671.99999999999807
 30
0.0
  0
VERTEX
  5
285
  8
DATA
  6
CONTINUOUS
 62
     7
 10
522.49999999999886
 20
745.61215932168125
 30
0.0
  0
VERTEX
  5
286
  8
DATA
  6
CONTINUOUS
 62
     7
 10
437.49999999999892
 20
745.61215932168125
 30
0.0
  0
VERTEX
  5
287
  8
DATA
  6
CONTINUOUS
 62
     7
 10
394.99999999999892
 20
671.99999999999807
 30
0.0
  0
VERTEX
  5
288
  8
DATA
  6
CONTINUOUS
 62
     7
 10
437.49999999999892
 20
598.38784067832398
 30
0.0
  0
VERTEX
  5
289
  8
DATA
  6
CONTINUOUS
 62
     7
 10
522.49999999999886
 20
598.38784067832398
 30
0.0
  0
SEQEND
  5
28A
  8
DATA
  6
CONTINUOUS
 62
     7
  0
TEXT
  5
1D4
  8
DATA
 62
     7
 10
639.49370659722126
 20
675.04890950520519
 30
0.0
 40
20.360514322916661
  1
IN/OUT
 41
0.7
 72
     1
 11
677.49999999999886
 21
685.22916666666345
 31
0.0
 73
     2
  0
TEXT
  5
1D5
  8
DATA
 62
     7
 10
573.45777180989478
 20
648.59057617187204
 30
0.0
 40
20.360514322916661
  1
(PARALLEL JACKS)
 41
0.7
 72
     1
 11
677.49999999999886
 21
658.77083333333042
 31
0.0
 73
     2
  0
TEXT
  5
1D6
  8
DATA
 62
     7
 10
298.85493977864701
 20
336.45922851562187
 30
0.0
 40
61.08154296875
  1
JRX225
 41
0.7
 72
     1
 11
420.00000000000108
 21
366.99999999999687
 31
0.0
 73
     2
  0
TEXT
  5
1D7
  8
DATA
 62
     7
 10
203.44027257493059
 20
825.32999999999879
 30
0.0
 40
26.548828125000011
  1
Recommended Amplifier Power
 41
0.7
 11
203.44027257493059
 21
851.8788281249989
 31
0.0
 73
     3
  0
TEXT
  5
1D8
  8
DATA
 62
     7
 10
203.44027257493059
 20
790.8299999999989
 30
0.0
 40
26.548828125000011
  1
500 - 1,000 watts , 4 ohms
 41
0.7
 11
203.44027257493059
 21
817.37882812499879
 31
0.0
 73
     3
  0
TEXT
  5
1D9
  8
DATA
 62
     7
 10
799.25000458955662
 20
441.36522842626022
 30
0.0
 40
26.548828125000011
  1
\U+00B12 N/C
 41
0.7
 11
799.25000458955662
 21
467.91405655126027
 31
0.0
 73
     3
  0
TEXT
  5
1DA
  8
DATA
 62
     7
 10
799.25000458955662
 20
478.6996203577425
 30
0.0
 40
26.548828125000011
  1
\U+00B11 Full-Range
 41
0.7
 11
799.25000458955662
 21
505.2484484827425
 31
0.0
 73
     3
  0
ENDSEC
  0
EOF
