  0
SECTION
  2
HEADER
  9
$ACADVER
  1
AC1009
  9
$INSBASE
 10
0.0
 20
0.0
 30
0.0
  9
$EXTMIN
 10
-900.05492744973753
 20
-1344.432801395556
 30
-0.0015258207003583
  9
$EXTMAX
 10
900.05493583164025
 20
1331.867842570083
 30
0.0000000349246037
  9
$LIMMIN
 10
0.0
 20
0.0
  9
$LIMMAX
 10
0.0
 20
0.0
  9
$ORTHOMODE
 70
     0
  9
$REGENMODE
 70
     1
  9
$FILLMODE
 70
     1
  9
$QTEXTMODE
 70
     0
  9
$MIRRTEXT
 70
     1
  9
$DRAGMODE
 70
     2
  9
$LTSCALE
 40
50.799999999999997
  9
$OSMODE
 70
   231
  9
$ATTMODE
 70
     1
  9
$TEXTSIZE
 40
0.0
  9
$TRACEWID
 40
1.0
  9
$TEXTSTYLE
  7
STANDARD
  9
$CLAYER
  8
DATA
  9
$CELTYPE
  6
BYBLOCK
  9
$CECOLOR
 62
   256
  9
$DIMSCALE
 40
1.0
  9
$DIMASZ
 40
0.18
  9
$DIMEXO
 40
0.0625
  9
$DIMDLI
 40
0.38
  9
$DIMRND
 40
0.0
  9
$DIMDLE
 40
0.0
  9
$DIMEXE
 40
0.18
  9
$DIMTP
 40
0.0
  9
$DIMTM
 40
0.0
  9
$DIMTXT
 40
0.18
  9
$DIMCEN
 40
0.09
  9
$DIMTSZ
 40
0.0
  9
$DIMTOL
 70
     0
  9
$DIMLIM
 70
     0
  9
$DIMTIH
 70
     1
  9
$DIMTOH
 70
     1
  9
$DIMSE1
 70
     0
  9
$DIMSE2
 70
     0
  9
$DIMTAD
 70
     0
  9
$DIMZIN
 70
     0
  9
$DIMBLK
  1

  9
$DIMASO
 70
     1
  9
$DIMSHO
 70
     1
  9
$DIMPOST
  1

  9
$DIMAPOST
  1

  9
$DIMALT
 70
     0
  9
$DIMALTD
 70
     2
  9
$DIMALTF
 40
25.399999999999999
  9
$DIMLFAC
 40
1.0
  9
$DIMTOFL
 70
     0
  9
$DIMTVP
 40
0.0
  9
$DIMTIX
 70
     0
  9
$DIMSOXD
 70
     0
  9
$DIMSAH
 70
     0
  9
$DIMBLK1
  1

  9
$DIMBLK2
  1

  9
$DIMSTYLE
  2
STANDARD
  9
$DIMCLRD
 70
     0
  9
$DIMCLRE
 70
     0
  9
$DIMCLRT
 70
     0
  9
$DIMTFAC
 40
1.0
  9
$DIMGAP
 40
0.09
  9
$LUNITS
 70
     2
  9
$LUPREC
 70
     4
  9
$SKETCHINC
 40
0.1
  9
$FILLETRAD
 40
0.0
  9
$AUNITS
 70
     0
  9
$AUPREC
 70
     0
  9
$MENU
  1
acad
  9
$ELEVATION
 40
0.0
  9
$PELEVATION
 40
0.0
  9
$THICKNESS
 40
0.0
  9
$LIMCHECK
 70
     0
  9
$BLIPMODE
 70
     0
  9
$CHAMFERA
 40
0.0
  9
$CHAMFERB
 40
0.0
  9
$SKPOLY
 70
     0
  9
$TDCREATE
 40
2456086.4515625001
  9
$TDUPDATE
 40
2456086.4529289808
  9
$TDINDWG
 40
0.0007554861
  9
$TDUSRTIMER
 40
0.0007471644
  9
$USRTIMER
 70
     1
  9
$ANGBASE
 50
0.0
  9
$ANGDIR
 70
     0
  9
$PDMODE
 70
     1
  9
$PDSIZE
 40
-2.0
  9
$PLINEWID
 40
0.0
  9
$COORDS
 70
     2
  9
$SPLFRAME
 70
     0
  9
$SPLINETYPE
 70
     6
  9
$SPLINESEGS
 70
     8
  9
$ATTDIA
 70
     0
  9
$ATTREQ
 70
     1
  9
$HANDLING
 70
     1
  9
$HANDSEED
  5
BA1
  9
$SURFTAB1
 70
     6
  9
$SURFTAB2
 70
     6
  9
$SURFTYPE
 70
     6
  9
$SURFU
 70
     6
  9
$SURFV
 70
     6
  9
$UCSNAME
  2

  9
$UCSORG
 10
0.0
 20
0.0
 30
0.0
  9
$UCSXDIR
 10
1.0
 20
0.0
 30
0.0
  9
$UCSYDIR
 10
0.0
 20
1.0
 30
0.0
  9
$PUCSNAME
  2

  9
$PUCSORG
 10
0.0
 20
0.0
 30
0.0
  9
$PUCSXDIR
 10
1.0
 20
0.0
 30
0.0
  9
$PUCSYDIR
 10
0.0
 20
1.0
 30
0.0
  9
$USERI1
 70
     0
  9
$USERI2
 70
     0
  9
$USERI3
 70
     0
  9
$USERI4
 70
     0
  9
$USERI5
 70
     0
  9
$USERR1
 40
0.0
  9
$USERR2
 40
0.0
  9
$USERR3
 40
0.0
  9
$USERR4
 40
0.0
  9
$USERR5
 40
0.0
  9
$WORLDVIEW
 70
     1
  9
$SHADEDGE
 70
     3
  9
$SHADEDIF
 70
    70
  9
$TILEMODE
 70
     1
  9
$MAXACTVP
 70
    64
  9
$PLIMCHECK
 70
     0
  9
$PEXTMIN
 10
1.0000000000000000E+020
 20
1.0000000000000000E+020
 30
1.0000000000000000E+020
  9
$PEXTMAX
 10
-1.0000000000000000E+020
 20
-1.0000000000000000E+020
 30
-1.0000000000000000E+020
  9
$PLIMMIN
 10
0.0
 20
0.0
  9
$PLIMMAX
 10
12.0
 20
9.0
  9
$UNITMODE
 70
     0
  9
$VISRETAIN
 70
     0
  9
$PLINEGEN
 70
     1
  9
$PSLTSCALE
 70
     0
  0
ENDSEC
  0
SECTION
  2
TABLES
  0
TABLE
  2
VPORT
 70
     1
  0
VPORT
  2
*ACTIVE
 70
     0
 10
0.0
 20
0.0
 11
1.0
 21
1.0
 12
0.0000041909515858
 22
-6.2824794127368468
 13
0.0
 23
0.0
 14
1.0
 24
1.0
 15
0.0
 25
0.0
 16
0.0
 26
0.0
 36
1.0
 17
0.0
 27
0.0
 37
0.0
 40
2697.1009080379108
 41
2.172503242542152
 42
50.0
 43
0.0
 44
0.0
 50
0.0
 51
0.0
 71
     0
 72
  2000
 73
     1
 74
     1
 75
     0
 76
     0
 77
     0
 78
     0
  0
ENDTAB
  0
TABLE
  2
LTYPE
 70
    12
  0
LTYPE
  2
CONTINUOUS
 70
     0
  3
Solid line
 72
    65
 73
     0
 40
0.0
  0
LTYPE
  2
PHANTOM2
 70
     0
  3
___ _ _ ___ _ _ ___ _ _ ___ _ _
 72
    65
 73
     6
 40
1.25
 49
0.625
 49
-0.125
 49
0.125
 49
-0.125
 49
0.125
 49
-0.125
  0
ENDTAB
  0
TABLE
  2
LAYER
 70
     5
  0
LAYER
  2
0
 70
     0
 62
     7
  6
CONTINUOUS
  0
LAYER
  2
DATA
 70
     0
 62
     7
  6
CONTINUOUS
  0
LAYER
  2
HIBINO-BASE
 70
     0
 62
     7
  6
CONTINUOUS
  0
LAYER
  2
SPEC
 70
     0
 62
     7
  6
CONTINUOUS
  0
LAYER
  2
DIMNSIONS
 70
     0
 62
     7
  6
CONTINUOUS
  0
ENDTAB
  0
TABLE
  2
STYLE
 70
     3
  0
STYLE
  2
STANDARD
 70
     0
 40
0.0
 41
1.0
 50
0.0
 71
     0
 42
0.0
  3
txt
  4
BIGFONT.SHX
  0
ENDTAB
  0
TABLE
  2
VIEW
 70
     0
  0
ENDTAB
  0
TABLE
  2
UCS
 70
     0
  0
ENDTAB
  0
TABLE
  2
APPID
 70
     4
  0
APPID
  2
ACAD
 70
     0
  0
APPID
  2
ACADANNOTATIVE
 70
     0
  0
APPID
  2
ACAD_NAV_VCDISPLAY
 70
     0
  0
APPID
  2
ACAD_MLEADERVER
 70
     0
  0
ENDTAB
  0
TABLE
  2
DIMSTYLE
 70
     2
  0
DIMSTYLE
  2
STANDARD
 70
     0
  3

  4

  5

  6

  7

 40
1.0
 41
0.18
 42
0.0625
 43
0.38
 44
0.18
 45
0.0
 46
0.0
 47
0.0
 48
0.0
140
0.18
141
0.09
142
0.0
143
25.399999999999999
144
1.0
145
0.0
146
1.0
147
0.09
 71
     0
 72
     0
 73
     1
 74
     1
 75
     0
 76
     0
 77
     0
 78
     0
170
     0
171
     2
172
     0
173
     0
174
     0
175
     0
176
     0
177
     0
178
     0
  0
ENDTAB
  0
ENDSEC
  0
SECTION
  2
BLOCKS
  0
BLOCK
  8
0
  2
$MODEL_SPACE
 70
     0
 10
0.0
 20
0.0
 30
0.0
  3
$MODEL_SPACE
  1

  0
ENDBLK
  5
979
  8
0
  0
BLOCK
 67
     1
  8
0
  2
$PAPER_SPACE
 70
     0
 10
0.0
 20
0.0
 30
0.0
  3
$PAPER_SPACE
  1

  0
ENDBLK
  5
975
 67
     1
  8
0
  0
ENDSEC
  0
SECTION
  2
ENTITIES
  0
LINE
  5
2C
  8
HIBINO-BASE
  6
CONTINUOUS
 62
     7
 10
-900.0
 20
1331.786335
 30
0.0
 11
900.0
 21
1331.786335
 31
0.0
  0
LINE
  5
2D
  8
HIBINO-BASE
  6
CONTINUOUS
 62
     7
 10
900.0
 20
-1268.213665
 30
0.0
 11
-900.0
 21
-1268.213665
 31
0.0
  0
LINE
  5
2E
  8
HIBINO-BASE
  6
CONTINUOUS
 62
     7
 10
-900.0
 20
-1268.213665
 30
0.0
 11
-900.0
 21
1331.786335
 31
0.0
  0
TEXT
  5
2F
  8
HIBINO-BASE
 62
     7
 10
-828.15999999999985
 20
-1332.3004430000001
 30
0.0
 40
36.000441796874988
  1
Hibino Corporation
 41
0.7
 11
-828.15999999999985
 21
-1296.300001203125
 31
0.0
 73
     3
  0
LINE
  5
30
  8
HIBINO-BASE
  6
CONTINUOUS
 62
     7
 10
900.0
 20
1331.786335
 30
0.0
 11
900.0
 21
-1268.213665
 31
0.0
  0
LINE
  5
31
  8
HIBINO-BASE
  6
CONTINUOUS
 62
     7
 10
0.0
 20
-1043.213665
 30
0.0
 11
900.0
 21
-1043.213665
 31
0.0
  0
LINE
  5
32
  8
HIBINO-BASE
  6
CONTINUOUS
 62
     7
 10
0.0
 20
-1268.213665
 30
0.0
 11
0.0
 21
-1043.213665
 31
0.0
  0
TEXT
  5
33
  8
HIBINO-BASE
 62
     7
 10
8.9999999999999982
 20
-1068.300598333333
 30
0.0
 40
16.288411458333329
  1
NOTE
 41
0.7
 11
9.0
 21
-1052.012186875
 31
0.0
 73
     3
  0
LINE
  5
34
  8
HIBINO-BASE
  6
CONTINUOUS
 62
     7
 10
350.0
 20
-1268.213665
 30
0.0
 11
350.0
 21
-1043.213665
 31
0.0
  0
TEXT
  5
35
  8
HIBINO-BASE
 62
     7
 10
359.0
 20
-1068.300598333333
 30
0.0
 40
16.288411458333329
  1
TITLE
 41
0.7
 11
359.0
 21
-1052.012186875
 31
0.0
 73
     3
  0
TEXT
  5
36
  8
HIBINO-BASE
 62
     7
 10
500.68389999999999
 20
-1332.3004430000001
 30
0.0
 40
36.000441796874988
  1
ヒビノ株式会社
 41
0.7
 11
500.68389999999999
 21
-1296.300001203125
 31
0.0
 73
     3
  0
LINE
  5
37
  8
HIBINO-BASE
  6
CONTINUOUS
 62
     7
 10
0.0
 20
-1168.213665
 30
0.0
 11
900.0
 21
-1168.213665
 31
0.0
  0
TEXT
  5
38
  8
HIBINO-BASE
 62
     7
 10
484.0
 20
-1192.737398333333
 30
0.0
 40
16.288411458333329
  1
DRAWN
 41
0.7
 11
484.0
 21
-1176.4489868749999
 31
0.0
 73
     3
  0
TEXT
  5
39
  8
HIBINO-BASE
 62
     7
 10
234.0
 20
-1192.737398333333
 30
0.0
 40
16.288411458333329
  1
DATE
 41
0.7
 11
234.0
 21
-1176.4489868749999
 31
0.0
 73
     3
  0
TEXT
  5
3A
  8
HIBINO-BASE
 62
     7
 10
134.0
 20
-1192.737398333333
 30
0.0
 40
16.288411458333329
  1
SCALE
 41
0.7
 11
134.0
 21
-1176.4489868749999
 31
0.0
 73
     3
  0
TEXT
  5
3B
  8
HIBINO-BASE
 62
     7
 10
359.0
 20
-1192.737398333333
 30
0.0
 40
16.288411458333329
  1
DESIGN
 41
0.7
 11
359.0
 21
-1176.4489868749999
 31
0.0
 73
     3
  0
TEXT
  5
3C
  8
HIBINO-BASE
 62
     7
 10
734.0
 20
-1192.737398333333
 30
0.0
 40
16.288411458333329
  1
DRAWING NO.
 41
0.7
 11
734.0
 21
-1176.4489868749999
 31
0.0
 73
     3
  0
TEXT
  5
3D
  8
HIBINO-BASE
 62
     7
 10
608.99999999999977
 20
-1192.737398333333
 30
0.0
 40
16.288411458333329
  1
CHECK
 41
0.7
 11
608.99999999999977
 21
-1176.4489868749999
 31
0.0
 73
     3
  0
LINE
  5
3E
  8
HIBINO-BASE
  6
CONTINUOUS
 62
     7
 10
143.75
 20
-1255.713665
 30
0.0
 11
181.25
 21
-1218.213665
 31
0.0
  0
TEXT
  5
3F
  8
HIBINO-BASE
 62
     7
 10
137.5
 20
-1229.3030983333331
 30
0.0
 40
16.288411458333329
  1
1
 41
0.7
 11
137.5
 21
-1213.0146868750001
 31
0.0
 73
     3
  0
LINE
  5
40
  8
HIBINO-BASE
  6
CONTINUOUS
 62
     7
 10
125.0
 20
-1268.213665
 30
0.0
 11
125.0
 21
-1168.213665
 31
0.0
  0
LINE
  5
41
  8
HIBINO-BASE
  6
CONTINUOUS
 62
     7
 10
225.0
 20
-1268.213665
 30
0.0
 11
225.0
 21
-1168.213665
 31
0.0
  0
LINE
  5
42
  8
HIBINO-BASE
  6
CONTINUOUS
 62
     7
 10
475.0
 20
-1168.213665
 30
0.0
 11
475.0
 21
-1268.213665
 31
0.0
  0
LINE
  5
43
  8
HIBINO-BASE
  6
CONTINUOUS
 62
     7
 10
725.0
 20
-1168.213665
 30
0.0
 11
725.0
 21
-1268.213665
 31
0.0
  0
LINE
  5
44
  8
HIBINO-BASE
  6
CONTINUOUS
 62
     7
 10
599.99999999999989
 20
-1268.213665
 30
0.0
 11
599.99999999999989
 21
-1168.213665
 31
0.0
  0
TEXT
  5
45
  8
HIBINO-BASE
 62
     7
 10
233.56540000000001
 20
-1239.5771983333329
 30
0.0
 40
16.288411458333329
  1
'12.05.
 41
0.7
 11
233.56540000000001
 21
-1223.2887868749999
 31
0.0
 73
     3
  0
TEXT
  5
46
  8
HIBINO-BASE
 62
     7
 10
175.0
 20
-1248.0530983333331
 30
0.0
 40
16.288411458333329
  1
10
 41
0.7
 11
175.0
 21
-1231.7646868749989
 31
0.0
 73
     3
  0
TEXT
  5
47
  8
HIBINO-BASE
 62
     7
 10
490.05810011034617
 20
-1239.5771983333329
 30
0.0
 40
16.288411458333329
  1
Ohtake
 41
0.7
 11
490.05810011034617
 21
-1223.2887868749999
 31
0.0
 73
     3
  0
TEXT
  5
48
  8
HIBINO-BASE
 62
     7
 10
38.833333333333492
 20
-1248.453665
 30
0.0
 40
32.576822916666671
  1
A4
 41
0.7
 11
38.833333333333492
 21
-1215.876842083333
 31
0.0
 73
     3
  0
TEXT
  5
49
  8
HIBINO-BASE
 62
     7
 10
9.5833333333333162
 20
-1194.4082149999999
 30
0.0
 40
16.288411458333329
  1
PAPER SIZE
 41
0.7
 11
9.5833333333333197
 21
-1178.119803541666
 31
0.0
 73
     3
  0
LINE
  5
4A
  8
SPEC
  6
CONTINUOUS
 62
     7
 10
-825.0
 20
1231.786335
 30
0.0
 11
650.0
 21
1231.786335
 31
0.0
  0
LINE
  5
4B
  8
SPEC
  6
CONTINUOUS
 62
     7
 10
-825.0
 20
1194.286335
 30
0.0
 11
650.0
 21
1194.286335
 31
0.0
  0
LINE
  5
4C
  8
SPEC
  6
CONTINUOUS
 62
     7
 10
-825.0
 20
1044.286335
 30
0.0
 11
650.0
 21
1044.286335
 31
0.0
  0
LINE
  5
4D
  8
SPEC
  6
CONTINUOUS
 62
     7
 10
-825.0
 20
1081.786335
 30
0.0
 11
650.0
 21
1081.786335
 31
0.0
  0
LINE
  5
4E
  8
SPEC
  6
CONTINUOUS
 62
     7
 10
-825.0
 20
1119.2863349999991
 30
0.0
 11
650.0
 21
1119.2863349999991
 31
0.0
  0
LINE
  5
4F
  8
SPEC
  6
CONTINUOUS
 62
     7
 10
-825.0
 20
1006.786334999999
 30
0.0
 11
650.0
 21
1006.786334999999
 31
0.0
  0
LINE
  5
50
  8
SPEC
  6
CONTINUOUS
 62
     7
 10
-600.0
 20
931.78633499999955
 30
0.0
 11
650.0
 21
931.78633499999955
 31
0.0
  0
LINE
  5
51
  8
SPEC
  6
CONTINUOUS
 62
     7
 10
-825.0
 20
969.28633499999955
 30
0.0
 11
650.0
 21
969.28633499999955
 31
0.0
  0
LINE
  5
52
  8
SPEC
  6
CONTINUOUS
 62
     7
 10
-825.0
 20
894.28633499999955
 30
0.0
 11
650.0
 21
894.28633499999955
 31
0.0
  0
LINE
  5
53
  8
SPEC
  6
CONTINUOUS
 62
     7
 10
-825.0
 20
856.78633499999955
 30
0.0
 11
650.0
 21
856.78633499999955
 31
0.0
  0
LINE
  5
54
  8
SPEC
  6
CONTINUOUS
 62
     7
 10
-825.0
 20
1156.786335
 30
0.0
 11
650.0
 21
1156.786335
 31
0.0
  0
LINE
  5
55
  8
SPEC
  6
CONTINUOUS
 62
     7
 10
-825.0
 20
781.78633500000001
 30
0.0
 11
650.0
 21
781.78633500000001
 31
0.0
  0
LINE
  5
56
  8
SPEC
  6
CONTINUOUS
 62
     7
 10
-825.0
 20
1231.786335
 30
0.0
 11
-825.0
 21
706.78633500000001
 31
0.0
  0
TEXT
  5
57
  8
SPEC
 62
     7
 10
-812.5
 20
1245.7190349999989
 30
0.0
 40
24.4326171875
  1
仕様
 41
0.7
 11
-812.5
 21
1270.1516521875001
 31
0.0
 73
     3
  0
LINE
  5
58
  8
SPEC
  6
CONTINUOUS
 62
     7
 10
-480.0
 20
1231.786335
 30
0.0
 11
-480.0
 21
706.78633500000001
 31
0.0
  0
LINE
  5
59
  8
SPEC
  6
CONTINUOUS
 62
     7
 10
650.0
 20
1231.786335
 30
0.0
 11
650.0
 21
706.78633500000001
 31
0.0
  0
TEXT
  5
5A
  8
SPEC
 62
     7
 10
-471.20103002119617
 20
1203.1275824314141
 30
0.0
 40
19.0031125
  1
2ウェイ・バイアンプ内蔵スタ ジオモニタ (防磁仕様)
 41
0.7
 11
-471.20103002119617
 21
1222.1306949314139
 31
0.0
 73
     3
  0
TEXT
  5
5B
  8
SPEC
 62
     7
 10
-816.13441906045296
 20
1167.0881345980861
 30
0.0
 40
19.0031125
  1
周波数特性(+1/-1.5dB）
 41
0.7
 11
-816.13441906045296
 21
1186.0912470980859
 31
0.0
 73
     3
  0
TEXT
  5
5C
  8
SPEC
 62
     7
 10
-816.14735123849994
 20
1129.1394629612571
 30
0.0
 40
19.0031125
  1
低域ユニット
 41
0.7
 11
-816.14735123849994
 21
1148.1425754612569
 31
0.0
 73
     3
  0
TEXT
  5
5D
  8
SPEC
 62
     7
 10
-816.42509253282685
 20
1091.639763679105
 30
0.0
 40
19.0031125
  1
高域ユニット
 41
0.7
 11
-816.42509253282685
 21
1110.642876179106
 31
0.0
 73
     3
  0
TEXT
  5
5E
  8
SPEC
 62
     7
 10
-816.49317727246535
 20
1054.138260089861
 30
0.0
 40
19.0031125
  1
入力感度(96dB/1m)
 41
0.7
 11
-816.49317727246535
 21
1073.141372589861
 31
0.0
 73
     3
  0
TEXT
  5
5F
  8
SPEC
 62
     7
 10
-816.176730185368
 20
1016.8821447388621
 30
0.0
 40
19.0031125
  1
最大音圧(@1m）
 41
0.7
 11
-816.176730185368
 21
1035.8852572388621
 31
0.0
 73
     3
  0
TEXT
  5
60
  8
SPEC
 62
     7
 10
-817.7513827072496
 20
980.06627860888159
 30
0.0
 40
19.0031125
  1
クロスオーバー
 41
0.7
 11
-817.7513827072496
 21
999.06939110888175
 31
0.0
 73
     3
  0
TEXT
  5
61
  8
SPEC
 62
     7
 10
-816.26316322259981
 20
922.00541914269252
 30
0.0
 40
19.0031125
  1
パワーアンプ出力
 41
0.7
 11
-816.26316322259981
 21
941.00853164269256
 31
0.0
 73
     3
  0
TEXT
  5
62
  8
SPEC
 62
     7
 10
-816.1634930149379
 20
868.26239732863087
 30
0.0
 40
19.0031125
  1
外装色
 41
0.7
 11
-816.1634930149379
 21
887.26550982863102
 31
0.0
 73
     3
  0
TEXT
  5
63
  8
SPEC
 62
     7
 10
-816.4898814462764
 20
829.45166441595688
 30
0.0
 40
19.0031125
  1
入力コネクタ 
 41
0.7
 11
-816.4898814462764
 21
848.45477691595704
 31
0.0
 73
     3
  0
LINE
  5
64
  8
SPEC
  6
CONTINUOUS
 62
     7
 10
-825.0
 20
819.28633499999955
 30
0.0
 11
650.0
 21
819.28633499999955
 31
0.0
  0
LINE
  5
65
  8
SPEC
  6
CONTINUOUS
 62
     7
 10
-825.0
 20
744.28633500000001
 30
0.0
 11
650.0
 21
744.28633500000001
 31
0.0
  0
LINE
  5
66
  8
SPEC
  6
CONTINUOUS
 62
     7
 10
-825.0
 20
706.78633500000001
 30
0.0
 11
650.0
 21
706.78633500000001
 31
0.0
  0
TEXT
  5
67
  8
SPEC
 62
     7
 10
-816.97856915170405
 20
793.57982760681591
 30
0.0
 40
19.0031125
  1
電源
 41
0.7
 11
-816.97856915170405
 21
812.58294010681595
 31
0.0
 73
     3
  0
TEXT
  5
68
  8
SPEC
 62
     7
 10
-471.05117118657489
 20
1166.475926513772
 30
0.0
 40
19.0031125
  1
50Hz～20kHz
 41
0.7
 11
-471.05117118657489
 21
1185.4790390137721
 31
0.0
 73
     3
  0
TEXT
  5
69
  8
SPEC
 62
     7
 10
-471.26182886454552
 20
1129.0027319255871
 30
0.0
 40
19.0031125
  1
218F(口径：8インチ)
 41
0.7
 11
-471.26182886454552
 21
1148.0058444255869
 31
0.0
 73
     3
  0
TEXT
  5
6A
  8
SPEC
 62
     7
 10
-470.80418292323509
 20
1090.626387584646
 30
0.0
 40
19.0031125
  1
053Tis(ダイアフラム径：1インチ)
 41
0.7
 11
-470.80418292323509
 21
1109.6295000846469
 31
0.0
 73
     3
  0
TEXT
  5
6B
  8
SPEC
 62
     7
 10
-470.61286433461612
 20
1054.4298533392951
 30
0.0
 40
19.0031125
  1
+4dB、+8dBu、－10dBVの切替可能
 41
0.7
 11
-470.61286433461612
 21
1073.4329658392951
 31
0.0
 73
     3
  0
TEXT
  5
6C
  8
SPEC
 62
     7
 10
-472.35501738123821
 20
979.3898070834332
 30
0.0
 40
19.0031125
  1
1.7kHz
 41
0.7
 11
-472.35501738123821
 21
998.39291958343335
 31
0.0
 73
     3
  0
TEXT
  5
6D
  8
SPEC
 62
     7
 10
-470.75175829003888
 20
940.14072682900382
 30
0.0
 40
19.0031125
  1
250W,THD+D：0.05%%%以下
 41
0.7
 11
-470.75175829003888
 21
959.14383932900375
 31
0.0
 73
     3
  0
TEXT
  5
6E
  8
SPEC
 62
     7
 10
-470.89660825799848
 20
867.4886626545665
 30
0.0
 40
19.0031125
  1
Smooth dark graphite
 41
0.7
 11
-470.89660825799848
 21
886.49177515456643
 31
0.0
 73
     3
  0
TEXT
  5
6F
  8
SPEC
 62
     7
 10
-473.4385377119512
 20
830.11735167934535
 30
0.0
 40
19.0031125
  1
ノイトリック複合XLR、1/4コネクタ 
 41
0.7
 11
-473.4385377119512
 21
849.1204641793455
 31
0.0
 73
     3
  0
TEXT
  5
70
  8
SPEC
 62
     7
 10
-472.4540962777134
 20
1016.816916425904
 30
0.0
 40
19.0031125
  1
108dB SPL
 41
0.7
 11
-472.4540962777134
 21
1035.8200289259039
 31
0.0
 73
     3
  0
TEXT
  5
71
  8
SPEC
 62
     7
 10
-472.3806913311368
 20
902.87744631380428
 30
0.0
 40
19.0031125
  1
120W,THD+D：0.05%%%以下
 41
0.7
 11
-472.3806913311368
 21
921.88055881380444
 31
0.0
 73
     3
  0
TEXT
  5
72
  8
SPEC
 62
     7
 10
-470.08568523610518
 20
792.02555251816045
 30
0.0
 40
19.0031125
  1
AC100V、50/60Hz
 41
0.7
 11
-470.08568523610518
 21
811.02866501816061
 31
0.0
 73
     3
  0
TEXT
  5
73
  8
SPEC
 62
     7
 10
-591.20521455026301
 20
941.0532149771135
 30
0.0
 40
19.0031125
  1
低域用
 41
0.7
 11
-591.20521455026301
 21
960.05632747711365
 31
0.0
 73
     3
  0
TEXT
  5
74
  8
SPEC
 62
     7
 10
-591.33674809895456
 20
904.45704296049007
 30
0.0
 40
19.0031125
  1
高域用
 41
0.7
 11
-591.33674809895456
 21
923.46015546049023
 31
0.0
 73
     3
  0
TEXT
  5
75
  8
SPEC
 62
     7
 10
-816.73027728307136
 20
1203.7236839418849
 30
0.0
 40
19.0031125
  1
形式
 41
0.7
 11
-816.73027728307136
 21
1222.726796441885
 31
0.0
 73
     3
  0
TEXT
  5
76
  8
SPEC
 62
     7
 10
-470.71317849038007
 20
753.65613312387154
 30
0.0
 40
19.003146701388889
  1
332(W)\U+00D7408(H)\U+00D7306(D)mm(突起部含まず)
 41
0.7
 11
-470.71317849038007
 21
772.65927982526046
 31
0.0
 73
     3
  0
TEXT
  5
77
  8
SPEC
 62
     7
 10
-816.91616552607775
 20
754.94273730234022
 30
0.0
 40
19.003146701388889
  1
寸法
 41
0.7
 11
-816.91616552607775
 21
773.94588400372913
 31
0.0
 73
     3
  0
TEXT
  5
78
  8
SPEC
 62
     7
 10
-816.75045581037716
 20
719.11349245504732
 30
0.0
 40
19.002956669921879
  1
重量
 41
0.7
 11
-816.75045581037716
 21
738.11644912496922
 31
0.0
 73
     3
  0
TEXT
  5
79
  8
SPEC
 62
     7
 10
-471.38311135579141
 20
718.23212203150433
 30
0.0
 40
19.002956669921879
  1
約18kg
 41
0.7
 11
-471.38311135579141
 21
737.23507870142623
 31
0.0
 73
     3
  0
LINE
  5
7A
  8
SPEC
  6
CONTINUOUS
 62
     7
 10
-600.0
 20
894.28633499999955
 30
0.0
 11
-600.0
 21
969.28633499999955
 31
0.0
  0
TEXT
  5
7B
  8
DIMNSIONS
 62
     7
 10
-200.0
 20
-1145.518765
 30
0.0
 40
24.4326171875
  1
(単位：mm)
 41
0.7
 11
-200.0
 21
-1121.0861478125
 31
0.0
 73
     3
  0
LINE
  5
7C
  8
DIMNSIONS
  6
CONTINUOUS
 62
     7
 10
-606.20505642011949
 20
-450.00000000005161
 30
0.0
 11
-695.0
 21
-450.00000000005161
 31
0.0
  0
LINE
  5
7D
  8
DIMNSIONS
  6
CONTINUOUS
 62
     7
 10
-606.20505642011949
 20
-42.000000000100002
 30
0.0
 11
-695.0
 21
-42.000000000100002
 31
0.0
  0
LINE
  5
7E
  8
DIMNSIONS
  6
CONTINUOUS
 62
     7
 10
-675.0
 20
-450.00000000005161
 30
0.0
 11
-675.0
 21
-42.000000000100002
 31
0.0
  0
LINE
  5
7F
  8
DIMNSIONS
  6
CONTINUOUS
 62
     7
 10
-675.0
 20
-450.00000000005161
 30
0.0
 11
-681.7003979515024
 21
-424.993774414114
 31
0.0
  0
LINE
  5
80
  8
DIMNSIONS
  6
CONTINUOUS
 62
     7
 10
-675.0
 20
-450.00000000005161
 30
0.0
 11
-668.2996020484976
 21
-424.993774414114
 31
0.0
  0
LINE
  5
81
  8
DIMNSIONS
  6
CONTINUOUS
 62
     7
 10
-675.0
 20
-42.000000000100002
 30
0.0
 11
-668.2996020484976
 21
-67.006225586037502
 31
0.0
  0
LINE
  5
82
  8
DIMNSIONS
  6
CONTINUOUS
 62
     7
 10
-675.0
 20
-42.000000000100002
 30
0.0
 11
-681.7003979515024
 21
-67.006225586037502
 31
0.0
  0
TEXT
  5
83
  8
DIMNSIONS
 62
     7
 10
-684.93888933046003
 20
-272.45833501558468
 30
0.0
 40
27.14735485771833
  1
408
 50
90.0
 41
0.7
 11
-712.0862441881784
 21
-272.45833501558468
 31
0.0
 73
     3
  0
LINE
  5
84
  8
DIMNSIONS
  6
CONTINUOUS
 62
     7
 10
-600.0000000000075
 20
-457.18312333441401
 30
0.0
 11
-600.0000000000075
 21
-545.00000000010004
 31
0.0
  0
LINE
  5
85
  8
DIMNSIONS
  6
CONTINUOUS
 62
     7
 10
-267.99999833589447
 20
-457.18312333441401
 30
0.0
 11
-267.99999833589447
 21
-545.00000000010004
 31
0.0
  0
LINE
  5
86
  8
DIMNSIONS
  6
CONTINUOUS
 62
     7
 10
-600.0000000000075
 20
-525.00000000010004
 30
0.0
 11
-267.99999833589447
 21
-525.00000000010004
 31
0.0
  0
LINE
  5
87
  8
DIMNSIONS
  6
CONTINUOUS
 62
     7
 10
-600.0000000000075
 20
-525.00000000010004
 30
0.0
 11
-574.99377441407
 21
-518.29960204859765
 31
0.0
  0
LINE
  5
88
  8
DIMNSIONS
  6
CONTINUOUS
 62
     7
 10
-600.0000000000075
 20
-525.00000000010004
 30
0.0
 11
-574.99377441407
 21
-531.70039795160244
 31
0.0
  0
LINE
  5
89
  8
DIMNSIONS
  6
CONTINUOUS
 62
     7
 10
-267.99999833589447
 20
-525.00000000010004
 30
0.0
 11
-293.00622392183197
 21
-531.70039795160244
 31
0.0
  0
LINE
  5
8A
  8
DIMNSIONS
  6
CONTINUOUS
 62
     7
 10
-267.99999833589447
 20
-525.00000000010004
 30
0.0
 11
-293.00622392183197
 21
-518.29960204859765
 31
0.0
  0
TEXT
  5
8B
  8
DIMNSIONS
 62
     7
 10
-460.66193798094872
 20
-515.06111066964002
 30
0.0
 40
27.14735485771833
  1
332
 41
0.7
 11
-460.66193798094872
 21
-487.9137558119217
 31
0.0
 73
     3
  0
LINE
  5
8C
  8
DIMNSIONS
  6
CONTINUOUS
 62
     7
 10
-579.24548127694129
 20
99.999999999995836
 30
0.0
 11
-695.0
 21
99.999999999995836
 31
0.0
  0
LINE
  5
8D
  8
DIMNSIONS
  6
CONTINUOUS
 62
     7
 10
-606.85605797534765
 20
406.0
 30
0.0
 11
-695.0
 21
406.0
 31
0.0
  0
LINE
  5
8E
  8
DIMNSIONS
  6
CONTINUOUS
 62
     7
 10
-675.0
 20
99.999999999995836
 30
0.0
 11
-675.0
 21
406.0
 31
0.0
  0
LINE
  5
8F
  8
DIMNSIONS
  6
CONTINUOUS
 62
     7
 10
-675.0
 20
99.999999999995836
 30
0.0
 11
-681.7003979515024
 21
125.00622558593329
 31
0.0
  0
LINE
  5
90
  8
DIMNSIONS
  6
CONTINUOUS
 62
     7
 10
-675.0
 20
99.999999999995836
 30
0.0
 11
-668.2996020484976
 21
125.00622558593329
 31
0.0
  0
LINE
  5
91
  8
DIMNSIONS
  6
CONTINUOUS
 62
     7
 10
-675.0
 20
406.0
 30
0.0
 11
-668.2996020484976
 21
380.9937744140625
 31
0.0
  0
LINE
  5
92
  8
DIMNSIONS
  6
CONTINUOUS
 62
     7
 10
-675.0
 20
406.0
 30
0.0
 11
-681.7003979515024
 21
380.9937744140625
 31
0.0
  0
TEXT
  5
93
  8
DIMNSIONS
 62
     7
 10
-684.93888933046003
 20
226.5416649844891
 30
0.0
 40
27.14735485771833
  1
306
 50
90.0
 41
0.7
 11
-712.0862441881784
 21
226.5416649844891
 31
0.0
 73
     3
  0
LINE
  5
94
  8
DIMNSIONS
  6
CONTINUOUS
 62
     7
 10
-607.5
 20
-900.0
 30
0.0
 11
-695.0
 21
-900.0
 31
0.0
  0
LINE
  5
95
  8
DIMNSIONS
  6
CONTINUOUS
 62
     7
 10
-395.0
 20
-818.5
 30
0.0
 11
-695.0
 21
-818.5
 31
0.0
  0
LINE
  5
96
  8
DIMNSIONS
  6
CONTINUOUS
 62
     7
 10
-675.0
 20
-900.0
 30
0.0
 11
-675.0
 21
-818.5
 31
0.0
  0
LINE
  5
97
  8
DIMNSIONS
  6
CONTINUOUS
 62
     7
 10
-675.0
 20
-900.0
 30
0.0
 11
-681.7003979515024
 21
-874.9937744140625
 31
0.0
  0
LINE
  5
98
  8
DIMNSIONS
  6
CONTINUOUS
 62
     7
 10
-675.0
 20
-900.0
 30
0.0
 11
-668.2996020484976
 21
-874.9937744140625
 31
0.0
  0
LINE
  5
99
  8
DIMNSIONS
  6
CONTINUOUS
 62
     7
 10
-675.0
 20
-818.5
 30
0.0
 11
-668.2996020484976
 21
-843.50622558593739
 31
0.0
  0
LINE
  5
9A
  8
DIMNSIONS
  6
CONTINUOUS
 62
     7
 10
-675.0
 20
-818.5
 30
0.0
 11
-681.7003979515024
 21
-843.50622558593739
 31
0.0
  0
TEXT
  5
9B
  8
DIMNSIONS
 62
     7
 10
-684.93888933046003
 20
-894.52778114212879
 30
0.0
 40
27.14735485771833
  1
81.5
 50
90.0
 41
0.7
 11
-712.0862441881784
 21
-894.52778114212879
 31
0.0
 73
     3
  0
LINE
  5
9C
  8
DIMNSIONS
  6
CONTINUOUS
 62
     7
 10
-395.0
 20
-818.5
 30
0.0
 11
-695.0
 21
-818.5
 31
0.0
  0
LINE
  5
9D
  8
DIMNSIONS
  6
CONTINUOUS
 62
     7
 10
-395.0
 20
-691.5
 30
0.0
 11
-695.0
 21
-691.5
 31
0.0
  0
LINE
  5
9E
  8
DIMNSIONS
  6
CONTINUOUS
 62
     7
 10
-675.0
 20
-818.5
 30
0.0
 11
-675.0
 21
-691.5
 31
0.0
  0
LINE
  5
9F
  8
DIMNSIONS
  6
CONTINUOUS
 62
     7
 10
-675.0
 20
-818.5
 30
0.0
 11
-681.7003979515024
 21
-793.4937744140625
 31
0.0
  0
LINE
  5
A0
  8
DIMNSIONS
  6
CONTINUOUS
 62
     7
 10
-675.0
 20
-818.5
 30
0.0
 11
-668.2996020484976
 21
-793.4937744140625
 31
0.0
  0
LINE
  5
A1
  8
DIMNSIONS
  6
CONTINUOUS
 62
     7
 10
-675.0
 20
-691.5
 30
0.0
 11
-668.2996020484976
 21
-716.5062255859375
 31
0.0
  0
LINE
  5
A2
  8
DIMNSIONS
  6
CONTINUOUS
 62
     7
 10
-675.0
 20
-691.5
 30
0.0
 11
-681.7003979515024
 21
-716.5062255859375
 31
0.0
  0
TEXT
  5
A3
  8
DIMNSIONS
 62
     7
 10
-684.93888933046003
 20
-781.45833501550874
 30
0.0
 40
27.14735485771833
  1
127
 50
90.0
 41
0.7
 11
-712.0862441881784
 21
-781.45833501550874
 31
0.0
 73
     3
  0
LINE
  5
A4
  8
DIMNSIONS
  6
CONTINUOUS
 62
     7
 10
-469.00000000000739
 20
-682.5
 30
0.0
 11
-469.00000000000739
 21
-1057.5
 31
0.0
  0
LINE
  5
A5
  8
DIMNSIONS
  6
CONTINUOUS
 62
     7
 10
-399.0000000000075
 20
-682.5
 30
0.0
 11
-399.0000000000075
 21
-1057.5
 31
0.0
  0
LINE
  5
A6
  8
DIMNSIONS
  6
CONTINUOUS
 62
     7
 10
-469.00000000000739
 20
-1037.5
 30
0.0
 11
-399.0000000000075
 21
-1037.5
 31
0.0
  0
LINE
  5
A7
  8
DIMNSIONS
  6
CONTINUOUS
 62
     7
 10
-469.00000000000739
 20
-1037.5
 30
0.0
 11
-443.99377441407
 21
-1030.799602048497
 31
0.0
  0
LINE
  5
A8
  8
DIMNSIONS
  6
CONTINUOUS
 62
     7
 10
-469.00000000000739
 20
-1037.5
 30
0.0
 11
-443.99377441407
 21
-1044.2003979515021
 31
0.0
  0
LINE
  5
A9
  8
DIMNSIONS
  6
CONTINUOUS
 62
     7
 10
-399.0000000000075
 20
-1037.5
 30
0.0
 11
-424.006225585945
 21
-1044.2003979515021
 31
0.0
  0
LINE
  5
AA
  8
DIMNSIONS
  6
CONTINUOUS
 62
     7
 10
-399.0000000000075
 20
-1037.5
 30
0.0
 11
-424.006225585945
 21
-1030.799602048497
 31
0.0
  0
TEXT
  5
AB
  8
DIMNSIONS
 62
     7
 10
-451.63889057107178
 20
-1027.5611106695401
 30
0.0
 40
27.14735485771833
  1
70
 41
0.7
 11
-451.63889057107178
 21
-1000.4137558118221
 31
0.0
 73
     3
  0
LINE
  5
AC
  8
DIMNSIONS
  6
CONTINUOUS
 62
     7
 10
-600.0
 20
-908.17878418904911
 30
0.0
 11
-600.0
 21
-995.0
 31
0.0
  0
LINE
  5
AD
  8
DIMNSIONS
  6
CONTINUOUS
 62
     7
 10
-434.0000000000075
 20
-770.0
 30
0.0
 11
-434.0000000000075
 21
-995.0
 31
0.0
  0
LINE
  5
AE
  8
DIMNSIONS
  6
CONTINUOUS
 62
     7
 10
-600.0
 20
-975.0
 30
0.0
 11
-434.0000000000075
 21
-975.0
 31
0.0
  0
LINE
  5
AF
  8
DIMNSIONS
  6
CONTINUOUS
 62
     7
 10
-600.0
 20
-975.0
 30
0.0
 11
-574.99377441406239
 21
-968.2996020484976
 31
0.0
  0
LINE
  5
B0
  8
DIMNSIONS
  6
CONTINUOUS
 62
     7
 10
-600.0
 20
-975.0
 30
0.0
 11
-574.99377441406239
 21
-981.70039795150228
 31
0.0
  0
LINE
  5
B1
  8
DIMNSIONS
  6
CONTINUOUS
 62
     7
 10
-434.0000000000075
 20
-975.0
 30
0.0
 11
-459.00622558594489
 21
-981.70039795150228
 31
0.0
  0
LINE
  5
B2
  8
DIMNSIONS
  6
CONTINUOUS
 62
     7
 10
-434.0000000000075
 20
-975.0
 30
0.0
 11
-459.00622558594489
 21
-968.2996020484976
 31
0.0
  0
TEXT
  5
B3
  8
DIMNSIONS
 62
     7
 10
-543.4583350155126
 20
-965.06111066953997
 30
0.0
 40
27.14735485771833
  1
166
 41
0.7
 11
-543.4583350155126
 21
-937.9137558118216
 31
0.0
 73
     3
  0
LINE
  5
B4
  8
DIMNSIONS
  6
CONTINUOUS
 62
     7
 10
-393.7073167380193
 20
-820.87223605239228
 30
0.0
 11
-225.0
 21
-887.5
 31
0.0
  0
LINE
  5
B5
  8
DIMNSIONS
  6
CONTINUOUS
 62
     7
 10
-393.7073167380193
 20
-820.87223605239228
 30
0.0
 11
-361.01736341183801
 21
-824.30808859761123
 31
0.0
  0
LINE
  5
B6
  8
DIMNSIONS
  6
CONTINUOUS
 62
     7
 10
-393.7073167380193
 20
-820.87223605239228
 30
0.0
 11
-367.11491298162821
 21
-840.19274830329994
 31
0.0
  0
LINE
  5
B7
  8
DIMNSIONS
  6
CONTINUOUS
 62
     7
 10
-225.0
 20
-887.5
 30
0.0
 11
165.0
 21
-887.5
 31
0.0
  0
TEXT
  5
B8
  8
DATA
 62
     7
 10
500.0
 20
-1156.904765
 30
0.0
 40
24.4326171875
  1
LSR6328P
 41
0.7
 11
500.0
 21
-1132.4721478125
 31
0.0
 73
     3
  0
TEXT
  5
B9
  8
DATA
 62
     7
 10
500.0
 20
-1084.404765
 30
0.0
 40
24.4326171875
  1
JBL
 41
0.7
 11
500.0
 21
-1059.9721478125
 31
0.0
 73
     3
  0
TEXT
  5
BA
  8
DATA
 62
     7
 10
475.0
 20
-1119.1743269999999
 30
0.0
 40
16.288437109374989
  1
モニタースピーカーシステム
 41
0.7
 11
475.0
 21
-1102.885889890624
 31
0.0
 73
     3
  0
TEXT
  5
BB
  8
DATA
 62
     7
 10
-800.0
 20
-1225.8336650000001
 30
0.0
 40
16.288411458333329
  1
仕様および外観は予告なく変更されることがありますので、ご了承ください。
 41
0.7
 11
-800.0
 21
-1209.5452535416671
 31
0.0
 73
     3
  0
LINE
  5
BC
  8
DATA
  6
CONTINUOUS
 62
     7
 10
-502.06162151988752
 20
-242.48345248180891
 30
0.0
 11
-501.14008165547648
 21
-240.887298630196
 31
0.0
  0
LINE
  5
BD
  8
DATA
  6
CONTINUOUS
 62
     7
 10
-501.14008165547648
 20
-240.887298630196
 30
0.0
 11
-502.06162151988752
 21
-239.29114477858329
 31
0.0
  0
LINE
  5
BE
  8
DATA
  6
CONTINUOUS
 62
     7
 10
-502.06162151988752
 20
-239.29114477858329
 30
0.0
 11
-503.90470123338588
 21
-239.29114477858329
 31
0.0
  0
LINE
  5
BF
  8
DATA
  6
CONTINUOUS
 62
     7
 10
-503.90470123338588
 20
-239.29114477858329
 30
0.0
 11
-504.82624109013511
 21
-240.887298630196
 31
0.0
  0
LINE
  5
C0
  8
DATA
  6
CONTINUOUS
 62
     7
 10
-504.82624109013511
 20
-240.887298630196
 30
0.0
 11
-503.90470123338588
 21
-242.48345248180891
 31
0.0
  0
LINE
  5
C1
  8
DATA
  6
CONTINUOUS
 62
     7
 10
-503.90470123338588
 20
-242.48345248180891
 30
0.0
 11
-502.06162151988752
 21
-242.48345248180891
 31
0.0
  0
LINE
  5
C2
  8
DATA
  6
CONTINUOUS
 62
     7
 10
-267.99999833589447
 20
-59.899998046825331
 30
0.0
 11
-267.99999833589447
 21
-54.153844171825376
 31
0.0
  0
ARC
  5
C3
  8
DATA
  6
CONTINUOUS
 62
     7
 10
-280.76922917178172
 20
-54.153844171825376
 30
0.0
 40
12.76923083588713
 50
0.0
 51
2.4241397513000029
  0
LINE
  5
C4
  8
DATA
  6
CONTINUOUS
 62
     7
 10
-600.0000000000075
 20
-59.899998046825331
 30
0.0
 11
-600.0000000000075
 21
-54.153844171825376
 31
0.0
  0
ARC
  5
C5
  8
DATA
  6
CONTINUOUS
 62
     7
 10
-587.23076917178196
 20
-437.23076917182601
 30
0.0
 40
12.769230835887139
 50
242.61289249730041
 51
252.54239687629999
  0
ARC
  5
C6
  8
DATA
  6
CONTINUOUS
 62
     7
 10
-587.23076917178196
 20
-437.23076917182601
 30
0.0
 40
12.769230835887081
 50
233.13010235420049
 51
242.61289249730041
  0
ARC
  5
C7
  8
DATA
  6
CONTINUOUS
 62
     7
 10
-587.23076917178196
 20
-437.23076917182601
 30
0.0
 40
12.76923083588713
 50
180.0
 51
182.4563352343005
  0
ARC
  5
C8
  8
DATA
  6
CONTINUOUS
 62
     7
 10
-587.23076917178196
 20
-437.23076917182601
 30
0.0
 40
12.76923083588717
 50
182.4563352343005
 51
191.70844473000039
  0
ARC
  5
C9
  8
DATA
  6
CONTINUOUS
 62
     7
 10
-587.23076917178196
 20
-437.23076917182601
 30
0.0
 40
12.7692308358871
 50
191.70844473000039
 51
192.1105832498003
  0
ARC
  5
CA
  8
DATA
  6
CONTINUOUS
 62
     7
 10
-587.23076917178196
 20
-437.23076917182601
 30
0.0
 40
12.76923083588702
 50
192.1105832498003
 51
197.7297429023003
  0
LINE
  5
CB
  8
DATA
  6
CONTINUOUS
 62
     7
 10
-600.0000000000075
 20
-59.899998046825331
 30
0.0
 11
-600.0000000000075
 21
-437.23076917182601
 31
0.0
  0
ARC
  5
CC
  8
DATA
  6
CONTINUOUS
 62
     7
 10
-587.23076917178196
 20
-437.23076917182601
 30
0.0
 40
12.76923083588726
 50
252.54239687629999
 51
269.6554235003008
  0
ARC
  5
CD
  8
DATA
  6
CONTINUOUS
 62
     7
 10
-587.23076917178196
 20
-437.23076917182601
 30
0.0
 40
12.769230835887139
 50
269.6554235003008
 51
270.0
  0
LINE
  5
CE
  8
DATA
  6
CONTINUOUS
 62
     7
 10
-267.99999833589447
 20
-59.899998046825331
 30
0.0
 11
-267.99999833589447
 21
-437.23076917182601
 31
0.0
  0
LINE
  5
CF
  8
DATA
  6
CONTINUOUS
 62
     7
 10
-268.11915327184659
 20
-53.624930551016263
 30
0.0
 11
-268.13623455700929
 21
-53.62493053569321
 31
0.0
  0
LINE
  5
D0
  8
DATA
  6
CONTINUOUS
 62
     7
 10
-433.99999916412008
 20
-41.37248964080031
 30
0.0
 11
-433.99999917178161
 21
-41.373147031449747
 31
0.0
  0
LINE
  5
D1
  8
DATA
  6
CONTINUOUS
 62
     7
 10
-523.11302085356704
 20
-158.54284182949721
 30
0.0
 11
-523.11302085356704
 21
-90.379616440604707
 31
0.0
  0
ARC
  5
D2
  8
DATA
  6
CONTINUOUS
 62
     7
 10
-433.99999917178161
 20
-323.66123013505131
 30
0.0
 40
256.38994781008302
 50
71.285590524900016
 51
108.7144094751
  0
LINE
  5
D3
  8
DATA
  6
CONTINUOUS
 62
     7
 10
-344.88697748233488
 20
-90.379616440604707
 30
0.0
 11
-344.88697748233488
 21
-158.54284182949721
 31
0.0
  0
ARC
  5
D4
  8
DATA
  6
CONTINUOUS
 62
     7
 10
-433.99999917178161
 20
74.738771864949058
 30
0.0
 40
256.38994560355962
 50
272.21699728340002
 51
288.71440947510001
  0
ARC
  5
D5
  8
DATA
  6
CONTINUOUS
 62
     7
 10
-433.99999917178161
 20
74.738771864949058
 30
0.0
 40
256.38994560355968
 50
251.28559052489999
 51
267.75212214333112
  0
LINE
  5
D6
  8
DATA
  6
CONTINUOUS
 62
     7
 10
-303.87052087018287
 20
-69.851553549090696
 30
0.0
 11
-303.87052087018287
 21
-421.53281794277478
 31
0.0
  0
LINE
  5
D7
  8
DATA
  6
CONTINUOUS
 62
     7
 10
-564.12947746571911
 20
-421.53305978689912
 30
0.0
 11
-564.12947746571911
 21
-69.851793937522714
 31
0.0
  0
ARC
  5
D8
  8
DATA
  6
CONTINUOUS
 62
     7
 10
-433.99999917178161
 20
144.104923300883
 30
0.0
 40
45.969231000000001
 50
270.0
 51
281.53695903279998
  0
ARC
  5
D9
  8
DATA
  6
CONTINUOUS
 62
     7
 10
-433.99999917178161
 20
144.104923300883
 30
0.0
 40
45.969230999999951
 50
258.46304096720002
 51
270.0
  0
LINE
  5
DA
  8
DATA
  6
CONTINUOUS
 62
     7
 10
-443.19384537178172
 20
99.064459371176355
 30
0.0
 11
-443.19384537178172
 21
99.999999999995836
 31
0.0
  0
LINE
  5
DB
  8
DATA
  6
CONTINUOUS
 62
     7
 10
-424.80615297178173
 20
99.999999999995836
 30
0.0
 11
-424.80615297178173
 21
99.064459371176355
 31
0.0
  0
ARC
  5
DC
  8
DATA
  6
CONTINUOUS
 62
     7
 10
-327.7123281066398
 20
160.15125024014449
 30
0.0
 40
63.846154164112818
 50
291.92705687990008
 51
338.92643543909981
  0
ARC
  5
DD
  8
DATA
  6
CONTINUOUS
 62
     7
 10
-540.28767022926195
 20
160.15125024014461
 30
0.0
 40
63.846154164112782
 50
201.07359041340001
 51
248.07294312009989
  0
ARC
  5
DE
  8
DATA
  6
CONTINUOUS
 62
     7
 10
-308.63888231747433
 20
112.76923083588311
 30
0.0
 40
12.7692308358872
 50
282.17839098370018
 51
291.92705687990031
  0
ARC
  5
DF
  8
DATA
  6
CONTINUOUS
 62
     7
 10
-308.63888231747433
 20
112.76923083588311
 30
0.0
 40
12.76923083588726
 50
279.74866589709978
 51
282.17839098370013
  0
ARC
  5
E0
  8
DATA
  6
CONTINUOUS
 62
     7
 10
-308.63888231747433
 20
112.76923083588311
 30
0.0
 40
12.769230835887249
 50
277.30878972659968
 51
279.7483541439999
  0
ARC
  5
E1
  8
DATA
  6
CONTINUOUS
 62
     7
 10
-559.36111601842765
 20
112.76923083588311
 30
0.0
 40
12.769230835887271
 50
248.07294312009969
 51
257.82206133590017
  0
ARC
  5
E2
  8
DATA
  6
CONTINUOUS
 62
     7
 10
-559.36111601842765
 20
112.76923083588311
 30
0.0
 40
12.769230835887191
 50
257.82206133590017
 51
260.25066701090037
  0
ARC
  5
E3
  8
DATA
  6
CONTINUOUS
 62
     7
 10
-559.36111601842765
 20
112.76923083588311
 30
0.0
 40
12.76923083588721
 50
260.2506670109006
 51
270.0
  0
LINE
  5
E4
  8
DATA
  6
CONTINUOUS
 62
     7
 10
-598.3399999967819
 20
137.5415386499958
 30
0.0
 11
-598.3399999967819
 21
138.3076924999958
 31
0.0
  0
LINE
  5
E5
  8
DATA
  6
CONTINUOUS
 62
     7
 10
-269.65999834678178
 20
137.5415386499958
 30
0.0
 11
-269.65999834678178
 21
138.3076924999958
 31
0.0
  0
LINE
  5
E6
  8
DATA
  6
CONTINUOUS
 62
     7
 10
-598.3399999967819
 20
137.5415386499958
 30
0.0
 11
-598.3399999967819
 21
138.3076924999958
 31
0.0
  0
ARC
  5
E7
  8
DATA
  6
CONTINUOUS
 62
     7
 10
-268.3745378859594
 20
137.2861540358831
 30
0.0
 40
0.2553846141129026
 50
338.92578609681237
 51
90.001751172396013
  0
LINE
  5
E8
  8
DATA
  6
CONTINUOUS
 62
     7
 10
-268.13623455700929
 20
137.1943236245605
 30
0.0
 11
-268.13624823285539
 21
137.19428814397571
 31
0.0
  0
LINE
  5
E9
  8
DATA
  6
CONTINUOUS
 62
     7
 10
-268.3745456930672
 20
137.5415386499958
 30
0.0
 11
-268.37460998869818
 21
137.5415386499958
 31
0.0
  0
LINE
  5
EA
  8
DATA
  6
CONTINUOUS
 62
     7
 10
-280.70572792730911
 20
137.5415386499958
 30
0.0
 11
-269.65999834678178
 21
137.5415386499958
 31
0.0
  0
LINE
  5
EB
  8
DATA
  6
CONTINUOUS
 62
     7
 10
-269.65999834678178
 20
137.5415386499958
 30
0.0
 11
-268.67203804616048
 21
137.5415386499958
 31
0.0
  0
ARC
  5
EC
  8
DATA
  6
CONTINUOUS
 62
     7
 10
-599.62510146089483
 20
137.2861540358831
 30
0.0
 40
0.2553846141128411
 50
90.065385833420194
 51
201.0534090987064
  0
LINE
  5
ED
  8
DATA
  6
CONTINUOUS
 62
     7
 10
-598.3399999967819
 20
137.5415386499958
 30
0.0
 11
-587.29404513637633
 21
137.5415386499958
 31
0.0
  0
LINE
  5
EE
  8
DATA
  6
CONTINUOUS
 62
     7
 10
-599.86376376356975
 20
137.1943235785912
 30
0.0
 11
-599.86375075427725
 21
137.19428982185269
 31
0.0
  0
LINE
  5
EF
  8
DATA
  6
CONTINUOUS
 62
     7
 10
-599.62545268114252
 20
137.5415386499958
 30
0.0
 11
-599.62539290581913
 21
137.5415386499958
 31
0.0
  0
LINE
  5
F0
  8
DATA
  6
CONTINUOUS
 62
     7
 10
-587.23076917178196
 20
137.5415386499958
 30
0.0
 11
-587.23076917178196
 21
138.3076924999958
 31
0.0
  0
LINE
  5
F1
  8
DATA
  6
CONTINUOUS
 62
     7
 10
-280.76922917178172
 20
137.5415386499958
 30
0.0
 11
-280.76922917178172
 21
138.3076924999958
 31
0.0
  0
LINE
  5
F2
  8
DATA
  6
CONTINUOUS
 62
     7
 10
-333.88922943589449
 20
414.56049234810791
 30
0.0
 11
-333.88922943589449
 21
413.66664619488228
 31
0.0
  0
LINE
  5
F3
  8
DATA
  6
CONTINUOUS
 62
     7
 10
-327.37692171089452
 20
409.05038408648858
 30
0.0
 11
-327.37692171089452
 21
411.49587694810799
 31
0.0
  0
LINE
  5
F4
  8
DATA
  6
CONTINUOUS
 62
     7
 10
-548.28461512500746
 20
407.66510769810799
 30
0.0
 11
-543.6211176378423
 21
407.66510769810799
 31
0.0
  0
LINE
  5
F5
  8
DATA
  6
CONTINUOUS
 62
     7
 10
-548.28461512500746
 20
405.99999999999528
 30
0.0
 11
-548.28461512500746
 21
407.66510769810799
 31
0.0
  0
LINE
  5
F6
  8
DATA
  6
CONTINUOUS
 62
     7
 10
-333.88922943589449
 20
414.56049234810791
 30
0.0
 11
-333.88922943589449
 21
413.66664619488228
 31
0.0
  0
LINE
  5
F7
  8
DATA
  6
CONTINUOUS
 62
     7
 10
-341.4230756250073
 20
413.66664619488228
 30
0.0
 11
-341.4230756250073
 21
411.49587694810799
 31
0.0
  0
LINE
  5
F8
  8
DATA
  6
CONTINUOUS
 62
     7
 10
-343.8492294858944
 20
414.56049234810791
 30
0.0
 11
-343.8492294858944
 21
413.66664619488228
 31
0.0
  0
LINE
  5
F9
  8
DATA
  6
CONTINUOUS
 62
     7
 10
-336.3153832967817
 20
413.66664619488228
 30
0.0
 11
-336.3153832967817
 21
411.49587694810799
 31
0.0
  0
LINE
  5
FA
  8
DATA
  6
CONTINUOUS
 62
     7
 10
-548.28461512500746
 20
405.99999999999528
 30
0.0
 11
-548.28461512500746
 21
407.66510769810799
 31
0.0
  0
LINE
  5
FB
  8
DATA
  6
CONTINUOUS
 62
     7
 10
-518.40461497500735
 20
405.99999999999528
 30
0.0
 11
-518.40461497500735
 21
407.66510769810799
 31
0.0
  0
LINE
  5
FC
  8
DATA
  6
CONTINUOUS
 62
     7
 10
-518.65728076959897
 20
407.66510769810799
 30
0.0
 11
-518.40461497500735
 21
407.66510769810799
 31
0.0
  0
LINE
  5
FD
  8
DATA
  6
CONTINUOUS
 62
     7
 10
-499.18692257339461
 20
411.36818464488221
 30
0.0
 11
-494.0792302375072
 21
411.36818464488221
 31
0.0
  0
LINE
  5
FE
  8
DATA
  6
CONTINUOUS
 62
     7
 10
-524.78923039678182
 20
405.99999999999528
 30
0.0
 11
-524.78923039678182
 21
407.66510769810799
 31
0.0
  0
LINE
  5
FF
  8
DATA
  6
CONTINUOUS
 62
     7
 10
-531.24658293276741
 20
410.94287962579352
 30
0.0
 11
-528.35795045952761
 21
411.3954873647732
 31
0.0
  0
POLYLINE
  5
100
  8
DATA
  6
CONTINUOUS
 62
     7
 66
     1
 10
0.0
 20
0.0
 30
0.0
  0
VERTEX
  5
9A9
  8
DATA
  6
CONTINUOUS
 62
     7
 10
-442.223355462879
 20
413.13514098972178
 30
0.0
  0
VERTEX
  5
9AA
  8
DATA
  6
CONTINUOUS
 62
     7
 10
-438.85450749427469
 20
413.13514098972178
 30
0.0
  0
VERTEX
  5
9AB
  8
DATA
  6
CONTINUOUS
 62
     7
 10
-435.40464291624841
 20
413.13514098972178
 30
0.0
  0
SEQEND
  5
9AC
  8
DATA
  6
CONTINUOUS
 62
     7
  0
POLYLINE
  5
106
  8
DATA
  6
CONTINUOUS
 62
     7
 66
     1
 10
0.0
 20
0.0
 30
0.0
  0
VERTEX
  5
9AD
  8
DATA
  6
CONTINUOUS
 62
     7
 10
-432.64643233787888
 20
413.13514098972178
 30
0.0
  0
VERTEX
  5
9AE
  8
DATA
  6
CONTINUOUS
 62
     7
 10
-429.1965677675143
 20
413.13514098972178
 30
0.0
  0
VERTEX
  5
9AF
  8
DATA
  6
CONTINUOUS
 62
     7
 10
-425.8277197912484
 20
413.13514098972178
 30
0.0
  0
SEQEND
  5
9B0
  8
DATA
  6
CONTINUOUS
 62
     7
  0
POLYLINE
  5
10C
  8
DATA
  6
CONTINUOUS
 62
     7
 66
     1
 10
0.0
 20
0.0
 30
0.0
  0
VERTEX
  5
9B1
  8
DATA
  6
CONTINUOUS
 62
     7
 10
-423.06950921287881
 20
413.13514098972178
 30
0.0
  0
VERTEX
  5
9B2
  8
DATA
  6
CONTINUOUS
 62
     7
 10
-419.49288356864707
 20
413.13514098972178
 30
0.0
  0
VERTEX
  5
9B3
  8
DATA
  6
CONTINUOUS
 62
     7
 10
-416.25079666624839
 20
413.13514098972178
 30
0.0
  0
SEQEND
  5
9B4
  8
DATA
  6
CONTINUOUS
 62
     7
  0
LINE
  5
112
  8
DATA
  6
CONTINUOUS
 62
     7
 10
-520.37255320316365
 20
412.42732581736851
 30
0.0
 11
-520.36984386862684
 21
412.42763356604689
 31
0.0
  0
POLYLINE
  5
113
  8
DATA
  6
CONTINUOUS
 62
     7
 66
     1
 10
0.0
 20
0.0
 30
0.0
 70
   128
  0
VERTEX
  5
9B5
  8
DATA
  6
CONTINUOUS
 62
     7
 10
-444.88100559028197
 20
416.16649756681642
 30
0.0
  0
VERTEX
  5
9B6
  8
DATA
  6
CONTINUOUS
 62
     7
 10
-444.86040932649672
 20
416.16668020378989
 30
0.0
 42
-0.0004551656295249
  0
VERTEX
  5
9B7
  8
DATA
  6
CONTINUOUS
 62
     7
 10
-442.34522711449961
 20
416.18669372272791
 30
0.0
  0
VERTEX
  5
9B8
  8
DATA
  6
CONTINUOUS
 62
     7
 10
-442.32459075747943
 20
416.1868402616571
 30
0.0
  0
SEQEND
  5
9B9
  8
DATA
  6
CONTINUOUS
 62
     7
  0
POLYLINE
  5
119
  8
DATA
  6
CONTINUOUS
 62
     7
 66
     1
 10
0.0
 20
0.0
 30
0.0
 70
   128
  0
VERTEX
  5
9BA
  8
DATA
  6
CONTINUOUS
 62
     7
 10
-454.46209037105677
 20
416.04104595714051
 30
0.0
  0
VERTEX
  5
9BB
  8
DATA
  6
CONTINUOUS
 62
     7
 10
-454.44144194511682
 20
416.04139783160753
 30
0.0
 42
-0.0004722476500844
  0
VERTEX
  5
9BC
  8
DATA
  6
CONTINUOUS
 62
     7
 10
-451.91875380527563
 20
416.08200420596472
 30
0.0
  0
VERTEX
  5
9BD
  8
DATA
  6
CONTINUOUS
 62
     7
 10
-451.89804656129292
 20
416.08231912473218
 30
0.0
  0
SEQEND
  5
9BE
  8
DATA
  6
CONTINUOUS
 62
     7
  0
POLYLINE
  5
11F
  8
DATA
  6
CONTINUOUS
 62
     7
 66
     1
 10
0.0
 20
0.0
 30
0.0
 70
   128
  0
VERTEX
  5
9BF
  8
DATA
  6
CONTINUOUS
 62
     7
 10
-464.04583766670652
 20
415.83533392423078
 30
0.0
  0
VERTEX
  5
9C0
  8
DATA
  6
CONTINUOUS
 62
     7
 10
-464.02514553656329
 20
415.8358642194849
 30
0.0
 42
-0.0005030085383538
  0
VERTEX
  5
9C1
  8
DATA
  6
CONTINUOUS
 62
     7
 10
-461.48975297219158
 20
415.89828867623788
 30
0.0
  0
VERTEX
  5
9C2
  8
DATA
  6
CONTINUOUS
 62
     7
 10
-461.46888115358553
 20
415.8987828174109
 30
0.0
  0
SEQEND
  5
9C3
  8
DATA
  6
CONTINUOUS
 62
     7
  0
POLYLINE
  5
125
  8
DATA
  6
CONTINUOUS
 62
     7
 66
     1
 10
0.0
 20
0.0
 30
0.0
 70
   128
  0
VERTEX
  5
9C4
  8
DATA
  6
CONTINUOUS
 62
     7
 10
-473.63242204538591
 20
415.54409921698442
 30
0.0
  0
VERTEX
  5
9C5
  8
DATA
  6
CONTINUOUS
 62
     7
 10
-473.61162644471261
 20
415.54482475605158
 30
0.0
 42
-0.0005518053398562
  0
VERTEX
  5
9C6
  8
DATA
  6
CONTINUOUS
 62
     7
 10
-471.05801414995688
 20
415.6310963853731
 30
0.0
  0
VERTEX
  5
9C7
  8
DATA
  6
CONTINUOUS
 62
     7
 10
-471.03694709571022
 20
415.63178624530138
 30
0.0
  0
SEQEND
  5
9C8
  8
DATA
  6
CONTINUOUS
 62
     7
  0
LINE
  5
12B
  8
DATA
  6
CONTINUOUS
 62
     7
 10
-483.22212135278841
 20
415.1591971679444
 30
0.0
 11
-480.60201187529668
 21
415.27429598581432
 31
0.0
  0
LINE
  5
12C
  8
DATA
  6
CONTINUOUS
 62
     7
 10
-492.81534181900872
 20
414.66776741738511
 30
0.0
 11
-490.16370475815881
 21
414.8151795936634
 31
0.0
  0
LINE
  5
12D
  8
DATA
  6
CONTINUOUS
 62
     7
 10
-502.41273616881932
 20
414.05032792173171
 30
0.0
 11
-499.72146734838572
 21
414.23768238741059
 31
0.0
  0
LINE
  5
12E
  8
DATA
  6
CONTINUOUS
 62
     7
 10
-512.01539181970224
 20
413.27488102393107
 30
0.0
 11
-509.27441569597312
 21
413.51497609559772
 31
0.0
  0
LINE
  5
12F
  8
DATA
  6
CONTINUOUS
 62
     7
 10
-330.2951855520368
 20
405.99999999999528
 30
0.0
 11
-330.17483720887873
 21
409.6278548048839
 31
0.0
  0
LINE
  5
130
  8
DATA
  6
CONTINUOUS
 62
     7
 10
-537.87623804524878
 20
409.6278548048839
 30
0.0
 11
-537.75588970975218
 21
405.99999999999528
 31
0.0
  0
LINE
  5
131
  8
DATA
  6
CONTINUOUS
 62
     7
 10
-339.87210867703669
 20
405.99999999999528
 30
0.0
 11
-339.69312109407667
 21
411.39551240268088
 31
0.0
  0
LINE
  5
132
  8
DATA
  6
CONTINUOUS
 62
     7
 10
-336.80447895963698
 20
410.9429600029938
 30
0.0
 11
-336.64050408475231
 21
405.99999999999528
 31
0.0
  0
LINE
  5
133
  8
DATA
  6
CONTINUOUS
 62
     7
 10
-528.35795416771236
 20
411.39551240268088
 30
0.0
 11
-528.17896658475217
 21
405.99999999999528
 31
0.0
  0
LINE
  5
134
  8
DATA
  6
CONTINUOUS
 62
     7
 10
-531.41057117703667
 20
405.99999999999528
 30
0.0
 11
-531.24659630215206
 21
410.9429600029938
 31
0.0
  0
LINE
  5
135
  8
DATA
  6
CONTINUOUS
 62
     7
 10
-518.82097915488202
 20
412.59973315008028
 30
0.0
 11
-518.60204345975217
 21
405.99999999999528
 31
0.0
  0
LINE
  5
136
  8
DATA
  6
CONTINUOUS
 62
     7
 10
-521.83364805203678
 20
405.99999999999528
 30
0.0
 11
-521.62523892006732
 21
412.28241385393341
 31
0.0
  0
LINE
  5
137
  8
DATA
  6
CONTINUOUS
 62
     7
 10
-267.99999833589447
 20
393.69230916410822
 30
0.0
 11
-267.99999833589447
 21
138.3076924999958
 31
0.0
  0
LINE
  5
138
  8
DATA
  6
CONTINUOUS
 62
     7
 10
-600.0000000000075
 20
138.3076924999958
 30
0.0
 11
-600.0000000000075
 21
393.69230916410822
 31
0.0
  0
LINE
  5
139
  8
DATA
  6
CONTINUOUS
 62
     7
 10
-267.99999833589447
 20
393.69230916410822
 30
0.0
 11
-267.99999833589447
 21
138.3076924999958
 31
0.0
  0
LINE
  5
13A
  8
DATA
  6
CONTINUOUS
 62
     7
 10
-587.23076917178196
 20
138.3076924999958
 30
0.0
 11
-280.76922917178172
 21
138.3076924999958
 31
0.0
  0
LINE
  5
13B
  8
DATA
  6
CONTINUOUS
 62
     7
 10
-0.9355448810143299
 20
-171.49796783787241
 30
0.0
 11
-0.0000000000408775
 21
-171.49796783787241
 31
0.0
  0
ARC
  5
13C
  8
DATA
  6
CONTINUOUS
 62
     7
 10
44.104923300846032
 20
-180.6918140378724
 30
0.0
 40
45.969230999999887
 50
168.46304096718441
 51
180.0
  0
ARC
  5
13D
  8
DATA
  6
CONTINUOUS
 62
     7
 10
44.104923300846032
 20
-180.6918140378724
 30
0.0
 40
45.969230999999972
 50
180.0
 51
191.53695903281539
  0
LINE
  5
13E
  8
DATA
  6
CONTINUOUS
 62
     7
 10
-0.0000000000408775
 20
-189.8856602378724
 30
0.0
 11
-0.9355448810143299
 21
-189.8856602378724
 31
0.0
  0
LINE
  5
13F
  8
DATA
  6
CONTINUOUS
 62
     7
 10
314.12818619484642
 20
-364.75747339626679
 30
0.0
 11
314.12818619484642
 21
-363.4805503103795
 31
0.0
  0
LINE
  5
140
  8
DATA
  6
CONTINUOUS
 62
     7
 10
315.022032348072
 20
-364.75747339626679
 30
0.0
 11
315.022032348072
 21
-363.4805503103795
 31
0.0
  0
LINE
  5
141
  8
DATA
  6
CONTINUOUS
 62
     7
 10
306.4615399999592
 20
-387.7372304618732
 30
0.0
 11
311.95741694807208
 21
-387.7372304618732
 31
0.0
  0
LINE
  5
142
  8
DATA
  6
CONTINUOUS
 62
     7
 10
306.4615399999592
 20
-364.75261496187318
 30
0.0
 11
311.95741694807208
 21
-364.75261496187318
 31
0.0
  0
LINE
  5
143
  8
DATA
  6
CONTINUOUS
 62
     7
 10
311.95741694807208
 20
-364.75261496187318
 30
0.0
 11
314.12818619484642
 21
-364.75261496187318
 31
0.0
  0
LINE
  5
144
  8
DATA
  6
CONTINUOUS
 62
     7
 10
308.12664769807202
 20
-362.83723033687318
 30
0.0
 11
308.12664769807202
 21
-364.75261496187318
 31
0.0
  0
LINE
  5
145
  8
DATA
  6
CONTINUOUS
 62
     7
 10
306.4615399999592
 20
-362.83723033687318
 30
0.0
 11
308.12664769807202
 21
-362.83723033687318
 31
0.0
  0
LINE
  5
146
  8
DATA
  6
CONTINUOUS
 62
     7
 10
315.022032348072
 20
-357.86464258987962
 30
0.0
 11
314.12818619484642
 21
-357.86464258987962
 31
0.0
  0
LINE
  5
147
  8
DATA
  6
CONTINUOUS
 62
     7
 10
314.12818619484642
 20
-365.03996812685432
 30
0.0
 11
314.12818619484642
 21
-364.75747339626679
 31
0.0
  0
LINE
  5
148
  8
DATA
  6
CONTINUOUS
 62
     7
 10
314.12818619484642
 20
-363.4805503103795
 30
0.0
 11
314.12818619484642
 21
-359.14156567576691
 31
0.0
  0
LINE
  5
149
  8
DATA
  6
CONTINUOUS
 62
     7
 10
314.12818619484642
 20
-359.14156567576691
 30
0.0
 11
314.12818619484642
 21
-357.86464258987962
 31
0.0
  0
LINE
  5
14A
  8
DATA
  6
CONTINUOUS
 62
     7
 10
315.022032348072
 20
-359.14156567576691
 30
0.0
 11
315.022032348072
 21
-357.86464258987962
 31
0.0
  0
LINE
  5
14B
  8
DATA
  6
CONTINUOUS
 62
     7
 10
315.022032348072
 20
-363.4805503103795
 30
0.0
 11
315.022032348072
 21
-359.14156567576691
 31
0.0
  0
LINE
  5
14C
  8
DATA
  6
CONTINUOUS
 62
     7
 10
315.022032348072
 20
-366.68397444627641
 30
0.0
 11
315.022032348072
 21
-364.75747339626679
 31
0.0
  0
LINE
  5
14D
  8
DATA
  6
CONTINUOUS
 62
     7
 10
311.95741694807208
 20
-366.68397444627641
 30
0.0
 11
315.022032348072
 21
-366.68397444627641
 31
0.0
  0
LINE
  5
14E
  8
DATA
  6
CONTINUOUS
 62
     7
 10
306.4615399999592
 20
-362.83723033687318
 30
0.0
 11
308.12664769807202
 21
-362.83723033687318
 31
0.0
  0
LINE
  5
14F
  8
DATA
  6
CONTINUOUS
 62
     7
 10
314.12818619484642
 20
-365.03996812685432
 30
0.0
 11
311.95741694807208
 21
-365.03996812685432
 31
0.0
  0
LINE
  5
150
  8
DATA
  6
CONTINUOUS
 62
     7
 10
293.69230916407213
 20
-41.384613335985172
 30
0.0
 11
38.30769249995901
 21
-41.384613335985172
 31
0.0
  0
LINE
  5
151
  8
DATA
  6
CONTINUOUS
 62
     7
 10
306.4615399999592
 20
-54.153844171872372
 30
0.0
 11
306.4615399999592
 21
-59.899998046872291
 31
0.0
  0
ARC
  5
152
  8
DATA
  6
CONTINUOUS
 62
     7
 10
293.69230916407213
 20
-54.153844171872372
 30
0.0
 40
12.769230835887241
 50
0.0
 51
90.0
  0
LINE
  5
153
  8
DATA
  6
CONTINUOUS
 62
     7
 10
306.4615399999592
 20
-54.153844171872372
 30
0.0
 11
306.4615399999592
 21
-59.899998046872291
 31
0.0
  0
LINE
  5
154
  8
DATA
  6
CONTINUOUS
 62
     7
 10
38.818461735846142
 20
-50.323074921872333
 30
0.0
 11
38.30769249995901
 21
-50.323074921872333
 31
0.0
  0
LINE
  5
155
  8
DATA
  6
CONTINUOUS
 62
     7
 10
38.30769249995901
 20
-59.899998046872291
 30
0.0
 11
38.30769249995901
 21
-54.153844171872372
 31
0.0
  0
LINE
  5
156
  8
DATA
  6
CONTINUOUS
 62
     7
 10
293.69230916407213
 20
-54.153844171872372
 30
0.0
 11
38.30769249995901
 21
-54.153844171872372
 31
0.0
  0
LINE
  5
157
  8
DATA
  6
CONTINUOUS
 62
     7
 10
306.4615399999592
 20
-59.899998046872291
 30
0.0
 11
306.4615399999592
 21
-437.23076917187279
 31
0.0
  0
LINE
  5
158
  8
DATA
  6
CONTINUOUS
 62
     7
 10
293.69230916407213
 20
-450.00000000009811
 30
0.0
 11
287.94615528907212
 21
-450.00000000009811
 31
0.0
  0
LINE
  5
159
  8
DATA
  6
CONTINUOUS
 62
     7
 10
306.4615399999592
 20
-59.899998046872291
 30
0.0
 11
306.4615399999592
 21
-437.23076917187279
 31
0.0
  0
ARC
  5
15A
  8
DATA
  6
CONTINUOUS
 62
     7
 10
293.69230916407213
 20
-437.23076917187279
 30
0.0
 40
12.7692308358869
 50
270.0
 51
0.0
  0
ARC
  5
15B
  8
DATA
  6
CONTINUOUS
 62
     7
 10
293.69230916407213
 20
-437.23076917187279
 30
0.0
 40
12.7692308358869
 50
270.0
 51
0.0
  0
LINE
  5
15C
  8
DATA
  6
CONTINUOUS
 62
     7
 10
293.69230916407213
 20
-437.23076917187279
 30
0.0
 11
287.94615528907212
 21
-437.23076917187279
 31
0.0
  0
LINE
  5
15D
  8
DATA
  6
CONTINUOUS
 62
     7
 10
293.69230916407213
 20
-59.899998046872291
 30
0.0
 11
293.69230916407213
 21
-437.23076917187279
 31
0.0
  0
LINE
  5
15E
  8
DATA
  6
CONTINUOUS
 62
     7
 10
218.1046792158466
 20
-128.67285871974849
 30
0.0
 11
218.1046792848004
 21
-128.67285822941
 31
0.0
  0
LINE
  5
15F
  8
DATA
  6
CONTINUOUS
 62
     7
 10
110.06455342803029
 20
-128.6728591411331
 30
0.0
 11
110.064553366738
 21
-128.6728586814408
 31
0.0
  0
LINE
  5
160
  8
DATA
  6
CONTINUOUS
 62
     7
 10
224.27238574120901
 20
-132.96968534802659
 30
0.0
 11
224.27238574120901
 21
-153.12233922744059
 31
0.0
  0
LINE
  5
161
  8
DATA
  6
CONTINUOUS
 62
     7
 10
103.8968466728217
 20
-153.12233922744059
 30
0.0
 11
103.8968466728217
 21
-132.96968534802659
 31
0.0
  0
LINE
  5
162
  8
DATA
  6
CONTINUOUS
 62
     7
 10
218.3933094520338
 20
-157.84422372889881
 30
0.0
 11
217.4617484408345
 21
-143.61168907701941
 31
0.0
  0
LINE
  5
163
  8
DATA
  6
CONTINUOUS
 62
     7
 10
110.7074839731963
 20
-143.61168906935791
 30
0.0
 11
109.7759229619965
 21
-157.84422372889881
 31
0.0
  0
LINE
  5
164
  8
DATA
  6
CONTINUOUS
 62
     7
 10
37.541538649958873
 20
-53.624930520417102
 30
0.0
 11
37.541538649958873
 21
-437.75965380908161
 31
0.0
  0
LINE
  5
165
  8
DATA
  6
CONTINUOUS
 62
     7
 10
-0.0000000000408775
 20
-69.866451119612421
 30
0.0
 11
-0.0000000000408775
 21
-421.53289501789908
 31
0.0
  0
LINE
  5
166
  8
DATA
  6
CONTINUOUS
 62
     7
 10
0.0000000000000142
 20
-421.53289501789908
 30
0.0
 11
0.0000000000000142
 21
-424.45783510836708
 31
0.0
  0
LINE
  5
167
  8
DATA
  6
CONTINUOUS
 62
     7
 10
37.541538649958873
 20
-43.019074880098067
 30
0.0
 11
38.30769249995901
 21
-43.019074880098067
 31
0.0
  0
LINE
  5
168
  8
DATA
  6
CONTINUOUS
 62
     7
 10
37.541538649958873
 20
-43.019074880098067
 30
0.0
 11
38.30769249995901
 21
-43.019074880098067
 31
0.0
  0
LINE
  5
169
  8
DATA
  6
CONTINUOUS
 62
     7
 10
37.541538649958873
 20
-448.3655384559853
 30
0.0
 11
38.30769249995901
 21
-448.3655384559853
 31
0.0
  0
LINE
  5
16A
  8
DATA
  6
CONTINUOUS
 62
     7
 10
-0.0000000000408775
 20
-69.85155354913762
 30
0.0
 11
-0.0000000000408775
 21
-421.53281794282168
 31
0.0
  0
LINE
  5
16B
  8
DATA
  6
CONTINUOUS
 62
     7
 10
17.136755367925272
 20
-46.607778794205899
 30
0.0
 11
17.13699344257272
 21
-46.607667495036146
 31
0.0
  0
LINE
  5
16C
  8
DATA
  6
CONTINUOUS
 62
     7
 10
37.541538649958873
 20
-43.019074880098067
 30
0.0
 11
37.541538649958873
 21
-53.624930520417102
 31
0.0
  0
ARC
  5
16D
  8
DATA
  6
CONTINUOUS
 62
     7
 10
37.286154035846153
 20
-41.627874262621852
 30
0.0
 40
0.2553846141127282
 50
359.99999833960129
 51
62.74128536182026
  0
ARC
  5
16E
  8
DATA
  6
CONTINUOUS
 62
     7
 10
37.286154035846153
 20
-41.627874262621852
 30
0.0
 40
0.2553846141127317
 50
62.74128536182026
 51
94.111928873128505
  0
ARC
  5
16F
  8
DATA
  6
CONTINUOUS
 62
     7
 10
37.286154035846153
 20
-449.75673907346169
 30
0.0
 40
0.2553846141126558
 50
297.25871463818851
 51
0.0000016603222548
  0
ARC
  5
170
  8
DATA
  6
CONTINUOUS
 62
     7
 10
37.286154035846153
 20
-449.75673907346169
 30
0.0
 40
0.2553846141128457
 50
265.8880711268734
 51
297.25871463819379
  0
LINE
  5
171
  8
DATA
  6
CONTINUOUS
 62
     7
 10
37.541538649958873
 20
-437.75965380908161
 30
0.0
 11
37.541538649958873
 21
-448.36113187614791
 31
0.0
  0
LINE
  5
172
  8
DATA
  6
CONTINUOUS
 62
     7
 10
37.541538649958873
 20
-53.624930520417102
 30
0.0
 11
37.194323624523662
 21
-53.624930535740212
 31
0.0
  0
LINE
  5
173
  8
DATA
  6
CONTINUOUS
 62
     7
 10
37.541538649958873
 20
-54.128305705097993
 30
0.0
 11
38.30769249995901
 21
-54.128305705097993
 31
0.0
  0
LINE
  5
174
  8
DATA
  6
CONTINUOUS
 62
     7
 10
37.541538649958873
 20
-437.2563076309857
 30
0.0
 11
38.30769249995901
 21
-437.2563076309857
 31
0.0
  0
LINE
  5
175
  8
DATA
  6
CONTINUOUS
 62
     7
 10
37.541538649958873
 20
-437.75965380908161
 30
0.0
 11
37.194288143938792
 21
-437.75965148763532
 31
0.0
  0
LINE
  5
176
  8
DATA
  6
CONTINUOUS
 62
     7
 10
314.69922238737468
 20
-259.66008228863768
 30
0.0
 11
314.5118679216958
 21
-262.35135110140959
 31
0.0
  0
LINE
  5
177
  8
DATA
  6
CONTINUOUS
 62
     7
 10
315.27671959362772
 20
-250.10231969074931
 30
0.0
 11
315.12930740968778
 21
-252.75395675159919
 31
0.0
  0
LINE
  5
178
  8
DATA
  6
CONTINUOUS
 62
     7
 10
315.73583598577869
 20
-240.54062680788729
 30
0.0
 11
315.62073716790849
 21
-243.16073628537899
 31
0.0
  0
LINE
  5
179
  8
DATA
  6
CONTINUOUS
 62
     7
 10
316.09332624526547
 20
-230.9755620283008
 30
0.0
 11
316.08431704214343
 21
-231.2516808495331
 31
0.0
  0
LINE
  5
17A
  8
DATA
  6
CONTINUOUS
 62
     7
 10
316.08431704214343
 20
-231.2516808495331
 30
0.0
 11
316.08132079831307
 21
-231.3430025270377
 31
0.0
  0
POLYLINE
  5
17B
  8
DATA
  6
CONTINUOUS
 62
     7
 66
     1
 10
0.0
 20
0.0
 30
0.0
 70
   128
  0
VERTEX
  5
9C9
  8
DATA
  6
CONTINUOUS
 62
     7
 10
316.08132079831307
 20
-231.3430025270377
 30
0.0
  0
VERTEX
  5
9CA
  8
DATA
  6
CONTINUOUS
 62
     7
 10
316.08083530222149
 20
-231.35769913447999
 30
0.0
 42
-0.0004653015073999
  0
VERTEX
  5
9CB
  8
DATA
  6
CONTINUOUS
 62
     7
 10
316.00633986717838
 20
-233.550920608106
 30
0.0
  0
VERTEX
  5
9CC
  8
DATA
  6
CONTINUOUS
 62
     7
 10
316.00563921694828
 20
-233.57103697797641
 30
0.0
  0
SEQEND
  5
9CD
  8
DATA
  6
CONTINUOUS
 62
     7
  0
LINE
  5
181
  8
DATA
  6
CONTINUOUS
 62
     7
 10
313.9765563186391
 20
-269.21303403794832
 30
0.0
 11
313.9765563186391
 21
-167.144614715649
 31
0.0
  0
LINE
  5
182
  8
DATA
  6
CONTINUOUS
 62
     7
 10
313.9765563186391
 20
-167.144614715649
 30
0.0
 11
313.9765563186391
 21
-160.92945227604841
 31
0.0
  0
LINE
  5
183
  8
DATA
  6
CONTINUOUS
 62
     7
 10
316.09302190597163
 20
-230.97555553131619
 30
0.0
 11
316.29616971388378
 21
-223.98443445677401
 31
0.0
  0
LINE
  5
184
  8
DATA
  6
CONTINUOUS
 62
     7
 10
314.69927863839041
 20
-259.66008608109939
 30
0.0
 11
314.69927863839041
 21
-259.60624860329062
 31
0.0
  0
LINE
  5
185
  8
DATA
  6
CONTINUOUS
 62
     7
 10
313.9765157124852
 20
-269.21303517185601
 30
0.0
 11
314.5118679216958
 21
-262.35135110140959
 31
0.0
  0
LINE
  5
186
  8
DATA
  6
CONTINUOUS
 62
     7
 10
315.73583617731703
 20
-240.54062234121039
 30
0.0
 11
315.75918463928048
 21
-239.98667391550649
 31
0.0
  0
POLYLINE
  5
187
  8
DATA
  6
CONTINUOUS
 62
     7
 66
     1
 10
0.0
 20
0.0
 30
0.0
 70
   128
  0
VERTEX
  5
9CE
  8
DATA
  6
CONTINUOUS
 62
     7
 10
315.75918463928048
 20
-239.98667391550649
 30
0.0
  0
VERTEX
  5
9CF
  8
DATA
  6
CONTINUOUS
 62
     7
 10
315.76233534871159
 20
-239.91038863262369
 30
0.0
 42
0.001456113549922
  0
VERTEX
  5
9D0
  8
DATA
  6
CONTINUOUS
 62
     7
 10
316.00324513869077
 20
-233.6342147839957
 30
0.0
  0
VERTEX
  5
9D1
  8
DATA
  6
CONTINUOUS
 62
     7
 10
316.00549537156309
 20
-233.57103193668399
 30
0.0
  0
SEQEND
  5
9D2
  8
DATA
  6
CONTINUOUS
 62
     7
  0
LINE
  5
18D
  8
DATA
  6
CONTINUOUS
 62
     7
 10
315.27666887424277
 20
-250.10231696324169
 30
0.0
 11
315.27666887424277
 21
-250.04340258993051
 31
0.0
  0
POLYLINE
  5
18E
  8
DATA
  6
CONTINUOUS
 62
     7
 66
     1
 10
0.0
 20
0.0
 30
0.0
 70
   128
  0
VERTEX
  5
9D3
  8
DATA
  6
CONTINUOUS
 62
     7
 10
314.6992223643901
 20
-259.66008260276078
 30
0.0
  0
VERTEX
  5
9D4
  8
DATA
  6
CONTINUOUS
 62
     7
 10
314.70523565631282
 20
-259.56972242162868
 30
0.0
 42
0.002135447968457
  0
VERTEX
  5
9D5
  8
DATA
  6
CONTINUOUS
 62
     7
 10
315.125435340016
 20
-252.8205477818677
 30
0.0
  0
VERTEX
  5
9D6
  8
DATA
  6
CONTINUOUS
 62
     7
 10
315.12930740968778
 20
-252.75395675159919
 30
0.0
  0
SEQEND
  5
9D7
  8
DATA
  6
CONTINUOUS
 62
     7
  0
LINE
  5
194
  8
DATA
  6
CONTINUOUS
 62
     7
 10
315.27671988476629
 20
-250.10231425871859
 30
0.0
 11
315.62073716790849
 21
-243.16073628537899
 31
0.0
  0
POLYLINE
  5
195
  8
DATA
  6
CONTINUOUS
 62
     7
 66
     1
 10
0.0
 20
0.0
 30
0.0
 70
   128
  0
VERTEX
  5
9D8
  8
DATA
  6
CONTINUOUS
 62
     7
 10
306.4615399999592
 20
-302.15063132754398
 30
0.0
  0
VERTEX
  5
9D9
  8
DATA
  6
CONTINUOUS
 62
     7
 10
306.47351289900519
 20
-302.14961846778323
 30
0.0
  0
VERTEX
  5
9DA
  8
DATA
  6
CONTINUOUS
 62
     7
 10
306.48550070202128
 20
-302.14844313428011
 30
0.0
  0
VERTEX
  5
9DB
  8
DATA
  6
CONTINUOUS
 62
     7
 10
306.49750340900738
 20
-302.14710532703452
 30
0.0
  0
VERTEX
  5
9DC
  8
DATA
  6
CONTINUOUS
 62
     7
 10
306.50952101996381
 20
-302.1456050460464
 30
0.0
  0
VERTEX
  5
9DD
  8
DATA
  6
CONTINUOUS
 62
     7
 10
306.52155353489042
 20
-302.1439422913158
 30
0.0
  0
VERTEX
  5
9DE
  8
DATA
  6
CONTINUOUS
 62
     7
 10
306.53360095378707
 20
-302.14211706284277
 30
0.0
  0
VERTEX
  5
9DF
  8
DATA
  6
CONTINUOUS
 62
     7
 10
306.54566327665378
 20
-302.14012936062738
 30
0.0
  0
VERTEX
  5
9E0
  8
DATA
  6
CONTINUOUS
 62
     7
 10
306.55774050349089
 20
-302.1379791846694
 30
0.0
  0
VERTEX
  5
9E1
  8
DATA
  6
CONTINUOUS
 62
     7
 10
306.569832634298
 20
-302.13566653496912
 30
0.0
  0
VERTEX
  5
9E2
  8
DATA
  6
CONTINUOUS
 62
     7
 10
306.58193966907538
 20
-302.13319141152613
 30
0.0
  0
VERTEX
  5
9E3
  8
DATA
  6
CONTINUOUS
 62
     7
 10
306.59406160782282
 20
-302.13055381434077
 30
0.0
  0
VERTEX
  5
9E4
  8
DATA
  6
CONTINUOUS
 62
     7
 10
306.60619845054038
 20
-302.127753743413
 30
0.0
  0
VERTEX
  5
9E5
  8
DATA
  6
CONTINUOUS
 62
     7
 10
306.61835019722821
 20
-302.1247911987428
 30
0.0
  0
VERTEX
  5
9E6
  8
DATA
  6
CONTINUOUS
 62
     7
 10
306.63051684788621
 20
-302.12166618033012
 30
0.0
  0
VERTEX
  5
9E7
  8
DATA
  6
CONTINUOUS
 62
     7
 10
306.64269840251421
 20
-302.11837868817491
 30
0.0
  0
VERTEX
  5
9E8
  8
DATA
  6
CONTINUOUS
 62
     7
 10
306.65489486111238
 20
-302.11492872227728
 30
0.0
  0
VERTEX
  5
9E9
  8
DATA
  6
CONTINUOUS
 62
     7
 10
306.66710622368078
 20
-302.11131628263718
 30
0.0
  0
VERTEX
  5
9EA
  8
DATA
  6
CONTINUOUS
 62
     7
 10
306.67933249021939
 20
-302.10754136925459
 30
0.0
  0
VERTEX
  5
9EB
  8
DATA
  6
CONTINUOUS
 62
     7
 10
306.69157366072812
 20
-302.10360398212958
 30
0.0
  0
VERTEX
  5
9EC
  8
DATA
  6
CONTINUOUS
 62
     7
 10
306.70382973520702
 20
-302.09950412126221
 30
0.0
  0
VERTEX
  5
9ED
  8
DATA
  6
CONTINUOUS
 62
     7
 10
306.71610071365598
 20
-302.09524178665208
 30
0.0
  0
VERTEX
  5
9EE
  8
DATA
  6
CONTINUOUS
 62
     7
 10
306.72838659607521
 20
-302.09081697829981
 30
0.0
  0
VERTEX
  5
9EF
  8
DATA
  6
CONTINUOUS
 62
     7
 10
306.74068738246461
 20
-302.0862296962049
 30
0.0
  0
VERTEX
  5
9F0
  8
DATA
  6
CONTINUOUS
 62
     7
 10
306.75300307282401
 20
-302.08147994036761
 30
0.0
  0
VERTEX
  5
9F1
  8
DATA
  6
CONTINUOUS
 62
     7
 10
306.76533366715358
 20
-302.0765677107878
 30
0.0
  0
VERTEX
  5
9F2
  8
DATA
  6
CONTINUOUS
 62
     7
 10
306.77767916545338
 20
-302.07149300746551
 30
0.0
  0
VERTEX
  5
9F3
  8
DATA
  6
CONTINUOUS
 62
     7
 10
306.7900395677234
 20
-302.06625583040079
 30
0.0
  0
VERTEX
  5
9F4
  8
DATA
  6
CONTINUOUS
 62
     7
 10
306.80241487396353
 20
-302.06085617959349
 30
0.0
  0
VERTEX
  5
9F5
  8
DATA
  6
CONTINUOUS
 62
     7
 10
306.81480508417383
 20
-302.05529405504387
 30
0.0
  0
VERTEX
  5
9F6
  8
DATA
  6
CONTINUOUS
 62
     7
 10
306.82721019835418
 20
-302.04956945675173
 30
0.0
  0
VERTEX
  5
9F7
  8
DATA
  6
CONTINUOUS
 62
     7
 10
306.83963021650482
 20
-302.04368238471727
 30
0.0
  0
VERTEX
  5
9F8
  8
DATA
  6
CONTINUOUS
 62
     7
 10
306.85206513862562
 20
-302.03763283894023
 30
0.0
  0
VERTEX
  5
9F9
  8
DATA
  6
CONTINUOUS
 62
     7
 10
306.86451496471648
 20
-302.03142081942082
 30
0.0
  0
VERTEX
  5
9FA
  8
DATA
  6
CONTINUOUS
 62
     7
 10
306.87697969477762
 20
-302.02504632615882
 30
0.0
  0
VERTEX
  5
9FB
  8
DATA
  6
CONTINUOUS
 62
     7
 10
306.88945932880881
 20
-302.01850935915428
 30
0.0
  0
VERTEX
  5
9FC
  8
DATA
  6
CONTINUOUS
 62
     7
 10
306.90195386681012
 20
-302.01180991840749
 30
0.0
  0
VERTEX
  5
9FD
  8
DATA
  6
CONTINUOUS
 62
     7
 10
306.91446330878159
 20
-302.00494800391817
 30
0.0
  0
VERTEX
  5
9FE
  8
DATA
  6
CONTINUOUS
 62
     7
 10
306.9269876547234
 20
-301.99792361568632
 30
0.0
  0
VERTEX
  5
9FF
  8
DATA
  6
CONTINUOUS
 62
     7
 10
306.93952690463522
 20
-301.9907367537121
 30
0.0
  0
VERTEX
  5
A00
  8
DATA
  6
CONTINUOUS
 62
     7
 10
306.95208105851719
 20
-301.98338741799529
 30
0.0
  0
VERTEX
  5
A01
  8
DATA
  6
CONTINUOUS
 62
     7
 10
306.96465011636923
 20
-301.97587560853623
 30
0.0
  0
VERTEX
  5
A02
  8
DATA
  6
CONTINUOUS
 62
     7
 10
306.97723407819171
 20
-301.96820132533452
 30
0.0
  0
VERTEX
  5
A03
  8
DATA
  6
CONTINUOUS
 62
     7
 10
306.98983294398408
 20
-301.96036456839039
 30
0.0
  0
VERTEX
  5
A04
  8
DATA
  6
CONTINUOUS
 62
     7
 10
307.00244671374668
 20
-301.95236533770372
 30
0.0
  0
VERTEX
  5
A05
  8
DATA
  6
CONTINUOUS
 62
     7
 10
307.01507538747938
 20
-301.9442036332747
 30
0.0
  0
VERTEX
  5
A06
  8
DATA
  6
CONTINUOUS
 62
     7
 10
307.02771896518237
 20
-301.93587945510319
 30
0.0
  0
VERTEX
  5
A07
  8
DATA
  6
CONTINUOUS
 62
     7
 10
307.04037744685547
 20
-301.92739280318932
 30
0.0
  0
VERTEX
  5
A08
  8
DATA
  6
CONTINUOUS
 62
     7
 10
307.0530508324988
 20
-301.9187436775328
 30
0.0
  0
VERTEX
  5
A09
  8
DATA
  6
CONTINUOUS
 62
     7
 10
307.06573912211218
 20
-301.90993207813392
 30
0.0
  0
VERTEX
  5
A0A
  8
DATA
  6
CONTINUOUS
 62
     7
 10
307.07844231569572
 20
-301.9009580049925
 30
0.0
  0
VERTEX
  5
A0B
  8
DATA
  6
CONTINUOUS
 62
     7
 10
307.09116041324938
 20
-301.89182145810878
 30
0.0
  0
VERTEX
  5
A0C
  8
DATA
  6
CONTINUOUS
 62
     7
 10
307.10389341477332
 20
-301.88252243748252
 30
0.0
  0
VERTEX
  5
A0D
  8
DATA
  6
CONTINUOUS
 62
     7
 10
307.11664132026732
 20
-301.87306094311373
 30
0.0
  0
VERTEX
  5
A0E
  8
DATA
  6
CONTINUOUS
 62
     7
 10
307.12940412973148
 20
-301.86343697500251
 30
0.0
  0
VERTEX
  5
A0F
  8
DATA
  6
CONTINUOUS
 62
     7
 10
307.14218184316582
 20
-301.85365053314888
 30
0.0
  0
VERTEX
  5
A10
  8
DATA
  6
CONTINUOUS
 62
     7
 10
307.15497446057032
 20
-301.84370161755282
 30
0.0
  0
VERTEX
  5
A11
  8
DATA
  6
CONTINUOUS
 62
     7
 10
307.16778198194493
 20
-301.83359022821401
 30
0.0
  0
VERTEX
  5
A12
  8
DATA
  6
CONTINUOUS
 62
     7
 10
307.18060440728982
 20
-301.82331636513311
 30
0.0
  0
VERTEX
  5
A13
  8
DATA
  6
CONTINUOUS
 62
     7
 10
307.19344173660483
 20
-301.81288002830962
 30
0.0
  0
VERTEX
  5
A14
  8
DATA
  6
CONTINUOUS
 62
     7
 10
307.20629396988988
 20
-301.8022812177436
 30
0.0
  0
VERTEX
  5
A15
  8
DATA
  6
CONTINUOUS
 62
     7
 10
307.21916110714523
 20
-301.79151993343521
 30
0.0
  0
VERTEX
  5
A16
  8
DATA
  6
CONTINUOUS
 62
     7
 10
307.23204314837062
 20
-301.78059617538418
 30
0.0
  0
VERTEX
  5
A17
  8
DATA
  6
CONTINUOUS
 62
     7
 10
307.24494009356619
 20
-301.76950994359089
 30
0.0
  0
VERTEX
  5
A18
  8
DATA
  6
CONTINUOUS
 62
     7
 10
307.25785194273192
 20
-301.75826123805513
 30
0.0
  0
VERTEX
  5
A19
  8
DATA
  6
CONTINUOUS
 62
     7
 10
307.27076945831891
 20
-301.74682298303759
 30
0.0
  0
VERTEX
  5
A1A
  8
DATA
  6
CONTINUOUS
 62
     7
 10
307.28368340277802
 20
-301.73516810279921
 30
0.0
  0
VERTEX
  5
A1B
  8
DATA
  6
CONTINUOUS
 62
     7
 10
307.29659377610949
 20
-301.72329659733992
 30
0.0
  0
VERTEX
  5
A1C
  8
DATA
  6
CONTINUOUS
 62
     7
 10
307.30950057831319
 20
-301.71120846665968
 30
0.0
  0
VERTEX
  5
A1D
  8
DATA
  6
CONTINUOUS
 62
     7
 10
307.3224038093893
 20
-301.6989037107586
 30
0.0
  0
VERTEX
  5
A1E
  8
DATA
  6
CONTINUOUS
 62
     7
 10
307.33530346933748
 20
-301.68638232963661
 30
0.0
  0
VERTEX
  5
A1F
  8
DATA
  6
CONTINUOUS
 62
     7
 10
307.34819955815789
 20
-301.67364432329379
 30
0.0
  0
VERTEX
  5
A20
  8
DATA
  6
CONTINUOUS
 62
     7
 10
307.36109207585082
 20
-301.66068969172989
 30
0.0
  0
VERTEX
  5
A21
  8
DATA
  6
CONTINUOUS
 62
     7
 10
307.37398102241571
 20
-301.64751843494543
 30
0.0
  0
VERTEX
  5
A22
  8
DATA
  6
CONTINUOUS
 62
     7
 10
307.386866397853
 20
-301.63413055293978
 30
0.0
  0
VERTEX
  5
A23
  8
DATA
  6
CONTINUOUS
 62
     7
 10
307.39974820216253
 20
-301.6205260457134
 30
0.0
  0
VERTEX
  5
A24
  8
DATA
  6
CONTINUOUS
 62
     7
 10
307.41262643534418
 20
-301.60670491326601
 30
0.0
  0
VERTEX
  5
A25
  8
DATA
  6
CONTINUOUS
 62
     7
 10
307.4255010973983
 20
-301.59266715559778
 30
0.0
  0
VERTEX
  5
A26
  8
DATA
  6
CONTINUOUS
 62
     7
 10
307.43837218832448
 20
-301.5784127727087
 30
0.0
  0
VERTEX
  5
A27
  8
DATA
  6
CONTINUOUS
 62
     7
 10
307.45123970812318
 20
-301.56394176459872
 30
0.0
  0
VERTEX
  5
A28
  8
DATA
  6
CONTINUOUS
 62
     7
 10
307.46410365679401
 20
-301.54925413126767
 30
0.0
  0
VERTEX
  5
A29
  8
DATA
  6
CONTINUOUS
 62
     7
 10
307.47696403433702
 20
-301.53434987271589
 30
0.0
  0
VERTEX
  5
A2A
  8
DATA
  6
CONTINUOUS
 62
     7
 10
307.48982084075237
 20
-301.5192289889431
 30
0.0
  0
VERTEX
  5
A2B
  8
DATA
  6
CONTINUOUS
 62
     7
 10
307.50267407604002
 20
-301.50389147994957
 30
0.0
  0
VERTEX
  5
A2C
  8
DATA
  6
CONTINUOUS
 62
     7
 10
307.5155237401998
 20
-301.48833734573509
 30
0.0
  0
VERTEX
  5
A2D
  8
DATA
  6
CONTINUOUS
 62
     7
 10
307.52836983323181
 20
-301.47256658629982
 30
0.0
  0
VERTEX
  5
A2E
  8
DATA
  6
CONTINUOUS
 62
     7
 10
307.54121235513628
 20
-301.45657920164348
 30
0.0
  0
VERTEX
  5
A2F
  8
DATA
  6
CONTINUOUS
 62
     7
 10
307.55405130591282
 20
-301.44037519176629
 30
0.0
  0
VERTEX
  5
A30
  8
DATA
  6
CONTINUOUS
 62
     7
 10
307.5668866855616
 20
-301.42395455666832
 30
0.0
  0
VERTEX
  5
A31
  8
DATA
  6
CONTINUOUS
 62
     7
 10
307.57971849408278
 20
-301.40731729634928
 30
0.0
  0
VERTEX
  5
A32
  8
DATA
  6
CONTINUOUS
 62
     7
 10
307.59254673147609
 20
-301.3904634108095
 30
0.0
  0
VERTEX
  5
A33
  8
DATA
  6
CONTINUOUS
 62
     7
 10
307.60537139774181
 20
-301.37339290004883
 30
0.0
  0
VERTEX
  5
A34
  8
DATA
  6
CONTINUOUS
 62
     7
 10
307.61819249287981
 20
-301.35610576406719
 30
0.0
  0
VERTEX
  5
A35
  8
DATA
  6
CONTINUOUS
 62
     7
 10
307.63101001688989
 20
-301.3386020028646
 30
0.0
  0
VERTEX
  5
A36
  8
DATA
  6
CONTINUOUS
 62
     7
 10
307.64382396977231
 20
-301.32088161644128
 30
0.0
  0
VERTEX
  5
A37
  8
DATA
  6
CONTINUOUS
 62
     7
 10
307.65663435152692
 20
-301.30294460479701
 30
0.0
  0
VERTEX
  5
A38
  8
DATA
  6
CONTINUOUS
 62
     7
 10
307.66944116215387
 20
-301.28479096793171
 30
0.0
  0
VERTEX
  5
A39
  8
DATA
  6
CONTINUOUS
 62
     7
 10
307.68224440165312
 20
-301.26642070584569
 30
0.0
  0
VERTEX
  5
A3A
  8
DATA
  6
CONTINUOUS
 62
     7
 10
307.69504407002449
 20
-301.24783381853871
 30
0.0
  0
VERTEX
  5
A3B
  8
DATA
  6
CONTINUOUS
 62
     7
 10
307.7078401672681
 20
-301.22903030601083
 30
0.0
  0
VERTEX
  5
A3C
  8
DATA
  6
CONTINUOUS
 62
     7
 10
307.72063269338412
 20
-301.21001016826199
 30
0.0
  0
VERTEX
  5
A3D
  8
DATA
  6
CONTINUOUS
 62
     7
 10
307.73342164837231
 20
-301.1907734052923
 30
0.0
  0
VERTEX
  5
A3E
  8
DATA
  6
CONTINUOUS
 62
     7
 10
307.7462070322328
 20
-301.17132001710161
 30
0.0
  0
VERTEX
  5
A3F
  8
DATA
  6
CONTINUOUS
 62
     7
 10
307.75898884496547
 20
-301.15165000369018
 30
0.0
  0
VERTEX
  5
A40
  8
DATA
  6
CONTINUOUS
 62
     7
 10
307.77176708657049
 20
-301.13176336505802
 30
0.0
  0
VERTEX
  5
A41
  8
DATA
  6
CONTINUOUS
 62
     7
 10
307.7845417570478
 20
-301.11166010120462
 30
0.0
  0
VERTEX
  5
A42
  8
DATA
  6
CONTINUOUS
 62
     7
 10
307.79731285639718
 20
-301.09134021213049
 30
0.0
  0
VERTEX
  5
A43
  8
DATA
  6
CONTINUOUS
 62
     7
 10
307.81008038461908
 20
-301.0708036978354
 30
0.0
  0
VERTEX
  5
A44
  8
DATA
  6
CONTINUOUS
 62
     7
 10
307.82284434171288
 20
-301.05005055831953
 30
0.0
  0
VERTEX
  5
A45
  8
DATA
  6
CONTINUOUS
 62
     7
 10
307.83560472767931
 20
-301.02908079358269
 30
0.0
  0
VERTEX
  5
A46
  8
DATA
  6
CONTINUOUS
 62
     7
 10
307.84836154251781
 20
-301.00789440362507
 30
0.0
  0
VERTEX
  5
A47
  8
DATA
  6
CONTINUOUS
 62
     7
 10
307.86111478622848
 20
-300.98649138844638
 30
0.0
  0
VERTEX
  5
A48
  8
DATA
  6
CONTINUOUS
 62
     7
 10
307.87386445881162
 20
-300.9648717480469
 30
0.0
  0
VERTEX
  5
A49
  8
DATA
  6
CONTINUOUS
 62
     7
 10
307.88661056026677
 20
-300.94303548242652
 30
0.0
  0
VERTEX
  5
A4A
  8
DATA
  6
CONTINUOUS
 62
     7
 10
307.89935309059439
 20
-300.92098259158519
 30
0.0
  0
VERTEX
  5
A4B
  8
DATA
  6
CONTINUOUS
 62
     7
 10
307.91209204979418
 20
-300.89871307552301
 30
0.0
  0
VERTEX
  5
A4C
  8
DATA
  6
CONTINUOUS
 62
     7
 10
307.92482743786621
 20
-300.87622693423998
 30
0.0
  0
VERTEX
  5
A4D
  8
DATA
  6
CONTINUOUS
 62
     7
 10
307.93755925481048
 20
-300.853524167736
 30
0.0
  0
VERTEX
  5
A4E
  8
DATA
  6
CONTINUOUS
 62
     7
 10
307.95028750062698
 20
-300.83060477601111
 30
0.0
  0
VERTEX
  5
A4F
  8
DATA
  6
CONTINUOUS
 62
     7
 10
307.96301217531578
 20
-300.80746875906539
 30
0.0
  0
VERTEX
  5
A50
  8
DATA
  6
CONTINUOUS
 62
     7
 10
307.97573327887687
 20
-300.78411611689882
 30
0.0
  0
VERTEX
  5
A51
  8
DATA
  6
CONTINUOUS
 62
     7
 10
307.98845081131032
 20
-300.76054684951129
 30
0.0
  0
VERTEX
  5
A52
  8
DATA
  6
CONTINUOUS
 62
     7
 10
308.00116477261588
 20
-300.7367609569028
 30
0.0
  0
VERTEX
  5
A53
  8
DATA
  6
CONTINUOUS
 62
     7
 10
308.01387516279368
 20
-300.71275843907353
 30
0.0
  0
VERTEX
  5
A54
  8
DATA
  6
CONTINUOUS
 62
     7
 10
308.02658198184389
 20
-300.68853929602318
 30
0.0
  0
VERTEX
  5
A55
  8
DATA
  6
CONTINUOUS
 62
     7
 10
308.03928522976622
 20
-300.6641035277521
 30
0.0
  0
VERTEX
  5
A56
  8
DATA
  6
CONTINUOUS
 62
     7
 10
308.0519849065609
 20
-300.63945113426013
 30
0.0
  0
VERTEX
  5
A57
  8
DATA
  6
CONTINUOUS
 62
     7
 10
308.06468101222782
 20
-300.61458211554719
 30
0.0
  0
VERTEX
  5
A58
  8
DATA
  6
CONTINUOUS
 62
     7
 10
308.07737354676692
 20
-300.58949647161342
 30
0.0
  0
VERTEX
  5
A59
  8
DATA
  6
CONTINUOUS
 62
     7
 10
308.09012500594042
 20
-300.56398331139673
 30
0.0
  0
VERTEX
  5
A5A
  8
DATA
  6
CONTINUOUS
 62
     7
 10
308.10299788551009
 20
-300.53783174383477
 30
0.0
  0
VERTEX
  5
A5B
  8
DATA
  6
CONTINUOUS
 62
     7
 10
308.11599218547627
 20
-300.51104176892778
 30
0.0
  0
VERTEX
  5
A5C
  8
DATA
  6
CONTINUOUS
 62
     7
 10
308.12910790583862
 20
-300.48361338667593
 30
0.0
  0
VERTEX
  5
A5D
  8
DATA
  6
CONTINUOUS
 62
     7
 10
308.14234504659743
 20
-300.45554659707881
 30
0.0
  0
VERTEX
  5
A5E
  8
DATA
  6
CONTINUOUS
 62
     7
 10
308.15570360775251
 20
-300.42684140013671
 30
0.0
  0
VERTEX
  5
A5F
  8
DATA
  6
CONTINUOUS
 62
     7
 10
308.16918358930383
 20
-300.3974977958494
 30
0.0
  0
VERTEX
  5
A60
  8
DATA
  6
CONTINUOUS
 62
     7
 10
308.18278499125159
 20
-300.36751578421712
 30
0.0
  0
VERTEX
  5
A61
  8
DATA
  6
CONTINUOUS
 62
     7
 10
308.1965078135957
 20
-300.33689536523963
 30
0.0
  0
VERTEX
  5
A62
  8
DATA
  6
CONTINUOUS
 62
     7
 10
308.21035205633598
 20
-300.30563653891721
 30
0.0
  0
VERTEX
  5
A63
  8
DATA
  6
CONTINUOUS
 62
     7
 10
308.22431771947259
 20
-300.27373930524959
 30
0.0
  0
VERTEX
  5
A64
  8
DATA
  6
CONTINUOUS
 62
     7
 10
308.23840480300572
 20
-300.24120366423699
 30
0.0
  0
VERTEX
  5
A65
  8
DATA
  6
CONTINUOUS
 62
     7
 10
308.25261330693507
 20
-300.2080296158793
 30
0.0
  0
VERTEX
  5
A66
  8
DATA
  6
CONTINUOUS
 62
     7
 10
308.26694323126083
 20
-300.17421716017662
 30
0.0
  0
VERTEX
  5
A67
  8
DATA
  6
CONTINUOUS
 62
     7
 10
308.28139457598269
 20
-300.13976629712892
 30
0.0
  0
VERTEX
  5
A68
  8
DATA
  6
CONTINUOUS
 62
     7
 10
308.295967341101
 20
-300.10467702673583
 30
0.0
  0
VERTEX
  5
A69
  8
DATA
  6
CONTINUOUS
 62
     7
 10
308.31066152661572
 20
-300.06894934899782
 30
0.0
  0
VERTEX
  5
A6A
  8
DATA
  6
CONTINUOUS
 62
     7
 10
308.3254771325266
 20
-300.03258326391477
 30
0.0
  0
VERTEX
  5
A6B
  8
DATA
  6
CONTINUOUS
 62
     7
 10
308.34041415883388
 20
-299.99557877148669
 30
0.0
  0
VERTEX
  5
A6C
  8
DATA
  6
CONTINUOUS
 62
     7
 10
308.35547260553773
 20
-299.95793587171329
 30
0.0
  0
VERTEX
  5
A6D
  8
DATA
  6
CONTINUOUS
 62
     7
 10
308.37065247263752
 20
-299.91965456459508
 30
0.0
  0
VERTEX
  5
A6E
  8
DATA
  6
CONTINUOUS
 62
     7
 10
308.38595376013382
 20
-299.8807348501316
 30
0.0
  0
VERTEX
  5
A6F
  8
DATA
  6
CONTINUOUS
 62
     7
 10
308.40137646802651
 20
-299.84117672832332
 30
0.0
  0
VERTEX
  5
A70
  8
DATA
  6
CONTINUOUS
 62
     7
 10
308.41692059631538
 20
-299.80098019916971
 30
0.0
  0
VERTEX
  5
A71
  8
DATA
  6
CONTINUOUS
 62
     7
 10
308.43258614500058
 20
-299.76014526267119
 30
0.0
  0
VERTEX
  5
A72
  8
DATA
  6
CONTINUOUS
 62
     7
 10
308.4483731140823
 20
-299.7186719188274
 30
0.0
  0
VERTEX
  5
A73
  8
DATA
  6
CONTINUOUS
 62
     7
 10
308.46428150356019
 20
-299.67656016763868
 30
0.0
  0
VERTEX
  5
A74
  8
DATA
  6
CONTINUOUS
 62
     7
 10
308.48031131343441
 20
-299.63381000910488
 30
0.0
  0
VERTEX
  5
A75
  8
DATA
  6
CONTINUOUS
 62
     7
 10
308.49646254370492
 20
-299.59042144322598
 30
0.0
  0
VERTEX
  5
A76
  8
DATA
  6
CONTINUOUS
 62
     7
 10
308.51273519437188
 20
-299.54639447000199
 30
0.0
  0
VERTEX
  5
A77
  8
DATA
  6
CONTINUOUS
 62
     7
 10
308.52912926543519
 20
-299.50172908943301
 30
0.0
  0
VERTEX
  5
A78
  8
DATA
  6
CONTINUOUS
 62
     7
 10
308.54564475689477
 20
-299.45642530151878
 30
0.0
  0
VERTEX
  5
A79
  8
DATA
  6
CONTINUOUS
 62
     7
 10
308.56228166875059
 20
-299.41048310625962
 30
0.0
  0
VERTEX
  5
A7A
  8
DATA
  6
CONTINUOUS
 62
     7
 10
308.5790400010028
 20
-299.36390250365531
 30
0.0
  0
VERTEX
  5
A7B
  8
DATA
  6
CONTINUOUS
 62
     7
 10
308.59591975365129
 20
-299.31668349370602
 30
0.0
  0
VERTEX
  5
A7C
  8
DATA
  6
CONTINUOUS
 62
     7
 10
308.61292092669618
 20
-299.26882607641147
 30
0.0
  0
VERTEX
  5
A7D
  8
DATA
  6
CONTINUOUS
 62
     7
 10
308.63004352013741
 20
-299.220330251772
 30
0.0
  0
VERTEX
  5
A7E
  8
DATA
  6
CONTINUOUS
 62
     7
 10
308.64728753397492
 20
-299.17119601978749
 30
0.0
  0
VERTEX
  5
A7F
  8
DATA
  6
CONTINUOUS
 62
     7
 10
308.6646529682086
 20
-299.12142338045783
 30
0.0
  0
VERTEX
  5
A80
  8
DATA
  6
CONTINUOUS
 62
     7
 10
308.68213982283879
 20
-299.07101233378302
 30
0.0
  0
VERTEX
  5
A81
  8
DATA
  6
CONTINUOUS
 62
     7
 10
308.69974809786532
 20
-299.01996287976328
 30
0.0
  0
VERTEX
  5
A82
  8
DATA
  6
CONTINUOUS
 62
     7
 10
308.71747779328808
 20
-298.9682750183984
 30
0.0
  0
VERTEX
  5
A83
  8
DATA
  6
CONTINUOUS
 62
     7
 10
308.7353289091073
 20
-298.91594874968843
 30
0.0
  0
VERTEX
  5
A84
  8
DATA
  6
CONTINUOUS
 62
     7
 10
308.75330144532279
 20
-298.86298407363341
 30
0.0
  0
VERTEX
  5
A85
  8
DATA
  6
CONTINUOUS
 62
     7
 10
308.77139540193463
 20
-298.80938099023319
 30
0.0
  0
VERTEX
  5
A86
  8
DATA
  6
CONTINUOUS
 62
     7
 10
308.78961077894269
 20
-298.755139499488
 30
0.0
  0
VERTEX
  5
A87
  8
DATA
  6
CONTINUOUS
 62
     7
 10
308.8079475763472
 20
-298.70025960139782
 30
0.0
  0
VERTEX
  5
A88
  8
DATA
  6
CONTINUOUS
 62
     7
 10
308.826405794148
 20
-298.64474129596238
 30
0.0
  0
VERTEX
  5
A89
  8
DATA
  6
CONTINUOUS
 62
     7
 10
308.8449854323452
 20
-298.5885845831819
 30
0.0
  0
VERTEX
  5
A8A
  8
DATA
  6
CONTINUOUS
 62
     7
 10
308.86368649093862
 20
-298.53178946305638
 30
0.0
  0
VERTEX
  5
A8B
  8
DATA
  6
CONTINUOUS
 62
     7
 10
308.88250896992832
 20
-298.47435593558578
 30
0.0
  0
VERTEX
  5
A8C
  8
DATA
  6
CONTINUOUS
 62
     7
 10
308.90145286931443
 20
-298.41628400077019
 30
0.0
  0
VERTEX
  5
A8D
  8
DATA
  6
CONTINUOUS
 62
     7
 10
308.92051818909692
 20
-298.3575736586094
 30
0.0
  0
VERTEX
  5
A8E
  8
DATA
  6
CONTINUOUS
 62
     7
 10
308.93970492927559
 20
-298.29822490910368
 30
0.0
  0
VERTEX
  5
A8F
  8
DATA
  6
CONTINUOUS
 62
     7
 10
308.9590130898506
 20
-298.23823775225281
 30
0.0
  0
VERTEX
  5
A90
  8
DATA
  6
CONTINUOUS
 62
     7
 10
308.97844267082201
 20
-298.17761218805691
 30
0.0
  0
VERTEX
  5
A91
  8
DATA
  6
CONTINUOUS
 62
     7
 10
308.99799367218969
 20
-298.1163482165158
 30
0.0
  0
VERTEX
  5
A92
  8
DATA
  6
CONTINUOUS
 62
     7
 10
309.01766609395378
 20
-298.05444583762971
 30
0.0
  0
VERTEX
  5
A93
  8
DATA
  6
CONTINUOUS
 62
     7
 10
309.03745993611409
 20
-297.99190505139848
 30
0.0
  0
VERTEX
  5
A94
  8
DATA
  6
CONTINUOUS
 62
     7
 10
309.0573751986708
 20
-297.92872585782231
 30
0.0
  0
VERTEX
  5
A95
  8
DATA
  6
CONTINUOUS
 62
     7
 10
309.0774118816239
 20
-297.864908256901
 30
0.0
  0
VERTEX
  5
A96
  8
DATA
  6
CONTINUOUS
 62
     7
 10
309.09756998497318
 20
-297.80045224863449
 30
0.0
  0
VERTEX
  5
A97
  8
DATA
  6
CONTINUOUS
 62
     7
 10
309.11784950871879
 20
-297.73535783302299
 30
0.0
  0
VERTEX
  5
A98
  8
DATA
  6
CONTINUOUS
 62
     7
 10
309.1382504528608
 20
-297.66962501006651
 30
0.0
  0
VERTEX
  5
A99
  8
DATA
  6
CONTINUOUS
 62
     7
 10
309.15874538854052
 20
-297.60291475764109
 30
0.0
  0
VERTEX
  5
A9A
  8
DATA
  6
CONTINUOUS
 62
     7
 10
309.17930688689893
 20
-297.53488805362292
 30
0.0
  0
VERTEX
  5
A9B
  8
DATA
  6
CONTINUOUS
 62
     7
 10
309.19993494793607
 20
-297.46554489801213
 30
0.0
  0
VERTEX
  5
A9C
  8
DATA
  6
CONTINUOUS
 62
     7
 10
309.22062957165213
 20
-297.39488529080859
 30
0.0
  0
VERTEX
  5
A9D
  8
DATA
  6
CONTINUOUS
 62
     7
 10
309.24139075804692
 20
-297.32290923201242
 30
0.0
  0
VERTEX
  5
A9E
  8
DATA
  6
CONTINUOUS
 62
     7
 10
309.26221850712051
 20
-297.24961672162351
 30
0.0
  0
VERTEX
  5
A9F
  8
DATA
  6
CONTINUOUS
 62
     7
 10
309.28311281887289
 20
-297.17500775964203
 30
0.0
  0
VERTEX
  5
AA0
  8
DATA
  6
CONTINUOUS
 62
     7
 10
309.30407369330419
 20
-297.09908234606758
 30
0.0
  0
VERTEX
  5
AA1
  8
DATA
  6
CONTINUOUS
 62
     7
 10
309.32510113041423
 20
-297.02184048090049
 30
0.0
  0
VERTEX
  5
AA2
  8
DATA
  6
CONTINUOUS
 62
     7
 10
309.34619513020311
 20
-296.9432821641409
 30
0.0
  0
VERTEX
  5
AA3
  8
DATA
  6
CONTINUOUS
 62
     7
 10
309.3673556926708
 20
-296.86340739578861
 30
0.0
  0
VERTEX
  5
AA4
  8
DATA
  6
CONTINUOUS
 62
     7
 10
309.38858281781728
 20
-296.78221617584347
 30
0.0
  0
VERTEX
  5
AA5
  8
DATA
  6
CONTINUOUS
 62
     7
 10
309.40987650564261
 20
-296.6997085043057
 30
0.0
  0
VERTEX
  5
AA6
  8
DATA
  6
CONTINUOUS
 62
     7
 10
309.43123675614669
 20
-296.61588438117519
 30
0.0
  0
VERTEX
  5
AA7
  8
DATA
  6
CONTINUOUS
 62
     7
 10
309.45266356932962
 20
-296.53074380645222
 30
0.0
  0
VERTEX
  5
AA8
  8
DATA
  6
CONTINUOUS
 62
     7
 10
309.4741569451914
 20
-296.44428678013628
 30
0.0
  0
VERTEX
  5
AA9
  8
DATA
  6
CONTINUOUS
 62
     7
 10
309.49571688373197
 20
-296.35651330222782
 30
0.0
  0
VERTEX
  5
AAA
  8
DATA
  6
CONTINUOUS
 62
     7
 10
309.51734338495118
 20
-296.26742337272651
 30
0.0
  0
VERTEX
  5
AAB
  8
DATA
  6
CONTINUOUS
 62
     7
 10
309.5390364488494
 20
-296.17701699163263
 30
0.0
  0
VERTEX
  5
AAC
  8
DATA
  6
CONTINUOUS
 62
     7
 10
309.56079607542642
 20
-296.085294158946
 30
0.0
  0
VERTEX
  5
AAD
  8
DATA
  6
CONTINUOUS
 62
     7
 10
309.58262226468219
 20
-295.99225487466668
 30
0.0
  0
VERTEX
  5
AAE
  8
DATA
  6
CONTINUOUS
 62
     7
 10
309.6045150166168
 20
-295.89789913879468
 30
0.0
  0
VERTEX
  5
AAF
  8
DATA
  6
CONTINUOUS
 62
     7
 10
309.62647433123021
 20
-295.80222695133
 30
0.0
  0
VERTEX
  5
AB0
  8
DATA
  6
CONTINUOUS
 62
     7
 10
309.64850020852248
 20
-295.70523831227263
 30
0.0
  0
VERTEX
  5
AB1
  8
DATA
  6
CONTINUOUS
 62
     7
 10
309.6705926484936
 20
-295.60693322162263
 30
0.0
  0
VERTEX
  5
AB2
  8
DATA
  6
CONTINUOUS
 62
     7
 10
309.69275165114328
 20
-295.50731167937982
 30
0.0
  0
VERTEX
  5
AB3
  8
DATA
  6
CONTINUOUS
 62
     7
 10
309.71497721647199
 20
-295.40637368554422
 30
0.0
  0
VERTEX
  5
AB4
  8
DATA
  6
CONTINUOUS
 62
     7
 10
309.7372693444795
 20
-295.30411924011622
 30
0.0
  0
VERTEX
  5
AB5
  8
DATA
  6
CONTINUOUS
 62
     7
 10
309.7596280351658
 20
-295.20054834309542
 30
0.0
  0
VERTEX
  5
AB6
  8
DATA
  6
CONTINUOUS
 62
     7
 10
309.7820532885309
 20
-295.09566099448182
 30
0.0
  0
VERTEX
  5
AB7
  8
DATA
  6
CONTINUOUS
 62
     7
 10
309.8045451045748
 20
-294.98945719427559
 30
0.0
  0
VERTEX
  5
AB8
  8
DATA
  6
CONTINUOUS
 62
     7
 10
309.82710348329761
 20
-294.88193694247661
 30
0.0
  0
VERTEX
  5
AB9
  8
DATA
  6
CONTINUOUS
 62
     7
 10
309.84972842469898
 20
-294.77310023908501
 30
0.0
  0
VERTEX
  5
ABA
  8
DATA
  6
CONTINUOUS
 62
     7
 10
309.87241992877938
 20
-294.66294708410072
 30
0.0
  0
VERTEX
  5
ABB
  8
DATA
  6
CONTINUOUS
 62
     7
 10
309.89517799553857
 20
-294.55147747752369
 30
0.0
  0
VERTEX
  5
ABC
  8
DATA
  6
CONTINUOUS
 62
     7
 10
309.91800262497651
 20
-294.43869141935397
 30
0.0
  0
VERTEX
  5
ABD
  8
DATA
  6
CONTINUOUS
 62
     7
 10
309.9408938170933
 20
-294.32458890959163
 30
0.0
  0
VERTEX
  5
ABE
  8
DATA
  6
CONTINUOUS
 62
     7
 10
309.96385157188888
 20
-294.20916994823648
 30
0.0
  0
VERTEX
  5
ABF
  8
DATA
  6
CONTINUOUS
 62
     7
 10
309.98687588936332
 20
-294.09243453528882
 30
0.0
  0
VERTEX
  5
AC0
  8
DATA
  6
CONTINUOUS
 62
     7
 10
310.0099667695165
 20
-293.97438267074818
 30
0.0
  0
VERTEX
  5
AC1
  8
DATA
  6
CONTINUOUS
 62
     7
 10
310.03312421234853
 20
-293.85501435461521
 30
0.0
  0
VERTEX
  5
AC2
  8
DATA
  6
CONTINUOUS
 62
     7
 10
310.05634821785929
 20
-293.73432958688932
 30
0.0
  0
VERTEX
  5
AC3
  8
DATA
  6
CONTINUOUS
 62
     7
 10
310.0796387860488
 20
-293.61232836757068
 30
0.0
  0
VERTEX
  5
AC4
  8
DATA
  6
CONTINUOUS
 62
     7
 10
310.10299591691739
 20
-293.48901069665942
 30
0.0
  0
VERTEX
  5
AC5
  8
DATA
  6
CONTINUOUS
 62
     7
 10
310.12641961046472
 20
-293.36437657415547
 30
0.0
  0
VERTEX
  5
AC6
  8
DATA
  6
CONTINUOUS
 62
     7
 10
310.14990986669068
 20
-293.23842600005878
 30
0.0
  0
VERTEX
  5
AC7
  8
DATA
  6
CONTINUOUS
 62
     7
 10
310.1734666855956
 20
-293.11115897436969
 30
0.0
  0
VERTEX
  5
AC8
  8
DATA
  6
CONTINUOUS
 62
     7
 10
310.19709006717932
 20
-292.98257549708762
 30
0.0
  0
VERTEX
  5
AC9
  8
DATA
  6
CONTINUOUS
 62
     7
 10
310.22078001144178
 20
-292.85267556821287
 30
0.0
  0
VERTEX
  5
ACA
  8
DATA
  6
CONTINUOUS
 62
     7
 10
310.2445365183832
 20
-292.7214591877455
 30
0.0
  0
VERTEX
  5
ACB
  8
DATA
  6
CONTINUOUS
 62
     7
 10
310.26835958800331
 20
-292.58892635568537
 30
0.0
  0
VERTEX
  5
ACC
  8
DATA
  6
CONTINUOUS
 62
     7
 10
310.29224922030221
 20
-292.45507707203262
 30
0.0
  0
VERTEX
  5
ACD
  8
DATA
  6
CONTINUOUS
 62
     7
 10
310.31620541527991
 20
-292.31991133678719
 30
0.0
  0
VERTEX
  5
ACE
  8
DATA
  6
CONTINUOUS
 62
     7
 10
310.34022817293652
 20
-292.18342914994889
 30
0.0
  0
VERTEX
  5
ACF
  8
DATA
  6
CONTINUOUS
 62
     7
 10
310.36431749327193
 20
-292.04563051151808
 30
0.0
  0
VERTEX
  5
AD0
  8
DATA
  6
CONTINUOUS
 62
     7
 10
310.38847337628607
 20
-291.90651542149442
 30
0.0
  0
VERTEX
  5
AD1
  8
DATA
  6
CONTINUOUS
 62
     7
 10
310.41269582197901
 20
-291.76608387987829
 30
0.0
  0
VERTEX
  5
AD2
  8
DATA
  6
CONTINUOUS
 62
     7
 10
310.43698483035092
 20
-291.62433588666943
 30
0.0
  0
VERTEX
  5
AD3
  8
DATA
  6
CONTINUOUS
 62
     7
 10
310.46134040140151
 20
-291.48127144186782
 30
0.0
  0
VERTEX
  5
AD4
  8
DATA
  6
CONTINUOUS
 62
     7
 10
310.4857625351309
 20
-291.3368905454733
 30
0.0
  0
VERTEX
  5
AD5
  8
DATA
  6
CONTINUOUS
 62
     7
 10
310.5102512315392
 20
-291.19119319748643
 30
0.0
  0
VERTEX
  5
AD6
  8
DATA
  6
CONTINUOUS
 62
     7
 10
310.53480649062618
 20
-291.0441793979067
 30
0.0
  0
VERTEX
  5
AD7
  8
DATA
  6
CONTINUOUS
 62
     7
 10
310.55942831239201
 20
-290.89584914673441
 30
0.0
  0
VERTEX
  5
AD8
  8
DATA
  6
CONTINUOUS
 62
     7
 10
310.5841166968367
 20
-290.7462024439692
 30
0.0
  0
VERTEX
  5
AD9
  8
DATA
  6
CONTINUOUS
 62
     7
 10
310.60865231495688
 20
-290.59551498611461
 30
0.0
  0
VERTEX
  5
ADA
  8
DATA
  6
CONTINUOUS
 62
     7
 10
310.63281583774949
 20
-290.4440624696739
 30
0.0
  0
VERTEX
  5
ADB
  8
DATA
  6
CONTINUOUS
 62
     7
 10
310.65660726521452
 20
-290.29184489464689
 30
0.0
  0
VERTEX
  5
ADC
  8
DATA
  6
CONTINUOUS
 62
     7
 10
310.6800265973518
 20
-290.13886226103381
 30
0.0
  0
VERTEX
  5
ADD
  8
DATA
  6
CONTINUOUS
 62
     7
 10
310.70307383416139
 20
-289.98511456883449
 30
0.0
  0
VERTEX
  5
ADE
  8
DATA
  6
CONTINUOUS
 62
     7
 10
310.7257489756434
 20
-289.83060181804888
 30
0.0
  0
VERTEX
  5
ADF
  8
DATA
  6
CONTINUOUS
 62
     7
 10
310.74805202179778
 20
-289.67532400867719
 30
0.0
  0
VERTEX
  5
AE0
  8
DATA
  6
CONTINUOUS
 62
     7
 10
310.76998297262452
 20
-289.51928114071927
 30
0.0
  0
VERTEX
  5
AE1
  8
DATA
  6
CONTINUOUS
 62
     7
 10
310.79154182812351
 20
-289.36247321417522
 30
0.0
  0
VERTEX
  5
AE2
  8
DATA
  6
CONTINUOUS
 62
     7
 10
310.81272858829487
 20
-289.20490022904488
 30
0.0
  0
VERTEX
  5
AE3
  8
DATA
  6
CONTINUOUS
 62
     7
 10
310.8335432531386
 20
-289.04656218532841
 30
0.0
  0
VERTEX
  5
AE4
  8
DATA
  6
CONTINUOUS
 62
     7
 10
310.85398582265469
 20
-288.8874590830257
 30
0.0
  0
VERTEX
  5
AE5
  8
DATA
  6
CONTINUOUS
 62
     7
 10
310.87405629684309
 20
-288.72759092213681
 30
0.0
  0
VERTEX
  5
AE6
  8
DATA
  6
CONTINUOUS
 62
     7
 10
310.8937546757038
 20
-288.56695770266163
 30
0.0
  0
VERTEX
  5
AE7
  8
DATA
  6
CONTINUOUS
 62
     7
 10
310.91308095923688
 20
-288.40555942460031
 30
0.0
  0
VERTEX
  5
AE8
  8
DATA
  6
CONTINUOUS
 62
     7
 10
310.93203514744238
 20
-288.24339608795282
 30
0.0
  0
VERTEX
  5
AE9
  8
DATA
  6
CONTINUOUS
 62
     7
 10
310.95061724032018
 20
-288.08046769271908
 30
0.0
  0
VERTEX
  5
AEA
  8
DATA
  6
CONTINUOUS
 62
     7
 10
310.96882723787041
 20
-287.91677423889922
 30
0.0
  0
VERTEX
  5
AEB
  8
DATA
  6
CONTINUOUS
 62
     7
 10
310.9866651400929
 20
-287.75231572649312
 30
0.0
  0
VERTEX
  5
AEC
  8
DATA
  6
CONTINUOUS
 62
     7
 10
311.0041309469878
 20
-287.58709215550073
 30
0.0
  0
VERTEX
  5
AED
  8
DATA
  6
CONTINUOUS
 62
     7
 10
311.0212246585549
 20
-287.42110352592221
 30
0.0
  0
VERTEX
  5
AEE
  8
DATA
  6
CONTINUOUS
 62
     7
 10
311.03794627479448
 20
-287.25434983775762
 30
0.0
  0
VERTEX
  5
AEF
  8
DATA
  6
CONTINUOUS
 62
     7
 10
311.05429579570642
 20
-287.08683109100662
 30
0.0
  0
VERTEX
  5
AF0
  8
DATA
  6
CONTINUOUS
 62
     7
 10
311.07027322129068
 20
-286.91854728566949
 30
0.0
  0
VERTEX
  5
AF1
  8
DATA
  6
CONTINUOUS
 62
     7
 10
311.0858785515473
 20
-286.74949842174613
 30
0.0
  0
VERTEX
  5
AF2
  8
DATA
  6
CONTINUOUS
 62
     7
 10
311.10111178647622
 20
-286.57968449923658
 30
0.0
  0
VERTEX
  5
AF3
  8
DATA
  6
CONTINUOUS
 62
     7
 10
311.11597292607752
 20
-286.40910551814102
 30
0.0
  0
VERTEX
  5
AF4
  8
DATA
  6
CONTINUOUS
 62
     7
 10
311.13046197035118
 20
-286.23776147845911
 30
0.0
  0
VERTEX
  5
AF5
  8
DATA
  6
CONTINUOUS
 62
     7
 10
311.1445789192972
 20
-286.0656523801909
 30
0.0
  0
VERTEX
  5
AF6
  8
DATA
  6
CONTINUOUS
 62
     7
 10
311.15832377291559
 20
-285.89277822333668
 30
0.0
  0
VERTEX
  5
AF7
  8
DATA
  6
CONTINUOUS
 62
     7
 10
311.17169653120618
 20
-285.71913900789622
 30
0.0
  0
VERTEX
  5
AF8
  8
DATA
  6
CONTINUOUS
 62
     7
 10
311.18469719416919
 20
-285.5447347338694
 30
0.0
  0
VERTEX
  5
AF9
  8
DATA
  6
CONTINUOUS
 62
     7
 10
311.19732576180462
 20
-285.36956540125658
 30
0.0
  0
VERTEX
  5
AFA
  8
DATA
  6
CONTINUOUS
 62
     7
 10
311.2095822341123
 20
-285.19363101005752
 30
0.0
  0
VERTEX
  5
AFB
  8
DATA
  6
CONTINUOUS
 62
     7
 10
311.22146661109241
 20
-285.0169315602721
 30
0.0
  0
VERTEX
  5
AFC
  8
DATA
  6
CONTINUOUS
 62
     7
 10
311.23297889274482
 20
-284.83946705190073
 30
0.0
  0
VERTEX
  5
AFD
  8
DATA
  6
CONTINUOUS
 62
     7
 10
311.24411907906961
 20
-284.661237484943
 30
0.0
  0
VERTEX
  5
AFE
  8
DATA
  6
CONTINUOUS
 62
     7
 10
311.2548871700667
 20
-284.48224285939909
 30
0.0
  0
VERTEX
  5
AFF
  8
DATA
  6
CONTINUOUS
 62
     7
 10
311.26528316573609
 20
-284.302483175269
 30
0.0
  0
VERTEX
  5
B00
  8
DATA
  6
CONTINUOUS
 62
     7
 10
311.27530706607803
 20
-284.12195843255267
 30
0.0
  0
VERTEX
  5
B01
  8
DATA
  6
CONTINUOUS
 62
     7
 10
311.2849588710921
 20
-283.94066863125028
 30
0.0
  0
VERTEX
  5
B02
  8
DATA
  6
CONTINUOUS
 62
     7
 10
311.29423858077871
 20
-283.75861377136158
 30
0.0
  0
VERTEX
  5
B03
  8
DATA
  6
CONTINUOUS
 62
     7
 10
311.30314619513757
 20
-283.5757938528867
 30
0.0
  0
VERTEX
  5
B04
  8
DATA
  6
CONTINUOUS
 62
     7
 10
311.31168171416869
 20
-283.39220887582559
 30
0.0
  0
VERTEX
  5
B05
  8
DATA
  6
CONTINUOUS
 62
     7
 10
311.31984513787222
 20
-283.2078588401784
 30
0.0
  0
VERTEX
  5
B06
  8
DATA
  6
CONTINUOUS
 62
     7
 10
311.32763646624818
 20
-283.02274374594481
 30
0.0
  0
VERTEX
  5
B07
  8
DATA
  6
CONTINUOUS
 62
     7
 10
311.33505569929639
 20
-282.83686359312532
 30
0.0
  0
VERTEX
  5
B08
  8
DATA
  6
CONTINUOUS
 62
     7
 10
311.34210283701708
 20
-282.6502183817193
 30
0.0
  0
VERTEX
  5
B09
  8
DATA
  6
CONTINUOUS
 62
     7
 10
311.34877787941002
 20
-282.46280811172733
 30
0.0
  0
VERTEX
  5
B0A
  8
DATA
  6
CONTINUOUS
 62
     7
 10
311.35508082647527
 20
-282.27463278314912
 30
0.0
  0
VERTEX
  5
B0B
  8
DATA
  6
CONTINUOUS
 62
     7
 10
311.36101167821289
 20
-282.08569239598449
 30
0.0
  0
VERTEX
  5
B0C
  8
DATA
  6
CONTINUOUS
 62
     7
 10
311.36657043462287
 20
-281.89598695023398
 30
0.0
  0
VERTEX
  5
B0D
  8
DATA
  6
CONTINUOUS
 62
     7
 10
311.37175709570522
 20
-281.70551644589699
 30
0.0
  0
VERTEX
  5
B0E
  8
DATA
  6
CONTINUOUS
 62
     7
 10
311.37657166145988
 20
-281.51428088297399
 30
0.0
  0
VERTEX
  5
B0F
  8
DATA
  6
CONTINUOUS
 62
     7
 10
311.3810141318869
 20
-281.32228026146481
 30
0.0
  0
VERTEX
  5
B10
  8
DATA
  6
CONTINUOUS
 62
     7
 10
311.3850845069864
 20
-281.12951458136928
 30
0.0
  0
VERTEX
  5
B11
  8
DATA
  6
CONTINUOUS
 62
     7
 10
311.3887827867581
 20
-280.93598384268762
 30
0.0
  0
VERTEX
  5
B12
  8
DATA
  6
CONTINUOUS
 62
     7
 10
311.39210897120222
 20
-280.74168804541972
 30
0.0
  0
VERTEX
  5
B13
  8
DATA
  6
CONTINUOUS
 62
     7
 10
311.39506306031859
 20
-280.5466271895657
 30
0.0
  0
VERTEX
  5
B14
  8
DATA
  6
CONTINUOUS
 62
     7
 10
311.39764505410739
 20
-280.35080127512549
 30
0.0
  0
VERTEX
  5
B15
  8
DATA
  6
CONTINUOUS
 62
     7
 10
311.39985495256849
 20
-280.15421030209899
 30
0.0
  0
VERTEX
  5
B16
  8
DATA
  6
CONTINUOUS
 62
     7
 10
311.40169275570202
 20
-279.95685427048642
 30
0.0
  0
VERTEX
  5
B17
  8
DATA
  6
CONTINUOUS
 62
     7
 10
311.40315846350779
 20
-279.75873318028749
 30
0.0
  0
VERTEX
  5
B18
  8
DATA
  6
CONTINUOUS
 62
     7
 10
311.40425207598599
 20
-279.5598470315025
 30
0.0
  0
VERTEX
  5
B19
  8
DATA
  6
CONTINUOUS
 62
     7
 10
311.40425207598599
 20
-279.5598470315025
 30
0.0
  0
VERTEX
  5
B1A
  8
DATA
  6
CONTINUOUS
 62
     7
 10
311.40450000295789
 20
-279.51799914937237
 30
0.0
  0
SEQEND
  5
B1B
  8
DATA
  6
CONTINUOUS
 62
     7
  0
LINE
  5
2DA
  8
DATA
  6
CONTINUOUS
 62
     7
 10
311.40450000295789
 20
-279.51799914937237
 30
0.0
 11
311.40450000295789
 21
-108.4103059775981
 31
0.0
  0
LINE
  5
2DB
  8
DATA
  6
CONTINUOUS
 62
     7
 10
316.29687392419493
 20
-223.98445259929721
 30
0.0
 11
316.29687392419493
 21
-189.5738029291376
 31
0.0
  0
LINE
  5
2DC
  8
DATA
  6
CONTINUOUS
 62
     7
 10
287.94615528907212
 20
-450.00000000009811
 30
0.0
 11
38.30769249995901
 21
-450.00000000009811
 31
0.0
  0
LINE
  5
2DD
  8
DATA
  6
CONTINUOUS
 62
     7
 10
287.94615528907212
 20
-450.00000000009811
 30
0.0
 11
38.30769249995901
 21
-450.00000000009811
 31
0.0
  0
ARC
  5
2DE
  8
DATA
  6
CONTINUOUS
 62
     7
 10
234.3153857890718
 20
-92.831125895050775
 30
0.0
 40
7.278448734261417
 50
0.0
 51
81.495376618600076
  0
LINE
  5
2DF
  8
DATA
  6
CONTINUOUS
 62
     7
 10
287.94615528907212
 20
-437.23076917187279
 30
0.0
 11
38.30769249995901
 21
-437.23076917187279
 31
0.0
  0
LINE
  5
2E0
  8
DATA
  6
CONTINUOUS
 62
     7
 10
86.575385049958825
 20
-161.0457939410324
 30
0.0
 11
86.575385049958825
 21
-92.831125895050775
 31
0.0
  0
ARC
  5
2E1
  8
DATA
  6
CONTINUOUS
 62
     7
 10
164.08461621084621
 20
-562.49692364687235
 30
0.0
 40
482.16615626411277
 50
81.495376618599963
 51
98.504623381400023
  0
ARC
  5
2E2
  8
DATA
  6
CONTINUOUS
 62
     7
 10
93.853846624958706
 20
-161.0457939410324
 30
0.0
 40
7.2784487342613877
 50
180.0
 51
261.49537661860029
  0
ARC
  5
2E3
  8
DATA
  6
CONTINUOUS
 62
     7
 10
164.08461621084621
 20
308.62000380312747
 30
0.0
 40
482.16615626411277
 50
261.49537661860001
 51
278.50462338139999
  0
ARC
  5
2E4
  8
DATA
  6
CONTINUOUS
 62
     7
 10
234.3153857890718
 20
-161.0457939410324
 30
0.0
 40
7.2784487342614659
 50
278.50462338139988
 51
0.0
  0
ARC
  5
2E5
  8
DATA
  6
CONTINUOUS
 62
     7
 10
93.853846624958706
 20
-92.831125895050775
 30
0.0
 40
7.2784487342614597
 50
98.504623381399639
 51
180.0
  0
LINE
  5
2E6
  8
DATA
  6
CONTINUOUS
 62
     7
 10
241.59384736407199
 20
-92.831125895050775
 30
0.0
 11
241.59384736407199
 21
-161.0457939410324
 31
0.0
  0
LINE
  5
2E7
  8
DATA
  6
CONTINUOUS
 62
     7
 10
719.23077083585895
 20
-41.384613335985172
 30
0.0
 11
412.76923083586291
 21
-41.384613335985172
 31
0.0
  0
LINE
  5
2E8
  8
DATA
  6
CONTINUOUS
 62
     7
 10
732.00000166408381
 20
-59.899998046872291
 30
0.0
 11
732.00000166408381
 21
-54.153844171872372
 31
0.0
  0
LINE
  5
2E9
  8
DATA
  6
CONTINUOUS
 62
     7
 10
466.06737704691523
 20
-356.65983288913878
 30
0.0
 11
473.47353092514089
 21
-356.65983288913878
 31
0.0
  0
ARC
  5
2EA
  8
DATA
  6
CONTINUOUS
 62
     7
 10
466.06737704691523
 20
-357.93675597502602
 30
0.0
 40
1.2769230858872329
 50
90.0
 51
180.0
  0
LINE
  5
2EB
  8
DATA
  6
CONTINUOUS
 62
     7
 10
464.79045396102799
 20
-362.27574060963877
 30
0.0
 11
464.79045396102799
 21
-357.93675597502602
 31
0.0
  0
ARC
  5
2EC
  8
DATA
  6
CONTINUOUS
 62
     7
 10
466.06737704691523
 20
-362.27574060963877
 30
0.0
 40
1.2769230858872329
 50
180.0
 51
270.0
  0
LINE
  5
2ED
  8
DATA
  6
CONTINUOUS
 62
     7
 10
467.21660782191532
 20
-363.55266369552612
 30
0.0
 11
466.06737704691523
 21
-363.55266369552612
 31
0.0
  0
LINE
  5
2EE
  8
DATA
  6
CONTINUOUS
 62
     7
 10
467.21660782191532
 20
-365.47916474553568
 30
0.0
 11
467.21660782191532
 21
-363.83515842611342
 31
0.0
  0
LINE
  5
2EF
  8
DATA
  6
CONTINUOUS
 62
     7
 10
467.21660782191532
 20
-363.83515842611342
 30
0.0
 11
467.21660782191532
 21
-363.55266369552612
 31
0.0
  0
ARC
  5
2F0
  8
DATA
  6
CONTINUOUS
 62
     7
 10
469.77045398602809
 20
-375.04011301113241
 30
0.0
 40
9.8961538983872988
 50
75.044751683400065
 51
104.9552483165993
  0
LINE
  5
2F1
  8
DATA
  6
CONTINUOUS
 62
     7
 10
472.3243001501408
 20
-363.55266369552612
 30
0.0
 11
472.3243001501408
 21
-363.83515842611342
 31
0.0
  0
LINE
  5
2F2
  8
DATA
  6
CONTINUOUS
 62
     7
 10
472.3243001501408
 20
-363.83515842611342
 30
0.0
 11
472.3243001501408
 21
-365.47916474553568
 31
0.0
  0
LINE
  5
2F3
  8
DATA
  6
CONTINUOUS
 62
     7
 10
473.47353092514089
 20
-363.55266369552612
 30
0.0
 11
472.3243001501408
 21
-363.55266369552612
 31
0.0
  0
ARC
  5
2F4
  8
DATA
  6
CONTINUOUS
 62
     7
 10
473.47353092514089
 20
-362.27574060963877
 30
0.0
 40
1.2769230858873459
 50
270.0
 51
0.0
  0
LINE
  5
2F5
  8
DATA
  6
CONTINUOUS
 62
     7
 10
474.75045401102818
 20
-357.93675597502602
 30
0.0
 11
474.75045401102818
 21
-362.27574060963877
 31
0.0
  0
ARC
  5
2F6
  8
DATA
  6
CONTINUOUS
 62
     7
 10
473.47353092514089
 20
-357.93675597502602
 30
0.0
 40
1.2769230858872329
 50
0.0
 51
90.0
  0
ARC
  5
2F7
  8
DATA
  6
CONTINUOUS
 62
     7
 10
473.04958669273481
 20
-375.1598904577674
 30
0.0
 40
1.2769230858872209
 50
258.46304096719888
 51
101.5369590328005
  0
ARC
  5
2F8
  8
DATA
  6
CONTINUOUS
 62
     7
 10
469.85727898184763
 20
-375.1598904577674
 30
0.0
 40
3.1923077108872202
 50
293.07391806560389
 51
336.92608193440071
  0
ARC
  5
2F9
  8
DATA
  6
CONTINUOUS
 62
     7
 10
469.85727898184763
 20
-378.35219816099328
 30
0.0
 40
1.276923085886976
 50
168.46304096720189
 51
11.53695903279805
  0
ARC
  5
2FA
  8
DATA
  6
CONTINUOUS
 62
     7
 10
469.85727898184763
 20
-375.1598904577674
 30
0.0
 40
3.1923077108871309
 50
203.07391806560011
 51
246.92608193439801
  0
ARC
  5
2FB
  8
DATA
  6
CONTINUOUS
 62
     7
 10
466.66497127096039
 20
-375.1598904577674
 30
0.0
 40
1.2769230858872771
 50
78.46304096719949
 51
281.53695903280101
  0
ARC
  5
2FC
  8
DATA
  6
CONTINUOUS
 62
     7
 10
469.85727898184763
 20
-375.1598904577674
 30
0.0
 40
3.1923077108871531
 50
23.073918065601092
 51
156.92608193439889
  0
LINE
  5
2FD
  8
DATA
  6
CONTINUOUS
 62
     7
 10
658.06615513908866
 20
-377.26646117598602
 30
0.0
 11
658.06615513908866
 21
-374.96799962598601
 31
0.0
  0
LINE
  5
2FE
  8
DATA
  6
CONTINUOUS
 62
     7
 10
659.34307822497613
 20
-377.26646117598602
 30
0.0
 11
658.06615513908866
 21
-377.26646117598602
 31
0.0
  0
LINE
  5
2FF
  8
DATA
  6
CONTINUOUS
 62
     7
 10
659.34307822497613
 20
-374.96799962598601
 30
0.0
 11
659.34307822497613
 21
-377.26646117598602
 31
0.0
  0
LINE
  5
300
  8
DATA
  6
CONTINUOUS
 62
     7
 10
658.06615513908866
 20
-374.96799962598601
 30
0.0
 11
659.34307822497613
 21
-374.96799962598601
 31
0.0
  0
LINE
  5
301
  8
DATA
  6
CONTINUOUS
 62
     7
 10
664.29246433105857
 20
-372.41415346187318
 30
0.0
 11
664.29246433105857
 21
-370.11569191187323
 31
0.0
  0
LINE
  5
302
  8
DATA
  6
CONTINUOUS
 62
     7
 10
665.56938741694569
 20
-372.41415346187318
 30
0.0
 11
664.29246433105857
 21
-372.41415346187318
 31
0.0
  0
LINE
  5
303
  8
DATA
  6
CONTINUOUS
 62
     7
 10
665.56938741694569
 20
-370.11569191187323
 30
0.0
 11
665.56938741694569
 21
-372.41415346187318
 31
0.0
  0
LINE
  5
304
  8
DATA
  6
CONTINUOUS
 62
     7
 10
664.29246433105857
 20
-370.11569191187323
 30
0.0
 11
665.56938741694569
 21
-370.11569191187323
 31
0.0
  0
LINE
  5
305
  8
DATA
  6
CONTINUOUS
 62
     7
 10
653.46923203908887
 20
-369.03541498337319
 30
0.0
 11
653.46923203908887
 21
-382.24646120098618
 31
0.0
  0
LINE
  5
306
  8
DATA
  6
CONTINUOUS
 62
     7
 10
656.85818590736312
 20
-365.64646111509887
 30
0.0
 11
653.46923203908887
 21
-369.03541498337319
 31
0.0
  0
LINE
  5
307
  8
DATA
  6
CONTINUOUS
 62
     7
 10
650.40461663908866
 20
-369.22184575098612
 30
0.0
 11
650.40461663908866
 21
-378.1603073368733
 31
0.0
  0
LINE
  5
308
  8
DATA
  6
CONTINUOUS
 62
     7
 10
499.72769281086312
 20
-384.16184582598612
 30
0.0
 11
501.1578466590887
 21
-384.16184582598612
 31
0.0
  0
LINE
  5
309
  8
DATA
  6
CONTINUOUS
 62
     7
 10
501.1578466590887
 20
-384.16184582598612
 30
0.0
 11
501.1578466590887
 21
-385.13556141272687
 31
0.0
  0
LINE
  5
30A
  8
DATA
  6
CONTINUOUS
 62
     7
 10
501.1578466590887
 20
-385.13556141272687
 30
0.0
 11
499.72769281086312
 21
-385.13556141272687
 31
0.0
  0
LINE
  5
30B
  8
DATA
  6
CONTINUOUS
 62
     7
 10
499.72769281086312
 20
-385.13556141272687
 30
0.0
 11
499.72769281086312
 21
-384.16184582598612
 31
0.0
  0
LINE
  5
30C
  8
DATA
  6
CONTINUOUS
 62
     7
 10
499.72769281086312
 20
-381.60799966187329
 30
0.0
 11
499.72769281086312
 21
-384.16184582598612
 31
0.0
  0
ARC
  5
30D
  8
DATA
  6
CONTINUOUS
 62
     7
 10
656.78923206086324
 20
-378.1603073368733
 30
0.0
 40
6.3846154141128864
 50
180.0
 51
270.0
  0
LINE
  5
30E
  8
DATA
  6
CONTINUOUS
 62
     7
 10
656.78923206086324
 20
-384.54492275098607
 30
0.0
 11
673.1338475249745
 21
-384.54492275098607
 31
0.0
  0
LINE
  5
30F
  8
DATA
  6
CONTINUOUS
 62
     7
 10
499.72769281086312
 20
-381.60799966187329
 30
0.0
 11
501.1578466590887
 21
-381.60799966187329
 31
0.0
  0
LINE
  5
310
  8
DATA
  6
CONTINUOUS
 62
     7
 10
501.1578466590887
 20
-381.60799966187329
 30
0.0
 11
501.1578466590887
 21
-384.16184582598612
 31
0.0
  0
LINE
  5
311
  8
DATA
  6
CONTINUOUS
 62
     7
 10
673.13384752497473
 20
-362.83723033687318
 30
0.0
 11
656.78923206086324
 21
-362.83723033687318
 31
0.0
  0
LINE
  5
312
  8
DATA
  6
CONTINUOUS
 62
     7
 10
502.28153897497589
 20
-384.16184582598612
 30
0.0
 11
503.71169283086311
 21
-384.16184582598612
 31
0.0
  0
LINE
  5
313
  8
DATA
  6
CONTINUOUS
 62
     7
 10
503.71169283086311
 20
-384.16184582598612
 30
0.0
 11
503.71169283086311
 21
-385.13556141272687
 31
0.0
  0
LINE
  5
314
  8
DATA
  6
CONTINUOUS
 62
     7
 10
503.71169283086311
 20
-385.13556141272687
 30
0.0
 11
502.28153897497589
 21
-385.13556141272687
 31
0.0
  0
LINE
  5
315
  8
DATA
  6
CONTINUOUS
 62
     7
 10
502.28153897497589
 20
-385.13556141272687
 30
0.0
 11
502.28153897497589
 21
-384.16184582598612
 31
0.0
  0
LINE
  5
316
  8
DATA
  6
CONTINUOUS
 62
     7
 10
502.28153897497589
 20
-381.60799966187329
 30
0.0
 11
502.28153897497589
 21
-384.16184582598612
 31
0.0
  0
ARC
  5
317
  8
DATA
  6
CONTINUOUS
 62
     7
 10
656.78923206086324
 20
-369.22184575098612
 30
0.0
 40
6.3846154141129432
 50
90.0
 51
180.0
  0
LINE
  5
318
  8
DATA
  6
CONTINUOUS
 62
     7
 10
502.28153897497589
 20
-381.60799966187329
 30
0.0
 11
503.71169283086311
 21
-381.60799966187329
 31
0.0
  0
LINE
  5
319
  8
DATA
  6
CONTINUOUS
 62
     7
 10
503.71169283086311
 20
-381.60799966187329
 30
0.0
 11
503.71169283086311
 21
-384.16184582598612
 31
0.0
  0
LINE
  5
31A
  8
DATA
  6
CONTINUOUS
 62
     7
 10
504.83538513908883
 20
-384.16184582598612
 30
0.0
 11
506.26553899497588
 21
-384.16184582598612
 31
0.0
  0
LINE
  5
31B
  8
DATA
  6
CONTINUOUS
 62
     7
 10
506.26553899497588
 20
-384.16184582598612
 30
0.0
 11
506.26553899497588
 21
-385.13556141272687
 31
0.0
  0
LINE
  5
31C
  8
DATA
  6
CONTINUOUS
 62
     7
 10
506.26553899497588
 20
-385.13556141272687
 30
0.0
 11
504.83538513908883
 21
-385.13556141272687
 31
0.0
  0
LINE
  5
31D
  8
DATA
  6
CONTINUOUS
 62
     7
 10
504.83538513908883
 20
-385.13556141272687
 30
0.0
 11
504.83538513908883
 21
-384.16184582598612
 31
0.0
  0
LINE
  5
31E
  8
DATA
  6
CONTINUOUS
 62
     7
 10
504.83538513908883
 20
-381.60799966187329
 30
0.0
 11
504.83538513908883
 21
-384.16184582598612
 31
0.0
  0
LINE
  5
31F
  8
DATA
  6
CONTINUOUS
 62
     7
 10
504.83538513908883
 20
-381.60799966187329
 30
0.0
 11
506.26553899497588
 21
-381.60799966187329
 31
0.0
  0
LINE
  5
320
  8
DATA
  6
CONTINUOUS
 62
     7
 10
506.26553899497588
 20
-381.60799966187329
 30
0.0
 11
506.26553899497588
 21
-384.16184582598612
 31
0.0
  0
LINE
  5
321
  8
DATA
  6
CONTINUOUS
 62
     7
 10
507.3892313108629
 20
-384.16184582598612
 30
0.0
 11
508.81938515908871
 21
-384.16184582598612
 31
0.0
  0
LINE
  5
322
  8
DATA
  6
CONTINUOUS
 62
     7
 10
508.81938515908871
 20
-384.16184582598612
 30
0.0
 11
508.81938515908871
 21
-385.13556141272687
 31
0.0
  0
LINE
  5
323
  8
DATA
  6
CONTINUOUS
 62
     7
 10
508.81938515908871
 20
-385.13556141272687
 30
0.0
 11
507.3892313108629
 21
-385.13556141272687
 31
0.0
  0
LINE
  5
324
  8
DATA
  6
CONTINUOUS
 62
     7
 10
507.3892313108629
 20
-385.13556141272687
 30
0.0
 11
507.3892313108629
 21
-384.16184582598612
 31
0.0
  0
LINE
  5
325
  8
DATA
  6
CONTINUOUS
 62
     7
 10
507.3892313108629
 20
-381.60799966187329
 30
0.0
 11
507.3892313108629
 21
-384.16184582598612
 31
0.0
  0
LINE
  5
326
  8
DATA
  6
CONTINUOUS
 62
     7
 10
507.3892313108629
 20
-381.60799966187329
 30
0.0
 11
508.81938515908871
 21
-381.60799966187329
 31
0.0
  0
LINE
  5
327
  8
DATA
  6
CONTINUOUS
 62
     7
 10
508.81938515908871
 20
-381.60799966187329
 30
0.0
 11
508.81938515908871
 21
-384.16184582598612
 31
0.0
  0
LINE
  5
328
  8
DATA
  6
CONTINUOUS
 62
     7
 10
599.71077023586327
 20
-383.39569197598621
 30
0.0
 11
597.1569240640888
 21
-383.39569197598621
 31
0.0
  0
LINE
  5
329
  8
DATA
  6
CONTINUOUS
 62
     7
 10
509.94307747497612
 20
-384.16184582598612
 30
0.0
 11
511.37323133086318
 21
-384.16184582598612
 31
0.0
  0
LINE
  5
32A
  8
DATA
  6
CONTINUOUS
 62
     7
 10
511.37323133086318
 20
-384.16184582598612
 30
0.0
 11
511.37323133086318
 21
-385.13556141272687
 31
0.0
  0
LINE
  5
32B
  8
DATA
  6
CONTINUOUS
 62
     7
 10
511.37323133086318
 20
-385.13556141272687
 30
0.0
 11
509.94307747497612
 21
-385.13556141272687
 31
0.0
  0
LINE
  5
32C
  8
DATA
  6
CONTINUOUS
 62
     7
 10
509.94307747497612
 20
-385.13556141272687
 30
0.0
 11
509.94307747497612
 21
-384.16184582598612
 31
0.0
  0
LINE
  5
32D
  8
DATA
  6
CONTINUOUS
 62
     7
 10
509.94307747497612
 20
-381.60799966187329
 30
0.0
 11
509.94307747497612
 21
-384.16184582598612
 31
0.0
  0
LINE
  5
32E
  8
DATA
  6
CONTINUOUS
 62
     7
 10
597.1569240640888
 20
-383.39569197598621
 30
0.0
 11
597.1569240640888
 21
-385.94953814009892
 31
0.0
  0
LINE
  5
32F
  8
DATA
  6
CONTINUOUS
 62
     7
 10
509.94307747497612
 20
-381.60799966187329
 30
0.0
 11
511.37323133086318
 21
-381.60799966187329
 31
0.0
  0
LINE
  5
330
  8
DATA
  6
CONTINUOUS
 62
     7
 10
511.37323133086318
 20
-381.60799966187329
 30
0.0
 11
511.37323133086318
 21
-384.16184582598612
 31
0.0
  0
LINE
  5
331
  8
DATA
  6
CONTINUOUS
 62
     7
 10
512.49692363908889
 20
-384.16184582598612
 30
0.0
 11
513.92707749497606
 21
-384.16184582598612
 31
0.0
  0
LINE
  5
332
  8
DATA
  6
CONTINUOUS
 62
     7
 10
513.92707749497606
 20
-384.16184582598612
 30
0.0
 11
513.92707749497606
 21
-385.13556141272687
 31
0.0
  0
LINE
  5
333
  8
DATA
  6
CONTINUOUS
 62
     7
 10
513.92707749497606
 20
-385.13556141272687
 30
0.0
 11
512.49692363908889
 21
-385.13556141272687
 31
0.0
  0
LINE
  5
334
  8
DATA
  6
CONTINUOUS
 62
     7
 10
512.49692363908889
 20
-385.13556141272687
 30
0.0
 11
512.49692363908889
 21
-384.16184582598612
 31
0.0
  0
LINE
  5
335
  8
DATA
  6
CONTINUOUS
 62
     7
 10
512.49692363908889
 20
-381.60799966187329
 30
0.0
 11
512.49692363908889
 21
-384.16184582598612
 31
0.0
  0
LINE
  5
336
  8
DATA
  6
CONTINUOUS
 62
     7
 10
512.49692363908889
 20
-381.60799966187329
 30
0.0
 11
513.92707749497606
 21
-381.60799966187329
 31
0.0
  0
LINE
  5
337
  8
DATA
  6
CONTINUOUS
 62
     7
 10
513.92707749497606
 20
-381.60799966187329
 30
0.0
 11
513.92707749497606
 21
-384.16184582598612
 31
0.0
  0
LINE
  5
338
  8
DATA
  6
CONTINUOUS
 62
     7
 10
515.05076981086313
 20
-384.16184582598612
 30
0.0
 11
516.48092365908894
 21
-384.16184582598612
 31
0.0
  0
LINE
  5
339
  8
DATA
  6
CONTINUOUS
 62
     7
 10
516.48092365908894
 20
-384.16184582598612
 30
0.0
 11
516.48092365908894
 21
-385.13556141272687
 31
0.0
  0
LINE
  5
33A
  8
DATA
  6
CONTINUOUS
 62
     7
 10
516.48092365908894
 20
-385.13556141272687
 30
0.0
 11
515.05076981086313
 21
-385.13556141272687
 31
0.0
  0
LINE
  5
33B
  8
DATA
  6
CONTINUOUS
 62
     7
 10
515.05076981086313
 20
-385.13556141272687
 30
0.0
 11
515.05076981086313
 21
-384.16184582598612
 31
0.0
  0
LINE
  5
33C
  8
DATA
  6
CONTINUOUS
 62
     7
 10
515.05076981086313
 20
-381.60799966187329
 30
0.0
 11
515.05076981086313
 21
-384.16184582598612
 31
0.0
  0
LINE
  5
33D
  8
DATA
  6
CONTINUOUS
 62
     7
 10
515.05076981086313
 20
-381.60799966187329
 30
0.0
 11
516.48092365908894
 21
-381.60799966187329
 31
0.0
  0
LINE
  5
33E
  8
DATA
  6
CONTINUOUS
 62
     7
 10
516.48092365908894
 20
-381.60799966187329
 30
0.0
 11
516.48092365908894
 21
-384.16184582598612
 31
0.0
  0
LINE
  5
33F
  8
DATA
  6
CONTINUOUS
 62
     7
 10
517.60461597497601
 20
-384.16184582598612
 30
0.0
 11
519.03476983086296
 21
-384.16184582598612
 31
0.0
  0
LINE
  5
340
  8
DATA
  6
CONTINUOUS
 62
     7
 10
519.03476983086296
 20
-384.16184582598612
 30
0.0
 11
519.03476983086296
 21
-385.13556141272687
 31
0.0
  0
LINE
  5
341
  8
DATA
  6
CONTINUOUS
 62
     7
 10
519.03476983086296
 20
-385.13556141272687
 30
0.0
 11
517.60461597497601
 21
-385.13556141272687
 31
0.0
  0
LINE
  5
342
  8
DATA
  6
CONTINUOUS
 62
     7
 10
517.60461597497601
 20
-385.13556141272687
 30
0.0
 11
517.60461597497601
 21
-384.16184582598612
 31
0.0
  0
LINE
  5
343
  8
DATA
  6
CONTINUOUS
 62
     7
 10
517.60461597497601
 20
-381.60799966187329
 30
0.0
 11
517.60461597497601
 21
-384.16184582598612
 31
0.0
  0
LINE
  5
344
  8
DATA
  6
CONTINUOUS
 62
     7
 10
517.60461597497601
 20
-381.60799966187329
 30
0.0
 11
519.03476983086296
 21
-381.60799966187329
 31
0.0
  0
LINE
  5
345
  8
DATA
  6
CONTINUOUS
 62
     7
 10
519.03476983086296
 20
-381.60799966187329
 30
0.0
 11
519.03476983086296
 21
-384.16184582598612
 31
0.0
  0
ARC
  5
346
  8
DATA
  6
CONTINUOUS
 62
     7
 10
675.17692446086232
 20
-367.38307651098597
 30
0.0
 40
5.6184615641122946
 50
0.0
 51
90.0
  0
LINE
  5
347
  8
DATA
  6
CONTINUOUS
 62
     7
 10
680.7953860249745
 20
-367.38307651098597
 30
0.0
 11
680.7953860249745
 21
-379.64153811098612
 31
0.0
  0
ARC
  5
348
  8
DATA
  6
CONTINUOUS
 62
     7
 10
675.17692446086232
 20
-379.64153811098612
 30
0.0
 40
5.6184615641130327
 50
270.0
 51
0.0
  0
LINE
  5
349
  8
DATA
  6
CONTINUOUS
 62
     7
 10
675.17692446086232
 20
-385.25999967509892
 30
0.0
 11
654.74615512497576
 21
-385.25999967509892
 31
0.0
  0
ARC
  5
34A
  8
DATA
  6
CONTINUOUS
 62
     7
 10
654.74615512497576
 20
-379.64153811098612
 30
0.0
 40
5.6184615641127484
 50
180.0
 51
270.0
  0
LINE
  5
34B
  8
DATA
  6
CONTINUOUS
 62
     7
 10
649.12769356086312
 20
-379.64153811098612
 30
0.0
 11
649.12769356086312
 21
-367.38307651098597
 31
0.0
  0
ARC
  5
34C
  8
DATA
  6
CONTINUOUS
 62
     7
 10
654.74615512497576
 20
-367.38307651098597
 30
0.0
 40
5.6184615641129758
 50
90.0
 51
180.0
  0
LINE
  5
34D
  8
DATA
  6
CONTINUOUS
 62
     7
 10
654.74615512497576
 20
-361.76461494687311
 30
0.0
 11
675.17692446086232
 21
-361.76461494687311
 31
0.0
  0
LINE
  5
34E
  8
DATA
  6
CONTINUOUS
 62
     7
 10
519.39230828908876
 20
-381.42923042509892
 30
0.0
 11
519.39230828908876
 21
-387.81384584687339
 31
0.0
  0
LINE
  5
34F
  8
DATA
  6
CONTINUOUS
 62
     7
 10
519.39230828908876
 20
-387.81384584687339
 30
0.0
 11
498.96153896086298
 21
-387.81384584687339
 31
0.0
  0
LINE
  5
350
  8
DATA
  6
CONTINUOUS
 62
     7
 10
498.96153896086298
 20
-387.81384584687339
 30
0.0
 11
498.96153896086298
 21
-381.42923042509892
 31
0.0
  0
LINE
  5
351
  8
DATA
  6
CONTINUOUS
 62
     7
 10
498.96153896086298
 20
-381.42923042509892
 30
0.0
 11
519.39230828908876
 21
-381.42923042509892
 31
0.0
  0
LINE
  5
352
  8
DATA
  6
CONTINUOUS
 62
     7
 10
454.93323104497591
 20
-279.51799914937237
 30
0.0
 11
454.93323104497591
 21
-108.4103059775981
 31
0.0
  0
LINE
  5
353
  8
DATA
  6
CONTINUOUS
 62
     7
 10
677.11784754497501
 20
-279.51799914937237
 30
0.0
 11
677.11784754497501
 21
-108.4103059775981
 31
0.0
  0
LINE
  5
354
  8
DATA
  6
CONTINUOUS
 62
     7
 10
549.93630844497602
 20
-266.94030677598511
 30
0.0
 11
582.11477014497575
 21
-266.94030677598511
 31
0.0
  0
LINE
  5
355
  8
DATA
  6
CONTINUOUS
 62
     7
 10
582.11477014497575
 20
-234.76184507598509
 30
0.0
 11
549.93630844497602
 21
-234.76184507598509
 31
0.0
  0
LINE
  5
356
  8
DATA
  6
CONTINUOUS
 62
     7
 10
655.46123204908895
 20
-66.207998075985174
 30
0.0
 11
655.12923204997605
 21
-66.207998075985174
 31
0.0
  0
LINE
  5
357
  8
DATA
  6
CONTINUOUS
 62
     7
 10
655.12923204997605
 20
-66.207998075985174
 30
0.0
 11
476.87076961408889
 21
-66.207998075985174
 31
0.0
  0
LINE
  5
358
  8
DATA
  6
CONTINUOUS
 62
     7
 10
476.87076961408889
 20
-66.207998075985174
 30
0.0
 11
476.56430807408879
 21
-66.207998075985174
 31
0.0
  0
ARC
  5
359
  8
DATA
  6
CONTINUOUS
 62
     7
 10
655.46123204908895
 20
-104.5156905759853
 30
0.0
 40
38.307690592274639
 50
0.0
 51
90.0
  0
LINE
  5
35A
  8
DATA
  6
CONTINUOUS
 62
     7
 10
693.76892454908671
 20
-283.41261455098521
 30
0.0
 11
693.76892454908671
 21
-283.10615301098522
 31
0.0
  0
LINE
  5
35B
  8
DATA
  6
CONTINUOUS
 62
     7
 10
693.76892454908671
 20
-283.10615301098522
 30
0.0
 11
693.76892454908671
 21
-104.8476905750981
 31
0.0
  0
LINE
  5
35C
  8
DATA
  6
CONTINUOUS
 62
     7
 10
693.76892454908671
 20
-104.8476905750981
 30
0.0
 11
693.76892454908671
 21
-104.5156905759853
 31
0.0
  0
ARC
  5
35D
  8
DATA
  6
CONTINUOUS
 62
     7
 10
655.46123204908895
 20
-283.41261455098521
 30
0.0
 40
38.307690592277311
 50
270.0
 51
0.0
  0
LINE
  5
35E
  8
DATA
  6
CONTINUOUS
 62
     7
 10
476.56430807408879
 20
-321.7203070509857
 30
0.0
 11
476.87076961408889
 21
-321.7203070509857
 31
0.0
  0
LINE
  5
35F
  8
DATA
  6
CONTINUOUS
 62
     7
 10
476.87076961408889
 20
-321.7203070509857
 30
0.0
 11
655.12923204997605
 21
-321.7203070509857
 31
0.0
  0
LINE
  5
360
  8
DATA
  6
CONTINUOUS
 62
     7
 10
655.12923204997605
 20
-321.7203070509857
 30
0.0
 11
655.46123204908895
 21
-321.7203070509857
 31
0.0
  0
ARC
  5
361
  8
DATA
  6
CONTINUOUS
 62
     7
 10
476.56430807408879
 20
-283.41261455098521
 30
0.0
 40
38.307690592276913
 50
180.0
 51
270.0
  0
LINE
  5
362
  8
DATA
  6
CONTINUOUS
 62
     7
 10
438.25661557408881
 20
-104.5156905759853
 30
0.0
 11
438.25661557408881
 21
-104.8476905750981
 31
0.0
  0
LINE
  5
363
  8
DATA
  6
CONTINUOUS
 62
     7
 10
438.25661557408881
 20
-104.8476905750981
 30
0.0
 11
438.25661557408881
 21
-283.10615301098522
 31
0.0
  0
LINE
  5
364
  8
DATA
  6
CONTINUOUS
 62
     7
 10
438.25661557408881
 20
-283.10615301098522
 30
0.0
 11
438.25661557408881
 21
-283.41261455098521
 31
0.0
  0
ARC
  5
365
  8
DATA
  6
CONTINUOUS
 62
     7
 10
476.56430807408879
 20
-104.5156905759853
 30
0.0
 40
38.307690592276977
 50
90.0
 51
180.0
  0
ARC
  5
366
  8
DATA
  6
CONTINUOUS
 62
     7
 10
447.88461562497588
 20
-369.17076882509878
 30
0.0
 40
26.049230900000168
 50
90.0
 51
180.0
  0
LINE
  5
367
  8
DATA
  6
CONTINUOUS
 62
     7
 10
421.83538472497588
 20
-369.17076882509878
 30
0.0
 11
421.83538472497588
 21
-399.30615359687317
 31
0.0
  0
ARC
  5
368
  8
DATA
  6
CONTINUOUS
 62
     7
 10
447.88461562497588
 20
-399.30615359687317
 30
0.0
 40
26.049230900000001
 50
180.0
 51
270.0
  0
LINE
  5
369
  8
DATA
  6
CONTINUOUS
 62
     7
 10
447.88461562497588
 20
-425.35538449687277
 30
0.0
 11
684.11538603908707
 21
-425.35538449687277
 31
0.0
  0
ARC
  5
36A
  8
DATA
  6
CONTINUOUS
 62
     7
 10
684.11538603908707
 20
-399.30615359687317
 30
0.0
 40
26.04923089999955
 50
270.0
 51
0.0
  0
LINE
  5
36B
  8
DATA
  6
CONTINUOUS
 62
     7
 10
710.16461693908525
 20
-399.30615359687317
 30
0.0
 11
710.16461693908525
 21
-369.17076882509878
 31
0.0
  0
ARC
  5
36C
  8
DATA
  6
CONTINUOUS
 62
     7
 10
684.11538603908707
 20
-369.17076882509878
 30
0.0
 40
26.049230899997951
 50
0.0
 51
90.0
  0
LINE
  5
36D
  8
DATA
  6
CONTINUOUS
 62
     7
 10
684.11538603908707
 20
-343.12153792509861
 30
0.0
 11
447.88461562497588
 21
-343.12153792509861
 31
0.0
  0
LINE
  5
36E
  8
DATA
  6
CONTINUOUS
 62
     7
 10
732.00000166408381
 20
-437.23076917187279
 30
0.0
 11
732.00000166408381
 21
-59.899998046872291
 31
0.0
  0
LINE
  5
36F
  8
DATA
  6
CONTINUOUS
 62
     7
 10
412.76923083586291
 20
-450.00000000009811
 30
0.0
 11
719.23077083585895
 21
-450.00000000009811
 31
0.0
  0
LINE
  5
370
  8
DATA
  6
CONTINUOUS
 62
     7
 10
399.99999999997578
 20
-59.899998046872291
 30
0.0
 11
399.99999999997578
 21
-437.23076917187279
 31
0.0
  0
LINE
  5
371
  8
DATA
  6
CONTINUOUS
 62
     7
 10
-587.23076917178196
 20
-450.00000000771308
 30
0.0
 11
-280.76922917178172
 21
-450.00000000771308
 31
0.0
  0
ARC
  5
372
  8
DATA
  6
CONTINUOUS
 62
     7
 10
-588.44212367403691
 20
-438.17312295263702
 30
0.0
 40
11.340769459746269
 50
195.05765626446799
 51
212.7408737130593
  0
ARC
  5
373
  8
DATA
  6
CONTINUOUS
 62
     7
 10
-581.68900181236052
 20
-431.62298676559021
 30
0.0
 40
20.647258450923172
 50
217.90133049165269
 51
227.19362334875279
  0
LINE
  5
374
  8
DATA
  6
CONTINUOUS
 62
     7
 10
-594.89230767330639
 20
-447.44615384054163
 30
0.0
 11
-595.71928797970486
 21
-446.77093552446979
 31
0.0
  0
ARC
  5
375
  8
DATA
  6
CONTINUOUS
 62
     7
 10
-587.23076917179469
 20
-54.153844171825199
 30
0.0
 40
12.769230835874399
 50
169.39784365469799
 51
180.00000000000071
  0
ARC
  5
376
  8
DATA
  6
CONTINUOUS
 62
     7
 10
-584.85850634015674
 20
-54.827582758403722
 30
0.0
 40
15.22662929717689
 50
154.90507075698241
 51
168.54827721468371
  0
ARC
  5
377
  8
DATA
  6
CONTINUOUS
 62
     7
 10
-587.485019182256
 20
-54.087748318474233
 30
0.0
 40
12.54212443340616
 50
126.65115641917539
 51
152.87653736261359
  0
ARC
  5
378
  8
DATA
  6
CONTINUOUS
 62
     7
 10
-588.73537646229136
 20
-53.380938159365407
 30
0.0
 40
11.243703758488561
 50
107.19877215973651
 51
123.68805720159089
  0
ARC
  5
379
  8
DATA
  6
CONTINUOUS
 62
     7
 10
-586.34244386577677
 20
-67.781520254521027
 30
0.0
 40
25.783453780505418
 50
90.701689238341785
 51
102.812011240657
  0
LINE
  5
37A
  8
DATA
  6
CONTINUOUS
 62
     7
 10
-267.99900390875632
 20
-59.868537800134497
 30
0.0
 11
-268.00009291402392
 21
-54.122384028328113
 31
0.0
  0
ARC
  5
37B
  8
DATA
  6
CONTINUOUS
 62
     7
 10
-280.76932351291771
 20
-54.124804040032892
 30
0.0
 40
12.769230835874399
 50
0.0108586382179877
 51
10.613014983520721
  0
ARC
  5
37C
  8
DATA
  6
CONTINUOUS
 62
     7
 10
-283.14145861569767
 20
-54.798992203363248
 30
0.0
 40
15.22662929717691
 50
11.4625814235351
 51
25.10578788123642
  0
ARC
  5
37D
  8
DATA
  6
CONTINUOUS
 62
     7
 10
-280.51508603344149
 20
-54.05866000266424
 30
0.0
 40
12.54212443340611
 50
27.134321275605121
 51
53.359702219043363
  0
ARC
  5
37E
  8
DATA
  6
CONTINUOUS
 62
     7
 10
-279.26486272980702
 20
-53.351612889802411
 30
0.0
 40
11.243703758488641
 50
56.322801436628048
 51
72.812086478482342
  0
ARC
  5
37F
  8
DATA
  6
CONTINUOUS
 62
     7
 10
-281.65506609960153
 20
-67.752648232506161
 30
0.0
 40
25.78345378050539
 50
77.198847397562062
 51
89.309169399877234
  0
LINE
  5
380
  8
DATA
  6
CONTINUOUS
 62
     7
 10
-586.65820045294117
 20
-42.000000000100002
 30
0.0
 11
-281.34419560573701
 21
-41.971068599219443
 31
0.0
  0
CIRCLE
  5
381
  8
DATA
  6
CONTINUOUS
 62
     7
 10
-433.99999917178161
 20
-124.4612291350508
 30
0.0
 40
12.62194550404007
  0
CIRCLE
  5
382
  8
DATA
  6
CONTINUOUS
 62
     7
 10
-433.99999917178161
 20
-124.4612291350508
 30
0.0
 40
15.57846161411277
  0
ARC
  5
383
  8
DATA
  6
CONTINUOUS
 62
     7
 10
-432.365417070082
 20
-125.9018944235104
 30
0.0
 40
21.730083851202849
 50
164.7877000094345
 51
176.198605080812
  0
ARC
  5
384
  8
DATA
  6
CONTINUOUS
 62
     7
 10
-438.82462006762933
 20
-123.5092642684356
 30
0.0
 40
14.88206101104227
 50
149.6961945572202
 51
167.15196276588549
  0
ARC
  5
385
  8
DATA
  6
CONTINUOUS
 62
     7
 10
-437.70125415183571
 20
-124.1563053647245
 30
0.0
 40
16.178421788823758
 50
132.96782445359349
 51
149.72524484198269
  0
ARC
  5
386
  8
DATA
  6
CONTINUOUS
 62
     7
 10
-434.65478321791551
 20
-127.1987702872685
 30
0.0
 40
20.481731660347069
 50
117.0531320885451
 51
133.40284812124031
  0
ARC
  5
387
  8
DATA
  6
CONTINUOUS
 62
     7
 10
-434.18859364660369
 20
-128.09040440781371
 30
0.0
 40
21.4878406657093
 50
104.32552601576531
 51
117.0788672281475
  0
ARC
  5
388
  8
DATA
  6
CONTINUOUS
 62
     7
 10
-434.09938832225521
 20
-128.47827613009909
 30
0.0
 40
21.885725961954972
 50
95.162471036765837
 51
104.3005511904766
  0
ARC
  5
389
  8
DATA
  6
CONTINUOUS
 62
     7
 10
-434.12883894377262
 20
-128.8418897689626
 30
0.0
 40
22.245301183421329
 50
89.668153900036742
 51
95.002654720103308
  0
ARC
  5
38A
  8
DATA
  6
CONTINUOUS
 62
     7
 10
-435.63458127348122
 20
-125.9018944235104
 30
0.0
 40
21.730083851202838
 50
3.801394919187945
 51
15.212299990565519
  0
ARC
  5
38B
  8
DATA
  6
CONTINUOUS
 62
     7
 10
-429.17537827593401
 20
-123.5092642684356
 30
0.0
 40
14.88206101104228
 50
12.848037234114461
 51
30.303805442779719
  0
ARC
  5
38C
  8
DATA
  6
CONTINUOUS
 62
     7
 10
-430.29874419172762
 20
-124.1563053647245
 30
0.0
 40
16.178421788823758
 50
30.274755158017211
 51
47.032175546406471
  0
ARC
  5
38D
  8
DATA
  6
CONTINUOUS
 62
     7
 10
-433.34521512564788
 20
-127.1987702872685
 30
0.0
 40
20.48173166034708
 50
46.597151878759689
 51
62.946867911454831
  0
ARC
  5
38E
  8
DATA
  6
CONTINUOUS
 62
     7
 10
-433.8114046969597
 20
-128.09040440781371
 30
0.0
 40
21.48784066570931
 50
62.921132771852449
 51
75.674473984234709
  0
ARC
  5
38F
  8
DATA
  6
CONTINUOUS
 62
     7
 10
-433.90061002130801
 20
-128.47827613009909
 30
0.0
 40
21.885725961955028
 50
75.699448809523389
 51
84.837528963234192
  0
ARC
  5
390
  8
DATA
  6
CONTINUOUS
 62
     7
 10
-433.87115939979083
 20
-128.8418897689626
 30
0.0
 40
22.245301183421329
 50
84.997345279896706
 51
90.331846099963286
  0
ARC
  5
391
  8
DATA
  6
CONTINUOUS
 62
     7
 10
-432.365417070082
 20
-123.0205638465914
 30
0.0
 40
21.730083851202838
 50
183.8013949191878
 51
195.2122999905655
  0
ARC
  5
392
  8
DATA
  6
CONTINUOUS
 62
     7
 10
-438.82462006762933
 20
-125.4131940016661
 30
0.0
 40
14.88206101104228
 50
192.8480372341144
 51
210.30380544277969
  0
ARC
  5
393
  8
DATA
  6
CONTINUOUS
 62
     7
 10
-437.70125415183571
 20
-124.7661529053772
 30
0.0
 40
16.178421788823758
 50
210.2747551580172
 51
227.03217554640639
  0
ARC
  5
394
  8
DATA
  6
CONTINUOUS
 62
     7
 10
-434.65478321791551
 20
-121.7236879828333
 30
0.0
 40
20.48173166034708
 50
226.59715187875969
 51
242.94686791145489
  0
ARC
  5
395
  8
DATA
  6
CONTINUOUS
 62
     7
 10
-434.18859364660369
 20
-120.83205386228811
 30
0.0
 40
21.48784066570931
 50
242.9211327718524
 51
255.67447398423471
  0
ARC
  5
396
  8
DATA
  6
CONTINUOUS
 62
     7
 10
-434.09938832225521
 20
-120.4441821400026
 30
0.0
 40
21.885725961955028
 50
255.6994488095234
 51
264.83752896323409
  0
ARC
  5
397
  8
DATA
  6
CONTINUOUS
 62
     7
 10
-434.12883894377262
 20
-120.0805685011391
 30
0.0
 40
22.245301183421329
 50
264.99734527989682
 51
270.33184609996329
  0
ARC
  5
398
  8
DATA
  6
CONTINUOUS
 62
     7
 10
-435.63458127348122
 20
-123.0205638465914
 30
0.0
 40
21.730083851202849
 50
344.7877000094345
 51
356.19860508081217
  0
ARC
  5
399
  8
DATA
  6
CONTINUOUS
 62
     7
 10
-429.17537827593401
 20
-125.4131940016661
 30
0.0
 40
14.88206101104227
 50
329.69619455722028
 51
347.15196276588563
  0
ARC
  5
39A
  8
DATA
  6
CONTINUOUS
 62
     7
 10
-430.29874419172762
 20
-124.7661529053772
 30
0.0
 40
16.178421788823758
 50
312.96782445359361
 51
329.72524484198283
  0
ARC
  5
39B
  8
DATA
  6
CONTINUOUS
 62
     7
 10
-433.34521512564788
 20
-121.7236879828333
 30
0.0
 40
20.481731660347069
 50
297.05313208854523
 51
313.40284812124031
  0
ARC
  5
39C
  8
DATA
  6
CONTINUOUS
 62
     7
 10
-433.8114046969597
 20
-120.83205386228811
 30
0.0
 40
21.4878406657093
 50
284.32552601576532
 51
297.0788672281476
  0
ARC
  5
39D
  8
DATA
  6
CONTINUOUS
 62
     7
 10
-433.90061002130801
 20
-120.4441821400026
 30
0.0
 40
21.885725961954972
 50
275.16247103676579
 51
284.3005511904766
  0
ARC
  5
39E
  8
DATA
  6
CONTINUOUS
 62
     7
 10
-433.87115939979083
 20
-120.0805685011391
 30
0.0
 40
22.245301183421329
 50
269.66815390003671
 51
275.00265472010329
  0
CIRCLE
  5
39F
  8
DATA
  6
CONTINUOUS
 62
     7
 10
-433.99999917178161
 20
-75.17199812093817
 30
0.0
 40
2.6815384749999112
  0
CIRCLE
  5
3A0
  8
DATA
  6
CONTINUOUS
 62
     7
 10
-433.99999917178161
 20
-75.17199812093817
 30
0.0
 40
1.6600000108871309
  0
CIRCLE
  5
3A1
  8
DATA
  6
CONTINUOUS
 62
     7
 10
-433.99999917178161
 20
-75.17199812093817
 30
0.0
 40
1.4684615483870971
  0
ARC
  5
3A2
  8
DATA
  6
CONTINUOUS
 62
     7
 10
-417.31165330156341
 20
-137.29085005563019
 30
0.0
 40
80.345967560994268
 50
163.32138788734861
 51
170.8116939727351
  0
ARC
  5
3A3
  8
DATA
  6
CONTINUOUS
 62
     7
 10
-458.40445545422511
 20
-125.51090642625719
 30
0.0
 40
37.60452378387852
 50
155.9293044465112
 51
162.5452249329995
  0
ARC
  5
3A4
  8
DATA
  6
CONTINUOUS
 62
     7
 10
-467.51896957231293
 20
-121.74245336231429
 30
0.0
 40
27.74694667667427
 50
139.89619277122401
 51
155.35788772066621
  0
ARC
  5
3A5
  8
DATA
  6
CONTINUOUS
 62
     7
 10
-451.30437828226633
 20
-136.5252945618727
 30
0.0
 40
49.6793491113825
 50
121.906921943917
 51
138.90192660179841
  0
ARC
  5
3A6
  8
DATA
  6
CONTINUOUS
 62
     7
 10
-440.66729034355802
 20
-151.77190795183151
 30
0.0
 40
68.251368601318617
 50
106.89435821199351
 51
122.722462913352
  0
ARC
  5
3A7
  8
DATA
  6
CONTINUOUS
 62
     7
 10
-435.79260288108941
 20
-172.14515626267101
 30
0.0
 40
89.170826039329555
 50
95.462984409360786
 51
106.0870951152983
  0
ARC
  5
3A8
  8
DATA
  6
CONTINUOUS
 62
     7
 10
-403.38870287541442
 20
-458.64592145987012
 30
0.0
 40
377.48808185609568
 50
94.998508680892428
 51
96.219043530064553
  0
ARC
  5
3A9
  8
DATA
  6
CONTINUOUS
 62
     7
 10
-450.68834504199998
 20
-137.29085005563019
 30
0.0
 40
80.345967560994268
 50
9.1883060272649502
 51
16.6786121126514
  0
ARC
  5
3AA
  8
DATA
  6
CONTINUOUS
 62
     7
 10
-409.59554288933822
 20
-125.51090642625719
 30
0.0
 40
37.604523783878513
 50
17.454775067000501
 51
24.070695553488829
  0
ARC
  5
3AB
  8
DATA
  6
CONTINUOUS
 62
     7
 10
-400.48102877125052
 20
-121.74245336231429
 30
0.0
 40
27.746946676674259
 50
24.64211227933373
 51
40.10380722877602
  0
ARC
  5
3AC
  8
DATA
  6
CONTINUOUS
 62
     7
 10
-416.69562006129712
 20
-136.5252945618727
 30
0.0
 40
49.679349111382543
 50
41.098073398201556
 51
58.093078056083023
  0
ARC
  5
3AD
  8
DATA
  6
CONTINUOUS
 62
     7
 10
-427.3327080000056
 20
-151.77190795183151
 30
0.0
 40
68.251368601318617
 50
57.277537086647968
 51
73.105641788006452
  0
ARC
  5
3AE
  8
DATA
  6
CONTINUOUS
 62
     7
 10
-432.20739546247393
 20
-172.14515626267101
 30
0.0
 40
89.170826039329555
 50
73.912904884701703
 51
84.537015590639243
  0
ARC
  5
3AF
  8
DATA
  6
CONTINUOUS
 62
     7
 10
-464.61129546814891
 20
-458.64592145987012
 30
0.0
 40
377.48808185609568
 50
83.780956469935461
 51
85.001491319107558
  0
ARC
  5
3B0
  8
DATA
  6
CONTINUOUS
 62
     7
 10
-417.31165330156341
 20
-111.6316082144717
 30
0.0
 40
80.345967560994268
 50
189.18830602726501
 51
196.67861211265139
  0
ARC
  5
3B1
  8
DATA
  6
CONTINUOUS
 62
     7
 10
-458.40445545422511
 20
-123.4115518438448
 30
0.0
 40
37.604523783878527
 50
197.4547750670005
 51
204.0706955534888
  0
ARC
  5
3B2
  8
DATA
  6
CONTINUOUS
 62
     7
 10
-467.51896957231293
 20
-127.1800049077877
 30
0.0
 40
27.746946676674241
 50
204.64211227933359
 51
220.10380722877591
  0
ARC
  5
3B3
  8
DATA
  6
CONTINUOUS
 62
     7
 10
-451.30437828226633
 20
-112.3971637082293
 30
0.0
 40
49.679349111382543
 50
221.09807339820159
 51
238.0930780560831
  0
ARC
  5
3B4
  8
DATA
  6
CONTINUOUS
 62
     7
 10
-440.66729034355802
 20
-97.150550318270476
 30
0.0
 40
68.251368601318617
 50
237.27753708664801
 51
253.10564178800649
  0
ARC
  5
3B5
  8
DATA
  6
CONTINUOUS
 62
     7
 10
-435.79260288108941
 20
-76.777302007430933
 30
0.0
 40
89.170826039329583
 50
253.9129048847017
 51
264.53701559063933
  0
ARC
  5
3B6
  8
DATA
  6
CONTINUOUS
 62
     7
 10
-403.38870287541442
 20
209.72346318976801
 30
0.0
 40
377.48808185609568
 50
263.78095646993552
 51
265.00149131910757
  0
ARC
  5
3B7
  8
DATA
  6
CONTINUOUS
 62
     7
 10
-450.68834504199998
 20
-111.6316082144717
 30
0.0
 40
80.345967560994268
 50
343.32138788734852
 51
350.81169397273499
  0
ARC
  5
3B8
  8
DATA
  6
CONTINUOUS
 62
     7
 10
-409.59554288933822
 20
-123.4115518438448
 30
0.0
 40
37.60452378387852
 50
335.9293044465112
 51
342.5452249329993
  0
ARC
  5
3B9
  8
DATA
  6
CONTINUOUS
 62
     7
 10
-400.48102877125052
 20
-127.1800049077877
 30
0.0
 40
27.746946676674231
 50
319.89619277122398
 51
335.35788772066638
  0
ARC
  5
3BA
  8
DATA
  6
CONTINUOUS
 62
     7
 10
-416.69562006129712
 20
-112.3971637082293
 30
0.0
 40
49.6793491113825
 50
301.90692194391693
 51
318.90192660179838
  0
ARC
  5
3BB
  8
DATA
  6
CONTINUOUS
 62
     7
 10
-427.3327080000056
 20
-97.150550318270476
 30
0.0
 40
68.251368601318674
 50
286.89435821199351
 51
302.72246291335199
  0
ARC
  5
3BC
  8
DATA
  6
CONTINUOUS
 62
     7
 10
-432.20739546247393
 20
-76.777302007430933
 30
0.0
 40
89.170826039329526
 50
275.46298440936067
 51
286.08709511529821
  0
ARC
  5
3BD
  8
DATA
  6
CONTINUOUS
 62
     7
 10
-464.61129546814891
 20
209.72346318976801
 30
0.0
 40
377.48808185609568
 50
274.99850868089243
 51
276.2190435300646
  0
ARC
  5
3BE
  8
DATA
  6
CONTINUOUS
 62
     7
 10
-513.05061147550725
 20
-90.3625863933067
 30
0.0
 40
10.062423789235799
 50
108.6174572925583
 51
180.09696970842589
  0
ARC
  5
3BF
  8
DATA
  6
CONTINUOUS
 62
     7
 10
-354.94385975101341
 20
-90.358623127868583
 30
0.0
 40
10.056904179977
 50
359.880397678073
 51
71.405175381638742
  0
ARC
  5
3C0
  8
DATA
  6
CONTINUOUS
 62
     7
 10
-513.05067258506358
 20
-158.5599133718068
 30
0.0
 40
10.06236275008057
 50
179.90279342758299
 51
251.38279705177101
  0
ARC
  5
3C1
  8
DATA
  6
CONTINUOUS
 62
     7
 10
-354.94383732599567
 20
-158.5638488993844
 30
0.0
 40
10.05688178373509
 50
288.59472849465402
 51
0.1196809652952879
  0
LINE
  5
3C2
  8
DATA
  6
CONTINUOUS
 62
     7
 10
-444.05633224266518
 20
-190.50791224461051
 30
0.0
 11
-444.05633224266518
 21
-170.86130235487531
 31
0.0
  0
LINE
  5
3C3
  8
DATA
  6
CONTINUOUS
 62
     7
 10
-424.08174710556051
 20
-190.50791224461051
 30
0.0
 11
-444.05633224266518
 21
-190.50791224461051
 31
0.0
  0
LINE
  5
3C4
  8
DATA
  6
CONTINUOUS
 62
     7
 10
-424.08174710556051
 20
-170.86130235487531
 30
0.0
 11
-424.08174710556051
 21
-190.50791224461051
 31
0.0
  0
LINE
  5
3C5
  8
DATA
  6
CONTINUOUS
 62
     7
 10
-444.05633224266518
 20
-170.86130235487531
 30
0.0
 11
-424.08174710556051
 21
-170.86130235487531
 31
0.0
  0
ARC
  5
3C6
  8
DATA
  6
CONTINUOUS
 62
     7
 10
-433.0717794337516
 20
-181.65864515201929
 30
0.0
 40
0.2446179641446892
 50
307.64190249758258
 51
354.26701928942049
  0
LINE
  5
3C7
  8
DATA
  6
CONTINUOUS
 62
     7
 10
-439.3550888525703
 20
-177.8038619392064
 30
0.0
 11
-438.20831618581872
 21
-175.07142356442151
 31
0.0
  0
LINE
  5
3C8
  8
DATA
  6
CONTINUOUS
 62
     7
 10
-439.3550888525703
 20
-177.8038619392064
 30
0.0
 11
-440.4877116003039
 21
-175.07142356442151
 31
0.0
  0
LINE
  5
3C9
  8
DATA
  6
CONTINUOUS
 62
     7
 10
-430.66225031689493
 20
-182.7449154394217
 30
0.0
 11
-430.66225031689493
 21
-175.07142356442151
 31
0.0
  0
LINE
  5
3CA
  8
DATA
  6
CONTINUOUS
 62
     7
 10
-429.18984534893679
 20
-175.07142356442151
 30
0.0
 11
-429.18984534893679
 21
-181.56982758765159
 31
0.0
  0
LINE
  5
3CB
  8
DATA
  6
CONTINUOUS
 62
     7
 10
-437.67031999697048
 20
-175.07142356442151
 30
0.0
 11
-437.67031999697048
 21
-181.56982758765159
 31
0.0
  0
LINE
  5
3CC
  8
DATA
  6
CONTINUOUS
 62
     7
 10
-436.25454539904939
 20
-175.07142356442151
 30
0.0
 11
-436.25454539904939
 21
-181.56982758765159
 31
0.0
  0
LINE
  5
3CD
  8
DATA
  6
CONTINUOUS
 62
     7
 10
-435.51834291507021
 20
-175.07142356442151
 30
0.0
 11
-435.51834291507021
 21
-182.7449154394217
 31
0.0
  0
LINE
  5
3CE
  8
DATA
  6
CONTINUOUS
 62
     7
 10
-434.22998664973329
 20
-175.7934607823999
 30
0.0
 11
-434.22998664973329
 21
-178.25691257299849
 31
0.0
  0
LINE
  5
3CF
  8
DATA
  6
CONTINUOUS
 62
     7
 10
-431.46861921057967
 20
-178.1143697879283
 30
0.0
 11
-431.46861921057967
 21
-176.3173070522304
 31
0.0
  0
LINE
  5
3D0
  8
DATA
  6
CONTINUOUS
 62
     7
 10
-432.82838499130509
 20
-176.13325067611669
 30
0.0
 11
-432.82838499130509
 21
-177.91713035277331
 31
0.0
  0
ARC
  5
3D1
  8
DATA
  6
CONTINUOUS
 62
     7
 10
-437.95442336015083
 20
-180.77451619575891
 30
0.0
 40
1.97888108048434
 50
264.69085622153648
 51
323.99119915424268
  0
LINE
  5
3D2
  8
DATA
  6
CONTINUOUS
 62
     7
 10
-438.74630470117529
 20
-180.33809401886029
 30
0.0
 11
-438.74630470117529
 21
-181.56981224066769
 31
0.0
  0
LINE
  5
3D3
  8
DATA
  6
CONTINUOUS
 62
     7
 10
-438.74630470117529
 20
-180.33809401886029
 30
0.0
 11
-440.0205033740026
 21
-180.33809401886029
 31
0.0
  0
LINE
  5
3D4
  8
DATA
  6
CONTINUOUS
 62
     7
 10
-440.0205033740026
 20
-180.33809401886029
 30
0.0
 11
-440.0205033740026
 21
-181.56981224066769
 31
0.0
  0
ARC
  5
3D5
  8
DATA
  6
CONTINUOUS
 62
     7
 10
-438.2056151166791
 20
-181.58641767708519
 30
0.0
 40
0.5355551177500213
 50
269.71184879275711
 51
1.775987005685522
  0
ARC
  5
3D6
  8
DATA
  6
CONTINUOUS
 62
     7
 10
-438.21100958146701
 20
-181.58641767708519
 30
0.0
 40
0.5355523792475344
 50
178.22401299432471
 51
270.28815120725102
  0
ARC
  5
3D7
  8
DATA
  6
CONTINUOUS
 62
     7
 10
-438.32062541290122
 20
-180.77451619575891
 30
0.0
 40
1.978877866655951
 50
216.008800845753
 51
275.30914377845721
  0
ARC
  5
3D8
  8
DATA
  6
CONTINUOUS
 62
     7
 10
-439.12620393692288
 20
-181.5264339910982
 30
0.0
 40
0.8953431917184856
 50
182.77699545000371
 51
207.35960666714999
  0
CIRCLE
  5
3D9
  8
DATA
  6
CONTINUOUS
 62
     7
 10
-439.27721825702281
 20
-178.86569672439339
 30
0.0
 40
0.7291198509790319
  0
LINE
  5
3DA
  8
DATA
  6
CONTINUOUS
 62
     7
 10
-426.82550437939523
 20
-182.7449077659297
 30
0.0
 11
-430.66225031689493
 21
-182.7449077659297
 31
0.0
  0
LINE
  5
3DB
  8
DATA
  6
CONTINUOUS
 62
     7
 10
-426.82550437939523
 20
-182.7449077659297
 30
0.0
 11
-426.82550437939523
 21
-180.3380863453684
 31
0.0
  0
LINE
  5
3DC
  8
DATA
  6
CONTINUOUS
 62
     7
 10
-426.82550437939523
 20
-180.33809401886029
 30
0.0
 11
-428.11385297124002
 21
-180.33809401886029
 31
0.0
  0
LINE
  5
3DD
  8
DATA
  6
CONTINUOUS
 62
     7
 10
-428.11385297124002
 20
-180.33809401886029
 30
0.0
 11
-428.11385297124002
 21
-181.56981224066769
 31
0.0
  0
LINE
  5
3DE
  8
DATA
  6
CONTINUOUS
 62
     7
 10
-435.51834291507021
 20
-182.7449077659297
 30
0.0
 11
-432.82838499130509
 21
-182.7449000924378
 31
0.0
  0
LINE
  5
3DF
  8
DATA
  6
CONTINUOUS
 62
     7
 10
-434.22999432322513
 20
-182.02286287445989
 30
0.0
 11
-433.53626461677391
 21
-182.02286287445989
 31
0.0
  0
LINE
  5
3E0
  8
DATA
  6
CONTINUOUS
 62
     7
 10
-434.22998664973329
 20
-182.02286287445989
 30
0.0
 11
-434.22998664973329
 21
-178.99310738348589
 31
0.0
  0
LINE
  5
3E1
  8
DATA
  6
CONTINUOUS
 62
     7
 10
-434.22999432322513
 20
-178.99310738348589
 30
0.0
 11
-433.53626461677391
 21
-178.99310738348589
 31
0.0
  0
LINE
  5
3E2
  8
DATA
  6
CONTINUOUS
 62
     7
 10
-432.82838499130509
 20
-181.6830806542346
 30
0.0
 11
-432.82838499130509
 21
-179.33288960371061
 31
0.0
  0
ARC
  5
3E3
  8
DATA
  6
CONTINUOUS
 62
     7
 10
-437.14884483612968
 20
-181.5264339910982
 30
0.0
 40
0.8953419176806972
 50
332.64039333286138
 51
357.2230045499856
  0
ARC
  5
3E4
  8
DATA
  6
CONTINUOUS
 62
     7
 10
-428.6491557644402
 20
-181.58641767708519
 30
0.0
 40
0.5355551177500236
 50
269.71184879270851
 51
1.775987005685522
  0
ARC
  5
3E5
  8
DATA
  6
CONTINUOUS
 62
     7
 10
-428.65454255573621
 20
-181.58641767708519
 30
0.0
 40
0.5355523792475914
 50
178.22401299432491
 51
270.2881512072388
  0
LINE
  5
3E6
  8
DATA
  6
CONTINUOUS
 62
     7
 10
-431.4692407634214
 20
-181.5131818706304
 30
0.0
 11
-431.4692407634214
 21
-179.47447320229679
 31
0.0
  0
LINE
  5
3E7
  8
DATA
  6
CONTINUOUS
 62
     7
 10
-434.22999432322513
 20
-178.25691257299849
 30
0.0
 11
-433.53626461677391
 21
-178.25691257299849
 31
0.0
  0
ARC
  5
3E8
  8
DATA
  6
CONTINUOUS
 62
     7
 10
-432.92593042001999
 20
-181.2881950888551
 30
0.0
 40
1.4599673209102899
 50
273.83098160911322
 51
351.1351473097846
  0
LINE
  5
3E9
  8
DATA
  6
CONTINUOUS
 62
     7
 10
-437.67031999697048
 20
-175.07142356442151
 30
0.0
 11
-436.25454539904939
 21
-175.07142356442151
 31
0.0
  0
LINE
  5
3EA
  8
DATA
  6
CONTINUOUS
 62
     7
 10
-440.4877116003039
 20
-175.07142356442151
 30
0.0
 11
-438.20831618581872
 21
-175.07142356442151
 31
0.0
  0
LINE
  5
3EB
  8
DATA
  6
CONTINUOUS
 62
     7
 10
-430.66225031689493
 20
-175.07142356442151
 30
0.0
 11
-429.18984534893679
 21
-175.07142356442151
 31
0.0
  0
LINE
  5
3EC
  8
DATA
  6
CONTINUOUS
 62
     7
 10
-435.51834291507021
 20
-175.07142356442151
 30
0.0
 11
-432.813598074129
 21
-175.0714297751467
 31
0.0
  0
LINE
  5
3ED
  8
DATA
  6
CONTINUOUS
 62
     7
 10
-434.22999432322513
 20
-175.7934684558914
 30
0.0
 11
-433.53626461677391
 21
-175.7934684558914
 31
0.0
  0
ARC
  5
3EE
  8
DATA
  6
CONTINUOUS
 62
     7
 10
-432.91137380593341
 20
-176.52590325536019
 30
0.0
 40
1.4577562204890431
 50
8.2269238590098173
 51
86.154126692156353
  0
ARC
  5
3EF
  8
DATA
  6
CONTINUOUS
 62
     7
 10
-433.52807280921911
 20
-180.67717184277461
 30
0.0
 40
1.345715965004977
 50
269.65121993761397
 51
282.82648280688159
  0
ARC
  5
3F0
  8
DATA
  6
CONTINUOUS
 62
     7
 10
-433.37692760630972
 20
-181.24611389823249
 30
0.0
 40
0.7577096731057332
 50
281.23310362265789
 51
306.86200889403352
  0
ARC
  5
3F1
  8
DATA
  6
CONTINUOUS
 62
     7
 10
-433.0717794337516
 20
-179.35732510592621
 30
0.0
 40
0.2446179641449244
 50
5.7329807106536972
 51
52.358097502354092
  0
ARC
  5
3F2
  8
DATA
  6
CONTINUOUS
 62
     7
 10
-433.52807280921911
 20
-180.338798415171
 30
0.0
 40
1.345715965004741
 50
77.173517193125733
 51
90.348780062386055
  0
ARC
  5
3F3
  8
DATA
  6
CONTINUOUS
 62
     7
 10
-433.37692760630972
 20
-179.76985635971261
 30
0.0
 40
0.7577096731053598
 50
53.137991105943279
 51
78.766896377340444
  0
ARC
  5
3F4
  8
DATA
  6
CONTINUOUS
 62
     7
 10
-432.21178922518158
 20
-179.52466551265101
 30
0.0
 40
0.7442428945452555
 50
3.8670063598069242
 51
88.361634567865195
  0
ARC
  5
3F5
  8
DATA
  6
CONTINUOUS
 62
     7
 10
-432.21247216595827
 20
-178.03606947683571
 30
0.0
 40
0.7449824473017236
 50
271.68928210465361
 51
356.07828298263189
  0
ARC
  5
3F6
  8
DATA
  6
CONTINUOUS
 62
     7
 10
-433.0717794337516
 20
-177.892694850558
 30
0.0
 40
0.2446179641447342
 50
307.64190249757451
 51
354.26701928940719
  0
ARC
  5
3F7
  8
DATA
  6
CONTINUOUS
 62
     7
 10
-433.52807280921911
 20
-176.9112215413133
 30
0.0
 40
1.34571596500492
 50
269.65121993761397
 51
282.82648280686971
  0
ARC
  5
3F8
  8
DATA
  6
CONTINUOUS
 62
     7
 10
-433.37692760630972
 20
-177.48016359677121
 30
0.0
 40
0.7577096731060676
 50
281.23310362265289
 51
306.86200889404643
  0
ARC
  5
3F9
  8
DATA
  6
CONTINUOUS
 62
     7
 10
-433.0717794337516
 20
-176.1576861783316
 30
0.0
 40
0.2446179641448562
 50
5.7329807104947257
 51
52.358097502412548
  0
ARC
  5
3FA
  8
DATA
  6
CONTINUOUS
 62
     7
 10
-433.52807280921911
 20
-177.13915948757631
 30
0.0
 40
1.3457159650042969
 50
77.173517193121427
 51
90.348780062386126
  0
ARC
  5
3FB
  8
DATA
  6
CONTINUOUS
 62
     7
 10
-433.37692760630972
 20
-176.5702174321184
 30
0.0
 40
0.7577096731054052
 50
53.137991105945851
 51
78.766896377341254
  0
LINE
  5
3FC
  8
DATA
  6
CONTINUOUS
 62
     7
 10
-424.08174710556051
 20
-186.82864671497001
 30
0.0
 11
-444.05633224266518
 21
-186.82864671497001
 31
0.0
  0
TEXT
  5
3FD
  8
DATA
 62
     7
 10
-442.35188137823491
 20
-189.4874650520145
 30
0.0
 40
1.835161188381758
  1
PROFESSINAL
 41
0.7
 11
-442.35188137823491
 21
-187.65230386363271
 31
0.0
 73
     3
  0
LINE
  5
3FE
  8
DATA
  6
CONTINUOUS
 62
     7
 10
-436.279168983928
 20
-166.3290187626306
 30
0.0
 11
-431.72082935963539
 21
-166.3290187626306
 31
0.0
  0
LINE
  5
3FF
  8
DATA
  6
CONTINUOUS
 62
     7
 10
-436.279168983928
 20
-82.593439507471373
 30
0.0
 11
-431.72082935963539
 21
-82.593439507471444
 31
0.0
  0
CIRCLE
  5
400
  8
DATA
  6
CONTINUOUS
 62
     7
 10
-433.99999917178161
 20
-309.87046083505101
 30
0.0
 40
42.5
  0
CIRCLE
  5
401
  8
DATA
  6
CONTINUOUS
 62
     7
 10
-433.99999917178161
 20
-309.87046083505101
 30
0.0
 40
114.0
  0
CIRCLE
  5
402
  8
DATA
  6
CONTINUOUS
 62
     7
 10
-433.99999917178161
 20
-309.87046083505101
 30
0.0
 40
91.0
  0
CIRCLE
  5
403
  8
DATA
  6
CONTINUOUS
 62
     7
 10
-502.98316137663659
 20
-240.887298630196
 30
0.0
 40
3.4004367676550369
  0
CIRCLE
  5
404
  8
DATA
  6
CONTINUOUS
 62
     7
 10
-502.98316137663659
 20
-240.887298630196
 30
0.0
 40
4.2766876737177313
  0
ARC
  5
405
  8
DATA
  6
CONTINUOUS
 62
     7
 10
-507.90750512289588
 20
-236.26851245640009
 30
0.0
 40
5.2422465180138227
 50
90.536218836043759
 51
122.9209291968381
  0
ARC
  5
406
  8
DATA
  6
CONTINUOUS
 62
     7
 10
-507.97140355701271
 20
-241.55871440647101
 30
0.0
 40
10.53204439220875
 50
77.949071594009681
 51
90.006497718133758
  0
ARC
  5
407
  8
DATA
  6
CONTINUOUS
 62
     7
 10
-507.10938555780871
 20
-238.93662374739219
 30
0.0
 40
7.7933724714042381
 50
58.031498484592888
 51
80.122643401223044
  0
ARC
  5
408
  8
DATA
  6
CONTINUOUS
 62
     7
 10
-509.85489914725952
 20
-242.079506915113
 30
0.0
 40
11.93177648348372
 50
29.72889443626002
 51
54.83597840673734
  0
ARC
  5
409
  8
DATA
  6
CONTINUOUS
 62
     7
 10
-506.79636404001093
 20
-240.1084071109025
 30
0.0
 40
8.3006288565067656
 50
11.835340128567831
 51
28.383116644428039
  0
ARC
  5
40A
  8
DATA
  6
CONTINUOUS
 62
     7
 10
-505.2907008163217
 20
-239.80746400732849
 30
0.0
 40
6.7652661000714431
 50
350.81547837257892
 51
11.95615901702018
  0
ARC
  5
40B
  8
DATA
  6
CONTINUOUS
 62
     7
 10
-504.87106387065631
 20
-239.9794624103377
 30
0.0
 40
6.3243914541496018
 50
326.21486715911118
 51
351.7469543075137
  0
ARC
  5
40C
  8
DATA
  6
CONTINUOUS
 62
     7
 10
-508.52435438446958
 20
-235.34637467843021
 30
0.0
 40
4.1329718796149164
 50
122.6903575543721
 51
137.54039085551409
  0
ARC
  5
40D
  8
DATA
  6
CONTINUOUS
 62
     7
 10
-507.84196792181422
 20
-235.899374799675
 30
0.0
 40
5.009995759572103
 50
138.14287848612281
 51
160.21148841048381
  0
ARC
  5
40E
  8
DATA
  6
CONTINUOUS
 62
     7
 10
-505.47643005495132
 20
-236.34416442405981
 30
0.0
 40
7.3963168065440179
 50
163.1745150633601
 51
186.446983309014
  0
ARC
  5
40F
  8
DATA
  6
CONTINUOUS
 62
     7
 10
-502.19358432233668
 20
-235.317442332388
 30
0.0
 40
10.793374429193699
 50
189.90815571756869
 51
206.2177711422226
  0
ARC
  5
410
  8
DATA
  6
CONTINUOUS
 62
     7
 10
-505.4206416116736
 20
-237.62571507295661
 30
0.0
 40
6.9087414997026899
 50
200.85968612053409
 51
220.43174650515351
  0
ARC
  5
411
  8
DATA
  6
CONTINUOUS
 62
     7
 10
-504.7503995218085
 20
-237.24036819185741
 30
0.0
 40
7.6701320745142407
 50
219.3757145695017
 51
246.5129661704803
  0
ARC
  5
412
  8
DATA
  6
CONTINUOUS
 62
     7
 10
-503.02245103447319
 20
-235.52978170971241
 30
0.0
 40
9.9686435557286899
 50
241.3154777376725
 51
259.55806136153399
  0
ARC
  5
413
  8
DATA
  6
CONTINUOUS
 62
     7
 10
-504.14156360503512
 20
-237.88846983095871
 30
0.0
 40
7.476550562554964
 50
264.72323131085102
 51
286.9476991494268
  0
ARC
  5
414
  8
DATA
  6
CONTINUOUS
 62
     7
 10
-508.6673569973691
 20
-232.2892317277377
 30
0.0
 40
14.40659598037341
 50
297.73776597410318
 51
308.92998780611492
  0
LINE
  5
415
  8
DATA
  6
CONTINUOUS
 62
     7
 10
-365.93837682367598
 20
-242.48345248180891
 30
0.0
 11
-366.85991668808691
 21
-240.887298630196
 31
0.0
  0
LINE
  5
416
  8
DATA
  6
CONTINUOUS
 62
     7
 10
-366.85991668808691
 20
-240.887298630196
 30
0.0
 11
-365.93837682367598
 21
-239.29114477858329
 31
0.0
  0
LINE
  5
417
  8
DATA
  6
CONTINUOUS
 62
     7
 10
-365.93837682367598
 20
-239.29114477858329
 30
0.0
 11
-364.09529711017751
 21
-239.29114477858329
 31
0.0
  0
LINE
  5
418
  8
DATA
  6
CONTINUOUS
 62
     7
 10
-364.09529711017751
 20
-239.29114477858329
 30
0.0
 11
-363.17375725342811
 21
-240.887298630196
 31
0.0
  0
LINE
  5
419
  8
DATA
  6
CONTINUOUS
 62
     7
 10
-363.17375725342811
 20
-240.887298630196
 30
0.0
 11
-364.09529711017751
 21
-242.48345248180891
 31
0.0
  0
LINE
  5
41A
  8
DATA
  6
CONTINUOUS
 62
     7
 10
-364.09529711017751
 20
-242.48345248180891
 30
0.0
 11
-365.93837682367598
 21
-242.48345248180891
 31
0.0
  0
CIRCLE
  5
41B
  8
DATA
  6
CONTINUOUS
 62
     7
 10
-365.0168369669268
 20
-240.887298630196
 30
0.0
 40
3.4004367676550369
  0
CIRCLE
  5
41C
  8
DATA
  6
CONTINUOUS
 62
     7
 10
-365.0168369669268
 20
-240.887298630196
 30
0.0
 40
4.2766876737177313
  0
ARC
  5
41D
  8
DATA
  6
CONTINUOUS
 62
     7
 10
-360.09249322066739
 20
-236.26851245640009
 30
0.0
 40
5.2422465180138751
 50
57.079070803161862
 51
89.463781163956241
  0
ARC
  5
41E
  8
DATA
  6
CONTINUOUS
 62
     7
 10
-360.02859478655091
 20
-241.55871440647101
 30
0.0
 40
10.53204439220881
 50
89.993502281866228
 51
102.05092840599031
  0
ARC
  5
41F
  8
DATA
  6
CONTINUOUS
 62
     7
 10
-360.8906127857548
 20
-238.93662374739219
 30
0.0
 40
7.7933724714042532
 50
99.877356598776913
 51
121.9685015154071
  0
ARC
  5
420
  8
DATA
  6
CONTINUOUS
 62
     7
 10
-358.14509919630382
 20
-242.079506915113
 30
0.0
 40
11.93177648348372
 50
125.1640215932626
 51
150.27110556374001
  0
ARC
  5
421
  8
DATA
  6
CONTINUOUS
 62
     7
 10
-361.20363430355258
 20
-240.1084071109025
 30
0.0
 40
8.3006288565067656
 50
151.61688335557201
 51
168.16465987143209
  0
ARC
  5
422
  8
DATA
  6
CONTINUOUS
 62
     7
 10
-362.7092975272418
 20
-239.80746400732849
 30
0.0
 40
6.7652661000714431
 50
168.04384098297979
 51
189.18452162742111
  0
ARC
  5
423
  8
DATA
  6
CONTINUOUS
 62
     7
 10
-363.12893447290708
 20
-239.9794624103377
 30
0.0
 40
6.3243914541496196
 50
188.25304569248641
 51
213.78513284088879
  0
ARC
  5
424
  8
DATA
  6
CONTINUOUS
 62
     7
 10
-359.47564395909382
 20
-235.34637467843021
 30
0.0
 40
4.1329718796148791
 50
42.459609144485853
 51
57.309642445627929
  0
ARC
  5
425
  8
DATA
  6
CONTINUOUS
 62
     7
 10
-360.15803042174929
 20
-235.899374799675
 30
0.0
 40
5.0099957595721269
 50
19.788511589516091
 51
41.857121513877161
  0
ARC
  5
426
  8
DATA
  6
CONTINUOUS
 62
     7
 10
-362.52356828861201
 20
-236.34416442405981
 30
0.0
 40
7.3963168065440179
 50
353.553016690986
 51
16.825484936639899
  0
ARC
  5
427
  8
DATA
  6
CONTINUOUS
 62
     7
 10
-365.80641402122677
 20
-235.317442332388
 30
0.0
 40
10.79337442919369
 50
333.78222885777728
 51
350.0918442824314
  0
ARC
  5
428
  8
DATA
  6
CONTINUOUS
 62
     7
 10
-362.57935673188967
 20
-237.62571507295661
 30
0.0
 40
6.9087414997026713
 50
319.56825349484649
 51
339.14031387946602
  0
ARC
  5
429
  8
DATA
  6
CONTINUOUS
 62
     7
 10
-363.24959882175477
 20
-237.24036819185741
 30
0.0
 40
7.6701320745142914
 50
293.48703382951982
 51
320.62428543049822
  0
ARC
  5
42A
  8
DATA
  6
CONTINUOUS
 62
     7
 10
-364.9775473090902
 20
-235.52978170971241
 30
0.0
 40
9.9686435557286899
 50
280.4419386384659
 51
298.6845222623275
  0
ARC
  5
42B
  8
DATA
  6
CONTINUOUS
 62
     7
 10
-363.85843473852839
 20
-237.88846983095871
 30
0.0
 40
7.4765505625549631
 50
253.0523008505732
 51
275.27676868914898
  0
ARC
  5
42C
  8
DATA
  6
CONTINUOUS
 62
     7
 10
-359.33264134619418
 20
-232.2892317277377
 30
0.0
 40
14.40659598037341
 50
231.07001219388479
 51
242.2622340258969
  0
LINE
  5
42D
  8
DATA
  6
CONTINUOUS
 62
     7
 10
-502.06162151988752
 20
-377.25746918829287
 30
0.0
 11
-501.14008165547648
 21
-378.85362303990581
 31
0.0
  0
LINE
  5
42E
  8
DATA
  6
CONTINUOUS
 62
     7
 10
-501.14008165547648
 20
-378.85362303990581
 30
0.0
 11
-502.06162151988752
 21
-380.44977689151858
 31
0.0
  0
LINE
  5
42F
  8
DATA
  6
CONTINUOUS
 62
     7
 10
-502.06162151988752
 20
-380.44977689151858
 30
0.0
 11
-503.90470123338588
 21
-380.44977689151858
 31
0.0
  0
LINE
  5
430
  8
DATA
  6
CONTINUOUS
 62
     7
 10
-503.90470123338588
 20
-380.44977689151858
 30
0.0
 11
-504.82624109013511
 21
-378.85362303990581
 31
0.0
  0
LINE
  5
431
  8
DATA
  6
CONTINUOUS
 62
     7
 10
-504.82624109013511
 20
-378.85362303990581
 30
0.0
 11
-503.90470123338588
 21
-377.25746918829287
 31
0.0
  0
LINE
  5
432
  8
DATA
  6
CONTINUOUS
 62
     7
 10
-503.90470123338588
 20
-377.25746918829287
 30
0.0
 11
-502.06162151988752
 21
-377.25746918829287
 31
0.0
  0
CIRCLE
  5
433
  8
DATA
  6
CONTINUOUS
 62
     7
 10
-502.98316137663659
 20
-378.85362303990581
 30
0.0
 40
3.4004367676550369
  0
CIRCLE
  5
434
  8
DATA
  6
CONTINUOUS
 62
     7
 10
-502.98316137663659
 20
-378.85362303990581
 30
0.0
 40
4.2766876737177313
  0
ARC
  5
435
  8
DATA
  6
CONTINUOUS
 62
     7
 10
-507.90750512289588
 20
-383.47240921370178
 30
0.0
 40
5.2422465180138751
 50
237.0790708031619
 51
269.4637811639563
  0
ARC
  5
436
  8
DATA
  6
CONTINUOUS
 62
     7
 10
-507.97140355701271
 20
-378.18220726363091
 30
0.0
 40
10.53204439220881
 50
269.9935022818662
 51
282.05092840599031
  0
ARC
  5
437
  8
DATA
  6
CONTINUOUS
 62
     7
 10
-507.10938555780871
 20
-380.80429792270979
 30
0.0
 40
7.7933724714042532
 50
279.87735659877688
 51
301.96850151540701
  0
ARC
  5
438
  8
DATA
  6
CONTINUOUS
 62
     7
 10
-509.85489914725952
 20
-377.66141475498893
 30
0.0
 40
11.93177648348372
 50
305.16402159326259
 51
330.27110556373992
  0
ARC
  5
439
  8
DATA
  6
CONTINUOUS
 62
     7
 10
-506.79636404001093
 20
-379.63251455919931
 30
0.0
 40
8.3006288565067656
 50
331.61688335557187
 51
348.16465987143232
  0
ARC
  5
43A
  8
DATA
  6
CONTINUOUS
 62
     7
 10
-505.2907008163217
 20
-379.93345766277338
 30
0.0
 40
6.7652661000714431
 50
348.04384098297982
 51
9.184521627421077
  0
ARC
  5
43B
  8
DATA
  6
CONTINUOUS
 62
     7
 10
-504.87106387065631
 20
-379.76145925976419
 30
0.0
 40
6.3243914541496196
 50
8.2530456924863742
 51
33.785132840888771
  0
ARC
  5
43C
  8
DATA
  6
CONTINUOUS
 62
     7
 10
-508.52435438446958
 20
-384.39454699167169
 30
0.0
 40
4.1329718796148791
 50
222.4596091444858
 51
237.30964244562799
  0
ARC
  5
43D
  8
DATA
  6
CONTINUOUS
 62
     7
 10
-507.84196792181422
 20
-383.8415468704269
 30
0.0
 40
5.0099957595721269
 50
199.78851158951611
 51
221.85712151387719
  0
ARC
  5
43E
  8
DATA
  6
CONTINUOUS
 62
     7
 10
-505.47643005495132
 20
-383.39675724604211
 30
0.0
 40
7.3963168065440179
 50
173.553016690986
 51
196.8254849366399
  0
ARC
  5
43F
  8
DATA
  6
CONTINUOUS
 62
     7
 10
-502.19358432233668
 20
-384.42347933771401
 30
0.0
 40
10.79337442919369
 50
153.7822288577774
 51
170.09184428243131
  0
ARC
  5
440
  8
DATA
  6
CONTINUOUS
 62
     7
 10
-505.4206416116736
 20
-382.1152065971454
 30
0.0
 40
6.9087414997026713
 50
139.56825349484649
 51
159.14031387946591
  0
ARC
  5
441
  8
DATA
  6
CONTINUOUS
 62
     7
 10
-504.7503995218085
 20
-382.5005534782444
 30
0.0
 40
7.6701320745142914
 50
113.4870338295197
 51
140.6242854304983
  0
ARC
  5
442
  8
DATA
  6
CONTINUOUS
 62
     7
 10
-503.02245103447319
 20
-384.2111399603894
 30
0.0
 40
9.9686435557286899
 50
100.4419386384659
 51
118.6845222623275
  0
ARC
  5
443
  8
DATA
  6
CONTINUOUS
 62
     7
 10
-504.14156360503512
 20
-381.85245183914321
 30
0.0
 40
7.4765505625549631
 50
73.052300850573161
 51
95.276768689149023
  0
ARC
  5
444
  8
DATA
  6
CONTINUOUS
 62
     7
 10
-508.6673569973691
 20
-387.45168994236411
 30
0.0
 40
14.40659598037341
 50
51.070012193884999
 51
62.262234025896873
  0
LINE
  5
445
  8
DATA
  6
CONTINUOUS
 62
     7
 10
-365.93837682367598
 20
-377.25746918829287
 30
0.0
 11
-366.85991668808691
 21
-378.85362303990581
 31
0.0
  0
LINE
  5
446
  8
DATA
  6
CONTINUOUS
 62
     7
 10
-366.85991668808691
 20
-378.85362303990581
 30
0.0
 11
-365.93837682367598
 21
-380.44977689151858
 31
0.0
  0
LINE
  5
447
  8
DATA
  6
CONTINUOUS
 62
     7
 10
-365.93837682367598
 20
-380.44977689151858
 30
0.0
 11
-364.09529711017751
 21
-380.44977689151858
 31
0.0
  0
LINE
  5
448
  8
DATA
  6
CONTINUOUS
 62
     7
 10
-364.09529711017751
 20
-380.44977689151858
 30
0.0
 11
-363.17375725342811
 21
-378.85362303990581
 31
0.0
  0
LINE
  5
449
  8
DATA
  6
CONTINUOUS
 62
     7
 10
-363.17375725342811
 20
-378.85362303990581
 30
0.0
 11
-364.09529711017751
 21
-377.25746918829287
 31
0.0
  0
LINE
  5
44A
  8
DATA
  6
CONTINUOUS
 62
     7
 10
-364.09529711017751
 20
-377.25746918829287
 30
0.0
 11
-365.93837682367598
 21
-377.25746918829287
 31
0.0
  0
CIRCLE
  5
44B
  8
DATA
  6
CONTINUOUS
 62
     7
 10
-365.0168369669268
 20
-378.85362303990581
 30
0.0
 40
3.4004367676550369
  0
CIRCLE
  5
44C
  8
DATA
  6
CONTINUOUS
 62
     7
 10
-365.0168369669268
 20
-378.85362303990581
 30
0.0
 40
4.2766876737177313
  0
ARC
  5
44D
  8
DATA
  6
CONTINUOUS
 62
     7
 10
-360.09249322066739
 20
-383.47240921370178
 30
0.0
 40
5.2422465180138227
 50
270.5362188360437
 51
302.92092919683807
  0
ARC
  5
44E
  8
DATA
  6
CONTINUOUS
 62
     7
 10
-360.02859478655091
 20
-378.18220726363091
 30
0.0
 40
10.53204439220875
 50
257.94907159400958
 51
270.00649771813369
  0
ARC
  5
44F
  8
DATA
  6
CONTINUOUS
 62
     7
 10
-360.8906127857548
 20
-380.80429792270979
 30
0.0
 40
7.7933724714042381
 50
238.0314984845929
 51
260.12264340122312
  0
ARC
  5
450
  8
DATA
  6
CONTINUOUS
 62
     7
 10
-358.14509919630382
 20
-377.66141475498893
 30
0.0
 40
11.93177648348372
 50
209.72889443625991
 51
234.83597840673741
  0
ARC
  5
451
  8
DATA
  6
CONTINUOUS
 62
     7
 10
-361.20363430355258
 20
-379.63251455919931
 30
0.0
 40
8.3006288565067656
 50
191.83534012856779
 51
208.3831166444281
  0
ARC
  5
452
  8
DATA
  6
CONTINUOUS
 62
     7
 10
-362.7092975272418
 20
-379.93345766277338
 30
0.0
 40
6.7652661000714431
 50
170.81547837257881
 51
191.95615901702021
  0
ARC
  5
453
  8
DATA
  6
CONTINUOUS
 62
     7
 10
-363.12893447290708
 20
-379.76145925976419
 30
0.0
 40
6.3243914541496018
 50
146.21486715911121
 51
171.74695430751359
  0
ARC
  5
454
  8
DATA
  6
CONTINUOUS
 62
     7
 10
-359.47564395909382
 20
-384.39454699167169
 30
0.0
 40
4.1329718796149164
 50
302.6903575543721
 51
317.54039085551409
  0
ARC
  5
455
  8
DATA
  6
CONTINUOUS
 62
     7
 10
-360.15803042174929
 20
-383.8415468704269
 30
0.0
 40
5.009995759572103
 50
318.14287848612292
 51
340.21148841048381
  0
ARC
  5
456
  8
DATA
  6
CONTINUOUS
 62
     7
 10
-362.52356828861201
 20
-383.39675724604211
 30
0.0
 40
7.3963168065440179
 50
343.17451506336022
 51
6.4469833090140023
  0
ARC
  5
457
  8
DATA
  6
CONTINUOUS
 62
     7
 10
-365.80641402122677
 20
-384.42347933771401
 30
0.0
 40
10.793374429193699
 50
9.9081557175686807
 51
26.21777114222261
  0
ARC
  5
458
  8
DATA
  6
CONTINUOUS
 62
     7
 10
-362.57935673188967
 20
-382.1152065971454
 30
0.0
 40
6.9087414997026899
 50
20.859686120534089
 51
40.431746505153491
  0
ARC
  5
459
  8
DATA
  6
CONTINUOUS
 62
     7
 10
-363.24959882175477
 20
-382.5005534782444
 30
0.0
 40
7.6701320745142407
 50
39.375714569501703
 51
66.512966170480254
  0
ARC
  5
45A
  8
DATA
  6
CONTINUOUS
 62
     7
 10
-364.9775473090902
 20
-384.2111399603894
 30
0.0
 40
9.9686435557286899
 50
61.315477737672531
 51
79.558061361534044
  0
ARC
  5
45B
  8
DATA
  6
CONTINUOUS
 62
     7
 10
-363.85843473852839
 20
-381.85245183914321
 30
0.0
 40
7.476550562554964
 50
84.723231310850963
 51
106.9476991494268
  0
ARC
  5
45C
  8
DATA
  6
CONTINUOUS
 62
     7
 10
-359.33264134619418
 20
-387.45168994236411
 30
0.0
 40
14.40659598037341
 50
117.7377659741031
 51
128.92998780611501
  0
ARC
  5
45D
  8
DATA
  6
CONTINUOUS
 62
     7
 10
-314.09929905043822
 20
-72.629509513228484
 30
0.0
 40
10.5992897120306
 50
15.194045038317039
 51
67.235843505850013
  0
ARC
  5
45E
  8
DATA
  6
CONTINUOUS
 62
     7
 10
-553.90069929312506
 20
-72.629509513228484
 30
0.0
 40
10.5992897120306
 50
112.76415649415
 51
164.805954961683
  0
ARC
  5
45F
  8
DATA
  6
CONTINUOUS
 62
     7
 10
-450.53310018937032
 20
-809.6904621522101
 30
0.0
 40
754.5273362834688
 50
93.669523134539688
 51
98.188603060043746
  0
ARC
  5
460
  8
DATA
  6
CONTINUOUS
 62
     7
 10
-442.39622185259918
 20
-894.03056803888376
 30
0.0
 40
839.21971605040676
 50
91.193327476368481
 51
93.855382452271044
  0
ARC
  5
461
  8
DATA
  6
CONTINUOUS
 62
     7
 10
-416.39370069452173
 20
-2278.7648221339982
 30
0.0
 40
2224.1969862352189
 50
90.453546666418021
 51
91.120127837855478
  0
ARC
  5
462
  8
DATA
  6
CONTINUOUS
 62
     7
 10
-443.65237743108707
 20
-1899.7490049818909
 30
0.0
 40
1845.1367312155739
 50
89.022820072004933
 51
89.700269876041688
  0
ARC
  5
463
  8
DATA
  6
CONTINUOUS
 62
     7
 10
-425.23239374069811
 20
-816.2718479852324
 30
0.0
 40
761.50301235069651
 50
87.216162898733884
 51
89.018267275840856
  0
ARC
  5
464
  8
DATA
  6
CONTINUOUS
 62
     7
 10
-432.31069924218389
 20
-1028.839463900739
 30
0.0
 40
974.16898649988843
 50
86.098600618914858
 51
87.407549343650686
  0
ARC
  5
465
  8
DATA
  6
CONTINUOUS
 62
     7
 10
-413.33985953100603
 20
-754.50842549865331
 30
0.0
 40
699.18295754052156
 50
85.054812283865985
 51
86.120028633536919
  0
ARC
  5
466
  8
DATA
  6
CONTINUOUS
 62
     7
 10
-389.70605588163221
 20
-506.96065187500329
 30
0.0
 40
450.5247568961592
 50
83.735789983991253
 51
85.335432334319776
  0
ARC
  5
467
  8
DATA
  6
CONTINUOUS
 62
     7
 10
-456.8197262166882
 20
-1138.3939716974869
 30
0.0
 40
1085.5131826694001
 50
82.22660151426868
 51
83.851113206390309
  0
LINE
  5
468
  8
DATA
  6
CONTINUOUS
 62
     7
 10
-561.87394162631335
 20
-65.645789222737776
 30
0.0
 11
-596.07189114756227
 21
-44.946057273898141
 31
0.0
  0
LINE
  5
469
  8
DATA
  6
CONTINUOUS
 62
     7
 10
-306.12605671724998
 20
-65.645789222737776
 30
0.0
 11
-271.92994674638049
 21
-44.915341746975791
 31
0.0
  0
ARC
  5
46A
  8
DATA
  6
CONTINUOUS
 62
     7
 10
-280.67548020458599
 20
-437.32451813902168
 30
0.0
 40
12.67582855171106
 50
269.57624315428609
 51
0.423756845714081
  0
ARC
  5
46B
  8
DATA
  6
CONTINUOUS
 62
     7
 10
-450.53310018937032
 20
317.69046215210682
 30
0.0
 40
754.5273362834688
 50
261.8113969399563
 51
266.33047686546041
  0
ARC
  5
46C
  8
DATA
  6
CONTINUOUS
 62
     7
 10
-442.39622185259918
 20
402.0305680387807
 30
0.0
 40
839.21971605040676
 50
266.14461754772901
 51
268.80667252363162
  0
ARC
  5
46D
  8
DATA
  6
CONTINUOUS
 62
     7
 10
-416.39370069452173
 20
1786.7648221338941
 30
0.0
 40
2224.1969862352189
 50
268.87987216214452
 51
269.54645333358189
  0
ARC
  5
46E
  8
DATA
  6
CONTINUOUS
 62
     7
 10
-443.65237743108707
 20
1407.7490049817879
 30
0.0
 40
1845.1367312155739
 50
270.29973012395828
 51
270.97717992799511
  0
ARC
  5
46F
  8
DATA
  6
CONTINUOUS
 62
     7
 10
-425.23239374069811
 20
324.27184798512911
 30
0.0
 40
761.50301235069628
 50
270.98173272415909
 51
272.78383710126622
  0
ARC
  5
470
  8
DATA
  6
CONTINUOUS
 62
     7
 10
-432.31069924218389
 20
536.83946390063636
 30
0.0
 40
974.16898649988843
 50
272.59245065634929
 51
273.90139938108518
  0
ARC
  5
471
  8
DATA
  6
CONTINUOUS
 62
     7
 10
-413.33985953100603
 20
262.50842549855008
 30
0.0
 40
699.18295754052156
 50
273.87997136646311
 51
274.94518771613411
  0
ARC
  5
472
  8
DATA
  6
CONTINUOUS
 62
     7
 10
-389.70605588163221
 20
14.96065187490011
 30
0.0
 40
450.5247568961592
 50
274.66456766568029
 51
276.26421001600869
  0
ARC
  5
473
  8
DATA
  6
CONTINUOUS
 62
     7
 10
-456.8197262166882
 20
646.39397169738413
 30
0.0
 40
1085.5131826694001
 50
276.14888679360979
 51
277.77339848573138
  0
LINE
  5
474
  8
DATA
  6
CONTINUOUS
 62
     7
 10
-562.34277453013397
 20
-426.6379914008748
 30
0.0
 11
-595.67034964098866
 21
-446.81089302092249
 31
0.0
  0
LINE
  5
475
  8
DATA
  6
CONTINUOUS
 62
     7
 10
-305.65759251019767
 20
-426.63820426805319
 30
0.0
 11
-272.31426590799759
 21
-446.85167537289283
 31
0.0
  0
ARC
  5
476
  8
DATA
  6
CONTINUOUS
 62
     7
 10
-556.64296121556265
 20
-421.7779477922183
 30
0.0
 40
7.4905203890654963
 50
178.1264920040532
 51
259.54686209531587
  0
ARC
  5
477
  8
DATA
  6
CONTINUOUS
 62
     7
 10
-311.35750479388162
 20
-421.77756350550851
 30
0.0
 40
7.4909831573833259
 50
280.4561222688946
 51
1.8723021421845369
  0
LINE
  5
478
  8
DATA
  6
CONTINUOUS
 62
     7
 10
-600.0000000000075
 20
138.3076924999958
 30
0.0
 11
-587.23076917178196
 21
138.3076924999958
 31
0.0
  0
LINE
  5
479
  8
DATA
  6
CONTINUOUS
 62
     7
 10
-280.76922917178172
 20
138.3076924999958
 30
0.0
 11
-267.99999833589447
 21
138.3076924999958
 31
0.0
  0
LINE
  5
47A
  8
DATA
  6
CONTINUOUS
 62
     7
 10
-587.29404513637633
 20
137.5415386423343
 30
0.0
 11
-280.70572792730911
 21
137.541538581042
 31
0.0
  0
LINE
  5
47B
  8
DATA
  6
CONTINUOUS
 62
     7
 10
-559.36094364124995
 20
99.999999999996007
 30
0.0
 11
-308.63520146058107
 21
100.00312319247659
 31
0.0
  0
LINE
  5
47C
  8
DATA
  6
CONTINUOUS
 62
     7
 10
-598.3399999967819
 20
137.5415386499958
 30
0.0
 11
-599.62599999999986
 21
137.5415386499958
 31
0.0
  0
ARC
  5
47D
  8
DATA
  6
CONTINUOUS
 62
     7
 10
-587.90654934487338
 20
393.93554667641013
 30
0.0
 40
12.09589654533948
 50
94.132151551285133
 51
181.15224384196949
  0
ARC
  5
47E
  8
DATA
  6
CONTINUOUS
 62
     7
 10
-280.15833948374222
 20
393.91219025410049
 30
0.0
 40
12.1603292373677
 50
358.96393059657959
 51
83.739508860907065
  0
LINE
  5
47F
  8
DATA
  6
CONTINUOUS
 62
     7
 10
-588.77814514481554
 20
406.0
 30
0.0
 11
-278.75
 21
406.0
 31
0.0
  0
LINE
  5
480
  8
DATA
  6
CONTINUOUS
 62
     7
 10
-537.81112701958625
 20
407.66510769810799
 30
0.0
 11
-531.35533386451505
 21
407.66510769810799
 31
0.0
  0
LINE
  5
481
  8
DATA
  6
CONTINUOUS
 62
     7
 10
-528.23420389459898
 20
407.66510769810799
 30
0.0
 11
-521.77841074069966
 21
407.66510769810799
 31
0.0
  0
ARC
  5
482
  8
DATA
  6
CONTINUOUS
 62
     7
 10
-538.24947406126148
 20
401.33141516604871
 30
0.0
 40
8.3048308715160815
 50
87.424143348969196
 51
145.79518310479739
  0
LINE
  5
483
  8
DATA
  6
CONTINUOUS
 62
     7
 10
-521.62523892006732
 20
412.28241385393341
 30
0.0
 11
-518.82097915488202
 21
412.59973315008028
 31
0.0
  0
LINE
  5
484
  8
DATA
  6
CONTINUOUS
 62
     7
 10
-512.01539181970224
 20
413.27488102393107
 30
0.0
 11
-512.01539181970224
 21
406.0
 31
0.0
  0
LINE
  5
485
  8
DATA
  6
CONTINUOUS
 62
     7
 10
-509.02512033475227
 20
405.99999999999528
 30
0.0
 11
-509.27441569597312
 21
413.51497609559772
 31
0.0
  0
LINE
  5
486
  8
DATA
  6
CONTINUOUS
 62
     7
 10
-502.67980180203682
 20
405.99999999999528
 30
0.0
 11
-502.41273616881932
 21
414.05032792173171
 31
0.0
  0
LINE
  5
487
  8
DATA
  6
CONTINUOUS
 62
     7
 10
-499.72146734838572
 20
414.23768238741059
 30
0.0
 11
-499.44819720975232
 21
405.99999999999528
 31
0.0
  0
LINE
  5
488
  8
DATA
  6
CONTINUOUS
 62
     7
 10
-499.18692257339461
 20
405.99999999999528
 30
0.0
 11
-499.18692257339461
 21
411.36818464488221
 31
0.0
  0
LINE
  5
489
  8
DATA
  6
CONTINUOUS
 62
     7
 10
-494.0792302375072
 20
411.36818464488221
 30
0.0
 11
-494.0792302375072
 21
405.99999999999528
 31
0.0
  0
LINE
  5
48A
  8
DATA
  6
CONTINUOUS
 62
     7
 10
-493.10287867703681
 20
405.99999999999528
 30
0.0
 11
-492.81534181900872
 21
414.66776741738511
 31
0.0
  0
LINE
  5
48B
  8
DATA
  6
CONTINUOUS
 62
     7
 10
-490.16370475815881
 20
414.8151795936634
 30
0.0
 11
-489.87127408475232
 21
405.99999999999528
 31
0.0
  0
LINE
  5
48C
  8
DATA
  6
CONTINUOUS
 62
     7
 10
-480.31570035010571
 20
406.64356923399509
 30
0.0
 11
-473.92768303671522
 21
406.64356923399509
 31
0.0
  0
LINE
  5
48D
  8
DATA
  6
CONTINUOUS
 62
     7
 10
-483.52595555203692
 20
405.99999999999528
 30
0.0
 11
-483.22212135278841
 21
415.1591971679444
 31
0.0
  0
LINE
  5
48E
  8
DATA
  6
CONTINUOUS
 62
     7
 10
-480.29435095975242
 20
405.99999999999528
 30
0.0
 11
-480.60201187529668
 21
415.27429598581432
 31
0.0
  0
LINE
  5
48F
  8
DATA
  6
CONTINUOUS
 62
     7
 10
-435.30248310379721
 20
416.21470980515039
 30
0.0
 11
-432.74859215799188
 21
416.21470980515039
 31
0.0
  0
LINE
  5
490
  8
DATA
  6
CONTINUOUS
 62
     7
 10
-425.72648450430961
 20
416.1868402616571
 30
0.0
 11
-423.18841051322732
 21
416.1868402616571
 31
0.0
  0
LINE
  5
491
  8
DATA
  6
CONTINUOUS
 62
     7
 10
-416.15302870049618
 20
416.08231912473218
 30
0.0
 11
-413.5889848830704
 21
416.04104595714051
 31
0.0
  0
LINE
  5
492
  8
DATA
  6
CONTINUOUS
 62
     7
 10
-406.58219410054221
 20
415.8987828174109
 30
0.0
 11
-404.00523758742088
 21
415.83533392423078
 31
0.0
  0
LINE
  5
493
  8
DATA
  6
CONTINUOUS
 62
     7
 10
-397.01412816607888
 20
415.63178624530138
 30
0.0
 11
-394.4186532164033
 21
415.54409921698442
 31
0.0
  0
LINE
  5
494
  8
DATA
  6
CONTINUOUS
 62
     7
 10
-387.44906718661531
 20
415.27420639944478
 30
0.0
 11
-384.82895833736978
 21
415.15909962123629
 31
0.0
  0
LINE
  5
495
  8
DATA
  6
CONTINUOUS
 62
     7
 10
-377.88737323113799
 20
414.81512888193993
 30
0.0
 11
-375.23573509001119
 21
414.6677386176616
 31
0.0
  0
LINE
  5
496
  8
DATA
  6
CONTINUOUS
 62
     7
 10
-368.3296041132802
 20
414.23773863842632
 30
0.0
 11
-365.63833310930841
 21
414.05041123330119
 31
0.0
  0
LINE
  5
497
  8
DATA
  6
CONTINUOUS
 62
     7
 10
-358.77665615643127
 20
413.51501631867512
 30
0.0
 11
-356.03568311264081
 21
413.27488460186947
 31
0.0
  0
LINE
  5
498
  8
DATA
  6
CONTINUOUS
 62
     7
 10
-349.23009609924537
 20
412.59973315008028
 30
0.0
 11
-346.42583634172172
 21
412.28241385393341
 31
0.0
  0
LINE
  5
499
  8
DATA
  6
CONTINUOUS
 62
     7
 10
-350.36153721089448
 20
411.49587694810799
 30
0.0
 11
-349.2679182828021
 21
411.45959787088418
 31
0.0
  0
LINE
  5
49A
  8
DATA
  6
CONTINUOUS
 62
     7
 10
-341.4230756250073
 20
411.49587694810799
 30
0.0
 11
-346.40422807130079
 21
411.49587694810799
 31
0.0
  0
LINE
  5
49B
  8
DATA
  6
CONTINUOUS
 62
     7
 10
-336.3153832967817
 20
411.49587694810799
 30
0.0
 11
-327.37692171089452
 21
411.49587694810799
 31
0.0
  0
LINE
  5
49C
  8
DATA
  6
CONTINUOUS
 62
     7
 10
-343.8492294858944
 20
413.66664619488228
 30
0.0
 11
-333.88922943589449
 21
413.66664619488228
 31
0.0
  0
LINE
  5
49D
  8
DATA
  6
CONTINUOUS
 62
     7
 10
-343.8492294858944
 20
414.56049234810791
 30
0.0
 11
-333.88922943589449
 21
414.56049234810791
 31
0.0
  0
LINE
  5
49E
  8
DATA
  6
CONTINUOUS
 62
     7
 10
-336.80447895963698
 20
410.9429600029938
 30
0.0
 11
-339.69312109407667
 21
411.39551240268088
 31
0.0
  0
LINE
  5
49F
  8
DATA
  6
CONTINUOUS
 62
     7
 10
-460.8409223808946
 20
413.13514098972178
 30
0.0
 11
-460.8409223808946
 21
406.0
 31
0.0
  0
LINE
  5
4A0
  8
DATA
  6
CONTINUOUS
 62
     7
 10
-460.8409223808946
 20
413.13514098972178
 30
0.0
 11
-454.55848916835743
 21
413.13514098972178
 31
0.0
  0
LINE
  5
4A1
  8
DATA
  6
CONTINUOUS
 62
     7
 10
-451.80027859324809
 20
413.13514098972178
 30
0.0
 11
-444.98156604564298
 21
413.13514098972178
 31
0.0
  0
LINE
  5
4A2
  8
DATA
  6
CONTINUOUS
 62
     7
 10
-473.94903242703691
 20
405.99999999999528
 30
0.0
 11
-473.6168253448846
 21
415.54464337128468
 31
0.0
  0
LINE
  5
4A3
  8
DATA
  6
CONTINUOUS
 62
     7
 10
-471.03694709571022
 20
415.63178624530138
 30
0.0
 11
-470.7174278347523
 21
405.99999999999528
 31
0.0
  0
LINE
  5
4A4
  8
DATA
  6
CONTINUOUS
 62
     7
 10
-464.3721093020369
 20
405.99999999999528
 30
0.0
 11
-464.02514553654839
 21
415.8358642194853
 31
0.0
  0
LINE
  5
4A5
  8
DATA
  6
CONTINUOUS
 62
     7
 10
-461.46888115358553
 20
415.8987828174109
 30
0.0
 11
-461.14050470975229
 21
405.99999999999528
 31
0.0
  0
LINE
  5
4A6
  8
DATA
  6
CONTINUOUS
 62
     7
 10
-454.46209037105677
 20
416.04104595714051
 30
0.0
 11
-454.79518617703678
 21
405.99999999999528
 31
0.0
  0
LINE
  5
4A7
  8
DATA
  6
CONTINUOUS
 62
     7
 10
-451.56358158475228
 20
405.99999999999528
 30
0.0
 11
-451.89804656129292
 21
416.08231912473218
 31
0.0
  0
LINE
  5
4A8
  8
DATA
  6
CONTINUOUS
 62
     7
 10
-445.21826305203678
 20
405.99999999999528
 30
0.0
 11
-444.87585652433279
 21
416.1665432260599
 31
0.0
  0
LINE
  5
4A9
  8
DATA
  6
CONTINUOUS
 62
     7
 10
-442.32459075747943
 20
416.1868402616571
 30
0.0
 11
-441.98665845975228
 21
405.99999999999528
 31
0.0
  0
LINE
  5
4AA
  8
DATA
  6
CONTINUOUS
 62
     7
 10
-435.30248310379721
 20
416.21470980515039
 30
0.0
 11
-435.64133992703682
 21
405.99999999999528
 31
0.0
  0
LINE
  5
4AB
  8
DATA
  6
CONTINUOUS
 62
     7
 10
-432.74859215799188
 20
416.21470980515039
 30
0.0
 11
-432.40973533475221
 21
405.99999999999528
 31
0.0
  0
LINE
  5
4AC
  8
DATA
  6
CONTINUOUS
 62
     7
 10
-425.72648450430961
 20
416.1868402616571
 30
0.0
 11
-426.06441680203682
 21
405.99999999999528
 31
0.0
  0
LINE
  5
4AD
  8
DATA
  6
CONTINUOUS
 62
     7
 10
-423.18841051322732
 20
416.1868402616571
 30
0.0
 11
-422.83281220975221
 21
405.99999999999528
 31
0.0
  0
LINE
  5
4AE
  8
DATA
  6
CONTINUOUS
 62
     7
 10
-416.15302870049618
 20
416.08231912473218
 30
0.0
 11
-416.48749367703681
 21
405.99999999999528
 31
0.0
  0
LINE
  5
4AF
  8
DATA
  6
CONTINUOUS
 62
     7
 10
-413.2558890847522
 20
405.99999999999528
 30
0.0
 11
-413.5889848830704
 21
416.04104595714051
 31
0.0
  0
LINE
  5
4B0
  8
DATA
  6
CONTINUOUS
 62
     7
 10
-407.2101528808945
 20
412.95631875808567
 30
0.0
 11
-413.48665394331118
 21
412.95631875808567
 31
0.0
  0
LINE
  5
4B1
  8
DATA
  6
CONTINUOUS
 62
     7
 10
-407.2101528808945
 20
412.95631875808567
 30
0.0
 11
-407.2101528808945
 21
406.0
 31
0.0
  0
LINE
  5
4B2
  8
DATA
  6
CONTINUOUS
 62
     7
 10
-406.91057055203669
 20
405.99999999999528
 30
0.0
 11
-406.58219410054221
 21
415.8987828174109
 31
0.0
  0
LINE
  5
4B3
  8
DATA
  6
CONTINUOUS
 62
     7
 10
-404.00523758742088
 20
415.83533392423078
 30
0.0
 11
-403.67896595975219
 21
405.99999999999528
 31
0.0
  0
LINE
  5
4B4
  8
DATA
  6
CONTINUOUS
 62
     7
 10
-397.33364742703679
 20
405.99999999999528
 30
0.0
 11
-397.01412816607888
 21
415.63178624530138
 31
0.0
  0
LINE
  5
4B5
  8
DATA
  6
CONTINUOUS
 62
     7
 10
-394.4186532164033
 20
415.54409921698442
 30
0.0
 11
-394.10204283475218
 21
405.99999999999528
 31
0.0
  0
LINE
  5
4B6
  8
DATA
  6
CONTINUOUS
 62
     7
 10
-387.7567243020369
 20
405.99999999999528
 30
0.0
 11
-387.44906718661531
 21
415.27420639944478
 31
0.0
  0
LINE
  5
4B7
  8
DATA
  6
CONTINUOUS
 62
     7
 10
-384.82895833736978
 20
415.15909962123629
 30
0.0
 11
-384.52511970975229
 21
405.99999999999528
 31
0.0
  0
LINE
  5
4B8
  8
DATA
  6
CONTINUOUS
 62
     7
 10
-378.17980117703678
 20
405.99999999999528
 30
0.0
 11
-377.88737323113799
 21
414.81512888193993
 31
0.0
  0
LINE
  5
4B9
  8
DATA
  6
CONTINUOUS
 62
     7
 10
-375.23573509001119
 20
414.6677386176616
 30
0.0
 11
-374.94819658475228
 21
405.99999999999528
 31
0.0
  0
LINE
  5
4BA
  8
DATA
  6
CONTINUOUS
 62
     7
 10
-368.60287805203677
 20
405.99999999999528
 30
0.0
 11
-368.3296041132802
 21
414.23773863842632
 31
0.0
  0
LINE
  5
4BB
  8
DATA
  6
CONTINUOUS
 62
     7
 10
-365.37127345975227
 20
405.99999999999528
 30
0.0
 11
-365.63833310930841
 21
414.05041123330119
 31
0.0
  0
LINE
  5
4BC
  8
DATA
  6
CONTINUOUS
 62
     7
 10
-359.02595492703682
 20
405.99999999999528
 30
0.0
 11
-358.77665615643127
 21
413.51501631867512
 31
0.0
  0
LINE
  5
4BD
  8
DATA
  6
CONTINUOUS
 62
     7
 10
-355.79435033475232
 20
405.99999999999528
 30
0.0
 11
-356.03568311264081
 21
413.27488460186947
 31
0.0
  0
LINE
  5
4BE
  8
DATA
  6
CONTINUOUS
 62
     7
 10
-349.44903180203681
 20
405.99999999999528
 30
0.0
 11
-349.23009609924537
 21
412.59973315008028
 31
0.0
  0
LINE
  5
4BF
  8
DATA
  6
CONTINUOUS
 62
     7
 10
-350.36153721089448
 20
405.99999999999528
 30
0.0
 11
-350.36153721089448
 21
411.49587694810799
 31
0.0
  0
LINE
  5
4C0
  8
DATA
  6
CONTINUOUS
 62
     7
 10
-346.21742720975232
 20
405.99999999999528
 30
0.0
 11
-346.42583634172172
 21
412.28241385393341
 31
0.0
  0
LINE
  5
4C1
  8
DATA
  6
CONTINUOUS
 62
     7
 10
-348.47169104500739
 20
405.99999999999528
 30
0.0
 11
-348.47169104500739
 21
412.42292310660798
 31
0.0
  0
LINE
  5
4C2
  8
DATA
  6
CONTINUOUS
 62
     7
 10
-348.47169104500739
 20
412.42292310660798
 30
0.0
 11
-347.88740303000162
 21
412.44779914377767
 31
0.0
  0
ARC
  5
4C3
  8
DATA
  6
CONTINUOUS
 62
     7
 10
-330.86777555010542
 20
399.20313145267409
 30
0.0
 40
10.44770046282453
 50
40.583927300051009
 51
86.197131559347042
  0
ARC
  5
4C4
  8
DATA
  6
CONTINUOUS
 62
     7
 10
-433.99999916795082
 20
144.7697650702024
 30
0.0
 40
45.691710160912812
 50
258.47718508242701
 51
281.52281491757287
  0
LINE
  5
4C5
  8
DATA
  6
CONTINUOUS
 62
     7
 10
-587.29455955505568
 20
137.2285129796245
 30
0.0
 11
-587.29455955505568
 21
137.5415386499958
 31
0.0
  0
ARC
  5
4C6
  8
DATA
  6
CONTINUOUS
 62
     7
 10
-534.08477892299527
 20
153.8082408403863
 30
0.0
 40
55.733007552517059
 50
197.3066024993048
 51
209.6015877908662
  0
ARC
  5
4C7
  8
DATA
  6
CONTINUOUS
 62
     7
 10
-525.77751567359371
 20
156.83794032798991
 30
0.0
 40
64.469329479032979
 50
208.295719568084
 51
219.3336713653616
  0
ARC
  5
4C8
  8
DATA
  6
CONTINUOUS
 62
     7
 10
-539.32786319382035
 20
142.0893906572868
 30
0.0
 40
44.729326241787263
 50
215.7205031703387
 51
228.7433929723893
  0
ARC
  5
4C9
  8
DATA
  6
CONTINUOUS
 62
     7
 10
-503.42682556956368
 20
188.65666105816149
 30
0.0
 40
103.478071727562
 50
230.80297517975501
 51
234.63286216141961
  0
ARC
  5
4CA
  8
DATA
  6
CONTINUOUS
 62
     7
 10
-499.40772168885093
 20
192.3073731561305
 30
0.0
 40
108.7876239355374
 50
234.01962294675141
 51
236.16433432406009
  0
ARC
  5
4CB
  8
DATA
  6
CONTINUOUS
 62
     7
 10
-565.46404289876455
 20
109.79781938832539
 30
0.0
 40
9.5776245371087931
 50
299.12399226996968
 51
304.91592704456701
  0
ARC
  5
4CC
  8
DATA
  6
CONTINUOUS
 62
     7
 10
-566.62771362472006
 20
111.8144385401886
 30
0.0
 40
11.90569107298662
 50
295.22595580810793
 51
299.29269400714168
  0
ARC
  5
4CD
  8
DATA
  6
CONTINUOUS
 62
     7
 10
-562.98186888699638
 20
103.91196498096841
 30
0.0
 40
3.2037850463503799
 50
276.77604816939862
 51
296.47421857340669
  0
ARC
  5
4CE
  8
DATA
  6
CONTINUOUS
 62
     7
 10
-562.79915046836197
 20
103.6503653397248
 30
0.0
 40
2.9263305303776681
 50
257.9513306691494
 51
273.8265534219812
  0
ARC
  5
4CF
  8
DATA
  6
CONTINUOUS
 62
     7
 10
-562.5662657715543
 20
107.2753317868966
 30
0.0
 40
6.5414733875284048
 50
257.87957066906881
 51
262.5892131864785
  0
ARC
  5
4D0
  8
DATA
  6
CONTINUOUS
 62
     7
 10
-563.72043260780742
 20
102.2110400636454
 30
0.0
 40
1.34930702396584
 50
251.47138159948
 51
260.64514445975811
  0
ARC
  5
4D1
  8
DATA
  6
CONTINUOUS
 62
     7
 10
-648.18890242403802
 20
84.991603987835802
 30
0.0
 40
89.821147728890566
 50
10.716287676827569
 51
10.879123997762621
  0
ARC
  5
4D2
  8
DATA
  6
CONTINUOUS
 62
     7
 10
-601.89475031200914
 20
93.761545483986822
 30
0.0
 40
42.703632606302321
 50
10.40848893664961
 51
10.704502200242031
  0
ARC
  5
4D3
  8
DATA
  6
CONTINUOUS
 62
     7
 10
-589.24457878982321
 20
96.080210054552524
 30
0.0
 40
29.842722446678039
 50
9.8913325386659672
 51
10.41795666065018
  0
ARC
  5
4D4
  8
DATA
  6
CONTINUOUS
 62
     7
 10
-543.92922109217761
 20
103.8007802453657
 30
0.0
 40
16.12626483780906
 50
189.257228035092
 51
190.6092723495054
  0
ARC
  5
4D5
  8
DATA
  6
CONTINUOUS
 62
     7
 10
-555.07657789702375
 20
101.7140890610118
 30
0.0
 40
4.7852843720588654
 50
190.62512692067531
 51
195.3972312464893
  0
ARC
  5
4D6
  8
DATA
  6
CONTINUOUS
 62
     7
 10
-558.98155731866723
 20
100.6659050904322
 30
0.0
 40
0.7426226771394747
 50
197.42265259287359
 51
216.03624221125921
  0
ARC
  5
4D7
  8
DATA
  6
CONTINUOUS
 62
     7
 10
-558.70795403202521
 20
100.8619370579916
 30
0.0
 40
1.079198367010302
 50
215.90671681165799
 51
226.17449013433159
  0
ARC
  5
4D8
  8
DATA
  6
CONTINUOUS
 62
     7
 10
-558.37271300915609
 20
101.21129026735591
 30
0.0
 40
1.563382429394244
 50
226.17648293211289
 51
230.7858345219849
  0
ARC
  5
4D9
  8
DATA
  6
CONTINUOUS
 62
     7
 10
-309.56461863540551
 20
101.14592833506811
 30
0.0
 40
1.4730308478752869
 50
309.12066584601848
 51
312.23400080857448
  0
ARC
  5
4DA
  8
DATA
  6
CONTINUOUS
 62
     7
 10
-309.44570060624329
 20
101.0144890472654
 30
0.0
 40
1.295780512781272
 50
312.24729419159542
 51
315.3272616223116
  0
ARC
  5
4DB
  8
DATA
  6
CONTINUOUS
 62
     7
 10
-309.2749033547434
 20
100.8486473972205
 30
0.0
 40
1.057726904698258
 50
315.21109894536852
 51
323.24919201898291
  0
ARC
  5
4DC
  8
DATA
  6
CONTINUOUS
 62
     7
 10
-309.06256363700078
 20
100.69202644587131
 30
0.0
 40
0.7938802801686509
 50
323.13670040012983
 51
335.23892417122761
  0
ARC
  5
4DD
  8
DATA
  6
CONTINUOUS
 62
     7
 10
-309.17914097573771
 20
100.7264509877923
 30
0.0
 40
0.9143267454301534
 50
336.33982303421419
 51
348.26619539667757
  0
ARC
  5
4DE
  8
DATA
  6
CONTINUOUS
 62
     7
 10
-314.91689967680128
 20
102.169864870429
 30
0.0
 40
6.830168956420998
 50
346.19885868743489
 51
348.45164455187478
  0
ARC
  5
4DF
  8
DATA
  6
CONTINUOUS
 62
     7
 10
-320.50927932107788
 20
103.116772599751
 30
0.0
 40
12.50037503854262
 50
349.3309236354998
 51
350.7045871226909
  0
ARC
  5
4E0
  8
DATA
  6
CONTINUOUS
 62
     7
 10
-285.71570303885238
 20
97.306937720771103
 30
0.0
 40
22.775030057790961
 50
169.88660619663099
 51
170.4190054722383
  0
ARC
  5
4E1
  8
DATA
  6
CONTINUOUS
 62
     7
 10
-274.50584297551052
 20
95.309204738209203
 30
0.0
 40
34.161508781627077
 50
169.50590415255431
 51
169.88949728579539
  0
ARC
  5
4E2
  8
DATA
  6
CONTINUOUS
 62
     7
 10
-263.20703147527092
 20
93.218233211465133
 30
0.0
 40
45.652170230577241
 50
169.2329881745973
 51
169.5082922110717
  0
ARC
  5
4E3
  8
DATA
  6
CONTINUOUS
 62
     7
 10
-264.434887320494
 20
93.467510568636584
 30
0.0
 40
44.399364596851811
 50
168.9995506094279
 51
169.25299815706569
  0
ARC
  5
4E4
  8
DATA
  6
CONTINUOUS
 62
     7
 10
-309.51034520268331
 20
127.2018346384819
 30
0.0
 40
27.21278708424407
 50
271.84290898758098
 51
275.26249412006251
  0
ARC
  5
4E5
  8
DATA
  6
CONTINUOUS
 62
     7
 10
-309.05805362525092
 20
100.4036261030524
 30
0.0
 40
1.8547665982950281
 50
53.916546165939209
 51
55.90913721746815
  0
ARC
  5
4E6
  8
DATA
  6
CONTINUOUS
 62
     7
 10
-302.50665109937279
 20
109.500194416038
 30
0.0
 40
9.3554615898119362
 50
234.3021399286213
 51
234.78040437997899
  0
ARC
  5
4E7
  8
DATA
  6
CONTINUOUS
 62
     7
 10
-302.84539713875819
 20
109.01500492639251
 30
0.0
 40
8.7637288672535192
 50
234.76028955792091
 51
237.2730030199296
  0
ARC
  5
4E8
  8
DATA
  6
CONTINUOUS
 62
     7
 10
-303.50816422094761
 20
107.97072924873299
 30
0.0
 40
7.5269125640642862
 50
237.21958909780409
 51
242.20139707161141
  0
ARC
  5
4E9
  8
DATA
  6
CONTINUOUS
 62
     7
 10
-304.1998589042206
 20
106.63738950816609
 30
0.0
 40
6.0248764182347907
 50
242.1067238250746
 51
250.59950051483619
  0
ARC
  5
4EA
  8
DATA
  6
CONTINUOUS
 62
     7
 10
-304.64813302607553
 20
105.2847811312447
 30
0.0
 40
4.6002427194802147
 50
250.26976591689481
 51
259.20099868298882
  0
ARC
  5
4EB
  8
DATA
  6
CONTINUOUS
 62
     7
 10
-305.07635388894732
 20
102.9145719640611
 30
0.0
 40
2.191900972681712
 50
258.58787783989618
 51
276.07527225405943
  0
ARC
  5
4EC
  8
DATA
  6
CONTINUOUS
 62
     7
 10
-306.44232817987847
 20
111.6547264735095
 30
0.0
 40
11.03604506773004
 50
278.32535485847541
 51
281.73913408262308
  0
ARC
  5
4ED
  8
DATA
  6
CONTINUOUS
 62
     7
 10
-304.84370851893038
 20
104.3942745710516
 30
0.0
 40
3.6032780898377408
 50
280.33970558072241
 51
285.83089139937482
  0
LINE
  5
4EE
  8
DATA
  6
CONTINUOUS
 62
     7
 10
-268.67203804616048
 20
137.5415386499958
 30
0.0
 11
-268.37460998869818
 21
137.5415386499958
 31
0.0
  0
LINE
  5
4EF
  8
DATA
  6
CONTINUOUS
 62
     7
 10
-280.7052130182912
 20
137.22850114254749
 30
0.0
 11
-280.70521301822851
 21
137.5415386499958
 31
0.0
  0
ARC
  5
4F0
  8
DATA
  6
CONTINUOUS
 62
     7
 10
-376.57082406947723
 20
204.07298877385381
 30
0.0
 40
123.00669727719669
 50
303.86969903179062
 51
306.7336774335318
  0
ARC
  5
4F1
  8
DATA
  6
CONTINUOUS
 62
     7
 10
-329.6463611158328
 20
143.34665049812531
 30
0.0
 40
46.291661817833671
 50
305.14152310014799
 51
314.67782821220402
  0
ARC
  5
4F2
  8
DATA
  6
CONTINUOUS
 62
     7
 10
-372.47210000783178
 20
179.50491320512731
 30
0.0
 40
102.238132459471
 50
317.49705962211522
 51
324.90408391628989
  0
ARC
  5
4F3
  8
DATA
  6
CONTINUOUS
 62
     7
 10
-342.91298193302521
 20
157.25742767991539
 30
0.0
 40
65.273187999256407
 50
325.96429844376479
 51
336.82629753586508
  0
ARC
  5
4F4
  8
DATA
  6
CONTINUOUS
 62
     7
 10
-353.6427955137072
 20
162.34898022009361
 30
0.0
 40
77.142267333551018
 50
336.48586603754711
 51
340.99574752722521
  0
ARC
  5
4F5
  8
DATA
  6
CONTINUOUS
 62
     7
 10
246.15338702480639
 20
-23536.757552689589
 30
0.0
 40
23652.443354259442
 50
91.922559636330675
 51
91.953164206538702
  0
ARC
  5
4F6
  8
DATA
  6
CONTINUOUS
 62
     7
 10
-331.04505847345462
 20
-6300.9869811221261
 30
0.0
 40
6407.0109627140746
 50
91.700120997960795
 51
91.934758799470785
  0
ARC
  5
4F7
  8
DATA
  6
CONTINUOUS
 62
     7
 10
-418.55119955634473
 20
-3361.1028205698381
 30
0.0
 40
3465.8247920957128
 50
91.128675169885923
 51
91.696052662736491
  0
ARC
  5
4F8
  8
DATA
  6
CONTINUOUS
 62
     7
 10
-432.71488794011361
 20
-2880.9425571879242
 30
0.0
 40
2985.4824000527501
 50
89.857407002722411
 51
91.038420975278882
  0
ARC
  5
4F9
  8
DATA
  6
CONTINUOUS
 62
     7
 10
-431.1350598664099
 20
-2430.1285997409259
 30
0.0
 40
2534.665948326543
 50
88.742282783094609
 51
89.867757224127857
  0
ARC
  5
4FA
  8
DATA
  6
CONTINUOUS
 62
     7
 10
-451.57408503491922
 20
-3482.1655214768671
 30
0.0
 40
3586.8990248891241
 50
88.244984139586862
 51
88.784734760781561
  0
ARC
  5
4FB
  8
DATA
  6
CONTINUOUS
 62
     7
 10
-550.92970316460162
 20
-6690.104759090982
 30
0.0
 40
6796.3764114975156
 50
88.031679614206709
 51
88.236025932956977
  0
LINE
  5
4FC
  8
DATA
  6
CONTINUOUS
 62
     7
 10
-308.02778655119653
 20
101.891447490646
 30
0.0
 11
-317.49514268144372
 21
102.26159091781869
 31
0.0
  0
ARC
  5
4FD
  8
DATA
  6
CONTINUOUS
 62
     7
 10
-433.99999917178161
 20
-638.10492330084787
 30
0.0
 40
45.969231000000001
 50
78.463040967199987
 51
90.0
  0
ARC
  5
4FE
  8
DATA
  6
CONTINUOUS
 62
     7
 10
-433.99999917178161
 20
-638.10492330084787
 30
0.0
 40
45.969230999999922
 50
90.0
 51
101.5369590328
  0
LINE
  5
4FF
  8
DATA
  6
CONTINUOUS
 62
     7
 10
-443.19384537178172
 20
-593.06445937114131
 30
0.0
 11
-443.19384537178172
 21
-593.99999999996066
 31
0.0
  0
LINE
  5
500
  8
DATA
  6
CONTINUOUS
 62
     7
 10
-424.80615297178173
 20
-593.99999999996066
 30
0.0
 11
-424.80615297178173
 21
-593.06445937114131
 31
0.0
  0
ARC
  5
501
  8
DATA
  6
CONTINUOUS
 62
     7
 10
-327.7123281066398
 20
-654.15125024010945
 30
0.0
 40
63.846154164112818
 50
21.073564560900039
 51
68.072943120099964
  0
ARC
  5
502
  8
DATA
  6
CONTINUOUS
 62
     7
 10
-540.28767022926195
 20
-654.15125024010945
 30
0.0
 40
63.84615416411286
 50
111.92705687989999
 51
158.92640958659999
  0
ARC
  5
503
  8
DATA
  6
CONTINUOUS
 62
     7
 10
-308.63888231747433
 20
-606.76923083584802
 30
0.0
 40
12.769230835887191
 50
68.072943120099836
 51
77.821609016299846
  0
ARC
  5
504
  8
DATA
  6
CONTINUOUS
 62
     7
 10
-308.63888231747433
 20
-606.76923083584802
 30
0.0
 40
12.76923083588726
 50
77.821609016299846
 51
80.251334102900117
  0
ARC
  5
505
  8
DATA
  6
CONTINUOUS
 62
     7
 10
-308.63888231747433
 20
-606.76923083584802
 30
0.0
 40
12.76923083588718
 50
80.251645856000067
 51
82.691210273400301
  0
ARC
  5
506
  8
DATA
  6
CONTINUOUS
 62
     7
 10
-559.36111601842765
 20
-606.76923083584802
 30
0.0
 40
12.769230835887299
 50
102.1779386640997
 51
111.92705687990021
  0
ARC
  5
507
  8
DATA
  6
CONTINUOUS
 62
     7
 10
-559.36111601842765
 20
-606.76923083584802
 30
0.0
 40
12.76923083588721
 50
99.749332989099443
 51
102.1779386640998
  0
ARC
  5
508
  8
DATA
  6
CONTINUOUS
 62
     7
 10
-559.36111601842765
 20
-606.76923083584802
 30
0.0
 40
12.769230835887241
 50
90.0
 51
99.749332989099443
  0
LINE
  5
509
  8
DATA
  6
CONTINUOUS
 62
     7
 10
-598.3399999967819
 20
-631.54153864996078
 30
0.0
 11
-598.3399999967819
 21
-632.30769249996069
 31
0.0
  0
LINE
  5
50A
  8
DATA
  6
CONTINUOUS
 62
     7
 10
-269.65999834678178
 20
-631.54153864996078
 30
0.0
 11
-269.65999834678178
 21
-632.30769249996069
 31
0.0
  0
LINE
  5
50B
  8
DATA
  6
CONTINUOUS
 62
     7
 10
-598.3399999967819
 20
-631.54153864996078
 30
0.0
 11
-598.3399999967819
 21
-632.30769249996069
 31
0.0
  0
ARC
  5
50C
  8
DATA
  6
CONTINUOUS
 62
     7
 10
-268.3745378859594
 20
-631.28615403584786
 30
0.0
 40
0.2553846141129522
 50
269.99824882760402
 51
21.074213903175721
  0
LINE
  5
50D
  8
DATA
  6
CONTINUOUS
 62
     7
 10
-268.13623455700929
 20
-631.19432362452528
 30
0.0
 11
-268.13624823285539
 21
-631.19428814394064
 31
0.0
  0
LINE
  5
50E
  8
DATA
  6
CONTINUOUS
 62
     7
 10
-268.3745456930672
 20
-631.54153864996078
 30
0.0
 11
-268.37460998869818
 21
-631.54153864996078
 31
0.0
  0
LINE
  5
50F
  8
DATA
  6
CONTINUOUS
 62
     7
 10
-280.70572792730911
 20
-631.54153864996078
 30
0.0
 11
-269.65999834678178
 21
-631.54153864996078
 31
0.0
  0
LINE
  5
510
  8
DATA
  6
CONTINUOUS
 62
     7
 10
-269.65999834678178
 20
-631.54153864996078
 30
0.0
 11
-268.67203804616048
 21
-631.54153864996078
 31
0.0
  0
ARC
  5
511
  8
DATA
  6
CONTINUOUS
 62
     7
 10
-599.62510146089483
 20
-631.28615403584786
 30
0.0
 40
0.2553846141128436
 50
158.94659090131739
 51
269.93461416657988
  0
LINE
  5
512
  8
DATA
  6
CONTINUOUS
 62
     7
 10
-598.3399999967819
 20
-631.54153864996078
 30
0.0
 11
-587.29404513637633
 21
-631.54153864996078
 31
0.0
  0
LINE
  5
513
  8
DATA
  6
CONTINUOUS
 62
     7
 10
-599.86376376356975
 20
-631.19432357855612
 30
0.0
 11
-599.86375075427725
 21
-631.19428982181751
 31
0.0
  0
LINE
  5
514
  8
DATA
  6
CONTINUOUS
 62
     7
 10
-599.62545268114252
 20
-631.54153864996078
 30
0.0
 11
-599.62539290581913
 21
-631.54153864996078
 31
0.0
  0
LINE
  5
515
  8
DATA
  6
CONTINUOUS
 62
     7
 10
-587.23076917178196
 20
-631.54153864996078
 30
0.0
 11
-587.23076917178196
 21
-632.30769249996069
 31
0.0
  0
LINE
  5
516
  8
DATA
  6
CONTINUOUS
 62
     7
 10
-280.76922917178172
 20
-631.54153864996078
 30
0.0
 11
-280.76922917178172
 21
-632.30769249996069
 31
0.0
  0
LINE
  5
517
  8
DATA
  6
CONTINUOUS
 62
     7
 10
-333.88922943589449
 20
-908.56049234807278
 30
0.0
 11
-333.88922943589449
 21
-907.66664619484709
 31
0.0
  0
LINE
  5
518
  8
DATA
  6
CONTINUOUS
 62
     7
 10
-327.37692171089452
 20
-903.05038408645339
 30
0.0
 11
-327.37692171089452
 21
-905.49587694807281
 31
0.0
  0
LINE
  5
519
  8
DATA
  6
CONTINUOUS
 62
     7
 10
-548.28461512500746
 20
-901.6651076980728
 30
0.0
 11
-543.6211176378423
 21
-901.6651076980728
 31
0.0
  0
LINE
  5
51A
  8
DATA
  6
CONTINUOUS
 62
     7
 10
-548.28461512500746
 20
-899.99999999996021
 30
0.0
 11
-548.28461512500746
 21
-901.6651076980728
 31
0.0
  0
LINE
  5
51B
  8
DATA
  6
CONTINUOUS
 62
     7
 10
-333.88922943589449
 20
-908.56049234807278
 30
0.0
 11
-333.88922943589449
 21
-907.66664619484709
 31
0.0
  0
LINE
  5
51C
  8
DATA
  6
CONTINUOUS
 62
     7
 10
-341.4230756250073
 20
-907.66664619484709
 30
0.0
 11
-341.4230756250073
 21
-905.49587694807281
 31
0.0
  0
LINE
  5
51D
  8
DATA
  6
CONTINUOUS
 62
     7
 10
-343.8492294858944
 20
-908.56049234807278
 30
0.0
 11
-343.8492294858944
 21
-907.66664619484709
 31
0.0
  0
LINE
  5
51E
  8
DATA
  6
CONTINUOUS
 62
     7
 10
-336.3153832967817
 20
-907.66664619484709
 30
0.0
 11
-336.3153832967817
 21
-905.49587694807281
 31
0.0
  0
LINE
  5
51F
  8
DATA
  6
CONTINUOUS
 62
     7
 10
-548.28461512500746
 20
-899.99999999996021
 30
0.0
 11
-548.28461512500746
 21
-901.6651076980728
 31
0.0
  0
LINE
  5
520
  8
DATA
  6
CONTINUOUS
 62
     7
 10
-518.40461497500735
 20
-899.99999999996021
 30
0.0
 11
-518.40461497500735
 21
-901.6651076980728
 31
0.0
  0
LINE
  5
521
  8
DATA
  6
CONTINUOUS
 62
     7
 10
-518.65728076959897
 20
-901.6651076980728
 30
0.0
 11
-518.40461497500735
 21
-901.6651076980728
 31
0.0
  0
LINE
  5
522
  8
DATA
  6
CONTINUOUS
 62
     7
 10
-499.18692257339461
 20
-905.36818464484725
 30
0.0
 11
-494.0792302375072
 21
-905.36818464484725
 31
0.0
  0
LINE
  5
523
  8
DATA
  6
CONTINUOUS
 62
     7
 10
-524.78923039678182
 20
-899.99999999996021
 30
0.0
 11
-524.78923039678182
 21
-901.6651076980728
 31
0.0
  0
LINE
  5
524
  8
DATA
  6
CONTINUOUS
 62
     7
 10
-531.24658293276741
 20
-904.94287962575834
 30
0.0
 11
-528.35795045952761
 21
-905.39548736473819
 31
0.0
  0
POLYLINE
  5
525
  8
DATA
  6
CONTINUOUS
 62
     7
 66
     1
 10
0.0
 20
0.0
 30
0.0
  0
VERTEX
  5
B1C
  8
DATA
  6
CONTINUOUS
 62
     7
 10
-442.223355462879
 20
-907.13514098968676
 30
0.0
  0
VERTEX
  5
B1D
  8
DATA
  6
CONTINUOUS
 62
     7
 10
-438.85450749427469
 20
-907.13514098968676
 30
0.0
  0
VERTEX
  5
B1E
  8
DATA
  6
CONTINUOUS
 62
     7
 10
-435.40464291624841
 20
-907.13514098968676
 30
0.0
  0
SEQEND
  5
B1F
  8
DATA
  6
CONTINUOUS
 62
     7
  0
POLYLINE
  5
52B
  8
DATA
  6
CONTINUOUS
 62
     7
 66
     1
 10
0.0
 20
0.0
 30
0.0
  0
VERTEX
  5
B20
  8
DATA
  6
CONTINUOUS
 62
     7
 10
-432.64643233787888
 20
-907.13514098968676
 30
0.0
  0
VERTEX
  5
B21
  8
DATA
  6
CONTINUOUS
 62
     7
 10
-429.1965677675143
 20
-907.13514098968676
 30
0.0
  0
VERTEX
  5
B22
  8
DATA
  6
CONTINUOUS
 62
     7
 10
-425.8277197912484
 20
-907.13514098968676
 30
0.0
  0
SEQEND
  5
B23
  8
DATA
  6
CONTINUOUS
 62
     7
  0
POLYLINE
  5
531
  8
DATA
  6
CONTINUOUS
 62
     7
 66
     1
 10
0.0
 20
0.0
 30
0.0
  0
VERTEX
  5
B24
  8
DATA
  6
CONTINUOUS
 62
     7
 10
-423.06950921287881
 20
-907.13514098968676
 30
0.0
  0
VERTEX
  5
B25
  8
DATA
  6
CONTINUOUS
 62
     7
 10
-419.49288356864707
 20
-907.13514098968676
 30
0.0
  0
VERTEX
  5
B26
  8
DATA
  6
CONTINUOUS
 62
     7
 10
-416.25079666624839
 20
-907.13514098968676
 30
0.0
  0
SEQEND
  5
B27
  8
DATA
  6
CONTINUOUS
 62
     7
  0
LINE
  5
537
  8
DATA
  6
CONTINUOUS
 62
     7
 10
-520.37255320316365
 20
-906.42732581733355
 30
0.0
 11
-520.36984386862684
 21
-906.42763356601165
 31
0.0
  0
POLYLINE
  5
538
  8
DATA
  6
CONTINUOUS
 62
     7
 66
     1
 10
0.0
 20
0.0
 30
0.0
 70
   128
  0
VERTEX
  5
B28
  8
DATA
  6
CONTINUOUS
 62
     7
 10
-444.88100559028197
 20
-910.166497566781
 30
0.0
  0
VERTEX
  5
B29
  8
DATA
  6
CONTINUOUS
 62
     7
 10
-444.86040932643431
 20
-910.16668020375539
 30
0.0
 42
0.0004551656295707
  0
VERTEX
  5
B2A
  8
DATA
  6
CONTINUOUS
 62
     7
 10
-442.34522711449961
 20
-910.18669372269301
 30
0.0
  0
VERTEX
  5
B2B
  8
DATA
  6
CONTINUOUS
 62
     7
 10
-442.32459075747943
 20
-910.18684026162202
 30
0.0
  0
SEQEND
  5
B2C
  8
DATA
  6
CONTINUOUS
 62
     7
  0
POLYLINE
  5
53E
  8
DATA
  6
CONTINUOUS
 62
     7
 66
     1
 10
0.0
 20
0.0
 30
0.0
 70
   128
  0
VERTEX
  5
B2D
  8
DATA
  6
CONTINUOUS
 62
     7
 10
-454.46209037105677
 20
-910.0410459571051
 30
0.0
  0
VERTEX
  5
B2E
  8
DATA
  6
CONTINUOUS
 62
     7
 10
-454.44144194505679
 20
-910.04139783157348
 30
0.0
 42
0.0004722476500404
  0
VERTEX
  5
B2F
  8
DATA
  6
CONTINUOUS
 62
     7
 10
-451.91875380527563
 20
-910.08200420592971
 30
0.0
  0
VERTEX
  5
B30
  8
DATA
  6
CONTINUOUS
 62
     7
 10
-451.89804656129292
 20
-910.08231912469716
 30
0.0
  0
SEQEND
  5
B31
  8
DATA
  6
CONTINUOUS
 62
     7
  0
POLYLINE
  5
544
  8
DATA
  6
CONTINUOUS
 62
     7
 66
     1
 10
0.0
 20
0.0
 30
0.0
 70
   128
  0
VERTEX
  5
B32
  8
DATA
  6
CONTINUOUS
 62
     7
 10
-464.04583766670652
 20
-909.83533392419542
 30
0.0
  0
VERTEX
  5
B33
  8
DATA
  6
CONTINUOUS
 62
     7
 10
-464.02514553661979
 20
-909.83586421944835
 30
0.0
 42
0.0005030085383262
  0
VERTEX
  5
B34
  8
DATA
  6
CONTINUOUS
 62
     7
 10
-461.48975297219158
 20
-909.89828867620281
 30
0.0
  0
VERTEX
  5
B35
  8
DATA
  6
CONTINUOUS
 62
     7
 10
-461.46888115358553
 20
-909.89878281737595
 30
0.0
  0
SEQEND
  5
B36
  8
DATA
  6
CONTINUOUS
 62
     7
  0
POLYLINE
  5
54A
  8
DATA
  6
CONTINUOUS
 62
     7
 66
     1
 10
0.0
 20
0.0
 30
0.0
 70
   128
  0
VERTEX
  5
B37
  8
DATA
  6
CONTINUOUS
 62
     7
 10
-473.63242204538591
 20
-909.54409921694912
 30
0.0
  0
VERTEX
  5
B38
  8
DATA
  6
CONTINUOUS
 62
     7
 10
-473.61162644476411
 20
-909.54482475601469
 30
0.0
 42
0.0005518053397933
  0
VERTEX
  5
B39
  8
DATA
  6
CONTINUOUS
 62
     7
 10
-471.05801414995688
 20
-909.63109638533786
 30
0.0
  0
VERTEX
  5
B3A
  8
DATA
  6
CONTINUOUS
 62
     7
 10
-471.03694709571022
 20
-909.63178624526643
 30
0.0
  0
SEQEND
  5
B3B
  8
DATA
  6
CONTINUOUS
 62
     7
  0
LINE
  5
550
  8
DATA
  6
CONTINUOUS
 62
     7
 10
-483.22212135278841
 20
-909.15919716790904
 30
0.0
 11
-480.60201187529668
 21
-909.27429598577942
 31
0.0
  0
LINE
  5
551
  8
DATA
  6
CONTINUOUS
 62
     7
 10
-492.81534181900872
 20
-908.66776741735021
 30
0.0
 11
-490.16370475815881
 21
-908.81517959362805
 31
0.0
  0
LINE
  5
552
  8
DATA
  6
CONTINUOUS
 62
     7
 10
-502.41273616881932
 20
-908.05032792169663
 30
0.0
 11
-499.72146734838572
 21
-908.23768238737534
 31
0.0
  0
LINE
  5
553
  8
DATA
  6
CONTINUOUS
 62
     7
 10
-512.01539181970224
 20
-907.27488102389611
 30
0.0
 11
-509.27441569597312
 21
-907.5149760955627
 31
0.0
  0
LINE
  5
554
  8
DATA
  6
CONTINUOUS
 62
     7
 10
-330.2951855520368
 20
-899.99999999996021
 30
0.0
 11
-330.17483720887873
 21
-903.62785480484888
 31
0.0
  0
LINE
  5
555
  8
DATA
  6
CONTINUOUS
 62
     7
 10
-537.87623804524878
 20
-903.62785480484888
 30
0.0
 11
-537.75588970975218
 21
-899.99999999996021
 31
0.0
  0
LINE
  5
556
  8
DATA
  6
CONTINUOUS
 62
     7
 10
-339.87210867703669
 20
-899.99999999996021
 30
0.0
 11
-339.69312109407667
 21
-905.39551240264564
 31
0.0
  0
LINE
  5
557
  8
DATA
  6
CONTINUOUS
 62
     7
 10
-336.80447895963698
 20
-904.94296000295844
 30
0.0
 11
-336.64050408475231
 21
-899.99999999996021
 31
0.0
  0
LINE
  5
558
  8
DATA
  6
CONTINUOUS
 62
     7
 10
-528.35795416771236
 20
-905.39551240264564
 30
0.0
 11
-528.17896658475217
 21
-899.99999999996021
 31
0.0
  0
LINE
  5
559
  8
DATA
  6
CONTINUOUS
 62
     7
 10
-531.41057117703667
 20
-899.99999999996021
 30
0.0
 11
-531.24659630215206
 21
-904.94296000295844
 31
0.0
  0
LINE
  5
55A
  8
DATA
  6
CONTINUOUS
 62
     7
 10
-518.82097915488202
 20
-906.59973315004515
 30
0.0
 11
-518.60204345975217
 21
-899.99999999996021
 31
0.0
  0
LINE
  5
55B
  8
DATA
  6
CONTINUOUS
 62
     7
 10
-521.83364805203678
 20
-899.99999999996021
 30
0.0
 11
-521.62523892006732
 21
-906.28241385389833
 31
0.0
  0
LINE
  5
55C
  8
DATA
  6
CONTINUOUS
 62
     7
 10
-267.99999833589447
 20
-887.69230916407321
 30
0.0
 11
-267.99999833589447
 21
-632.30769249996069
 31
0.0
  0
LINE
  5
55D
  8
DATA
  6
CONTINUOUS
 62
     7
 10
-600.0000000000075
 20
-632.30769249996069
 30
0.0
 11
-600.0000000000075
 21
-887.69230916407321
 31
0.0
  0
LINE
  5
55E
  8
DATA
  6
CONTINUOUS
 62
     7
 10
-267.99999833589447
 20
-887.69230916407321
 30
0.0
 11
-267.99999833589447
 21
-632.30769249996069
 31
0.0
  0
LINE
  5
55F
  8
DATA
  6
CONTINUOUS
 62
     7
 10
-587.23076917178196
 20
-632.30769249996069
 30
0.0
 11
-280.76922917178172
 21
-632.30769249996069
 31
0.0
  0
LINE
  5
560
  8
DATA
  6
CONTINUOUS
 62
     7
 10
-600.0000000000075
 20
-632.30769249996069
 30
0.0
 11
-587.23076917178196
 21
-632.30769249996069
 31
0.0
  0
LINE
  5
561
  8
DATA
  6
CONTINUOUS
 62
     7
 10
-280.76922917178172
 20
-632.30769249996069
 30
0.0
 11
-267.99999833589447
 21
-632.30769249996069
 31
0.0
  0
LINE
  5
562
  8
DATA
  6
CONTINUOUS
 62
     7
 10
-587.29404513637633
 20
-631.5415386422992
 30
0.0
 11
-280.70572792730911
 21
-631.54153858100688
 31
0.0
  0
LINE
  5
563
  8
DATA
  6
CONTINUOUS
 62
     7
 10
-559.36094364124995
 20
-593.99999999996078
 30
0.0
 11
-308.63520146058107
 21
-594.00312319244165
 31
0.0
  0
LINE
  5
564
  8
DATA
  6
CONTINUOUS
 62
     7
 10
-598.3399999967819
 20
-631.54153864996078
 30
0.0
 11
-599.62599999999986
 21
-631.54153864996078
 31
0.0
  0
ARC
  5
565
  8
DATA
  6
CONTINUOUS
 62
     7
 10
-587.90654934487338
 20
-887.93554667637488
 30
0.0
 40
12.095896545339439
 50
178.84775615803051
 51
265.86784844871488
  0
ARC
  5
566
  8
DATA
  6
CONTINUOUS
 62
     7
 10
-280.15833948374222
 20
-887.91219025406554
 30
0.0
 40
12.16032923736771
 50
276.26049113909301
 51
1.0360694034204121
  0
LINE
  5
567
  8
DATA
  6
CONTINUOUS
 62
     7
 10
-588.77814514481554
 20
-899.99999999996476
 30
0.0
 11
-278.75
 21
-899.99999999996476
 31
0.0
  0
LINE
  5
568
  8
DATA
  6
CONTINUOUS
 62
     7
 10
-537.81112701958625
 20
-901.6651076980728
 30
0.0
 11
-531.35533386451505
 21
-901.6651076980728
 31
0.0
  0
LINE
  5
569
  8
DATA
  6
CONTINUOUS
 62
     7
 10
-528.23420389459898
 20
-901.6651076980728
 30
0.0
 11
-521.77841074069966
 21
-901.6651076980728
 31
0.0
  0
ARC
  5
56A
  8
DATA
  6
CONTINUOUS
 62
     7
 10
-538.24947406126148
 20
-895.3314151660137
 30
0.0
 40
8.304830871516037
 50
214.2048168952027
 51
272.57585665103079
  0
LINE
  5
56B
  8
DATA
  6
CONTINUOUS
 62
     7
 10
-521.62523892006732
 20
-906.28241385389833
 30
0.0
 11
-518.82097915488202
 21
-906.59973315004515
 31
0.0
  0
LINE
  5
56C
  8
DATA
  6
CONTINUOUS
 62
     7
 10
-512.01539181970224
 20
-907.27488102389611
 30
0.0
 11
-512.01539181970224
 21
-899.99999999996476
 31
0.0
  0
LINE
  5
56D
  8
DATA
  6
CONTINUOUS
 62
     7
 10
-509.02512033475227
 20
-899.99999999996021
 30
0.0
 11
-509.27441569597312
 21
-907.5149760955627
 31
0.0
  0
LINE
  5
56E
  8
DATA
  6
CONTINUOUS
 62
     7
 10
-502.67980180203682
 20
-899.99999999996021
 30
0.0
 11
-502.41273616881932
 21
-908.05032792169663
 31
0.0
  0
LINE
  5
56F
  8
DATA
  6
CONTINUOUS
 62
     7
 10
-499.72146734838572
 20
-908.23768238737534
 30
0.0
 11
-499.44819720975232
 21
-899.99999999996021
 31
0.0
  0
LINE
  5
570
  8
DATA
  6
CONTINUOUS
 62
     7
 10
-499.18692257339461
 20
-899.99999999996021
 30
0.0
 11
-499.18692257339461
 21
-905.36818464484725
 31
0.0
  0
LINE
  5
571
  8
DATA
  6
CONTINUOUS
 62
     7
 10
-494.0792302375072
 20
-905.36818464484725
 30
0.0
 11
-494.0792302375072
 21
-899.99999999996021
 31
0.0
  0
LINE
  5
572
  8
DATA
  6
CONTINUOUS
 62
     7
 10
-493.10287867703681
 20
-899.99999999996021
 30
0.0
 11
-492.81534181900872
 21
-908.66776741735021
 31
0.0
  0
LINE
  5
573
  8
DATA
  6
CONTINUOUS
 62
     7
 10
-490.16370475815881
 20
-908.81517959362805
 30
0.0
 11
-489.87127408475232
 21
-899.99999999996021
 31
0.0
  0
LINE
  5
574
  8
DATA
  6
CONTINUOUS
 62
     7
 10
-480.31570035010571
 20
-900.64356923395997
 30
0.0
 11
-473.92768303671522
 21
-900.64356923395997
 31
0.0
  0
LINE
  5
575
  8
DATA
  6
CONTINUOUS
 62
     7
 10
-483.52595555203692
 20
-899.99999999996021
 30
0.0
 11
-483.22212135278841
 21
-909.15919716790904
 31
0.0
  0
LINE
  5
576
  8
DATA
  6
CONTINUOUS
 62
     7
 10
-480.29435095975242
 20
-899.99999999996021
 30
0.0
 11
-480.60201187529668
 21
-909.27429598577942
 31
0.0
  0
LINE
  5
577
  8
DATA
  6
CONTINUOUS
 62
     7
 10
-435.30248310379721
 20
-910.21470980511549
 30
0.0
 11
-432.74859215799188
 21
-910.21470980511549
 31
0.0
  0
LINE
  5
578
  8
DATA
  6
CONTINUOUS
 62
     7
 10
-425.72648450430961
 20
-910.18684026162202
 30
0.0
 11
-423.18841051322732
 21
-910.18684026162202
 31
0.0
  0
LINE
  5
579
  8
DATA
  6
CONTINUOUS
 62
     7
 10
-416.15302870049618
 20
-910.08231912469716
 30
0.0
 11
-413.5889848830704
 21
-910.0410459571051
 31
0.0
  0
LINE
  5
57A
  8
DATA
  6
CONTINUOUS
 62
     7
 10
-406.58219410054221
 20
-909.89878281737595
 30
0.0
 11
-404.00523758742088
 21
-909.83533392419542
 31
0.0
  0
LINE
  5
57B
  8
DATA
  6
CONTINUOUS
 62
     7
 10
-397.01412816607888
 20
-909.63178624526643
 30
0.0
 11
-394.4186532164033
 21
-909.54409921694912
 31
0.0
  0
LINE
  5
57C
  8
DATA
  6
CONTINUOUS
 62
     7
 10
-387.44906718661531
 20
-909.27420639940965
 30
0.0
 11
-384.82895833736978
 21
-909.15909962120145
 31
0.0
  0
LINE
  5
57D
  8
DATA
  6
CONTINUOUS
 62
     7
 10
-377.88737323113799
 20
-908.8151288819048
 30
0.0
 11
-375.23573509001119
 21
-908.66773861762636
 31
0.0
  0
LINE
  5
57E
  8
DATA
  6
CONTINUOUS
 62
     7
 10
-368.3296041132802
 20
-908.23773863839142
 30
0.0
 11
-365.63833310930841
 21
-908.05041123326589
 31
0.0
  0
LINE
  5
57F
  8
DATA
  6
CONTINUOUS
 62
     7
 10
-358.77665615643127
 20
-907.51501631864005
 30
0.0
 11
-356.03568311264081
 21
-907.2748846018344
 31
0.0
  0
LINE
  5
580
  8
DATA
  6
CONTINUOUS
 62
     7
 10
-349.23009609924537
 20
-906.59973315004515
 30
0.0
 11
-346.42583634172172
 21
-906.28241385389833
 31
0.0
  0
LINE
  5
581
  8
DATA
  6
CONTINUOUS
 62
     7
 10
-350.36153721089448
 20
-905.49587694807281
 30
0.0
 11
-349.2679182828021
 21
-905.45959787084917
 31
0.0
  0
LINE
  5
582
  8
DATA
  6
CONTINUOUS
 62
     7
 10
-341.4230756250073
 20
-905.49587694807281
 30
0.0
 11
-346.40422807130079
 21
-905.49587694807281
 31
0.0
  0
LINE
  5
583
  8
DATA
  6
CONTINUOUS
 62
     7
 10
-336.3153832967817
 20
-905.49587694807281
 30
0.0
 11
-327.37692171089452
 21
-905.49587694807281
 31
0.0
  0
LINE
  5
584
  8
DATA
  6
CONTINUOUS
 62
     7
 10
-343.8492294858944
 20
-907.66664619484709
 30
0.0
 11
-333.88922943589449
 21
-907.66664619484709
 31
0.0
  0
LINE
  5
585
  8
DATA
  6
CONTINUOUS
 62
     7
 10
-343.8492294858944
 20
-908.56049234807278
 30
0.0
 11
-333.88922943589449
 21
-908.56049234807278
 31
0.0
  0
LINE
  5
586
  8
DATA
  6
CONTINUOUS
 62
     7
 10
-336.80447895963698
 20
-904.94296000295844
 30
0.0
 11
-339.69312109407667
 21
-905.39551240264564
 31
0.0
  0
LINE
  5
587
  8
DATA
  6
CONTINUOUS
 62
     7
 10
-460.8409223808946
 20
-907.13514098968676
 30
0.0
 11
-460.8409223808946
 21
-899.99999999996476
 31
0.0
  0
LINE
  5
588
  8
DATA
  6
CONTINUOUS
 62
     7
 10
-460.8409223808946
 20
-907.13514098968676
 30
0.0
 11
-454.55848916835743
 21
-907.13514098968676
 31
0.0
  0
LINE
  5
589
  8
DATA
  6
CONTINUOUS
 62
     7
 10
-451.80027859324809
 20
-907.13514098968676
 30
0.0
 11
-444.98156604564298
 21
-907.13514098968676
 31
0.0
  0
LINE
  5
58A
  8
DATA
  6
CONTINUOUS
 62
     7
 10
-473.94903242703691
 20
-899.99999999996021
 30
0.0
 11
-473.6168253448846
 21
-909.54464337124955
 31
0.0
  0
LINE
  5
58B
  8
DATA
  6
CONTINUOUS
 62
     7
 10
-471.03694709571022
 20
-909.63178624526643
 30
0.0
 11
-470.7174278347523
 21
-899.99999999996021
 31
0.0
  0
LINE
  5
58C
  8
DATA
  6
CONTINUOUS
 62
     7
 10
-464.3721093020369
 20
-899.99999999996021
 30
0.0
 11
-464.02514553654839
 21
-909.83586421944995
 31
0.0
  0
LINE
  5
58D
  8
DATA
  6
CONTINUOUS
 62
     7
 10
-461.46888115358553
 20
-909.89878281737595
 30
0.0
 11
-461.14050470975229
 21
-899.99999999996021
 31
0.0
  0
LINE
  5
58E
  8
DATA
  6
CONTINUOUS
 62
     7
 10
-454.46209037105677
 20
-910.0410459571051
 30
0.0
 11
-454.79518617703678
 21
-899.99999999996021
 31
0.0
  0
LINE
  5
58F
  8
DATA
  6
CONTINUOUS
 62
     7
 10
-451.56358158475228
 20
-899.99999999996021
 30
0.0
 11
-451.89804656129292
 21
-910.08231912469716
 31
0.0
  0
LINE
  5
590
  8
DATA
  6
CONTINUOUS
 62
     7
 10
-445.21826305203678
 20
-899.99999999996021
 30
0.0
 11
-444.87585652433279
 21
-910.16654322602471
 31
0.0
  0
LINE
  5
591
  8
DATA
  6
CONTINUOUS
 62
     7
 10
-442.32459075747943
 20
-910.18684026162202
 30
0.0
 11
-441.98665845975228
 21
-899.99999999996021
 31
0.0
  0
LINE
  5
592
  8
DATA
  6
CONTINUOUS
 62
     7
 10
-435.30248310379721
 20
-910.21470980511549
 30
0.0
 11
-435.64133992703682
 21
-899.99999999996021
 31
0.0
  0
LINE
  5
593
  8
DATA
  6
CONTINUOUS
 62
     7
 10
-432.74859215799188
 20
-910.21470980511549
 30
0.0
 11
-432.40973533475221
 21
-899.99999999996021
 31
0.0
  0
LINE
  5
594
  8
DATA
  6
CONTINUOUS
 62
     7
 10
-425.72648450430961
 20
-910.18684026162202
 30
0.0
 11
-426.06441680203682
 21
-899.99999999996021
 31
0.0
  0
LINE
  5
595
  8
DATA
  6
CONTINUOUS
 62
     7
 10
-423.18841051322732
 20
-910.18684026162202
 30
0.0
 11
-422.83281220975221
 21
-899.99999999996021
 31
0.0
  0
LINE
  5
596
  8
DATA
  6
CONTINUOUS
 62
     7
 10
-416.15302870049618
 20
-910.08231912469716
 30
0.0
 11
-416.48749367703681
 21
-899.99999999996021
 31
0.0
  0
LINE
  5
597
  8
DATA
  6
CONTINUOUS
 62
     7
 10
-413.2558890847522
 20
-899.99999999996021
 30
0.0
 11
-413.5889848830704
 21
-910.0410459571051
 31
0.0
  0
LINE
  5
598
  8
DATA
  6
CONTINUOUS
 62
     7
 10
-407.2101528808945
 20
-906.95631875805066
 30
0.0
 11
-413.48665394331118
 21
-906.95631875805066
 31
0.0
  0
LINE
  5
599
  8
DATA
  6
CONTINUOUS
 62
     7
 10
-407.2101528808945
 20
-906.95631875805066
 30
0.0
 11
-407.2101528808945
 21
-899.99999999996476
 31
0.0
  0
LINE
  5
59A
  8
DATA
  6
CONTINUOUS
 62
     7
 10
-406.91057055203669
 20
-899.99999999996021
 30
0.0
 11
-406.58219410054221
 21
-909.89878281737595
 31
0.0
  0
LINE
  5
59B
  8
DATA
  6
CONTINUOUS
 62
     7
 10
-404.00523758742088
 20
-909.83533392419542
 30
0.0
 11
-403.67896595975219
 21
-899.99999999996021
 31
0.0
  0
LINE
  5
59C
  8
DATA
  6
CONTINUOUS
 62
     7
 10
-397.33364742703679
 20
-899.99999999996021
 30
0.0
 11
-397.01412816607888
 21
-909.63178624526643
 31
0.0
  0
LINE
  5
59D
  8
DATA
  6
CONTINUOUS
 62
     7
 10
-394.4186532164033
 20
-909.54409921694912
 30
0.0
 11
-394.10204283475218
 21
-899.99999999996021
 31
0.0
  0
LINE
  5
59E
  8
DATA
  6
CONTINUOUS
 62
     7
 10
-387.7567243020369
 20
-899.99999999996021
 30
0.0
 11
-387.44906718661531
 21
-909.27420639940965
 31
0.0
  0
LINE
  5
59F
  8
DATA
  6
CONTINUOUS
 62
     7
 10
-384.82895833736978
 20
-909.15909962120145
 30
0.0
 11
-384.52511970975229
 21
-899.99999999996021
 31
0.0
  0
LINE
  5
5A0
  8
DATA
  6
CONTINUOUS
 62
     7
 10
-378.17980117703678
 20
-899.99999999996021
 30
0.0
 11
-377.88737323113799
 21
-908.8151288819048
 31
0.0
  0
LINE
  5
5A1
  8
DATA
  6
CONTINUOUS
 62
     7
 10
-375.23573509001119
 20
-908.66773861762636
 30
0.0
 11
-374.94819658475228
 21
-899.99999999996021
 31
0.0
  0
LINE
  5
5A2
  8
DATA
  6
CONTINUOUS
 62
     7
 10
-368.60287805203677
 20
-899.99999999996021
 30
0.0
 11
-368.3296041132802
 21
-908.23773863839142
 31
0.0
  0
LINE
  5
5A3
  8
DATA
  6
CONTINUOUS
 62
     7
 10
-365.37127345975227
 20
-899.99999999996021
 30
0.0
 11
-365.63833310930841
 21
-908.05041123326589
 31
0.0
  0
LINE
  5
5A4
  8
DATA
  6
CONTINUOUS
 62
     7
 10
-359.02595492703682
 20
-899.99999999996021
 30
0.0
 11
-358.77665615643127
 21
-907.51501631864005
 31
0.0
  0
LINE
  5
5A5
  8
DATA
  6
CONTINUOUS
 62
     7
 10
-355.79435033475232
 20
-899.99999999996021
 30
0.0
 11
-356.03568311264081
 21
-907.2748846018344
 31
0.0
  0
LINE
  5
5A6
  8
DATA
  6
CONTINUOUS
 62
     7
 10
-349.44903180203681
 20
-899.99999999996021
 30
0.0
 11
-349.23009609924537
 21
-906.59973315004515
 31
0.0
  0
LINE
  5
5A7
  8
DATA
  6
CONTINUOUS
 62
     7
 10
-350.36153721089448
 20
-899.99999999996021
 30
0.0
 11
-350.36153721089448
 21
-905.49587694807281
 31
0.0
  0
LINE
  5
5A8
  8
DATA
  6
CONTINUOUS
 62
     7
 10
-346.21742720975232
 20
-899.99999999996021
 30
0.0
 11
-346.42583634172172
 21
-906.28241385389833
 31
0.0
  0
LINE
  5
5A9
  8
DATA
  6
CONTINUOUS
 62
     7
 10
-348.47169104500739
 20
-899.99999999996021
 30
0.0
 11
-348.47169104500739
 21
-906.42292310657274
 31
0.0
  0
LINE
  5
5AA
  8
DATA
  6
CONTINUOUS
 62
     7
 10
-348.47169104500739
 20
-906.42292310657274
 30
0.0
 11
-347.88740303000162
 21
-906.4477991437426
 31
0.0
  0
ARC
  5
5AB
  8
DATA
  6
CONTINUOUS
 62
     7
 10
-330.86777555010542
 20
-893.20313145263901
 30
0.0
 40
10.44770046282447
 50
273.80286844065301
 51
319.41607269994921
  0
ARC
  5
5AC
  8
DATA
  6
CONTINUOUS
 62
     7
 10
-433.99999916795082
 20
-638.76976507016741
 30
0.0
 40
45.691710160912848
 50
78.477185082427042
 51
101.5228149175729
  0
LINE
  5
5AD
  8
DATA
  6
CONTINUOUS
 62
     7
 10
-587.29455955505568
 20
-631.22851297958937
 30
0.0
 11
-587.29455955505568
 21
-631.54153864996078
 31
0.0
  0
ARC
  5
5AE
  8
DATA
  6
CONTINUOUS
 62
     7
 10
-534.08477892299527
 20
-647.80824084035112
 30
0.0
 40
55.733007552517037
 50
150.3984122091338
 51
162.69339750069511
  0
ARC
  5
5AF
  8
DATA
  6
CONTINUOUS
 62
     7
 10
-525.77751567359371
 20
-650.8379403279547
 30
0.0
 40
64.469329479032965
 50
140.66632863463849
 51
151.70428043191589
  0
ARC
  5
5B0
  8
DATA
  6
CONTINUOUS
 62
     7
 10
-539.32786319382035
 20
-636.08939065725156
 30
0.0
 40
44.72932624178727
 50
131.2566070276107
 51
144.27949682966141
  0
ARC
  5
5B1
  8
DATA
  6
CONTINUOUS
 62
     7
 10
-503.42682556956368
 20
-682.65666105812647
 30
0.0
 40
103.4780717275619
 50
125.3671378385804
 51
129.19702482024491
  0
ARC
  5
5B2
  8
DATA
  6
CONTINUOUS
 62
     7
 10
-499.40772168885093
 20
-686.30737315609531
 30
0.0
 40
108.7876239355375
 50
123.83566567593979
 51
125.9803770532486
  0
ARC
  5
5B3
  8
DATA
  6
CONTINUOUS
 62
     7
 10
-565.46404289876455
 20
-603.79781938829035
 30
0.0
 40
9.5776245371087878
 50
55.084072955433101
 51
60.876007730030203
  0
ARC
  5
5B4
  8
DATA
  6
CONTINUOUS
 62
     7
 10
-566.62771362472006
 20
-605.81443854015356
 30
0.0
 40
11.90569107298656
 50
60.707305992858167
 51
64.774044191892116
  0
ARC
  5
5B5
  8
DATA
  6
CONTINUOUS
 62
     7
 10
-562.98186888699638
 20
-597.91196498093325
 30
0.0
 40
3.2037850463503821
 50
63.525781426593213
 51
83.223951830601251
  0
ARC
  5
5B6
  8
DATA
  6
CONTINUOUS
 62
     7
 10
-562.79915046836197
 20
-597.65036533968976
 30
0.0
 40
2.9263305303777378
 50
86.173446578018925
 51
102.0486693308503
  0
ARC
  5
5B7
  8
DATA
  6
CONTINUOUS
 62
     7
 10
-562.5662657715543
 20
-601.27533178686156
 30
0.0
 40
6.5414733875285371
 50
97.410786813521398
 51
102.120429330931
  0
ARC
  5
5B8
  8
DATA
  6
CONTINUOUS
 62
     7
 10
-563.72043260780742
 20
-596.21104006361043
 30
0.0
 40
1.3493070239659231
 50
99.354855540241701
 51
108.5286184005204
  0
ARC
  5
5B9
  8
DATA
  6
CONTINUOUS
 62
     7
 10
-648.18890242403802
 20
-578.99160398780066
 30
0.0
 40
89.821147728890466
 50
349.12087600223742
 51
349.28371232317249
  0
ARC
  5
5BA
  8
DATA
  6
CONTINUOUS
 62
     7
 10
-601.89475031200914
 20
-587.76154548395164
 30
0.0
 40
42.703632606302449
 50
349.29549779975798
 51
349.5915110633502
  0
ARC
  5
5BB
  8
DATA
  6
CONTINUOUS
 62
     7
 10
-589.24457878982321
 20
-590.08021005451735
 30
0.0
 40
29.84272244667806
 50
349.58204333934958
 51
350.10866746133388
  0
ARC
  5
5BC
  8
DATA
  6
CONTINUOUS
 62
     7
 10
-543.92922109217761
 20
-597.80078024533066
 30
0.0
 40
16.126264837809011
 50
169.39072765049451
 51
170.74277196490789
  0
ARC
  5
5BD
  8
DATA
  6
CONTINUOUS
 62
     7
 10
-555.07657789702375
 20
-595.71408906097668
 30
0.0
 40
4.7852843720588414
 50
164.60276875350979
 51
169.37487307932449
  0
ARC
  5
5BE
  8
DATA
  6
CONTINUOUS
 62
     7
 10
-558.98155731866723
 20
-594.66590509039713
 30
0.0
 40
0.7426226771395919
 50
143.96375778873809
 51
162.57734740711811
  0
ARC
  5
5BF
  8
DATA
  6
CONTINUOUS
 62
     7
 10
-558.70795403202521
 20
-594.86193705795642
 30
0.0
 40
1.0791983670102661
 50
133.82550986566989
 51
144.09328318834631
  0
ARC
  5
5C0
  8
DATA
  6
CONTINUOUS
 62
     7
 10
-558.37271300915609
 20
-595.21129026732069
 30
0.0
 40
1.563382429394248
 50
129.2141654780157
 51
133.82351706788671
  0
ARC
  5
5C1
  8
DATA
  6
CONTINUOUS
 62
     7
 10
-309.56461863540551
 20
-595.14592833503298
 30
0.0
 40
1.4730308478752869
 50
47.765999191426182
 51
50.87933415398151
  0
ARC
  5
5C2
  8
DATA
  6
CONTINUOUS
 62
     7
 10
-309.44570060624329
 20
-595.01448904723043
 30
0.0
 40
1.295780512781292
 50
44.672738377690152
 51
47.752705808405523
  0
ARC
  5
5C3
  8
DATA
  6
CONTINUOUS
 62
     7
 10
-309.2749033547434
 20
-594.84864739718535
 30
0.0
 40
1.057726904698252
 50
36.750807981015882
 51
44.788901054630919
  0
ARC
  5
5C4
  8
DATA
  6
CONTINUOUS
 62
     7
 10
-309.06256363700078
 20
-594.69202644583595
 30
0.0
 40
0.7938802801686145
 50
24.761075828765001
 51
36.863299599868569
  0
ARC
  5
5C5
  8
DATA
  6
CONTINUOUS
 62
     7
 10
-309.17914097573771
 20
-594.72645098775718
 30
0.0
 40
0.9143267454301577
 50
11.733804603320619
 51
23.660176965782579
  0
ARC
  5
5C6
  8
DATA
  6
CONTINUOUS
 62
     7
 10
-314.91689967680128
 20
-596.16986487039401
 30
0.0
 40
6.8301689564210042
 50
11.54835544812572
 51
13.80114131256525
  0
ARC
  5
5C7
  8
DATA
  6
CONTINUOUS
 62
     7
 10
-320.50927932107788
 20
-597.11677259971577
 30
0.0
 40
12.50037503854262
 50
9.2954128773091593
 51
10.669076364500141
  0
ARC
  5
5C8
  8
DATA
  6
CONTINUOUS
 62
     7
 10
-285.71570303885238
 20
-591.30693772073585
 30
0.0
 40
22.77503005779095
 50
189.58099452776159
 51
190.11339380336901
  0
ARC
  5
5C9
  8
DATA
  6
CONTINUOUS
 62
     7
 10
-274.50584297551052
 20
-589.30920473817412
 30
0.0
 40
34.161508781627091
 50
190.11050271420461
 51
190.49409584744581
  0
ARC
  5
5CA
  8
DATA
  6
CONTINUOUS
 62
     7
 10
-263.20703147527092
 20
-587.21823321142995
 30
0.0
 40
45.652170230577262
 50
190.4917077889283
 51
190.76701182540279
  0
ARC
  5
5CB
  8
DATA
  6
CONTINUOUS
 62
     7
 10
-264.434887320494
 20
-587.46751056860148
 30
0.0
 40
44.399364596851811
 50
190.7470018429342
 51
191.00044939057199
  0
ARC
  5
5CC
  8
DATA
  6
CONTINUOUS
 62
     7
 10
-309.51034520268331
 20
-621.20183463844671
 30
0.0
 40
27.212787084243988
 50
84.737505879937544
 51
88.15709101241896
  0
ARC
  5
5CD
  8
DATA
  6
CONTINUOUS
 62
     7
 10
-309.05805362525092
 20
-594.40362610301725
 30
0.0
 40
1.8547665982950281
 50
304.09086278253119
 51
306.08345383405981
  0
ARC
  5
5CE
  8
DATA
  6
CONTINUOUS
 62
     7
 10
-302.50665109937279
 20
-603.50019441600284
 30
0.0
 40
9.35546158981189
 50
125.2195956200212
 51
125.6978600713789
  0
ARC
  5
5CF
  8
DATA
  6
CONTINUOUS
 62
     7
 10
-302.84539713875819
 20
-603.01500492635739
 30
0.0
 40
8.7637288672534854
 50
122.72699698007079
 51
125.2397104420795
  0
ARC
  5
5D0
  8
DATA
  6
CONTINUOUS
 62
     7
 10
-303.50816422094761
 20
-601.97072924869792
 30
0.0
 40
7.5269125640643342
 50
117.79860292838841
 51
122.7804109021958
  0
ARC
  5
5D1
  8
DATA
  6
CONTINUOUS
 62
     7
 10
-304.1998589042206
 20
-600.63738950813092
 30
0.0
 40
6.0248764182347916
 50
109.40049948516391
 51
117.8932761749257
  0
ARC
  5
5D2
  8
DATA
  6
CONTINUOUS
 62
     7
 10
-304.64813302607553
 20
-599.28478113120957
 30
0.0
 40
4.6002427194802156
 50
100.7990013170112
 51
109.7302340831053
  0
ARC
  5
5D3
  8
DATA
  6
CONTINUOUS
 62
     7
 10
-305.07635388894732
 20
-596.91457196402587
 30
0.0
 40
2.191900972681684
 50
83.924727745940615
 51
101.41212216010349
  0
ARC
  5
5D4
  8
DATA
  6
CONTINUOUS
 62
     7
 10
-306.44232817987847
 20
-605.6547264734744
 30
0.0
 40
11.036045067730051
 50
78.260865917376904
 51
81.674645141524607
  0
ARC
  5
5D5
  8
DATA
  6
CONTINUOUS
 62
     7
 10
-304.84370851893038
 20
-598.39427457101635
 30
0.0
 40
3.6032780898377932
 50
74.169108600625464
 51
79.660294419277562
  0
LINE
  5
5D6
  8
DATA
  6
CONTINUOUS
 62
     7
 10
-268.67203804616048
 20
-631.54153864996078
 30
0.0
 11
-268.37460998869818
 21
-631.54153864996078
 31
0.0
  0
LINE
  5
5D7
  8
DATA
  6
CONTINUOUS
 62
     7
 10
-280.7052130182912
 20
-631.22850114251241
 30
0.0
 11
-280.70521301822851
 21
-631.54153864996078
 31
0.0
  0
ARC
  5
5D8
  8
DATA
  6
CONTINUOUS
 62
     7
 10
-376.57082406947723
 20
-698.07298877381879
 30
0.0
 40
123.00669727719669
 50
53.266322566468212
 51
56.130300968209461
  0
ARC
  5
5D9
  8
DATA
  6
CONTINUOUS
 62
     7
 10
-329.6463611158328
 20
-637.34665049809018
 30
0.0
 40
46.291661817833642
 50
45.322171787795959
 51
54.858476899852022
  0
ARC
  5
5DA
  8
DATA
  6
CONTINUOUS
 62
     7
 10
-372.47210000783178
 20
-673.50491320509218
 30
0.0
 40
102.2381324594711
 50
35.095916083710136
 51
42.502940377884897
  0
ARC
  5
5DB
  8
DATA
  6
CONTINUOUS
 62
     7
 10
-342.91298193302521
 20
-651.25742767988038
 30
0.0
 40
65.273187999256436
 50
23.17370246413504
 51
34.035701556235352
  0
ARC
  5
5DC
  8
DATA
  6
CONTINUOUS
 62
     7
 10
-353.6427955137072
 20
-656.34898022005837
 30
0.0
 40
77.142267333551018
 50
19.004252472774809
 51
23.51413396245281
  0
ARC
  5
5DD
  8
DATA
  6
CONTINUOUS
 62
     7
 10
246.15338702480639
 20
23042.757552689589
 30
0.0
 40
23652.443354259402
 50
268.0468357934613
 51
268.07744036366933
  0
ARC
  5
5DE
  8
DATA
  6
CONTINUOUS
 62
     7
 10
-331.04505847345462
 20
5806.986981122157
 30
0.0
 40
6407.010962714071
 50
268.06524120052927
 51
268.29987900203918
  0
ARC
  5
5DF
  8
DATA
  6
CONTINUOUS
 62
     7
 10
-418.55119955634473
 20
2867.102820569869
 30
0.0
 40
3465.8247920957092
 50
268.30394733726342
 51
268.87132483011408
  0
ARC
  5
5E0
  8
DATA
  6
CONTINUOUS
 62
     7
 10
-432.71488794011361
 20
2386.942557187956
 30
0.0
 40
2985.4824000527469
 50
268.96157902472112
 51
270.14259299727757
  0
ARC
  5
5E1
  8
DATA
  6
CONTINUOUS
 62
     7
 10
-431.1350598664099
 20
1936.128599740957
 30
0.0
 40
2534.6659483265389
 50
270.13224277587221
 51
271.25771721690541
  0
ARC
  5
5E2
  8
DATA
  6
CONTINUOUS
 62
     7
 10
-451.57408503491922
 20
2988.1655214768971
 30
0.0
 40
3586.8990248891209
 50
271.21526523921852
 51
271.7550158604131
  0
ARC
  5
5E3
  8
DATA
  6
CONTINUOUS
 62
     7
 10
-550.92970316460162
 20
6196.1047590910139
 30
0.0
 40
6796.376411497512
 50
271.76397406704302
 51
271.96832038579328
  0
LINE
  5
5E4
  8
DATA
  6
CONTINUOUS
 62
     7
 10
-308.02778655119653
 20
-595.89144749061074
 30
0.0
 11
-317.49514268144372
 21
-596.26159091778356
 31
0.0
  0
CIRCLE
  5
5E5
  8
DATA
  6
CONTINUOUS
 62
     7
 10
-469.00000000000739
 20
-691.5
 30
0.0
 40
5.8000000000000114
  0
CIRCLE
  5
5E6
  8
DATA
  6
CONTINUOUS
 62
     7
 10
-399.0000000000075
 20
-691.5
 30
0.0
 40
5.8000000000000114
  0
CIRCLE
  5
5E7
  8
DATA
  6
CONTINUOUS
 62
     7
 10
-469.00000000000739
 20
-818.5
 30
0.0
 40
5.8000000000000114
  0
CIRCLE
  5
5E8
  8
DATA
  6
CONTINUOUS
 62
     7
 10
-399.0000000000075
 20
-818.5
 30
0.0
 40
5.8000000000000114
  0
ARC
  5
5E9
  8
DATA
  6
CONTINUOUS
 62
     7
 10
165.34931889021871
 20
-110.4164788515296
 30
0.0
 40
0.7338538924341125
 50
307.64190249758002
 51
354.26701928942151
  0
LINE
  5
5EA
  8
DATA
  6
CONTINUOUS
 62
     7
 10
146.49939063376311
 20
-98.852129213090805
 30
0.0
 11
149.93970863401751
 21
-90.654814088736273
 31
0.0
  0
LINE
  5
5EB
  8
DATA
  6
CONTINUOUS
 62
     7
 10
146.49939063376311
 20
-98.852129213090805
 30
0.0
 11
143.10152239056211
 21
-90.654814088736273
 31
0.0
  0
LINE
  5
5EC
  8
DATA
  6
CONTINUOUS
 62
     7
 10
172.57790624078879
 20
-113.6752897137368
 30
0.0
 11
172.57790624078879
 21
-90.654814088736273
 31
0.0
  0
LINE
  5
5ED
  8
DATA
  6
CONTINUOUS
 62
     7
 10
176.9951211446633
 20
-90.654814088736273
 30
0.0
 11
176.9951211446633
 21
-110.1500261584263
 31
0.0
  0
LINE
  5
5EE
  8
DATA
  6
CONTINUOUS
 62
     7
 10
151.5536972005618
 20
-90.654814088736273
 30
0.0
 11
151.5536972005618
 21
-110.1500261584263
 31
0.0
  0
LINE
  5
5EF
  8
DATA
  6
CONTINUOUS
 62
     7
 10
155.8010209943254
 20
-90.654814088736273
 30
0.0
 11
155.8010209943254
 21
-110.1500261584263
 31
0.0
  0
LINE
  5
5F0
  8
DATA
  6
CONTINUOUS
 62
     7
 10
158.00962844626321
 20
-90.654814088736273
 30
0.0
 11
158.00962844626321
 21
-113.6752897137368
 31
0.0
  0
LINE
  5
5F1
  8
DATA
  6
CONTINUOUS
 62
     7
 10
161.8746972422739
 20
-92.820925742671207
 30
0.0
 11
161.8746972422739
 21
-100.2112811144672
 31
0.0
  0
LINE
  5
5F2
  8
DATA
  6
CONTINUOUS
 62
     7
 10
170.1587995597348
 20
-99.783652759256483
 30
0.0
 11
170.1587995597348
 21
-94.392464552162721
 31
0.0
  0
LINE
  5
5F3
  8
DATA
  6
CONTINUOUS
 62
     7
 10
166.0795022175584
 20
-93.840295423821644
 30
0.0
 11
166.0795022175584
 21
-99.191934453791404
 31
0.0
  0
ARC
  5
5F4
  8
DATA
  6
CONTINUOUS
 62
     7
 10
150.70138711102169
 20
-107.7640919827483
 30
0.0
 40
5.9366432414531323
 50
264.69085622153659
 51
323.99119915424222
  0
LINE
  5
5F5
  8
DATA
  6
CONTINUOUS
 62
     7
 10
148.32574308794781
 20
-106.4548254520526
 30
0.0
 11
148.32574308794781
 21
-110.1499801174748
 31
0.0
  0
LINE
  5
5F6
  8
DATA
  6
CONTINUOUS
 62
     7
 10
148.32574308794781
 20
-106.4548254520526
 30
0.0
 11
144.503147069466
 21
-106.4548254520526
 31
0.0
  0
LINE
  5
5F7
  8
DATA
  6
CONTINUOUS
 62
     7
 10
144.503147069466
 20
-106.4548254520526
 30
0.0
 11
144.503147069466
 21
-110.1499801174748
 31
0.0
  0
ARC
  5
5F8
  8
DATA
  6
CONTINUOUS
 62
     7
 10
149.94781184143631
 20
-110.1997964267271
 30
0.0
 40
1.6066653532501201
 50
269.71184879275722
 51
1.775987005689444
  0
ARC
  5
5F9
  8
DATA
  6
CONTINUOUS
 62
     7
 10
149.9316284470728
 20
-110.1997964267271
 30
0.0
 40
1.6066571377426031
 50
178.22401299432471
 51
270.28815120725102
  0
ARC
  5
5FA
  8
DATA
  6
CONTINUOUS
 62
     7
 10
149.60278095276999
 20
-107.7640919827483
 30
0.0
 40
5.9366335999679549
 50
216.00880084575439
 51
275.30914377845698
  0
ARC
  5
5FB
  8
DATA
  6
CONTINUOUS
 62
     7
 10
147.1860453807052
 20
-110.0198453687663
 30
0.0
 40
2.6860295751554522
 50
182.77699545000129
 51
207.35960666714999
  0
CIRCLE
  5
5FC
  8
DATA
  6
CONTINUOUS
 62
     7
 10
146.7330024204054
 20
-102.037633568652
 30
0.0
 40
2.1873595529370951
  0
LINE
  5
5FD
  8
DATA
  6
CONTINUOUS
 62
     7
 10
184.08814405328829
 20
-113.67526669326089
 30
0.0
 11
172.57790624078879
 21
-113.67526669326089
 31
0.0
  0
LINE
  5
5FE
  8
DATA
  6
CONTINUOUS
 62
     7
 10
184.08814405328829
 20
-113.67526669326089
 30
0.0
 11
184.08814405328829
 21
-106.45480243157689
 31
0.0
  0
LINE
  5
5FF
  8
DATA
  6
CONTINUOUS
 62
     7
 10
184.08814405328829
 20
-106.4548254520526
 30
0.0
 11
180.22309827775371
 21
-106.4548254520526
 31
0.0
  0
LINE
  5
600
  8
DATA
  6
CONTINUOUS
 62
     7
 10
180.22309827775371
 20
-106.4548254520526
 30
0.0
 11
180.22309827775371
 21
-110.1499801174748
 31
0.0
  0
LINE
  5
601
  8
DATA
  6
CONTINUOUS
 62
     7
 10
158.00962844626321
 20
-113.67526669326089
 30
0.0
 11
166.0795022175584
 21
-113.6752436727851
 31
0.0
  0
LINE
  5
602
  8
DATA
  6
CONTINUOUS
 62
     7
 10
161.8746742217983
 20
-111.5091320188513
 30
0.0
 11
163.95586334115191
 21
-111.5091320188513
 31
0.0
  0
LINE
  5
603
  8
DATA
  6
CONTINUOUS
 62
     7
 10
161.8746972422739
 20
-111.5091320188513
 30
0.0
 11
161.8746972422739
 21
-102.4198655459297
 31
0.0
  0
LINE
  5
604
  8
DATA
  6
CONTINUOUS
 62
     7
 10
161.8746742217983
 20
-102.4198655459297
 30
0.0
 11
163.95586334115191
 21
-102.4198655459297
 31
0.0
  0
LINE
  5
605
  8
DATA
  6
CONTINUOUS
 62
     7
 10
166.0795022175584
 20
-110.4897853581755
 30
0.0
 11
166.0795022175584
 21
-103.4392122066033
 31
0.0
  0
ARC
  5
606
  8
DATA
  6
CONTINUOUS
 62
     7
 10
153.11812268308461
 20
-110.0198453687663
 30
0.0
 40
2.6860257530420379
 50
332.6403933328636
 51
357.22300454998572
  0
ARC
  5
607
  8
DATA
  6
CONTINUOUS
 62
     7
 10
178.61718989815299
 20
-110.1997964267271
 30
0.0
 40
1.6066653532501269
 50
269.71184879270851
 51
1.775987005689444
  0
ARC
  5
608
  8
DATA
  6
CONTINUOUS
 62
     7
 10
178.60102952426499
 20
-110.1997964267271
 30
0.0
 40
1.6066571377427741
 50
178.22401299432491
 51
270.2881512072388
  0
LINE
  5
609
  8
DATA
  6
CONTINUOUS
 62
     7
 10
170.15693490120941
 20
-109.98008900736291
 30
0.0
 11
170.15693490120941
 21
-103.863963002362
 31
0.0
  0
LINE
  5
60A
  8
DATA
  6
CONTINUOUS
 62
     7
 10
161.8746742217983
 20
-100.2112811144672
 30
0.0
 11
163.95586334115191
 21
-100.2112811144672
 31
0.0
  0
ARC
  5
60B
  8
DATA
  6
CONTINUOUS
 62
     7
 10
165.7868659314135
 20
-109.30512866203711
 30
0.0
 40
4.3799019627308722
 50
273.83098160911322
 51
351.13514730978449
  0
LINE
  5
60C
  8
DATA
  6
CONTINUOUS
 62
     7
 10
151.5536972005618
 20
-90.654814088736273
 30
0.0
 11
155.8010209943254
 21
-90.654814088736273
 31
0.0
  0
LINE
  5
60D
  8
DATA
  6
CONTINUOUS
 62
     7
 10
143.10152239056211
 20
-90.654814088736273
 30
0.0
 11
149.93970863401751
 21
-90.654814088736273
 31
0.0
  0
LINE
  5
60E
  8
DATA
  6
CONTINUOUS
 62
     7
 10
172.57790624078879
 20
-90.654814088736273
 30
0.0
 11
176.9951211446633
 21
-90.654814088736273
 31
0.0
  0
LINE
  5
60F
  8
DATA
  6
CONTINUOUS
 62
     7
 10
158.00962844626321
 20
-90.654814088736273
 30
0.0
 11
166.12386296908679
 21
-90.654832720911756
 31
0.0
  0
LINE
  5
610
  8
DATA
  6
CONTINUOUS
 62
     7
 10
161.8746742217983
 20
-92.820948763145964
 30
0.0
 11
163.95586334115191
 21
-92.820948763145964
 31
0.0
  0
ARC
  5
611
  8
DATA
  6
CONTINUOUS
 62
     7
 10
165.8305357736736
 20
-95.018253161552238
 30
0.0
 40
4.3732686614671312
 50
8.2269238590098173
 51
86.154126692156311
  0
ARC
  5
612
  8
DATA
  6
CONTINUOUS
 62
     7
 10
163.98043876381641
 20
-107.4720589237954
 30
0.0
 40
4.0371478950149324
 50
269.65121993761397
 51
282.82648280688193
  0
ARC
  5
613
  8
DATA
  6
CONTINUOUS
 62
     7
 10
164.43387437254481
 20
-109.1788850901693
 30
0.0
 40
2.2731290193171989
 50
281.23310362265789
 51
306.86200889403477
  0
ARC
  5
614
  8
DATA
  6
CONTINUOUS
 62
     7
 10
165.34931889021871
 20
-103.5125187132503
 30
0.0
 40
0.73385389243479
 50
5.7329807106669444
 51
52.358097502361268
  0
ARC
  5
615
  8
DATA
  6
CONTINUOUS
 62
     7
 10
163.98043876381641
 20
-106.4569386409845
 30
0.0
 40
4.0371478950141677
 50
77.173517193125562
 51
90.348780062386055
  0
ARC
  5
616
  8
DATA
  6
CONTINUOUS
 62
     7
 10
164.43387437254481
 20
-104.75011247460949
 30
0.0
 40
2.2731290193162148
 50
53.137991105945851
 51
78.766896377340828
  0
ARC
  5
617
  8
DATA
  6
CONTINUOUS
 62
     7
 10
167.9292895159289
 20
-104.0145399334244
 30
0.0
 40
2.2327286836357541
 50
3.8670063598025579
 51
88.361634567865181
  0
ARC
  5
618
  8
DATA
  6
CONTINUOUS
 62
     7
 10
167.927240693599
 20
-99.548751825978627
 30
0.0
 40
2.23494734190517
 50
271.68928210465361
 51
356.07828298263479
  0
ARC
  5
619
  8
DATA
  6
CONTINUOUS
 62
     7
 10
165.34931889021871
 20
-99.118627947145512
 30
0.0
 40
0.7338538924341125
 50
307.64190249758002
 51
354.26701928940821
  0
ARC
  5
61A
  8
DATA
  6
CONTINUOUS
 62
     7
 10
163.98043876381641
 20
-96.174208019411367
 30
0.0
 40
4.0371478950148747
 50
269.65121993761397
 51
282.82648280686971
  0
ARC
  5
61B
  8
DATA
  6
CONTINUOUS
 62
     7
 10
164.43387437254481
 20
-97.881034185785268
 30
0.0
 40
2.2731290193182021
 50
281.23310362265289
 51
306.86200889404762
  0
ARC
  5
61C
  8
DATA
  6
CONTINUOUS
 62
     7
 10
165.34931889021871
 20
-93.913601930466484
 30
0.0
 40
0.7338538924345687
 50
5.7329807104947257
 51
52.358097502415248
  0
ARC
  5
61D
  8
DATA
  6
CONTINUOUS
 62
     7
 10
163.98043876381641
 20
-96.858021858200587
 30
0.0
 40
4.0371478950128941
 50
77.173517193121427
 51
90.348780062386126
  0
ARC
  5
61E
  8
DATA
  6
CONTINUOUS
 62
     7
 10
164.43387437254481
 20
-95.151195691826786
 30
0.0
 40
2.2731290193163058
 50
53.13799110594757
 51
78.766896377341084
  0
LINE
  5
61F
  8
DATA
  6
CONTINUOUS
 62
     7
 10
0.9237259847808376
 20
-421.5329531766377
 30
0.0
 11
0.0000000000000142
 21
-421.5329531766377
 31
0.0
  0
LINE
  5
620
  8
DATA
  6
CONTINUOUS
 62
     7
 10
37.541538649958873
 20
-43.019074880098067
 30
0.0
 11
37.541538649958873
 21
-41.630000000099997
 31
0.0
  0
LINE
  5
621
  8
DATA
  6
CONTINUOUS
 62
     7
 10
0.9237259847808376
 20
-69.851546308983686
 30
0.0
 11
-0.0000000000408775
 21
-69.851546308983686
 31
0.0
  0
LINE
  5
622
  8
DATA
  6
CONTINUOUS
 62
     7
 10
-0.0000000000408775
 20
-69.866451119612421
 30
0.0
 11
-0.0000000000408775
 21
-64.417019781640391
 31
0.0
  0
ARC
  5
623
  8
DATA
  6
CONTINUOUS
 62
     7
 10
12.767712689538641
 20
-64.416389517879665
 30
0.0
 40
12.767712705135651
 50
145.17737338878439
 51
180.00282834163929
  0
ARC
  5
624
  8
DATA
  6
CONTINUOUS
 62
     7
 10
24.440950731618209
 20
-75.219045998595632
 30
0.0
 40
28.604095493684859
 50
118.46165826967351
 51
140.7687238254239
  0
ARC
  5
625
  8
DATA
  6
CONTINUOUS
 62
     7
 10
41.188674959460577
 20
-98.666003699640271
 30
0.0
 40
57.308659043628921
 50
110.1674269490245
 51
122.0125345375648
  0
ARC
  5
626
  8
DATA
  6
CONTINUOUS
 62
     7
 10
48.819146976950357
 20
-131.2758707799282
 30
0.0
 40
90.641780602520527
 50
97.321631611930258
 51
107.5874826219019
  0
ARC
  5
627
  8
DATA
  6
CONTINUOUS
 62
     7
 10
37.286154035846202
 20
-41.627874262621553
 30
0.0
 40
0.2553846141124277
 50
62.741285361799491
 51
94.111928873146283
  0
ARC
  5
628
  8
DATA
  6
CONTINUOUS
 62
     7
 10
59.327150107820863
 20
-130.21494886648489
 30
0.0
 40
83.992140320279944
 50
130.94920658053661
 51
134.02763713812331
  0
ARC
  5
629
  8
DATA
  6
CONTINUOUS
 62
     7
 10
31.481657709143771
 20
-98.974684415764443
 30
0.0
 40
42.150683060087253
 50
115.67512778626759
 51
130.19218736029501
  0
ARC
  5
62A
  8
DATA
  6
CONTINUOUS
 62
     7
 10
46.68480532149178
 20
-129.9429032501441
 30
0.0
 40
76.648824372070052
 50
109.0638683018275
 51
115.8878196330224
  0
ARC
  5
62B
  8
DATA
  6
CONTINUOUS
 62
     7
 10
54.87705565458711
 20
-158.03943536715099
 30
0.0
 40
105.89044910409029
 50
104.5964671500314
 51
108.2698401524196
  0
ARC
  5
62C
  8
DATA
  6
CONTINUOUS
 62
     7
 10
55.603971075235542
 20
-160.8906517782367
 30
0.0
 40
108.83283245591061
 50
101.0170425570163
 51
104.58852810565389
  0
ARC
  5
62D
  8
DATA
  6
CONTINUOUS
 62
     7
 10
56.229492721376573
 20
-163.9949960812427
 30
0.0
 40
111.9995046018699
 50
99.785354927956007
 51
101.02765783035019
  0
LINE
  5
62E
  8
DATA
  6
CONTINUOUS
 62
     7
 10
0.9237259847808376
 20
-69.851546308983686
 30
0.0
 11
0.952169971889454
 21
-69.82421009213968
 31
0.0
  0
LINE
  5
62F
  8
DATA
  6
CONTINUOUS
 62
     7
 10
38.56307711407171
 20
-46.492305671872437
 30
0.0
 11
38.30769249995901
 21
-41.384613335985172
 31
0.0
  0
LINE
  5
630
  8
DATA
  6
CONTINUOUS
 62
     7
 10
40.0953848140717
 20
-48.279997985985247
 30
0.0
 11
38.56307711407171
 21
-46.492305671872437
 31
0.0
  0
LINE
  5
631
  8
DATA
  6
CONTINUOUS
 62
     7
 10
38.818461735846142
 20
-50.323074921872333
 30
0.0
 11
40.0953848140717
 21
-48.279997985985247
 31
0.0
  0
LINE
  5
632
  8
DATA
  6
CONTINUOUS
 62
     7
 10
38.30769249995901
 20
-50.323074921872333
 30
0.0
 11
38.30769249995901
 21
-43.019074880098067
 31
0.0
  0
LINE
  5
633
  8
DATA
  6
CONTINUOUS
 62
     7
 10
38.30769249995901
 20
-54.153844171872372
 30
0.0
 11
38.30769249995901
 21
-50.310000000099997
 31
0.0
  0
LINE
  5
634
  8
DATA
  6
CONTINUOUS
 62
     7
 10
38.30769249995901
 20
-437.23076917187279
 30
0.0
 11
38.30769249995901
 21
-59.899998046872291
 31
0.0
  0
LINE
  5
635
  8
DATA
  6
CONTINUOUS
 62
     7
 10
38.30769249995901
 20
-450.00000000009811
 30
0.0
 11
38.30769249995901
 21
-437.23076917187279
 31
0.0
  0
LINE
  5
636
  8
DATA
  6
CONTINUOUS
 62
     7
 10
37.54153864995881
 20
-449.75673906606102
 30
0.0
 11
37.541538609628873
 21
-448.3649999961433
 31
0.0
  0
LINE
  5
637
  8
DATA
  6
CONTINUOUS
 62
     7
 10
-0.0000000000408775
 20
-426.96806925179618
 30
0.0
 11
0.0000000000000142
 21
-424.45783510836708
 31
0.0
  0
ARC
  5
638
  8
DATA
  6
CONTINUOUS
 62
     7
 10
12.771172509131659
 20
-426.9675859774951
 30
0.0
 40
12.77117251831633
 50
180.00216813121651
 51
230.61985929922329
  0
ARC
  5
639
  8
DATA
  6
CONTINUOUS
 62
     7
 10
41.795730299361367
 20
-392.11097572608088
 30
0.0
 40
58.129587666085662
 50
230.30502187387299
 51
246.17963642652359
  0
ARC
  5
63A
  8
DATA
  6
CONTINUOUS
 62
     7
 10
37.725740079719102
 20
-401.35537504322298
 30
0.0
 40
48.028913825042522
 50
246.16741250381929
 51
260.86464867843472
  0
ARC
  5
63B
  8
DATA
  6
CONTINUOUS
 62
     7
 10
59.260794209798142
 20
-301.11972946616987
 30
0.0
 40
150.50727310748891
 50
258.82840919594457
 51
261.59753939304483
  0
ARC
  5
63C
  8
DATA
  6
CONTINUOUS
 62
     7
 10
43.050147366961824
 20
-378.89650833872543
 30
0.0
 40
59.937482487049962
 50
225.34474812041319
 51
232.32365467950689
  0
ARC
  5
63D
  8
DATA
  6
CONTINUOUS
 62
     7
 10
37.708576821436452
 20
-381.11169039216048
 30
0.0
 40
54.994587806984619
 50
235.3190749291303
 51
246.26504902405739
  0
ARC
  5
63E
  8
DATA
  6
CONTINUOUS
 62
     7
 10
41.713309980116961
 20
-374.91798575798799
 30
0.0
 40
62.287387862423977
 50
245.18599044314931
 51
253.23525915160801
  0
ARC
  5
63F
  8
DATA
  6
CONTINUOUS
 62
     7
 10
54.88600163188795
 20
-333.70019886449711
 30
0.0
 40
105.5553503193786
 50
252.84234867266869
 51
257.11129941635949
  0
ARC
  5
640
  8
DATA
  6
CONTINUOUS
 62
     7
 10
54.747253000548099
 20
-334.1554237409523
 30
0.0
 40
105.08065117374861
 50
257.12968073169378
 51
260.38407912441897
  0
ARC
  5
641
  8
DATA
  6
CONTINUOUS
 62
     7
 10
44.014486701319008
 20
-180.6643011483832
 30
0.0
 40
44.946305950300321
 50
168.32798706223809
 51
174.75059505649239
  0
ARC
  5
642
  8
DATA
  6
CONTINUOUS
 62
     7
 10
44.010946079560021
 20
-180.69301493353299
 30
0.0
 40
44.945416541703317
 50
174.71373170022301
 51
181.46365237282581
  0
ARC
  5
643
  8
DATA
  6
CONTINUOUS
 62
     7
 10
44.574309026254809
 20
-180.6436171957977
 30
0.0
 40
45.509870887604428
 50
181.5077061303476
 51
187.32163844349961
  0
ARC
  5
644
  8
DATA
  6
CONTINUOUS
 62
     7
 10
44.57430902622621
 20
-180.64361719580259
 30
0.0
 40
45.509870887575467
 50
187.32163844349799
 51
189.38155318092959
  0
ARC
  5
645
  8
DATA
  6
CONTINUOUS
 62
     7
 10
44.655440329165479
 20
-180.6293271892776
 30
0.0
 40
45.592246432873729
 50
189.3826512804182
 51
191.63180374123729
  0
LINE
  5
646
  8
DATA
  6
CONTINUOUS
 62
     7
 10
-0.0024082338586951
 20
-171.571261016308
 30
0.0
 11
-0.0000000000408775
 21
-171.55820469532981
 31
0.0
  0
LINE
  5
647
  8
DATA
  6
CONTINUOUS
 62
     7
 10
-0.0005002218895598
 20
-189.82171035668981
 30
0.0
 11
-0.0000000000408775
 21
-189.82436704323931
 31
0.0
  0
ARC
  5
648
  8
DATA
  6
CONTINUOUS
 62
     7
 10
169.5117885899223
 20
-586.19883744813455
 30
0.0
 40
464.43645843201131
 50
93.486296822045077
 51
97.404418825246864
  0
ARC
  5
649
  8
DATA
  6
CONTINUOUS
 62
     7
 10
163.6163956725949
 20
-535.54807744332425
 30
0.0
 40
413.53044584716008
 50
89.296393369095483
 51
93.097733855566375
  0
ARC
  5
64A
  8
DATA
  6
CONTINUOUS
 62
     7
 10
165.66377413370341
 20
-497.83677616331221
 30
0.0
 40
375.80018521150248
 50
84.257244613034615
 51
89.537916171587923
  0
ARC
  5
64B
  8
DATA
  6
CONTINUOUS
 62
     7
 10
95.2864386412447
 20
-1153.687662691236
 30
0.0
 40
1035.4109293156689
 50
83.167719790496378
 51
84.013863575725125
  0
ARC
  5
64C
  8
DATA
  6
CONTINUOUS
 62
     7
 10
217.10079828788571
 20
-132.673163671135
 30
0.0
 40
7.1777149362126611
 50
357.63235556906642
 51
78.674837726150557
  0
ARC
  5
64D
  8
DATA
  6
CONTINUOUS
 62
     7
 10
111.1571308200992
 20
-132.74215147975201
 30
0.0
 40
7.2638486741135981
 50
102.01119903596491
 51
181.79503508678329
  0
ARC
  5
64E
  8
DATA
  6
CONTINUOUS
 62
     7
 10
111.05946568287639
 20
-153.44498118237379
 30
0.0
 40
7.1689056941923619
 50
177.5538397067713
 51
256.85919772970669
  0
ARC
  5
64F
  8
DATA
  6
CONTINUOUS
 62
     7
 10
164.56373416552441
 20
254.667843893965
 30
0.0
 40
418.73954023386477
 50
262.43408085751059
 51
269.9077967809265
  0
ARC
  5
650
  8
DATA
  6
CONTINUOUS
 62
     7
 10
165.08690105128011
 20
232.42693280044941
 30
0.0
 40
396.49989383402368
 50
269.82702523586369
 51
277.77687842106297
  0
ARC
  5
651
  8
DATA
  6
CONTINUOUS
 62
     7
 10
217.1728456854749
 20
-153.4926511482364
 30
0.0
 40
7.1091912283786494
 50
282.83323597722608
 51
2.9858412829178178
  0
ARC
  5
652
  8
DATA
  6
CONTINUOUS
 62
     7
 10
164.08461620701519
 20
245.77668303548791
 30
0.0
 40
407.25823589390848
 50
262.33666617442009
 51
277.6633338255798
  0
ARC
  5
653
  8
DATA
  6
CONTINUOUS
 62
     7
 10
113.2375916772845
 20
-143.91283966444419
 30
0.0
 40
2.547967165253
 50
127.9483389723421
 51
173.2122022411784
  0
ARC
  5
654
  8
DATA
  6
CONTINUOUS
 62
     7
 10
120.3044086393067
 20
-154.23169066037181
 30
0.0
 40
15.05066209204103
 50
99.191810305050865
 51
125.0045826416203
  0
ARC
  5
655
  8
DATA
  6
CONTINUOUS
 62
     7
 10
214.73373896335349
 20
-143.99967329277931
 30
0.0
 40
2.7557682098029281
 50
8.0940251282242031
 51
62.197107971789997
  0
ARC
  5
656
  8
DATA
  6
CONTINUOUS
 62
     7
 10
207.60080179644251
 20
-154.94515547262981
 30
0.0
 40
15.81062419886786
 50
57.829086222964172
 51
80.107322185849327
  0
ARC
  5
657
  8
DATA
  6
CONTINUOUS
 62
     7
 10
164.2325983842133
 20
268.61529698788308
 30
0.0
 40
410.61197610139033
 50
263.52109530288141
 51
269.44774654007273
  0
ARC
  5
658
  8
DATA
  6
CONTINUOUS
 62
     7
 10
164.7780668230215
 20
232.45192706880121
 30
0.0
 40
374.45661071669679
 50
269.31095452791709
 51
274.36564427269309
  0
ARC
  5
659
  8
DATA
  6
CONTINUOUS
 62
     7
 10
121.34710877514981
 20
744.84712244972548
 30
0.0
 40
888.68155209237796
 50
274.64293181552608
 51
275.74577039209862
  0
LINE
  5
65A
  8
DATA
  6
CONTINUOUS
 62
     7
 10
218.51033480972899
 20
-125.63520952954531
 30
0.0
 11
218.46242478041231
 21
-125.62955685043261
 31
0.0
  0
LINE
  5
65B
  8
DATA
  6
CONTINUOUS
 62
     7
 10
293.69230916407213
 20
-437.23076917187279
 30
0.0
 11
293.69230916407213
 21
-450.00000000009811
 31
0.0
  0
LINE
  5
65C
  8
DATA
  6
CONTINUOUS
 62
     7
 10
293.69230916407213
 20
-437.23076917187279
 30
0.0
 11
306.4615399999592
 21
-437.23076917187279
 31
0.0
  0
LINE
  5
65D
  8
DATA
  6
CONTINUOUS
 62
     7
 10
293.69230916407213
 20
-59.899998046872291
 30
0.0
 11
293.69230916407213
 21
-54.153844171872372
 31
0.0
  0
LINE
  5
65E
  8
DATA
  6
CONTINUOUS
 62
     7
 10
293.69230916407213
 20
-54.153844171872372
 30
0.0
 11
293.69230916407213
 21
-41.384613335985172
 31
0.0
  0
LINE
  5
65F
  8
DATA
  6
CONTINUOUS
 62
     7
 10
293.69230916407213
 20
-54.153844171872372
 30
0.0
 11
306.4615399999592
 21
-54.153844171872372
 31
0.0
  0
LINE
  5
660
  8
DATA
  6
CONTINUOUS
 62
     7
 10
311.95741694807208
 20
-387.7372304618732
 30
0.0
 11
311.95741694807208
 21
-364.75261496187318
 31
0.0
  0
LINE
  5
661
  8
DATA
  6
CONTINUOUS
 62
     7
 10
399.99999999997578
 20
-59.899998046872291
 30
0.0
 11
399.99999999997578
 21
-54.153844171872372
 31
0.0
  0
ARC
  5
662
  8
DATA
  6
CONTINUOUS
 62
     7
 10
412.61454548976792
 20
-54.123399108000271
 30
0.0
 40
12.61458222914843
 50
139.53923573265959
 51
180.13828245190049
  0
ARC
  5
663
  8
DATA
  6
CONTINUOUS
 62
     7
 10
412.74481885192353
 20
-54.054000172394538
 30
0.0
 40
12.66941035547995
 50
89.889599872801568
 51
140.16035103096689
  0
ARC
  5
664
  8
DATA
  6
CONTINUOUS
 62
     7
 10
719.32684497393723
 20
-54.057770033793197
 30
0.0
 40
12.673520857567629
 50
359.5656538212184
 51
90.434346178777716
  0
ARC
  5
665
  8
DATA
  6
CONTINUOUS
 62
     7
 10
412.76923082316767
 20
-437.23076917690622
 30
0.0
 40
12.76923082319195
 50
179.9999999774152
 51
270.00000005696359
  0
ARC
  5
666
  8
DATA
  6
CONTINUOUS
 62
     7
 10
719.23077085436648
 20
-437.2307691903809
 30
0.0
 40
12.769230809717209
 50
269.9999999169558
 51
0.0000000830461886
  0
LINE
  5
667
  8
DATA
  6
CONTINUOUS
 62
     7
 10
399.99999999997578
 20
-54.153844171872372
 30
0.0
 11
732.00000166408381
 21
-54.153844171872372
 31
0.0
  0
LINE
  5
668
  8
DATA
  6
CONTINUOUS
 62
     7
 10
400.15624266058342
 20
-437.23076917187279
 30
0.0
 11
732.00000166408381
 21
-437.23076919111321
 31
0.0
  0
LINE
  5
669
  8
DATA
  6
CONTINUOUS
 62
     7
 10
412.76923083586291
 20
-450.00000000009811
 30
0.0
 11
412.76923083586291
 21
-41.384613335985151
 31
0.0
  0
LINE
  5
66A
  8
DATA
  6
CONTINUOUS
 62
     7
 10
719.23077083585895
 20
-450.00000000009811
 30
0.0
 11
719.23077083585895
 21
-41.384613335985151
 31
0.0
  0
LINE
  5
66B
  8
DATA
  6
CONTINUOUS
 62
     7
 10
481.44903346611818
 20
-82.871844313485155
 30
0.0
 11
653.83364971611843
 21
-82.971530084908622
 31
0.0
  0
LINE
  5
66C
  8
DATA
  6
CONTINUOUS
 62
     7
 10
478.21742887298689
 20
-304.95677503829069
 30
0.0
 11
653.8336497169646
 21
-304.95677503829069
 31
0.0
  0
ARC
  5
66D
  8
DATA
  6
CONTINUOUS
 62
     7
 10
480.47169270908847
 20
-279.51799914937283
 30
0.0
 40
25.538461664112511
 50
179.99999999999909
 51
264.9359471768002
  0
ARC
  5
66E
  8
DATA
  6
CONTINUOUS
 62
     7
 10
480.49986698138332
 20
-108.42085735549171
 30
0.0
 40
25.566638113689589
 50
87.872393949503902
 51
179.97635397208569
  0
ARC
  5
66F
  8
DATA
  6
CONTINUOUS
 62
     7
 10
651.57938587349815
 20
-108.41030598064199
 30
0.0
 40
25.538461671476849
 50
0.0000000068291644
 51
84.935947163582412
  0
ARC
  5
670
  8
DATA
  6
CONTINUOUS
 62
     7
 10
524.0033621630173
 20
-130.20185404402531
 30
0.0
 40
12.89181928850212
 50
136.224436727485
 51
178.208154221272
  0
ARC
  5
671
  8
DATA
  6
CONTINUOUS
 62
     7
 10
534.32349004531852
 20
-136.94959360511871
 30
0.0
 40
25.114427203702501
 50
111.53809186375079
 51
141.40473986281839
  0
ARC
  5
672
  8
DATA
  6
CONTINUOUS
 62
     7
 10
561.3862313200683
 20
-193.2170615700459
 30
0.0
 40
87.504829813321237
 50
91.629937005851446
 51
114.49646051220719
  0
ARC
  5
673
  8
DATA
  6
CONTINUOUS
 62
     7
 10
566.0853125504068
 20
-235.6423994363561
 30
0.0
 40
130.0934952979664
 50
78.524442675913207
 51
93.167379637771333
  0
ARC
  5
674
  8
DATA
  6
CONTINUOUS
 62
     7
 10
576.98923428241835
 20
-173.3836862877192
 30
0.0
 40
66.931623910678951
 50
58.458587993844198
 51
77.068672550797501
  0
ARC
  5
675
  8
DATA
  6
CONTINUOUS
 62
     7
 10
599.98529002627515
 20
-134.7384921185581
 30
0.0
 40
21.974876612465799
 50
20.971539992848271
 51
56.849137280949051
  0
ARC
  5
676
  8
DATA
  6
CONTINUOUS
 62
     7
 10
610.93723999728729
 20
-129.76979033066999
 30
0.0
 40
9.9960339457369756
 50
345.55790238804502
 51
16.842076164396872
  0
ARC
  5
677
  8
DATA
  6
CONTINUOUS
 62
     7
 10
601.24822855846162
 20
-125.9825687987007
 30
0.0
 40
20.3615695462803
 50
299.95632547168202
 51
342.04673561866502
  0
ARC
  5
678
  8
DATA
  6
CONTINUOUS
 62
     7
 10
577.25891467090241
 20
-84.703184081561616
 30
0.0
 40
68.105322361205523
 50
292.33073440635582
 51
300.10107334283731
  0
ARC
  5
679
  8
DATA
  6
CONTINUOUS
 62
     7
 10
579.57270604500627
 20
-94.973140912321924
 30
0.0
 40
57.753299061632347
 50
276.54237142957408
 51
294.0788722955366
  0
ARC
  5
67A
  8
DATA
  6
CONTINUOUS
 62
     7
 10
566.17540848678721
 20
-35.459473661188937
 30
0.0
 40
118.58574706135229
 50
268.00146110598951
 51
279.69860357111543
  0
ARC
  5
67B
  8
DATA
  6
CONTINUOUS
 62
     7
 10
565.9147394676404
 20
-24.898789557632838
 30
0.0
 40
129.1324476758283
 50
259.98827776208452
 51
268.280461087118
  0
ARC
  5
67C
  8
DATA
  6
CONTINUOUS
 62
     7
 10
551.35521548795396
 20
-98.993997791910573
 30
0.0
 40
53.654147530835068
 50
245.1107946647532
 51
261.5437052193725
  0
ARC
  5
67D
  8
DATA
  6
CONTINUOUS
 62
     7
 10
561.76943096496473
 20
-72.064395903944657
 30
0.0
 40
82.487176200396817
 50
239.02132499940069
 51
246.4214476456811
  0
ARC
  5
67E
  8
DATA
  6
CONTINUOUS
 62
     7
 10
531.91916546314633
 20
-124.9536891248102
 30
0.0
 40
21.838539414513718
 50
209.25543597042761
 51
234.73893445553239
  0
ARC
  5
67F
  8
DATA
  6
CONTINUOUS
 62
     7
 10
522.32336261024011
 20
-129.6130351557799
 30
0.0
 40
11.207054704407931
 50
180.94948564275001
 51
212.44963941507629
  0
LINE
  5
680
  8
DATA
  6
CONTINUOUS
 62
     7
 10
549.93630844497602
 20
-266.94030677598511
 30
0.0
 11
549.93630844497602
 21
-234.76184507598509
 31
0.0
  0
LINE
  5
681
  8
DATA
  6
CONTINUOUS
 62
     7
 10
582.11477014497575
 20
-266.94030677598511
 30
0.0
 11
582.11477014497575
 21
-234.76184507598509
 31
0.0
  0
CIRCLE
  5
682
  8
DATA
  6
CONTINUOUS
 62
     7
 10
566.02553929497606
 20
-270.00492217598509
 30
0.0
 40
1.596153851612939
  0
CIRCLE
  5
683
  8
DATA
  6
CONTINUOUS
 62
     7
 10
566.02553929497606
 20
-250.85107592598499
 30
0.0
 40
26.560000135887091
  0
ARC
  5
684
  8
DATA
  6
CONTINUOUS
 62
     7
 10
651.5793858728947
 20
-279.51799914207987
 30
0.0
 40
25.53846167208043
 50
275.06405283956337
 51
359.99999998363921
  0
ARC
  5
685
  8
DATA
  6
CONTINUOUS
 62
     7
 10
533.74164906932629
 20
-139.11727791645211
 30
0.0
 40
44.478589329663357
 50
127.0412505784319
 51
144.85573123143499
  0
ARC
  5
686
  8
DATA
  6
CONTINUOUS
 62
     7
 10
546.10057173468931
 20
-154.42115104529429
 30
0.0
 40
64.142314707268881
 50
117.4575365433324
 51
127.6183235938508
  0
ARC
  5
687
  8
DATA
  6
CONTINUOUS
 62
     7
 10
555.05717696521515
 20
-170.973664909782
 30
0.0
 40
82.960644987916623
 50
110.427539058994
 51
117.6754002013278
  0
ARC
  5
688
  8
DATA
  6
CONTINUOUS
 62
     7
 10
560.55090315889458
 20
-185.30327506763979
 30
0.0
 40
98.306672014816954
 50
104.6553173694338
 51
110.5131523571122
  0
ARC
  5
689
  8
DATA
  6
CONTINUOUS
 62
     7
 10
563.91024991844381
 20
-197.62610857958521
 30
0.0
 40
111.0785919317598
 50
99.667973894745785
 51
104.7235755166863
  0
ARC
  5
68A
  8
DATA
  6
CONTINUOUS
 62
     7
 10
565.50880013404333
 20
-206.61153471829019
 30
0.0
 40
120.20487902988479
 50
95.095433762688074
 51
99.699837472512371
  0
ARC
  5
68B
  8
DATA
  6
CONTINUOUS
 62
     7
 10
565.98660605821851
 20
-211.48655838240529
 30
0.0
 40
125.1030809793336
 50
90.722207109111807
 51
95.115101113912047
  0
ARC
  5
68C
  8
DATA
  6
CONTINUOUS
 62
     7
 10
566.02547889706761
 20
-212.51016540451511
 30
0.0
 40
126.1270993336159
 50
86.381067015015091
 51
90.734003431991852
  0
ARC
  5
68D
  8
DATA
  6
CONTINUOUS
 62
     7
 10
566.23388533754348
 20
-209.27107118003349
 30
0.0
 40
122.88130947756029
 50
81.892666953111629
 51
86.382716787959794
  0
ARC
  5
68E
  8
DATA
  6
CONTINUOUS
 62
     7
 10
567.27493167952321
 20
-201.9458955347977
 30
0.0
 40
115.4825278531568
 50
77.057197027052752
 51
81.891469908173562
  0
ARC
  5
68F
  8
DATA
  6
CONTINUOUS
 62
     7
 10
569.64871259643292
 20
-191.5157693781924
 30
0.0
 40
104.78571514241951
 50
71.603914519952539
 51
77.044813084333441
  0
ARC
  5
690
  8
DATA
  6
CONTINUOUS
 62
     7
 10
574.33686561354978
 20
-177.29619838071119
 30
0.0
 40
89.813300071860482
 50
64.999474717271497
 51
71.579101707924494
  0
ARC
  5
691
  8
DATA
  6
CONTINUOUS
 62
     7
 10
592.2301382007812
 20
-145.7272785322514
 30
0.0
 40
53.423957249711492
 50
42.769514641212389
 51
56.301092409041154
  0
ARC
  5
692
  8
DATA
  6
CONTINUOUS
 62
     7
 10
606.1586211724134
 20
-132.8757827400884
 30
0.0
 40
34.472369161925123
 50
10.19152460156783
 51
42.809365966231631
  0
ARC
  5
693
  8
DATA
  6
CONTINUOUS
 62
     7
 10
583.37382576775246
 20
-121.3040653231924
 30
0.0
 40
56.97664458393777
 50
334.22042090045818
 51
354.48864844341028
  0
ARC
  5
694
  8
DATA
  6
CONTINUOUS
 62
     7
 10
534.79634154142354
 20
-119.33393650548619
 30
0.0
 40
46.02922305324919
 50
215.60390871871931
 51
232.7704337559544
  0
ARC
  5
695
  8
DATA
  6
CONTINUOUS
 62
     7
 10
546.11425442300015
 20
-105.1562225690809
 30
0.0
 40
64.166689591591222
 50
232.38302430113791
 51
242.54000444931239
  0
ARC
  5
696
  8
DATA
  6
CONTINUOUS
 62
     7
 10
555.07293483551211
 20
-88.583342177150655
 30
0.0
 40
83.004030556163414
 50
242.32802393210571
 51
249.5720076888426
  0
ARC
  5
697
  8
DATA
  6
CONTINUOUS
 62
     7
 10
560.55239851083695
 20
-74.293022535572305
 30
0.0
 40
98.308261438225728
 50
249.48626370996999
 51
255.34402405397361
  0
ARC
  5
698
  8
DATA
  6
CONTINUOUS
 62
     7
 10
563.90773327378611
 20
-61.98299739964984
 30
0.0
 40
111.0667752314944
 50
255.27616491809209
 51
260.33230458820731
  0
ARC
  5
699
  8
DATA
  6
CONTINUOUS
 62
     7
 10
565.50917678386429
 20
-52.981296431532471
 30
0.0
 40
120.2095916755565
 50
260.30036434356907
 51
264.90458628907362
  0
ARC
  5
69A
  8
DATA
  6
CONTINUOUS
 62
     7
 10
565.98678129680081
 20
-48.108760216811227
 30
0.0
 40
125.10529810971811
 50
264.88490920136331
 51
269.27772542838329
  0
ARC
  5
69B
  8
DATA
  6
CONTINUOUS
 62
     7
 10
566.02559999151595
 20
-47.088138218996171
 30
0.0
 40
126.1263310213
 50
269.26593708205547
 51
273.61889993962961
  0
ARC
  5
69C
  8
DATA
  6
CONTINUOUS
 62
     7
 10
566.23423494842507
 20
-50.330966231923313
 30
0.0
 40
122.8768004000982
 50
273.61725278400462
 51
278.10746789005759
  0
ARC
  5
69D
  8
DATA
  6
CONTINUOUS
 62
     7
 10
567.27406986799929
 20
-57.648362448665772
 30
0.0
 40
115.4858913064991
 50
278.10872423326629
 51
282.94285819138258
  0
ARC
  5
69E
  8
DATA
  6
CONTINUOUS
 62
     7
 10
569.64476920266713
 20
-68.064491495486848
 30
0.0
 40
104.80341029948779
 50
282.95517364073169
 51
288.39514008425863
  0
ARC
  5
69F
  8
DATA
  6
CONTINUOUS
 62
     7
 10
574.35043013214329
 20
-82.336895141434624
 30
0.0
 40
89.775336517839065
 50
288.41984338355519
 51
295.00227161507632
  0
ARC
  5
6A0
  8
DATA
  6
CONTINUOUS
 62
     7
 10
581.52453235317319
 20
-97.7391302949856
 30
0.0
 40
72.784264992903687
 50
295.00856511239738
 51
303.66480792013982
  0
ARC
  5
6A1
  8
DATA
  6
CONTINUOUS
 62
     7
 10
592.22459258513743
 20
-113.8635843130221
 30
0.0
 40
53.432576483110182
 50
303.69989154977702
 51
317.22925099597751
  0
ARC
  5
6A2
  8
DATA
  6
CONTINUOUS
 62
     7
 10
621.6399360505909
 20
-139.0318258992607
 30
0.0
 40
14.824584940656869
 50
311.42364843876112
 51
331.59546951754243
  0
ARC
  5
6A3
  8
DATA
  6
CONTINUOUS
 62
     7
 10
529.28940761332797
 20
-126.50152605601519
 30
0.0
 40
37.470759549286889
 50
185.04827456166259
 51
211.59188890045661
  0
ARC
  5
6A4
  8
DATA
  6
CONTINUOUS
 62
     7
 10
513.47166341206298
 20
-127.899941627309
 30
0.0
 40
21.59132015120872
 50
138.2182267865372
 51
185.04533508057281
  0
CIRCLE
  5
6A5
  8
DATA
  6
CONTINUOUS
 62
     7
 10
428.73076937497598
 20
-365.85076881098598
 30
0.0
 40
3.626036262110687
  0
LINE
  5
6A6
  8
DATA
  6
CONTINUOUS
 62
     7
 10
428.73076937497598
 20
-367.81243901269551
 30
0.0
 11
428.73076937497598
 21
-363.88909860927652
 31
0.0
  0
LINE
  5
6A7
  8
DATA
  6
CONTINUOUS
 62
     7
 10
426.76909917326628
 20
-365.85076881098598
 30
0.0
 11
430.69243957668522
 21
-365.85076881098598
 31
0.0
  0
CIRCLE
  5
6A8
  8
DATA
  6
CONTINUOUS
 62
     7
 10
428.73076937497598
 20
-402.62615361098602
 30
0.0
 40
3.626036262110687
  0
LINE
  5
6A9
  8
DATA
  6
CONTINUOUS
 62
     7
 10
428.73076937497598
 20
-404.58782381269538
 30
0.0
 11
428.73076937497598
 21
-400.66448340927661
 31
0.0
  0
LINE
  5
6AA
  8
DATA
  6
CONTINUOUS
 62
     7
 10
426.76909917326628
 20
-402.62615361098602
 30
0.0
 11
430.69243957668522
 21
-402.62615361098602
 31
0.0
  0
CIRCLE
  5
6AB
  8
DATA
  6
CONTINUOUS
 62
     7
 10
479.29692347497598
 20
-418.45999984687279
 30
0.0
 40
3.626036262110687
  0
LINE
  5
6AC
  8
DATA
  6
CONTINUOUS
 62
     7
 10
479.29692347497598
 20
-420.4216700485822
 30
0.0
 11
479.29692347497598
 21
-416.49832964516332
 31
0.0
  0
LINE
  5
6AD
  8
DATA
  6
CONTINUOUS
 62
     7
 10
477.33525327326652
 20
-418.45999984687279
 30
0.0
 11
481.25859367668528
 21
-418.45999984687279
 31
0.0
  0
CIRCLE
  5
6AE
  8
DATA
  6
CONTINUOUS
 62
     7
 10
566.00000083586303
 20
-418.45999984687279
 30
0.0
 40
3.626036262110687
  0
LINE
  5
6AF
  8
DATA
  6
CONTINUOUS
 62
     7
 10
566.00000083586303
 20
-420.4216700485822
 30
0.0
 11
566.00000083586303
 21
-416.49832964516332
 31
0.0
  0
LINE
  5
6B0
  8
DATA
  6
CONTINUOUS
 62
     7
 10
564.03833063415357
 20
-418.45999984687279
 30
0.0
 11
567.96167103757239
 21
-418.45999984687279
 31
0.0
  0
CIRCLE
  5
6B1
  8
DATA
  6
CONTINUOUS
 62
     7
 10
652.70307818908873
 20
-418.45999984687279
 30
0.0
 40
3.626036262110687
  0
LINE
  5
6B2
  8
DATA
  6
CONTINUOUS
 62
     7
 10
652.70307818908873
 20
-420.4216700485822
 30
0.0
 11
652.70307818908873
 21
-416.49832964516332
 31
0.0
  0
LINE
  5
6B3
  8
DATA
  6
CONTINUOUS
 62
     7
 10
650.74140798737926
 20
-418.45999984687279
 30
0.0
 11
654.66474839079831
 21
-418.45999984687279
 31
0.0
  0
CIRCLE
  5
6B4
  8
DATA
  6
CONTINUOUS
 62
     7
 10
703.26923228908595
 20
-402.62615361098602
 30
0.0
 40
3.626036262110687
  0
LINE
  5
6B5
  8
DATA
  6
CONTINUOUS
 62
     7
 10
703.26923228908595
 20
-404.58782381269538
 30
0.0
 11
703.26923228908595
 21
-400.66448340927661
 31
0.0
  0
LINE
  5
6B6
  8
DATA
  6
CONTINUOUS
 62
     7
 10
701.3075620873766
 20
-402.62615361098602
 30
0.0
 11
705.23090249079542
 21
-402.62615361098602
 31
0.0
  0
CIRCLE
  5
6B7
  8
DATA
  6
CONTINUOUS
 62
     7
 10
703.26923228908595
 20
-365.85076881098598
 30
0.0
 40
3.626036262110687
  0
LINE
  5
6B8
  8
DATA
  6
CONTINUOUS
 62
     7
 10
703.26923228908595
 20
-367.81243901269551
 30
0.0
 11
703.26923228908595
 21
-363.88909860927652
 31
0.0
  0
LINE
  5
6B9
  8
DATA
  6
CONTINUOUS
 62
     7
 10
701.3075620873766
 20
-365.85076881098598
 30
0.0
 11
705.23090249079542
 21
-365.85076881098598
 31
0.0
  0
CIRCLE
  5
6BA
  8
DATA
  6
CONTINUOUS
 62
     7
 10
652.70307818908873
 20
-350.0169225750987
 30
0.0
 40
3.626036262110687
  0
LINE
  5
6BB
  8
DATA
  6
CONTINUOUS
 62
     7
 10
652.70307818908873
 20
-351.97859277680823
 30
0.0
 11
652.70307818908873
 21
-348.05525237338929
 31
0.0
  0
LINE
  5
6BC
  8
DATA
  6
CONTINUOUS
 62
     7
 10
650.74140798737926
 20
-350.0169225750987
 30
0.0
 11
654.66474839079831
 21
-350.0169225750987
 31
0.0
  0
CIRCLE
  5
6BD
  8
DATA
  6
CONTINUOUS
 62
     7
 10
566.00000083586303
 20
-350.0169225750987
 30
0.0
 40
3.626036262110687
  0
LINE
  5
6BE
  8
DATA
  6
CONTINUOUS
 62
     7
 10
566.00000083586303
 20
-351.97859277680823
 30
0.0
 11
566.00000083586303
 21
-348.05525237338929
 31
0.0
  0
LINE
  5
6BF
  8
DATA
  6
CONTINUOUS
 62
     7
 10
564.03833063415357
 20
-350.0169225750987
 30
0.0
 11
567.96167103757239
 21
-350.0169225750987
 31
0.0
  0
CIRCLE
  5
6C0
  8
DATA
  6
CONTINUOUS
 62
     7
 10
479.29692347497598
 20
-350.0169225750987
 30
0.0
 40
3.626036262110687
  0
LINE
  5
6C1
  8
DATA
  6
CONTINUOUS
 62
     7
 10
479.29692347497598
 20
-351.97859277680823
 30
0.0
 11
479.29692347497598
 21
-348.05525237338929
 31
0.0
  0
LINE
  5
6C2
  8
DATA
  6
CONTINUOUS
 62
     7
 10
477.33525327326652
 20
-350.0169225750987
 30
0.0
 11
481.25859367668528
 21
-350.0169225750987
 31
0.0
  0
LINE
  5
6C3
  8
DATA
  6
CONTINUOUS
 62
     7
 10
671.85692444674919
 20
-377.26646117598602
 30
0.0
 11
671.85692444674919
 21
-374.96799962598601
 31
0.0
  0
LINE
  5
6C4
  8
DATA
  6
CONTINUOUS
 62
     7
 10
670.58000136086173
 20
-377.26646117598602
 30
0.0
 11
671.85692444674919
 21
-377.26646117598602
 31
0.0
  0
LINE
  5
6C5
  8
DATA
  6
CONTINUOUS
 62
     7
 10
670.58000136086173
 20
-374.96799962598601
 30
0.0
 11
670.58000136086173
 21
-377.26646117598602
 31
0.0
  0
LINE
  5
6C6
  8
DATA
  6
CONTINUOUS
 62
     7
 10
671.85692444674919
 20
-374.96799962598601
 30
0.0
 11
670.58000136086173
 21
-374.96799962598601
 31
0.0
  0
LINE
  5
6C7
  8
DATA
  6
CONTINUOUS
 62
     7
 10
676.45384754674899
 20
-369.03541498337319
 30
0.0
 11
676.45384754674899
 21
-382.24646120098618
 31
0.0
  0
LINE
  5
6C8
  8
DATA
  6
CONTINUOUS
 62
     7
 10
673.06489367847485
 20
-365.64646111509887
 30
0.0
 11
676.45384754674899
 21
-369.03541498337319
 31
0.0
  0
LINE
  5
6C9
  8
DATA
  6
CONTINUOUS
 62
     7
 10
656.85818590736312
 20
-365.64646111509887
 30
0.0
 11
673.06489367847485
 21
-365.64646111509887
 31
0.0
  0
LINE
  5
6CA
  8
DATA
  6
CONTINUOUS
 62
     7
 10
653.46923203908887
 20
-382.24646120098618
 30
0.0
 11
676.45384754674899
 21
-382.24646120098618
 31
0.0
  0
LINE
  5
6CB
  8
DATA
  6
CONTINUOUS
 62
     7
 10
679.51846294674931
 20
-369.22184575098612
 30
0.0
 11
679.51846294674931
 21
-378.1603073368733
 31
0.0
  0
ARC
  5
6CC
  8
DATA
  6
CONTINUOUS
 62
     7
 10
673.13384752497473
 20
-378.1603073368733
 30
0.0
 40
6.3846154141129432
 50
270.0
 51
0.0
  0
ARC
  5
6CD
  8
DATA
  6
CONTINUOUS
 62
     7
 10
673.13384752497473
 20
-369.22184575098612
 30
0.0
 40
6.3846154141128864
 50
0.0
 51
90.0
  0
CIRCLE
  5
6CE
  8
DATA
  6
CONTINUOUS
 62
     7
 10
644.78615507497602
 20
-373.5123073109861
 30
0.0
 40
1.6600000108870741
  0
LINE
  5
6CF
  8
DATA
  6
CONTINUOUS
 62
     7
 10
644.78615507497602
 20
-374.34991357360281
 30
0.0
 11
644.78615507497602
 21
-372.67470104836917
 31
0.0
  0
LINE
  5
6D0
  8
DATA
  6
CONTINUOUS
 62
     7
 10
645.62376133759267
 20
-373.5123073109861
 30
0.0
 11
643.94854881235915
 21
-373.5123073109861
 31
0.0
  0
CIRCLE
  5
6D1
  8
DATA
  6
CONTINUOUS
 62
     7
 10
685.07569667302812
 20
-373.5123073109861
 30
0.0
 40
1.6600000108870741
  0
LINE
  5
6D2
  8
DATA
  6
CONTINUOUS
 62
     7
 10
685.07569667302812
 20
-374.34991357360281
 30
0.0
 11
685.07569667302812
 21
-372.67470104836917
 31
0.0
  0
LINE
  5
6D3
  8
DATA
  6
CONTINUOUS
 62
     7
 10
684.23809041041136
 20
-373.5123073109861
 30
0.0
 11
685.91330293564488
 21
-373.5123073109861
 31
0.0
  0
CIRCLE
  5
6D4
  8
DATA
  6
CONTINUOUS
 62
     7
 10
628.69692422497576
 20
-382.75723043687339
 30
0.0
 40
5.0438461766126466
  0
CIRCLE
  5
6D5
  8
DATA
  6
CONTINUOUS
 62
     7
 10
609.28769336086316
 20
-382.75723043687339
 30
0.0
 40
3.0646153999999801
  0
CIRCLE
  5
6D6
  8
DATA
  6
CONTINUOUS
 62
     7
 10
609.28769336086316
 20
-382.75723043687339
 30
0.0
 40
5.4269231016129416
  0
LINE
  5
6D7
  8
DATA
  6
CONTINUOUS
 62
     7
 10
597.1569240640888
 20
-385.94953814009892
 30
0.0
 11
599.71077023586327
 21
-385.94953814009892
 31
0.0
  0
LINE
  5
6D8
  8
DATA
  6
CONTINUOUS
 62
     7
 10
599.71077023586327
 20
-383.39569197598621
 30
0.0
 11
599.71077023586327
 21
-385.94953814009898
 31
0.0
  0
CIRCLE
  5
6D9
  8
DATA
  6
CONTINUOUS
 62
     7
 10
589.93384714997592
 20
-384.6726150580426
 30
0.0
 40
2.1499999999999768
  0
LINE
  5
6DA
  8
DATA
  6
CONTINUOUS
 62
     7
 10
617.16461693908525
 20
-390.85538449687277
 30
0.0
 11
617.16461693908525
 21
-369.85538449687277
 31
0.0
  0
LINE
  5
6DB
  8
DATA
  6
CONTINUOUS
 62
     7
 10
534.16461693908525
 20
-390.85538449687277
 30
0.0
 11
534.16461693908525
 21
-369.85538449687277
 31
0.0
  0
LINE
  5
6DC
  8
DATA
  6
CONTINUOUS
 62
     7
 10
537.16461693908525
 20
-393.85538449687277
 30
0.0
 11
614.16461693908525
 21
-393.85538449687277
 31
0.0
  0
ARC
  5
6DD
  8
DATA
  6
CONTINUOUS
 62
     7
 10
537.16461693908525
 20
-369.85538449687277
 30
0.0
 40
3.0
 50
90.0
 51
180.0
  0
ARC
  5
6DE
  8
DATA
  6
CONTINUOUS
 62
     7
 10
614.16461693908525
 20
-369.85538449687277
 30
0.0
 40
3.0
 50
0.0
 51
90.0
  0
ARC
  5
6DF
  8
DATA
  6
CONTINUOUS
 62
     7
 10
537.16461693908525
 20
-390.85538449687277
 30
0.0
 40
3.0
 50
180.0
 51
270.0
  0
ARC
  5
6E0
  8
DATA
  6
CONTINUOUS
 62
     7
 10
614.16461693908525
 20
-390.85538449687277
 30
0.0
 40
3.0
 50
270.0
 51
0.0
  0
CIRCLE
  5
6E1
  8
DATA
  6
CONTINUOUS
 62
     7
 10
543.01538533586324
 20
-379.38615349687331
 30
0.0
 40
2.75
  0
CIRCLE
  5
6E2
  8
DATA
  6
CONTINUOUS
 62
     7
 10
560.25384696086314
 20
-379.38615349687331
 30
0.0
 40
2.75
  0
CIRCLE
  5
6E3
  8
DATA
  6
CONTINUOUS
 62
     7
 10
577.49230858586316
 20
-379.38615349687331
 30
0.0
 40
2.75
  0
TEXT
  5
6E4
  8
DATA
 62
     7
 10
570.96755131727105
 20
-368.49475446557938
 30
0.0
 40
3.4748614735674201
  1
RMC
 41
0.7
 11
570.96755131727105
 21
-365.01989299201188
 31
0.0
 73
     3
  0
LINE
  5
6E5
  8
DATA
  6
CONTINUOUS
 62
     7
 10
537.16461693908525
 20
-366.85538449687277
 30
0.0
 11
566.05056110334465
 21
-366.85538449687277
 31
0.0
  0
LINE
  5
6E6
  8
DATA
  6
CONTINUOUS
 62
     7
 10
614.16461693908525
 20
-366.85538449687277
 30
0.0
 11
584.60000000000002
 21
-366.85538449687277
 31
0.0
  0
TEXT
  5
6E7
  8
DATA
 62
     7
 10
649.30411101623918
 20
-388.83660453578972
 30
0.0
 40
2.0849168841404522
  1
100V～/240V～、50/60Hz 
 41
0.7
 11
649.30411101623918
 21
-386.75168765164932
 31
0.0
 73
     3
  0
TEXT
  5
6E8
  8
DATA
 62
     7
 10
658.78139812153654
 20
-392.28316132468359
 30
0.0
 40
2.0849168841404522
  1
178Watts
 41
0.7
 11
658.78139812153654
 21
-390.19824444054319
 31
0.0
 73
     3
  0
LINE
  5
6E9
  8
DATA
  6
CONTINUOUS
 62
     7
 10
625.19692422497576
 20
-376.0066988242977
 30
0.0
 11
632.19692422497587
 21
-376.0066988242977
 31
0.0
  0
POLYLINE
  5
6EA
  8
DATA
  6
CONTINUOUS
 62
     7
 66
     1
 10
0.0
 20
0.0
 30
0.0
 70
     1
  0
VERTEX
  5
B3C
  8
DATA
  6
CONTINUOUS
 62
     7
 10
626.94692422497576
 20
-374.5066988242977
 30
0.0
  0
VERTEX
  5
B3D
  8
DATA
  6
CONTINUOUS
 62
     7
 10
630.44692422497587
 20
-374.5066988242977
 30
0.0
  0
VERTEX
  5
B3E
  8
DATA
  6
CONTINUOUS
 62
     7
 10
630.44692422497587
 20
-376.0066988242977
 30
0.0
  0
VERTEX
  5
B3F
  8
DATA
  6
CONTINUOUS
 62
     7
 10
626.94692422497576
 20
-376.0066988242977
 30
0.0
  0
SEQEND
  5
B40
  8
DATA
  6
CONTINUOUS
 62
     7
  0
TEXT
  5
6F1
  8
DATA
 62
     7
 10
633.55174790824583
 20
-375.96260281623501
 30
0.0
 40
2.0849168841404522
  1
0
 41
0.7
 11
633.55174790824583
 21
-373.87768593209449
 31
0.0
 73
     3
  0
LINE
  5
6F2
  8
DATA
  6
CONTINUOUS
 62
     7
 10
625.19692422497576
 20
-371.90693645762173
 30
0.0
 11
632.19692422497587
 21
-371.90693645762173
 31
0.0
  0
POLYLINE
  5
6F3
  8
DATA
  6
CONTINUOUS
 62
     7
 66
     1
 10
0.0
 20
0.0
 30
0.0
 70
     1
  0
VERTEX
  5
B41
  8
DATA
  6
CONTINUOUS
 62
     7
 10
626.94692422497576
 20
-371.40693645762173
 30
0.0
  0
VERTEX
  5
B42
  8
DATA
  6
CONTINUOUS
 62
     7
 10
630.44692422497587
 20
-371.40693645762173
 30
0.0
  0
VERTEX
  5
B43
  8
DATA
  6
CONTINUOUS
 62
     7
 10
630.44692422497587
 20
-371.90693645762173
 30
0.0
  0
VERTEX
  5
B44
  8
DATA
  6
CONTINUOUS
 62
     7
 10
626.94692422497576
 20
-371.90693645762173
 30
0.0
  0
SEQEND
  5
B45
  8
DATA
  6
CONTINUOUS
 62
     7
  0
TEXT
  5
6FA
  8
DATA
 62
     7
 10
633.81767324748046
 20
-371.86284044955892
 30
0.0
 40
2.0849168841404522
  1
I
 41
0.7
 11
633.81767324748046
 21
-369.7779235654184
 31
0.0
 73
     3
  0
TEXT
  5
6FB
  8
DATA
 62
     7
 10
604.70414837255157
 20
-373.11456132737572
 30
0.0
 40
2.0849168841404522
  1
Remote
 41
0.7
 11
604.70414837255157
 21
-371.02964444323533
 31
0.0
 73
     3
  0
TEXT
  5
6FC
  8
DATA
 62
     7
 10
605.40116294583686
 20
-375.73177132856279
 30
0.0
 40
2.0849168841404522
  1
Switch
 41
0.7
 11
605.40116294583686
 21
-373.64685444442239
 31
0.0
 73
     3
  0
LINE
  5
6FD
  8
DATA
  6
CONTINUOUS
 62
     7
 10
595.91469177045747
 20
-392.46036907399201
 30
0.0
 11
600.46469177045753
 21
-392.46036907399201
 31
0.0
  0
POLYLINE
  5
6FE
  8
DATA
  6
CONTINUOUS
 62
     7
 66
     1
 10
0.0
 20
0.0
 30
0.0
 70
     1
  0
VERTEX
  5
B46
  8
DATA
  6
CONTINUOUS
 62
     7
 10
597.05219177045751
 20
-391.48536907399199
 30
0.0
  0
VERTEX
  5
B47
  8
DATA
  6
CONTINUOUS
 62
     7
 10
599.32719177045749
 20
-391.48536907399199
 30
0.0
  0
VERTEX
  5
B48
  8
DATA
  6
CONTINUOUS
 62
     7
 10
599.32719177045749
 20
-392.46036907399201
 30
0.0
  0
VERTEX
  5
B49
  8
DATA
  6
CONTINUOUS
 62
     7
 10
597.05219177045751
 20
-392.46036907399201
 30
0.0
  0
SEQEND
  5
B4A
  8
DATA
  6
CONTINUOUS
 62
     7
  0
TEXT
  5
705
  8
DATA
 62
     7
 10
601.34532716458318
 20
-392.43170666875108
 30
0.0
 40
1.3551959746912929
  1
0
 41
0.7
 11
601.34532716458318
 21
-391.07651069405989
 31
0.0
 73
     3
  0
LINE
  5
706
  8
DATA
  6
CONTINUOUS
 62
     7
 10
595.91469177045747
 20
-389.79552353565248
 30
0.0
 11
600.46469177045753
 21
-389.79552353565248
 31
0.0
  0
POLYLINE
  5
707
  8
DATA
  6
CONTINUOUS
 62
     7
 66
     1
 10
0.0
 20
0.0
 30
0.0
 70
     1
  0
VERTEX
  5
B4B
  8
DATA
  6
CONTINUOUS
 62
     7
 10
597.05219177045751
 20
-389.47052353565249
 30
0.0
  0
VERTEX
  5
B4C
  8
DATA
  6
CONTINUOUS
 62
     7
 10
599.32719177045749
 20
-389.47052353565249
 30
0.0
  0
VERTEX
  5
B4D
  8
DATA
  6
CONTINUOUS
 62
     7
 10
599.32719177045749
 20
-389.79552353565248
 30
0.0
  0
VERTEX
  5
B4E
  8
DATA
  6
CONTINUOUS
 62
     7
 10
597.05219177045751
 20
-389.79552353565248
 30
0.0
  0
SEQEND
  5
B4F
  8
DATA
  6
CONTINUOUS
 62
     7
  0
TEXT
  5
70E
  8
DATA
 62
     7
 10
601.51817863508552
 20
-389.76686113041171
 30
0.0
 40
1.3551959746912929
  1
I
 41
0.7
 11
601.51817863508552
 21
-388.41166515572041
 31
0.0
 73
     3
  0
TEXT
  5
70F
  8
DATA
 62
     7
 10
594.80400213601604
 20
-381.4921163670661
 30
0.0
 40
2.0849168841404522
  1
Switch
 41
0.7
 11
594.80400213601604
 21
-379.40719948292571
 31
0.0
 73
     3
  0
TEXT
  5
710
  8
DATA
 62
     7
 10
594.80400213601604
 20
-378.7124321221533
 30
0.0
 40
2.0849168841404522
  1
Enable
 41
0.7
 11
594.80400213601604
 21
-376.62751523801279
 31
0.0
 73
     3
  0
TEXT
  5
711
  8
DATA
 62
     7
 10
573.83452411074506
 20
-374.6300269098075
 30
0.0
 40
2.0849168841404522
  1
Depth
 41
0.7
 11
573.83452411074506
 21
-372.54511002566699
 31
0.0
 73
     3
  0
TEXT
  5
712
  8
DATA
 62
     7
 10
555.05609674334755
 20
-374.6300269098075
 30
0.0
 40
2.0849168841404522
  1
Fieguency
 41
0.7
 11
555.05609674334755
 21
-372.54511002566699
 31
0.0
 73
     3
  0
TEXT
  5
713
  8
DATA
 62
     7
 10
539.52745517651181
 20
-374.6300269098075
 30
0.0
 40
2.0849168841404522
  1
Width
 41
0.7
 11
539.52745517651181
 21
-372.54511002566699
 31
0.0
 73
     3
  0
LINE
  5
714
  8
DATA
  6
CONTINUOUS
 62
     7
 10
544.98979579670549
 20
-377.41174303603088
 30
0.0
 11
541.07084168760025
 21
-381.33069714513618
 31
0.0
  0
LINE
  5
715
  8
DATA
  6
CONTINUOUS
 62
     7
 10
562.22979579670562
 20
-377.41174303603088
 30
0.0
 11
558.31084168760037
 21
-381.33069714513618
 31
0.0
  0
LINE
  5
716
  8
DATA
  6
CONTINUOUS
 62
     7
 10
579.46979579670563
 20
-377.41174303603088
 30
0.0
 11
575.55084168760027
 21
-381.33069714513618
 31
0.0
  0
CIRCLE
  5
717
  8
DATA
  6
CONTINUOUS
 62
     7
 10
598.43384714997592
 20
-384.67261505804248
 30
0.0
 40
1.953336563227706
  0
TEXT
  5
718
  8
DATA
 62
     7
 10
585.88759162651775
 20
-381.23002690980741
 30
0.0
 40
2.0849168841404522
  1
Active
 41
0.7
 11
585.88759162651775
 21
-379.1451100256669
 31
0.0
 73
     3
  0
TEXT
  5
719
  8
DATA
 62
     7
 10
574.11432608818575
 20
-384.32499889115411
 30
0.0
 40
1.6679335073123609
  1
0
 41
0.7
 11
574.11432608818575
 21
-382.65706538384183
 31
0.0
 73
     3
  0
TEXT
  5
71A
  8
DATA
 62
     7
 10
578.67156247325488
 20
-384.32499889115411
 30
0.0
 40
1.6679335073123609
  1
-14
 41
0.7
 11
578.67156247325488
 21
-382.65706538384183
 31
0.0
 73
     3
  0
TEXT
  5
71B
  8
DATA
 62
     7
 10
579.35834984697544
 20
-386.24896695793541
 30
0.0
 40
1.6679335073123609
  1
dB
 41
0.7
 11
579.35834984697544
 21
-384.58103345062312
 31
0.0
 73
     3
  0
TEXT
  5
71C
  8
DATA
 62
     7
 10
561.81736998996087
 20
-384.32499889115411
 30
0.0
 40
1.6679335073123609
  1
96
 41
0.7
 11
561.81736998996087
 21
-382.65706538384183
 31
0.0
 73
     3
  0
TEXT
  5
71D
  8
DATA
 62
     7
 10
561.80084297346662
 20
-386.24896695793541
 30
0.0
 40
1.6679335073123609
  1
dB
 41
0.7
 11
561.80084297346662
 21
-384.58103345062312
 31
0.0
 73
     3
  0
TEXT
  5
71E
  8
DATA
 62
     7
 10
556.88773846012748
 20
-384.32499889115411
 30
0.0
 40
1.6679335073123609
  1
24
 41
0.7
 11
556.88773846012748
 21
-382.65706538384183
 31
0.0
 73
     3
  0
TEXT
  5
71F
  8
DATA
 62
     7
 10
556.87121144363323
 20
-386.24896695793541
 30
0.0
 40
1.6679335073123609
  1
dB
 41
0.7
 11
556.87121144363323
 21
-384.58103345062312
 31
0.0
 73
     3
  0
ARC
  5
720
  8
DATA
  6
CONTINUOUS
 62
     7
 10
469.83023124535691
 20
-375.5115110321409
 30
0.0
 40
11.74999999999844
 50
102.85215351994439
 51
77.745103629678596
  0
CIRCLE
  5
721
  8
DATA
  6
CONTINUOUS
 62
     7
 10
469.83023124535731
 20
-375.51151103214238
 30
0.0
 40
10.0
  0
CIRCLE
  5
722
  8
DATA
  6
CONTINUOUS
 62
     7
 10
469.835384724976
 20
-375.35538449687277
 30
0.0
 40
8.0
  0
CIRCLE
  5
723
  8
DATA
  6
CONTINUOUS
 62
     7
 10
460.80707723086311
 20
-362.70953802598598
 30
0.0
 40
1.647230777499999
  0
LINE
  5
724
  8
DATA
  6
CONTINUOUS
 62
     7
 10
460.80707723086311
 20
-363.54034037172778
 30
0.0
 11
460.80707723086311
 21
-361.87873568024418
 31
0.0
  0
LINE
  5
725
  8
DATA
  6
CONTINUOUS
 62
     7
 10
459.97627488512143
 20
-362.70953802598598
 30
0.0
 11
461.63787957660492
 21
-362.70953802598598
 31
0.0
  0
CIRCLE
  5
726
  8
DATA
  6
CONTINUOUS
 62
     7
 10
480.93138501908862
 20
-385.8473842959861
 30
0.0
 40
1.647230777499999
  0
LINE
  5
727
  8
DATA
  6
CONTINUOUS
 62
     7
 10
480.93138501908862
 20
-386.67818664172802
 30
0.0
 11
480.93138501908862
 21
-385.01658195024442
 31
0.0
  0
LINE
  5
728
  8
DATA
  6
CONTINUOUS
 62
     7
 10
480.10058267334671
 20
-385.8473842959861
 30
0.0
 11
481.76218736483042
 21
-385.8473842959861
 31
0.0
  0
CIRCLE
  5
729
  8
DATA
  6
CONTINUOUS
 62
     7
 10
449.161538710863
 20
-382.4507688968734
 30
0.0
 40
5.0
  0
CIRCLE
  5
72A
  8
DATA
  6
CONTINUOUS
 62
     7
 10
492.066154310863
 20
-382.4507688968734
 30
0.0
 40
5.0
  0
CIRCLE
  5
72B
  8
DATA
  6
CONTINUOUS
 62
     7
 10
526.54307756086303
 20
-382.4507688968734
 30
0.0
 40
5.0
  0
TEXT
  5
72C
  8
DATA
 62
     7
 10
464.54070043959717
 20
-393.40817701068642
 30
0.0
 40
3.4748614735674201
  1
Input
 41
0.7
 11
464.54070043959717
 21
-389.93331553711892
 31
0.0
 73
     3
  0
TEXT
  5
72D
  8
DATA
 62
     7
 10
501.80546610305231
 20
-376.41726312029198
 30
0.0
 40
2.0015202087748332
  1
Option Active
 41
0.7
 11
501.80546610305231
 21
-374.41574291151721
 31
0.0
 73
     3
  0
TEXT
  5
72E
  8
DATA
 62
     7
 10
500.93717845597018
 20
-379.21969459091508
 30
0.0
 40
2.0015202087748332
  1
With Switch Up
 41
0.7
 11
500.93717845597018
 21
-377.21817438214021
 31
0.0
 73
     3
  0
TEXT
  5
72F
  8
DATA
 62
     7
 10
490.09420677125331
 20
-373.0068704636796
 30
0.0
 40
1.6679335073123609
  1
Input
 41
0.7
 11
490.09420677125331
 21
-371.33893695636721
 31
0.0
 73
     3
  0
TEXT
  5
730
  8
DATA
 62
     7
 10
490.09420677125331
 20
-375.57838110554428
 30
0.0
 40
1.6679335073123609
  1
Trim
 41
0.7
 11
490.09420677125331
 21
-373.91044759823188
 31
0.0
 73
     3
  0
TEXT
  5
731
  8
DATA
 62
     7
 10
495.9862313777237
 20
-388.87005626356319
 30
0.0
 40
1.6679335073123609
  1
0
 41
0.7
 11
495.9862313777237
 21
-387.2021227562509
 31
0.0
 73
     3
  0
TEXT
  5
732
  8
DATA
 62
     7
 10
495.00000000000011
 20
-391.11725911742099
 30
0.0
 40
1.6679335073123609
  1
dB
 41
0.7
 11
495.00000000000011
 21
-389.4493256101087
 31
0.0
 73
     3
  0
TEXT
  5
733
  8
DATA
 62
     7
 10
486.1313217547675
 20
-389.4364249756112
 30
0.0
 40
1.6679335073123609
  1
Cut
 41
0.7
 11
486.1313217547675
 21
-387.76849146829892
 31
0.0
 73
     3
  0
TEXT
  5
734
  8
DATA
 62
     7
 10
500.03770561739782
 20
-387.3026153702379
 30
0.0
 40
1.084156779753034
  1
1
 41
0.7
 11
500.03770561739782
 21
-386.21845859048477
 31
0.0
 73
     3
  0
TEXT
  5
735
  8
DATA
 62
     7
 10
502.58770561739777
 20
-387.3026153702379
 30
0.0
 40
1.084156779753034
  1
2
 41
0.7
 11
502.58770561739777
 21
-386.21845859048477
 31
0.0
 73
     3
  0
TEXT
  5
736
  8
DATA
 62
     7
 10
505.13770561739778
 20
-387.3026153702379
 30
0.0
 40
1.084156779753034
  1
3
 41
0.7
 11
505.13770561739778
 21
-386.21845859048477
 31
0.0
 73
     3
  0
TEXT
  5
737
  8
DATA
 62
     7
 10
507.6877056173978
 20
-387.3026153702379
 30
0.0
 40
1.084156779753034
  1
4
 41
0.7
 11
507.6877056173978
 21
-386.21845859048477
 31
0.0
 73
     3
  0
TEXT
  5
738
  8
DATA
 62
     7
 10
510.23770561739781
 20
-387.3026153702379
 30
0.0
 40
1.084156779753034
  1
5
 41
0.7
 11
510.23770561739781
 21
-386.21845859048477
 31
0.0
 73
     3
  0
TEXT
  5
739
  8
DATA
 62
     7
 10
512.78770561739793
 20
-387.3026153702379
 30
0.0
 40
1.084156779753034
  1
6
 41
0.7
 11
512.78770561739793
 21
-386.21845859048477
 31
0.0
 73
     3
  0
TEXT
  5
73A
  8
DATA
 62
     7
 10
515.33770561739789
 20
-387.3026153702379
 30
0.0
 40
1.084156779753034
  1
7
 41
0.7
 11
515.33770561739789
 21
-386.21845859048477
 31
0.0
 73
     3
  0
TEXT
  5
73B
  8
DATA
 62
     7
 10
517.88770561739773
 20
-387.3026153702379
 30
0.0
 40
1.084156779753034
  1
8
 41
0.7
 11
517.88770561739773
 21
-386.21845859048477
 31
0.0
 73
     3
  0
LINE
  5
73C
  8
DATA
  6
CONTINUOUS
 62
     7
 10
500.44276973497591
 20
-387.98436159459561
 30
0.0
 11
500.44276973497591
 21
-405.24164427437
 31
0.0
  0
LINE
  5
73D
  8
DATA
  6
CONTINUOUS
 62
     7
 10
502.99661590291947
 20
-387.98436159459561
 30
0.0
 11
502.99661590291947
 21
-407.83164427436992
 31
0.0
  0
LINE
  5
73E
  8
DATA
  6
CONTINUOUS
 62
     7
 10
505.5504620670323
 20
-387.98436159459561
 30
0.0
 11
505.5504620670323
 21
-410.42164427437001
 31
0.0
  0
LINE
  5
73F
  8
DATA
  6
CONTINUOUS
 62
     7
 10
508.10430823497597
 20
-387.98436159459561
 30
0.0
 11
508.10430823497597
 21
-413.01164427436998
 31
0.0
  0
LINE
  5
740
  8
DATA
  6
CONTINUOUS
 62
     7
 10
510.65815440291971
 20
-387.98436159459561
 30
0.0
 11
510.65815440291971
 21
-413.01164427436998
 31
0.0
  0
LINE
  5
741
  8
DATA
  6
CONTINUOUS
 62
     7
 10
513.21200056703242
 20
-387.98436159459561
 30
0.0
 11
513.21200056703242
 21
-410.42164427437001
 31
0.0
  0
LINE
  5
742
  8
DATA
  6
CONTINUOUS
 62
     7
 10
515.76584673497609
 20
-387.98436159459561
 30
0.0
 11
515.78408593166876
 21
-407.83164427436992
 31
0.0
  0
LINE
  5
743
  8
DATA
  6
CONTINUOUS
 62
     7
 10
518.31969290291943
 20
-387.98436159459561
 30
0.0
 11
518.31969290291943
 21
-405.24164427437
 31
0.0
  0
LINE
  5
744
  8
DATA
  6
CONTINUOUS
 62
     7
 10
494.44276973497591
 20
-413.01164427436998
 30
0.0
 11
508.10430823497597
 21
-413.01164427436998
 31
0.0
  0
LINE
  5
745
  8
DATA
  6
CONTINUOUS
 62
     7
 10
510.65815440291971
 20
-413.01164427436998
 30
0.0
 11
524.31969290291943
 21
-413.01164427436998
 31
0.0
  0
LINE
  5
746
  8
DATA
  6
CONTINUOUS
 62
     7
 10
494.44276973497591
 20
-413.01164427436998
 30
0.0
 11
508.10430823497597
 21
-413.01164427436998
 31
0.0
  0
LINE
  5
747
  8
DATA
  6
CONTINUOUS
 62
     7
 10
494.44276973497591
 20
-410.42164427437001
 30
0.0
 11
505.5504620670323
 21
-410.42164427437001
 31
0.0
  0
LINE
  5
748
  8
DATA
  6
CONTINUOUS
 62
     7
 10
494.44276973497591
 20
-407.83164427436992
 30
0.0
 11
502.99661590291947
 21
-407.83164427436992
 31
0.0
  0
LINE
  5
749
  8
DATA
  6
CONTINUOUS
 62
     7
 10
494.44276973497591
 20
-405.24164427437
 30
0.0
 11
500.44276973497591
 21
-405.24164427437
 31
0.0
  0
LINE
  5
74A
  8
DATA
  6
CONTINUOUS
 62
     7
 10
510.65815440291971
 20
-413.01164427436998
 30
0.0
 11
524.31969290291943
 21
-413.01164427436998
 31
0.0
  0
LINE
  5
74B
  8
DATA
  6
CONTINUOUS
 62
     7
 10
513.21200056703242
 20
-410.42164427437001
 30
0.0
 11
524.31969290291943
 21
-410.42164427437001
 31
0.0
  0
LINE
  5
74C
  8
DATA
  6
CONTINUOUS
 62
     7
 10
515.78408593166876
 20
-407.83164427436992
 30
0.0
 11
524.31969290291943
 21
-407.83164427436992
 31
0.0
  0
LINE
  5
74D
  8
DATA
  6
CONTINUOUS
 62
     7
 10
518.31969290291943
 20
-405.24164427437
 30
0.0
 11
524.31969290291943
 21
-405.24164427437
 31
0.0
  0
TEXT
  5
74E
  8
DATA
 62
     7
 10
525.30000000000007
 20
-405.2959326476186
 30
0.0
 40
2.1717881944444439
  1
HF Level+1dB(2kHz-20kHz)
 41
0.7
 11
525.30000000000007
 21
-403.12414445317421
 31
0.0
 73
     3
  0
TEXT
  5
74F
  8
DATA
 62
     7
 10
525.30000000000007
 20
-408.88498911110509
 30
0.0
 40
2.1717881944444439
  1
HF Levelー1dB(2kHz-20kHz)
 41
0.7
 11
525.30000000000007
 21
-406.71320091666058
 31
0.0
 73
     3
  0
TEXT
  5
750
  8
DATA
 62
     7
 10
525.30000000000007
 20
-411.47498911110517
 30
0.0
 40
2.1717881944444439
  1
ー3.0ｄB
 41
0.7
 11
525.30000000000007
 21
-409.30320091666073
 31
0.0
 73
     3
  0
TEXT
  5
751
  8
DATA
 62
     7
 10
525.30000000000007
 20
-414.25867525779728
 30
0.0
 40
2.1717881944444439
  1
ー1.5ｄB
 41
0.7
 11
525.30000000000007
 21
-412.08688706335278
 31
0.0
 73
     3
  0
LINE
  5
752
  8
DATA
  6
CONTINUOUS
 62
     7
 10
535.96762757401905
 20
-410.53187329920178
 30
0.0
 11
538.59262757401916
 21
-410.53187329920178
 31
0.0
  0
LINE
  5
753
  8
DATA
  6
CONTINUOUS
 62
     7
 10
538.59262757401916
 20
-410.53187329920178
 30
0.0
 11
538.59262757401916
 21
-413.34042837579523
 31
0.0
  0
LINE
  5
754
  8
DATA
  6
CONTINUOUS
 62
     7
 10
535.96762757401905
 20
-413.34042837579523
 30
0.0
 11
538.59262757401916
 21
-413.34042837579523
 31
0.0
  0
TEXT
  5
755
  8
DATA
 62
     7
 10
538.88356924551374
 20
-412.88081764787921
 30
0.0
 40
2.1717881944444439
  1
ー4.5dB LF Boundary Comp
 41
0.7
 11
538.88356924551374
 21
-410.70902945343482
 31
0.0
 73
     3
  0
TEXT
  5
756
  8
DATA
 62
     7
 10
471.96115486289528
 20
-405.50114655429752
 30
0.0
 40
2.1717881944444439
  1
Input Trim Active
 41
0.7
 11
471.96115486289528
 21
-403.32935835985302
 31
0.0
 73
     3
  0
TEXT
  5
757
  8
DATA
 62
     7
 10
462.25719729217178
 20
-408.42121972267608
 30
0.0
 40
2.1717881944444439
  1
+ 4dBu　Input Sensitivity
 41
0.7
 11
462.25719729217178
 21
-406.2494315282317
 31
0.0
 73
     3
  0
TEXT
  5
758
  8
DATA
 62
     7
 10
462.35064512298868
 20
-411.18412850518752
 30
0.0
 40
2.1717881944444439
  1
+ 8dBu　Input Sensitivity
 41
0.7
 11
462.35064512298868
 21
-409.01234031074313
 31
0.0
 73
     3
  0
TEXT
  5
759
  8
DATA
 62
     7
 10
473.5249648067479
 20
-414.21461797357188
 30
0.0
 40
2.1717881944444439
  1
VLF Protect Off
 41
0.7
 11
473.5249648067479
 21
-412.04282977912737
 31
0.0
 73
     3
  0
ARC
  5
75A
  8
DATA
  6
CONTINUOUS
 62
     7
 10
536.55214285713987
 20
-386.17071428581568
 30
0.0
 40
3.691167753947155
 50
10.62714732437326
 51
37.768016094671623
  0
ARC
  5
75B
  8
DATA
  6
CONTINUOUS
 62
     7
 10
543.80785714286026
 20
-386.17071428581568
 30
0.0
 40
3.691167753947175
 50
142.23198390532841
 51
169.37285267562669
  0
LINE
  5
75C
  8
DATA
  6
CONTINUOUS
 62
     7
 10
544.75999999999999
 20
-383.93000000009999
 30
0.0
 11
544.75999999999999
 21
-384.88026567398202
 31
0.0
  0
LINE
  5
75D
  8
DATA
  6
CONTINUOUS
 62
     7
 10
545.75999999999999
 20
-383.93000000009999
 30
0.0
 11
545.75999999999999
 21
-384.88026567398202
 31
0.0
  0
ARC
  5
75E
  8
DATA
  6
CONTINUOUS
 62
     7
 10
545.26000000745057
 20
-384.88026567398202
 30
0.0
 40
0.5000000074505806
 50
180.0
 51
270.0
  0
ARC
  5
75F
  8
DATA
  6
CONTINUOUS
 62
     7
 10
545.25999999254941
 20
-384.88026567398202
 30
0.0
 40
0.5000000074505806
 50
270.0
 51
0.0
  0
LINE
  5
760
  8
DATA
  6
CONTINUOUS
 62
     7
 10
495.60168821679571
 20
-378.91523499094058
 30
0.0
 11
488.51421281540399
 21
-385.96981871363317
 31
0.0
  0
ARC
  5
761
  8
DATA
  6
CONTINUOUS
 62
     7
 10
306.06820292235051
 20
-91.930259712855431
 30
0.0
 40
1.511582924098879
 50
39.372509591133444
 51
74.917159448633782
  0
ARC
  5
762
  8
DATA
  6
CONTINUOUS
 62
     7
 10
303.48340920472469
 20
-93.886319911083675
 30
0.0
 40
4.7522853064743318
 50
19.059581001038069
 51
37.834160365767758
  0
ARC
  5
763
  8
DATA
  6
CONTINUOUS
 62
     7
 10
285.66935479669621
 20
-100.4894285807184
 30
0.0
 40
23.749801357793292
 50
10.738478364408749
 51
20.082336210153692
  0
ARC
  5
764
  8
DATA
  6
CONTINUOUS
 62
     7
 10
248.19912534146519
 20
-107.5247685164745
 30
0.0
 40
61.874757046206952
 50
3.718966434184984
 51
10.67406666507002
  0
ARC
  5
765
  8
DATA
  6
CONTINUOUS
 62
     7
 10
197.59048566353951
 20
-109.88350265028031
 30
0.0
 40
112.533652221564
 50
358.57622370742922
 51
3.2460467057036908
  0
LINE
  5
766
  8
DATA
  6
CONTINUOUS
 62
     7
 10
310.08939480484838
 20
-112.6796293175537
 30
0.0
 11
310.08939480484838
 21
-279.51799914937232
 31
0.0
  0
ARC
  5
767
  8
DATA
  6
CONTINUOUS
 62
     7
 10
226.78445193437469
 20
-280.8825183669228
 30
0.0
 40
83.316117404425185
 50
358.29151577928837
 51
0.9384101195424817
  0
ARC
  5
768
  8
DATA
  6
CONTINUOUS
 62
     7
 10
279.79710446462758
 20
-284.2866205154769
 30
0.0
 40
30.161969942698988
 50
345.79167519384072
 51
354.1696112610914
  0
ARC
  5
769
  8
DATA
  6
CONTINUOUS
 62
     7
 10
251.26077128885001
 20
-278.65934702218732
 30
0.0
 40
59.226833473370249
 50
343.93559653579712
 51
347.29039922154618
  0
ARC
  5
76A
  8
DATA
  6
CONTINUOUS
 62
     7
 10
300.64048731576628
 20
-292.68863773665049
 30
0.0
 40
7.8952962478551418
 50
329.8427446604569
 51
342.60907864660658
  0
ARC
  5
76B
  8
DATA
  6
CONTINUOUS
 62
     7
 10
306.0883247909606
 20
-295.99396601088972
 30
0.0
 40
1.529112511108764
 50
299.38094290245488
 51
334.38488902376588
  0
ARC
  5
76C
  8
DATA
  6
CONTINUOUS
 62
     7
 10
306.19785646944803
 20
-296.09135158850478
 30
0.0
 40
1.3913318797675081
 50
281.28918846308068
 51
297.41770267375892
  0
ARC
  5
76D
  8
DATA
  6
CONTINUOUS
 62
     7
 10
306.3031050748848
 20
-87.149011537060986
 30
0.0
 40
1.380533423074298
 50
40.763327506094242
 51
83.125989180845963
  0
ARC
  5
76E
  8
DATA
  6
CONTINUOUS
 62
     7
 10
303.50502539948587
 20
-89.642795906653248
 30
0.0
 40
5.1284902370563454
 50
20.276115942575021
 51
41.454427544771541
  0
ARC
  5
76F
  8
DATA
  6
CONTINUOUS
 62
     7
 10
283.33761186405542
 20
-98.183022717398956
 30
0.0
 40
27.02510458983334
 50
15.64110411289132
 51
22.443601168564729
  0
ARC
  5
770
  8
DATA
  6
CONTINUOUS
 62
     7
 10
262.85409090594197
 20
-102.9969447140049
 30
0.0
 40
48.056178488589183
 50
10.228353219944101
 51
14.58360201715699
  0
ARC
  5
771
  8
DATA
  6
CONTINUOUS
 62
     7
 10
224.68408141017991
 20
-110.56471826015419
 30
0.0
 40
86.965985292078244
 50
8.2603908828756012
 51
10.66950329005755
  0
ARC
  5
772
  8
DATA
  6
CONTINUOUS
 62
     7
 10
240.2175924023997
 20
-107.5276643044463
 30
0.0
 40
71.161496532601376
 50
1.7133545849869869
 51
7.6373416003717818
  0
ARC
  5
773
  8
DATA
  6
CONTINUOUS
 62
     7
 10
-115.706648557471
 20
-112.8419162072003
 30
0.0
 40
427.1187597927227
 50
359.65794854657622
 51
0.9983464273717572
  0
ARC
  5
774
  8
DATA
  6
CONTINUOUS
 62
     7
 10
306.28481146548768
 20
-303.45754321943758
 30
0.0
 40
1.5096122051351279
 50
276.7229664212278
 51
312.59111639933309
  0
ARC
  5
775
  8
DATA
  6
CONTINUOUS
 62
     7
 10
305.12795529422209
 20
-302.23525595615331
 30
0.0
 40
3.1924725435015069
 50
313.0305116189989
 51
327.71051858916002
  0
ARC
  5
776
  8
DATA
  6
CONTINUOUS
 62
     7
 10
301.34615414055258
 20
-299.61194835294378
 30
0.0
 40
7.7933198429351318
 50
326.25901082611159
 51
340.4654852362662
  0
ARC
  5
777
  8
DATA
  6
CONTINUOUS
 62
     7
 10
274.21914327624489
 20
-289.02846359542298
 30
0.0
 40
36.908820773500629
 50
339.06245034466667
 51
346.69767206092968
  0
ARC
  5
778
  8
DATA
  6
CONTINUOUS
 62
     7
 10
188.64394549313741
 20
-270.15026287691688
 30
0.0
 40
124.53864394919211
 50
347.30416116970417
 51
352.11755549327972
  0
ARC
  5
779
  8
DATA
  6
CONTINUOUS
 62
     7
 10
306.2934802387739
 20
-84.253720640140614
 30
0.0
 40
1.293157648260939
 50
60.772233946456389
 51
82.53267474083097
  0
ARC
  5
77A
  8
DATA
  6
CONTINUOUS
 62
     7
 10
305.43439237086062
 20
-85.754201366767106
 30
0.0
 40
3.022131307074162
 50
45.637079419415713
 51
60.448892951050787
  0
ARC
  5
77B
  8
DATA
  6
CONTINUOUS
 62
     7
 10
304.99032940019362
 20
-86.11145395210211
 30
0.0
 40
3.58866768731757
 50
28.198622754075259
 51
44.556444246939229
  0
ARC
  5
77C
  8
DATA
  6
CONTINUOUS
 62
     7
 10
292.5818266675023
 20
-92.241417827844984
 30
0.0
 40
17.427151513247679
 50
14.925988887883239
 51
26.682944737614179
  0
ARC
  5
77D
  8
DATA
  6
CONTINUOUS
 62
     7
 10
268.51396622964478
 20
-100.26026491733479
 30
0.0
 40
42.776428607698037
 50
12.741645904948349
 51
17.001345220150458
  0
ARC
  5
77E
  8
DATA
  6
CONTINUOUS
 62
     7
 10
209.50569155729821
 20
-113.43880733894591
 30
0.0
 40
103.23831558876211
 50
10.225847891857841
 51
12.65253238202015
  0
ARC
  5
77F
  8
DATA
  6
CONTINUOUS
 62
     7
 10
190.3676432662985
 20
-117.3720219163465
 30
0.0
 40
122.77153827437689
 50
7.2892646944047668
 51
10.44667715936642
  0
ARC
  5
780
  8
DATA
  6
CONTINUOUS
 62
     7
 10
233.7561909227953
 20
-112.20366447522029
 30
0.0
 40
79.078797792715477
 50
2.7494964252987808
 51
7.5635021517220107
  0
LINE
  5
781
  8
DATA
  6
CONTINUOUS
 62
     7
 10
311.40120463249292
 20
-109.78958753325659
 30
0.0
 11
311.40450000295789
 21
-110.97276073558059
 31
0.0
  0
ARC
  5
782
  8
DATA
  6
CONTINUOUS
 62
     7
 10
247.84995470082399
 20
-281.29942970716172
 30
0.0
 40
62.247907992288873
 50
354.42142717810759
 51
358.09700116475119
  0
LINE
  5
783
  8
DATA
  6
CONTINUOUS
 62
     7
 10
312.87364778768722
 20
-280.44487560479462
 30
0.0
 11
312.58788558978563
 21
-282.44083198323102
 31
0.0
  0
LINE
  5
784
  8
DATA
  6
CONTINUOUS
 62
     7
 10
463.25661557408881
 20
-298.38209582547569
 30
0.0
 11
463.25661557408881
 21
-89.544330520790268
 31
0.0
  0
LINE
  5
785
  8
DATA
  6
CONTINUOUS
 62
     7
 10
470.05661557408871
 20
-302.83621504256132
 30
0.0
 11
470.05661557408871
 21
-85.084373376956947
 31
0.0
  0
LINE
  5
786
  8
DATA
  6
CONTINUOUS
 62
     7
 10
472.55661557408882
 20
-303.79895008042882
 30
0.0
 11
472.55661557408882
 21
-84.119463537093509
 31
0.0
  0
LINE
  5
787
  8
DATA
  6
CONTINUOUS
 62
     7
 10
479.30661557408882
 20
-304.95677503829069
 30
0.0
 11
479.30661557408882
 21
-82.882080260349582
 31
0.0
  0
LINE
  5
788
  8
DATA
  6
CONTINUOUS
 62
     7
 10
481.80661557408882
 20
-304.95677503829069
 30
0.0
 11
481.80661557408882
 21
-82.872051094397804
 31
0.0
  0
LINE
  5
789
  8
DATA
  6
CONTINUOUS
 62
     7
 10
488.55661557408882
 20
-304.95677503829069
 30
0.0
 11
488.55661557408882
 21
-82.875954452897815
 31
0.0
  0
LINE
  5
78A
  8
DATA
  6
CONTINUOUS
 62
     7
 10
491.05661557408871
 20
-304.95677503829069
 30
0.0
 11
491.05661557408871
 21
-82.877400141231135
 31
0.0
  0
LINE
  5
78B
  8
DATA
  6
CONTINUOUS
 62
     7
 10
497.80661557408882
 20
-304.95677503829069
 30
0.0
 11
497.80661557408882
 21
-146.72827073260791
 31
0.0
  0
LINE
  5
78C
  8
DATA
  6
CONTINUOUS
 62
     7
 10
497.80661557408882
 20
-112.90624442952139
 30
0.0
 11
497.80661557408882
 21
-82.881303499731203
 31
0.0
  0
LINE
  5
78D
  8
DATA
  6
CONTINUOUS
 62
     7
 10
500.30661557408882
 20
-304.95677503829069
 30
0.0
 11
500.30661557408882
 21
-149.81586849123681
 31
0.0
  0
LINE
  5
78E
  8
DATA
  6
CONTINUOUS
 62
     7
 10
500.30661557408882
 20
-109.783961637361
 30
0.0
 11
500.30661557408882
 21
-82.882749188064523
 31
0.0
  0
LINE
  5
78F
  8
DATA
  6
CONTINUOUS
 62
     7
 10
507.05661557408882
 20
-304.95677503829069
 30
0.0
 11
507.05661557408882
 21
-156.0665839967082
 31
0.0
  0
LINE
  5
790
  8
DATA
  6
CONTINUOUS
 62
     7
 10
507.05661557408882
 20
-103.53101424713439
 30
0.0
 11
507.05661557408882
 21
-82.886652546564505
 31
0.0
  0
LINE
  5
791
  8
DATA
  6
CONTINUOUS
 62
     7
 10
509.55661557408882
 20
-304.95677503829069
 30
0.0
 11
509.55661557408882
 21
-157.89049126540581
 31
0.0
  0
LINE
  5
792
  8
DATA
  6
CONTINUOUS
 62
     7
 10
509.55661557408882
 20
-101.707056116723
 30
0.0
 11
509.55661557408882
 21
-82.888098234897811
 31
0.0
  0
LINE
  5
793
  8
DATA
  6
CONTINUOUS
 62
     7
 10
516.30661557408882
 20
-304.95677503829069
 30
0.0
 11
516.30661557408882
 21
-161.97935799292469
 31
0.0
  0
LINE
  5
794
  8
DATA
  6
CONTINUOUS
 62
     7
 10
516.30661557408882
 20
-97.618363153267964
 30
0.0
 11
516.30661557408882
 21
-82.892001593397808
 31
0.0
  0
LINE
  5
795
  8
DATA
  6
CONTINUOUS
 62
     7
 10
518.80661557408882
 20
-304.95677503829069
 30
0.0
 11
518.80661557408882
 21
-163.2454019920059
 31
0.0
  0
LINE
  5
796
  8
DATA
  6
CONTINUOUS
 62
     7
 10
518.80661557408882
 20
-96.352183983447304
 30
0.0
 11
518.80661557408882
 21
-82.893447281731142
 31
0.0
  0
LINE
  5
797
  8
DATA
  6
CONTINUOUS
 62
     7
 10
525.55661557408882
 20
-304.95677503829069
 30
0.0
 11
525.55661557408882
 21
-166.1620505050561
 31
0.0
  0
LINE
  5
798
  8
DATA
  6
CONTINUOUS
 62
     7
 10
525.55661557408882
 20
-93.435380853326876
 30
0.0
 11
525.55661557408882
 21
-82.897350640231153
 31
0.0
  0
LINE
  5
799
  8
DATA
  6
CONTINUOUS
 62
     7
 10
528.05661557408882
 20
-304.95677503829069
 30
0.0
 11
528.05661557408882
 21
-167.07523181264369
 31
0.0
  0
LINE
  5
79A
  8
DATA
  6
CONTINUOUS
 62
     7
 10
528.05661557408882
 20
-92.522226156858849
 30
0.0
 11
528.05661557408882
 21
-82.898796328564515
 31
0.0
  0
LINE
  5
79B
  8
DATA
  6
CONTINUOUS
 62
     7
 10
534.80661557408871
 20
-304.95677503829069
 30
0.0
 11
534.80661557408871
 21
-169.17014795566701
 31
0.0
  0
LINE
  5
79C
  8
DATA
  6
CONTINUOUS
 62
     7
 10
534.80661557408871
 20
-90.427390779905181
 30
0.0
 11
534.80661557408871
 21
-82.902699687064526
 31
0.0
  0
LINE
  5
79D
  8
DATA
  6
CONTINUOUS
 62
     7
 10
537.30661557408882
 20
-304.95677503829069
 30
0.0
 11
537.30661557408882
 21
-169.8171714700722
 31
0.0
  0
LINE
  5
79E
  8
DATA
  6
CONTINUOUS
 62
     7
 10
537.30661557408882
 20
-89.780384393531904
 30
0.0
 11
537.30661557408882
 21
-82.904145375397803
 31
0.0
  0
LINE
  5
79F
  8
DATA
  6
CONTINUOUS
 62
     7
 10
544.05661557408882
 20
-304.95677503829069
 30
0.0
 11
544.05661557408882
 21
-265.77756237672628
 31
0.0
  0
LINE
  5
7A0
  8
DATA
  6
CONTINUOUS
 62
     7
 10
544.05661557408882
 20
-235.92458947524381
 30
0.0
 11
544.05661557408882
 21
-171.26136527909819
 31
0.0
  0
LINE
  5
7A1
  8
DATA
  6
CONTINUOUS
 62
     7
 10
544.05661557408882
 20
-88.336187777788069
 30
0.0
 11
544.05661557408882
 21
-82.908048733897843
 31
0.0
  0
LINE
  5
7A2
  8
DATA
  6
CONTINUOUS
 62
     7
 10
546.55661557408882
 20
-304.95677503829069
 30
0.0
 11
546.55661557408882
 21
-268.91747059588522
 31
0.0
  0
LINE
  5
7A3
  8
DATA
  6
CONTINUOUS
 62
     7
 10
546.55661557408882
 20
-232.78468125608489
 30
0.0
 11
546.55661557408882
 21
-171.68743087450781
 31
0.0
  0
LINE
  5
7A4
  8
DATA
  6
CONTINUOUS
 62
     7
 10
546.55661557408882
 20
-87.910112473252809
 30
0.0
 11
546.55661557408882
 21
-82.909494422231134
 31
0.0
  0
LINE
  5
7A5
  8
DATA
  6
CONTINUOUS
 62
     7
 10
553.30661557408882
 20
-304.95677503829069
 30
0.0
 11
553.30661557408882
 21
-274.16764914334641
 31
0.0
  0
LINE
  5
7A6
  8
DATA
  6
CONTINUOUS
 62
     7
 10
553.30661557408882
 20
-227.53450270862371
 30
0.0
 11
553.30661557408882
 21
-172.56993899731171
 31
0.0
  0
LINE
  5
7A7
  8
DATA
  6
CONTINUOUS
 62
     7
 10
553.30661557408882
 20
-87.027590835534625
 30
0.0
 11
553.30661557408882
 21
-82.913397780731145
 31
0.0
  0
LINE
  5
7A8
  8
DATA
  6
CONTINUOUS
 62
     7
 10
555.80661557408871
 20
-304.95677503829069
 30
0.0
 11
555.80661557408871
 21
-275.36652422302848
 31
0.0
  0
LINE
  5
7A9
  8
DATA
  6
CONTINUOUS
 62
     7
 10
555.80661557408871
 20
-226.33562762894161
 30
0.0
 11
555.80661557408871
 21
-172.79917621170461
 31
0.0
  0
LINE
  5
7AA
  8
DATA
  6
CONTINUOUS
 62
     7
 10
555.80661557408871
 20
-86.798352587852548
 30
0.0
 11
555.80661557408871
 21
-82.914843469064451
 31
0.0
  0
LINE
  5
7AB
  8
DATA
  6
CONTINUOUS
 62
     7
 10
562.55661557408882
 20
-304.95677503829069
 30
0.0
 11
562.55661557408882
 21
-277.18356869512837
 31
0.0
  0
LINE
  5
7AC
  8
DATA
  6
CONTINUOUS
 62
     7
 10
562.55661557408882
 20
-224.5185831568416
 30
0.0
 11
562.55661557408882
 21
-173.16702495063899
 31
0.0
  0
LINE
  5
7AD
  8
DATA
  6
CONTINUOUS
 62
     7
 10
562.55661557408882
 20
-86.430506806320054
 30
0.0
 11
562.55661557408882
 21
-82.918746827564448
 31
0.0
  0
LINE
  5
7AE
  8
DATA
  6
CONTINUOUS
 62
     7
 10
565.05661557408871
 20
-304.95677503829069
 30
0.0
 11
565.05661557408871
 21
-277.39339673712408
 31
0.0
  0
LINE
  5
7AF
  8
DATA
  6
CONTINUOUS
 62
     7
 10
565.05661557408871
 20
-224.30875511484601
 30
0.0
 11
565.05661557408871
 21
-173.2107470014557
 31
0.0
  0
LINE
  5
7B0
  8
DATA
  6
CONTINUOUS
 62
     7
 10
565.05661557408871
 20
-86.386787356774846
 30
0.0
 11
565.05661557408871
 21
-82.92019251589781
 31
0.0
  0
LINE
  5
7B1
  8
DATA
  6
CONTINUOUS
 62
     7
 10
571.80661557408871
 20
-304.95677503829069
 30
0.0
 11
571.80661557408871
 21
-276.77428491471562
 31
0.0
  0
LINE
  5
7B2
  8
DATA
  6
CONTINUOUS
 62
     7
 10
571.80661557408871
 20
-224.92786693725441
 30
0.0
 11
571.80661557408871
 21
-173.0819128101584
 31
0.0
  0
LINE
  5
7B3
  8
DATA
  6
CONTINUOUS
 62
     7
 10
571.80661557408871
 20
-86.515627248952896
 30
0.0
 11
571.80661557408871
 21
-82.924095874397807
 31
0.0
  0
LINE
  5
7B4
  8
DATA
  6
CONTINUOUS
 62
     7
 10
574.30661557408871
 20
-304.95677503829069
 30
0.0
 11
574.30661557408871
 21
-276.08710934801547
 31
0.0
  0
LINE
  5
7B5
  8
DATA
  6
CONTINUOUS
 62
     7
 10
574.30661557408871
 20
-225.61504250395461
 30
0.0
 11
574.30661557408871
 21
-172.9423227516192
 31
0.0
  0
LINE
  5
7B6
  8
DATA
  6
CONTINUOUS
 62
     7
 10
574.30661557408871
 20
-86.655218838470745
 30
0.0
 11
574.30661557408871
 21
-82.925541562731155
 31
0.0
  0
LINE
  5
7B7
  8
DATA
  6
CONTINUOUS
 62
     7
 10
581.05661557408871
 20
-304.95677503829069
 30
0.0
 11
581.05661557408871
 21
-272.7485724292344
 31
0.0
  0
LINE
  5
7B8
  8
DATA
  6
CONTINUOUS
 62
     7
 10
581.05661557408871
 20
-228.95357942273569
 30
0.0
 11
581.05661557408871
 21
-172.31049365006641
 31
0.0
  0
LINE
  5
7B9
  8
DATA
  6
CONTINUOUS
 62
     7
 10
581.05661557408871
 20
-87.287043999199014
 30
0.0
 11
581.05661557408871
 21
-82.929444921231152
 31
0.0
  0
LINE
  5
7BA
  8
DATA
  6
CONTINUOUS
 62
     7
 10
583.5566155740886
 20
-304.95677503829069
 30
0.0
 11
583.5566155740886
 21
-270.8033933782072
 31
0.0
  0
LINE
  5
7BB
  8
DATA
  6
CONTINUOUS
 62
     7
 10
583.5566155740886
 20
-230.8987584737628
 30
0.0
 11
583.5566155740886
 21
-171.98064032119169
 31
0.0
  0
LINE
  5
7BC
  8
DATA
  6
CONTINUOUS
 62
     7
 10
583.5566155740886
 20
-87.616892311932816
 30
0.0
 11
583.5566155740886
 21
-82.930890609564443
 31
0.0
  0
LINE
  5
7BD
  8
DATA
  6
CONTINUOUS
 62
     7
 10
590.3066155740886
 20
-304.95677503829069
 30
0.0
 11
590.3066155740886
 21
-261.6150408992757
 31
0.0
  0
LINE
  5
7BE
  8
DATA
  6
CONTINUOUS
 62
     7
 10
590.3066155740886
 20
-240.0871109526943
 30
0.0
 11
590.3066155740886
 21
-170.81413876444691
 31
0.0
  0
LINE
  5
7BF
  8
DATA
  6
CONTINUOUS
 62
     7
 10
590.3066155740886
 20
-88.783376225903055
 30
0.0
 11
590.3066155740886
 21
-82.934793968064483
 31
0.0
  0
LINE
  5
7C0
  8
DATA
  6
CONTINUOUS
 62
     7
 10
592.80661557408871
 20
-304.95677503829069
 30
0.0
 11
592.80661557408871
 21
-170.27642378607391
 31
0.0
  0
LINE
  5
7C1
  8
DATA
  6
CONTINUOUS
 62
     7
 10
592.80661557408871
 20
-89.321087624359436
 30
0.0
 11
592.80661557408871
 21
-82.936239656397788
 31
0.0
  0
LINE
  5
7C2
  8
DATA
  6
CONTINUOUS
 62
     7
 10
599.55661557408871
 20
-304.95677503829069
 30
0.0
 11
599.55661557408871
 21
-168.50868623592589
 31
0.0
  0
LINE
  5
7C3
  8
DATA
  6
CONTINUOUS
 62
     7
 10
599.55661557408871
 20
-91.088863434678302
 30
0.0
 11
599.55661557408871
 21
-82.940143014897842
 31
0.0
  0
LINE
  5
7C4
  8
DATA
  6
CONTINUOUS
 62
     7
 10
602.05661557408871
 20
-304.95677503829069
 30
0.0
 11
602.05661557408871
 21
-167.73006742418019
 31
0.0
  0
LINE
  5
7C5
  8
DATA
  6
CONTINUOUS
 62
     7
 10
602.05661557408871
 20
-91.867518402577502
 30
0.0
 11
602.05661557408871
 21
-82.941588703231176
 31
0.0
  0
LINE
  5
7C6
  8
DATA
  6
CONTINUOUS
 62
     7
 10
608.80661557408871
 20
-304.95677503829069
 30
0.0
 11
608.80661557408871
 21
-165.23672826359169
 31
0.0
  0
LINE
  5
7C7
  8
DATA
  6
CONTINUOUS
 62
     7
 10
608.80661557408871
 20
-94.360891017345367
 30
0.0
 11
608.80661557408871
 21
-82.945492061731173
 31
0.0
  0
LINE
  5
7C8
  8
DATA
  6
CONTINUOUS
 62
     7
 10
611.30661557408871
 20
-304.95677503829069
 30
0.0
 11
611.30661557408871
 21
-164.15285571436789
 31
0.0
  0
LINE
  5
7C9
  8
DATA
  6
CONTINUOUS
 62
     7
 10
611.30661557408871
 20
-95.444708121502913
 30
0.0
 11
611.30661557408871
 21
-82.946937750064478
 31
0.0
  0
LINE
  5
7CA
  8
DATA
  6
CONTINUOUS
 62
     7
 10
618.05661557408871
 20
-304.95677503829069
 30
0.0
 11
618.05661557408871
 21
-160.6911447671001
 31
0.0
  0
LINE
  5
7CB
  8
DATA
  6
CONTINUOUS
 62
     7
 10
618.05661557408871
 20
-98.906168265453474
 30
0.0
 11
618.05661557408871
 21
-82.950841108564447
 31
0.0
  0
LINE
  5
7CC
  8
DATA
  6
CONTINUOUS
 62
     7
 10
620.5566155740886
 20
-304.95677503829069
 30
0.0
 11
620.5566155740886
 21
-159.17239253941429
 31
0.0
  0
LINE
  5
7CD
  8
DATA
  6
CONTINUOUS
 62
     7
 10
620.5566155740886
 20
-100.4250219743752
 30
0.0
 11
620.5566155740886
 21
-82.952286796897795
 31
0.0
  0
LINE
  5
7CE
  8
DATA
  6
CONTINUOUS
 62
     7
 10
627.3066155740886
 20
-304.95677503829069
 30
0.0
 11
627.3066155740886
 21
-154.1660891064727
 31
0.0
  0
LINE
  5
7CF
  8
DATA
  6
CONTINUOUS
 62
     7
 10
627.3066155740886
 20
-105.43137373661691
 30
0.0
 11
627.3066155740886
 21
-82.956190155397792
 31
0.0
  0
LINE
  5
7D0
  8
DATA
  6
CONTINUOUS
 62
     7
 10
629.80661557408871
 20
-304.95677503829069
 30
0.0
 11
629.80661557408871
 21
-151.84557712121159
 31
0.0
  0
LINE
  5
7D1
  8
DATA
  6
CONTINUOUS
 62
     7
 10
629.80661557408871
 20
-107.75192393966979
 30
0.0
 11
629.80661557408871
 21
-82.957635843731097
 31
0.0
  0
LINE
  5
7D2
  8
DATA
  6
CONTINUOUS
 62
     7
 10
636.55661557408871
 20
-304.95677503829069
 30
0.0
 11
636.55661557408871
 21
-141.74737465557359
 31
0.0
  0
LINE
  5
7D3
  8
DATA
  6
CONTINUOUS
 62
     7
 10
636.55661557408871
 20
-116.618286869206
 30
0.0
 11
636.55661557408871
 21
-82.961539202231165
 31
0.0
  0
LINE
  5
7D4
  8
DATA
  6
CONTINUOUS
 62
     7
 10
639.05661557408871
 20
-304.95677503829069
 30
0.0
 11
639.05661557408871
 21
-133.3773808341752
 31
0.0
  0
LINE
  5
7D5
  8
DATA
  6
CONTINUOUS
 62
     7
 10
639.05661557408871
 20
-122.576938145505
 30
0.0
 11
639.05661557408871
 21
-82.962984890564485
 31
0.0
  0
LINE
  5
7D6
  8
DATA
  6
CONTINUOUS
 62
     7
 10
645.80661557408871
 20
-304.95677503829069
 30
0.0
 11
645.80661557408871
 21
-82.966888249064425
 31
0.0
  0
LINE
  5
7D7
  8
DATA
  6
CONTINUOUS
 62
     7
 10
648.3066155740886
 20
-304.95677503829069
 30
0.0
 11
648.3066155740886
 21
-82.968333937397716
 31
0.0
  0
LINE
  5
7D8
  8
DATA
  6
CONTINUOUS
 62
     7
 10
655.05661557408871
 20
-304.81862953306921
 30
0.0
 11
655.05661557408871
 21
-83.109675590179066
 31
0.0
  0
LINE
  5
7D9
  8
DATA
  6
CONTINUOUS
 62
     7
 10
657.55661557408871
 20
-304.34713021176259
 30
0.0
 11
657.55661557408871
 21
-83.581174911434914
 31
0.0
  0
LINE
  5
7DA
  8
DATA
  6
CONTINUOUS
 62
     7
 10
664.3066155740886
 20
-301.65915197361431
 30
0.0
 11
664.3066155740886
 21
-86.269153149456983
 31
0.0
  0
LINE
  5
7DB
  8
DATA
  6
CONTINUOUS
 62
     7
 10
666.80661557408871
 20
-300.02030389553119
 30
0.0
 11
666.80661557408871
 21
-87.908001227494424
 31
0.0
  0
CIRCLE
  5
7DC
  8
DATA
  6
CONTINUOUS
 62
     7
 10
444.69230791408881
 20
-130.1307676250982
 30
0.0
 40
3.3999999999999768
  0
LINE
  5
7DD
  8
DATA
  6
CONTINUOUS
 62
     7
 10
444.69230791408881
 20
-131.6307676250982
 30
0.0
 11
444.69230791408881
 21
-128.6307676250982
 31
0.0
  0
LINE
  5
7DE
  8
DATA
  6
CONTINUOUS
 62
     7
 10
443.1923079140887
 20
-130.1307676250982
 30
0.0
 11
446.19230791408881
 21
-130.1307676250982
 31
0.0
  0
CIRCLE
  5
7DF
  8
DATA
  6
CONTINUOUS
 62
     7
 10
502.1538466640888
 20
-72.669228875098014
 30
0.0
 40
3.3999999999999768
  0
LINE
  5
7E0
  8
DATA
  6
CONTINUOUS
 62
     7
 10
502.1538466640888
 20
-74.169228875098014
 30
0.0
 11
502.1538466640888
 21
-71.169228875098014
 31
0.0
  0
LINE
  5
7E1
  8
DATA
  6
CONTINUOUS
 62
     7
 10
500.6538466640888
 20
-72.669228875098014
 30
0.0
 11
503.65384666408869
 21
-72.669228875098014
 31
0.0
  0
CIRCLE
  5
7E2
  8
DATA
  6
CONTINUOUS
 62
     7
 10
629.84615499997597
 20
-72.669228875098014
 30
0.0
 40
3.3999999999999768
  0
LINE
  5
7E3
  8
DATA
  6
CONTINUOUS
 62
     7
 10
629.84615499997597
 20
-74.169228875098014
 30
0.0
 11
629.84615499997597
 21
-71.169228875098014
 31
0.0
  0
LINE
  5
7E4
  8
DATA
  6
CONTINUOUS
 62
     7
 10
628.34615499997585
 20
-72.669228875098014
 30
0.0
 11
631.34615499997585
 21
-72.669228875098014
 31
0.0
  0
CIRCLE
  5
7E5
  8
DATA
  6
CONTINUOUS
 62
     7
 10
687.30769374997408
 20
-130.1307676250982
 30
0.0
 40
3.3999999999999768
  0
LINE
  5
7E6
  8
DATA
  6
CONTINUOUS
 62
     7
 10
687.30769374997408
 20
-131.6307676250982
 30
0.0
 11
687.30769374997408
 21
-128.6307676250982
 31
0.0
  0
LINE
  5
7E7
  8
DATA
  6
CONTINUOUS
 62
     7
 10
685.80769374997419
 20
-130.1307676250982
 30
0.0
 11
688.80769374997396
 21
-130.1307676250982
 31
0.0
  0
CIRCLE
  5
7E8
  8
DATA
  6
CONTINUOUS
 62
     7
 10
687.30769374997408
 20
-257.82307596098508
 30
0.0
 40
3.3999999999999768
  0
LINE
  5
7E9
  8
DATA
  6
CONTINUOUS
 62
     7
 10
687.30769374997408
 20
-259.32307596098508
 30
0.0
 11
687.30769374997408
 21
-256.32307596098508
 31
0.0
  0
LINE
  5
7EA
  8
DATA
  6
CONTINUOUS
 62
     7
 10
685.80769374997419
 20
-257.82307596098508
 30
0.0
 11
688.80769374997396
 21
-257.82307596098508
 31
0.0
  0
CIRCLE
  5
7EB
  8
DATA
  6
CONTINUOUS
 62
     7
 10
629.84615499997597
 20
-315.28461471098552
 30
0.0
 40
3.3999999999999768
  0
LINE
  5
7EC
  8
DATA
  6
CONTINUOUS
 62
     7
 10
629.84615499997597
 20
-316.78461471098552
 30
0.0
 11
629.84615499997597
 21
-313.78461471098552
 31
0.0
  0
LINE
  5
7ED
  8
DATA
  6
CONTINUOUS
 62
     7
 10
628.34615499997585
 20
-315.28461471098552
 30
0.0
 11
631.34615499997585
 21
-315.28461471098552
 31
0.0
  0
CIRCLE
  5
7EE
  8
DATA
  6
CONTINUOUS
 62
     7
 10
502.1538466640888
 20
-315.28461471098552
 30
0.0
 40
3.3999999999999768
  0
LINE
  5
7EF
  8
DATA
  6
CONTINUOUS
 62
     7
 10
502.1538466640888
 20
-316.78461471098552
 30
0.0
 11
502.1538466640888
 21
-313.78461471098552
 31
0.0
  0
LINE
  5
7F0
  8
DATA
  6
CONTINUOUS
 62
     7
 10
500.6538466640888
 20
-315.28461471098552
 30
0.0
 11
503.65384666408869
 21
-315.28461471098552
 31
0.0
  0
CIRCLE
  5
7F1
  8
DATA
  6
CONTINUOUS
 62
     7
 10
444.69230791408881
 20
-257.82307596098508
 30
0.0
 40
3.3999999999999768
  0
LINE
  5
7F2
  8
DATA
  6
CONTINUOUS
 62
     7
 10
444.69230791408881
 20
-259.32307596098508
 30
0.0
 11
444.69230791408881
 21
-256.32307596098508
 31
0.0
  0
LINE
  5
7F3
  8
DATA
  6
CONTINUOUS
 62
     7
 10
443.1923079140887
 20
-257.82307596098508
 30
0.0
 11
446.19230791408881
 21
-257.82307596098508
 31
0.0
  0
ARC
  5
7F4
  8
DATA
  6
CONTINUOUS
 62
     7
 10
581.55744846958555
 20
-161.7998989089586
 30
0.0
 40
72.717333240295815
 50
56.33122878274493
 51
59.872087726846992
  0
ARC
  5
7F5
  8
DATA
  6
CONTINUOUS
 62
     7
 10
603.42991777835414
 20
-119.9015958167813
 30
0.0
 40
25.58804929006525
 50
55.136573573090899
 51
69.730966191707978
  0
LINE
  5
7F6
  8
DATA
  6
CONTINUOUS
 62
     7
 10
313.73642460183379
 20
-157.03053291324471
 30
0.0
 11
311.40450000295789
 21
-135.57420785004209
 31
0.0
  0
LINE
  5
7F7
  8
DATA
  6
CONTINUOUS
 62
     7
 10
313.9765563186391
 20
-160.92945227604841
 30
0.0
 11
313.73642460183379
 21
-157.03053291324471
 31
0.0
  0
ARC
  5
7F8
  8
DATA
  6
CONTINUOUS
 62
     7
 10
236.6906583297004
 20
-185.0244836324525
 30
0.0
 40
79.327168992966861
 50
358.99561476562081
 51
6.0108316764673191
  0
LINE
  5
7F9
  8
DATA
  6
CONTINUOUS
 62
     7
 10
312.00588978999963
 20
-287.22962281813028
 30
0.0
 11
312.58788558978563
 21
-282.44083198323102
 31
0.0
  0
ARC
  5
7FA
  8
DATA
  6
CONTINUOUS
 62
     7
 10
44.087063610844723
 20
-248.38135773411221
 30
0.0
 40
270.69225517494658
 50
353.19733957097782
 51
355.58632214926632
  0
LINE
  5
7FB
  8
DATA
  6
CONTINUOUS
 62
     7
 10
316.29687392419493
 20
-189.5738029291376
 30
0.0
 11
316.00563921694828
 21
-186.41500414441859
 31
0.0
  0
LINE
  5
7FC
  8
DATA
  6
CONTINUOUS
 62
     7
 10
312.7439538462362
 20
-108.4103059775981
 30
0.0
 11
315.5816958015364
 21
-176.7176221880753
 31
0.0
  0
LINE
  5
7FD
  8
DATA
  6
CONTINUOUS
 62
     7
 10
-128.60234995471919
 20
442.55980954816943
 30
0.0
 11
-95.274657502703462
 21
442.55980954816943
 31
0.0
  0
ARC
  5
7FE
  8
DATA
  6
CONTINUOUS
 62
     7
 10
-128.60234995471919
 20
436.81365566167671
 30
0.0
 40
5.7461538864926061
 50
90.0
 51
180.0
  0
LINE
  5
7FF
  8
DATA
  6
CONTINUOUS
 62
     7
 10
-134.34850384121171
 20
417.28822480591958
 30
0.0
 11
-134.34850384121171
 21
436.81365566167671
 31
0.0
  0
ARC
  5
800
  8
DATA
  6
CONTINUOUS
 62
     7
 10
-128.60234995471919
 20
417.28822480591958
 30
0.0
 40
5.7461538864925501
 50
180.0
 51
270.0
  0
LINE
  5
801
  8
DATA
  6
CONTINUOUS
 62
     7
 10
-123.4308114672188
 20
411.54207091942658
 30
0.0
 11
-128.60234995471919
 21
411.54207091942658
 31
0.0
  0
LINE
  5
802
  8
DATA
  6
CONTINUOUS
 62
     7
 10
-123.4308114672188
 20
402.8728161943838
 30
0.0
 11
-123.4308114672188
 21
410.2708446317834
 31
0.0
  0
LINE
  5
803
  8
DATA
  6
CONTINUOUS
 62
     7
 10
-123.4308114672188
 20
410.2708446317834
 30
0.0
 11
-123.4308114672188
 21
411.54207091942658
 31
0.0
  0
ARC
  5
804
  8
DATA
  6
CONTINUOUS
 62
     7
 10
-111.9385037287113
 20
359.84854899919821
 30
0.0
 40
44.532692542742844
 50
75.044751683400065
 51
104.9552483165993
  0
LINE
  5
805
  8
DATA
  6
CONTINUOUS
 62
     7
 10
-100.44619599020329
 20
411.54207091942658
 30
0.0
 11
-100.44619599020329
 21
410.2708446317834
 31
0.0
  0
LINE
  5
806
  8
DATA
  6
CONTINUOUS
 62
     7
 10
-100.44619599020329
 20
410.2708446317834
 30
0.0
 11
-100.44619599020329
 21
402.8728161943838
 31
0.0
  0
LINE
  5
807
  8
DATA
  6
CONTINUOUS
 62
     7
 10
-95.274657502703462
 20
411.54207091942658
 30
0.0
 11
-100.44619599020329
 21
411.54207091942658
 31
0.0
  0
ARC
  5
808
  8
DATA
  6
CONTINUOUS
 62
     7
 10
-95.274657502703462
 20
417.28822480591958
 30
0.0
 40
5.7461538864930608
 50
270.0
 51
0.0
  0
LINE
  5
809
  8
DATA
  6
CONTINUOUS
 62
     7
 10
-89.528503616210898
 20
436.81365566167671
 30
0.0
 11
-89.528503616210898
 21
417.28822480591958
 31
0.0
  0
ARC
  5
80A
  8
DATA
  6
CONTINUOUS
 62
     7
 10
-95.274657502703462
 20
436.81365566167671
 30
0.0
 40
5.7461538864925501
 50
0.0
 51
90.0
  0
ARC
  5
80B
  8
DATA
  6
CONTINUOUS
 62
     7
 10
-97.182406548531105
 20
359.30955048934021
 30
0.0
 40
5.7461538864924977
 50
258.46304096719888
 51
101.5369590328005
  0
ARC
  5
80C
  8
DATA
  6
CONTINUOUS
 62
     7
 10
-111.54779124752361
 20
359.30955048934021
 30
0.0
 40
14.365384698992489
 50
293.07391806560389
 51
336.92608193440071
  0
ARC
  5
80D
  8
DATA
  6
CONTINUOUS
 62
     7
 10
-111.54779124752361
 20
344.9441658248241
 30
0.0
 40
5.7461538864913928
 50
168.46304096720189
 51
11.53695903279805
  0
ARC
  5
80E
  8
DATA
  6
CONTINUOUS
 62
     7
 10
-111.54779124752361
 20
359.30955048934021
 30
0.0
 40
14.36538469899209
 50
203.07391806560011
 51
246.9260819343979
  0
ARC
  5
80F
  8
DATA
  6
CONTINUOUS
 62
     7
 10
-125.91317594651569
 20
359.30955048934021
 30
0.0
 40
5.7461538864927766
 50
78.463040967199547
 51
281.53695903280112
  0
ARC
  5
810
  8
DATA
  6
CONTINUOUS
 62
     7
 10
-111.54779124752361
 20
359.30955048934021
 30
0.0
 40
14.36538469899218
 50
23.073918065600999
 51
156.92608193439901
  0
LINE
  5
811
  8
DATA
  6
CONTINUOUS
 62
     7
 10
735.39215146006154
 20
349.82998225735679
 30
0.0
 11
735.39215146006154
 21
360.17305923235688
 31
0.0
  0
LINE
  5
812
  8
DATA
  6
CONTINUOUS
 62
     7
 10
741.1383053465546
 20
349.82998225735679
 30
0.0
 11
735.39215146006154
 21
349.82998225735679
 31
0.0
  0
LINE
  5
813
  8
DATA
  6
CONTINUOUS
 62
     7
 10
741.1383053465546
 20
360.17305923235688
 30
0.0
 11
741.1383053465546
 21
349.82998225735679
 31
0.0
  0
LINE
  5
814
  8
DATA
  6
CONTINUOUS
 62
     7
 10
735.39215146006154
 20
360.17305923235688
 30
0.0
 11
741.1383053465546
 21
360.17305923235688
 31
0.0
  0
LINE
  5
815
  8
DATA
  6
CONTINUOUS
 62
     7
 10
763.41054282392599
 20
371.6653669708644
 30
0.0
 11
763.41054282392599
 21
382.00844394586471
 31
0.0
  0
LINE
  5
816
  8
DATA
  6
CONTINUOUS
 62
     7
 10
769.15669671041712
 20
371.6653669708644
 30
0.0
 11
763.41054282392599
 21
371.6653669708644
 31
0.0
  0
LINE
  5
817
  8
DATA
  6
CONTINUOUS
 62
     7
 10
769.15669671041712
 20
382.00844394586471
 30
0.0
 11
769.15669671041712
 21
371.6653669708644
 31
0.0
  0
LINE
  5
818
  8
DATA
  6
CONTINUOUS
 62
     7
 10
763.41054282392599
 20
382.00844394586471
 30
0.0
 11
769.15669671041712
 21
382.00844394586471
 31
0.0
  0
LINE
  5
819
  8
DATA
  6
CONTINUOUS
 62
     7
 10
714.70599751006228
 20
386.86969012411453
 30
0.0
 11
714.70599751006228
 21
327.41998214485608
 31
0.0
  0
LINE
  5
81A
  8
DATA
  6
CONTINUOUS
 62
     7
 10
729.95628991729598
 20
402.11998253134891
 30
0.0
 11
714.70599751006228
 21
386.86969012411453
 31
0.0
  0
LINE
  5
81B
  8
DATA
  6
CONTINUOUS
 62
     7
 10
700.91522821006151
 20
386.03075166985627
 30
0.0
 11
700.91522821006151
 21
345.80767453336398
 31
0.0
  0
LINE
  5
81C
  8
DATA
  6
CONTINUOUS
 62
     7
 10
22.869070983046299
 20
318.8007513323567
 30
0.0
 11
29.30476330006093
 21
318.8007513323567
 31
0.0
  0
LINE
  5
81D
  8
DATA
  6
CONTINUOUS
 62
     7
 10
29.30476330006093
 20
318.8007513323567
 30
0.0
 11
29.30476330006093
 21
314.41903119202283
 31
0.0
  0
LINE
  5
81E
  8
DATA
  6
CONTINUOUS
 62
     7
 10
29.30476330006093
 20
314.419031192023
 30
0.0
 11
22.869070983046299
 21
314.419031192023
 31
0.0
  0
LINE
  5
81F
  8
DATA
  6
CONTINUOUS
 62
     7
 10
22.869070983046299
 20
314.41903119202283
 30
0.0
 11
22.869070983046299
 21
318.8007513323567
 31
0.0
  0
LINE
  5
820
  8
DATA
  6
CONTINUOUS
 62
     7
 10
22.869070983046299
 20
330.29305907086439
 30
0.0
 11
22.869070983046299
 21
318.8007513323567
 31
0.0
  0
ARC
  5
821
  8
DATA
  6
CONTINUOUS
 62
     7
 10
729.6459976080464
 20
345.80767453336398
 30
0.0
 40
28.730769363507989
 50
180.0
 51
270.0
  0
LINE
  5
822
  8
DATA
  6
CONTINUOUS
 62
     7
 10
729.6459976080464
 20
317.07690516985639
 30
0.0
 11
803.19676719654763
 21
317.07690516985639
 31
0.0
  0
LINE
  5
823
  8
DATA
  6
CONTINUOUS
 62
     7
 10
22.869070983046299
 20
330.29305907086439
 30
0.0
 11
29.30476330006093
 21
330.29305907086439
 31
0.0
  0
LINE
  5
824
  8
DATA
  6
CONTINUOUS
 62
     7
 10
29.30476330006093
 20
330.29305907086439
 30
0.0
 11
29.30476330006093
 21
318.8007513323567
 31
0.0
  0
LINE
  5
825
  8
DATA
  6
CONTINUOUS
 62
     7
 10
803.19676719654842
 20
414.76152103336472
 30
0.0
 11
729.6459976080464
 21
414.76152103336472
 31
0.0
  0
LINE
  5
826
  8
DATA
  6
CONTINUOUS
 62
     7
 10
34.361378721553763
 20
318.8007513323567
 30
0.0
 11
40.79707107304602
 21
318.8007513323567
 31
0.0
  0
LINE
  5
827
  8
DATA
  6
CONTINUOUS
 62
     7
 10
40.79707107304602
 20
318.8007513323567
 30
0.0
 11
40.79707107304602
 21
314.41903119202283
 31
0.0
  0
LINE
  5
828
  8
DATA
  6
CONTINUOUS
 62
     7
 10
40.79707107304602
 20
314.419031192023
 30
0.0
 11
34.361378721553763
 21
314.419031192023
 31
0.0
  0
LINE
  5
829
  8
DATA
  6
CONTINUOUS
 62
     7
 10
34.361378721553763
 20
314.41903119202283
 30
0.0
 11
34.361378721553763
 21
318.8007513323567
 31
0.0
  0
LINE
  5
82A
  8
DATA
  6
CONTINUOUS
 62
     7
 10
34.361378721553763
 20
330.29305907086439
 30
0.0
 11
34.361378721553763
 21
318.8007513323567
 31
0.0
  0
ARC
  5
82B
  8
DATA
  6
CONTINUOUS
 62
     7
 10
729.6459976080464
 20
386.03075166985627
 30
0.0
 40
28.730769363508269
 50
90.0
 51
180.0
  0
LINE
  5
82C
  8
DATA
  6
CONTINUOUS
 62
     7
 10
34.361378721553763
 20
330.29305907086439
 30
0.0
 11
40.79707107304602
 21
330.29305907086439
 31
0.0
  0
LINE
  5
82D
  8
DATA
  6
CONTINUOUS
 62
     7
 10
40.79707107304602
 20
330.29305907086439
 30
0.0
 11
40.79707107304602
 21
318.8007513323567
 31
0.0
  0
LINE
  5
82E
  8
DATA
  6
CONTINUOUS
 62
     7
 10
45.853686460061219
 20
318.8007513323567
 30
0.0
 11
52.28937881155349
 21
318.8007513323567
 31
0.0
  0
LINE
  5
82F
  8
DATA
  6
CONTINUOUS
 62
     7
 10
52.28937881155349
 20
318.8007513323567
 30
0.0
 11
52.28937881155349
 21
314.41903119202283
 31
0.0
  0
LINE
  5
830
  8
DATA
  6
CONTINUOUS
 62
     7
 10
52.28937881155349
 20
314.419031192023
 30
0.0
 11
45.853686460061219
 21
314.419031192023
 31
0.0
  0
LINE
  5
831
  8
DATA
  6
CONTINUOUS
 62
     7
 10
45.853686460061219
 20
314.41903119202283
 30
0.0
 11
45.853686460061219
 21
318.8007513323567
 31
0.0
  0
LINE
  5
832
  8
DATA
  6
CONTINUOUS
 62
     7
 10
45.853686460061219
 20
330.29305907086439
 30
0.0
 11
45.853686460061219
 21
318.8007513323567
 31
0.0
  0
LINE
  5
833
  8
DATA
  6
CONTINUOUS
 62
     7
 10
45.853686460061219
 20
330.29305907086439
 30
0.0
 11
52.28937881155349
 21
330.29305907086439
 31
0.0
  0
LINE
  5
834
  8
DATA
  6
CONTINUOUS
 62
     7
 10
52.28937881155349
 20
330.29305907086439
 30
0.0
 11
52.28937881155349
 21
318.8007513323567
 31
0.0
  0
LINE
  5
835
  8
DATA
  6
CONTINUOUS
 62
     7
 10
57.345994233045303
 20
318.8007513323567
 30
0.0
 11
63.781686550061458
 21
318.8007513323567
 31
0.0
  0
LINE
  5
836
  8
DATA
  6
CONTINUOUS
 62
     7
 10
63.781686550061458
 20
318.8007513323567
 30
0.0
 11
63.781686550061458
 21
314.41903119202283
 31
0.0
  0
LINE
  5
837
  8
DATA
  6
CONTINUOUS
 62
     7
 10
63.781686550061458
 20
314.419031192023
 30
0.0
 11
57.345994233045303
 21
314.419031192023
 31
0.0
  0
LINE
  5
838
  8
DATA
  6
CONTINUOUS
 62
     7
 10
57.345994233045303
 20
314.41903119202283
 30
0.0
 11
57.345994233045303
 21
318.8007513323567
 31
0.0
  0
LINE
  5
839
  8
DATA
  6
CONTINUOUS
 62
     7
 10
57.345994233045303
 20
330.29305907086439
 30
0.0
 11
57.345994233045303
 21
318.8007513323567
 31
0.0
  0
LINE
  5
83A
  8
DATA
  6
CONTINUOUS
 62
     7
 10
57.345994233045303
 20
330.29305907086439
 30
0.0
 11
63.781686550061458
 21
330.29305907086439
 31
0.0
  0
LINE
  5
83B
  8
DATA
  6
CONTINUOUS
 62
     7
 10
63.781686550061458
 20
330.29305907086439
 30
0.0
 11
63.781686550061458
 21
318.8007513323567
 31
0.0
  0
LINE
  5
83C
  8
DATA
  6
CONTINUOUS
 62
     7
 10
472.79291939554611
 20
322.24844365735629
 30
0.0
 11
461.30061162256089
 21
322.24844365735629
 31
0.0
  0
LINE
  5
83D
  8
DATA
  6
CONTINUOUS
 62
     7
 10
68.838301971554301
 20
318.8007513323567
 30
0.0
 11
75.273994323046566
 21
318.8007513323567
 31
0.0
  0
LINE
  5
83E
  8
DATA
  6
CONTINUOUS
 62
     7
 10
75.273994323046566
 20
318.8007513323567
 30
0.0
 11
75.273994323046566
 21
314.41903119202283
 31
0.0
  0
LINE
  5
83F
  8
DATA
  6
CONTINUOUS
 62
     7
 10
75.273994323046566
 20
314.419031192023
 30
0.0
 11
68.838301971554301
 21
314.419031192023
 31
0.0
  0
LINE
  5
840
  8
DATA
  6
CONTINUOUS
 62
     7
 10
68.838301971554301
 20
314.41903119202283
 30
0.0
 11
68.838301971554301
 21
318.8007513323567
 31
0.0
  0
LINE
  5
841
  8
DATA
  6
CONTINUOUS
 62
     7
 10
68.838301971554301
 20
330.29305907086439
 30
0.0
 11
68.838301971554301
 21
318.8007513323567
 31
0.0
  0
LINE
  5
842
  8
DATA
  6
CONTINUOUS
 62
     7
 10
461.30061162256089
 20
322.24844365735629
 30
0.0
 11
461.30061162256089
 21
310.75613591884883
 31
0.0
  0
LINE
  5
843
  8
DATA
  6
CONTINUOUS
 62
     7
 10
68.838301971554301
 20
330.29305907086439
 30
0.0
 11
75.273994323046566
 21
330.29305907086439
 31
0.0
  0
LINE
  5
844
  8
DATA
  6
CONTINUOUS
 62
     7
 10
75.273994323046566
 20
330.29305907086439
 30
0.0
 11
75.273994323046566
 21
318.8007513323567
 31
0.0
  0
LINE
  5
845
  8
DATA
  6
CONTINUOUS
 62
     7
 10
80.330609710062021
 20
318.8007513323567
 30
0.0
 11
86.766302061554256
 21
318.8007513323567
 31
0.0
  0
LINE
  5
846
  8
DATA
  6
CONTINUOUS
 62
     7
 10
86.766302061554256
 20
318.8007513323567
 30
0.0
 11
86.766302061554256
 21
314.41903119202283
 31
0.0
  0
LINE
  5
847
  8
DATA
  6
CONTINUOUS
 62
     7
 10
86.766302061554256
 20
314.419031192023
 30
0.0
 11
80.330609710062021
 21
314.419031192023
 31
0.0
  0
LINE
  5
848
  8
DATA
  6
CONTINUOUS
 62
     7
 10
80.330609710062021
 20
314.41903119202283
 30
0.0
 11
80.330609710062021
 21
318.8007513323567
 31
0.0
  0
LINE
  5
849
  8
DATA
  6
CONTINUOUS
 62
     7
 10
80.330609710062021
 20
330.29305907086439
 30
0.0
 11
80.330609710062021
 21
318.8007513323567
 31
0.0
  0
LINE
  5
84A
  8
DATA
  6
CONTINUOUS
 62
     7
 10
80.330609710062021
 20
330.29305907086439
 30
0.0
 11
86.766302061554256
 21
330.29305907086439
 31
0.0
  0
LINE
  5
84B
  8
DATA
  6
CONTINUOUS
 62
     7
 10
86.766302061554256
 20
330.29305907086439
 30
0.0
 11
86.766302061554256
 21
318.8007513323567
 31
0.0
  0
LINE
  5
84C
  8
DATA
  6
CONTINUOUS
 62
     7
 10
91.822917483046055
 20
318.8007513323567
 30
0.0
 11
98.258609800062274
 21
318.8007513323567
 31
0.0
  0
LINE
  5
84D
  8
DATA
  6
CONTINUOUS
 62
     7
 10
98.258609800062274
 20
318.8007513323567
 30
0.0
 11
98.258609800062274
 21
314.41903119202283
 31
0.0
  0
LINE
  5
84E
  8
DATA
  6
CONTINUOUS
 62
     7
 10
98.258609800062274
 20
314.419031192023
 30
0.0
 11
91.822917483046055
 21
314.419031192023
 31
0.0
  0
LINE
  5
84F
  8
DATA
  6
CONTINUOUS
 62
     7
 10
91.822917483046055
 20
314.41903119202283
 30
0.0
 11
91.822917483046055
 21
318.8007513323567
 31
0.0
  0
LINE
  5
850
  8
DATA
  6
CONTINUOUS
 62
     7
 10
91.822917483046055
 20
330.29305907086439
 30
0.0
 11
91.822917483046055
 21
318.8007513323567
 31
0.0
  0
LINE
  5
851
  8
DATA
  6
CONTINUOUS
 62
     7
 10
91.822917483046055
 20
330.29305907086439
 30
0.0
 11
98.258609800062274
 21
330.29305907086439
 31
0.0
  0
LINE
  5
852
  8
DATA
  6
CONTINUOUS
 62
     7
 10
98.258609800062274
 20
330.29305907086439
 30
0.0
 11
98.258609800062274
 21
318.8007513323567
 31
0.0
  0
LINE
  5
853
  8
DATA
  6
CONTINUOUS
 62
     7
 10
103.315225221554
 20
318.8007513323567
 30
0.0
 11
109.7509175730458
 21
318.8007513323567
 31
0.0
  0
LINE
  5
854
  8
DATA
  6
CONTINUOUS
 62
     7
 10
109.7509175730458
 20
318.8007513323567
 30
0.0
 11
109.7509175730458
 21
314.41903119202283
 31
0.0
  0
LINE
  5
855
  8
DATA
  6
CONTINUOUS
 62
     7
 10
109.7509175730458
 20
314.419031192023
 30
0.0
 11
103.315225221554
 21
314.419031192023
 31
0.0
  0
LINE
  5
856
  8
DATA
  6
CONTINUOUS
 62
     7
 10
103.315225221554
 20
314.41903119202283
 30
0.0
 11
103.315225221554
 21
318.8007513323567
 31
0.0
  0
LINE
  5
857
  8
DATA
  6
CONTINUOUS
 62
     7
 10
103.315225221554
 20
330.29305907086439
 30
0.0
 11
103.315225221554
 21
318.8007513323567
 31
0.0
  0
LINE
  5
858
  8
DATA
  6
CONTINUOUS
 62
     7
 10
103.315225221554
 20
330.29305907086439
 30
0.0
 11
109.7509175730458
 21
330.29305907086439
 31
0.0
  0
LINE
  5
859
  8
DATA
  6
CONTINUOUS
 62
     7
 10
109.7509175730458
 20
330.29305907086439
 30
0.0
 11
109.7509175730458
 21
318.8007513323567
 31
0.0
  0
ARC
  5
85A
  8
DATA
  6
CONTINUOUS
 62
     7
 10
812.3906134080421
 20
394.30521324985682
 30
0.0
 40
25.283077038505329
 50
0.0
 51
90.0
  0
LINE
  5
85B
  8
DATA
  6
CONTINUOUS
 62
     7
 10
837.67369044654743
 20
394.30521324985682
 30
0.0
 11
837.67369044654743
 21
339.14213604985667
 31
0.0
  0
ARC
  5
85C
  8
DATA
  6
CONTINUOUS
 62
     7
 10
812.3906134080421
 20
339.14213604985667
 30
0.0
 40
25.283077038508679
 50
270.0
 51
0.0
  0
LINE
  5
85D
  8
DATA
  6
CONTINUOUS
 62
     7
 10
812.3906134080421
 20
313.85905901134907
 30
0.0
 11
720.45215139655318
 21
313.85905901134907
 31
0.0
  0
ARC
  5
85E
  8
DATA
  6
CONTINUOUS
 62
     7
 10
720.45215139655318
 20
339.14213604985667
 30
0.0
 40
25.283077038507368
 50
180.0
 51
270.0
  0
LINE
  5
85F
  8
DATA
  6
CONTINUOUS
 62
     7
 10
695.16907435804592
 20
339.14213604985667
 30
0.0
 11
695.16907435804592
 21
394.30521324985682
 31
0.0
  0
ARC
  5
860
  8
DATA
  6
CONTINUOUS
 62
     7
 10
720.45215139655318
 20
394.30521324985682
 30
0.0
 40
25.283077038508399
 50
90.0
 51
180.0
  0
LINE
  5
861
  8
DATA
  6
CONTINUOUS
 62
     7
 10
720.45215139655318
 20
419.5882902883651
 30
0.0
 11
812.3906134080421
 21
419.5882902883651
 31
0.0
  0
LINE
  5
862
  8
DATA
  6
CONTINUOUS
 62
     7
 10
111.3598406350619
 20
331.0975206363488
 30
0.0
 11
111.3598406350619
 21
302.36675123836369
 31
0.0
  0
LINE
  5
863
  8
DATA
  6
CONTINUOUS
 62
     7
 10
111.3598406350619
 20
302.36675123836369
 30
0.0
 11
19.421378658045679
 21
302.36675123836369
 31
0.0
  0
LINE
  5
864
  8
DATA
  6
CONTINUOUS
 62
     7
 10
19.421378658045679
 20
302.36675123836369
 30
0.0
 11
19.421378658045679
 21
331.0975206363488
 31
0.0
  0
LINE
  5
865
  8
DATA
  6
CONTINUOUS
 62
     7
 10
19.421378658045679
 20
331.0975206363488
 30
0.0
 11
111.3598406350619
 21
331.0975206363488
 31
0.0
  0
LINE
  5
866
  8
DATA
  6
CONTINUOUS
 62
     7
 10
797.45061334453351
 20
349.82998225735679
 30
0.0
 11
797.45061334453351
 21
360.17305923235688
 31
0.0
  0
LINE
  5
867
  8
DATA
  6
CONTINUOUS
 62
     7
 10
791.70445945804033
 20
349.82998225735679
 30
0.0
 11
797.45061334453351
 21
349.82998225735679
 31
0.0
  0
LINE
  5
868
  8
DATA
  6
CONTINUOUS
 62
     7
 10
791.70445945804033
 20
360.17305923235688
 30
0.0
 11
791.70445945804033
 21
349.82998225735679
 31
0.0
  0
LINE
  5
869
  8
DATA
  6
CONTINUOUS
 62
     7
 10
797.45061334453351
 20
360.17305923235688
 30
0.0
 11
791.70445945804033
 21
360.17305923235688
 31
0.0
  0
LINE
  5
86A
  8
DATA
  6
CONTINUOUS
 62
     7
 10
818.13676729453243
 20
386.86969012411453
 30
0.0
 11
818.13676729453243
 21
327.41998214485608
 31
0.0
  0
LINE
  5
86B
  8
DATA
  6
CONTINUOUS
 62
     7
 10
802.88647488729885
 20
402.11998253134891
 30
0.0
 11
818.13676729453243
 21
386.86969012411453
 31
0.0
  0
LINE
  5
86C
  8
DATA
  6
CONTINUOUS
 62
     7
 10
729.95628991729598
 20
402.11998253134891
 30
0.0
 11
802.88647488729885
 21
402.11998253134891
 31
0.0
  0
LINE
  5
86D
  8
DATA
  6
CONTINUOUS
 62
     7
 10
714.70599751006228
 20
327.41998214485608
 30
0.0
 11
818.13676729453243
 21
327.41998214485608
 31
0.0
  0
LINE
  5
86E
  8
DATA
  6
CONTINUOUS
 62
     7
 10
831.92753659453354
 20
386.03075166985627
 30
0.0
 11
831.92753659453354
 21
345.80767453336398
 31
0.0
  0
ARC
  5
86F
  8
DATA
  6
CONTINUOUS
 62
     7
 10
803.19676719654842
 20
345.80767453336398
 30
0.0
 40
28.73076936350822
 50
270.0
 51
0.0
  0
ARC
  5
870
  8
DATA
  6
CONTINUOUS
 62
     7
 10
803.19676719654842
 20
386.03075166985627
 30
0.0
 40
28.730769363507989
 50
0.0
 51
90.0
  0
CIRCLE
  5
871
  8
DATA
  6
CONTINUOUS
 62
     7
 10
675.63215117155414
 20
366.72367464985672
 30
0.0
 40
7.4700000489918352
  0
LINE
  5
872
  8
DATA
  6
CONTINUOUS
 62
     7
 10
675.63215117155414
 20
362.9544464680813
 30
0.0
 11
675.63215117155414
 21
370.49290283163219
 31
0.0
  0
LINE
  5
873
  8
DATA
  6
CONTINUOUS
 62
     7
 10
679.4013793533295
 20
366.72367464985672
 30
0.0
 11
671.86292298977855
 21
366.72367464985672
 31
0.0
  0
CIRCLE
  5
874
  8
DATA
  6
CONTINUOUS
 62
     7
 10
856.9350883627892
 20
366.72367464985672
 30
0.0
 40
7.4700000489918352
  0
LINE
  5
875
  8
DATA
  6
CONTINUOUS
 62
     7
 10
856.9350883627892
 20
362.9544464680813
 30
0.0
 11
856.9350883627892
 21
370.49290283163219
 31
0.0
  0
LINE
  5
876
  8
DATA
  6
CONTINUOUS
 62
     7
 10
853.16586018101361
 20
366.72367464985672
 30
0.0
 11
860.70431654456445
 21
366.72367464985672
 31
0.0
  0
CIRCLE
  5
877
  8
DATA
  6
CONTINUOUS
 62
     7
 10
603.23061234655336
 20
325.12152058336369
 30
0.0
 40
22.69730779475691
  0
CIRCLE
  5
878
  8
DATA
  6
CONTINUOUS
 62
     7
 10
515.88907345804625
 20
325.12152058336369
 30
0.0
 40
13.7907692999999
  0
CIRCLE
  5
879
  8
DATA
  6
CONTINUOUS
 62
     7
 10
515.88907345804625
 20
325.12152058336369
 30
0.0
 40
24.421153957258241
  0
LINE
  5
87A
  8
DATA
  6
CONTINUOUS
 62
     7
 10
461.30061162256089
 20
310.75613591884883
 30
0.0
 11
472.79291939554668
 21
310.75613591884883
 31
0.0
  0
LINE
  5
87B
  8
DATA
  6
CONTINUOUS
 62
     7
 10
472.79291939554611
 20
322.24844365735629
 30
0.0
 11
472.79291939554611
 21
310.75613591884849
 31
0.0
  0
CIRCLE
  5
87C
  8
DATA
  6
CONTINUOUS
 62
     7
 10
428.79676550905361
 20
316.50228978810219
 30
0.0
 40
9.6749999999998408
  0
LINE
  5
87D
  8
DATA
  6
CONTINUOUS
 62
     7
 10
551.3352295600456
 20
288.67982731336667
 30
0.0
 11
551.3352295600456
 21
383.17982731336679
 31
0.0
  0
LINE
  5
87E
  8
DATA
  6
CONTINUOUS
 62
     7
 10
177.8352295600456
 20
288.67982731336667
 30
0.0
 11
177.8352295600456
 21
383.17982731336679
 31
0.0
  0
LINE
  5
87F
  8
DATA
  6
CONTINUOUS
 62
     7
 10
191.3352295600456
 20
275.17982731336667
 30
0.0
 11
537.8352295600456
 21
275.17982731336667
 31
0.0
  0
ARC
  5
880
  8
DATA
  6
CONTINUOUS
 62
     7
 10
191.3352295600456
 20
383.17982731336679
 30
0.0
 40
13.5
 50
90.0
 51
180.0
  0
ARC
  5
881
  8
DATA
  6
CONTINUOUS
 62
     7
 10
537.8352295600456
 20
383.17982731336679
 30
0.0
 40
13.5
 50
0.0
 51
90.0
  0
ARC
  5
882
  8
DATA
  6
CONTINUOUS
 62
     7
 10
191.3352295600456
 20
288.67982731336667
 30
0.0
 40
13.5
 50
180.0
 51
270.0
  0
ARC
  5
883
  8
DATA
  6
CONTINUOUS
 62
     7
 10
537.8352295600456
 20
288.67982731336667
 30
0.0
 40
13.50000000000005
 50
270.0
 51
0.0
  0
CIRCLE
  5
884
  8
DATA
  6
CONTINUOUS
 62
     7
 10
217.66368734554709
 20
340.29136681336439
 30
0.0
 40
12.375
  0
CIRCLE
  5
885
  8
DATA
  6
CONTINUOUS
 62
     7
 10
295.23676465804613
 20
340.29136681336439
 30
0.0
 40
12.375
  0
CIRCLE
  5
886
  8
DATA
  6
CONTINUOUS
 62
     7
 10
372.8098419705467
 20
340.29136681336439
 30
0.0
 40
12.375
  0
TEXT
  5
887
  8
DATA
 62
     7
 10
343.4484342618818
 20
389.3026624541871
 30
0.0
 40
15.636876631053379
  1
RMC
 41
0.7
 11
343.4484342618818
 21
404.93953908524043
 31
0.0
 73
     3
  0
LINE
  5
888
  8
DATA
  6
CONTINUOUS
 62
     7
 10
191.3352295600456
 20
396.67982731336679
 30
0.0
 11
321.3219782992129
 21
396.67982731336679
 31
0.0
  0
LINE
  5
889
  8
DATA
  6
CONTINUOUS
 62
     7
 10
537.8352295600456
 20
396.67982731336679
 30
0.0
 11
404.79445333416197
 21
396.67982731336679
 31
0.0
  0
TEXT
  5
88A
  8
DATA
 62
     7
 10
695.96295290723833
 20
297.76433713824002
 30
0.0
 40
9.3821259786320326
  1
100V～/240V～、50/60Hz 
 41
0.7
 11
695.96295290723833
 21
307.1464631168721
 31
0.0
 73
     3
  0
TEXT
  5
88B
  8
DATA
 62
     7
 10
738.61074488107636
 20
282.25483158821783
 30
0.0
 40
9.3821259786320326
  1
178Watts
 41
0.7
 11
738.61074488107636
 21
291.6369575668499
 31
0.0
 73
     3
  0
LINE
  5
88C
  8
DATA
  6
CONTINUOUS
 62
     7
 10
587.48061234655347
 20
355.49891283995379
 30
0.0
 11
618.98061234655336
 21
355.49891283995379
 31
0.0
  0
POLYLINE
  5
88D
  8
DATA
  6
CONTINUOUS
 62
     7
 66
     1
 10
0.0
 20
0.0
 30
0.0
 70
     1
  0
VERTEX
  5
B50
  8
DATA
  6
CONTINUOUS
 62
     7
 10
595.35561234655336
 20
362.24891283995379
 30
0.0
  0
VERTEX
  5
B51
  8
DATA
  6
CONTINUOUS
 62
     7
 10
611.10561234655347
 20
362.24891283995379
 30
0.0
  0
VERTEX
  5
B52
  8
DATA
  6
CONTINUOUS
 62
     7
 10
611.10561234655347
 20
355.49891283995379
 30
0.0
  0
VERTEX
  5
B53
  8
DATA
  6
CONTINUOUS
 62
     7
 10
595.35561234655336
 20
355.49891283995379
 30
0.0
  0
SEQEND
  5
B54
  8
DATA
  6
CONTINUOUS
 62
     7
  0
TEXT
  5
894
  8
DATA
 62
     7
 10
625.07731892126799
 20
355.69734487623668
 30
0.0
 40
9.3821259786320326
  1
0
 41
0.7
 11
625.07731892126799
 21
365.07947085486882
 31
0.0
 73
     3
  0
LINE
  5
895
  8
DATA
  6
CONTINUOUS
 62
     7
 10
587.48061234655347
 20
373.9478434899961
 30
0.0
 11
618.98061234655336
 21
373.9478434899961
 31
0.0
  0
POLYLINE
  5
896
  8
DATA
  6
CONTINUOUS
 62
     7
 66
     1
 10
0.0
 20
0.0
 30
0.0
 70
     1
  0
VERTEX
  5
B55
  8
DATA
  6
CONTINUOUS
 62
     7
 10
595.35561234655336
 20
376.19784348999622
 30
0.0
  0
VERTEX
  5
B56
  8
DATA
  6
CONTINUOUS
 62
     7
 10
611.10561234655347
 20
376.19784348999622
 30
0.0
  0
VERTEX
  5
B57
  8
DATA
  6
CONTINUOUS
 62
     7
 10
611.10561234655347
 20
373.9478434899961
 30
0.0
  0
VERTEX
  5
B58
  8
DATA
  6
CONTINUOUS
 62
     7
 10
595.35561234655336
 20
373.9478434899961
 30
0.0
  0
SEQEND
  5
B59
  8
DATA
  6
CONTINUOUS
 62
     7
  0
TEXT
  5
89D
  8
DATA
 62
     7
 10
626.27398294782404
 20
374.14627552627923
 30
0.0
 40
9.3821259786320326
  1
I
 41
0.7
 11
626.27398294782404
 21
383.52840150491119
 31
0.0
 73
     3
  0
TEXT
  5
89E
  8
DATA
 62
     7
 10
495.26312101064451
 20
368.51353157610311
 30
0.0
 40
9.3821259786320326
  1
Remote
 41
0.7
 11
495.26312101064451
 21
377.89565755473512
 31
0.0
 73
     3
  0
TEXT
  5
89F
  8
DATA
 62
     7
 10
498.39968659042842
 20
356.73608657076119
 30
0.0
 40
9.3821259786320326
  1
Switch
 41
0.7
 11
498.39968659042842
 21
366.11821254939321
 31
0.0
 73
     3
  0
LINE
  5
8A0
  8
DATA
  6
CONTINUOUS
 62
     7
 10
455.71056630122058
 20
281.45739671632981
 30
0.0
 11
476.18556630122077
 21
281.45739671632981
 31
0.0
  0
POLYLINE
  5
8A1
  8
DATA
  6
CONTINUOUS
 62
     7
 66
     1
 10
0.0
 20
0.0
 30
0.0
 70
     1
  0
VERTEX
  5
B5A
  8
DATA
  6
CONTINUOUS
 62
     7
 10
460.82931630122067
 20
285.84489671633003
 30
0.0
  0
VERTEX
  5
B5B
  8
DATA
  6
CONTINUOUS
 62
     7
 10
471.0668163012208
 20
285.84489671633003
 30
0.0
  0
VERTEX
  5
B5C
  8
DATA
  6
CONTINUOUS
 62
     7
 10
471.0668163012208
 20
281.45739671632981
 30
0.0
  0
VERTEX
  5
B5D
  8
DATA
  6
CONTINUOUS
 62
     7
 10
460.82931630122067
 20
281.45739671632981
 30
0.0
  0
SEQEND
  5
B5E
  8
DATA
  6
CONTINUOUS
 62
     7
  0
TEXT
  5
8A8
  8
DATA
 62
     7
 10
480.14842557478579
 20
281.58637753991388
 30
0.0
 40
6.0983818861108201
  1
0
 41
0.7
 11
480.14842557478579
 21
287.6847594260247
 31
0.0
 73
     3
  0
LINE
  5
8A9
  8
DATA
  6
CONTINUOUS
 62
     7
 10
455.71056630122058
 20
293.44920163885752
 30
0.0
 11
476.18556630122077
 21
293.44920163885752
 31
0.0
  0
POLYLINE
  5
8AA
  8
DATA
  6
CONTINUOUS
 62
     7
 66
     1
 10
0.0
 20
0.0
 30
0.0
 70
     1
  0
VERTEX
  5
B5F
  8
DATA
  6
CONTINUOUS
 62
     7
 10
460.82931630122067
 20
294.91170163885738
 30
0.0
  0
VERTEX
  5
B60
  8
DATA
  6
CONTINUOUS
 62
     7
 10
471.0668163012208
 20
294.91170163885738
 30
0.0
  0
VERTEX
  5
B61
  8
DATA
  6
CONTINUOUS
 62
     7
 10
471.0668163012208
 20
293.44920163885752
 30
0.0
  0
VERTEX
  5
B62
  8
DATA
  6
CONTINUOUS
 62
     7
 10
460.82931630122067
 20
293.44920163885752
 30
0.0
  0
SEQEND
  5
B63
  8
DATA
  6
CONTINUOUS
 62
     7
  0
TEXT
  5
8B1
  8
DATA
 62
     7
 10
480.92625719204682
 20
293.5781824624413
 30
0.0
 40
6.0983818861108201
  1
I
 41
0.7
 11
480.92625719204682
 21
299.67656434855212
 31
0.0
 73
     3
  0
TEXT
  5
8B2
  8
DATA
 62
     7
 10
450.7124629462341
 20
330.81453389749657
 30
0.0
 40
9.3821259786320326
  1
Switch
 41
0.7
 11
450.7124629462341
 21
340.19665987612859
 31
0.0
 73
     3
  0
TEXT
  5
8B3
  8
DATA
 62
     7
 10
450.7124629462341
 20
343.32311299960389
 30
0.0
 40
9.3821259786320326
  1
Enable
 41
0.7
 11
450.7124629462341
 21
352.70523897823591
 31
0.0
 73
     3
  0
TEXT
  5
8B4
  8
DATA
 62
     7
 10
356.34981183251477
 20
361.69393645516061
 30
0.0
 40
9.3821259786320326
  1
Depth
 41
0.7
 11
356.34981183251477
 21
371.07606243379257
 31
0.0
 73
     3
  0
TEXT
  5
8B5
  8
DATA
 62
     7
 10
271.84688867922603
 20
361.69393645516061
 30
0.0
 40
9.3821259786320326
  1
Fieguency
 41
0.7
 11
271.84688867922603
 21
371.07606243379257
 31
0.0
 73
     3
  0
TEXT
  5
8B6
  8
DATA
 62
     7
 10
201.96800162846509
 20
361.69393645516061
 30
0.0
 40
9.3821259786320326
  1
Width
 41
0.7
 11
201.96800162846509
 21
371.07606243379257
 31
0.0
 73
     3
  0
LINE
  5
8B7
  8
DATA
  6
CONTINUOUS
 62
     7
 10
226.54853441933719
 20
349.17621388715469
 30
0.0
 11
208.91324092836359
 21
331.54092039618109
 31
0.0
  0
LINE
  5
8B8
  8
DATA
  6
CONTINUOUS
 62
     7
 10
304.12853441933731
 20
349.17621388715469
 30
0.0
 11
286.49324092836372
 21
331.54092039618109
 31
0.0
  0
LINE
  5
8B9
  8
DATA
  6
CONTINUOUS
 62
     7
 10
381.7085344193373
 20
349.17621388715469
 30
0.0
 11
364.0732409283637
 21
331.54092039618109
 31
0.0
  0
CIRCLE
  5
8BA
  8
DATA
  6
CONTINUOUS
 62
     7
 10
467.04676550905361
 20
316.50228978810247
 30
0.0
 40
8.7900145345247207
  0
TEXT
  5
8BB
  8
DATA
 62
     7
 10
410.58861565349179
 20
331.99393645516068
 30
0.0
 40
9.3821259786320326
  1
Active
 41
0.7
 11
410.58861565349179
 21
341.3760624337927
 31
0.0
 73
     3
  0
TEXT
  5
8BC
  8
DATA
 62
     7
 10
357.60892073099791
 20
318.0665625391004
 30
0.0
 40
7.5057007829056248
  1
0
 41
0.7
 11
357.60892073099791
 21
325.57226332200599
 31
0.0
 73
     3
  0
TEXT
  5
8BD
  8
DATA
 62
     7
 10
378.116484463809
 20
318.0665625391004
 30
0.0
 40
7.5057007829056248
  1
-14
 41
0.7
 11
378.116484463809
 21
325.57226332200599
 31
0.0
 73
     3
  0
TEXT
  5
8BE
  8
DATA
 62
     7
 10
381.20702764555148
 20
309.40870623858461
 30
0.0
 40
7.5057007829056248
  1
dB
 41
0.7
 11
381.20702764555148
 21
316.91440702149021
 31
0.0
 73
     3
  0
TEXT
  5
8BF
  8
DATA
 62
     7
 10
302.27261828898651
 20
318.0665625391004
 30
0.0
 40
7.5057007829056248
  1
96
 41
0.7
 11
302.27261828898651
 21
325.57226332200599
 31
0.0
 73
     3
  0
TEXT
  5
8C0
  8
DATA
 62
     7
 10
302.19824671476181
 20
309.40870623858461
 30
0.0
 40
7.5057007829056248
  1
dB
 41
0.7
 11
302.19824671476181
 21
316.91440702149021
 31
0.0
 73
     3
  0
TEXT
  5
8C1
  8
DATA
 62
     7
 10
280.0892764047361
 20
318.0665625391004
 30
0.0
 40
7.5057007829056248
  1
24
 41
0.7
 11
280.0892764047361
 21
325.57226332200599
 31
0.0
 73
     3
  0
TEXT
  5
8C2
  8
DATA
 62
     7
 10
280.01490483051163
 20
309.40870623858461
 30
0.0
 40
7.5057007829056248
  1
dB
 41
0.7
 11
280.01490483051163
 21
316.91440702149021
 31
0.0
 73
     3
  0
ARC
  5
8C3
  8
DATA
  6
CONTINUOUS
 62
     7
 10
-111.66950606173189
 20
357.72725790466001
 30
0.0
 40
52.874999999992973
 50
102.8521535199443
 51
77.745103629678539
  0
CIRCLE
  5
8C4
  8
DATA
  6
CONTINUOUS
 62
     7
 10
-111.6695060617303
 20
357.72725790465319
 30
0.0
 40
45.0
  0
CIRCLE
  5
8C5
  8
DATA
  6
CONTINUOUS
 62
     7
 10
-111.64631540344649
 20
358.42982731336679
 30
0.0
 40
36.0
  0
CIRCLE
  5
8C6
  8
DATA
  6
CONTINUOUS
 62
     7
 10
-152.27369912695369
 20
415.3361364323568
 30
0.0
 40
7.4125384987499947
  0
LINE
  5
8C7
  8
DATA
  6
CONTINUOUS
 62
     7
 10
-152.27369912695369
 20
411.59752587651849
 30
0.0
 11
-152.27369912695369
 21
419.07474698819482
 31
0.0
  0
LINE
  5
8C8
  8
DATA
  6
CONTINUOUS
 62
     7
 10
-156.01230968279179
 20
415.3361364323568
 30
0.0
 11
-148.53508857111561
 21
415.3361364323568
 31
0.0
  0
CIRCLE
  5
8C9
  8
DATA
  6
CONTINUOUS
 62
     7
 10
-61.714314079939179
 20
311.2158282173562
 30
0.0
 40
7.4125384987499947
  0
LINE
  5
8CA
  8
DATA
  6
CONTINUOUS
 62
     7
 10
-61.714314079939179
 20
307.47721766151813
 30
0.0
 11
-61.714314079939179
 21
314.9544387731944
 31
0.0
  0
LINE
  5
8CB
  8
DATA
  6
CONTINUOUS
 62
     7
 10
-65.452924635777322
 20
311.2158282173562
 30
0.0
 11
-57.975703524101043
 21
311.2158282173562
 31
0.0
  0
CIRCLE
  5
8CC
  8
DATA
  6
CONTINUOUS
 62
     7
 10
-11.60785226695452
 20
326.50059751336357
 30
0.0
 40
22.5
  0
CIRCLE
  5
8CD
  8
DATA
  6
CONTINUOUS
 62
     7
 10
143.5383023580456
 20
326.50059751336357
 30
0.0
 40
22.5
  0
TEXT
  5
8CE
  8
DATA
 62
     7
 10
-135.47239468764991
 20
277.19226100120562
 30
0.0
 40
15.636876631053379
  1
Input
 41
0.7
 11
-135.47239468764991
 21
292.82913763225901
 31
0.0
 73
     3
  0
TEXT
  5
8CF
  8
DATA
 62
     7
 10
32.21905079789741
 20
353.65137350798011
 30
0.0
 40
9.0068409394867501
  1
Option Active
 41
0.7
 11
32.21905079789741
 21
362.65821444746678
 31
0.0
 73
     3
  0
TEXT
  5
8D0
  8
DATA
 62
     7
 10
28.31175638602809
 20
341.04043189017602
 30
0.0
 40
9.0068409394867501
  1
With Switch Up
 41
0.7
 11
28.31175638602809
 21
350.0472728296628
 31
0.0
 73
     3
  0
TEXT
  5
8D1
  8
DATA
 62
     7
 10
-20.48161619519783
 20
368.99814046273627
 30
0.0
 40
7.5057007829056248
  1
Input
 41
0.7
 11
-20.48161619519783
 21
376.50384124564192
 31
0.0
 73
     3
  0
TEXT
  5
8D2
  8
DATA
 62
     7
 10
-20.48161619519783
 20
357.42634257434497
 30
0.0
 40
7.5057007829056248
  1
Trim
 41
0.7
 11
-20.48161619519783
 21
364.93204335725062
 31
0.0
 73
     3
  0
TEXT
  5
8D3
  8
DATA
 62
     7
 10
6.0324945339189062
 20
297.61380436325919
 30
0.0
 40
7.5057007829056248
  1
0
 41
0.7
 11
6.0324945339189071
 21
305.1195051461649
 31
0.0
 73
     3
  0
TEXT
  5
8D4
  8
DATA
 62
     7
 10
1.594453334162266
 20
287.50139152089929
 30
0.0
 40
7.5057007829056248
  1
dB
 41
0.7
 11
1.5944533341622671
 21
295.00709230380488
 31
0.0
 73
     3
  0
TEXT
  5
8D5
  8
DATA
 62
     7
 10
-38.314598769384247
 20
295.06514515904331
 30
0.0
 40
7.5057007829056248
  1
Cut
 41
0.7
 11
-38.314598769384247
 21
302.5708459419489
 31
0.0
 73
     3
  0
TEXT
  5
8D6
  8
DATA
 62
     7
 10
24.264128612452449
 20
304.66728838322382
 30
0.0
 40
4.8787055088886566
  1
1
 41
0.7
 11
24.264128612452449
 21
309.54599389211239
 31
0.0
 73
     3
  0
TEXT
  5
8D7
  8
DATA
 62
     7
 10
35.739128612452532
 20
304.66728838322382
 30
0.0
 40
4.8787055088886566
  1
2
 41
0.7
 11
35.739128612452532
 21
309.54599389211239
 31
0.0
 73
     3
  0
TEXT
  5
8D8
  8
DATA
 62
     7
 10
47.214128612452562
 20
304.66728838322382
 30
0.0
 40
4.8787055088886566
  1
3
 41
0.7
 11
47.214128612452562
 21
309.54599389211239
 31
0.0
 73
     3
  0
TEXT
  5
8D9
  8
DATA
 62
     7
 10
58.68912861245235
 20
304.66728838322382
 30
0.0
 40
4.8787055088886566
  1
4
 41
0.7
 11
58.68912861245235
 21
309.54599389211239
 31
0.0
 73
     3
  0
TEXT
  5
8DA
  8
DATA
 62
     7
 10
70.164128612452402
 20
304.66728838322382
 30
0.0
 40
4.8787055088886566
  1
5
 41
0.7
 11
70.164128612452402
 21
309.54599389211239
 31
0.0
 73
     3
  0
TEXT
  5
8DB
  8
DATA
 62
     7
 10
81.639128612452694
 20
304.66728838322382
 30
0.0
 40
4.8787055088886566
  1
6
 41
0.7
 11
81.639128612452694
 21
309.54599389211239
 31
0.0
 73
     3
  0
TEXT
  5
8DC
  8
DATA
 62
     7
 10
93.114128612452504
 20
304.66728838322382
 30
0.0
 40
4.8787055088886566
  1
7
 41
0.7
 11
93.114128612452504
 21
309.54599389211239
 31
0.0
 73
     3
  0
TEXT
  5
8DD
  8
DATA
 62
     7
 10
104.5891286124523
 20
304.66728838322382
 30
0.0
 40
4.8787055088886566
  1
8
 41
0.7
 11
104.5891286124523
 21
309.54599389211239
 31
0.0
 73
     3
  0
LINE
  5
8DE
  8
DATA
  6
CONTINUOUS
 62
     7
 10
26.086917141553609
 20
301.59943037361393
 30
0.0
 11
26.086917141553609
 21
223.9416583146284
 31
0.0
  0
LINE
  5
8DF
  8
DATA
  6
CONTINUOUS
 62
     7
 10
37.579224897299923
 20
301.59943037361393
 30
0.0
 11
37.579224897299923
 21
212.2866583146288
 31
0.0
  0
LINE
  5
8E0
  8
DATA
  6
CONTINUOUS
 62
     7
 10
49.071532635807323
 20
301.59943037361393
 30
0.0
 11
49.071532635807323
 21
200.6316583146286
 31
0.0
  0
LINE
  5
8E1
  8
DATA
  6
CONTINUOUS
 62
     7
 10
60.563840391553391
 20
301.59943037361393
 30
0.0
 11
60.563840391553391
 21
188.97665831462879
 31
0.0
  0
LINE
  5
8E2
  8
DATA
  6
CONTINUOUS
 62
     7
 10
72.056148147300433
 20
301.59943037361393
 30
0.0
 11
72.056148147300433
 21
188.97665831462879
 31
0.0
  0
LINE
  5
8E3
  8
DATA
  6
CONTINUOUS
 62
     7
 10
83.548455885807883
 20
301.59943037361393
 30
0.0
 11
83.548455885807883
 21
200.6316583146286
 31
0.0
  0
LINE
  5
8E4
  8
DATA
  6
CONTINUOUS
 62
     7
 10
95.040763641554435
 20
301.59943037361393
 30
0.0
 11
95.122840026671426
 21
212.2866583146288
 31
0.0
  0
LINE
  5
8E5
  8
DATA
  6
CONTINUOUS
 62
     7
 10
106.53307139729991
 20
301.59943037361393
 30
0.0
 11
106.53307139729991
 21
223.9416583146284
 31
0.0
  0
LINE
  5
8E6
  8
DATA
  6
CONTINUOUS
 62
     7
 10
-0.9130828584466144
 20
188.97665831462879
 30
0.0
 11
60.563840391553391
 21
188.97665831462879
 31
0.0
  0
LINE
  5
8E7
  8
DATA
  6
CONTINUOUS
 62
     7
 10
72.056148147300433
 20
188.97665831462879
 30
0.0
 11
133.53307139729989
 21
188.97665831462879
 31
0.0
  0
LINE
  5
8E8
  8
DATA
  6
CONTINUOUS
 62
     7
 10
-0.9130828584466144
 20
188.97665831462879
 30
0.0
 11
60.563840391553391
 21
188.97665831462879
 31
0.0
  0
LINE
  5
8E9
  8
DATA
  6
CONTINUOUS
 62
     7
 10
-0.9130828584466144
 20
200.6316583146286
 30
0.0
 11
49.071532635807323
 21
200.6316583146286
 31
0.0
  0
LINE
  5
8EA
  8
DATA
  6
CONTINUOUS
 62
     7
 10
-0.9130828584466144
 20
212.2866583146288
 30
0.0
 11
37.579224897299923
 21
212.2866583146288
 31
0.0
  0
LINE
  5
8EB
  8
DATA
  6
CONTINUOUS
 62
     7
 10
-0.9130828584466144
 20
223.9416583146286
 30
0.0
 11
26.08691714155384
 21
223.9416583146286
 31
0.0
  0
LINE
  5
8EC
  8
DATA
  6
CONTINUOUS
 62
     7
 10
72.056148147300433
 20
188.97665831462879
 30
0.0
 11
133.53307139729989
 21
188.97665831462879
 31
0.0
  0
LINE
  5
8ED
  8
DATA
  6
CONTINUOUS
 62
     7
 10
83.548455885807883
 20
200.6316583146286
 30
0.0
 11
133.53307139729989
 21
200.6316583146286
 31
0.0
  0
LINE
  5
8EE
  8
DATA
  6
CONTINUOUS
 62
     7
 10
95.122840026671426
 20
212.2866583146288
 30
0.0
 11
133.53307139729989
 21
212.2866583146288
 31
0.0
  0
LINE
  5
8EF
  8
DATA
  6
CONTINUOUS
 62
     7
 10
106.53307139729991
 20
223.9416583146286
 30
0.0
 11
133.53307139729989
 21
223.9416583146286
 31
0.0
  0
TEXT
  5
8F0
  8
DATA
 62
     7
 10
137.94445333416229
 20
223.69736063500969
 30
0.0
 40
9.7730468750000021
  1
HF Level+1dB(2kHz-20kHz)
 41
0.7
 11
137.94445333416229
 21
233.47040751000969
 31
0.0
 73
     3
  0
TEXT
  5
8F1
  8
DATA
 62
     7
 10
137.94445333416229
 20
207.54660654932081
 30
0.0
 40
9.7730468750000021
  1
HF Levelー1dB(2kHz-20kHz)
 41
0.7
 11
137.94445333416229
 21
217.31965342432079
 31
0.0
 73
     3
  0
TEXT
  5
8F2
  8
DATA
 62
     7
 10
137.94445333416229
 20
195.8916065493209
 30
0.0
 40
9.7730468750000021
  1
ー3.0ｄB
 41
0.7
 11
137.94445333416229
 21
205.6646534243209
 31
0.0
 73
     3
  0
TEXT
  5
8F3
  8
DATA
 62
     7
 10
137.94445333416229
 20
183.36501888920591
 30
0.0
 40
9.7730468750000021
  1
ー1.5ｄB
 41
0.7
 11
137.94445333416229
 21
193.13806576420589
 31
0.0
 73
     3
  0
LINE
  5
8F4
  8
DATA
  6
CONTINUOUS
 62
     7
 10
185.94877741724821
 20
200.13562770288539
 30
0.0
 11
197.76127741724821
 21
200.13562770288539
 31
0.0
  0
LINE
  5
8F5
  8
DATA
  6
CONTINUOUS
 62
     7
 10
197.76127741724821
 20
200.13562770288539
 30
0.0
 11
197.76127741724821
 21
187.49712985821569
 31
0.0
  0
LINE
  5
8F6
  8
DATA
  6
CONTINUOUS
 62
     7
 10
185.94877741724821
 20
187.4971298582154
 30
0.0
 11
197.76127741724821
 21
187.4971298582154
 31
0.0
  0
TEXT
  5
8F7
  8
DATA
 62
     7
 10
199.07051493897379
 20
189.56537813383721
 30
0.0
 40
9.7730468750000021
  1
ー4.5dB LF Boundary Comp
 41
0.7
 11
199.07051493897379
 21
199.33842500883719
 31
0.0
 73
     3
  0
TEXT
  5
8F8
  8
DATA
 62
     7
 10
-102.08034978280899
 20
222.77389805495511
 30
0.0
 40
9.7730468750000021
  1
Input Trim Active
 41
0.7
 11
-102.08034978280899
 21
232.54694492995509
 31
0.0
 73
     3
  0
TEXT
  5
8F9
  8
DATA
 62
     7
 10
-145.7481588510644
 20
209.633568797251
 30
0.0
 40
9.7730468750000021
  1
+ 4dBu　Input Sensitivity
 41
0.7
 11
-145.7481588510644
 21
219.40661567225101
 31
0.0
 73
     3
  0
TEXT
  5
8FA
  8
DATA
 62
     7
 10
-145.3276436123889
 20
197.20047927594979
 30
0.0
 40
9.7730468750000021
  1
+ 8dBu　Input Sensitivity
 41
0.7
 11
-145.3276436123889
 21
206.97352615094991
 31
0.0
 73
     3
  0
TEXT
  5
8FB
  8
DATA
 62
     7
 10
-95.043205035472184
 20
183.56327666821991
 30
0.0
 40
9.7730468750000021
  1
VLF Protect Off
 41
0.7
 11
-95.043205035472184
 21
193.33632354322
 31
0.0
 73
     3
  0
ARC
  5
8FC
  8
DATA
  6
CONTINUOUS
 62
     7
 10
188.5790961912914
 20
309.76084326312292
 30
0.0
 40
16.61025489276221
 50
10.62714732437326
 51
37.768016094671701
  0
ARC
  5
8FD
  8
DATA
  6
CONTINUOUS
 62
     7
 10
221.2298104770332
 20
309.76084326312292
 30
0.0
 40
16.61025489276231
 50
142.23198390532829
 51
169.3728526756266
  0
LINE
  5
8FE
  8
DATA
  6
CONTINUOUS
 62
     7
 10
225.514453334162
 20
319.84405754884398
 30
0.0
 11
225.514453334162
 21
315.56786201637482
 31
0.0
  0
LINE
  5
8FF
  8
DATA
  6
CONTINUOUS
 62
     7
 10
230.014453334162
 20
319.84405754884398
 30
0.0
 11
230.014453334162
 21
315.56786201637482
 31
0.0
  0
ARC
  5
900
  8
DATA
  6
CONTINUOUS
 62
     7
 10
227.76445336768961
 20
315.56786201637482
 30
0.0
 40
2.2500000335276118
 50
180.0
 51
270.0
  0
ARC
  5
901
  8
DATA
  6
CONTINUOUS
 62
     7
 10
227.76445330063439
 20
315.56786201637482
 30
0.0
 40
2.2500000335276118
 50
270.0
 51
0.0
  0
LINE
  5
902
  8
DATA
  6
CONTINUOUS
 62
     7
 10
4.3020503097429801
 20
342.41050009006108
 30
0.0
 11
-27.591588996520048
 21
310.66487333794458
 31
0.0
  0
TEXT
  5
903
  8
DATA
 62
     7
 10
229.90553876386011
 20
114.5625516477464
 30
0.0
 40
27.147352430555561
  1
背面パネル拡大図
 41
0.7
 11
229.90553876386011
 21
141.709904078302
 31
0.0
 73
     3
  0
TEXT
  5
904
  8
DATA
 62
     7
 10
-207.1227034417856
 20
-870.73521439574631
 30
0.0
 40
27.147352430555561
  1
4ケ所ーM6(深さ40mm)
 41
0.7
 11
-207.1227034417856
 21
-843.58786196519065
 31
0.0
 73
     3
  0
LINE
  5
905
  8
DATA
  6
CONTINUOUS
 62
     7
 10
200.0
 20
100.0
 30
0.0
 11
550.0
 21
100.0
 31
0.0
  0
ENDSEC
  0
EOF
