  0
SECTION
  2
HEADER
  9
$ACADVER
  1
AC1009
  9
$INSBASE
 10
0.0
 20
0.0
 30
0.0
  9
$EXTMIN
 10
-180.01098548994739
 20
-271.71201227911092
 30
-0.0015258207003583
  9
$EXTMAX
 10
180.01098716632811
 20
263.54811651401701
 30
0.0000000349246037
  9
$LIMMIN
 10
0.0
 20
0.0
  9
$LIMMAX
 10
0.0
 20
0.0
  9
$ORTHOMODE
 70
     0
  9
$REGENMODE
 70
     1
  9
$FILLMODE
 70
     1
  9
$QTEXTMODE
 70
     0
  9
$MIRRTEXT
 70
     1
  9
$DRAGMODE
 70
     2
  9
$LTSCALE
 40
10.16
  9
$OSMODE
 70
   231
  9
$ATTMODE
 70
     1
  9
$TEXTSIZE
 40
0.0
  9
$TRACEWID
 40
1.0
  9
$TEXTSTYLE
  7
STANDARD
  9
$CLAYER
  8
DATA
  9
$CELTYPE
  6
BYLAYER
  9
$CECOLOR
 62
   256
  9
$DIMSCALE
 40
1.0
  9
$DIMASZ
 40
0.18
  9
$DIMEXO
 40
0.0625
  9
$DIMDLI
 40
0.38
  9
$DIMRND
 40
0.0
  9
$DIMDLE
 40
0.0
  9
$DIMEXE
 40
0.18
  9
$DIMTP
 40
0.0
  9
$DIMTM
 40
0.0
  9
$DIMTXT
 40
0.18
  9
$DIMCEN
 40
0.09
  9
$DIMTSZ
 40
0.0
  9
$DIMTOL
 70
     0
  9
$DIMLIM
 70
     0
  9
$DIMTIH
 70
     1
  9
$DIMTOH
 70
     1
  9
$DIMSE1
 70
     0
  9
$DIMSE2
 70
     0
  9
$DIMTAD
 70
     0
  9
$DIMZIN
 70
     0
  9
$DIMBLK
  1

  9
$DIMASO
 70
     1
  9
$DIMSHO
 70
     1
  9
$DIMPOST
  1

  9
$DIMAPOST
  1

  9
$DIMALT
 70
     0
  9
$DIMALTD
 70
     2
  9
$DIMALTF
 40
25.399999999999999
  9
$DIMLFAC
 40
1.0
  9
$DIMTOFL
 70
     0
  9
$DIMTVP
 40
0.0
  9
$DIMTIX
 70
     0
  9
$DIMSOXD
 70
     0
  9
$DIMSAH
 70
     0
  9
$DIMBLK1
  1

  9
$DIMBLK2
  1

  9
$DIMSTYLE
  2
STANDARD
  9
$DIMCLRD
 70
     0
  9
$DIMCLRE
 70
     0
  9
$DIMCLRT
 70
     0
  9
$DIMTFAC
 40
1.0
  9
$DIMGAP
 40
0.09
  9
$LUNITS
 70
     2
  9
$LUPREC
 70
     4
  9
$SKETCHINC
 40
0.1
  9
$FILLETRAD
 40
0.0
  9
$AUNITS
 70
     0
  9
$AUPREC
 70
     0
  9
$MENU
  1
acad
  9
$ELEVATION
 40
0.0
  9
$PELEVATION
 40
0.0
  9
$THICKNESS
 40
0.0
  9
$LIMCHECK
 70
     0
  9
$BLIPMODE
 70
     0
  9
$CHAMFERA
 40
0.0
  9
$CHAMFERB
 40
0.0
  9
$SKPOLY
 70
     0
  9
$TDCREATE
 40
2456909.600706019
  9
$TDUPDATE
 40
2456909.6018359382
  9
$TDINDWG
 40
0.0003592477
  9
$TDUSRTIMER
 40
0.000353588
  9
$USRTIMER
 70
     1
  9
$ANGBASE
 50
0.0
  9
$ANGDIR
 70
     0
  9
$PDMODE
 70
     1
  9
$PDSIZE
 40
-2.0
  9
$PLINEWID
 40
0.0
  9
$COORDS
 70
     2
  9
$SPLFRAME
 70
     0
  9
$SPLINETYPE
 70
     6
  9
$SPLINESEGS
 70
     8
  9
$ATTDIA
 70
     0
  9
$ATTREQ
 70
     1
  9
$HANDLING
 70
     1
  9
$HANDSEED
  5
579
  9
$SURFTAB1
 70
     6
  9
$SURFTAB2
 70
     6
  9
$SURFTYPE
 70
     6
  9
$SURFU
 70
     6
  9
$SURFV
 70
     6
  9
$UCSNAME
  2

  9
$UCSORG
 10
0.0
 20
0.0
 30
0.0
  9
$UCSXDIR
 10
1.0
 20
0.0
 30
0.0
  9
$UCSYDIR
 10
0.0
 20
1.0
 30
0.0
  9
$PUCSNAME
  2

  9
$PUCSORG
 10
0.0
 20
0.0
 30
0.0
  9
$PUCSXDIR
 10
1.0
 20
0.0
 30
0.0
  9
$PUCSYDIR
 10
0.0
 20
1.0
 30
0.0
  9
$USERI1
 70
     0
  9
$USERI2
 70
     0
  9
$USERI3
 70
     0
  9
$USERI4
 70
     0
  9
$USERI5
 70
     0
  9
$USERR1
 40
0.0
  9
$USERR2
 40
0.0
  9
$USERR3
 40
0.0
  9
$USERR4
 40
0.0
  9
$USERR5
 40
0.0
  9
$WORLDVIEW
 70
     1
  9
$SHADEDGE
 70
     3
  9
$SHADEDIF
 70
    70
  9
$TILEMODE
 70
     1
  9
$MAXACTVP
 70
    64
  9
$PLIMCHECK
 70
     0
  9
$PEXTMIN
 10
1.0000000000000000E+020
 20
1.0000000000000000E+020
 30
1.0000000000000000E+020
  9
$PEXTMAX
 10
-1.0000000000000000E+020
 20
-1.0000000000000000E+020
 30
-1.0000000000000000E+020
  9
$PLIMMIN
 10
0.0
 20
0.0
  9
$PLIMMAX
 10
12.0
 20
9.0
  9
$UNITMODE
 70
     0
  9
$VISRETAIN
 70
     0
  9
$PLINEGEN
 70
     1
  9
$PSLTSCALE
 70
     0
  0
ENDSEC
  0
SECTION
  2
TABLES
  0
TABLE
  2
VPORT
 70
     1
  0
VPORT
  2
*ACTIVE
 70
     0
 10
0.0
 20
0.0
 11
1.0
 21
1.0
 12
0.0000008381904308
 22
-4.0819478825469551
 13
0.0
 23
0.0
 14
1.0
 24
1.0
 15
0.0
 25
0.0
 16
0.0
 26
0.0
 36
1.0
 17
0.0
 27
0.0
 37
0.0
 40
539.38809893806194
 41
2.4427284427284421
 42
50.0
 43
0.0
 44
0.0
 50
0.0
 51
0.0
 71
     0
 72
  2000
 73
     1
 74
     1
 75
     0
 76
     0
 77
     0
 78
     0
  0
ENDTAB
  0
TABLE
  2
LTYPE
 70
    11
  0
LTYPE
  2
CONTINUOUS
 70
     0
  3
Solid line
 72
    65
 73
     0
 40
0.0
  0
ENDTAB
  0
TABLE
  2
LAYER
 70
     6
  0
LAYER
  2
0
 70
     0
 62
     7
  6
CONTINUOUS
  0
LAYER
  2
DATA
 70
     0
 62
     7
  6
CONTINUOUS
  0
LAYER
  2
HIBINO-BASE
 70
     0
 62
     7
  6
CONTINUOUS
  0
LAYER
  2
PATTERN_FILL
 70
     0
 62
     7
  6
CONTINUOUS
  0
LAYER
  2
SPEC
 70
     0
 62
     7
  6
CONTINUOUS
  0
LAYER
  2
DIMNSIONS
 70
     0
 62
     7
  6
CONTINUOUS
  0
ENDTAB
  0
TABLE
  2
STYLE
 70
     3
  0
STYLE
  2
STANDARD
 70
     0
 40
0.0
 41
1.0
 50
0.0
 71
     0
 42
0.0
  3
txt
  4
BIGFONT.SHX
  0
ENDTAB
  0
TABLE
  2
VIEW
 70
     0
  0
ENDTAB
  0
TABLE
  2
UCS
 70
     0
  0
ENDTAB
  0
TABLE
  2
APPID
 70
     4
  0
APPID
  2
ACAD
 70
     0
  0
APPID
  2
ACADANNOTATIVE
 70
     0
  0
APPID
  2
ACAD_NAV_VCDISPLAY
 70
     0
  0
APPID
  2
ACAD_MLEADERVER
 70
     0
  0
ENDTAB
  0
TABLE
  2
DIMSTYLE
 70
     2
  0
DIMSTYLE
  2
STANDARD
 70
     0
  3

  4

  5

  6

  7

 40
1.0
 41
0.18
 42
0.0625
 43
0.38
 44
0.18
 45
0.0
 46
0.0
 47
0.0
 48
0.0
140
0.18
141
0.09
142
0.0
143
25.399999999999999
144
1.0
145
0.0
146
1.0
147
0.09
 71
     0
 72
     0
 73
     1
 74
     1
 75
     0
 76
     0
 77
     0
 78
     0
170
     0
171
     2
172
     0
173
     0
174
     0
175
     0
176
     0
177
     0
178
     0
  0
ENDTAB
  0
ENDSEC
  0
SECTION
  2
BLOCKS
  0
BLOCK
  8
0
  2
$MODEL_SPACE
 70
     0
 10
0.0
 20
0.0
 30
0.0
  3
$MODEL_SPACE
  1

  0
ENDBLK
  5
500
  8
0
  0
BLOCK
 67
     1
  8
0
  2
$PAPER_SPACE
 70
     0
 10
0.0
 20
0.0
 30
0.0
  3
$PAPER_SPACE
  1

  0
ENDBLK
  5
4FC
 67
     1
  8
0
  0
ENDSEC
  0
SECTION
  2
ENTITIES
  0
LINE
  5
2D
  8
HIBINO-BASE
  6
CONTINUOUS
 62
     7
 10
-180.0
 20
263.53181500000011
 30
0.0
 11
180.0
 21
263.53181500000011
 31
0.0
  0
LINE
  5
2E
  8
HIBINO-BASE
  6
CONTINUOUS
 62
     7
 10
180.0
 20
-256.46818500000001
 30
0.0
 11
-180.0
 21
-256.46818500000001
 31
0.0
  0
LINE
  5
2F
  8
HIBINO-BASE
  6
CONTINUOUS
 62
     7
 10
-180.0
 20
-256.46818500000001
 30
0.0
 11
-180.0
 21
263.53181500000011
 31
0.0
  0
LINE
  5
30
  8
HIBINO-BASE
  6
CONTINUOUS
 62
     7
 10
180.0
 20
263.53181500000011
 30
0.0
 11
180.0
 21
-256.46818500000001
 31
0.0
  0
LINE
  5
31
  8
HIBINO-BASE
  6
CONTINUOUS
 62
     7
 10
0.0000000000000142
 20
-211.46818500000001
 30
0.0
 11
180.0
 21
-211.46818500000001
 31
0.0
  0
LINE
  5
32
  8
HIBINO-BASE
  6
CONTINUOUS
 62
     7
 10
0.0000000000000142
 20
-256.46818500000001
 30
0.0
 11
0.0000000000000142
 21
-211.46818500000001
 31
0.0
  0
TEXT
  5
33
  8
HIBINO-BASE
 62
     7
 10
1.8000000000000249
 20
-216.48557166666669
 30
0.0
 40
3.2576822916666659
  1
NOTE
 41
0.7
 11
1.8000000000000249
 21
-213.22788937499999
 31
0.0
 73
     3
  0
LINE
  5
34
  8
HIBINO-BASE
  6
CONTINUOUS
 62
     7
 10
70.000000000000043
 20
-256.46818500000001
 30
0.0
 11
70.000000000000043
 21
-211.46818500000001
 31
0.0
  0
TEXT
  5
35
  8
HIBINO-BASE
 62
     7
 10
71.799999999999983
 20
-216.48557166666669
 30
0.0
 40
3.2576822916666659
  1
TITLE
 41
0.7
 11
71.799999999999983
 21
-213.22788937499999
 31
0.0
 73
     3
  0
LINE
  5
36
  8
HIBINO-BASE
  6
CONTINUOUS
 62
     7
 10
0.0000000000000142
 20
-236.46818500000001
 30
0.0
 11
180.0
 21
-236.46818500000001
 31
0.0
  0
TEXT
  5
37
  8
HIBINO-BASE
 62
     7
 10
96.799999999999983
 20
-241.37293166666669
 30
0.0
 40
3.2576822916666659
  1
DRAWN
 41
0.7
 11
96.799999999999983
 21
-238.11524937499999
 31
0.0
 73
     3
  0
TEXT
  5
38
  8
HIBINO-BASE
 62
     7
 10
46.79999999999999
 20
-241.37293166666669
 30
0.0
 40
3.2576822916666659
  1
DATE
 41
0.7
 11
46.79999999999999
 21
-238.11524937499999
 31
0.0
 73
     3
  0
TEXT
  5
39
  8
HIBINO-BASE
 62
     7
 10
26.800000000000001
 20
-241.37293166666669
 30
0.0
 40
3.2576822916666659
  1
SCALE
 41
0.7
 11
26.800000000000001
 21
-238.11524937499999
 31
0.0
 73
     3
  0
TEXT
  5
3A
  8
HIBINO-BASE
 62
     7
 10
71.799999999999983
 20
-241.37293166666669
 30
0.0
 40
3.2576822916666659
  1
DESIGN
 41
0.7
 11
71.799999999999983
 21
-238.11524937499999
 31
0.0
 73
     3
  0
TEXT
  5
3B
  8
HIBINO-BASE
 62
     7
 10
146.7999999999999
 20
-241.37293166666669
 30
0.0
 40
3.2576822916666659
  1
DRAWING NO.
 41
0.7
 11
146.7999999999999
 21
-238.11524937499999
 31
0.0
 73
     3
  0
TEXT
  5
3C
  8
HIBINO-BASE
 62
     7
 10
121.7999999999999
 20
-241.37293166666669
 30
0.0
 40
3.2576822916666659
  1
CHECK
 41
0.7
 11
121.7999999999999
 21
-238.11524937499999
 31
0.0
 73
     3
  0
LINE
  5
3D
  8
HIBINO-BASE
  6
CONTINUOUS
 62
     7
 10
28.750000000000011
 20
-253.96818500000001
 30
0.0
 11
36.250000000000028
 21
-246.46818500000001
 31
0.0
  0
TEXT
  5
3E
  8
HIBINO-BASE
 62
     7
 10
27.500000000000011
 20
-248.68607166666661
 30
0.0
 40
3.2576822916666659
  1
1
 41
0.7
 11
27.500000000000011
 21
-245.42838937499999
 31
0.0
 73
     3
  0
LINE
  5
3F
  8
HIBINO-BASE
  6
CONTINUOUS
 62
     7
 10
25.000000000000011
 20
-256.46818500000001
 30
0.0
 11
25.000000000000011
 21
-236.46818500000001
 31
0.0
  0
LINE
  5
40
  8
HIBINO-BASE
  6
CONTINUOUS
 62
     7
 10
44.999999999999993
 20
-256.46818500000001
 30
0.0
 11
44.999999999999993
 21
-236.46818500000001
 31
0.0
  0
LINE
  5
41
  8
HIBINO-BASE
  6
CONTINUOUS
 62
     7
 10
94.999999999999957
 20
-236.46818500000001
 30
0.0
 11
94.999999999999957
 21
-256.46818500000001
 31
0.0
  0
LINE
  5
42
  8
HIBINO-BASE
  6
CONTINUOUS
 62
     7
 10
145.0
 20
-236.46818500000001
 30
0.0
 11
145.0
 21
-256.46818500000001
 31
0.0
  0
LINE
  5
43
  8
HIBINO-BASE
  6
CONTINUOUS
 62
     7
 10
119.9999999999999
 20
-256.46818500000001
 30
0.0
 11
119.9999999999999
 21
-236.46818500000001
 31
0.0
  0
TEXT
  5
44
  8
HIBINO-BASE
 62
     7
 10
46.713080000000019
 20
-250.7408916666667
 30
0.0
 40
3.2576822916666659
  1
'14.09.
 41
0.7
 11
46.713080000000019
 21
-247.483209375
 31
0.0
 73
     3
  0
TEXT
  5
45
  8
HIBINO-BASE
 62
     7
 10
35.000000000000007
 20
-252.43607166666669
 30
0.0
 40
3.2576822916666659
  1
2
 41
0.7
 11
35.000000000000007
 21
-249.17838937499999
 31
0.0
 73
     3
  0
TEXT
  5
46
  8
HIBINO-BASE
 62
     7
 10
98.011620022069224
 20
-250.7408916666667
 30
0.0
 40
3.2576822916666659
  1
N.Sasaki
 41
0.7
 11
98.011620022069224
 21
-247.483209375
 31
0.0
 73
     3
  0
TEXT
  5
47
  8
HIBINO-BASE
 62
     7
 10
7.7666666666667208
 20
-252.51618500000001
 30
0.0
 40
6.5153645833333318
  1
A4
 41
0.7
 11
7.7666666666667208
 21
-246.00082041666661
 31
0.0
 73
     3
  0
TEXT
  5
48
  8
HIBINO-BASE
 62
     7
 10
1.916666666666671
 20
-241.7070949999999
 30
0.0
 40
3.2576822916666659
  1
PAPER SIZE
 41
0.7
 11
1.916666666666671
 21
-238.44941270833331
 31
0.0
 73
     3
  0
TEXT
  5
49
  8
HIBINO-BASE
 62
     7
 10
-165.63199999999989
 20
-269.28554059999988
 30
0.0
 40
7.2000883593749991
  1
Hibino Corporation
 41
0.7
 11
-165.63199999999989
 21
-262.08545224062487
 31
0.0
 73
     3
  0
TEXT
  5
4A
  8
HIBINO-BASE
 62
     7
 10
100.13678
 20
-269.28554059999988
 30
0.0
 40
7.2000883593749991
  1
ヒビノ株式会社
 41
0.7
 11
100.13678
 21
-262.08545224062487
 31
0.0
 73
     3
  0
ARC
  5
4B
  8
PATTERN_FILL
  6
CONTINUOUS
 62
     7
 10
-128.35769432829019
 20
-31.740707429441791
 30
0.0
 40
1.5000000000000191
 50
333.25934420280322
 51
0.5061342313419459
  0
ARC
  5
4C
  8
PATTERN_FILL
  6
CONTINUOUS
 62
     7
 10
-128.35769432829019
 20
-36.74070742944177
 30
0.0
 40
1.500000000000004
 50
279.23482202498042
 51
61.556533026543043
  0
ARC
  5
4D
  8
PATTERN_FILL
  6
CONTINUOUS
 62
     7
 10
-128.35769432829019
 20
-41.740707429441763
 30
0.0
 40
1.5000000000000251
 50
256.54342462552341
 51
91.422488203460787
  0
ARC
  5
4E
  8
PATTERN_FILL
  6
CONTINUOUS
 62
     7
 10
-128.35769432829019
 20
-46.74070742944177
 30
0.0
 40
1.500000000000006
 50
245.6016882489003
 51
109.6346156358984
  0
ARC
  5
4F
  8
PATTERN_FILL
  6
CONTINUOUS
 62
     7
 10
-128.35769432829019
 20
-51.740707429441777
 30
0.0
 40
1.500000000000004
 50
247.23119226954719
 51
115.314027783302
  0
ARC
  5
50
  8
PATTERN_FILL
  6
CONTINUOUS
 62
     7
 10
-128.35769432829019
 20
-56.740707429441777
 30
0.0
 40
1.500000000000004
 50
261.83964166821482
 51
107.9938686579876
  0
ARC
  5
51
  8
PATTERN_FILL
  6
CONTINUOUS
 62
     7
 10
-128.35769432829019
 20
-61.740707429441748
 30
0.0
 40
1.50000000000001
 50
287.97046108355192
 51
89.07255282473686
  0
ARC
  5
52
  8
PATTERN_FILL
  6
CONTINUOUS
 62
     7
 10
-128.35769432829019
 20
-66.740707429441798
 30
0.0
 40
1.4999999999999749
 50
331.06469398138518
 51
53.054582839499673
  0
ARC
  5
53
  8
PATTERN_FILL
  6
CONTINUOUS
 62
     7
 10
-123.35769432829019
 20
-21.74070742944177
 30
0.0
 40
1.5
 50
234.4917308489141
 51
83.372303208983013
  0
CIRCLE
  5
54
  8
PATTERN_FILL
  6
CONTINUOUS
 62
     7
 10
-123.35769432829019
 20
-26.74070742944178
 30
0.0
 40
1.5
  0
CIRCLE
  5
55
  8
PATTERN_FILL
  6
CONTINUOUS
 62
     7
 10
-123.35769432829019
 20
-31.74070742944178
 30
0.0
 40
1.5
  0
CIRCLE
  5
56
  8
PATTERN_FILL
  6
CONTINUOUS
 62
     7
 10
-123.35769432829019
 20
-36.74070742944177
 30
0.0
 40
1.5
  0
CIRCLE
  5
57
  8
PATTERN_FILL
  6
CONTINUOUS
 62
     7
 10
-123.35769432829019
 20
-41.740707429441763
 30
0.0
 40
1.5
  0
CIRCLE
  5
58
  8
PATTERN_FILL
  6
CONTINUOUS
 62
     7
 10
-123.35769432829019
 20
-46.740707429441777
 30
0.0
 40
1.5
  0
CIRCLE
  5
59
  8
PATTERN_FILL
  6
CONTINUOUS
 62
     7
 10
-123.35769432829019
 20
-51.740707429441777
 30
0.0
 40
1.5
  0
CIRCLE
  5
5A
  8
PATTERN_FILL
  6
CONTINUOUS
 62
     7
 10
-123.35769432829019
 20
-56.740707429441777
 30
0.0
 40
1.5
  0
CIRCLE
  5
5B
  8
PATTERN_FILL
  6
CONTINUOUS
 62
     7
 10
-123.35769432829019
 20
-61.740707429441777
 30
0.0
 40
1.5
  0
CIRCLE
  5
5C
  8
PATTERN_FILL
  6
CONTINUOUS
 62
     7
 10
-123.35769432829019
 20
-66.740707429441784
 30
0.0
 40
1.5
  0
CIRCLE
  5
5D
  8
PATTERN_FILL
  6
CONTINUOUS
 62
     7
 10
-123.35769432829019
 20
-71.740707429441784
 30
0.0
 40
1.5
  0
ARC
  5
5E
  8
PATTERN_FILL
  6
CONTINUOUS
 62
     7
 10
-123.35769432829019
 20
-76.740707429441798
 30
0.0
 40
1.499999999999976
 50
252.6088595004928
 51
147.44725710396881
  0
ARC
  5
5F
  8
PATTERN_FILL
  6
CONTINUOUS
 62
     7
 10
-123.35769432829019
 20
-81.740707429441784
 30
0.0
 40
1.4999999999999869
 50
332.14228589995622
 51
74.652449034349331
  0
ARC
  5
60
  8
PATTERN_FILL
  6
CONTINUOUS
 62
     7
 10
-118.35769432829019
 20
-11.74070742944178
 30
0.0
 40
1.5000000000000131
 50
214.98646100007571
 51
86.542709755722726
  0
CIRCLE
  5
61
  8
PATTERN_FILL
  6
CONTINUOUS
 62
     7
 10
-118.35769432829019
 20
-16.74070742944177
 30
0.0
 40
1.5
  0
CIRCLE
  5
62
  8
PATTERN_FILL
  6
CONTINUOUS
 62
     7
 10
-118.35769432829019
 20
-21.74070742944177
 30
0.0
 40
1.5
  0
CIRCLE
  5
63
  8
PATTERN_FILL
  6
CONTINUOUS
 62
     7
 10
-118.35769432829019
 20
-26.74070742944178
 30
0.0
 40
1.5
  0
CIRCLE
  5
64
  8
PATTERN_FILL
  6
CONTINUOUS
 62
     7
 10
-118.35769432829019
 20
-31.74070742944178
 30
0.0
 40
1.5
  0
CIRCLE
  5
65
  8
PATTERN_FILL
  6
CONTINUOUS
 62
     7
 10
-118.35769432829019
 20
-36.74070742944177
 30
0.0
 40
1.5
  0
CIRCLE
  5
66
  8
PATTERN_FILL
  6
CONTINUOUS
 62
     7
 10
-118.35769432829019
 20
-41.740707429441763
 30
0.0
 40
1.5
  0
CIRCLE
  5
67
  8
PATTERN_FILL
  6
CONTINUOUS
 62
     7
 10
-118.35769432829019
 20
-46.740707429441777
 30
0.0
 40
1.5
  0
CIRCLE
  5
68
  8
PATTERN_FILL
  6
CONTINUOUS
 62
     7
 10
-118.35769432829019
 20
-51.740707429441777
 30
0.0
 40
1.5
  0
CIRCLE
  5
69
  8
PATTERN_FILL
  6
CONTINUOUS
 62
     7
 10
-118.35769432829019
 20
-56.740707429441777
 30
0.0
 40
1.5
  0
CIRCLE
  5
6A
  8
PATTERN_FILL
  6
CONTINUOUS
 62
     7
 10
-118.35769432829019
 20
-61.740707429441777
 30
0.0
 40
1.5
  0
CIRCLE
  5
6B
  8
PATTERN_FILL
  6
CONTINUOUS
 62
     7
 10
-118.35769432829019
 20
-66.740707429441784
 30
0.0
 40
1.5
  0
CIRCLE
  5
6C
  8
PATTERN_FILL
  6
CONTINUOUS
 62
     7
 10
-118.35769432829019
 20
-71.740707429441784
 30
0.0
 40
1.5
  0
CIRCLE
  5
6D
  8
PATTERN_FILL
  6
CONTINUOUS
 62
     7
 10
-118.35769432829019
 20
-76.740707429441784
 30
0.0
 40
1.5
  0
CIRCLE
  5
6E
  8
PATTERN_FILL
  6
CONTINUOUS
 62
     7
 10
-118.35769432829019
 20
-81.740707429441784
 30
0.0
 40
1.5
  0
CIRCLE
  5
6F
  8
PATTERN_FILL
  6
CONTINUOUS
 62
     7
 10
-118.35769432829019
 20
-86.74070742944177
 30
0.0
 40
1.5
  0
ARC
  5
70
  8
PATTERN_FILL
  6
CONTINUOUS
 62
     7
 10
-118.35769432829019
 20
-91.740707429441755
 30
0.0
 40
1.500000000000008
 50
348.61223713754708
 51
74.206071612656785
  0
ARC
  5
71
  8
PATTERN_FILL
  6
CONTINUOUS
 62
     7
 10
-113.35769432829019
 20
-1.740707429441779
 30
0.0
 40
1.4999999999999949
 50
258.61453141062418
 51
26.792720687777571
  0
CIRCLE
  5
72
  8
PATTERN_FILL
  6
CONTINUOUS
 62
     7
 10
-113.35769432829019
 20
-6.7407074294417759
 30
0.0
 40
1.5
  0
CIRCLE
  5
73
  8
PATTERN_FILL
  6
CONTINUOUS
 62
     7
 10
-113.35769432829019
 20
-11.74070742944177
 30
0.0
 40
1.5
  0
CIRCLE
  5
74
  8
PATTERN_FILL
  6
CONTINUOUS
 62
     7
 10
-113.35769432829019
 20
-16.74070742944177
 30
0.0
 40
1.5
  0
CIRCLE
  5
75
  8
PATTERN_FILL
  6
CONTINUOUS
 62
     7
 10
-113.35769432829019
 20
-21.74070742944177
 30
0.0
 40
1.5
  0
CIRCLE
  5
76
  8
PATTERN_FILL
  6
CONTINUOUS
 62
     7
 10
-113.35769432829019
 20
-26.74070742944178
 30
0.0
 40
1.5
  0
CIRCLE
  5
77
  8
PATTERN_FILL
  6
CONTINUOUS
 62
     7
 10
-113.35769432829019
 20
-31.74070742944178
 30
0.0
 40
1.5
  0
CIRCLE
  5
78
  8
PATTERN_FILL
  6
CONTINUOUS
 62
     7
 10
-113.35769432829019
 20
-36.74070742944177
 30
0.0
 40
1.5
  0
CIRCLE
  5
79
  8
PATTERN_FILL
  6
CONTINUOUS
 62
     7
 10
-113.35769432829019
 20
-41.740707429441763
 30
0.0
 40
1.5
  0
CIRCLE
  5
7A
  8
PATTERN_FILL
  6
CONTINUOUS
 62
     7
 10
-113.35769432829019
 20
-46.740707429441777
 30
0.0
 40
1.5
  0
CIRCLE
  5
7B
  8
PATTERN_FILL
  6
CONTINUOUS
 62
     7
 10
-113.35769432829019
 20
-51.740707429441777
 30
0.0
 40
1.5
  0
CIRCLE
  5
7C
  8
PATTERN_FILL
  6
CONTINUOUS
 62
     7
 10
-113.35769432829019
 20
-56.740707429441777
 30
0.0
 40
1.5
  0
CIRCLE
  5
7D
  8
PATTERN_FILL
  6
CONTINUOUS
 62
     7
 10
-113.35769432829019
 20
-61.740707429441777
 30
0.0
 40
1.5
  0
CIRCLE
  5
7E
  8
PATTERN_FILL
  6
CONTINUOUS
 62
     7
 10
-113.35769432829019
 20
-66.740707429441784
 30
0.0
 40
1.5
  0
CIRCLE
  5
7F
  8
PATTERN_FILL
  6
CONTINUOUS
 62
     7
 10
-113.35769432829019
 20
-71.740707429441784
 30
0.0
 40
1.5
  0
CIRCLE
  5
80
  8
PATTERN_FILL
  6
CONTINUOUS
 62
     7
 10
-113.35769432829019
 20
-76.740707429441784
 30
0.0
 40
1.5
  0
CIRCLE
  5
81
  8
PATTERN_FILL
  6
CONTINUOUS
 62
     7
 10
-113.35769432829019
 20
-81.740707429441784
 30
0.0
 40
1.5
  0
CIRCLE
  5
82
  8
PATTERN_FILL
  6
CONTINUOUS
 62
     7
 10
-113.35769432829019
 20
-86.74070742944177
 30
0.0
 40
1.5
  0
CIRCLE
  5
83
  8
PATTERN_FILL
  6
CONTINUOUS
 62
     7
 10
-113.35769432829019
 20
-91.74070742944177
 30
0.0
 40
1.5
  0
ARC
  5
84
  8
PATTERN_FILL
  6
CONTINUOUS
 62
     7
 10
-113.35769432829019
 20
-96.74070742944177
 30
0.0
 40
1.4999999999999949
 50
296.7020048523467
 51
136.1324208736502
  0
ARC
  5
85
  8
PATTERN_FILL
  6
CONTINUOUS
 62
     7
 10
-108.35769432829019
 20
3.2592925705582232
 30
0.0
 40
1.500000000000002
 50
228.4427301740281
 51
46.787907255320327
  0
CIRCLE
  5
86
  8
PATTERN_FILL
  6
CONTINUOUS
 62
     7
 10
-108.35769432829019
 20
-1.7407074294417759
 30
0.0
 40
1.5
  0
CIRCLE
  5
87
  8
PATTERN_FILL
  6
CONTINUOUS
 62
     7
 10
-108.35769432829019
 20
-6.7407074294417759
 30
0.0
 40
1.5
  0
CIRCLE
  5
88
  8
PATTERN_FILL
  6
CONTINUOUS
 62
     7
 10
-108.35769432829019
 20
-11.74070742944177
 30
0.0
 40
1.5
  0
CIRCLE
  5
89
  8
PATTERN_FILL
  6
CONTINUOUS
 62
     7
 10
-108.35769432829019
 20
-16.74070742944177
 30
0.0
 40
1.5
  0
CIRCLE
  5
8A
  8
PATTERN_FILL
  6
CONTINUOUS
 62
     7
 10
-108.35769432829019
 20
-21.74070742944177
 30
0.0
 40
1.5
  0
CIRCLE
  5
8B
  8
PATTERN_FILL
  6
CONTINUOUS
 62
     7
 10
-108.35769432829019
 20
-26.74070742944178
 30
0.0
 40
1.5
  0
CIRCLE
  5
8C
  8
PATTERN_FILL
  6
CONTINUOUS
 62
     7
 10
-108.35769432829019
 20
-31.74070742944178
 30
0.0
 40
1.5
  0
CIRCLE
  5
8D
  8
PATTERN_FILL
  6
CONTINUOUS
 62
     7
 10
-108.35769432829019
 20
-36.74070742944177
 30
0.0
 40
1.5
  0
CIRCLE
  5
8E
  8
PATTERN_FILL
  6
CONTINUOUS
 62
     7
 10
-108.35769432829019
 20
-41.740707429441763
 30
0.0
 40
1.5
  0
CIRCLE
  5
8F
  8
PATTERN_FILL
  6
CONTINUOUS
 62
     7
 10
-108.35769432829019
 20
-46.740707429441777
 30
0.0
 40
1.5
  0
CIRCLE
  5
90
  8
PATTERN_FILL
  6
CONTINUOUS
 62
     7
 10
-108.35769432829019
 20
-51.740707429441777
 30
0.0
 40
1.5
  0
CIRCLE
  5
91
  8
PATTERN_FILL
  6
CONTINUOUS
 62
     7
 10
-108.35769432829019
 20
-56.740707429441777
 30
0.0
 40
1.5
  0
CIRCLE
  5
92
  8
PATTERN_FILL
  6
CONTINUOUS
 62
     7
 10
-108.35769432829019
 20
-61.740707429441777
 30
0.0
 40
1.5
  0
CIRCLE
  5
93
  8
PATTERN_FILL
  6
CONTINUOUS
 62
     7
 10
-108.35769432829019
 20
-66.740707429441784
 30
0.0
 40
1.5
  0
CIRCLE
  5
94
  8
PATTERN_FILL
  6
CONTINUOUS
 62
     7
 10
-108.35769432829019
 20
-71.740707429441784
 30
0.0
 40
1.5
  0
CIRCLE
  5
95
  8
PATTERN_FILL
  6
CONTINUOUS
 62
     7
 10
-108.35769432829019
 20
-76.740707429441784
 30
0.0
 40
1.5
  0
CIRCLE
  5
96
  8
PATTERN_FILL
  6
CONTINUOUS
 62
     7
 10
-108.35769432829019
 20
-81.740707429441784
 30
0.0
 40
1.5
  0
CIRCLE
  5
97
  8
PATTERN_FILL
  6
CONTINUOUS
 62
     7
 10
-108.35769432829019
 20
-86.74070742944177
 30
0.0
 40
1.5
  0
CIRCLE
  5
98
  8
PATTERN_FILL
  6
CONTINUOUS
 62
     7
 10
-108.35769432829019
 20
-91.74070742944177
 30
0.0
 40
1.5
  0
CIRCLE
  5
99
  8
PATTERN_FILL
  6
CONTINUOUS
 62
     7
 10
-108.35769432829019
 20
-96.74070742944177
 30
0.0
 40
1.5
  0
ARC
  5
9A
  8
PATTERN_FILL
  6
CONTINUOUS
 62
     7
 10
-108.35769432829019
 20
-101.7407074294417
 30
0.0
 40
1.500000000000016
 50
269.73548840426878
 51
173.38575723103281
  0
ARC
  5
9B
  8
PATTERN_FILL
  6
CONTINUOUS
 62
     7
 10
-103.35769432829019
 20
8.2592925705582214
 30
0.0
 40
1.5000000000000011
 50
223.07507448828741
 51
41.895931688019537
  0
CIRCLE
  5
9C
  8
PATTERN_FILL
  6
CONTINUOUS
 62
     7
 10
-103.35769432829019
 20
3.2592925705582232
 30
0.0
 40
1.5
  0
CIRCLE
  5
9D
  8
PATTERN_FILL
  6
CONTINUOUS
 62
     7
 10
-103.35769432829019
 20
-1.7407074294417759
 30
0.0
 40
1.5
  0
CIRCLE
  5
9E
  8
PATTERN_FILL
  6
CONTINUOUS
 62
     7
 10
-103.35769432829019
 20
-6.7407074294417759
 30
0.0
 40
1.5
  0
CIRCLE
  5
9F
  8
PATTERN_FILL
  6
CONTINUOUS
 62
     7
 10
-103.35769432829019
 20
-11.74070742944177
 30
0.0
 40
1.5
  0
CIRCLE
  5
A0
  8
PATTERN_FILL
  6
CONTINUOUS
 62
     7
 10
-103.35769432829019
 20
-16.74070742944177
 30
0.0
 40
1.5
  0
CIRCLE
  5
A1
  8
PATTERN_FILL
  6
CONTINUOUS
 62
     7
 10
-103.35769432829019
 20
-21.74070742944177
 30
0.0
 40
1.5
  0
CIRCLE
  5
A2
  8
PATTERN_FILL
  6
CONTINUOUS
 62
     7
 10
-103.35769432829019
 20
-26.74070742944178
 30
0.0
 40
1.5
  0
CIRCLE
  5
A3
  8
PATTERN_FILL
  6
CONTINUOUS
 62
     7
 10
-103.35769432829019
 20
-31.74070742944178
 30
0.0
 40
1.5
  0
CIRCLE
  5
A4
  8
PATTERN_FILL
  6
CONTINUOUS
 62
     7
 10
-103.35769432829019
 20
-36.74070742944177
 30
0.0
 40
1.5
  0
CIRCLE
  5
A5
  8
PATTERN_FILL
  6
CONTINUOUS
 62
     7
 10
-103.35769432829019
 20
-41.740707429441763
 30
0.0
 40
1.5
  0
CIRCLE
  5
A6
  8
PATTERN_FILL
  6
CONTINUOUS
 62
     7
 10
-103.35769432829019
 20
-46.740707429441777
 30
0.0
 40
1.5
  0
CIRCLE
  5
A7
  8
PATTERN_FILL
  6
CONTINUOUS
 62
     7
 10
-103.35769432829019
 20
-51.740707429441777
 30
0.0
 40
1.5
  0
CIRCLE
  5
A8
  8
PATTERN_FILL
  6
CONTINUOUS
 62
     7
 10
-103.35769432829019
 20
-56.740707429441777
 30
0.0
 40
1.5
  0
CIRCLE
  5
A9
  8
PATTERN_FILL
  6
CONTINUOUS
 62
     7
 10
-103.35769432829019
 20
-61.740707429441777
 30
0.0
 40
1.5
  0
CIRCLE
  5
AA
  8
PATTERN_FILL
  6
CONTINUOUS
 62
     7
 10
-103.35769432829019
 20
-66.740707429441784
 30
0.0
 40
1.5
  0
CIRCLE
  5
AB
  8
PATTERN_FILL
  6
CONTINUOUS
 62
     7
 10
-103.35769432829019
 20
-71.740707429441784
 30
0.0
 40
1.5
  0
CIRCLE
  5
AC
  8
PATTERN_FILL
  6
CONTINUOUS
 62
     7
 10
-103.35769432829019
 20
-76.740707429441784
 30
0.0
 40
1.5
  0
CIRCLE
  5
AD
  8
PATTERN_FILL
  6
CONTINUOUS
 62
     7
 10
-103.35769432829019
 20
-81.740707429441784
 30
0.0
 40
1.5
  0
CIRCLE
  5
AE
  8
PATTERN_FILL
  6
CONTINUOUS
 62
     7
 10
-103.35769432829019
 20
-86.74070742944177
 30
0.0
 40
1.5
  0
CIRCLE
  5
AF
  8
PATTERN_FILL
  6
CONTINUOUS
 62
     7
 10
-103.35769432829019
 20
-91.74070742944177
 30
0.0
 40
1.5
  0
CIRCLE
  5
B0
  8
PATTERN_FILL
  6
CONTINUOUS
 62
     7
 10
-103.35769432829019
 20
-96.74070742944177
 30
0.0
 40
1.5
  0
CIRCLE
  5
B1
  8
PATTERN_FILL
  6
CONTINUOUS
 62
     7
 10
-103.35769432829019
 20
-101.7407074294417
 30
0.0
 40
1.5
  0
ARC
  5
B2
  8
PATTERN_FILL
  6
CONTINUOUS
 62
     7
 10
-103.35769432829019
 20
-106.7407074294417
 30
0.0
 40
1.500000000000014
 50
269.2878327563601
 51
184.23213485965729
  0
ARC
  5
B3
  8
PATTERN_FILL
  6
CONTINUOUS
 62
     7
 10
-98.357694328290208
 20
13.25929257055822
 30
0.0
 40
1.5
 50
242.5283341688623
 51
12.262877684354461
  0
CIRCLE
  5
B4
  8
PATTERN_FILL
  6
CONTINUOUS
 62
     7
 10
-98.357694328290208
 20
8.2592925705582232
 30
0.0
 40
1.5
  0
CIRCLE
  5
B5
  8
PATTERN_FILL
  6
CONTINUOUS
 62
     7
 10
-98.357694328290208
 20
3.2592925705582232
 30
0.0
 40
1.5
  0
CIRCLE
  5
B6
  8
PATTERN_FILL
  6
CONTINUOUS
 62
     7
 10
-98.357694328290208
 20
-1.7407074294417759
 30
0.0
 40
1.5
  0
CIRCLE
  5
B7
  8
PATTERN_FILL
  6
CONTINUOUS
 62
     7
 10
-98.357694328290208
 20
-6.7407074294417759
 30
0.0
 40
1.5
  0
CIRCLE
  5
B8
  8
PATTERN_FILL
  6
CONTINUOUS
 62
     7
 10
-98.357694328290208
 20
-11.74070742944177
 30
0.0
 40
1.5
  0
CIRCLE
  5
B9
  8
PATTERN_FILL
  6
CONTINUOUS
 62
     7
 10
-98.357694328290208
 20
-16.74070742944177
 30
0.0
 40
1.5
  0
CIRCLE
  5
BA
  8
PATTERN_FILL
  6
CONTINUOUS
 62
     7
 10
-98.357694328290208
 20
-21.74070742944177
 30
0.0
 40
1.5
  0
CIRCLE
  5
BB
  8
PATTERN_FILL
  6
CONTINUOUS
 62
     7
 10
-98.357694328290208
 20
-26.74070742944178
 30
0.0
 40
1.5
  0
CIRCLE
  5
BC
  8
PATTERN_FILL
  6
CONTINUOUS
 62
     7
 10
-98.357694328290208
 20
-31.74070742944178
 30
0.0
 40
1.5
  0
CIRCLE
  5
BD
  8
PATTERN_FILL
  6
CONTINUOUS
 62
     7
 10
-98.357694328290208
 20
-36.74070742944177
 30
0.0
 40
1.5
  0
CIRCLE
  5
BE
  8
PATTERN_FILL
  6
CONTINUOUS
 62
     7
 10
-98.357694328290208
 20
-41.740707429441763
 30
0.0
 40
1.5
  0
CIRCLE
  5
BF
  8
PATTERN_FILL
  6
CONTINUOUS
 62
     7
 10
-98.357694328290208
 20
-46.740707429441777
 30
0.0
 40
1.5
  0
CIRCLE
  5
C0
  8
PATTERN_FILL
  6
CONTINUOUS
 62
     7
 10
-98.357694328290208
 20
-51.740707429441777
 30
0.0
 40
1.5
  0
CIRCLE
  5
C1
  8
PATTERN_FILL
  6
CONTINUOUS
 62
     7
 10
-98.357694328290208
 20
-56.740707429441777
 30
0.0
 40
1.5
  0
CIRCLE
  5
C2
  8
PATTERN_FILL
  6
CONTINUOUS
 62
     7
 10
-98.357694328290208
 20
-61.740707429441777
 30
0.0
 40
1.5
  0
CIRCLE
  5
C3
  8
PATTERN_FILL
  6
CONTINUOUS
 62
     7
 10
-98.357694328290208
 20
-66.740707429441784
 30
0.0
 40
1.5
  0
CIRCLE
  5
C4
  8
PATTERN_FILL
  6
CONTINUOUS
 62
     7
 10
-98.357694328290208
 20
-71.740707429441784
 30
0.0
 40
1.5
  0
CIRCLE
  5
C5
  8
PATTERN_FILL
  6
CONTINUOUS
 62
     7
 10
-98.357694328290208
 20
-76.740707429441784
 30
0.0
 40
1.5
  0
CIRCLE
  5
C6
  8
PATTERN_FILL
  6
CONTINUOUS
 62
     7
 10
-98.357694328290208
 20
-81.740707429441784
 30
0.0
 40
1.5
  0
CIRCLE
  5
C7
  8
PATTERN_FILL
  6
CONTINUOUS
 62
     7
 10
-98.357694328290208
 20
-86.74070742944177
 30
0.0
 40
1.5
  0
CIRCLE
  5
C8
  8
PATTERN_FILL
  6
CONTINUOUS
 62
     7
 10
-98.357694328290208
 20
-91.74070742944177
 30
0.0
 40
1.5
  0
CIRCLE
  5
C9
  8
PATTERN_FILL
  6
CONTINUOUS
 62
     7
 10
-98.357694328290208
 20
-96.74070742944177
 30
0.0
 40
1.5
  0
CIRCLE
  5
CA
  8
PATTERN_FILL
  6
CONTINUOUS
 62
     7
 10
-98.357694328290208
 20
-101.7407074294417
 30
0.0
 40
1.5
  0
CIRCLE
  5
CB
  8
PATTERN_FILL
  6
CONTINUOUS
 62
     7
 10
-98.357694328290208
 20
-106.7407074294417
 30
0.0
 40
1.5
  0
ARC
  5
CC
  8
PATTERN_FILL
  6
CONTINUOUS
 62
     7
 10
-98.357694328290208
 20
-111.7407074294417
 30
0.0
 40
1.50000000000001
 50
299.86922191156009
 51
163.99195475784711
  0
CIRCLE
  5
CD
  8
PATTERN_FILL
  6
CONTINUOUS
 62
     7
 10
-93.357694328290208
 20
13.25929257055822
 30
0.0
 40
1.5
  0
CIRCLE
  5
CE
  8
PATTERN_FILL
  6
CONTINUOUS
 62
     7
 10
-93.357694328290208
 20
8.2592925705582232
 30
0.0
 40
1.5
  0
CIRCLE
  5
CF
  8
PATTERN_FILL
  6
CONTINUOUS
 62
     7
 10
-93.357694328290208
 20
3.2592925705582232
 30
0.0
 40
1.5
  0
CIRCLE
  5
D0
  8
PATTERN_FILL
  6
CONTINUOUS
 62
     7
 10
-93.357694328290208
 20
-1.7407074294417759
 30
0.0
 40
1.5
  0
CIRCLE
  5
D1
  8
PATTERN_FILL
  6
CONTINUOUS
 62
     7
 10
-93.357694328290208
 20
-6.7407074294417759
 30
0.0
 40
1.5
  0
CIRCLE
  5
D2
  8
PATTERN_FILL
  6
CONTINUOUS
 62
     7
 10
-93.357694328290208
 20
-11.74070742944177
 30
0.0
 40
1.5
  0
CIRCLE
  5
D3
  8
PATTERN_FILL
  6
CONTINUOUS
 62
     7
 10
-93.357694328290208
 20
-16.74070742944177
 30
0.0
 40
1.5
  0
CIRCLE
  5
D4
  8
PATTERN_FILL
  6
CONTINUOUS
 62
     7
 10
-93.357694328290208
 20
-21.74070742944177
 30
0.0
 40
1.5
  0
CIRCLE
  5
D5
  8
PATTERN_FILL
  6
CONTINUOUS
 62
     7
 10
-93.357694328290208
 20
-26.74070742944178
 30
0.0
 40
1.5
  0
CIRCLE
  5
D6
  8
PATTERN_FILL
  6
CONTINUOUS
 62
     7
 10
-93.357694328290208
 20
-31.74070742944178
 30
0.0
 40
1.5
  0
CIRCLE
  5
D7
  8
PATTERN_FILL
  6
CONTINUOUS
 62
     7
 10
-93.357694328290208
 20
-36.74070742944177
 30
0.0
 40
1.5
  0
CIRCLE
  5
D8
  8
PATTERN_FILL
  6
CONTINUOUS
 62
     7
 10
-93.357694328290208
 20
-41.740707429441763
 30
0.0
 40
1.5
  0
CIRCLE
  5
D9
  8
PATTERN_FILL
  6
CONTINUOUS
 62
     7
 10
-93.357694328290208
 20
-46.740707429441777
 30
0.0
 40
1.5
  0
CIRCLE
  5
DA
  8
PATTERN_FILL
  6
CONTINUOUS
 62
     7
 10
-93.357694328290208
 20
-51.740707429441777
 30
0.0
 40
1.5
  0
CIRCLE
  5
DB
  8
PATTERN_FILL
  6
CONTINUOUS
 62
     7
 10
-93.357694328290208
 20
-56.740707429441777
 30
0.0
 40
1.5
  0
CIRCLE
  5
DC
  8
PATTERN_FILL
  6
CONTINUOUS
 62
     7
 10
-93.357694328290208
 20
-61.740707429441777
 30
0.0
 40
1.5
  0
CIRCLE
  5
DD
  8
PATTERN_FILL
  6
CONTINUOUS
 62
     7
 10
-93.357694328290208
 20
-66.740707429441784
 30
0.0
 40
1.5
  0
CIRCLE
  5
DE
  8
PATTERN_FILL
  6
CONTINUOUS
 62
     7
 10
-93.357694328290208
 20
-71.740707429441784
 30
0.0
 40
1.5
  0
CIRCLE
  5
DF
  8
PATTERN_FILL
  6
CONTINUOUS
 62
     7
 10
-93.357694328290208
 20
-76.740707429441784
 30
0.0
 40
1.5
  0
CIRCLE
  5
E0
  8
PATTERN_FILL
  6
CONTINUOUS
 62
     7
 10
-93.357694328290208
 20
-81.740707429441784
 30
0.0
 40
1.5
  0
CIRCLE
  5
E1
  8
PATTERN_FILL
  6
CONTINUOUS
 62
     7
 10
-93.357694328290208
 20
-86.74070742944177
 30
0.0
 40
1.5
  0
CIRCLE
  5
E2
  8
PATTERN_FILL
  6
CONTINUOUS
 62
     7
 10
-93.357694328290208
 20
-91.74070742944177
 30
0.0
 40
1.5
  0
CIRCLE
  5
E3
  8
PATTERN_FILL
  6
CONTINUOUS
 62
     7
 10
-93.357694328290208
 20
-96.74070742944177
 30
0.0
 40
1.5
  0
CIRCLE
  5
E4
  8
PATTERN_FILL
  6
CONTINUOUS
 62
     7
 10
-93.357694328290208
 20
-101.7407074294417
 30
0.0
 40
1.5
  0
CIRCLE
  5
E5
  8
PATTERN_FILL
  6
CONTINUOUS
 62
     7
 10
-93.357694328290208
 20
-106.7407074294417
 30
0.0
 40
1.5
  0
CIRCLE
  5
E6
  8
PATTERN_FILL
  6
CONTINUOUS
 62
     7
 10
-93.357694328290208
 20
-111.7407074294417
 30
0.0
 40
1.5
  0
ARC
  5
E7
  8
PATTERN_FILL
  6
CONTINUOUS
 62
     7
 10
-93.357694328290236
 20
-116.7407074294418
 30
0.0
 40
1.500000000000008
 50
350.55723344037062
 51
123.4237212255113
  0
ARC
  5
E8
  8
PATTERN_FILL
  6
CONTINUOUS
 62
     7
 10
-88.357694328290208
 20
18.25929257055823
 30
0.0
 40
1.4999999999999929
 50
181.93135506068489
 51
56.735479115316103
  0
CIRCLE
  5
E9
  8
PATTERN_FILL
  6
CONTINUOUS
 62
     7
 10
-88.357694328290208
 20
13.25929257055822
 30
0.0
 40
1.5
  0
CIRCLE
  5
EA
  8
PATTERN_FILL
  6
CONTINUOUS
 62
     7
 10
-88.357694328290208
 20
8.2592925705582232
 30
0.0
 40
1.5
  0
CIRCLE
  5
EB
  8
PATTERN_FILL
  6
CONTINUOUS
 62
     7
 10
-88.357694328290208
 20
3.2592925705582232
 30
0.0
 40
1.5
  0
CIRCLE
  5
EC
  8
PATTERN_FILL
  6
CONTINUOUS
 62
     7
 10
-88.357694328290208
 20
-1.7407074294417759
 30
0.0
 40
1.5
  0
CIRCLE
  5
ED
  8
PATTERN_FILL
  6
CONTINUOUS
 62
     7
 10
-88.357694328290208
 20
-6.7407074294417759
 30
0.0
 40
1.5
  0
CIRCLE
  5
EE
  8
PATTERN_FILL
  6
CONTINUOUS
 62
     7
 10
-88.357694328290208
 20
-11.74070742944177
 30
0.0
 40
1.5
  0
CIRCLE
  5
EF
  8
PATTERN_FILL
  6
CONTINUOUS
 62
     7
 10
-88.357694328290208
 20
-16.74070742944177
 30
0.0
 40
1.5
  0
CIRCLE
  5
F0
  8
PATTERN_FILL
  6
CONTINUOUS
 62
     7
 10
-88.357694328290208
 20
-21.74070742944177
 30
0.0
 40
1.5
  0
CIRCLE
  5
F1
  8
PATTERN_FILL
  6
CONTINUOUS
 62
     7
 10
-88.357694328290208
 20
-26.74070742944178
 30
0.0
 40
1.5
  0
CIRCLE
  5
F2
  8
PATTERN_FILL
  6
CONTINUOUS
 62
     7
 10
-88.357694328290208
 20
-31.74070742944178
 30
0.0
 40
1.5
  0
CIRCLE
  5
F3
  8
PATTERN_FILL
  6
CONTINUOUS
 62
     7
 10
-88.357694328290208
 20
-36.74070742944177
 30
0.0
 40
1.5
  0
CIRCLE
  5
F4
  8
PATTERN_FILL
  6
CONTINUOUS
 62
     7
 10
-88.357694328290208
 20
-41.740707429441763
 30
0.0
 40
1.5
  0
CIRCLE
  5
F5
  8
PATTERN_FILL
  6
CONTINUOUS
 62
     7
 10
-88.357694328290208
 20
-46.740707429441777
 30
0.0
 40
1.5
  0
CIRCLE
  5
F6
  8
PATTERN_FILL
  6
CONTINUOUS
 62
     7
 10
-88.357694328290208
 20
-51.740707429441777
 30
0.0
 40
1.5
  0
CIRCLE
  5
F7
  8
PATTERN_FILL
  6
CONTINUOUS
 62
     7
 10
-88.357694328290208
 20
-56.740707429441777
 30
0.0
 40
1.5
  0
CIRCLE
  5
F8
  8
PATTERN_FILL
  6
CONTINUOUS
 62
     7
 10
-88.357694328290208
 20
-61.740707429441777
 30
0.0
 40
1.5
  0
CIRCLE
  5
F9
  8
PATTERN_FILL
  6
CONTINUOUS
 62
     7
 10
-88.357694328290208
 20
-66.740707429441784
 30
0.0
 40
1.5
  0
CIRCLE
  5
FA
  8
PATTERN_FILL
  6
CONTINUOUS
 62
     7
 10
-88.357694328290208
 20
-71.740707429441784
 30
0.0
 40
1.5
  0
CIRCLE
  5
FB
  8
PATTERN_FILL
  6
CONTINUOUS
 62
     7
 10
-88.357694328290208
 20
-76.740707429441784
 30
0.0
 40
1.5
  0
CIRCLE
  5
FC
  8
PATTERN_FILL
  6
CONTINUOUS
 62
     7
 10
-88.357694328290208
 20
-81.740707429441784
 30
0.0
 40
1.5
  0
CIRCLE
  5
FD
  8
PATTERN_FILL
  6
CONTINUOUS
 62
     7
 10
-88.357694328290208
 20
-86.74070742944177
 30
0.0
 40
1.5
  0
CIRCLE
  5
FE
  8
PATTERN_FILL
  6
CONTINUOUS
 62
     7
 10
-88.357694328290208
 20
-91.74070742944177
 30
0.0
 40
1.5
  0
CIRCLE
  5
FF
  8
PATTERN_FILL
  6
CONTINUOUS
 62
     7
 10
-88.357694328290208
 20
-96.74070742944177
 30
0.0
 40
1.5
  0
CIRCLE
  5
100
  8
PATTERN_FILL
  6
CONTINUOUS
 62
     7
 10
-88.357694328290208
 20
-101.7407074294417
 30
0.0
 40
1.5
  0
CIRCLE
  5
101
  8
PATTERN_FILL
  6
CONTINUOUS
 62
     7
 10
-88.357694328290208
 20
-106.7407074294417
 30
0.0
 40
1.5
  0
CIRCLE
  5
102
  8
PATTERN_FILL
  6
CONTINUOUS
 62
     7
 10
-88.357694328290208
 20
-111.7407074294417
 30
0.0
 40
1.5
  0
CIRCLE
  5
103
  8
PATTERN_FILL
  6
CONTINUOUS
 62
     7
 10
-88.357694328290208
 20
-116.7407074294418
 30
0.0
 40
1.5
  0
CIRCLE
  5
104
  8
PATTERN_FILL
  6
CONTINUOUS
 62
     7
 10
-83.357694328290208
 20
18.25929257055823
 30
0.0
 40
1.5
  0
CIRCLE
  5
105
  8
PATTERN_FILL
  6
CONTINUOUS
 62
     7
 10
-83.357694328290208
 20
13.25929257055822
 30
0.0
 40
1.5
  0
CIRCLE
  5
106
  8
PATTERN_FILL
  6
CONTINUOUS
 62
     7
 10
-83.357694328290208
 20
8.2592925705582232
 30
0.0
 40
1.5
  0
CIRCLE
  5
107
  8
PATTERN_FILL
  6
CONTINUOUS
 62
     7
 10
-83.357694328290208
 20
3.2592925705582232
 30
0.0
 40
1.5
  0
CIRCLE
  5
108
  8
PATTERN_FILL
  6
CONTINUOUS
 62
     7
 10
-83.357694328290208
 20
-1.7407074294417759
 30
0.0
 40
1.5
  0
CIRCLE
  5
109
  8
PATTERN_FILL
  6
CONTINUOUS
 62
     7
 10
-83.357694328290208
 20
-6.7407074294417759
 30
0.0
 40
1.5
  0
CIRCLE
  5
10A
  8
PATTERN_FILL
  6
CONTINUOUS
 62
     7
 10
-83.357694328290208
 20
-11.74070742944177
 30
0.0
 40
1.5
  0
CIRCLE
  5
10B
  8
PATTERN_FILL
  6
CONTINUOUS
 62
     7
 10
-83.357694328290208
 20
-16.74070742944177
 30
0.0
 40
1.5
  0
CIRCLE
  5
10C
  8
PATTERN_FILL
  6
CONTINUOUS
 62
     7
 10
-83.357694328290208
 20
-21.74070742944177
 30
0.0
 40
1.5
  0
CIRCLE
  5
10D
  8
PATTERN_FILL
  6
CONTINUOUS
 62
     7
 10
-83.357694328290208
 20
-26.74070742944178
 30
0.0
 40
1.5
  0
CIRCLE
  5
10E
  8
PATTERN_FILL
  6
CONTINUOUS
 62
     7
 10
-83.357694328290208
 20
-31.74070742944178
 30
0.0
 40
1.5
  0
CIRCLE
  5
10F
  8
PATTERN_FILL
  6
CONTINUOUS
 62
     7
 10
-83.357694328290208
 20
-36.74070742944177
 30
0.0
 40
1.5
  0
CIRCLE
  5
110
  8
PATTERN_FILL
  6
CONTINUOUS
 62
     7
 10
-83.357694328290208
 20
-41.740707429441763
 30
0.0
 40
1.5
  0
CIRCLE
  5
111
  8
PATTERN_FILL
  6
CONTINUOUS
 62
     7
 10
-83.357694328290208
 20
-46.740707429441777
 30
0.0
 40
1.5
  0
CIRCLE
  5
112
  8
PATTERN_FILL
  6
CONTINUOUS
 62
     7
 10
-83.357694328290208
 20
-51.740707429441777
 30
0.0
 40
1.5
  0
CIRCLE
  5
113
  8
PATTERN_FILL
  6
CONTINUOUS
 62
     7
 10
-83.357694328290208
 20
-56.740707429441777
 30
0.0
 40
1.5
  0
CIRCLE
  5
114
  8
PATTERN_FILL
  6
CONTINUOUS
 62
     7
 10
-83.357694328290208
 20
-61.740707429441777
 30
0.0
 40
1.5
  0
CIRCLE
  5
115
  8
PATTERN_FILL
  6
CONTINUOUS
 62
     7
 10
-83.357694328290208
 20
-66.740707429441784
 30
0.0
 40
1.5
  0
CIRCLE
  5
116
  8
PATTERN_FILL
  6
CONTINUOUS
 62
     7
 10
-83.357694328290208
 20
-71.740707429441784
 30
0.0
 40
1.5
  0
CIRCLE
  5
117
  8
PATTERN_FILL
  6
CONTINUOUS
 62
     7
 10
-83.357694328290208
 20
-76.740707429441784
 30
0.0
 40
1.5
  0
CIRCLE
  5
118
  8
PATTERN_FILL
  6
CONTINUOUS
 62
     7
 10
-83.357694328290208
 20
-81.740707429441784
 30
0.0
 40
1.5
  0
CIRCLE
  5
119
  8
PATTERN_FILL
  6
CONTINUOUS
 62
     7
 10
-83.357694328290208
 20
-86.74070742944177
 30
0.0
 40
1.5
  0
CIRCLE
  5
11A
  8
PATTERN_FILL
  6
CONTINUOUS
 62
     7
 10
-83.357694328290208
 20
-91.74070742944177
 30
0.0
 40
1.5
  0
CIRCLE
  5
11B
  8
PATTERN_FILL
  6
CONTINUOUS
 62
     7
 10
-83.357694328290208
 20
-96.74070742944177
 30
0.0
 40
1.5
  0
CIRCLE
  5
11C
  8
PATTERN_FILL
  6
CONTINUOUS
 62
     7
 10
-83.357694328290208
 20
-101.7407074294417
 30
0.0
 40
1.5
  0
CIRCLE
  5
11D
  8
PATTERN_FILL
  6
CONTINUOUS
 62
     7
 10
-83.357694328290208
 20
-106.7407074294417
 30
0.0
 40
1.5
  0
CIRCLE
  5
11E
  8
PATTERN_FILL
  6
CONTINUOUS
 62
     7
 10
-83.357694328290208
 20
-111.7407074294417
 30
0.0
 40
1.5
  0
CIRCLE
  5
11F
  8
PATTERN_FILL
  6
CONTINUOUS
 62
     7
 10
-83.357694328290208
 20
-116.7407074294418
 30
0.0
 40
1.5
  0
ARC
  5
120
  8
PATTERN_FILL
  6
CONTINUOUS
 62
     7
 10
-83.357694328290208
 20
-121.7407074294417
 30
0.0
 40
1.500000000000002
 50
340.06960016998647
 51
150.0558226727581
  0
ARC
  5
121
  8
PATTERN_FILL
  6
CONTINUOUS
 62
     7
 10
-78.357694328290208
 20
23.25929257055823
 30
0.0
 40
1.499999999999996
 50
184.4746293457093
 51
37.846881576711162
  0
CIRCLE
  5
122
  8
PATTERN_FILL
  6
CONTINUOUS
 62
     7
 10
-78.357694328290208
 20
18.25929257055823
 30
0.0
 40
1.5
  0
CIRCLE
  5
123
  8
PATTERN_FILL
  6
CONTINUOUS
 62
     7
 10
-78.357694328290208
 20
13.25929257055822
 30
0.0
 40
1.5
  0
CIRCLE
  5
124
  8
PATTERN_FILL
  6
CONTINUOUS
 62
     7
 10
-78.357694328290208
 20
8.2592925705582232
 30
0.0
 40
1.5
  0
CIRCLE
  5
125
  8
PATTERN_FILL
  6
CONTINUOUS
 62
     7
 10
-78.357694328290208
 20
3.2592925705582232
 30
0.0
 40
1.5
  0
CIRCLE
  5
126
  8
PATTERN_FILL
  6
CONTINUOUS
 62
     7
 10
-78.357694328290208
 20
-1.7407074294417759
 30
0.0
 40
1.5
  0
CIRCLE
  5
127
  8
PATTERN_FILL
  6
CONTINUOUS
 62
     7
 10
-78.357694328290208
 20
-6.7407074294417759
 30
0.0
 40
1.5
  0
CIRCLE
  5
128
  8
PATTERN_FILL
  6
CONTINUOUS
 62
     7
 10
-78.357694328290208
 20
-11.74070742944177
 30
0.0
 40
1.5
  0
CIRCLE
  5
129
  8
PATTERN_FILL
  6
CONTINUOUS
 62
     7
 10
-78.357694328290208
 20
-16.74070742944177
 30
0.0
 40
1.5
  0
CIRCLE
  5
12A
  8
PATTERN_FILL
  6
CONTINUOUS
 62
     7
 10
-78.357694328290208
 20
-21.74070742944177
 30
0.0
 40
1.5
  0
CIRCLE
  5
12B
  8
PATTERN_FILL
  6
CONTINUOUS
 62
     7
 10
-78.357694328290208
 20
-26.74070742944178
 30
0.0
 40
1.5
  0
CIRCLE
  5
12C
  8
PATTERN_FILL
  6
CONTINUOUS
 62
     7
 10
-78.357694328290208
 20
-31.74070742944178
 30
0.0
 40
1.5
  0
CIRCLE
  5
12D
  8
PATTERN_FILL
  6
CONTINUOUS
 62
     7
 10
-78.357694328290208
 20
-36.74070742944177
 30
0.0
 40
1.5
  0
CIRCLE
  5
12E
  8
PATTERN_FILL
  6
CONTINUOUS
 62
     7
 10
-78.357694328290208
 20
-41.740707429441763
 30
0.0
 40
1.5
  0
CIRCLE
  5
12F
  8
PATTERN_FILL
  6
CONTINUOUS
 62
     7
 10
-78.357694328290208
 20
-46.740707429441777
 30
0.0
 40
1.5
  0
CIRCLE
  5
130
  8
PATTERN_FILL
  6
CONTINUOUS
 62
     7
 10
-78.357694328290208
 20
-51.740707429441777
 30
0.0
 40
1.5
  0
CIRCLE
  5
131
  8
PATTERN_FILL
  6
CONTINUOUS
 62
     7
 10
-78.357694328290208
 20
-56.740707429441777
 30
0.0
 40
1.5
  0
CIRCLE
  5
132
  8
PATTERN_FILL
  6
CONTINUOUS
 62
     7
 10
-78.357694328290208
 20
-61.740707429441777
 30
0.0
 40
1.5
  0
CIRCLE
  5
133
  8
PATTERN_FILL
  6
CONTINUOUS
 62
     7
 10
-78.357694328290208
 20
-66.740707429441784
 30
0.0
 40
1.5
  0
CIRCLE
  5
134
  8
PATTERN_FILL
  6
CONTINUOUS
 62
     7
 10
-78.357694328290208
 20
-71.740707429441784
 30
0.0
 40
1.5
  0
CIRCLE
  5
135
  8
PATTERN_FILL
  6
CONTINUOUS
 62
     7
 10
-78.357694328290208
 20
-76.740707429441784
 30
0.0
 40
1.5
  0
CIRCLE
  5
136
  8
PATTERN_FILL
  6
CONTINUOUS
 62
     7
 10
-78.357694328290208
 20
-81.740707429441784
 30
0.0
 40
1.5
  0
CIRCLE
  5
137
  8
PATTERN_FILL
  6
CONTINUOUS
 62
     7
 10
-78.357694328290208
 20
-86.74070742944177
 30
0.0
 40
1.5
  0
CIRCLE
  5
138
  8
PATTERN_FILL
  6
CONTINUOUS
 62
     7
 10
-78.357694328290208
 20
-91.74070742944177
 30
0.0
 40
1.5
  0
CIRCLE
  5
139
  8
PATTERN_FILL
  6
CONTINUOUS
 62
     7
 10
-78.357694328290208
 20
-96.74070742944177
 30
0.0
 40
1.5
  0
CIRCLE
  5
13A
  8
PATTERN_FILL
  6
CONTINUOUS
 62
     7
 10
-78.357694328290208
 20
-101.7407074294417
 30
0.0
 40
1.5
  0
CIRCLE
  5
13B
  8
PATTERN_FILL
  6
CONTINUOUS
 62
     7
 10
-78.357694328290208
 20
-106.7407074294417
 30
0.0
 40
1.5
  0
CIRCLE
  5
13C
  8
PATTERN_FILL
  6
CONTINUOUS
 62
     7
 10
-78.357694328290208
 20
-111.7407074294417
 30
0.0
 40
1.5
  0
CIRCLE
  5
13D
  8
PATTERN_FILL
  6
CONTINUOUS
 62
     7
 10
-78.357694328290208
 20
-116.7407074294418
 30
0.0
 40
1.5
  0
CIRCLE
  5
13E
  8
PATTERN_FILL
  6
CONTINUOUS
 62
     7
 10
-78.357694328290208
 20
-121.7407074294417
 30
0.0
 40
1.5
  0
CIRCLE
  5
13F
  8
PATTERN_FILL
  6
CONTINUOUS
 62
     7
 10
-73.357694328290208
 20
23.25929257055823
 30
0.0
 40
1.5
  0
CIRCLE
  5
140
  8
PATTERN_FILL
  6
CONTINUOUS
 62
     7
 10
-73.357694328290208
 20
18.25929257055823
 30
0.0
 40
1.5
  0
CIRCLE
  5
141
  8
PATTERN_FILL
  6
CONTINUOUS
 62
     7
 10
-73.357694328290208
 20
13.25929257055822
 30
0.0
 40
1.5
  0
CIRCLE
  5
142
  8
PATTERN_FILL
  6
CONTINUOUS
 62
     7
 10
-73.357694328290208
 20
8.2592925705582232
 30
0.0
 40
1.5
  0
CIRCLE
  5
143
  8
PATTERN_FILL
  6
CONTINUOUS
 62
     7
 10
-73.357694328290208
 20
3.2592925705582232
 30
0.0
 40
1.5
  0
CIRCLE
  5
144
  8
PATTERN_FILL
  6
CONTINUOUS
 62
     7
 10
-73.357694328290208
 20
-1.7407074294417759
 30
0.0
 40
1.5
  0
CIRCLE
  5
145
  8
PATTERN_FILL
  6
CONTINUOUS
 62
     7
 10
-73.357694328290208
 20
-6.7407074294417759
 30
0.0
 40
1.5
  0
CIRCLE
  5
146
  8
PATTERN_FILL
  6
CONTINUOUS
 62
     7
 10
-73.357694328290208
 20
-11.74070742944177
 30
0.0
 40
1.5
  0
CIRCLE
  5
147
  8
PATTERN_FILL
  6
CONTINUOUS
 62
     7
 10
-73.357694328290208
 20
-16.74070742944177
 30
0.0
 40
1.5
  0
CIRCLE
  5
148
  8
PATTERN_FILL
  6
CONTINUOUS
 62
     7
 10
-73.357694328290208
 20
-21.74070742944177
 30
0.0
 40
1.5
  0
CIRCLE
  5
149
  8
PATTERN_FILL
  6
CONTINUOUS
 62
     7
 10
-73.357694328290208
 20
-26.74070742944178
 30
0.0
 40
1.5
  0
CIRCLE
  5
14A
  8
PATTERN_FILL
  6
CONTINUOUS
 62
     7
 10
-73.357694328290208
 20
-31.74070742944178
 30
0.0
 40
1.5
  0
CIRCLE
  5
14B
  8
PATTERN_FILL
  6
CONTINUOUS
 62
     7
 10
-73.357694328290208
 20
-36.74070742944177
 30
0.0
 40
1.5
  0
CIRCLE
  5
14C
  8
PATTERN_FILL
  6
CONTINUOUS
 62
     7
 10
-73.357694328290208
 20
-41.740707429441763
 30
0.0
 40
1.5
  0
CIRCLE
  5
14D
  8
PATTERN_FILL
  6
CONTINUOUS
 62
     7
 10
-73.357694328290208
 20
-46.740707429441777
 30
0.0
 40
1.5
  0
CIRCLE
  5
14E
  8
PATTERN_FILL
  6
CONTINUOUS
 62
     7
 10
-73.357694328290208
 20
-51.740707429441777
 30
0.0
 40
1.5
  0
CIRCLE
  5
14F
  8
PATTERN_FILL
  6
CONTINUOUS
 62
     7
 10
-73.357694328290208
 20
-56.740707429441777
 30
0.0
 40
1.5
  0
CIRCLE
  5
150
  8
PATTERN_FILL
  6
CONTINUOUS
 62
     7
 10
-73.357694328290208
 20
-61.740707429441777
 30
0.0
 40
1.5
  0
CIRCLE
  5
151
  8
PATTERN_FILL
  6
CONTINUOUS
 62
     7
 10
-73.357694328290208
 20
-66.740707429441784
 30
0.0
 40
1.5
  0
CIRCLE
  5
152
  8
PATTERN_FILL
  6
CONTINUOUS
 62
     7
 10
-73.357694328290208
 20
-71.740707429441784
 30
0.0
 40
1.5
  0
CIRCLE
  5
153
  8
PATTERN_FILL
  6
CONTINUOUS
 62
     7
 10
-73.357694328290208
 20
-76.740707429441784
 30
0.0
 40
1.5
  0
CIRCLE
  5
154
  8
PATTERN_FILL
  6
CONTINUOUS
 62
     7
 10
-73.357694328290208
 20
-81.740707429441784
 30
0.0
 40
1.5
  0
CIRCLE
  5
155
  8
PATTERN_FILL
  6
CONTINUOUS
 62
     7
 10
-73.357694328290208
 20
-86.74070742944177
 30
0.0
 40
1.5
  0
CIRCLE
  5
156
  8
PATTERN_FILL
  6
CONTINUOUS
 62
     7
 10
-73.357694328290208
 20
-91.74070742944177
 30
0.0
 40
1.5
  0
CIRCLE
  5
157
  8
PATTERN_FILL
  6
CONTINUOUS
 62
     7
 10
-73.357694328290208
 20
-96.74070742944177
 30
0.0
 40
1.5
  0
CIRCLE
  5
158
  8
PATTERN_FILL
  6
CONTINUOUS
 62
     7
 10
-73.357694328290208
 20
-101.7407074294417
 30
0.0
 40
1.5
  0
CIRCLE
  5
159
  8
PATTERN_FILL
  6
CONTINUOUS
 62
     7
 10
-73.357694328290208
 20
-106.7407074294417
 30
0.0
 40
1.5
  0
CIRCLE
  5
15A
  8
PATTERN_FILL
  6
CONTINUOUS
 62
     7
 10
-73.357694328290208
 20
-111.7407074294417
 30
0.0
 40
1.5
  0
CIRCLE
  5
15B
  8
PATTERN_FILL
  6
CONTINUOUS
 62
     7
 10
-73.357694328290208
 20
-116.7407074294418
 30
0.0
 40
1.5
  0
CIRCLE
  5
15C
  8
PATTERN_FILL
  6
CONTINUOUS
 62
     7
 10
-73.357694328290208
 20
-121.7407074294417
 30
0.0
 40
1.5
  0
ARC
  5
15D
  8
PATTERN_FILL
  6
CONTINUOUS
 62
     7
 10
-73.357694328290208
 20
-126.7407074294417
 30
0.0
 40
1.500000000000004
 50
37.592192416133358
 51
108.5502848230884
  0
CIRCLE
  5
15E
  8
PATTERN_FILL
  6
CONTINUOUS
 62
     7
 10
-68.357694328290208
 20
23.25929257055823
 30
0.0
 40
1.5
  0
CIRCLE
  5
15F
  8
PATTERN_FILL
  6
CONTINUOUS
 62
     7
 10
-68.357694328290208
 20
18.25929257055823
 30
0.0
 40
1.5
  0
CIRCLE
  5
160
  8
PATTERN_FILL
  6
CONTINUOUS
 62
     7
 10
-68.357694328290208
 20
13.25929257055822
 30
0.0
 40
1.5
  0
CIRCLE
  5
161
  8
PATTERN_FILL
  6
CONTINUOUS
 62
     7
 10
-68.357694328290208
 20
8.2592925705582232
 30
0.0
 40
1.5
  0
CIRCLE
  5
162
  8
PATTERN_FILL
  6
CONTINUOUS
 62
     7
 10
-68.357694328290208
 20
3.2592925705582232
 30
0.0
 40
1.5
  0
CIRCLE
  5
163
  8
PATTERN_FILL
  6
CONTINUOUS
 62
     7
 10
-68.357694328290208
 20
-1.7407074294417759
 30
0.0
 40
1.5
  0
CIRCLE
  5
164
  8
PATTERN_FILL
  6
CONTINUOUS
 62
     7
 10
-68.357694328290208
 20
-6.7407074294417759
 30
0.0
 40
1.5
  0
CIRCLE
  5
165
  8
PATTERN_FILL
  6
CONTINUOUS
 62
     7
 10
-68.357694328290208
 20
-11.74070742944177
 30
0.0
 40
1.5
  0
CIRCLE
  5
166
  8
PATTERN_FILL
  6
CONTINUOUS
 62
     7
 10
-68.357694328290208
 20
-16.74070742944177
 30
0.0
 40
1.5
  0
CIRCLE
  5
167
  8
PATTERN_FILL
  6
CONTINUOUS
 62
     7
 10
-68.357694328290208
 20
-21.74070742944177
 30
0.0
 40
1.5
  0
CIRCLE
  5
168
  8
PATTERN_FILL
  6
CONTINUOUS
 62
     7
 10
-68.357694328290208
 20
-26.74070742944178
 30
0.0
 40
1.5
  0
CIRCLE
  5
169
  8
PATTERN_FILL
  6
CONTINUOUS
 62
     7
 10
-68.357694328290208
 20
-31.74070742944178
 30
0.0
 40
1.5
  0
CIRCLE
  5
16A
  8
PATTERN_FILL
  6
CONTINUOUS
 62
     7
 10
-68.357694328290208
 20
-36.74070742944177
 30
0.0
 40
1.5
  0
CIRCLE
  5
16B
  8
PATTERN_FILL
  6
CONTINUOUS
 62
     7
 10
-68.357694328290208
 20
-41.740707429441763
 30
0.0
 40
1.5
  0
CIRCLE
  5
16C
  8
PATTERN_FILL
  6
CONTINUOUS
 62
     7
 10
-68.357694328290208
 20
-46.740707429441777
 30
0.0
 40
1.5
  0
CIRCLE
  5
16D
  8
PATTERN_FILL
  6
CONTINUOUS
 62
     7
 10
-68.357694328290208
 20
-51.740707429441777
 30
0.0
 40
1.5
  0
CIRCLE
  5
16E
  8
PATTERN_FILL
  6
CONTINUOUS
 62
     7
 10
-68.357694328290208
 20
-56.740707429441777
 30
0.0
 40
1.5
  0
CIRCLE
  5
16F
  8
PATTERN_FILL
  6
CONTINUOUS
 62
     7
 10
-68.357694328290208
 20
-61.740707429441777
 30
0.0
 40
1.5
  0
CIRCLE
  5
170
  8
PATTERN_FILL
  6
CONTINUOUS
 62
     7
 10
-68.357694328290208
 20
-66.740707429441784
 30
0.0
 40
1.5
  0
CIRCLE
  5
171
  8
PATTERN_FILL
  6
CONTINUOUS
 62
     7
 10
-68.357694328290208
 20
-71.740707429441784
 30
0.0
 40
1.5
  0
CIRCLE
  5
172
  8
PATTERN_FILL
  6
CONTINUOUS
 62
     7
 10
-68.357694328290208
 20
-76.740707429441784
 30
0.0
 40
1.5
  0
CIRCLE
  5
173
  8
PATTERN_FILL
  6
CONTINUOUS
 62
     7
 10
-68.357694328290208
 20
-81.740707429441784
 30
0.0
 40
1.5
  0
CIRCLE
  5
174
  8
PATTERN_FILL
  6
CONTINUOUS
 62
     7
 10
-68.357694328290208
 20
-86.74070742944177
 30
0.0
 40
1.5
  0
CIRCLE
  5
175
  8
PATTERN_FILL
  6
CONTINUOUS
 62
     7
 10
-68.357694328290208
 20
-91.74070742944177
 30
0.0
 40
1.5
  0
CIRCLE
  5
176
  8
PATTERN_FILL
  6
CONTINUOUS
 62
     7
 10
-68.357694328290208
 20
-96.74070742944177
 30
0.0
 40
1.5
  0
CIRCLE
  5
177
  8
PATTERN_FILL
  6
CONTINUOUS
 62
     7
 10
-68.357694328290208
 20
-101.7407074294417
 30
0.0
 40
1.5
  0
CIRCLE
  5
178
  8
PATTERN_FILL
  6
CONTINUOUS
 62
     7
 10
-68.357694328290208
 20
-106.7407074294417
 30
0.0
 40
1.5
  0
CIRCLE
  5
179
  8
PATTERN_FILL
  6
CONTINUOUS
 62
     7
 10
-68.357694328290208
 20
-111.7407074294417
 30
0.0
 40
1.5
  0
CIRCLE
  5
17A
  8
PATTERN_FILL
  6
CONTINUOUS
 62
     7
 10
-68.357694328290208
 20
-116.7407074294418
 30
0.0
 40
1.5
  0
CIRCLE
  5
17B
  8
PATTERN_FILL
  6
CONTINUOUS
 62
     7
 10
-68.357694328290208
 20
-121.7407074294417
 30
0.0
 40
1.5
  0
ARC
  5
17C
  8
PATTERN_FILL
  6
CONTINUOUS
 62
     7
 10
-68.357694328290208
 20
-126.7407074294418
 30
0.0
 40
1.499999999999988
 50
343.49335242262259
 51
169.60001688889781
  0
ARC
  5
17D
  8
PATTERN_FILL
  6
CONTINUOUS
 62
     7
 10
-63.357694328290208
 20
28.25929257055823
 30
0.0
 40
1.500000000000004
 50
205.32250006714241
 51
354.04988227025552
  0
CIRCLE
  5
17E
  8
PATTERN_FILL
  6
CONTINUOUS
 62
     7
 10
-63.357694328290208
 20
23.25929257055823
 30
0.0
 40
1.5
  0
CIRCLE
  5
17F
  8
PATTERN_FILL
  6
CONTINUOUS
 62
     7
 10
-63.357694328290208
 20
18.25929257055823
 30
0.0
 40
1.5
  0
CIRCLE
  5
180
  8
PATTERN_FILL
  6
CONTINUOUS
 62
     7
 10
-63.357694328290208
 20
13.25929257055822
 30
0.0
 40
1.5
  0
CIRCLE
  5
181
  8
PATTERN_FILL
  6
CONTINUOUS
 62
     7
 10
-63.357694328290208
 20
8.2592925705582232
 30
0.0
 40
1.5
  0
CIRCLE
  5
182
  8
PATTERN_FILL
  6
CONTINUOUS
 62
     7
 10
-63.357694328290208
 20
3.2592925705582232
 30
0.0
 40
1.5
  0
CIRCLE
  5
183
  8
PATTERN_FILL
  6
CONTINUOUS
 62
     7
 10
-63.357694328290208
 20
-1.7407074294417759
 30
0.0
 40
1.5
  0
CIRCLE
  5
184
  8
PATTERN_FILL
  6
CONTINUOUS
 62
     7
 10
-63.357694328290208
 20
-6.7407074294417759
 30
0.0
 40
1.5
  0
CIRCLE
  5
185
  8
PATTERN_FILL
  6
CONTINUOUS
 62
     7
 10
-63.357694328290208
 20
-11.74070742944177
 30
0.0
 40
1.5
  0
CIRCLE
  5
186
  8
PATTERN_FILL
  6
CONTINUOUS
 62
     7
 10
-63.357694328290208
 20
-16.74070742944177
 30
0.0
 40
1.5
  0
CIRCLE
  5
187
  8
PATTERN_FILL
  6
CONTINUOUS
 62
     7
 10
-63.357694328290208
 20
-21.74070742944177
 30
0.0
 40
1.5
  0
CIRCLE
  5
188
  8
PATTERN_FILL
  6
CONTINUOUS
 62
     7
 10
-63.357694328290208
 20
-26.74070742944178
 30
0.0
 40
1.5
  0
CIRCLE
  5
189
  8
PATTERN_FILL
  6
CONTINUOUS
 62
     7
 10
-63.357694328290208
 20
-31.74070742944178
 30
0.0
 40
1.5
  0
CIRCLE
  5
18A
  8
PATTERN_FILL
  6
CONTINUOUS
 62
     7
 10
-63.357694328290208
 20
-36.74070742944177
 30
0.0
 40
1.5
  0
CIRCLE
  5
18B
  8
PATTERN_FILL
  6
CONTINUOUS
 62
     7
 10
-63.357694328290208
 20
-41.740707429441763
 30
0.0
 40
1.5
  0
CIRCLE
  5
18C
  8
PATTERN_FILL
  6
CONTINUOUS
 62
     7
 10
-63.357694328290208
 20
-46.740707429441777
 30
0.0
 40
1.5
  0
CIRCLE
  5
18D
  8
PATTERN_FILL
  6
CONTINUOUS
 62
     7
 10
-63.357694328290208
 20
-51.740707429441777
 30
0.0
 40
1.5
  0
CIRCLE
  5
18E
  8
PATTERN_FILL
  6
CONTINUOUS
 62
     7
 10
-63.357694328290208
 20
-56.740707429441777
 30
0.0
 40
1.5
  0
CIRCLE
  5
18F
  8
PATTERN_FILL
  6
CONTINUOUS
 62
     7
 10
-63.357694328290208
 20
-61.740707429441777
 30
0.0
 40
1.5
  0
CIRCLE
  5
190
  8
PATTERN_FILL
  6
CONTINUOUS
 62
     7
 10
-63.357694328290208
 20
-66.740707429441784
 30
0.0
 40
1.5
  0
CIRCLE
  5
191
  8
PATTERN_FILL
  6
CONTINUOUS
 62
     7
 10
-63.357694328290208
 20
-71.740707429441784
 30
0.0
 40
1.5
  0
CIRCLE
  5
192
  8
PATTERN_FILL
  6
CONTINUOUS
 62
     7
 10
-63.357694328290208
 20
-76.740707429441784
 30
0.0
 40
1.5
  0
CIRCLE
  5
193
  8
PATTERN_FILL
  6
CONTINUOUS
 62
     7
 10
-63.357694328290208
 20
-81.740707429441784
 30
0.0
 40
1.5
  0
CIRCLE
  5
194
  8
PATTERN_FILL
  6
CONTINUOUS
 62
     7
 10
-63.357694328290208
 20
-86.74070742944177
 30
0.0
 40
1.5
  0
CIRCLE
  5
195
  8
PATTERN_FILL
  6
CONTINUOUS
 62
     7
 10
-63.357694328290208
 20
-91.74070742944177
 30
0.0
 40
1.5
  0
CIRCLE
  5
196
  8
PATTERN_FILL
  6
CONTINUOUS
 62
     7
 10
-63.357694328290208
 20
-96.74070742944177
 30
0.0
 40
1.5
  0
CIRCLE
  5
197
  8
PATTERN_FILL
  6
CONTINUOUS
 62
     7
 10
-63.357694328290208
 20
-101.7407074294417
 30
0.0
 40
1.5
  0
CIRCLE
  5
198
  8
PATTERN_FILL
  6
CONTINUOUS
 62
     7
 10
-63.357694328290208
 20
-106.7407074294417
 30
0.0
 40
1.5
  0
CIRCLE
  5
199
  8
PATTERN_FILL
  6
CONTINUOUS
 62
     7
 10
-63.357694328290208
 20
-111.7407074294417
 30
0.0
 40
1.5
  0
CIRCLE
  5
19A
  8
PATTERN_FILL
  6
CONTINUOUS
 62
     7
 10
-63.357694328290208
 20
-116.7407074294418
 30
0.0
 40
1.5
  0
CIRCLE
  5
19B
  8
PATTERN_FILL
  6
CONTINUOUS
 62
     7
 10
-63.357694328290208
 20
-121.7407074294417
 30
0.0
 40
1.5
  0
ARC
  5
19C
  8
PATTERN_FILL
  6
CONTINUOUS
 62
     7
 10
-63.35769432829025
 20
-126.7407074294418
 30
0.0
 40
1.4999999999999689
 50
303.02497691987048
 51
217.22676429788211
  0
ARC
  5
19D
  8
PATTERN_FILL
  6
CONTINUOUS
 62
     7
 10
-58.357694328290208
 20
28.25929257055823
 30
0.0
 40
1.499999999999998
 50
175.26147223723831
 51
16.930114476492491
  0
CIRCLE
  5
19E
  8
PATTERN_FILL
  6
CONTINUOUS
 62
     7
 10
-58.357694328290208
 20
23.25929257055823
 30
0.0
 40
1.5
  0
CIRCLE
  5
19F
  8
PATTERN_FILL
  6
CONTINUOUS
 62
     7
 10
-58.357694328290208
 20
18.25929257055823
 30
0.0
 40
1.5
  0
CIRCLE
  5
1A0
  8
PATTERN_FILL
  6
CONTINUOUS
 62
     7
 10
-58.357694328290208
 20
13.25929257055822
 30
0.0
 40
1.5
  0
CIRCLE
  5
1A1
  8
PATTERN_FILL
  6
CONTINUOUS
 62
     7
 10
-58.357694328290208
 20
8.2592925705582232
 30
0.0
 40
1.5
  0
CIRCLE
  5
1A2
  8
PATTERN_FILL
  6
CONTINUOUS
 62
     7
 10
-58.357694328290208
 20
3.2592925705582232
 30
0.0
 40
1.5
  0
CIRCLE
  5
1A3
  8
PATTERN_FILL
  6
CONTINUOUS
 62
     7
 10
-58.357694328290208
 20
-1.7407074294417759
 30
0.0
 40
1.5
  0
CIRCLE
  5
1A4
  8
PATTERN_FILL
  6
CONTINUOUS
 62
     7
 10
-58.357694328290208
 20
-6.7407074294417759
 30
0.0
 40
1.5
  0
CIRCLE
  5
1A5
  8
PATTERN_FILL
  6
CONTINUOUS
 62
     7
 10
-58.357694328290208
 20
-11.74070742944177
 30
0.0
 40
1.5
  0
CIRCLE
  5
1A6
  8
PATTERN_FILL
  6
CONTINUOUS
 62
     7
 10
-58.357694328290208
 20
-16.74070742944177
 30
0.0
 40
1.5
  0
CIRCLE
  5
1A7
  8
PATTERN_FILL
  6
CONTINUOUS
 62
     7
 10
-58.357694328290208
 20
-21.74070742944177
 30
0.0
 40
1.5
  0
CIRCLE
  5
1A8
  8
PATTERN_FILL
  6
CONTINUOUS
 62
     7
 10
-58.357694328290208
 20
-26.74070742944178
 30
0.0
 40
1.5
  0
CIRCLE
  5
1A9
  8
PATTERN_FILL
  6
CONTINUOUS
 62
     7
 10
-58.357694328290208
 20
-31.74070742944178
 30
0.0
 40
1.5
  0
CIRCLE
  5
1AA
  8
PATTERN_FILL
  6
CONTINUOUS
 62
     7
 10
-58.357694328290208
 20
-36.74070742944177
 30
0.0
 40
1.5
  0
CIRCLE
  5
1AB
  8
PATTERN_FILL
  6
CONTINUOUS
 62
     7
 10
-58.357694328290208
 20
-41.740707429441763
 30
0.0
 40
1.5
  0
CIRCLE
  5
1AC
  8
PATTERN_FILL
  6
CONTINUOUS
 62
     7
 10
-58.357694328290208
 20
-46.740707429441777
 30
0.0
 40
1.5
  0
CIRCLE
  5
1AD
  8
PATTERN_FILL
  6
CONTINUOUS
 62
     7
 10
-58.357694328290208
 20
-51.740707429441777
 30
0.0
 40
1.5
  0
CIRCLE
  5
1AE
  8
PATTERN_FILL
  6
CONTINUOUS
 62
     7
 10
-58.357694328290208
 20
-56.740707429441777
 30
0.0
 40
1.5
  0
CIRCLE
  5
1AF
  8
PATTERN_FILL
  6
CONTINUOUS
 62
     7
 10
-58.357694328290208
 20
-61.740707429441777
 30
0.0
 40
1.5
  0
CIRCLE
  5
1B0
  8
PATTERN_FILL
  6
CONTINUOUS
 62
     7
 10
-58.357694328290208
 20
-66.740707429441784
 30
0.0
 40
1.5
  0
CIRCLE
  5
1B1
  8
PATTERN_FILL
  6
CONTINUOUS
 62
     7
 10
-58.357694328290208
 20
-71.740707429441784
 30
0.0
 40
1.5
  0
CIRCLE
  5
1B2
  8
PATTERN_FILL
  6
CONTINUOUS
 62
     7
 10
-58.357694328290208
 20
-76.740707429441784
 30
0.0
 40
1.5
  0
CIRCLE
  5
1B3
  8
PATTERN_FILL
  6
CONTINUOUS
 62
     7
 10
-58.357694328290208
 20
-81.740707429441784
 30
0.0
 40
1.5
  0
CIRCLE
  5
1B4
  8
PATTERN_FILL
  6
CONTINUOUS
 62
     7
 10
-58.357694328290208
 20
-86.74070742944177
 30
0.0
 40
1.5
  0
CIRCLE
  5
1B5
  8
PATTERN_FILL
  6
CONTINUOUS
 62
     7
 10
-58.357694328290208
 20
-91.74070742944177
 30
0.0
 40
1.5
  0
CIRCLE
  5
1B6
  8
PATTERN_FILL
  6
CONTINUOUS
 62
     7
 10
-58.357694328290208
 20
-96.74070742944177
 30
0.0
 40
1.5
  0
CIRCLE
  5
1B7
  8
PATTERN_FILL
  6
CONTINUOUS
 62
     7
 10
-58.357694328290208
 20
-101.7407074294417
 30
0.0
 40
1.5
  0
CIRCLE
  5
1B8
  8
PATTERN_FILL
  6
CONTINUOUS
 62
     7
 10
-58.357694328290208
 20
-106.7407074294417
 30
0.0
 40
1.5
  0
CIRCLE
  5
1B9
  8
PATTERN_FILL
  6
CONTINUOUS
 62
     7
 10
-58.357694328290208
 20
-111.7407074294417
 30
0.0
 40
1.5
  0
CIRCLE
  5
1BA
  8
PATTERN_FILL
  6
CONTINUOUS
 62
     7
 10
-58.357694328290208
 20
-116.7407074294418
 30
0.0
 40
1.5
  0
CIRCLE
  5
1BB
  8
PATTERN_FILL
  6
CONTINUOUS
 62
     7
 10
-58.357694328290208
 20
-121.7407074294417
 30
0.0
 40
1.5
  0
CIRCLE
  5
1BC
  8
PATTERN_FILL
  6
CONTINUOUS
 62
     7
 10
-58.357694328290208
 20
-126.7407074294417
 30
0.0
 40
1.5
  0
ARC
  5
1BD
  8
PATTERN_FILL
  6
CONTINUOUS
 62
     7
 10
-53.357694328290208
 20
28.259292570558209
 30
0.0
 40
1.500000000000006
 50
156.4718128767077
 51
28.441694294859762
  0
CIRCLE
  5
1BE
  8
PATTERN_FILL
  6
CONTINUOUS
 62
     7
 10
-53.357694328290208
 20
23.25929257055823
 30
0.0
 40
1.5
  0
CIRCLE
  5
1BF
  8
PATTERN_FILL
  6
CONTINUOUS
 62
     7
 10
-53.357694328290208
 20
18.25929257055823
 30
0.0
 40
1.5
  0
CIRCLE
  5
1C0
  8
PATTERN_FILL
  6
CONTINUOUS
 62
     7
 10
-53.357694328290208
 20
13.25929257055822
 30
0.0
 40
1.5
  0
CIRCLE
  5
1C1
  8
PATTERN_FILL
  6
CONTINUOUS
 62
     7
 10
-53.357694328290208
 20
8.2592925705582232
 30
0.0
 40
1.5
  0
CIRCLE
  5
1C2
  8
PATTERN_FILL
  6
CONTINUOUS
 62
     7
 10
-53.357694328290208
 20
3.2592925705582232
 30
0.0
 40
1.5
  0
CIRCLE
  5
1C3
  8
PATTERN_FILL
  6
CONTINUOUS
 62
     7
 10
-53.357694328290208
 20
-1.7407074294417759
 30
0.0
 40
1.5
  0
CIRCLE
  5
1C4
  8
PATTERN_FILL
  6
CONTINUOUS
 62
     7
 10
-53.357694328290208
 20
-6.7407074294417759
 30
0.0
 40
1.5
  0
CIRCLE
  5
1C5
  8
PATTERN_FILL
  6
CONTINUOUS
 62
     7
 10
-53.357694328290208
 20
-11.74070742944177
 30
0.0
 40
1.5
  0
CIRCLE
  5
1C6
  8
PATTERN_FILL
  6
CONTINUOUS
 62
     7
 10
-53.357694328290208
 20
-16.74070742944177
 30
0.0
 40
1.5
  0
CIRCLE
  5
1C7
  8
PATTERN_FILL
  6
CONTINUOUS
 62
     7
 10
-53.357694328290208
 20
-21.74070742944177
 30
0.0
 40
1.5
  0
CIRCLE
  5
1C8
  8
PATTERN_FILL
  6
CONTINUOUS
 62
     7
 10
-53.357694328290208
 20
-26.74070742944178
 30
0.0
 40
1.5
  0
CIRCLE
  5
1C9
  8
PATTERN_FILL
  6
CONTINUOUS
 62
     7
 10
-53.357694328290208
 20
-31.74070742944178
 30
0.0
 40
1.5
  0
CIRCLE
  5
1CA
  8
PATTERN_FILL
  6
CONTINUOUS
 62
     7
 10
-53.357694328290208
 20
-36.74070742944177
 30
0.0
 40
1.5
  0
CIRCLE
  5
1CB
  8
PATTERN_FILL
  6
CONTINUOUS
 62
     7
 10
-53.357694328290208
 20
-41.740707429441763
 30
0.0
 40
1.5
  0
CIRCLE
  5
1CC
  8
PATTERN_FILL
  6
CONTINUOUS
 62
     7
 10
-53.357694328290208
 20
-56.740707429441777
 30
0.0
 40
1.5
  0
CIRCLE
  5
1CD
  8
PATTERN_FILL
  6
CONTINUOUS
 62
     7
 10
-53.357694328290208
 20
-61.740707429441777
 30
0.0
 40
1.5
  0
CIRCLE
  5
1CE
  8
PATTERN_FILL
  6
CONTINUOUS
 62
     7
 10
-53.357694328290208
 20
-66.740707429441784
 30
0.0
 40
1.5
  0
CIRCLE
  5
1CF
  8
PATTERN_FILL
  6
CONTINUOUS
 62
     7
 10
-53.357694328290208
 20
-71.740707429441784
 30
0.0
 40
1.5
  0
CIRCLE
  5
1D0
  8
PATTERN_FILL
  6
CONTINUOUS
 62
     7
 10
-53.357694328290208
 20
-76.740707429441784
 30
0.0
 40
1.5
  0
CIRCLE
  5
1D1
  8
PATTERN_FILL
  6
CONTINUOUS
 62
     7
 10
-53.357694328290208
 20
-81.740707429441784
 30
0.0
 40
1.5
  0
CIRCLE
  5
1D2
  8
PATTERN_FILL
  6
CONTINUOUS
 62
     7
 10
-53.357694328290208
 20
-86.74070742944177
 30
0.0
 40
1.5
  0
CIRCLE
  5
1D3
  8
PATTERN_FILL
  6
CONTINUOUS
 62
     7
 10
-53.357694328290208
 20
-91.74070742944177
 30
0.0
 40
1.5
  0
CIRCLE
  5
1D4
  8
PATTERN_FILL
  6
CONTINUOUS
 62
     7
 10
-53.357694328290208
 20
-96.74070742944177
 30
0.0
 40
1.5
  0
CIRCLE
  5
1D5
  8
PATTERN_FILL
  6
CONTINUOUS
 62
     7
 10
-53.357694328290208
 20
-101.7407074294417
 30
0.0
 40
1.5
  0
CIRCLE
  5
1D6
  8
PATTERN_FILL
  6
CONTINUOUS
 62
     7
 10
-53.357694328290208
 20
-106.7407074294417
 30
0.0
 40
1.5
  0
CIRCLE
  5
1D7
  8
PATTERN_FILL
  6
CONTINUOUS
 62
     7
 10
-53.357694328290208
 20
-111.7407074294417
 30
0.0
 40
1.5
  0
CIRCLE
  5
1D8
  8
PATTERN_FILL
  6
CONTINUOUS
 62
     7
 10
-53.357694328290208
 20
-116.7407074294418
 30
0.0
 40
1.5
  0
CIRCLE
  5
1D9
  8
PATTERN_FILL
  6
CONTINUOUS
 62
     7
 10
-53.357694328290208
 20
-121.7407074294417
 30
0.0
 40
1.5
  0
CIRCLE
  5
1DA
  8
PATTERN_FILL
  6
CONTINUOUS
 62
     7
 10
-53.357694328290208
 20
-126.7407074294417
 30
0.0
 40
1.5
  0
ARC
  5
1DB
  8
PATTERN_FILL
  6
CONTINUOUS
 62
     7
 10
-48.357694328290208
 20
28.25929257055822
 30
0.0
 40
1.500000000000002
 50
150.44069143922979
 51
27.154907214778842
  0
CIRCLE
  5
1DC
  8
PATTERN_FILL
  6
CONTINUOUS
 62
     7
 10
-48.357694328290208
 20
23.25929257055823
 30
0.0
 40
1.5
  0
CIRCLE
  5
1DD
  8
PATTERN_FILL
  6
CONTINUOUS
 62
     7
 10
-48.357694328290208
 20
18.25929257055823
 30
0.0
 40
1.5
  0
CIRCLE
  5
1DE
  8
PATTERN_FILL
  6
CONTINUOUS
 62
     7
 10
-48.357694328290208
 20
13.25929257055822
 30
0.0
 40
1.5
  0
CIRCLE
  5
1DF
  8
PATTERN_FILL
  6
CONTINUOUS
 62
     7
 10
-48.357694328290208
 20
8.2592925705582232
 30
0.0
 40
1.5
  0
CIRCLE
  5
1E0
  8
PATTERN_FILL
  6
CONTINUOUS
 62
     7
 10
-48.357694328290208
 20
3.2592925705582232
 30
0.0
 40
1.5
  0
CIRCLE
  5
1E1
  8
PATTERN_FILL
  6
CONTINUOUS
 62
     7
 10
-48.357694328290208
 20
-1.7407074294417759
 30
0.0
 40
1.5
  0
CIRCLE
  5
1E2
  8
PATTERN_FILL
  6
CONTINUOUS
 62
     7
 10
-48.357694328290208
 20
-6.7407074294417759
 30
0.0
 40
1.5
  0
CIRCLE
  5
1E3
  8
PATTERN_FILL
  6
CONTINUOUS
 62
     7
 10
-48.357694328290208
 20
-11.74070742944177
 30
0.0
 40
1.5
  0
CIRCLE
  5
1E4
  8
PATTERN_FILL
  6
CONTINUOUS
 62
     7
 10
-48.357694328290208
 20
-16.74070742944177
 30
0.0
 40
1.5
  0
CIRCLE
  5
1E5
  8
PATTERN_FILL
  6
CONTINUOUS
 62
     7
 10
-48.357694328290208
 20
-21.74070742944177
 30
0.0
 40
1.5
  0
CIRCLE
  5
1E6
  8
PATTERN_FILL
  6
CONTINUOUS
 62
     7
 10
-48.357694328290208
 20
-26.74070742944178
 30
0.0
 40
1.5
  0
CIRCLE
  5
1E7
  8
PATTERN_FILL
  6
CONTINUOUS
 62
     7
 10
-48.357694328290208
 20
-31.74070742944178
 30
0.0
 40
1.5
  0
CIRCLE
  5
1E8
  8
PATTERN_FILL
  6
CONTINUOUS
 62
     7
 10
-48.357694328290208
 20
-36.74070742944177
 30
0.0
 40
1.5
  0
CIRCLE
  5
1E9
  8
PATTERN_FILL
  6
CONTINUOUS
 62
     7
 10
-48.357694328290208
 20
-41.740707429441763
 30
0.0
 40
1.5
  0
CIRCLE
  5
1EA
  8
PATTERN_FILL
  6
CONTINUOUS
 62
     7
 10
-48.357694328290208
 20
-56.740707429441777
 30
0.0
 40
1.5
  0
CIRCLE
  5
1EB
  8
PATTERN_FILL
  6
CONTINUOUS
 62
     7
 10
-48.357694328290208
 20
-61.740707429441777
 30
0.0
 40
1.5
  0
CIRCLE
  5
1EC
  8
PATTERN_FILL
  6
CONTINUOUS
 62
     7
 10
-48.357694328290208
 20
-66.740707429441784
 30
0.0
 40
1.5
  0
CIRCLE
  5
1ED
  8
PATTERN_FILL
  6
CONTINUOUS
 62
     7
 10
-48.357694328290208
 20
-71.740707429441784
 30
0.0
 40
1.5
  0
CIRCLE
  5
1EE
  8
PATTERN_FILL
  6
CONTINUOUS
 62
     7
 10
-48.357694328290208
 20
-76.740707429441784
 30
0.0
 40
1.5
  0
CIRCLE
  5
1EF
  8
PATTERN_FILL
  6
CONTINUOUS
 62
     7
 10
-48.357694328290208
 20
-81.740707429441784
 30
0.0
 40
1.5
  0
CIRCLE
  5
1F0
  8
PATTERN_FILL
  6
CONTINUOUS
 62
     7
 10
-48.357694328290208
 20
-86.74070742944177
 30
0.0
 40
1.5
  0
CIRCLE
  5
1F1
  8
PATTERN_FILL
  6
CONTINUOUS
 62
     7
 10
-48.357694328290208
 20
-91.74070742944177
 30
0.0
 40
1.5
  0
CIRCLE
  5
1F2
  8
PATTERN_FILL
  6
CONTINUOUS
 62
     7
 10
-48.357694328290208
 20
-96.74070742944177
 30
0.0
 40
1.5
  0
CIRCLE
  5
1F3
  8
PATTERN_FILL
  6
CONTINUOUS
 62
     7
 10
-48.357694328290208
 20
-101.7407074294417
 30
0.0
 40
1.5
  0
CIRCLE
  5
1F4
  8
PATTERN_FILL
  6
CONTINUOUS
 62
     7
 10
-48.357694328290208
 20
-106.7407074294417
 30
0.0
 40
1.5
  0
CIRCLE
  5
1F5
  8
PATTERN_FILL
  6
CONTINUOUS
 62
     7
 10
-48.357694328290208
 20
-111.7407074294417
 30
0.0
 40
1.5
  0
CIRCLE
  5
1F6
  8
PATTERN_FILL
  6
CONTINUOUS
 62
     7
 10
-48.357694328290208
 20
-116.7407074294418
 30
0.0
 40
1.5
  0
CIRCLE
  5
1F7
  8
PATTERN_FILL
  6
CONTINUOUS
 62
     7
 10
-48.357694328290208
 20
-121.7407074294417
 30
0.0
 40
1.5
  0
CIRCLE
  5
1F8
  8
PATTERN_FILL
  6
CONTINUOUS
 62
     7
 10
-48.357694328290208
 20
-126.7407074294417
 30
0.0
 40
1.5
  0
ARC
  5
1F9
  8
PATTERN_FILL
  6
CONTINUOUS
 62
     7
 10
-43.357694328290222
 20
28.25929257055823
 30
0.0
 40
1.4999999999999909
 50
157.8371933898776
 51
12.46003202493608
  0
CIRCLE
  5
1FA
  8
PATTERN_FILL
  6
CONTINUOUS
 62
     7
 10
-43.357694328290222
 20
23.25929257055823
 30
0.0
 40
1.5
  0
CIRCLE
  5
1FB
  8
PATTERN_FILL
  6
CONTINUOUS
 62
     7
 10
-43.357694328290222
 20
18.25929257055823
 30
0.0
 40
1.5
  0
CIRCLE
  5
1FC
  8
PATTERN_FILL
  6
CONTINUOUS
 62
     7
 10
-43.357694328290222
 20
13.25929257055822
 30
0.0
 40
1.5
  0
CIRCLE
  5
1FD
  8
PATTERN_FILL
  6
CONTINUOUS
 62
     7
 10
-43.357694328290222
 20
8.2592925705582232
 30
0.0
 40
1.5
  0
CIRCLE
  5
1FE
  8
PATTERN_FILL
  6
CONTINUOUS
 62
     7
 10
-43.357694328290222
 20
3.2592925705582232
 30
0.0
 40
1.5
  0
CIRCLE
  5
1FF
  8
PATTERN_FILL
  6
CONTINUOUS
 62
     7
 10
-43.357694328290222
 20
-1.7407074294417759
 30
0.0
 40
1.5
  0
CIRCLE
  5
200
  8
PATTERN_FILL
  6
CONTINUOUS
 62
     7
 10
-43.357694328290222
 20
-6.7407074294417759
 30
0.0
 40
1.5
  0
CIRCLE
  5
201
  8
PATTERN_FILL
  6
CONTINUOUS
 62
     7
 10
-43.357694328290222
 20
-11.74070742944177
 30
0.0
 40
1.5
  0
CIRCLE
  5
202
  8
PATTERN_FILL
  6
CONTINUOUS
 62
     7
 10
-43.357694328290222
 20
-16.74070742944177
 30
0.0
 40
1.5
  0
CIRCLE
  5
203
  8
PATTERN_FILL
  6
CONTINUOUS
 62
     7
 10
-43.357694328290222
 20
-21.74070742944177
 30
0.0
 40
1.5
  0
CIRCLE
  5
204
  8
PATTERN_FILL
  6
CONTINUOUS
 62
     7
 10
-43.357694328290222
 20
-26.74070742944178
 30
0.0
 40
1.5
  0
CIRCLE
  5
205
  8
PATTERN_FILL
  6
CONTINUOUS
 62
     7
 10
-43.357694328290222
 20
-31.74070742944178
 30
0.0
 40
1.5
  0
CIRCLE
  5
206
  8
PATTERN_FILL
  6
CONTINUOUS
 62
     7
 10
-43.357694328290222
 20
-36.74070742944177
 30
0.0
 40
1.5
  0
CIRCLE
  5
207
  8
PATTERN_FILL
  6
CONTINUOUS
 62
     7
 10
-43.357694328290222
 20
-41.740707429441763
 30
0.0
 40
1.5
  0
ARC
  5
208
  8
PATTERN_FILL
  6
CONTINUOUS
 62
     7
 10
-43.357694328290222
 20
-46.740707429441777
 30
0.0
 40
1.4999999999999889
 50
244.6463785169326
 51
115.3536214830671
  0
ARC
  5
209
  8
PATTERN_FILL
  6
CONTINUOUS
 62
     7
 10
-43.357694328290222
 20
-51.740707429441777
 30
0.0
 40
1.4999999999999989
 50
244.64637851693249
 51
115.3536214830676
  0
CIRCLE
  5
20A
  8
PATTERN_FILL
  6
CONTINUOUS
 62
     7
 10
-43.357694328290222
 20
-56.740707429441777
 30
0.0
 40
1.5
  0
CIRCLE
  5
20B
  8
PATTERN_FILL
  6
CONTINUOUS
 62
     7
 10
-43.357694328290222
 20
-61.740707429441777
 30
0.0
 40
1.5
  0
CIRCLE
  5
20C
  8
PATTERN_FILL
  6
CONTINUOUS
 62
     7
 10
-43.357694328290222
 20
-66.740707429441784
 30
0.0
 40
1.5
  0
CIRCLE
  5
20D
  8
PATTERN_FILL
  6
CONTINUOUS
 62
     7
 10
-43.357694328290222
 20
-71.740707429441784
 30
0.0
 40
1.5
  0
CIRCLE
  5
20E
  8
PATTERN_FILL
  6
CONTINUOUS
 62
     7
 10
-43.357694328290222
 20
-76.740707429441784
 30
0.0
 40
1.5
  0
CIRCLE
  5
20F
  8
PATTERN_FILL
  6
CONTINUOUS
 62
     7
 10
-43.357694328290222
 20
-81.740707429441784
 30
0.0
 40
1.5
  0
CIRCLE
  5
210
  8
PATTERN_FILL
  6
CONTINUOUS
 62
     7
 10
-43.357694328290222
 20
-86.74070742944177
 30
0.0
 40
1.5
  0
CIRCLE
  5
211
  8
PATTERN_FILL
  6
CONTINUOUS
 62
     7
 10
-43.357694328290222
 20
-91.74070742944177
 30
0.0
 40
1.5
  0
CIRCLE
  5
212
  8
PATTERN_FILL
  6
CONTINUOUS
 62
     7
 10
-43.357694328290222
 20
-96.74070742944177
 30
0.0
 40
1.5
  0
CIRCLE
  5
213
  8
PATTERN_FILL
  6
CONTINUOUS
 62
     7
 10
-43.357694328290222
 20
-101.7407074294417
 30
0.0
 40
1.5
  0
CIRCLE
  5
214
  8
PATTERN_FILL
  6
CONTINUOUS
 62
     7
 10
-43.357694328290222
 20
-106.7407074294417
 30
0.0
 40
1.5
  0
CIRCLE
  5
215
  8
PATTERN_FILL
  6
CONTINUOUS
 62
     7
 10
-43.357694328290222
 20
-111.7407074294417
 30
0.0
 40
1.5
  0
CIRCLE
  5
216
  8
PATTERN_FILL
  6
CONTINUOUS
 62
     7
 10
-43.357694328290222
 20
-116.7407074294418
 30
0.0
 40
1.5
  0
CIRCLE
  5
217
  8
PATTERN_FILL
  6
CONTINUOUS
 62
     7
 10
-43.357694328290222
 20
-121.7407074294417
 30
0.0
 40
1.5
  0
CIRCLE
  5
218
  8
PATTERN_FILL
  6
CONTINUOUS
 62
     7
 10
-43.357694328290222
 20
-126.7407074294417
 30
0.0
 40
1.5
  0
ARC
  5
219
  8
PATTERN_FILL
  6
CONTINUOUS
 62
     7
 10
-38.357694328290229
 20
28.25929257055823
 30
0.0
 40
1.499999999999998
 50
176.6893148467679
 51
346.3874965408383
  0
CIRCLE
  5
21A
  8
PATTERN_FILL
  6
CONTINUOUS
 62
     7
 10
-38.357694328290229
 20
23.25929257055823
 30
0.0
 40
1.5
  0
CIRCLE
  5
21B
  8
PATTERN_FILL
  6
CONTINUOUS
 62
     7
 10
-38.357694328290229
 20
18.25929257055823
 30
0.0
 40
1.5
  0
CIRCLE
  5
21C
  8
PATTERN_FILL
  6
CONTINUOUS
 62
     7
 10
-38.357694328290229
 20
13.25929257055822
 30
0.0
 40
1.5
  0
CIRCLE
  5
21D
  8
PATTERN_FILL
  6
CONTINUOUS
 62
     7
 10
-38.357694328290229
 20
8.2592925705582232
 30
0.0
 40
1.5
  0
CIRCLE
  5
21E
  8
PATTERN_FILL
  6
CONTINUOUS
 62
     7
 10
-38.357694328290229
 20
3.2592925705582232
 30
0.0
 40
1.5
  0
CIRCLE
  5
21F
  8
PATTERN_FILL
  6
CONTINUOUS
 62
     7
 10
-38.357694328290229
 20
-1.7407074294417759
 30
0.0
 40
1.5
  0
CIRCLE
  5
220
  8
PATTERN_FILL
  6
CONTINUOUS
 62
     7
 10
-38.357694328290229
 20
-6.7407074294417759
 30
0.0
 40
1.5
  0
CIRCLE
  5
221
  8
PATTERN_FILL
  6
CONTINUOUS
 62
     7
 10
-38.357694328290229
 20
-11.74070742944177
 30
0.0
 40
1.5
  0
CIRCLE
  5
222
  8
PATTERN_FILL
  6
CONTINUOUS
 62
     7
 10
-38.357694328290229
 20
-16.74070742944177
 30
0.0
 40
1.5
  0
CIRCLE
  5
223
  8
PATTERN_FILL
  6
CONTINUOUS
 62
     7
 10
-38.357694328290229
 20
-21.74070742944177
 30
0.0
 40
1.5
  0
CIRCLE
  5
224
  8
PATTERN_FILL
  6
CONTINUOUS
 62
     7
 10
-38.357694328290229
 20
-26.74070742944178
 30
0.0
 40
1.5
  0
CIRCLE
  5
225
  8
PATTERN_FILL
  6
CONTINUOUS
 62
     7
 10
-38.357694328290229
 20
-31.74070742944178
 30
0.0
 40
1.5
  0
CIRCLE
  5
226
  8
PATTERN_FILL
  6
CONTINUOUS
 62
     7
 10
-38.357694328290229
 20
-36.74070742944177
 30
0.0
 40
1.5
  0
CIRCLE
  5
227
  8
PATTERN_FILL
  6
CONTINUOUS
 62
     7
 10
-38.357694328290229
 20
-41.740707429441763
 30
0.0
 40
1.5
  0
CIRCLE
  5
228
  8
PATTERN_FILL
  6
CONTINUOUS
 62
     7
 10
-38.357694328290229
 20
-46.740707429441777
 30
0.0
 40
1.5
  0
CIRCLE
  5
229
  8
PATTERN_FILL
  6
CONTINUOUS
 62
     7
 10
-38.357694328290229
 20
-51.740707429441777
 30
0.0
 40
1.5
  0
CIRCLE
  5
22A
  8
PATTERN_FILL
  6
CONTINUOUS
 62
     7
 10
-38.357694328290229
 20
-56.740707429441777
 30
0.0
 40
1.5
  0
CIRCLE
  5
22B
  8
PATTERN_FILL
  6
CONTINUOUS
 62
     7
 10
-38.357694328290229
 20
-61.740707429441777
 30
0.0
 40
1.5
  0
CIRCLE
  5
22C
  8
PATTERN_FILL
  6
CONTINUOUS
 62
     7
 10
-38.357694328290229
 20
-66.740707429441784
 30
0.0
 40
1.5
  0
CIRCLE
  5
22D
  8
PATTERN_FILL
  6
CONTINUOUS
 62
     7
 10
-38.357694328290229
 20
-71.740707429441784
 30
0.0
 40
1.5
  0
CIRCLE
  5
22E
  8
PATTERN_FILL
  6
CONTINUOUS
 62
     7
 10
-38.357694328290229
 20
-76.740707429441784
 30
0.0
 40
1.5
  0
CIRCLE
  5
22F
  8
PATTERN_FILL
  6
CONTINUOUS
 62
     7
 10
-38.357694328290229
 20
-81.740707429441784
 30
0.0
 40
1.5
  0
CIRCLE
  5
230
  8
PATTERN_FILL
  6
CONTINUOUS
 62
     7
 10
-38.357694328290229
 20
-86.74070742944177
 30
0.0
 40
1.5
  0
CIRCLE
  5
231
  8
PATTERN_FILL
  6
CONTINUOUS
 62
     7
 10
-38.357694328290229
 20
-91.74070742944177
 30
0.0
 40
1.5
  0
CIRCLE
  5
232
  8
PATTERN_FILL
  6
CONTINUOUS
 62
     7
 10
-38.357694328290229
 20
-96.74070742944177
 30
0.0
 40
1.5
  0
CIRCLE
  5
233
  8
PATTERN_FILL
  6
CONTINUOUS
 62
     7
 10
-38.357694328290229
 20
-101.7407074294417
 30
0.0
 40
1.5
  0
CIRCLE
  5
234
  8
PATTERN_FILL
  6
CONTINUOUS
 62
     7
 10
-38.357694328290229
 20
-106.7407074294417
 30
0.0
 40
1.5
  0
CIRCLE
  5
235
  8
PATTERN_FILL
  6
CONTINUOUS
 62
     7
 10
-38.357694328290229
 20
-111.7407074294417
 30
0.0
 40
1.5
  0
CIRCLE
  5
236
  8
PATTERN_FILL
  6
CONTINUOUS
 62
     7
 10
-38.357694328290229
 20
-116.7407074294418
 30
0.0
 40
1.5
  0
CIRCLE
  5
237
  8
PATTERN_FILL
  6
CONTINUOUS
 62
     7
 10
-38.357694328290229
 20
-121.7407074294417
 30
0.0
 40
1.5
  0
ARC
  5
238
  8
PATTERN_FILL
  6
CONTINUOUS
 62
     7
 10
-38.357694328290172
 20
-126.740707429442
 30
0.0
 40
1.4999999999997391
 50
301.79906141832578
 51
255.4540217478104
  0
ARC
  5
239
  8
PATTERN_FILL
  6
CONTINUOUS
 62
     7
 10
-33.357694328290229
 20
28.25929257055823
 30
0.0
 40
1.499999999999998
 50
210.68027136609811
 51
305.30883005801621
  0
CIRCLE
  5
23A
  8
PATTERN_FILL
  6
CONTINUOUS
 62
     7
 10
-33.357694328290229
 20
23.25929257055823
 30
0.0
 40
1.5
  0
CIRCLE
  5
23B
  8
PATTERN_FILL
  6
CONTINUOUS
 62
     7
 10
-33.357694328290229
 20
18.25929257055823
 30
0.0
 40
1.5
  0
CIRCLE
  5
23C
  8
PATTERN_FILL
  6
CONTINUOUS
 62
     7
 10
-33.357694328290229
 20
13.25929257055822
 30
0.0
 40
1.5
  0
CIRCLE
  5
23D
  8
PATTERN_FILL
  6
CONTINUOUS
 62
     7
 10
-33.357694328290229
 20
8.2592925705582232
 30
0.0
 40
1.5
  0
CIRCLE
  5
23E
  8
PATTERN_FILL
  6
CONTINUOUS
 62
     7
 10
-33.357694328290229
 20
3.2592925705582232
 30
0.0
 40
1.5
  0
CIRCLE
  5
23F
  8
PATTERN_FILL
  6
CONTINUOUS
 62
     7
 10
-33.357694328290229
 20
-1.7407074294417759
 30
0.0
 40
1.5
  0
CIRCLE
  5
240
  8
PATTERN_FILL
  6
CONTINUOUS
 62
     7
 10
-33.357694328290229
 20
-6.7407074294417759
 30
0.0
 40
1.5
  0
CIRCLE
  5
241
  8
PATTERN_FILL
  6
CONTINUOUS
 62
     7
 10
-33.357694328290229
 20
-11.74070742944177
 30
0.0
 40
1.5
  0
CIRCLE
  5
242
  8
PATTERN_FILL
  6
CONTINUOUS
 62
     7
 10
-33.357694328290229
 20
-16.74070742944177
 30
0.0
 40
1.5
  0
CIRCLE
  5
243
  8
PATTERN_FILL
  6
CONTINUOUS
 62
     7
 10
-33.357694328290229
 20
-21.74070742944177
 30
0.0
 40
1.5
  0
CIRCLE
  5
244
  8
PATTERN_FILL
  6
CONTINUOUS
 62
     7
 10
-33.357694328290229
 20
-26.74070742944178
 30
0.0
 40
1.5
  0
CIRCLE
  5
245
  8
PATTERN_FILL
  6
CONTINUOUS
 62
     7
 10
-33.357694328290229
 20
-31.74070742944178
 30
0.0
 40
1.5
  0
CIRCLE
  5
246
  8
PATTERN_FILL
  6
CONTINUOUS
 62
     7
 10
-33.357694328290229
 20
-36.74070742944177
 30
0.0
 40
1.5
  0
CIRCLE
  5
247
  8
PATTERN_FILL
  6
CONTINUOUS
 62
     7
 10
-33.357694328290229
 20
-41.740707429441763
 30
0.0
 40
1.5
  0
CIRCLE
  5
248
  8
PATTERN_FILL
  6
CONTINUOUS
 62
     7
 10
-33.357694328290229
 20
-46.740707429441777
 30
0.0
 40
1.5
  0
CIRCLE
  5
249
  8
PATTERN_FILL
  6
CONTINUOUS
 62
     7
 10
-33.357694328290229
 20
-51.740707429441777
 30
0.0
 40
1.5
  0
CIRCLE
  5
24A
  8
PATTERN_FILL
  6
CONTINUOUS
 62
     7
 10
-33.357694328290229
 20
-56.740707429441777
 30
0.0
 40
1.5
  0
CIRCLE
  5
24B
  8
PATTERN_FILL
  6
CONTINUOUS
 62
     7
 10
-33.357694328290229
 20
-61.740707429441777
 30
0.0
 40
1.5
  0
CIRCLE
  5
24C
  8
PATTERN_FILL
  6
CONTINUOUS
 62
     7
 10
-33.357694328290229
 20
-66.740707429441784
 30
0.0
 40
1.5
  0
CIRCLE
  5
24D
  8
PATTERN_FILL
  6
CONTINUOUS
 62
     7
 10
-33.357694328290229
 20
-71.740707429441784
 30
0.0
 40
1.5
  0
CIRCLE
  5
24E
  8
PATTERN_FILL
  6
CONTINUOUS
 62
     7
 10
-33.357694328290229
 20
-76.740707429441784
 30
0.0
 40
1.5
  0
CIRCLE
  5
24F
  8
PATTERN_FILL
  6
CONTINUOUS
 62
     7
 10
-33.357694328290229
 20
-81.740707429441784
 30
0.0
 40
1.5
  0
CIRCLE
  5
250
  8
PATTERN_FILL
  6
CONTINUOUS
 62
     7
 10
-33.357694328290229
 20
-86.74070742944177
 30
0.0
 40
1.5
  0
CIRCLE
  5
251
  8
PATTERN_FILL
  6
CONTINUOUS
 62
     7
 10
-33.357694328290229
 20
-91.74070742944177
 30
0.0
 40
1.5
  0
CIRCLE
  5
252
  8
PATTERN_FILL
  6
CONTINUOUS
 62
     7
 10
-33.357694328290229
 20
-96.74070742944177
 30
0.0
 40
1.5
  0
CIRCLE
  5
253
  8
PATTERN_FILL
  6
CONTINUOUS
 62
     7
 10
-33.357694328290229
 20
-101.7407074294417
 30
0.0
 40
1.5
  0
CIRCLE
  5
254
  8
PATTERN_FILL
  6
CONTINUOUS
 62
     7
 10
-33.357694328290229
 20
-106.7407074294417
 30
0.0
 40
1.5
  0
CIRCLE
  5
255
  8
PATTERN_FILL
  6
CONTINUOUS
 62
     7
 10
-33.357694328290229
 20
-111.7407074294417
 30
0.0
 40
1.5
  0
CIRCLE
  5
256
  8
PATTERN_FILL
  6
CONTINUOUS
 62
     7
 10
-33.357694328290229
 20
-116.7407074294418
 30
0.0
 40
1.5
  0
CIRCLE
  5
257
  8
PATTERN_FILL
  6
CONTINUOUS
 62
     7
 10
-33.357694328290229
 20
-121.7407074294417
 30
0.0
 40
1.5
  0
ARC
  5
258
  8
PATTERN_FILL
  6
CONTINUOUS
 62
     7
 10
-33.357694328290208
 20
-126.7407074294417
 30
0.0
 40
1.4999999999999909
 50
354.27396741118241
 51
210.19788853579541
  0
CIRCLE
  5
259
  8
PATTERN_FILL
  6
CONTINUOUS
 62
     7
 10
-28.357694328290229
 20
23.25929257055823
 30
0.0
 40
1.5
  0
CIRCLE
  5
25A
  8
PATTERN_FILL
  6
CONTINUOUS
 62
     7
 10
-28.357694328290229
 20
18.25929257055823
 30
0.0
 40
1.5
  0
CIRCLE
  5
25B
  8
PATTERN_FILL
  6
CONTINUOUS
 62
     7
 10
-28.357694328290229
 20
13.25929257055822
 30
0.0
 40
1.5
  0
CIRCLE
  5
25C
  8
PATTERN_FILL
  6
CONTINUOUS
 62
     7
 10
-28.357694328290229
 20
8.2592925705582232
 30
0.0
 40
1.5
  0
CIRCLE
  5
25D
  8
PATTERN_FILL
  6
CONTINUOUS
 62
     7
 10
-28.357694328290229
 20
3.2592925705582232
 30
0.0
 40
1.5
  0
CIRCLE
  5
25E
  8
PATTERN_FILL
  6
CONTINUOUS
 62
     7
 10
-28.357694328290229
 20
-1.7407074294417759
 30
0.0
 40
1.5
  0
CIRCLE
  5
25F
  8
PATTERN_FILL
  6
CONTINUOUS
 62
     7
 10
-28.357694328290229
 20
-6.7407074294417759
 30
0.0
 40
1.5
  0
CIRCLE
  5
260
  8
PATTERN_FILL
  6
CONTINUOUS
 62
     7
 10
-28.357694328290229
 20
-11.74070742944177
 30
0.0
 40
1.5
  0
CIRCLE
  5
261
  8
PATTERN_FILL
  6
CONTINUOUS
 62
     7
 10
-28.357694328290229
 20
-16.74070742944177
 30
0.0
 40
1.5
  0
CIRCLE
  5
262
  8
PATTERN_FILL
  6
CONTINUOUS
 62
     7
 10
-28.357694328290229
 20
-21.74070742944177
 30
0.0
 40
1.5
  0
CIRCLE
  5
263
  8
PATTERN_FILL
  6
CONTINUOUS
 62
     7
 10
-28.357694328290229
 20
-26.74070742944178
 30
0.0
 40
1.5
  0
CIRCLE
  5
264
  8
PATTERN_FILL
  6
CONTINUOUS
 62
     7
 10
-28.357694328290229
 20
-31.74070742944178
 30
0.0
 40
1.5
  0
CIRCLE
  5
265
  8
PATTERN_FILL
  6
CONTINUOUS
 62
     7
 10
-28.357694328290229
 20
-36.74070742944177
 30
0.0
 40
1.5
  0
CIRCLE
  5
266
  8
PATTERN_FILL
  6
CONTINUOUS
 62
     7
 10
-28.357694328290229
 20
-41.740707429441763
 30
0.0
 40
1.5
  0
CIRCLE
  5
267
  8
PATTERN_FILL
  6
CONTINUOUS
 62
     7
 10
-28.357694328290229
 20
-46.740707429441777
 30
0.0
 40
1.5
  0
CIRCLE
  5
268
  8
PATTERN_FILL
  6
CONTINUOUS
 62
     7
 10
-28.357694328290229
 20
-51.740707429441777
 30
0.0
 40
1.5
  0
CIRCLE
  5
269
  8
PATTERN_FILL
  6
CONTINUOUS
 62
     7
 10
-28.357694328290229
 20
-56.740707429441777
 30
0.0
 40
1.5
  0
CIRCLE
  5
26A
  8
PATTERN_FILL
  6
CONTINUOUS
 62
     7
 10
-28.357694328290229
 20
-61.740707429441777
 30
0.0
 40
1.5
  0
CIRCLE
  5
26B
  8
PATTERN_FILL
  6
CONTINUOUS
 62
     7
 10
-28.357694328290229
 20
-66.740707429441784
 30
0.0
 40
1.5
  0
CIRCLE
  5
26C
  8
PATTERN_FILL
  6
CONTINUOUS
 62
     7
 10
-28.357694328290229
 20
-71.740707429441784
 30
0.0
 40
1.5
  0
CIRCLE
  5
26D
  8
PATTERN_FILL
  6
CONTINUOUS
 62
     7
 10
-28.357694328290229
 20
-76.740707429441784
 30
0.0
 40
1.5
  0
CIRCLE
  5
26E
  8
PATTERN_FILL
  6
CONTINUOUS
 62
     7
 10
-28.357694328290229
 20
-81.740707429441784
 30
0.0
 40
1.5
  0
CIRCLE
  5
26F
  8
PATTERN_FILL
  6
CONTINUOUS
 62
     7
 10
-28.357694328290229
 20
-86.74070742944177
 30
0.0
 40
1.5
  0
CIRCLE
  5
270
  8
PATTERN_FILL
  6
CONTINUOUS
 62
     7
 10
-28.357694328290229
 20
-91.74070742944177
 30
0.0
 40
1.5
  0
CIRCLE
  5
271
  8
PATTERN_FILL
  6
CONTINUOUS
 62
     7
 10
-28.357694328290229
 20
-96.74070742944177
 30
0.0
 40
1.5
  0
CIRCLE
  5
272
  8
PATTERN_FILL
  6
CONTINUOUS
 62
     7
 10
-28.357694328290229
 20
-101.7407074294417
 30
0.0
 40
1.5
  0
CIRCLE
  5
273
  8
PATTERN_FILL
  6
CONTINUOUS
 62
     7
 10
-28.357694328290229
 20
-106.7407074294417
 30
0.0
 40
1.5
  0
CIRCLE
  5
274
  8
PATTERN_FILL
  6
CONTINUOUS
 62
     7
 10
-28.357694328290229
 20
-111.7407074294417
 30
0.0
 40
1.5
  0
CIRCLE
  5
275
  8
PATTERN_FILL
  6
CONTINUOUS
 62
     7
 10
-28.357694328290229
 20
-116.7407074294418
 30
0.0
 40
1.5
  0
CIRCLE
  5
276
  8
PATTERN_FILL
  6
CONTINUOUS
 62
     7
 10
-28.357694328290229
 20
-121.7407074294417
 30
0.0
 40
1.5
  0
ARC
  5
277
  8
PATTERN_FILL
  6
CONTINUOUS
 62
     7
 10
-28.357694328290229
 20
-126.7407074294417
 30
0.0
 40
1.5000000000000011
 50
45.521361098328313
 51
165.97751542892851
  0
ARC
  5
278
  8
PATTERN_FILL
  6
CONTINUOUS
 62
     7
 10
-23.357694328290211
 20
23.25929257055823
 30
0.0
 40
1.499999999999994
 50
116.1645890220591
 51
23.865657270475449
  0
CIRCLE
  5
279
  8
PATTERN_FILL
  6
CONTINUOUS
 62
     7
 10
-23.357694328290229
 20
18.25929257055823
 30
0.0
 40
1.5
  0
CIRCLE
  5
27A
  8
PATTERN_FILL
  6
CONTINUOUS
 62
     7
 10
-23.357694328290229
 20
13.25929257055822
 30
0.0
 40
1.5
  0
CIRCLE
  5
27B
  8
PATTERN_FILL
  6
CONTINUOUS
 62
     7
 10
-23.357694328290229
 20
8.2592925705582232
 30
0.0
 40
1.5
  0
CIRCLE
  5
27C
  8
PATTERN_FILL
  6
CONTINUOUS
 62
     7
 10
-23.357694328290229
 20
3.2592925705582232
 30
0.0
 40
1.5
  0
CIRCLE
  5
27D
  8
PATTERN_FILL
  6
CONTINUOUS
 62
     7
 10
-23.357694328290229
 20
-1.7407074294417759
 30
0.0
 40
1.5
  0
CIRCLE
  5
27E
  8
PATTERN_FILL
  6
CONTINUOUS
 62
     7
 10
-23.357694328290229
 20
-6.7407074294417759
 30
0.0
 40
1.5
  0
CIRCLE
  5
27F
  8
PATTERN_FILL
  6
CONTINUOUS
 62
     7
 10
-23.357694328290229
 20
-11.74070742944177
 30
0.0
 40
1.5
  0
CIRCLE
  5
280
  8
PATTERN_FILL
  6
CONTINUOUS
 62
     7
 10
-23.357694328290229
 20
-16.74070742944177
 30
0.0
 40
1.5
  0
CIRCLE
  5
281
  8
PATTERN_FILL
  6
CONTINUOUS
 62
     7
 10
-23.357694328290229
 20
-21.74070742944177
 30
0.0
 40
1.5
  0
CIRCLE
  5
282
  8
PATTERN_FILL
  6
CONTINUOUS
 62
     7
 10
-23.357694328290229
 20
-26.74070742944178
 30
0.0
 40
1.5
  0
CIRCLE
  5
283
  8
PATTERN_FILL
  6
CONTINUOUS
 62
     7
 10
-23.357694328290229
 20
-31.74070742944178
 30
0.0
 40
1.5
  0
CIRCLE
  5
284
  8
PATTERN_FILL
  6
CONTINUOUS
 62
     7
 10
-23.357694328290229
 20
-36.74070742944177
 30
0.0
 40
1.5
  0
CIRCLE
  5
285
  8
PATTERN_FILL
  6
CONTINUOUS
 62
     7
 10
-23.357694328290229
 20
-41.740707429441763
 30
0.0
 40
1.5
  0
CIRCLE
  5
286
  8
PATTERN_FILL
  6
CONTINUOUS
 62
     7
 10
-23.357694328290229
 20
-46.740707429441777
 30
0.0
 40
1.5
  0
CIRCLE
  5
287
  8
PATTERN_FILL
  6
CONTINUOUS
 62
     7
 10
-23.357694328290229
 20
-51.740707429441777
 30
0.0
 40
1.5
  0
CIRCLE
  5
288
  8
PATTERN_FILL
  6
CONTINUOUS
 62
     7
 10
-23.357694328290229
 20
-56.740707429441777
 30
0.0
 40
1.5
  0
CIRCLE
  5
289
  8
PATTERN_FILL
  6
CONTINUOUS
 62
     7
 10
-23.357694328290229
 20
-61.740707429441777
 30
0.0
 40
1.5
  0
CIRCLE
  5
28A
  8
PATTERN_FILL
  6
CONTINUOUS
 62
     7
 10
-23.357694328290229
 20
-66.740707429441784
 30
0.0
 40
1.5
  0
CIRCLE
  5
28B
  8
PATTERN_FILL
  6
CONTINUOUS
 62
     7
 10
-23.357694328290229
 20
-71.740707429441784
 30
0.0
 40
1.5
  0
CIRCLE
  5
28C
  8
PATTERN_FILL
  6
CONTINUOUS
 62
     7
 10
-23.357694328290229
 20
-76.740707429441784
 30
0.0
 40
1.5
  0
CIRCLE
  5
28D
  8
PATTERN_FILL
  6
CONTINUOUS
 62
     7
 10
-23.357694328290229
 20
-81.740707429441784
 30
0.0
 40
1.5
  0
CIRCLE
  5
28E
  8
PATTERN_FILL
  6
CONTINUOUS
 62
     7
 10
-23.357694328290229
 20
-86.74070742944177
 30
0.0
 40
1.5
  0
CIRCLE
  5
28F
  8
PATTERN_FILL
  6
CONTINUOUS
 62
     7
 10
-23.357694328290229
 20
-91.74070742944177
 30
0.0
 40
1.5
  0
CIRCLE
  5
290
  8
PATTERN_FILL
  6
CONTINUOUS
 62
     7
 10
-23.357694328290229
 20
-96.74070742944177
 30
0.0
 40
1.5
  0
CIRCLE
  5
291
  8
PATTERN_FILL
  6
CONTINUOUS
 62
     7
 10
-23.357694328290229
 20
-101.7407074294417
 30
0.0
 40
1.5
  0
CIRCLE
  5
292
  8
PATTERN_FILL
  6
CONTINUOUS
 62
     7
 10
-23.357694328290229
 20
-106.7407074294417
 30
0.0
 40
1.5
  0
CIRCLE
  5
293
  8
PATTERN_FILL
  6
CONTINUOUS
 62
     7
 10
-23.357694328290229
 20
-111.7407074294417
 30
0.0
 40
1.5
  0
CIRCLE
  5
294
  8
PATTERN_FILL
  6
CONTINUOUS
 62
     7
 10
-23.357694328290229
 20
-116.7407074294418
 30
0.0
 40
1.5
  0
CIRCLE
  5
295
  8
PATTERN_FILL
  6
CONTINUOUS
 62
     7
 10
-23.357694328290229
 20
-121.7407074294417
 30
0.0
 40
1.5
  0
ARC
  5
296
  8
PATTERN_FILL
  6
CONTINUOUS
 62
     7
 10
-18.357694328290219
 20
23.25929257055823
 30
0.0
 40
1.499999999999998
 50
189.3606686215864
 51
303.91816779440308
  0
CIRCLE
  5
297
  8
PATTERN_FILL
  6
CONTINUOUS
 62
     7
 10
-18.357694328290219
 20
18.25929257055823
 30
0.0
 40
1.5
  0
CIRCLE
  5
298
  8
PATTERN_FILL
  6
CONTINUOUS
 62
     7
 10
-18.357694328290219
 20
13.25929257055822
 30
0.0
 40
1.5
  0
CIRCLE
  5
299
  8
PATTERN_FILL
  6
CONTINUOUS
 62
     7
 10
-18.357694328290219
 20
8.2592925705582232
 30
0.0
 40
1.5
  0
CIRCLE
  5
29A
  8
PATTERN_FILL
  6
CONTINUOUS
 62
     7
 10
-18.357694328290219
 20
3.2592925705582232
 30
0.0
 40
1.5
  0
CIRCLE
  5
29B
  8
PATTERN_FILL
  6
CONTINUOUS
 62
     7
 10
-18.357694328290219
 20
-1.7407074294417759
 30
0.0
 40
1.5
  0
CIRCLE
  5
29C
  8
PATTERN_FILL
  6
CONTINUOUS
 62
     7
 10
-18.357694328290219
 20
-6.7407074294417759
 30
0.0
 40
1.5
  0
CIRCLE
  5
29D
  8
PATTERN_FILL
  6
CONTINUOUS
 62
     7
 10
-18.357694328290219
 20
-11.74070742944177
 30
0.0
 40
1.5
  0
CIRCLE
  5
29E
  8
PATTERN_FILL
  6
CONTINUOUS
 62
     7
 10
-18.357694328290219
 20
-16.74070742944177
 30
0.0
 40
1.5
  0
CIRCLE
  5
29F
  8
PATTERN_FILL
  6
CONTINUOUS
 62
     7
 10
-18.357694328290219
 20
-21.74070742944177
 30
0.0
 40
1.5
  0
CIRCLE
  5
2A0
  8
PATTERN_FILL
  6
CONTINUOUS
 62
     7
 10
-18.357694328290219
 20
-26.74070742944178
 30
0.0
 40
1.5
  0
CIRCLE
  5
2A1
  8
PATTERN_FILL
  6
CONTINUOUS
 62
     7
 10
-18.357694328290219
 20
-31.74070742944178
 30
0.0
 40
1.5
  0
CIRCLE
  5
2A2
  8
PATTERN_FILL
  6
CONTINUOUS
 62
     7
 10
-18.357694328290219
 20
-36.74070742944177
 30
0.0
 40
1.5
  0
CIRCLE
  5
2A3
  8
PATTERN_FILL
  6
CONTINUOUS
 62
     7
 10
-18.357694328290219
 20
-41.740707429441763
 30
0.0
 40
1.5
  0
CIRCLE
  5
2A4
  8
PATTERN_FILL
  6
CONTINUOUS
 62
     7
 10
-18.357694328290219
 20
-46.740707429441777
 30
0.0
 40
1.5
  0
CIRCLE
  5
2A5
  8
PATTERN_FILL
  6
CONTINUOUS
 62
     7
 10
-18.357694328290219
 20
-51.740707429441777
 30
0.0
 40
1.5
  0
CIRCLE
  5
2A6
  8
PATTERN_FILL
  6
CONTINUOUS
 62
     7
 10
-18.357694328290219
 20
-56.740707429441777
 30
0.0
 40
1.5
  0
CIRCLE
  5
2A7
  8
PATTERN_FILL
  6
CONTINUOUS
 62
     7
 10
-18.357694328290219
 20
-61.740707429441777
 30
0.0
 40
1.5
  0
CIRCLE
  5
2A8
  8
PATTERN_FILL
  6
CONTINUOUS
 62
     7
 10
-18.357694328290219
 20
-66.740707429441784
 30
0.0
 40
1.5
  0
CIRCLE
  5
2A9
  8
PATTERN_FILL
  6
CONTINUOUS
 62
     7
 10
-18.357694328290219
 20
-71.740707429441784
 30
0.0
 40
1.5
  0
CIRCLE
  5
2AA
  8
PATTERN_FILL
  6
CONTINUOUS
 62
     7
 10
-18.357694328290219
 20
-76.740707429441784
 30
0.0
 40
1.5
  0
CIRCLE
  5
2AB
  8
PATTERN_FILL
  6
CONTINUOUS
 62
     7
 10
-18.357694328290219
 20
-81.740707429441784
 30
0.0
 40
1.5
  0
CIRCLE
  5
2AC
  8
PATTERN_FILL
  6
CONTINUOUS
 62
     7
 10
-18.357694328290219
 20
-86.74070742944177
 30
0.0
 40
1.5
  0
CIRCLE
  5
2AD
  8
PATTERN_FILL
  6
CONTINUOUS
 62
     7
 10
-18.357694328290219
 20
-91.74070742944177
 30
0.0
 40
1.5
  0
CIRCLE
  5
2AE
  8
PATTERN_FILL
  6
CONTINUOUS
 62
     7
 10
-18.357694328290219
 20
-96.74070742944177
 30
0.0
 40
1.5
  0
CIRCLE
  5
2AF
  8
PATTERN_FILL
  6
CONTINUOUS
 62
     7
 10
-18.357694328290219
 20
-101.7407074294417
 30
0.0
 40
1.5
  0
CIRCLE
  5
2B0
  8
PATTERN_FILL
  6
CONTINUOUS
 62
     7
 10
-18.357694328290219
 20
-106.7407074294417
 30
0.0
 40
1.5
  0
CIRCLE
  5
2B1
  8
PATTERN_FILL
  6
CONTINUOUS
 62
     7
 10
-18.357694328290219
 20
-111.7407074294417
 30
0.0
 40
1.5
  0
CIRCLE
  5
2B2
  8
PATTERN_FILL
  6
CONTINUOUS
 62
     7
 10
-18.357694328290219
 20
-116.7407074294418
 30
0.0
 40
1.5
  0
ARC
  5
2B3
  8
PATTERN_FILL
  6
CONTINUOUS
 62
     7
 10
-18.357694328290219
 20
-121.7407074294417
 30
0.0
 40
1.5
 50
1.097972112629181
 51
226.5032094007249
  0
CIRCLE
  5
2B4
  8
PATTERN_FILL
  6
CONTINUOUS
 62
     7
 10
-13.35769432829022
 20
18.25929257055823
 30
0.0
 40
1.5
  0
CIRCLE
  5
2B5
  8
PATTERN_FILL
  6
CONTINUOUS
 62
     7
 10
-13.35769432829022
 20
13.25929257055822
 30
0.0
 40
1.5
  0
CIRCLE
  5
2B6
  8
PATTERN_FILL
  6
CONTINUOUS
 62
     7
 10
-13.35769432829022
 20
8.2592925705582232
 30
0.0
 40
1.5
  0
CIRCLE
  5
2B7
  8
PATTERN_FILL
  6
CONTINUOUS
 62
     7
 10
-13.35769432829022
 20
3.2592925705582232
 30
0.0
 40
1.5
  0
CIRCLE
  5
2B8
  8
PATTERN_FILL
  6
CONTINUOUS
 62
     7
 10
-13.35769432829022
 20
-1.7407074294417759
 30
0.0
 40
1.5
  0
CIRCLE
  5
2B9
  8
PATTERN_FILL
  6
CONTINUOUS
 62
     7
 10
-13.35769432829022
 20
-6.7407074294417759
 30
0.0
 40
1.5
  0
CIRCLE
  5
2BA
  8
PATTERN_FILL
  6
CONTINUOUS
 62
     7
 10
-13.35769432829022
 20
-11.74070742944177
 30
0.0
 40
1.5
  0
CIRCLE
  5
2BB
  8
PATTERN_FILL
  6
CONTINUOUS
 62
     7
 10
-13.35769432829022
 20
-16.74070742944177
 30
0.0
 40
1.5
  0
CIRCLE
  5
2BC
  8
PATTERN_FILL
  6
CONTINUOUS
 62
     7
 10
-13.35769432829022
 20
-21.74070742944177
 30
0.0
 40
1.5
  0
CIRCLE
  5
2BD
  8
PATTERN_FILL
  6
CONTINUOUS
 62
     7
 10
-13.35769432829022
 20
-26.74070742944178
 30
0.0
 40
1.5
  0
CIRCLE
  5
2BE
  8
PATTERN_FILL
  6
CONTINUOUS
 62
     7
 10
-13.35769432829022
 20
-31.74070742944178
 30
0.0
 40
1.5
  0
CIRCLE
  5
2BF
  8
PATTERN_FILL
  6
CONTINUOUS
 62
     7
 10
-13.35769432829022
 20
-36.74070742944177
 30
0.0
 40
1.5
  0
CIRCLE
  5
2C0
  8
PATTERN_FILL
  6
CONTINUOUS
 62
     7
 10
-13.35769432829022
 20
-41.740707429441763
 30
0.0
 40
1.5
  0
CIRCLE
  5
2C1
  8
PATTERN_FILL
  6
CONTINUOUS
 62
     7
 10
-13.35769432829022
 20
-46.740707429441777
 30
0.0
 40
1.5
  0
CIRCLE
  5
2C2
  8
PATTERN_FILL
  6
CONTINUOUS
 62
     7
 10
-13.35769432829022
 20
-51.740707429441777
 30
0.0
 40
1.5
  0
CIRCLE
  5
2C3
  8
PATTERN_FILL
  6
CONTINUOUS
 62
     7
 10
-13.35769432829022
 20
-56.740707429441777
 30
0.0
 40
1.5
  0
CIRCLE
  5
2C4
  8
PATTERN_FILL
  6
CONTINUOUS
 62
     7
 10
-13.35769432829022
 20
-61.740707429441777
 30
0.0
 40
1.5
  0
CIRCLE
  5
2C5
  8
PATTERN_FILL
  6
CONTINUOUS
 62
     7
 10
-13.35769432829022
 20
-66.740707429441784
 30
0.0
 40
1.5
  0
CIRCLE
  5
2C6
  8
PATTERN_FILL
  6
CONTINUOUS
 62
     7
 10
-13.35769432829022
 20
-71.740707429441784
 30
0.0
 40
1.5
  0
CIRCLE
  5
2C7
  8
PATTERN_FILL
  6
CONTINUOUS
 62
     7
 10
-13.35769432829022
 20
-76.740707429441784
 30
0.0
 40
1.5
  0
CIRCLE
  5
2C8
  8
PATTERN_FILL
  6
CONTINUOUS
 62
     7
 10
-13.35769432829022
 20
-81.740707429441784
 30
0.0
 40
1.5
  0
CIRCLE
  5
2C9
  8
PATTERN_FILL
  6
CONTINUOUS
 62
     7
 10
-13.35769432829022
 20
-86.74070742944177
 30
0.0
 40
1.5
  0
CIRCLE
  5
2CA
  8
PATTERN_FILL
  6
CONTINUOUS
 62
     7
 10
-13.35769432829022
 20
-91.74070742944177
 30
0.0
 40
1.5
  0
CIRCLE
  5
2CB
  8
PATTERN_FILL
  6
CONTINUOUS
 62
     7
 10
-13.35769432829022
 20
-96.74070742944177
 30
0.0
 40
1.5
  0
CIRCLE
  5
2CC
  8
PATTERN_FILL
  6
CONTINUOUS
 62
     7
 10
-13.35769432829022
 20
-101.7407074294417
 30
0.0
 40
1.5
  0
CIRCLE
  5
2CD
  8
PATTERN_FILL
  6
CONTINUOUS
 62
     7
 10
-13.35769432829022
 20
-106.7407074294417
 30
0.0
 40
1.5
  0
CIRCLE
  5
2CE
  8
PATTERN_FILL
  6
CONTINUOUS
 62
     7
 10
-13.35769432829022
 20
-111.7407074294417
 30
0.0
 40
1.5
  0
CIRCLE
  5
2CF
  8
PATTERN_FILL
  6
CONTINUOUS
 62
     7
 10
-13.35769432829022
 20
-116.7407074294418
 30
0.0
 40
1.5
  0
ARC
  5
2D0
  8
PATTERN_FILL
  6
CONTINUOUS
 62
     7
 10
-8.3576943282902221
 20
18.25929257055823
 30
0.0
 40
1.5
 50
188.76193048548669
 51
288.46662565659801
  0
CIRCLE
  5
2D1
  8
PATTERN_FILL
  6
CONTINUOUS
 62
     7
 10
-8.3576943282902221
 20
13.25929257055822
 30
0.0
 40
1.5
  0
CIRCLE
  5
2D2
  8
PATTERN_FILL
  6
CONTINUOUS
 62
     7
 10
-8.3576943282902221
 20
8.2592925705582232
 30
0.0
 40
1.5
  0
CIRCLE
  5
2D3
  8
PATTERN_FILL
  6
CONTINUOUS
 62
     7
 10
-8.3576943282902221
 20
3.2592925705582232
 30
0.0
 40
1.5
  0
CIRCLE
  5
2D4
  8
PATTERN_FILL
  6
CONTINUOUS
 62
     7
 10
-8.3576943282902221
 20
-1.7407074294417759
 30
0.0
 40
1.5
  0
CIRCLE
  5
2D5
  8
PATTERN_FILL
  6
CONTINUOUS
 62
     7
 10
-8.3576943282902221
 20
-6.7407074294417759
 30
0.0
 40
1.5
  0
CIRCLE
  5
2D6
  8
PATTERN_FILL
  6
CONTINUOUS
 62
     7
 10
-8.3576943282902221
 20
-11.74070742944177
 30
0.0
 40
1.5
  0
CIRCLE
  5
2D7
  8
PATTERN_FILL
  6
CONTINUOUS
 62
     7
 10
-8.3576943282902221
 20
-16.74070742944177
 30
0.0
 40
1.5
  0
CIRCLE
  5
2D8
  8
PATTERN_FILL
  6
CONTINUOUS
 62
     7
 10
-8.3576943282902221
 20
-21.74070742944177
 30
0.0
 40
1.5
  0
CIRCLE
  5
2D9
  8
PATTERN_FILL
  6
CONTINUOUS
 62
     7
 10
-8.3576943282902221
 20
-26.74070742944178
 30
0.0
 40
1.5
  0
CIRCLE
  5
2DA
  8
PATTERN_FILL
  6
CONTINUOUS
 62
     7
 10
-8.3576943282902221
 20
-31.74070742944178
 30
0.0
 40
1.5
  0
CIRCLE
  5
2DB
  8
PATTERN_FILL
  6
CONTINUOUS
 62
     7
 10
-8.3576943282902221
 20
-36.74070742944177
 30
0.0
 40
1.5
  0
CIRCLE
  5
2DC
  8
PATTERN_FILL
  6
CONTINUOUS
 62
     7
 10
-8.3576943282902221
 20
-41.740707429441763
 30
0.0
 40
1.5
  0
CIRCLE
  5
2DD
  8
PATTERN_FILL
  6
CONTINUOUS
 62
     7
 10
-8.3576943282902221
 20
-46.740707429441777
 30
0.0
 40
1.5
  0
CIRCLE
  5
2DE
  8
PATTERN_FILL
  6
CONTINUOUS
 62
     7
 10
-8.3576943282902221
 20
-51.740707429441777
 30
0.0
 40
1.5
  0
CIRCLE
  5
2DF
  8
PATTERN_FILL
  6
CONTINUOUS
 62
     7
 10
-8.3576943282902221
 20
-56.740707429441777
 30
0.0
 40
1.5
  0
CIRCLE
  5
2E0
  8
PATTERN_FILL
  6
CONTINUOUS
 62
     7
 10
-8.3576943282902221
 20
-61.740707429441777
 30
0.0
 40
1.5
  0
CIRCLE
  5
2E1
  8
PATTERN_FILL
  6
CONTINUOUS
 62
     7
 10
-8.3576943282902221
 20
-66.740707429441784
 30
0.0
 40
1.5
  0
CIRCLE
  5
2E2
  8
PATTERN_FILL
  6
CONTINUOUS
 62
     7
 10
-8.3576943282902221
 20
-71.740707429441784
 30
0.0
 40
1.5
  0
CIRCLE
  5
2E3
  8
PATTERN_FILL
  6
CONTINUOUS
 62
     7
 10
-8.3576943282902221
 20
-76.740707429441784
 30
0.0
 40
1.5
  0
CIRCLE
  5
2E4
  8
PATTERN_FILL
  6
CONTINUOUS
 62
     7
 10
-8.3576943282902221
 20
-81.740707429441784
 30
0.0
 40
1.5
  0
CIRCLE
  5
2E5
  8
PATTERN_FILL
  6
CONTINUOUS
 62
     7
 10
-8.3576943282902221
 20
-86.74070742944177
 30
0.0
 40
1.5
  0
CIRCLE
  5
2E6
  8
PATTERN_FILL
  6
CONTINUOUS
 62
     7
 10
-8.3576943282902221
 20
-91.74070742944177
 30
0.0
 40
1.5
  0
CIRCLE
  5
2E7
  8
PATTERN_FILL
  6
CONTINUOUS
 62
     7
 10
-8.3576943282902221
 20
-96.74070742944177
 30
0.0
 40
1.5
  0
CIRCLE
  5
2E8
  8
PATTERN_FILL
  6
CONTINUOUS
 62
     7
 10
-8.3576943282902221
 20
-101.7407074294417
 30
0.0
 40
1.5
  0
CIRCLE
  5
2E9
  8
PATTERN_FILL
  6
CONTINUOUS
 62
     7
 10
-8.3576943282902221
 20
-106.7407074294417
 30
0.0
 40
1.5
  0
CIRCLE
  5
2EA
  8
PATTERN_FILL
  6
CONTINUOUS
 62
     7
 10
-8.3576943282902221
 20
-111.7407074294417
 30
0.0
 40
1.5
  0
ARC
  5
2EB
  8
PATTERN_FILL
  6
CONTINUOUS
 62
     7
 10
-8.3576943282902221
 20
-116.7407074294418
 30
0.0
 40
1.5
 50
19.6440274397503
 51
224.27948457673
  0
ARC
  5
2EC
  8
PATTERN_FILL
  6
CONTINUOUS
 62
     7
 10
-3.3576943282902221
 20
13.25929257055822
 30
0.0
 40
1.4999999999999989
 50
128.47682749556549
 51
338.71902660799088
  0
CIRCLE
  5
2ED
  8
PATTERN_FILL
  6
CONTINUOUS
 62
     7
 10
-3.3576943282902221
 20
8.2592925705582232
 30
0.0
 40
1.5
  0
CIRCLE
  5
2EE
  8
PATTERN_FILL
  6
CONTINUOUS
 62
     7
 10
-3.3576943282902221
 20
3.2592925705582232
 30
0.0
 40
1.5
  0
CIRCLE
  5
2EF
  8
PATTERN_FILL
  6
CONTINUOUS
 62
     7
 10
-3.3576943282902221
 20
-1.7407074294417759
 30
0.0
 40
1.5
  0
CIRCLE
  5
2F0
  8
PATTERN_FILL
  6
CONTINUOUS
 62
     7
 10
-3.3576943282902221
 20
-6.7407074294417759
 30
0.0
 40
1.5
  0
CIRCLE
  5
2F1
  8
PATTERN_FILL
  6
CONTINUOUS
 62
     7
 10
-3.3576943282902221
 20
-11.74070742944177
 30
0.0
 40
1.5
  0
CIRCLE
  5
2F2
  8
PATTERN_FILL
  6
CONTINUOUS
 62
     7
 10
-3.3576943282902221
 20
-16.74070742944177
 30
0.0
 40
1.5
  0
CIRCLE
  5
2F3
  8
PATTERN_FILL
  6
CONTINUOUS
 62
     7
 10
-3.3576943282902221
 20
-21.74070742944177
 30
0.0
 40
1.5
  0
CIRCLE
  5
2F4
  8
PATTERN_FILL
  6
CONTINUOUS
 62
     7
 10
-3.3576943282902221
 20
-26.74070742944178
 30
0.0
 40
1.5
  0
CIRCLE
  5
2F5
  8
PATTERN_FILL
  6
CONTINUOUS
 62
     7
 10
-3.3576943282902221
 20
-31.74070742944178
 30
0.0
 40
1.5
  0
CIRCLE
  5
2F6
  8
PATTERN_FILL
  6
CONTINUOUS
 62
     7
 10
-3.3576943282902221
 20
-36.74070742944177
 30
0.0
 40
1.5
  0
CIRCLE
  5
2F7
  8
PATTERN_FILL
  6
CONTINUOUS
 62
     7
 10
-3.3576943282902221
 20
-41.740707429441763
 30
0.0
 40
1.5
  0
CIRCLE
  5
2F8
  8
PATTERN_FILL
  6
CONTINUOUS
 62
     7
 10
-3.3576943282902221
 20
-46.740707429441777
 30
0.0
 40
1.5
  0
CIRCLE
  5
2F9
  8
PATTERN_FILL
  6
CONTINUOUS
 62
     7
 10
-3.3576943282902221
 20
-51.740707429441777
 30
0.0
 40
1.5
  0
CIRCLE
  5
2FA
  8
PATTERN_FILL
  6
CONTINUOUS
 62
     7
 10
-3.3576943282902221
 20
-56.740707429441777
 30
0.0
 40
1.5
  0
CIRCLE
  5
2FB
  8
PATTERN_FILL
  6
CONTINUOUS
 62
     7
 10
-3.3576943282902221
 20
-61.740707429441777
 30
0.0
 40
1.5
  0
CIRCLE
  5
2FC
  8
PATTERN_FILL
  6
CONTINUOUS
 62
     7
 10
-3.3576943282902221
 20
-66.740707429441784
 30
0.0
 40
1.5
  0
CIRCLE
  5
2FD
  8
PATTERN_FILL
  6
CONTINUOUS
 62
     7
 10
-3.3576943282902221
 20
-71.740707429441784
 30
0.0
 40
1.5
  0
CIRCLE
  5
2FE
  8
PATTERN_FILL
  6
CONTINUOUS
 62
     7
 10
-3.3576943282902221
 20
-76.740707429441784
 30
0.0
 40
1.5
  0
CIRCLE
  5
2FF
  8
PATTERN_FILL
  6
CONTINUOUS
 62
     7
 10
-3.3576943282902221
 20
-81.740707429441784
 30
0.0
 40
1.5
  0
CIRCLE
  5
300
  8
PATTERN_FILL
  6
CONTINUOUS
 62
     7
 10
-3.3576943282902221
 20
-86.74070742944177
 30
0.0
 40
1.5
  0
CIRCLE
  5
301
  8
PATTERN_FILL
  6
CONTINUOUS
 62
     7
 10
-3.3576943282902221
 20
-91.74070742944177
 30
0.0
 40
1.5
  0
CIRCLE
  5
302
  8
PATTERN_FILL
  6
CONTINUOUS
 62
     7
 10
-3.3576943282902221
 20
-96.74070742944177
 30
0.0
 40
1.5
  0
CIRCLE
  5
303
  8
PATTERN_FILL
  6
CONTINUOUS
 62
     7
 10
-3.3576943282902221
 20
-101.7407074294417
 30
0.0
 40
1.5
  0
CIRCLE
  5
304
  8
PATTERN_FILL
  6
CONTINUOUS
 62
     7
 10
-3.3576943282902221
 20
-106.7407074294417
 30
0.0
 40
1.5
  0
CIRCLE
  5
305
  8
PATTERN_FILL
  6
CONTINUOUS
 62
     7
 10
-3.3576943282902221
 20
-111.7407074294417
 30
0.0
 40
1.5
  0
ARC
  5
306
  8
PATTERN_FILL
  6
CONTINUOUS
 62
     7
 10
1.6423056717097739
 20
8.2592925705582196
 30
0.0
 40
1.500000000000004
 50
88.916169705288979
 51
7.9748729662462807
  0
CIRCLE
  5
307
  8
PATTERN_FILL
  6
CONTINUOUS
 62
     7
 10
1.642305671709777
 20
3.2592925705582232
 30
0.0
 40
1.5
  0
CIRCLE
  5
308
  8
PATTERN_FILL
  6
CONTINUOUS
 62
     7
 10
1.642305671709777
 20
-1.7407074294417759
 30
0.0
 40
1.5
  0
CIRCLE
  5
309
  8
PATTERN_FILL
  6
CONTINUOUS
 62
     7
 10
1.642305671709777
 20
-6.7407074294417759
 30
0.0
 40
1.5
  0
CIRCLE
  5
30A
  8
PATTERN_FILL
  6
CONTINUOUS
 62
     7
 10
1.642305671709777
 20
-11.74070742944177
 30
0.0
 40
1.5
  0
CIRCLE
  5
30B
  8
PATTERN_FILL
  6
CONTINUOUS
 62
     7
 10
1.642305671709777
 20
-16.74070742944177
 30
0.0
 40
1.5
  0
CIRCLE
  5
30C
  8
PATTERN_FILL
  6
CONTINUOUS
 62
     7
 10
1.642305671709777
 20
-21.74070742944177
 30
0.0
 40
1.5
  0
CIRCLE
  5
30D
  8
PATTERN_FILL
  6
CONTINUOUS
 62
     7
 10
1.642305671709777
 20
-26.74070742944178
 30
0.0
 40
1.5
  0
CIRCLE
  5
30E
  8
PATTERN_FILL
  6
CONTINUOUS
 62
     7
 10
1.642305671709777
 20
-31.74070742944178
 30
0.0
 40
1.5
  0
CIRCLE
  5
30F
  8
PATTERN_FILL
  6
CONTINUOUS
 62
     7
 10
1.642305671709777
 20
-36.74070742944177
 30
0.0
 40
1.5
  0
CIRCLE
  5
310
  8
PATTERN_FILL
  6
CONTINUOUS
 62
     7
 10
1.642305671709777
 20
-41.740707429441763
 30
0.0
 40
1.5
  0
CIRCLE
  5
311
  8
PATTERN_FILL
  6
CONTINUOUS
 62
     7
 10
1.642305671709777
 20
-46.740707429441777
 30
0.0
 40
1.5
  0
CIRCLE
  5
312
  8
PATTERN_FILL
  6
CONTINUOUS
 62
     7
 10
1.642305671709777
 20
-51.740707429441777
 30
0.0
 40
1.5
  0
CIRCLE
  5
313
  8
PATTERN_FILL
  6
CONTINUOUS
 62
     7
 10
1.642305671709777
 20
-56.740707429441777
 30
0.0
 40
1.5
  0
CIRCLE
  5
314
  8
PATTERN_FILL
  6
CONTINUOUS
 62
     7
 10
1.642305671709777
 20
-61.740707429441777
 30
0.0
 40
1.5
  0
CIRCLE
  5
315
  8
PATTERN_FILL
  6
CONTINUOUS
 62
     7
 10
1.642305671709777
 20
-66.740707429441784
 30
0.0
 40
1.5
  0
CIRCLE
  5
316
  8
PATTERN_FILL
  6
CONTINUOUS
 62
     7
 10
1.642305671709777
 20
-71.740707429441784
 30
0.0
 40
1.5
  0
CIRCLE
  5
317
  8
PATTERN_FILL
  6
CONTINUOUS
 62
     7
 10
1.642305671709777
 20
-76.740707429441784
 30
0.0
 40
1.5
  0
CIRCLE
  5
318
  8
PATTERN_FILL
  6
CONTINUOUS
 62
     7
 10
1.642305671709777
 20
-81.740707429441784
 30
0.0
 40
1.5
  0
CIRCLE
  5
319
  8
PATTERN_FILL
  6
CONTINUOUS
 62
     7
 10
1.642305671709777
 20
-86.74070742944177
 30
0.0
 40
1.5
  0
CIRCLE
  5
31A
  8
PATTERN_FILL
  6
CONTINUOUS
 62
     7
 10
1.642305671709777
 20
-91.74070742944177
 30
0.0
 40
1.5
  0
CIRCLE
  5
31B
  8
PATTERN_FILL
  6
CONTINUOUS
 62
     7
 10
1.642305671709777
 20
-96.74070742944177
 30
0.0
 40
1.5
  0
CIRCLE
  5
31C
  8
PATTERN_FILL
  6
CONTINUOUS
 62
     7
 10
1.642305671709777
 20
-101.7407074294417
 30
0.0
 40
1.5
  0
CIRCLE
  5
31D
  8
PATTERN_FILL
  6
CONTINUOUS
 62
     7
 10
1.642305671709777
 20
-106.7407074294417
 30
0.0
 40
1.5
  0
ARC
  5
31E
  8
PATTERN_FILL
  6
CONTINUOUS
 62
     7
 10
1.642305671709777
 20
-111.7407074294417
 30
0.0
 40
1.4999999999999989
 50
123.77956500228829
 51
136.0412534021051
  0
ARC
  5
31F
  8
PATTERN_FILL
  6
CONTINUOUS
 62
     7
 10
6.6423056717097797
 20
3.2592925705582272
 30
0.0
 40
1.4999999999999949
 50
77.026977533504024
 51
9.4467555321856622
  0
CIRCLE
  5
320
  8
PATTERN_FILL
  6
CONTINUOUS
 62
     7
 10
6.642305671709777
 20
-1.7407074294417759
 30
0.0
 40
1.5
  0
CIRCLE
  5
321
  8
PATTERN_FILL
  6
CONTINUOUS
 62
     7
 10
6.642305671709777
 20
-6.7407074294417759
 30
0.0
 40
1.5
  0
CIRCLE
  5
322
  8
PATTERN_FILL
  6
CONTINUOUS
 62
     7
 10
6.642305671709777
 20
-11.74070742944177
 30
0.0
 40
1.5
  0
CIRCLE
  5
323
  8
PATTERN_FILL
  6
CONTINUOUS
 62
     7
 10
6.642305671709777
 20
-16.74070742944177
 30
0.0
 40
1.5
  0
CIRCLE
  5
324
  8
PATTERN_FILL
  6
CONTINUOUS
 62
     7
 10
6.642305671709777
 20
-21.74070742944177
 30
0.0
 40
1.5
  0
CIRCLE
  5
325
  8
PATTERN_FILL
  6
CONTINUOUS
 62
     7
 10
6.642305671709777
 20
-26.74070742944178
 30
0.0
 40
1.5
  0
CIRCLE
  5
326
  8
PATTERN_FILL
  6
CONTINUOUS
 62
     7
 10
6.642305671709777
 20
-31.74070742944178
 30
0.0
 40
1.5
  0
CIRCLE
  5
327
  8
PATTERN_FILL
  6
CONTINUOUS
 62
     7
 10
6.642305671709777
 20
-36.74070742944177
 30
0.0
 40
1.5
  0
CIRCLE
  5
328
  8
PATTERN_FILL
  6
CONTINUOUS
 62
     7
 10
6.642305671709777
 20
-41.740707429441763
 30
0.0
 40
1.5
  0
CIRCLE
  5
329
  8
PATTERN_FILL
  6
CONTINUOUS
 62
     7
 10
6.642305671709777
 20
-46.740707429441777
 30
0.0
 40
1.5
  0
CIRCLE
  5
32A
  8
PATTERN_FILL
  6
CONTINUOUS
 62
     7
 10
6.642305671709777
 20
-51.740707429441777
 30
0.0
 40
1.5
  0
CIRCLE
  5
32B
  8
PATTERN_FILL
  6
CONTINUOUS
 62
     7
 10
6.642305671709777
 20
-56.740707429441777
 30
0.0
 40
1.5
  0
CIRCLE
  5
32C
  8
PATTERN_FILL
  6
CONTINUOUS
 62
     7
 10
6.642305671709777
 20
-61.740707429441777
 30
0.0
 40
1.5
  0
CIRCLE
  5
32D
  8
PATTERN_FILL
  6
CONTINUOUS
 62
     7
 10
6.642305671709777
 20
-66.740707429441784
 30
0.0
 40
1.5
  0
CIRCLE
  5
32E
  8
PATTERN_FILL
  6
CONTINUOUS
 62
     7
 10
6.642305671709777
 20
-71.740707429441784
 30
0.0
 40
1.5
  0
CIRCLE
  5
32F
  8
PATTERN_FILL
  6
CONTINUOUS
 62
     7
 10
6.642305671709777
 20
-76.740707429441784
 30
0.0
 40
1.5
  0
CIRCLE
  5
330
  8
PATTERN_FILL
  6
CONTINUOUS
 62
     7
 10
6.642305671709777
 20
-81.740707429441784
 30
0.0
 40
1.5
  0
CIRCLE
  5
331
  8
PATTERN_FILL
  6
CONTINUOUS
 62
     7
 10
6.642305671709777
 20
-86.74070742944177
 30
0.0
 40
1.5
  0
CIRCLE
  5
332
  8
PATTERN_FILL
  6
CONTINUOUS
 62
     7
 10
6.642305671709777
 20
-91.74070742944177
 30
0.0
 40
1.5
  0
CIRCLE
  5
333
  8
PATTERN_FILL
  6
CONTINUOUS
 62
     7
 10
6.642305671709777
 20
-96.74070742944177
 30
0.0
 40
1.5
  0
CIRCLE
  5
334
  8
PATTERN_FILL
  6
CONTINUOUS
 62
     7
 10
6.642305671709777
 20
-101.7407074294417
 30
0.0
 40
1.5
  0
ARC
  5
335
  8
PATTERN_FILL
  6
CONTINUOUS
 62
     7
 10
6.642305671709777
 20
-106.7407074294417
 30
0.0
 40
1.5000000000000031
 50
96.786101663930765
 51
173.1144477421048
  0
ARC
  5
336
  8
PATTERN_FILL
  6
CONTINUOUS
 62
     7
 10
11.64230567170978
 20
-1.7407074294417759
 30
0.0
 40
1.5
 50
100.1241421147776
 51
335.99010171806572
  0
CIRCLE
  5
337
  8
PATTERN_FILL
  6
CONTINUOUS
 62
     7
 10
11.64230567170978
 20
-6.7407074294417759
 30
0.0
 40
1.5
  0
CIRCLE
  5
338
  8
PATTERN_FILL
  6
CONTINUOUS
 62
     7
 10
11.64230567170978
 20
-11.74070742944177
 30
0.0
 40
1.5
  0
CIRCLE
  5
339
  8
PATTERN_FILL
  6
CONTINUOUS
 62
     7
 10
11.64230567170978
 20
-16.74070742944177
 30
0.0
 40
1.5
  0
CIRCLE
  5
33A
  8
PATTERN_FILL
  6
CONTINUOUS
 62
     7
 10
11.64230567170978
 20
-21.74070742944177
 30
0.0
 40
1.5
  0
CIRCLE
  5
33B
  8
PATTERN_FILL
  6
CONTINUOUS
 62
     7
 10
11.64230567170978
 20
-26.74070742944178
 30
0.0
 40
1.5
  0
CIRCLE
  5
33C
  8
PATTERN_FILL
  6
CONTINUOUS
 62
     7
 10
11.64230567170978
 20
-31.74070742944178
 30
0.0
 40
1.5
  0
CIRCLE
  5
33D
  8
PATTERN_FILL
  6
CONTINUOUS
 62
     7
 10
11.64230567170978
 20
-36.74070742944177
 30
0.0
 40
1.5
  0
CIRCLE
  5
33E
  8
PATTERN_FILL
  6
CONTINUOUS
 62
     7
 10
11.64230567170978
 20
-41.740707429441763
 30
0.0
 40
1.5
  0
CIRCLE
  5
33F
  8
PATTERN_FILL
  6
CONTINUOUS
 62
     7
 10
11.64230567170978
 20
-46.740707429441777
 30
0.0
 40
1.5
  0
CIRCLE
  5
340
  8
PATTERN_FILL
  6
CONTINUOUS
 62
     7
 10
11.64230567170978
 20
-51.740707429441777
 30
0.0
 40
1.5
  0
CIRCLE
  5
341
  8
PATTERN_FILL
  6
CONTINUOUS
 62
     7
 10
11.64230567170978
 20
-56.740707429441777
 30
0.0
 40
1.5
  0
CIRCLE
  5
342
  8
PATTERN_FILL
  6
CONTINUOUS
 62
     7
 10
11.64230567170978
 20
-61.740707429441777
 30
0.0
 40
1.5
  0
CIRCLE
  5
343
  8
PATTERN_FILL
  6
CONTINUOUS
 62
     7
 10
11.64230567170978
 20
-66.740707429441784
 30
0.0
 40
1.5
  0
CIRCLE
  5
344
  8
PATTERN_FILL
  6
CONTINUOUS
 62
     7
 10
11.64230567170978
 20
-71.740707429441784
 30
0.0
 40
1.5
  0
CIRCLE
  5
345
  8
PATTERN_FILL
  6
CONTINUOUS
 62
     7
 10
11.64230567170978
 20
-76.740707429441784
 30
0.0
 40
1.5
  0
CIRCLE
  5
346
  8
PATTERN_FILL
  6
CONTINUOUS
 62
     7
 10
11.64230567170978
 20
-81.740707429441784
 30
0.0
 40
1.5
  0
CIRCLE
  5
347
  8
PATTERN_FILL
  6
CONTINUOUS
 62
     7
 10
11.64230567170978
 20
-86.74070742944177
 30
0.0
 40
1.5
  0
CIRCLE
  5
348
  8
PATTERN_FILL
  6
CONTINUOUS
 62
     7
 10
11.64230567170978
 20
-91.74070742944177
 30
0.0
 40
1.5
  0
CIRCLE
  5
349
  8
PATTERN_FILL
  6
CONTINUOUS
 62
     7
 10
11.64230567170978
 20
-96.74070742944177
 30
0.0
 40
1.5
  0
ARC
  5
34A
  8
PATTERN_FILL
  6
CONTINUOUS
 62
     7
 10
16.642305671709781
 20
-6.7407074294417759
 30
0.0
 40
1.4999999999999989
 50
141.02850620378001
 51
284.94884193854091
  0
CIRCLE
  5
34B
  8
PATTERN_FILL
  6
CONTINUOUS
 62
     7
 10
16.642305671709781
 20
-11.74070742944177
 30
0.0
 40
1.5
  0
CIRCLE
  5
34C
  8
PATTERN_FILL
  6
CONTINUOUS
 62
     7
 10
16.642305671709781
 20
-16.74070742944177
 30
0.0
 40
1.5
  0
CIRCLE
  5
34D
  8
PATTERN_FILL
  6
CONTINUOUS
 62
     7
 10
16.642305671709781
 20
-21.74070742944177
 30
0.0
 40
1.5
  0
CIRCLE
  5
34E
  8
PATTERN_FILL
  6
CONTINUOUS
 62
     7
 10
16.642305671709781
 20
-26.74070742944178
 30
0.0
 40
1.5
  0
CIRCLE
  5
34F
  8
PATTERN_FILL
  6
CONTINUOUS
 62
     7
 10
16.642305671709781
 20
-31.74070742944178
 30
0.0
 40
1.5
  0
CIRCLE
  5
350
  8
PATTERN_FILL
  6
CONTINUOUS
 62
     7
 10
16.642305671709781
 20
-36.74070742944177
 30
0.0
 40
1.5
  0
CIRCLE
  5
351
  8
PATTERN_FILL
  6
CONTINUOUS
 62
     7
 10
16.642305671709781
 20
-41.740707429441763
 30
0.0
 40
1.5
  0
CIRCLE
  5
352
  8
PATTERN_FILL
  6
CONTINUOUS
 62
     7
 10
16.642305671709781
 20
-46.740707429441777
 30
0.0
 40
1.5
  0
CIRCLE
  5
353
  8
PATTERN_FILL
  6
CONTINUOUS
 62
     7
 10
16.642305671709781
 20
-51.740707429441777
 30
0.0
 40
1.5
  0
CIRCLE
  5
354
  8
PATTERN_FILL
  6
CONTINUOUS
 62
     7
 10
16.642305671709781
 20
-56.740707429441777
 30
0.0
 40
1.5
  0
CIRCLE
  5
355
  8
PATTERN_FILL
  6
CONTINUOUS
 62
     7
 10
16.642305671709781
 20
-61.740707429441777
 30
0.0
 40
1.5
  0
CIRCLE
  5
356
  8
PATTERN_FILL
  6
CONTINUOUS
 62
     7
 10
16.642305671709781
 20
-66.740707429441784
 30
0.0
 40
1.5
  0
CIRCLE
  5
357
  8
PATTERN_FILL
  6
CONTINUOUS
 62
     7
 10
16.642305671709781
 20
-71.740707429441784
 30
0.0
 40
1.5
  0
CIRCLE
  5
358
  8
PATTERN_FILL
  6
CONTINUOUS
 62
     7
 10
16.642305671709781
 20
-76.740707429441784
 30
0.0
 40
1.5
  0
CIRCLE
  5
359
  8
PATTERN_FILL
  6
CONTINUOUS
 62
     7
 10
16.642305671709781
 20
-81.740707429441784
 30
0.0
 40
1.5
  0
CIRCLE
  5
35A
  8
PATTERN_FILL
  6
CONTINUOUS
 62
     7
 10
16.642305671709781
 20
-86.74070742944177
 30
0.0
 40
1.5
  0
ARC
  5
35B
  8
PATTERN_FILL
  6
CONTINUOUS
 62
     7
 10
16.642305671709781
 20
-91.74070742944177
 30
0.0
 40
1.499999999999998
 50
44.390645024061143
 51
251.4882775095605
  0
ARC
  5
35C
  8
PATTERN_FILL
  6
CONTINUOUS
 62
     7
 10
21.642305671709771
 20
-16.74070742944177
 30
0.0
 40
1.5
 50
114.9148709165968
 51
294.89044736732808
  0
CIRCLE
  5
35D
  8
PATTERN_FILL
  6
CONTINUOUS
 62
     7
 10
21.642305671709771
 20
-21.74070742944177
 30
0.0
 40
1.5
  0
CIRCLE
  5
35E
  8
PATTERN_FILL
  6
CONTINUOUS
 62
     7
 10
21.642305671709771
 20
-26.74070742944178
 30
0.0
 40
1.5
  0
CIRCLE
  5
35F
  8
PATTERN_FILL
  6
CONTINUOUS
 62
     7
 10
21.642305671709771
 20
-31.74070742944178
 30
0.0
 40
1.5
  0
CIRCLE
  5
360
  8
PATTERN_FILL
  6
CONTINUOUS
 62
     7
 10
21.642305671709771
 20
-36.74070742944177
 30
0.0
 40
1.5
  0
CIRCLE
  5
361
  8
PATTERN_FILL
  6
CONTINUOUS
 62
     7
 10
21.642305671709771
 20
-41.740707429441763
 30
0.0
 40
1.5
  0
CIRCLE
  5
362
  8
PATTERN_FILL
  6
CONTINUOUS
 62
     7
 10
21.642305671709771
 20
-46.740707429441777
 30
0.0
 40
1.5
  0
CIRCLE
  5
363
  8
PATTERN_FILL
  6
CONTINUOUS
 62
     7
 10
21.642305671709771
 20
-51.740707429441777
 30
0.0
 40
1.5
  0
CIRCLE
  5
364
  8
PATTERN_FILL
  6
CONTINUOUS
 62
     7
 10
21.642305671709771
 20
-56.740707429441777
 30
0.0
 40
1.5
  0
CIRCLE
  5
365
  8
PATTERN_FILL
  6
CONTINUOUS
 62
     7
 10
21.642305671709771
 20
-61.740707429441777
 30
0.0
 40
1.5
  0
CIRCLE
  5
366
  8
PATTERN_FILL
  6
CONTINUOUS
 62
     7
 10
21.642305671709771
 20
-66.740707429441784
 30
0.0
 40
1.5
  0
CIRCLE
  5
367
  8
PATTERN_FILL
  6
CONTINUOUS
 62
     7
 10
21.642305671709771
 20
-71.740707429441784
 30
0.0
 40
1.5
  0
CIRCLE
  5
368
  8
PATTERN_FILL
  6
CONTINUOUS
 62
     7
 10
21.642305671709771
 20
-76.740707429441784
 30
0.0
 40
1.5
  0
ARC
  5
369
  8
PATTERN_FILL
  6
CONTINUOUS
 62
     7
 10
21.642305671709771
 20
-81.740707429441784
 30
0.0
 40
1.500000000000002
 50
41.289956106989692
 51
270.91912550920972
  0
ARC
  5
36A
  8
PATTERN_FILL
  6
CONTINUOUS
 62
     7
 10
26.642305671709771
 20
-26.74070742944178
 30
0.0
 40
1.5000000000000011
 50
154.07692704931199
 51
239.6869054939026
  0
ARC
  5
36B
  8
PATTERN_FILL
  6
CONTINUOUS
 62
     7
 10
26.642305671709771
 20
-31.74070742944178
 30
0.0
 40
1.5000000000000011
 50
95.789404459289514
 51
291.01133106247761
  0
ARC
  5
36C
  8
PATTERN_FILL
  6
CONTINUOUS
 62
     7
 10
26.642305671709771
 20
-36.74070742944177
 30
0.0
 40
1.4999999999999989
 50
45.764908405702947
 51
333.86538654168572
  0
CIRCLE
  5
36D
  8
PATTERN_FILL
  6
CONTINUOUS
 62
     7
 10
26.642305671709771
 20
-41.740707429441763
 30
0.0
 40
1.5
  0
CIRCLE
  5
36E
  8
PATTERN_FILL
  6
CONTINUOUS
 62
     7
 10
26.642305671709771
 20
-46.740707429441777
 30
0.0
 40
1.5
  0
CIRCLE
  5
36F
  8
PATTERN_FILL
  6
CONTINUOUS
 62
     7
 10
26.642305671709771
 20
-51.740707429441777
 30
0.0
 40
1.5
  0
CIRCLE
  5
370
  8
PATTERN_FILL
  6
CONTINUOUS
 62
     7
 10
26.642305671709771
 20
-56.740707429441777
 30
0.0
 40
1.5
  0
ARC
  5
371
  8
PATTERN_FILL
  6
CONTINUOUS
 62
     7
 10
26.642305671709771
 20
-61.740707429441777
 30
0.0
 40
1.4999999999999989
 50
4.0526094805333504
 51
338.52871051023942
  0
ARC
  5
372
  8
PATTERN_FILL
  6
CONTINUOUS
 62
     7
 10
26.642305671709771
 20
-66.740707429441784
 30
0.0
 40
1.500000000000002
 50
56.648732988424442
 51
278.70847683956589
  0
ARC
  5
373
  8
PATTERN_FILL
  6
CONTINUOUS
 62
     7
 10
26.642305671709771
 20
-71.740707429441784
 30
0.0
 40
1.5000000000000031
 50
101.0148976142877
 51
227.31158024519931
  0
ARC
  5
374
  8
PATTERN_FILL
  6
CONTINUOUS
 62
     7
 10
76.642305671709764
 20
-11.74070742944177
 30
0.0
 40
1.5000000000000071
 50
299.02279616148689
 51
45.81897276549536
  0
ARC
  5
375
  8
PATTERN_FILL
  6
CONTINUOUS
 62
     7
 10
76.642305671709792
 20
-16.74070742944177
 30
0.0
 40
1.499999999999998
 50
274.10539098995503
 51
72.698606173983819
  0
ARC
  5
376
  8
PATTERN_FILL
  6
CONTINUOUS
 62
     7
 10
76.642305671709792
 20
-21.74070742944177
 30
0.0
 40
1.5000000000000071
 50
254.66871965621169
 51
94.105308947663843
  0
ARC
  5
377
  8
PATTERN_FILL
  6
CONTINUOUS
 62
     7
 10
76.642305671709764
 20
-26.74070742944178
 30
0.0
 40
1.4999999999999889
 50
237.55439860148689
 51
113.1963404879875
  0
ARC
  5
378
  8
PATTERN_FILL
  6
CONTINUOUS
 62
     7
 10
76.642305671709764
 20
-31.74070742944178
 30
0.0
 40
1.4999999999999849
 50
221.3375224621993
 51
131.3954584846299
  0
CIRCLE
  5
379
  8
PATTERN_FILL
  6
CONTINUOUS
 62
     7
 10
76.642305671709792
 20
-36.74070742944177
 30
0.0
 40
1.5
  0
CIRCLE
  5
37A
  8
PATTERN_FILL
  6
CONTINUOUS
 62
     7
 10
76.642305671709792
 20
-41.740707429441763
 30
0.0
 40
1.5
  0
CIRCLE
  5
37B
  8
PATTERN_FILL
  6
CONTINUOUS
 62
     7
 10
76.642305671709792
 20
-46.740707429441777
 30
0.0
 40
1.5
  0
CIRCLE
  5
37C
  8
PATTERN_FILL
  6
CONTINUOUS
 62
     7
 10
76.642305671709792
 20
-51.740707429441777
 30
0.0
 40
1.5
  0
CIRCLE
  5
37D
  8
PATTERN_FILL
  6
CONTINUOUS
 62
     7
 10
76.642305671709792
 20
-56.740707429441777
 30
0.0
 40
1.5
  0
ARC
  5
37E
  8
PATTERN_FILL
  6
CONTINUOUS
 62
     7
 10
76.64230567170965
 20
-61.740707429441777
 30
0.0
 40
1.4999999999999061
 50
203.14031149261149
 51
161.53605113303831
  0
ARC
  5
37F
  8
PATTERN_FILL
  6
CONTINUOUS
 62
     7
 10
76.642305671709792
 20
-66.74070742944177
 30
0.0
 40
1.5000000000000091
 50
223.04975571148341
 51
143.61430465102541
  0
ARC
  5
380
  8
PATTERN_FILL
  6
CONTINUOUS
 62
     7
 10
76.642305671709792
 20
-71.740707429441798
 30
0.0
 40
1.499999999999992
 50
241.2379422619529
 51
127.40980961873009
  0
ARC
  5
381
  8
PATTERN_FILL
  6
CONTINUOUS
 62
     7
 10
76.642305671709764
 20
-76.740707429441784
 30
0.0
 40
1.4999999999999929
 50
259.9285535575504
 51
110.6977111116977
  0
ARC
  5
382
  8
PATTERN_FILL
  6
CONTINUOUS
 62
     7
 10
76.642305671709792
 20
-81.740707429441784
 30
0.0
 40
1.500000000000002
 50
280.43365113552312
 51
92.164793531778585
  0
ARC
  5
383
  8
PATTERN_FILL
  6
CONTINUOUS
 62
     7
 10
76.642305671709792
 20
-86.74070742944177
 30
0.0
 40
1.4999999999999929
 50
305.03631696899521
 51
69.52684320974673
  0
ARC
  5
384
  8
PATTERN_FILL
  6
CONTINUOUS
 62
     7
 10
76.642305671709792
 20
-91.740707429441784
 30
0.0
 40
1.499999999999972
 50
344.43525016965452
 51
32.084055422516663
  0
ARC
  5
385
  8
PATTERN_FILL
  6
CONTINUOUS
 62
     7
 10
81.642305671709806
 20
18.25929257055823
 30
0.0
 40
1.4999999999999969
 50
338.66515186593358
 51
354.17094734168847
  0
ARC
  5
386
  8
PATTERN_FILL
  6
CONTINUOUS
 62
     7
 10
81.642305671709806
 20
13.25929257055822
 30
0.0
 40
1.500000000000002
 50
271.12887628519752
 51
63.630865576535797
  0
ARC
  5
387
  8
PATTERN_FILL
  6
CONTINUOUS
 62
     7
 10
81.642305671709764
 20
8.2592925705582267
 30
0.0
 40
1.499999999999996
 50
230.73456478539859
 51
105.9633879617902
  0
CIRCLE
  5
388
  8
PATTERN_FILL
  6
CONTINUOUS
 62
     7
 10
81.642305671709806
 20
3.2592925705582232
 30
0.0
 40
1.5
  0
CIRCLE
  5
389
  8
PATTERN_FILL
  6
CONTINUOUS
 62
     7
 10
81.642305671709806
 20
-1.7407074294417759
 30
0.0
 40
1.5
  0
CIRCLE
  5
38A
  8
PATTERN_FILL
  6
CONTINUOUS
 62
     7
 10
81.642305671709806
 20
-6.7407074294417759
 30
0.0
 40
1.5
  0
CIRCLE
  5
38B
  8
PATTERN_FILL
  6
CONTINUOUS
 62
     7
 10
81.642305671709806
 20
-11.74070742944177
 30
0.0
 40
1.5
  0
CIRCLE
  5
38C
  8
PATTERN_FILL
  6
CONTINUOUS
 62
     7
 10
81.642305671709806
 20
-16.74070742944177
 30
0.0
 40
1.5
  0
CIRCLE
  5
38D
  8
PATTERN_FILL
  6
CONTINUOUS
 62
     7
 10
81.642305671709806
 20
-21.74070742944177
 30
0.0
 40
1.5
  0
CIRCLE
  5
38E
  8
PATTERN_FILL
  6
CONTINUOUS
 62
     7
 10
81.642305671709806
 20
-26.74070742944178
 30
0.0
 40
1.5
  0
CIRCLE
  5
38F
  8
PATTERN_FILL
  6
CONTINUOUS
 62
     7
 10
81.642305671709806
 20
-31.74070742944178
 30
0.0
 40
1.5
  0
CIRCLE
  5
390
  8
PATTERN_FILL
  6
CONTINUOUS
 62
     7
 10
81.642305671709806
 20
-36.74070742944177
 30
0.0
 40
1.5
  0
CIRCLE
  5
391
  8
PATTERN_FILL
  6
CONTINUOUS
 62
     7
 10
81.642305671709806
 20
-41.740707429441763
 30
0.0
 40
1.5
  0
CIRCLE
  5
392
  8
PATTERN_FILL
  6
CONTINUOUS
 62
     7
 10
81.642305671709806
 20
-46.740707429441777
 30
0.0
 40
1.5
  0
CIRCLE
  5
393
  8
PATTERN_FILL
  6
CONTINUOUS
 62
     7
 10
81.642305671709806
 20
-51.740707429441777
 30
0.0
 40
1.5
  0
CIRCLE
  5
394
  8
PATTERN_FILL
  6
CONTINUOUS
 62
     7
 10
81.642305671709806
 20
-56.740707429441777
 30
0.0
 40
1.5
  0
CIRCLE
  5
395
  8
PATTERN_FILL
  6
CONTINUOUS
 62
     7
 10
81.642305671709806
 20
-61.740707429441777
 30
0.0
 40
1.5
  0
CIRCLE
  5
396
  8
PATTERN_FILL
  6
CONTINUOUS
 62
     7
 10
81.642305671709806
 20
-66.740707429441784
 30
0.0
 40
1.5
  0
CIRCLE
  5
397
  8
PATTERN_FILL
  6
CONTINUOUS
 62
     7
 10
81.642305671709806
 20
-71.740707429441784
 30
0.0
 40
1.5
  0
CIRCLE
  5
398
  8
PATTERN_FILL
  6
CONTINUOUS
 62
     7
 10
81.642305671709806
 20
-76.740707429441784
 30
0.0
 40
1.5
  0
CIRCLE
  5
399
  8
PATTERN_FILL
  6
CONTINUOUS
 62
     7
 10
81.642305671709806
 20
-81.740707429441784
 30
0.0
 40
1.5
  0
CIRCLE
  5
39A
  8
PATTERN_FILL
  6
CONTINUOUS
 62
     7
 10
81.642305671709806
 20
-86.74070742944177
 30
0.0
 40
1.5
  0
CIRCLE
  5
39B
  8
PATTERN_FILL
  6
CONTINUOUS
 62
     7
 10
81.642305671709806
 20
-91.74070742944177
 30
0.0
 40
1.5
  0
CIRCLE
  5
39C
  8
PATTERN_FILL
  6
CONTINUOUS
 62
     7
 10
81.642305671709806
 20
-96.74070742944177
 30
0.0
 40
1.5
  0
CIRCLE
  5
39D
  8
PATTERN_FILL
  6
CONTINUOUS
 62
     7
 10
81.642305671709806
 20
-101.7407074294417
 30
0.0
 40
1.5
  0
CIRCLE
  5
39E
  8
PATTERN_FILL
  6
CONTINUOUS
 62
     7
 10
81.642305671709806
 20
-106.7407074294417
 30
0.0
 40
1.5
  0
ARC
  5
39F
  8
PATTERN_FILL
  6
CONTINUOUS
 62
     7
 10
81.642305671709806
 20
-111.7407074294417
 30
0.0
 40
1.500000000000002
 50
283.42397010885338
 51
101.2291177944
  0
ARC
  5
3A0
  8
PATTERN_FILL
  6
CONTINUOUS
 62
     7
 10
81.642305671709806
 20
-116.7407074294418
 30
0.0
 40
1.5000000000000051
 50
332.46272080425609
 51
54.118532564546747
  0
ARC
  5
3A1
  8
PATTERN_FILL
  6
CONTINUOUS
 62
     7
 10
86.642305671709806
 20
28.25929257055823
 30
0.0
 40
1.500000000000002
 50
221.2515684841772
 51
29.590978415513181
  0
CIRCLE
  5
3A2
  8
PATTERN_FILL
  6
CONTINUOUS
 62
     7
 10
86.642305671709806
 20
23.25929257055823
 30
0.0
 40
1.5
  0
CIRCLE
  5
3A3
  8
PATTERN_FILL
  6
CONTINUOUS
 62
     7
 10
86.642305671709806
 20
18.25929257055823
 30
0.0
 40
1.5
  0
CIRCLE
  5
3A4
  8
PATTERN_FILL
  6
CONTINUOUS
 62
     7
 10
86.642305671709806
 20
13.25929257055822
 30
0.0
 40
1.5
  0
CIRCLE
  5
3A5
  8
PATTERN_FILL
  6
CONTINUOUS
 62
     7
 10
86.642305671709806
 20
8.2592925705582232
 30
0.0
 40
1.5
  0
CIRCLE
  5
3A6
  8
PATTERN_FILL
  6
CONTINUOUS
 62
     7
 10
86.642305671709806
 20
3.2592925705582232
 30
0.0
 40
1.5
  0
CIRCLE
  5
3A7
  8
PATTERN_FILL
  6
CONTINUOUS
 62
     7
 10
86.642305671709806
 20
-1.7407074294417759
 30
0.0
 40
1.5
  0
CIRCLE
  5
3A8
  8
PATTERN_FILL
  6
CONTINUOUS
 62
     7
 10
86.642305671709806
 20
-6.7407074294417759
 30
0.0
 40
1.5
  0
CIRCLE
  5
3A9
  8
PATTERN_FILL
  6
CONTINUOUS
 62
     7
 10
86.642305671709806
 20
-11.74070742944177
 30
0.0
 40
1.5
  0
CIRCLE
  5
3AA
  8
PATTERN_FILL
  6
CONTINUOUS
 62
     7
 10
86.642305671709806
 20
-16.74070742944177
 30
0.0
 40
1.5
  0
CIRCLE
  5
3AB
  8
PATTERN_FILL
  6
CONTINUOUS
 62
     7
 10
86.642305671709806
 20
-21.74070742944177
 30
0.0
 40
1.5
  0
CIRCLE
  5
3AC
  8
PATTERN_FILL
  6
CONTINUOUS
 62
     7
 10
86.642305671709806
 20
-26.74070742944178
 30
0.0
 40
1.5
  0
CIRCLE
  5
3AD
  8
PATTERN_FILL
  6
CONTINUOUS
 62
     7
 10
86.642305671709806
 20
-31.74070742944178
 30
0.0
 40
1.5
  0
CIRCLE
  5
3AE
  8
PATTERN_FILL
  6
CONTINUOUS
 62
     7
 10
86.642305671709806
 20
-36.74070742944177
 30
0.0
 40
1.5
  0
CIRCLE
  5
3AF
  8
PATTERN_FILL
  6
CONTINUOUS
 62
     7
 10
86.642305671709806
 20
-41.740707429441763
 30
0.0
 40
1.5
  0
CIRCLE
  5
3B0
  8
PATTERN_FILL
  6
CONTINUOUS
 62
     7
 10
86.642305671709806
 20
-46.740707429441777
 30
0.0
 40
1.5
  0
CIRCLE
  5
3B1
  8
PATTERN_FILL
  6
CONTINUOUS
 62
     7
 10
86.642305671709806
 20
-51.740707429441777
 30
0.0
 40
1.5
  0
CIRCLE
  5
3B2
  8
PATTERN_FILL
  6
CONTINUOUS
 62
     7
 10
86.642305671709806
 20
-56.740707429441777
 30
0.0
 40
1.5
  0
CIRCLE
  5
3B3
  8
PATTERN_FILL
  6
CONTINUOUS
 62
     7
 10
86.642305671709806
 20
-61.740707429441777
 30
0.0
 40
1.5
  0
CIRCLE
  5
3B4
  8
PATTERN_FILL
  6
CONTINUOUS
 62
     7
 10
86.642305671709806
 20
-66.740707429441784
 30
0.0
 40
1.5
  0
CIRCLE
  5
3B5
  8
PATTERN_FILL
  6
CONTINUOUS
 62
     7
 10
86.642305671709806
 20
-71.740707429441784
 30
0.0
 40
1.5
  0
CIRCLE
  5
3B6
  8
PATTERN_FILL
  6
CONTINUOUS
 62
     7
 10
86.642305671709806
 20
-76.740707429441784
 30
0.0
 40
1.5
  0
CIRCLE
  5
3B7
  8
PATTERN_FILL
  6
CONTINUOUS
 62
     7
 10
86.642305671709806
 20
-81.740707429441784
 30
0.0
 40
1.5
  0
CIRCLE
  5
3B8
  8
PATTERN_FILL
  6
CONTINUOUS
 62
     7
 10
86.642305671709806
 20
-86.74070742944177
 30
0.0
 40
1.5
  0
CIRCLE
  5
3B9
  8
PATTERN_FILL
  6
CONTINUOUS
 62
     7
 10
86.642305671709806
 20
-91.74070742944177
 30
0.0
 40
1.5
  0
CIRCLE
  5
3BA
  8
PATTERN_FILL
  6
CONTINUOUS
 62
     7
 10
86.642305671709806
 20
-96.74070742944177
 30
0.0
 40
1.5
  0
CIRCLE
  5
3BB
  8
PATTERN_FILL
  6
CONTINUOUS
 62
     7
 10
86.642305671709806
 20
-101.7407074294417
 30
0.0
 40
1.5
  0
CIRCLE
  5
3BC
  8
PATTERN_FILL
  6
CONTINUOUS
 62
     7
 10
86.642305671709806
 20
-106.7407074294417
 30
0.0
 40
1.5
  0
CIRCLE
  5
3BD
  8
PATTERN_FILL
  6
CONTINUOUS
 62
     7
 10
86.642305671709806
 20
-111.7407074294417
 30
0.0
 40
1.5
  0
CIRCLE
  5
3BE
  8
PATTERN_FILL
  6
CONTINUOUS
 62
     7
 10
86.642305671709806
 20
-116.7407074294418
 30
0.0
 40
1.5
  0
CIRCLE
  5
3BF
  8
PATTERN_FILL
  6
CONTINUOUS
 62
     7
 10
86.642305671709806
 20
-121.7407074294417
 30
0.0
 40
1.5
  0
ARC
  5
3C0
  8
PATTERN_FILL
  6
CONTINUOUS
 62
     7
 10
86.642305671709735
 20
-126.7407074294418
 30
0.0
 40
1.4999999999999609
 50
230.58063445295781
 51
160.3320048890221
  0
ARC
  5
3C1
  8
PATTERN_FILL
  6
CONTINUOUS
 62
     7
 10
91.642305671709806
 20
28.25929257055822
 30
0.0
 40
1.5000000000000111
 50
150.40902158448631
 51
29.59097841551344
  0
CIRCLE
  5
3C2
  8
PATTERN_FILL
  6
CONTINUOUS
 62
     7
 10
91.642305671709764
 20
23.25929257055823
 30
0.0
 40
1.5
  0
CIRCLE
  5
3C3
  8
PATTERN_FILL
  6
CONTINUOUS
 62
     7
 10
91.642305671709764
 20
18.25929257055823
 30
0.0
 40
1.5
  0
CIRCLE
  5
3C4
  8
PATTERN_FILL
  6
CONTINUOUS
 62
     7
 10
91.642305671709764
 20
13.25929257055822
 30
0.0
 40
1.5
  0
CIRCLE
  5
3C5
  8
PATTERN_FILL
  6
CONTINUOUS
 62
     7
 10
91.642305671709764
 20
8.2592925705582232
 30
0.0
 40
1.5
  0
CIRCLE
  5
3C6
  8
PATTERN_FILL
  6
CONTINUOUS
 62
     7
 10
91.642305671709764
 20
3.2592925705582232
 30
0.0
 40
1.5
  0
CIRCLE
  5
3C7
  8
PATTERN_FILL
  6
CONTINUOUS
 62
     7
 10
91.642305671709764
 20
-1.7407074294417759
 30
0.0
 40
1.5
  0
CIRCLE
  5
3C8
  8
PATTERN_FILL
  6
CONTINUOUS
 62
     7
 10
91.642305671709764
 20
-6.7407074294417759
 30
0.0
 40
1.5
  0
CIRCLE
  5
3C9
  8
PATTERN_FILL
  6
CONTINUOUS
 62
     7
 10
91.642305671709764
 20
-11.74070742944177
 30
0.0
 40
1.5
  0
CIRCLE
  5
3CA
  8
PATTERN_FILL
  6
CONTINUOUS
 62
     7
 10
91.642305671709764
 20
-16.74070742944177
 30
0.0
 40
1.5
  0
CIRCLE
  5
3CB
  8
PATTERN_FILL
  6
CONTINUOUS
 62
     7
 10
91.642305671709764
 20
-21.74070742944177
 30
0.0
 40
1.5
  0
CIRCLE
  5
3CC
  8
PATTERN_FILL
  6
CONTINUOUS
 62
     7
 10
91.642305671709764
 20
-26.74070742944178
 30
0.0
 40
1.5
  0
CIRCLE
  5
3CD
  8
PATTERN_FILL
  6
CONTINUOUS
 62
     7
 10
91.642305671709764
 20
-31.74070742944178
 30
0.0
 40
1.5
  0
CIRCLE
  5
3CE
  8
PATTERN_FILL
  6
CONTINUOUS
 62
     7
 10
91.642305671709764
 20
-36.74070742944177
 30
0.0
 40
1.5
  0
ARC
  5
3CF
  8
PATTERN_FILL
  6
CONTINUOUS
 62
     7
 10
91.642305671709764
 20
-41.740707429441763
 30
0.0
 40
1.4999999999999969
 50
9.2342717616663048
 51
244.64637851693271
  0
ARC
  5
3D0
  8
PATTERN_FILL
  6
CONTINUOUS
 62
     7
 10
91.642305671709764
 20
-41.740707429441763
 30
0.0
 40
1.499999999999996
 50
283.79583636916249
 51
329.58928557561188
  0
ARC
  5
3D1
  8
PATTERN_FILL
  6
CONTINUOUS
 62
     7
 10
91.642305671709764
 20
-46.740707429441727
 30
0.0
 40
1.4999999999999569
 50
115.35362148306859
 51
244.64637851693141
  0
ARC
  5
3D2
  8
PATTERN_FILL
  6
CONTINUOUS
 62
     7
 10
91.642305671709764
 20
-46.740707429441727
 30
0.0
 40
1.499999999999954
 50
283.795836369163
 51
76.20416363083703
  0
ARC
  5
3D3
  8
PATTERN_FILL
  6
CONTINUOUS
 62
     7
 10
91.642305671709764
 20
-51.740707429441741
 30
0.0
 40
1.50000000000003
 50
283.79583636916232
 51
244.6463785169328
  0
ARC
  5
3D4
  8
PATTERN_FILL
  6
CONTINUOUS
 62
     7
 10
91.642305671709764
 20
-56.740707429441777
 30
0.0
 40
1.499999999999996
 50
115.3536214830673
 51
244.6463785169334
  0
ARC
  5
3D5
  8
PATTERN_FILL
  6
CONTINUOUS
 62
     7
 10
91.642305671709764
 20
-56.740707429441777
 30
0.0
 40
1.499999999999998
 50
329.58928557561188
 51
76.204163630836902
  0
CIRCLE
  5
3D6
  8
PATTERN_FILL
  6
CONTINUOUS
 62
     7
 10
91.642305671709764
 20
-61.740707429441777
 30
0.0
 40
1.5
  0
CIRCLE
  5
3D7
  8
PATTERN_FILL
  6
CONTINUOUS
 62
     7
 10
91.642305671709764
 20
-66.740707429441784
 30
0.0
 40
1.5
  0
CIRCLE
  5
3D8
  8
PATTERN_FILL
  6
CONTINUOUS
 62
     7
 10
91.642305671709764
 20
-71.740707429441784
 30
0.0
 40
1.5
  0
CIRCLE
  5
3D9
  8
PATTERN_FILL
  6
CONTINUOUS
 62
     7
 10
91.642305671709764
 20
-76.740707429441784
 30
0.0
 40
1.5
  0
CIRCLE
  5
3DA
  8
PATTERN_FILL
  6
CONTINUOUS
 62
     7
 10
91.642305671709764
 20
-81.740707429441784
 30
0.0
 40
1.5
  0
CIRCLE
  5
3DB
  8
PATTERN_FILL
  6
CONTINUOUS
 62
     7
 10
91.642305671709764
 20
-86.74070742944177
 30
0.0
 40
1.5
  0
CIRCLE
  5
3DC
  8
PATTERN_FILL
  6
CONTINUOUS
 62
     7
 10
91.642305671709764
 20
-91.74070742944177
 30
0.0
 40
1.5
  0
CIRCLE
  5
3DD
  8
PATTERN_FILL
  6
CONTINUOUS
 62
     7
 10
91.642305671709764
 20
-96.74070742944177
 30
0.0
 40
1.5
  0
CIRCLE
  5
3DE
  8
PATTERN_FILL
  6
CONTINUOUS
 62
     7
 10
91.642305671709764
 20
-101.7407074294417
 30
0.0
 40
1.5
  0
CIRCLE
  5
3DF
  8
PATTERN_FILL
  6
CONTINUOUS
 62
     7
 10
91.642305671709764
 20
-106.7407074294417
 30
0.0
 40
1.5
  0
CIRCLE
  5
3E0
  8
PATTERN_FILL
  6
CONTINUOUS
 62
     7
 10
91.642305671709764
 20
-111.7407074294417
 30
0.0
 40
1.5
  0
CIRCLE
  5
3E1
  8
PATTERN_FILL
  6
CONTINUOUS
 62
     7
 10
91.642305671709764
 20
-116.7407074294418
 30
0.0
 40
1.5
  0
CIRCLE
  5
3E2
  8
PATTERN_FILL
  6
CONTINUOUS
 62
     7
 10
91.642305671709764
 20
-121.7407074294417
 30
0.0
 40
1.5
  0
CIRCLE
  5
3E3
  8
PATTERN_FILL
  6
CONTINUOUS
 62
     7
 10
91.642305671709764
 20
-126.7407074294417
 30
0.0
 40
1.5
  0
ARC
  5
3E4
  8
PATTERN_FILL
  6
CONTINUOUS
 62
     7
 10
96.642305671709764
 20
28.259292570558209
 30
0.0
 40
1.5000000000000091
 50
150.4090215844864
 51
29.590978415513401
  0
CIRCLE
  5
3E5
  8
PATTERN_FILL
  6
CONTINUOUS
 62
     7
 10
96.642305671709764
 20
23.25929257055823
 30
0.0
 40
1.5
  0
CIRCLE
  5
3E6
  8
PATTERN_FILL
  6
CONTINUOUS
 62
     7
 10
96.642305671709764
 20
18.25929257055823
 30
0.0
 40
1.5
  0
CIRCLE
  5
3E7
  8
PATTERN_FILL
  6
CONTINUOUS
 62
     7
 10
96.642305671709764
 20
13.25929257055822
 30
0.0
 40
1.5
  0
CIRCLE
  5
3E8
  8
PATTERN_FILL
  6
CONTINUOUS
 62
     7
 10
96.642305671709764
 20
8.2592925705582232
 30
0.0
 40
1.5
  0
CIRCLE
  5
3E9
  8
PATTERN_FILL
  6
CONTINUOUS
 62
     7
 10
96.642305671709764
 20
3.2592925705582232
 30
0.0
 40
1.5
  0
CIRCLE
  5
3EA
  8
PATTERN_FILL
  6
CONTINUOUS
 62
     7
 10
96.642305671709764
 20
-1.7407074294417759
 30
0.0
 40
1.5
  0
CIRCLE
  5
3EB
  8
PATTERN_FILL
  6
CONTINUOUS
 62
     7
 10
96.642305671709764
 20
-6.7407074294417759
 30
0.0
 40
1.5
  0
CIRCLE
  5
3EC
  8
PATTERN_FILL
  6
CONTINUOUS
 62
     7
 10
96.642305671709764
 20
-11.74070742944177
 30
0.0
 40
1.5
  0
CIRCLE
  5
3ED
  8
PATTERN_FILL
  6
CONTINUOUS
 62
     7
 10
96.642305671709764
 20
-16.74070742944177
 30
0.0
 40
1.5
  0
CIRCLE
  5
3EE
  8
PATTERN_FILL
  6
CONTINUOUS
 62
     7
 10
96.642305671709764
 20
-21.74070742944177
 30
0.0
 40
1.5
  0
CIRCLE
  5
3EF
  8
PATTERN_FILL
  6
CONTINUOUS
 62
     7
 10
96.642305671709764
 20
-26.74070742944178
 30
0.0
 40
1.5
  0
CIRCLE
  5
3F0
  8
PATTERN_FILL
  6
CONTINUOUS
 62
     7
 10
96.642305671709764
 20
-31.74070742944178
 30
0.0
 40
1.5
  0
CIRCLE
  5
3F1
  8
PATTERN_FILL
  6
CONTINUOUS
 62
     7
 10
96.642305671709764
 20
-36.74070742944177
 30
0.0
 40
1.5
  0
ARC
  5
3F2
  8
PATTERN_FILL
  6
CONTINUOUS
 62
     7
 10
96.642305671709664
 20
-41.740707429441798
 30
0.0
 40
1.4999999999998901
 50
210.41071442438971
 51
170.7657282383322
  0
CIRCLE
  5
3F3
  8
PATTERN_FILL
  6
CONTINUOUS
 62
     7
 10
96.642305671709764
 20
-46.740707429441777
 30
0.0
 40
1.5
  0
CIRCLE
  5
3F4
  8
PATTERN_FILL
  6
CONTINUOUS
 62
     7
 10
96.642305671709764
 20
-51.740707429441777
 30
0.0
 40
1.5
  0
ARC
  5
3F5
  8
PATTERN_FILL
  6
CONTINUOUS
 62
     7
 10
96.642305671709636
 20
-56.74070742944194
 30
0.0
 40
1.4999999999997931
 50
244.6463785169332
 51
210.4107144243857
  0
CIRCLE
  5
3F6
  8
PATTERN_FILL
  6
CONTINUOUS
 62
     7
 10
96.642305671709764
 20
-61.740707429441777
 30
0.0
 40
1.5
  0
CIRCLE
  5
3F7
  8
PATTERN_FILL
  6
CONTINUOUS
 62
     7
 10
96.642305671709764
 20
-66.740707429441784
 30
0.0
 40
1.5
  0
CIRCLE
  5
3F8
  8
PATTERN_FILL
  6
CONTINUOUS
 62
     7
 10
96.642305671709764
 20
-71.740707429441784
 30
0.0
 40
1.5
  0
CIRCLE
  5
3F9
  8
PATTERN_FILL
  6
CONTINUOUS
 62
     7
 10
96.642305671709764
 20
-76.740707429441784
 30
0.0
 40
1.5
  0
CIRCLE
  5
3FA
  8
PATTERN_FILL
  6
CONTINUOUS
 62
     7
 10
96.642305671709764
 20
-81.740707429441784
 30
0.0
 40
1.5
  0
CIRCLE
  5
3FB
  8
PATTERN_FILL
  6
CONTINUOUS
 62
     7
 10
96.642305671709764
 20
-86.74070742944177
 30
0.0
 40
1.5
  0
CIRCLE
  5
3FC
  8
PATTERN_FILL
  6
CONTINUOUS
 62
     7
 10
96.642305671709764
 20
-91.74070742944177
 30
0.0
 40
1.5
  0
CIRCLE
  5
3FD
  8
PATTERN_FILL
  6
CONTINUOUS
 62
     7
 10
96.642305671709764
 20
-96.74070742944177
 30
0.0
 40
1.5
  0
CIRCLE
  5
3FE
  8
PATTERN_FILL
  6
CONTINUOUS
 62
     7
 10
96.642305671709764
 20
-101.7407074294417
 30
0.0
 40
1.5
  0
CIRCLE
  5
3FF
  8
PATTERN_FILL
  6
CONTINUOUS
 62
     7
 10
96.642305671709764
 20
-106.7407074294417
 30
0.0
 40
1.5
  0
CIRCLE
  5
400
  8
PATTERN_FILL
  6
CONTINUOUS
 62
     7
 10
96.642305671709764
 20
-111.7407074294417
 30
0.0
 40
1.5
  0
CIRCLE
  5
401
  8
PATTERN_FILL
  6
CONTINUOUS
 62
     7
 10
96.642305671709764
 20
-116.7407074294418
 30
0.0
 40
1.5
  0
CIRCLE
  5
402
  8
PATTERN_FILL
  6
CONTINUOUS
 62
     7
 10
96.642305671709764
 20
-121.7407074294417
 30
0.0
 40
1.5
  0
CIRCLE
  5
403
  8
PATTERN_FILL
  6
CONTINUOUS
 62
     7
 10
96.642305671709764
 20
-126.7407074294417
 30
0.0
 40
1.5
  0
LINE
  5
404
  8
SPEC
  6
CONTINUOUS
 62
     7
 10
-164.99999999999989
 20
243.53181499999999
 30
0.0
 11
130.0
 21
243.53181499999999
 31
0.0
  0
LINE
  5
405
  8
SPEC
  6
CONTINUOUS
 62
     7
 10
-164.99999999999989
 20
236.03181499999999
 30
0.0
 11
130.0
 21
236.03181499999999
 31
0.0
  0
LINE
  5
406
  8
SPEC
  6
CONTINUOUS
 62
     7
 10
-164.99999999999989
 20
243.53181499999999
 30
0.0
 11
-164.99999999999989
 21
213.53181499999999
 31
0.0
  0
TEXT
  5
407
  8
SPEC
 62
     7
 10
-162.49999999999989
 20
246.318355
 30
0.0
 40
4.8865234375000002
  1
仕様
 41
0.7
 11
-162.49999999999989
 21
251.20487843750001
 31
0.0
 73
     3
  0
LINE
  5
408
  8
SPEC
  6
CONTINUOUS
 62
     7
 10
-99.999999999999957
 20
243.53181499999999
 30
0.0
 11
-99.999999999999957
 21
213.53181499999999
 31
0.0
  0
LINE
  5
409
  8
SPEC
  6
CONTINUOUS
 62
     7
 10
130.0
 20
243.53181499999999
 30
0.0
 11
130.0
 21
213.53181499999999
 31
0.0
  0
LINE
  5
40A
  8
SPEC
  6
CONTINUOUS
 62
     7
 10
-164.99999999999989
 20
228.53181499999999
 30
0.0
 11
130.0
 21
228.53181499999999
 31
0.0
  0
TEXT
  5
40B
  8
SPEC
 62
     7
 10
-163.35983192205941
 20
222.9971461259679
 30
0.0
 40
3.8006293402777769
  1
寸法
 41
0.7
 11
-163.35983192205941
 21
226.7977754662457
 31
0.0
 73
     3
  0
TEXT
  5
40C
  8
SPEC
 62
     7
 10
-163.31065307205381
 20
215.58320955097341
 30
0.0
 40
3.8006293402777769
  1
質量
 41
0.7
 11
-163.31065307205381
 21
219.3838388912512
 31
0.0
 73
     3
  0
TEXT
  5
40D
  8
SPEC
 62
     7
 10
-98.697938029495063
 20
222.95411340876461
 30
0.0
 40
3.8006293402777769
  1
\U+03C6158\U+00D725mm(除突起部)
 41
0.7
 11
-98.697938029495063
 21
226.75474274904229
 31
0.0
 73
     3
  0
TEXT
  5
40E
  8
SPEC
 62
     7
 10
-98.144673790445907
 20
215.5647677009691
 30
0.0
 40
3.8006293402777769
  1
28g
 41
0.7
 11
-98.144673790445907
 21
219.36539704124689
 31
0.0
 73
     3
  0
LINE
  5
40F
  8
SPEC
  6
CONTINUOUS
 62
     7
 10
-164.99999999999989
 20
221.03181499999999
 30
0.0
 11
130.0
 21
221.03181499999999
 31
0.0
  0
LINE
  5
410
  8
SPEC
  6
CONTINUOUS
 62
     7
 10
-164.99999999999989
 20
213.53181499999999
 30
0.0
 11
130.0
 21
213.53181499999999
 31
0.0
  0
TEXT
  5
411
  8
SPEC
 62
     7
 10
-163.25532686249969
 20
237.93687879565229
 30
0.0
 40
3.8006293402777769
  1
対応モデル 
 41
0.7
 11
-163.25532686249969
 21
241.73750813593011
 31
0.0
 73
     3
  0
TEXT
  5
412
  8
SPEC
 62
     7
 10
-98.089350014597755
 20
237.7155728098347
 30
0.0
 40
3.8006293402777769
  1
Control 12C/T、Control 14C/T
 41
0.7
 11
-98.089350014597755
 21
241.51620215011241
 31
0.0
 73
     3
  0
TEXT
  5
413
  8
SPEC
 62
     7
 10
-163.20000065294559
 20
230.51064707505779
 30
0.0
 40
3.8006293402777769
  1
色
 41
0.7
 11
-163.20000065294559
 21
234.31127641533561
 31
0.0
 73
     3
  0
TEXT
  5
414
  8
SPEC
 62
     7
 10
-98.642611846322581
 20
230.54752990886951
 30
0.0
 40
3.8006293402777769
  1
白/黒(-BK)
 41
0.7
 11
-98.642611846322581
 21
234.3481592491473
 31
0.0
 73
     3
  0
TEXT
  5
415
  8
DIMNSIONS
 62
     7
 10
-40.0
 20
-231.929205
 30
0.0
 40
4.8865234375000002
  1
(単位：mm)
 41
0.7
 11
-40.0
 21
-227.04268156250001
 31
0.0
 73
     3
  0
LINE
  5
416
  8
DIMNSIONS
  6
CONTINUOUS
 62
     7
 10
-129.0
 20
-54.0
 30
0.0
 11
-129.0
 21
-174.0
 31
0.0
  0
LINE
  5
417
  8
DIMNSIONS
  6
CONTINUOUS
 62
     7
 10
29.000000000000011
 20
-54.0
 30
0.0
 11
29.000000000000011
 21
-174.0
 31
0.0
  0
LINE
  5
418
  8
DIMNSIONS
  6
CONTINUOUS
 62
     7
 10
-129.0
 20
-170.0
 30
0.0
 11
29.000000000000011
 21
-170.0
 31
0.0
  0
LINE
  5
419
  8
DIMNSIONS
  6
CONTINUOUS
 62
     7
 10
-129.0
 20
-170.0
 30
0.0
 11
-123.99875488281251
 21
-168.65992040969951
 31
0.0
  0
LINE
  5
41A
  8
DIMNSIONS
  6
CONTINUOUS
 62
     7
 10
-129.0
 20
-170.0
 30
0.0
 11
-123.99875488281251
 21
-171.34007959030041
 31
0.0
  0
LINE
  5
41B
  8
DIMNSIONS
  6
CONTINUOUS
 62
     7
 10
29.000000000000011
 20
-170.0
 30
0.0
 11
23.998754882812509
 21
-171.34007959030041
 31
0.0
  0
LINE
  5
41C
  8
DIMNSIONS
  6
CONTINUOUS
 62
     7
 10
29.000000000000011
 20
-170.0
 30
0.0
 11
23.998754882812509
 21
-168.65992040969951
 31
0.0
  0
TEXT
  5
41D
  8
DIMNSIONS
 62
     7
 10
-55.29166666666665
 20
-168.01222222222219
 30
0.0
 40
5.4294704861111107
  1
158
 41
0.7
 11
-55.29166666666665
 21
-162.58275173611111
 31
0.0
 73
     3
  0
LINE
  5
41E
  8
DIMNSIONS
  6
CONTINUOUS
 62
     7
 10
75.0
 20
-53.999999999999972
 30
0.0
 11
75.0
 21
-174.0
 31
0.0
  0
LINE
  5
41F
  8
DIMNSIONS
  6
CONTINUOUS
 62
     7
 10
100.0
 20
-133.0
 30
0.0
 11
100.0
 21
-174.0
 31
0.0
  0
LINE
  5
420
  8
DIMNSIONS
  6
CONTINUOUS
 62
     7
 10
75.0
 20
-170.0
 30
0.0
 11
100.0
 21
-170.0
 31
0.0
  0
LINE
  5
421
  8
DIMNSIONS
  6
CONTINUOUS
 62
     7
 10
75.0
 20
-170.0
 30
0.0
 11
80.00124511718748
 21
-168.65992040969951
 31
0.0
  0
LINE
  5
422
  8
DIMNSIONS
  6
CONTINUOUS
 62
     7
 10
75.0
 20
-170.0
 30
0.0
 11
80.00124511718748
 21
-171.34007959030041
 31
0.0
  0
LINE
  5
423
  8
DIMNSIONS
  6
CONTINUOUS
 62
     7
 10
100.0
 20
-170.0
 30
0.0
 11
94.998754882812506
 21
-171.34007959030041
 31
0.0
  0
LINE
  5
424
  8
DIMNSIONS
  6
CONTINUOUS
 62
     7
 10
100.0
 20
-170.0
 30
0.0
 11
94.998754882812506
 21
-168.65992040969951
 31
0.0
  0
TEXT
  5
425
  8
DIMNSIONS
 62
     7
 10
80.444444444444457
 20
-168.01222222222219
 30
0.0
 40
5.4294704861111107
  1
25.0
 41
0.7
 11
80.444444444444457
 21
-162.58275173611111
 31
0.0
 73
     3
  0
LINE
  5
426
  8
DIMNSIONS
  6
CONTINUOUS
 62
     7
 10
86.0
 20
-133.0
 30
0.0
 11
86.0
 21
-154.0
 31
0.0
  0
LINE
  5
427
  8
DIMNSIONS
  6
CONTINUOUS
 62
     7
 10
100.0
 20
-133.0
 30
0.0
 11
100.0
 21
-154.0
 31
0.0
  0
LINE
  5
428
  8
DIMNSIONS
  6
CONTINUOUS
 62
     7
 10
100.0
 20
-150.0
 30
0.0
 11
116.34999999999999
 21
-150.0
 31
0.0
  0
LINE
  5
429
  8
DIMNSIONS
  6
CONTINUOUS
 62
     7
 10
86.0
 20
-150.0
 30
0.0
 11
100.0
 21
-150.0
 31
0.0
  0
LINE
  5
42A
  8
DIMNSIONS
  6
CONTINUOUS
 62
     7
 10
86.0
 20
-150.0
 30
0.0
 11
91.00124511718748
 21
-148.65992040969951
 31
0.0
  0
LINE
  5
42B
  8
DIMNSIONS
  6
CONTINUOUS
 62
     7
 10
86.0
 20
-150.0
 30
0.0
 11
91.00124511718748
 21
-151.34007959030041
 31
0.0
  0
LINE
  5
42C
  8
DIMNSIONS
  6
CONTINUOUS
 62
     7
 10
100.0
 20
-150.0
 30
0.0
 11
94.998754882812506
 21
-151.34007959030041
 31
0.0
  0
LINE
  5
42D
  8
DIMNSIONS
  6
CONTINUOUS
 62
     7
 10
100.0
 20
-150.0
 30
0.0
 11
94.998754882812506
 21
-148.65992040969951
 31
0.0
  0
TEXT
  5
42E
  8
DIMNSIONS
 62
     7
 10
102.23888888888889
 20
-148.01222222222219
 30
0.0
 40
5.4294704861111107
  1
14.0
 41
0.7
 11
102.23888888888889
 21
-142.58275173611111
 31
0.0
 73
     3
  0
TEXT
  5
42F
  8
DATA
 62
     7
 10
99.999999999999957
 20
-234.20640499999999
 30
0.0
 40
4.8865234375000002
  1
MTC-14WG(-BK)
 41
0.7
 11
99.999999999999957
 21
-229.3198815625
 31
0.0
 73
     3
  0
TEXT
  5
430
  8
DATA
 62
     7
 10
96.614716028889731
 20
-226.36120686037529
 30
0.0
 40
3.257687421875
  1
アルミニウムグリル
 41
0.7
 11
96.614716028889731
 21
-223.10351943850031
 31
0.0
 73
     3
  0
TEXT
  5
431
  8
DATA
 62
     7
 10
-175.0
 20
-240.7156294444444
 30
0.0
 40
3.8006293402777769
  1
※仕様及び外観は予告なく変更されることがあります。
 41
0.7
 11
-175.0
 21
-236.91500010416669
 31
0.0
 73
     3
  0
TEXT
  5
432
  8
DATA
 62
     7
 10
-175.0
 20
-245.65451833333341
 30
0.0
 40
3.8006293402777769
  1
　また、同一商品でも若干の個体差があることがあります。ご了承ください。
 41
0.7
 11
-175.0
 21
-241.85388899305559
 31
0.0
 73
     3
  0
CIRCLE
  5
433
  8
DATA
  6
CONTINUOUS
 62
     7
 10
-50.0
 20
-50.0
 30
0.0
 40
79.0
  0
LINE
  5
434
  8
DATA
  6
CONTINUOUS
 62
     7
 10
86.0
 20
29.0
 30
0.0
 11
100.0
 21
29.0
 31
0.0
  0
LINE
  5
435
  8
DATA
  6
CONTINUOUS
 62
     7
 10
86.0
 20
-129.0
 30
0.0
 11
100.0
 21
-129.0
 31
0.0
  0
LINE
  5
436
  8
DATA
  6
CONTINUOUS
 62
     7
 10
86.0
 20
-129.0
 30
0.0
 11
86.0
 21
29.000000000000028
 31
0.0
  0
ARC
  5
437
  8
DATA
  6
CONTINUOUS
 62
     7
 10
364.18181818181819
 20
-50.0
 30
0.0
 40
289.18181818181819
 50
164.14614663462081
 51
195.85385336537911
  0
POLYLINE
  5
438
  8
DATA
  6
CONTINUOUS
 62
     7
 66
     1
 10
0.0
 20
0.0
 30
0.0
 70
     1
  0
VERTEX
  5
533
  8
DATA
  6
CONTINUOUS
 62
     7
 10
-55.999999999999993
 20
-45.0
 30
0.0
  0
VERTEX
  5
534
  8
DATA
  6
CONTINUOUS
 62
     7
 10
-43.999999999999993
 20
-45.0
 30
0.0
  0
VERTEX
  5
535
  8
DATA
  6
CONTINUOUS
 62
     7
 10
-43.999999999999993
 20
-55.0
 30
0.0
  0
VERTEX
  5
536
  8
DATA
  6
CONTINUOUS
 62
     7
 10
-55.999999999999993
 20
-55.0
 30
0.0
  0
SEQEND
  5
537
  8
DATA
  6
CONTINUOUS
 62
     7
  0
ARC
  5
43F
  8
DATA
  6
CONTINUOUS
 62
     7
 10
-49.576468877435417
 20
-51.592299189886383
 30
0.0
 40
0.1562037262610828
 50
307.64190249757939
 51
354.26701928941742
  0
LINE
  5
440
  8
DATA
  6
CONTINUOUS
 62
     7
 10
-53.588751245586167
 20
-49.130781272037112
 30
0.0
 11
-52.85646584558603
 21
-47.38595007203719
 31
0.0
  0
LINE
  5
441
  8
DATA
  6
CONTINUOUS
 62
     7
 10
-53.588751245586167
 20
-49.130781272037112
 30
0.0
 11
-54.312001045586122
 21
-47.38595007203719
 31
0.0
  0
LINE
  5
442
  8
DATA
  6
CONTINUOUS
 62
     7
 10
-48.037835245586017
 20
-52.285950072037281
 30
0.0
 11
-48.037835245586017
 21
-47.38595007203719
 31
0.0
  0
LINE
  5
443
  8
DATA
  6
CONTINUOUS
 62
     7
 10
-47.097613445586347
 20
-47.38595007203719
 30
0.0
 11
-47.097613445586347
 21
-51.535583672037212
 31
0.0
  0
LINE
  5
444
  8
DATA
  6
CONTINUOUS
 62
     7
 10
-52.512921945586051
 20
-47.38595007203719
 30
0.0
 11
-52.512921945586051
 21
-51.535583672037212
 31
0.0
  0
LINE
  5
445
  8
DATA
  6
CONTINUOUS
 62
     7
 10
-51.608862145586023
 20
-47.38595007203719
 30
0.0
 11
-51.608862145586023
 21
-51.535583672037212
 31
0.0
  0
LINE
  5
446
  8
DATA
  6
CONTINUOUS
 62
     7
 10
-51.138751245586121
 20
-47.38595007203719
 30
0.0
 11
-51.138751245586121
 21
-52.285950072037281
 31
0.0
  0
LINE
  5
447
  8
DATA
  6
CONTINUOUS
 62
     7
 10
-50.316055945586157
 20
-47.847015572037321
 30
0.0
 11
-50.316055945586157
 21
-49.420082172037283
 31
0.0
  0
LINE
  5
448
  8
DATA
  6
CONTINUOUS
 62
     7
 10
-48.552751745586157
 20
-49.329059772037098
 30
0.0
 11
-48.552751745586157
 21
-48.181523872037239
 31
0.0
  0
LINE
  5
449
  8
DATA
  6
CONTINUOUS
 62
     7
 10
-49.421046445586143
 20
-48.063992472037278
 30
0.0
 11
-49.421046445586143
 21
-49.203110172037107
 31
0.0
  0
ARC
  5
44A
  8
DATA
  6
CONTINUOUS
 62
     7
 10
-52.694339545586082
 20
-51.027728072037107
 30
0.0
 40
1.263638178332388
 50
264.69085622153619
 51
323.99119915424018
  0
LINE
  5
44B
  8
DATA
  6
CONTINUOUS
 62
     7
 10
-53.200004845586207
 20
-50.74904547203721
 30
0.0
 11
-53.200004845586207
 21
-51.535573872037148
 31
0.0
  0
LINE
  5
44C
  8
DATA
  6
CONTINUOUS
 62
     7
 10
-53.200004845586207
 20
-50.74904547203721
 30
0.0
 11
-54.013659645586102
 21
-50.74904547203721
 31
0.0
  0
LINE
  5
44D
  8
DATA
  6
CONTINUOUS
 62
     7
 10
-54.013659645586102
 20
-50.74904547203721
 30
0.0
 11
-54.013659645586102
 21
-51.535573872037148
 31
0.0
  0
ARC
  5
44E
  8
DATA
  6
CONTINUOUS
 62
     7
 10
-52.854741045586209
 20
-51.546177472037137
 30
0.0
 40
0.3419851248588443
 50
269.71184879274892
 51
1.7759870056906939
  0
ARC
  5
44F
  8
DATA
  6
CONTINUOUS
 62
     7
 10
-52.858185745586042
 20
-51.546177472037137
 30
0.0
 40
0.3419833761553648
 50
178.2240129943236
 51
270.28815120724011
  0
ARC
  5
450
  8
DATA
  6
CONTINUOUS
 62
     7
 10
-52.928182245586051
 20
-51.027728072037107
 30
0.0
 40
1.2636361261038149
 50
216.0088008457551
 51
275.30914377845698
  0
ARC
  5
451
  8
DATA
  6
CONTINUOUS
 62
     7
 10
-53.442594045586212
 20
-51.507874172037077
 30
0.0
 40
0.5717321020061991
 50
182.7769954500028
 51
207.3596066671513
  0
CIRCLE
  5
452
  8
DATA
  6
CONTINUOUS
 62
     7
 10
-53.539026045586262
 20
-49.808828572037221
 30
0.0
 40
0.465588200000184
  0
LINE
  5
453
  8
DATA
  6
CONTINUOUS
 62
     7
 10
-45.587835245586092
 20
-52.285945172037259
 30
0.0
 11
-48.037835245586017
 21
-52.285945172037259
 31
0.0
  0
LINE
  5
454
  8
DATA
  6
CONTINUOUS
 62
     7
 10
-45.587835245586092
 20
-52.285945172037259
 30
0.0
 11
-45.587835245586092
 21
-50.749040572037188
 31
0.0
  0
LINE
  5
455
  8
DATA
  6
CONTINUOUS
 62
     7
 10
-45.587835245586092
 20
-50.74904547203721
 30
0.0
 11
-46.410525645586027
 21
-50.74904547203721
 31
0.0
  0
LINE
  5
456
  8
DATA
  6
CONTINUOUS
 62
     7
 10
-46.410525645586027
 20
-50.74904547203721
 30
0.0
 11
-46.410525645586027
 21
-51.535573872037148
 31
0.0
  0
LINE
  5
457
  8
DATA
  6
CONTINUOUS
 62
     7
 10
-51.138751245586121
 20
-52.285945172037259
 30
0.0
 11
-49.421046445586143
 21
-52.28594027203723
 31
0.0
  0
LINE
  5
458
  8
DATA
  6
CONTINUOUS
 62
     7
 10
-50.316060845586172
 20
-51.824874772037319
 30
0.0
 11
-49.873071445586177
 21
-51.824874772037319
 31
0.0
  0
LINE
  5
459
  8
DATA
  6
CONTINUOUS
 62
     7
 10
-50.316055945586157
 20
-51.824874772037319
 30
0.0
 11
-50.316055945586157
 21
-49.890188172037249
 31
0.0
  0
LINE
  5
45A
  8
DATA
  6
CONTINUOUS
 62
     7
 10
-50.316060845586172
 20
-49.890188172037249
 30
0.0
 11
-49.873071445586177
 21
-49.890188172037249
 31
0.0
  0
LINE
  5
45B
  8
DATA
  6
CONTINUOUS
 62
     7
 10
-49.421046445586143
 20
-51.607902772037171
 30
0.0
 11
-49.421046445586143
 21
-50.10716017203697
 31
0.0
  0
ARC
  5
45C
  8
DATA
  6
CONTINUOUS
 62
     7
 10
-52.179927745586241
 20
-51.507874172037077
 30
0.0
 40
0.5717312884540307
 50
332.64039333286291
 51
357.22300454998481
  0
ARC
  5
45D
  8
DATA
  6
CONTINUOUS
 62
     7
 10
-46.752349645586243
 20
-51.546177472037137
 30
0.0
 40
0.3419851248588448
 50
269.71184879272982
 51
1.7759870056906939
  0
ARC
  5
45E
  8
DATA
  6
CONTINUOUS
 62
     7
 10
-46.755789445586032
 20
-51.546177472037137
 30
0.0
 40
0.3419833761553648
 50
178.2240129943236
 51
270.28815120724011
  0
LINE
  5
45F
  8
DATA
  6
CONTINUOUS
 62
     7
 10
-48.553148645586099
 20
-51.499411872037292
 30
0.0
 11
-48.553148645586099
 21
-50.197570072037358
 31
0.0
  0
LINE
  5
460
  8
DATA
  6
CONTINUOUS
 62
     7
 10
-50.316060845586172
 20
-49.420082172037283
 30
0.0
 11
-49.873071445586177
 21
-49.420082172037283
 31
0.0
  0
ARC
  5
461
  8
DATA
  6
CONTINUOUS
 62
     7
 10
-49.483335245586062
 20
-51.35574387203711
 30
0.0
 40
0.9322795917419844
 50
273.83098160910959
 51
351.1351473097842
  0
LINE
  5
462
  8
DATA
  6
CONTINUOUS
 62
     7
 10
-52.512921945586051
 20
-47.38595007203719
 30
0.0
 11
-51.608862145586023
 21
-47.38595007203719
 31
0.0
  0
LINE
  5
463
  8
DATA
  6
CONTINUOUS
 62
     7
 10
-54.312001045586122
 20
-47.38595007203719
 30
0.0
 11
-52.85646584558603
 21
-47.38595007203719
 31
0.0
  0
LINE
  5
464
  8
DATA
  6
CONTINUOUS
 62
     7
 10
-48.037835245586017
 20
-47.38595007203719
 30
0.0
 11
-47.097613445586347
 21
-47.38595007203719
 31
0.0
  0
LINE
  5
465
  8
DATA
  6
CONTINUOUS
 62
     7
 10
-51.138751245586121
 20
-47.38595007203719
 30
0.0
 11
-49.411604082794362
 21
-47.385954037970009
 31
0.0
  0
LINE
  5
466
  8
DATA
  6
CONTINUOUS
 62
     7
 10
-50.316060845586172
 20
-47.847020472037109
 30
0.0
 11
-49.873071445586177
 21
-47.847020472037109
 31
0.0
  0
ARC
  5
467
  8
DATA
  6
CONTINUOUS
 62
     7
 10
-49.474039945586213
 20
-48.314725472037139
 30
0.0
 40
0.930867667126677
 50
8.2269238590088545
 51
86.154126692154179
  0
ARC
  5
468
  8
DATA
  6
CONTINUOUS
 62
     7
 10
-49.867840468910543
 20
-50.96556767134949
 30
0.0
 40
0.8593230221572699
 50
269.65121993761289
 51
282.82648280687721
  0
ARC
  5
469
  8
DATA
  6
CONTINUOUS
 62
     7
 10
-49.771324892127353
 20
-51.328872424538417
 30
0.0
 40
0.4838445728096969
 50
281.23310362265522
 51
306.8620088940321
  0
ARC
  5
46A
  8
DATA
  6
CONTINUOUS
 62
     7
 10
-49.576468877435417
 20
-50.122763754188
 30
0.0
 40
0.1562037262612061
 50
5.7329807106614226
 51
52.358097502354532
  0
ARC
  5
46B
  8
DATA
  6
CONTINUOUS
 62
     7
 10
-49.867840468910543
 20
-50.749495272724857
 30
0.0
 40
0.8593230221571047
 50
77.173517193122791
 51
90.348780062387164
  0
ARC
  5
46C
  8
DATA
  6
CONTINUOUS
 62
     7
 10
-49.771324892127353
 20
-50.386190519535717
 30
0.0
 40
0.4838445728094604
 50
53.137991105951691
 51
78.766896377339563
  0
ARC
  5
46D
  8
DATA
  6
CONTINUOUS
 62
     7
 10
-49.02731184558624
 20
-50.229620972037203
 30
0.0
 40
0.4752452003178642
 50
3.8670063598005511
 51
88.361634567870354
  0
ARC
  5
46E
  8
DATA
  6
CONTINUOUS
 62
     7
 10
-49.027747945586128
 20
-49.27906017203702
 30
0.0
 40
0.4757174505744061
 50
271.68928210465032
 51
356.0782829826332
  0
ARC
  5
46F
  8
DATA
  6
CONTINUOUS
 62
     7
 10
-49.576468877435417
 20
-49.187506589886311
 30
0.0
 40
0.1562037262610828
 50
307.64190249757939
 51
354.26701928941742
  0
ARC
  5
470
  8
DATA
  6
CONTINUOUS
 62
     7
 10
-49.867840468910543
 20
-48.56077507134944
 30
0.0
 40
0.8593230221572699
 50
269.65121993761289
 51
282.8264828068738
  0
ARC
  5
471
  8
DATA
  6
CONTINUOUS
 62
     7
 10
-49.771324892127353
 20
-48.92407982453836
 30
0.0
 40
0.4838445728099199
 50
281.23310362264988
 51
306.86200889404302
  0
ARC
  5
472
  8
DATA
  6
CONTINUOUS
 62
     7
 10
-49.576468877435417
 20
-48.079596054187853
 30
0.0
 40
0.1562037262611607
 50
5.732980710495454
 51
52.358097502387537
  0
ARC
  5
473
  8
DATA
  6
CONTINUOUS
 62
     7
 10
-49.867840468910543
 20
-48.70632757272471
 30
0.0
 40
0.8593230221568832
 50
77.173517193119451
 51
90.348780062387164
  0
ARC
  5
474
  8
DATA
  6
CONTINUOUS
 62
     7
 10
-49.771324892127353
 20
-48.343022819535811
 30
0.0
 40
0.4838445728094604
 50
53.137991105951691
 51
78.766896377339563
  0
LINE
  5
475
  8
DATA
  6
CONTINUOUS
 62
     7
 10
74.240713170213695
 20
-45.0
 30
0.0
 11
75.043228631854902
 21
-45.0
 31
0.0
  0
LINE
  5
476
  8
DATA
  6
CONTINUOUS
 62
     7
 10
74.240713170213695
 20
-55.0
 30
0.0
 11
75.043228631854902
 21
-55.0
 31
0.0
  0
ARC
  5
477
  8
DATA
  6
CONTINUOUS
 62
     7
 10
105.4897350118402
 20
-50.0
 30
0.0
 40
31.646506379985301
 50
170.9094432860694
 51
189.0905567139306
  0
LINE
  5
478
  8
DATA
  6
CONTINUOUS
 62
     7
 10
91.0
 20
-58.500000000000021
 30
0.0
 11
91.0
 21
-41.500000000000007
 31
0.0
  0
LINE
  5
479
  8
DATA
  6
CONTINUOUS
 62
     7
 10
96.0
 20
-58.500000000000021
 30
0.0
 11
96.0
 21
-57.500000000000021
 31
0.0
  0
LINE
  5
47A
  8
DATA
  6
CONTINUOUS
 62
     7
 10
96.0
 20
-42.5
 30
0.0
 11
96.0
 21
-41.500000000000007
 31
0.0
  0
LINE
  5
47B
  8
DATA
  6
CONTINUOUS
 62
     7
 10
92.0
 20
-57.500000000000021
 30
0.0
 11
92.0
 21
-42.5
 31
0.0
  0
LINE
  5
47C
  8
DATA
  6
CONTINUOUS
 62
     7
 10
91.0
 20
-41.500000000000007
 30
0.0
 11
96.0
 21
-41.500000000000007
 31
0.0
  0
LINE
  5
47D
  8
DATA
  6
CONTINUOUS
 62
     7
 10
91.0
 20
-58.500000000000021
 30
0.0
 11
96.0
 21
-58.500000000000021
 31
0.0
  0
LINE
  5
47E
  8
DATA
  6
CONTINUOUS
 62
     7
 10
92.0
 20
-42.500000000000007
 30
0.0
 11
96.0
 21
-42.500000000000007
 31
0.0
  0
LINE
  5
47F
  8
DATA
  6
CONTINUOUS
 62
     7
 10
92.0
 20
-57.500000000000021
 30
0.0
 11
96.0
 21
-57.500000000000021
 31
0.0
  0
ARC
  5
480
  8
DATA
  6
CONTINUOUS
 62
     7
 10
-50.199999999995832
 20
-50.000000000000021
 30
0.0
 40
79.000000000004164
 50
174.55232296704179
 51
185.4476770329581
  0
LINE
  5
481
  8
DATA
  6
CONTINUOUS
 62
     7
 10
-128.84318152262151
 20
-42.500000000000007
 30
0.0
 11
-128.64318152262149
 21
-42.500000000000007
 31
0.0
  0
LINE
  5
482
  8
DATA
  6
CONTINUOUS
 62
     7
 10
-128.84318152262151
 20
-57.500000000000021
 30
0.0
 11
-128.64318152262149
 21
-57.500000000000021
 31
0.0
  0
ARC
  5
483
  8
DATA
  6
CONTINUOUS
 62
     7
 10
-50.0
 20
-49.800000000001042
 30
0.0
 40
79.000000000001009
 50
84.552322967041633
 51
95.447677032958353
  0
ARC
  5
484
  8
DATA
  6
CONTINUOUS
 62
     7
 10
-50.0
 20
-50.199999999995811
 30
0.0
 40
79.000000000004192
 50
264.55232296704179
 51
275.4476770329581
  0
LINE
  5
485
  8
DATA
  6
CONTINUOUS
 62
     7
 10
-57.5
 20
-128.84318152262151
 30
0.0
 11
-57.5
 21
-128.64318152262149
 31
0.0
  0
LINE
  5
486
  8
DATA
  6
CONTINUOUS
 62
     7
 10
-42.499999999999993
 20
-128.84318152262151
 30
0.0
 11
-42.499999999999993
 21
-128.64318152262149
 31
0.0
  0
LINE
  5
487
  8
DATA
  6
CONTINUOUS
 62
     7
 10
-57.5
 20
28.843181522621531
 30
0.0
 11
-57.5
 21
28.643181522621529
 31
0.0
  0
LINE
  5
488
  8
DATA
  6
CONTINUOUS
 62
     7
 10
-42.499999999999993
 20
28.843181522621531
 30
0.0
 11
-42.499999999999993
 21
28.643181522621529
 31
0.0
  0
ARC
  5
489
  8
DATA
  6
CONTINUOUS
 62
     7
 10
-49.800000000004161
 20
-50.000000000000021
 30
0.0
 40
79.000000000004164
 50
354.55232296704179
 51
5.4476770329581532
  0
LINE
  5
48A
  8
DATA
  6
CONTINUOUS
 62
     7
 10
28.843181522621531
 20
-42.500000000000007
 30
0.0
 11
28.64318152262155
 21
-42.500000000000007
 31
0.0
  0
LINE
  5
48B
  8
DATA
  6
CONTINUOUS
 62
     7
 10
28.843181522621531
 20
-57.500000000000021
 30
0.0
 11
28.64318152262155
 21
-57.500000000000021
 31
0.0
  0
LINE
  5
48C
  8
DATA
  6
CONTINUOUS
 62
     7
 10
100.0
 20
-129.0
 30
0.0
 11
100.0
 21
29.0
 31
0.0
  0
TEXT
  5
48D
  8
DATA
 62
     7
 10
99.999999999999957
 20
-219.70640499999999
 30
0.0
 40
4.8865234375000002
  1
JBL PROFESSIONAL
 41
0.7
 11
99.999999999999957
 21
-214.8198815625
 31
0.0
 73
     3
  0
ENDSEC
  0
EOF
