  0
SECTION
  2
HEADER
  9
$ACADVER
  1
AC1009
  9
$INSBASE
 10
0.0
 20
0.0
 30
0.0
  9
$EXTMIN
 10
-80.010985489947416
 20
-131.71201227911089
 30
-0.0015258207003583
  9
$EXTMAX
 10
280.01098716632811
 20
403.5481165140169
 30
0.0000000349246037
  9
$LIMMIN
 10
0.0
 20
0.0
  9
$LIMMAX
 10
0.0
 20
0.0
  9
$ORTHOMODE
 70
     0
  9
$REGENMODE
 70
     1
  9
$FILLMODE
 70
     1
  9
$QTEXTMODE
 70
     0
  9
$MIRRTEXT
 70
     1
  9
$DRAGMODE
 70
     2
  9
$LTSCALE
 40
10.16
  9
$OSMODE
 70
   231
  9
$ATTMODE
 70
     1
  9
$TEXTSIZE
 40
0.0
  9
$TRACEWID
 40
1.0
  9
$TEXTSTYLE
  7
STANDARD
  9
$CLAYER
  8
DATA
  9
$CELTYPE
  6
CONTINUOUS
  9
$CECOLOR
 62
   256
  9
$DIMSCALE
 40
1.0
  9
$DIMASZ
 40
0.18
  9
$DIMEXO
 40
0.0625
  9
$DIMDLI
 40
0.38
  9
$DIMRND
 40
0.0
  9
$DIMDLE
 40
0.0
  9
$DIMEXE
 40
0.18
  9
$DIMTP
 40
0.0
  9
$DIMTM
 40
0.0
  9
$DIMTXT
 40
0.18
  9
$DIMCEN
 40
0.09
  9
$DIMTSZ
 40
0.0
  9
$DIMTOL
 70
     0
  9
$DIMLIM
 70
     0
  9
$DIMTIH
 70
     1
  9
$DIMTOH
 70
     1
  9
$DIMSE1
 70
     0
  9
$DIMSE2
 70
     0
  9
$DIMTAD
 70
     0
  9
$DIMZIN
 70
     0
  9
$DIMBLK
  1

  9
$DIMASO
 70
     1
  9
$DIMSHO
 70
     1
  9
$DIMPOST
  1

  9
$DIMAPOST
  1

  9
$DIMALT
 70
     0
  9
$DIMALTD
 70
     2
  9
$DIMALTF
 40
25.399999999999999
  9
$DIMLFAC
 40
1.0
  9
$DIMTOFL
 70
     0
  9
$DIMTVP
 40
0.0
  9
$DIMTIX
 70
     0
  9
$DIMSOXD
 70
     0
  9
$DIMSAH
 70
     0
  9
$DIMBLK1
  1

  9
$DIMBLK2
  1

  9
$DIMSTYLE
  2
STANDARD
  9
$DIMCLRD
 70
     0
  9
$DIMCLRE
 70
     0
  9
$DIMCLRT
 70
     0
  9
$DIMTFAC
 40
1.0
  9
$DIMGAP
 40
0.09
  9
$LUNITS
 70
     2
  9
$LUPREC
 70
     4
  9
$SKETCHINC
 40
0.1
  9
$FILLETRAD
 40
0.0
  9
$AUNITS
 70
     0
  9
$AUPREC
 70
     0
  9
$MENU
  1
acad
  9
$ELEVATION
 40
0.0
  9
$PELEVATION
 40
0.0
  9
$THICKNESS
 40
0.0
  9
$LIMCHECK
 70
     0
  9
$BLIPMODE
 70
     0
  9
$CHAMFERA
 40
0.0
  9
$CHAMFERB
 40
0.0
  9
$SKPOLY
 70
     0
  9
$TDCREATE
 40
2453509.3939467599
  9
$TDUPDATE
 40
2453509.394799259
  9
$TDINDWG
 40
0.0002540856
  9
$TDUSRTIMER
 40
0.0002540856
  9
$USRTIMER
 70
     1
  9
$ANGBASE
 50
0.0
  9
$ANGDIR
 70
     0
  9
$PDMODE
 70
     1
  9
$PDSIZE
 40
-2.0
  9
$PLINEWID
 40
0.0
  9
$COORDS
 70
     0
  9
$SPLFRAME
 70
     0
  9
$SPLINETYPE
 70
     6
  9
$SPLINESEGS
 70
     8
  9
$ATTDIA
 70
     0
  9
$ATTREQ
 70
     1
  9
$HANDLING
 70
     1
  9
$HANDSEED
  5
187
  9
$SURFTAB1
 70
     6
  9
$SURFTAB2
 70
     6
  9
$SURFTYPE
 70
     6
  9
$SURFU
 70
     6
  9
$SURFV
 70
     6
  9
$UCSNAME
  2

  9
$UCSORG
 10
0.0
 20
0.0
 30
0.0
  9
$UCSXDIR
 10
1.0
 20
0.0
 30
0.0
  9
$UCSYDIR
 10
0.0
 20
1.0
 30
0.0
  9
$PUCSNAME
  2

  9
$PUCSORG
 10
0.0
 20
0.0
 30
0.0
  9
$PUCSXDIR
 10
1.0
 20
0.0
 30
0.0
  9
$PUCSYDIR
 10
0.0
 20
1.0
 30
0.0
  9
$USERI1
 70
     0
  9
$USERI2
 70
     0
  9
$USERI3
 70
     0
  9
$USERI4
 70
     0
  9
$USERI5
 70
     0
  9
$USERR1
 40
0.0
  9
$USERR2
 40
0.0
  9
$USERR3
 40
0.0
  9
$USERR4
 40
0.0
  9
$USERR5
 40
0.0
  9
$WORLDVIEW
 70
     1
  9
$SHADEDGE
 70
     3
  9
$SHADEDIF
 70
    70
  9
$TILEMODE
 70
     1
  9
$MAXACTVP
 70
    64
  9
$PLIMCHECK
 70
     0
  9
$PEXTMIN
 10
1.0000000000000000E+020
 20
1.0000000000000000E+020
 30
1.0000000000000000E+020
  9
$PEXTMAX
 10
-1.0000000000000000E+020
 20
-1.0000000000000000E+020
 30
-1.0000000000000000E+020
  9
$PLIMMIN
 10
0.0
 20
0.0
  9
$PLIMMAX
 10
12.0
 20
9.0
  9
$UNITMODE
 70
     0
  9
$VISRETAIN
 70
     0
  9
$PLINEGEN
 70
     1
  9
$PSLTSCALE
 70
     0
  0
ENDSEC
  0
SECTION
  2
TABLES
  0
TABLE
  2
VPORT
 70
     2
  0
VPORT
  2
*ACTIVE
 70
     0
 10
0.0
 20
0.0
 11
1.0
 21
1.0
 12
100.0000008381904
 22
135.91805211745299
 13
0.0
 23
0.0
 14
1.0
 24
1.0
 15
0.0
 25
0.0
 16
0.0
 26
0.0
 36
1.0
 17
0.0
 27
0.0
 37
0.0
 40
539.62959923225549
 41
1.6430517711171659
 42
50.0
 43
0.0
 44
0.0
 50
0.0
 51
0.0
 71
     0
 72
  2000
 73
     1
 74
     1
 75
     0
 76
     0
 77
     0
 78
     0
  0
ENDTAB
  0
TABLE
  2
LTYPE
 70
    11
  0
LTYPE
  2
CONTINUOUS
 70
     0
  3
Solid line
 72
    65
 73
     0
 40
0.0
  0
ENDTAB
  0
TABLE
  2
LAYER
 70
     4
  0
LAYER
  2
0
 70
     0
 62
     7
  6
CONTINUOUS
  0
LAYER
  2
DATA
 70
     0
 62
     7
  6
CONTINUOUS
  0
LAYER
  2
HIBINO-BASE
 70
     0
 62
     7
  6
CONTINUOUS
  0
LAYER
  2
DIMNSIONS
 70
     0
 62
     7
  6
CONTINUOUS
  0
ENDTAB
  0
TABLE
  2
STYLE
 70
     2
  0
STYLE
  2
STANDARD
 70
     0
 40
0.0
 41
1.0
 50
0.0
 71
     0
 42
0.0
  3
txt
  4
BIGFONT.SHX
  0
ENDTAB
  0
TABLE
  2
VIEW
 70
     0
  0
ENDTAB
  0
TABLE
  2
UCS
 70
     0
  0
ENDTAB
  0
TABLE
  2
APPID
 70
     1
  0
APPID
  2
ACAD
 70
     0
  0
ENDTAB
  0
TABLE
  2
DIMSTYLE
 70
     1
  0
DIMSTYLE
  2
STANDARD
 70
     0
  3

  4

  5

  6

  7

 40
1.0
 41
0.18
 42
0.0625
 43
0.38
 44
0.18
 45
0.0
 46
0.0
 47
0.0
 48
0.0
140
0.18
141
0.09
142
0.0
143
25.399999999999999
144
1.0
145
0.0
146
1.0
147
0.09
 71
     0
 72
     0
 73
     1
 74
     1
 75
     0
 76
     0
 77
     0
 78
     0
170
     0
171
     2
172
     0
173
     0
174
     0
175
     0
176
     0
177
     0
178
     0
  0
ENDTAB
  0
ENDSEC
  0
SECTION
  2
BLOCKS
  0
BLOCK
  8
0
  2
$MODEL_SPACE
 70
     0
 10
0.0
 20
0.0
 30
0.0
  3
$MODEL_SPACE
  1

  0
ENDBLK
  5
163
  8
0
  0
BLOCK
 67
     1
  8
0
  2
$PAPER_SPACE
 70
     0
 10
0.0
 20
0.0
 30
0.0
  3
$PAPER_SPACE
  1

  0
ENDBLK
  5
15F
 67
     1
  8
0
  0
ENDSEC
  0
SECTION
  2
ENTITIES
  0
LINE
  5
2B
  8
HIBINO-BASE
  6
CONTINUOUS
 62
     7
 10
-79.999999999999986
 20
403.53181499999999
 30
0.0
 11
279.99999999999989
 21
403.53181499999999
 31
0.0
  0
LINE
  5
2C
  8
HIBINO-BASE
  6
CONTINUOUS
 62
     7
 10
279.99999999999989
 20
-116.46818500000001
 30
0.0
 11
-79.999999999999986
 21
-116.46818500000001
 31
0.0
  0
LINE
  5
2D
  8
HIBINO-BASE
  6
CONTINUOUS
 62
     7
 10
-79.999999999999986
 20
-116.46818500000001
 30
0.0
 11
-79.999999999999986
 21
403.53181499999999
 31
0.0
  0
TEXT
  5
2E
  8
HIBINO-BASE
 62
     7
 10
-65.631999999999991
 20
-129.2855405999999
 30
0.0
 40
7.2000883593749991
  1
Hibino Corporation
 41
0.8
 11
-65.631999999999991
 21
-122.0854522406249
 31
0.0
 73
     3
  0
LINE
  5
2F
  8
HIBINO-BASE
  6
CONTINUOUS
 62
     7
 10
279.99999999999989
 20
403.53181499999999
 30
0.0
 11
279.99999999999989
 21
-116.46818500000001
 31
0.0
  0
LINE
  5
30
  8
HIBINO-BASE
  6
CONTINUOUS
 62
     7
 10
97.5
 20
-71.468184999999977
 30
0.0
 11
279.99999999999989
 21
-71.468184999999977
 31
0.0
  0
TEXT
  5
31
  8
HIBINO-BASE
 62
     7
 10
200.13677999999999
 20
-129.2855405999999
 30
0.0
 40
7.2000883593749991
  1
ヒビノ株式会社
 41
0.8
 11
200.13677999999999
 21
-122.0854522406249
 31
0.0
 73
     3
  0
LINE
  5
32
  8
HIBINO-BASE
  6
CONTINUOUS
 62
     7
 10
97.5
 20
-96.468184999999963
 30
0.0
 11
279.99999999999989
 21
-96.468184999999963
 31
0.0
  0
TEXT
  5
33
  8
HIBINO-BASE
 62
     7
 10
196.80000000000001
 20
-101.3729316666666
 30
0.0
 40
3.2576822916666659
  1
DRAWN
 41
0.8
 11
196.80000000000001
 21
-98.115249375000005
 31
0.0
 73
     3
  0
TEXT
  5
34
  8
HIBINO-BASE
 62
     7
 10
246.7999999999999
 20
-101.3729316666666
 30
0.0
 40
3.2576822916666659
  1
DRAWING NO.
 41
0.8
 11
246.7999999999999
 21
-98.115249375000005
 31
0.0
 73
     3
  0
TEXT
  5
35
  8
HIBINO-BASE
 62
     7
 10
221.7999999999999
 20
-101.3729316666666
 30
0.0
 40
3.2576822916666659
  1
CHECK
 41
0.8
 11
221.7999999999999
 21
-98.115249375000005
 31
0.0
 73
     3
  0
LINE
  5
36
  8
HIBINO-BASE
  6
CONTINUOUS
 62
     7
 10
195.0
 20
-96.468184999999963
 30
0.0
 11
195.0
 21
-116.46818500000001
 31
0.0
  0
LINE
  5
37
  8
HIBINO-BASE
  6
CONTINUOUS
 62
     7
 10
245.0
 20
-96.468184999999963
 30
0.0
 11
245.0
 21
-116.46818500000001
 31
0.0
  0
LINE
  5
38
  8
HIBINO-BASE
  6
CONTINUOUS
 62
     7
 10
220.0
 20
-116.46818500000001
 30
0.0
 11
220.0
 21
-96.468184999999963
 31
0.0
  0
TEXT
  5
39
  8
HIBINO-BASE
 62
     7
 10
198.0116200220692
 20
-110.7408916666666
 30
0.0
 40
3.2576822916666659
  1
N.Sasaki
 41
0.8
 11
198.0116200220692
 21
-107.483209375
 31
0.0
 73
     3
  0
TEXT
  5
3A
  8
HIBINO-BASE
 62
     7
 10
107.76666666666659
 20
-112.51618499999999
 30
0.0
 40
6.5153645833333318
  1
A4
 41
0.8
 11
107.76666666666659
 21
-106.0008204166666
 31
0.0
 73
     3
  0
TEXT
  5
3B
  8
HIBINO-BASE
 62
     7
 10
149.30000000000001
 20
-101.3729316666666
 30
0.0
 40
3.2576822916666659
  1
DATE
 41
0.8
 11
149.30000000000001
 21
-98.115249375000005
 31
0.0
 73
     3
  0
TEXT
  5
3C
  8
HIBINO-BASE
 62
     7
 10
129.30000000000001
 20
-101.3729316666666
 30
0.0
 40
3.2576822916666659
  1
SCALE
 41
0.8
 11
129.30000000000001
 21
-98.115249375000005
 31
0.0
 73
     3
  0
LINE
  5
3D
  8
HIBINO-BASE
  6
CONTINUOUS
 62
     7
 10
131.25
 20
-113.96818500000001
 30
0.0
 11
138.75
 21
-106.46818499999991
 31
0.0
  0
TEXT
  5
3E
  8
HIBINO-BASE
 62
     7
 10
130.0
 20
-108.68607166666661
 30
0.0
 40
3.2576822916666659
  1
1
 41
0.8
 11
130.0
 21
-105.42838937499999
 31
0.0
 73
     3
  0
LINE
  5
3F
  8
HIBINO-BASE
  6
CONTINUOUS
 62
     7
 10
127.5
 20
-116.46818500000001
 30
0.0
 11
127.5
 21
-96.468184999999963
 31
0.0
  0
LINE
  5
40
  8
HIBINO-BASE
  6
CONTINUOUS
 62
     7
 10
147.5
 20
-116.46818500000001
 30
0.0
 11
147.5
 21
-96.468184999999963
 31
0.0
  0
TEXT
  5
41
  8
HIBINO-BASE
 62
     7
 10
149.21307999999999
 20
-110.7408916666666
 30
0.0
 40
3.2576822916666659
  1
'98.09.
 41
0.8
 11
149.21307999999999
 21
-107.483209375
 31
0.0
 73
     3
  0
TEXT
  5
42
  8
HIBINO-BASE
 62
     7
 10
137.5
 20
-112.43607166666661
 30
0.0
 40
3.2576822916666659
  1
2
 41
0.8
 11
137.5
 21
-109.17838937499999
 31
0.0
 73
     3
  0
LINE
  5
43
  8
HIBINO-BASE
  6
CONTINUOUS
 62
     7
 10
172.5
 20
-116.46818500000001
 30
0.0
 11
172.5
 21
-71.468184999999977
 31
0.0
  0
TEXT
  5
44
  8
HIBINO-BASE
 62
     7
 10
174.30000000000001
 20
-76.485571666666644
 30
0.0
 40
3.2576822916666659
  1
TITLE
 41
0.8
 11
174.30000000000001
 21
-73.227889374999975
 31
0.0
 73
     3
  0
TEXT
  5
45
  8
HIBINO-BASE
 62
     7
 10
174.30000000000001
 20
-101.3729316666666
 30
0.0
 40
3.2576822916666659
  1
DESIGN
 41
0.8
 11
174.30000000000001
 21
-98.115249375000005
 31
0.0
 73
     3
  0
LINE
  5
46
  8
HIBINO-BASE
  6
CONTINUOUS
 62
     7
 10
97.5
 20
-116.46818500000001
 30
0.0
 11
97.5
 21
-71.468184999999977
 31
0.0
  0
TEXT
  5
47
  8
HIBINO-BASE
 62
     7
 10
99.299999999999983
 20
-76.485571666666644
 30
0.0
 40
3.2576822916666659
  1
NOTE
 41
0.8
 11
99.299999999999983
 21
-73.227889374999975
 31
0.0
 73
     3
  0
TEXT
  5
48
  8
HIBINO-BASE
 62
     7
 10
99.416666666666686
 20
-101.707095
 30
0.0
 40
3.2576822916666659
  1
PAPER SIZE
 41
0.8
 11
99.416666666666686
 21
-98.449412708333327
 31
0.0
 73
     3
  0
TEXT
  5
49
  8
DIMNSIONS
 62
     7
 10
60.0
 20
-91.929204999999968
 30
0.0
 40
4.8865234375000002
  1
(単位：mm)
 41
0.8
 11
60.0
 21
-87.042681562499979
 31
0.0
 73
     3
  0
LINE
  5
4A
  8
DIMNSIONS
  6
CONTINUOUS
 62
     7
 10
113.25
 20
323.74999999999989
 30
0.0
 11
113.25
 21
352.85000000000002
 31
0.0
  0
LINE
  5
4B
  8
DIMNSIONS
  6
CONTINUOUS
 62
     7
 10
186.75
 20
323.74999999999989
 30
0.0
 11
186.75
 21
352.85000000000002
 31
0.0
  0
LINE
  5
4C
  8
DIMNSIONS
  6
CONTINUOUS
 62
     7
 10
113.25
 20
348.85000000000002
 30
0.0
 11
186.75
 21
348.85000000000002
 31
0.0
  0
LINE
  5
4D
  8
DIMNSIONS
  6
CONTINUOUS
 62
     7
 10
113.25
 20
348.85000000000002
 30
0.0
 11
118.25124511718739
 21
350.19007959030051
 31
0.0
  0
LINE
  5
4E
  8
DIMNSIONS
  6
CONTINUOUS
 62
     7
 10
113.25
 20
348.85000000000002
 30
0.0
 11
118.25124511718739
 21
347.50992040969948
 31
0.0
  0
LINE
  5
4F
  8
DIMNSIONS
  6
CONTINUOUS
 62
     7
 10
186.75
 20
348.85000000000002
 30
0.0
 11
181.74875488281239
 21
347.50992040969948
 31
0.0
  0
LINE
  5
50
  8
DIMNSIONS
  6
CONTINUOUS
 62
     7
 10
186.75
 20
348.85000000000002
 30
0.0
 11
181.74875488281239
 21
350.19007959030051
 31
0.0
  0
TEXT
  5
51
  8
DIMNSIONS
 62
     7
 10
142.9444444444444
 20
350.83777777777777
 30
0.0
 40
5.4294704861111107
  1
73.5
 41
0.8
 11
142.9444444444444
 21
356.2672482638888
 31
0.0
 73
     3
  0
LINE
  5
52
  8
DIMNSIONS
  6
CONTINUOUS
 62
     7
 10
180.0
 20
304.0
 30
0.0
 11
180.0
 21
340.35000000000002
 31
0.0
  0
LINE
  5
53
  8
DIMNSIONS
  6
CONTINUOUS
 62
     7
 10
120.0000000000001
 20
304.0
 30
0.0
 11
120.0000000000001
 21
340.35000000000002
 31
0.0
  0
LINE
  5
54
  8
DIMNSIONS
  6
CONTINUOUS
 62
     7
 10
180.0
 20
336.35000000000002
 30
0.0
 11
120.0000000000001
 21
336.35000000000002
 31
0.0
  0
LINE
  5
55
  8
DIMNSIONS
  6
CONTINUOUS
 62
     7
 10
180.0
 20
336.35000000000002
 30
0.0
 11
174.99875488281239
 21
335.00992040969948
 31
0.0
  0
LINE
  5
56
  8
DIMNSIONS
  6
CONTINUOUS
 62
     7
 10
180.0
 20
336.35000000000002
 30
0.0
 11
174.99875488281239
 21
337.69007959030051
 31
0.0
  0
LINE
  5
57
  8
DIMNSIONS
  6
CONTINUOUS
 62
     7
 10
120.0000000000001
 20
336.35000000000002
 30
0.0
 11
125.00124511718759
 21
337.69007959030051
 31
0.0
  0
LINE
  5
58
  8
DIMNSIONS
  6
CONTINUOUS
 62
     7
 10
120.0000000000001
 20
336.35000000000002
 30
0.0
 11
125.00124511718759
 21
335.00992040969948
 31
0.0
  0
TEXT
  5
59
  8
DIMNSIONS
 62
     7
 10
146.47222222222231
 20
338.33777777777777
 30
0.0
 40
5.4294704861111107
  1
60
 41
0.8
 11
146.47222222222231
 21
343.7672482638888
 31
0.0
 73
     3
  0
LINE
  5
5A
  8
DIMNSIONS
  6
CONTINUOUS
 62
     7
 10
120.0000000000001
 20
304.0
 30
0.0
 11
120.0000000000001
 21
340.35000000000002
 31
0.0
  0
LINE
  5
5B
  8
DIMNSIONS
  6
CONTINUOUS
 62
     7
 10
113.25
 20
323.74999999999989
 30
0.0
 11
113.25
 21
340.35000000000002
 31
0.0
  0
LINE
  5
5C
  8
DIMNSIONS
  6
CONTINUOUS
 62
     7
 10
113.25
 20
336.35000000000002
 30
0.0
 11
120.0000000000001
 21
336.35000000000002
 31
0.0
  0
LINE
  5
5D
  8
DIMNSIONS
  6
CONTINUOUS
 62
     7
 10
120.0000000000001
 20
336.35000000000002
 30
0.0
 11
130.00000000000011
 21
336.35000000000002
 31
0.0
  0
LINE
  5
5E
  8
DIMNSIONS
  6
CONTINUOUS
 62
     7
 10
120.0000000000001
 20
336.35000000000002
 30
0.0
 11
125.00124511718759
 21
337.69007959030051
 31
0.0
  0
LINE
  5
5F
  8
DIMNSIONS
  6
CONTINUOUS
 62
     7
 10
120.0000000000001
 20
336.35000000000002
 30
0.0
 11
125.00124511718759
 21
335.00992040969948
 31
0.0
  0
LINE
  5
60
  8
DIMNSIONS
  6
CONTINUOUS
 62
     7
 10
113.25
 20
336.35000000000002
 30
0.0
 11
93.888888888888872
 21
336.35000000000002
 31
0.0
  0
LINE
  5
61
  8
DIMNSIONS
  6
CONTINUOUS
 62
     7
 10
113.25
 20
336.35000000000002
 30
0.0
 11
108.24875488281251
 21
335.00992040969948
 31
0.0
  0
LINE
  5
62
  8
DIMNSIONS
  6
CONTINUOUS
 62
     7
 10
113.25
 20
336.35000000000002
 30
0.0
 11
108.24875488281251
 21
337.69007959030051
 31
0.0
  0
TEXT
  5
63
  8
DIMNSIONS
 62
     7
 10
93.888888888888872
 20
338.33777777777777
 30
0.0
 40
5.4294704861111107
  1
6.75
 41
0.8
 11
93.888888888888872
 21
343.7672482638888
 31
0.0
 73
     3
  0
LINE
  5
64
  8
DIMNSIONS
  6
CONTINUOUS
 62
     7
 10
109.25
 20
319.74999999999989
 30
0.0
 11
66.5
 21
319.74999999999989
 31
0.0
  0
LINE
  5
65
  8
DIMNSIONS
  6
CONTINUOUS
 62
     7
 10
109.25
 20
280.24999999999989
 30
0.0
 11
66.5
 21
280.24999999999989
 31
0.0
  0
LINE
  5
66
  8
DIMNSIONS
  6
CONTINUOUS
 62
     7
 10
70.5
 20
319.74999999999989
 30
0.0
 11
70.5
 21
280.24999999999989
 31
0.0
  0
LINE
  5
67
  8
DIMNSIONS
  6
CONTINUOUS
 62
     7
 10
70.5
 20
319.74999999999989
 30
0.0
 11
71.840079590300491
 21
314.74875488281248
 31
0.0
  0
LINE
  5
68
  8
DIMNSIONS
  6
CONTINUOUS
 62
     7
 10
70.5
 20
319.74999999999989
 30
0.0
 11
69.159920409699509
 21
314.74875488281248
 31
0.0
  0
LINE
  5
69
  8
DIMNSIONS
  6
CONTINUOUS
 62
     7
 10
70.5
 20
280.24999999999989
 30
0.0
 11
69.159920409699509
 21
285.25124511718741
 31
0.0
  0
LINE
  5
6A
  8
DIMNSIONS
  6
CONTINUOUS
 62
     7
 10
70.5
 20
280.24999999999989
 30
0.0
 11
71.840079590300491
 21
285.25124511718741
 31
0.0
  0
TEXT
  5
6B
  8
DIMNSIONS
 62
     7
 10
68.512222222222221
 20
292.9444444444444
 30
0.0
 40
5.4294704861111107
  1
39.5
 50
90.0
 41
0.8
 11
63.082751736111113
 21
292.9444444444444
 31
0.0
 73
     3
  0
LINE
  5
6C
  8
DIMNSIONS
  6
CONTINUOUS
 62
     7
 10
116.0000000000001
 20
300.0
 30
0.0
 11
79.0
 21
300.0
 31
0.0
  0
LINE
  5
6D
  8
DIMNSIONS
  6
CONTINUOUS
 62
     7
 10
109.25
 20
319.74999999999989
 30
0.0
 11
79.0
 21
319.74999999999989
 31
0.0
  0
LINE
  5
6E
  8
DIMNSIONS
  6
CONTINUOUS
 62
     7
 10
83.0
 20
300.0
 30
0.0
 11
83.0
 21
319.74999999999989
 31
0.0
  0
LINE
  5
6F
  8
DIMNSIONS
  6
CONTINUOUS
 62
     7
 10
83.0
 20
300.0
 30
0.0
 11
81.659920409699524
 21
305.00124511718752
 31
0.0
  0
LINE
  5
70
  8
DIMNSIONS
  6
CONTINUOUS
 62
     7
 10
83.0
 20
300.0
 30
0.0
 11
84.340079590300505
 21
305.00124511718752
 31
0.0
  0
LINE
  5
71
  8
DIMNSIONS
  6
CONTINUOUS
 62
     7
 10
83.0
 20
319.74999999999989
 30
0.0
 11
84.340079590300505
 21
314.74875488281248
 31
0.0
  0
LINE
  5
72
  8
DIMNSIONS
  6
CONTINUOUS
 62
     7
 10
83.0
 20
319.74999999999989
 30
0.0
 11
81.659920409699524
 21
314.74875488281248
 31
0.0
  0
TEXT
  5
73
  8
DIMNSIONS
 62
     7
 10
81.012222222222206
 20
301.0555555555556
 30
0.0
 40
5.4294704861111107
  1
19.75
 50
90.0
 41
0.8
 11
75.582751736111092
 21
301.0555555555556
 31
0.0
 73
     3
  0
LINE
  5
74
  8
DIMNSIONS
  6
CONTINUOUS
 62
     7
 10
121.6999999999998
 20
69.999999999999872
 30
0.0
 11
96.0
 21
69.999999999999872
 31
0.0
  0
LINE
  5
75
  8
DIMNSIONS
  6
CONTINUOUS
 62
     7
 10
104.0
 20
199.9999999999998
 30
0.0
 11
96.0
 21
199.9999999999998
 31
0.0
  0
LINE
  5
76
  8
DIMNSIONS
  6
CONTINUOUS
 62
     7
 10
100.0
 20
69.999999999999872
 30
0.0
 11
100.0
 21
199.9999999999998
 31
0.0
  0
LINE
  5
77
  8
DIMNSIONS
  6
CONTINUOUS
 62
     7
 10
100.0
 20
69.999999999999872
 30
0.0
 11
98.659920409699509
 21
75.001245117187352
 31
0.0
  0
LINE
  5
78
  8
DIMNSIONS
  6
CONTINUOUS
 62
     7
 10
100.0
 20
69.999999999999872
 30
0.0
 11
101.3400795903005
 21
75.001245117187352
 31
0.0
  0
LINE
  5
79
  8
DIMNSIONS
  6
CONTINUOUS
 62
     7
 10
100.0
 20
199.9999999999998
 30
0.0
 11
101.3400795903005
 21
194.99875488281239
 31
0.0
  0
LINE
  5
7A
  8
DIMNSIONS
  6
CONTINUOUS
 62
     7
 10
100.0
 20
199.9999999999998
 30
0.0
 11
98.659920409699509
 21
194.99875488281239
 31
0.0
  0
TEXT
  5
7B
  8
DIMNSIONS
 62
     7
 10
98.012222222222221
 20
129.70833333333309
 30
0.0
 40
5.4294704861111107
  1
130
 50
90.0
 41
0.8
 11
92.582751736111078
 21
129.70833333333309
 31
0.0
 73
     3
  0
LINE
  5
7C
  8
DIMNSIONS
  6
CONTINUOUS
 62
     7
 10
114.5999999999997
 20
77.099999999999923
 30
0.0
 11
114.5999999999997
 21
46.0
 31
0.0
  0
LINE
  5
7D
  8
DIMNSIONS
  6
CONTINUOUS
 62
     7
 10
186.75
 20
187.99999999999989
 30
0.0
 11
186.75
 21
46.0
 31
0.0
  0
LINE
  5
7E
  8
DIMNSIONS
  6
CONTINUOUS
 62
     7
 10
114.5999999999997
 20
50.0
 30
0.0
 11
186.75
 21
50.0
 31
0.0
  0
LINE
  5
7F
  8
DIMNSIONS
  6
CONTINUOUS
 62
     7
 10
114.5999999999997
 20
50.0
 30
0.0
 11
119.6012451171873
 21
51.340079590300491
 31
0.0
  0
LINE
  5
80
  8
DIMNSIONS
  6
CONTINUOUS
 62
     7
 10
114.5999999999997
 20
50.0
 30
0.0
 11
119.6012451171873
 21
48.659920409699509
 31
0.0
  0
LINE
  5
81
  8
DIMNSIONS
  6
CONTINUOUS
 62
     7
 10
186.75
 20
50.0
 30
0.0
 11
181.74875488281239
 21
48.659920409699509
 31
0.0
  0
LINE
  5
82
  8
DIMNSIONS
  6
CONTINUOUS
 62
     7
 10
186.75
 20
50.0
 30
0.0
 11
181.74875488281239
 21
51.340079590300491
 31
0.0
  0
TEXT
  5
83
  8
DIMNSIONS
 62
     7
 10
147.1472222222221
 20
51.987777777777779
 30
0.0
 40
5.4294704861111107
  1
72
 41
0.8
 11
147.1472222222221
 21
57.417248263888901
 31
0.0
 73
     3
  0
LINE
  5
84
  8
DIMNSIONS
  6
CONTINUOUS
 62
     7
 10
117.7499999999998
 20
191.99999999999989
 30
0.0
 11
73.760254550958152
 21
162.49999999999989
 31
0.0
  0
LINE
  5
85
  8
DIMNSIONS
  6
CONTINUOUS
 62
     7
 10
117.7499999999998
 20
191.99999999999989
 30
0.0
 11
113.35113288749849
 21
187.11456313378531
 31
0.0
  0
LINE
  5
86
  8
DIMNSIONS
  6
CONTINUOUS
 62
     7
 10
117.7499999999998
 20
191.99999999999989
 30
0.0
 11
111.49775089959439
 21
189.96852112152371
 31
0.0
  0
LINE
  5
87
  8
DIMNSIONS
  6
CONTINUOUS
 62
     7
 10
12.95753022960252
 20
193.2666098769264
 30
0.0
 11
48.760254550958173
 21
162.49999999999989
 31
0.0
  0
LINE
  5
88
  8
DIMNSIONS
  6
CONTINUOUS
 62
     7
 10
12.95753022960252
 20
193.2666098769264
 30
0.0
 11
18.86620565649984
 21
190.38475631597041
 31
0.0
  0
LINE
  5
89
  8
DIMNSIONS
  6
CONTINUOUS
 62
     7
 10
12.95753022960252
 20
193.2666098769264
 30
0.0
 11
16.633666471534411
 21
187.81651376970311
 31
0.0
  0
LINE
  5
8A
  8
DIMNSIONS
  6
CONTINUOUS
 62
     7
 10
48.760254550958173
 20
162.49999999999989
 30
0.0
 11
73.760254550958152
 21
162.49999999999989
 31
0.0
  0
TEXT
  5
8B
  8
DIMNSIONS
 62
     7
 10
52.83203125
 20
164.61328124999989
 30
0.0
 40
4.959869384765625
  1
ベース
 41
0.8
 11
52.83203125
 21
169.57315063476551
 31
0.0
 73
     3
  0
LINE
  5
8C
  8
DIMNSIONS
  6
CONTINUOUS
 62
     7
 10
181.7183980866981
 20
302.93378731601689
 30
0.0
 11
201.2911720322935
 21
336.35000000000002
 31
0.0
  0
LINE
  5
8D
  8
DIMNSIONS
  6
CONTINUOUS
 62
     7
 10
181.7183980866981
 20
302.93378731601689
 30
0.0
 11
183.1455573388638
 21
307.9108831056808
 31
0.0
  0
LINE
  5
8E
  8
DIMNSIONS
  6
CONTINUOUS
 62
     7
 10
181.7183980866981
 20
302.93378731601689
 30
0.0
 11
185.44290214915159
 21
306.53049908085148
 31
0.0
  0
LINE
  5
8F
  8
DIMNSIONS
  6
CONTINUOUS
 62
     7
 10
201.2911720322935
 20
336.35000000000002
 30
0.0
 11
229.98561647673799
 21
336.35000000000002
 31
0.0
  0
TEXT
  5
90
  8
DIMNSIONS
 62
     7
 10
205.2911720322935
 20
338.33777777777777
 30
0.0
 40
5.4294704861111107
  1
2-φ6.8
 41
0.8
 11
205.2911720322935
 21
343.7672482638888
 31
0.0
 73
     3
  0
TEXT
  5
91
  8
DATA
 62
     7
 10
200.0
 20
-79.706404999999975
 30
0.0
 40
4.8865234375000002
  1
JBL
 41
0.8
 11
200.0
 21
-74.819881562499972
 31
0.0
 73
     3
  0
TEXT
  5
92
  8
DATA
 62
     7
 10
-60.0
 20
-107.99218500000001
 30
0.0
 40
3.2576822916666659
  1
仕様および外観は予告なく変更されることがありますので、ご了承ください。
 41
0.8
 11
-60.0
 21
-104.7345027083333
 31
0.0
 73
     3
  0
LINE
  5
93
  8
DATA
  6
CONTINUOUS
 62
     7
 10
75.0
 20
199.9999999999998
 30
0.0
 11
225.0
 21
199.9999999999998
 31
0.0
  0
LINE
  5
94
  8
DATA
  6
CONTINUOUS
 62
     7
 10
75.0
 20
249.99999999999989
 30
0.0
 11
125.0000000000001
 21
199.9999999999998
 31
0.0
  0
LINE
  5
95
  8
DATA
  6
CONTINUOUS
 62
     7
 10
75.0
 20
224.99999999999989
 30
0.0
 11
100.0000000000001
 21
199.9999999999998
 31
0.0
  0
LINE
  5
96
  8
DATA
  6
CONTINUOUS
 62
     7
 10
-3.1000000000003629
 20
182.59999999999999
 30
0.0
 11
-3.1000000000000218
 21
91.758330075579394
 31
0.0
  0
LINE
  5
97
  8
DATA
  6
CONTINUOUS
 62
     7
 10
3.1000000000000218
 20
91.758330075579437
 30
0.0
 11
3.1000000000000218
 21
182.59999999999999
 31
0.0
  0
LINE
  5
98
  8
DATA
  6
CONTINUOUS
 62
     7
 10
-19.749999999999879
 20
-18.75000000000005
 30
0.0
 11
30.25000000000011
 21
-18.75000000000005
 31
0.0
  0
LINE
  5
99
  8
DATA
  6
CONTINUOUS
 62
     7
 10
30.25000000000011
 20
-31.25000000000005
 30
0.0
 11
-19.749999999999879
 21
-31.25000000000005
 31
0.0
  0
LINE
  5
9A
  8
DATA
  6
CONTINUOUS
 62
     7
 10
-19.749999999999879
 20
-31.25000000000005
 30
0.0
 11
-19.749999999999879
 21
-18.75000000000005
 31
0.0
  0
TEXT
  5
9B
  8
DATA
 62
     7
 10
-11.58610521417665
 20
-28.38671875000006
 30
0.0
 40
4.959869384765625
  1
天井　取付図
 41
0.8
 11
-11.58610521417665
 21
-23.426849365234428
 31
0.0
 73
     3
  0
LINE
  5
9C
  8
DATA
  6
CONTINUOUS
 62
     7
 10
30.25000000000011
 20
-18.75000000000005
 30
0.0
 11
30.25000000000011
 21
-31.25000000000005
 31
0.0
  0
LINE
  5
9D
  8
DATA
  6
CONTINUOUS
 62
     7
 10
-3.1000000000000218
 20
91.758330075579394
 30
0.0
 11
3.1000000000000218
 21
91.758330075579437
 31
0.0
  0
ARC
  5
9E
  8
DATA
  6
CONTINUOUS
 62
     7
 10
0.0
 20
81.100000000000037
 30
0.0
 40
11.09999999999998
 50
106.21719456321669
 51
73.78280543678332
  0
LINE
  5
9F
  8
DATA
  6
CONTINUOUS
 62
     7
 10
-50.000000000000021
 20
250.0
 30
0.0
 11
0.0000000000001137
 21
200.0
 31
0.0
  0
LINE
  5
A0
  8
DATA
  6
CONTINUOUS
 62
     7
 10
-50.000000000000021
 20
200.0
 30
0.0
 11
50.000000000000099
 21
200.0
 31
0.0
  0
LINE
  5
A1
  8
DATA
  6
CONTINUOUS
 62
     7
 10
-25.0
 20
250.0
 30
0.0
 11
-6.25
 21
231.25
 31
0.0
  0
LINE
  5
A2
  8
DATA
  6
CONTINUOUS
 62
     7
 10
-19.749999999999879
 20
200.0
 30
0.0
 11
19.75
 21
200.0
 31
0.0
  0
ARC
  5
A3
  8
DATA
  6
CONTINUOUS
 62
     7
 10
0.0000000000001137
 20
222.2268656716428
 30
0.0
 40
31.72686567164261
 50
232.07560857082251
 51
307.9243914291776
  0
LINE
  5
A4
  8
DATA
  6
CONTINUOUS
 62
     7
 10
-50.000000000000021
 20
225.0
 30
0.0
 11
-24.99999999999989
 21
200.0
 31
0.0
  0
LINE
  5
A5
  8
DATA
  6
CONTINUOUS
 62
     7
 10
-19.5
 20
197.1999999999999
 30
0.0
 11
-19.749999999999879
 21
200.0
 31
0.0
  0
LINE
  5
A6
  8
DATA
  6
CONTINUOUS
 62
     7
 10
0.0
 20
250.0
 30
0.0
 11
50.000000000000099
 21
200.0
 31
0.0
  0
LINE
  5
A7
  8
DATA
  6
CONTINUOUS
 62
     7
 10
25.0
 20
250.0
 30
0.0
 11
50.000000000000099
 21
225.0
 31
0.0
  0
LINE
  5
A8
  8
DATA
  6
CONTINUOUS
 62
     7
 10
6.2500000000001128
 20
218.75
 30
0.0
 11
25.00000000000011
 21
200.0
 31
0.0
  0
LINE
  5
A9
  8
DATA
  6
CONTINUOUS
 62
     7
 10
-9.7499999999998863
 20
195.59999999999999
 30
0.0
 11
9.75
 21
195.59999999999999
 31
0.0
  0
LINE
  5
AA
  8
DATA
  6
CONTINUOUS
 62
     7
 10
-9.7499999999998863
 20
192.03528563106769
 30
0.0
 11
-9.7499999999998863
 21
195.59999999999999
 31
0.0
  0
LINE
  5
AB
  8
DATA
  6
CONTINUOUS
 62
     7
 10
-4.8497422611926604
 20
182.59999999999999
 30
0.0
 11
-4.8497422611926604
 21
187.40000000000001
 31
0.0
  0
LINE
  5
AC
  8
DATA
  6
CONTINUOUS
 62
     7
 10
4.849742261192886
 20
182.59999999999999
 30
0.0
 11
4.849742261192886
 21
187.40000000000001
 31
0.0
  0
LINE
  5
AD
  8
DATA
  6
CONTINUOUS
 62
     7
 10
0.0
 20
182.59999999999999
 30
0.0
 11
0.0
 21
187.40000000000001
 31
0.0
  0
LINE
  5
AE
  8
DATA
  6
CONTINUOUS
 62
     7
 10
-4.8497422611926604
 20
182.59999999999999
 30
0.0
 11
4.849742261192886
 21
182.59999999999999
 31
0.0
  0
LINE
  5
AF
  8
DATA
  6
CONTINUOUS
 62
     7
 10
7.4999999999998863
 20
188.69999999999999
 30
0.0
 11
7.4999999999998863
 21
191.39921565827879
 31
0.0
  0
LINE
  5
B0
  8
DATA
  6
CONTINUOUS
 62
     7
 10
-7.5000000000001128
 20
188.69999999999999
 30
0.0
 11
-7.5000000000001128
 21
191.39921565827891
 31
0.0
  0
LINE
  5
B1
  8
DATA
  6
CONTINUOUS
 62
     7
 10
-7.5
 20
188.69999999999999
 30
0.0
 11
7.5
 21
188.69999999999999
 31
0.0
  0
LINE
  5
B2
  8
DATA
  6
CONTINUOUS
 62
     7
 10
-5.3999999999999764
 20
187.40000000000009
 30
0.0
 11
5.3999999999999764
 21
187.40000000000001
 31
0.0
  0
LINE
  5
B3
  8
DATA
  6
CONTINUOUS
 62
     7
 10
-5.4000000000000901
 20
187.40000000000009
 30
0.0
 11
-5.4000000000000901
 21
188.69999999999999
 31
0.0
  0
LINE
  5
B4
  8
DATA
  6
CONTINUOUS
 62
     7
 10
2.9999999999998859
 20
187.40000000000009
 30
0.0
 11
3.0
 21
188.69999999999999
 31
0.0
  0
LINE
  5
B5
  8
DATA
  6
CONTINUOUS
 62
     7
 10
5.3999999999998627
 20
187.40000000000001
 30
0.0
 11
5.3999999999998627
 21
188.69999999999999
 31
0.0
  0
LINE
  5
B6
  8
DATA
  6
CONTINUOUS
 62
     7
 10
19.50000000000011
 20
197.1999999999999
 30
0.0
 11
19.75
 21
200.0
 31
0.0
  0
LINE
  5
B7
  8
DATA
  6
CONTINUOUS
 62
     7
 10
9.75
 20
192.03528563106769
 30
0.0
 11
9.75
 21
195.59999999999999
 31
0.0
  0
TEXT
  5
B8
  8
DATA
 62
     7
 10
-5.4548352094484471
 20
221.61328125
 30
0.0
 40
4.959869384765625
  1
天井
 41
0.8
 11
-5.4548352094484471
 21
226.5731506347656
 31
0.0
 73
     3
  0
LINE
  5
B9
  8
DATA
  6
CONTINUOUS
 62
     7
 10
146.89999999999981
 20
94.80614872174371
 30
0.0
 11
146.89999999999981
 21
182.59999999999999
 31
0.0
  0
LINE
  5
BA
  8
DATA
  6
CONTINUOUS
 62
     7
 10
153.09999999999991
 20
91.226577052768093
 30
0.0
 11
153.09999999999991
 21
182.59999999999999
 31
0.0
  0
LINE
  5
BB
  8
DATA
  6
CONTINUOUS
 62
     7
 10
113.25
 20
-12.50000000000005
 30
0.0
 11
113.25
 21
26.99999999999995
 31
0.0
  0
LINE
  5
BC
  8
DATA
  6
CONTINUOUS
 62
     7
 10
186.75
 20
27.0
 30
0.0
 11
186.75
 21
-12.5
 31
0.0
  0
LINE
  5
BD
  8
DATA
  6
CONTINUOUS
 62
     7
 10
186.75
 20
-12.5
 30
0.0
 11
113.25
 21
-12.50000000000005
 31
0.0
  0
LINE
  5
BE
  8
DATA
  6
CONTINUOUS
 62
     7
 10
136.35833007557909
 20
4.1499999999999764
 30
0.0
 11
150.0
 21
4.1499999999999764
 31
0.0
  0
LINE
  5
BF
  8
DATA
  6
CONTINUOUS
 62
     7
 10
136.35833007557909
 20
10.349999999999961
 30
0.0
 11
150.00000000000011
 21
10.350000000000019
 31
0.0
  0
LINE
  5
C0
  8
DATA
  6
CONTINUOUS
 62
     7
 10
113.25
 20
26.99999999999995
 30
0.0
 11
186.75
 21
27.0
 31
0.0
  0
LINE
  5
C1
  8
DATA
  6
CONTINUOUS
 62
     7
 10
136.77772196565019
 20
81.802905435848402
 30
0.0
 11
153.09999999999991
 21
91.226577052768093
 31
0.0
  0
LINE
  5
C2
  8
DATA
  6
CONTINUOUS
 62
     7
 10
134.6148314102503
 20
87.713303329411843
 30
0.0
 11
146.89999999999981
 21
94.806148721743781
 31
0.0
  0
ARC
  5
C3
  8
DATA
  6
CONTINUOUS
 62
     7
 10
150.00000000000011
 20
7.25
 30
0.0
 40
7.5000000000000187
 50
204.4144023149297
 51
155.5855976850703
  0
LINE
  5
C4
  8
DATA
  6
CONTINUOUS
 62
     7
 10
145.6698729810779
 20
4.1499999999999764
 30
0.0
 11
150.0
 21
1.649999999999977
 31
0.0
  0
ARC
  5
C5
  8
DATA
  6
CONTINUOUS
 62
     7
 10
150.00000000000011
 20
7.25
 30
0.0
 40
5.3999999999999924
 50
215.03481479427771
 51
266.09051164093989
  0
LINE
  5
C6
  8
DATA
  6
CONTINUOUS
 62
     7
 10
145.6698729810781
 20
10.350000000000019
 30
0.0
 11
150.0
 21
12.85000000000003
 31
0.0
  0
ARC
  5
C7
  8
DATA
  6
CONTINUOUS
 62
     7
 10
150.00000000000011
 20
7.25
 30
0.0
 40
5.399999999999979
 50
93.909488359057718
 51
144.96518520572289
  0
CIRCLE
  5
C8
  8
DATA
  6
CONTINUOUS
 62
     7
 10
125.6999999999998
 20
7.2499999999999423
 30
0.0
 40
11.100000000000019
  0
LINE
  5
C9
  8
DATA
  6
CONTINUOUS
 62
     7
 10
113.25
 20
-2.5
 30
0.0
 11
119.5000000000001
 21
-2.5
 31
0.0
  0
ARC
  5
CA
  8
DATA
  6
CONTINUOUS
 62
     7
 10
119.5000000000001
 20
7.2499999999999423
 30
0.0
 40
9.7499999999999432
 50
270.0
 51
274.88363502211348
  0
LINE
  5
CB
  8
DATA
  6
CONTINUOUS
 62
     7
 10
113.25
 20
16.99999999999995
 30
0.0
 11
119.5000000000001
 21
16.99999999999995
 31
0.0
  0
ARC
  5
CC
  8
DATA
  6
CONTINUOUS
 62
     7
 10
119.5000000000001
 20
7.2499999999999423
 30
0.0
 40
9.7499999999999822
 50
85.116364977886477
 51
90.0
  0
ARC
  5
CD
  8
DATA
  6
CONTINUOUS
 62
     7
 10
125.6999999999998
 20
81.099999999999937
 30
0.0
 40
11.100000000000049
 50
36.569190554116247
 51
3.630673865390285
  0
LINE
  5
CE
  8
DATA
  6
CONTINUOUS
 62
     7
 10
134.6148314102503
 20
87.713303329411843
 30
0.0
 11
136.77772196565019
 21
81.802905435848402
 31
0.0
  0
ARC
  5
CF
  8
DATA
  6
CONTINUOUS
 62
     7
 10
180.5
 20
7.25
 30
0.0
 40
9.75
 50
90.0
 51
270.0
  0
LINE
  5
D0
  8
DATA
  6
CONTINUOUS
 62
     7
 10
186.75
 20
-2.5
 30
0.0
 11
180.5
 21
-2.5
 31
0.0
  0
LINE
  5
D1
  8
DATA
  6
CONTINUOUS
 62
     7
 10
154.8497422611928
 20
4.4499999999999309
 30
0.0
 11
154.849742261193
 21
10.049999999999899
 31
0.0
  0
ARC
  5
D2
  8
DATA
  6
CONTINUOUS
 62
     7
 10
150.00000000000011
 20
7.25
 30
0.0
 40
3.1000000000000218
 50
269.99999999999801
 51
89.999999999999957
  0
ARC
  5
D3
  8
DATA
  6
CONTINUOUS
 62
     7
 10
150.00000000000011
 20
7.25
 30
0.0
 40
5.4000000000000252
 50
333.90948835905652
 51
26.090511640942449
  0
CIRCLE
  5
D4
  8
DATA
  6
CONTINUOUS
 62
     7
 10
180.0
 20
7.25
 30
0.0
 40
3.4000000000000901
  0
LINE
  5
D5
  8
DATA
  6
CONTINUOUS
 62
     7
 10
150.0
 20
1.649999999999977
 30
0.0
 11
154.8497422611928
 21
4.4499999999999309
 31
0.0
  0
ARC
  5
D6
  8
DATA
  6
CONTINUOUS
 62
     7
 10
150.00000000000011
 20
7.25
 30
0.0
 40
5.399999999999979
 50
273.90948835905772
 51
326.09051164094132
  0
LINE
  5
D7
  8
DATA
  6
CONTINUOUS
 62
     7
 10
150.0
 20
12.85000000000003
 30
0.0
 11
154.849742261193
 21
10.049999999999899
 31
0.0
  0
ARC
  5
D8
  8
DATA
  6
CONTINUOUS
 62
     7
 10
150.00000000000011
 20
7.25
 30
0.0
 40
5.3999999999999986
 50
33.909488359056063
 51
86.090511640942267
  0
LINE
  5
D9
  8
DATA
  6
CONTINUOUS
 62
     7
 10
186.75
 20
17.0
 30
0.0
 11
180.5
 21
17.0
 31
0.0
  0
LINE
  5
DA
  8
DATA
  6
CONTINUOUS
 62
     7
 10
150.0
 20
249.99999999999989
 30
0.0
 11
200.0
 21
199.9999999999998
 31
0.0
  0
LINE
  5
DB
  8
DATA
  6
CONTINUOUS
 62
     7
 10
175.0
 20
249.99999999999989
 30
0.0
 11
225.00000000000031
 21
199.9999999999998
 31
0.0
  0
LINE
  5
DC
  8
DATA
  6
CONTINUOUS
 62
     7
 10
113.25
 20
280.24999999999989
 30
0.0
 11
113.25
 21
319.74999999999989
 31
0.0
  0
LINE
  5
DD
  8
DATA
  6
CONTINUOUS
 62
     7
 10
186.75
 20
319.74999999999989
 30
0.0
 11
186.75
 21
280.25000000000011
 31
0.0
  0
ARC
  5
DE
  8
DATA
  6
CONTINUOUS
 62
     7
 10
120.0000000000001
 20
300.0
 30
0.0
 40
12.75
 50
270.0
 51
349.10026454591122
  0
CIRCLE
  5
DF
  8
DATA
  6
CONTINUOUS
 62
     7
 10
120.0000000000001
 20
300.0
 30
0.0
 40
3.3999999999999768
  0
ARC
  5
E0
  8
DATA
  6
CONTINUOUS
 62
     7
 10
180.0
 20
300.0
 30
0.0
 40
12.750000000000011
 50
190.89973545409069
 51
270.0
  0
CIRCLE
  5
E1
  8
DATA
  6
CONTINUOUS
 62
     7
 10
150.0
 20
300.0
 30
0.0
 40
8.2250000000001364
  0
ARC
  5
E2
  8
DATA
  6
CONTINUOUS
 62
     7
 10
150.0
 20
300.0
 30
0.0
 40
11.499999999999901
 50
192.0051728307518
 51
257.99482716924717
  0
ARC
  5
E3
  8
DATA
  6
CONTINUOUS
 62
     7
 10
150.0
 20
300.0
 30
0.0
 40
11.500000000000011
 50
282.00517283075288
 51
347.99482716924769
  0
LINE
  5
E4
  8
DATA
  6
CONTINUOUS
 62
     7
 10
154.8497422611928
 20
297.19999999999987
 30
0.0
 11
154.849742261193
 21
302.7999999999999
 31
0.0
  0
LINE
  5
E5
  8
DATA
  6
CONTINUOUS
 62
     7
 10
145.15025773880711
 20
302.7999999999999
 30
0.0
 11
145.15025773880731
 21
297.19999999999987
 31
0.0
  0
CIRCLE
  5
E6
  8
DATA
  6
CONTINUOUS
 62
     7
 10
150.0
 20
300.0
 30
0.0
 40
3.100000000000136
  0
CIRCLE
  5
E7
  8
DATA
  6
CONTINUOUS
 62
     7
 10
180.0
 20
300.0
 30
0.0
 40
3.4000000000000901
  0
LINE
  5
E8
  8
DATA
  6
CONTINUOUS
 62
     7
 10
100.0000000000001
 20
249.99999999999989
 30
0.0
 11
150.00000000000011
 21
199.9999999999998
 31
0.0
  0
LINE
  5
E9
  8
DATA
  6
CONTINUOUS
 62
     7
 10
113.25
 20
200.0
 30
0.0
 11
186.75
 21
200.0
 31
0.0
  0
LINE
  5
EA
  8
DATA
  6
CONTINUOUS
 62
     7
 10
113.25
 20
197.1999999999999
 30
0.0
 11
186.75
 21
197.1999999999999
 31
0.0
  0
LINE
  5
EB
  8
DATA
  6
CONTINUOUS
 62
     7
 10
129.63236609491469
 20
190.5
 30
0.0
 11
170.36763390508511
 21
190.49999999999989
 31
0.0
  0
LINE
  5
EC
  8
DATA
  6
CONTINUOUS
 62
     7
 10
186.75
 20
280.25000000000011
 30
0.0
 11
113.25
 21
280.24999999999989
 31
0.0
  0
LINE
  5
ED
  8
DATA
  6
CONTINUOUS
 62
     7
 10
117.5500000000002
 20
283.55000000000001
 30
0.0
 11
147.40000000000009
 21
283.55000000000001
 31
0.0
  0
LINE
  5
EE
  8
DATA
  6
CONTINUOUS
 62
     7
 10
145.15025773880731
 20
182.59999999999999
 30
0.0
 11
154.8497422611928
 21
182.59999999999999
 31
0.0
  0
LINE
  5
EF
  8
DATA
  6
CONTINUOUS
 62
     7
 10
142.50000000000011
 20
188.69999999999999
 30
0.0
 11
157.50000000000011
 21
188.69999999999999
 31
0.0
  0
LINE
  5
F0
  8
DATA
  6
CONTINUOUS
 62
     7
 10
144.59999999999999
 20
187.40000000000009
 30
0.0
 11
155.39999999999989
 21
187.40000000000001
 31
0.0
  0
TEXT
  5
F1
  8
DATA
 62
     7
 10
144.5451647905515
 20
221.61328124999989
 30
0.0
 40
4.959869384765625
  1
天井
 41
0.8
 11
144.5451647905515
 21
226.57315063476551
 31
0.0
 73
     3
  0
LINE
  5
F2
  8
DATA
  6
CONTINUOUS
 62
     7
 10
145.15025773880731
 20
297.19999999999987
 30
0.0
 11
150.0
 21
294.39999999999992
 31
0.0
  0
LINE
  5
F3
  8
DATA
  6
CONTINUOUS
 62
     7
 10
113.25
 20
191.99999999999989
 30
0.0
 11
119.1176339050848
 21
192.0
 31
0.0
  0
LINE
  5
F4
  8
DATA
  6
CONTINUOUS
 62
     7
 10
113.25
 20
191.99999999999989
 30
0.0
 11
113.25
 21
200.0
 31
0.0
  0
ARC
  5
F5
  8
DATA
  6
CONTINUOUS
 62
     7
 10
119.1176339050848
 20
187.00000000000011
 30
0.0
 40
5.0000000000000284
 50
81.253837737444101
 51
90.0
  0
LINE
  5
F6
  8
DATA
  6
CONTINUOUS
 62
     7
 10
119.8779198263546
 20
191.9418584882531
 30
0.0
 11
128.87208017364489
 21
190.5581415117469
 31
0.0
  0
ARC
  5
F7
  8
DATA
  6
CONTINUOUS
 62
     7
 10
129.63236609491469
 20
195.5
 30
0.0
 40
5.0000000000000089
 50
261.25383773744539
 51
270.0
  0
LINE
  5
F8
  8
DATA
  6
CONTINUOUS
 62
     7
 10
145.15025773880731
 20
182.59999999999999
 30
0.0
 11
145.15025773880731
 21
187.40000000000001
 31
0.0
  0
LINE
  5
F9
  8
DATA
  6
CONTINUOUS
 62
     7
 10
142.4999999999998
 20
188.69999999999999
 30
0.0
 11
142.4999999999998
 21
190.5
 31
0.0
  0
LINE
  5
FA
  8
DATA
  6
CONTINUOUS
 62
     7
 10
144.59999999999991
 20
187.40000000000009
 30
0.0
 11
144.59999999999991
 21
188.69999999999999
 31
0.0
  0
ARC
  5
FB
  8
DATA
  6
CONTINUOUS
 62
     7
 10
117.5499999999999
 20
286.24999999999989
 30
0.0
 40
1.0
 50
89.999999999993506
 51
180.0
  0
LINE
  5
FC
  8
DATA
  6
CONTINUOUS
 62
     7
 10
125.0
 20
249.99999999999989
 30
0.0
 11
143.75
 21
231.25
 31
0.0
  0
ARC
  5
FD
  8
DATA
  6
CONTINUOUS
 62
     7
 10
117.5500000000002
 20
284.5499999999999
 30
0.0
 40
1.0
 50
180.0
 51
270.0
  0
LINE
  5
FE
  8
DATA
  6
CONTINUOUS
 62
     7
 10
116.5500000000002
 20
284.5499999999999
 30
0.0
 11
116.5499999999999
 21
286.24999999999989
 31
0.0
  0
LINE
  5
FF
  8
DATA
  6
CONTINUOUS
 62
     7
 10
117.5499999999999
 20
287.24999999999989
 30
0.0
 11
120.0000000000001
 21
287.24999999999989
 31
0.0
  0
LINE
  5
100
  8
DATA
  6
CONTINUOUS
 62
     7
 10
156.25000000000011
 20
218.74999999999989
 30
0.0
 11
175.0
 21
199.9999999999998
 31
0.0
  0
LINE
  5
101
  8
DATA
  6
CONTINUOUS
 62
     7
 10
171.1279198263548
 20
190.5581415117469
 30
0.0
 11
180.1220801736456
 21
191.9418584882531
 31
0.0
  0
LINE
  5
102
  8
DATA
  6
CONTINUOUS
 62
     7
 10
154.8497422611928
 20
182.59999999999999
 30
0.0
 11
154.8497422611928
 21
187.40000000000001
 31
0.0
  0
LINE
  5
103
  8
DATA
  6
CONTINUOUS
 62
     7
 10
150.0
 20
182.59999999999999
 30
0.0
 11
150.0
 21
187.40000000000001
 31
0.0
  0
LINE
  5
104
  8
DATA
  6
CONTINUOUS
 62
     7
 10
157.4999999999998
 20
188.69999999999999
 30
0.0
 11
157.4999999999998
 21
190.49999999999989
 31
0.0
  0
LINE
  5
105
  8
DATA
  6
CONTINUOUS
 62
     7
 10
153.0
 20
187.40000000000001
 30
0.0
 11
153.0
 21
188.69999999999999
 31
0.0
  0
LINE
  5
106
  8
DATA
  6
CONTINUOUS
 62
     7
 10
155.39999999999981
 20
187.40000000000001
 30
0.0
 11
155.39999999999981
 21
188.69999999999999
 31
0.0
  0
ARC
  5
107
  8
DATA
  6
CONTINUOUS
 62
     7
 10
170.36763390508511
 20
195.5
 30
0.0
 40
5.0
 50
270.0
 51
278.74616226255603
  0
LINE
  5
108
  8
DATA
  6
CONTINUOUS
 62
     7
 10
180.8823660949154
 20
192.0
 30
0.0
 11
186.75
 21
191.99999999999989
 31
0.0
  0
ARC
  5
109
  8
DATA
  6
CONTINUOUS
 62
     7
 10
180.8823660949154
 20
187.00000000000011
 30
0.0
 40
5.0
 50
90.0
 51
98.746162262555956
  0
LINE
  5
10A
  8
DATA
  6
CONTINUOUS
 62
     7
 10
186.75
 20
191.99999999999989
 30
0.0
 11
186.75
 21
200.0
 31
0.0
  0
LINE
  5
10B
  8
DATA
  6
CONTINUOUS
 62
     7
 10
151.60000000000011
 20
287.77338967660978
 30
0.0
 11
151.60000000000011
 21
284.5499999999999
 31
0.0
  0
LINE
  5
10C
  8
DATA
  6
CONTINUOUS
 62
     7
 10
148.40000000000009
 20
287.77338967661092
 30
0.0
 11
148.40000000000009
 21
284.5499999999999
 31
0.0
  0
ARC
  5
10D
  8
DATA
  6
CONTINUOUS
 62
     7
 10
182.44999999999999
 20
286.25000000000011
 30
0.0
 40
1.0
 50
0.0
 51
90.0
  0
LINE
  5
10E
  8
DATA
  6
CONTINUOUS
 62
     7
 10
152.60000000000011
 20
283.55000000000001
 30
0.0
 11
182.44999999999999
 21
283.55000000000001
 31
0.0
  0
ARC
  5
10F
  8
DATA
  6
CONTINUOUS
 62
     7
 10
152.60000000000011
 20
284.5499999999999
 30
0.0
 40
1.0
 50
180.0
 51
270.0
  0
ARC
  5
110
  8
DATA
  6
CONTINUOUS
 62
     7
 10
147.40000000000009
 20
284.5499999999999
 30
0.0
 40
1.0
 50
270.0
 51
0.0
  0
LINE
  5
111
  8
DATA
  6
CONTINUOUS
 62
     7
 10
183.44999999999999
 20
284.5499999999999
 30
0.0
 11
183.44999999999999
 21
286.25000000000011
 31
0.0
  0
ARC
  5
112
  8
DATA
  6
CONTINUOUS
 62
     7
 10
182.44999999999999
 20
284.5499999999999
 30
0.0
 40
1.0
 50
270.0
 51
0.0
  0
LINE
  5
113
  8
DATA
  6
CONTINUOUS
 62
     7
 10
182.44999999999999
 20
287.25
 30
0.0
 11
180.0
 21
287.24999999999989
 31
0.0
  0
LINE
  5
114
  8
DATA
  6
CONTINUOUS
 62
     7
 10
150.0
 20
294.39999999999992
 30
0.0
 11
154.8497422611928
 21
297.19999999999987
 31
0.0
  0
ARC
  5
115
  8
DATA
  6
CONTINUOUS
 62
     7
 10
152.60000000000011
 20
287.77338967660978
 30
0.0
 40
1.0000000000000291
 50
102.0051728307583
 51
180.0
  0
ARC
  5
116
  8
DATA
  6
CONTINUOUS
 62
     7
 10
147.40000000000009
 20
287.77338967661092
 30
0.0
 40
1.0
 50
0.0
 51
77.994827169241802
  0
LINE
  5
117
  8
DATA
  6
CONTINUOUS
 62
     7
 10
113.25
 20
319.74999999999989
 30
0.0
 11
186.75
 21
319.74999999999989
 31
0.0
  0
LINE
  5
118
  8
DATA
  6
CONTINUOUS
 62
     7
 10
117.5500000000001
 20
316.44999999999987
 30
0.0
 11
147.40000000000009
 21
316.4500000000001
 31
0.0
  0
ARC
  5
119
  8
DATA
  6
CONTINUOUS
 62
     7
 10
150.0
 20
300.0
 30
0.0
 40
11.5
 50
102.00517283075099
 51
167.99482716924479
  0
LINE
  5
11A
  8
DATA
  6
CONTINUOUS
 62
     7
 10
150.0
 20
305.59999999999991
 30
0.0
 11
145.15025773880711
 21
302.7999999999999
 31
0.0
  0
LINE
  5
11B
  8
DATA
  6
CONTINUOUS
 62
     7
 10
133.5019443044346
 20
298.39999999999992
 30
0.0
 11
137.7733896766093
 21
298.39999999999992
 31
0.0
  0
LINE
  5
11C
  8
DATA
  6
CONTINUOUS
 62
     7
 10
133.5019443044356
 20
301.5999999999998
 30
0.0
 11
137.77338967661279
 21
301.60000000000008
 31
0.0
  0
ARC
  5
11D
  8
DATA
  6
CONTINUOUS
 62
     7
 10
120.0000000000001
 20
300.0
 30
0.0
 40
12.75
 50
10.899735454087811
 51
90.000000000000028
  0
ARC
  5
11E
  8
DATA
  6
CONTINUOUS
 62
     7
 10
133.5019443044346
 20
297.39999999999992
 30
0.0
 40
1.0
 50
90.0
 51
169.10026454590971
  0
ARC
  5
11F
  8
DATA
  6
CONTINUOUS
 62
     7
 10
133.5019443044356
 20
302.59999999999991
 30
0.0
 40
1.000000000000034
 50
190.8997354540864
 51
270.0
  0
ARC
  5
120
  8
DATA
  6
CONTINUOUS
 62
     7
 10
117.5500000000001
 20
313.74999999999989
 30
0.0
 40
1.0
 50
180.0
 51
270.0
  0
LINE
  5
121
  8
DATA
  6
CONTINUOUS
 62
     7
 10
117.5500000000001
 20
312.74999999999972
 30
0.0
 11
120.0000000000001
 21
312.74999999999972
 31
0.0
  0
LINE
  5
122
  8
DATA
  6
CONTINUOUS
 62
     7
 10
116.5500000000001
 20
313.74999999999989
 30
0.0
 11
116.5500000000001
 21
315.44999999999999
 31
0.0
  0
ARC
  5
123
  8
DATA
  6
CONTINUOUS
 62
     7
 10
117.5500000000001
 20
315.44999999999999
 30
0.0
 40
1.0
 50
90.0
 51
180.0
  0
ARC
  5
124
  8
DATA
  6
CONTINUOUS
 62
     7
 10
137.7733896766093
 20
297.40000000000009
 30
0.0
 40
1.0000000000000611
 50
12.00517283075126
 51
90.0
  0
ARC
  5
125
  8
DATA
  6
CONTINUOUS
 62
     7
 10
137.77338967661279
 20
302.59999999999991
 30
0.0
 40
1.0
 50
270.0
 51
347.99482716924462
  0
ARC
  5
126
  8
DATA
  6
CONTINUOUS
 62
     7
 10
180.0
 20
300.0
 30
0.0
 40
12.75
 50
90.0
 51
169.10026454590849
  0
ARC
  5
127
  8
DATA
  6
CONTINUOUS
 62
     7
 10
150.0
 20
300.0
 30
0.0
 40
11.50000000000003
 50
12.00517283075197
 51
77.994827169247145
  0
ARC
  5
128
  8
DATA
  6
CONTINUOUS
 62
     7
 10
162.22661032339079
 20
297.39999999999992
 30
0.0
 40
1.0
 50
90.0
 51
167.99482716924811
  0
LINE
  5
129
  8
DATA
  6
CONTINUOUS
 62
     7
 10
162.22661032339079
 20
298.39999999999992
 30
0.0
 11
166.4980556955681
 21
298.39999999999992
 31
0.0
  0
ARC
  5
12A
  8
DATA
  6
CONTINUOUS
 62
     7
 10
166.4980556955681
 20
297.39999999999992
 30
0.0
 40
0.9999999999999333
 50
10.89973545409096
 51
90.0
  0
ARC
  5
12B
  8
DATA
  6
CONTINUOUS
 62
     7
 10
166.49805569556901
 20
302.59999999999991
 30
0.0
 40
1.0
 50
270.0
 51
349.10026454590661
  0
LINE
  5
12C
  8
DATA
  6
CONTINUOUS
 62
     7
 10
162.22661032339079
 20
301.5999999999998
 30
0.0
 11
166.49805569556901
 21
301.5999999999998
 31
0.0
  0
ARC
  5
12D
  8
DATA
  6
CONTINUOUS
 62
     7
 10
162.22661032339079
 20
302.59999999999991
 30
0.0
 40
1.0000000000000611
 50
192.00517283075121
 51
270.0
  0
LINE
  5
12E
  8
DATA
  6
CONTINUOUS
 62
     7
 10
154.849742261193
 20
302.7999999999999
 30
0.0
 11
150.0
 21
305.59999999999991
 31
0.0
  0
LINE
  5
12F
  8
DATA
  6
CONTINUOUS
 62
     7
 10
152.60000000000011
 20
316.4500000000001
 30
0.0
 11
182.44999999999979
 21
316.4500000000001
 31
0.0
  0
ARC
  5
130
  8
DATA
  6
CONTINUOUS
 62
     7
 10
147.40000000000009
 20
315.44999999999999
 30
0.0
 40
1.0
 50
0.0
 51
90.0
  0
LINE
  5
131
  8
DATA
  6
CONTINUOUS
 62
     7
 10
148.39999999999989
 20
312.2266103233913
 30
0.0
 11
148.40000000000009
 21
315.44999999999999
 31
0.0
  0
ARC
  5
132
  8
DATA
  6
CONTINUOUS
 62
     7
 10
147.40000000000009
 20
312.2266103233913
 30
0.0
 40
1.0000000000000051
 50
282.00517283075197
 51
0.0
  0
ARC
  5
133
  8
DATA
  6
CONTINUOUS
 62
     7
 10
152.60000000000011
 20
312.22661032338988
 30
0.0
 40
1.0
 50
179.9999999999967
 51
257.9948271692416
  0
LINE
  5
134
  8
DATA
  6
CONTINUOUS
 62
     7
 10
151.60000000000011
 20
312.2266103233901
 30
0.0
 11
151.60000000000011
 21
315.44999999999999
 31
0.0
  0
ARC
  5
135
  8
DATA
  6
CONTINUOUS
 62
     7
 10
152.60000000000011
 20
315.44999999999999
 30
0.0
 40
1.0
 50
90.0
 51
180.0
  0
ARC
  5
136
  8
DATA
  6
CONTINUOUS
 62
     7
 10
182.44999999999979
 20
315.45000000000022
 30
0.0
 40
1.0
 50
359.99999999999682
 51
90.0
  0
LINE
  5
137
  8
DATA
  6
CONTINUOUS
 62
     7
 10
183.4499999999999
 20
313.74999999999989
 30
0.0
 11
183.4499999999999
 21
315.44999999999999
 31
0.0
  0
ARC
  5
138
  8
DATA
  6
CONTINUOUS
 62
     7
 10
182.44999999999979
 20
313.74999999999989
 30
0.0
 40
1.0
 50
270.0
 51
0.0
  0
LINE
  5
139
  8
DATA
  6
CONTINUOUS
 62
     7
 10
182.44999999999979
 20
312.74999999999972
 30
0.0
 11
180.0
 21
312.74999999999972
 31
0.0
  0
LINE
  5
13A
  8
DATA
  6
CONTINUOUS
 62
     7
 10
200.0
 20
249.99999999999989
 30
0.0
 11
225.0
 21
225.0
 31
0.0
  0
TEXT
  5
13B
  8
DATA
 62
     7
 10
190.7894863271485
 20
-92.285999999999973
 30
0.0
 40
4.8865234375000002
  1
MTC-23CM & MTC-23CM-WH
 41
0.8
 11
190.7894863271485
 21
-87.399476562499984
 31
0.0
 73
     3
  0
TEXT
  5
13C
  8
DATA
 62
     7
 10
75.0
 20
-52.286000000000008
 30
0.0
 40
4.8865234375000002
  1
注）MTC-23CMにはベースは付属していません。
 41
0.8
 11
75.0
 21
-47.399476562500013
 31
0.0
 73
     3
  0
TEXT
  5
13D
  8
DATA
 62
     7
 10
75.0
 20
-64.786000000000016
 30
0.0
 40
4.8865234375000002
  1
（ベースはスピーカーに付属している取付金具を使用します。）
 41
0.8
 11
75.0
 21
-59.899476562500013
 31
0.0
 73
     3
  0
ENDSEC
  0
EOF
