  0
SECTION
  2
HEADER
  9
$ACADVER
  1
AC1009
  9
$INSBASE
 10
0.0
 20
0.0
 30
0.0
  9
$EXTMIN
 10
-170.0181122223014
 20
-265.7869460180338
 30
-0.0015258207003583
  9
$EXTMAX
 10
423.56469867502773
 20
537.08813217679699
 30
0.0000000349246037
  9
$LIMMIN
 10
0.0
 20
0.0
  9
$LIMMAX
 10
0.0
 20
0.0
  9
$ORTHOMODE
 70
     0
  9
$REGENMODE
 70
     1
  9
$FILLMODE
 70
     1
  9
$QTEXTMODE
 70
     0
  9
$MIRRTEXT
 70
     1
  9
$DRAGMODE
 70
     2
  9
$LTSCALE
 40
15.24
  9
$OSMODE
 70
   231
  9
$ATTMODE
 70
     1
  9
$TEXTSIZE
 40
0.0
  9
$TRACEWID
 40
1.0
  9
$TEXTSTYLE
  7
STANDARD
  9
$CLAYER
  8
DATA
  9
$CELTYPE
  6
CONTINUOUS
  9
$CECOLOR
 62
   256
  9
$DIMSCALE
 40
1.0
  9
$DIMASZ
 40
0.18
  9
$DIMEXO
 40
0.0625
  9
$DIMDLI
 40
0.38
  9
$DIMRND
 40
0.0
  9
$DIMDLE
 40
0.0
  9
$DIMEXE
 40
0.18
  9
$DIMTP
 40
0.0
  9
$DIMTM
 40
0.0
  9
$DIMTXT
 40
0.18
  9
$DIMCEN
 40
0.09
  9
$DIMTSZ
 40
0.0
  9
$DIMTOL
 70
     0
  9
$DIMLIM
 70
     0
  9
$DIMTIH
 70
     1
  9
$DIMTOH
 70
     1
  9
$DIMSE1
 70
     0
  9
$DIMSE2
 70
     0
  9
$DIMTAD
 70
     0
  9
$DIMZIN
 70
     0
  9
$DIMBLK
  1

  9
$DIMASO
 70
     1
  9
$DIMSHO
 70
     1
  9
$DIMPOST
  1

  9
$DIMAPOST
  1

  9
$DIMALT
 70
     0
  9
$DIMALTD
 70
     2
  9
$DIMALTF
 40
25.399999999999999
  9
$DIMLFAC
 40
1.0
  9
$DIMTOFL
 70
     0
  9
$DIMTVP
 40
0.0
  9
$DIMTIX
 70
     0
  9
$DIMSOXD
 70
     0
  9
$DIMSAH
 70
     0
  9
$DIMBLK1
  1

  9
$DIMBLK2
  1

  9
$DIMSTYLE
  2
STANDARD
  9
$DIMCLRD
 70
     0
  9
$DIMCLRE
 70
     0
  9
$DIMCLRT
 70
     0
  9
$DIMTFAC
 40
1.0
  9
$DIMGAP
 40
0.09
  9
$LUNITS
 70
     2
  9
$LUPREC
 70
     4
  9
$SKETCHINC
 40
0.1
  9
$FILLETRAD
 40
0.0
  9
$AUNITS
 70
     0
  9
$AUPREC
 70
     0
  9
$MENU
  1
acad
  9
$ELEVATION
 40
0.0
  9
$PELEVATION
 40
0.0
  9
$THICKNESS
 40
0.0
  9
$LIMCHECK
 70
     0
  9
$BLIPMODE
 70
     0
  9
$CHAMFERA
 40
0.0
  9
$CHAMFERB
 40
0.0
  9
$SKPOLY
 70
     0
  9
$TDCREATE
 40
2453503.8295601849
  9
$TDUPDATE
 40
2453503.8303448609
  9
$TDINDWG
 40
0.0004421644
  9
$TDUSRTIMER
 40
0.0004418056
  9
$USRTIMER
 70
     1
  9
$ANGBASE
 50
0.0
  9
$ANGDIR
 70
     0
  9
$PDMODE
 70
     1
  9
$PDSIZE
 40
-2.0
  9
$PLINEWID
 40
0.0
  9
$COORDS
 70
     0
  9
$SPLFRAME
 70
     0
  9
$SPLINETYPE
 70
     6
  9
$SPLINESEGS
 70
     8
  9
$ATTDIA
 70
     0
  9
$ATTREQ
 70
     1
  9
$HANDLING
 70
     1
  9
$HANDSEED
  5
1B4
  9
$SURFTAB1
 70
     6
  9
$SURFTAB2
 70
     6
  9
$SURFTYPE
 70
     6
  9
$SURFU
 70
     6
  9
$SURFV
 70
     6
  9
$UCSNAME
  2

  9
$UCSORG
 10
0.0
 20
0.0
 30
0.0
  9
$UCSXDIR
 10
1.0
 20
0.0
 30
0.0
  9
$UCSYDIR
 10
0.0
 20
1.0
 30
0.0
  9
$PUCSNAME
  2

  9
$PUCSORG
 10
0.0
 20
0.0
 30
0.0
  9
$PUCSXDIR
 10
1.0
 20
0.0
 30
0.0
  9
$PUCSYDIR
 10
0.0
 20
1.0
 30
0.0
  9
$USERI1
 70
     0
  9
$USERI2
 70
     0
  9
$USERI3
 70
     0
  9
$USERI4
 70
     0
  9
$USERI5
 70
     0
  9
$USERR1
 40
0.0
  9
$USERR2
 40
0.0
  9
$USERR3
 40
0.0
  9
$USERR4
 40
0.0
  9
$USERR5
 40
0.0
  9
$WORLDVIEW
 70
     1
  9
$SHADEDGE
 70
     3
  9
$SHADEDIF
 70
    70
  9
$TILEMODE
 70
     1
  9
$MAXACTVP
 70
    64
  9
$PLIMCHECK
 70
     0
  9
$PEXTMIN
 10
1.0000000000000000E+020
 20
1.0000000000000000E+020
 30
1.0000000000000000E+020
  9
$PEXTMAX
 10
-1.0000000000000000E+020
 20
-1.0000000000000000E+020
 30
-1.0000000000000000E+020
  9
$PLIMMIN
 10
0.0
 20
0.0
  9
$PLIMMAX
 10
12.0
 20
9.0
  9
$UNITMODE
 70
     0
  9
$VISRETAIN
 70
     0
  9
$PLINEGEN
 70
     1
  9
$PSLTSCALE
 70
     0
  0
ENDSEC
  0
SECTION
  2
TABLES
  0
TABLE
  2
VPORT
 70
     2
  0
VPORT
  2
*ACTIVE
 70
     0
 10
0.0
 20
0.0
 11
1.0
 21
1.0
 12
126.77329322636329
 22
135.65059307938151
 13
0.0
 23
0.0
 14
1.0
 24
1.0
 15
0.0
 25
0.0
 16
0.0
 26
0.0
 36
1.0
 17
0.0
 27
0.0
 37
0.0
 40
809.42916046580899
 41
1.6430517711171659
 42
50.0
 43
0.0
 44
0.0
 50
0.0
 51
0.0
 71
     0
 72
  2000
 73
     1
 74
     1
 75
     0
 76
     0
 77
     0
 78
     0
  0
ENDTAB
  0
TABLE
  2
LTYPE
 70
    11
  0
LTYPE
  2
CONTINUOUS
 70
     0
  3
Solid line
 72
    65
 73
     0
 40
0.0
  0
ENDTAB
  0
TABLE
  2
LAYER
 70
     4
  0
LAYER
  2
0
 70
     0
 62
     7
  6
CONTINUOUS
  0
LAYER
  2
DATA
 70
     0
 62
     7
  6
CONTINUOUS
  0
LAYER
  2
HIBINO-BASE
 70
     0
 62
     7
  6
CONTINUOUS
  0
LAYER
  2
DIMNSIONS
 70
     0
 62
     7
  6
CONTINUOUS
  0
ENDTAB
  0
TABLE
  2
STYLE
 70
     2
  0
STYLE
  2
STANDARD
 70
     0
 40
0.0
 41
1.0
 50
0.0
 71
     0
 42
0.0
  3
txt
  4
BIGFONT.SHX
  0
ENDTAB
  0
TABLE
  2
VIEW
 70
     0
  0
ENDTAB
  0
TABLE
  2
UCS
 70
     0
  0
ENDTAB
  0
TABLE
  2
APPID
 70
     1
  0
APPID
  2
ACAD
 70
     0
  0
ENDTAB
  0
TABLE
  2
DIMSTYLE
 70
     1
  0
DIMSTYLE
  2
STANDARD
 70
     0
  3

  4

  5

  6

  7

 40
1.0
 41
0.18
 42
0.0625
 43
0.38
 44
0.18
 45
0.0
 46
0.0
 47
0.0
 48
0.0
140
0.18
141
0.09
142
0.0
143
25.399999999999999
144
1.0
145
0.0
146
1.0
147
0.09
 71
     0
 72
     0
 73
     1
 74
     1
 75
     0
 76
     0
 77
     0
 78
     0
170
     0
171
     2
172
     0
173
     0
174
     0
175
     0
176
     0
177
     0
178
     0
  0
ENDTAB
  0
ENDSEC
  0
SECTION
  2
BLOCKS
  0
BLOCK
  8
0
  2
$MODEL_SPACE
 70
     0
 10
0.0
 20
0.0
 30
0.0
  3
$MODEL_SPACE
  1

  0
ENDBLK
  5
18F
  8
0
  0
BLOCK
 67
     1
  8
0
  2
$PAPER_SPACE
 70
     0
 10
0.0
 20
0.0
 30
0.0
  3
$PAPER_SPACE
  1

  0
ENDBLK
  5
18B
 67
     1
  8
0
  0
ENDSEC
  0
SECTION
  2
ENTITIES
  0
LINE
  5
2B
  8
HIBINO-BASE
 62
     7
 10
-169.99999999999989
 20
537.06362999999999
 30
0.0
 11
370.0
 21
537.06362999999999
 31
0.0
  0
LINE
  5
2C
  8
HIBINO-BASE
 62
     7
 10
370.0
 20
-242.93637000000001
 30
0.0
 11
-169.99999999999989
 21
-242.93637000000001
 31
0.0
  0
LINE
  5
2D
  8
HIBINO-BASE
 62
     7
 10
-169.99999999999989
 20
-242.93637000000001
 30
0.0
 11
-169.99999999999989
 21
537.06362999999999
 31
0.0
  0
TEXT
  5
2E
  8
HIBINO-BASE
 62
     7
 10
-148.44799999999989
 20
-262.1624033999999
 30
0.0
 40
10.800132539062499
  1
Hibino Corporation
 41
0.7
 11
-148.44799999999989
 21
-251.3622708609374
 31
0.0
 73
     3
  0
LINE
  5
2F
  8
HIBINO-BASE
 62
     7
 10
370.0
 20
537.06362999999999
 30
0.0
 11
370.0
 21
-242.93637000000001
 31
0.0
  0
LINE
  5
30
  8
HIBINO-BASE
 62
     7
 10
100.0
 20
-175.4363699999999
 30
0.0
 11
370.0
 21
-175.4363699999999
 31
0.0
  0
LINE
  5
31
  8
HIBINO-BASE
 62
     7
 10
100.0
 20
-242.93637000000001
 30
0.0
 11
100.0
 21
-175.4363699999999
 31
0.0
  0
TEXT
  5
32
  8
HIBINO-BASE
 62
     7
 10
102.7
 20
-182.96244999999999
 30
0.0
 40
4.8865234374999993
  1
NOTE
 41
0.7
 11
102.7
 21
-178.0759265625
 31
0.0
 73
     3
  0
LINE
  5
33
  8
HIBINO-BASE
 62
     7
 10
205.0
 20
-242.93637000000001
 30
0.0
 11
205.0
 21
-175.4363699999999
 31
0.0
  0
TEXT
  5
34
  8
HIBINO-BASE
 62
     7
 10
207.69999999999999
 20
-182.96244999999999
 30
0.0
 40
4.8865234374999993
  1
TITLE
 41
0.7
 11
207.69999999999999
 21
-178.0759265625
 31
0.0
 73
     3
  0
TEXT
  5
35
  8
HIBINO-BASE
 62
     7
 10
250.2051699999999
 20
-262.1624033999999
 30
0.0
 40
10.800132539062499
  1
ヒビノ株式会社
 41
0.7
 11
250.2051699999999
 21
-251.3622708609374
 31
0.0
 73
     3
  0
LINE
  5
36
  8
HIBINO-BASE
 62
     7
 10
100.0
 20
-212.9363699999999
 30
0.0
 11
370.0
 21
-212.9363699999999
 31
0.0
  0
TEXT
  5
37
  8
HIBINO-BASE
 62
     7
 10
245.19999999999999
 20
-220.29348999999999
 30
0.0
 40
4.8865234374999993
  1
DRAWN
 41
0.7
 11
245.19999999999999
 21
-215.4069665625
 31
0.0
 73
     3
  0
TEXT
  5
38
  8
HIBINO-BASE
 62
     7
 10
170.19999999999999
 20
-220.29348999999999
 30
0.0
 40
4.8865234374999993
  1
DATE
 41
0.7
 11
170.19999999999999
 21
-215.4069665625
 31
0.0
 73
     3
  0
TEXT
  5
39
  8
HIBINO-BASE
 62
     7
 10
103.3
 20
-220.79473859999999
 30
0.0
 40
4.8865311328124994
  1
図面サイズ
 41
0.7
 11
103.3
 21
-215.90820746718751
 31
0.0
 73
     3
  0
TEXT
  5
3A
  8
HIBINO-BASE
 62
     7
 10
140.19999999999999
 20
-220.29348999999999
 30
0.0
 40
4.8865234374999993
  1
SCALE
 41
0.7
 11
140.19999999999999
 21
-215.4069665625
 31
0.0
 73
     3
  0
TEXT
  5
3B
  8
HIBINO-BASE
 62
     7
 10
207.69999999999999
 20
-220.29348999999999
 30
0.0
 40
4.8865234374999993
  1
DESIGN
 41
0.7
 11
207.69999999999999
 21
-215.4069665625
 31
0.0
 73
     3
  0
TEXT
  5
3C
  8
HIBINO-BASE
 62
     7
 10
320.19999999999999
 20
-220.29348999999999
 30
0.0
 40
4.8865234374999993
  1
DRAWING NO.
 41
0.7
 11
320.19999999999999
 21
-215.4069665625
 31
0.0
 73
     3
  0
TEXT
  5
3D
  8
HIBINO-BASE
 62
     7
 10
282.69999999999999
 20
-220.29348999999999
 30
0.0
 40
4.8865234374999993
  1
CHECK
 41
0.7
 11
282.69999999999999
 21
-215.4069665625
 31
0.0
 73
     3
  0
LINE
  5
3E
  8
HIBINO-BASE
 62
     7
 10
143.12499999999989
 20
-239.18637000000001
 30
0.0
 11
154.375
 21
-227.93637000000001
 31
0.0
  0
TEXT
  5
3F
  8
HIBINO-BASE
 62
     7
 10
141.24999999999989
 20
-231.26320000000001
 30
0.0
 40
4.8865234374999993
  1
1
 41
0.7
 11
141.24999999999989
 21
-226.37667656249999
 31
0.0
 73
     3
  0
LINE
  5
40
  8
HIBINO-BASE
 62
     7
 10
137.5
 20
-242.93637000000001
 30
0.0
 11
137.5
 21
-212.9363699999999
 31
0.0
  0
LINE
  5
41
  8
HIBINO-BASE
 62
     7
 10
167.5
 20
-242.93637000000001
 30
0.0
 11
167.5
 21
-212.9363699999999
 31
0.0
  0
LINE
  5
42
  8
HIBINO-BASE
 62
     7
 10
242.5
 20
-212.9363699999999
 30
0.0
 11
242.5
 21
-242.93637000000001
 31
0.0
  0
LINE
  5
43
  8
HIBINO-BASE
 62
     7
 10
317.5
 20
-212.9363699999999
 30
0.0
 11
317.5
 21
-242.93637000000001
 31
0.0
  0
LINE
  5
44
  8
HIBINO-BASE
 62
     7
 10
279.99999999999989
 20
-242.93637000000001
 30
0.0
 11
279.99999999999989
 21
-212.9363699999999
 31
0.0
  0
TEXT
  5
45
  8
HIBINO-BASE
 62
     7
 10
170.06961999999999
 20
-234.34542999999999
 30
0.0
 40
4.8865234374999993
  1
'98.9.
 41
0.7
 11
170.06961999999999
 21
-229.4589065625
 31
0.0
 73
     3
  0
TEXT
  5
46
  8
HIBINO-BASE
 62
     7
 10
152.5
 20
-236.88820000000001
 30
0.0
 40
4.8865234374999993
  1
3
 41
0.7
 11
152.5
 21
-232.00167656249999
 31
0.0
 73
     3
  0
TEXT
  5
47
  8
HIBINO-BASE
 62
     7
 10
247.01743003310389
 20
-234.34542999999999
 30
0.0
 40
4.8865234374999993
  1
N.Sasaki
 41
0.7
 11
247.01743003310389
 21
-229.4589065625
 31
0.0
 73
     3
  0
TEXT
  5
48
  8
HIBINO-BASE
 62
     7
 10
111.65000000000001
 20
-237.00837000000001
 30
0.0
 40
9.7730468749999986
  1
A4
 41
0.7
 11
111.65000000000001
 21
-227.23532312500001
 31
0.0
 73
     3
  0
TEXT
  5
49
  8
DIMNSIONS
 62
     7
 10
40.0
 20
-206.12790000000001
 30
0.0
 40
7.3297851562499989
  1
(単位：mm)
 41
0.7
 11
40.0
 21
-198.79811484375
 31
0.0
 73
     3
  0
LINE
  5
4A
  8
DIMNSIONS
 62
     7
 10
157.74999999999989
 20
24.99999999999984
 30
0.0
 11
131.5
 21
24.99999999999984
 31
0.0
  0
LINE
  5
4B
  8
DIMNSIONS
 62
     7
 10
144.0
 20
275.0
 30
0.0
 11
131.5
 21
275.0
 31
0.0
  0
LINE
  5
4C
  8
DIMNSIONS
 62
     7
 10
137.5
 20
24.99999999999984
 30
0.0
 11
137.5
 21
275.0
 31
0.0
  0
LINE
  5
4D
  8
DIMNSIONS
 62
     7
 10
137.5
 20
24.99999999999984
 30
0.0
 11
135.48988061454921
 21
32.501867675781092
 31
0.0
  0
LINE
  5
4E
  8
DIMNSIONS
 62
     7
 10
137.5
 20
24.99999999999984
 30
0.0
 11
139.51011938545071
 21
32.501867675781092
 31
0.0
  0
LINE
  5
4F
  8
DIMNSIONS
 62
     7
 10
137.5
 20
275.0
 30
0.0
 11
139.51011938545071
 21
267.49813232421877
 31
0.0
  0
LINE
  5
50
  8
DIMNSIONS
 62
     7
 10
137.5
 20
275.0
 30
0.0
 11
135.48988061454921
 21
267.49813232421877
 31
0.0
  0
TEXT
  5
51
  8
DIMNSIONS
 62
     7
 10
134.51833333333329
 20
142.06249999999989
 30
0.0
 40
8.1442057291666661
  1
250
 50
90.0
 41
0.7
 11
126.3741276041666
 21
142.06249999999989
 31
0.0
 73
     3
  0
LINE
  5
52
  8
DIMNSIONS
 62
     7
 10
146.4999999999998
 20
36.249999999999908
 30
0.0
 11
146.4999999999998
 21
-6.0
 31
0.0
  0
LINE
  5
53
  8
DIMNSIONS
 62
     7
 10
255.0
 20
255.5
 30
0.0
 11
255.0
 21
-6.0
 31
0.0
  0
LINE
  5
54
  8
DIMNSIONS
 62
     7
 10
146.4999999999998
 20
0.0
 30
0.0
 11
255.0
 21
0.0
 31
0.0
  0
LINE
  5
55
  8
DIMNSIONS
 62
     7
 10
146.4999999999998
 20
0.0
 30
0.0
 11
154.00186767578111
 21
2.0101193854507362
 31
0.0
  0
LINE
  5
56
  8
DIMNSIONS
 62
     7
 10
146.4999999999998
 20
0.0
 30
0.0
 11
154.00186767578111
 21
-2.0101193854507362
 31
0.0
  0
LINE
  5
57
  8
DIMNSIONS
 62
     7
 10
255.0
 20
0.0
 30
0.0
 11
247.4981323242186
 21
-2.0101193854507362
 31
0.0
  0
LINE
  5
58
  8
DIMNSIONS
 62
     7
 10
255.0
 20
0.0
 30
0.0
 11
247.4981323242186
 21
2.0101193854507362
 31
0.0
  0
TEXT
  5
59
  8
DIMNSIONS
 62
     7
 10
187.52083333333329
 20
2.981666666666674
 30
0.0
 40
8.1442057291666661
  1
108.5
 41
0.7
 11
187.52083333333329
 21
11.125872395833341
 31
0.0
 73
     3
  0
LINE
  5
5A
  8
DIMNSIONS
 62
     7
 10
164.99999999999989
 20
448.0
 30
0.0
 11
164.99999999999989
 21
493.5
 31
0.0
  0
LINE
  5
5B
  8
DIMNSIONS
 62
     7
 10
255.0
 20
448.0
 30
0.0
 11
255.0
 21
493.5
 31
0.0
  0
LINE
  5
5C
  8
DIMNSIONS
 62
     7
 10
164.99999999999989
 20
487.5
 30
0.0
 11
255.0
 21
487.5
 31
0.0
  0
LINE
  5
5D
  8
DIMNSIONS
 62
     7
 10
164.99999999999989
 20
487.5
 30
0.0
 11
172.50186767578111
 21
489.51011938545071
 31
0.0
  0
LINE
  5
5E
  8
DIMNSIONS
 62
     7
 10
164.99999999999989
 20
487.5
 30
0.0
 11
172.50186767578111
 21
485.48988061454918
 31
0.0
  0
LINE
  5
5F
  8
DIMNSIONS
 62
     7
 10
255.0
 20
487.5
 30
0.0
 11
247.4981323242186
 21
485.48988061454918
 31
0.0
  0
LINE
  5
60
  8
DIMNSIONS
 62
     7
 10
255.0
 20
487.5
 30
0.0
 11
247.4981323242186
 21
489.51011938545071
 31
0.0
  0
TEXT
  5
61
  8
DIMNSIONS
 62
     7
 10
204.70833333333329
 20
490.48166666666663
 30
0.0
 40
8.1442057291666661
  1
90
 41
0.7
 11
204.70833333333329
 21
498.6258723958332
 31
0.0
 73
     3
  0
LINE
  5
62
  8
DIMNSIONS
 62
     7
 10
164.99999999999989
 20
448.0
 30
0.0
 11
164.99999999999989
 21
468.5
 31
0.0
  0
LINE
  5
63
  8
DIMNSIONS
 62
     7
 10
175.5
 20
419.60000000000002
 30
0.0
 11
175.5
 21
468.5
 31
0.0
  0
LINE
  5
64
  8
DIMNSIONS
 62
     7
 10
175.5
 20
462.5
 30
0.0
 11
164.99999999999989
 21
462.5
 31
0.0
  0
LINE
  5
65
  8
DIMNSIONS
 62
     7
 10
164.99999999999989
 20
462.5
 30
0.0
 11
141.33333333333329
 21
462.5
 31
0.0
  0
LINE
  5
66
  8
DIMNSIONS
 62
     7
 10
164.99999999999989
 20
462.5
 30
0.0
 11
157.49813232421869
 21
460.48988061454918
 31
0.0
  0
LINE
  5
67
  8
DIMNSIONS
 62
     7
 10
164.99999999999989
 20
462.5
 30
0.0
 11
157.49813232421869
 21
464.51011938545071
 31
0.0
  0
LINE
  5
68
  8
DIMNSIONS
 62
     7
 10
175.5
 20
462.5
 30
0.0
 11
190.50000000000011
 21
462.5
 31
0.0
  0
LINE
  5
69
  8
DIMNSIONS
 62
     7
 10
175.5
 20
462.5
 30
0.0
 11
183.00186767578131
 21
464.51011938545071
 31
0.0
  0
LINE
  5
6A
  8
DIMNSIONS
 62
     7
 10
175.5
 20
462.5
 30
0.0
 11
183.00186767578131
 21
460.48988061454918
 31
0.0
  0
TEXT
  5
6B
  8
DIMNSIONS
 62
     7
 10
141.33333333333329
 20
465.48166666666663
 30
0.0
 40
8.1442057291666661
  1
10.5
 41
0.7
 11
141.33333333333329
 21
473.6258723958332
 31
0.0
 73
     3
  0
LINE
  5
6C
  8
DIMNSIONS
 62
     7
 10
175.5
 20
419.60000000000002
 30
0.0
 11
175.5
 21
468.5
 31
0.0
  0
LINE
  5
6D
  8
DIMNSIONS
 62
     7
 10
209.99999999999901
 20
443.19512195121979
 30
0.0
 11
209.99999999999901
 21
468.5
 31
0.0
  0
LINE
  5
6E
  8
DIMNSIONS
 62
     7
 10
175.5
 20
462.5
 30
0.0
 11
209.99999999999901
 21
462.5
 31
0.0
  0
LINE
  5
6F
  8
DIMNSIONS
 62
     7
 10
175.5
 20
462.5
 30
0.0
 11
183.00186767578131
 21
464.51011938545071
 31
0.0
  0
LINE
  5
70
  8
DIMNSIONS
 62
     7
 10
175.5
 20
462.5
 30
0.0
 11
183.00186767578131
 21
460.48988061454918
 31
0.0
  0
LINE
  5
71
  8
DIMNSIONS
 62
     7
 10
209.99999999999901
 20
462.5
 30
0.0
 11
202.49813232421769
 21
460.48988061454918
 31
0.0
  0
LINE
  5
72
  8
DIMNSIONS
 62
     7
 10
209.99999999999901
 20
462.5
 30
0.0
 11
202.49813232421769
 21
464.51011938545071
 31
0.0
  0
TEXT
  5
73
  8
DIMNSIONS
 62
     7
 10
182.1666666666662
 20
465.48166666666663
 30
0.0
 40
8.1442057291666661
  1
34.5
 41
0.7
 11
182.1666666666662
 21
473.6258723958332
 31
0.0
 73
     3
  0
LINE
  5
74
  8
DIMNSIONS
 62
     7
 10
244.50000000000011
 20
419.60000000000002
 30
0.0
 11
244.50000000000011
 21
468.5
 31
0.0
  0
LINE
  5
75
  8
DIMNSIONS
 62
     7
 10
210.00000000000011
 20
444.5999999999998
 30
0.0
 11
210.00000000000011
 21
468.5
 31
0.0
  0
LINE
  5
76
  8
DIMNSIONS
 62
     7
 10
244.50000000000011
 20
462.5
 30
0.0
 11
210.00000000000011
 21
462.5
 31
0.0
  0
LINE
  5
77
  8
DIMNSIONS
 62
     7
 10
244.50000000000011
 20
462.5
 30
0.0
 11
236.9981323242188
 21
460.48988061454918
 31
0.0
  0
LINE
  5
78
  8
DIMNSIONS
 62
     7
 10
244.50000000000011
 20
462.5
 30
0.0
 11
236.9981323242188
 21
464.51011938545071
 31
0.0
  0
LINE
  5
79
  8
DIMNSIONS
 62
     7
 10
210.00000000000011
 20
462.5
 30
0.0
 11
217.50186767578131
 21
464.51011938545071
 31
0.0
  0
LINE
  5
7A
  8
DIMNSIONS
 62
     7
 10
210.00000000000011
 20
462.5
 30
0.0
 11
217.50186767578131
 21
460.48988061454918
 31
0.0
  0
TEXT
  5
7B
  8
DIMNSIONS
 62
     7
 10
216.66666666666671
 20
465.48166666666663
 30
0.0
 40
8.1442057291666661
  1
34.5
 41
0.7
 11
216.66666666666671
 21
473.6258723958332
 31
0.0
 73
     3
  0
LINE
  5
7C
  8
DIMNSIONS
 62
     7
 10
161.99999999999989
 20
445.0
 30
0.0
 11
119.0
 21
445.0
 31
0.0
  0
LINE
  5
7D
  8
DIMNSIONS
 62
     7
 10
200.40000000000001
 20
434.99999999999989
 30
0.0
 11
119.0
 21
434.99999999999989
 31
0.0
  0
LINE
  5
7E
  8
DIMNSIONS
 62
     7
 10
125.0
 20
434.99999999999989
 30
0.0
 11
125.0
 21
445.0
 31
0.0
  0
LINE
  5
7F
  8
DIMNSIONS
 62
     7
 10
125.0
 20
445.0
 30
0.0
 11
125.0
 21
460.58333333333331
 31
0.0
  0
LINE
  5
80
  8
DIMNSIONS
 62
     7
 10
125.0
 20
445.0
 30
0.0
 11
122.98988061454919
 21
452.50186767578111
 31
0.0
  0
LINE
  5
81
  8
DIMNSIONS
 62
     7
 10
125.0
 20
445.0
 30
0.0
 11
127.01011938545069
 21
452.50186767578111
 31
0.0
  0
LINE
  5
82
  8
DIMNSIONS
 62
     7
 10
125.0
 20
434.99999999999989
 30
0.0
 11
125.0
 21
419.99999999999989
 31
0.0
  0
LINE
  5
83
  8
DIMNSIONS
 62
     7
 10
125.0
 20
434.99999999999989
 30
0.0
 11
127.01011938545069
 21
427.4981323242186
 31
0.0
  0
LINE
  5
84
  8
DIMNSIONS
 62
     7
 10
125.0
 20
434.99999999999989
 30
0.0
 11
122.98988061454919
 21
427.4981323242186
 31
0.0
  0
TEXT
  5
85
  8
DIMNSIONS
 62
     7
 10
122.0183333333333
 20
450.0
 30
0.0
 40
8.1442057291666661
  1
10
 50
90.0
 41
0.7
 11
113.8741276041667
 21
450.0
 31
0.0
 73
     3
  0
LINE
  5
86
  8
DIMNSIONS
 62
     7
 10
200.40000000000001
 20
434.99999999999989
 30
0.0
 11
119.0
 21
434.99999999999989
 31
0.0
  0
LINE
  5
87
  8
DIMNSIONS
 62
     7
 10
165.90000000000001
 20
410.0
 30
0.0
 11
119.0
 21
410.0
 31
0.0
  0
LINE
  5
88
  8
DIMNSIONS
 62
     7
 10
125.0
 20
434.99999999999989
 30
0.0
 11
125.0
 21
410.0
 31
0.0
  0
LINE
  5
89
  8
DIMNSIONS
 62
     7
 10
125.0
 20
434.99999999999989
 30
0.0
 11
127.01011938545069
 21
427.4981323242186
 31
0.0
  0
LINE
  5
8A
  8
DIMNSIONS
 62
     7
 10
125.0
 20
434.99999999999989
 30
0.0
 11
122.98988061454919
 21
427.4981323242186
 31
0.0
  0
LINE
  5
8B
  8
DIMNSIONS
 62
     7
 10
125.0
 20
410.0
 30
0.0
 11
122.98988061454919
 21
417.50186767578123
 31
0.0
  0
LINE
  5
8C
  8
DIMNSIONS
 62
     7
 10
125.0
 20
410.0
 30
0.0
 11
127.01011938545069
 21
417.50186767578123
 31
0.0
  0
TEXT
  5
8D
  8
DIMNSIONS
 62
     7
 10
122.0183333333333
 20
417.2083333333332
 30
0.0
 40
8.1442057291666661
  1
25
 50
90.0
 41
0.7
 11
113.8741276041667
 21
417.2083333333332
 31
0.0
 73
     3
  0
LINE
  5
8E
  8
DIMNSIONS
 62
     7
 10
165.90000000000001
 20
410.0
 30
0.0
 11
119.0
 21
410.0
 31
0.0
  0
LINE
  5
8F
  8
DIMNSIONS
 62
     7
 10
200.40000000000001
 20
384.99999999999977
 30
0.0
 11
119.0
 21
384.99999999999977
 31
0.0
  0
LINE
  5
90
  8
DIMNSIONS
 62
     7
 10
125.0
 20
410.0
 30
0.0
 11
125.0
 21
384.99999999999977
 31
0.0
  0
LINE
  5
91
  8
DIMNSIONS
 62
     7
 10
125.0
 20
410.0
 30
0.0
 11
127.01011938545069
 21
402.49813232421877
 31
0.0
  0
LINE
  5
92
  8
DIMNSIONS
 62
     7
 10
125.0
 20
410.0
 30
0.0
 11
122.98988061454919
 21
402.49813232421877
 31
0.0
  0
LINE
  5
93
  8
DIMNSIONS
 62
     7
 10
125.0
 20
384.99999999999977
 30
0.0
 11
122.98988061454919
 21
392.501867675781
 31
0.0
  0
LINE
  5
94
  8
DIMNSIONS
 62
     7
 10
125.0
 20
384.99999999999977
 30
0.0
 11
127.01011938545069
 21
392.501867675781
 31
0.0
  0
TEXT
  5
95
  8
DIMNSIONS
 62
     7
 10
122.0183333333333
 20
392.20833333333331
 30
0.0
 40
8.1442057291666661
  1
25
 50
90.0
 41
0.7
 11
113.8741276041667
 21
392.20833333333331
 31
0.0
 73
     3
  0
LINE
  5
96
  8
DIMNSIONS
 62
     7
 10
161.99999999999989
 20
445.0
 30
0.0
 11
81.500000000000028
 21
445.0
 31
0.0
  0
LINE
  5
97
  8
DIMNSIONS
 62
     7
 10
161.99999999999989
 20
375.0
 30
0.0
 11
81.500000000000028
 21
375.0
 31
0.0
  0
LINE
  5
98
  8
DIMNSIONS
 62
     7
 10
87.500000000000057
 20
445.0
 30
0.0
 11
87.500000000000057
 21
375.0
 31
0.0
  0
LINE
  5
99
  8
DIMNSIONS
 62
     7
 10
87.500000000000057
 20
445.0
 30
0.0
 11
89.510119385450764
 21
437.49813232421877
 31
0.0
  0
LINE
  5
9A
  8
DIMNSIONS
 62
     7
 10
87.500000000000057
 20
445.0
 30
0.0
 11
85.489880614549307
 21
437.49813232421877
 31
0.0
  0
LINE
  5
9B
  8
DIMNSIONS
 62
     7
 10
87.500000000000057
 20
375.0
 30
0.0
 11
85.489880614549307
 21
382.50186767578111
 31
0.0
  0
LINE
  5
9C
  8
DIMNSIONS
 62
     7
 10
87.500000000000057
 20
375.0
 30
0.0
 11
89.510119385450764
 21
382.50186767578111
 31
0.0
  0
TEXT
  5
9D
  8
DIMNSIONS
 62
     7
 10
84.518333333333402
 20
404.7083333333332
 30
0.0
 40
8.1442057291666661
  1
70
 50
90.0
 41
0.7
 11
76.374127604166731
 21
404.7083333333332
 31
0.0
 73
     3
  0
LINE
  5
9E
  8
DIMNSIONS
 62
     7
 10
246.30840300903881
 20
413.112824851624
 30
0.0
 11
275.0
 21
462.5
 31
0.0
  0
LINE
  5
9F
  8
DIMNSIONS
 62
     7
 10
246.30840300903881
 20
413.112824851624
 30
0.0
 11
248.44914188728731
 21
420.57846853611977
 31
0.0
  0
LINE
  5
A0
  8
DIMNSIONS
 62
     7
 10
246.30840300903881
 20
413.112824851624
 30
0.0
 11
251.89515910271891
 21
418.507892498876
 31
0.0
  0
LINE
  5
A1
  8
DIMNSIONS
 62
     7
 10
275.0
 20
462.5
 30
0.0
 11
307.45833333333331
 21
462.5
 31
0.0
  0
TEXT
  5
A2
  8
DIMNSIONS
 62
     7
 10
281.0
 20
465.48166666666663
 30
0.0
 40
8.1442057291666661
  1
φ7.2
 41
0.7
 11
281.0
 21
473.6258723958332
 31
0.0
 73
     3
  0
TEXT
  5
A3
  8
DATA
 62
     7
 10
250.0
 20
-187.7937
 30
0.0
 40
7.3297851562499989
  1
JBL
 41
0.7
 11
250.0
 21
-180.46391484374999
 31
0.0
 73
     3
  0
TEXT
  5
A4
  8
DATA
 62
     7
 10
-139.99999999999989
 20
-230.22237000000001
 30
0.0
 40
4.8865234374999993
  1
仕様および外観は予告なく変更されることがありますので、ご了承ください。
 41
0.7
 11
-139.99999999999989
 21
-225.3358465625
 31
0.0
 73
     3
  0
LINE
  5
A5
  8
DATA
 62
     7
 10
-55.499999999999972
 20
58.599694186742397
 30
0.0
 11
-55.499999999999972
 21
248.00000000000011
 31
0.0
  0
LINE
  5
A6
  8
DATA
 62
     7
 10
-44.499999999999957
 20
58.599694186742397
 30
0.0
 11
-44.499999999999957
 21
248.00000000000011
 31
0.0
  0
LINE
  5
A7
  8
DATA
 62
     7
 10
-85.000000000000014
 20
-75.0
 30
0.0
 11
15.000000000000041
 21
-75.0
 31
0.0
  0
LINE
  5
A8
  8
DATA
 62
     7
 10
15.000000000000041
 20
-100.0
 30
0.0
 11
-85.000000000000014
 21
-100.0
 31
0.0
  0
LINE
  5
A9
  8
DATA
 62
     7
 10
-85.000000000000014
 20
-100.0
 30
0.0
 11
-85.000000000000014
 21
-75.0
 31
0.0
  0
TEXT
  5
AA
  8
DATA
 62
     7
 10
-62.866531000000073
 20
-92.14453125
 30
0.0
 40
8.266448974609375
  1
天井　取付図
 41
0.7
 11
-62.866531000000073
 21
-83.878082275390625
 31
0.0
 73
     3
  0
LINE
  5
AB
  8
DATA
 62
     7
 10
15.000000000000041
 20
-75.0
 30
0.0
 11
15.000000000000041
 21
-100.0
 31
0.0
  0
ARC
  5
AC
  8
DATA
 62
     7
 10
-49.999999999999957
 20
42.249999999999901
 30
0.0
 40
17.249999999999979
 50
108.5928225494266
 51
71.407177450573357
  0
LINE
  5
AD
  8
DATA
 62
     7
 10
-55.499999999999972
 20
58.599694186742397
 30
0.0
 11
-44.499999999999957
 21
58.599694186742397
 31
0.0
  0
LINE
  5
AE
  8
DATA
 62
     7
 10
-125.0
 20
350.0
 30
0.0
 11
-50.000000000000071
 21
275.0
 31
0.0
  0
LINE
  5
AF
  8
DATA
 62
     7
 10
-125.0
 20
275.0
 30
0.0
 11
24.999999999999929
 21
275.0
 31
0.0
  0
LINE
  5
B0
  8
DATA
 62
     7
 10
-75.000000000000071
 20
350.0
 30
0.0
 11
-50.000000000000178
 21
325.0
 31
0.0
  0
ARC
  5
B1
  8
DATA
 62
     7
 10
-50.000000000000071
 20
337.7500000000008
 30
0.0
 40
76.25000000000081
 50
245.50762136313261
 51
294.49237863686722
  0
LINE
  5
B2
  8
DATA
 62
     7
 10
-85.000000000000014
 20
275.0
 30
0.0
 11
-15.000000000000069
 21
275.0
 31
0.0
  0
ARC
  5
B3
  8
DATA
 62
     7
 10
-79.53826909813678
 20
272.91132975849962
 30
0.0
 40
4.9999999999999849
 50
190.3048464687655
 51
245.50762136313301
  0
LINE
  5
B4
  8
DATA
 62
     7
 10
-99.999999999999957
 20
350.0
 30
0.0
 11
-75.000000000000071
 21
325.0
 31
0.0
  0
LINE
  5
B5
  8
DATA
 62
     7
 10
-125.0
 20
325.0
 30
0.0
 11
-75.000000000000071
 21
275.0
 31
0.0
  0
LINE
  5
B6
  8
DATA
 62
     7
 10
-125.0
 20
300.0
 30
0.0
 11
-100.0
 21
275.0
 31
0.0
  0
LINE
  5
B7
  8
DATA
 62
     7
 10
-85.000000000000014
 20
275.0
 30
0.0
 11
-84.457618648636299
 21
272.0169025674997
 31
0.0
  0
LINE
  5
B8
  8
DATA
 62
     7
 10
-50.000000000000071
 20
350.0
 30
0.0
 11
24.999999999999929
 21
275.0
 31
0.0
  0
LINE
  5
B9
  8
DATA
 62
     7
 10
-24.999999999999961
 20
350.0
 30
0.0
 11
24.999999999999929
 21
300.0
 31
0.0
  0
LINE
  5
BA
  8
DATA
 62
     7
 10
-0.0000000000000711
 20
350.0
 30
0.0
 11
24.999999999999929
 21
325.0
 31
0.0
  0
LINE
  5
BB
  8
DATA
 62
     7
 10
-60.500000000000057
 20
262.22641096981698
 30
0.0
 11
-60.500000000000057
 21
259.5
 31
0.0
  0
LINE
  5
BC
  8
DATA
 62
     7
 10
-39.500000000000192
 20
259.50000000000028
 30
0.0
 11
-39.500000000000192
 21
262.22641096981698
 31
0.0
  0
LINE
  5
BD
  8
DATA
 62
     7
 10
-59.750000000000362
 20
248.00000000000011
 30
0.0
 11
-40.250000000000192
 21
248.00000000000011
 31
0.0
  0
LINE
  5
BE
  8
DATA
 62
     7
 10
-60.499999999999972
 20
259.5
 30
0.0
 11
-39.500000000000192
 21
259.50000000000028
 31
0.0
  0
LINE
  5
BF
  8
DATA
 62
     7
 10
-59.750000000000362
 20
257.00000000000028
 30
0.0
 11
-40.250000000000192
 21
257.0
 31
0.0
  0
LINE
  5
C0
  8
DATA
 62
     7
 10
-59.750000000000412
 20
248.00000000000011
 30
0.0
 11
-59.750000000000362
 21
257.00000000000028
 31
0.0
  0
LINE
  5
C1
  8
DATA
 62
     7
 10
-59.500000000000057
 20
257.0
 30
0.0
 11
-59.500000000000057
 21
259.5
 31
0.0
  0
LINE
  5
C2
  8
DATA
 62
     7
 10
-54.875000000000057
 20
248.00000000000011
 30
0.0
 11
-54.875000000000057
 21
257.0
 31
0.0
  0
LINE
  5
C3
  8
DATA
 62
     7
 10
-45.124999999999957
 20
248.00000000000011
 30
0.0
 11
-45.124999999999893
 21
257.0
 31
0.0
  0
LINE
  5
C4
  8
DATA
 62
     7
 10
-40.250000000000192
 20
247.99999999999989
 30
0.0
 11
-40.250000000000192
 21
257.0
 31
0.0
  0
LINE
  5
C5
  8
DATA
 62
     7
 10
-40.500000000000057
 20
257.0
 30
0.0
 11
-40.500000000000057
 21
259.50000000000028
 31
0.0
  0
ARC
  5
C6
  8
DATA
 62
     7
 10
-20.461730901863412
 20
272.91132975849922
 30
0.0
 40
5.0000000000000471
 50
294.49237863686818
 51
349.69515353123342
  0
LINE
  5
C7
  8
DATA
 62
     7
 10
-58.749999999999957
 20
262.00371296228462
 30
0.0
 11
-58.749999999999957
 21
269.0
 31
0.0
  0
LINE
  5
C8
  8
DATA
 62
     7
 10
-41.250000000000007
 20
262.00371296228462
 30
0.0
 11
-41.250000000000007
 21
269.0
 31
0.0
  0
LINE
  5
C9
  8
DATA
 62
     7
 10
-58.749999999999957
 20
269.0
 30
0.0
 11
-41.250000000000007
 21
269.0
 31
0.0
  0
TEXT
  5
CA
  8
DATA
 62
     7
 10
-59.706530046948792
 20
306.85546875
 30
0.0
 40
8.266448974609375
  1
天井
 41
0.7
 11
-59.706530046948792
 21
315.12191772460937
 31
0.0
 73
     3
  0
LINE
  5
CB
  8
DATA
 62
     7
 10
-25.000000000000071
 20
300.0
 30
0.0
 11
-0.0000000000000711
 21
275.0
 31
0.0
  0
LINE
  5
CC
  8
DATA
 62
     7
 10
-50.000000000000071
 20
300.0
 30
0.0
 11
-25.000000000000071
 21
275.0
 31
0.0
  0
LINE
  5
CD
  8
DATA
 62
     7
 10
-15.542381351363771
 20
272.01690256749919
 30
0.0
 11
-15.000000000000069
 21
275.0
 31
0.0
  0
LINE
  5
CE
  8
DATA
 62
     7
 10
204.49999999999989
 20
77.324028853269866
 30
0.0
 11
204.50000000000011
 21
248.00000000000011
 31
0.0
  0
LINE
  5
CF
  8
DATA
 62
     7
 10
215.5
 20
77.324028853269283
 30
0.0
 11
215.5
 21
248.00000000000011
 31
0.0
  0
ARC
  5
D0
  8
DATA
 62
     7
 10
244.5000000000002
 20
-65.000000000000071
 30
0.0
 40
9.8795681063123197
 50
90.0
 51
270.00000000000068
  0
ARC
  5
D1
  8
DATA
 62
     7
 10
244.5000000000002
 20
-65.000000000000071
 30
0.0
 40
8.75
 50
90.0
 51
270.0
  0
CIRCLE
  5
D2
  8
DATA
 62
     7
 10
244.50000000000011
 20
-65.000000000000071
 30
0.0
 40
3.5
  0
LINE
  5
D3
  8
DATA
 62
     7
 10
167.99999999999989
 20
-100.0
 30
0.0
 11
252.00000000000011
 21
-100.0
 31
0.0
  0
LINE
  5
D4
  8
DATA
 62
     7
 10
167.99999999999989
 20
-99.0
 30
0.0
 11
252.0
 21
-98.999999999999872
 31
0.0
  0
LINE
  5
D5
  8
DATA
 62
     7
 10
167.99999999999989
 20
-31.000000000000121
 30
0.0
 11
252.0
 21
-31.000000000000171
 31
0.0
  0
LINE
  5
D6
  8
DATA
 62
     7
 10
167.99999999999989
 20
-29.99999999999995
 30
0.0
 11
252.0
 21
-29.99999999999995
 31
0.0
  0
TEXT
  5
D7
  8
DATA
 62
     7
 10
62.5
 20
-140.98046875
 30
0.0
 40
7.4398040771484339
  1
注）MTC-28/25CMにはベースは付属していません。
 41
0.7
 11
62.5
 21
-133.54066467285151
 31
0.0
 73
     3
  0
TEXT
  5
D8
  8
DATA
 62
     7
 10
62.5
 20
-154.73046875
 30
0.0
 40
7.4398040771484339
  1
(ベースはスピーカーに付属している取付金具を使用します。)
 41
0.7
 11
62.5
 21
-147.29066467285151
 31
0.0
 73
     3
  0
CIRCLE
  5
D9
  8
DATA
 62
     7
 10
163.75000000000011
 20
-65.000000000000071
 30
0.0
 40
17.25
  0
ARC
  5
DA
  8
DATA
 62
     7
 10
210.00000000000011
 20
-65.000000000000071
 30
0.0
 40
10.49999999999984
 50
211.58813550520171
 51
148.41186449479829
  0
ARC
  5
DB
  8
DATA
 62
     7
 10
175.5
 20
-65.000000000000071
 30
0.0
 40
9.8795681063122966
 50
285.46144552413688
 51
326.17180322235032
  0
ARC
  5
DC
  8
DATA
 62
     7
 10
175.5
 20
-65.000000000000071
 30
0.0
 40
8.7499999999999662
 50
293.78736171652088
 51
321.05519640590421
  0
LINE
  5
DD
  8
DATA
 62
     7
 10
210.00000000000011
 20
-74.750000000000099
 30
0.0
 11
218.44374768689809
 21
-69.874999999999929
 31
0.0
  0
ARC
  5
DE
  8
DATA
 62
     7
 10
210.00000000000011
 20
-65.000000000000071
 30
0.0
 40
9.4999999999999645
 50
272.72478424034529
 51
327.2752157596567
  0
LINE
  5
DF
  8
DATA
 62
     7
 10
202.63878406783209
 20
-70.500000000000099
 30
0.0
 11
210.00000000000011
 21
-74.750000000000099
 31
0.0
  0
ARC
  5
E0
  8
DATA
 62
     7
 10
210.00000000000011
 20
-65.000000000000071
 30
0.0
 40
9.4999999999999911
 50
215.37654015194121
 51
267.27521575965483
  0
LINE
  5
E1
  8
DATA
 62
     7
 10
164.99999999999989
 20
-97.000000000000128
 30
0.0
 11
164.99999999999989
 21
-82.204650534085374
 31
0.0
  0
ARC
  5
E2
  8
DATA
 62
     7
 10
167.99999999999989
 20
-97.000000000000128
 30
0.0
 40
3.0
 50
180.0
 51
270.0
  0
ARC
  5
E3
  8
DATA
 62
     7
 10
167.99999999999989
 20
-96.0
 30
0.0
 40
3.0
 50
180.0
 51
270.0
  0
CIRCLE
  5
E4
  8
DATA
 62
     7
 10
210.00000000000011
 20
-90.000000000000213
 30
0.0
 40
3.5
  0
ARC
  5
E5
  8
DATA
 62
     7
 10
210.00000000000011
 20
-90.0
 30
0.0
 40
8.75
 50
0.0
 51
180.0
  0
ARC
  5
E6
  8
DATA
 62
     7
 10
210.00000000000011
 20
-90.0
 30
0.0
 40
9.8795681063123766
 50
0.0
 51
180.0
  0
LINE
  5
E7
  8
DATA
 62
     7
 10
200.12043189368791
 20
-90.0
 30
0.0
 11
200.12043189368791
 21
-98.999999999999872
 31
0.0
  0
LINE
  5
E8
  8
DATA
 62
     7
 10
201.25
 20
-98.999999999999872
 30
0.0
 11
201.25
 21
-90.0
 31
0.0
  0
LINE
  5
E9
  8
DATA
 62
     7
 10
218.75000000000011
 20
-98.999999999999872
 30
0.0
 11
218.75000000000011
 21
-90.0
 31
0.0
  0
LINE
  5
EA
  8
DATA
 62
     7
 10
219.87956810631241
 20
-98.999999999999872
 30
0.0
 11
219.87956810631241
 21
-90.000000000000114
 31
0.0
  0
ARC
  5
EB
  8
DATA
 62
     7
 10
163.74999999999989
 20
42.249999999999901
 30
0.0
 40
17.250000000000028
 50
48.592822549426792
 51
11.407177450573069
  0
ARC
  5
EC
  8
DATA
 62
     7
 10
210.00000000000011
 20
-65.000000000000071
 30
0.0
 40
5.4999999999999432
 50
269.99999999999881
 51
90.000000000001151
  0
LINE
  5
ED
  8
DATA
 62
     7
 10
218.44374768689809
 20
-69.874999999999929
 30
0.0
 11
218.44374768689809
 21
-60.125000000000099
 31
0.0
  0
ARC
  5
EE
  8
DATA
 62
     7
 10
210.00000000000011
 20
-65.000000000000071
 30
0.0
 40
9.499999999999984
 50
332.72478424034421
 51
27.275215759655861
  0
LINE
  5
EF
  8
DATA
 62
     7
 10
180.0996941867426
 20
-70.500000000000099
 30
0.0
 11
210.00000000000011
 21
-70.500000000000071
 31
0.0
  0
LINE
  5
F0
  8
DATA
 62
     7
 10
164.99999999999989
 20
-32.99999999999995
 30
0.0
 11
164.99999999999989
 21
-47.795349465914789
 31
0.0
  0
ARC
  5
F1
  8
DATA
 62
     7
 10
167.99999999999989
 20
-34.000000000000107
 30
0.0
 40
3.0
 50
90.0
 51
180.0
  0
ARC
  5
F2
  8
DATA
 62
     7
 10
167.99999999999989
 20
-32.99999999999995
 30
0.0
 40
3.0
 50
90.0
 51
180.0
  0
LINE
  5
F3
  8
DATA
 62
     7
 10
180.0996941867426
 20
-59.500000000000099
 30
0.0
 11
210.00000000000011
 21
-59.500000000000099
 31
0.0
  0
ARC
  5
F4
  8
DATA
 62
     7
 10
175.5
 20
-65.000000000000071
 30
0.0
 40
9.8795681063123268
 50
33.828196777649772
 51
74.53855447586308
  0
ARC
  5
F5
  8
DATA
 62
     7
 10
175.5
 20
-65.000000000000071
 30
0.0
 40
8.7499999999999751
 50
38.944803594095717
 51
66.212638283479293
  0
CIRCLE
  5
F6
  8
DATA
 62
     7
 10
210.00000000000011
 20
-40.000000000000099
 30
0.0
 40
3.5
  0
ARC
  5
F7
  8
DATA
 62
     7
 10
210.00000000000011
 20
-39.999999999999893
 30
0.0
 40
8.75
 50
180.0
 51
0.0
  0
ARC
  5
F8
  8
DATA
 62
     7
 10
210.00000000000011
 20
-39.999999999999893
 30
0.0
 40
9.8795681063123766
 50
180.0
 51
0.0000000000003411
  0
LINE
  5
F9
  8
DATA
 62
     7
 10
210.00000000000011
 20
-55.25
 30
0.0
 11
218.44374768689809
 21
-60.125000000000099
 31
0.0
  0
ARC
  5
FA
  8
DATA
 62
     7
 10
210.00000000000011
 20
-65.000000000000071
 30
0.0
 40
9.5000000000000764
 50
32.724784240344469
 51
87.275215759654785
  0
LINE
  5
FB
  8
DATA
 62
     7
 10
200.12043189368791
 20
-39.999999999999893
 30
0.0
 11
200.12043189368791
 21
-31.000000000000171
 31
0.0
  0
LINE
  5
FC
  8
DATA
 62
     7
 10
201.25
 20
-39.999999999999893
 30
0.0
 11
201.25
 21
-31.000000000000171
 31
0.0
  0
LINE
  5
FD
  8
DATA
 62
     7
 10
202.63878406783209
 20
-59.500000000000099
 30
0.0
 11
210.00000000000011
 21
-55.25
 31
0.0
  0
ARC
  5
FE
  8
DATA
 62
     7
 10
210.00000000000011
 20
-65.000000000000071
 30
0.0
 40
9.5000000000000195
 50
92.724784240345244
 51
144.6234598480581
  0
LINE
  5
FF
  8
DATA
 62
     7
 10
218.75000000000011
 20
-39.999999999999893
 30
0.0
 11
218.75000000000011
 21
-31.000000000000171
 31
0.0
  0
LINE
  5
100
  8
DATA
 62
     7
 10
219.87956810631241
 20
-39.999999999999829
 30
0.0
 11
219.87956810631241
 21
-31.000000000000231
 31
0.0
  0
LINE
  5
101
  8
DATA
 62
     7
 10
214.44616776117249
 20
-57.816996153775342
 30
0.0
 11
215.0
 21
-56.92225278929822
 31
0.0
  0
LINE
  5
102
  8
DATA
 62
     7
 10
205.49999999999969
 20
60.003520777580547
 30
0.0
 11
180.65925050982571
 21
45.661707372556592
 31
0.0
  0
LINE
  5
103
  8
DATA
 62
     7
 10
175.15925050982551
 20
55.187986814185592
 30
0.0
 11
180.65925050982571
 21
45.661707372556592
 31
0.0
  0
LINE
  5
104
  8
DATA
 62
     7
 10
200.0
 20
69.529800219209847
 30
0.0
 11
175.15925050982551
 21
55.187986814185592
 31
0.0
  0
ARC
  5
105
  8
DATA
 62
     7
 10
195.5
 20
77.324028853269283
 30
0.0
 40
20.000000000000021
 50
300.0
 51
0.0
  0
ARC
  5
106
  8
DATA
 62
     7
 10
195.5
 20
77.324028853269866
 30
0.0
 40
9.0
 50
300.0
 51
0.0
  0
LINE
  5
107
  8
DATA
 62
     7
 10
254.99999999999969
 20
-32.99999999999995
 30
0.0
 11
255.0
 21
-97.000000000000128
 31
0.0
  0
ARC
  5
108
  8
DATA
 62
     7
 10
252.00000000000011
 20
-97.000000000000128
 30
0.0
 40
3.0
 50
270.0
 51
0.0
  0
ARC
  5
109
  8
DATA
 62
     7
 10
252.0
 20
-95.999999999999872
 30
0.0
 40
3.0
 50
270.0
 51
0.0
  0
LINE
  5
10A
  8
DATA
 62
     7
 10
244.5000000000002
 20
-74.879568106312433
 30
0.0
 11
254.99999999999969
 21
-74.879568106312433
 31
0.0
  0
LINE
  5
10B
  8
DATA
 62
     7
 10
244.5000000000002
 20
-73.750000000000099
 30
0.0
 11
255.0
 21
-73.750000000000099
 31
0.0
  0
LINE
  5
10C
  8
DATA
 62
     7
 10
244.5000000000002
 20
-55.120431893687851
 30
0.0
 11
255.0
 21
-55.120431893687851
 31
0.0
  0
LINE
  5
10D
  8
DATA
 62
     7
 10
244.5000000000002
 20
-56.250000000000099
 30
0.0
 11
255.0
 21
-56.250000000000099
 31
0.0
  0
ARC
  5
10E
  8
DATA
 62
     7
 10
252.0
 20
-34.000000000000171
 30
0.0
 40
3.0
 50
0.0
 51
90.0
  0
ARC
  5
10F
  8
DATA
 62
     7
 10
252.0
 20
-32.99999999999995
 30
0.0
 40
3.0
 50
0.0
 51
90.0
  0
LINE
  5
110
  8
DATA
 62
     7
 10
164.99999999999989
 20
275.0
 30
0.0
 11
255.0
 21
275.0
 31
0.0
  0
LINE
  5
111
  8
DATA
 62
     7
 10
164.99999999999989
 20
269.5
 30
0.0
 11
255.0
 21
269.5
 31
0.0
  0
LINE
  5
112
  8
DATA
 62
     7
 10
210.0
 20
350.0
 30
0.0
 11
285.0
 21
275.0
 31
0.0
  0
LINE
  5
113
  8
DATA
 62
     7
 10
220.49999999999969
 20
261.5
 30
0.0
 11
255.0
 21
261.5
 31
0.0
  0
LINE
  5
114
  8
DATA
 62
     7
 10
220.38708224791841
 20
416.4939219563359
 30
0.0
 11
252.50000000000051
 21
441.466153124985
 31
0.0
  0
LINE
  5
115
  8
DATA
 62
     7
 10
220.38708224791841
 20
403.50607804366422
 30
0.0
 11
252.50000000000051
 21
378.5338468750146
 31
0.0
  0
LINE
  5
116
  8
DATA
 62
     7
 10
134.99999999999989
 20
275.0
 30
0.0
 11
285.0
 21
275.0
 31
0.0
  0
LINE
  5
117
  8
DATA
 62
     7
 10
235.00000000000011
 20
350.0
 30
0.0
 11
285.0
 21
300.0
 31
0.0
  0
LINE
  5
118
  8
DATA
 62
     7
 10
235.0
 20
300.0
 30
0.0
 11
260.0
 21
275.0
 31
0.0
  0
LINE
  5
119
  8
DATA
 62
     7
 10
218.8524023667878
 20
401.5325640045823
 30
0.0
 11
249.7569597545023
 21
377.50000000000011
 31
0.0
  0
LINE
  5
11A
  8
DATA
 62
     7
 10
167.99999999999989
 20
375.0
 30
0.0
 11
252.00000000000011
 21
375.0
 31
0.0
  0
LINE
  5
11B
  8
DATA
 62
     7
 10
170.24304024549809
 20
377.50000000000011
 30
0.0
 11
249.7569597545023
 21
377.50000000000011
 31
0.0
  0
LINE
  5
11C
  8
DATA
 62
     7
 10
167.99999999999989
 20
445.0
 30
0.0
 11
252.0
 21
445.0
 31
0.0
  0
LINE
  5
11D
  8
DATA
 62
     7
 10
170.24304024549809
 20
442.49999999999977
 30
0.0
 11
249.7569597545023
 21
442.49999999999989
 31
0.0
  0
LINE
  5
11E
  8
DATA
 62
     7
 10
218.8524023667878
 20
418.46743599541742
 30
0.0
 11
249.7569597545023
 21
442.49999999999989
 31
0.0
  0
ARC
  5
11F
  8
DATA
 62
     7
 10
246.69512195121999
 20
410.0000000000008
 30
0.0
 40
12.44512195122052
 50
100.1592157200312
 51
259.84078427997031
  0
CIRCLE
  5
120
  8
DATA
 62
     7
 10
244.50000000000011
 20
410.0
 30
0.0
 40
3.6000000000000218
  0
LINE
  5
121
  8
DATA
 62
     7
 10
134.99999999999989
 20
350.0
 30
0.0
 11
210.0
 21
275.0
 31
0.0
  0
LINE
  5
122
  8
DATA
 62
     7
 10
159.99999999999989
 20
350.0
 30
0.0
 11
184.99999999999989
 21
325.0
 31
0.0
  0
LINE
  5
123
  8
DATA
 62
     7
 10
134.99999999999989
 20
325.0
 30
0.0
 11
184.99999999999989
 21
275.0
 31
0.0
  0
LINE
  5
124
  8
DATA
 62
     7
 10
134.99999999999989
 20
300.0
 30
0.0
 11
159.99999999999989
 21
275.0
 31
0.0
  0
LINE
  5
125
  8
DATA
 62
     7
 10
199.49999999999969
 20
261.5
 30
0.0
 11
199.4999999999998
 21
259.5
 31
0.0
  0
LINE
  5
126
  8
DATA
 62
     7
 10
220.49999999999969
 20
259.50000000000028
 30
0.0
 11
220.49999999999969
 21
261.5
 31
0.0
  0
LINE
  5
127
  8
DATA
 62
     7
 10
210.0
 20
248.00000000000011
 30
0.0
 11
210.0
 21
257.0
 31
0.0
  0
LINE
  5
128
  8
DATA
 62
     7
 10
201.5562523131016
 20
247.99999999999989
 30
0.0
 11
201.5562523131016
 21
257.0
 31
0.0
  0
LINE
  5
129
  8
DATA
 62
     7
 10
218.44374768689809
 20
247.99999999999989
 30
0.0
 11
218.44374768689809
 21
257.0
 31
0.0
  0
LINE
  5
12A
  8
DATA
 62
     7
 10
201.5562523131016
 20
248.00000000000011
 30
0.0
 11
218.44374768689809
 21
248.00000000000011
 31
0.0
  0
LINE
  5
12B
  8
DATA
 62
     7
 10
199.49999999999989
 20
259.5
 30
0.0
 11
220.49999999999969
 21
259.5
 31
0.0
  0
LINE
  5
12C
  8
DATA
 62
     7
 10
200.49999999999989
 20
257.0
 30
0.0
 11
219.5
 21
257.0
 31
0.0
  0
LINE
  5
12D
  8
DATA
 62
     7
 10
200.49999999999989
 20
257.0
 30
0.0
 11
200.49999999999989
 21
259.5
 31
0.0
  0
LINE
  5
12E
  8
DATA
 62
     7
 10
214.99999999999989
 20
257.0
 30
0.0
 11
214.99999999999989
 21
259.5
 31
0.0
  0
LINE
  5
12F
  8
DATA
 62
     7
 10
219.5
 20
257.0
 30
0.0
 11
219.5
 21
259.50000000000028
 31
0.0
  0
LINE
  5
130
  8
DATA
 62
     7
 10
164.99999999999989
 20
261.5
 30
0.0
 11
199.49999999999969
 21
261.5
 31
0.0
  0
LINE
  5
131
  8
DATA
 62
     7
 10
164.99999999999989
 20
261.5
 30
0.0
 11
164.99999999999989
 21
275.0
 31
0.0
  0
LINE
  5
132
  8
DATA
 62
     7
 10
201.0
 20
261.63287429282849
 30
0.0
 11
201.0
 21
269.50000000000011
 31
0.0
  0
LINE
  5
133
  8
DATA
 62
     7
 10
219.0
 20
261.63287429282877
 30
0.0
 11
219.00000000000011
 21
269.50000000000011
 31
0.0
  0
ARC
  5
134
  8
DATA
 62
     7
 10
210.0000000000004
 20
151.4999999999786
 30
0.0
 40
110.5000000000213
 50
84.547378012188815
 51
95.452621987811682
  0
LINE
  5
135
  8
DATA
 62
     7
 10
210.0
 20
300.0
 30
0.0
 11
235.0
 21
275.0
 31
0.0
  0
LINE
  5
136
  8
DATA
 62
     7
 10
184.99999999999989
 20
350.0
 30
0.0
 11
209.99999999999969
 21
325.0
 31
0.0
  0
TEXT
  5
137
  8
DATA
 62
     7
 10
200.2934699530511
 20
306.85546875
 30
0.0
 40
8.266448974609375
  1
天井
 41
0.7
 11
200.2934699530511
 21
315.12191772460937
 31
0.0
 73
     3
  0
ARC
  5
138
  8
DATA
 62
     7
 10
163.75000000000011
 20
409.99999999999972
 30
0.0
 40
17.250000000000039
 50
85.844489731508176
 51
274.1555102684917
  0
LINE
  5
139
  8
DATA
 62
     7
 10
167.4999999999998
 20
378.53384687501477
 30
0.0
 11
199.6129177520817
 21
403.50607804366422
 31
0.0
  0
LINE
  5
13A
  8
DATA
 62
     7
 10
170.24304024549809
 20
377.50000000000011
 30
0.0
 11
201.1475976332124
 21
401.5325640045823
 31
0.0
  0
LINE
  5
13B
  8
DATA
 62
     7
 10
164.99999999999989
 20
442.0
 30
0.0
 11
164.99999999999989
 21
377.99999999999989
 31
0.0
  0
LINE
  5
13C
  8
DATA
 62
     7
 10
167.49999999999989
 20
378.53384687501489
 30
0.0
 11
167.5
 21
441.466153124985
 31
0.0
  0
CIRCLE
  5
13D
  8
DATA
 62
     7
 10
210.00000000000011
 20
384.99999999999977
 30
0.0
 40
3.6000000000000218
  0
LINE
  5
13E
  8
DATA
 62
     7
 10
197.75
 20
377.50000000000011
 30
0.0
 11
197.75
 21
384.99999999999977
 31
0.0
  0
LINE
  5
13F
  8
DATA
 62
     7
 10
222.25
 20
377.50000000000011
 30
0.0
 11
222.25
 21
384.99999999999977
 31
0.0
  0
ARC
  5
140
  8
DATA
 62
     7
 10
167.99999999999989
 20
377.99999999999989
 30
0.0
 40
3.0
 50
180.0
 51
270.0
  0
LINE
  5
141
  8
DATA
 62
     7
 10
167.4999999999998
 20
441.46615312498523
 30
0.0
 11
199.6129177520817
 21
416.4939219563359
 31
0.0
  0
LINE
  5
142
  8
DATA
 62
     7
 10
170.24304024549809
 20
442.49999999999989
 30
0.0
 11
201.1475976332124
 21
418.46743599541742
 31
0.0
  0
LINE
  5
143
  8
DATA
 62
     7
 10
167.4999999999998
 20
422.25
 30
0.0
 11
175.5
 21
422.25
 31
0.0
  0
LINE
  5
144
  8
DATA
 62
     7
 10
167.4999999999998
 20
397.75
 30
0.0
 11
175.5
 21
397.75
 31
0.0
  0
CIRCLE
  5
145
  8
DATA
 62
     7
 10
175.5
 20
410.0
 30
0.0
 40
3.6000000000000218
  0
ARC
  5
146
  8
DATA
 62
     7
 10
167.99999999999989
 20
442.0
 30
0.0
 40
3.0
 50
90.0
 51
180.0
  0
ARC
  5
147
  8
DATA
 62
     7
 10
173.30487804878021
 20
410.0000000000008
 30
0.0
 40
12.44512195122045
 50
280.15921572002958
 51
79.84078427996883
  0
ARC
  5
148
  8
DATA
 62
     7
 10
210.00000000000011
 20
410.0
 30
0.0
 40
15.00000000000003
 50
146.91019184719889
 51
213.08980815280111
  0
LINE
  5
149
  8
DATA
 62
     7
 10
205.5
 20
402.20577136593988
 30
0.0
 11
214.5
 21
402.20577136593988
 31
0.0
  0
LINE
  5
14A
  8
DATA
 62
     7
 10
214.5
 20
417.79422863405989
 30
0.0
 11
205.50000000000011
 21
417.79422863405989
 31
0.0
  0
CIRCLE
  5
14B
  8
DATA
 62
     7
 10
210.00000000000011
 20
410.0
 30
0.0
 40
12.25
  0
ARC
  5
14C
  8
DATA
 62
     7
 10
209.99999999999901
 20
382.80487804877998
 30
0.0
 40
12.44512195122047
 50
10.15921572003017
 51
169.84078427996869
  0
CIRCLE
  5
14D
  8
DATA
 62
     7
 10
210.00000000000011
 20
410.0
 30
0.0
 40
4.75
  0
ARC
  5
14E
  8
DATA
 62
     7
 10
209.99999999999901
 20
437.19512195121968
 30
0.0
 40
12.44512195122052
 50
190.1592157200312
 51
349.8407842799698
  0
CIRCLE
  5
14F
  8
DATA
 62
     7
 10
210.00000000000011
 20
434.99999999999989
 30
0.0
 40
3.6000000000000218
  0
ARC
  5
150
  8
DATA
 62
     7
 10
210.00000000000011
 20
410.0
 30
0.0
 40
15.000000000000011
 50
97.045270007903582
 51
137.34980815280099
  0
LINE
  5
151
  8
DATA
 62
     7
 10
205.50000000000011
 20
417.79422863405989
 30
0.0
 11
201.0000000000002
 21
410.0
 31
0.0
  0
LINE
  5
152
  8
DATA
 62
     7
 10
201.0000000000002
 20
410.0
 30
0.0
 11
205.5
 21
402.20577136593988
 31
0.0
  0
ARC
  5
153
  8
DATA
 62
     7
 10
210.00000000000011
 20
410.0
 30
0.0
 40
14.99999999999998
 50
222.65019184719881
 51
262.95472999209642
  0
LINE
  5
154
  8
DATA
 62
     7
 10
197.75
 20
434.99999999999989
 30
0.0
 11
197.75
 21
442.49999999999989
 31
0.0
  0
ARC
  5
155
  8
DATA
 62
     7
 10
210.00000000000011
 20
410.0
 30
0.0
 40
14.99999999999998
 50
42.650191847198741
 51
82.954729992100326
  0
LINE
  5
156
  8
DATA
 62
     7
 10
214.5
 20
402.20577136593988
 30
0.0
 11
219.00000000000011
 21
410.0
 31
0.0
  0
LINE
  5
157
  8
DATA
 62
     7
 10
219.00000000000011
 20
410.0
 30
0.0
 11
214.5
 21
417.79422863405989
 31
0.0
  0
ARC
  5
158
  8
DATA
 62
     7
 10
210.00000000000011
 20
410.0
 30
0.0
 40
15.0
 50
277.04527000789972
 51
317.3498081528013
  0
LINE
  5
159
  8
DATA
 62
     7
 10
222.25
 20
434.99999999999989
 30
0.0
 11
222.25
 21
442.49999999999989
 31
0.0
  0
ARC
  5
15A
  8
DATA
 62
     7
 10
210.00000000000011
 20
410.0
 30
0.0
 40
14.99999999999997
 50
326.91019184719931
 51
33.089808152800693
  0
LINE
  5
15B
  8
DATA
 62
     7
 10
255.0
 20
261.5
 30
0.0
 11
255.0
 21
275.0
 31
0.0
  0
LINE
  5
15C
  8
DATA
 62
     7
 10
260.0
 20
350.0
 30
0.0
 11
285.0
 21
325.0
 31
0.0
  0
ARC
  5
15D
  8
DATA
 62
     7
 10
252.0
 20
442.0
 30
0.0
 40
3.0
 50
0.0
 51
90.0
  0
LINE
  5
15E
  8
DATA
 62
     7
 10
244.5000000000002
 20
397.75
 30
0.0
 11
252.5000000000002
 21
397.75
 31
0.0
  0
LINE
  5
15F
  8
DATA
 62
     7
 10
244.5000000000002
 20
422.25
 30
0.0
 11
252.50000000000011
 21
422.25
 31
0.0
  0
ARC
  5
160
  8
DATA
 62
     7
 10
252.00000000000011
 20
377.99999999999989
 30
0.0
 40
3.0
 50
270.0
 51
0.0
  0
LINE
  5
161
  8
DATA
 62
     7
 10
255.0
 20
377.99999999999989
 30
0.0
 11
255.0
 21
442.0
 31
0.0
  0
LINE
  5
162
  8
DATA
 62
     7
 10
252.50000000000011
 20
378.53384687501512
 30
0.0
 11
252.50000000000011
 21
441.46615312498483
 31
0.0
  0
TEXT
  5
163
  8
DATA
 62
     7
 10
224.1764274388093
 20
-202.89983333333331
 30
0.0
 40
7.3297851562499989
  1
MTC-28/25CM & MTC-28/25CM-WH
 41
0.7
 11
224.1764274388093
 21
-195.57004817708329
 31
0.0
 73
     3
  0
LINE
  5
164
  8
DATA
 62
     7
 10
39.999999999999929
 20
200.0
 30
0.0
 11
90.000000000000057
 21
200.0
 31
0.0
  0
LINE
  5
165
  8
DATA
 62
     7
 10
-34.333968205070242
 20
263.1266929987674
 30
0.0
 11
39.999999999999929
 21
200.0
 31
0.0
  0
SOLID
  5
166
  8
DATA
 62
     7
 10
-34.333968205070242
 20
263.1266929987674
 30
0.0
 11
-25.470955064724251
 21
258.80391265733323
 31
0.0
 12
-28.81976384217241
 22
254.95154883793239
 32
0.0
 13
-28.81976384217241
 23
254.95154883793239
 33
0.0
  0
TEXT
  5
167
  8
DATA
 62
     7
 10
50.860433846237058
 20
204.35546874999989
 30
0.0
 40
8.266448974609375
  1
ベース
 41
0.7
 11
50.860433846237058
 21
212.62191772460929
 31
0.0
 73
     3
  0
LINE
  5
168
  8
DATA
 62
     7
 10
164.99999999999989
 20
261.5
 30
0.0
 11
90.000000000000057
 21
200.0
 31
0.0
  0
SOLID
  5
169
  8
DATA
 62
     7
 10
164.99999999999989
 20
261.5
 30
0.0
 11
159.20384632472761
 21
253.52227887308271
 31
0.0
 12
155.99152310951689
 22
257.48916767741792
 32
0.0
 13
155.99152310951689
 23
257.48916767741792
 33
0.0
  0
ENDSEC
  0
EOF
