  0
SECTION
  2
HEADER
  9
$ACADVER
  1
AC1009
  9
$INSBASE
 10
0.0
 20
0.0
 30
0.0
  9
$EXTMIN
 10
-800.05492744973753
 20
-1204.432801395556
 30
-0.0015258207003583
  9
$EXTMAX
 10
1000.05493583164
 20
1471.867842570083
 30
0.0000000349246037
  9
$LIMMIN
 10
0.0
 20
0.0
  9
$LIMMAX
 10
0.0
 20
0.0
  9
$ORTHOMODE
 70
     0
  9
$REGENMODE
 70
     1
  9
$FILLMODE
 70
     1
  9
$QTEXTMODE
 70
     0
  9
$MIRRTEXT
 70
     1
  9
$DRAGMODE
 70
     2
  9
$LTSCALE
 40
50.799999999999997
  9
$OSMODE
 70
   231
  9
$ATTMODE
 70
     1
  9
$TEXTSIZE
 40
0.0
  9
$TRACEWID
 40
1.0
  9
$TEXTSTYLE
  7
STANDARD
  9
$CLAYER
  8
DATA
  9
$CELTYPE
  6
BYLAYER
  9
$CECOLOR
 62
   256
  9
$DIMSCALE
 40
1.0
  9
$DIMASZ
 40
0.18
  9
$DIMEXO
 40
0.0625
  9
$DIMDLI
 40
0.38
  9
$DIMRND
 40
0.0
  9
$DIMDLE
 40
0.0
  9
$DIMEXE
 40
0.18
  9
$DIMTP
 40
0.0
  9
$DIMTM
 40
0.0
  9
$DIMTXT
 40
0.18
  9
$DIMCEN
 40
0.09
  9
$DIMTSZ
 40
0.0
  9
$DIMTOL
 70
     0
  9
$DIMLIM
 70
     0
  9
$DIMTIH
 70
     1
  9
$DIMTOH
 70
     1
  9
$DIMSE1
 70
     0
  9
$DIMSE2
 70
     0
  9
$DIMTAD
 70
     0
  9
$DIMZIN
 70
     0
  9
$DIMBLK
  1

  9
$DIMASO
 70
     1
  9
$DIMSHO
 70
     1
  9
$DIMPOST
  1

  9
$DIMAPOST
  1

  9
$DIMALT
 70
     0
  9
$DIMALTD
 70
     2
  9
$DIMALTF
 40
25.399999999999999
  9
$DIMLFAC
 40
1.0
  9
$DIMTOFL
 70
     0
  9
$DIMTVP
 40
0.0
  9
$DIMTIX
 70
     0
  9
$DIMSOXD
 70
     0
  9
$DIMSAH
 70
     0
  9
$DIMBLK1
  1

  9
$DIMBLK2
  1

  9
$DIMSTYLE
  2
STANDARD
  9
$DIMCLRD
 70
     0
  9
$DIMCLRE
 70
     0
  9
$DIMCLRT
 70
     0
  9
$DIMTFAC
 40
1.0
  9
$DIMGAP
 40
0.09
  9
$LUNITS
 70
     2
  9
$LUPREC
 70
     4
  9
$SKETCHINC
 40
0.1
  9
$FILLETRAD
 40
0.0
  9
$AUNITS
 70
     0
  9
$AUPREC
 70
     0
  9
$MENU
  1
acad
  9
$ELEVATION
 40
0.0
  9
$PELEVATION
 40
0.0
  9
$THICKNESS
 40
0.0
  9
$LIMCHECK
 70
     0
  9
$BLIPMODE
 70
     0
  9
$CHAMFERA
 40
0.0
  9
$CHAMFERB
 40
0.0
  9
$SKPOLY
 70
     0
  9
$TDCREATE
 40
2453987.7008449081
  9
$TDUPDATE
 40
2453987.7026149309
  9
$TDINDWG
 40
0.0002876505
  9
$TDUSRTIMER
 40
0.0002874653
  9
$USRTIMER
 70
     1
  9
$ANGBASE
 50
0.0
  9
$ANGDIR
 70
     0
  9
$PDMODE
 70
     1
  9
$PDSIZE
 40
-2.0
  9
$PLINEWID
 40
0.0
  9
$COORDS
 70
     1
  9
$SPLFRAME
 70
     0
  9
$SPLINETYPE
 70
     6
  9
$SPLINESEGS
 70
     8
  9
$ATTDIA
 70
     0
  9
$ATTREQ
 70
     1
  9
$HANDLING
 70
     1
  9
$HANDSEED
  5
2DA
  9
$SURFTAB1
 70
     6
  9
$SURFTAB2
 70
     6
  9
$SURFTYPE
 70
     6
  9
$SURFU
 70
     6
  9
$SURFV
 70
     6
  9
$UCSNAME
  2

  9
$UCSORG
 10
0.0
 20
0.0
 30
0.0
  9
$UCSXDIR
 10
1.0
 20
0.0
 30
0.0
  9
$UCSYDIR
 10
0.0
 20
1.0
 30
0.0
  9
$PUCSNAME
  2

  9
$PUCSORG
 10
0.0
 20
0.0
 30
0.0
  9
$PUCSXDIR
 10
1.0
 20
0.0
 30
0.0
  9
$PUCSYDIR
 10
0.0
 20
1.0
 30
0.0
  9
$USERI1
 70
     0
  9
$USERI2
 70
     0
  9
$USERI3
 70
     0
  9
$USERI4
 70
     0
  9
$USERI5
 70
     0
  9
$USERR1
 40
0.0
  9
$USERR2
 40
0.0
  9
$USERR3
 40
0.0
  9
$USERR4
 40
0.0
  9
$USERR5
 40
0.0
  9
$WORLDVIEW
 70
     1
  9
$SHADEDGE
 70
     3
  9
$SHADEDIF
 70
    70
  9
$TILEMODE
 70
     1
  9
$MAXACTVP
 70
    64
  9
$PLIMCHECK
 70
     0
  9
$PEXTMIN
 10
1.0000000000000000E+020
 20
1.0000000000000000E+020
 30
1.0000000000000000E+020
  9
$PEXTMAX
 10
-1.0000000000000000E+020
 20
-1.0000000000000000E+020
 30
-1.0000000000000000E+020
  9
$PLIMMIN
 10
0.0
 20
0.0
  9
$PLIMMAX
 10
12.0
 20
9.0
  9
$UNITMODE
 70
     0
  9
$VISRETAIN
 70
     0
  9
$PLINEGEN
 70
     1
  9
$PSLTSCALE
 70
     0
  0
ENDSEC
  0
SECTION
  2
TABLES
  0
TABLE
  2
VPORT
 70
     1
  0
VPORT
  2
*ACTIVE
 70
     0
 10
0.0
 20
0.0
 11
1.0
 21
1.0
 12
100.0000041909516
 22
133.7175205872631
 13
0.0
 23
0.0
 14
1.0
 24
1.0
 15
0.0
 25
0.0
 16
0.0
 26
0.0
 36
1.0
 17
0.0
 27
0.0
 37
0.0
 40
2698.510607815977
 41
1.6703601108033239
 42
50.0
 43
0.0
 44
0.0
 50
0.0
 51
0.0
 71
     0
 72
  2000
 73
     1
 74
     1
 75
     0
 76
     0
 77
     0
 78
     0
  0
ENDTAB
  0
TABLE
  2
LTYPE
 70
    11
  0
LTYPE
  2
CONTINUOUS
 70
     0
  3
Solid line
 72
    65
 73
     0
 40
0.0
  0
LTYPE
  2
STYLE_01
 70
     0
  3

 72
    65
 73
     2
 40
0.4166412353515625
 49
0.208282470703125
 49
-0.2083587646484375
  0
LTYPE
  2
STYLE_06
 70
     0
  3

 72
    65
 73
     4
 40
1.0416412353515621
 49
0.625
 49
-0.208282470703125
 49
0.069427490234375
 49
-0.1389312744140625
  0
ENDTAB
  0
TABLE
  2
LAYER
 70
     7
  0
LAYER
  2
0
 70
     0
 62
     7
  6
CONTINUOUS
  0
LAYER
  2
DATA
 70
     0
 62
     7
  6
CONTINUOUS
  0
LAYER
  2
HIBINO-BASE
 70
     0
 62
     7
  6
CONTINUOUS
  0
LAYER
  2
SIDE-DOWN-23
 70
     0
 62
     7
  6
CONTINUOUS
  0
LAYER
  2
TOP20_5
 70
     0
 62
     7
  6
CONTINUOUS
  0
LAYER
  2
BRACKET
 70
     0
 62
     7
  6
CONTINUOUS
  0
LAYER
  2
DIMNSIONS
 70
     0
 62
     7
  6
CONTINUOUS
  0
ENDTAB
  0
TABLE
  2
STYLE
 70
     2
  0
STYLE
  2
STANDARD
 70
     0
 40
0.0
 41
1.0
 50
0.0
 71
     0
 42
0.0
  3
txt
  4
BIGFONT.SHX
  0
ENDTAB
  0
TABLE
  2
VIEW
 70
     0
  0
ENDTAB
  0
TABLE
  2
UCS
 70
     0
  0
ENDTAB
  0
TABLE
  2
APPID
 70
     1
  0
APPID
  2
ACAD
 70
     0
  0
ENDTAB
  0
TABLE
  2
DIMSTYLE
 70
     1
  0
DIMSTYLE
  2
STANDARD
 70
     0
  3

  4

  5

  6

  7

 40
1.0
 41
0.18
 42
0.0625
 43
0.38
 44
0.18
 45
0.0
 46
0.0
 47
0.0
 48
0.0
140
0.18
141
0.09
142
0.0
143
25.399999999999999
144
1.0
145
0.0
146
1.0
147
0.09
 71
     0
 72
     0
 73
     1
 74
     1
 75
     0
 76
     0
 77
     0
 78
     0
170
     0
171
     2
172
     0
173
     0
174
     0
175
     0
176
     0
177
     0
178
     0
  0
ENDTAB
  0
ENDSEC
  0
SECTION
  2
BLOCKS
  0
BLOCK
  8
0
  2
$MODEL_SPACE
 70
     0
 10
0.0
 20
0.0
 30
0.0
  3
$MODEL_SPACE
  1

  0
ENDBLK
  5
29F
  8
0
  0
BLOCK
 67
     1
  8
0
  2
$PAPER_SPACE
 70
     0
 10
0.0
 20
0.0
 30
0.0
  3
$PAPER_SPACE
  1

  0
ENDBLK
  5
29B
 67
     1
  8
0
  0
ENDSEC
  0
SECTION
  2
ENTITIES
  0
LINE
  5
2E
  8
HIBINO-BASE
  6
CONTINUOUS
 62
     7
 10
-800.0
 20
1471.786335
 30
0.0
 11
1000.0
 21
1471.786335
 31
0.0
  0
LINE
  5
2F
  8
HIBINO-BASE
  6
CONTINUOUS
 62
     7
 10
1000.0
 20
-1128.213665
 30
0.0
 11
-800.0
 21
-1128.213665
 31
0.0
  0
LINE
  5
30
  8
HIBINO-BASE
  6
CONTINUOUS
 62
     7
 10
-800.0
 20
-1128.213665
 30
0.0
 11
-800.0
 21
1471.786335
 31
0.0
  0
TEXT
  5
31
  8
HIBINO-BASE
 62
     7
 10
-728.15999999999985
 20
-1192.3004430000001
 30
0.0
 40
36.000441796874988
  1
Hibino Corporation
 41
0.8
 11
-728.15999999999985
 21
-1156.300001203125
 31
0.0
 73
     3
  0
LINE
  5
32
  8
HIBINO-BASE
  6
CONTINUOUS
 62
     7
 10
1000.0
 20
1471.786335
 30
0.0
 11
1000.0
 21
-1128.213665
 31
0.0
  0
LINE
  5
33
  8
HIBINO-BASE
  6
CONTINUOUS
 62
     7
 10
100.0
 20
-903.21366500000011
 30
0.0
 11
1000.0
 21
-903.21366500000011
 31
0.0
  0
LINE
  5
34
  8
HIBINO-BASE
  6
CONTINUOUS
 62
     7
 10
100.0
 20
-1128.213665
 30
0.0
 11
100.0
 21
-903.21366500000011
 31
0.0
  0
TEXT
  5
35
  8
HIBINO-BASE
 62
     7
 10
109.0
 20
-930.21369700000014
 30
0.0
 40
18.000259374999999
  1
NOTE
 41
0.8
 11
109.0
 21
-912.21343762499998
 31
0.0
 73
     3
  0
LINE
  5
36
  8
HIBINO-BASE
  6
CONTINUOUS
 62
     7
 10
450.0
 20
-1128.213665
 30
0.0
 11
450.0
 21
-903.21366500000011
 31
0.0
  0
TEXT
  5
37
  8
HIBINO-BASE
 62
     7
 10
459.0
 20
-930.21369700000014
 30
0.0
 40
18.000259374999999
  1
TITLE
 41
0.8
 11
459.0
 21
-912.21343762499998
 31
0.0
 73
     3
  0
TEXT
  5
38
  8
HIBINO-BASE
 62
     7
 10
600.68389999999988
 20
-1192.3004430000001
 30
0.0
 40
36.000441796874988
  1
ヒビノ株式会社
 41
0.8
 11
600.68389999999988
 21
-1156.300001203125
 31
0.0
 73
     3
  0
LINE
  5
39
  8
HIBINO-BASE
  6
CONTINUOUS
 62
     7
 10
100.0
 20
-1028.213665
 30
0.0
 11
1000.0
 21
-1028.213665
 31
0.0
  0
TEXT
  5
3A
  8
HIBINO-BASE
 62
     7
 10
584.0
 20
-1054.6504970000001
 30
0.0
 40
18.000259374999999
  1
DRAWN
 41
0.8
 11
584.0
 21
-1036.650237625
 31
0.0
 73
     3
  0
TEXT
  5
3B
  8
HIBINO-BASE
 62
     7
 10
334.0
 20
-1054.6504970000001
 30
0.0
 40
18.000259374999999
  1
DATE
 41
0.8
 11
334.0
 21
-1036.650237625
 31
0.0
 73
     3
  0
TEXT
  5
3C
  8
HIBINO-BASE
 62
     7
 10
111.0
 20
-1054.408226999999
 30
0.0
 40
16.288437109374989
  1
図面サイズ
 41
0.8
 11
111.0
 21
-1038.1197898906239
 31
0.0
 73
     3
  0
TEXT
  5
3D
  8
HIBINO-BASE
 62
     7
 10
234.0
 20
-1054.6504970000001
 30
0.0
 40
18.000259374999999
  1
SCALE
 41
0.8
 11
234.0
 21
-1036.650237625
 31
0.0
 73
     3
  0
TEXT
  5
3E
  8
HIBINO-BASE
 62
     7
 10
459.0
 20
-1054.6504970000001
 30
0.0
 40
18.000259374999999
  1
DESIGN
 41
0.8
 11
459.0
 21
-1036.650237625
 31
0.0
 73
     3
  0
TEXT
  5
3F
  8
HIBINO-BASE
 62
     7
 10
834.0
 20
-1054.6504970000001
 30
0.0
 40
18.000259374999999
  1
DRAWING NO.
 41
0.8
 11
834.0
 21
-1036.650237625
 31
0.0
 73
     3
  0
TEXT
  5
40
  8
HIBINO-BASE
 62
     7
 10
708.99999999999977
 20
-1054.6504970000001
 30
0.0
 40
18.000259374999999
  1
CHECK
 41
0.8
 11
708.99999999999977
 21
-1036.650237625
 31
0.0
 73
     3
  0
LINE
  5
41
  8
HIBINO-BASE
  6
CONTINUOUS
 62
     7
 10
243.75
 20
-1115.713665
 30
0.0
 11
281.25
 21
-1078.213665
 31
0.0
  0
TEXT
  5
42
  8
HIBINO-BASE
 62
     7
 10
237.5
 20
-1095.3708569999999
 30
0.0
 40
21.71786484375
  1
1
 41
0.8
 11
237.5
 21
-1073.6529921562501
 31
0.0
 73
     3
  0
LINE
  5
43
  8
HIBINO-BASE
  6
CONTINUOUS
 62
     7
 10
225.0
 20
-1128.213665
 30
0.0
 11
225.0
 21
-1028.213665
 31
0.0
  0
LINE
  5
44
  8
HIBINO-BASE
  6
CONTINUOUS
 62
     7
 10
325.0
 20
-1128.213665
 30
0.0
 11
325.0
 21
-1028.213665
 31
0.0
  0
LINE
  5
45
  8
HIBINO-BASE
  6
CONTINUOUS
 62
     7
 10
574.99999999999989
 20
-1028.213665
 30
0.0
 11
574.99999999999989
 21
-1128.213665
 31
0.0
  0
LINE
  5
46
  8
HIBINO-BASE
  6
CONTINUOUS
 62
     7
 10
825.0
 20
-1028.213665
 30
0.0
 11
825.0
 21
-1128.213665
 31
0.0
  0
LINE
  5
47
  8
HIBINO-BASE
  6
CONTINUOUS
 62
     7
 10
699.99999999999989
 20
-1128.213665
 30
0.0
 11
699.99999999999989
 21
-1028.213665
 31
0.0
  0
TEXT
  5
48
  8
HIBINO-BASE
 62
     7
 10
139.10890000000001
 20
-1103.2291029999999
 30
0.0
 40
32.576797265624997
  1
A4
 41
0.8
 11
139.10890000000001
 21
-1070.652305734375
 31
0.0
 73
     3
  0
TEXT
  5
49
  8
HIBINO-BASE
 62
     7
 10
333.5653999999999
 20
-1101.4902970000001
 30
0.0
 40
18.000259374999999
  1
'01.09.
 41
0.8
 11
333.5653999999999
 21
-1083.490037625
 31
0.0
 73
     3
  0
TEXT
  5
4A
  8
HIBINO-BASE
 62
     7
 10
275.0
 20
-1114.1208569999999
 30
0.0
 40
21.71786484375
  1
10
 41
0.8
 11
275.0
 21
-1092.4029921562501
 31
0.0
 73
     3
  0
LINE
  5
4B
  8
SIDE-DOWN-23
  6
CONTINUOUS
 62
     7
 10
297.52232944797322
 20
140.04148519842079
 30
0.0
 11
297.52232944797322
 21
220.0
 31
0.0
  0
LINE
  5
4C
  8
SIDE-DOWN-23
  6
CONTINUOUS
 62
     7
 10
221.86357041960659
 20
-24.24517488394622
 30
0.0
 11
221.86357041960659
 21
220.0
 31
0.0
  0
LINE
  5
4D
  8
SIDE-DOWN-23
  6
CONTINUOUS
 62
     7
 10
221.86357041960659
 20
200.0
 30
0.0
 11
155.05309264182881
 21
200.0
 31
0.0
  0
LINE
  5
4E
  8
SIDE-DOWN-23
  6
CONTINUOUS
 62
     7
 10
297.52232944797322
 20
200.0
 30
0.0
 11
221.86357041960659
 21
200.0
 31
0.0
  0
LINE
  5
4F
  8
SIDE-DOWN-23
  6
CONTINUOUS
 62
     7
 10
297.52232944797322
 20
200.0
 30
0.0
 11
272.51610386203572
 21
193.2996020484976
 31
0.0
  0
LINE
  5
50
  8
SIDE-DOWN-23
  6
CONTINUOUS
 62
     7
 10
297.52232944797322
 20
200.0
 30
0.0
 11
272.51610386203572
 21
206.7003979515024
 31
0.0
  0
LINE
  5
51
  8
SIDE-DOWN-23
  6
CONTINUOUS
 62
     7
 10
221.86357041960659
 20
200.0
 30
0.0
 11
246.86979600554409
 21
206.7003979515024
 31
0.0
  0
LINE
  5
52
  8
SIDE-DOWN-23
  6
CONTINUOUS
 62
     7
 10
221.86357041960659
 20
200.0
 30
0.0
 11
246.86979600554409
 21
193.2996020484976
 31
0.0
  0
TEXT
  5
53
  8
SIDE-DOWN-23
 62
     7
 10
155.05309264182881
 20
209.93888888888881
 30
0.0
 40
27.147352430555561
  1
76
 41
0.8
 11
155.05309264182881
 21
237.08624131944441
 31
0.0
 73
     3
  0
LINE
  5
54
  8
SIDE-DOWN-23
  6
CONTINUOUS
 62
     7
 10
653.42560852965153
 20
-491.31298781637179
 30
0.0
 11
870.0
 21
-491.31298781637179
 31
0.0
  0
LINE
  5
55
  8
SIDE-DOWN-23
  6
CONTINUOUS
 62
     7
 10
537.52232944797311
 20
-395.44751480157919
 30
0.0
 11
870.0
 21
-395.44751480157919
 31
0.0
  0
LINE
  5
56
  8
SIDE-DOWN-23
  6
CONTINUOUS
 62
     7
 10
850.0
 20
-491.31298781637179
 30
0.0
 11
850.0
 21
-549.42166559414954
 31
0.0
  0
LINE
  5
57
  8
SIDE-DOWN-23
  6
CONTINUOUS
 62
     7
 10
850.0
 20
-491.31298781637179
 30
0.0
 11
850.0
 21
-395.44751480157919
 31
0.0
  0
LINE
  5
58
  8
SIDE-DOWN-23
  6
CONTINUOUS
 62
     7
 10
850.0
 20
-491.31298781637179
 30
0.0
 11
843.2996020484976
 21
-466.30676223043429
 31
0.0
  0
LINE
  5
59
  8
SIDE-DOWN-23
  6
CONTINUOUS
 62
     7
 10
850.0
 20
-491.31298781637179
 30
0.0
 11
856.70039795150228
 21
-466.30676223043429
 31
0.0
  0
LINE
  5
5A
  8
SIDE-DOWN-23
  6
CONTINUOUS
 62
     7
 10
850.0
 20
-395.44751480157919
 30
0.0
 11
856.70039795150228
 21
-420.45374038751658
 31
0.0
  0
LINE
  5
5B
  8
SIDE-DOWN-23
  6
CONTINUOUS
 62
     7
 10
850.0
 20
-395.44751480157919
 30
0.0
 11
843.2996020484976
 21
-420.45374038751658
 31
0.0
  0
TEXT
  5
5C
  8
SIDE-DOWN-23
 62
     7
 10
840.06111111111113
 20
-549.42166559414954
 30
0.0
 40
27.147352430555561
  1
96
 50
90.0
 41
0.8
 11
812.91375868055547
 21
-549.42166559414954
 31
0.0
 73
     3
  0
LINE
  5
5D
  8
SIDE-DOWN-23
  6
CONTINUOUS
 62
     7
 10
578.52232944797311
 20
-395.28141480157922
 30
0.0
 11
578.52232944797311
 21
-620.0
 31
0.0
  0
LINE
  5
5E
  8
SIDE-DOWN-23
  6
CONTINUOUS
 62
     7
 10
788.78643118606158
 20
-277.29207518073918
 30
0.0
 11
788.78643118606158
 21
-620.0
 31
0.0
  0
LINE
  5
5F
  8
SIDE-DOWN-23
  6
CONTINUOUS
 62
     7
 10
578.52232944797311
 20
-600.0
 30
0.0
 11
788.78643118606158
 21
-600.0
 31
0.0
  0
LINE
  5
60
  8
SIDE-DOWN-23
  6
CONTINUOUS
 62
     7
 10
578.52232944797311
 20
-600.0
 30
0.0
 11
603.52855503391038
 21
-593.2996020484976
 31
0.0
  0
LINE
  5
61
  8
SIDE-DOWN-23
  6
CONTINUOUS
 62
     7
 10
578.52232944797311
 20
-600.0
 30
0.0
 11
603.52855503391038
 21
-606.7003979515024
 31
0.0
  0
LINE
  5
62
  8
SIDE-DOWN-23
  6
CONTINUOUS
 62
     7
 10
788.78643118606158
 20
-600.0
 30
0.0
 11
763.7802056001243
 21
-606.7003979515024
 31
0.0
  0
LINE
  5
63
  8
SIDE-DOWN-23
  6
CONTINUOUS
 62
     7
 10
788.78643118606158
 20
-600.0
 30
0.0
 11
763.7802056001243
 21
-593.2996020484976
 31
0.0
  0
TEXT
  5
64
  8
SIDE-DOWN-23
 62
     7
 10
657.19604698368403
 20
-590.06111111111102
 30
0.0
 40
27.147352430555561
  1
210
 41
0.8
 11
657.19604698368403
 21
-562.91375868055536
 31
0.0
 73
     3
  0
LINE
  5
65
  8
SIDE-DOWN-23
  6
STYLE_01
 62
     7
 10
222.26554420992059
 20
-45.745261486486569
 30
0.0
 11
297.52232944797322
 21
-176.0938371330931
 31
0.0
  0
LINE
  5
66
  8
SIDE-DOWN-23
  6
STYLE_01
 62
     7
 10
424.1662342976079
 20
-395.44751480157919
 30
0.0
 11
477.40454420992052
 21
-487.6589724788023
 31
0.0
  0
LINE
  5
67
  8
SIDE-DOWN-23
  6
STYLE_01
 62
     7
 10
523.74432710103451
 20
-466.92183085792283
 30
0.0
 11
670.53563304249701
 21
-382.17183085792288
 31
0.0
  0
LINE
  5
68
  8
SIDE-DOWN-23
  6
STYLE_01
 62
     7
 10
263.39432710103472
 20
-15.982403107365821
 30
0.0
 11
297.52232944797322
 21
-75.093837133093004
 31
0.0
  0
LINE
  5
69
  8
SIDE-DOWN-23
  6
STYLE_01
 62
     7
 10
482.47861148576021
 20
-395.44751480157919
 30
0.0
 11
523.74432710103451
 21
-466.92183085792283
 31
0.0
  0
LINE
  5
6A
  8
SIDE-DOWN-23
  6
STYLE_01
 62
     7
 10
481.37773500631522
 20
-488.82534080632303
 30
0.0
 11
522.87830169725021
 21
-467.42183085792283
 31
0.0
  0
LINE
  5
6B
  8
SIDE-DOWN-23
  6
STYLE_01
 62
     7
 10
523.74432710103451
 20
-466.92183085792283
 30
0.0
 11
713.28013267334779
 21
-334.20747596266563
 31
0.0
  0
LINE
  5
6C
  8
SIDE-DOWN-23
  6
STYLE_01
 62
     7
 10
263.39432710103472
 20
-15.982403107365821
 30
0.0
 11
297.52232944797322
 21
3.721408234543218
 31
0.0
  0
LINE
  5
6D
  8
SIDE-DOWN-23
  6
STYLE_01
 62
     7
 10
223.24203500631521
 20
-41.721193158965612
 30
0.0
 11
262.5283016972503
 21
-16.482403107365819
 31
0.0
  0
LINE
  5
6E
  8
SIDE-DOWN-23
  6
STYLE_01
 62
     7
 10
263.39228524260608
 20
-15.983466504825399
 30
0.0
 11
297.52232944797322
 21
-0.068376580379919
 31
0.0
  0
LINE
  5
6F
  8
SIDE-DOWN-23
  6
STYLE_01
 62
     7
 10
663.12098304249696
 20
-369.32928033758242
 30
0.0
 11
670.53563304249701
 21
-382.17183085792288
 31
0.0
  0
LINE
  5
70
  8
SIDE-DOWN-23
  6
STYLE_01
 62
     7
 10
262.5283016972503
 20
-16.482403107365819
 30
0.0
 11
297.52232944797322
 21
-77.093837133092961
 31
0.0
  0
LINE
  5
71
  8
SIDE-DOWN-23
  6
STYLE_01
 62
     7
 10
481.3239109473808
 20
-395.44751480157919
 30
0.0
 11
522.87830169725021
 21
-467.42183085792283
 31
0.0
  0
LINE
  5
72
  8
SIDE-DOWN-23
  6
STYLE_01
 62
     7
 10
523.24432710103451
 20
-466.05580545413852
 30
0.0
 11
522.37830169725021
 21
-466.55580545413852
 31
0.0
  0
LINE
  5
73
  8
SIDE-DOWN-23
  6
STYLE_01
 62
     7
 10
263.02830169725041
 20
-17.348428511150239
 30
0.0
 11
263.89228524260608
 21
-16.849491908609821
 31
0.0
  0
LINE
  5
74
  8
SIDE-DOWN-23
  6
STYLE_01
 62
     7
 10
713.28013267334779
 20
-334.20747596266563
 30
0.0
 11
578.52232944797311
 21
-100.8001140599475
 31
0.0
  0
LINE
  5
75
  8
SIDE-DOWN-23
  6
STYLE_01
 62
     7
 10
641.53460969227001
 20
-199.94058494383839
 30
0.0
 11
637.20448267334768
 21
-202.44058494383839
 31
0.0
  0
LINE
  5
76
  8
SIDE-DOWN-23
  6
STYLE_01
 62
     7
 10
641.53460969227001
 20
-199.94058494383839
 30
0.0
 11
649.53460969227001
 21
-213.79699140438939
 31
0.0
  0
LINE
  5
77
  8
SIDE-DOWN-23
  6
STYLE_01
 62
     7
 10
649.53460969227001
 20
-213.79699140438939
 30
0.0
 11
645.2044826733478
 21
-216.29699140438939
 31
0.0
  0
LINE
  5
78
  8
SIDE-DOWN-23
  6
STYLE_01
 62
     7
 10
479.24529824776499
 20
-470.84725199658618
 30
0.0
 11
435.71323968140052
 21
-395.44751480157919
 31
0.0
  0
LINE
  5
79
  8
SIDE-DOWN-23
  6
STYLE_01
 62
     7
 10
297.52232944797322
 20
-156.09383713309299
 30
0.0
 11
237.74529824776491
 21
-52.556981968702416
 31
0.0
  0
LINE
  5
7A
  8
SIDE-DOWN-23
  6
STYLE_01
 62
     7
 10
470.58504420992051
 20
-475.84725199658618
 30
0.0
 11
479.24529824776499
 21
-470.84725199658618
 31
0.0
  0
LINE
  5
7B
  8
SIDE-DOWN-23
  6
STYLE_01
 62
     7
 10
229.08504420992051
 20
-57.556981968702416
 30
0.0
 11
237.74529824776491
 21
-52.556981968702416
 31
0.0
  0
ARC
  5
7C
  8
SIDE-DOWN-23
  6
STYLE_01
 62
     7
 10
480.00267042127359
 20
-486.1590590813426
 30
0.0
 40
2.9999768082437108
 50
209.9980901406829
 51
297.28122901213681
  0
ARC
  5
7D
  8
SIDE-DOWN-23
  6
STYLE_01
 62
     7
 10
224.86357042127389
 20
-44.24517488394622
 30
0.0
 40
3.000000001666622
 50
122.71877098786091
 51
210.00190985931471
  0
LINE
  5
7E
  8
SIDE-DOWN-23
  6
STYLE_01
 62
     7
 10
224.09395280073201
 20
-183.6158909727888
 30
0.0
 11
297.52232944797322
 21
-238.94814158779079
 31
0.0
  0
LINE
  5
7F
  8
SIDE-DOWN-23
  6
STYLE_01
 62
     7
 10
505.20401225817062
 20
-395.44751480157919
 30
0.0
 11
631.62008359664435
 21
-490.70885735676973
 31
0.0
  0
LINE
  5
80
  8
SIDE-DOWN-23
  6
STYLE_01
 62
     7
 10
666.17343190867916
 20
-453.51382218502653
 30
0.0
 11
768.18107833295153
 21
-318.14510323201063
 31
0.0
  0
LINE
  5
81
  8
SIDE-DOWN-23
  6
STYLE_01
 62
     7
 10
250.32392182705399
 20
-140.1487396297552
 30
0.0
 11
297.52232944797322
 21
-175.7152908509014
 31
0.0
  0
LINE
  5
82
  8
SIDE-DOWN-23
  6
STYLE_01
 62
     7
 10
564.0372548467094
 20
-376.5486922979631
 30
0.0
 11
666.17343190867916
 21
-453.51382218502653
 31
0.0
  0
LINE
  5
83
  8
SIDE-DOWN-23
  6
STYLE_01
 62
     7
 10
635.73316142126475
 20
-490.23005573958721
 30
0.0
 11
665.57161688552719
 21
-454.3124576950741
 31
0.0
  0
LINE
  5
84
  8
SIDE-DOWN-23
  6
STYLE_01
 62
     7
 10
666.17343190867916
 20
-453.51382218502653
 30
0.0
 11
788.78643118606158
 21
-257.29207518073918
 31
0.0
  0
LINE
  5
85
  8
SIDE-DOWN-23
  6
STYLE_01
 62
     7
 10
250.32392182705399
 20
-140.1487396297552
 30
0.0
 11
297.52232944797322
 21
-77.514337207685173
 31
0.0
  0
LINE
  5
86
  8
SIDE-DOWN-23
  6
STYLE_01
 62
     7
 10
223.42048855943469
 20
-179.5301711958468
 30
0.0
 11
249.72210680390191
 21
-140.94737513980249
 31
0.0
  0
LINE
  5
87
  8
SIDE-DOWN-23
  6
STYLE_01
 62
     7
 10
250.32245778894981
 20
-140.15051630992579
 30
0.0
 11
297.52232944797322
 21
-87.729776211423385
 31
0.0
  0
LINE
  5
88
  8
SIDE-DOWN-23
  6
STYLE_01
 62
     7
 10
756.3378727638069
 20
-309.22060770918199
 30
0.0
 11
768.18107833295153
 21
-318.14510323201063
 31
0.0
  0
LINE
  5
89
  8
SIDE-DOWN-23
  6
STYLE_01
 62
     7
 10
249.72210680390191
 20
-140.94737513980249
 30
0.0
 11
297.52232944797322
 21
-176.96742650905759
 31
0.0
  0
LINE
  5
8A
  8
SIDE-DOWN-23
  6
STYLE_01
 62
     7
 10
562.5484649476025
 20
-376.67894429789533
 30
0.0
 11
665.57161688552719
 21
-454.3124576950741
 31
0.0
  0
LINE
  5
8B
  8
SIDE-DOWN-23
  6
STYLE_01
 62
     7
 10
665.37479639863193
 20
-452.91200716187478
 30
0.0
 11
664.77298137547984
 21
-453.71064267192207
 31
0.0
  0
LINE
  5
8C
  8
SIDE-DOWN-23
  6
STYLE_01
 62
     7
 10
250.5207423139492
 20
-141.54919016295449
 30
0.0
 11
251.1210932989971
 21
-140.7523313330779
 31
0.0
  0
LINE
  5
8D
  8
SIDE-DOWN-23
  6
STYLE_01
 62
     7
 10
788.78643118606158
 20
-257.29207518073918
 30
0.0
 11
578.52232944797311
 21
-98.846709724776588
 31
0.0
  0
LINE
  5
8E
  8
SIDE-DOWN-23
  6
STYLE_01
 62
     7
 10
670.28207522196328
 20
-161.73195949838851
 30
0.0
 11
667.27300010620309
 21
-165.72513704862499
 31
0.0
  0
LINE
  5
8F
  8
SIDE-DOWN-23
  6
STYLE_01
 62
     7
 10
670.28207522196328
 20
-161.73195949838851
 30
0.0
 11
683.06024338272005
 21
-171.36099986882121
 31
0.0
  0
LINE
  5
90
  8
SIDE-DOWN-23
  6
STYLE_01
 62
     7
 10
683.06024338272005
 20
-171.36099986882121
 30
0.0
 11
680.05116826695962
 21
-175.35417741905769
 31
0.0
  0
LINE
  5
91
  8
SIDE-DOWN-23
  6
STYLE_01
 62
     7
 10
626.74564410662981
 20
-474.51434715552591
 30
0.0
 11
517.52232944797311
 21
-392.20867602884317
 31
0.0
  0
LINE
  5
92
  8
SIDE-DOWN-23
  6
STYLE_01
 62
     7
 10
297.52232944797322
 20
-226.4267850062285
 30
0.0
 11
241.0046927537874
 21
-183.8376909730865
 31
0.0
  0
LINE
  5
93
  8
SIDE-DOWN-23
  6
STYLE_01
 62
     7
 10
620.72749387510919
 20
-482.5007022559987
 30
0.0
 11
626.74564410662981
 21
-474.51434715552591
 31
0.0
  0
LINE
  5
94
  8
SIDE-DOWN-23
  6
STYLE_01
 62
     7
 10
234.98654252226689
 20
-191.8240460735596
 30
0.0
 11
241.0046927537874
 21
-183.8376909730865
 31
0.0
  0
ARC
  5
95
  8
SIDE-DOWN-23
  6
STYLE_01
 62
     7
 10
633.42560852965153
 20
-488.3130110081301
 30
0.0
 40
2.999976808243606
 50
232.99809014068401
 51
320.28122901213862
  0
ARC
  5
96
  8
SIDE-DOWN-23
  6
STYLE_01
 62
     7
 10
225.89931800663709
 20
-181.2199242611446
 30
0.0
 40
3.0000000016665438
 50
145.71877098786101
 51
233.0019098593155
  0
LINE
  5
97
  8
TOP20_5
  6
STYLE_01
 62
     7
 10
-348.50209999999998
 20
516.62452944797292
 30
0.0
 11
-355.87210000000022
 21
528.76942944797293
 31
0.0
  0
ARC
  5
98
  8
TOP20_5
  6
STYLE_01
 62
     7
 10
-583.24790000000007
 20
1561.3766294479719
 30
0.0
 40
1070.7999538065219
 50
282.66350006268351
 51
286.57333617637357
  0
LINE
  5
99
  8
TOP20_5
  6
STYLE_01
 62
     7
 10
-200.06450000000009
 20
844.53232944797264
 30
0.0
 11
-82.152200000000207
 21
659.44682944797285
 31
0.0
  0
LINE
  5
9A
  8
TOP20_5
  6
STYLE_01
 62
     7
 10
-74.993799999999979
 20
618.88502944797267
 30
0.0
 11
-81.801999999999921
 21
658.51012944797276
 31
0.0
  0
LINE
  5
9B
  8
TOP20_5
  6
STYLE_01
 62
     7
 10
-82.738599999999906
 20
658.1599294479729
 30
0.0
 11
-83.088800000000205
 21
659.09662944797276
 31
0.0
  0
ARC
  5
9C
  8
TOP20_5
  6
STYLE_01
 62
     7
 10
-216.93239999999989
 20
833.78632944797289
 30
0.0
 40
20.000064160146788
 50
32.49990951040693
 51
110.49981580554589
  0
LINE
  5
9D
  8
TOP20_5
  6
STYLE_01
 62
     7
 10
-81.801999999999921
 20
658.51012944797276
 30
0.0
 11
-142.6857000000002
 21
635.74662944797285
 31
0.0
  0
LINE
  5
9E
  8
TOP20_5
  6
STYLE_01
 62
     7
 10
-82.152200000000207
 20
659.44682944797285
 30
0.0
 11
-143.03590000000011
 21
636.68332944797305
 31
0.0
  0
LINE
  5
9F
  8
TOP20_5
  6
STYLE_01
 62
     7
 10
-284.82019999999989
 20
829.75632944797292
 30
0.0
 11
-223.9365
 21
852.51982944797305
 31
0.0
  0
ARC
  5
A0
  8
TOP20_5
  6
STYLE_01
 62
     7
 10
-583.24790000000007
 20
1561.3766294479719
 30
0.0
 40
1070.7999799644981
 50
294.86023226611002
 51
298.33649584038358
  0
LINE
  5
A1
  8
TOP20_5
  6
CONTINUOUS
 62
     7
 10
-328.50209999999998
 20
516.62452944797292
 30
0.0
 11
-55.000000000000071
 21
516.62452944797292
 31
0.0
  0
LINE
  5
A2
  8
TOP20_5
  6
CONTINUOUS
 62
     7
 10
-280.0
 20
541.79632944797288
 30
0.0
 11
-55.000000000000071
 21
541.79632944797288
 31
0.0
  0
LINE
  5
A3
  8
TOP20_5
  6
CONTINUOUS
 62
     7
 10
-75.000000000000071
 20
541.79632944797288
 30
0.0
 11
-75.000000000000071
 21
516.62452944797292
 31
0.0
  0
LINE
  5
A4
  8
TOP20_5
  6
CONTINUOUS
 62
     7
 10
-75.000000000000071
 20
516.62452944797292
 30
0.0
 11
-75.000000000000071
 21
458.19495167019522
 31
0.0
  0
LINE
  5
A5
  8
TOP20_5
  6
CONTINUOUS
 62
     7
 10
-75.000000000000071
 20
516.62452944797292
 30
0.0
 11
-68.299602048497647
 21
491.6183038620353
 31
0.0
  0
LINE
  5
A6
  8
TOP20_5
  6
CONTINUOUS
 62
     7
 10
-75.000000000000071
 20
516.62452944797292
 30
0.0
 11
-81.700397951502495
 21
491.6183038620353
 31
0.0
  0
LINE
  5
A7
  8
TOP20_5
  6
CONTINUOUS
 62
     7
 10
-75.000000000000071
 20
541.79632944797288
 30
0.0
 11
-75.000000000000071
 21
591.79632944797288
 31
0.0
  0
LINE
  5
A8
  8
TOP20_5
  6
CONTINUOUS
 62
     7
 10
-75.000000000000071
 20
541.79632944797288
 30
0.0
 11
-81.700397951502495
 21
566.80255503391049
 31
0.0
  0
LINE
  5
A9
  8
TOP20_5
  6
CONTINUOUS
 62
     7
 10
-75.000000000000071
 20
541.79632944797288
 30
0.0
 11
-68.299602048497647
 21
566.80255503391049
 31
0.0
  0
TEXT
  5
AA
  8
TOP20_5
 62
     7
 10
-84.938888888888954
 20
458.194951670195
 30
0.0
 40
27.147352430555561
  1
25
 50
90.0
 41
0.8
 11
-112.0862413194445
 21
458.194951670195
 31
0.0
 73
     3
  0
LINE
  5
AB
  8
TOP20_5
  6
CONTINUOUS
 62
     7
 10
-74.993810892236283
 20
638.88504964621825
 30
0.0
 11
-74.993810892236283
 21
820.0
 31
0.0
  0
LINE
  5
AC
  8
TOP20_5
  6
CONTINUOUS
 62
     7
 10
-147.5000000000002
 20
611.29632944797288
 30
0.0
 11
-147.5000000000002
 21
820.0
 31
0.0
  0
LINE
  5
AD
  8
TOP20_5
  6
CONTINUOUS
 62
     7
 10
-74.993810892236283
 20
800.0
 30
0.0
 11
11.425985153235841
 21
800.0
 31
0.0
  0
LINE
  5
AE
  8
TOP20_5
  6
CONTINUOUS
 62
     7
 10
-74.993810892236283
 20
800.0
 30
0.0
 11
-147.5000000000002
 21
800.0
 31
0.0
  0
LINE
  5
AF
  8
TOP20_5
  6
CONTINUOUS
 62
     7
 10
-74.993810892236283
 20
800.0
 30
0.0
 11
-100.0000364781738
 21
793.2996020484976
 31
0.0
  0
LINE
  5
B0
  8
TOP20_5
  6
CONTINUOUS
 62
     7
 10
-74.993810892236283
 20
800.0
 30
0.0
 11
-100.0000364781738
 21
806.70039795150228
 31
0.0
  0
LINE
  5
B1
  8
TOP20_5
  6
CONTINUOUS
 62
     7
 10
-147.5000000000002
 20
800.0
 30
0.0
 11
-122.4937744140627
 21
806.70039795150228
 31
0.0
  0
LINE
  5
B2
  8
TOP20_5
  6
CONTINUOUS
 62
     7
 10
-147.5000000000002
 20
800.0
 30
0.0
 11
-122.4937744140627
 21
793.2996020484976
 31
0.0
  0
TEXT
  5
B3
  8
TOP20_5
 62
     7
 10
-59.129570402319708
 20
809.93888888888875
 30
0.0
 40
27.147352430555561
  1
72.5
 41
0.8
 11
-59.129570402319708
 21
837.08624131944441
 31
0.0
 73
     3
  0
LINE
  5
B4
  8
BRACKET
  6
CONTINUOUS
 62
     7
 10
719.73400000000015
 20
163.23779999999991
 30
0.0
 11
591.71800000000007
 21
163.23779999999991
 31
0.0
  0
LINE
  5
B5
  8
BRACKET
  6
CONTINUOUS
 62
     7
 10
644.55000000000007
 20
141.3938
 30
0.0
 11
666.90200000000004
 21
141.3938
 31
0.0
  0
LINE
  5
B6
  8
BRACKET
  6
CONTINUOUS
 62
     7
 10
644.55000000000007
 20
141.3938
 30
0.0
 11
644.55000000000007
 21
163.23779999999991
 31
0.0
  0
LINE
  5
B7
  8
BRACKET
  6
CONTINUOUS
 62
     7
 10
666.90200000000004
 20
141.3938
 30
0.0
 11
666.90200000000004
 21
163.23779999999991
 31
0.0
  0
LINE
  5
B8
  8
BRACKET
  6
CONTINUOUS
 62
     7
 10
719.73400000000015
 20
174.0073999999999
 30
0.0
 11
591.71800000000007
 21
174.0073999999999
 31
0.0
  0
LINE
  5
B9
  8
BRACKET
  6
CONTINUOUS
 62
     7
 10
591.71800000000007
 20
179.49379999999991
 30
0.0
 11
591.71800000000007
 21
163.23779999999991
 31
0.0
  0
LINE
  5
BA
  8
BRACKET
  6
CONTINUOUS
 62
     7
 10
719.73400000000015
 20
179.49379999999991
 30
0.0
 11
719.73400000000015
 21
163.23779999999991
 31
0.0
  0
ARC
  5
BB
  8
BRACKET
  6
CONTINUOUS
 62
     7
 10
613.23647619047642
 20
131.6490518095238
 30
0.0
 40
35.915189492436014
 50
29.3228412699948
 51
61.5865964533916
  0
ARC
  5
BC
  8
BRACKET
  6
CONTINUOUS
 62
     7
 10
698.2155238095238
 20
131.6490518095238
 30
0.0
 40
35.9151894924359
 50
118.41340354660839
 51
150.67715873000509
  0
LINE
  5
BD
  8
BRACKET
  6
CONTINUOUS
 62
     7
 10
653.1840000000002
 20
149.23779999999991
 30
0.0
 11
658.26400000000012
 21
149.23779999999991
 31
0.0
  0
LINE
  5
BE
  8
BRACKET
  6
CONTINUOUS
 62
     7
 10
653.1840000000002
 20
149.23779999999991
 30
0.0
 11
653.1840000000002
 21
163.23779999999991
 31
0.0
  0
LINE
  5
BF
  8
BRACKET
  6
CONTINUOUS
 62
     7
 10
658.26400000000012
 20
149.23779999999991
 30
0.0
 11
658.26400000000012
 21
163.23779999999991
 31
0.0
  0
LINE
  5
C0
  8
BRACKET
  6
CONTINUOUS
 62
     7
 10
644.97600000000011
 20
128.3938
 30
0.0
 11
666.47600000000011
 21
128.3938
 31
0.0
  0
LINE
  5
C1
  8
BRACKET
  6
CONTINUOUS
 62
     7
 10
644.97600000000011
 20
138.3938
 30
0.0
 11
666.47600000000011
 21
138.3938
 31
0.0
  0
LINE
  5
C2
  8
BRACKET
  6
CONTINUOUS
 62
     7
 10
644.97600000000011
 20
128.3938
 30
0.0
 11
644.97600000000011
 21
141.3938
 31
0.0
  0
LINE
  5
C3
  8
BRACKET
  6
CONTINUOUS
 62
     7
 10
655.72600000000011
 20
138.3938
 30
0.0
 11
655.72600000000011
 21
128.3938
 31
0.0
  0
LINE
  5
C4
  8
BRACKET
  6
CONTINUOUS
 62
     7
 10
646.4162269093174
 20
138.3938
 30
0.0
 11
646.4162269093174
 21
128.3938
 31
0.0
  0
LINE
  5
C5
  8
BRACKET
  6
CONTINUOUS
 62
     7
 10
665.03577309068271
 20
138.3938
 30
0.0
 11
665.03577309068271
 21
128.3938
 31
0.0
  0
LINE
  5
C6
  8
BRACKET
  6
CONTINUOUS
 62
     7
 10
666.47600000000011
 20
128.3938
 30
0.0
 11
666.47600000000011
 21
141.3938
 31
0.0
  0
LINE
  5
C7
  8
BRACKET
  6
CONTINUOUS
 62
     7
 10
647.22600000000011
 20
172.99379999999991
 30
0.0
 11
647.22600000000011
 21
163.23779999999991
 31
0.0
  0
LINE
  5
C8
  8
BRACKET
  6
CONTINUOUS
 62
     7
 10
664.22600000000011
 20
172.99379999999991
 30
0.0
 11
664.22600000000011
 21
163.23779999999991
 31
0.0
  0
LINE
  5
C9
  8
BRACKET
  6
CONTINUOUS
 62
     7
 10
647.22600000000011
 20
172.99379999999991
 30
0.0
 11
664.22600000000011
 21
172.99379999999991
 31
0.0
  0
LINE
  5
CA
  8
BRACKET
  6
CONTINUOUS
 62
     7
 10
649.63000000000011
 20
128.3938
 30
0.0
 11
649.63000000000011
 21
-44.338111199999958
 31
0.0
  0
LINE
  5
CB
  8
BRACKET
  6
CONTINUOUS
 62
     7
 10
661.822
 20
128.3938
 30
0.0
 11
661.822
 21
-44.338111199999958
 31
0.0
  0
LINE
  5
CC
  8
BRACKET
  6
CONTINUOUS
 62
     7
 10
581.83507502812813
 20
-105.7698685750736
 30
0.0
 11
648.61400000000003
 21
-67.215038266369675
 31
0.0
  0
LINE
  5
CD
  8
BRACKET
  6
CONTINUOUS
 62
     7
 10
575.73907502812835
 20
-95.211286852134052
 30
0.0
 11
642.51800000000003
 21
-56.65645654342984
 31
0.0
  0
ARC
  5
CE
  8
BRACKET
  6
CONTINUOUS
 62
     7
 10
635.40600000000018
 20
-44.338111199999958
 30
0.0
 40
14.22399999999995
 50
299.99999999999937
 51
0.0
  0
ARC
  5
CF
  8
BRACKET
  6
CONTINUOUS
 62
     7
 10
635.40600000000018
 20
-44.338111199999958
 30
0.0
 40
26.415999999999912
 50
299.99999999999972
 51
0.0
  0
LINE
  5
D0
  8
BRACKET
  6
STYLE_06
 62
     7
 10
-300.0
 20
806.27399999999989
 30
0.0
 11
-300.0
 21
494.27399999999989
 31
0.0
  0
LINE
  5
D1
  8
BRACKET
  6
STYLE_06
 62
     7
 10
-300.0
 20
806.27399999999989
 30
0.0
 11
-409.2647
 21
514.03229999999985
 31
0.0
  0
LINE
  5
D2
  8
BRACKET
  6
STYLE_06
 62
     7
 10
-300.0
 20
806.27399999999989
 30
0.0
 11
-190.7353
 21
514.03229999999985
 31
0.0
  0
LINE
  5
D3
  8
BRACKET
  6
CONTINUOUS
 62
     7
 10
719.73400000000015
 20
179.49379999999991
 30
0.0
 11
591.71800000000007
 21
179.49379999999991
 31
0.0
  0
CIRCLE
  5
D4
  8
BRACKET
  6
STYLE_01
 62
     7
 10
562.0
 20
-110.18259999999999
 30
0.0
 40
20.32000000000005
  0
LINE
  5
D5
  8
BRACKET
  6
CONTINUOUS
 62
     7
 10
-352.95900000000012
 20
835.99199999999985
 30
0.0
 11
-352.95900000000012
 21
964.00800000000015
 31
0.0
  0
LINE
  5
D6
  8
BRACKET
  6
CONTINUOUS
 62
     7
 10
-247.04099999999991
 20
835.99199999999985
 30
0.0
 11
-352.95900000000012
 21
835.99199999999985
 31
0.0
  0
LINE
  5
D7
  8
BRACKET
  6
CONTINUOUS
 62
     7
 10
-247.04099999999991
 20
964.00800000000015
 30
0.0
 11
-247.04099999999991
 21
835.99199999999985
 31
0.0
  0
LINE
  5
D8
  8
BRACKET
  6
CONTINUOUS
 62
     7
 10
-352.95900000000012
 20
964.00800000000015
 30
0.0
 11
-247.04099999999991
 21
964.00800000000015
 31
0.0
  0
CIRCLE
  5
D9
  8
BRACKET
  6
CONTINUOUS
 62
     7
 10
-300.0
 20
954.48299999999995
 30
0.0
 40
3.6829999999999918
  0
CIRCLE
  5
DA
  8
BRACKET
  6
CONTINUOUS
 62
     7
 10
-343.43400000000003
 20
900.0
 30
0.0
 40
3.6829999999999918
  0
CIRCLE
  5
DB
  8
BRACKET
  6
CONTINUOUS
 62
     7
 10
-300.0
 20
845.51700000000005
 30
0.0
 40
3.6829999999999918
  0
CIRCLE
  5
DC
  8
BRACKET
  6
CONTINUOUS
 62
     7
 10
-256.56599999999997
 20
900.0
 30
0.0
 40
3.6829999999999918
  0
LINE
  5
DD
  8
BRACKET
  6
CONTINUOUS
 62
     7
 10
-343.43400000000003
 20
911.98851012428145
 30
0.0
 11
-350.41900000000021
 21
911.98851012428145
 31
0.0
  0
LINE
  5
DE
  8
BRACKET
  6
CONTINUOUS
 62
     7
 10
-343.43450172127649
 20
888.01146791489384
 30
0.0
 11
-350.41900000000021
 21
888.01146791489384
 31
0.0
  0
ARC
  5
DF
  8
BRACKET
  6
CONTINUOUS
 62
     7
 10
-343.95900000000012
 20
900.0
 30
0.0
 40
12.00000000000003
 50
272.50509286724201
 51
353.9344225720078
  0
ARC
  5
E0
  8
BRACKET
  6
CONTINUOUS
 62
     7
 10
-343.95900000000012
 20
900.0
 30
0.0
 40
11.99999999999997
 50
6.0847838869879212
 51
87.492509296412337
  0
LINE
  5
E1
  8
BRACKET
  6
CONTINUOUS
 62
     7
 10
-256.56599999999997
 20
911.98851012428145
 30
0.0
 11
-247.04099999999991
 21
911.98851012428145
 31
0.0
  0
LINE
  5
E2
  8
BRACKET
  6
CONTINUOUS
 62
     7
 10
-256.5654982787234
 20
888.01146791489384
 30
0.0
 11
-249.58099999999999
 21
888.01146791489384
 31
0.0
  0
ARC
  5
E3
  8
BRACKET
  6
CONTINUOUS
 62
     7
 10
-256.04099999999988
 20
900.0
 30
0.0
 40
11.99999999999995
 50
92.507490703587678
 51
173.91521611301209
  0
ARC
  5
E4
  8
BRACKET
  6
CONTINUOUS
 62
     7
 10
-256.04099999999988
 20
900.0
 30
0.0
 40
12.000000000000091
 50
186.06557742799211
 51
267.49490713275799
  0
ARC
  5
E5
  8
BRACKET
  6
CONTINUOUS
 62
     7
 10
-300.0
 20
955.50800000000004
 30
0.0
 40
12.0
 50
180.0
 51
263.92962102148232
  0
ARC
  5
E6
  8
BRACKET
  6
CONTINUOUS
 62
     7
 10
-300.0
 20
955.50800000000004
 30
0.0
 40
11.999999999999989
 50
276.07998220798061
 51
0.0
  0
LINE
  5
E7
  8
BRACKET
  6
CONTINUOUS
 62
     7
 10
-312.0
 20
961.46799999999985
 30
0.0
 11
-312.0
 21
955.50800000000004
 31
0.0
  0
LINE
  5
E8
  8
BRACKET
  6
CONTINUOUS
 62
     7
 10
-287.99999999999989
 20
961.46799999999985
 30
0.0
 11
-287.99999999999989
 21
955.50800000000004
 31
0.0
  0
ARC
  5
E9
  8
BRACKET
  6
CONTINUOUS
 62
     7
 10
-300.0
 20
844.49199999999973
 30
0.0
 40
12.0
 50
0.0
 51
83.920017792019308
  0
ARC
  5
EA
  8
BRACKET
  6
CONTINUOUS
 62
     7
 10
-300.0
 20
844.49199999999973
 30
0.0
 40
11.999999999999931
 50
96.070378978517752
 51
180.0
  0
LINE
  5
EB
  8
BRACKET
  6
CONTINUOUS
 62
     7
 10
-312.0
 20
838.53199999999981
 30
0.0
 11
-312.0
 21
844.49199999999973
 31
0.0
  0
LINE
  5
EC
  8
BRACKET
  6
CONTINUOUS
 62
     7
 10
-287.99999999999989
 20
838.53199999999981
 30
0.0
 11
-287.99999999999989
 21
844.49199999999973
 31
0.0
  0
ARC
  5
ED
  8
BRACKET
  6
CONTINUOUS
 62
     7
 10
-300.0
 20
900.0
 30
0.0
 40
16.000000000000021
 50
134.68060699806759
 51
175.44017369233561
  0
ARC
  5
EE
  8
BRACKET
  6
CONTINUOUS
 62
     7
 10
-300.0
 20
900.0
 30
0.0
 40
16.00000000000005
 50
184.5454570251778
 51
225.15663310544701
  0
ARC
  5
EF
  8
BRACKET
  6
CONTINUOUS
 62
     7
 10
-300.0
 20
900.0
 30
0.0
 40
16.000000000000021
 50
234.13819057743791
 51
265.4509506810947
  0
ARC
  5
F0
  8
BRACKET
  6
CONTINUOUS
 62
     7
 10
-300.0
 20
900.0
 30
0.0
 40
15.99999999999995
 50
274.55623396013408
 51
305.8698873537316
  0
ARC
  5
F1
  8
BRACKET
  6
CONTINUOUS
 62
     7
 10
-300.0
 20
900.0
 30
0.0
 40
16.00000000000011
 50
314.82630213742232
 51
355.45454297482217
  0
ARC
  5
F2
  8
BRACKET
  6
CONTINUOUS
 62
     7
 10
-300.0
 20
900.0
 30
0.0
 40
16.0
 50
4.5598263076643271
 51
45.30561154530438
  0
ARC
  5
F3
  8
BRACKET
  6
CONTINUOUS
 62
     7
 10
-300.0
 20
900.0
 30
0.0
 40
15.999999999999959
 50
54.287169017295113
 51
85.443766039865906
  0
ARC
  5
F4
  8
BRACKET
  6
CONTINUOUS
 62
     7
 10
-300.0
 20
900.0
 30
0.0
 40
15.99999999999987
 50
94.549049318905304
 51
125.72419221437541
  0
LINE
  5
F5
  8
BRACKET
  6
CONTINUOUS
 62
     7
 10
-294.625
 20
909.30977309068282
 30
0.0
 11
-305.37499999999989
 21
909.30977309068282
 31
0.0
  0
LINE
  5
F6
  8
BRACKET
  6
CONTINUOUS
 62
     7
 10
-289.25
 20
900.0
 30
0.0
 11
-294.625
 21
909.30977309068282
 31
0.0
  0
LINE
  5
F7
  8
BRACKET
  6
CONTINUOUS
 62
     7
 10
-294.625
 20
890.69022690931729
 30
0.0
 11
-289.25
 21
900.0
 31
0.0
  0
LINE
  5
F8
  8
BRACKET
  6
CONTINUOUS
 62
     7
 10
-305.37499999999989
 20
890.69022690931729
 30
0.0
 11
-294.625
 21
890.69022690931729
 31
0.0
  0
LINE
  5
F9
  8
BRACKET
  6
CONTINUOUS
 62
     7
 10
-310.74999999999989
 20
900.0
 30
0.0
 11
-305.37499999999989
 21
890.69022690931729
 31
0.0
  0
LINE
  5
FA
  8
BRACKET
  6
CONTINUOUS
 62
     7
 10
-305.37499999999989
 20
909.30977309068282
 30
0.0
 11
-310.74999999999989
 21
900.0
 31
0.0
  0
LINE
  5
FB
  8
BRACKET
  6
CONTINUOUS
 62
     7
 10
-301.26900000000001
 20
915.94959682876004
 30
0.0
 11
-301.26900000000001
 21
943.57528702264233
 31
0.0
  0
LINE
  5
FC
  8
BRACKET
  6
CONTINUOUS
 62
     7
 10
-298.72899999999998
 20
915.94943757629085
 30
0.0
 11
-298.72899999999998
 21
943.57549988476842
 31
0.0
  0
LINE
  5
FD
  8
BRACKET
  6
CONTINUOUS
 62
     7
 10
-301.26900000000001
 20
884.05040317123974
 30
0.0
 11
-301.26900000000001
 21
856.42471297735744
 31
0.0
  0
LINE
  5
FE
  8
BRACKET
  6
CONTINUOUS
 62
     7
 10
-298.72899999999998
 20
884.05056242370915
 30
0.0
 11
-298.72899999999998
 21
856.42450011523135
 31
0.0
  0
LINE
  5
FF
  8
BRACKET
  6
CONTINUOUS
 62
     7
 10
-315.94967636035278
 20
898.73199999999974
 30
0.0
 11
-332.02618071870688
 21
898.73199999999974
 31
0.0
  0
LINE
  5
100
  8
BRACKET
  6
CONTINUOUS
 62
     7
 10
-315.9493578554123
 20
901.27199999999993
 30
0.0
 11
-332.0266064429639
 21
901.27199999999993
 31
0.0
  0
LINE
  5
101
  8
BRACKET
  6
CONTINUOUS
 62
     7
 10
-284.05032363964699
 20
898.73199999999974
 30
0.0
 11
-267.973819281293
 21
898.73199999999974
 31
0.0
  0
LINE
  5
102
  8
BRACKET
  6
CONTINUOUS
 62
     7
 10
-284.05064214458758
 20
901.27199999999993
 30
0.0
 11
-267.9733935570361
 21
901.27199999999993
 31
0.0
  0
LINE
  5
103
  8
BRACKET
  6
CONTINUOUS
 62
     7
 10
-350.41900000000021
 20
961.46799999999985
 30
0.0
 11
-312.0
 21
961.46799999999985
 31
0.0
  0
LINE
  5
104
  8
BRACKET
  6
CONTINUOUS
 62
     7
 10
-287.99999999999989
 20
961.46799999999985
 30
0.0
 11
-249.58099999999999
 21
961.46799999999985
 31
0.0
  0
LINE
  5
105
  8
BRACKET
  6
CONTINUOUS
 62
     7
 10
-249.527835754633
 20
838.53199999999981
 30
0.0
 11
-287.99999999999989
 21
838.53199999999981
 31
0.0
  0
LINE
  5
106
  8
BRACKET
  6
CONTINUOUS
 62
     7
 10
-312.0
 20
838.53199999999981
 30
0.0
 11
-350.47336368034638
 21
838.53199999999981
 31
0.0
  0
LINE
  5
107
  8
BRACKET
  6
CONTINUOUS
 62
     7
 10
-350.41900000000021
 20
842.47173183007385
 30
0.0
 11
-350.41900000000021
 21
888.01146791489384
 31
0.0
  0
LINE
  5
108
  8
BRACKET
  6
CONTINUOUS
 62
     7
 10
-350.41900000000021
 20
911.98851012428145
 30
0.0
 11
-350.41900000000021
 21
957.60302119945379
 31
0.0
  0
LINE
  5
109
  8
BRACKET
  6
CONTINUOUS
 62
     7
 10
-249.58099999999999
 20
957.59242131740223
 30
0.0
 11
-249.58099999999999
 21
911.98851012428145
 31
0.0
  0
LINE
  5
10A
  8
BRACKET
  6
CONTINUOUS
 62
     7
 10
-249.58099999999999
 20
888.01146791489384
 30
0.0
 11
-249.58099999999999
 21
842.45972285781056
 31
0.0
  0
LINE
  5
10B
  8
BRACKET
  6
CONTINUOUS
 62
     7
 10
-350.41900000000021
 20
961.46799999999985
 30
0.0
 11
-309.34214477499881
 21
912.98939301903522
 31
0.0
  0
LINE
  5
10C
  8
BRACKET
  6
CONTINUOUS
 62
     7
 10
-288.72064207252492
 20
888.65204490915198
 30
0.0
 11
-249.58099999999999
 21
842.45972285781056
 31
0.0
  0
LINE
  5
10D
  8
BRACKET
  6
CONTINUOUS
 62
     7
 10
-350.41900000000021
 20
842.47173183007385
 30
0.0
 11
-311.2827372589486
 21
888.65540481350092
 31
0.0
  0
LINE
  5
10E
  8
BRACKET
  6
CONTINUOUS
 62
     7
 10
-290.6604310870764
 20
912.99124522594911
 30
0.0
 11
-249.58099999999999
 21
961.46799999999985
 31
0.0
  0
LINE
  5
10F
  8
BRACKET
  6
CONTINUOUS
 62
     7
 10
-350.41900000000021
 20
957.60302119945379
 30
0.0
 11
-311.25046523187177
 21
911.37660019805753
 31
0.0
  0
LINE
  5
110
  8
BRACKET
  6
CONTINUOUS
 62
     7
 10
-290.62485525792181
 20
887.03440471613101
 30
0.0
 11
-249.527835754633
 21
838.53199999999981
 31
0.0
  0
LINE
  5
111
  8
BRACKET
  6
CONTINUOUS
 62
     7
 10
-350.47336368034638
 20
838.53199999999981
 30
0.0
 11
-309.37331667506521
 21
887.03308307619182
 31
0.0
  0
LINE
  5
112
  8
BRACKET
  6
CONTINUOUS
 62
     7
 10
-288.74679865955147
 20
911.37389377439945
 30
0.0
 11
-249.58099999999999
 21
957.59242131740223
 31
0.0
  0
CIRCLE
  5
113
  8
BRACKET
  6
CONTINUOUS
 62
     7
 10
-300.0
 20
900.0
 30
0.0
 40
6.0960000000000027
  0
CIRCLE
  5
114
  8
BRACKET
  6
STYLE_01
 62
     7
 10
-300.0
 20
806.27399999999989
 30
0.0
 40
20.32
  0
LINE
  5
115
  8
BRACKET
  6
CONTINUOUS
 62
     7
 10
-305.45781598651359
 20
825.84731460579314
 30
0.0
 11
-305.45781598651359
 21
835.99199999999985
 31
0.0
  0
LINE
  5
116
  8
BRACKET
  6
CONTINUOUS
 62
     7
 10
-293.2658159865137
 20
825.44567613101435
 30
0.0
 11
-293.2658159865137
 21
835.99199999999985
 31
0.0
  0
LINE
  5
117
  8
DIMNSIONS
  6
CONTINUOUS
 62
     7
 10
591.71800000000007
 20
199.49379999999999
 30
0.0
 11
591.71800000000007
 21
270.0
 31
0.0
  0
LINE
  5
118
  8
DIMNSIONS
  6
CONTINUOUS
 62
     7
 10
719.73400000000015
 20
199.49379999999999
 30
0.0
 11
719.73400000000015
 21
270.0
 31
0.0
  0
LINE
  5
119
  8
DIMNSIONS
  6
CONTINUOUS
 62
     7
 10
719.73400000000015
 20
250.0
 30
0.0
 11
802.91666666666652
 21
250.0
 31
0.0
  0
LINE
  5
11A
  8
DIMNSIONS
  6
CONTINUOUS
 62
     7
 10
591.71800000000007
 20
250.0
 30
0.0
 11
719.73400000000015
 21
250.0
 31
0.0
  0
LINE
  5
11B
  8
DIMNSIONS
  6
CONTINUOUS
 62
     7
 10
591.71800000000007
 20
250.0
 30
0.0
 11
616.72422558593769
 21
256.7003979515024
 31
0.0
  0
LINE
  5
11C
  8
DIMNSIONS
  6
CONTINUOUS
 62
     7
 10
591.71800000000007
 20
250.0
 30
0.0
 11
616.72422558593769
 21
243.2996020484976
 31
0.0
  0
LINE
  5
11D
  8
DIMNSIONS
  6
CONTINUOUS
 62
     7
 10
719.73400000000015
 20
250.0
 30
0.0
 11
694.72777441406265
 21
243.2996020484976
 31
0.0
  0
LINE
  5
11E
  8
DIMNSIONS
  6
CONTINUOUS
 62
     7
 10
719.73400000000015
 20
250.0
 30
0.0
 11
694.72777441406265
 21
256.7003979515024
 31
0.0
  0
TEXT
  5
11F
  8
DIMNSIONS
 62
     7
 10
750.0
 20
259.93888888888881
 30
0.0
 40
27.147352430555561
  1
128
 41
0.8
 11
750.0
 21
287.08624131944441
 31
0.0
 73
     3
  0
TEXT
  5
120
  8
DIMNSIONS
 62
     7
 10
-100.0
 20
-1005.518765
 30
0.0
 40
24.4326171875
  1
(単位：mm)
 41
0.8
 11
-100.0
 21
-981.08614781250003
 31
0.0
 73
     3
  0
LINE
  5
121
  8
DIMNSIONS
  6
CONTINUOUS
 62
     7
 10
-453.49999999999972
 20
-405.44751480157902
 30
0.0
 11
-453.49999999999972
 21
-520.0
 31
0.0
  0
LINE
  5
122
  8
DIMNSIONS
  6
CONTINUOUS
 62
     7
 10
-146.5
 20
-405.44751480157902
 30
0.0
 11
-146.5
 21
-520.0
 31
0.0
  0
LINE
  5
123
  8
DIMNSIONS
  6
CONTINUOUS
 62
     7
 10
-453.49999999999972
 20
-500.0
 30
0.0
 11
-146.5
 21
-500.0
 31
0.0
  0
LINE
  5
124
  8
DIMNSIONS
  6
CONTINUOUS
 62
     7
 10
-453.49999999999972
 20
-500.0
 30
0.0
 11
-428.49377441406227
 21
-493.2996020484976
 31
0.0
  0
LINE
  5
125
  8
DIMNSIONS
  6
CONTINUOUS
 62
     7
 10
-453.49999999999972
 20
-500.0
 30
0.0
 11
-428.49377441406227
 21
-506.7003979515024
 31
0.0
  0
LINE
  5
126
  8
DIMNSIONS
  6
CONTINUOUS
 62
     7
 10
-146.5
 20
-500.0
 30
0.0
 11
-171.5062255859375
 21
-506.7003979515024
 31
0.0
  0
LINE
  5
127
  8
DIMNSIONS
  6
CONTINUOUS
 62
     7
 10
-146.5
 20
-500.0
 30
0.0
 11
-171.5062255859375
 21
-493.2996020484976
 31
0.0
  0
TEXT
  5
128
  8
DIMNSIONS
 62
     7
 10
-326.4583333333332
 20
-490.06111111111102
 30
0.0
 40
27.147352430555561
  1
307
 41
0.8
 11
-326.4583333333332
 21
-462.91375868055542
 31
0.0
 73
     3
  0
LINE
  5
129
  8
DIMNSIONS
  6
CONTINUOUS
 62
     7
 10
-463.49999999999989
 20
-395.44751480157908
 30
0.0
 11
-570.0
 21
-395.44751480157908
 31
0.0
  0
LINE
  5
12A
  8
DIMNSIONS
  6
CONTINUOUS
 62
     7
 10
-463.49999999999989
 20
125.2524851984208
 30
0.0
 11
-570.0
 21
125.2524851984208
 31
0.0
  0
LINE
  5
12B
  8
DIMNSIONS
  6
CONTINUOUS
 62
     7
 10
-550.0
 20
-395.44751480157908
 30
0.0
 11
-550.0
 21
125.2524851984208
 31
0.0
  0
LINE
  5
12C
  8
DIMNSIONS
  6
CONTINUOUS
 62
     7
 10
-550.0
 20
-395.44751480157908
 30
0.0
 11
-556.7003979515024
 21
-370.44128921564152
 31
0.0
  0
LINE
  5
12D
  8
DIMNSIONS
  6
CONTINUOUS
 62
     7
 10
-550.0
 20
-395.44751480157908
 30
0.0
 11
-543.2996020484976
 21
-370.44128921564152
 31
0.0
  0
LINE
  5
12E
  8
DIMNSIONS
  6
CONTINUOUS
 62
     7
 10
-550.0
 20
125.2524851984208
 30
0.0
 11
-543.2996020484976
 21
100.2462596124833
 31
0.0
  0
LINE
  5
12F
  8
DIMNSIONS
  6
CONTINUOUS
 62
     7
 10
-550.0
 20
125.2524851984208
 30
0.0
 11
-556.7003979515024
 21
100.2462596124833
 31
0.0
  0
TEXT
  5
130
  8
DIMNSIONS
 62
     7
 10
-559.93888888888887
 20
-161.55584813491251
 30
0.0
 40
27.147352430555561
  1
521
 50
90.0
 41
0.8
 11
-587.08624131944453
 21
-161.55584813491251
 31
0.0
 73
     3
  0
LINE
  5
131
  8
DIMNSIONS
  6
CONTINUOUS
 62
     7
 10
-408.31009999999998
 20
822.79632944797277
 30
0.0
 11
-545.0
 21
822.79632944797277
 31
0.0
  0
LINE
  5
132
  8
DIMNSIONS
  6
CONTINUOUS
 62
     7
 10
-320.0
 20
541.79632944797277
 30
0.0
 11
-545.0
 21
541.79632944797277
 31
0.0
  0
LINE
  5
133
  8
DIMNSIONS
  6
CONTINUOUS
 62
     7
 10
-525.0
 20
822.79632944797277
 30
0.0
 11
-525.0
 21
541.79632944797277
 31
0.0
  0
LINE
  5
134
  8
DIMNSIONS
  6
CONTINUOUS
 62
     7
 10
-525.0
 20
822.79632944797277
 30
0.0
 11
-518.2996020484976
 21
797.79010386203549
 31
0.0
  0
LINE
  5
135
  8
DIMNSIONS
  6
CONTINUOUS
 62
     7
 10
-525.0
 20
822.79632944797277
 30
0.0
 11
-531.7003979515024
 21
797.79010386203549
 31
0.0
  0
LINE
  5
136
  8
DIMNSIONS
  6
CONTINUOUS
 62
     7
 10
-525.0
 20
541.79632944797277
 30
0.0
 11
-531.7003979515024
 21
566.80255503391038
 31
0.0
  0
LINE
  5
137
  8
DIMNSIONS
  6
CONTINUOUS
 62
     7
 10
-525.0
 20
541.79632944797277
 30
0.0
 11
-518.2996020484976
 21
566.80255503391038
 31
0.0
  0
TEXT
  5
138
  8
DIMNSIONS
 62
     7
 10
-534.93888888888887
 20
655.8379961146394
 30
0.0
 40
27.147352430555561
  1
281
 50
90.0
 41
0.8
 11
-562.08624131944453
 21
655.8379961146394
 31
0.0
 73
     3
  0
LINE
  5
139
  8
DIMNSIONS
  6
CONTINUOUS
 62
     7
 10
-416.26884794370312
 20
495.29885633411931
 30
0.0
 11
-440.81585241356072
 21
429.64491397049483
 31
0.0
  0
LINE
  5
13A
  8
DIMNSIONS
  6
CONTINUOUS
 62
     7
 10
-183.73115205629679
 20
495.29885633411931
 30
0.0
 11
-159.18414758643939
 21
429.64491397049483
 31
0.0
  0
ARC
  5
13B
  8
DIMNSIONS
  6
CONTINUOUS
 62
     7
 10
-300.0
 20
806.27399999999955
 30
0.0
 40
382.09274145945233
 50
249.49999902583309
 51
290.50000097416688
  0
LINE
  5
13C
  8
DIMNSIONS
  6
CONTINUOUS
 62
     7
 10
-166.1882955301426
 20
448.37835763637531
 30
0.0
 11
-187.39479011924391
 21
433.52941026608318
 31
0.0
  0
LINE
  5
13D
  8
DIMNSIONS
  6
CONTINUOUS
 62
     7
 10
-166.1882955301426
 20
448.37835763637531
 30
0.0
 11
-191.97813225466771
 21
446.12203928879478
 31
0.0
  0
LINE
  5
13E
  8
DIMNSIONS
  6
CONTINUOUS
 62
     7
 10
-433.8117044698576
 20
448.37835763637531
 30
0.0
 11
-408.06517384723531
 21
445.6722882245403
 31
0.0
  0
LINE
  5
13F
  8
DIMNSIONS
  6
CONTINUOUS
 62
     7
 10
-433.8117044698576
 20
448.37835763637531
 30
0.0
 11
-412.8675895972703
 21
433.16156747001111
 31
0.0
  0
TEXT
  5
140
  8
DIMNSIONS
 62
     7
 10
-335.27777777777783
 20
388.84236965165849
 30
0.0
 40
27.147352430555561
  1
41°
 41
0.8
 11
-335.27777777777783
 21
415.98972208221397
 31
0.0
 73
     3
  0
LINE
  5
141
  8
DIMNSIONS
  6
CONTINUOUS
 62
     7
 10
537.52232944797311
 20
-395.44751480157919
 30
0.0
 11
870.0
 21
-395.44751480157919
 31
0.0
  0
LINE
  5
142
  8
DIMNSIONS
  6
CONTINUOUS
 62
     7
 10
739.73400000000015
 20
179.49379999999991
 30
0.0
 11
870.0
 21
179.49379999999991
 31
0.0
  0
LINE
  5
143
  8
DIMNSIONS
  6
CONTINUOUS
 62
     7
 10
850.0
 20
-395.44751480157919
 30
0.0
 11
850.0
 21
179.49379999999991
 31
0.0
  0
LINE
  5
144
  8
DIMNSIONS
  6
CONTINUOUS
 62
     7
 10
850.0
 20
-395.44751480157919
 30
0.0
 11
843.2996020484976
 21
-370.44128921564158
 31
0.0
  0
LINE
  5
145
  8
DIMNSIONS
  6
CONTINUOUS
 62
     7
 10
850.0
 20
-395.44751480157919
 30
0.0
 11
856.70039795150228
 21
-370.44128921564158
 31
0.0
  0
LINE
  5
146
  8
DIMNSIONS
  6
CONTINUOUS
 62
     7
 10
850.0
 20
179.49379999999991
 30
0.0
 11
856.70039795150228
 21
154.48757441406241
 31
0.0
  0
LINE
  5
147
  8
DIMNSIONS
  6
CONTINUOUS
 62
     7
 10
850.0
 20
179.49379999999991
 30
0.0
 11
843.2996020484976
 21
154.48757441406241
 31
0.0
  0
TEXT
  5
148
  8
DIMNSIONS
 62
     7
 10
840.06111111111113
 20
-134.4351907341229
 30
0.0
 40
27.147352430555561
  1
575
 50
90.0
 41
0.8
 11
812.91375868055547
 21
-134.4351907341229
 31
0.0
 73
     3
  0
LINE
  5
149
  8
DIMNSIONS
  6
CONTINUOUS
 62
     7
 10
297.52232944797322
 20
140.04148519842079
 30
0.0
 11
297.52232944797322
 21
220.0
 31
0.0
  0
LINE
  5
14A
  8
DIMNSIONS
  6
CONTINUOUS
 62
     7
 10
578.52232944797311
 20
125.08618519842091
 30
0.0
 11
578.52232944797311
 21
220.0
 31
0.0
  0
LINE
  5
14B
  8
DIMNSIONS
  6
CONTINUOUS
 62
     7
 10
297.52232944797322
 20
200.0
 30
0.0
 11
578.52232944797311
 21
200.0
 31
0.0
  0
LINE
  5
14C
  8
DIMNSIONS
  6
CONTINUOUS
 62
     7
 10
297.52232944797322
 20
200.0
 30
0.0
 11
322.52855503391072
 21
206.7003979515024
 31
0.0
  0
LINE
  5
14D
  8
DIMNSIONS
  6
CONTINUOUS
 62
     7
 10
297.52232944797322
 20
200.0
 30
0.0
 11
322.52855503391072
 21
193.2996020484976
 31
0.0
  0
LINE
  5
14E
  8
DIMNSIONS
  6
CONTINUOUS
 62
     7
 10
578.52232944797311
 20
200.0
 30
0.0
 11
553.51610386203561
 21
193.2996020484976
 31
0.0
  0
LINE
  5
14F
  8
DIMNSIONS
  6
CONTINUOUS
 62
     7
 10
578.52232944797311
 20
200.0
 30
0.0
 11
553.51610386203561
 21
206.7003979515024
 31
0.0
  0
TEXT
  5
150
  8
DIMNSIONS
 62
     7
 10
411.56399611463968
 20
209.93888888888881
 30
0.0
 40
27.147352430555561
  1
281
 41
0.8
 11
411.56399611463968
 21
237.08624131944441
 31
0.0
 73
     3
  0
LINE
  5
151
  8
DIMNSIONS
  6
CONTINUOUS
 62
     7
 10
-372.95900000000012
 20
835.99199999999985
 30
0.0
 11
-495.0
 21
835.99199999999985
 31
0.0
  0
LINE
  5
152
  8
DIMNSIONS
  6
CONTINUOUS
 62
     7
 10
-372.95900000000012
 20
964.00800000000015
 30
0.0
 11
-495.0
 21
964.00800000000015
 31
0.0
  0
LINE
  5
153
  8
DIMNSIONS
  6
CONTINUOUS
 62
     7
 10
-475.0
 20
964.00800000000015
 30
0.0
 11
-475.0
 21
1048.867066666666
 31
0.0
  0
LINE
  5
154
  8
DIMNSIONS
  6
CONTINUOUS
 62
     7
 10
-475.0
 20
835.99199999999985
 30
0.0
 11
-475.0
 21
964.00800000000015
 31
0.0
  0
LINE
  5
155
  8
DIMNSIONS
  6
CONTINUOUS
 62
     7
 10
-475.0
 20
835.99199999999985
 30
0.0
 11
-481.7003979515024
 21
860.99822558593746
 31
0.0
  0
LINE
  5
156
  8
DIMNSIONS
  6
CONTINUOUS
 62
     7
 10
-475.0
 20
835.99199999999985
 30
0.0
 11
-468.2996020484976
 21
860.99822558593746
 31
0.0
  0
LINE
  5
157
  8
DIMNSIONS
  6
CONTINUOUS
 62
     7
 10
-475.0
 20
964.00800000000015
 30
0.0
 11
-468.2996020484976
 21
939.00177441406231
 31
0.0
  0
LINE
  5
158
  8
DIMNSIONS
  6
CONTINUOUS
 62
     7
 10
-475.0
 20
964.00800000000015
 30
0.0
 11
-481.7003979515024
 21
939.00177441406231
 31
0.0
  0
TEXT
  5
159
  8
DIMNSIONS
 62
     7
 10
-484.93888888888893
 20
995.95039999999995
 30
0.0
 40
27.147352430555561
  1
128
 50
90.0
 41
0.8
 11
-512.08624131944453
 21
995.95039999999995
 31
0.0
 73
     3
  0
LINE
  5
15A
  8
DIMNSIONS
  6
CONTINUOUS
 62
     7
 10
-352.95900000000012
 20
984.00800000000004
 30
0.0
 11
-352.95900000000012
 21
1145.0
 31
0.0
  0
LINE
  5
15B
  8
DIMNSIONS
  6
CONTINUOUS
 62
     7
 10
-247.04099999999991
 20
984.00800000000004
 30
0.0
 11
-247.04099999999991
 21
1145.0
 31
0.0
  0
LINE
  5
15C
  8
DIMNSIONS
  6
CONTINUOUS
 62
     7
 10
-247.04099999999991
 20
1125.0
 30
0.0
 11
-172.08333333333329
 21
1125.0
 31
0.0
  0
LINE
  5
15D
  8
DIMNSIONS
  6
CONTINUOUS
 62
     7
 10
-352.95900000000012
 20
1125.0
 30
0.0
 11
-247.04099999999991
 21
1125.0
 31
0.0
  0
LINE
  5
15E
  8
DIMNSIONS
  6
CONTINUOUS
 62
     7
 10
-352.95900000000012
 20
1125.0
 30
0.0
 11
-327.95277441406262
 21
1131.7003979515021
 31
0.0
  0
LINE
  5
15F
  8
DIMNSIONS
  6
CONTINUOUS
 62
     7
 10
-352.95900000000012
 20
1125.0
 30
0.0
 11
-327.95277441406262
 21
1118.299602048497
 31
0.0
  0
LINE
  5
160
  8
DIMNSIONS
  6
CONTINUOUS
 62
     7
 10
-247.04099999999991
 20
1125.0
 30
0.0
 11
-272.04722558593738
 21
1118.299602048497
 31
0.0
  0
LINE
  5
161
  8
DIMNSIONS
  6
CONTINUOUS
 62
     7
 10
-247.04099999999991
 20
1125.0
 30
0.0
 11
-272.04722558593738
 21
1131.7003979515021
 31
0.0
  0
TEXT
  5
162
  8
DIMNSIONS
 62
     7
 10
-225.0
 20
1134.9388888888891
 30
0.0
 40
27.147352430555561
  1
106
 41
0.8
 11
-225.0
 21
1162.0862413194441
 31
0.0
 73
     3
  0
LINE
  5
163
  8
DIMNSIONS
  6
CONTINUOUS
 62
     7
 10
-323.68299999999988
 20
954.48299999999995
 30
0.0
 11
-445.0
 21
954.48299999999995
 31
0.0
  0
LINE
  5
164
  8
DIMNSIONS
  6
CONTINUOUS
 62
     7
 10
-323.68299999999988
 20
845.51700000000005
 30
0.0
 11
-445.0
 21
845.51700000000005
 31
0.0
  0
LINE
  5
165
  8
DIMNSIONS
  6
CONTINUOUS
 62
     7
 10
-425.0
 20
954.48299999999995
 30
0.0
 11
-425.0
 21
1048.867066666666
 31
0.0
  0
LINE
  5
166
  8
DIMNSIONS
  6
CONTINUOUS
 62
     7
 10
-425.0
 20
954.48299999999995
 30
0.0
 11
-425.0
 21
845.51700000000005
 31
0.0
  0
LINE
  5
167
  8
DIMNSIONS
  6
CONTINUOUS
 62
     7
 10
-425.0
 20
954.48299999999995
 30
0.0
 11
-418.2996020484976
 21
929.47677441406233
 31
0.0
  0
LINE
  5
168
  8
DIMNSIONS
  6
CONTINUOUS
 62
     7
 10
-425.0
 20
954.48299999999995
 30
0.0
 11
-431.7003979515024
 21
929.47677441406233
 31
0.0
  0
LINE
  5
169
  8
DIMNSIONS
  6
CONTINUOUS
 62
     7
 10
-425.0
 20
845.51700000000005
 30
0.0
 11
-431.7003979515024
 21
870.52322558593755
 31
0.0
  0
LINE
  5
16A
  8
DIMNSIONS
  6
CONTINUOUS
 62
     7
 10
-425.0
 20
845.51700000000005
 30
0.0
 11
-418.2996020484976
 21
870.52322558593755
 31
0.0
  0
TEXT
  5
16B
  8
DIMNSIONS
 62
     7
 10
-434.93888888888893
 20
995.95039999999995
 30
0.0
 40
27.147352430555561
  1
109
 50
90.0
 41
0.8
 11
-462.08624131944453
 21
995.95039999999995
 31
0.0
 73
     3
  0
LINE
  5
16C
  8
DIMNSIONS
  6
CONTINUOUS
 62
     7
 10
-343.43400000000003
 20
923.68300000000011
 30
0.0
 11
-343.43400000000003
 21
1070.0
 31
0.0
  0
LINE
  5
16D
  8
DIMNSIONS
  6
CONTINUOUS
 62
     7
 10
-256.56599999999997
 20
923.68300000000011
 30
0.0
 11
-256.56599999999997
 21
1070.0
 31
0.0
  0
LINE
  5
16E
  8
DIMNSIONS
  6
CONTINUOUS
 62
     7
 10
-256.56599999999997
 20
1050.0
 30
0.0
 11
-189.7222222222222
 21
1050.0
 31
0.0
  0
LINE
  5
16F
  8
DIMNSIONS
  6
CONTINUOUS
 62
     7
 10
-343.43400000000003
 20
1050.0
 30
0.0
 11
-256.56599999999997
 21
1050.0
 31
0.0
  0
LINE
  5
170
  8
DIMNSIONS
  6
CONTINUOUS
 62
     7
 10
-343.43400000000003
 20
1050.0
 30
0.0
 11
-318.42777441406253
 21
1056.7003979515021
 31
0.0
  0
LINE
  5
171
  8
DIMNSIONS
  6
CONTINUOUS
 62
     7
 10
-343.43400000000003
 20
1050.0
 30
0.0
 11
-318.42777441406253
 21
1043.299602048497
 31
0.0
  0
LINE
  5
172
  8
DIMNSIONS
  6
CONTINUOUS
 62
     7
 10
-256.56599999999997
 20
1050.0
 30
0.0
 11
-281.57222558593747
 21
1043.299602048497
 31
0.0
  0
LINE
  5
173
  8
DIMNSIONS
  6
CONTINUOUS
 62
     7
 10
-256.56599999999997
 20
1050.0
 30
0.0
 11
-281.57222558593747
 21
1056.7003979515021
 31
0.0
  0
TEXT
  5
174
  8
DIMNSIONS
 62
     7
 10
-225.0
 20
1059.9388888888891
 30
0.0
 40
27.147352430555561
  1
87
 41
0.8
 11
-225.0
 21
1087.0862413194441
 31
0.0
 73
     3
  0
LINE
  5
175
  8
DIMNSIONS
  6
CONTINUOUS
 62
     7
 10
-253.88030153211321
 20
902.52022077199706
 30
0.0
 11
-149.99999999999989
 21
1000.0
 31
0.0
  0
LINE
  5
176
  8
DIMNSIONS
  6
CONTINUOUS
 62
     7
 10
-253.88030153211321
 20
902.52022077199706
 30
0.0
 11
-240.1615663010046
 21
924.47478645711237
 31
0.0
  0
LINE
  5
177
  8
DIMNSIONS
  6
CONTINUOUS
 62
     7
 10
-253.88030153211321
 20
902.52022077199706
 30
0.0
 11
-231.02224547162299
 21
914.67406476880672
 31
0.0
  0
LINE
  5
178
  8
DIMNSIONS
  6
CONTINUOUS
 62
     7
 10
-149.99999999999989
 20
1000.0
 30
0.0
 11
33.47222222222225
 21
1000.0
 31
0.0
  0
TEXT
  5
179
  8
DIMNSIONS
 62
     7
 10
-89.999999999999957
 20
1009.938888888889
 30
0.0
 40
27.147352430555561
  1
4-φ7.4
 41
0.8
 11
-89.999999999999957
 21
1037.0862413194441
 31
0.0
 73
     3
  0
LINE
  5
17A
  8
DIMNSIONS
  6
CONTINUOUS
 62
     7
 10
-372.95900000000012
 20
900.0
 30
0.0
 11
-620.0
 21
900.0
 31
0.0
  0
LINE
  5
17B
  8
DIMNSIONS
  6
CONTINUOUS
 62
     7
 10
-319.99999999999989
 20
541.79632944797277
 30
0.0
 11
-620.0
 21
541.79632944797277
 31
0.0
  0
LINE
  5
17C
  8
DIMNSIONS
  6
CONTINUOUS
 62
     7
 10
-600.0
 20
900.0
 30
0.0
 11
-600.0
 21
541.79632944797277
 31
0.0
  0
LINE
  5
17D
  8
DIMNSIONS
  6
CONTINUOUS
 62
     7
 10
-600.0
 20
900.0
 30
0.0
 11
-593.2996020484976
 21
874.9937744140625
 31
0.0
  0
LINE
  5
17E
  8
DIMNSIONS
  6
CONTINUOUS
 62
     7
 10
-600.0
 20
900.0
 30
0.0
 11
-606.7003979515024
 21
874.9937744140625
 31
0.0
  0
LINE
  5
17F
  8
DIMNSIONS
  6
CONTINUOUS
 62
     7
 10
-600.0
 20
541.79632944797277
 30
0.0
 11
-606.7003979515024
 21
566.80255503391038
 31
0.0
  0
LINE
  5
180
  8
DIMNSIONS
  6
CONTINUOUS
 62
     7
 10
-600.0
 20
541.79632944797277
 30
0.0
 11
-593.2996020484976
 21
566.80255503391038
 31
0.0
  0
TEXT
  5
181
  8
DIMNSIONS
 62
     7
 10
-609.93888888888887
 20
694.43983139065313
 30
0.0
 40
27.147352430555561
  1
358
 50
90.0
 41
0.8
 11
-637.08624131944453
 21
694.43983139065313
 31
0.0
 73
     3
  0
LINE
  5
182
  8
DIMNSIONS
  6
CONTINUOUS
 62
     7
 10
655.72600000000011
 20
199.49379999999999
 30
0.0
 11
655.72600000000011
 21
320.0
 31
0.0
  0
LINE
  5
183
  8
DIMNSIONS
  6
CONTINUOUS
 62
     7
 10
297.52232944797322
 20
140.04148519842079
 30
0.0
 11
297.52232944797322
 21
320.0
 31
0.0
  0
LINE
  5
184
  8
DIMNSIONS
  6
CONTINUOUS
 62
     7
 10
655.72600000000011
 20
300.0
 30
0.0
 11
297.52232944797322
 21
300.0
 31
0.0
  0
LINE
  5
185
  8
DIMNSIONS
  6
CONTINUOUS
 62
     7
 10
655.72600000000011
 20
300.0
 30
0.0
 11
630.7197744140625
 21
293.2996020484976
 31
0.0
  0
LINE
  5
186
  8
DIMNSIONS
  6
CONTINUOUS
 62
     7
 10
655.72600000000011
 20
300.0
 30
0.0
 11
630.7197744140625
 21
306.7003979515024
 31
0.0
  0
LINE
  5
187
  8
DIMNSIONS
  6
CONTINUOUS
 62
     7
 10
297.52232944797322
 20
300.0
 30
0.0
 11
322.52855503391072
 21
306.7003979515024
 31
0.0
  0
LINE
  5
188
  8
DIMNSIONS
  6
CONTINUOUS
 62
     7
 10
297.52232944797322
 20
300.0
 30
0.0
 11
322.52855503391072
 21
293.2996020484976
 31
0.0
  0
TEXT
  5
189
  8
DIMNSIONS
 62
     7
 10
450.16583139065318
 20
309.93888888888893
 30
0.0
 40
27.147352430555561
  1
358
 41
0.8
 11
450.16583139065318
 21
337.08624131944441
 31
0.0
 73
     3
  0
TEXT
  5
18A
  8
DATA
 62
     7
 10
575.0
 20
-1013.870876111111
 30
0.0
 40
21.71788194444445
  1
MTC-29CM取付金具装着図外観図
 41
0.8
 11
575.0
 21
-992.15299416666642
 31
0.0
 73
     3
  0
TEXT
  5
18B
  8
DATA
 62
     7
 10
599.99999999999989
 20
-944.40476499999988
 30
0.0
 40
24.4326171875
  1
JBL
 41
0.8
 11
599.99999999999989
 21
-919.97214781249988
 31
0.0
 73
     3
  0
LINE
  5
18C
  8
DATA
  6
CONTINUOUS
 62
     7
 10
-156.5
 20
125.2524851984208
 30
0.0
 11
-443.5
 21
125.2524851984208
 31
0.0
  0
LINE
  5
18D
  8
DATA
  6
CONTINUOUS
 62
     7
 10
-156.5
 20
-395.44751480157908
 30
0.0
 11
-443.5
 21
-395.44751480157908
 31
0.0
  0
LINE
  5
18E
  8
DATA
  6
CONTINUOUS
 62
     7
 10
-146.5
 20
115.2524851984208
 30
0.0
 11
-146.5
 21
-385.44751480157908
 31
0.0
  0
LINE
  5
18F
  8
DATA
  6
CONTINUOUS
 62
     7
 10
-154.0
 20
112.90248519842081
 30
0.0
 11
-154.0
 21
-383.09751480157911
 31
0.0
  0
LINE
  5
190
  8
DATA
  6
CONTINUOUS
 62
     7
 10
-436.0
 20
122.90248519842081
 30
0.0
 11
-164.0
 21
122.90248519842081
 31
0.0
  0
LINE
  5
191
  8
DATA
  6
CONTINUOUS
 62
     7
 10
-446.0
 20
-383.09751480157911
 30
0.0
 11
-446.0
 21
112.90248519842081
 31
0.0
  0
LINE
  5
192
  8
DATA
  6
CONTINUOUS
 62
     7
 10
-164.0
 20
-393.09751480157911
 30
0.0
 11
-436.0
 21
-393.09751480157911
 31
0.0
  0
LINE
  5
193
  8
DATA
  6
CONTINUOUS
 62
     7
 10
-168.5
 20
106.40248519842081
 30
0.0
 11
-168.5
 21
-376.59751480157911
 31
0.0
  0
LINE
  5
194
  8
DATA
  6
CONTINUOUS
 62
     7
 10
-431.5
 20
106.40248519842081
 30
0.0
 11
-168.5
 21
106.40248519842081
 31
0.0
  0
LINE
  5
195
  8
DATA
  6
CONTINUOUS
 62
     7
 10
-168.5
 20
-376.59751480157911
 30
0.0
 11
-431.5
 21
-376.59751480157911
 31
0.0
  0
LINE
  5
196
  8
DATA
  6
CONTINUOUS
 62
     7
 10
-195.5
 20
-162.597514801579
 30
0.0
 11
-195.5
 21
-351.59751480157911
 31
0.0
  0
LINE
  5
197
  8
DATA
  6
CONTINUOUS
 62
     7
 10
-205.5
 20
-361.59751480157911
 30
0.0
 11
-369.26839999999987
 21
-361.59751480157911
 31
0.0
  0
ARC
  5
198
  8
DATA
  6
CONTINUOUS
 62
     7
 10
-205.5
 20
-351.59751480157911
 30
0.0
 40
10.0
 50
270.0
 51
0.0
  0
ARC
  5
199
  8
DATA
  6
CONTINUOUS
 62
     7
 10
-205.5
 20
-162.597514801579
 30
0.0
 40
10.0
 50
0.0
 51
90.0
  0
CIRCLE
  5
19A
  8
DATA
  6
CONTINUOUS
 62
     7
 10
-202.0
 20
-355.097514801579
 30
0.0
 40
4.0
  0
LINE
  5
19B
  8
DATA
  6
CONTINUOUS
 62
     7
 10
-199.5
 20
-355.097514801579
 30
0.0
 11
-204.5
 21
-355.097514801579
 31
0.0
  0
LINE
  5
19C
  8
DATA
  6
CONTINUOUS
 62
     7
 10
-202.0
 20
-352.59751480157911
 30
0.0
 11
-202.0
 21
-357.597514801579
 31
0.0
  0
CIRCLE
  5
19D
  8
DATA
  6
CONTINUOUS
 62
     7
 10
-267.0
 20
-355.097514801579
 30
0.0
 40
4.0
  0
LINE
  5
19E
  8
DATA
  6
CONTINUOUS
 62
     7
 10
-264.5
 20
-355.097514801579
 30
0.0
 11
-269.5
 21
-355.097514801579
 31
0.0
  0
LINE
  5
19F
  8
DATA
  6
CONTINUOUS
 62
     7
 10
-267.0
 20
-352.59751480157911
 30
0.0
 11
-267.0
 21
-357.597514801579
 31
0.0
  0
CIRCLE
  5
1A0
  8
DATA
  6
CONTINUOUS
 62
     7
 10
-333.0
 20
-355.097514801579
 30
0.0
 40
4.0
  0
LINE
  5
1A1
  8
DATA
  6
CONTINUOUS
 62
     7
 10
-335.5
 20
-355.097514801579
 30
0.0
 11
-330.5
 21
-355.097514801579
 31
0.0
  0
LINE
  5
1A2
  8
DATA
  6
CONTINUOUS
 62
     7
 10
-333.0
 20
-352.59751480157911
 30
0.0
 11
-333.0
 21
-357.597514801579
 31
0.0
  0
CIRCLE
  5
1A3
  8
DATA
  6
CONTINUOUS
 62
     7
 10
-202.0
 20
-290.097514801579
 30
0.0
 40
4.0
  0
LINE
  5
1A4
  8
DATA
  6
CONTINUOUS
 62
     7
 10
-199.5
 20
-290.097514801579
 30
0.0
 11
-204.5
 21
-290.097514801579
 31
0.0
  0
LINE
  5
1A5
  8
DATA
  6
CONTINUOUS
 62
     7
 10
-202.0
 20
-287.59751480157911
 30
0.0
 11
-202.0
 21
-292.597514801579
 31
0.0
  0
CIRCLE
  5
1A6
  8
DATA
  6
CONTINUOUS
 62
     7
 10
-202.0
 20
-159.097514801579
 30
0.0
 40
4.0
  0
LINE
  5
1A7
  8
DATA
  6
CONTINUOUS
 62
     7
 10
-199.5
 20
-159.097514801579
 30
0.0
 11
-204.5
 21
-159.097514801579
 31
0.0
  0
LINE
  5
1A8
  8
DATA
  6
CONTINUOUS
 62
     7
 10
-202.0
 20
-156.597514801579
 30
0.0
 11
-202.0
 21
-161.597514801579
 31
0.0
  0
CIRCLE
  5
1A9
  8
DATA
  6
CONTINUOUS
 62
     7
 10
-267.0
 20
-159.097514801579
 30
0.0
 40
4.0
  0
LINE
  5
1AA
  8
DATA
  6
CONTINUOUS
 62
     7
 10
-264.5
 20
-159.097514801579
 30
0.0
 11
-269.5
 21
-159.097514801579
 31
0.0
  0
LINE
  5
1AB
  8
DATA
  6
CONTINUOUS
 62
     7
 10
-267.0
 20
-156.597514801579
 30
0.0
 11
-267.0
 21
-161.597514801579
 31
0.0
  0
CIRCLE
  5
1AC
  8
DATA
  6
CONTINUOUS
 62
     7
 10
-202.0
 20
-224.097514801579
 30
0.0
 40
4.0
  0
LINE
  5
1AD
  8
DATA
  6
CONTINUOUS
 62
     7
 10
-199.5
 20
-224.097514801579
 30
0.0
 11
-204.5
 21
-224.097514801579
 31
0.0
  0
LINE
  5
1AE
  8
DATA
  6
CONTINUOUS
 62
     7
 10
-202.0
 20
-221.597514801579
 30
0.0
 11
-202.0
 21
-226.597514801579
 31
0.0
  0
LINE
  5
1AF
  8
DATA
  6
CONTINUOUS
 62
     7
 10
-209.0
 20
-338.597514801579
 30
0.0
 11
-209.0
 21
-247.597514801579
 31
0.0
  0
LINE
  5
1B0
  8
DATA
  6
CONTINUOUS
 62
     7
 10
-207.19999999999999
 20
-338.597514801579
 30
0.0
 11
-207.19999999999999
 21
-247.597514801579
 31
0.0
  0
ARC
  5
1B1
  8
DATA
  6
CONTINUOUS
 62
     7
 10
-219.0
 20
-247.597514801579
 30
0.0
 40
10.0
 50
0.0
 51
90.0
  0
ARC
  5
1B2
  8
DATA
  6
CONTINUOUS
 62
     7
 10
-219.0
 20
-338.597514801579
 30
0.0
 40
10.0
 50
270.0
 51
0.0
  0
ARC
  5
1B3
  8
DATA
  6
CONTINUOUS
 62
     7
 10
-219.0
 20
-247.597514801579
 30
0.0
 40
11.799999999999949
 50
0.0
 51
90.0
  0
ARC
  5
1B4
  8
DATA
  6
CONTINUOUS
 62
     7
 10
-219.0
 20
-338.597514801579
 30
0.0
 40
11.80000000000007
 50
270.0
 51
0.0
  0
CIRCLE
  5
1B5
  8
DATA
  6
CONTINUOUS
 62
     7
 10
-300.0
 20
-293.097514801579
 30
0.0
 40
11.0
  0
LINE
  5
1B6
  8
DATA
  6
CONTINUOUS
 62
     7
 10
-290.1613000000001
 20
-288.17821480157909
 30
0.0
 11
-225.0
 21
-255.597514801579
 31
0.0
  0
LINE
  5
1B7
  8
DATA
  6
CONTINUOUS
 62
     7
 10
-290.1613000000001
 20
-298.01681480157907
 30
0.0
 11
-225.0
 21
-330.597514801579
 31
0.0
  0
CIRCLE
  5
1B8
  8
DATA
  6
CONTINUOUS
 62
     7
 10
-202.5
 20
-18.597514801579042
 30
0.0
 40
4.0
  0
LINE
  5
1B9
  8
DATA
  6
CONTINUOUS
 62
     7
 10
-200.0
 20
-18.597514801579042
 30
0.0
 11
-205.0
 21
-18.597514801579042
 31
0.0
  0
LINE
  5
1BA
  8
DATA
  6
CONTINUOUS
 62
     7
 10
-202.5
 20
-16.097514801579049
 30
0.0
 11
-202.5
 21
-21.097514801579049
 31
0.0
  0
CIRCLE
  5
1BB
  8
DATA
  6
CONTINUOUS
 62
     7
 10
-231.05689999999981
 20
50.345585198420892
 30
0.0
 40
3.9999616398162048
  0
LINE
  5
1BC
  8
DATA
  6
CONTINUOUS
 62
     7
 10
-229.28909999999999
 20
52.113385198420971
 30
0.0
 11
-232.82459999999989
 21
48.577885198420802
 31
0.0
  0
LINE
  5
1BD
  8
DATA
  6
CONTINUOUS
 62
     7
 10
-232.82459999999989
 20
52.113285198420783
 30
0.0
 11
-229.28909999999999
 21
48.577785198420813
 31
0.0
  0
CIRCLE
  5
1BE
  8
DATA
  6
CONTINUOUS
 62
     7
 10
-300.0
 20
78.902485198420948
 30
0.0
 40
4.0
  0
LINE
  5
1BF
  8
DATA
  6
CONTINUOUS
 62
     7
 10
-297.50000000000011
 20
78.902485198420948
 30
0.0
 11
-302.50000000000011
 21
78.902485198420948
 31
0.0
  0
LINE
  5
1C0
  8
DATA
  6
CONTINUOUS
 62
     7
 10
-300.0
 20
81.402485198420933
 30
0.0
 11
-300.0
 21
76.402485198420948
 31
0.0
  0
CIRCLE
  5
1C1
  8
DATA
  6
CONTINUOUS
 62
     7
 10
-231.0573
 20
-87.540214801579097
 30
0.0
 40
3.9999616398162048
  0
LINE
  5
1C2
  8
DATA
  6
CONTINUOUS
 62
     7
 10
-229.28950000000009
 20
-89.308014801579191
 30
0.0
 11
-232.82509999999979
 21
-85.772414801579004
 31
0.0
  0
LINE
  5
1C3
  8
DATA
  6
CONTINUOUS
 62
     7
 10
-229.28959999999981
 20
-85.772514801579035
 30
0.0
 11
-232.82509999999979
 21
-89.308014801579191
 31
0.0
  0
ARC
  5
1C4
  8
DATA
  6
CONTINUOUS
 62
     7
 10
-164.0
 20
-383.09751480157911
 30
0.0
 40
10.0
 50
270.0
 51
0.0
  0
ARC
  5
1C5
  8
DATA
  6
CONTINUOUS
 62
     7
 10
-436.0
 20
-383.09751480157911
 30
0.0
 40
10.0
 50
180.0
 51
270.0
  0
ARC
  5
1C6
  8
DATA
  6
CONTINUOUS
 62
     7
 10
-436.0
 20
112.90248519842081
 30
0.0
 40
10.0
 50
90.0
 51
180.0
  0
ARC
  5
1C7
  8
DATA
  6
CONTINUOUS
 62
     7
 10
-164.0
 20
112.90248519842081
 30
0.0
 40
10.0
 50
0.0
 51
90.0
  0
LINE
  5
1C8
  8
DATA
  6
CONTINUOUS
 62
     7
 10
-453.49999999999972
 20
115.2524851984208
 30
0.0
 11
-453.49999999999972
 21
-385.44751480157908
 31
0.0
  0
ARC
  5
1C9
  8
DATA
  6
CONTINUOUS
 62
     7
 10
-156.5
 20
-385.44751480157908
 30
0.0
 40
10.0
 50
270.0
 51
0.0
  0
ARC
  5
1CA
  8
DATA
  6
CONTINUOUS
 62
     7
 10
-156.5
 20
115.2524851984208
 30
0.0
 40
10.0
 50
0.0
 51
90.0
  0
ARC
  5
1CB
  8
DATA
  6
CONTINUOUS
 62
     7
 10
-443.5
 20
115.2524851984208
 30
0.0
 40
10.0
 50
90.0
 51
180.0
  0
ARC
  5
1CC
  8
DATA
  6
CONTINUOUS
 62
     7
 10
-443.5
 20
-385.44751480157908
 30
0.0
 40
9.9999999999997726
 50
180.0
 51
270.0
  0
LINE
  5
1CD
  8
DATA
  6
CONTINUOUS
 62
     7
 10
-284.25
 20
-123.9975148015791
 30
0.0
 11
-284.25
 21
-155.49751480157909
 31
0.0
  0
LINE
  5
1CE
  8
DATA
  6
CONTINUOUS
 62
     7
 10
-315.75
 20
-123.9975148015791
 30
0.0
 11
-284.25
 21
-123.9975148015791
 31
0.0
  0
LINE
  5
1CF
  8
DATA
  6
CONTINUOUS
 62
     7
 10
-315.75
 20
-155.49751480157909
 30
0.0
 11
-315.75
 21
-123.9975148015791
 31
0.0
  0
LINE
  5
1D0
  8
DATA
  6
CONTINUOUS
 62
     7
 10
-284.25
 20
-155.49751480157909
 30
0.0
 11
-315.75
 21
-155.49751480157909
 31
0.0
  0
LINE
  5
1D1
  8
DATA
  6
CONTINUOUS
 62
     7
 10
-284.25
 20
-149.99751480157909
 30
0.0
 11
-315.75
 21
-149.99751480157909
 31
0.0
  0
ARC
  5
1D2
  8
DATA
  6
CONTINUOUS
 62
     7
 10
-217.91169999999991
 20
-334.5287148015791
 30
0.0
 40
153.7582083717808
 50
134.036518249164
 51
195.8788138798312
  0
ARC
  5
1D3
  8
DATA
  6
CONTINUOUS
 62
     7
 10
-396.73039999999992
 20
-131.6417148015791
 30
0.0
 40
118.1077879799634
 50
307.91766714719353
 51
37.820318829239802
  0
ARC
  5
1D4
  8
DATA
  6
CONTINUOUS
 62
     7
 10
-144.1732999999999
 20
55.710085198420813
 30
0.0
 40
196.3984550823148
 50
165.04205584802099
 51
215.81613001334941
  0
LINE
  5
1D5
  8
DATA
  6
CONTINUOUS
 62
     7
 10
-219.0
 20
-235.79751480157901
 30
0.0
 11
-335.7833962983903
 21
-235.79751480157901
 31
0.0
  0
LINE
  5
1D6
  8
DATA
  6
CONTINUOUS
 62
     7
 10
-219.0
 20
-237.597514801579
 30
0.0
 11
-337.26801155602942
 21
-237.597514801579
 31
0.0
  0
LINE
  5
1D7
  8
DATA
  6
CONTINUOUS
 62
     7
 10
-371.02491140992362
 20
-348.59751480157911
 30
0.0
 11
-219.0
 21
-348.59751480157911
 31
0.0
  0
LINE
  5
1D8
  8
DATA
  6
CONTINUOUS
 62
     7
 10
-370.84883685125652
 20
-350.39751480157901
 30
0.0
 11
-219.0
 21
-350.39751480157901
 31
0.0
  0
LINE
  5
1D9
  8
DATA
  6
CONTINUOUS
 62
     7
 10
-280.49659999999989
 20
-152.597514801579
 30
0.0
 11
-205.5
 21
-152.597514801579
 31
0.0
  0
ARC
  5
1DA
  8
DATA
  6
CONTINUOUS
 62
     7
 10
-300.0
 20
-18.597514801579042
 30
0.0
 40
90.000026979773835
 50
281.99176190852057
 51
116.72784564872261
  0
ARC
  5
1DB
  8
DATA
  6
CONTINUOUS
 62
     7
 10
-300.0
 20
-18.597514801579042
 30
0.0
 40
75.999984977103864
 50
281.32037071107231
 51
122.043533400274
  0
ARC
  5
1DC
  8
DATA
  6
CONTINUOUS
 62
     7
 10
-300.0
 20
-18.597514801579042
 30
0.0
 40
27.499959788334159
 50
237.94386566951721
 51
173.04513074070971
  0
LINE
  5
1DD
  8
DATA
  6
CONTINUOUS
 62
     7
 10
-431.5
 20
106.40248519842081
 30
0.0
 11
-431.5
 21
-376.59751480157911
 31
0.0
  0
TEXT
  5
1DE
  8
DATA
 62
     7
 10
574.99999999999989
 20
-979.17431499999964
 30
0.0
 40
16.288411458333329
  1
CONTROL 29AV用
 41
0.8
 11
574.99999999999989
 21
-962.88590354166627
 31
0.0
 73
     3
  0
TEXT
  5
1DF
  8
DATA
 62
     7
 10
-600.0
 20
-812.69999999999982
 30
0.0
 40
27.147352430555561
  1
注）スピーカを縦取り付けの場合は、ツィターを下向きで使用して下さい。
 41
0.8
 11
-600.0
 21
-785.55264756944439
 31
0.0
 73
     3
  0
ARC
  5
1E0
  8
DATA
  6
CONTINUOUS
 62
     7
 10
-300.55292106810919
 20
-132.88177095356571
 30
0.0
 40
0.3666005820411921
 50
127.6419024975791
 51
174.26701928938971
  0
LINE
  5
1E1
  8
DATA
  6
CONTINUOUS
 62
     7
 10
-291.13634000000002
 20
-138.65880280157899
 30
0.0
 11
-292.85496899999998
 21
-142.75381480157901
 31
0.0
  0
LINE
  5
1E2
  8
DATA
  6
CONTINUOUS
 62
     7
 10
-291.13634000000002
 20
-138.65880280157899
 30
0.0
 11
-289.438917
 21
-142.75381480157901
 31
0.0
  0
LINE
  5
1E3
  8
DATA
  6
CONTINUOUS
 62
     7
 10
-304.1640000000001
 20
-131.25381480157901
 30
0.0
 11
-304.1640000000001
 21
-142.75381480157901
 31
0.0
  0
LINE
  5
1E4
  8
DATA
  6
CONTINUOUS
 62
     7
 10
-306.37064299999997
 20
-142.75381480157901
 30
0.0
 11
-306.37064299999997
 21
-133.01487880157899
 31
0.0
  0
LINE
  5
1E5
  8
DATA
  6
CONTINUOUS
 62
     7
 10
-293.66124550000001
 20
-142.75381480157901
 30
0.0
 11
-293.66124550000001
 21
-133.01487880157899
 31
0.0
  0
LINE
  5
1E6
  8
DATA
  6
CONTINUOUS
 62
     7
 10
-295.78301850000003
 20
-142.75381480157901
 30
0.0
 11
-295.78301850000003
 21
-133.01487880157899
 31
0.0
  0
LINE
  5
1E7
  8
DATA
  6
CONTINUOUS
 62
     7
 10
-296.88634000000002
 20
-142.75381480157901
 30
0.0
 11
-296.88634000000002
 21
-131.25381480157901
 31
0.0
  0
LINE
  5
1E8
  8
DATA
  6
CONTINUOUS
 62
     7
 10
-298.81715550000001
 20
-141.671722301579
 30
0.0
 11
-298.81715550000001
 21
-137.979831301579
 31
0.0
  0
LINE
  5
1E9
  8
DATA
  6
CONTINUOUS
 62
     7
 10
-302.95552249999997
 20
-138.19345530157901
 30
0.0
 11
-302.95552249999997
 21
-140.88665180157901
 31
0.0
  0
LINE
  5
1EA
  8
DATA
  6
CONTINUOUS
 62
     7
 10
-300.917688
 20
-141.162490801579
 30
0.0
 11
-300.917688
 21
-138.489051301579
 31
0.0
  0
ARC
  5
1EB
  8
DATA
  6
CONTINUOUS
 62
     7
 10
-293.23546950000002
 20
-134.206784801579
 30
0.0
 40
2.9656814389430521
 50
84.690856221536905
 51
143.99119915424279
  0
LINE
  5
1EC
  8
DATA
  6
CONTINUOUS
 62
     7
 10
-292.04870399999999
 20
-134.86083580157899
 30
0.0
 11
-292.04870399999999
 21
-133.0149018015789
 31
0.0
  0
LINE
  5
1ED
  8
DATA
  6
CONTINUOUS
 62
     7
 10
-292.04870399999999
 20
-134.86083580157899
 30
0.0
 11
-290.13910600000008
 21
-134.86083580157899
 31
0.0
  0
LINE
  5
1EE
  8
DATA
  6
CONTINUOUS
 62
     7
 10
-290.13910600000008
 20
-134.86083580157899
 30
0.0
 11
-290.13910600000008
 21
-133.0149018015789
 31
0.0
  0
ARC
  5
1EF
  8
DATA
  6
CONTINUOUS
 62
     7
 10
-292.85901699999999
 20
-132.99001580157901
 30
0.0
 40
0.802618150178703
 50
89.711848792751937
 51
181.77598700568689
  0
ARC
  5
1F0
  8
DATA
  6
CONTINUOUS
 62
     7
 10
-292.85093250000011
 20
-132.99001580157901
 30
0.0
 40
0.8026140460785692
 50
358.22401299431323
 51
90.288151207245107
  0
ARC
  5
1F1
  8
DATA
  6
CONTINUOUS
 62
     7
 10
-292.68665500000009
 20
-134.206784801579
 30
0.0
 40
2.965676622488576
 50
36.008800845757222
 51
95.309143778463707
  0
ARC
  5
1F2
  8
DATA
  6
CONTINUOUS
 62
     7
 10
-291.47936199999998
 20
-133.07991130157899
 30
0.0
 40
1.341820239402602
 50
2.7769954499950349
 51
27.359606667148739
  0
CIRCLE
  5
1F3
  8
DATA
  6
CONTINUOUS
 62
     7
 10
-291.25304199999999
 20
-137.067467301579
 30
0.0
 40
1.0927070000000181
  0
LINE
  5
1F4
  8
DATA
  6
CONTINUOUS
 62
     7
 10
-309.9140000000001
 20
-131.25382630157901
 30
0.0
 11
-304.1640000000001
 21
-131.25382630157901
 31
0.0
  0
LINE
  5
1F5
  8
DATA
  6
CONTINUOUS
 62
     7
 10
-309.9140000000001
 20
-131.25382630157901
 30
0.0
 11
-309.9140000000001
 21
-134.86084730157901
 31
0.0
  0
LINE
  5
1F6
  8
DATA
  6
CONTINUOUS
 62
     7
 10
-309.9140000000001
 20
-134.86083580157899
 30
0.0
 11
-307.98319600000002
 21
-134.86083580157899
 31
0.0
  0
LINE
  5
1F7
  8
DATA
  6
CONTINUOUS
 62
     7
 10
-307.98319600000002
 20
-134.86083580157899
 30
0.0
 11
-307.98319600000002
 21
-133.0149018015789
 31
0.0
  0
LINE
  5
1F8
  8
DATA
  6
CONTINUOUS
 62
     7
 10
-296.88634000000002
 20
-131.25382630157901
 30
0.0
 11
-300.917688
 21
-131.25383780157901
 31
0.0
  0
LINE
  5
1F9
  8
DATA
  6
CONTINUOUS
 62
     7
 10
-298.81714399999998
 20
-132.335930301579
 30
0.0
 11
-299.85681299999999
 21
-132.335930301579
 31
0.0
  0
LINE
  5
1FA
  8
DATA
  6
CONTINUOUS
 62
     7
 10
-298.81715550000001
 20
-132.335930301579
 30
0.0
 11
-298.81715550000001
 21
-136.87652130157889
 31
0.0
  0
LINE
  5
1FB
  8
DATA
  6
CONTINUOUS
 62
     7
 10
-298.81714399999998
 20
-136.87652130157889
 30
0.0
 11
-299.85681299999999
 21
-136.87652130157889
 31
0.0
  0
LINE
  5
1FC
  8
DATA
  6
CONTINUOUS
 62
     7
 10
-300.917688
 20
-132.845150301579
 30
0.0
 11
-300.917688
 21
-136.367301301579
 31
0.0
  0
ARC
  5
1FD
  8
DATA
  6
CONTINUOUS
 62
     7
 10
-294.44276250000001
 20
-133.07991130157899
 30
0.0
 40
1.3418183300448161
 50
152.64039333285319
 51
177.2230045500088
  0
ARC
  5
1FE
  8
DATA
  6
CONTINUOUS
 62
     7
 10
-307.18095599999998
 20
-132.99001580157901
 30
0.0
 40
0.8026181501787025
 50
89.711848792756001
 51
181.77598700568689
  0
ARC
  5
1FF
  8
DATA
  6
CONTINUOUS
 62
     7
 10
-307.17288300000001
 20
-132.99001580157901
 30
0.0
 40
0.8026140460785692
 50
358.22401299431323
 51
90.288151207249157
  0
LINE
  5
200
  8
DATA
  6
CONTINUOUS
 62
     7
 10
-302.95459099999999
 20
-133.09977180157901
 30
0.0
 11
-302.95459099999999
 21
-136.155114801579
 31
0.0
  0
LINE
  5
201
  8
DATA
  6
CONTINUOUS
 62
     7
 10
-298.81714399999998
 20
-137.979831301579
 30
0.0
 11
-299.85681299999999
 21
-137.979831301579
 31
0.0
  0
ARC
  5
202
  8
DATA
  6
CONTINUOUS
 62
     7
 10
-300.77150000000012
 20
-133.436951801579
 30
0.0
 40
2.1880031234758168
 50
93.830981609113294
 51
171.13514730980211
  0
LINE
  5
203
  8
DATA
  6
CONTINUOUS
 62
     7
 10
-293.66124550000001
 20
-142.75381480157901
 30
0.0
 11
-295.78301850000003
 21
-142.75381480157901
 31
0.0
  0
LINE
  5
204
  8
DATA
  6
CONTINUOUS
 62
     7
 10
-289.438917
 20
-142.75381480157901
 30
0.0
 11
-292.85496899999998
 21
-142.75381480157901
 31
0.0
  0
LINE
  5
205
  8
DATA
  6
CONTINUOUS
 62
     7
 10
-304.1640000000001
 20
-142.75381480157901
 30
0.0
 11
-306.37064299999997
 21
-142.75381480157901
 31
0.0
  0
LINE
  5
206
  8
DATA
  6
CONTINUOUS
 62
     7
 10
-296.88634000000002
 20
-142.75381480157901
 30
0.0
 11
-300.93984864736882
 21
-142.75380549377749
 31
0.0
  0
LINE
  5
207
  8
DATA
  6
CONTINUOUS
 62
     7
 10
-298.81714399999998
 20
-141.671710801579
 30
0.0
 11
-299.85681299999999
 21
-141.671710801579
 31
0.0
  0
ARC
  5
208
  8
DATA
  6
CONTINUOUS
 62
     7
 10
-300.79331550000001
 20
-140.57403580157899
 30
0.0
 40
2.1846894228482112
 50
188.2269238590157
 51
266.15412669215209
  0
ARC
  5
209
  8
DATA
  6
CONTINUOUS
 62
     7
 10
-299.86908978199369
 20
-134.352671456254
 30
0.0
 40
2.0167785213889959
 50
89.651219937617455
 51
102.8264828068726
  0
ARC
  5
20A
  8
DATA
  6
CONTINUOUS
 62
     7
 10
-300.0956059315867
 20
-133.50001744366779
 30
0.0
 40
1.135553589247245
 50
101.23310362265541
 51
126.8620088940628
  0
ARC
  5
20B
  8
DATA
  6
CONTINUOUS
 62
     7
 10
-300.55292106810919
 20
-136.3306806495923
 30
0.0
 40
0.36660058204123
 50
185.7329807106093
 51
232.35809750242629
  0
ARC
  5
20C
  8
DATA
  6
CONTINUOUS
 62
     7
 10
-299.86908978199369
 20
-134.859780146904
 30
0.0
 40
2.0167785213889848
 50
257.17351719312728
 51
270.34878006238262
  0
ARC
  5
20D
  8
DATA
  6
CONTINUOUS
 62
     7
 10
-300.0956059315867
 20
-135.71243415949019
 30
0.0
 40
1.135553589247223
 50
233.13799110593951
 51
258.76689637734449
  0
ARC
  5
20E
  8
DATA
  6
CONTINUOUS
 62
     7
 10
-301.84175900000002
 20
-136.07989330157889
 30
0.0
 40
1.1153713885007941
 50
183.8670063598249
 51
268.36163456789973
  0
ARC
  5
20F
  8
DATA
  6
CONTINUOUS
 62
     7
 10
-301.84073549999999
 20
-138.310801301579
 30
0.0
 40
1.1164797309397849
 50
91.689282104648726
 51
176.0782829826536
  0
ARC
  5
210
  8
DATA
  6
CONTINUOUS
 62
     7
 10
-300.55292106810919
 20
-138.52567195356571
 30
0.0
 40
0.3666005820412371
 50
127.6419024975737
 51
174.26701928938181
  0
ARC
  5
211
  8
DATA
  6
CONTINUOUS
 62
     7
 10
-299.86908978199369
 20
-139.996572456254
 30
0.0
 40
2.0167785213889959
 50
89.651219937617455
 51
102.8264828068726
  0
ARC
  5
212
  8
DATA
  6
CONTINUOUS
 62
     7
 10
-300.0956059315867
 20
-139.14391844366779
 30
0.0
 40
1.135553589247245
 50
101.23310362265541
 51
126.8620088940628
  0
ARC
  5
213
  8
DATA
  6
CONTINUOUS
 62
     7
 10
-300.55292106810919
 20
-141.12587014959229
 30
0.0
 40
0.36660058204123
 50
185.7329807106093
 51
232.35809750241381
  0
ARC
  5
214
  8
DATA
  6
CONTINUOUS
 62
     7
 10
-299.86908978199369
 20
-139.65496964690391
 30
0.0
 40
2.0167785213890399
 50
257.17351719312768
 51
270.3487800623825
  0
ARC
  5
215
  8
DATA
  6
CONTINUOUS
 62
     7
 10
-300.0956059315867
 20
-140.50762365949021
 30
0.0
 40
1.135553589247178
 50
233.13799110593769
 51
258.76689637734398
  0
LINE
  5
216
  8
DATA
  6
CONTINUOUS
 62
     7
 10
-309.83870000000007
 20
-288.17821480157909
 30
0.0
 11
-355.28205990732391
 21
-265.4564999780174
 31
0.0
  0
LINE
  5
217
  8
DATA
  6
CONTINUOUS
 62
     7
 10
-309.83870000000007
 20
-298.01681480157907
 30
0.0
 11
-371.5661343901383
 21
-328.8805793617517
 31
0.0
  0
ARC
  5
218
  8
DATA
  6
CONTINUOUS
 62
     7
 10
-227.23464100110439
 20
-201.20296368683279
 30
0.0
 40
10.73515891312244
 50
0.562811719036889
 51
42.316978763397898
  0
ARC
  5
219
  8
DATA
  6
CONTINUOUS
 62
     7
 10
-239.69212335868571
 20
-211.59871009720601
 30
0.0
 40
26.954447451193861
 50
40.829220896034371
 51
57.134966090799388
  0
ARC
  5
21A
  8
DATA
  6
CONTINUOUS
 62
     7
 10
-261.71468882728618
 20
-246.7632618708171
 30
0.0
 40
68.444259533860375
 50
57.624336730190898
 51
75.752212211117353
  0
ARC
  5
21B
  8
DATA
  6
CONTINUOUS
 62
     7
 10
-296.19948877611199
 20
-368.92551188316088
 30
0.0
 40
195.3649669962999
 50
74.767346201565047
 51
87.126427865734016
  0
ARC
  5
21C
  8
DATA
  6
CONTINUOUS
 62
     7
 10
-227.23464100110439
 20
-200.99206591632529
 30
0.0
 40
10.735158913122399
 50
317.68302123660209
 51
359.43718828096308
  0
ARC
  5
21D
  8
DATA
  6
CONTINUOUS
 62
     7
 10
-239.69212335868571
 20
-190.5963195059521
 30
0.0
 40
26.954447451193861
 50
302.86503390920058
 51
319.17077910396569
  0
ARC
  5
21E
  8
DATA
  6
CONTINUOUS
 62
     7
 10
-261.71468882728618
 20
-155.431767732341
 30
0.0
 40
68.444259533860347
 50
284.2477877888827
 51
302.37566326980908
  0
ARC
  5
21F
  8
DATA
  6
CONTINUOUS
 62
     7
 10
-296.19948877611199
 20
-33.269517719997282
 30
0.0
 40
195.36496699629981
 50
268.88533244710948
 51
285.23265379843491
  0
ARC
  5
220
  8
DATA
  6
CONTINUOUS
 62
     7
 10
-303.88051122388799
 20
-33.269517719997282
 30
0.0
 40
195.3649669962997
 50
262.92046952101759
 51
271.11466755289052
  0
TEXT
  5
221
  8
DATA
 62
     7
 10
-699.99999999999989
 20
-1085.8336650000001
 30
0.0
 40
16.288411458333329
  1
仕様および外観は予告なく変更されることがありますので、ご了承ください。
 41
0.8
 11
-699.99999999999989
 21
-1069.5452535416659
 31
0.0
 73
     3
  0
POLYLINE
  5
222
  8
DATA
  6
CONTINUOUS
 62
     7
 66
     1
 10
0.0
 20
0.0
 30
0.0
 70
   129
  0
VERTEX
  5
2BE
  8
DATA
  6
CONTINUOUS
 62
     7
 10
495.72262944797302
 20
-135.09751480157911
 30
0.0
 42
-0.4142135623730951
  0
VERTEX
  5
2BF
  8
DATA
  6
CONTINUOUS
 62
     7
 10
500.22262944797302
 20
-130.59751480157911
 30
0.0
 42
-0.4142135623730951
  0
VERTEX
  5
2C0
  8
DATA
  6
CONTINUOUS
 62
     7
 10
504.72262944797302
 20
-135.09751480157911
 30
0.0
 42
-0.4142135623730951
  0
VERTEX
  5
2C1
  8
DATA
  6
CONTINUOUS
 62
     7
 10
500.22262944797302
 20
-139.59751480157911
 30
0.0
 42
-0.4142135623730951
  0
VERTEX
  5
2C2
  8
DATA
  6
CONTINUOUS
 62
     7
 10
495.72262944797302
 20
-135.09751480157911
 30
0.0
  0
SEQEND
  5
2C3
  8
DATA
  6
CONTINUOUS
 62
     7
  0
POLYLINE
  5
229
  8
DATA
  6
CONTINUOUS
 62
     7
 66
     1
 10
0.0
 20
0.0
 30
0.0
 70
   129
  0
VERTEX
  5
2C4
  8
DATA
  6
CONTINUOUS
 62
     7
 10
368.56342944797319
 20
-135.09751480157911
 30
0.0
 42
-0.4142135623730951
  0
VERTEX
  5
2C5
  8
DATA
  6
CONTINUOUS
 62
     7
 10
373.06342944797319
 20
-130.59751480157911
 30
0.0
 42
-0.4142135623730951
  0
VERTEX
  5
2C6
  8
DATA
  6
CONTINUOUS
 62
     7
 10
377.56342944797331
 20
-135.09751480157911
 30
0.0
 42
-0.4142135623730951
  0
VERTEX
  5
2C7
  8
DATA
  6
CONTINUOUS
 62
     7
 10
373.06342944797319
 20
-139.59751480157911
 30
0.0
 42
-0.4142135623730951
  0
VERTEX
  5
2C8
  8
DATA
  6
CONTINUOUS
 62
     7
 10
368.56342944797319
 20
-135.09751480157911
 30
0.0
  0
SEQEND
  5
2C9
  8
DATA
  6
CONTINUOUS
 62
     7
  0
LINE
  5
230
  8
DATA
  6
CONTINUOUS
 62
     7
 10
297.52232944797322
 20
120.0414851984208
 30
0.0
 11
297.52232944797322
 21
-390.23651480157912
 31
0.0
  0
LINE
  5
231
  8
DATA
  6
CONTINUOUS
 62
     7
 10
348.02232944797311
 20
-395.44751480157919
 30
0.0
 11
517.52232944797311
 21
-395.44751480157919
 31
0.0
  0
LINE
  5
232
  8
DATA
  6
CONTINUOUS
 62
     7
 10
348.02232944797311
 20
125.2524851984208
 30
0.0
 11
348.02232944797311
 21
-395.44751480157919
 31
0.0
  0
LINE
  5
233
  8
DATA
  6
CONTINUOUS
 62
     7
 10
300.38002944797319
 20
-393.23321480157921
 30
0.0
 11
347.02232944797311
 21
-395.44751480157919
 31
0.0
  0
LINE
  5
234
  8
DATA
  6
CONTINUOUS
 62
     7
 10
348.02232944797311
 20
-395.44751480157919
 30
0.0
 11
578.52232944797311
 21
-375.2814148015791
 31
0.0
  0
LINE
  5
235
  8
DATA
  6
CONTINUOUS
 62
     7
 10
348.02232944797311
 20
125.2524851984208
 30
0.0
 11
517.52232944797311
 21
125.2524851984208
 31
0.0
  0
LINE
  5
236
  8
DATA
  6
CONTINUOUS
 62
     7
 10
300.38002944797319
 20
123.0381851984209
 30
0.0
 11
347.02232944797311
 21
125.2524851984208
 31
0.0
  0
LINE
  5
237
  8
DATA
  6
CONTINUOUS
 62
     7
 10
348.02002944797329
 20
125.2525851984207
 30
0.0
 11
578.52232944797311
 21
105.08618519842091
 31
0.0
  0
LINE
  5
238
  8
DATA
  6
CONTINUOUS
 62
     7
 10
517.52232944797311
 20
-380.6182148015792
 30
0.0
 11
517.52232944797311
 21
-395.44751480157919
 31
0.0
  0
LINE
  5
239
  8
DATA
  6
CONTINUOUS
 62
     7
 10
517.52232944797311
 20
125.2524851984208
 30
0.0
 11
517.52232944797311
 21
110.4229851984207
 31
0.0
  0
LINE
  5
23A
  8
DATA
  6
CONTINUOUS
 62
     7
 10
347.02232944797311
 20
125.2524851984208
 30
0.0
 11
347.02232944797311
 21
-395.44751480157919
 31
0.0
  0
LINE
  5
23B
  8
DATA
  6
CONTINUOUS
 62
     7
 10
348.02232944797311
 20
-394.44751480157908
 30
0.0
 11
347.02232944797311
 21
-394.44751480157908
 31
0.0
  0
LINE
  5
23C
  8
DATA
  6
CONTINUOUS
 62
     7
 10
347.02232944797311
 20
124.2524851984208
 30
0.0
 11
348.02002944797329
 21
124.2525851984207
 31
0.0
  0
LINE
  5
23D
  8
DATA
  6
CONTINUOUS
 62
     7
 10
578.52232944797311
 20
-375.2814148015791
 30
0.0
 11
578.52232944797311
 21
105.08618519842091
 31
0.0
  0
LINE
  5
23E
  8
DATA
  6
CONTINUOUS
 62
     7
 10
583.52232944797311
 20
-223.13011480157911
 30
0.0
 11
578.52232944797311
 21
-223.13011480157911
 31
0.0
  0
LINE
  5
23F
  8
DATA
  6
CONTINUOUS
 62
     7
 10
583.52232944797311
 20
-223.13011480157911
 30
0.0
 11
583.52232944797311
 21
-239.13011480157911
 31
0.0
  0
LINE
  5
240
  8
DATA
  6
CONTINUOUS
 62
     7
 10
583.52232944797311
 20
-239.13011480157911
 30
0.0
 11
578.52232944797311
 21
-239.13011480157911
 31
0.0
  0
LINE
  5
241
  8
DATA
  6
CONTINUOUS
 62
     7
 10
307.52232944797311
 20
-376.59751480157911
 30
0.0
 11
307.52232944797311
 21
106.40248519842081
 31
0.0
  0
LINE
  5
242
  8
DATA
  6
CONTINUOUS
 62
     7
 10
297.52232944797322
 20
-376.59751480157911
 30
0.0
 11
307.52232944797311
 21
-376.59751480157911
 31
0.0
  0
LINE
  5
243
  8
DATA
  6
CONTINUOUS
 62
     7
 10
297.52232944797322
 20
106.40248519842081
 30
0.0
 11
307.52232944797311
 21
106.40248519842081
 31
0.0
  0
ARC
  5
244
  8
DATA
  6
CONTINUOUS
 62
     7
 10
300.52232944797322
 20
-390.23661480157909
 30
0.0
 40
2.9999768082436762
 50
179.9980901406833
 51
267.28122901213828
  0
ARC
  5
245
  8
DATA
  6
CONTINUOUS
 62
     7
 10
300.52232944797322
 20
120.0415851984208
 30
0.0
 40
3.00000000166657
 50
92.718770987860452
 51
180.0019098593159
  0
LINE
  5
246
  8
DATA
  6
CONTINUOUS
 62
     7
 10
-453.5
 20
592.29632944797277
 30
0.0
 11
-407.87310000000008
 21
806.95452944797307
 31
0.0
  0
LINE
  5
247
  8
DATA
  6
CONTINUOUS
 62
     7
 10
-192.12690000000001
 20
806.95452944797307
 30
0.0
 11
-146.50000000000031
 21
592.29632944797277
 31
0.0
  0
LINE
  5
248
  8
DATA
  6
CONTINUOUS
 62
     7
 10
-146.5000000000002
 20
592.29632944797277
 30
0.0
 11
-453.5
 21
592.29632944797277
 31
0.0
  0
LINE
  5
249
  8
DATA
  6
CONTINUOUS
 62
     7
 10
-446.0
 20
551.79632944797277
 30
0.0
 11
-453.5
 21
591.29632944797288
 31
0.0
  0
LINE
  5
24A
  8
DATA
  6
CONTINUOUS
 62
     7
 10
-154.0
 20
551.79632944797277
 30
0.0
 11
-146.5000000000002
 21
591.29632944797288
 31
0.0
  0
CIRCLE
  5
24B
  8
DATA
  6
CONTINUOUS
 62
     7
 10
-300.0
 20
612.79632944797277
 30
0.0
 40
4.5
  0
CIRCLE
  5
24C
  8
DATA
  6
CONTINUOUS
 62
     7
 10
-300.0
 20
659.29632944797277
 30
0.0
 40
4.5
  0
CIRCLE
  5
24D
  8
DATA
  6
CONTINUOUS
 62
     7
 10
-300.0
 20
742.29632944797265
 30
0.0
 40
4.5
  0
LINE
  5
24E
  8
DATA
  6
CONTINUOUS
 62
     7
 10
-359.50000000000011
 20
592.29632944797277
 30
0.0
 11
-333.40680000000009
 21
741.11392944797296
 31
0.0
  0
LINE
  5
24F
  8
DATA
  6
CONTINUOUS
 62
     7
 10
-266.59320000000002
 20
741.11392944797296
 30
0.0
 11
-240.5
 21
592.29632944797277
 31
0.0
  0
LINE
  5
250
  8
DATA
  6
CONTINUOUS
 62
     7
 10
-291.21760000000017
 20
761.79632944797277
 30
0.0
 11
-308.78240000000011
 21
761.79632944797277
 31
0.0
  0
LINE
  5
251
  8
DATA
  6
CONTINUOUS
 62
     7
 10
-146.5000000000002
 20
591.29632944797288
 30
0.0
 11
-453.5
 21
591.29632944797288
 31
0.0
  0
LINE
  5
252
  8
DATA
  6
CONTINUOUS
 62
     7
 10
-452.5
 20
592.29632944797277
 30
0.0
 11
-452.5
 21
591.29632944797288
 31
0.0
  0
LINE
  5
253
  8
DATA
  6
CONTINUOUS
 62
     7
 10
-147.5000000000002
 20
591.29632944797288
 30
0.0
 11
-147.5000000000002
 21
592.29632944797277
 31
0.0
  0
LINE
  5
254
  8
DATA
  6
CONTINUOUS
 62
     7
 10
-388.31009999999998
 20
822.79632944797277
 30
0.0
 11
-211.68990000000011
 21
822.79632944797277
 31
0.0
  0
LINE
  5
255
  8
DATA
  6
CONTINUOUS
 62
     7
 10
-285.5
 20
827.79632944797265
 30
0.0
 11
-285.5
 21
822.79632944797277
 31
0.0
  0
LINE
  5
256
  8
DATA
  6
CONTINUOUS
 62
     7
 10
-284.0
 20
827.79632944797265
 30
0.0
 11
-284.0
 21
822.79632944797277
 31
0.0
  0
LINE
  5
257
  8
DATA
  6
CONTINUOUS
 62
     7
 10
-296.5
 20
827.79632944797265
 30
0.0
 11
-296.5
 21
822.79632944797277
 31
0.0
  0
LINE
  5
258
  8
DATA
  6
CONTINUOUS
 62
     7
 10
-295.0
 20
827.79632944797265
 30
0.0
 11
-295.0
 21
822.79632944797277
 31
0.0
  0
LINE
  5
259
  8
DATA
  6
CONTINUOUS
 62
     7
 10
-305.0
 20
827.79632944797265
 30
0.0
 11
-305.0
 21
822.79632944797277
 31
0.0
  0
LINE
  5
25A
  8
DATA
  6
CONTINUOUS
 62
     7
 10
-303.5
 20
827.79632944797265
 30
0.0
 11
-303.5
 21
822.79632944797277
 31
0.0
  0
LINE
  5
25B
  8
DATA
  6
CONTINUOUS
 62
     7
 10
-316.00000000000011
 20
827.79632944797265
 30
0.0
 11
-316.00000000000011
 21
822.79632944797277
 31
0.0
  0
LINE
  5
25C
  8
DATA
  6
CONTINUOUS
 62
     7
 10
-314.5
 20
827.79632944797265
 30
0.0
 11
-314.5
 21
822.79632944797277
 31
0.0
  0
LINE
  5
25D
  8
DATA
  6
CONTINUOUS
 62
     7
 10
-314.5
 20
827.79632944797265
 30
0.0
 11
-316.00000000000011
 21
827.79632944797265
 31
0.0
  0
LINE
  5
25E
  8
DATA
  6
CONTINUOUS
 62
     7
 10
-303.5
 20
827.79632944797265
 30
0.0
 11
-305.0
 21
827.79632944797265
 31
0.0
  0
LINE
  5
25F
  8
DATA
  6
CONTINUOUS
 62
     7
 10
-295.0
 20
827.79632944797265
 30
0.0
 11
-296.5
 21
827.79632944797265
 31
0.0
  0
LINE
  5
260
  8
DATA
  6
CONTINUOUS
 62
     7
 10
-284.0
 20
827.79632944797265
 30
0.0
 11
-285.5
 21
827.79632944797265
 31
0.0
  0
ARC
  5
261
  8
DATA
  6
CONTINUOUS
 62
     7
 10
-300.0
 20
1612.596329447972
 30
0.0
 40
1070.799999999999
 50
262.1635022718653
 51
277.83649772813482
  0
ARC
  5
262
  8
DATA
  6
CONTINUOUS
 62
     7
 10
-211.68990000000011
 20
802.79632944797265
 30
0.0
 40
20.0000399059603
 50
11.99987665934521
 51
90.0
  0
ARC
  5
263
  8
DATA
  6
CONTINUOUS
 62
     7
 10
-388.31009999999998
 20
802.79632944797265
 30
0.0
 40
20.0
 50
90.0
 51
168.00012334065511
  0
ARC
  5
264
  8
DATA
  6
CONTINUOUS
 62
     7
 10
-308.78250000000008
 20
736.79632944797277
 30
0.0
 40
25.0000000002
 50
89.999770816882005
 51
170.05490978241039
  0
ARC
  5
265
  8
DATA
  6
CONTINUOUS
 62
     7
 10
-291.21749999999997
 20
736.79632944797277
 30
0.0
 40
24.999956404961949
 50
9.9450902175898435
 51
90.000229183117952
  0
ENDSEC
  0
EOF
