  0
SECTION
  2
HEADER
  9
$ACADVER
  1
AC1009
  9
$INSBASE
 10
0.0
 20
0.0
 30
0.0
  9
$EXTMIN
 10
-1250.0823911746049
 20
-1874.8832945933341
 30
-0.0015258207003583
  9
$EXTMAX
 10
1450.0824037474611
 20
2139.5676713551261
 30
0.0000000349246037
  9
$LIMMIN
 10
0.0
 20
0.0
  9
$LIMMAX
 10
0.0
 20
0.0
  9
$ORTHOMODE
 70
     0
  9
$REGENMODE
 70
     1
  9
$FILLMODE
 70
     1
  9
$QTEXTMODE
 70
     0
  9
$MIRRTEXT
 70
     1
  9
$DRAGMODE
 70
     2
  9
$LTSCALE
 40
76.200000000000003
  9
$OSMODE
 70
   231
  9
$ATTMODE
 70
     1
  9
$TEXTSIZE
 40
0.0
  9
$TRACEWID
 40
1.0
  9
$TEXTSTYLE
  7
STANDARD
  9
$CLAYER
  8
DATA
  9
$CELTYPE
  6
BYLAYER
  9
$CECOLOR
 62
   256
  9
$DIMSCALE
 40
1.0
  9
$DIMASZ
 40
0.18
  9
$DIMEXO
 40
0.0625
  9
$DIMDLI
 40
0.38
  9
$DIMRND
 40
0.0
  9
$DIMDLE
 40
0.0
  9
$DIMEXE
 40
0.18
  9
$DIMTP
 40
0.0
  9
$DIMTM
 40
0.0
  9
$DIMTXT
 40
0.18
  9
$DIMCEN
 40
0.09
  9
$DIMTSZ
 40
0.0
  9
$DIMTOL
 70
     0
  9
$DIMLIM
 70
     0
  9
$DIMTIH
 70
     1
  9
$DIMTOH
 70
     1
  9
$DIMSE1
 70
     0
  9
$DIMSE2
 70
     0
  9
$DIMTAD
 70
     0
  9
$DIMZIN
 70
     0
  9
$DIMBLK
  1

  9
$DIMASO
 70
     1
  9
$DIMSHO
 70
     1
  9
$DIMPOST
  1

  9
$DIMAPOST
  1

  9
$DIMALT
 70
     0
  9
$DIMALTD
 70
     2
  9
$DIMALTF
 40
25.399999999999999
  9
$DIMLFAC
 40
1.0
  9
$DIMTOFL
 70
     0
  9
$DIMTVP
 40
0.0
  9
$DIMTIX
 70
     0
  9
$DIMSOXD
 70
     0
  9
$DIMSAH
 70
     0
  9
$DIMBLK1
  1

  9
$DIMBLK2
  1

  9
$DIMSTYLE
  2
STANDARD
  9
$DIMCLRD
 70
     0
  9
$DIMCLRE
 70
     0
  9
$DIMCLRT
 70
     0
  9
$DIMTFAC
 40
1.0
  9
$DIMGAP
 40
0.09
  9
$LUNITS
 70
     2
  9
$LUPREC
 70
     4
  9
$SKETCHINC
 40
0.1
  9
$FILLETRAD
 40
0.0
  9
$AUNITS
 70
     0
  9
$AUPREC
 70
     0
  9
$MENU
  1
acad
  9
$ELEVATION
 40
0.0
  9
$PELEVATION
 40
0.0
  9
$THICKNESS
 40
0.0
  9
$LIMCHECK
 70
     0
  9
$BLIPMODE
 70
     0
  9
$CHAMFERA
 40
0.0
  9
$CHAMFERB
 40
0.0
  9
$SKPOLY
 70
     0
  9
$TDCREATE
 40
2454061.598900463
  9
$TDUPDATE
 40
2454061.616852269
  9
$TDINDWG
 40
0.0002421528
  9
$TDUSRTIMER
 40
0.0002419676
  9
$USRTIMER
 70
     1
  9
$ANGBASE
 50
0.0
  9
$ANGDIR
 70
     0
  9
$PDMODE
 70
     1
  9
$PDSIZE
 40
-2.0
  9
$PLINEWID
 40
0.0
  9
$COORDS
 70
     1
  9
$SPLFRAME
 70
     0
  9
$SPLINETYPE
 70
     6
  9
$SPLINESEGS
 70
     8
  9
$ATTDIA
 70
     0
  9
$ATTREQ
 70
     1
  9
$HANDLING
 70
     1
  9
$HANDSEED
  5
403
  9
$SURFTAB1
 70
     6
  9
$SURFTAB2
 70
     6
  9
$SURFTYPE
 70
     6
  9
$SURFU
 70
     6
  9
$SURFV
 70
     6
  9
$UCSNAME
  2

  9
$UCSORG
 10
0.0
 20
0.0
 30
0.0
  9
$UCSXDIR
 10
1.0
 20
0.0
 30
0.0
  9
$UCSYDIR
 10
0.0
 20
1.0
 30
0.0
  9
$PUCSNAME
  2

  9
$PUCSORG
 10
0.0
 20
0.0
 30
0.0
  9
$PUCSXDIR
 10
1.0
 20
0.0
 30
0.0
  9
$PUCSYDIR
 10
0.0
 20
1.0
 30
0.0
  9
$USERI1
 70
     0
  9
$USERI2
 70
     0
  9
$USERI3
 70
     0
  9
$USERI4
 70
     0
  9
$USERI5
 70
     0
  9
$USERR1
 40
0.0
  9
$USERR2
 40
0.0
  9
$USERR3
 40
0.0
  9
$USERR4
 40
0.0
  9
$USERR5
 40
0.0
  9
$WORLDVIEW
 70
     1
  9
$SHADEDGE
 70
     3
  9
$SHADEDIF
 70
    70
  9
$TILEMODE
 70
     1
  9
$MAXACTVP
 70
    64
  9
$PLIMCHECK
 70
     0
  9
$PEXTMIN
 10
1.0000000000000000E+020
 20
1.0000000000000000E+020
 30
1.0000000000000000E+020
  9
$PEXTMAX
 10
-1.0000000000000000E+020
 20
-1.0000000000000000E+020
 30
-1.0000000000000000E+020
  9
$PLIMMIN
 10
0.0
 20
0.0
  9
$PLIMMAX
 10
12.0
 20
9.0
  9
$UNITMODE
 70
     0
  9
$VISRETAIN
 70
     0
  9
$PLINEGEN
 70
     1
  9
$PSLTSCALE
 70
     0
  0
ENDSEC
  0
SECTION
  2
TABLES
  0
TABLE
  2
VPORT
 70
     1
  0
VPORT
  2
*ACTIVE
 70
     0
 10
0.0
 20
0.0
 11
1.0
 21
1.0
 12
100.0000062864283
 22
132.34218838089569
 13
0.0
 23
0.0
 14
1.0
 24
1.0
 15
0.0
 25
0.0
 16
0.0
 26
0.0
 36
1.0
 17
0.0
 27
0.0
 37
0.0
 40
4047.7659117239659
 41
1.6703601108033239
 42
50.0
 43
0.0
 44
0.0
 50
0.0
 51
0.0
 71
     0
 72
  2000
 73
     1
 74
     1
 75
     0
 76
     0
 77
     0
 78
     0
  0
ENDTAB
  0
TABLE
  2
LTYPE
 70
    11
  0
LTYPE
  2
CONTINUOUS
 70
     0
  3
Solid line
 72
    65
 73
     0
 40
0.0
  0
LTYPE
  2
STYLE_01
 70
     0
  3

 72
    65
 73
     2
 40
0.4166412353515625
 49
0.208282470703125
 49
-0.2083587646484375
  0
LTYPE
  2
STYLE_10
 70
     0
  3

 72
    65
 73
     6
 40
5.9375
 49
3.75
 49
-0.2777862548828125
 49
0.694427490234375
 49
-0.2777862548828125
 49
0.625
 49
-0.3125
  0
ENDTAB
  0
TABLE
  2
LAYER
 70
     5
  0
LAYER
  2
0
 70
     0
 62
     7
  6
CONTINUOUS
  0
LAYER
  2
DATA
 70
     0
 62
     7
  6
CONTINUOUS
  0
LAYER
  2
HIBINO-BASE
 70
     0
 62
     7
  6
CONTINUOUS
  0
LAYER
  2
SPEC
 70
     0
 62
     7
  6
CONTINUOUS
  0
LAYER
  2
DIMNSIONS
 70
     0
 62
     7
  6
CONTINUOUS
  0
ENDTAB
  0
TABLE
  2
STYLE
 70
     2
  0
STYLE
  2
STANDARD
 70
     0
 40
0.0
 41
1.0
 50
0.0
 71
     0
 42
0.0
  3
txt
  4
BIGFONT.SHX
  0
ENDTAB
  0
TABLE
  2
VIEW
 70
     0
  0
ENDTAB
  0
TABLE
  2
UCS
 70
     0
  0
ENDTAB
  0
TABLE
  2
APPID
 70
     1
  0
APPID
  2
ACAD
 70
     0
  0
ENDTAB
  0
TABLE
  2
DIMSTYLE
 70
     1
  0
DIMSTYLE
  2
STANDARD
 70
     0
  3

  4

  5

  6

  7

 40
1.0
 41
0.18
 42
0.0625
 43
0.38
 44
0.18
 45
0.0
 46
0.0
 47
0.0
 48
0.0
140
0.18
141
0.09
142
0.0
143
25.399999999999999
144
1.0
145
0.0
146
1.0
147
0.09
 71
     0
 72
     0
 73
     1
 74
     1
 75
     0
 76
     0
 77
     0
 78
     0
170
     0
171
     2
172
     0
173
     0
174
     0
175
     0
176
     0
177
     0
178
     0
  0
ENDTAB
  0
ENDSEC
  0
SECTION
  2
BLOCKS
  0
BLOCK
  8
0
  2
$MODEL_SPACE
 70
     0
 10
0.0
 20
0.0
 30
0.0
  3
$MODEL_SPACE
  1

  0
ENDBLK
  5
3B3
  8
0
  0
BLOCK
 67
     1
  8
0
  2
$PAPER_SPACE
 70
     0
 10
0.0
 20
0.0
 30
0.0
  3
$PAPER_SPACE
  1

  0
ENDBLK
  5
3AF
 67
     1
  8
0
  0
ENDSEC
  0
SECTION
  2
ENTITIES
  0
LINE
  5
2C
  8
HIBINO-BASE
  6
CONTINUOUS
 62
     7
 10
-1250.0
 20
2139.4454099999998
 30
0.0
 11
1450.0
 21
2139.4454099999998
 31
0.0
  0
LINE
  5
2D
  8
HIBINO-BASE
  6
CONTINUOUS
 62
     7
 10
1450.0
 20
-1760.55459
 30
0.0
 11
-1250.0
 21
-1760.55459
 31
0.0
  0
LINE
  5
2E
  8
HIBINO-BASE
  6
CONTINUOUS
 62
     7
 10
-1250.0
 20
-1760.55459
 30
0.0
 11
-1250.0
 21
2139.4454099999998
 31
0.0
  0
TEXT
  5
2F
  8
HIBINO-BASE
 62
     7
 10
-1142.24
 20
-1856.6847570000009
 30
0.0
 40
54.000662695312492
  1
Hibino Corporation
 41
0.75
 11
-1142.24
 21
-1802.684094304688
 31
0.0
 73
     3
  0
LINE
  5
30
  8
HIBINO-BASE
  6
CONTINUOUS
 62
     7
 10
1450.0
 20
2139.4454099999998
 30
0.0
 11
1450.0
 21
-1760.55459
 31
0.0
  0
LINE
  5
31
  8
HIBINO-BASE
  6
CONTINUOUS
 62
     7
 10
100.0
 20
-1423.05459
 30
0.0
 11
1450.0
 21
-1423.05459
 31
0.0
  0
LINE
  5
32
  8
HIBINO-BASE
  6
CONTINUOUS
 62
     7
 10
100.0
 20
-1760.55459
 30
0.0
 11
100.0
 21
-1423.05459
 31
0.0
  0
TEXT
  5
33
  8
HIBINO-BASE
 62
     7
 10
113.5
 20
-1460.68499
 30
0.0
 40
24.4326171875
  1
NOTE
 41
0.75
 11
113.5
 21
-1436.2523728125
 31
0.0
 73
     3
  0
LINE
  5
34
  8
HIBINO-BASE
  6
CONTINUOUS
 62
     7
 10
625.0
 20
-1760.55459
 30
0.0
 11
625.0
 21
-1423.05459
 31
0.0
  0
TEXT
  5
35
  8
HIBINO-BASE
 62
     7
 10
638.49999999999989
 20
-1460.68499
 30
0.0
 40
24.4326171875
  1
TITLE
 41
0.75
 11
638.49999999999989
 21
-1436.2523728125
 31
0.0
 73
     3
  0
TEXT
  5
36
  8
HIBINO-BASE
 62
     7
 10
851.02584999999999
 20
-1856.6847570000009
 30
0.0
 40
54.000662695312492
  1
ヒビノ株式会社
 41
0.75
 11
851.02584999999999
 21
-1802.684094304688
 31
0.0
 73
     3
  0
LINE
  5
37
  8
HIBINO-BASE
  6
CONTINUOUS
 62
     7
 10
100.0
 20
-1610.55459
 30
0.0
 11
1450.0
 21
-1610.55459
 31
0.0
  0
TEXT
  5
38
  8
HIBINO-BASE
 62
     7
 10
826.0
 20
-1647.3401899999999
 30
0.0
 40
24.4326171875
  1
DRAWN
 41
0.75
 11
826.0
 21
-1622.907572812501
 31
0.0
 73
     3
  0
TEXT
  5
39
  8
HIBINO-BASE
 62
     7
 10
451.0
 20
-1647.3401899999999
 30
0.0
 40
24.4326171875
  1
DATE
 41
0.75
 11
451.0
 21
-1622.907572812501
 31
0.0
 73
     3
  0
TEXT
  5
3A
  8
HIBINO-BASE
 62
     7
 10
300.99999999999989
 20
-1647.3401899999999
 30
0.0
 40
24.4326171875
  1
SCALE
 41
0.75
 11
300.99999999999989
 21
-1622.907572812501
 31
0.0
 73
     3
  0
TEXT
  5
3B
  8
HIBINO-BASE
 62
     7
 10
638.49999999999989
 20
-1647.3401899999999
 30
0.0
 40
24.4326171875
  1
DESIGN
 41
0.75
 11
638.49999999999989
 21
-1622.907572812501
 31
0.0
 73
     3
  0
TEXT
  5
3C
  8
HIBINO-BASE
 62
     7
 10
1201.0
 20
-1647.3401899999999
 30
0.0
 40
24.4326171875
  1
DRAWING NO.
 41
0.75
 11
1201.0
 21
-1622.907572812501
 31
0.0
 73
     3
  0
TEXT
  5
3D
  8
HIBINO-BASE
 62
     7
 10
1013.5
 20
-1647.3401899999999
 30
0.0
 40
24.4326171875
  1
CHECK
 41
0.75
 11
1013.5
 21
-1622.907572812501
 31
0.0
 73
     3
  0
LINE
  5
3E
  8
HIBINO-BASE
  6
CONTINUOUS
 62
     7
 10
315.625
 20
-1741.80459
 30
0.0
 11
371.875
 21
-1685.55459
 31
0.0
  0
TEXT
  5
3F
  8
HIBINO-BASE
 62
     7
 10
306.25
 20
-1702.1887400000001
 30
0.0
 40
24.4326171875
  1
1
 41
0.75
 11
306.25
 21
-1677.7561228125001
 31
0.0
 73
     3
  0
LINE
  5
40
  8
HIBINO-BASE
  6
CONTINUOUS
 62
     7
 10
287.5
 20
-1760.55459
 30
0.0
 11
287.5
 21
-1610.55459
 31
0.0
  0
LINE
  5
41
  8
HIBINO-BASE
  6
CONTINUOUS
 62
     7
 10
437.5
 20
-1760.55459
 30
0.0
 11
437.5
 21
-1610.55459
 31
0.0
  0
LINE
  5
42
  8
HIBINO-BASE
  6
CONTINUOUS
 62
     7
 10
812.5
 20
-1610.55459
 30
0.0
 11
812.5
 21
-1760.55459
 31
0.0
  0
LINE
  5
43
  8
HIBINO-BASE
  6
CONTINUOUS
 62
     7
 10
1187.5
 20
-1610.55459
 30
0.0
 11
1187.5
 21
-1760.55459
 31
0.0
  0
LINE
  5
44
  8
HIBINO-BASE
  6
CONTINUOUS
 62
     7
 10
1000.0
 20
-1760.55459
 30
0.0
 11
1000.0
 21
-1610.55459
 31
0.0
  0
TEXT
  5
45
  8
HIBINO-BASE
 62
     7
 10
450.34809999999987
 20
-1717.59989
 30
0.0
 40
24.4326171875
  1
'06.09.
 41
0.75
 11
450.34809999999987
 21
-1693.1672728125011
 31
0.0
 73
     3
  0
TEXT
  5
46
  8
HIBINO-BASE
 62
     7
 10
362.5
 20
-1730.3137400000001
 30
0.0
 40
24.4326171875
  1
15
 41
0.75
 11
362.5
 21
-1705.8811228125001
 31
0.0
 73
     3
  0
TEXT
  5
47
  8
HIBINO-BASE
 62
     7
 10
835.08715016551946
 20
-1717.59989
 30
0.0
 40
24.4326171875
  1
N.Sasaki
 41
0.75
 11
835.08715016551946
 21
-1693.1672728125011
 31
0.0
 73
     3
  0
TEXT
  5
48
  8
HIBINO-BASE
 62
     7
 10
158.2500000000002
 20
-1730.9145900000001
 30
0.0
 40
48.865234374999993
  1
A4
 41
0.75
 11
158.2500000000002
 21
-1682.0493556250001
 31
0.0
 73
     3
  0
TEXT
  5
49
  8
HIBINO-BASE
 62
     7
 10
114.375
 20
-1649.846415
 30
0.0
 40
24.4326171875
  1
PAPER SIZE
 41
0.75
 11
114.375
 21
-1625.4137978125
 31
0.0
 73
     3
  0
TEXT
  5
4A
  8
HIBINO-BASE
 62
     7
 10
1037.1924220019839
 20
-1717.59989
 30
0.0
 40
24.4326171875
  1
T.Taki
 41
0.75
 11
1037.1924220019839
 21
-1693.1672728125011
 31
0.0
 73
     3
  0
LINE
  5
4B
  8
SPEC
  6
CONTINUOUS
 62
     7
 10
-1137.5
 20
1989.4454099999989
 30
0.0
 11
1075.0
 21
1989.4454099999989
 31
0.0
  0
LINE
  5
4C
  8
SPEC
  6
CONTINUOUS
 62
     7
 10
-1137.5
 20
1989.4454099999989
 30
0.0
 11
-1137.5
 21
1820.6954099999989
 31
0.0
  0
TEXT
  5
4D
  8
SPEC
 62
     7
 10
-1118.75
 20
2010.3444599999989
 30
0.0
 40
36.64892578125
  1
仕様
 41
0.75
 11
-1118.75
 21
2046.9933857812489
 31
0.0
 73
     3
  0
LINE
  5
4E
  8
SPEC
  6
CONTINUOUS
 62
     7
 10
-649.99999999999989
 20
1989.4454099999989
 30
0.0
 11
-649.99999999999989
 21
1820.6954099999989
 31
0.0
  0
LINE
  5
4F
  8
SPEC
  6
CONTINUOUS
 62
     7
 10
1075.0
 20
1989.4454099999989
 30
0.0
 11
1075.0
 21
1820.6954099999989
 31
0.0
  0
LINE
  5
50
  8
SPEC
  6
CONTINUOUS
 62
     7
 10
-1137.5
 20
1820.6954099999989
 30
0.0
 11
1075.0
 21
1820.6954099999989
 31
0.0
  0
LINE
  5
51
  8
SPEC
  6
CONTINUOUS
 62
     7
 10
-1137.5
 20
1876.9454099999989
 30
0.0
 11
1075.0
 21
1876.9454099999989
 31
0.0
  0
TEXT
  5
52
  8
SPEC
 62
     7
 10
-1124.0
 20
1945.0142339999991
 30
0.0
 40
28.50466875
  1
仕上げ
 41
0.75
 11
-1124.0
 21
1973.5189027499989
 31
0.0
 73
     3
  0
TEXT
  5
53
  8
SPEC
 62
     7
 10
-1124.0
 20
1832.5142339999991
 30
0.0
 40
28.50466875
  1
重量
 41
0.75
 11
-1124.0
 21
1861.0189027499989
 31
0.0
 73
     3
  0
TEXT
  5
54
  8
SPEC
 62
     7
 10
-636.49999999999989
 20
1945.0142339999991
 30
0.0
 40
28.50466875
  1
黒
 41
0.75
 11
-636.49999999999989
 21
1973.5189027499989
 31
0.0
 73
     3
  0
TEXT
  5
55
  8
SPEC
 62
     7
 10
-636.49999999999989
 20
1832.5142339999991
 30
0.0
 40
28.50466875
  1
約21.1kg
 41
0.75
 11
-636.49999999999989
 21
1861.0189027499989
 31
0.0
 73
     3
  0
LINE
  5
56
  8
SPEC
  6
CONTINUOUS
 62
     7
 10
-1137.5
 20
1933.1954099999989
 30
0.0
 11
1075.0
 21
1933.1954099999989
 31
0.0
  0
TEXT
  5
57
  8
SPEC
 62
     7
 10
-1124.0
 20
1888.7642339999991
 30
0.0
 40
28.50466875
  1
寸法
 41
0.75
 11
-1124.0
 21
1917.2689027499989
 31
0.0
 73
     3
  0
TEXT
  5
58
  8
SPEC
 62
     7
 10
-636.49999999999989
 20
1888.7642339999991
 30
0.0
 40
28.50466875
  1
588.5(W)×506(H)×322(D)mm(突起部含まず)
 41
0.75
 11
-636.49999999999989
 21
1917.2689027499989
 31
0.0
 73
     3
  0
TEXT
  5
59
  8
DIMNSIONS
 62
     7
 10
-200.0
 20
-1576.51224
 30
0.0
 40
36.64892578125
  1
(単位：mm)
 41
0.75
 11
-200.0
 21
-1539.86331421875
 31
0.0
 73
     3
  0
LINE
  5
5A
  8
DIMNSIONS
  6
CONTINUOUS
 62
     7
 10
-700.0
 20
270.0
 30
0.0
 11
-700.0
 21
-30.0
 31
0.0
  0
LINE
  5
5B
  8
DIMNSIONS
  6
CONTINUOUS
 62
     7
 10
-111.5
 20
270.0
 30
0.0
 11
-111.5
 21
-30.0
 31
0.0
  0
LINE
  5
5C
  8
DIMNSIONS
  6
CONTINUOUS
 62
     7
 10
-700.0
 20
0.0
 30
0.0
 11
-111.5
 21
0.0
 31
0.0
  0
LINE
  5
5D
  8
DIMNSIONS
  6
CONTINUOUS
 62
     7
 10
-700.0
 20
0.0
 30
0.0
 11
-662.49066162109375
 21
10.05059692725365
 31
0.0
  0
LINE
  5
5E
  8
DIMNSIONS
  6
CONTINUOUS
 62
     7
 10
-700.0
 20
0.0
 30
0.0
 11
-662.49066162109375
 21
-10.05059692725365
 31
0.0
  0
LINE
  5
5F
  8
DIMNSIONS
  6
CONTINUOUS
 62
     7
 10
-111.5
 20
0.0
 30
0.0
 11
-149.00933837890619
 21
-10.05059692725365
 31
0.0
  0
LINE
  5
60
  8
DIMNSIONS
  6
CONTINUOUS
 62
     7
 10
-111.5
 20
0.0
 30
0.0
 11
-149.00933837890619
 21
10.05059692725365
 31
0.0
  0
TEXT
  5
61
  8
DIMNSIONS
 62
     7
 10
-471.89583333333343
 20
14.908333333333321
 30
0.0
 40
40.721028645833343
  1
588.5
 41
0.75
 11
-471.89583333333343
 21
55.62936197916666
 31
0.0
 73
     3
  0
LINE
  5
62
  8
DIMNSIONS
  6
CONTINUOUS
 62
     7
 10
-700.0
 20
-661.5
 30
0.0
 11
-700.0
 21
-1130.0
 31
0.0
  0
LINE
  5
63
  8
DIMNSIONS
  6
CONTINUOUS
 62
     7
 10
-111.5
 20
-661.5
 30
0.0
 11
-111.5
 21
-1130.0
 31
0.0
  0
LINE
  5
64
  8
DIMNSIONS
  6
CONTINUOUS
 62
     7
 10
-700.0
 20
-1100.0
 30
0.0
 11
-111.5
 21
-1100.0
 31
0.0
  0
LINE
  5
65
  8
DIMNSIONS
  6
CONTINUOUS
 62
     7
 10
-700.0
 20
-1100.0
 30
0.0
 11
-662.49066162109375
 21
-1089.949403072746
 31
0.0
  0
LINE
  5
66
  8
DIMNSIONS
  6
CONTINUOUS
 62
     7
 10
-700.0
 20
-1100.0
 30
0.0
 11
-662.49066162109375
 21
-1110.0505969272531
 31
0.0
  0
LINE
  5
67
  8
DIMNSIONS
  6
CONTINUOUS
 62
     7
 10
-111.5
 20
-1100.0
 30
0.0
 11
-149.00933837890619
 21
-1110.050596927254
 31
0.0
  0
LINE
  5
68
  8
DIMNSIONS
  6
CONTINUOUS
 62
     7
 10
-111.5
 20
-1100.0
 30
0.0
 11
-149.00933837890619
 21
-1089.949403072746
 31
0.0
  0
TEXT
  5
69
  8
DIMNSIONS
 62
     7
 10
-471.89583333333343
 20
-1085.091666666666
 30
0.0
 40
40.721028645833343
  1
588.5
 41
0.75
 11
-471.89583333333343
 21
-1044.370638020833
 31
0.0
 73
     3
  0
LINE
  5
6A
  8
DIMNSIONS
  6
CONTINUOUS
 62
     7
 10
-727.5
 20
607.5
 30
0.0
 11
-855.0
 21
607.5
 31
0.0
  0
LINE
  5
6B
  8
DIMNSIONS
  6
CONTINUOUS
 62
     7
 10
-730.0
 20
300.0
 30
0.0
 11
-855.0
 21
300.0
 31
0.0
  0
LINE
  5
6C
  8
DIMNSIONS
  6
CONTINUOUS
 62
     7
 10
-825.0
 20
607.5
 30
0.0
 11
-825.0
 21
300.0
 31
0.0
  0
LINE
  5
6D
  8
DIMNSIONS
  6
CONTINUOUS
 62
     7
 10
-825.0
 20
607.5
 30
0.0
 11
-814.94940307274624
 21
569.99066162109375
 31
0.0
  0
LINE
  5
6E
  8
DIMNSIONS
  6
CONTINUOUS
 62
     7
 10
-825.0
 20
607.5
 30
0.0
 11
-835.05059692725365
 21
569.99066162109375
 31
0.0
  0
LINE
  5
6F
  8
DIMNSIONS
  6
CONTINUOUS
 62
     7
 10
-825.0
 20
300.0
 30
0.0
 11
-835.05059692725365
 21
337.50933837890619
 31
0.0
  0
LINE
  5
70
  8
DIMNSIONS
  6
CONTINUOUS
 62
     7
 10
-825.0
 20
300.0
 30
0.0
 11
-814.94940307274624
 21
337.50933837890619
 31
0.0
  0
TEXT
  5
71
  8
DIMNSIONS
 62
     7
 10
-839.90833333333353
 20
387.60416666666657
 30
0.0
 40
40.721028645833343
  1
307.5
 50
90.0
 41
0.75
 11
-880.62936197916679
 21
387.60416666666657
 31
0.0
 73
     3
  0
LINE
  5
72
  8
DIMNSIONS
  6
CONTINUOUS
 62
     7
 10
-676.0
 20
610.0
 30
0.0
 11
-855.0
 21
610.0
 31
0.0
  0
LINE
  5
73
  8
DIMNSIONS
  6
CONTINUOUS
 62
     7
 10
-727.5
 20
607.5
 30
0.0
 11
-855.0
 21
607.5
 31
0.0
  0
LINE
  5
74
  8
DIMNSIONS
  6
CONTINUOUS
 62
     7
 10
-825.0
 20
607.5
 30
0.0
 11
-825.0
 21
610.0
 31
0.0
  0
LINE
  5
75
  8
DIMNSIONS
  6
CONTINUOUS
 62
     7
 10
-825.0
 20
610.0
 30
0.0
 11
-825.0
 21
729.375
 31
0.0
  0
LINE
  5
76
  8
DIMNSIONS
  6
CONTINUOUS
 62
     7
 10
-825.0
 20
610.0
 30
0.0
 11
-835.05059692725365
 21
647.50933837890625
 31
0.0
  0
LINE
  5
77
  8
DIMNSIONS
  6
CONTINUOUS
 62
     7
 10
-825.0
 20
610.0
 30
0.0
 11
-814.94940307274624
 21
647.50933837890625
 31
0.0
  0
LINE
  5
78
  8
DIMNSIONS
  6
CONTINUOUS
 62
     7
 10
-825.0
 20
607.5
 30
0.0
 11
-825.0
 21
532.5
 31
0.0
  0
LINE
  5
79
  8
DIMNSIONS
  6
CONTINUOUS
 62
     7
 10
-825.0
 20
607.5
 30
0.0
 11
-814.94940307274624
 21
569.99066162109375
 31
0.0
  0
LINE
  5
7A
  8
DIMNSIONS
  6
CONTINUOUS
 62
     7
 10
-825.0
 20
607.5
 30
0.0
 11
-835.05059692725365
 21
569.99066162109375
 31
0.0
  0
TEXT
  5
7B
  8
DIMNSIONS
 62
     7
 10
-839.90833333333353
 20
650.0
 30
0.0
 40
40.721028645833343
  1
2.5
 50
90.0
 41
0.75
 11
-880.62936197916679
 21
650.0
 31
0.0
 73
     3
  0
LINE
  5
7C
  8
DIMNSIONS
  6
CONTINUOUS
 62
     7
 10
-612.25
 20
-215.75
 30
0.0
 11
-930.0
 21
-215.75
 31
0.0
  0
LINE
  5
7D
  8
DIMNSIONS
  6
CONTINUOUS
 62
     7
 10
-612.25
 20
-584.25
 30
0.0
 11
-930.0
 21
-584.25
 31
0.0
  0
LINE
  5
7E
  8
DIMNSIONS
  6
CONTINUOUS
 62
     7
 10
-900.0
 20
-215.75
 30
0.0
 11
-900.0
 21
-584.25
 31
0.0
  0
LINE
  5
7F
  8
DIMNSIONS
  6
CONTINUOUS
 62
     7
 10
-900.0
 20
-215.75
 30
0.0
 11
-889.94940307274624
 21
-253.25933837890631
 31
0.0
  0
LINE
  5
80
  8
DIMNSIONS
  6
CONTINUOUS
 62
     7
 10
-900.0
 20
-215.75
 30
0.0
 11
-910.05059692725365
 21
-253.25933837890631
 31
0.0
  0
LINE
  5
81
  8
DIMNSIONS
  6
CONTINUOUS
 62
     7
 10
-900.0
 20
-584.25
 30
0.0
 11
-910.05059692725365
 21
-546.74066162109375
 31
0.0
  0
LINE
  5
82
  8
DIMNSIONS
  6
CONTINUOUS
 62
     7
 10
-900.0
 20
-584.25
 30
0.0
 11
-889.94940307274624
 21
-546.74066162109375
 31
0.0
  0
TEXT
  5
83
  8
DIMNSIONS
 62
     7
 10
-914.90833333333308
 20
-466.14583333333331
 30
0.0
 40
40.721028645833343
  1
368.5
 50
90.0
 41
0.75
 11
-955.62936197916645
 21
-466.14583333333331
 31
0.0
 73
     3
  0
LINE
  5
84
  8
DIMNSIONS
  6
CONTINUOUS
 62
     7
 10
-612.66100000000017
 20
-223.08900000000011
 30
0.0
 11
-855.0
 21
-223.08900000000011
 31
0.0
  0
LINE
  5
85
  8
DIMNSIONS
  6
CONTINUOUS
 62
     7
 10
-612.66100000000017
 20
-576.91100000000017
 30
0.0
 11
-855.0
 21
-576.91100000000017
 31
0.0
  0
LINE
  5
86
  8
DIMNSIONS
  6
CONTINUOUS
 62
     7
 10
-825.0
 20
-223.08900000000011
 30
0.0
 11
-825.0
 21
-576.91100000000017
 31
0.0
  0
LINE
  5
87
  8
DIMNSIONS
  6
CONTINUOUS
 62
     7
 10
-825.0
 20
-223.08900000000011
 30
0.0
 11
-814.94940307274624
 21
-260.59833837890631
 31
0.0
  0
LINE
  5
88
  8
DIMNSIONS
  6
CONTINUOUS
 62
     7
 10
-825.0
 20
-223.08900000000011
 30
0.0
 11
-835.05059692725365
 21
-260.59833837890631
 31
0.0
  0
LINE
  5
89
  8
DIMNSIONS
  6
CONTINUOUS
 62
     7
 10
-825.0
 20
-576.91100000000017
 30
0.0
 11
-835.05059692725365
 21
-539.40166162109369
 31
0.0
  0
LINE
  5
8A
  8
DIMNSIONS
  6
CONTINUOUS
 62
     7
 10
-825.0
 20
-576.91100000000017
 30
0.0
 11
-814.94940307274624
 21
-539.40166162109369
 31
0.0
  0
TEXT
  5
8B
  8
DIMNSIONS
 62
     7
 10
-839.90833333333353
 20
-466.14583333333331
 30
0.0
 40
40.721028645833343
  1
353.8
 50
90.0
 41
0.75
 11
-880.62936197916679
 21
-466.14583333333331
 31
0.0
 73
     3
  0
LINE
  5
8C
  8
DIMNSIONS
  6
CONTINUOUS
 62
     7
 10
-727.5
 20
607.5
 30
0.0
 11
-930.0
 21
607.5
 31
0.0
  0
LINE
  5
8D
  8
DIMNSIONS
  6
CONTINUOUS
 62
     7
 10
-609.25
 20
285.5
 30
0.0
 11
-930.0
 21
285.5
 31
0.0
  0
LINE
  5
8E
  8
DIMNSIONS
  6
CONTINUOUS
 62
     7
 10
-900.0
 20
607.5
 30
0.0
 11
-900.0
 21
285.5
 31
0.0
  0
LINE
  5
8F
  8
DIMNSIONS
  6
CONTINUOUS
 62
     7
 10
-900.0
 20
607.5
 30
0.0
 11
-889.94940307274624
 21
569.99066162109375
 31
0.0
  0
LINE
  5
90
  8
DIMNSIONS
  6
CONTINUOUS
 62
     7
 10
-900.0
 20
607.5
 30
0.0
 11
-910.05059692725365
 21
569.99066162109375
 31
0.0
  0
LINE
  5
91
  8
DIMNSIONS
  6
CONTINUOUS
 62
     7
 10
-900.0
 20
285.5
 30
0.0
 11
-910.05059692725365
 21
323.00933837890619
 31
0.0
  0
LINE
  5
92
  8
DIMNSIONS
  6
CONTINUOUS
 62
     7
 10
-900.0
 20
285.5
 30
0.0
 11
-889.94940307274624
 21
323.00933837890619
 31
0.0
  0
TEXT
  5
93
  8
DIMNSIONS
 62
     7
 10
-914.90833333333308
 20
406.8125
 30
0.0
 40
40.721028645833343
  1
322
 50
90.0
 41
0.75
 11
-955.62936197916645
 21
406.8125
 31
0.0
 73
     3
  0
LINE
  5
94
  8
DIMNSIONS
  6
CONTINUOUS
 62
     7
 10
-114.0
 20
637.5
 30
0.0
 11
-114.0
 21
730.0
 31
0.0
  0
LINE
  5
95
  8
DIMNSIONS
  6
CONTINUOUS
 62
     7
 10
-240.5
 20
512.0
 30
0.0
 11
-240.5
 21
730.0
 31
0.0
  0
LINE
  5
96
  8
DIMNSIONS
  6
CONTINUOUS
 62
     7
 10
-114.0
 20
700.0
 30
0.0
 11
-240.5
 21
700.0
 31
0.0
  0
LINE
  5
97
  8
DIMNSIONS
  6
CONTINUOUS
 62
     7
 10
-114.0
 20
700.0
 30
0.0
 11
-151.50933837890619
 21
689.94940307274635
 31
0.0
  0
LINE
  5
98
  8
DIMNSIONS
  6
CONTINUOUS
 62
     7
 10
-114.0
 20
700.0
 30
0.0
 11
-151.50933837890619
 21
710.05059692725354
 31
0.0
  0
LINE
  5
99
  8
DIMNSIONS
  6
CONTINUOUS
 62
     7
 10
-240.5
 20
700.0
 30
0.0
 11
-202.99066162109369
 21
710.05059692725354
 31
0.0
  0
LINE
  5
9A
  8
DIMNSIONS
  6
CONTINUOUS
 62
     7
 10
-240.5
 20
700.0
 30
0.0
 11
-202.99066162109369
 21
689.94940307274635
 31
0.0
  0
TEXT
  5
9B
  8
DIMNSIONS
 62
     7
 10
-243.3958333333334
 20
714.90833333333308
 30
0.0
 40
40.721028645833343
  1
126.5
 41
0.75
 11
-243.3958333333334
 21
755.62936197916656
 31
0.0
 73
     3
  0
LINE
  5
9C
  8
DIMNSIONS
  6
CONTINUOUS
 62
     7
 10
-114.0
 20
637.5
 30
0.0
 11
-114.0
 21
730.0
 31
0.0
  0
LINE
  5
9D
  8
DIMNSIONS
  6
CONTINUOUS
 62
     7
 10
-111.5
 20
342.5
 30
0.0
 11
-111.5
 21
730.0
 31
0.0
  0
LINE
  5
9E
  8
DIMNSIONS
  6
CONTINUOUS
 62
     7
 10
-111.5
 20
700.0
 30
0.0
 11
-114.0
 21
700.0
 31
0.0
  0
LINE
  5
9F
  8
DIMNSIONS
  6
CONTINUOUS
 62
     7
 10
-114.0
 20
700.0
 30
0.0
 11
-189.0
 21
700.0
 31
0.0
  0
LINE
  5
A0
  8
DIMNSIONS
  6
CONTINUOUS
 62
     7
 10
-114.0
 20
700.0
 30
0.0
 11
-151.50933837890619
 21
689.94940307274635
 31
0.0
  0
LINE
  5
A1
  8
DIMNSIONS
  6
CONTINUOUS
 62
     7
 10
-114.0
 20
700.0
 30
0.0
 11
-151.50933837890619
 21
710.05059692725354
 31
0.0
  0
LINE
  5
A2
  8
DIMNSIONS
  6
CONTINUOUS
 62
     7
 10
-111.5
 20
700.0
 30
0.0
 11
-20.625000000000011
 21
700.0
 31
0.0
  0
LINE
  5
A3
  8
DIMNSIONS
  6
CONTINUOUS
 62
     7
 10
-111.5
 20
700.0
 30
0.0
 11
-73.990661621093764
 21
710.05059692725354
 31
0.0
  0
LINE
  5
A4
  8
DIMNSIONS
  6
CONTINUOUS
 62
     7
 10
-111.5
 20
700.0
 30
0.0
 11
-73.990661621093764
 21
689.94940307274635
 31
0.0
  0
TEXT
  5
A5
  8
DIMNSIONS
 62
     7
 10
-100.0
 20
714.90833333333308
 30
0.0
 40
40.721028645833343
  1
2.5
 41
0.75
 11
-100.0
 21
755.62936197916656
 31
0.0
 73
     3
  0
LINE
  5
A6
  8
DIMNSIONS
  6
CONTINUOUS
 62
     7
 10
-210.5
 20
482.0
 30
0.0
 11
130.0
 21
482.0
 31
0.0
  0
LINE
  5
A7
  8
DIMNSIONS
  6
CONTINUOUS
 62
     7
 10
-84.000000000000014
 20
607.5
 30
0.0
 11
130.0
 21
607.5
 31
0.0
  0
LINE
  5
A8
  8
DIMNSIONS
  6
CONTINUOUS
 62
     7
 10
100.0
 20
482.0
 30
0.0
 11
100.0
 21
607.5
 31
0.0
  0
LINE
  5
A9
  8
DIMNSIONS
  6
CONTINUOUS
 62
     7
 10
100.0
 20
482.0
 30
0.0
 11
89.94940307274635
 21
519.50933837890625
 31
0.0
  0
LINE
  5
AA
  8
DIMNSIONS
  6
CONTINUOUS
 62
     7
 10
100.0
 20
482.0
 30
0.0
 11
110.05059692725359
 21
519.50933837890625
 31
0.0
  0
LINE
  5
AB
  8
DIMNSIONS
  6
CONTINUOUS
 62
     7
 10
100.0
 20
607.5
 30
0.0
 11
110.05059692725359
 21
569.99066162109375
 31
0.0
  0
LINE
  5
AC
  8
DIMNSIONS
  6
CONTINUOUS
 62
     7
 10
100.0
 20
607.5
 30
0.0
 11
89.94940307274635
 21
569.99066162109375
 31
0.0
  0
TEXT
  5
AD
  8
DIMNSIONS
 62
     7
 10
85.091666666666626
 20
478.60416666666657
 30
0.0
 40
40.721028645833343
  1
125.5
 50
90.0
 41
0.75
 11
44.370638020833297
 21
478.60416666666657
 31
0.0
 73
     3
  0
LINE
  5
AE
  8
DIMNSIONS
  6
CONTINUOUS
 62
     7
 10
-84.000000000000014
 20
607.5
 30
0.0
 11
130.0
 21
607.5
 31
0.0
  0
LINE
  5
AF
  8
DIMNSIONS
  6
CONTINUOUS
 62
     7
 10
-135.5
 20
610.0
 30
0.0
 11
130.0
 21
610.0
 31
0.0
  0
LINE
  5
B0
  8
DIMNSIONS
  6
CONTINUOUS
 62
     7
 10
100.0
 20
610.0
 30
0.0
 11
100.0
 21
607.5
 31
0.0
  0
LINE
  5
B1
  8
DIMNSIONS
  6
CONTINUOUS
 62
     7
 10
100.0
 20
607.5
 30
0.0
 11
100.0
 21
532.5
 31
0.0
  0
LINE
  5
B2
  8
DIMNSIONS
  6
CONTINUOUS
 62
     7
 10
100.0
 20
607.5
 30
0.0
 11
110.05059692725359
 21
569.99066162109375
 31
0.0
  0
LINE
  5
B3
  8
DIMNSIONS
  6
CONTINUOUS
 62
     7
 10
100.0
 20
607.5
 30
0.0
 11
89.94940307274635
 21
569.99066162109375
 31
0.0
  0
LINE
  5
B4
  8
DIMNSIONS
  6
CONTINUOUS
 62
     7
 10
100.0
 20
610.0
 30
0.0
 11
100.0
 21
729.375
 31
0.0
  0
LINE
  5
B5
  8
DIMNSIONS
  6
CONTINUOUS
 62
     7
 10
100.0
 20
610.0
 30
0.0
 11
89.94940307274635
 21
647.50933837890625
 31
0.0
  0
LINE
  5
B6
  8
DIMNSIONS
  6
CONTINUOUS
 62
     7
 10
100.0
 20
610.0
 30
0.0
 11
110.05059692725359
 21
647.50933837890625
 31
0.0
  0
TEXT
  5
B7
  8
DIMNSIONS
 62
     7
 10
85.091666666666626
 20
650.0
 30
0.0
 40
40.721028645833343
  1
2.5
 50
90.0
 41
0.75
 11
44.370638020833297
 21
650.0
 31
0.0
 73
     3
  0
LINE
  5
B8
  8
DIMNSIONS
  6
CONTINUOUS
 62
     7
 10
-590.24999999999989
 20
-606.25
 30
0.0
 11
-590.24999999999989
 21
-980.0
 31
0.0
  0
LINE
  5
B9
  8
DIMNSIONS
  6
CONTINUOUS
 62
     7
 10
-221.25
 20
-606.25
 30
0.0
 11
-221.25
 21
-980.0
 31
0.0
  0
LINE
  5
BA
  8
DIMNSIONS
  6
CONTINUOUS
 62
     7
 10
-590.24999999999989
 20
-950.0
 30
0.0
 11
-221.25
 21
-950.0
 31
0.0
  0
LINE
  5
BB
  8
DIMNSIONS
  6
CONTINUOUS
 62
     7
 10
-590.24999999999989
 20
-950.0
 30
0.0
 11
-552.74066162109375
 21
-939.94940307274646
 31
0.0
  0
LINE
  5
BC
  8
DIMNSIONS
  6
CONTINUOUS
 62
     7
 10
-590.24999999999989
 20
-950.0
 30
0.0
 11
-552.74066162109375
 21
-960.05059692725365
 31
0.0
  0
LINE
  5
BD
  8
DIMNSIONS
  6
CONTINUOUS
 62
     7
 10
-221.25
 20
-950.0
 30
0.0
 11
-258.75933837890619
 21
-960.05059692725365
 31
0.0
  0
LINE
  5
BE
  8
DIMNSIONS
  6
CONTINUOUS
 62
     7
 10
-221.25
 20
-950.0
 30
0.0
 11
-258.75933837890619
 21
-939.94940307274646
 31
0.0
  0
TEXT
  5
BF
  8
DIMNSIONS
 62
     7
 10
-445.43749999999989
 20
-935.09166666666658
 30
0.0
 40
40.721028645833343
  1
369
 41
0.75
 11
-445.43749999999989
 21
-894.37063802083321
 31
0.0
 73
     3
  0
LINE
  5
C0
  8
DIMNSIONS
  6
CONTINUOUS
 62
     7
 10
-582.66100000000006
 20
-610.01099999999985
 30
0.0
 11
-582.66100000000006
 21
-905.0
 31
0.0
  0
LINE
  5
C1
  8
DIMNSIONS
  6
CONTINUOUS
 62
     7
 10
-228.83900000000011
 20
-610.01099999999985
 30
0.0
 11
-228.83900000000011
 21
-905.0
 31
0.0
  0
LINE
  5
C2
  8
DIMNSIONS
  6
CONTINUOUS
 62
     7
 10
-582.66100000000006
 20
-875.0
 30
0.0
 11
-228.83900000000011
 21
-875.0
 31
0.0
  0
LINE
  5
C3
  8
DIMNSIONS
  6
CONTINUOUS
 62
     7
 10
-582.66100000000006
 20
-875.0
 30
0.0
 11
-545.15166162109369
 21
-864.94940307274624
 31
0.0
  0
LINE
  5
C4
  8
DIMNSIONS
  6
CONTINUOUS
 62
     7
 10
-582.66100000000006
 20
-875.0
 30
0.0
 11
-545.15166162109369
 21
-885.05059692725365
 31
0.0
  0
LINE
  5
C5
  8
DIMNSIONS
  6
CONTINUOUS
 62
     7
 10
-228.83900000000011
 20
-875.0
 30
0.0
 11
-266.34833837890631
 21
-885.05059692725365
 31
0.0
  0
LINE
  5
C6
  8
DIMNSIONS
  6
CONTINUOUS
 62
     7
 10
-228.83900000000011
 20
-875.0
 30
0.0
 11
-266.34833837890631
 21
-864.94940307274624
 31
0.0
  0
TEXT
  5
C7
  8
DIMNSIONS
 62
     7
 10
-471.89583333333343
 20
-860.09166666666658
 30
0.0
 40
40.721028645833343
  1
353.8
 41
0.75
 11
-471.89583333333343
 21
-819.37063802083321
 31
0.0
 73
     3
  0
LINE
  5
C8
  8
DIMNSIONS
  6
CONTINUOUS
 62
     7
 10
-536.55999999999995
 20
-600.63100000000043
 30
0.0
 11
-536.55999999999995
 21
-755.0
 31
0.0
  0
LINE
  5
C9
  8
DIMNSIONS
  6
CONTINUOUS
 62
     7
 10
-274.94
 20
-600.63100000000043
 30
0.0
 11
-274.94
 21
-755.0
 31
0.0
  0
LINE
  5
CA
  8
DIMNSIONS
  6
CONTINUOUS
 62
     7
 10
-536.55999999999995
 20
-725.0
 30
0.0
 11
-274.94
 21
-725.0
 31
0.0
  0
LINE
  5
CB
  8
DIMNSIONS
  6
CONTINUOUS
 62
     7
 10
-536.55999999999995
 20
-725.0
 30
0.0
 11
-499.0506616210937
 21
-714.94940307274635
 31
0.0
  0
LINE
  5
CC
  8
DIMNSIONS
  6
CONTINUOUS
 62
     7
 10
-536.55999999999995
 20
-725.0
 30
0.0
 11
-499.0506616210937
 21
-735.05059692725354
 31
0.0
  0
LINE
  5
CD
  8
DIMNSIONS
  6
CONTINUOUS
 62
     7
 10
-274.94
 20
-725.0
 30
0.0
 11
-312.44933837890619
 21
-735.05059692725354
 31
0.0
  0
LINE
  5
CE
  8
DIMNSIONS
  6
CONTINUOUS
 62
     7
 10
-274.94
 20
-725.0
 30
0.0
 11
-312.44933837890619
 21
-714.94940307274635
 31
0.0
  0
TEXT
  5
CF
  8
DIMNSIONS
 62
     7
 10
-471.8958333333332
 20
-710.0916666666667
 30
0.0
 40
40.721028645833343
  1
261.6
 41
0.75
 11
-471.8958333333332
 21
-669.37063802083321
 31
0.0
 73
     3
  0
LINE
  5
D0
  8
DIMNSIONS
  6
CONTINUOUS
 62
     7
 10
-571.23099999999999
 20
-435.14999999999992
 30
0.0
 11
-571.23099999999999
 21
-830.0
 31
0.0
  0
LINE
  5
D1
  8
DIMNSIONS
  6
CONTINUOUS
 62
     7
 10
-240.26900000000001
 20
-435.14999999999992
 30
0.0
 11
-240.26900000000001
 21
-830.0
 31
0.0
  0
LINE
  5
D2
  8
DIMNSIONS
  6
CONTINUOUS
 62
     7
 10
-571.23099999999999
 20
-800.0
 30
0.0
 11
-240.26900000000001
 21
-800.0
 31
0.0
  0
LINE
  5
D3
  8
DIMNSIONS
  6
CONTINUOUS
 62
     7
 10
-571.23099999999999
 20
-800.0
 30
0.0
 11
-533.72166162109374
 21
-789.94940307274624
 31
0.0
  0
LINE
  5
D4
  8
DIMNSIONS
  6
CONTINUOUS
 62
     7
 10
-571.23099999999999
 20
-800.0
 30
0.0
 11
-533.72166162109374
 21
-810.05059692725365
 31
0.0
  0
LINE
  5
D5
  8
DIMNSIONS
  6
CONTINUOUS
 62
     7
 10
-240.26900000000001
 20
-800.0
 30
0.0
 11
-277.77833837890631
 21
-810.05059692725365
 31
0.0
  0
LINE
  5
D6
  8
DIMNSIONS
  6
CONTINUOUS
 62
     7
 10
-240.26900000000001
 20
-800.0
 30
0.0
 11
-277.77833837890631
 21
-789.94940307274624
 31
0.0
  0
TEXT
  5
D7
  8
DIMNSIONS
 62
     7
 10
-445.43749999999989
 20
-785.0916666666667
 30
0.0
 40
40.721028645833343
  1
331
 41
0.75
 11
-445.43749999999989
 21
-744.37063802083321
 31
0.0
 73
     3
  0
LINE
  5
D8
  8
DIMNSIONS
  6
CONTINUOUS
 62
     7
 10
-571.70999999999981
 20
-234.51900000000029
 30
0.0
 11
-780.0
 21
-234.51900000000029
 31
0.0
  0
LINE
  5
D9
  8
DIMNSIONS
  6
CONTINUOUS
 62
     7
 10
-571.70999999999981
 20
-565.48100000000011
 30
0.0
 11
-780.0
 21
-565.48100000000011
 31
0.0
  0
LINE
  5
DA
  8
DIMNSIONS
  6
CONTINUOUS
 62
     7
 10
-750.0
 20
-234.51900000000029
 30
0.0
 11
-750.0
 21
-565.48100000000011
 31
0.0
  0
LINE
  5
DB
  8
DIMNSIONS
  6
CONTINUOUS
 62
     7
 10
-750.0
 20
-234.51900000000029
 30
0.0
 11
-739.94940307274624
 21
-272.02833837890648
 31
0.0
  0
LINE
  5
DC
  8
DIMNSIONS
  6
CONTINUOUS
 62
     7
 10
-750.0
 20
-234.51900000000029
 30
0.0
 11
-760.05059692725354
 21
-272.02833837890648
 31
0.0
  0
LINE
  5
DD
  8
DIMNSIONS
  6
CONTINUOUS
 62
     7
 10
-750.0
 20
-565.48100000000011
 30
0.0
 11
-760.05059692725354
 21
-527.97166162109386
 31
0.0
  0
LINE
  5
DE
  8
DIMNSIONS
  6
CONTINUOUS
 62
     7
 10
-750.0
 20
-565.48100000000011
 30
0.0
 11
-739.94940307274624
 21
-527.97166162109386
 31
0.0
  0
TEXT
  5
DF
  8
DIMNSIONS
 62
     7
 10
-764.90833333333353
 20
-439.68750000000011
 30
0.0
 40
40.721028645833343
  1
331
 50
90.0
 41
0.75
 11
-805.62936197916679
 21
-439.68750000000011
 31
0.0
 73
     3
  0
LINE
  5
E0
  8
DIMNSIONS
  6
CONTINUOUS
 62
     7
 10
-589.6756993975805
 20
264.0
 30
0.0
 11
-589.6756993975805
 21
70.0
 31
0.0
  0
LINE
  5
E1
  8
DIMNSIONS
  6
CONTINUOUS
 62
     7
 10
-221.8243006024195
 20
264.0
 30
0.0
 11
-221.8243006024195
 21
70.0
 31
0.0
  0
LINE
  5
E2
  8
DIMNSIONS
  6
CONTINUOUS
 62
     7
 10
-589.6756993975805
 20
100.0
 30
0.0
 11
-221.8243006024195
 21
100.0
 31
0.0
  0
LINE
  5
E3
  8
DIMNSIONS
  6
CONTINUOUS
 62
     7
 10
-589.6756993975805
 20
100.0
 30
0.0
 11
-552.16636101867437
 21
110.05059692725359
 31
0.0
  0
LINE
  5
E4
  8
DIMNSIONS
  6
CONTINUOUS
 62
     7
 10
-589.6756993975805
 20
100.0
 30
0.0
 11
-552.16636101867437
 21
89.94940307274635
 31
0.0
  0
LINE
  5
E5
  8
DIMNSIONS
  6
CONTINUOUS
 62
     7
 10
-221.8243006024195
 20
100.0
 30
0.0
 11
-259.33363898132569
 21
89.94940307274635
 31
0.0
  0
LINE
  5
E6
  8
DIMNSIONS
  6
CONTINUOUS
 62
     7
 10
-221.8243006024195
 20
100.0
 30
0.0
 11
-259.33363898132569
 21
110.05059692725359
 31
0.0
  0
TEXT
  5
E7
  8
DIMNSIONS
 62
     7
 10
-445.43749999999989
 20
114.9083333333333
 30
0.0
 40
40.721028645833343
  1
368
 41
0.75
 11
-445.43749999999989
 21
155.6293619791667
 31
0.0
 73
     3
  0
LINE
  5
E8
  8
DIMNSIONS
  6
CONTINUOUS
 62
     7
 10
194.5
 20
-676.0
 30
0.0
 11
194.5
 21
-830.0
 31
0.0
  0
LINE
  5
E9
  8
DIMNSIONS
  6
CONTINUOUS
 62
     7
 10
150.0
 20
-661.5
 30
0.0
 11
150.0
 21
-830.0
 31
0.0
  0
LINE
  5
EA
  8
DIMNSIONS
  6
CONTINUOUS
 62
     7
 10
150.0
 20
-800.0
 30
0.0
 11
194.5
 21
-800.0
 31
0.0
  0
LINE
  5
EB
  8
DIMNSIONS
  6
CONTINUOUS
 62
     7
 10
194.5
 20
-800.0
 30
0.0
 11
269.5
 21
-800.0
 31
0.0
  0
LINE
  5
EC
  8
DIMNSIONS
  6
CONTINUOUS
 62
     7
 10
194.5
 20
-800.0
 30
0.0
 11
232.00933837890631
 21
-789.94940307274624
 31
0.0
  0
LINE
  5
ED
  8
DIMNSIONS
  6
CONTINUOUS
 62
     7
 10
194.5
 20
-800.0
 30
0.0
 11
232.00933837890631
 21
-810.05059692725365
 31
0.0
  0
LINE
  5
EE
  8
DIMNSIONS
  6
CONTINUOUS
 62
     7
 10
150.0
 20
-800.0
 30
0.0
 11
-5.8333333333333419
 21
-800.0
 31
0.0
  0
LINE
  5
EF
  8
DIMNSIONS
  6
CONTINUOUS
 62
     7
 10
150.0
 20
-800.0
 30
0.0
 11
112.49066162109369
 21
-810.05059692725365
 31
0.0
  0
LINE
  5
F0
  8
DIMNSIONS
  6
CONTINUOUS
 62
     7
 10
150.0
 20
-800.0
 30
0.0
 11
112.49066162109369
 21
-789.94940307274624
 31
0.0
  0
TEXT
  5
F1
  8
DIMNSIONS
 62
     7
 10
-5.8333333333333446
 20
-785.0916666666667
 30
0.0
 40
40.721028645833343
  1
44.5
 41
0.75
 11
-5.8333333333333419
 21
-744.37063802083321
 31
0.0
 73
     3
  0
LINE
  5
F2
  8
DIMNSIONS
  6
CONTINUOUS
 62
     7
 10
194.5
 20
-676.0
 30
0.0
 11
194.5
 21
-830.0
 31
0.0
  0
LINE
  5
F3
  8
DIMNSIONS
  6
CONTINUOUS
 62
     7
 10
457.5
 20
-659.0
 30
0.0
 11
457.5
 21
-830.0
 31
0.0
  0
LINE
  5
F4
  8
DIMNSIONS
  6
CONTINUOUS
 62
     7
 10
194.5
 20
-800.0
 30
0.0
 11
457.5
 21
-800.0
 31
0.0
  0
LINE
  5
F5
  8
DIMNSIONS
  6
CONTINUOUS
 62
     7
 10
194.5
 20
-800.0
 30
0.0
 11
232.00933837890631
 21
-789.94940307274624
 31
0.0
  0
LINE
  5
F6
  8
DIMNSIONS
  6
CONTINUOUS
 62
     7
 10
194.5
 20
-800.0
 30
0.0
 11
232.00933837890631
 21
-810.05059692725365
 31
0.0
  0
LINE
  5
F7
  8
DIMNSIONS
  6
CONTINUOUS
 62
     7
 10
457.5
 20
-800.0
 30
0.0
 11
419.99066162109369
 21
-810.05059692725365
 31
0.0
  0
LINE
  5
F8
  8
DIMNSIONS
  6
CONTINUOUS
 62
     7
 10
457.5
 20
-800.0
 30
0.0
 11
419.99066162109369
 21
-789.94940307274624
 31
0.0
  0
TEXT
  5
F9
  8
DIMNSIONS
 62
     7
 10
286.3125
 20
-785.0916666666667
 30
0.0
 40
40.721028645833343
  1
263
 41
0.75
 11
286.3125
 21
-744.37063802083321
 31
0.0
 73
     3
  0
LINE
  5
FA
  8
DIMNSIONS
  6
CONTINUOUS
 62
     7
 10
457.5
 20
-659.0
 30
0.0
 11
457.5
 21
-830.0
 31
0.0
  0
LINE
  5
FB
  8
DIMNSIONS
  6
CONTINUOUS
 62
     7
 10
460.0
 20
-637.0
 30
0.0
 11
460.0
 21
-830.0
 31
0.0
  0
LINE
  5
FC
  8
DIMNSIONS
  6
CONTINUOUS
 62
     7
 10
460.0
 20
-800.0
 30
0.0
 11
457.5
 21
-800.0
 31
0.0
  0
LINE
  5
FD
  8
DIMNSIONS
  6
CONTINUOUS
 62
     7
 10
457.5
 20
-800.0
 30
0.0
 11
382.5
 21
-800.0
 31
0.0
  0
LINE
  5
FE
  8
DIMNSIONS
  6
CONTINUOUS
 62
     7
 10
457.5
 20
-800.0
 30
0.0
 11
419.99066162109369
 21
-810.05059692725365
 31
0.0
  0
LINE
  5
FF
  8
DIMNSIONS
  6
CONTINUOUS
 62
     7
 10
457.5
 20
-800.0
 30
0.0
 11
419.99066162109369
 21
-789.94940307274624
 31
0.0
  0
LINE
  5
100
  8
DIMNSIONS
  6
CONTINUOUS
 62
     7
 10
460.0
 20
-800.0
 30
0.0
 11
579.375
 21
-800.0
 31
0.0
  0
LINE
  5
101
  8
DIMNSIONS
  6
CONTINUOUS
 62
     7
 10
460.0
 20
-800.0
 30
0.0
 11
497.50933837890619
 21
-789.94940307274624
 31
0.0
  0
LINE
  5
102
  8
DIMNSIONS
  6
CONTINUOUS
 62
     7
 10
460.0
 20
-800.0
 30
0.0
 11
497.50933837890619
 21
-810.05059692725365
 31
0.0
  0
TEXT
  5
103
  8
DIMNSIONS
 62
     7
 10
500.0
 20
-785.0916666666667
 30
0.0
 40
40.721028645833343
  1
2.5
 41
0.75
 11
500.0
 21
-744.37063802083321
 31
0.0
 73
     3
  0
LINE
  5
104
  8
DIMNSIONS
  6
CONTINUOUS
 62
     7
 10
457.5
 20
-141.0
 30
0.0
 11
457.5
 21
-70.0
 31
0.0
  0
LINE
  5
105
  8
DIMNSIONS
  6
CONTINUOUS
 62
     7
 10
326.0
 20
-468.5
 30
0.0
 11
326.0
 21
-70.0
 31
0.0
  0
LINE
  5
106
  8
DIMNSIONS
  6
CONTINUOUS
 62
     7
 10
457.5
 20
-100.0
 30
0.0
 11
326.0
 21
-100.0
 31
0.0
  0
LINE
  5
107
  8
DIMNSIONS
  6
CONTINUOUS
 62
     7
 10
457.5
 20
-100.0
 30
0.0
 11
419.99066162109369
 21
-110.05059692725359
 31
0.0
  0
LINE
  5
108
  8
DIMNSIONS
  6
CONTINUOUS
 62
     7
 10
457.5
 20
-100.0
 30
0.0
 11
419.99066162109369
 21
-89.94940307274635
 31
0.0
  0
LINE
  5
109
  8
DIMNSIONS
  6
CONTINUOUS
 62
     7
 10
326.0
 20
-100.0
 30
0.0
 11
363.50933837890631
 21
-89.94940307274635
 31
0.0
  0
LINE
  5
10A
  8
DIMNSIONS
  6
CONTINUOUS
 62
     7
 10
326.0
 20
-100.0
 30
0.0
 11
363.50933837890631
 21
-110.05059692725359
 31
0.0
  0
TEXT
  5
10B
  8
DIMNSIONS
 62
     7
 10
325.60416666666657
 20
-85.091666666666626
 30
0.0
 40
40.721028645833343
  1
131.5
 41
0.75
 11
325.60416666666657
 21
-44.370638020833297
 31
0.0
 73
     3
  0
LINE
  5
10C
  8
DIMNSIONS
  6
CONTINUOUS
 62
     7
 10
487.5
 20
-629.0
 30
0.0
 11
580.0
 21
-629.0
 31
0.0
  0
LINE
  5
10D
  8
DIMNSIONS
  6
CONTINUOUS
 62
     7
 10
356.0
 20
-498.5
 30
0.0
 11
580.0
 21
-498.5
 31
0.0
  0
LINE
  5
10E
  8
DIMNSIONS
  6
CONTINUOUS
 62
     7
 10
550.0
 20
-629.0
 30
0.0
 11
550.0
 21
-498.5
 31
0.0
  0
LINE
  5
10F
  8
DIMNSIONS
  6
CONTINUOUS
 62
     7
 10
550.0
 20
-629.0
 30
0.0
 11
539.94940307274635
 21
-591.49066162109375
 31
0.0
  0
LINE
  5
110
  8
DIMNSIONS
  6
CONTINUOUS
 62
     7
 10
550.0
 20
-629.0
 30
0.0
 11
560.05059692725365
 21
-591.49066162109375
 31
0.0
  0
LINE
  5
111
  8
DIMNSIONS
  6
CONTINUOUS
 62
     7
 10
550.0
 20
-498.5
 30
0.0
 11
560.05059692725365
 21
-536.00933837890625
 31
0.0
  0
LINE
  5
112
  8
DIMNSIONS
  6
CONTINUOUS
 62
     7
 10
550.0
 20
-498.5
 30
0.0
 11
539.94940307274635
 21
-536.00933837890625
 31
0.0
  0
TEXT
  5
113
  8
DIMNSIONS
 62
     7
 10
535.0916666666667
 20
-629.89583333333337
 30
0.0
 40
40.721028645833343
  1
130.5
 50
90.0
 41
0.75
 11
494.37063802083333
 21
-629.89583333333337
 31
0.0
 73
     3
  0
LINE
  5
114
  8
DIMNSIONS
  6
CONTINUOUS
 62
     7
 10
487.5
 20
-171.0
 30
0.0
 11
630.0
 21
-171.0
 31
0.0
  0
LINE
  5
115
  8
DIMNSIONS
  6
CONTINUOUS
 62
     7
 10
487.5
 20
-629.0
 30
0.0
 11
630.0
 21
-629.0
 31
0.0
  0
LINE
  5
116
  8
DIMNSIONS
  6
CONTINUOUS
 62
     7
 10
600.0
 20
-171.0
 30
0.0
 11
600.0
 21
-629.0
 31
0.0
  0
LINE
  5
117
  8
DIMNSIONS
  6
CONTINUOUS
 62
     7
 10
600.0
 20
-171.0
 30
0.0
 11
610.05059692725365
 21
-208.50933837890619
 31
0.0
  0
LINE
  5
118
  8
DIMNSIONS
  6
CONTINUOUS
 62
     7
 10
600.0
 20
-171.0
 30
0.0
 11
589.94940307274635
 21
-208.50933837890619
 31
0.0
  0
LINE
  5
119
  8
DIMNSIONS
  6
CONTINUOUS
 62
     7
 10
600.0
 20
-629.0
 30
0.0
 11
589.94940307274635
 21
-591.49066162109375
 31
0.0
  0
LINE
  5
11A
  8
DIMNSIONS
  6
CONTINUOUS
 62
     7
 10
600.0
 20
-629.0
 30
0.0
 11
610.05059692725365
 21
-591.49066162109375
 31
0.0
  0
TEXT
  5
11B
  8
DIMNSIONS
 62
     7
 10
585.0916666666667
 20
-439.6875
 30
0.0
 40
40.721028645833343
  1
458
 50
90.0
 41
0.75
 11
544.37063802083321
 21
-439.6875
 31
0.0
 73
     3
  0
LINE
  5
11C
  8
DIMNSIONS
  6
CONTINUOUS
 62
     7
 10
457.5
 20
-141.0
 30
0.0
 11
457.5
 21
-70.0
 31
0.0
  0
LINE
  5
11D
  8
DIMNSIONS
  6
CONTINUOUS
 62
     7
 10
460.0
 20
-163.0
 30
0.0
 11
460.0
 21
-70.0
 31
0.0
  0
LINE
  5
11E
  8
DIMNSIONS
  6
CONTINUOUS
 62
     7
 10
460.0
 20
-100.0
 30
0.0
 11
457.5
 21
-100.0
 31
0.0
  0
LINE
  5
11F
  8
DIMNSIONS
  6
CONTINUOUS
 62
     7
 10
457.5
 20
-100.0
 30
0.0
 11
382.5
 21
-100.0
 31
0.0
  0
LINE
  5
120
  8
DIMNSIONS
  6
CONTINUOUS
 62
     7
 10
457.5
 20
-100.0
 30
0.0
 11
419.99066162109369
 21
-110.05059692725359
 31
0.0
  0
LINE
  5
121
  8
DIMNSIONS
  6
CONTINUOUS
 62
     7
 10
457.5
 20
-100.0
 30
0.0
 11
419.99066162109369
 21
-89.94940307274635
 31
0.0
  0
LINE
  5
122
  8
DIMNSIONS
  6
CONTINUOUS
 62
     7
 10
460.0
 20
-100.0
 30
0.0
 11
579.375
 21
-100.0
 31
0.0
  0
LINE
  5
123
  8
DIMNSIONS
  6
CONTINUOUS
 62
     7
 10
460.0
 20
-100.0
 30
0.0
 11
497.50933837890619
 21
-89.94940307274635
 31
0.0
  0
LINE
  5
124
  8
DIMNSIONS
  6
CONTINUOUS
 62
     7
 10
460.0
 20
-100.0
 30
0.0
 11
497.50933837890619
 21
-110.05059692725359
 31
0.0
  0
TEXT
  5
125
  8
DIMNSIONS
 62
     7
 10
500.0
 20
-85.091666666666626
 30
0.0
 40
40.721028645833343
  1
2.5
 41
0.75
 11
500.0
 21
-44.370638020833297
 31
0.0
 73
     3
  0
LINE
  5
126
  8
DIMNSIONS
  6
CONTINUOUS
 62
     7
 10
326.0
 20
-468.5
 30
0.0
 11
326.0
 21
-70.0
 31
0.0
  0
LINE
  5
127
  8
DIMNSIONS
  6
CONTINUOUS
 62
     7
 10
150.0
 20
-138.5
 30
0.0
 11
150.0
 21
-70.0
 31
0.0
  0
LINE
  5
128
  8
DIMNSIONS
  6
CONTINUOUS
 62
     7
 10
326.0
 20
-100.0
 30
0.0
 11
150.0
 21
-100.0
 31
0.0
  0
LINE
  5
129
  8
DIMNSIONS
  6
CONTINUOUS
 62
     7
 10
326.0
 20
-100.0
 30
0.0
 11
288.49066162109369
 21
-110.05059692725359
 31
0.0
  0
LINE
  5
12A
  8
DIMNSIONS
  6
CONTINUOUS
 62
     7
 10
326.0
 20
-100.0
 30
0.0
 11
288.49066162109369
 21
-89.94940307274635
 31
0.0
  0
LINE
  5
12B
  8
DIMNSIONS
  6
CONTINUOUS
 62
     7
 10
150.0
 20
-100.0
 30
0.0
 11
187.50933837890619
 21
-89.94940307274635
 31
0.0
  0
LINE
  5
12C
  8
DIMNSIONS
  6
CONTINUOUS
 62
     7
 10
150.0
 20
-100.0
 30
0.0
 11
187.50933837890619
 21
-110.05059692725359
 31
0.0
  0
TEXT
  5
12D
  8
DIMNSIONS
 62
     7
 10
198.3125
 20
-85.091666666666626
 30
0.0
 40
40.721028645833343
  1
176
 41
0.75
 11
198.3125
 21
-44.370638020833297
 31
0.0
 73
     3
  0
LINE
  5
12E
  8
DIMNSIONS
  6
CONTINUOUS
 62
     7
 10
-81.500000000000014
 20
300.0
 30
0.0
 11
130.0
 21
300.0
 31
0.0
  0
LINE
  5
12F
  8
DIMNSIONS
  6
CONTINUOUS
 62
     7
 10
-210.5
 20
482.0
 30
0.0
 11
130.0
 21
482.0
 31
0.0
  0
LINE
  5
130
  8
DIMNSIONS
  6
CONTINUOUS
 62
     7
 10
100.0
 20
300.0
 30
0.0
 11
100.0
 21
482.0
 31
0.0
  0
LINE
  5
131
  8
DIMNSIONS
  6
CONTINUOUS
 62
     7
 10
100.0
 20
300.0
 30
0.0
 11
89.94940307274635
 21
337.50933837890619
 31
0.0
  0
LINE
  5
132
  8
DIMNSIONS
  6
CONTINUOUS
 62
     7
 10
100.0
 20
300.0
 30
0.0
 11
110.05059692725359
 21
337.50933837890619
 31
0.0
  0
LINE
  5
133
  8
DIMNSIONS
  6
CONTINUOUS
 62
     7
 10
100.0
 20
482.0
 30
0.0
 11
110.05059692725359
 21
444.49066162109369
 31
0.0
  0
LINE
  5
134
  8
DIMNSIONS
  6
CONTINUOUS
 62
     7
 10
100.0
 20
482.0
 30
0.0
 11
89.94940307274635
 21
444.49066162109369
 31
0.0
  0
TEXT
  5
135
  8
DIMNSIONS
 62
     7
 10
85.091666666666626
 20
351.3125
 30
0.0
 40
40.721028645833343
  1
182
 50
90.0
 41
0.75
 11
44.370638020833297
 21
351.3125
 31
0.0
 73
     3
  0
LINE
  5
136
  8
DIMNSIONS
  6
CONTINUOUS
 62
     7
 10
-240.5
 20
512.0
 30
0.0
 11
-240.5
 21
730.0
 31
0.0
  0
LINE
  5
137
  8
DIMNSIONS
  6
CONTINUOUS
 62
     7
 10
-697.5
 20
637.5
 30
0.0
 11
-697.5
 21
730.0
 31
0.0
  0
LINE
  5
138
  8
DIMNSIONS
  6
CONTINUOUS
 62
     7
 10
-240.5
 20
700.0
 30
0.0
 11
-697.5
 21
700.0
 31
0.0
  0
LINE
  5
139
  8
DIMNSIONS
  6
CONTINUOUS
 62
     7
 10
-240.5
 20
700.0
 30
0.0
 11
-278.00933837890631
 21
689.94940307274635
 31
0.0
  0
LINE
  5
13A
  8
DIMNSIONS
  6
CONTINUOUS
 62
     7
 10
-240.5
 20
700.0
 30
0.0
 11
-278.00933837890631
 21
710.05059692725354
 31
0.0
  0
LINE
  5
13B
  8
DIMNSIONS
  6
CONTINUOUS
 62
     7
 10
-697.5
 20
700.0
 30
0.0
 11
-659.99066162109375
 21
710.05059692725354
 31
0.0
  0
LINE
  5
13C
  8
DIMNSIONS
  6
CONTINUOUS
 62
     7
 10
-697.5
 20
700.0
 30
0.0
 11
-659.99066162109375
 21
689.94940307274635
 31
0.0
  0
TEXT
  5
13D
  8
DIMNSIONS
 62
     7
 10
-508.6875
 20
714.90833333333308
 30
0.0
 40
40.721028645833343
  1
457
 41
0.75
 11
-508.6875
 21
755.62936197916656
 31
0.0
 73
     3
  0
LINE
  5
13E
  8
DIMNSIONS
  6
CONTINUOUS
 62
     7
 10
-730.0
 20
-631.5
 30
0.0
 11
-1005.0
 21
-631.5
 31
0.0
  0
LINE
  5
13F
  8
DIMNSIONS
  6
CONTINUOUS
 62
     7
 10
-730.0
 20
-168.5
 30
0.0
 11
-1005.0
 21
-168.5
 31
0.0
  0
LINE
  5
140
  8
DIMNSIONS
  6
CONTINUOUS
 62
     7
 10
-975.0
 20
-631.5
 30
0.0
 11
-975.0
 21
-168.5
 31
0.0
  0
LINE
  5
141
  8
DIMNSIONS
  6
CONTINUOUS
 62
     7
 10
-975.0
 20
-631.5
 30
0.0
 11
-985.05059692725365
 21
-593.99066162109375
 31
0.0
  0
LINE
  5
142
  8
DIMNSIONS
  6
CONTINUOUS
 62
     7
 10
-975.0
 20
-631.5
 30
0.0
 11
-964.94940307274646
 21
-593.99066162109375
 31
0.0
  0
LINE
  5
143
  8
DIMNSIONS
  6
CONTINUOUS
 62
     7
 10
-975.0
 20
-168.5
 30
0.0
 11
-964.94940307274646
 21
-206.00933837890619
 31
0.0
  0
LINE
  5
144
  8
DIMNSIONS
  6
CONTINUOUS
 62
     7
 10
-975.0
 20
-168.5
 30
0.0
 11
-985.05059692725365
 21
-206.00933837890619
 31
0.0
  0
TEXT
  5
145
  8
DIMNSIONS
 62
     7
 10
-989.90833333333308
 20
-439.6875
 30
0.0
 40
40.721028645833343
  1
463
 50
90.0
 41
0.75
 11
-1030.6293619791661
 21
-439.6875
 31
0.0
 73
     3
  0
LINE
  5
146
  8
DIMNSIONS
  6
CONTINUOUS
 62
     7
 10
-725.99999235728978
 20
-653.00744786990128
 30
0.0
 11
-1080.0
 21
-653.00744786990128
 31
0.0
  0
LINE
  5
147
  8
DIMNSIONS
  6
CONTINUOUS
 62
     7
 10
-725.99999235728978
 20
-146.99255213009849
 30
0.0
 11
-1080.0
 21
-146.99255213009849
 31
0.0
  0
LINE
  5
148
  8
DIMNSIONS
  6
CONTINUOUS
 62
     7
 10
-1050.0
 20
-653.00744786990128
 30
0.0
 11
-1050.0
 21
-146.99255213009849
 31
0.0
  0
LINE
  5
149
  8
DIMNSIONS
  6
CONTINUOUS
 62
     7
 10
-1050.0
 20
-653.00744786990128
 30
0.0
 11
-1060.0505969272531
 21
-615.49810949099526
 31
0.0
  0
LINE
  5
14A
  8
DIMNSIONS
  6
CONTINUOUS
 62
     7
 10
-1050.0
 20
-653.00744786990128
 30
0.0
 11
-1039.949403072746
 21
-615.49810949099526
 31
0.0
  0
LINE
  5
14B
  8
DIMNSIONS
  6
CONTINUOUS
 62
     7
 10
-1050.0
 20
-146.99255213009849
 30
0.0
 11
-1039.949403072746
 21
-184.50189050900471
 31
0.0
  0
LINE
  5
14C
  8
DIMNSIONS
  6
CONTINUOUS
 62
     7
 10
-1050.0
 20
-146.99255213009849
 30
0.0
 11
-1060.0505969272531
 21
-184.50189050900471
 31
0.0
  0
TEXT
  5
14D
  8
DIMNSIONS
 62
     7
 10
-1064.9083333333331
 20
-439.6875
 30
0.0
 40
40.721028645833343
  1
506
 50
90.0
 41
0.75
 11
-1105.6293619791661
 21
-439.6875
 31
0.0
 73
     3
  0
LINE
  5
14E
  8
DIMNSIONS
  6
CONTINUOUS
 62
     7
 10
-693.75
 20
-683.0074478699014
 30
0.0
 11
-693.75
 21
-1055.0
 31
0.0
  0
LINE
  5
14F
  8
DIMNSIONS
  6
CONTINUOUS
 62
     7
 10
-117.7500076427102
 20
-683.0074478699014
 30
0.0
 11
-117.7500076427102
 21
-1055.0
 31
0.0
  0
LINE
  5
150
  8
DIMNSIONS
  6
CONTINUOUS
 62
     7
 10
-693.75
 20
-1025.0
 30
0.0
 11
-117.7500076427102
 21
-1025.0
 31
0.0
  0
LINE
  5
151
  8
DIMNSIONS
  6
CONTINUOUS
 62
     7
 10
-693.75
 20
-1025.0
 30
0.0
 11
-656.24066162109375
 21
-1014.949403072746
 31
0.0
  0
LINE
  5
152
  8
DIMNSIONS
  6
CONTINUOUS
 62
     7
 10
-693.75
 20
-1025.0
 30
0.0
 11
-656.24066162109375
 21
-1035.0505969272531
 31
0.0
  0
LINE
  5
153
  8
DIMNSIONS
  6
CONTINUOUS
 62
     7
 10
-117.7500076427102
 20
-1025.0
 30
0.0
 11
-155.25934602161641
 21
-1035.050596927254
 31
0.0
  0
LINE
  5
154
  8
DIMNSIONS
  6
CONTINUOUS
 62
     7
 10
-117.7500076427102
 20
-1025.0
 30
0.0
 11
-155.25934602161641
 21
-1014.949403072746
 31
0.0
  0
TEXT
  5
155
  8
DIMNSIONS
 62
     7
 10
-445.43750382135511
 20
-1010.091666666666
 30
0.0
 40
40.721028645833343
  1
576
 41
0.75
 11
-445.43750382135511
 21
-969.37063802083321
 31
0.0
 73
     3
  0
LINE
  5
156
  8
DIMNSIONS
  6
CONTINUOUS
 62
     7
 10
-117.7500076427102
 20
-683.0074478699014
 30
0.0
 11
-117.7500076427102
 21
-1055.0
 31
0.0
  0
LINE
  5
157
  8
DIMNSIONS
  6
CONTINUOUS
 62
     7
 10
-115.75
 20
-683.0074478699014
 30
0.0
 11
-115.75
 21
-1055.0
 31
0.0
  0
LINE
  5
158
  8
DIMNSIONS
  6
CONTINUOUS
 62
     7
 10
-115.75
 20
-1025.0
 30
0.0
 11
-117.7500076427102
 21
-1025.0
 31
0.0
  0
LINE
  5
159
  8
DIMNSIONS
  6
CONTINUOUS
 62
     7
 10
-117.7500076427102
 20
-1025.0
 30
0.0
 11
-192.7500076427103
 21
-1025.0
 31
0.0
  0
LINE
  5
15A
  8
DIMNSIONS
  6
CONTINUOUS
 62
     7
 10
-117.7500076427102
 20
-1025.0
 30
0.0
 11
-155.25934602161641
 21
-1035.050596927254
 31
0.0
  0
LINE
  5
15B
  8
DIMNSIONS
  6
CONTINUOUS
 62
     7
 10
-117.7500076427102
 20
-1025.0
 30
0.0
 11
-155.25934602161641
 21
-1014.949403072746
 31
0.0
  0
LINE
  5
15C
  8
DIMNSIONS
  6
CONTINUOUS
 62
     7
 10
-115.75
 20
-1025.0
 30
0.0
 11
-48.541666666666671
 21
-1025.0
 31
0.0
  0
LINE
  5
15D
  8
DIMNSIONS
  6
CONTINUOUS
 62
     7
 10
-115.75
 20
-1025.0
 30
0.0
 11
-78.240661621093764
 21
-1014.949403072746
 31
0.0
  0
LINE
  5
15E
  8
DIMNSIONS
  6
CONTINUOUS
 62
     7
 10
-115.75
 20
-1025.0
 30
0.0
 11
-78.240661621093764
 21
-1035.0505969272531
 31
0.0
  0
TEXT
  5
15F
  8
DIMNSIONS
 62
     7
 10
-74.999999999999986
 20
-1010.091666666666
 30
0.0
 40
40.721028645833343
  1
2
 41
0.75
 11
-74.999999999999986
 21
-969.37063802083321
 31
0.0
 73
     3
  0
LINE
  5
160
  8
DIMNSIONS
  6
CONTINUOUS
 62
     7
 10
-693.75
 20
-683.0074478699014
 30
0.0
 11
-693.75
 21
-1055.0
 31
0.0
  0
LINE
  5
161
  8
DIMNSIONS
  6
CONTINUOUS
 62
     7
 10
-695.75
 20
-683.0074478699014
 30
0.0
 11
-695.75
 21
-1055.0
 31
0.0
  0
LINE
  5
162
  8
DIMNSIONS
  6
CONTINUOUS
 62
     7
 10
-695.75
 20
-1025.0
 30
0.0
 11
-693.75
 21
-1025.0
 31
0.0
  0
LINE
  5
163
  8
DIMNSIONS
  6
CONTINUOUS
 62
     7
 10
-693.75
 20
-1025.0
 30
0.0
 11
-618.75
 21
-1025.0
 31
0.0
  0
LINE
  5
164
  8
DIMNSIONS
  6
CONTINUOUS
 62
     7
 10
-693.75
 20
-1025.0
 30
0.0
 11
-656.24066162109375
 21
-1014.949403072746
 31
0.0
  0
LINE
  5
165
  8
DIMNSIONS
  6
CONTINUOUS
 62
     7
 10
-693.75
 20
-1025.0
 30
0.0
 11
-656.24066162109375
 21
-1035.0505969272531
 31
0.0
  0
LINE
  5
166
  8
DIMNSIONS
  6
CONTINUOUS
 62
     7
 10
-695.75
 20
-1025.0
 30
0.0
 11
-776.45833333333314
 21
-1025.0
 31
0.0
  0
LINE
  5
167
  8
DIMNSIONS
  6
CONTINUOUS
 62
     7
 10
-695.75
 20
-1025.0
 30
0.0
 11
-733.25933837890625
 21
-1035.050596927254
 31
0.0
  0
LINE
  5
168
  8
DIMNSIONS
  6
CONTINUOUS
 62
     7
 10
-695.75
 20
-1025.0
 30
0.0
 11
-733.25933837890625
 21
-1014.949403072746
 31
0.0
  0
TEXT
  5
169
  8
DIMNSIONS
 62
     7
 10
-776.45833333333314
 20
-1010.091666666666
 30
0.0
 40
40.721028645833343
  1
2
 41
0.75
 11
-776.45833333333314
 21
-969.37063802083321
 31
0.0
 73
     3
  0
LINE
  5
16A
  8
DIMNSIONS
  6
CONTINUOUS
 62
     7
 10
332.17672325202778
 20
-490.00894059213692
 30
0.0
 11
725.0
 21
50.0
 31
0.0
  0
LINE
  5
16B
  8
DIMNSIONS
  6
CONTINUOUS
 62
     7
 10
332.17672325202778
 20
-490.00894059213692
 30
0.0
 11
346.72364299367041
 21
-454.00405078189561
 31
0.0
  0
LINE
  5
16C
  8
DIMNSIONS
  6
CONTINUOUS
 62
     7
 10
332.17672325202778
 20
-490.00894059213692
 30
0.0
 11
362.7771702002243
 21
-466.10125122682979
 31
0.0
  0
LINE
  5
16D
  8
DIMNSIONS
  6
CONTINUOUS
 62
     7
 10
725.0
 20
50.0
 30
0.0
 11
1231.25
 21
50.0
 31
0.0
  0
TEXT
  5
16E
  8
DIMNSIONS
 62
     7
 10
755.0
 20
64.908333333333331
 30
0.0
 40
40.721028645833343
  1
2-φ21(ケーブル用)
 41
0.75
 11
755.0
 21
105.6293619791667
 31
0.0
 73
     3
  0
LINE
  5
16F
  8
DIMNSIONS
  6
CONTINUOUS
 62
     7
 10
-234.12451951149879
 20
473.6571438619149
 30
0.0
 11
-25.00000000000005
 21
200.0
 31
0.0
  0
LINE
  5
170
  8
DIMNSIONS
  6
CONTINUOUS
 62
     7
 10
-234.12451951149879
 20
473.6571438619149
 30
0.0
 11
-203.11148644780951
 21
450.2871471908
 31
0.0
  0
LINE
  5
171
  8
DIMNSIONS
  6
CONTINUOUS
 62
     7
 10
-234.12451951149879
 20
473.6571438619149
 30
0.0
 11
-218.95144336549461
 21
437.91161652652693
 31
0.0
  0
LINE
  5
172
  8
DIMNSIONS
  6
CONTINUOUS
 62
     7
 10
-25.00000000000005
 20
200.0
 30
0.0
 11
481.25
 21
200.0
 31
0.0
  0
TEXT
  5
173
  8
DIMNSIONS
 62
     7
 10
4.9999999999999529
 20
214.9083333333333
 30
0.0
 40
40.721028645833343
  1
2-φ21(ケーブル用)
 41
0.75
 11
4.9999999999999556
 21
255.6293619791667
 31
0.0
 73
     3
  0
LINE
  5
174
  8
DIMNSIONS
  6
CONTINUOUS
 62
     7
 10
1047.7999445683961
 20
-410.26692534748418
 30
0.0
 11
975.0
 21
-750.0
 31
0.0
  0
LINE
  5
175
  8
DIMNSIONS
  6
CONTINUOUS
 62
     7
 10
1047.7999445683961
 20
-410.26692534748418
 30
0.0
 11
1049.832281874918
 21
-449.04623128879678
 31
0.0
  0
LINE
  5
176
  8
DIMNSIONS
  6
CONTINUOUS
 62
     7
 10
1047.7999445683961
 20
-410.26692534748418
 30
0.0
 11
1030.1703473342459
 21
-444.8669580870507
 31
0.0
  0
LINE
  5
177
  8
DIMNSIONS
  6
CONTINUOUS
 62
     7
 10
975.0
 20
-750.0
 30
0.0
 11
1428.333333333333
 21
-750.0
 31
0.0
  0
TEXT
  5
178
  8
DIMNSIONS
 62
     7
 10
1005.0
 20
-735.0916666666667
 30
0.0
 40
40.721028645833343
  1
φ21(ケーブル用)
 41
0.75
 11
1005.0
 21
-694.37063802083321
 31
0.0
 73
     3
  0
LINE
  5
179
  8
DIMNSIONS
  6
CONTINUOUS
 62
     7
 10
1050.0
 20
-370.0
 30
0.0
 11
1050.0
 21
-70.0
 31
0.0
  0
LINE
  5
17A
  8
DIMNSIONS
  6
CONTINUOUS
 62
     7
 10
755.75
 20
-138.5
 30
0.0
 11
755.75
 21
-70.0
 31
0.0
  0
LINE
  5
17B
  8
DIMNSIONS
  6
CONTINUOUS
 62
     7
 10
1050.0
 20
-100.0
 30
0.0
 11
755.75
 21
-100.0
 31
0.0
  0
LINE
  5
17C
  8
DIMNSIONS
  6
CONTINUOUS
 62
     7
 10
1050.0
 20
-100.0
 30
0.0
 11
1012.490661621093
 21
-110.05059692725359
 31
0.0
  0
LINE
  5
17D
  8
DIMNSIONS
  6
CONTINUOUS
 62
     7
 10
1050.0
 20
-100.0
 30
0.0
 11
1012.490661621093
 21
-89.94940307274635
 31
0.0
  0
LINE
  5
17E
  8
DIMNSIONS
  6
CONTINUOUS
 62
     7
 10
755.75
 20
-100.0
 30
0.0
 11
793.25933837890625
 21
-89.94940307274635
 31
0.0
  0
LINE
  5
17F
  8
DIMNSIONS
  6
CONTINUOUS
 62
     7
 10
755.75
 20
-100.0
 30
0.0
 11
793.25933837890625
 21
-110.05059692725359
 31
0.0
  0
TEXT
  5
180
  8
DIMNSIONS
 62
     7
 10
823.49999999999989
 20
-85.091666666666626
 30
0.0
 40
40.721028645833343
  1
294.25
 41
0.75
 11
823.49999999999989
 21
-44.370638020833297
 31
0.0
 73
     3
  0
LINE
  5
181
  8
DIMNSIONS
  6
CONTINUOUS
 62
     7
 10
1050.0
 20
-370.0
 30
0.0
 11
1050.0
 21
-70.0
 31
0.0
  0
LINE
  5
182
  8
DIMNSIONS
  6
CONTINUOUS
 62
     7
 10
1344.25
 20
-138.5
 30
0.0
 11
1344.25
 21
-70.0
 31
0.0
  0
LINE
  5
183
  8
DIMNSIONS
  6
CONTINUOUS
 62
     7
 10
1050.0
 20
-100.0
 30
0.0
 11
1344.25
 21
-100.0
 31
0.0
  0
LINE
  5
184
  8
DIMNSIONS
  6
CONTINUOUS
 62
     7
 10
1050.0
 20
-100.0
 30
0.0
 11
1087.509338378906
 21
-89.94940307274635
 31
0.0
  0
LINE
  5
185
  8
DIMNSIONS
  6
CONTINUOUS
 62
     7
 10
1050.0
 20
-100.0
 30
0.0
 11
1087.509338378906
 21
-110.05059692725359
 31
0.0
  0
LINE
  5
186
  8
DIMNSIONS
  6
CONTINUOUS
 62
     7
 10
1344.25
 20
-100.0
 30
0.0
 11
1306.7406616210931
 21
-110.05059692725359
 31
0.0
  0
LINE
  5
187
  8
DIMNSIONS
  6
CONTINUOUS
 62
     7
 10
1344.25
 20
-100.0
 30
0.0
 11
1306.7406616210931
 21
-89.94940307274635
 31
0.0
  0
TEXT
  5
188
  8
DIMNSIONS
 62
     7
 10
1117.75
 20
-85.091666666666626
 30
0.0
 40
40.721028645833343
  1
294.25
 41
0.75
 11
1117.75
 21
-44.370638020833297
 31
0.0
 73
     3
  0
LINE
  5
189
  8
DIMNSIONS
  6
CONTINUOUS
 62
     7
 10
730.0
 20
-146.99255213009849
 30
0.0
 11
670.0
 21
-146.99255213009849
 31
0.0
  0
LINE
  5
18A
  8
DIMNSIONS
  6
CONTINUOUS
 62
     7
 10
1005.0
 20
-400.0
 30
0.0
 11
670.0
 21
-400.0
 31
0.0
  0
LINE
  5
18B
  8
DIMNSIONS
  6
CONTINUOUS
 62
     7
 10
700.0
 20
-146.99255213009849
 30
0.0
 11
700.0
 21
-400.0
 31
0.0
  0
LINE
  5
18C
  8
DIMNSIONS
  6
CONTINUOUS
 62
     7
 10
700.0
 20
-146.99255213009849
 30
0.0
 11
710.05059692725354
 21
-184.50189050900471
 31
0.0
  0
LINE
  5
18D
  8
DIMNSIONS
  6
CONTINUOUS
 62
     7
 10
700.0
 20
-146.99255213009849
 30
0.0
 11
689.94940307274635
 21
-184.50189050900471
 31
0.0
  0
LINE
  5
18E
  8
DIMNSIONS
  6
CONTINUOUS
 62
     7
 10
700.0
 20
-400.0
 30
0.0
 11
689.94940307274635
 21
-362.49066162109381
 31
0.0
  0
LINE
  5
18F
  8
DIMNSIONS
  6
CONTINUOUS
 62
     7
 10
700.0
 20
-400.0
 30
0.0
 11
710.05059692725354
 21
-362.49066162109381
 31
0.0
  0
TEXT
  5
190
  8
DIMNSIONS
 62
     7
 10
685.0916666666667
 20
-313.18377606504919
 30
0.0
 40
40.721028645833343
  1
253
 50
90.0
 41
0.75
 11
644.37063802083321
 21
-313.18377606504919
 31
0.0
 73
     3
  0
LINE
  5
191
  8
DIMNSIONS
  6
CONTINUOUS
 62
     7
 10
1005.0
 20
-400.0
 30
0.0
 11
670.0
 21
-400.0
 31
0.0
  0
LINE
  5
192
  8
DIMNSIONS
  6
CONTINUOUS
 62
     7
 10
730.0
 20
-653.00744786990128
 30
0.0
 11
670.0
 21
-653.00744786990128
 31
0.0
  0
LINE
  5
193
  8
DIMNSIONS
  6
CONTINUOUS
 62
     7
 10
700.0
 20
-400.0
 30
0.0
 11
700.0
 21
-653.00744786990128
 31
0.0
  0
LINE
  5
194
  8
DIMNSIONS
  6
CONTINUOUS
 62
     7
 10
700.0
 20
-400.0
 30
0.0
 11
710.05059692725354
 21
-437.50933837890631
 31
0.0
  0
LINE
  5
195
  8
DIMNSIONS
  6
CONTINUOUS
 62
     7
 10
700.0
 20
-400.0
 30
0.0
 11
689.94940307274635
 21
-437.50933837890631
 31
0.0
  0
LINE
  5
196
  8
DIMNSIONS
  6
CONTINUOUS
 62
     7
 10
700.0
 20
-653.00744786990128
 30
0.0
 11
689.94940307274635
 21
-615.49810949099526
 31
0.0
  0
LINE
  5
197
  8
DIMNSIONS
  6
CONTINUOUS
 62
     7
 10
700.0
 20
-653.00744786990128
 30
0.0
 11
710.05059692725354
 21
-615.49810949099526
 31
0.0
  0
TEXT
  5
198
  8
DIMNSIONS
 62
     7
 10
685.0916666666667
 20
-566.1912239349507
 30
0.0
 40
40.721028645833343
  1
253
 50
90.0
 41
0.75
 11
644.37063802083321
 21
-566.1912239349507
 31
0.0
 73
     3
  0
LINE
  5
199
  8
DIMNSIONS
  6
CONTINUOUS
 62
     7
 10
206.28315279562759
 20
-645.89597508598968
 30
0.0
 11
275.0
 21
-900.0
 31
0.0
  0
LINE
  5
19A
  8
DIMNSIONS
  6
CONTINUOUS
 62
     7
 10
206.28315279562759
 20
-645.89597508598968
 30
0.0
 11
226.28338149231871
 21
-679.18194534821089
 31
0.0
  0
LINE
  5
19B
  8
DIMNSIONS
  6
CONTINUOUS
 62
     7
 10
206.28315279562759
 20
-645.89597508598968
 30
0.0
 11
206.9608737973501
 21
-684.72258527103213
 31
0.0
  0
LINE
  5
19C
  8
DIMNSIONS
  6
CONTINUOUS
 62
     7
 10
275.0
 20
-900.0
 30
0.0
 11
596.04166666666652
 21
-900.0
 31
0.0
  0
TEXT
  5
19D
  8
DIMNSIONS
 62
     7
 10
305.0
 20
-885.09166666666658
 30
0.0
 40
40.721028645833343
  1
4-28×6長穴
 41
0.75
 11
305.0
 21
-844.37063802083321
 31
0.0
 73
     3
  0
LINE
  5
19E
  8
DIMNSIONS
  6
CONTINUOUS
 62
     7
 10
153.5
 20
-157.0
 30
0.0
 11
70.0
 21
-157.0
 31
0.0
  0
LINE
  5
19F
  8
DIMNSIONS
  6
CONTINUOUS
 62
     7
 10
153.5
 20
-643.0
 30
0.0
 11
70.0
 21
-643.0
 31
0.0
  0
LINE
  5
1A0
  8
DIMNSIONS
  6
CONTINUOUS
 62
     7
 10
100.0
 20
-157.0
 30
0.0
 11
100.0
 21
-643.0
 31
0.0
  0
LINE
  5
1A1
  8
DIMNSIONS
  6
CONTINUOUS
 62
     7
 10
100.0
 20
-157.0
 30
0.0
 11
110.05059692725359
 21
-194.50933837890619
 31
0.0
  0
LINE
  5
1A2
  8
DIMNSIONS
  6
CONTINUOUS
 62
     7
 10
100.0
 20
-157.0
 30
0.0
 11
89.94940307274635
 21
-194.50933837890619
 31
0.0
  0
LINE
  5
1A3
  8
DIMNSIONS
  6
CONTINUOUS
 62
     7
 10
100.0
 20
-643.0
 30
0.0
 11
89.94940307274635
 21
-605.49066162109375
 31
0.0
  0
LINE
  5
1A4
  8
DIMNSIONS
  6
CONTINUOUS
 62
     7
 10
100.0
 20
-643.0
 30
0.0
 11
110.05059692725359
 21
-605.49066162109375
 31
0.0
  0
TEXT
  5
1A5
  8
DIMNSIONS
 62
     7
 10
85.091666666666669
 20
-439.6875
 30
0.0
 40
40.721028645833343
  1
486
 50
90.0
 41
0.75
 11
44.370638020833333
 21
-439.6875
 31
0.0
 73
     3
  0
LINE
  5
1A6
  8
DIMNSIONS
  6
CONTINUOUS
 62
     7
 10
135.5
 20
-197.5
 30
0.0
 11
135.5
 21
-70.0
 31
0.0
  0
LINE
  5
1A7
  8
DIMNSIONS
  6
CONTINUOUS
 62
     7
 10
150.0
 20
-138.5
 30
0.0
 11
150.0
 21
-70.0
 31
0.0
  0
LINE
  5
1A8
  8
DIMNSIONS
  6
CONTINUOUS
 62
     7
 10
150.0
 20
-100.0
 30
0.0
 11
135.5
 21
-100.0
 31
0.0
  0
LINE
  5
1A9
  8
DIMNSIONS
  6
CONTINUOUS
 62
     7
 10
135.5
 20
-100.0
 30
0.0
 11
-16.0
 21
-100.0
 31
0.0
  0
LINE
  5
1AA
  8
DIMNSIONS
  6
CONTINUOUS
 62
     7
 10
135.5
 20
-100.0
 30
0.0
 11
97.990661621093764
 21
-110.05059692725359
 31
0.0
  0
LINE
  5
1AB
  8
DIMNSIONS
  6
CONTINUOUS
 62
     7
 10
135.5
 20
-100.0
 30
0.0
 11
97.990661621093764
 21
-89.94940307274635
 31
0.0
  0
LINE
  5
1AC
  8
DIMNSIONS
  6
CONTINUOUS
 62
     7
 10
150.0
 20
-100.0
 30
0.0
 11
225.0
 21
-100.0
 31
0.0
  0
LINE
  5
1AD
  8
DIMNSIONS
  6
CONTINUOUS
 62
     7
 10
150.0
 20
-100.0
 30
0.0
 11
187.50933837890619
 21
-89.94940307274635
 31
0.0
  0
LINE
  5
1AE
  8
DIMNSIONS
  6
CONTINUOUS
 62
     7
 10
150.0
 20
-100.0
 30
0.0
 11
187.50933837890619
 21
-110.05059692725359
 31
0.0
  0
TEXT
  5
1AF
  8
DIMNSIONS
 62
     7
 10
-16.000000000000021
 20
-85.091666666666626
 30
0.0
 40
40.721028645833343
  1
14.5
 41
0.75
 11
-16.000000000000021
 21
-44.370638020833297
 31
0.0
 73
     3
  0
LINE
  5
1B0
  8
DIMNSIONS
  6
CONTINUOUS
 62
     7
 10
-700.0
 20
-661.5
 30
0.0
 11
-700.0
 21
-980.0
 31
0.0
  0
LINE
  5
1B1
  8
DIMNSIONS
  6
CONTINUOUS
 62
     7
 10
-695.75
 20
-683.0074478699014
 30
0.0
 11
-695.75
 21
-980.0
 31
0.0
  0
LINE
  5
1B2
  8
DIMNSIONS
  6
CONTINUOUS
 62
     7
 10
-695.75
 20
-950.0
 30
0.0
 11
-700.0
 21
-950.0
 31
0.0
  0
LINE
  5
1B3
  8
DIMNSIONS
  6
CONTINUOUS
 62
     7
 10
-700.0
 20
-950.0
 30
0.0
 11
-855.83333333333326
 21
-950.0
 31
0.0
  0
LINE
  5
1B4
  8
DIMNSIONS
  6
CONTINUOUS
 62
     7
 10
-700.0
 20
-950.0
 30
0.0
 11
-737.50933837890625
 21
-960.05059692725365
 31
0.0
  0
LINE
  5
1B5
  8
DIMNSIONS
  6
CONTINUOUS
 62
     7
 10
-700.0
 20
-950.0
 30
0.0
 11
-737.50933837890625
 21
-939.94940307274646
 31
0.0
  0
LINE
  5
1B6
  8
DIMNSIONS
  6
CONTINUOUS
 62
     7
 10
-695.75
 20
-950.0
 30
0.0
 11
-620.75
 21
-950.0
 31
0.0
  0
LINE
  5
1B7
  8
DIMNSIONS
  6
CONTINUOUS
 62
     7
 10
-695.75
 20
-950.0
 30
0.0
 11
-658.24066162109375
 21
-939.94940307274646
 31
0.0
  0
LINE
  5
1B8
  8
DIMNSIONS
  6
CONTINUOUS
 62
     7
 10
-695.75
 20
-950.0
 30
0.0
 11
-658.24066162109375
 21
-960.05059692725365
 31
0.0
  0
TEXT
  5
1B9
  8
DIMNSIONS
 62
     7
 10
-855.83333333333314
 20
-935.09166666666658
 30
0.0
 40
40.721028645833343
  1
4.25
 41
0.75
 11
-855.83333333333314
 21
-894.37063802083321
 31
0.0
 73
     3
  0
LINE
  5
1BA
  8
DIMNSIONS
  6
CONTINUOUS
 62
     7
 10
-115.75
 20
-683.0074478699014
 30
0.0
 11
-115.75
 21
-980.0
 31
0.0
  0
LINE
  5
1BB
  8
DIMNSIONS
  6
CONTINUOUS
 62
     7
 10
-111.5
 20
-661.5
 30
0.0
 11
-111.5
 21
-980.0
 31
0.0
  0
LINE
  5
1BC
  8
DIMNSIONS
  6
CONTINUOUS
 62
     7
 10
-111.5
 20
-950.0
 30
0.0
 11
-115.75
 21
-950.0
 31
0.0
  0
LINE
  5
1BD
  8
DIMNSIONS
  6
CONTINUOUS
 62
     7
 10
-115.75
 20
-950.0
 30
0.0
 11
-190.75
 21
-950.0
 31
0.0
  0
LINE
  5
1BE
  8
DIMNSIONS
  6
CONTINUOUS
 62
     7
 10
-115.75
 20
-950.0
 30
0.0
 11
-153.25933837890619
 21
-960.05059692725365
 31
0.0
  0
LINE
  5
1BF
  8
DIMNSIONS
  6
CONTINUOUS
 62
     7
 10
-115.75
 20
-950.0
 30
0.0
 11
-153.25933837890619
 21
-939.94940307274646
 31
0.0
  0
LINE
  5
1C0
  8
DIMNSIONS
  6
CONTINUOUS
 62
     7
 10
-111.5
 20
-950.0
 30
0.0
 11
30.833333333333329
 21
-950.0
 31
0.0
  0
LINE
  5
1C1
  8
DIMNSIONS
  6
CONTINUOUS
 62
     7
 10
-111.5
 20
-950.0
 30
0.0
 11
-73.990661621093764
 21
-939.94940307274646
 31
0.0
  0
LINE
  5
1C2
  8
DIMNSIONS
  6
CONTINUOUS
 62
     7
 10
-111.5
 20
-950.0
 30
0.0
 11
-73.990661621093764
 21
-960.05059692725365
 31
0.0
  0
TEXT
  5
1C3
  8
DIMNSIONS
 62
     7
 10
-75.000000000000014
 20
-935.09166666666658
 30
0.0
 40
40.721028645833343
  1
4.25
 41
0.75
 11
-75.000000000000014
 21
-894.37063802083321
 31
0.0
 73
     3
  0
POLYLINE
  5
1C4
  8
DATA
  6
CONTINUOUS
 62
     7
 66
     1
 10
0.0
 20
0.0
 30
0.0
 70
     1
  0
VERTEX
  5
3D0
  8
DATA
  6
CONTINUOUS
 62
     7
 10
150.0
 20
-168.5
 30
0.0
  0
VERTEX
  5
3D1
  8
DATA
  6
CONTINUOUS
 62
     7
 10
162.5
 20
-168.5
 30
0.0
  0
VERTEX
  5
3D2
  8
DATA
  6
CONTINUOUS
 62
     7
 10
162.5
 20
-631.5
 30
0.0
  0
VERTEX
  5
3D3
  8
DATA
  6
CONTINUOUS
 62
     7
 10
150.0
 20
-631.5
 30
0.0
  0
SEQEND
  5
3D4
  8
DATA
  6
CONTINUOUS
 62
     7
  0
POLYLINE
  5
1CB
  8
DATA
  6
CONTINUOUS
 62
     7
 66
     1
 10
0.0
 20
0.0
 30
0.0
 70
     1
  0
VERTEX
  5
3D5
  8
DATA
  6
CONTINUOUS
 62
     7
 10
-700.0
 20
312.5
 30
0.0
  0
VERTEX
  5
3D6
  8
DATA
  6
CONTINUOUS
 62
     7
 10
-111.5
 20
312.5
 30
0.0
  0
VERTEX
  5
3D7
  8
DATA
  6
CONTINUOUS
 62
     7
 10
-111.5
 20
300.0
 30
0.0
  0
VERTEX
  5
3D8
  8
DATA
  6
CONTINUOUS
 62
     7
 10
-700.0
 20
300.0
 30
0.0
  0
SEQEND
  5
3D9
  8
DATA
  6
CONTINUOUS
 62
     7
  0
TEXT
  5
1D2
  8
DATA
 62
     7
 10
797.12118179816173
 20
-1593.59124
 30
0.0
 40
36.64892578125
  1
MTC-300BB12
 41
0.75
 11
797.12118179816173
 21
-1556.94231421875
 31
0.0
 73
     3
  0
TEXT
  5
1D3
  8
DATA
 62
     7
 10
797.12118179816173
 20
-1476.758040948725
 30
0.0
 40
36.64892578125
  1
JBL
 41
0.75
 11
797.12118179816173
 21
-1440.109115167475
 31
0.0
 73
     3
  0
TEXT
  5
1D4
  8
DATA
 62
     7
 10
-1100.0
 20
-1696.98459
 30
0.0
 40
24.4326171875
  1
仕様および外観は予告なく変更されることがありますので、ご了承ください。
 41
0.75
 11
-1100.0
 21
-1672.5519728125009
 31
0.0
 73
     3
  0
POLYLINE
  5
1D5
  8
DATA
  6
CONTINUOUS
 62
     7
 66
     1
 10
0.0
 20
0.0
 30
0.0
 70
     1
  0
VERTEX
  5
3DA
  8
DATA
  6
CONTINUOUS
 62
     7
 10
-700.0
 20
-168.5
 30
0.0
  0
VERTEX
  5
3DB
  8
DATA
  6
CONTINUOUS
 62
     7
 10
-111.5
 20
-168.5
 30
0.0
  0
VERTEX
  5
3DC
  8
DATA
  6
CONTINUOUS
 62
     7
 10
-111.5
 20
-631.5
 30
0.0
  0
VERTEX
  5
3DD
  8
DATA
  6
CONTINUOUS
 62
     7
 10
-700.0
 20
-631.5
 30
0.0
  0
SEQEND
  5
3DE
  8
DATA
  6
CONTINUOUS
 62
     7
  0
LINE
  5
1DC
  8
DATA
  6
CONTINUOUS
 62
     7
 10
-115.75
 20
-653.00744786990128
 30
0.0
 11
-115.75
 21
-631.5
 31
0.0
  0
LINE
  5
1DD
  8
DATA
  6
CONTINUOUS
 62
     7
 10
-693.75
 20
-631.5
 30
0.0
 11
-693.75
 21
-653.00744786990128
 31
0.0
  0
LINE
  5
1DE
  8
DATA
  6
CONTINUOUS
 62
     7
 10
-695.75
 20
-631.5
 30
0.0
 11
-695.75
 21
-653.00744786990128
 31
0.0
  0
LINE
  5
1DF
  8
DATA
  6
CONTINUOUS
 62
     7
 10
-117.7500076427102
 20
-653.00744786990128
 30
0.0
 11
-117.7500076427102
 21
-631.5
 31
0.0
  0
LINE
  5
1E0
  8
DATA
  6
CONTINUOUS
 62
     7
 10
-115.75
 20
-653.00744786990128
 30
0.0
 11
-117.7500076427102
 21
-653.00744786990128
 31
0.0
  0
LINE
  5
1E1
  8
DATA
  6
CONTINUOUS
 62
     7
 10
-695.75
 20
-653.00744786990128
 30
0.0
 11
-693.75
 21
-653.00744786990128
 31
0.0
  0
LINE
  5
1E2
  8
DATA
  6
CONTINUOUS
 62
     7
 10
-115.75
 20
-146.99255213009849
 30
0.0
 11
-115.75
 21
-168.5
 31
0.0
  0
LINE
  5
1E3
  8
DATA
  6
CONTINUOUS
 62
     7
 10
-693.75
 20
-168.5
 30
0.0
 11
-693.75
 21
-146.99255213009849
 31
0.0
  0
LINE
  5
1E4
  8
DATA
  6
CONTINUOUS
 62
     7
 10
-695.75
 20
-168.5
 30
0.0
 11
-695.75
 21
-146.99255213009849
 31
0.0
  0
LINE
  5
1E5
  8
DATA
  6
CONTINUOUS
 62
     7
 10
-117.7500076427102
 20
-146.99255213009849
 30
0.0
 11
-117.7500076427102
 21
-168.5
 31
0.0
  0
LINE
  5
1E6
  8
DATA
  6
CONTINUOUS
 62
     7
 10
-115.75
 20
-146.99255213009849
 30
0.0
 11
-117.7500076427102
 21
-146.99255213009849
 31
0.0
  0
LINE
  5
1E7
  8
DATA
  6
CONTINUOUS
 62
     7
 10
-695.75
 20
-146.99255213009849
 30
0.0
 11
-693.75
 21
-146.99255213009849
 31
0.0
  0
ARC
  5
1E8
  8
DATA
  6
CONTINUOUS
 62
     7
 10
-688.0
 20
-284.75
 30
0.0
 40
2.4999999999999201
 50
19.471220634489491
 51
160.5287793655105
  0
ARC
  5
1E9
  8
DATA
  6
CONTINUOUS
 62
     7
 10
-688.0
 20
-290.75
 30
0.0
 40
2.4999999999999201
 50
199.4712206344895
 51
340.5287793655105
  0
CIRCLE
  5
1EA
  8
DATA
  6
CONTINUOUS
 62
     7
 10
-688.0
 20
-287.75
 30
0.0
 40
4.5
  0
LINE
  5
1EB
  8
DATA
  6
CONTINUOUS
 62
     7
 10
-689.60000000000002
 20
-287.75
 30
0.0
 11
-686.39999999999986
 21
-287.75
 31
0.0
  0
LINE
  5
1EC
  8
DATA
  6
CONTINUOUS
 62
     7
 10
-688.0
 20
-289.35000000000008
 30
0.0
 11
-688.0
 21
-286.14999999999981
 31
0.0
  0
ARC
  5
1ED
  8
DATA
  6
CONTINUOUS
 62
     7
 10
-688.0
 20
-509.25
 30
0.0
 40
2.4999999999999201
 50
19.471220634489491
 51
160.5287793655105
  0
ARC
  5
1EE
  8
DATA
  6
CONTINUOUS
 62
     7
 10
-688.0
 20
-515.24999999999989
 30
0.0
 40
2.4999999999999201
 50
199.4712206344895
 51
340.5287793655105
  0
CIRCLE
  5
1EF
  8
DATA
  6
CONTINUOUS
 62
     7
 10
-688.0
 20
-512.25
 30
0.0
 40
4.5
  0
LINE
  5
1F0
  8
DATA
  6
CONTINUOUS
 62
     7
 10
-689.60000000000002
 20
-512.25
 30
0.0
 11
-686.39999999999986
 21
-512.25
 31
0.0
  0
LINE
  5
1F1
  8
DATA
  6
CONTINUOUS
 62
     7
 10
-688.0
 20
-513.85000000000014
 30
0.0
 11
-688.0
 21
-510.64999999999992
 31
0.0
  0
ARC
  5
1F2
  8
DATA
  6
CONTINUOUS
 62
     7
 10
-123.5
 20
-284.75
 30
0.0
 40
2.4999999999999201
 50
19.471220634489491
 51
160.5287793655105
  0
ARC
  5
1F3
  8
DATA
  6
CONTINUOUS
 62
     7
 10
-123.5
 20
-290.75
 30
0.0
 40
2.4999999999999201
 50
199.4712206344895
 51
340.5287793655105
  0
CIRCLE
  5
1F4
  8
DATA
  6
CONTINUOUS
 62
     7
 10
-123.5
 20
-287.75
 30
0.0
 40
4.5
  0
LINE
  5
1F5
  8
DATA
  6
CONTINUOUS
 62
     7
 10
-125.09999999999999
 20
-287.75
 30
0.0
 11
-121.90000000000001
 21
-287.75
 31
0.0
  0
LINE
  5
1F6
  8
DATA
  6
CONTINUOUS
 62
     7
 10
-123.5
 20
-289.35000000000008
 30
0.0
 11
-123.5
 21
-286.14999999999981
 31
0.0
  0
ARC
  5
1F7
  8
DATA
  6
CONTINUOUS
 62
     7
 10
-123.5
 20
-509.25
 30
0.0
 40
2.4999999999999201
 50
19.471220634489491
 51
160.5287793655105
  0
ARC
  5
1F8
  8
DATA
  6
CONTINUOUS
 62
     7
 10
-123.5
 20
-515.24999999999989
 30
0.0
 40
2.4999999999999201
 50
199.4712206344895
 51
340.5287793655105
  0
CIRCLE
  5
1F9
  8
DATA
  6
CONTINUOUS
 62
     7
 10
-123.5
 20
-512.25
 30
0.0
 40
4.5
  0
LINE
  5
1FA
  8
DATA
  6
CONTINUOUS
 62
     7
 10
-125.09999999999999
 20
-512.25
 30
0.0
 11
-121.90000000000001
 21
-512.25
 31
0.0
  0
LINE
  5
1FB
  8
DATA
  6
CONTINUOUS
 62
     7
 10
-123.5
 20
-513.85000000000014
 30
0.0
 11
-123.5
 21
-510.64999999999992
 31
0.0
  0
ARC
  5
1FC
  8
DATA
  6
CONTINUOUS
 62
     7
 10
-605.75
 20
-181.25
 30
0.0
 40
2.4999999999999591
 50
289.47122063449189
 51
70.528779365508015
  0
ARC
  5
1FD
  8
DATA
  6
CONTINUOUS
 62
     7
 10
-611.74999999999989
 20
-181.25
 30
0.0
 40
2.4999999999999591
 50
109.4712206344919
 51
250.528779365508
  0
CIRCLE
  5
1FE
  8
DATA
  6
CONTINUOUS
 62
     7
 10
-608.75
 20
-181.25
 30
0.0
 40
4.5
  0
LINE
  5
1FF
  8
DATA
  6
CONTINUOUS
 62
     7
 10
-608.75
 20
-179.64999999999989
 30
0.0
 11
-608.75
 21
-182.85000000000011
 31
0.0
  0
LINE
  5
200
  8
DATA
  6
CONTINUOUS
 62
     7
 10
-610.35000000000002
 20
-181.25
 30
0.0
 11
-607.14999999999998
 21
-181.25
 31
0.0
  0
ARC
  5
201
  8
DATA
  6
CONTINUOUS
 62
     7
 10
-470.41666666666652
 20
-181.25
 30
0.0
 40
2.4999999999999591
 50
289.47122063449189
 51
70.528779365508015
  0
ARC
  5
202
  8
DATA
  6
CONTINUOUS
 62
     7
 10
-476.41666666666657
 20
-181.25
 30
0.0
 40
2.4999999999999591
 50
109.4712206344919
 51
250.528779365508
  0
CIRCLE
  5
203
  8
DATA
  6
CONTINUOUS
 62
     7
 10
-473.41666666666652
 20
-181.25
 30
0.0
 40
4.5
  0
LINE
  5
204
  8
DATA
  6
CONTINUOUS
 62
     7
 10
-473.41666666666652
 20
-179.64999999999989
 30
0.0
 11
-473.41666666666652
 21
-182.85000000000011
 31
0.0
  0
LINE
  5
205
  8
DATA
  6
CONTINUOUS
 62
     7
 10
-475.01666666666659
 20
-181.25
 30
0.0
 11
-471.81666666666649
 21
-181.25
 31
0.0
  0
ARC
  5
206
  8
DATA
  6
CONTINUOUS
 62
     7
 10
-335.08333333333331
 20
-181.25
 30
0.0
 40
2.4999999999999591
 50
289.47122063449189
 51
70.528779365508015
  0
ARC
  5
207
  8
DATA
  6
CONTINUOUS
 62
     7
 10
-341.08333333333331
 20
-181.25
 30
0.0
 40
2.4999999999999591
 50
109.4712206344919
 51
250.528779365508
  0
CIRCLE
  5
208
  8
DATA
  6
CONTINUOUS
 62
     7
 10
-338.0833333333332
 20
-181.25
 30
0.0
 40
4.5
  0
LINE
  5
209
  8
DATA
  6
CONTINUOUS
 62
     7
 10
-338.0833333333332
 20
-179.64999999999989
 30
0.0
 11
-338.0833333333332
 21
-182.85000000000011
 31
0.0
  0
LINE
  5
20A
  8
DATA
  6
CONTINUOUS
 62
     7
 10
-339.68333333333322
 20
-181.25
 30
0.0
 11
-336.48333333333318
 21
-181.25
 31
0.0
  0
ARC
  5
20B
  8
DATA
  6
CONTINUOUS
 62
     7
 10
-199.75
 20
-181.25
 30
0.0
 40
2.4999999999999591
 50
289.47122063449189
 51
70.528779365508015
  0
ARC
  5
20C
  8
DATA
  6
CONTINUOUS
 62
     7
 10
-205.75
 20
-181.25
 30
0.0
 40
2.4999999999999591
 50
109.4712206344919
 51
250.528779365508
  0
CIRCLE
  5
20D
  8
DATA
  6
CONTINUOUS
 62
     7
 10
-202.75
 20
-181.25
 30
0.0
 40
4.5
  0
LINE
  5
20E
  8
DATA
  6
CONTINUOUS
 62
     7
 10
-202.75
 20
-179.64999999999989
 30
0.0
 11
-202.75
 21
-182.85000000000011
 31
0.0
  0
LINE
  5
20F
  8
DATA
  6
CONTINUOUS
 62
     7
 10
-204.34999999999999
 20
-181.25
 30
0.0
 11
-201.15000000000001
 21
-181.25
 31
0.0
  0
ARC
  5
210
  8
DATA
  6
CONTINUOUS
 62
     7
 10
-605.75
 20
-618.75
 30
0.0
 40
2.4999999999999591
 50
289.47122063449189
 51
70.528779365508015
  0
ARC
  5
211
  8
DATA
  6
CONTINUOUS
 62
     7
 10
-611.74999999999989
 20
-618.75
 30
0.0
 40
2.4999999999999591
 50
109.4712206344919
 51
250.528779365508
  0
CIRCLE
  5
212
  8
DATA
  6
CONTINUOUS
 62
     7
 10
-608.75
 20
-618.75
 30
0.0
 40
4.5
  0
LINE
  5
213
  8
DATA
  6
CONTINUOUS
 62
     7
 10
-608.75
 20
-620.35000000000014
 30
0.0
 11
-608.75
 21
-617.14999999999986
 31
0.0
  0
LINE
  5
214
  8
DATA
  6
CONTINUOUS
 62
     7
 10
-610.35000000000002
 20
-618.75
 30
0.0
 11
-607.14999999999998
 21
-618.75
 31
0.0
  0
ARC
  5
215
  8
DATA
  6
CONTINUOUS
 62
     7
 10
-470.41666666666652
 20
-618.75
 30
0.0
 40
2.4999999999999591
 50
289.47122063449189
 51
70.528779365508015
  0
ARC
  5
216
  8
DATA
  6
CONTINUOUS
 62
     7
 10
-476.41666666666657
 20
-618.75
 30
0.0
 40
2.4999999999999591
 50
109.4712206344919
 51
250.528779365508
  0
CIRCLE
  5
217
  8
DATA
  6
CONTINUOUS
 62
     7
 10
-473.41666666666652
 20
-618.75
 30
0.0
 40
4.5
  0
LINE
  5
218
  8
DATA
  6
CONTINUOUS
 62
     7
 10
-473.41666666666652
 20
-620.35000000000014
 30
0.0
 11
-473.41666666666652
 21
-617.14999999999986
 31
0.0
  0
LINE
  5
219
  8
DATA
  6
CONTINUOUS
 62
     7
 10
-475.01666666666659
 20
-618.75
 30
0.0
 11
-471.81666666666649
 21
-618.75
 31
0.0
  0
ARC
  5
21A
  8
DATA
  6
CONTINUOUS
 62
     7
 10
-335.08333333333331
 20
-618.75
 30
0.0
 40
2.4999999999999591
 50
289.47122063449189
 51
70.528779365508015
  0
ARC
  5
21B
  8
DATA
  6
CONTINUOUS
 62
     7
 10
-341.08333333333331
 20
-618.75
 30
0.0
 40
2.4999999999999591
 50
109.4712206344919
 51
250.528779365508
  0
CIRCLE
  5
21C
  8
DATA
  6
CONTINUOUS
 62
     7
 10
-338.0833333333332
 20
-618.75
 30
0.0
 40
4.5
  0
LINE
  5
21D
  8
DATA
  6
CONTINUOUS
 62
     7
 10
-338.0833333333332
 20
-620.35000000000014
 30
0.0
 11
-338.0833333333332
 21
-617.14999999999986
 31
0.0
  0
LINE
  5
21E
  8
DATA
  6
CONTINUOUS
 62
     7
 10
-339.68333333333322
 20
-618.75
 30
0.0
 11
-336.48333333333318
 21
-618.75
 31
0.0
  0
ARC
  5
21F
  8
DATA
  6
CONTINUOUS
 62
     7
 10
-199.75
 20
-618.75
 30
0.0
 40
2.4999999999999591
 50
289.47122063449189
 51
70.528779365508015
  0
ARC
  5
220
  8
DATA
  6
CONTINUOUS
 62
     7
 10
-205.75
 20
-618.75
 30
0.0
 40
2.4999999999999591
 50
109.4712206344919
 51
250.528779365508
  0
CIRCLE
  5
221
  8
DATA
  6
CONTINUOUS
 62
     7
 10
-202.75
 20
-618.75
 30
0.0
 40
4.5
  0
LINE
  5
222
  8
DATA
  6
CONTINUOUS
 62
     7
 10
-202.75
 20
-620.35000000000014
 30
0.0
 11
-202.75
 21
-617.14999999999986
 31
0.0
  0
LINE
  5
223
  8
DATA
  6
CONTINUOUS
 62
     7
 10
-204.34999999999999
 20
-618.75
 30
0.0
 11
-201.15000000000001
 21
-618.75
 31
0.0
  0
LINE
  5
224
  8
DATA
  6
CONTINUOUS
 62
     7
 10
-587.75
 20
-563.25
 30
0.0
 11
-587.75
 21
-236.75
 31
0.0
  0
LINE
  5
225
  8
DATA
  6
CONTINUOUS
 62
     7
 10
-242.25
 20
-581.25
 30
0.0
 11
-569.24999999999989
 21
-581.25
 31
0.0
  0
LINE
  5
226
  8
DATA
  6
STYLE_01
 62
     7
 10
-223.75
 20
-223.75
 30
0.0
 11
-223.75
 21
-236.75
 31
0.0
  0
LINE
  5
227
  8
DATA
  6
CONTINUOUS
 62
     7
 10
-223.75
 20
-236.75
 30
0.0
 11
-223.75
 21
-563.25
 31
0.0
  0
LINE
  5
228
  8
DATA
  6
CONTINUOUS
 62
     7
 10
-569.24999999999989
 20
-218.75
 30
0.0
 11
-242.25
 21
-218.75
 31
0.0
  0
POLYLINE
  5
229
  8
DATA
  6
CONTINUOUS
 62
     7
 66
     1
 10
0.0
 20
0.0
 30
0.0
 70
     1
  0
VERTEX
  5
3DF
  8
DATA
  6
CONTINUOUS
 62
     7
 10
-564.74999999999989
 20
-241.5
 30
0.0
  0
VERTEX
  5
3E0
  8
DATA
  6
CONTINUOUS
 62
     7
 10
-246.75
 20
-241.5
 30
0.0
  0
VERTEX
  5
3E1
  8
DATA
  6
CONTINUOUS
 62
     7
 10
-246.75
 20
-558.49999999999989
 30
0.0
  0
VERTEX
  5
3E2
  8
DATA
  6
CONTINUOUS
 62
     7
 10
-564.74999999999989
 20
-558.49999999999989
 30
0.0
  0
SEQEND
  5
3E3
  8
DATA
  6
CONTINUOUS
 62
     7
  0
ARC
  5
230
  8
DATA
  6
STYLE_01
 62
     7
 10
-228.75
 20
-223.75
 30
0.0
 40
5.0
 50
0.0
 51
90.0
  0
LINE
  5
231
  8
DATA
  6
CONTINUOUS
 62
     7
 10
-589.25
 20
-563.25
 30
0.0
 11
-589.25
 21
-236.75
 31
0.0
  0
LINE
  5
232
  8
DATA
  6
CONTINUOUS
 62
     7
 10
-242.25
 20
-583.25
 30
0.0
 11
-569.24999999999989
 21
-583.25
 31
0.0
  0
LINE
  5
233
  8
DATA
  6
STYLE_01
 62
     7
 10
-222.25
 20
-223.75
 30
0.0
 11
-222.25
 21
-236.75
 31
0.0
  0
LINE
  5
234
  8
DATA
  6
CONTINUOUS
 62
     7
 10
-222.25
 20
-236.75
 30
0.0
 11
-222.25
 21
-563.25
 31
0.0
  0
LINE
  5
235
  8
DATA
  6
CONTINUOUS
 62
     7
 10
-569.24999999999989
 20
-216.75
 30
0.0
 11
-242.25
 21
-216.75
 31
0.0
  0
ARC
  5
236
  8
DATA
  6
STYLE_01
 62
     7
 10
-229.25
 20
-223.75
 30
0.0
 40
7.0
 50
0.0
 51
90.0
  0
LINE
  5
237
  8
DATA
  6
CONTINUOUS
 62
     7
 10
-697.5
 20
312.5
 30
0.0
 11
-697.5
 21
607.5
 31
0.0
  0
LINE
  5
238
  8
DATA
  6
CONTINUOUS
 62
     7
 10
-114.0
 20
607.5
 30
0.0
 11
-114.0
 21
312.5
 31
0.0
  0
LINE
  5
239
  8
DATA
  6
CONTINUOUS
 62
     7
 10
-697.5
 20
607.5
 30
0.0
 11
-114.0
 21
607.5
 31
0.0
  0
POLYLINE
  5
23A
  8
DATA
  6
CONTINUOUS
 62
     7
 66
     1
 10
0.0
 20
0.0
 30
0.0
 70
     1
  0
VERTEX
  5
3E4
  8
DATA
  6
CONTINUOUS
 62
     7
 10
-579.25
 20
-227.5
 30
0.0
  0
VERTEX
  5
3E5
  8
DATA
  6
CONTINUOUS
 62
     7
 10
-232.25
 20
-227.5
 30
0.0
  0
VERTEX
  5
3E6
  8
DATA
  6
CONTINUOUS
 62
     7
 10
-232.25
 20
-572.5
 30
0.0
  0
VERTEX
  5
3E7
  8
DATA
  6
CONTINUOUS
 62
     7
 10
-579.25
 20
-572.5
 30
0.0
  0
SEQEND
  5
3E8
  8
DATA
  6
CONTINUOUS
 62
     7
  0
LINE
  5
241
  8
DATA
  6
CONTINUOUS
 62
     7
 10
-242.25
 20
-215.75
 30
0.0
 11
-242.25
 21
-227.5
 31
0.0
  0
LINE
  5
242
  8
DATA
  6
CONTINUOUS
 62
     7
 10
-221.25
 20
-236.75
 30
0.0
 11
-221.25
 21
-223.75
 31
0.0
  0
LINE
  5
243
  8
DATA
  6
CONTINUOUS
 62
     7
 10
-229.25
 20
-215.75
 30
0.0
 11
-242.25
 21
-215.75
 31
0.0
  0
ARC
  5
244
  8
DATA
  6
CONTINUOUS
 62
     7
 10
-229.25
 20
-223.75
 30
0.0
 40
8.0
 50
0.0
 51
90.0
  0
LINE
  5
245
  8
DATA
  6
STYLE_10
 62
     7
 10
-242.25
 20
-218.75
 30
0.0
 11
-228.75
 21
-218.75
 31
0.0
  0
LINE
  5
246
  8
DATA
  6
STYLE_01
 62
     7
 10
-229.25
 20
-216.75
 30
0.0
 11
-242.25
 21
-216.75
 31
0.0
  0
LINE
  5
247
  8
DATA
  6
STYLE_01
 62
     7
 10
-587.75
 20
-223.75
 30
0.0
 11
-587.75
 21
-236.75
 31
0.0
  0
ARC
  5
248
  8
DATA
  6
STYLE_01
 62
     7
 10
-582.74999999999989
 20
-223.75
 30
0.0
 40
5.0
 50
90.0
 51
180.0
  0
LINE
  5
249
  8
DATA
  6
STYLE_01
 62
     7
 10
-589.25
 20
-223.75
 30
0.0
 11
-589.25
 21
-236.75
 31
0.0
  0
ARC
  5
24A
  8
DATA
  6
STYLE_01
 62
     7
 10
-582.24999999999989
 20
-223.75
 30
0.0
 40
7.0
 50
90.0
 51
180.0
  0
LINE
  5
24B
  8
DATA
  6
CONTINUOUS
 62
     7
 10
-569.24999999999989
 20
-215.75
 30
0.0
 11
-569.24999999999989
 21
-227.5
 31
0.0
  0
LINE
  5
24C
  8
DATA
  6
CONTINUOUS
 62
     7
 10
-590.24999999999989
 20
-236.75
 30
0.0
 11
-590.24999999999989
 21
-223.75
 31
0.0
  0
LINE
  5
24D
  8
DATA
  6
CONTINUOUS
 62
     7
 10
-582.24999999999989
 20
-215.75
 30
0.0
 11
-569.24999999999989
 21
-215.75
 31
0.0
  0
ARC
  5
24E
  8
DATA
  6
CONTINUOUS
 62
     7
 10
-582.24999999999989
 20
-223.75
 30
0.0
 40
8.0
 50
90.0
 51
180.0
  0
LINE
  5
24F
  8
DATA
  6
STYLE_10
 62
     7
 10
-569.24999999999989
 20
-218.75
 30
0.0
 11
-582.74999999999989
 21
-218.75
 31
0.0
  0
LINE
  5
250
  8
DATA
  6
STYLE_01
 62
     7
 10
-582.24999999999989
 20
-216.75
 30
0.0
 11
-569.24999999999989
 21
-216.75
 31
0.0
  0
LINE
  5
251
  8
DATA
  6
STYLE_01
 62
     7
 10
-223.75
 20
-576.25
 30
0.0
 11
-223.75
 21
-563.25
 31
0.0
  0
ARC
  5
252
  8
DATA
  6
STYLE_01
 62
     7
 10
-228.75
 20
-576.25
 30
0.0
 40
5.0
 50
270.0
 51
0.0
  0
LINE
  5
253
  8
DATA
  6
STYLE_01
 62
     7
 10
-222.25
 20
-576.25
 30
0.0
 11
-222.25
 21
-563.25
 31
0.0
  0
ARC
  5
254
  8
DATA
  6
STYLE_01
 62
     7
 10
-229.25
 20
-576.25
 30
0.0
 40
7.0
 50
270.0
 51
0.0
  0
LINE
  5
255
  8
DATA
  6
CONTINUOUS
 62
     7
 10
-242.25
 20
-584.25
 30
0.0
 11
-242.25
 21
-572.5
 31
0.0
  0
LINE
  5
256
  8
DATA
  6
CONTINUOUS
 62
     7
 10
-221.25
 20
-563.25
 30
0.0
 11
-221.25
 21
-576.25
 31
0.0
  0
LINE
  5
257
  8
DATA
  6
CONTINUOUS
 62
     7
 10
-229.25
 20
-584.25
 30
0.0
 11
-242.25
 21
-584.25
 31
0.0
  0
ARC
  5
258
  8
DATA
  6
CONTINUOUS
 62
     7
 10
-229.25
 20
-576.25
 30
0.0
 40
8.0
 50
270.0
 51
0.0
  0
LINE
  5
259
  8
DATA
  6
STYLE_10
 62
     7
 10
-242.25
 20
-581.25
 30
0.0
 11
-228.75
 21
-581.25
 31
0.0
  0
LINE
  5
25A
  8
DATA
  6
STYLE_01
 62
     7
 10
-229.25
 20
-583.25
 30
0.0
 11
-242.25
 21
-583.25
 31
0.0
  0
LINE
  5
25B
  8
DATA
  6
STYLE_01
 62
     7
 10
-587.75
 20
-576.25
 30
0.0
 11
-587.75
 21
-563.25
 31
0.0
  0
ARC
  5
25C
  8
DATA
  6
STYLE_01
 62
     7
 10
-582.74999999999989
 20
-576.25
 30
0.0
 40
5.0
 50
180.0
 51
270.0
  0
LINE
  5
25D
  8
DATA
  6
STYLE_01
 62
     7
 10
-589.25
 20
-576.25
 30
0.0
 11
-589.25
 21
-563.25
 31
0.0
  0
ARC
  5
25E
  8
DATA
  6
STYLE_01
 62
     7
 10
-582.24999999999989
 20
-576.25
 30
0.0
 40
7.0
 50
180.0
 51
270.0
  0
LINE
  5
25F
  8
DATA
  6
CONTINUOUS
 62
     7
 10
-569.24999999999989
 20
-584.25
 30
0.0
 11
-569.24999999999989
 21
-572.5
 31
0.0
  0
LINE
  5
260
  8
DATA
  6
CONTINUOUS
 62
     7
 10
-590.24999999999989
 20
-563.25
 30
0.0
 11
-590.24999999999989
 21
-576.25
 31
0.0
  0
LINE
  5
261
  8
DATA
  6
CONTINUOUS
 62
     7
 10
-582.24999999999989
 20
-584.25
 30
0.0
 11
-569.24999999999989
 21
-584.25
 31
0.0
  0
ARC
  5
262
  8
DATA
  6
CONTINUOUS
 62
     7
 10
-582.24999999999989
 20
-576.25
 30
0.0
 40
8.0
 50
180.0
 51
270.0
  0
LINE
  5
263
  8
DATA
  6
STYLE_10
 62
     7
 10
-569.24999999999989
 20
-581.25
 30
0.0
 11
-582.74999999999989
 21
-581.25
 31
0.0
  0
LINE
  5
264
  8
DATA
  6
STYLE_01
 62
     7
 10
-582.24999999999989
 20
-583.25
 30
0.0
 11
-569.24999999999989
 21
-583.25
 31
0.0
  0
LINE
  5
265
  8
DATA
  6
CONTINUOUS
 62
     7
 10
-585.08847720511665
 20
287.5
 30
0.0
 11
-226.32401726826811
 21
287.5
 31
0.0
  0
LINE
  5
266
  8
DATA
  6
CONTINUOUS
 62
     7
 10
-242.25
 20
286.5
 30
0.0
 11
-242.25
 21
287.5
 31
0.0
  0
LINE
  5
267
  8
DATA
  6
CONTINUOUS
 62
     7
 10
-569.24999999999989
 20
286.5
 30
0.0
 11
-569.24999999999989
 21
287.5
 31
0.0
  0
LINE
  5
268
  8
DATA
  6
CONTINUOUS
 62
     7
 10
-579.25
 20
285.5
 30
0.0
 11
-232.25
 21
285.5
 31
0.0
  0
LINE
  5
269
  8
DATA
  6
CONTINUOUS
 62
     7
 10
-579.25
 20
286.5
 30
0.0
 11
-579.25
 21
285.5
 31
0.0
  0
LINE
  5
26A
  8
DATA
  6
CONTINUOUS
 62
     7
 10
-232.25
 20
285.5
 30
0.0
 11
-232.25
 21
286.5
 31
0.0
  0
LINE
  5
26B
  8
DATA
  6
CONTINUOUS
 62
     7
 10
-242.25
 20
286.5
 30
0.0
 11
-226.32401726826811
 21
286.5
 31
0.0
  0
LINE
  5
26C
  8
DATA
  6
CONTINUOUS
 62
     7
 10
-222.25
 20
300.0
 30
0.0
 11
-223.34236606424719
 21
290.16870542177548
 31
0.0
  0
LINE
  5
26D
  8
DATA
  6
CONTINUOUS
 62
     7
 10
-569.24999999999989
 20
286.5
 30
0.0
 11
-585.17598273173189
 21
286.5
 31
0.0
  0
LINE
  5
26E
  8
DATA
  6
CONTINUOUS
 62
     7
 10
-588.06710772057727
 20
290.14256433814472
 30
0.0
 11
-589.25
 21
300.0
 31
0.0
  0
ARC
  5
26F
  8
DATA
  6
CONTINUOUS
 62
     7
 10
-585.08847720511665
 20
290.5
 30
0.0
 40
2.999999999999976
 50
186.84277341263169
 51
270.0
  0
ARC
  5
270
  8
DATA
  6
CONTINUOUS
 62
     7
 10
-226.32401726826811
 20
290.5
 30
0.0
 40
3.0
 50
270.0
 51
353.65980825409059
  0
ARC
  5
271
  8
DATA
  6
CONTINUOUS
 62
     7
 10
-226.32401726826811
 20
290.5
 30
0.0
 40
4.0
 50
270.0
 51
353.65980825409002
  0
LINE
  5
272
  8
DATA
  6
CONTINUOUS
 62
     7
 10
-221.8243006024195
 20
294.0
 30
0.0
 11
-222.25
 21
290.16870542177548
 31
0.0
  0
LINE
  5
273
  8
DATA
  6
CONTINUOUS
 62
     7
 10
-221.8243006024195
 20
294.0
 30
0.0
 11
-222.91666666666671
 21
294.0
 31
0.0
  0
ARC
  5
274
  8
DATA
  6
CONTINUOUS
 62
     7
 10
-585.17598273173189
 20
290.5
 30
0.0
 40
4.0000000000000471
 50
186.34019174590981
 51
270.0
  0
LINE
  5
275
  8
DATA
  6
CONTINUOUS
 62
     7
 10
-589.6756993975805
 20
294.0
 30
0.0
 11
-589.25
 21
290.16870542177548
 31
0.0
  0
LINE
  5
276
  8
DATA
  6
CONTINUOUS
 62
     7
 10
-589.6756993975805
 20
294.0
 30
0.0
 11
-588.58333333333314
 21
294.0
 31
0.0
  0
ARC
  5
277
  8
DATA
  6
CONTINUOUS
 62
     7
 10
-688.0
 20
302.59807621135337
 30
0.0
 40
5.1961524227066596
 50
210.0000000000004
 51
329.99999999999937
  0
ARC
  5
278
  8
DATA
  6
CONTINUOUS
 62
     7
 10
-608.75
 20
302.59807621135337
 30
0.0
 40
5.1961524227066596
 50
210.0000000000004
 51
329.99999999999937
  0
ARC
  5
279
  8
DATA
  6
CONTINUOUS
 62
     7
 10
-473.41666666666652
 20
302.59807621135337
 30
0.0
 40
5.1961524227066596
 50
210.0000000000004
 51
329.99999999999937
  0
ARC
  5
27A
  8
DATA
  6
CONTINUOUS
 62
     7
 10
-338.0833333333332
 20
302.59807621135337
 30
0.0
 40
5.1961524227066596
 50
210.0000000000004
 51
329.99999999999937
  0
ARC
  5
27B
  8
DATA
  6
CONTINUOUS
 62
     7
 10
-202.75
 20
302.59807621135337
 30
0.0
 40
5.1961524227066596
 50
210.0000000000004
 51
329.99999999999937
  0
ARC
  5
27C
  8
DATA
  6
CONTINUOUS
 62
     7
 10
-123.5
 20
302.59807621135337
 30
0.0
 40
5.1961524227066596
 50
210.0000000000004
 51
329.99999999999937
  0
LINE
  5
27D
  8
DATA
  6
CONTINUOUS
 62
     7
 10
-115.75
 20
368.5
 30
0.0
 11
-115.75
 21
319.5
 31
0.0
  0
LINE
  5
27E
  8
DATA
  6
CONTINUOUS
 62
     7
 10
-693.75
 20
319.5
 30
0.0
 11
-693.75
 21
368.5
 31
0.0
  0
LINE
  5
27F
  8
DATA
  6
CONTINUOUS
 62
     7
 10
-695.75
 20
319.5
 30
0.0
 11
-695.75
 21
368.5
 31
0.0
  0
LINE
  5
280
  8
DATA
  6
CONTINUOUS
 62
     7
 10
-117.7500076427102
 20
368.5
 30
0.0
 11
-117.7500076427102
 21
319.5
 31
0.0
  0
LINE
  5
281
  8
DATA
  6
CONTINUOUS
 62
     7
 10
-695.75
 20
368.5
 30
0.0
 11
-693.75
 21
368.5
 31
0.0
  0
LINE
  5
282
  8
DATA
  6
CONTINUOUS
 62
     7
 10
-117.7500076427102
 20
368.5
 30
0.0
 11
-115.75
 21
368.5
 31
0.0
  0
LINE
  5
283
  8
DATA
  6
CONTINUOUS
 62
     7
 10
-695.75
 20
319.5
 30
0.0
 11
-693.75
 21
319.5
 31
0.0
  0
LINE
  5
284
  8
DATA
  6
CONTINUOUS
 62
     7
 10
-117.7500076427102
 20
319.5
 30
0.0
 11
-115.75
 21
319.5
 31
0.0
  0
CIRCLE
  5
285
  8
DATA
  6
CONTINUOUS
 62
     7
 10
-634.0
 20
572.0
 30
0.0
 40
3.75
  0
LINE
  5
286
  8
DATA
  6
CONTINUOUS
 62
     7
 10
-632.0
 20
572.0
 30
0.0
 11
-636.0
 21
572.0
 31
0.0
  0
LINE
  5
287
  8
DATA
  6
CONTINUOUS
 62
     7
 10
-634.0
 20
574.0
 30
0.0
 11
-634.0
 21
570.0
 31
0.0
  0
CIRCLE
  5
288
  8
DATA
  6
CONTINUOUS
 62
     7
 10
-177.5
 20
572.0
 30
0.0
 40
3.75
  0
LINE
  5
289
  8
DATA
  6
CONTINUOUS
 62
     7
 10
-175.5
 20
572.0
 30
0.0
 11
-179.5
 21
572.0
 31
0.0
  0
LINE
  5
28A
  8
DATA
  6
CONTINUOUS
 62
     7
 10
-177.5
 20
574.0
 30
0.0
 11
-177.5
 21
570.0
 31
0.0
  0
CIRCLE
  5
28B
  8
DATA
  6
CONTINUOUS
 62
     7
 10
-634.0
 20
342.5
 30
0.0
 40
3.75
  0
LINE
  5
28C
  8
DATA
  6
CONTINUOUS
 62
     7
 10
-632.0
 20
342.5
 30
0.0
 11
-636.0
 21
342.5
 31
0.0
  0
LINE
  5
28D
  8
DATA
  6
CONTINUOUS
 62
     7
 10
-634.0
 20
344.5
 30
0.0
 11
-634.0
 21
340.5
 31
0.0
  0
CIRCLE
  5
28E
  8
DATA
  6
CONTINUOUS
 62
     7
 10
-177.5
 20
342.5
 30
0.0
 40
3.75
  0
LINE
  5
28F
  8
DATA
  6
CONTINUOUS
 62
     7
 10
-175.5
 20
342.5
 30
0.0
 11
-179.5
 21
342.5
 31
0.0
  0
LINE
  5
290
  8
DATA
  6
CONTINUOUS
 62
     7
 10
-177.5
 20
344.5
 30
0.0
 11
-177.5
 21
340.5
 31
0.0
  0
CIRCLE
  5
291
  8
DATA
  6
CONTINUOUS
 62
     7
 10
-405.75
 20
457.24999999999989
 30
0.0
 40
3.75
  0
LINE
  5
292
  8
DATA
  6
CONTINUOUS
 62
     7
 10
-403.74999999999989
 20
457.24999999999989
 30
0.0
 11
-407.74999999999989
 21
457.24999999999989
 31
0.0
  0
LINE
  5
293
  8
DATA
  6
CONTINUOUS
 62
     7
 10
-405.75
 20
459.25
 30
0.0
 11
-405.75
 21
455.25
 31
0.0
  0
CIRCLE
  5
294
  8
DATA
  6
CONTINUOUS
 62
     7
 10
-240.5
 20
482.0
 30
0.0
 40
10.5
  0
CIRCLE
  5
295
  8
DATA
  6
CONTINUOUS
 62
     7
 10
-240.5
 20
482.0
 30
0.0
 40
15.0
  0
LINE
  5
296
  8
DATA
  6
CONTINUOUS
 62
     7
 10
457.5
 20
-629.0
 30
0.0
 11
162.5
 21
-629.0
 31
0.0
  0
LINE
  5
297
  8
DATA
  6
CONTINUOUS
 62
     7
 10
457.5
 20
-171.0
 30
0.0
 11
457.5
 21
-629.0
 31
0.0
  0
LINE
  5
298
  8
DATA
  6
CONTINUOUS
 62
     7
 10
162.5
 20
-171.0
 30
0.0
 11
457.5
 21
-171.0
 31
0.0
  0
LINE
  5
299
  8
DATA
  6
CONTINUOUS
 62
     7
 10
-613.49999999999989
 20
607.5
 30
0.0
 11
-601.5
 21
607.5
 31
0.0
  0
ARC
  5
29A
  8
DATA
  6
CONTINUOUS
 62
     7
 10
-607.5
 20
608.49999999999989
 30
0.0
 40
1.500000000000008
 50
66.26135911188112
 51
113.73864088811889
  0
LINE
  5
29B
  8
DATA
  6
CONTINUOUS
 62
     7
 10
-601.5
 20
607.5
 30
0.0
 11
-606.89615217319158
 21
609.87308696085086
 31
0.0
  0
LINE
  5
29C
  8
DATA
  6
CONTINUOUS
 62
     7
 10
-613.49999999999989
 20
607.5
 30
0.0
 11
-608.10384782680842
 21
609.87308696085086
 31
0.0
  0
LINE
  5
29D
  8
DATA
  6
CONTINUOUS
 62
     7
 10
-479.0
 20
607.5
 30
0.0
 11
-467.0
 21
607.5
 31
0.0
  0
ARC
  5
29E
  8
DATA
  6
CONTINUOUS
 62
     7
 10
-473.0
 20
608.49999999999989
 30
0.0
 40
1.500000000000008
 50
66.26135911188112
 51
113.73864088811889
  0
LINE
  5
29F
  8
DATA
  6
CONTINUOUS
 62
     7
 10
-467.0
 20
607.5
 30
0.0
 11
-472.39615217319141
 21
609.87308696085086
 31
0.0
  0
LINE
  5
2A0
  8
DATA
  6
CONTINUOUS
 62
     7
 10
-479.0
 20
607.5
 30
0.0
 11
-473.60384782680842
 21
609.87308696085086
 31
0.0
  0
LINE
  5
2A1
  8
DATA
  6
CONTINUOUS
 62
     7
 10
-344.5
 20
607.5
 30
0.0
 11
-332.5
 21
607.5
 31
0.0
  0
ARC
  5
2A2
  8
DATA
  6
CONTINUOUS
 62
     7
 10
-338.5
 20
608.49999999999989
 30
0.0
 40
1.500000000000008
 50
66.26135911188112
 51
113.73864088811889
  0
LINE
  5
2A3
  8
DATA
  6
CONTINUOUS
 62
     7
 10
-332.5
 20
607.5
 30
0.0
 11
-337.89615217319152
 21
609.87308696085086
 31
0.0
  0
LINE
  5
2A4
  8
DATA
  6
CONTINUOUS
 62
     7
 10
-344.5
 20
607.5
 30
0.0
 11
-339.10384782680859
 21
609.87308696085086
 31
0.0
  0
LINE
  5
2A5
  8
DATA
  6
CONTINUOUS
 62
     7
 10
-210.00000000000011
 20
607.5
 30
0.0
 11
-198.00000000000011
 21
607.5
 31
0.0
  0
ARC
  5
2A6
  8
DATA
  6
CONTINUOUS
 62
     7
 10
-204.00000000000011
 20
608.49999999999989
 30
0.0
 40
1.500000000000008
 50
66.26135911188112
 51
113.73864088811889
  0
LINE
  5
2A7
  8
DATA
  6
CONTINUOUS
 62
     7
 10
-198.00000000000011
 20
607.5
 30
0.0
 11
-203.39615217319161
 21
609.87308696085086
 31
0.0
  0
LINE
  5
2A8
  8
DATA
  6
CONTINUOUS
 62
     7
 10
-210.00000000000011
 20
607.5
 30
0.0
 11
-204.60384782680859
 21
609.87308696085086
 31
0.0
  0
LINE
  5
2A9
  8
DATA
  6
CONTINUOUS
 62
     7
 10
-420.75
 20
607.5
 30
0.0
 11
-420.75
 21
608.49999999999989
 31
0.0
  0
LINE
  5
2AA
  8
DATA
  6
CONTINUOUS
 62
     7
 10
-390.75
 20
608.49999999999989
 30
0.0
 11
-390.75
 21
607.5
 31
0.0
  0
LINE
  5
2AB
  8
DATA
  6
CONTINUOUS
 62
     7
 10
-390.75
 20
608.49999999999989
 30
0.0
 11
-420.75
 21
608.49999999999989
 31
0.0
  0
LINE
  5
2AC
  8
DATA
  6
CONTINUOUS
 62
     7
 10
137.5
 20
-220.9115227948833
 30
0.0
 11
137.5
 21
-579.08847720511676
 31
0.0
  0
LINE
  5
2AD
  8
DATA
  6
CONTINUOUS
 62
     7
 10
136.5
 20
-236.75
 30
0.0
 11
137.5
 21
-236.75
 31
0.0
  0
LINE
  5
2AE
  8
DATA
  6
CONTINUOUS
 62
     7
 10
135.5
 20
-227.5
 30
0.0
 11
135.5
 21
-572.5
 31
0.0
  0
LINE
  5
2AF
  8
DATA
  6
CONTINUOUS
 62
     7
 10
136.5
 20
-227.5
 30
0.0
 11
135.5
 21
-227.5
 31
0.0
  0
LINE
  5
2B0
  8
DATA
  6
CONTINUOUS
 62
     7
 10
136.5
 20
-236.75
 30
0.0
 11
136.5
 21
-220.82401726826811
 31
0.0
  0
LINE
  5
2B1
  8
DATA
  6
CONTINUOUS
 62
     7
 10
140.14256433814469
 20
-217.93289227942259
 30
0.0
 11
150.0
 21
-216.75
 31
0.0
  0
ARC
  5
2B2
  8
DATA
  6
CONTINUOUS
 62
     7
 10
140.5
 20
-220.9115227948833
 30
0.0
 40
2.999999999999976
 50
96.842773412631814
 51
180.0
  0
ARC
  5
2B3
  8
DATA
  6
CONTINUOUS
 62
     7
 10
140.5
 20
-220.82401726826811
 30
0.0
 40
4.0000000000000471
 50
96.34019174590992
 51
180.0
  0
LINE
  5
2B4
  8
DATA
  6
CONTINUOUS
 62
     7
 10
144.0
 20
-216.3243006024195
 30
0.0
 11
140.16870542177551
 21
-216.75
 31
0.0
  0
LINE
  5
2B5
  8
DATA
  6
CONTINUOUS
 62
     7
 10
144.0
 20
-216.3243006024195
 30
0.0
 11
144.0
 21
-217.4166666666668
 31
0.0
  0
ARC
  5
2B6
  8
DATA
  6
CONTINUOUS
 62
     7
 10
152.59807621135329
 20
-181.25
 30
0.0
 40
5.1961524227066596
 50
120.0000000000005
 51
239.99999999999949
  0
LINE
  5
2B7
  8
DATA
  6
CONTINUOUS
 62
     7
 10
-221.25
 20
-236.75
 30
0.0
 11
-232.25
 21
-236.75
 31
0.0
  0
LINE
  5
2B8
  8
DATA
  6
CONTINUOUS
 62
     7
 10
-579.25
 20
-236.75
 30
0.0
 11
-590.24999999999989
 21
-236.75
 31
0.0
  0
LINE
  5
2B9
  8
DATA
  6
CONTINUOUS
 62
     7
 10
-221.25
 20
-563.25
 30
0.0
 11
-232.25
 21
-563.25
 31
0.0
  0
LINE
  5
2BA
  8
DATA
  6
CONTINUOUS
 62
     7
 10
-579.25
 20
-563.25
 30
0.0
 11
-590.24999999999989
 21
-563.25
 31
0.0
  0
LINE
  5
2BB
  8
DATA
  6
CONTINUOUS
 62
     7
 10
136.5
 20
-563.25
 30
0.0
 11
137.5
 21
-563.25
 31
0.0
  0
LINE
  5
2BC
  8
DATA
  6
CONTINUOUS
 62
     7
 10
136.5
 20
-572.5
 30
0.0
 11
135.5
 21
-572.5
 31
0.0
  0
LINE
  5
2BD
  8
DATA
  6
CONTINUOUS
 62
     7
 10
136.5
 20
-563.25
 30
0.0
 11
136.5
 21
-579.17598273173189
 31
0.0
  0
LINE
  5
2BE
  8
DATA
  6
CONTINUOUS
 62
     7
 10
140.14256433814469
 20
-582.0671077205775
 30
0.0
 11
150.0
 21
-583.25
 31
0.0
  0
ARC
  5
2BF
  8
DATA
  6
CONTINUOUS
 62
     7
 10
140.5
 20
-579.08847720511676
 30
0.0
 40
3.0
 50
180.0
 51
263.1572265873682
  0
ARC
  5
2C0
  8
DATA
  6
CONTINUOUS
 62
     7
 10
140.5
 20
-579.17598273173189
 30
0.0
 40
4.0
 50
180.0
 51
263.65980825409031
  0
LINE
  5
2C1
  8
DATA
  6
CONTINUOUS
 62
     7
 10
144.0
 20
-583.6756993975805
 30
0.0
 11
140.16870542177551
 21
-583.25
 31
0.0
  0
LINE
  5
2C2
  8
DATA
  6
CONTINUOUS
 62
     7
 10
144.0
 20
-583.6756993975805
 30
0.0
 11
144.0
 21
-582.58333333333314
 31
0.0
  0
ARC
  5
2C3
  8
DATA
  6
CONTINUOUS
 62
     7
 10
152.59807621135329
 20
-287.75
 30
0.0
 40
5.1961524227066596
 50
120.0000000000005
 51
239.99999999999949
  0
ARC
  5
2C4
  8
DATA
  6
CONTINUOUS
 62
     7
 10
152.59807621135329
 20
-512.25
 30
0.0
 40
5.1961524227066596
 50
120.0000000000005
 51
239.99999999999949
  0
ARC
  5
2C5
  8
DATA
  6
CONTINUOUS
 62
     7
 10
152.59807621135329
 20
-618.75
 30
0.0
 40
5.1961524227066596
 50
120.0000000000005
 51
239.99999999999949
  0
LINE
  5
2C6
  8
DATA
  6
CONTINUOUS
 62
     7
 10
162.5
 20
-186.0
 30
0.0
 11
442.49999999999989
 21
-186.0
 31
0.0
  0
LINE
  5
2C7
  8
DATA
  6
CONTINUOUS
 62
     7
 10
442.49999999999989
 20
-614.0
 30
0.0
 11
162.5
 21
-614.0
 31
0.0
  0
LINE
  5
2C8
  8
DATA
  6
CONTINUOUS
 62
     7
 10
442.49999999999989
 20
-186.0
 30
0.0
 11
442.49999999999989
 21
-614.0
 31
0.0
  0
LINE
  5
2C9
  8
DATA
  6
CONTINUOUS
 62
     7
 10
174.5
 20
-146.99255213009849
 30
0.0
 11
213.90000000000001
 21
-146.99255213009849
 31
0.0
  0
LINE
  5
2CA
  8
DATA
  6
CONTINUOUS
 62
     7
 10
169.5
 20
-151.99255213009849
 30
0.0
 11
169.5
 21
-171.0
 31
0.0
  0
ARC
  5
2CB
  8
DATA
  6
CONTINUOUS
 62
     7
 10
174.5
 20
-151.99255213009849
 30
0.0
 40
5.0
 50
90.0
 51
180.0
  0
ARC
  5
2CC
  8
DATA
  6
CONTINUOUS
 62
     7
 10
213.90000000000001
 20
-151.99255213009849
 30
0.0
 40
5.0
 50
0.0
 51
90.0
  0
LINE
  5
2CD
  8
DATA
  6
CONTINUOUS
 62
     7
 10
205.69999999999959
 20
-160.0
 30
0.0
 11
183.5
 21
-160.0
 31
0.0
  0
LINE
  5
2CE
  8
DATA
  6
CONTINUOUS
 62
     7
 10
183.5
 20
-154.0
 30
0.0
 11
205.69999999999959
 21
-154.0
 31
0.0
  0
LINE
  5
2CF
  8
DATA
  6
CONTINUOUS
 62
     7
 10
205.69999999999959
 20
-160.0
 30
0.0
 11
183.5
 21
-160.0
 31
0.0
  0
LINE
  5
2D0
  8
DATA
  6
CONTINUOUS
 62
     7
 10
183.5
 20
-154.0
 30
0.0
 11
205.5
 21
-154.0
 31
0.0
  0
ARC
  5
2D1
  8
DATA
  6
CONTINUOUS
 62
     7
 10
205.5
 20
-157.0
 30
0.0
 40
3.0
 50
270.0
 51
90.0
  0
ARC
  5
2D2
  8
DATA
  6
CONTINUOUS
 62
     7
 10
183.5
 20
-157.0
 30
0.0
 40
3.0
 50
90.0
 51
270.0
  0
LINE
  5
2D3
  8
DATA
  6
CONTINUOUS
 62
     7
 10
218.90000000000001
 20
-151.99255213009849
 30
0.0
 11
218.90000000000001
 21
-171.0
 31
0.0
  0
LINE
  5
2D4
  8
DATA
  6
CONTINUOUS
 62
     7
 10
174.5
 20
-653.00744786990163
 30
0.0
 11
213.90000000000001
 21
-653.00744786990163
 31
0.0
  0
LINE
  5
2D5
  8
DATA
  6
CONTINUOUS
 62
     7
 10
169.5
 20
-648.00744786990163
 30
0.0
 11
169.5
 21
-629.0
 31
0.0
  0
ARC
  5
2D6
  8
DATA
  6
CONTINUOUS
 62
     7
 10
174.5
 20
-648.00744786990163
 30
0.0
 40
5.0
 50
180.0
 51
270.0
  0
ARC
  5
2D7
  8
DATA
  6
CONTINUOUS
 62
     7
 10
213.90000000000001
 20
-648.00744786990163
 30
0.0
 40
5.0
 50
270.0
 51
0.0
  0
LINE
  5
2D8
  8
DATA
  6
CONTINUOUS
 62
     7
 10
205.69999999999959
 20
-640.0
 30
0.0
 11
183.5
 21
-640.0
 31
0.0
  0
LINE
  5
2D9
  8
DATA
  6
CONTINUOUS
 62
     7
 10
183.5
 20
-646.0
 30
0.0
 11
205.69999999999959
 21
-646.0
 31
0.0
  0
LINE
  5
2DA
  8
DATA
  6
CONTINUOUS
 62
     7
 10
205.69999999999959
 20
-640.0
 30
0.0
 11
183.5
 21
-640.0
 31
0.0
  0
LINE
  5
2DB
  8
DATA
  6
CONTINUOUS
 62
     7
 10
183.5
 20
-646.0
 30
0.0
 11
205.5
 21
-646.0
 31
0.0
  0
ARC
  5
2DC
  8
DATA
  6
CONTINUOUS
 62
     7
 10
205.5
 20
-643.0
 30
0.0
 40
3.0
 50
270.0
 51
90.0
  0
ARC
  5
2DD
  8
DATA
  6
CONTINUOUS
 62
     7
 10
183.5
 20
-643.0
 30
0.0
 40
3.0
 50
90.0
 51
270.0
  0
LINE
  5
2DE
  8
DATA
  6
CONTINUOUS
 62
     7
 10
218.90000000000001
 20
-648.00744786990163
 30
0.0
 11
218.90000000000001
 21
-629.0
 31
0.0
  0
LINE
  5
2DF
  8
DATA
  6
CONTINUOUS
 62
     7
 10
755.75
 20
-631.5
 30
0.0
 11
755.75
 21
-168.5
 31
0.0
  0
LINE
  5
2E0
  8
DATA
  6
CONTINUOUS
 62
     7
 10
1344.25
 20
-631.5
 30
0.0
 11
1340.0
 21
-631.5
 31
0.0
  0
LINE
  5
2E1
  8
DATA
  6
CONTINUOUS
 62
     7
 10
1337.99999235729
 20
-631.5
 30
0.0
 11
762.0
 21
-631.5
 31
0.0
  0
LINE
  5
2E2
  8
DATA
  6
CONTINUOUS
 62
     7
 10
760.0
 20
-631.5
 30
0.0
 11
755.75
 21
-631.5
 31
0.0
  0
LINE
  5
2E3
  8
DATA
  6
CONTINUOUS
 62
     7
 10
1344.25
 20
-168.5
 30
0.0
 11
1344.25
 21
-631.5
 31
0.0
  0
LINE
  5
2E4
  8
DATA
  6
CONTINUOUS
 62
     7
 10
755.75
 20
-168.5
 30
0.0
 11
760.0
 21
-168.5
 31
0.0
  0
LINE
  5
2E5
  8
DATA
  6
CONTINUOUS
 62
     7
 10
762.0
 20
-168.5
 30
0.0
 11
1337.99999235729
 21
-168.5
 31
0.0
  0
LINE
  5
2E6
  8
DATA
  6
CONTINUOUS
 62
     7
 10
1340.0
 20
-168.5
 30
0.0
 11
1344.25
 21
-168.5
 31
0.0
  0
POLYLINE
  5
2E7
  8
DATA
  6
CONTINUOUS
 62
     7
 66
     1
 10
0.0
 20
0.0
 30
0.0
 70
     1
  0
VERTEX
  5
3E9
  8
DATA
  6
CONTINUOUS
 62
     7
 10
758.25
 20
-171.0
 30
0.0
  0
VERTEX
  5
3EA
  8
DATA
  6
CONTINUOUS
 62
     7
 10
1341.75
 20
-171.0
 30
0.0
  0
VERTEX
  5
3EB
  8
DATA
  6
CONTINUOUS
 62
     7
 10
1341.75
 20
-629.0
 30
0.0
  0
VERTEX
  5
3EC
  8
DATA
  6
CONTINUOUS
 62
     7
 10
758.25
 20
-629.0
 30
0.0
  0
SEQEND
  5
3ED
  8
DATA
  6
CONTINUOUS
 62
     7
  0
LINE
  5
2EE
  8
DATA
  6
CONTINUOUS
 62
     7
 10
848.24999999999989
 20
-193.0
 30
0.0
 11
848.24999999999989
 21
-607.0
 31
0.0
  0
LINE
  5
2EF
  8
DATA
  6
CONTINUOUS
 62
     7
 10
842.24999999999989
 20
-193.0
 30
0.0
 11
842.24999999999989
 21
-607.0
 31
0.0
  0
LINE
  5
2F0
  8
DATA
  6
CONTINUOUS
 62
     7
 10
854.25
 20
-193.0
 30
0.0
 11
854.25
 21
-607.0
 31
0.0
  0
ARC
  5
2F1
  8
DATA
  6
CONTINUOUS
 62
     7
 10
848.24999999999989
 20
-193.0
 30
0.0
 40
6.0
 50
0.0
 51
180.0
  0
ARC
  5
2F2
  8
DATA
  6
CONTINUOUS
 62
     7
 10
848.24999999999989
 20
-607.0
 30
0.0
 40
6.0
 50
180.0
 51
0.0
  0
LINE
  5
2F3
  8
DATA
  6
CONTINUOUS
 62
     7
 10
982.75
 20
-193.0
 30
0.0
 11
982.75
 21
-607.0
 31
0.0
  0
LINE
  5
2F4
  8
DATA
  6
CONTINUOUS
 62
     7
 10
976.75
 20
-193.0
 30
0.0
 11
976.75
 21
-607.0
 31
0.0
  0
LINE
  5
2F5
  8
DATA
  6
CONTINUOUS
 62
     7
 10
988.75000000000011
 20
-193.0
 30
0.0
 11
988.75000000000011
 21
-607.0
 31
0.0
  0
ARC
  5
2F6
  8
DATA
  6
CONTINUOUS
 62
     7
 10
982.75
 20
-193.0
 30
0.0
 40
6.0
 50
0.0
 51
180.0
  0
ARC
  5
2F7
  8
DATA
  6
CONTINUOUS
 62
     7
 10
982.75
 20
-607.0
 30
0.0
 40
6.0
 50
180.0
 51
0.0
  0
LINE
  5
2F8
  8
DATA
  6
CONTINUOUS
 62
     7
 10
1117.25
 20
-193.0
 30
0.0
 11
1117.25
 21
-607.0
 31
0.0
  0
LINE
  5
2F9
  8
DATA
  6
CONTINUOUS
 62
     7
 10
1111.25
 20
-193.0
 30
0.0
 11
1111.25
 21
-607.0
 31
0.0
  0
LINE
  5
2FA
  8
DATA
  6
CONTINUOUS
 62
     7
 10
1123.25
 20
-193.0
 30
0.0
 11
1123.25
 21
-607.0
 31
0.0
  0
ARC
  5
2FB
  8
DATA
  6
CONTINUOUS
 62
     7
 10
1117.25
 20
-193.0
 30
0.0
 40
6.0
 50
0.0
 51
180.0
  0
ARC
  5
2FC
  8
DATA
  6
CONTINUOUS
 62
     7
 10
1117.25
 20
-607.0
 30
0.0
 40
6.0
 50
180.0
 51
0.0
  0
LINE
  5
2FD
  8
DATA
  6
CONTINUOUS
 62
     7
 10
1251.75
 20
-193.0
 30
0.0
 11
1251.75
 21
-607.0
 31
0.0
  0
LINE
  5
2FE
  8
DATA
  6
CONTINUOUS
 62
     7
 10
1245.75
 20
-193.0
 30
0.0
 11
1245.75
 21
-607.0
 31
0.0
  0
LINE
  5
2FF
  8
DATA
  6
CONTINUOUS
 62
     7
 10
1257.75
 20
-193.0
 30
0.0
 11
1257.75
 21
-607.0
 31
0.0
  0
ARC
  5
300
  8
DATA
  6
CONTINUOUS
 62
     7
 10
1251.75
 20
-193.0
 30
0.0
 40
6.0
 50
0.0
 51
180.0
  0
ARC
  5
301
  8
DATA
  6
CONTINUOUS
 62
     7
 10
1251.75
 20
-607.0
 30
0.0
 40
6.0
 50
180.0
 51
0.0
  0
CIRCLE
  5
302
  8
DATA
  6
CONTINUOUS
 62
     7
 10
1050.0
 20
-400.0
 30
0.0
 40
10.5
  0
CIRCLE
  5
303
  8
DATA
  6
CONTINUOUS
 62
     7
 10
1050.0
 20
-400.0
 30
0.0
 40
15.0
  0
CIRCLE
  5
304
  8
DATA
  6
CONTINUOUS
 62
     7
 10
190.0
 20
-247.5
 30
0.0
 40
3.75
  0
LINE
  5
305
  8
DATA
  6
CONTINUOUS
 62
     7
 10
192.0
 20
-247.5
 30
0.0
 11
188.0
 21
-247.5
 31
0.0
  0
LINE
  5
306
  8
DATA
  6
CONTINUOUS
 62
     7
 10
190.0
 20
-245.5
 30
0.0
 11
190.0
 21
-249.5
 31
0.0
  0
CIRCLE
  5
307
  8
DATA
  6
CONTINUOUS
 62
     7
 10
418.5
 20
-247.5
 30
0.0
 40
3.75
  0
LINE
  5
308
  8
DATA
  6
CONTINUOUS
 62
     7
 10
420.5
 20
-247.5
 30
0.0
 11
416.5
 21
-247.5
 31
0.0
  0
LINE
  5
309
  8
DATA
  6
CONTINUOUS
 62
     7
 10
418.5
 20
-245.5
 30
0.0
 11
418.5
 21
-249.5
 31
0.0
  0
CIRCLE
  5
30A
  8
DATA
  6
CONTINUOUS
 62
     7
 10
190.0
 20
-552.5
 30
0.0
 40
3.75
  0
LINE
  5
30B
  8
DATA
  6
CONTINUOUS
 62
     7
 10
192.0
 20
-552.5
 30
0.0
 11
188.0
 21
-552.5
 31
0.0
  0
LINE
  5
30C
  8
DATA
  6
CONTINUOUS
 62
     7
 10
190.0
 20
-550.49999999999989
 30
0.0
 11
190.0
 21
-554.49999999999989
 31
0.0
  0
CIRCLE
  5
30D
  8
DATA
  6
CONTINUOUS
 62
     7
 10
418.5
 20
-552.5
 30
0.0
 40
3.75
  0
LINE
  5
30E
  8
DATA
  6
CONTINUOUS
 62
     7
 10
420.5
 20
-552.5
 30
0.0
 11
416.5
 21
-552.5
 31
0.0
  0
LINE
  5
30F
  8
DATA
  6
CONTINUOUS
 62
     7
 10
418.5
 20
-550.49999999999989
 30
0.0
 11
418.5
 21
-554.49999999999989
 31
0.0
  0
CIRCLE
  5
310
  8
DATA
  6
CONTINUOUS
 62
     7
 10
304.25
 20
-400.0
 30
0.0
 40
3.75
  0
LINE
  5
311
  8
DATA
  6
CONTINUOUS
 62
     7
 10
306.25
 20
-400.0
 30
0.0
 11
302.25
 21
-400.0
 31
0.0
  0
LINE
  5
312
  8
DATA
  6
CONTINUOUS
 62
     7
 10
304.25
 20
-398.0
 30
0.0
 11
304.25
 21
-402.0
 31
0.0
  0
CIRCLE
  5
313
  8
DATA
  6
CONTINUOUS
 62
     7
 10
326.0
 20
-498.5
 30
0.0
 40
10.5
  0
CIRCLE
  5
314
  8
DATA
  6
CONTINUOUS
 62
     7
 10
326.0
 20
-498.5
 30
0.0
 40
15.0
  0
CIRCLE
  5
315
  8
DATA
  6
CONTINUOUS
 62
     7
 10
885.25
 20
-209.5
 30
0.0
 40
3.75
  0
LINE
  5
316
  8
DATA
  6
CONTINUOUS
 62
     7
 10
887.25
 20
-209.5
 30
0.0
 11
883.24999999999989
 21
-209.5
 31
0.0
  0
LINE
  5
317
  8
DATA
  6
CONTINUOUS
 62
     7
 10
885.25
 20
-207.5
 30
0.0
 11
885.25
 21
-211.5
 31
0.0
  0
CIRCLE
  5
318
  8
DATA
  6
CONTINUOUS
 62
     7
 10
1290.25
 20
-209.5
 30
0.0
 40
3.75
  0
LINE
  5
319
  8
DATA
  6
CONTINUOUS
 62
     7
 10
1292.25
 20
-209.5
 30
0.0
 11
1288.25
 21
-209.5
 31
0.0
  0
LINE
  5
31A
  8
DATA
  6
CONTINUOUS
 62
     7
 10
1290.25
 20
-207.5
 30
0.0
 11
1290.25
 21
-211.5
 31
0.0
  0
CIRCLE
  5
31B
  8
DATA
  6
CONTINUOUS
 62
     7
 10
1290.25
 20
-514.0
 30
0.0
 40
3.75
  0
LINE
  5
31C
  8
DATA
  6
CONTINUOUS
 62
     7
 10
1292.25
 20
-514.0
 30
0.0
 11
1288.25
 21
-514.0
 31
0.0
  0
LINE
  5
31D
  8
DATA
  6
CONTINUOUS
 62
     7
 10
1290.25
 20
-512.0
 30
0.0
 11
1290.25
 21
-516.0
 31
0.0
  0
CIRCLE
  5
31E
  8
DATA
  6
CONTINUOUS
 62
     7
 10
809.75
 20
-286.0
 30
0.0
 40
3.75
  0
LINE
  5
31F
  8
DATA
  6
CONTINUOUS
 62
     7
 10
811.74999999999989
 20
-286.0
 30
0.0
 11
807.75
 21
-286.0
 31
0.0
  0
LINE
  5
320
  8
DATA
  6
CONTINUOUS
 62
     7
 10
809.75
 20
-284.0
 30
0.0
 11
809.75
 21
-288.0
 31
0.0
  0
CIRCLE
  5
321
  8
DATA
  6
CONTINUOUS
 62
     7
 10
809.75
 20
-590.5
 30
0.0
 40
3.75
  0
LINE
  5
322
  8
DATA
  6
CONTINUOUS
 62
     7
 10
811.74999999999989
 20
-590.5
 30
0.0
 11
807.75
 21
-590.5
 31
0.0
  0
LINE
  5
323
  8
DATA
  6
CONTINUOUS
 62
     7
 10
809.75
 20
-588.49999999999989
 30
0.0
 11
809.75
 21
-592.49999999999989
 31
0.0
  0
CIRCLE
  5
324
  8
DATA
  6
CONTINUOUS
 62
     7
 10
1214.75
 20
-590.5
 30
0.0
 40
3.75
  0
LINE
  5
325
  8
DATA
  6
CONTINUOUS
 62
     7
 10
1216.75
 20
-590.5
 30
0.0
 11
1212.75
 21
-590.5
 31
0.0
  0
LINE
  5
326
  8
DATA
  6
CONTINUOUS
 62
     7
 10
1214.75
 20
-588.49999999999989
 30
0.0
 11
1214.75
 21
-592.49999999999989
 31
0.0
  0
LINE
  5
327
  8
DATA
  6
CONTINUOUS
 62
     7
 10
460.0
 20
-193.0
 30
0.0
 11
460.0
 21
-607.0
 31
0.0
  0
LINE
  5
328
  8
DATA
  6
CONTINUOUS
 62
     7
 10
460.0
 20
-193.0
 30
0.0
 11
457.5
 21
-187.0
 31
0.0
  0
LINE
  5
329
  8
DATA
  6
CONTINUOUS
 62
     7
 10
460.0
 20
-607.0
 30
0.0
 11
457.5
 21
-613.0
 31
0.0
  0
ARC
  5
32A
  8
DATA
  6
CONTINUOUS
 62
     7
 10
455.93750000000011
 20
-286.0
 30
0.0
 40
4.0624999999999769
 50
292.61986494803972
 51
67.380135051960309
  0
ARC
  5
32B
  8
DATA
  6
CONTINUOUS
 62
     7
 10
455.93750000000011
 20
-590.5
 30
0.0
 40
4.0624999999999769
 50
292.61986494803972
 51
67.380135051960309
  0
LINE
  5
32C
  8
DATA
  6
CONTINUOUS
 62
     7
 10
317.0
 20
-171.0
 30
0.0
 11
317.0
 21
-170.0
 31
0.0
  0
LINE
  5
32D
  8
DATA
  6
CONTINUOUS
 62
     7
 10
347.0
 20
-170.0
 30
0.0
 11
347.0
 21
-171.0
 31
0.0
  0
LINE
  5
32E
  8
DATA
  6
CONTINUOUS
 62
     7
 10
347.0
 20
-170.0
 30
0.0
 11
317.0
 21
-170.0
 31
0.0
  0
ARC
  5
32F
  8
DATA
  6
CONTINUOUS
 62
     7
 10
422.0
 20
-172.5625
 30
0.0
 40
4.0625
 50
22.61986494804043
 51
157.3801350519596
  0
LINE
  5
330
  8
DATA
  6
CONTINUOUS
 62
     7
 10
317.0
 20
-629.0
 30
0.0
 11
317.0
 21
-630.0
 31
0.0
  0
LINE
  5
331
  8
DATA
  6
CONTINUOUS
 62
     7
 10
347.0
 20
-630.0
 30
0.0
 11
347.0
 21
-629.0
 31
0.0
  0
LINE
  5
332
  8
DATA
  6
CONTINUOUS
 62
     7
 10
347.0
 20
-630.0
 30
0.0
 11
317.0
 21
-630.0
 31
0.0
  0
ARC
  5
333
  8
DATA
  6
CONTINUOUS
 62
     7
 10
422.0
 20
-627.4375
 30
0.0
 40
4.0625
 50
202.6198649480404
 51
337.3801350519596
  0
POLYLINE
  5
334
  8
DATA
  6
STYLE_01
 62
     7
 66
     1
 10
0.0
 20
0.0
 30
0.0
 70
     1
  0
VERTEX
  5
3EE
  8
DATA
  6
STYLE_01
 62
     7
 10
-697.5
 20
-171.0
 30
0.0
  0
VERTEX
  5
3EF
  8
DATA
  6
STYLE_01
 62
     7
 10
-114.0
 20
-171.0
 30
0.0
  0
VERTEX
  5
3F0
  8
DATA
  6
STYLE_01
 62
     7
 10
-114.0
 20
-629.0
 30
0.0
  0
VERTEX
  5
3F1
  8
DATA
  6
STYLE_01
 62
     7
 10
-697.5
 20
-629.0
 30
0.0
  0
SEQEND
  5
3F2
  8
DATA
  6
STYLE_01
 62
     7
  0
LINE
  5
33B
  8
DATA
  6
CONTINUOUS
 62
     7
 10
869.74999999999989
 20
-171.0
 30
0.0
 11
869.74999999999989
 21
-170.0
 31
0.0
  0
LINE
  5
33C
  8
DATA
  6
CONTINUOUS
 62
     7
 10
899.75
 20
-170.0
 30
0.0
 11
899.75
 21
-171.0
 31
0.0
  0
LINE
  5
33D
  8
DATA
  6
CONTINUOUS
 62
     7
 10
899.75
 20
-170.0
 30
0.0
 11
869.74999999999989
 21
-170.0
 31
0.0
  0
ARC
  5
33E
  8
DATA
  6
CONTINUOUS
 62
     7
 10
821.74999999999989
 20
-172.5625
 30
0.0
 40
4.0625
 50
22.61986494804043
 51
157.3801350519596
  0
ARC
  5
33F
  8
DATA
  6
CONTINUOUS
 62
     7
 10
1050.0
 20
-172.5625
 30
0.0
 40
4.0625
 50
22.61986494804043
 51
157.3801350519596
  0
ARC
  5
340
  8
DATA
  6
CONTINUOUS
 62
     7
 10
1278.25
 20
-172.5625
 30
0.0
 40
4.0625
 50
22.61986494804043
 51
157.3801350519596
  0
LINE
  5
341
  8
DATA
  6
CONTINUOUS
 62
     7
 10
758.25
 20
-483.49999999999989
 30
0.0
 11
757.24999999999989
 21
-483.49999999999989
 31
0.0
  0
LINE
  5
342
  8
DATA
  6
CONTINUOUS
 62
     7
 10
757.24999999999989
 20
-513.49999999999989
 30
0.0
 11
758.25
 21
-513.49999999999989
 31
0.0
  0
LINE
  5
343
  8
DATA
  6
CONTINUOUS
 62
     7
 10
757.24999999999989
 20
-513.49999999999989
 30
0.0
 11
757.24999999999989
 21
-483.49999999999989
 31
0.0
  0
ARC
  5
344
  8
DATA
  6
CONTINUOUS
 62
     7
 10
759.8125
 20
-247.5
 30
0.0
 40
4.0625
 50
112.6198649480404
 51
247.3801350519596
  0
ARC
  5
345
  8
DATA
  6
CONTINUOUS
 62
     7
 10
759.8125
 20
-552.5
 30
0.0
 40
4.0625
 50
112.6198649480404
 51
247.3801350519596
  0
LINE
  5
346
  8
DATA
  6
CONTINUOUS
 62
     7
 10
1341.75
 20
-316.5
 30
0.0
 11
1342.75
 21
-316.5
 31
0.0
  0
LINE
  5
347
  8
DATA
  6
CONTINUOUS
 62
     7
 10
1342.75
 20
-286.5
 30
0.0
 11
1341.75
 21
-286.5
 31
0.0
  0
LINE
  5
348
  8
DATA
  6
CONTINUOUS
 62
     7
 10
1342.75
 20
-286.5
 30
0.0
 11
1342.75
 21
-316.5
 31
0.0
  0
ARC
  5
349
  8
DATA
  6
CONTINUOUS
 62
     7
 10
1340.1875
 20
-247.5
 30
0.0
 40
4.0625
 50
292.61986494804052
 51
67.38013505195957
  0
ARC
  5
34A
  8
DATA
  6
CONTINUOUS
 62
     7
 10
1340.1875
 20
-552.5
 30
0.0
 40
4.0625
 50
292.61986494804052
 51
67.38013505195957
  0
LINE
  5
34B
  8
DATA
  6
CONTINUOUS
 62
     7
 10
869.74999999999989
 20
-629.0
 30
0.0
 11
869.74999999999989
 21
-630.0
 31
0.0
  0
LINE
  5
34C
  8
DATA
  6
CONTINUOUS
 62
     7
 10
899.75
 20
-630.0
 30
0.0
 11
899.75
 21
-629.0
 31
0.0
  0
LINE
  5
34D
  8
DATA
  6
CONTINUOUS
 62
     7
 10
899.75
 20
-630.0
 30
0.0
 11
869.74999999999989
 21
-630.0
 31
0.0
  0
ARC
  5
34E
  8
DATA
  6
CONTINUOUS
 62
     7
 10
821.74999999999989
 20
-627.4375
 30
0.0
 40
4.0625
 50
202.6198649480404
 51
337.3801350519596
  0
ARC
  5
34F
  8
DATA
  6
CONTINUOUS
 62
     7
 10
1050.0
 20
-627.4375
 30
0.0
 40
4.0625
 50
202.6198649480404
 51
337.3801350519596
  0
ARC
  5
350
  8
DATA
  6
CONTINUOUS
 62
     7
 10
1278.25
 20
-627.4375
 30
0.0
 40
4.0625
 50
202.6198649480404
 51
337.3801350519596
  0
LINE
  5
351
  8
DATA
  6
CONTINUOUS
 62
     7
 10
-114.0
 20
491.0
 30
0.0
 11
-113.0
 21
491.0
 31
0.0
  0
LINE
  5
352
  8
DATA
  6
CONTINUOUS
 62
     7
 10
-113.0
 20
461.0
 30
0.0
 11
-114.0
 21
461.0
 31
0.0
  0
LINE
  5
353
  8
DATA
  6
CONTINUOUS
 62
     7
 10
-113.0
 20
461.0
 30
0.0
 11
-113.0
 21
491.0
 31
0.0
  0
ARC
  5
354
  8
DATA
  6
CONTINUOUS
 62
     7
 10
-115.5625
 20
340.0
 30
0.0
 40
4.0625
 50
292.61986494804052
 51
67.38013505195957
  0
ARC
  5
355
  8
DATA
  6
CONTINUOUS
 62
     7
 10
-115.5625
 20
568.5
 30
0.0
 40
4.0625
 50
292.61986494804052
 51
67.38013505195957
  0
ARC
  5
356
  8
DATA
  6
CONTINUOUS
 62
     7
 10
-115.5625
 20
454.25
 30
0.0
 40
4.0625
 50
292.61986494804052
 51
67.38013505195957
  0
ARC
  5
357
  8
DATA
  6
CONTINUOUS
 62
     7
 10
-165.5
 20
605.9375
 30
0.0
 40
4.0625
 50
22.61986494804043
 51
157.3801350519596
  0
ARC
  5
358
  8
DATA
  6
CONTINUOUS
 62
     7
 10
-241.0
 20
605.9375
 30
0.0
 40
4.0625
 50
22.61986494804043
 51
157.3801350519596
  0
ARC
  5
359
  8
DATA
  6
CONTINUOUS
 62
     7
 10
-570.5
 20
605.9375
 30
0.0
 40
4.0625
 50
22.61986494804043
 51
157.3801350519596
  0
ARC
  5
35A
  8
DATA
  6
CONTINUOUS
 62
     7
 10
-646.0
 20
605.9375
 30
0.0
 40
4.0625
 50
22.61986494804043
 51
157.3801350519596
  0
LINE
  5
35B
  8
DATA
  6
CONTINUOUS
 62
     7
 10
-697.5
 20
491.0
 30
0.0
 11
-698.5
 21
491.0
 31
0.0
  0
LINE
  5
35C
  8
DATA
  6
CONTINUOUS
 62
     7
 10
-698.5
 20
461.0
 30
0.0
 11
-697.5
 21
461.0
 31
0.0
  0
LINE
  5
35D
  8
DATA
  6
CONTINUOUS
 62
     7
 10
-698.5
 20
461.0
 30
0.0
 11
-698.5
 21
491.0
 31
0.0
  0
ARC
  5
35E
  8
DATA
  6
CONTINUOUS
 62
     7
 10
-695.9375
 20
340.0
 30
0.0
 40
4.0625
 50
112.6198649480404
 51
247.3801350519596
  0
ARC
  5
35F
  8
DATA
  6
CONTINUOUS
 62
     7
 10
-695.9375
 20
568.5
 30
0.0
 40
4.0625
 50
112.6198649480404
 51
247.3801350519596
  0
ARC
  5
360
  8
DATA
  6
CONTINUOUS
 62
     7
 10
-695.9375
 20
454.25
 30
0.0
 40
4.0625
 50
112.6198649480404
 51
247.3801350519596
  0
ARC
  5
361
  8
DATA
  6
CONTINUOUS
 62
     7
 10
307.25
 20
-172.5625
 30
0.0
 40
4.0625
 50
22.61986494804043
 51
157.3801350519596
  0
CIRCLE
  5
362
  8
DATA
  6
STYLE_01
 62
     7
 10
-582.66100000000006
 20
-223.08900000000011
 30
0.0
 40
3.1000000000000218
  0
CIRCLE
  5
363
  8
DATA
  6
STYLE_01
 62
     7
 10
-228.83900000000011
 20
-223.08900000000011
 30
0.0
 40
3.1000000000000218
  0
CIRCLE
  5
364
  8
DATA
  6
STYLE_01
 62
     7
 10
-582.66100000000006
 20
-576.91100000000017
 30
0.0
 40
3.0999999999999082
  0
CIRCLE
  5
365
  8
DATA
  6
STYLE_01
 62
     7
 10
-228.83900000000011
 20
-576.91100000000017
 30
0.0
 40
3.0999999999999082
  0
CIRCLE
  5
366
  8
DATA
  6
CONTINUOUS
 62
     7
 10
-536.55999999999995
 20
-234.51900000000029
 30
0.0
 40
5.1499999999999764
  0
CIRCLE
  5
367
  8
DATA
  6
CONTINUOUS
 62
     7
 10
-274.94
 20
-234.51900000000029
 30
0.0
 40
5.1499999999999764
  0
CIRCLE
  5
368
  8
DATA
  6
CONTINUOUS
 62
     7
 10
-536.55999999999995
 20
-565.48100000000011
 30
0.0
 40
5.1499999999999764
  0
CIRCLE
  5
369
  8
DATA
  6
CONTINUOUS
 62
     7
 10
-274.94
 20
-565.48100000000011
 30
0.0
 40
5.1499999999999764
  0
CIRCLE
  5
36A
  8
DATA
  6
CONTINUOUS
 62
     7
 10
-571.23099999999999
 20
-400.0
 30
0.0
 40
5.1499999999999764
  0
CIRCLE
  5
36B
  8
DATA
  6
CONTINUOUS
 62
     7
 10
-240.26900000000001
 20
-400.0
 30
0.0
 40
5.1499999999999764
  0
TEXT
  5
36C
  8
DATA
 62
     7
 10
750.0
 20
-1512.755241707704
 30
0.0
 40
24.4326171875
  1
Control 321C/321CT/322C/322CT/312CS用
 41
0.75
 11
750.0
 21
-1488.322624520205
 31
0.0
 73
     3
  0
TEXT
  5
36D
  8
DATA
 62
     7
 10
750.0
 20
-1545.5550000000001
 30
0.0
 40
24.4326171875
  1
の3立方フィートの直方体バックカン
 41
0.75
 11
750.0
 21
-1521.1223828125001
 31
0.0
 73
     3
  0
LINE
  5
36E
  8
DATA
  6
CONTINUOUS
 62
     7
 10
1340.0
 20
-653.00744786990128
 30
0.0
 11
1340.0
 21
-629.0
 31
0.0
  0
LINE
  5
36F
  8
DATA
  6
CONTINUOUS
 62
     7
 10
762.0
 20
-629.0
 30
0.0
 11
762.0
 21
-653.00744786990128
 31
0.0
  0
LINE
  5
370
  8
DATA
  6
CONTINUOUS
 62
     7
 10
760.0
 20
-629.0
 30
0.0
 11
760.0
 21
-653.00744786990128
 31
0.0
  0
LINE
  5
371
  8
DATA
  6
CONTINUOUS
 62
     7
 10
1337.99999235729
 20
-653.00744786990128
 30
0.0
 11
1337.99999235729
 21
-629.0
 31
0.0
  0
LINE
  5
372
  8
DATA
  6
CONTINUOUS
 62
     7
 10
1340.0
 20
-653.00744786990128
 30
0.0
 11
1337.99999235729
 21
-653.00744786990128
 31
0.0
  0
LINE
  5
373
  8
DATA
  6
CONTINUOUS
 62
     7
 10
760.0
 20
-653.00744786990128
 30
0.0
 11
762.0
 21
-653.00744786990128
 31
0.0
  0
LINE
  5
374
  8
DATA
  6
CONTINUOUS
 62
     7
 10
1340.0
 20
-146.99255213009849
 30
0.0
 11
1340.0
 21
-171.0
 31
0.0
  0
LINE
  5
375
  8
DATA
  6
CONTINUOUS
 62
     7
 10
762.0
 20
-171.0
 30
0.0
 11
762.0
 21
-146.99255213009849
 31
0.0
  0
LINE
  5
376
  8
DATA
  6
CONTINUOUS
 62
     7
 10
760.0
 20
-171.0
 30
0.0
 11
760.0
 21
-146.99255213009849
 31
0.0
  0
LINE
  5
377
  8
DATA
  6
CONTINUOUS
 62
     7
 10
1337.99999235729
 20
-146.99255213009849
 30
0.0
 11
1337.99999235729
 21
-171.0
 31
0.0
  0
LINE
  5
378
  8
DATA
  6
CONTINUOUS
 62
     7
 10
1340.0
 20
-146.99255213009849
 30
0.0
 11
1337.99999235729
 21
-146.99255213009849
 31
0.0
  0
LINE
  5
379
  8
DATA
  6
CONTINUOUS
 62
     7
 10
760.0
 20
-146.99255213009849
 30
0.0
 11
762.0
 21
-146.99255213009849
 31
0.0
  0
ENDSEC
  0
EOF
