  0
SECTION
  2
HEADER
  9
$ACADVER
  1
AC1009
  9
$DWGCODEPAGE
  3
ansi_932
  9
$INSBASE
 10
0.0
 20
0.0
 30
0.0
  9
$EXTMIN
 10
-1800.0
 20
-2698.16840953125
 30
0.0
  9
$EXTMAX
 10
1800.0
 20
2667.104485
 30
0.0
  9
$LIMMIN
 10
0.0
 20
0.0
  9
$LIMMAX
 10
0.0
 20
0.0
  9
$ORTHOMODE
 70
     0
  9
$REGENMODE
 70
     1
  9
$FILLMODE
 70
     1
  9
$QTEXTMODE
 70
     0
  9
$MIRRTEXT
 70
     1
  9
$DRAGMODE
 70
     2
  9
$LTSCALE
 40
101.6
  9
$OSMODE
 70
    37
  9
$ATTMODE
 70
     1
  9
$TEXTSIZE
 40
0.0
  9
$TRACEWID
 40
1.0
  9
$TEXTSTYLE
  7
STANDARD
  9
$CLAYER
  8
DATA
  9
$CELTYPE
  6
BYLAYER
  9
$CECOLOR
 62
   256
  9
$DIMSCALE
 40
1.0
  9
$DIMASZ
 40
0.18
  9
$DIMEXO
 40
0.0625
  9
$DIMDLI
 40
0.38
  9
$DIMRND
 40
0.0
  9
$DIMDLE
 40
0.0
  9
$DIMEXE
 40
0.18
  9
$DIMTP
 40
0.0
  9
$DIMTM
 40
0.0
  9
$DIMTXT
 40
0.18
  9
$DIMCEN
 40
0.09
  9
$DIMTSZ
 40
0.0
  9
$DIMTOL
 70
     0
  9
$DIMLIM
 70
     0
  9
$DIMTIH
 70
     1
  9
$DIMTOH
 70
     1
  9
$DIMSE1
 70
     0
  9
$DIMSE2
 70
     0
  9
$DIMTAD
 70
     0
  9
$DIMZIN
 70
     0
  9
$DIMBLK
  1

  9
$DIMASO
 70
     1
  9
$DIMSHO
 70
     1
  9
$DIMPOST
  1

  9
$DIMAPOST
  1

  9
$DIMALT
 70
     0
  9
$DIMALTD
 70
     2
  9
$DIMALTF
 40
25.4
  9
$DIMLFAC
 40
1.0
  9
$DIMTOFL
 70
     0
  9
$DIMTVP
 40
0.0
  9
$DIMTIX
 70
     0
  9
$DIMSOXD
 70
     0
  9
$DIMSAH
 70
     0
  9
$DIMBLK1
  1

  9
$DIMBLK2
  1

  9
$DIMSTYLE
  2
STANDARD
  9
$DIMCLRD
 70
     0
  9
$DIMCLRE
 70
     0
  9
$DIMCLRT
 70
     0
  9
$DIMTFAC
 40
1.0
  9
$DIMGAP
 40
0.09
  9
$LUNITS
 70
     2
  9
$LUPREC
 70
     2
  9
$SKETCHINC
 40
0.1
  9
$FILLETRAD
 40
0.0
  9
$AUNITS
 70
     0
  9
$AUPREC
 70
     0
  9
$MENU
  1
acad
  9
$ELEVATION
 40
0.0
  9
$PELEVATION
 40
0.0
  9
$THICKNESS
 40
0.0
  9
$LIMCHECK
 70
     0
  9
$CHAMFERA
 40
0.0
  9
$CHAMFERB
 40
0.0
  9
$SKPOLY
 70
     0
  9
$TDCREATE
 40
2459256.665490949
  9
$TDUPDATE
 40
2459256.66628081
  9
$TDINDWG
 40
2459256.291281481
  9
$TDUSRTIMER
 40
0.0007905324
  9
$USRTIMER
 70
     1
  9
$ANGBASE
 50
0.0
  9
$ANGDIR
 70
     0
  9
$PDMODE
 70
     1
  9
$PDSIZE
 40
-2.0
  9
$PLINEWID
 40
0.0
  9
$COORDS
 70
     1
  9
$SPLFRAME
 70
     0
  9
$SPLINETYPE
 70
     6
  9
$SPLINESEGS
 70
     8
  9
$ATTDIA
 70
     1
  9
$ATTREQ
 70
     1
  9
$HANDLING
 70
     1
  9
$HANDSEED
  5
4F2
  9
$SURFTAB1
 70
     6
  9
$SURFTAB2
 70
     6
  9
$SURFTYPE
 70
     6
  9
$SURFU
 70
     6
  9
$SURFV
 70
     6
  9
$UCSNAME
  2

  9
$UCSORG
 10
0.0
 20
0.0
 30
0.0
  9
$UCSXDIR
 10
1.0
 20
0.0
 30
0.0
  9
$UCSYDIR
 10
0.0
 20
1.0
 30
0.0
  9
$PUCSNAME
  2

  9
$PUCSORG
 10
0.0
 20
0.0
 30
0.0
  9
$PUCSXDIR
 10
1.0
 20
0.0
 30
0.0
  9
$PUCSYDIR
 10
0.0
 20
1.0
 30
0.0
  9
$USERI1
 70
     0
  9
$USERI2
 70
     0
  9
$USERI3
 70
     0
  9
$USERI4
 70
     0
  9
$USERI5
 70
     0
  9
$USERR1
 40
0.0
  9
$USERR2
 40
0.0
  9
$USERR3
 40
0.0
  9
$USERR4
 40
0.0
  9
$USERR5
 40
0.0
  9
$WORLDVIEW
 70
     1
  9
$SHADEDGE
 70
     3
  9
$SHADEDIF
 70
    70
  9
$TILEMODE
 70
     1
  9
$MAXACTVP
 70
    64
  9
$PLIMCHECK
 70
     0
  9
$PEXTMIN
 10
1.000000000000000E+20
 20
1.000000000000000E+20
 30
1.000000000000000E+20
  9
$PEXTMAX
 10
-1.000000000000000E+20
 20
-1.000000000000000E+20
 30
-1.000000000000000E+20
  9
$PLIMMIN
 10
0.0
 20
0.0
  9
$PLIMMAX
 10
12.0
 20
9.0
  9
$UNITMODE
 70
     0
  9
$VISRETAIN
 70
     0
  9
$PLINEGEN
 70
     1
  9
$PSLTSCALE
 70
     0
  0
ENDSEC
  0
SECTION
  2
TABLES
  0
TABLE
  2
VPORT
 70
     1
  0
VPORT
  2
*ACTIVE
 70
     0
 10
0.0
 20
0.0
 11
1.0
 21
1.0
 12
0.0
 22
-3.531814999999824
 13
0.0
 23
0.0
 14
1.0
 24
1.0
 15
0.0
 25
0.0
 16
0.0
 26
0.0
 36
1.0
 17
0.0
 27
0.0
 37
0.0
 40
5341.272600000001
 41
2.794721407624633
 42
50.0
 43
0.0
 44
0.0
 50
0.0
 51
0.0
 71
     0
 72
  2000
 73
     1
 74
     1
 75
     0
 76
     0
 77
     0
 78
     0
  0
ENDTAB
  0
TABLE
  2
LTYPE
 70
    12
  0
LTYPE
  2
CONTINUOUS
 70
     0
  3
Solid line
 72
    65
 73
     0
 40
0.0
  0
LTYPE
  2
STYLE_06
 70
     0
  3

 72
    65
 73
     4
 40
1.041641235351562
 49
0.625
 49
-0.208282470703125
 49
0.069427490234375
 49
-0.1389312744140625
  0
ENDTAB
  0
TABLE
  2
LAYER
 70
     5
  0
LAYER
  2
0
 70
     0
 62
     7
  6
CONTINUOUS
  0
LAYER
  2
HIBINO-BASE
 70
     0
 62
     7
  6
CONTINUOUS
  0
LAYER
  2
SPEC
 70
     0
 62
     7
  6
CONTINUOUS
  0
LAYER
  2
DIMNSIONS
 70
     0
 62
     7
  6
CONTINUOUS
  0
LAYER
  2
DATA
 70
     0
 62
     7
  6
CONTINUOUS
  0
ENDTAB
  0
TABLE
  2
STYLE
 70
     2
  0
STYLE
  2
STANDARD
 70
     0
 40
0.0
 41
1.0
 50
0.0
 71
     0
 42
0.0
  3
txt
  4
BIGFONT.SHX
  0
ENDTAB
  0
TABLE
  2
VIEW
 70
     0
  0
ENDTAB
  0
TABLE
  2
UCS
 70
     0
  0
ENDTAB
  0
TABLE
  2
APPID
 70
     3
  0
APPID
  2
ACAD
 70
     0
  0
APPID
  2
ACAD_MLEADERVER
 70
     0
  0
APPID
  2
ACADANNOPO
 70
     0
  0
ENDTAB
  0
TABLE
  2
DIMSTYLE
 70
     1
  0
DIMSTYLE
  2
STANDARD
 70
     0
  3

  4

  5

  6

  7

 40
1.0
 41
0.18
 42
0.0625
 43
0.38
 44
0.18
 45
0.0
 46
0.0
 47
0.0
 48
0.0
140
0.18
141
0.09
142
0.0
143
25.4
144
1.0
145
0.0
146
1.0
147
0.09
 71
     0
 72
     0
 73
     1
 74
     1
 75
     0
 76
     0
 77
     0
 78
     0
170
     0
171
     2
172
     0
173
     0
174
     0
175
     0
176
     0
177
     0
178
     0
  0
ENDTAB
  0
ENDSEC
  0
SECTION
  2
BLOCKS
  0
BLOCK
  8
DATA
  2
$MODEL_SPACE
 70
     0
 10
0.0
 20
0.0
 30
0.0
  3
$MODEL_SPACE
  1

  0
ENDBLK
  5
410
  8
DATA
  0
BLOCK
 67
     1
  8
DATA
  2
$PAPER_SPACE
 70
     0
 10
0.0
 20
0.0
 30
0.0
  3
$PAPER_SPACE
  1

  0
ENDBLK
  5
40E
 67
     1
  8
DATA
  0
ENDSEC
  0
SECTION
  2
ENTITIES
  0
LINE
  5
2D
  8
HIBINO-BASE
  6
CONTINUOUS
 62
     7
 10
-1800.0
 20
2667.104485
 30
0.0
 11
1800.0
 21
2667.104485
 31
0.0
  0
LINE
  5
2E
  8
HIBINO-BASE
  6
CONTINUOUS
 62
     7
 10
1800.0
 20
-2532.895515
 30
0.0
 11
-1800.0
 21
-2532.895515
 31
0.0
  0
LINE
  5
2F
  8
HIBINO-BASE
  6
CONTINUOUS
 62
     7
 10
-1800.0
 20
-2532.895515
 30
0.0
 11
-1800.0
 21
2667.104485
 31
0.0
  0
LINE
  5
30
  8
HIBINO-BASE
  6
CONTINUOUS
 62
     7
 10
1800.0
 20
2667.104485
 30
0.0
 11
1800.0
 21
-2532.895515
 31
0.0
  0
LINE
  5
31
  8
HIBINO-BASE
  6
CONTINUOUS
 62
     7
 10
0.0000000000002842
 20
-2082.895514999999
 30
0.0
 11
1800.0
 21
-2082.895514999999
 31
0.0
  0
LINE
  5
32
  8
HIBINO-BASE
  6
CONTINUOUS
 62
     7
 10
0.0000000000002842
 20
-2532.895515
 30
0.0
 11
0.0000000000002842
 21
-2082.895514999999
 31
0.0
  0
TEXT
  5
33
  8
HIBINO-BASE
 62
     7
 10
18.0000000000004
 20
-2133.069381666666
 30
0.0
 40
32.57682291666666
  1
NOTE
 41
0.7
 11
18.0000000000004
 21
-2100.492558749999
 31
0.0
 73
     3
  0
LINE
  5
34
  8
HIBINO-BASE
  6
CONTINUOUS
 62
     7
 10
700.0000000000003
 20
-2532.895515
 30
0.0
 11
700.0000000000003
 21
-2082.895514999999
 31
0.0
  0
TEXT
  5
35
  8
HIBINO-BASE
 62
     7
 10
717.9999999999999
 20
-2133.069381666666
 30
0.0
 40
32.57682291666666
  1
TITLE
 41
0.7
 11
717.9999999999999
 21
-2100.492558749999
 31
0.0
 73
     3
  0
LINE
  5
36
  8
HIBINO-BASE
  6
CONTINUOUS
 62
     7
 10
0.0000000000002842
 20
-2332.895514999999
 30
0.0
 11
1800.0
 21
-2332.895514999999
 31
0.0
  0
TEXT
  5
37
  8
HIBINO-BASE
 62
     7
 10
967.9999999999999
 20
-2381.942981666666
 30
0.0
 40
32.57682291666666
  1
DRAWN
 41
0.7
 11
967.9999999999999
 21
-2349.36615875
 31
0.0
 73
     3
  0
TEXT
  5
38
  8
HIBINO-BASE
 62
     7
 10
467.9999999999998
 20
-2381.942981666666
 30
0.0
 40
32.57682291666666
  1
DATE
 41
0.7
 11
467.9999999999998
 21
-2349.36615875
 31
0.0
 73
     3
  0
TEXT
  5
39
  8
HIBINO-BASE
 62
     7
 10
267.9999999999998
 20
-2381.942981666666
 30
0.0
 40
32.57682291666666
  1
SCALE
 41
0.7
 11
267.9999999999998
 21
-2349.36615875
 31
0.0
 73
     3
  0
TEXT
  5
3A
  8
HIBINO-BASE
 62
     7
 10
717.9999999999999
 20
-2381.942981666666
 30
0.0
 40
32.57682291666666
  1
DESIGN
 41
0.7
 11
717.9999999999999
 21
-2349.36615875
 31
0.0
 73
     3
  0
TEXT
  5
3B
  8
HIBINO-BASE
 62
     7
 10
1468.0
 20
-2381.942981666666
 30
0.0
 40
32.57682291666666
  1
DRAWING NO.
 41
0.7
 11
1468.0
 21
-2349.36615875
 31
0.0
 73
     3
  0
TEXT
  5
3C
  8
HIBINO-BASE
 62
     7
 10
1218.0
 20
-2381.942981666666
 30
0.0
 40
32.57682291666666
  1
CHECK
 41
0.7
 11
1218.0
 21
-2349.36615875
 31
0.0
 73
     3
  0
LINE
  5
3D
  8
HIBINO-BASE
  6
CONTINUOUS
 62
     7
 10
287.5000000000003
 20
-2507.895515
 30
0.0
 11
362.5000000000003
 21
-2432.895514999999
 31
0.0
  0
TEXT
  5
3E
  8
HIBINO-BASE
 62
     7
 10
275.0000000000003
 20
-2455.074381666666
 30
0.0
 40
32.57682291666666
  1
1
 41
0.7
 11
275.0000000000003
 21
-2422.497558749999
 31
0.0
 73
     3
  0
LINE
  5
3F
  8
HIBINO-BASE
  6
CONTINUOUS
 62
     7
 10
250.0000000000003
 20
-2532.895515
 30
0.0
 11
250.0000000000003
 21
-2332.895514999999
 31
0.0
  0
LINE
  5
40
  8
HIBINO-BASE
  6
CONTINUOUS
 62
     7
 10
449.9999999999998
 20
-2532.895515
 30
0.0
 11
449.9999999999998
 21
-2332.895514999999
 31
0.0
  0
LINE
  5
41
  8
HIBINO-BASE
  6
CONTINUOUS
 62
     7
 10
949.9999999999997
 20
-2332.895514999999
 30
0.0
 11
949.9999999999997
 21
-2532.895515
 31
0.0
  0
LINE
  5
42
  8
HIBINO-BASE
  6
CONTINUOUS
 62
     7
 10
1450.0
 20
-2332.895514999999
 30
0.0
 11
1450.0
 21
-2532.895515
 31
0.0
  0
LINE
  5
43
  8
HIBINO-BASE
  6
CONTINUOUS
 62
     7
 10
1200.0
 20
-2532.895515
 30
0.0
 11
1200.0
 21
-2332.895514999999
 31
0.0
  0
TEXT
  5
44
  8
HIBINO-BASE
 62
     7
 10
467.1308000000002
 20
-2475.622581666666
 30
0.0
 40
32.57682291666666
  1
'21.02.
 41
0.7
 11
467.1308000000002
 21
-2443.045758749999
 31
0.0
 73
     3
  0
TEXT
  5
45
  8
HIBINO-BASE
 62
     7
 10
350.0000000000003
 20
-2492.574381666666
 30
0.0
 40
32.57682291666666
  1
20
 41
0.7
 11
350.0000000000003
 21
-2459.997558749999
 31
0.0
 73
     3
  0
TEXT
  5
46
  8
HIBINO-BASE
 62
     7
 10
980.1162002206926
 20
-2475.622581666666
 30
0.0
 40
32.57682291666666
  1
N.Sasaki
 41
0.7
 11
980.1162002206926
 21
-2443.045758749999
 31
0.0
 73
     3
  0
TEXT
  5
47
  8
HIBINO-BASE
 62
     7
 10
77.66666666666737
 20
-2493.375514999999
 30
0.0
 40
65.15364583333333
  1
A4
 41
0.7
 11
77.66666666666737
 21
-2428.221869166666
 31
0.0
 73
     3
  0
TEXT
  5
48
  8
HIBINO-BASE
 62
     7
 10
19.16666666666657
 20
-2385.284615
 30
0.0
 40
32.57682291666666
  1
PAPER SIZE
 41
0.7
 11
19.16666666666657
 21
-2352.707792083333
 31
0.0
 73
     3
  0
TEXT
  5
49
  8
HIBINO-BASE
 62
     7
 10
-1656.319999999999
 20
-2661.069071
 30
0.0
 40
72.00088359374999
  1
Hibino Corporation
 41
0.7
 11
-1656.319999999999
 21
-2589.06818740625
 31
0.0
 73
     3
  0
TEXT
  5
4A
  8
HIBINO-BASE
 62
     7
 10
1001.3678
 20
-2661.069071
 30
0.0
 40
72.00088359374999
  1
ヒビノ株式会社
 41
0.7
 11
1001.3678
 21
-2589.06818740625
 31
0.0
 73
     3
  0
LINE
  5
4B
  8
SPEC
  6
CONTINUOUS
 62
     7
 10
-1649.999999999999
 20
2467.104485000001
 30
0.0
 11
1300.0
 21
2467.104485000001
 31
0.0
  0
LINE
  5
4C
  8
SPEC
  6
CONTINUOUS
 62
     7
 10
-1649.999999999999
 20
2392.104485
 30
0.0
 11
1300.0
 21
2392.104485
 31
0.0
  0
LINE
  5
4D
  8
SPEC
  6
CONTINUOUS
 62
     7
 10
-1649.999999999999
 20
2467.104485000001
 30
0.0
 11
-1649.999999999999
 21
1192.104485
 31
0.0
  0
TEXT
  5
4E
  8
SPEC
 62
     7
 10
-1625.0
 20
2494.969885
 30
0.0
 40
48.86523437500001
  1
仕様
 41
0.7
 11
-1625.0
 21
2543.835119375
 31
0.0
 73
     3
  0
LINE
  5
4F
  8
SPEC
  6
CONTINUOUS
 62
     7
 10
1300.0
 20
2467.104485000001
 30
0.0
 11
1300.0
 21
1192.104485
 31
0.0
  0
LINE
  5
50
  8
SPEC
  6
CONTINUOUS
 62
     7
 10
-1649.999999999999
 20
2317.104485
 30
0.0
 11
1300.0
 21
2317.104485
 31
0.0
  0
LINE
  5
51
  8
SPEC
  6
CONTINUOUS
 62
     7
 10
-1125.0
 20
2242.104485
 30
0.0
 11
1300.0
 21
2242.104485
 31
0.0
  0
LINE
  5
52
  8
SPEC
  6
CONTINUOUS
 62
     7
 10
-1649.999999999999
 20
2092.104485
 30
0.0
 11
1300.0
 21
2092.104485
 31
0.0
  0
LINE
  5
53
  8
SPEC
  6
CONTINUOUS
 62
     7
 10
-1125.0
 20
2017.104485
 30
0.0
 11
1300.0
 21
2017.104485
 31
0.0
  0
LINE
  5
54
  8
SPEC
  6
CONTINUOUS
 62
     7
 10
-1649.999999999999
 20
1942.104485
 30
0.0
 11
1300.0
 21
1942.104485
 31
0.0
  0
LINE
  5
55
  8
SPEC
  6
CONTINUOUS
 62
     7
 10
-1125.0
 20
1867.104485
 30
0.0
 11
1300.0
 21
1867.104485
 31
0.0
  0
LINE
  5
56
  8
SPEC
  6
CONTINUOUS
 62
     7
 10
-1649.999999999999
 20
1792.104485
 30
0.0
 11
1300.0
 21
1792.104485
 31
0.0
  0
LINE
  5
57
  8
SPEC
  6
CONTINUOUS
 62
     7
 10
-1125.0
 20
1717.104485
 30
0.0
 11
1300.0
 21
1717.104485
 31
0.0
  0
LINE
  5
58
  8
SPEC
  6
CONTINUOUS
 62
     7
 10
-1649.999999999999
 20
1642.104485
 30
0.0
 11
1300.0
 21
1642.104485
 31
0.0
  0
LINE
  5
59
  8
SPEC
  6
CONTINUOUS
 62
     7
 10
-1649.999999999999
 20
1567.104485
 30
0.0
 11
1300.0
 21
1567.104485
 31
0.0
  0
LINE
  5
5A
  8
SPEC
  6
CONTINUOUS
 62
     7
 10
-1649.999999999999
 20
1492.104485
 30
0.0
 11
1300.0
 21
1492.104485
 31
0.0
  0
LINE
  5
5B
  8
SPEC
  6
CONTINUOUS
 62
     7
 10
-1649.999999999999
 20
1417.104485
 30
0.0
 11
1300.0
 21
1417.104485
 31
0.0
  0
LINE
  5
5C
  8
SPEC
  6
CONTINUOUS
 62
     7
 10
-1649.999999999999
 20
1342.104485
 30
0.0
 11
1300.0
 21
1342.104485
 31
0.0
  0
LINE
  5
5D
  8
SPEC
  6
CONTINUOUS
 62
     7
 10
-1649.999999999999
 20
1267.104485
 30
0.0
 11
1300.0
 21
1267.104485
 31
0.0
  0
LINE
  5
5E
  8
SPEC
  6
CONTINUOUS
 62
     7
 10
-1649.999999999999
 20
1192.104485
 30
0.0
 11
1300.0
 21
1192.104485
 31
0.0
  0
TEXT
  5
5F
  8
SPEC
 62
     7
 10
-1632.0
 20
2407.862840555556
 30
0.0
 40
38.00629340277779
  1
周波数レンジ(-10dB)
 41
0.7
 11
-1632.0
 21
2445.869133958333
 31
0.0
 73
     3
  0
TEXT
  5
60
  8
SPEC
 62
     7
 10
-1632.0
 20
2257.862840555556
 30
0.0
 40
38.00629340277779
  1
許容入力
 41
0.7
 11
-1632.0
 21
2295.869133958333
 31
0.0
 73
     3
  0
TEXT
  5
61
  8
SPEC
 62
     7
 10
-1632.0
 20
2332.862840555556
 30
0.0
 40
38.00629340277779
  1
カバレージ角(水平×垂直)
 41
0.7
 11
-1632.0
 21
2370.869133958333
 31
0.0
 73
     3
  0
TEXT
  5
62
  8
SPEC
 62
     7
 10
-1632.0
 20
2032.862840555556
 30
0.0
 40
38.00629340277779
  1
感度(1W、1m)
 41
0.7
 11
-1632.0
 21
2070.869133958333
 31
0.0
 73
     3
  0
TEXT
  5
63
  8
SPEC
 62
     7
 10
-1632.0
 20
1882.862840555556
 30
0.0
 40
38.00629340277779
  1
公称インピーダンス
 41
0.7
 11
-1632.0
 21
1920.869133958333
 31
0.0
 73
     3
  0
TEXT
  5
64
  8
SPEC
 62
     7
 10
-1632.0
 20
1582.862840555556
 30
0.0
 40
38.00629340277779
  1
クロスオーバー周波数^I
 41
0.7
 11
-1632.0
 21
1620.869133958333
 31
0.0
 73
     3
  0
LINE
  5
65
  8
SPEC
  6
CONTINUOUS
 62
     7
 10
-1125.0
 20
2317.104485
 30
0.0
 11
-1125.0
 21
1642.104485
 31
0.0
  0
TEXT
  5
66
  8
SPEC
 62
     7
 10
-1107.0
 20
2257.862840555556
 30
0.0
 40
38.00629340277779
  1
パッシブ※1
 41
0.7
 11
-1107.0
 21
2295.869133958333
 31
0.0
 73
     3
  0
TEXT
  5
67
  8
SPEC
 62
     7
 10
-1107.0
 20
2182.862840555556
 30
0.0
 40
38.00629340277779
  1
バイアンプ※2
 41
0.7
 11
-1107.0
 21
2220.869133958333
 31
0.0
 73
     3
  0
LINE
  5
68
  8
SPEC
  6
CONTINUOUS
 62
     7
 10
-725.0
 20
2467.104485000001
 30
0.0
 11
-725.0
 21
1192.104485
 31
0.0
  0
TEXT
  5
69
  8
SPEC
 62
     7
 10
-707.0000000000002
 20
2407.862840555556
 30
0.0
 40
38.00629340277779
  1
80Hz～18kHz
 41
0.7
 11
-707.0000000000002
 21
2445.869133958333
 31
0.0
 73
     3
  0
TEXT
  5
6A
  8
SPEC
 62
     7
 10
-707.0000000000002
 20
2332.862840555556
 30
0.0
 40
38.00629340277779
  1
60°×40°
 41
0.7
 11
-707.0000000000002
 21
2370.869133958333
 31
0.0
 73
     3
  0
TEXT
  5
6B
  8
SPEC
 62
     7
 10
-707.0000000000002
 20
2257.862840555556
 30
0.0
 40
38.00629340277779
  1
300W(100h)
 41
0.7
 11
-707.0000000000002
 21
2295.869133958333
 31
0.0
 73
     3
  0
TEXT
  5
6C
  8
SPEC
 62
     7
 10
-707.0000000000002
 20
2182.862840555556
 30
0.0
 40
38.00629340277779
  1
LF:400W(2h)、300W(100h)
 41
0.7
 11
-707.0000000000002
 21
2220.869133958333
 31
0.0
 73
     3
  0
TEXT
  5
6D
  8
SPEC
 62
     7
 10
-707.0000000000002
 20
2107.862840555556
 30
0.0
 40
38.00629340277779
  1
HF:75W(2h)
 41
0.7
 11
-707.0000000000002
 21
2145.869133958333
 31
0.0
 73
     3
  0
TEXT
  5
6E
  8
SPEC
 62
     7
 10
-1107.0
 20
2032.862840555556
 30
0.0
 40
38.00629340277779
  1
パッシブ
 41
0.7
 11
-1107.0
 21
2070.869133958333
 31
0.0
 73
     3
  0
TEXT
  5
6F
  8
SPEC
 62
     7
 10
-1107.0
 20
1957.862840555556
 30
0.0
 40
38.00629340277779
  1
バイアンプ
 41
0.7
 11
-1107.0
 21
1995.869133958333
 31
0.0
 73
     3
  0
TEXT
  5
70
  8
SPEC
 62
     7
 10
-707.0000000000002
 20
2032.862840555556
 30
0.0
 40
38.00629340277779
  1
107dB SPL
 41
0.7
 11
-707.0000000000002
 21
2070.869133958333
 31
0.0
 73
     3
  0
TEXT
  5
71
  8
SPEC
 62
     7
 10
-707.0000000000002
 20
1957.862840555556
 30
0.0
 40
38.00629340277779
  1
LF:109dB SPL、HF:116dB SPL
 41
0.7
 11
-707.0000000000002
 21
1995.869133958333
 31
0.0
 73
     3
  0
TEXT
  5
72
  8
SPEC
 62
     7
 10
-1107.0
 20
1807.862840555556
 30
0.0
 40
38.00629340277779
  1
バイアンプ
 41
0.7
 11
-1107.0
 21
1845.869133958333
 31
0.0
 73
     3
  0
TEXT
  5
73
  8
SPEC
 62
     7
 10
-707.0000000000002
 20
1882.862840555556
 30
0.0
 40
38.00629340277779
  1
8Ω
 41
0.7
 11
-707.0000000000002
 21
1920.869133958333
 31
0.0
 73
     3
  0
TEXT
  5
74
  8
SPEC
 62
     7
 10
-707.0000000000002
 20
1807.862840555556
 30
0.0
 40
38.00629340277779
  1
LF:8Ω、HF:8Ω
 41
0.7
 11
-707.0000000000002
 21
1845.869133958333
 31
0.0
 73
     3
  0
TEXT
  5
75
  8
SPEC
 62
     7
 10
-1107.0
 20
1882.862840555556
 30
0.0
 40
38.00629340277779
  1
パッシブ
 41
0.7
 11
-1107.0
 21
1920.869133958333
 31
0.0
 73
     3
  0
TEXT
  5
76
  8
SPEC
 62
     7
 10
-1632.0
 20
1732.862840555556
 30
0.0
 40
38.00629340277779
  1
最大音圧レベル(1m)
 41
0.7
 11
-1632.0
 21
1770.869133958333
 31
0.0
 73
     3
  0
TEXT
  5
77
  8
SPEC
 62
     7
 10
-1107.0
 20
1732.862840555556
 30
0.0
 40
38.00629340277779
  1
パッシブ
 41
0.7
 11
-1107.0
 21
1770.869133958333
 31
0.0
 73
     3
  0
TEXT
  5
78
  8
SPEC
 62
     7
 10
-1107.0
 20
1657.862840555556
 30
0.0
 40
38.00629340277779
  1
バイアンプ
 41
0.7
 11
-1107.0
 21
1695.869133958333
 31
0.0
 73
     3
  0
TEXT
  5
79
  8
SPEC
 62
     7
 10
-707.0000000000002
 20
1732.862840555556
 30
0.0
 40
38.00629340277779
  1
132dB SPL
 41
0.7
 11
-707.0000000000002
 21
1770.869133958333
 31
0.0
 73
     3
  0
TEXT
  5
7A
  8
SPEC
 62
     7
 10
-707.0000000000002
 20
1657.862840555556
 30
0.0
 40
38.00629340277779
  1
LF:135dB SPL、HF:135dB SPL
 41
0.7
 11
-707.0000000000002
 21
1695.869133958333
 31
0.0
 73
     3
  0
TEXT
  5
7B
  8
SPEC
 62
     7
 10
-1632.0
 20
1507.862840555556
 30
0.0
 40
38.00629340277779
  1
ドライバー構成
 41
0.7
 11
-1632.0
 21
1545.869133958333
 31
0.0
 73
     3
  0
TEXT
  5
7C
  8
SPEC
 62
     7
 10
-707.0000000000002
 20
1582.862840555556
 30
0.0
 40
38.00629340277779
  1
850Hz
 41
0.7
 11
-707.0000000000002
 21
1620.869133958333
 31
0.0
 73
     3
  0
TEXT
  5
7D
  8
SPEC
 62
     7
 10
-1600.0
 20
1107.525555555555
 30
0.0
 40
38.00629340277779
  1
※1 AESピンクノイズ、クレストファクター6dB　
 41
0.7
 11
-1600.0
 21
1145.531848958333
 31
0.0
 73
     3
  0
TEXT
  5
7E
  8
SPEC
 62
     7
 10
-1600.0
 20
1058.136666666667
 30
0.0
 40
38.00629340277779
  1
※2 IECピンクノイズ、クレストファクター6dB
 41
0.7
 11
-1600.0
 21
1096.142960069444
 31
0.0
 73
     3
  0
TEXT
  5
7F
  8
SPEC
 62
     7
 10
-1600.0
 20
1008.747777777778
 30
0.0
 40
38.00629340277779
  1
※3 防塵・防水加工のコーティングにより寸法、質量は実際と異なる場合があります。
 41
0.7
 11
-1600.0
 21
1046.754071180555
 31
0.0
 73
     3
  0
TEXT
  5
80
  8
SPEC
 62
     7
 10
-1632.0
 20
1432.862840555556
 30
0.0
 40
38.00629340277779
  1
入力
 41
0.7
 11
-1632.0
 21
1470.869133958334
 31
0.0
 73
     3
  0
TEXT
  5
81
  8
SPEC
 62
     7
 10
-707.0000000000005
 20
1507.862840555556
 30
0.0
 40
38.00629340277779
  1
LF:M222-8A(12インチ(305mm))、HF:2453H(1.5インチ(38mm))
 41
0.7
 11
-707.0000000000005
 21
1545.869133958333
 31
0.0
 73
     3
  0
TEXT
  5
82
  8
SPEC
 62
     7
 10
-1632.0
 20
1357.862840555556
 30
0.0
 40
38.00629340277779
  1
仕上げ/色
 41
0.7
 11
-1632.0
 21
1395.869133958334
 31
0.0
 73
     3
  0
TEXT
  5
83
  8
SPEC
 62
     7
 10
-707.0000000000002
 20
1357.862840555556
 30
0.0
 40
38.00629340277779
  1
ファイバーグラスコーティング/ライトグレー
 41
0.7
 11
-707.0000000000002
 21
1395.869133958334
 31
0.0
 73
     3
  0
TEXT
  5
84
  8
SPEC
 62
     7
 10
-1632.0
 20
1282.862840555556
 30
0.0
 40
38.00629340277779
  1
寸法(W×H×D)※3
 41
0.7
 11
-1632.0
 21
1320.869133958333
 31
0.0
 73
     3
  0
TEXT
  5
85
  8
SPEC
 62
     7
 10
-1632.0
 20
1207.862840555556
 30
0.0
 40
38.00629340277779
  1
質量※3
 41
0.7
 11
-1632.0
 21
1245.869133958333
 31
0.0
 73
     3
  0
TEXT
  5
86
  8
SPEC
 62
     7
 10
-707.0000000000002
 20
1282.862840555556
 30
0.0
 40
38.00629340277779
  1
673×994×710mm(除突起部)
 41
0.7
 11
-707.0000000000002
 21
1320.869133958333
 31
0.0
 73
     3
  0
TEXT
  5
87
  8
SPEC
 62
     7
 10
-707.0000000000002
 20
1207.862840555556
 30
0.0
 40
38.00629340277779
  1
74kg
 41
0.7
 11
-707.0000000000002
 21
1245.869133958333
 31
0.0
 73
     3
  0
TEXT
  5
88
  8
SPEC
 62
     7
 10
-707.0
 20
1432.862840555556
 30
0.0
 40
38.00629340277779
  1
先端処理が施されていない取り外し不可のケーブル
 41
0.7
 11
-707.0
 21
1470.869133958334
 31
0.0
 73
     3
  0
TEXT
  5
89
  8
DIMNSIONS
 62
     7
 10
-399.9999999999999
 20
-2287.505714999999
 30
0.0
 40
48.86523437500001
  1
(単位：mm)
 41
0.7
 11
-399.9999999999999
 21
-2238.640480624999
 31
0.0
 73
     3
  0
LINE
  5
8A
  8
DIMNSIONS
  6
CONTINUOUS
 62
     7
 10
-1064.49595745787
 20
310.0
 30
0.0
 11
-1370.0
 21
310.0
 31
0.0
  0
LINE
  5
8B
  8
DIMNSIONS
  6
CONTINUOUS
 62
     7
 10
-1247.800000000001
 20
-400.0
 30
0.0
 11
-1370.0
 21
-400.0
 31
0.0
  0
LINE
  5
8C
  8
DIMNSIONS
  6
CONTINUOUS
 62
     7
 10
-1350.0
 20
310.0
 30
0.0
 11
-1350.0
 21
-400.0
 31
0.0
  0
LINE
  5
8D
  8
DIMNSIONS
  6
CONTINUOUS
 62
     7
 10
-1350.0
 20
310.0
 30
0.0
 11
-1339.282686475588
 21
270.00244140625
 31
0.0
  0
LINE
  5
8E
  8
DIMNSIONS
  6
CONTINUOUS
 62
     7
 10
-1350.0
 20
310.0
 30
0.0
 11
-1360.717313524412
 21
270.00244140625
 31
0.0
  0
LINE
  5
8F
  8
DIMNSIONS
  6
CONTINUOUS
 62
     7
 10
-1350.0
 20
-400.0
 30
0.0
 11
-1360.717313524412
 21
-360.00244140625
 31
0.0
  0
LINE
  5
90
  8
DIMNSIONS
  6
CONTINUOUS
 62
     7
 10
-1350.0
 20
-400.0
 30
0.0
 11
-1339.282686475588
 21
-360.00244140625
 31
0.0
  0
TEXT
  5
91
  8
DIMNSIONS
 62
     7
 10
-1369.877777777778
 20
-97.91666666666666
 30
0.0
 40
54.29470486111111
  1
710
 50
90.0
 41
0.7
 11
-1424.172482638889
 21
-97.91666666666666
 31
0.0
 73
     3
  0
LINE
  5
92
  8
DIMNSIONS
  6
CONTINUOUS
 62
     7
 10
-1016.361982861655
 20
310.0
 30
0.0
 11
-580.0
 21
310.0
 31
0.0
  0
LINE
  5
93
  8
DIMNSIONS
  6
CONTINUOUS
 62
     7
 10
-876.0000000000005
 20
266.0
 30
0.0
 11
-580.0
 21
266.0
 31
0.0
  0
LINE
  5
94
  8
DIMNSIONS
  6
CONTINUOUS
 62
     7
 10
-600.0
 20
266.0
 30
0.0
 11
-600.0
 21
310.0
 31
0.0
  0
LINE
  5
95
  8
DIMNSIONS
  6
CONTINUOUS
 62
     7
 10
-600.0
 20
310.0
 30
0.0
 11
-600.0
 21
520.5555555555555
 31
0.0
  0
LINE
  5
96
  8
DIMNSIONS
  6
CONTINUOUS
 62
     7
 10
-600.0
 20
310.0
 30
0.0
 11
-610.7173135244118
 21
349.99755859375
 31
0.0
  0
LINE
  5
97
  8
DIMNSIONS
  6
CONTINUOUS
 62
     7
 10
-600.0
 20
310.0
 30
0.0
 11
-589.2826864755882
 21
349.99755859375
 31
0.0
  0
LINE
  5
98
  8
DIMNSIONS
  6
CONTINUOUS
 62
     7
 10
-600.0
 20
266.0
 30
0.0
 11
-600.0
 21
196.0
 31
0.0
  0
LINE
  5
99
  8
DIMNSIONS
  6
CONTINUOUS
 62
     7
 10
-600.0
 20
266.0
 30
0.0
 11
-589.2826864755882
 21
226.00244140625
 31
0.0
  0
LINE
  5
9A
  8
DIMNSIONS
  6
CONTINUOUS
 62
     7
 10
-600.0
 20
266.0
 30
0.0
 11
-610.7173135244118
 21
226.00244140625
 31
0.0
  0
TEXT
  5
9B
  8
DIMNSIONS
 62
     7
 10
-619.8777777777777
 20
379.4444444444445
 30
0.0
 40
54.29470486111111
  1
44.0
 50
90.0
 41
0.7
 11
-674.1724826388888
 21
379.4444444444445
 31
0.0
 73
     3
  0
LINE
  5
9C
  8
DIMNSIONS
  6
CONTINUOUS
 62
     7
 10
-1236.5
 20
-1708.300000000001
 30
0.0
 11
-1236.5
 21
-1870.0
 31
0.0
  0
LINE
  5
9D
  8
DIMNSIONS
  6
CONTINUOUS
 62
     7
 10
-563.5
 20
-1708.300000000001
 30
0.0
 11
-563.5
 21
-1870.0
 31
0.0
  0
LINE
  5
9E
  8
DIMNSIONS
  6
CONTINUOUS
 62
     7
 10
-1236.5
 20
-1850.0
 30
0.0
 11
-563.5
 21
-1850.0
 31
0.0
  0
LINE
  5
9F
  8
DIMNSIONS
  6
CONTINUOUS
 62
     7
 10
-1236.5
 20
-1850.0
 30
0.0
 11
-1196.50244140625
 21
-1839.282686475589
 31
0.0
  0
LINE
  5
A0
  8
DIMNSIONS
  6
CONTINUOUS
 62
     7
 10
-1236.5
 20
-1850.0
 30
0.0
 11
-1196.50244140625
 21
-1860.717313524412
 31
0.0
  0
LINE
  5
A1
  8
DIMNSIONS
  6
CONTINUOUS
 62
     7
 10
-563.5
 20
-1850.0
 30
0.0
 11
-603.49755859375
 21
-1860.717313524412
 31
0.0
  0
LINE
  5
A2
  8
DIMNSIONS
  6
CONTINUOUS
 62
     7
 10
-563.5
 20
-1850.0
 30
0.0
 11
-603.49755859375
 21
-1839.282686475589
 31
0.0
  0
TEXT
  5
A3
  8
DIMNSIONS
 62
     7
 10
-952.9166666666666
 20
-1830.122222222222
 30
0.0
 40
54.29470486111111
  1
673
 41
0.7
 11
-952.9166666666666
 21
-1775.827517361111
 31
0.0
 73
     3
  0
LINE
  5
A4
  8
DIMNSIONS
  6
CONTINUOUS
 62
     7
 10
-1247.8
 20
-1697.000000000001
 30
0.0
 11
-1370.0
 21
-1697.000000000001
 31
0.0
  0
LINE
  5
A5
  8
DIMNSIONS
  6
CONTINUOUS
 62
     7
 10
-1247.8
 20
-703.0
 30
0.0
 11
-1370.0
 21
-703.0
 31
0.0
  0
LINE
  5
A6
  8
DIMNSIONS
  6
CONTINUOUS
 62
     7
 10
-1350.0
 20
-1697.000000000001
 30
0.0
 11
-1350.0
 21
-703.0
 31
0.0
  0
LINE
  5
A7
  8
DIMNSIONS
  6
CONTINUOUS
 62
     7
 10
-1350.0
 20
-1697.000000000001
 30
0.0
 11
-1360.717313524412
 21
-1657.002441406251
 31
0.0
  0
LINE
  5
A8
  8
DIMNSIONS
  6
CONTINUOUS
 62
     7
 10
-1350.0
 20
-1697.000000000001
 30
0.0
 11
-1339.282686475588
 21
-1657.002441406251
 31
0.0
  0
LINE
  5
A9
  8
DIMNSIONS
  6
CONTINUOUS
 62
     7
 10
-1350.0
 20
-703.0
 30
0.0
 11
-1339.282686475588
 21
-742.99755859375
 31
0.0
  0
LINE
  5
AA
  8
DIMNSIONS
  6
CONTINUOUS
 62
     7
 10
-1350.0
 20
-703.0
 30
0.0
 11
-1360.717313524412
 21
-742.99755859375
 31
0.0
  0
TEXT
  5
AB
  8
DIMNSIONS
 62
     7
 10
-1369.877777777778
 20
-1252.916666666667
 30
0.0
 40
54.29470486111111
  1
994
 50
90.0
 41
0.7
 11
-1424.172482638889
 21
-1252.916666666667
 31
0.0
 73
     3
  0
LINE
  5
AC
  8
DIMNSIONS
  6
CONTINUOUS
 62
     7
 10
293.9999999999999
 20
-1700.0
 30
0.0
 11
395.0
 21
-1700.0
 31
0.0
  0
LINE
  5
AD
  8
DIMNSIONS
  6
CONTINUOUS
 62
     7
 10
284.0
 20
-839.6499999999974
 30
0.0
 11
395.0
 21
-839.6499999999974
 31
0.0
  0
LINE
  5
AE
  8
DIMNSIONS
  6
CONTINUOUS
 62
     7
 10
375.0
 20
-1700.0
 30
0.0
 11
375.0
 21
-839.6499999999974
 31
0.0
  0
LINE
  5
AF
  8
DIMNSIONS
  6
CONTINUOUS
 62
     7
 10
375.0
 20
-1700.0
 30
0.0
 11
364.2826864755882
 21
-1660.00244140625
 31
0.0
  0
LINE
  5
B0
  8
DIMNSIONS
  6
CONTINUOUS
 62
     7
 10
375.0
 20
-1700.0
 30
0.0
 11
385.7173135244118
 21
-1660.00244140625
 31
0.0
  0
LINE
  5
B1
  8
DIMNSIONS
  6
CONTINUOUS
 62
     7
 10
375.0
 20
-839.6499999999974
 30
0.0
 11
385.7173135244118
 21
-879.6475585937474
 31
0.0
  0
LINE
  5
B2
  8
DIMNSIONS
  6
CONTINUOUS
 62
     7
 10
375.0
 20
-839.6499999999974
 30
0.0
 11
364.2826864755882
 21
-879.6475585937474
 31
0.0
  0
TEXT
  5
B3
  8
DIMNSIONS
 62
     7
 10
355.1222222222223
 20
-1340.380555555555
 30
0.0
 40
54.29470486111111
  1
5900
 50
90.0
 41
0.7
 11
300.8275173611111
 21
-1340.380555555555
 31
0.0
 73
     3
  0
LINE
  5
B4
  8
DIMNSIONS
  6
CONTINUOUS
 62
     7
 10
-383.0293207585922
 20
-747.0000000000005
 30
0.0
 11
520.0
 21
-747.0000000000005
 31
0.0
  0
LINE
  5
B5
  8
DIMNSIONS
  6
CONTINUOUS
 62
     7
 10
-383.0293207585922
 20
-1652.999999999999
 30
0.0
 11
520.0
 21
-1652.999999999999
 31
0.0
  0
LINE
  5
B6
  8
DIMNSIONS
  6
CONTINUOUS
 62
     7
 10
499.9999999999999
 20
-747.0000000000005
 30
0.0
 11
499.9999999999999
 21
-1652.999999999999
 31
0.0
  0
LINE
  5
B7
  8
DIMNSIONS
  6
CONTINUOUS
 62
     7
 10
499.9999999999999
 20
-747.0000000000005
 30
0.0
 11
510.7173135244118
 21
-786.9975585937505
 31
0.0
  0
LINE
  5
B8
  8
DIMNSIONS
  6
CONTINUOUS
 62
     7
 10
499.9999999999999
 20
-747.0000000000005
 30
0.0
 11
489.2826864755881
 21
-786.9975585937505
 31
0.0
  0
LINE
  5
B9
  8
DIMNSIONS
  6
CONTINUOUS
 62
     7
 10
499.9999999999999
 20
-1652.999999999999
 30
0.0
 11
489.2826864755881
 21
-1613.002441406249
 31
0.0
  0
LINE
  5
BA
  8
DIMNSIONS
  6
CONTINUOUS
 62
     7
 10
499.9999999999999
 20
-1652.999999999999
 30
0.0
 11
510.7173135244118
 21
-1613.002441406249
 31
0.0
  0
TEXT
  5
BB
  8
DIMNSIONS
 62
     7
 10
480.1222222222221
 20
-1252.916666666666
 30
0.0
 40
54.29470486111111
  1
906
 50
90.0
 41
0.7
 11
425.8275173611111
 21
-1252.916666666666
 31
0.0
 73
     3
  0
LINE
  5
BC
  8
DIMNSIONS
  6
CONTINUOUS
 62
     7
 10
-735.5040425421307
 20
310.0
 30
0.0
 11
-480.0
 21
310.0
 31
0.0
  0
LINE
  5
BD
  8
DIMNSIONS
  6
CONTINUOUS
 62
     7
 10
-747.0000000000003
 20
225.0
 30
0.0
 11
-480.0
 21
225.0
 31
0.0
  0
LINE
  5
BE
  8
DIMNSIONS
  6
CONTINUOUS
 62
     7
 10
-500.0
 20
310.0
 30
0.0
 11
-500.0
 21
520.5555555555555
 31
0.0
  0
LINE
  5
BF
  8
DIMNSIONS
  6
CONTINUOUS
 62
     7
 10
-500.0
 20
310.0
 30
0.0
 11
-500.0
 21
225.0
 31
0.0
  0
LINE
  5
C0
  8
DIMNSIONS
  6
CONTINUOUS
 62
     7
 10
-500.0
 20
310.0
 30
0.0
 11
-489.2826864755882
 21
270.00244140625
 31
0.0
  0
LINE
  5
C1
  8
DIMNSIONS
  6
CONTINUOUS
 62
     7
 10
-500.0
 20
310.0
 30
0.0
 11
-510.7173135244118
 21
270.00244140625
 31
0.0
  0
LINE
  5
C2
  8
DIMNSIONS
  6
CONTINUOUS
 62
     7
 10
-500.0
 20
225.0
 30
0.0
 11
-510.7173135244118
 21
264.99755859375
 31
0.0
  0
LINE
  5
C3
  8
DIMNSIONS
  6
CONTINUOUS
 62
     7
 10
-500.0
 20
225.0
 30
0.0
 11
-489.2826864755882
 21
264.99755859375
 31
0.0
  0
TEXT
  5
C4
  8
DIMNSIONS
 62
     7
 10
-519.8777777777777
 20
379.4444444444445
 30
0.0
 40
54.29470486111116
  1
85.0
 50
90.0
 41
0.7
 11
-574.1724826388889
 21
379.4444444444445
 31
0.0
 73
     3
  0
LINE
  5
C5
  8
DIMNSIONS
  6
CONTINUOUS
 62
     7
 10
-747.0000000000003
 20
225.0
 30
0.0
 11
-480.0
 21
225.0
 31
0.0
  0
LINE
  5
C6
  8
DIMNSIONS
  6
CONTINUOUS
 62
     7
 10
-601.503588509901
 20
-318.0
 30
0.0
 11
-480.0
 21
-318.0
 31
0.0
  0
LINE
  5
C7
  8
DIMNSIONS
  6
CONTINUOUS
 62
     7
 10
-500.0
 20
225.0
 30
0.0
 11
-500.0
 21
-318.0
 31
0.0
  0
LINE
  5
C8
  8
DIMNSIONS
  6
CONTINUOUS
 62
     7
 10
-500.0
 20
225.0
 30
0.0
 11
-489.2826864755882
 21
185.00244140625
 31
0.0
  0
LINE
  5
C9
  8
DIMNSIONS
  6
CONTINUOUS
 62
     7
 10
-500.0
 20
225.0
 30
0.0
 11
-510.7173135244118
 21
185.00244140625
 31
0.0
  0
LINE
  5
CA
  8
DIMNSIONS
  6
CONTINUOUS
 62
     7
 10
-500.0
 20
-318.0
 30
0.0
 11
-510.7173135244118
 21
-278.00244140625
 31
0.0
  0
LINE
  5
CB
  8
DIMNSIONS
  6
CONTINUOUS
 62
     7
 10
-500.0
 20
-318.0
 30
0.0
 11
-489.2826864755882
 21
-278.00244140625
 31
0.0
  0
TEXT
  5
CC
  8
DIMNSIONS
 62
     7
 10
-519.8777777777777
 20
-99.41666666666667
 30
0.0
 40
54.29470486111116
  1
543
 50
90.0
 41
0.7
 11
-574.1724826388889
 21
-99.41666666666667
 31
0.0
 73
     3
  0
LINE
  5
CD
  8
DIMNSIONS
  6
CONTINUOUS
 62
     7
 10
-1029.0
 20
249.0
 30
0.0
 11
-1029.0
 21
470.0
 31
0.0
  0
LINE
  5
CE
  8
DIMNSIONS
  6
CONTINUOUS
 62
     7
 10
-771.0000000000003
 20
249.0
 30
0.0
 11
-771.0000000000003
 21
470.0
 31
0.0
  0
LINE
  5
CF
  8
DIMNSIONS
  6
CONTINUOUS
 62
     7
 10
-1029.0
 20
450.0
 30
0.0
 11
-771.0000000000003
 21
450.0
 31
0.0
  0
LINE
  5
D0
  8
DIMNSIONS
  6
CONTINUOUS
 62
     7
 10
-1029.0
 20
450.0
 30
0.0
 11
-989.0024414062502
 21
460.7173135244118
 31
0.0
  0
LINE
  5
D1
  8
DIMNSIONS
  6
CONTINUOUS
 62
     7
 10
-1029.0
 20
450.0
 30
0.0
 11
-989.0024414062502
 21
439.2826864755882
 31
0.0
  0
LINE
  5
D2
  8
DIMNSIONS
  6
CONTINUOUS
 62
     7
 10
-771.0000000000003
 20
450.0
 30
0.0
 11
-810.9975585937503
 21
439.2826864755882
 31
0.0
  0
LINE
  5
D3
  8
DIMNSIONS
  6
CONTINUOUS
 62
     7
 10
-771.0000000000003
 20
450.0
 30
0.0
 11
-810.9975585937503
 21
460.7173135244118
 31
0.0
  0
TEXT
  5
D4
  8
DIMNSIONS
 62
     7
 10
-952.9166666666669
 20
469.8777777777778
 30
0.0
 40
54.29470486111116
  1
258
 41
0.7
 11
-952.9166666666669
 21
524.1724826388889
 31
0.0
 73
     3
  0
LINE
  5
D5
  8
DIMNSIONS
  6
CONTINUOUS
 62
     7
 10
-1174.4964114901
 20
-342.0
 30
0.0
 11
-1174.4964114901
 21
-545.0
 31
0.0
  0
LINE
  5
D6
  8
DIMNSIONS
  6
CONTINUOUS
 62
     7
 10
-625.503588509901
 20
-342.0
 30
0.0
 11
-625.503588509901
 21
-545.0
 31
0.0
  0
LINE
  5
D7
  8
DIMNSIONS
  6
CONTINUOUS
 62
     7
 10
-1174.4964114901
 20
-525.0
 30
0.0
 11
-625.503588509901
 21
-525.0
 31
0.0
  0
LINE
  5
D8
  8
DIMNSIONS
  6
CONTINUOUS
 62
     7
 10
-1174.4964114901
 20
-525.0
 30
0.0
 11
-1134.49885289635
 21
-514.2826864755882
 31
0.0
  0
LINE
  5
D9
  8
DIMNSIONS
  6
CONTINUOUS
 62
     7
 10
-1174.4964114901
 20
-525.0
 30
0.0
 11
-1134.49885289635
 21
-535.7173135244118
 31
0.0
  0
LINE
  5
DA
  8
DIMNSIONS
  6
CONTINUOUS
 62
     7
 10
-625.503588509901
 20
-525.0
 30
0.0
 11
-665.501147103651
 21
-535.7173135244118
 31
0.0
  0
LINE
  5
DB
  8
DIMNSIONS
  6
CONTINUOUS
 62
     7
 10
-625.503588509901
 20
-525.0
 30
0.0
 11
-665.501147103651
 21
-514.2826864755882
 31
0.0
  0
TEXT
  5
DC
  8
DIMNSIONS
 62
     7
 10
-952.9166666666671
 20
-505.1222222222221
 30
0.0
 40
54.29470486111116
  1
549
 41
0.7
 11
-952.9166666666671
 21
-450.827517361111
 31
0.0
 73
     3
  0
LINE
  5
DD
  8
DIMNSIONS
  6
CONTINUOUS
 62
     7
 10
-1247.8
 20
-703.0
 30
0.0
 11
-1370.0
 21
-703.0
 31
0.0
  0
LINE
  5
DE
  8
DIMNSIONS
  6
CONTINUOUS
 62
     7
 10
-1202.496411490099
 20
-694.4000000000001
 30
0.0
 11
-1370.0
 21
-694.4000000000001
 31
0.0
  0
LINE
  5
DF
  8
DIMNSIONS
  6
CONTINUOUS
 62
     7
 10
-1350.0
 20
-694.4000000000001
 30
0.0
 11
-1350.0
 21
-703.0
 31
0.0
  0
LINE
  5
E0
  8
DIMNSIONS
  6
CONTINUOUS
 62
     7
 10
-1350.0
 20
-703.0
 30
0.0
 11
-1350.0
 21
-773.0
 31
0.0
  0
LINE
  5
E1
  8
DIMNSIONS
  6
CONTINUOUS
 62
     7
 10
-1350.0
 20
-703.0
 30
0.0
 11
-1339.282686475588
 21
-742.99755859375
 31
0.0
  0
LINE
  5
E2
  8
DIMNSIONS
  6
CONTINUOUS
 62
     7
 10
-1350.0
 20
-703.0
 30
0.0
 11
-1360.717313524412
 21
-742.99755859375
 31
0.0
  0
LINE
  5
E3
  8
DIMNSIONS
  6
CONTINUOUS
 62
     7
 10
-1350.0
 20
-694.4000000000001
 30
0.0
 11
-1350.0
 21
-624.4000000000001
 31
0.0
  0
LINE
  5
E4
  8
DIMNSIONS
  6
CONTINUOUS
 62
     7
 10
-1350.0
 20
-694.4000000000001
 30
0.0
 11
-1360.717313524412
 21
-654.4024414062501
 31
0.0
  0
LINE
  5
E5
  8
DIMNSIONS
  6
CONTINUOUS
 62
     7
 10
-1350.0
 20
-694.4000000000001
 30
0.0
 11
-1339.282686475588
 21
-654.4024414062501
 31
0.0
  0
TEXT
  5
E6
  8
DIMNSIONS
 62
     7
 10
-1379.877777777778
 20
-751.6166666666668
 30
0.0
 40
54.29470486111116
  1
8.6
 50
90.0
 41
0.7
 11
-1434.172482638889
 21
-751.6166666666668
 31
0.0
 73
     3
  0
LINE
  5
E7
  8
DIMNSIONS
  6
CONTINUOUS
 62
     7
 10
-1247.8
 20
-1697.000000000001
 30
0.0
 11
-1370.0
 21
-1697.000000000001
 31
0.0
  0
LINE
  5
E8
  8
DIMNSIONS
  6
CONTINUOUS
 62
     7
 10
-1202.496411490099
 20
-1705.6
 30
0.0
 11
-1370.0
 21
-1705.6
 31
0.0
  0
LINE
  5
E9
  8
DIMNSIONS
  6
CONTINUOUS
 62
     7
 10
-1350.0
 20
-1705.6
 30
0.0
 11
-1350.0
 21
-1697.000000000001
 31
0.0
  0
LINE
  5
EA
  8
DIMNSIONS
  6
CONTINUOUS
 62
     7
 10
-1350.0
 20
-1697.000000000001
 30
0.0
 11
-1350.0
 21
-1627.000000000001
 31
0.0
  0
LINE
  5
EB
  8
DIMNSIONS
  6
CONTINUOUS
 62
     7
 10
-1350.0
 20
-1697.000000000001
 30
0.0
 11
-1360.717313524412
 21
-1657.002441406251
 31
0.0
  0
LINE
  5
EC
  8
DIMNSIONS
  6
CONTINUOUS
 62
     7
 10
-1350.0
 20
-1697.000000000001
 30
0.0
 11
-1339.282686475588
 21
-1657.002441406251
 31
0.0
  0
LINE
  5
ED
  8
DIMNSIONS
  6
CONTINUOUS
 62
     7
 10
-1350.0
 20
-1705.6
 30
0.0
 11
-1350.0
 21
-1775.6
 31
0.0
  0
LINE
  5
EE
  8
DIMNSIONS
  6
CONTINUOUS
 62
     7
 10
-1350.0
 20
-1705.6
 30
0.0
 11
-1339.282686475588
 21
-1745.59755859375
 31
0.0
  0
LINE
  5
EF
  8
DIMNSIONS
  6
CONTINUOUS
 62
     7
 10
-1350.0
 20
-1705.6
 30
0.0
 11
-1360.717313524412
 21
-1745.59755859375
 31
0.0
  0
TEXT
  5
F0
  8
DIMNSIONS
 62
     7
 10
-1379.877777777778
 20
-1754.216666666667
 30
0.0
 40
54.29470486111116
  1
8.6
 50
90.0
 41
0.7
 11
-1434.172482638889
 21
-1754.216666666667
 31
0.0
 73
     3
  0
LINE
  5
F1
  8
DIMNSIONS
  6
CONTINUOUS
 62
     7
 10
-553.071274250402
 20
-298.5918198882498
 30
0.0
 11
-158.8114069401896
 21
-192.9502068344771
 31
0.0
  0
LINE
  5
F2
  8
DIMNSIONS
  6
CONTINUOUS
 62
     7
 10
-698.5676857405012
 20
244.4081801117504
 30
0.0
 11
-304.3078184302889
 21
350.0497931655231
 31
0.0
  0
LINE
  5
F3
  8
DIMNSIONS
  6
CONTINUOUS
 62
     7
 10
-178.1299234659709
 20
-198.1265877365275
 30
0.0
 11
-323.6263349560703
 21
344.8734122634727
 31
0.0
  0
LINE
  5
F4
  8
DIMNSIONS
  6
CONTINUOUS
 62
     7
 10
-178.1299234659709
 20
-198.1265877365275
 30
0.0
 11
-198.2051721702264
 21
-161.9098803750998
 31
0.0
  0
LINE
  5
F5
  8
DIMNSIONS
  6
CONTINUOUS
 62
     7
 10
-178.1299234659709
 20
-198.1265877365275
 30
0.0
 11
-177.407245150433
 21
-156.7243747679764
 31
0.0
  0
LINE
  5
F6
  8
DIMNSIONS
  6
CONTINUOUS
 62
     7
 10
-323.6263349560703
 20
344.8734122634727
 30
0.0
 11
-302.9220751127373
 21
309.0125822817119
 31
0.0
  0
LINE
  5
F7
  8
DIMNSIONS
  6
CONTINUOUS
 62
     7
 10
-323.6263349560703
 20
344.8734122634727
 30
0.0
 11
-323.6263349560703
 21
303.4648925768067
 31
0.0
  0
TEXT
  5
F8
  8
DIMNSIONS
 62
     7
 10
-256.3827469991361
 20
17.11508982580483
 30
0.0
 40
54.29470486111116
  1
562
 50
104.9999999999999
 41
0.7
 11
-308.827404655226
 21
3.062586159528906
 31
0.0
 73
     3
  0
LINE
  5
F9
  8
DIMNSIONS
  6
CONTINUOUS
 62
     7
 10
-698.5676857405012
 20
244.4081801117504
 30
0.0
 11
-304.3078184302889
 21
350.0497931655231
 31
0.0
  0
LINE
  5
FA
  8
DIMNSIONS
  6
CONTINUOUS
 62
     7
 10
-726.7107445600764
 20
316.2116570824605
 30
0.0
 11
-324.1439151437781
 21
424.0791139241149
 31
0.0
  0
LINE
  5
FB
  8
DIMNSIONS
  6
CONTINUOUS
 62
     7
 10
-343.4624316695595
 20
418.9027330220645
 30
0.0
 11
-323.6263349560703
 21
344.8734122634727
 31
0.0
  0
LINE
  5
FC
  8
DIMNSIONS
  6
CONTINUOUS
 62
     7
 10
-323.6263349560703
 20
344.8734122634727
 30
0.0
 11
-305.5090017988938
 21
277.2586044232379
 31
0.0
  0
LINE
  5
FD
  8
DIMNSIONS
  6
CONTINUOUS
 62
     7
 10
-323.6263349560703
 20
344.8734122634727
 30
0.0
 11
-302.9220751127373
 21
309.0125822817119
 31
0.0
  0
LINE
  5
FE
  8
DIMNSIONS
  6
CONTINUOUS
 62
     7
 10
-323.6263349560703
 20
344.8734122634727
 30
0.0
 11
-323.6263349560703
 21
303.4648925768067
 31
0.0
  0
LINE
  5
FF
  8
DIMNSIONS
  6
CONTINUOUS
 62
     7
 10
-343.4624316695595
 20
418.9027330220645
 30
0.0
 11
-384.8386130291865
 21
573.3207440793774
 31
0.0
  0
LINE
  5
100
  8
DIMNSIONS
  6
CONTINUOUS
 62
     7
 10
-343.4624316695595
 20
418.9027330220645
 30
0.0
 11
-363.537680373815
 21
455.1194403834922
 31
0.0
  0
LINE
  5
101
  8
DIMNSIONS
  6
CONTINUOUS
 62
     7
 10
-343.4624316695595
 20
418.9027330220645
 30
0.0
 11
-342.7397533540215
 21
460.3049459906155
 31
0.0
  0
TEXT
  5
102
  8
DIMNSIONS
 62
     7
 10
-367.5168289228436
 20
431.8731300176043
 30
0.0
 40
54.29470486111116
  1
76.6
 50
105.0
 41
0.7
 11
-419.9614865789335
 21
417.8206263513284
 31
0.0
 73
     3
  0
LINE
  5
103
  8
DIMNSIONS
  6
CONTINUOUS
 62
     7
 10
923.9999999999992
 20
-747.0000000000003
 30
0.0
 11
1370.0
 21
-747.0000000000003
 31
0.0
  0
LINE
  5
104
  8
DIMNSIONS
  6
CONTINUOUS
 62
     7
 10
923.9999999999992
 20
-1653.0
 30
0.0
 11
1370.0
 21
-1653.0
 31
0.0
  0
LINE
  5
105
  8
DIMNSIONS
  6
CONTINUOUS
 62
     7
 10
1350.0
 20
-747.0000000000003
 30
0.0
 11
1350.0
 21
-1653.0
 31
0.0
  0
LINE
  5
106
  8
DIMNSIONS
  6
CONTINUOUS
 62
     7
 10
1350.0
 20
-747.0000000000003
 30
0.0
 11
1360.717313524412
 21
-786.9975585937503
 31
0.0
  0
LINE
  5
107
  8
DIMNSIONS
  6
CONTINUOUS
 62
     7
 10
1350.0
 20
-747.0000000000003
 30
0.0
 11
1339.282686475588
 21
-786.9975585937503
 31
0.0
  0
LINE
  5
108
  8
DIMNSIONS
  6
CONTINUOUS
 62
     7
 10
1350.0
 20
-1653.0
 30
0.0
 11
1339.282686475588
 21
-1613.00244140625
 31
0.0
  0
LINE
  5
109
  8
DIMNSIONS
  6
CONTINUOUS
 62
     7
 10
1350.0
 20
-1653.0
 30
0.0
 11
1360.717313524412
 21
-1613.00244140625
 31
0.0
  0
TEXT
  5
10A
  8
DIMNSIONS
 62
     7
 10
1330.122222222222
 20
-1252.916666666667
 30
0.0
 40
54.29470486111116
  1
906
 50
90.0
 41
0.7
 11
1275.827517361111
 21
-1252.916666666667
 31
0.0
 73
     3
  0
CIRCLE
  5
10B
  8
DIMNSIONS
  6
CONTINUOUS
 62
     7
 10
899.9999999999993
 20
-747.0000000000002
 30
0.0
 40
11.25
  0
CIRCLE
  5
10C
  8
DIMNSIONS
  6
CONTINUOUS
 62
     7
 10
899.9999999999993
 20
-747.0000000000002
 30
0.0
 40
8.699999999999818
  0
POLYLINE
  5
10D
  8
DIMNSIONS
  6
CONTINUOUS
 62
     7
 66
     1
 10
0.0
 20
0.0
 30
0.0
 70
     1
  0
VERTEX
  5
44D
  8
DIMNSIONS
  6
CONTINUOUS
 62
     7
 10
898.3749999999993
 20
-744.1854174377006
 30
0.0
  0
VERTEX
  5
44E
  8
DIMNSIONS
  6
CONTINUOUS
 62
     7
 10
896.7499999999993
 20
-747.0000000000002
 30
0.0
  0
VERTEX
  5
44F
  8
DIMNSIONS
  6
CONTINUOUS
 62
     7
 10
898.3749999999993
 20
-749.8145825622998
 30
0.0
  0
VERTEX
  5
450
  8
DIMNSIONS
  6
CONTINUOUS
 62
     7
 10
901.6249999999993
 20
-749.8145825622998
 30
0.0
  0
VERTEX
  5
451
  8
DIMNSIONS
  6
CONTINUOUS
 62
     7
 10
903.2499999999993
 20
-747.0000000000002
 30
0.0
  0
VERTEX
  5
452
  8
DIMNSIONS
  6
CONTINUOUS
 62
     7
 10
901.6249999999993
 20
-744.1854174377006
 30
0.0
  0
SEQEND
  5
4D9
  8
DIMNSIONS
  6
CONTINUOUS
 62
     7
  0
CIRCLE
  5
116
  8
DIMNSIONS
  6
CONTINUOUS
 62
     7
 10
899.9999999999993
 20
-1653.0
 30
0.0
 40
11.25
  0
CIRCLE
  5
117
  8
DIMNSIONS
  6
CONTINUOUS
 62
     7
 10
899.9999999999993
 20
-1653.0
 30
0.0
 40
8.699999999999818
  0
POLYLINE
  5
118
  8
DIMNSIONS
  6
CONTINUOUS
 62
     7
 66
     1
 10
0.0
 20
0.0
 30
0.0
 70
     1
  0
VERTEX
  5
453
  8
DIMNSIONS
  6
CONTINUOUS
 62
     7
 10
898.3749999999993
 20
-1655.814582562299
 30
0.0
  0
VERTEX
  5
454
  8
DIMNSIONS
  6
CONTINUOUS
 62
     7
 10
896.7499999999993
 20
-1653.0
 30
0.0
  0
VERTEX
  5
455
  8
DIMNSIONS
  6
CONTINUOUS
 62
     7
 10
898.3749999999993
 20
-1650.1854174377
 30
0.0
  0
VERTEX
  5
456
  8
DIMNSIONS
  6
CONTINUOUS
 62
     7
 10
901.6249999999993
 20
-1650.1854174377
 30
0.0
  0
VERTEX
  5
457
  8
DIMNSIONS
  6
CONTINUOUS
 62
     7
 10
903.2499999999993
 20
-1653.0
 30
0.0
  0
VERTEX
  5
458
  8
DIMNSIONS
  6
CONTINUOUS
 62
     7
 10
901.6249999999993
 20
-1655.814582562299
 30
0.0
  0
SEQEND
  5
4DA
  8
DIMNSIONS
  6
CONTINUOUS
 62
     7
  0
TEXT
  5
121
  8
DIMNSIONS
 62
     7
 10
-325.210500718451
 20
108.2394778932667
 30
0.0
 40
38.00629340277779
  1
※2
 50
105.0
 41
0.7
 11
-361.9217610777139
 21
98.40272532687356
 31
0.0
 73
     3
  0
TEXT
  5
122
  8
DIMNSIONS
 62
     7
 10
-445.4751433999418
 20
557.0732347347082
 30
0.0
 40
38.00629340277779
  1
※2
 50
105.0
 41
0.7
 11
-482.1864037592047
 21
547.2364821683151
 31
0.0
 73
     3
  0
TEXT
  5
123
  8
DIMNSIONS
 62
     7
 10
-847.0833333333336
 20
512.7755555555556
 30
0.0
 40
38.00629340277779
  1
※1
 41
0.7
 11
-847.0833333333336
 21
550.7818489583334
 31
0.0
 73
     3
  0
TEXT
  5
124
  8
DIMNSIONS
 62
     7
 10
437.2244444444444
 20
-1147.083333333333
 30
0.0
 40
38.00629340277779
  1
※1
 50
90.0
 41
0.7
 11
399.2181510416666
 21
-1147.083333333333
 31
0.0
 73
     3
  0
TEXT
  5
125
  8
DIMNSIONS
 62
     7
 10
1287.224444444444
 20
-1147.083333333333
 30
0.0
 40
38.00629340277779
  1
※1
 50
90.0
 41
0.7
 11
1249.218151041666
 21
-1147.083333333333
 31
0.0
 73
     3
  0
TEXT
  5
126
  8
DIMNSIONS
 62
     7
 10
100.0
 20
-1950.4
 30
0.0
 40
54.29470486111111
  1
※1 センター振り分け
 41
0.7
 11
100.0
 21
-1896.105295138889
 31
0.0
 73
     3
  0
TEXT
  5
127
  8
DIMNSIONS
 62
     7
 10
100.0
 20
-2050.4
 30
0.0
 40
54.29470486111111
  1
※2 側面M10寸法
 41
0.7
 11
100.0
 21
-1996.105295138889
 31
0.0
 73
     3
  0
LINE
  5
128
  8
DIMNSIONS
  6
CONTINUOUS
 62
     7
 10
-1242.278915076332
 20
-407.195217958136
 30
0.0
 11
-1282.667448020904
 21
-557.927274950451
 31
0.0
  0
LINE
  5
129
  8
DIMNSIONS
  6
CONTINUOUS
 62
     7
 10
-557.721084923669
 20
-407.195217958136
 30
0.0
 11
-517.3325519790965
 21
-557.927274950451
 31
0.0
  0
ARC
  5
12A
  8
DIMNSIONS
  6
CONTINUOUS
 62
     7
 10
-900.0000000000005
 20
870.2070834662945
 30
0.0
 40
1458.513483694092
 50
255.0000000000001
 51
284.9999999999999
  0
LINE
  5
12B
  8
DIMNSIONS
  6
CONTINUOUS
 62
     7
 10
-522.5089328811478
 20
-538.6087584246698
 30
0.0
 11
-558.7256402425754
 21
-558.6840071289253
 31
0.0
  0
LINE
  5
12C
  8
DIMNSIONS
  6
CONTINUOUS
 62
     7
 10
-522.5089328811478
 20
-538.6087584246698
 30
0.0
 11
-563.9111458496988
 21
-537.8860801091319
 31
0.0
  0
LINE
  5
12D
  8
DIMNSIONS
  6
CONTINUOUS
 62
     7
 10
-1277.491067118854
 20
-538.6087584246698
 30
0.0
 11
-1236.082547432188
 21
-538.6087584246698
 31
0.0
  0
LINE
  5
12E
  8
DIMNSIONS
  6
CONTINUOUS
 62
     7
 10
-1277.491067118854
 20
-538.6087584246698
 30
0.0
 11
-1241.630237137093
 21
-559.3130182680028
 31
0.0
  0
TEXT
  5
12F
  8
DIMNSIONS
 62
     7
 10
-1005.833333333334
 20
-658.9841780055756
 30
0.0
 40
54.29470486111116
  1
30.0°
 41
0.7
 11
-1005.833333333334
 21
-604.6894731444644
 31
0.0
 73
     3
  0
LINE
  5
130
  8
DIMNSIONS
  6
CONTINUOUS
 62
     7
 10
-1064.361982861655
 20
310.0
 30
0.0
 11
-1370.0
 21
310.0
 31
0.0
  0
LINE
  5
131
  8
DIMNSIONS
  6
CONTINUOUS
 62
     7
 10
-927.9999999999995
 20
318.5999999999999
 30
0.0
 11
-1370.0
 21
318.5999999999999
 31
0.0
  0
LINE
  5
132
  8
DIMNSIONS
  6
CONTINUOUS
 62
     7
 10
-1350.0
 20
318.5999999999999
 30
0.0
 11
-1350.0
 21
310.0
 31
0.0
  0
LINE
  5
133
  8
DIMNSIONS
  6
CONTINUOUS
 62
     7
 10
-1350.0
 20
310.0
 30
0.0
 11
-1350.0
 21
240.0
 31
0.0
  0
LINE
  5
134
  8
DIMNSIONS
  6
CONTINUOUS
 62
     7
 10
-1350.0
 20
310.0
 30
0.0
 11
-1339.282686475588
 21
270.00244140625
 31
0.0
  0
LINE
  5
135
  8
DIMNSIONS
  6
CONTINUOUS
 62
     7
 10
-1350.0
 20
310.0
 30
0.0
 11
-1360.717313524412
 21
270.00244140625
 31
0.0
  0
LINE
  5
136
  8
DIMNSIONS
  6
CONTINUOUS
 62
     7
 10
-1350.0
 20
318.5999999999999
 30
0.0
 11
-1350.0
 21
388.5999999999999
 31
0.0
  0
LINE
  5
137
  8
DIMNSIONS
  6
CONTINUOUS
 62
     7
 10
-1350.0
 20
318.5999999999999
 30
0.0
 11
-1360.717313524412
 21
358.5975585937499
 31
0.0
  0
LINE
  5
138
  8
DIMNSIONS
  6
CONTINUOUS
 62
     7
 10
-1350.0
 20
318.5999999999999
 30
0.0
 11
-1339.282686475588
 21
358.5975585937499
 31
0.0
  0
TEXT
  5
139
  8
DIMNSIONS
 62
     7
 10
-1379.877777777778
 20
261.3833333333333
 30
0.0
 40
54.29470486111116
  1
8.6
 50
90.0
 41
0.7
 11
-1434.172482638889
 21
261.3833333333333
 31
0.0
 73
     3
  0
LINE
  5
13A
  8
DIMNSIONS
  6
CONTINUOUS
 62
     7
 10
-618.5506747795921
 20
-323.2294350229141
 30
0.0
 11
-450.0
 21
-450.0
 31
0.0
  0
LINE
  5
13B
  8
DIMNSIONS
  6
CONTINUOUS
 62
     7
 10
-618.5506747795921
 20
-323.2294350229141
 30
0.0
 11
-579.8924913098967
 21
-338.0689213167308
 31
0.0
  0
LINE
  5
13C
  8
DIMNSIONS
  6
CONTINUOUS
 62
     7
 10
-618.5506747795921
 20
-323.2294350229141
 30
0.0
 11
-592.4914489775846
 21
-355.409898867318
 31
0.0
  0
LINE
  5
13D
  8
DIMNSIONS
  6
CONTINUOUS
 62
     7
 10
-450.0
 20
-450.0
 30
0.0
 11
-410.0
 21
-450.0
 31
0.0
  0
TEXT
  5
13E
  8
DIMNSIONS
 62
     7
 10
-410.0
 20
-475.4
 30
0.0
 40
54.29470486111116
  1
M10(10ヵ所)
 41
0.7
 11
-410.0
 21
-421.1052951388888
 31
0.0
 73
     3
  0
TEXT
  5
13F
  8
DIMNSIONS
 62
     7
 10
-847.0833333333338
 20
-462.2244444444443
 30
0.0
 40
38.00629340277779
  1
※1
 41
0.7
 11
-847.0833333333338
 21
-424.2181510416665
 31
0.0
 73
     3
  0
LINE
  5
140
  8
DIMNSIONS
  6
CONTINUOUS
 62
     7
 10
902.8015582611336
 20
-738.7634187122658
 30
0.0
 11
950.0
 21
-600.0
 31
0.0
  0
LINE
  5
141
  8
DIMNSIONS
  6
CONTINUOUS
 62
     7
 10
902.8015582611336
 20
-738.7634187122658
 30
0.0
 11
905.6900705774395
 21
-697.4557680983715
 31
0.0
  0
LINE
  5
142
  8
DIMNSIONS
  6
CONTINUOUS
 62
     7
 10
902.8015582611336
 20
-738.7634187122658
 30
0.0
 11
925.9569086131459
 21
-704.4342000681345
 31
0.0
  0
LINE
  5
143
  8
DIMNSIONS
  6
CONTINUOUS
 62
     7
 10
950.0
 20
-600.0
 30
0.0
 11
990.0
 21
-600.0
 31
0.0
  0
TEXT
  5
144
  8
DIMNSIONS
 62
     7
 10
990.0
 20
-625.4000000000001
 30
0.0
 40
54.29470486111116
  1
M10(2ヵ所)
 41
0.7
 11
990.0
 21
-571.1052951388889
 31
0.0
 73
     3
  0
LINE
  5
145
  8
DIMNSIONS
  6
CONTINUOUS
 62
     7
 10
-401.2566465563574
 20
-739.9514111945631
 30
0.0
 11
-299.9999999999999
 21
-600.0
 31
0.0
  0
LINE
  5
146
  8
DIMNSIONS
  6
CONTINUOUS
 62
     7
 10
-401.2566465563574
 20
-739.9514111945631
 30
0.0
 11
-386.4171602625407
 21
-701.2932277248677
 31
0.0
  0
LINE
  5
147
  8
DIMNSIONS
  6
CONTINUOUS
 62
     7
 10
-401.2566465563574
 20
-739.9514111945631
 30
0.0
 11
-369.0761827119534
 21
-713.8921853925556
 31
0.0
  0
LINE
  5
148
  8
DIMNSIONS
  6
CONTINUOUS
 62
     7
 10
-299.9999999999999
 20
-600.0
 30
0.0
 11
-259.9999999999999
 21
-600.0
 31
0.0
  0
TEXT
  5
149
  8
DIMNSIONS
 62
     7
 10
-259.9999999999999
 20
-625.4000000000001
 30
0.0
 40
54.29470486111116
  1
M10(8ヵ所)
 41
0.7
 11
-259.9999999999999
 21
-571.1052951388889
 31
0.0
 73
     3
  0
TEXT
  5
14A
  8
DATA
 62
     7
 10
-1760.0
 20
-2375.369959444444
 30
0.0
 40
38.00629340277779
  1
※仕様及び外観は予告なく変更されることがあります。
 41
0.7
 11
-1760.0
 21
-2337.363666041666
 31
0.0
 73
     3
  0
TEXT
  5
14B
  8
DATA
 62
     7
 10
-1760.0
 20
-2424.758848333333
 30
0.0
 40
38.00629340277779
  1
　また、同一商品でも若干の個体差があることがあります。ご了承ください。
 41
0.7
 11
-1760.0
 21
-2386.752554930555
 31
0.0
 73
     3
  0
TEXT
  5
14C
  8
DATA
 62
     7
 10
1000.0
 20
-2165.277714999999
 30
0.0
 40
48.86523437500001
  1
JBL PROFESSIONAL
 41
0.7
 11
1000.0
 21
-2116.412480624999
 31
0.0
 73
     3
  0
TEXT
  5
14D
  8
DATA
 62
     7
 10
1000.0
 20
-2310.277714999999
 30
0.0
 40
48.86523437500001
  1
PD6212/64-WRX
 41
0.7
 11
1000.0
 21
-2261.412480624999
 31
0.0
 73
     3
  0
TEXT
  5
14E
  8
DATA
 62
     7
 10
949.9999999999997
 20
-2237.356815
 30
0.0
 40
38.00629340277779
  1
2-Wayフルレンジ・スピーカー
 41
0.7
 11
949.9999999999997
 21
-2199.350521597222
 31
0.0
 73
     3
  0
LINE
  5
14F
  8
DATA
  6
CONTINUOUS
 62
     7
 10
-1236.5
 20
-1684.300000000001
 30
0.0
 11
-1236.5
 21
-715.7
 31
0.0
  0
LINE
  5
150
  8
DATA
  6
CONTINUOUS
 62
     7
 10
-576.1999999999998
 20
-1697.000000000001
 30
0.0
 11
-1223.8
 21
-1697.000000000001
 31
0.0
  0
LINE
  5
151
  8
DATA
  6
CONTINUOUS
 62
     7
 10
-563.5
 20
-715.7
 30
0.0
 11
-563.5
 21
-1684.300000000001
 31
0.0
  0
LINE
  5
152
  8
DATA
  6
CONTINUOUS
 62
     7
 10
-1223.8
 20
-703.0
 30
0.0
 11
-576.1999999999998
 21
-703.0
 31
0.0
  0
ARC
  5
153
  8
DATA
  6
CONTINUOUS
 62
     7
 10
-487.3000000000002
 20
-715.6999999999998
 30
0.0
 40
12.69999999999982
 50
90.0
 51
179.999999999999
  0
LINE
  5
154
  8
DATA
  6
CONTINUOUS
 62
     7
 10
-500.0
 20
-1684.3
 30
0.0
 11
-500.0
 21
-715.6999999999996
 31
0.0
  0
ARC
  5
155
  8
DATA
  6
CONTINUOUS
 62
     7
 10
-487.2999999999963
 20
-1684.299999999998
 30
0.0
 40
12.70000000000368
 50
180.0000000000072
 51
269.9999999999825
  0
LINE
  5
156
  8
DATA
  6
CONTINUOUS
 62
     7
 10
197.2999999999997
 20
-1697.000000000001
 30
0.0
 11
-487.3000000000002
 21
-1697.000000000002
 31
0.0
  0
ARC
  5
157
  8
DATA
  6
CONTINUOUS
 62
     7
 10
197.2999999999979
 20
-1684.299999999999
 30
0.0
 40
12.70000000000209
 50
270.0000000000084
 51
359.9999999999918
  0
LINE
  5
158
  8
DATA
  6
CONTINUOUS
 62
     7
 10
209.9999999999995
 20
-715.6999999999998
 30
0.0
 11
210.0
 21
-1684.300000000001
 31
0.0
  0
ARC
  5
159
  8
DATA
  6
CONTINUOUS
 62
     7
 10
197.299999999999
 20
-715.7000000000006
 30
0.0
 40
12.70000000000056
 50
0.000000000003638
 51
89.9999999999967
  0
LINE
  5
15A
  8
DATA
  6
CONTINUOUS
 62
     7
 10
-487.3000000000002
 20
-703.0
 30
0.0
 11
197.2999999999997
 21
-703.0
 31
0.0
  0
LINE
  5
15B
  8
DATA
  6
STYLE_06
 62
     7
 10
-900.0
 20
400.0
 30
0.0
 11
-900.0000000000005
 21
-450.0
 31
0.0
  0
LINE
  5
15C
  8
DATA
  6
CONTINUOUS
 62
     7
 10
-1040.361982861655
 20
310.0
 30
0.0
 11
-759.6380171383457
 21
310.0
 31
0.0
  0
LINE
  5
15D
  8
DATA
  6
CONTINUOUS
 62
     7
 10
-1041.25
 20
-703.0
 30
0.0
 11
-1041.25
 21
-700.4000000000001
 31
0.0
  0
LINE
  5
15E
  8
DATA
  6
CONTINUOUS
 62
     7
 10
-1018.75
 20
-700.4000000000001
 30
0.0
 11
-1018.75
 21
-703.0
 31
0.0
  0
LINE
  5
15F
  8
DATA
  6
CONTINUOUS
 62
     7
 10
-1041.25
 20
-700.4000000000001
 30
0.0
 11
-1018.75
 21
-700.4000000000001
 31
0.0
  0
LINE
  5
160
  8
DATA
  6
CONTINUOUS
 62
     7
 10
-1041.25
 20
-701.4000000000001
 30
0.0
 11
-1018.75
 21
-701.4000000000001
 31
0.0
  0
LINE
  5
161
  8
DATA
  6
CONTINUOUS
 62
     7
 10
-1033.999999999999
 20
-694.4000000000001
 30
0.0
 11
-1026.000000000001
 21
-694.4000000000001
 31
0.0
  0
LINE
  5
162
  8
DATA
  6
CONTINUOUS
 62
     7
 10
-1038.7
 20
-699.4000000000001
 30
0.0
 11
-1038.7
 21
-700.4000000000001
 31
0.0
  0
LINE
  5
163
  8
DATA
  6
CONTINUOUS
 62
     7
 10
-1021.3
 20
-699.4000000000001
 30
0.0
 11
-1021.3
 21
-700.4000000000001
 31
0.0
  0
LINE
  5
164
  8
DATA
  6
CONTINUOUS
 62
     7
 10
-1038.7
 20
-699.4000000000001
 30
0.0
 11
-1021.3
 21
-699.4000000000001
 31
0.0
  0
ARC
  5
165
  8
DATA
  6
CONTINUOUS
 62
     7
 10
-1030.539432989694
 20
-702.3619329896871
 30
0.0
 40
8.681468825324565
 50
113.4916478035448
 51
160.0512916765245
  0
ARC
  5
166
  8
DATA
  6
CONTINUOUS
 62
     7
 10
-1029.460567010306
 20
-702.3619329896871
 30
0.0
 40
8.681468825324496
 50
19.94870832347553
 51
66.50835219645518
  0
LINE
  5
167
  8
DATA
  6
CONTINUOUS
 62
     7
 10
-781.25
 20
-703.0
 30
0.0
 11
-781.25
 21
-700.4000000000001
 31
0.0
  0
LINE
  5
168
  8
DATA
  6
CONTINUOUS
 62
     7
 10
-758.75
 20
-700.4000000000001
 30
0.0
 11
-758.75
 21
-703.0
 31
0.0
  0
LINE
  5
169
  8
DATA
  6
CONTINUOUS
 62
     7
 10
-781.25
 20
-700.4000000000001
 30
0.0
 11
-758.75
 21
-700.4000000000001
 31
0.0
  0
LINE
  5
16A
  8
DATA
  6
CONTINUOUS
 62
     7
 10
-781.25
 20
-701.4000000000001
 30
0.0
 11
-758.75
 21
-701.4000000000001
 31
0.0
  0
LINE
  5
16B
  8
DATA
  6
CONTINUOUS
 62
     7
 10
-773.9999999999991
 20
-694.4000000000001
 30
0.0
 11
-766.0000000000009
 21
-694.4000000000001
 31
0.0
  0
LINE
  5
16C
  8
DATA
  6
CONTINUOUS
 62
     7
 10
-778.6999999999998
 20
-699.4000000000001
 30
0.0
 11
-778.6999999999998
 21
-700.4000000000001
 31
0.0
  0
LINE
  5
16D
  8
DATA
  6
CONTINUOUS
 62
     7
 10
-761.3000000000002
 20
-699.4000000000001
 30
0.0
 11
-761.3000000000002
 21
-700.4000000000001
 31
0.0
  0
LINE
  5
16E
  8
DATA
  6
CONTINUOUS
 62
     7
 10
-778.6999999999998
 20
-699.4000000000001
 30
0.0
 11
-761.3000000000002
 21
-699.4000000000001
 31
0.0
  0
ARC
  5
16F
  8
DATA
  6
CONTINUOUS
 62
     7
 10
-770.5394329896944
 20
-702.3619329896871
 30
0.0
 40
8.681468825324565
 50
113.4916478035448
 51
160.0512916765245
  0
ARC
  5
170
  8
DATA
  6
CONTINUOUS
 62
     7
 10
-769.4605670103056
 20
-702.3619329896871
 30
0.0
 40
8.681468825324496
 50
19.94870832347553
 51
66.50835219645518
  0
CIRCLE
  5
171
  8
DATA
  6
CONTINUOUS
 62
     7
 10
-900.0000000000005
 20
266.0
 30
0.0
 40
11.25
  0
CIRCLE
  5
172
  8
DATA
  6
CONTINUOUS
 62
     7
 10
-900.0000000000005
 20
266.0
 30
0.0
 40
8.699999999999818
  0
POLYLINE
  5
173
  8
DATA
  6
CONTINUOUS
 62
     7
 66
     1
 10
0.0
 20
0.0
 30
0.0
 70
     1
  0
VERTEX
  5
459
  8
DATA
  6
CONTINUOUS
 62
     7
 10
-901.6250000000005
 20
268.8145825622996
 30
0.0
  0
VERTEX
  5
45A
  8
DATA
  6
CONTINUOUS
 62
     7
 10
-903.2500000000005
 20
266.0
 30
0.0
  0
VERTEX
  5
45B
  8
DATA
  6
CONTINUOUS
 62
     7
 10
-901.6250000000005
 20
263.1854174377004
 30
0.0
  0
VERTEX
  5
45C
  8
DATA
  6
CONTINUOUS
 62
     7
 10
-898.3750000000005
 20
263.1854174377004
 30
0.0
  0
VERTEX
  5
45D
  8
DATA
  6
CONTINUOUS
 62
     7
 10
-896.7500000000005
 20
266.0
 30
0.0
  0
VERTEX
  5
45E
  8
DATA
  6
CONTINUOUS
 62
     7
 10
-898.3750000000005
 20
268.8145825622996
 30
0.0
  0
SEQEND
  5
4DB
  8
DATA
  6
CONTINUOUS
 62
     7
  0
POLYLINE
  5
17C
  8
DATA
  6
CONTINUOUS
 62
     7
 66
     1
 10
0.0
 20
0.0
 30
0.0
 70
     1
  0
VERTEX
  5
45F
  8
DATA
  6
CONTINUOUS
 62
     7
 10
-1216.5
 20
-720.0
 30
0.0
  0
VERTEX
  5
460
  8
DATA
  6
CONTINUOUS
 62
     7
 10
-583.5
 20
-720.0
 30
0.0
  0
VERTEX
  5
461
  8
DATA
  6
CONTINUOUS
 62
     7
 10
-583.5
 20
-1680.0
 30
0.0
  0
VERTEX
  5
462
  8
DATA
  6
CONTINUOUS
 62
     7
 10
-1216.5
 20
-1680.0
 30
0.0
  0
SEQEND
  5
4DC
  8
DATA
  6
CONTINUOUS
 62
     7
  0
ARC
  5
183
  8
DATA
  6
CONTINUOUS
 62
     7
 10
576.2000000000013
 20
-715.7000000000015
 30
0.0
 40
12.7000000000013
 50
90.00000000000874
 51
179.9999999999924
  0
LINE
  5
184
  8
DATA
  6
CONTINUOUS
 62
     7
 10
563.4999999999995
 20
-1684.3
 30
0.0
 11
563.5
 21
-715.6999999999998
 31
0.0
  0
ARC
  5
185
  8
DATA
  6
CONTINUOUS
 62
     7
 10
576.2000000000055
 20
-1684.299999999996
 30
0.0
 40
12.70000000000596
 50
180.0000000000195
 51
269.9999999999723
  0
LINE
  5
186
  8
DATA
  6
CONTINUOUS
 62
     7
 10
1223.800000000001
 20
-1697.000000000001
 30
0.0
 11
576.1999999999994
 21
-1697.000000000002
 31
0.0
  0
ARC
  5
187
  8
DATA
  6
CONTINUOUS
 62
     7
 10
1223.799999999998
 20
-1684.299999999999
 30
0.0
 40
12.70000000000209
 50
270.0000000000103
 51
359.9999999999918
  0
LINE
  5
188
  8
DATA
  6
CONTINUOUS
 62
     7
 10
1236.499999999999
 20
-715.7
 30
0.0
 11
1236.5
 21
-1684.300000000001
 31
0.0
  0
ARC
  5
189
  8
DATA
  6
CONTINUOUS
 62
     7
 10
1223.799999999999
 20
-715.7000000000008
 30
0.0
 40
12.7000000000005
 50
0.000000000003638
 51
89.99999999999693
  0
LINE
  5
18A
  8
DATA
  6
CONTINUOUS
 62
     7
 10
576.1999999999994
 20
-703.0000000000002
 30
0.0
 11
1223.799999999999
 21
-703.0000000000002
 31
0.0
  0
LINE
  5
18B
  8
DATA
  6
CONTINUOUS
 62
     7
 10
749.8929643910146
 20
-703.0000000000002
 30
0.0
 11
749.8929643910146
 21
-1697.0
 31
0.0
  0
LINE
  5
18C
  8
DATA
  6
CONTINUOUS
 62
     7
 10
1050.107035608986
 20
-703.0000000000002
 30
0.0
 11
1050.107035608986
 21
-1697.0
 31
0.0
  0
LINE
  5
18D
  8
DATA
  6
CONTINUOUS
 62
     7
 10
898.5000000000009
 20
-825.9681670589068
 30
0.0
 11
886.0
 21
-833.1850454237767
 31
0.0
  0
LINE
  5
18E
  8
DATA
  6
CONTINUOUS
 62
     7
 10
884.5
 20
-835.7831216351299
 30
0.0
 11
884.5
 21
-850.216878364872
 31
0.0
  0
LINE
  5
18F
  8
DATA
  6
CONTINUOUS
 62
     7
 10
886.0
 20
-852.8149545762251
 30
0.0
 11
896.6500000000003
 21
-858.9637349430947
 31
0.0
  0
LINE
  5
190
  8
DATA
  6
CONTINUOUS
 62
     7
 10
901.5000000000009
 20
-825.9681670589073
 30
0.0
 11
914.0
 21
-833.1850454237772
 31
0.0
  0
LINE
  5
191
  8
DATA
  6
CONTINUOUS
 62
     7
 10
914.0
 20
-852.814954576226
 30
0.0
 11
903.3500000000004
 21
-858.9637349430943
 31
0.0
  0
LINE
  5
192
  8
DATA
  6
CONTINUOUS
 62
     7
 10
915.5
 20
-835.7831216351303
 30
0.0
 11
915.5
 21
-850.2168783648724
 31
0.0
  0
ARC
  5
193
  8
DATA
  6
CONTINUOUS
 62
     7
 10
887.5
 20
-835.7831216351299
 30
0.0
 40
2.999999999999853
 50
120.0000000000016
 51
180.0
  0
ARC
  5
194
  8
DATA
  6
CONTINUOUS
 62
     7
 10
887.5
 20
-850.216878364872
 30
0.0
 40
3.0
 50
180.0
 51
239.9999999999984
  0
ARC
  5
195
  8
DATA
  6
CONTINUOUS
 62
     7
 10
912.5
 20
-850.2168783648733
 30
0.0
 40
2.999999999999459
 50
300.000000000006
 51
0.0000000000173372
  0
ARC
  5
196
  8
DATA
  6
CONTINUOUS
 62
     7
 10
912.5
 20
-835.7831216351303
 30
0.0
 40
3.0
 50
0.0
 51
59.99999999999841
  0
ARC
  5
197
  8
DATA
  6
CONTINUOUS
 62
     7
 10
900.0
 20
-828.5662432702604
 30
0.0
 40
3.000000000000307
 50
59.99999999998333
 51
119.9999999999823
  0
LINE
  5
198
  8
DATA
  6
CONTINUOUS
 62
     7
 10
900.0000000000014
 20
-829.1435935394504
 30
0.0
 11
888.0000000000014
 21
-836.0717967697253
 31
0.0
  0
LINE
  5
199
  8
DATA
  6
CONTINUOUS
 62
     7
 10
912.0000000000005
 20
-849.9282032302774
 30
0.0
 11
903.3500000000003
 21
-854.9222830587673
 31
0.0
  0
LINE
  5
19A
  8
DATA
  6
CONTINUOUS
 62
     7
 10
888.0000000000014
 20
-836.0717967697253
 30
0.0
 11
888.0000000000005
 21
-849.928203230276
 31
0.0
  0
LINE
  5
19B
  8
DATA
  6
CONTINUOUS
 62
     7
 10
912.0000000000014
 20
-836.0717967697271
 30
0.0
 11
912.0000000000005
 21
-849.9282032302774
 31
0.0
  0
LINE
  5
19C
  8
DATA
  6
CONTINUOUS
 62
     7
 10
888.0000000000005
 20
-849.928203230276
 30
0.0
 11
896.6500000000002
 21
-854.9222830587674
 31
0.0
  0
LINE
  5
19D
  8
DATA
  6
CONTINUOUS
 62
     7
 10
900.0000000000014
 20
-829.1435935394504
 30
0.0
 11
912.0000000000014
 21
-836.0717967697271
 31
0.0
  0
ARC
  5
19E
  8
DATA
  6
CONTINUOUS
 62
     7
 10
900.0000000000005
 20
-843.0000000000006
 30
0.0
 40
11.85000000000043
 50
286.4214406532059
 51
253.5785593467901
  0
ARC
  5
19F
  8
DATA
  6
CONTINUOUS
 62
     7
 10
900.0000000000005
 20
-843.0000000000011
 30
0.0
 40
3.349999999999909
 50
0.0
 51
180.0
  0
LINE
  5
1A0
  8
DATA
  6
CONTINUOUS
 62
     7
 10
210.0
 20
-827.5000000000005
 30
0.0
 11
216.6999999999998
 21
-827.5000000000005
 31
0.0
  0
LINE
  5
1A1
  8
DATA
  6
CONTINUOUS
 62
     7
 10
216.6999999999998
 20
-858.5000000000005
 30
0.0
 11
210.0
 21
-858.5000000000005
 31
0.0
  0
LINE
  5
1A2
  8
DATA
  6
CONTINUOUS
 62
     7
 10
216.6999999999998
 20
-827.5000000000005
 30
0.0
 11
216.6999999999998
 21
-858.5000000000005
 31
0.0
  0
LINE
  5
1A3
  8
DATA
  6
CONTINUOUS
 62
     7
 10
216.6999999999998
 20
-830.9999999999986
 30
0.0
 11
234.0000000000014
 21
-830.9999999999986
 31
0.0
  0
LINE
  5
1A4
  8
DATA
  6
CONTINUOUS
 62
     7
 10
234.0000000000014
 20
-854.9999999999995
 30
0.0
 11
216.6999999999998
 21
-854.9999999999995
 31
0.0
  0
LINE
  5
1A5
  8
DATA
  6
CONTINUOUS
 62
     7
 10
234.0000000000014
 20
-830.9999999999986
 30
0.0
 11
234.0000000000014
 21
-854.9999999999995
 31
0.0
  0
LINE
  5
1A6
  8
DATA
  6
CONTINUOUS
 62
     7
 10
241.0011993374283
 20
-834.0000000000009
 30
0.0
 11
241.0011993374283
 21
-852.0000000000009
 31
0.0
  0
ARC
  5
1A7
  8
DATA
  6
CONTINUOUS
 62
     7
 10
230.699609540718
 20
-849.2820482729758
 30
0.0
 40
18.42996884851459
 50
56.01619065907836
 51
79.68397581855655
  0
ARC
  5
1A8
  8
DATA
  6
CONTINUOUS
 62
     7
 10
230.699609540718
 20
-836.717951727026
 30
0.0
 40
18.42996884851453
 50
280.3160241814434
 51
303.9838093409217
  0
LINE
  5
1A9
  8
DATA
  6
CONTINUOUS
 62
     7
 10
260.0
 20
-839.650000000001
 30
0.0
 11
241.0011993374283
 21
-839.650000000001
 31
0.0
  0
LINE
  5
1AA
  8
DATA
  6
CONTINUOUS
 62
     7
 10
260.0
 20
-846.3500000000008
 30
0.0
 11
241.0011993374283
 21
-846.3500000000008
 31
0.0
  0
CIRCLE
  5
1AB
  8
DATA
  6
CONTINUOUS
 62
     7
 10
-771.0000000000005
 20
225.0
 30
0.0
 40
11.25
  0
CIRCLE
  5
1AC
  8
DATA
  6
CONTINUOUS
 62
     7
 10
-771.0000000000005
 20
225.0
 30
0.0
 40
8.699999999999818
  0
POLYLINE
  5
1AD
  8
DATA
  6
CONTINUOUS
 62
     7
 66
     1
 10
0.0
 20
0.0
 30
0.0
 70
     1
  0
VERTEX
  5
463
  8
DATA
  6
CONTINUOUS
 62
     7
 10
-772.6250000000005
 20
227.8145825622996
 30
0.0
  0
VERTEX
  5
464
  8
DATA
  6
CONTINUOUS
 62
     7
 10
-774.2500000000005
 20
225.0
 30
0.0
  0
VERTEX
  5
465
  8
DATA
  6
CONTINUOUS
 62
     7
 10
-772.6250000000005
 20
222.1854174377004
 30
0.0
  0
VERTEX
  5
466
  8
DATA
  6
CONTINUOUS
 62
     7
 10
-769.3750000000005
 20
222.1854174377004
 30
0.0
  0
VERTEX
  5
467
  8
DATA
  6
CONTINUOUS
 62
     7
 10
-767.7500000000005
 20
225.0
 30
0.0
  0
VERTEX
  5
468
  8
DATA
  6
CONTINUOUS
 62
     7
 10
-769.3750000000005
 20
227.8145825622996
 30
0.0
  0
SEQEND
  5
4DD
  8
DATA
  6
CONTINUOUS
 62
     7
  0
CIRCLE
  5
1B6
  8
DATA
  6
CONTINUOUS
 62
     7
 10
-1029.0
 20
225.0
 30
0.0
 40
11.25
  0
CIRCLE
  5
1B7
  8
DATA
  6
CONTINUOUS
 62
     7
 10
-1029.0
 20
225.0
 30
0.0
 40
8.699999999999818
  0
POLYLINE
  5
1B8
  8
DATA
  6
CONTINUOUS
 62
     7
 66
     1
 10
0.0
 20
0.0
 30
0.0
 70
     1
  0
VERTEX
  5
469
  8
DATA
  6
CONTINUOUS
 62
     7
 10
-1030.625
 20
227.8145825622996
 30
0.0
  0
VERTEX
  5
46A
  8
DATA
  6
CONTINUOUS
 62
     7
 10
-1032.25
 20
225.0
 30
0.0
  0
VERTEX
  5
46B
  8
DATA
  6
CONTINUOUS
 62
     7
 10
-1030.625
 20
222.1854174377004
 30
0.0
  0
VERTEX
  5
46C
  8
DATA
  6
CONTINUOUS
 62
     7
 10
-1027.375
 20
222.1854174377004
 30
0.0
  0
VERTEX
  5
46D
  8
DATA
  6
CONTINUOUS
 62
     7
 10
-1025.75
 20
225.0
 30
0.0
  0
VERTEX
  5
46E
  8
DATA
  6
CONTINUOUS
 62
     7
 10
-1027.375
 20
227.8145825622996
 30
0.0
  0
SEQEND
  5
4DE
  8
DATA
  6
CONTINUOUS
 62
     7
  0
ARC
  5
1C1
  8
DATA
  6
CONTINUOUS
 62
     7
 10
-759.5040425421316
 20
297.3
 30
0.0
 40
12.70000000000051
 50
14.99999999999969
 51
89.9999999999959
  0
CIRCLE
  5
1C2
  8
DATA
  6
CONTINUOUS
 62
     7
 10
-1174.4964114901
 20
-318.0
 30
0.0
 40
11.25
  0
CIRCLE
  5
1C3
  8
DATA
  6
CONTINUOUS
 62
     7
 10
-1174.4964114901
 20
-318.0
 30
0.0
 40
8.699999999999818
  0
POLYLINE
  5
1C4
  8
DATA
  6
CONTINUOUS
 62
     7
 66
     1
 10
0.0
 20
0.0
 30
0.0
 70
     1
  0
VERTEX
  5
46F
  8
DATA
  6
CONTINUOUS
 62
     7
 10
-1176.1214114901
 20
-315.1854174377004
 30
0.0
  0
VERTEX
  5
470
  8
DATA
  6
CONTINUOUS
 62
     7
 10
-1177.7464114901
 20
-318.0
 30
0.0
  0
VERTEX
  5
471
  8
DATA
  6
CONTINUOUS
 62
     7
 10
-1176.1214114901
 20
-320.8145825622996
 30
0.0
  0
VERTEX
  5
472
  8
DATA
  6
CONTINUOUS
 62
     7
 10
-1172.8714114901
 20
-320.8145825622996
 30
0.0
  0
VERTEX
  5
473
  8
DATA
  6
CONTINUOUS
 62
     7
 10
-1171.2464114901
 20
-318.0
 30
0.0
  0
VERTEX
  5
474
  8
DATA
  6
CONTINUOUS
 62
     7
 10
-1172.8714114901
 20
-315.1854174377004
 30
0.0
  0
SEQEND
  5
4DF
  8
DATA
  6
CONTINUOUS
 62
     7
  0
CIRCLE
  5
1CD
  8
DATA
  6
CONTINUOUS
 62
     7
 10
-625.503588509901
 20
-318.0
 30
0.0
 40
11.25
  0
CIRCLE
  5
1CE
  8
DATA
  6
CONTINUOUS
 62
     7
 10
-625.503588509901
 20
-318.0
 30
0.0
 40
8.699999999999818
  0
POLYLINE
  5
1CF
  8
DATA
  6
CONTINUOUS
 62
     7
 66
     1
 10
0.0
 20
0.0
 30
0.0
 70
     1
  0
VERTEX
  5
475
  8
DATA
  6
CONTINUOUS
 62
     7
 10
-627.128588509901
 20
-315.1854174377004
 30
0.0
  0
VERTEX
  5
476
  8
DATA
  6
CONTINUOUS
 62
     7
 10
-628.753588509901
 20
-318.0
 30
0.0
  0
VERTEX
  5
477
  8
DATA
  6
CONTINUOUS
 62
     7
 10
-627.128588509901
 20
-320.8145825622996
 30
0.0
  0
VERTEX
  5
478
  8
DATA
  6
CONTINUOUS
 62
     7
 10
-623.878588509901
 20
-320.8145825622996
 30
0.0
  0
VERTEX
  5
479
  8
DATA
  6
CONTINUOUS
 62
     7
 10
-622.253588509901
 20
-318.0
 30
0.0
  0
VERTEX
  5
47A
  8
DATA
  6
CONTINUOUS
 62
     7
 10
-623.878588509901
 20
-315.1854174377004
 30
0.0
  0
SEQEND
  5
4E0
  8
DATA
  6
CONTINUOUS
 62
     7
  0
LINE
  5
1D8
  8
DATA
  6
CONTINUOUS
 62
     7
 10
-1236.067257993871
 20
-384.0129981271984
 30
0.0
 11
-1052.629240855526
 21
300.587001872802
 31
0.0
  0
LINE
  5
1D9
  8
DATA
  6
CONTINUOUS
 62
     7
 10
-563.9327420061295
 20
-384.0129981271984
 30
0.0
 11
-747.370759144475
 21
300.587001872802
 31
0.0
  0
LINE
  5
1DA
  8
DATA
  6
CONTINUOUS
 62
     7
 10
-576.1999999999994
 20
-400.0
 30
0.0
 11
-1223.800000000001
 21
-400.0
 31
0.0
  0
ARC
  5
1DB
  8
DATA
  6
CONTINUOUS
 62
     7
 10
-1223.800000000001
 20
-387.3000000000002
 30
0.0
 40
12.69999999999964
 50
164.9999999999993
 51
270.0
  0
ARC
  5
1DC
  8
DATA
  6
CONTINUOUS
 62
     7
 10
-576.2000000000003
 20
-387.3000000000002
 30
0.0
 40
12.69999999999982
 50
270.0
 51
15.00000000000074
  0
ARC
  5
1DD
  8
DATA
  6
CONTINUOUS
 62
     7
 10
-1040.361982861655
 20
297.3
 30
0.0
 40
12.70000000000005
 50
90.0
 51
164.9999999999993
  0
ARC
  5
1DE
  8
DATA
  6
CONTINUOUS
 62
     7
 10
-759.6380171383448
 20
297.3
 30
0.0
 40
12.69999999999876
 50
15.00000000000181
 51
90.00000000000409
  0
ARC
  5
1DF
  8
DATA
  6
CONTINUOUS
 62
     7
 10
-1223.8
 20
-715.6999999999998
 30
0.0
 40
12.69999999999982
 50
90.0
 51
180.000000000001
  0
ARC
  5
1E0
  8
DATA
  6
CONTINUOUS
 62
     7
 10
-576.2000000000007
 20
-715.7
 30
0.0
 40
12.70000000000073
 50
0.0
 51
89.99999999999591
  0
ARC
  5
1E1
  8
DATA
  6
CONTINUOUS
 62
     7
 10
-576.1999999999998
 20
-1684.300000000001
 30
0.0
 40
12.69999999999982
 50
270.0
 51
0.0
  0
ARC
  5
1E2
  8
DATA
  6
CONTINUOUS
 62
     7
 10
-1223.799999999999
 20
-1684.300000000001
 30
0.0
 40
12.70000000000073
 50
180.0
 51
269.9999999999959
  0
LINE
  5
1E3
  8
DATA
  6
CONTINUOUS
 62
     7
 10
263.3000000000002
 20
-1700.0
 30
0.0
 11
263.3000000000002
 21
-913.5007017642606
 31
0.0
  0
LINE
  5
1E4
  8
DATA
  6
CONTINUOUS
 62
     7
 10
263.3000000000002
 20
-898.5007017642606
 30
0.0
 11
263.3000000000002
 21
-849.6499999999974
 31
0.0
  0
LINE
  5
1E5
  8
DATA
  6
CONTINUOUS
 62
     7
 10
269.9999999999999
 20
-1700.0
 30
0.0
 11
269.9999999999999
 21
-916.4992982357403
 31
0.0
  0
LINE
  5
1E6
  8
DATA
  6
CONTINUOUS
 62
     7
 10
269.9999999999999
 20
-901.4992982357403
 30
0.0
 11
270.0
 21
-849.6499999999974
 31
0.0
  0
ARC
  5
1E7
  8
DATA
  6
CONTINUOUS
 62
     7
 10
260.0
 20
-849.6499999999974
 30
0.0
 40
10.0
 50
0.0
 51
90.0
  0
ARC
  5
1E8
  8
DATA
  6
CONTINUOUS
 62
     7
 10
260.0
 20
-849.6499999999974
 30
0.0
 40
3.300000000000182
 50
0.0
 51
90.0
  0
LINE
  5
1E9
  8
DATA
  6
CONTINUOUS
 62
     7
 10
263.3000000000002
 20
-1700.0
 30
0.0
 11
269.9999999999999
 21
-1700.0
 31
0.0
  0
LINE
  5
1EA
  8
DATA
  6
CONTINUOUS
 62
     7
 10
266.4000000000001
 20
-1700.0
 30
0.0
 11
256.4000000000001
 21
-1765.0
 31
0.0
  0
LINE
  5
1EB
  8
DATA
  6
CONTINUOUS
 62
     7
 10
253.9290707558736
 20
-1764.619857039366
 30
0.0
 11
256.4000000000001
 21
-1765.0
 31
0.0
  0
LINE
  5
1EC
  8
DATA
  6
CONTINUOUS
 62
     7
 10
263.8705872234682
 20
-1700.0
 30
0.0
 11
253.9290707558736
 21
-1764.619857039366
 31
0.0
  0
LINE
  5
1ED
  8
DATA
  6
CONTINUOUS
 62
     7
 10
256.0787791982636
 20
-1764.950581415118
 30
0.0
 11
254.5582073557242
 21
-1774.834298391624
 31
0.0
  0
LINE
  5
1EE
  8
DATA
  6
CONTINUOUS
 62
     7
 10
254.25029155761
 20
-1764.669275624248
 30
0.0
 11
252.7297197150706
 21
-1774.552992600754
 31
0.0
  0
LINE
  5
1EF
  8
DATA
  6
CONTINUOUS
 62
     7
 10
254.5582073557242
 20
-1774.834298391624
 30
0.0
 11
252.7297197150706
 21
-1774.552992600754
 31
0.0
  0
LINE
  5
1F0
  8
DATA
  6
CONTINUOUS
 62
     7
 10
266.9000000000001
 20
-1700.0
 30
0.0
 11
276.9000000000001
 21
-1765.0
 31
0.0
  0
LINE
  5
1F1
  8
DATA
  6
CONTINUOUS
 62
     7
 10
279.3709292441266
 20
-1764.619857039366
 30
0.0
 11
276.9000000000001
 21
-1765.0
 31
0.0
  0
LINE
  5
1F2
  8
DATA
  6
CONTINUOUS
 62
     7
 10
269.4294127765319
 20
-1700.0
 30
0.0
 11
279.3709292441266
 21
-1764.619857039366
 31
0.0
  0
LINE
  5
1F3
  8
DATA
  6
CONTINUOUS
 62
     7
 10
277.2212208017365
 20
-1764.950581415118
 30
0.0
 11
278.741792644276
 21
-1774.834298391624
 31
0.0
  0
LINE
  5
1F4
  8
DATA
  6
CONTINUOUS
 62
     7
 10
279.0497084423902
 20
-1764.669275624248
 30
0.0
 11
280.5702802849296
 21
-1774.552992600754
 31
0.0
  0
LINE
  5
1F5
  8
DATA
  6
CONTINUOUS
 62
     7
 10
278.741792644276
 20
-1774.834298391624
 30
0.0
 11
280.5702802849296
 21
-1774.552992600754
 31
0.0
  0
TEXT
  5
1F6
  8
DATA
 62
     7
 10
216.9884432870371
 20
-1838.585011525278
 30
0.0
 40
43.43576388888889
  1
先バラ
 41
0.7
 72
     1
 11
266.6500000000001
 21
-1816.867129580834
 31
0.0
 73
     2
  0
LINE
  5
1F7
  8
DATA
  6
CONTINUOUS
 62
     7
 10
-1185.7464114901
 20
-703.0
 30
0.0
 11
-1185.7464114901
 21
-700.4000000000001
 31
0.0
  0
LINE
  5
1F8
  8
DATA
  6
CONTINUOUS
 62
     7
 10
-1163.2464114901
 20
-700.4000000000001
 30
0.0
 11
-1163.2464114901
 21
-703.0
 31
0.0
  0
LINE
  5
1F9
  8
DATA
  6
CONTINUOUS
 62
     7
 10
-1185.7464114901
 20
-700.4000000000001
 30
0.0
 11
-1163.2464114901
 21
-700.4000000000001
 31
0.0
  0
LINE
  5
1FA
  8
DATA
  6
CONTINUOUS
 62
     7
 10
-1185.7464114901
 20
-701.4000000000001
 30
0.0
 11
-1163.2464114901
 21
-701.4000000000001
 31
0.0
  0
LINE
  5
1FB
  8
DATA
  6
CONTINUOUS
 62
     7
 10
-1178.496411490099
 20
-694.4000000000001
 30
0.0
 11
-1170.496411490101
 21
-694.4000000000001
 31
0.0
  0
LINE
  5
1FC
  8
DATA
  6
CONTINUOUS
 62
     7
 10
-1183.1964114901
 20
-699.4000000000001
 30
0.0
 11
-1183.1964114901
 21
-700.4000000000001
 31
0.0
  0
LINE
  5
1FD
  8
DATA
  6
CONTINUOUS
 62
     7
 10
-1165.7964114901
 20
-699.4000000000001
 30
0.0
 11
-1165.7964114901
 21
-700.4000000000001
 31
0.0
  0
LINE
  5
1FE
  8
DATA
  6
CONTINUOUS
 62
     7
 10
-1183.1964114901
 20
-699.4000000000001
 30
0.0
 11
-1165.7964114901
 21
-699.4000000000001
 31
0.0
  0
ARC
  5
1FF
  8
DATA
  6
CONTINUOUS
 62
     7
 10
-1175.035844479794
 20
-702.3619329896871
 30
0.0
 40
8.681468825324565
 50
113.4916478035448
 51
160.0512916765245
  0
ARC
  5
200
  8
DATA
  6
CONTINUOUS
 62
     7
 10
-1173.956978500406
 20
-702.3619329896871
 30
0.0
 40
8.681468825324496
 50
19.94870832347553
 51
66.50835219645518
  0
LINE
  5
201
  8
DATA
  6
CONTINUOUS
 62
     7
 10
-636.7535885099
 20
-703.0
 30
0.0
 11
-636.7535885099
 21
-700.4000000000001
 31
0.0
  0
LINE
  5
202
  8
DATA
  6
CONTINUOUS
 62
     7
 10
-614.2535885099
 20
-700.4000000000001
 30
0.0
 11
-614.2535885099
 21
-703.0
 31
0.0
  0
LINE
  5
203
  8
DATA
  6
CONTINUOUS
 62
     7
 10
-636.7535885099
 20
-700.4000000000001
 30
0.0
 11
-614.2535885099
 21
-700.4000000000001
 31
0.0
  0
LINE
  5
204
  8
DATA
  6
CONTINUOUS
 62
     7
 10
-636.7535885099
 20
-701.4000000000001
 30
0.0
 11
-614.2535885099
 21
-701.4000000000001
 31
0.0
  0
LINE
  5
205
  8
DATA
  6
CONTINUOUS
 62
     7
 10
-629.5035885098991
 20
-694.4000000000001
 30
0.0
 11
-621.503588509901
 21
-694.4000000000001
 31
0.0
  0
LINE
  5
206
  8
DATA
  6
CONTINUOUS
 62
     7
 10
-634.2035885098999
 20
-699.4000000000001
 30
0.0
 11
-634.2035885098999
 21
-700.4000000000001
 31
0.0
  0
LINE
  5
207
  8
DATA
  6
CONTINUOUS
 62
     7
 10
-616.8035885099002
 20
-699.4000000000001
 30
0.0
 11
-616.8035885099002
 21
-700.4000000000001
 31
0.0
  0
LINE
  5
208
  8
DATA
  6
CONTINUOUS
 62
     7
 10
-634.2035885098999
 20
-699.4000000000001
 30
0.0
 11
-616.8035885099002
 21
-699.4000000000001
 31
0.0
  0
ARC
  5
209
  8
DATA
  6
CONTINUOUS
 62
     7
 10
-626.0430214995945
 20
-702.3619329896871
 30
0.0
 40
8.681468825324565
 50
113.4916478035448
 51
160.0512916765245
  0
ARC
  5
20A
  8
DATA
  6
CONTINUOUS
 62
     7
 10
-624.9641555202056
 20
-702.3619329896871
 30
0.0
 40
8.681468825324496
 50
19.94870832347553
 51
66.50835219645518
  0
ARC
  5
20B
  8
DATA
  6
CONTINUOUS
 62
     7
 10
254.1500000000001
 20
-923.4375000000005
 30
0.0
 40
26.5625
 50
61.92751306414705
 51
118.072486935853
  0
ARC
  5
20C
  8
DATA
  6
CONTINUOUS
 62
     7
 10
279.1500000000001
 20
-876.5625000000005
 30
0.0
 40
26.5625
 50
241.927513064147
 51
298.072486935853
  0
ARC
  5
20D
  8
DATA
  6
CONTINUOUS
 62
     7
 10
254.1500000000001
 20
-938.4375000000005
 30
0.0
 40
26.5625
 50
61.92751306414705
 51
118.072486935853
  0
ARC
  5
20E
  8
DATA
  6
CONTINUOUS
 62
     7
 10
279.1500000000001
 20
-891.5625000000005
 30
0.0
 40
26.5625
 50
241.927513064147
 51
298.072486935853
  0
LINE
  5
20F
  8
DATA
  6
CONTINUOUS
 62
     7
 10
896.6500000000001
 20
-898.5007017642606
 30
0.0
 11
896.6500000000005
 21
-843.0000000000011
 31
0.0
  0
LINE
  5
210
  8
DATA
  6
CONTINUOUS
 62
     7
 10
903.3499999999999
 20
-901.4992982357403
 30
0.0
 11
903.3500000000004
 21
-843.0000000000011
 31
0.0
  0
ARC
  5
211
  8
DATA
  6
CONTINUOUS
 62
     7
 10
887.5
 20
-923.4375000000005
 30
0.0
 40
26.5625
 50
61.92751306414705
 51
118.072486935853
  0
ARC
  5
212
  8
DATA
  6
CONTINUOUS
 62
     7
 10
912.5
 20
-876.5625000000005
 30
0.0
 40
26.5625
 50
241.927513064147
 51
298.072486935853
  0
LINE
  5
213
  8
DATA
  6
CONTINUOUS
 62
     7
 10
-911.25
 20
-703.0
 30
0.0
 11
-911.25
 21
-700.4000000000001
 31
0.0
  0
LINE
  5
214
  8
DATA
  6
CONTINUOUS
 62
     7
 10
-888.75
 20
-700.4000000000001
 30
0.0
 11
-888.75
 21
-703.0
 31
0.0
  0
LINE
  5
215
  8
DATA
  6
CONTINUOUS
 62
     7
 10
-911.25
 20
-700.4000000000001
 30
0.0
 11
-888.75
 21
-700.4000000000001
 31
0.0
  0
LINE
  5
216
  8
DATA
  6
CONTINUOUS
 62
     7
 10
-911.25
 20
-701.4000000000001
 30
0.0
 11
-888.75
 21
-701.4000000000001
 31
0.0
  0
LINE
  5
217
  8
DATA
  6
CONTINUOUS
 62
     7
 10
-903.9999999999991
 20
-694.4000000000001
 30
0.0
 11
-896.0000000000009
 21
-694.4000000000001
 31
0.0
  0
LINE
  5
218
  8
DATA
  6
CONTINUOUS
 62
     7
 10
-908.6999999999998
 20
-699.4000000000001
 30
0.0
 11
-908.6999999999998
 21
-700.4000000000001
 31
0.0
  0
LINE
  5
219
  8
DATA
  6
CONTINUOUS
 62
     7
 10
-891.3000000000002
 20
-699.4000000000001
 30
0.0
 11
-891.3000000000002
 21
-700.4000000000001
 31
0.0
  0
LINE
  5
21A
  8
DATA
  6
CONTINUOUS
 62
     7
 10
-908.6999999999998
 20
-699.4000000000001
 30
0.0
 11
-891.3000000000002
 21
-699.4000000000001
 31
0.0
  0
ARC
  5
21B
  8
DATA
  6
CONTINUOUS
 62
     7
 10
-900.5394329896944
 20
-702.3619329896871
 30
0.0
 40
8.681468825324565
 50
113.4916478035448
 51
160.0512916765245
  0
ARC
  5
21C
  8
DATA
  6
CONTINUOUS
 62
     7
 10
-899.4605670103056
 20
-702.3619329896871
 30
0.0
 40
8.681468825324496
 50
19.94870832347553
 51
66.50835219645518
  0
POLYLINE
  5
21D
  8
DATA
  6
CONTINUOUS
 62
     7
 66
     1
 10
0.0
 20
0.0
 30
0.0
 70
     1
  0
VERTEX
  5
47B
  8
DATA
  6
CONTINUOUS
 62
     7
 10
-730.4571747865762
 20
247.5102743044266
 30
0.0
  0
VERTEX
  5
47C
  8
DATA
  6
CONTINUOUS
 62
     7
 10
-724.6337462717695
 20
225.7769432129226
 30
0.0
  0
VERTEX
  5
47D
  8
DATA
  6
CONTINUOUS
 62
     7
 10
-727.145153420121
 20
225.1040136956561
 30
0.0
  0
VERTEX
  5
47E
  8
DATA
  6
CONTINUOUS
 62
     7
 10
-732.9685819349277
 20
246.8373447871601
 30
0.0
  0
SEQEND
  5
4E1
  8
DATA
  6
CONTINUOUS
 62
     7
  0
LINE
  5
224
  8
DATA
  6
CONTINUOUS
 62
     7
 10
-731.4231006128651
 20
247.2514552593241
 30
0.0
 11
-725.5996720980585
 21
225.5181241678201
 31
0.0
  0
LINE
  5
225
  8
DATA
  6
CONTINUOUS
 62
     7
 10
-722.7851817518482
 20
242.060226334445
 30
0.0
 11
-720.7146293910286
 21
234.3328197241343
 31
0.0
  0
LINE
  5
226
  8
DATA
  6
CONTINUOUS
 62
     7
 10
-728.8312603952755
 20
245.3059824924918
 30
0.0
 11
-729.7971862215646
 21
245.0471634473893
 31
0.0
  0
LINE
  5
227
  8
DATA
  6
CONTINUOUS
 62
     7
 10
-724.3278090104918
 20
228.4988731150623
 30
0.0
 11
-725.2937348367809
 21
228.2400540699598
 31
0.0
  0
LINE
  5
228
  8
DATA
  6
CONTINUOUS
 62
     7
 10
-728.8312603952755
 20
245.3059824924918
 30
0.0
 11
-724.3278090104918
 21
228.4988731150623
 31
0.0
  0
ARC
  5
229
  8
DATA
  6
CONTINUOUS
 62
     7
 10
-729.5801578046495
 20
236.6568753920268
 30
0.0
 40
8.681468825324542
 50
38.49164780354479
 51
85.05129167652437
  0
ARC
  5
22A
  8
DATA
  6
CONTINUOUS
 62
     7
 10
-729.3009267420705
 20
235.6147708794305
 30
0.0
 40
8.681468825324519
 50
304.9487083234753
 51
351.508352196455
  0
POLYLINE
  5
22B
  8
DATA
  6
CONTINUOUS
 62
     7
 66
     1
 10
0.0
 20
0.0
 30
0.0
 70
     1
  0
VERTEX
  5
47F
  8
DATA
  6
CONTINUOUS
 62
     7
 10
-584.9607632964774
 20
-295.4897256955736
 30
0.0
  0
VERTEX
  5
480
  8
DATA
  6
CONTINUOUS
 62
     7
 10
-579.1373347816707
 20
-317.2230567870777
 30
0.0
  0
VERTEX
  5
481
  8
DATA
  6
CONTINUOUS
 62
     7
 10
-581.6487419300222
 20
-317.8959863043442
 30
0.0
  0
VERTEX
  5
482
  8
DATA
  6
CONTINUOUS
 62
     7
 10
-587.4721704448289
 20
-296.1626552128401
 30
0.0
  0
SEQEND
  5
4E2
  8
DATA
  6
CONTINUOUS
 62
     7
  0
LINE
  5
232
  8
DATA
  6
CONTINUOUS
 62
     7
 10
-585.9266891227663
 20
-295.7485447406762
 30
0.0
 11
-580.1032606079597
 21
-317.4818758321801
 31
0.0
  0
LINE
  5
233
  8
DATA
  6
CONTINUOUS
 62
     7
 10
-577.2887702617494
 20
-300.9397736655552
 30
0.0
 11
-575.2182179009297
 21
-308.6671802758659
 31
0.0
  0
LINE
  5
234
  8
DATA
  6
CONTINUOUS
 62
     7
 10
-583.3348489051767
 20
-297.6940175075084
 30
0.0
 11
-584.3007747314658
 21
-297.952836552611
 31
0.0
  0
LINE
  5
235
  8
DATA
  6
CONTINUOUS
 62
     7
 10
-578.831397520393
 20
-314.5011268849379
 30
0.0
 11
-579.7973233466821
 21
-314.7599459300404
 31
0.0
  0
LINE
  5
236
  8
DATA
  6
CONTINUOUS
 62
     7
 10
-583.3348489051767
 20
-297.6940175075084
 30
0.0
 11
-578.831397520393
 21
-314.5011268849379
 31
0.0
  0
ARC
  5
237
  8
DATA
  6
CONTINUOUS
 62
     7
 10
-584.0837463145507
 20
-306.3431246079734
 30
0.0
 40
8.681468825324542
 50
38.49164780354479
 51
85.05129167652437
  0
ARC
  5
238
  8
DATA
  6
CONTINUOUS
 62
     7
 10
-583.8045152519717
 20
-307.3852291205698
 30
0.0
 40
8.681468825324519
 50
304.9487083234753
 51
351.508352196455
  0
POLYLINE
  5
239
  8
DATA
  6
CONTINUOUS
 62
     7
 66
     1
 10
0.0
 20
0.0
 30
0.0
 70
     1
  0
VERTEX
  5
483
  8
DATA
  6
CONTINUOUS
 62
     7
 10
-911.2500000000005
 20
312.5999999999999
 30
0.0
  0
VERTEX
  5
484
  8
DATA
  6
CONTINUOUS
 62
     7
 10
-888.7500000000005
 20
312.5999999999999
 30
0.0
  0
VERTEX
  5
485
  8
DATA
  6
CONTINUOUS
 62
     7
 10
-888.7500000000005
 20
310.0
 30
0.0
  0
VERTEX
  5
486
  8
DATA
  6
CONTINUOUS
 62
     7
 10
-911.2500000000005
 20
310.0
 30
0.0
  0
SEQEND
  5
4E3
  8
DATA
  6
CONTINUOUS
 62
     7
  0
LINE
  5
240
  8
DATA
  6
CONTINUOUS
 62
     7
 10
-911.2500000000005
 20
311.5999999999999
 30
0.0
 11
-888.7500000000005
 21
311.5999999999999
 31
0.0
  0
LINE
  5
241
  8
DATA
  6
CONTINUOUS
 62
     7
 10
-903.9999999999995
 20
318.5999999999999
 30
0.0
 11
-896.0000000000014
 21
318.5999999999999
 31
0.0
  0
LINE
  5
242
  8
DATA
  6
CONTINUOUS
 62
     7
 10
-908.7000000000003
 20
313.5999999999999
 30
0.0
 11
-908.7000000000003
 21
312.5999999999999
 31
0.0
  0
LINE
  5
243
  8
DATA
  6
CONTINUOUS
 62
     7
 10
-891.3000000000006
 20
313.5999999999999
 30
0.0
 11
-891.3000000000006
 21
312.5999999999999
 31
0.0
  0
LINE
  5
244
  8
DATA
  6
CONTINUOUS
 62
     7
 10
-908.7000000000003
 20
313.5999999999999
 30
0.0
 11
-891.3000000000006
 21
313.5999999999999
 31
0.0
  0
ARC
  5
245
  8
DATA
  6
CONTINUOUS
 62
     7
 10
-900.5394329896949
 20
310.6380670103129
 30
0.0
 40
8.681468825324565
 50
113.4916478035448
 51
160.0512916765245
  0
ARC
  5
246
  8
DATA
  6
CONTINUOUS
 62
     7
 10
-899.460567010306
 20
310.6380670103129
 30
0.0
 40
8.681468825324496
 50
19.94870832347553
 51
66.50835219645518
  0
POLYLINE
  5
247
  8
DATA
  6
CONTINUOUS
 62
     7
 66
     1
 10
0.0
 20
0.0
 30
0.0
 70
     1
  0
VERTEX
  5
487
  8
DATA
  6
CONTINUOUS
 62
     7
 10
-1067.031418065072
 20
246.8373447871601
 30
0.0
  0
VERTEX
  5
488
  8
DATA
  6
CONTINUOUS
 62
     7
 10
-1072.854846579879
 20
225.1040136956561
 30
0.0
  0
VERTEX
  5
489
  8
DATA
  6
CONTINUOUS
 62
     7
 10
-1075.366253728231
 20
225.7769432129226
 30
0.0
  0
VERTEX
  5
48A
  8
DATA
  6
CONTINUOUS
 62
     7
 10
-1069.542825213424
 20
247.5102743044266
 30
0.0
  0
SEQEND
  5
4E4
  8
DATA
  6
CONTINUOUS
 62
     7
  0
LINE
  5
24E
  8
DATA
  6
CONTINUOUS
 62
     7
 10
-1068.576899387135
 20
247.2514552593241
 30
0.0
 11
-1074.400327901942
 21
225.5181241678201
 31
0.0
  0
LINE
  5
24F
  8
DATA
  6
CONTINUOUS
 62
     7
 10
-1077.214818248152
 20
242.060226334445
 30
0.0
 11
-1079.285370608971
 21
234.3328197241343
 31
0.0
  0
LINE
  5
250
  8
DATA
  6
CONTINUOUS
 62
     7
 10
-1071.168739604725
 20
245.3059824924918
 30
0.0
 11
-1070.202813778435
 21
245.0471634473893
 31
0.0
  0
LINE
  5
251
  8
DATA
  6
CONTINUOUS
 62
     7
 10
-1075.672190989508
 20
228.4988731150623
 30
0.0
 11
-1074.706265163219
 21
228.2400540699598
 31
0.0
  0
LINE
  5
252
  8
DATA
  6
CONTINUOUS
 62
     7
 10
-1071.168739604725
 20
245.3059824924918
 30
0.0
 11
-1075.672190989508
 21
228.4988731150623
 31
0.0
  0
ARC
  5
253
  8
DATA
  6
CONTINUOUS
 62
     7
 10
-1070.419842195351
 20
236.6568753920268
 30
0.0
 40
8.681468825324515
 50
94.94870832347566
 51
141.5083521964543
  0
ARC
  5
254
  8
DATA
  6
CONTINUOUS
 62
     7
 10
-1070.69907325793
 20
235.6147708794305
 30
0.0
 40
8.681468825324611
 50
188.491647803545
 51
235.0512916765248
  0
POLYLINE
  5
255
  8
DATA
  6
CONTINUOUS
 62
     7
 66
     1
 10
0.0
 20
0.0
 30
0.0
 70
     1
  0
VERTEX
  5
48B
  8
DATA
  6
CONTINUOUS
 62
     7
 10
-1212.527829555171
 20
-296.1626552128401
 30
0.0
  0
VERTEX
  5
48C
  8
DATA
  6
CONTINUOUS
 62
     7
 10
-1218.351258069978
 20
-317.8959863043442
 30
0.0
  0
VERTEX
  5
48D
  8
DATA
  6
CONTINUOUS
 62
     7
 10
-1220.862665218329
 20
-317.2230567870777
 30
0.0
  0
VERTEX
  5
48E
  8
DATA
  6
CONTINUOUS
 62
     7
 10
-1215.039236703523
 20
-295.4897256955736
 30
0.0
  0
SEQEND
  5
4E5
  8
DATA
  6
CONTINUOUS
 62
     7
  0
LINE
  5
25C
  8
DATA
  6
CONTINUOUS
 62
     7
 10
-1214.073310877234
 20
-295.7485447406762
 30
0.0
 11
-1219.89673939204
 21
-317.4818758321801
 31
0.0
  0
LINE
  5
25D
  8
DATA
  6
CONTINUOUS
 62
     7
 10
-1222.71122973825
 20
-300.9397736655552
 30
0.0
 11
-1224.78178209907
 21
-308.6671802758659
 31
0.0
  0
LINE
  5
25E
  8
DATA
  6
CONTINUOUS
 62
     7
 10
-1216.665151094823
 20
-297.6940175075084
 30
0.0
 11
-1215.699225268534
 21
-297.952836552611
 31
0.0
  0
LINE
  5
25F
  8
DATA
  6
CONTINUOUS
 62
     7
 10
-1221.168602479607
 20
-314.5011268849379
 30
0.0
 11
-1220.202676653318
 21
-314.7599459300404
 31
0.0
  0
LINE
  5
260
  8
DATA
  6
CONTINUOUS
 62
     7
 10
-1216.665151094823
 20
-297.6940175075084
 30
0.0
 11
-1221.168602479607
 21
-314.5011268849379
 31
0.0
  0
ARC
  5
261
  8
DATA
  6
CONTINUOUS
 62
     7
 10
-1215.916253685449
 20
-306.3431246079734
 30
0.0
 40
8.681468825324515
 50
94.94870832347566
 51
141.5083521964561
  0
ARC
  5
262
  8
DATA
  6
CONTINUOUS
 62
     7
 10
-1216.195484748028
 20
-307.3852291205698
 30
0.0
 40
8.681468825324611
 50
188.491647803545
 51
235.0512916765248
  0
CIRCLE
  5
263
  8
DATA
  6
CONTINUOUS
 62
     7
 10
135.970679241408
 20
-747.0000000000005
 30
0.0
 40
11.25
  0
CIRCLE
  5
264
  8
DATA
  6
CONTINUOUS
 62
     7
 10
136.6436087586746
 20
-747.0000000000005
 30
0.0
 40
8.699999999999818
  0
POLYLINE
  5
265
  8
DATA
  6
CONTINUOUS
 62
     7
 66
     1
 10
0.0
 20
0.0
 30
0.0
 70
     1
  0
VERTEX
  5
48F
  8
DATA
  6
CONTINUOUS
 62
     7
 10
136.5715230292897
 20
-744.1854174377008
 30
0.0
  0
VERTEX
  5
490
  8
DATA
  6
CONTINUOUS
 62
     7
 10
134.9465230292897
 20
-747.0000000000005
 30
0.0
  0
VERTEX
  5
491
  8
DATA
  6
CONTINUOUS
 62
     7
 10
136.5715230292897
 20
-749.8145825623001
 30
0.0
  0
VERTEX
  5
492
  8
DATA
  6
CONTINUOUS
 62
     7
 10
139.8215230292897
 20
-749.8145825623001
 30
0.0
  0
VERTEX
  5
493
  8
DATA
  6
CONTINUOUS
 62
     7
 10
141.4465230292897
 20
-747.0000000000005
 30
0.0
  0
VERTEX
  5
494
  8
DATA
  6
CONTINUOUS
 62
     7
 10
139.8215230292897
 20
-744.1854174377008
 30
0.0
  0
SEQEND
  5
4E6
  8
DATA
  6
CONTINUOUS
 62
     7
  0
CIRCLE
  5
26E
  8
DATA
  6
CONTINUOUS
 62
     7
 10
135.970679241408
 20
-1652.999999999999
 30
0.0
 40
11.25
  0
CIRCLE
  5
26F
  8
DATA
  6
CONTINUOUS
 62
     7
 10
136.6436087586746
 20
-1652.999999999999
 30
0.0
 40
8.699999999999818
  0
POLYLINE
  5
270
  8
DATA
  6
CONTINUOUS
 62
     7
 66
     1
 10
0.0
 20
0.0
 30
0.0
 70
     1
  0
VERTEX
  5
495
  8
DATA
  6
CONTINUOUS
 62
     7
 10
136.5715230292897
 20
-1655.814582562298
 30
0.0
  0
VERTEX
  5
496
  8
DATA
  6
CONTINUOUS
 62
     7
 10
134.9465230292897
 20
-1652.999999999999
 30
0.0
  0
VERTEX
  5
497
  8
DATA
  6
CONTINUOUS
 62
     7
 10
136.5715230292897
 20
-1650.185417437699
 30
0.0
  0
VERTEX
  5
498
  8
DATA
  6
CONTINUOUS
 62
     7
 10
139.8215230292897
 20
-1650.185417437699
 30
0.0
  0
VERTEX
  5
499
  8
DATA
  6
CONTINUOUS
 62
     7
 10
141.4465230292897
 20
-1652.999999999999
 30
0.0
  0
VERTEX
  5
49A
  8
DATA
  6
CONTINUOUS
 62
     7
 10
139.8215230292897
 20
-1655.814582562298
 30
0.0
  0
SEQEND
  5
4E7
  8
DATA
  6
CONTINUOUS
 62
     7
  0
CIRCLE
  5
279
  8
DATA
  6
CONTINUOUS
 62
     7
 10
-407.0293207585922
 20
-747.0000000000005
 30
0.0
 40
11.25
  0
CIRCLE
  5
27A
  8
DATA
  6
CONTINUOUS
 62
     7
 10
-406.3563912413256
 20
-747.0000000000005
 30
0.0
 40
8.699999999999818
  0
POLYLINE
  5
27B
  8
DATA
  6
CONTINUOUS
 62
     7
 66
     1
 10
0.0
 20
0.0
 30
0.0
 70
     1
  0
VERTEX
  5
49B
  8
DATA
  6
CONTINUOUS
 62
     7
 10
-406.4284769707106
 20
-744.1854174377008
 30
0.0
  0
VERTEX
  5
49C
  8
DATA
  6
CONTINUOUS
 62
     7
 10
-408.0534769707106
 20
-747.0000000000005
 30
0.0
  0
VERTEX
  5
49D
  8
DATA
  6
CONTINUOUS
 62
     7
 10
-406.4284769707106
 20
-749.8145825623001
 30
0.0
  0
VERTEX
  5
49E
  8
DATA
  6
CONTINUOUS
 62
     7
 10
-403.1784769707106
 20
-749.8145825623001
 30
0.0
  0
VERTEX
  5
49F
  8
DATA
  6
CONTINUOUS
 62
     7
 10
-401.5534769707106
 20
-747.0000000000005
 30
0.0
  0
VERTEX
  5
4A0
  8
DATA
  6
CONTINUOUS
 62
     7
 10
-403.1784769707106
 20
-744.1854174377008
 30
0.0
  0
SEQEND
  5
4E8
  8
DATA
  6
CONTINUOUS
 62
     7
  0
CIRCLE
  5
284
  8
DATA
  6
CONTINUOUS
 62
     7
 10
-407.0293207585922
 20
-1652.999999999999
 30
0.0
 40
11.25
  0
CIRCLE
  5
285
  8
DATA
  6
CONTINUOUS
 62
     7
 10
-406.3563912413256
 20
-1652.999999999999
 30
0.0
 40
8.699999999999818
  0
POLYLINE
  5
286
  8
DATA
  6
CONTINUOUS
 62
     7
 66
     1
 10
0.0
 20
0.0
 30
0.0
 70
     1
  0
VERTEX
  5
4A1
  8
DATA
  6
CONTINUOUS
 62
     7
 10
-406.4284769707106
 20
-1655.814582562298
 30
0.0
  0
VERTEX
  5
4A2
  8
DATA
  6
CONTINUOUS
 62
     7
 10
-408.0534769707106
 20
-1652.999999999999
 30
0.0
  0
VERTEX
  5
4A3
  8
DATA
  6
CONTINUOUS
 62
     7
 10
-406.4284769707106
 20
-1650.185417437699
 30
0.0
  0
VERTEX
  5
4A4
  8
DATA
  6
CONTINUOUS
 62
     7
 10
-403.1784769707106
 20
-1650.185417437699
 30
0.0
  0
VERTEX
  5
4A5
  8
DATA
  6
CONTINUOUS
 62
     7
 10
-401.5534769707106
 20
-1652.999999999999
 30
0.0
  0
VERTEX
  5
4A6
  8
DATA
  6
CONTINUOUS
 62
     7
 10
-403.1784769707106
 20
-1655.814582562298
 30
0.0
  0
SEQEND
  5
4E9
  8
DATA
  6
CONTINUOUS
 62
     7
  0
LINE
  5
28F
  8
DATA
  6
CONTINUOUS
 62
     7
 10
209.9999999999995
 20
-732.9354174377005
 30
0.0
 11
212.5999999999995
 21
-732.9354174377005
 31
0.0
  0
LINE
  5
290
  8
DATA
  6
CONTINUOUS
 62
     7
 10
212.5999999999995
 20
-755.4354174377005
 30
0.0
 11
209.9999999999995
 21
-755.4354174377005
 31
0.0
  0
LINE
  5
291
  8
DATA
  6
CONTINUOUS
 62
     7
 10
212.5999999999995
 20
-732.9354174377005
 30
0.0
 11
212.5999999999995
 21
-755.4354174377005
 31
0.0
  0
LINE
  5
292
  8
DATA
  6
CONTINUOUS
 62
     7
 10
211.5999999999995
 20
-732.9354174377005
 30
0.0
 11
211.5999999999995
 21
-755.4354174377005
 31
0.0
  0
LINE
  5
293
  8
DATA
  6
CONTINUOUS
 62
     7
 10
218.5999999999995
 20
-740.1854174377014
 30
0.0
 11
218.5999999999995
 21
-748.1854174376996
 31
0.0
  0
LINE
  5
294
  8
DATA
  6
CONTINUOUS
 62
     7
 10
213.5999999999995
 20
-735.4854174377007
 30
0.0
 11
212.5999999999995
 21
-735.4854174377007
 31
0.0
  0
LINE
  5
295
  8
DATA
  6
CONTINUOUS
 62
     7
 10
213.5999999999995
 20
-752.8854174377003
 30
0.0
 11
212.5999999999995
 21
-752.8854174377003
 31
0.0
  0
LINE
  5
296
  8
DATA
  6
CONTINUOUS
 62
     7
 10
213.5999999999995
 20
-735.4854174377007
 30
0.0
 11
213.5999999999995
 21
-752.8854174377003
 31
0.0
  0
ARC
  5
297
  8
DATA
  6
CONTINUOUS
 62
     7
 10
210.6380670103124
 20
-743.6459844480061
 30
0.0
 40
8.681468825324565
 50
23.49164780354483
 51
70.05129167652447
  0
ARC
  5
298
  8
DATA
  6
CONTINUOUS
 62
     7
 10
210.6380670103124
 20
-744.7248504273949
 30
0.0
 40
8.681468825324496
 50
289.9487083234756
 51
336.5083521964552
  0
LINE
  5
299
  8
DATA
  6
CONTINUOUS
 62
     7
 10
212.5999999999995
 20
-1667.064582562301
 30
0.0
 11
209.9999999999995
 21
-1667.064582562301
 31
0.0
  0
LINE
  5
29A
  8
DATA
  6
CONTINUOUS
 62
     7
 10
212.5999999999995
 20
-1644.564582562301
 30
0.0
 11
212.5999999999995
 21
-1667.064582562301
 31
0.0
  0
LINE
  5
29B
  8
DATA
  6
CONTINUOUS
 62
     7
 10
209.9999999999995
 20
-1644.564582562301
 30
0.0
 11
212.5999999999995
 21
-1644.564582562301
 31
0.0
  0
LINE
  5
29C
  8
DATA
  6
CONTINUOUS
 62
     7
 10
211.5999999999995
 20
-1667.064582562301
 30
0.0
 11
211.5999999999995
 21
-1644.564582562301
 31
0.0
  0
LINE
  5
29D
  8
DATA
  6
CONTINUOUS
 62
     7
 10
218.5999999999995
 20
-1659.8145825623
 30
0.0
 11
218.5999999999995
 21
-1651.814582562301
 31
0.0
  0
LINE
  5
29E
  8
DATA
  6
CONTINUOUS
 62
     7
 10
213.5999999999995
 20
-1664.5145825623
 30
0.0
 11
212.5999999999995
 21
-1664.5145825623
 31
0.0
  0
LINE
  5
29F
  8
DATA
  6
CONTINUOUS
 62
     7
 10
213.5999999999995
 20
-1647.114582562301
 30
0.0
 11
212.5999999999995
 21
-1647.114582562301
 31
0.0
  0
LINE
  5
2A0
  8
DATA
  6
CONTINUOUS
 62
     7
 10
213.5999999999995
 20
-1664.5145825623
 30
0.0
 11
213.5999999999995
 21
-1647.114582562301
 31
0.0
  0
ARC
  5
2A1
  8
DATA
  6
CONTINUOUS
 62
     7
 10
210.6380670103124
 20
-1656.354015551995
 30
0.0
 40
8.681468825324496
 50
289.9487083234756
 51
336.5083521964552
  0
ARC
  5
2A2
  8
DATA
  6
CONTINUOUS
 62
     7
 10
210.6380670103124
 20
-1655.275149572606
 30
0.0
 40
8.681468825324565
 50
23.49164780354483
 51
70.05129167652447
  0
LINE
  5
2A3
  8
DATA
  6
CONTINUOUS
 62
     7
 10
-429.25
 20
-703.0
 30
0.0
 11
-429.25
 21
-700.4000000000001
 31
0.0
  0
LINE
  5
2A4
  8
DATA
  6
CONTINUOUS
 62
     7
 10
-406.75
 20
-700.4000000000001
 30
0.0
 11
-406.75
 21
-703.0
 31
0.0
  0
LINE
  5
2A5
  8
DATA
  6
CONTINUOUS
 62
     7
 10
-429.25
 20
-700.4000000000001
 30
0.0
 11
-406.75
 21
-700.4000000000001
 31
0.0
  0
LINE
  5
2A6
  8
DATA
  6
CONTINUOUS
 62
     7
 10
-429.25
 20
-701.4000000000001
 30
0.0
 11
-406.75
 21
-701.4000000000001
 31
0.0
  0
LINE
  5
2A7
  8
DATA
  6
CONTINUOUS
 62
     7
 10
-421.9999999999991
 20
-694.4000000000001
 30
0.0
 11
-414.0000000000009
 21
-694.4000000000001
 31
0.0
  0
LINE
  5
2A8
  8
DATA
  6
CONTINUOUS
 62
     7
 10
-426.6999999999998
 20
-699.4000000000001
 30
0.0
 11
-426.6999999999998
 21
-700.4000000000001
 31
0.0
  0
LINE
  5
2A9
  8
DATA
  6
CONTINUOUS
 62
     7
 10
-409.3000000000002
 20
-699.4000000000001
 30
0.0
 11
-409.3000000000002
 21
-700.4000000000001
 31
0.0
  0
LINE
  5
2AA
  8
DATA
  6
CONTINUOUS
 62
     7
 10
-426.6999999999998
 20
-699.4000000000001
 30
0.0
 11
-409.3000000000002
 21
-699.4000000000001
 31
0.0
  0
ARC
  5
2AB
  8
DATA
  6
CONTINUOUS
 62
     7
 10
-418.5394329896944
 20
-702.3619329896871
 30
0.0
 40
8.681468825324565
 50
113.4916478035448
 51
160.0512916765245
  0
ARC
  5
2AC
  8
DATA
  6
CONTINUOUS
 62
     7
 10
-417.4605670103056
 20
-702.3619329896871
 30
0.0
 40
8.681468825324496
 50
19.94870832347553
 51
66.50835219645518
  0
LINE
  5
2AD
  8
DATA
  6
CONTINUOUS
 62
     7
 10
113.75
 20
-703.0
 30
0.0
 11
113.75
 21
-700.4000000000001
 31
0.0
  0
LINE
  5
2AE
  8
DATA
  6
CONTINUOUS
 62
     7
 10
136.25
 20
-700.4000000000001
 30
0.0
 11
136.25
 21
-703.0
 31
0.0
  0
LINE
  5
2AF
  8
DATA
  6
CONTINUOUS
 62
     7
 10
113.75
 20
-700.4000000000001
 30
0.0
 11
136.25
 21
-700.4000000000001
 31
0.0
  0
LINE
  5
2B0
  8
DATA
  6
CONTINUOUS
 62
     7
 10
113.75
 20
-701.4000000000001
 30
0.0
 11
136.25
 21
-701.4000000000001
 31
0.0
  0
LINE
  5
2B1
  8
DATA
  6
CONTINUOUS
 62
     7
 10
121.0000000000009
 20
-694.4000000000001
 30
0.0
 11
128.9999999999991
 21
-694.4000000000001
 31
0.0
  0
LINE
  5
2B2
  8
DATA
  6
CONTINUOUS
 62
     7
 10
116.3000000000002
 20
-699.4000000000001
 30
0.0
 11
116.3000000000002
 21
-700.4000000000001
 31
0.0
  0
LINE
  5
2B3
  8
DATA
  6
CONTINUOUS
 62
     7
 10
133.6999999999998
 20
-699.4000000000001
 30
0.0
 11
133.6999999999998
 21
-700.4000000000001
 31
0.0
  0
LINE
  5
2B4
  8
DATA
  6
CONTINUOUS
 62
     7
 10
116.3000000000002
 20
-699.4000000000001
 30
0.0
 11
133.6999999999998
 21
-699.4000000000001
 31
0.0
  0
ARC
  5
2B5
  8
DATA
  6
CONTINUOUS
 62
     7
 10
124.4605670103056
 20
-702.3619329896871
 30
0.0
 40
8.681468825324565
 50
113.4916478035448
 51
160.0512916765245
  0
ARC
  5
2B6
  8
DATA
  6
CONTINUOUS
 62
     7
 10
125.5394329896944
 20
-702.3619329896871
 30
0.0
 40
8.681468825324496
 50
19.94870832347553
 51
66.50835219645518
  0
LINE
  5
2B7
  8
DATA
  6
CONTINUOUS
 62
     7
 10
154.75
 20
-703.0
 30
0.0
 11
154.75
 21
-700.4000000000001
 31
0.0
  0
LINE
  5
2B8
  8
DATA
  6
CONTINUOUS
 62
     7
 10
177.25
 20
-700.4000000000001
 30
0.0
 11
177.25
 21
-703.0
 31
0.0
  0
LINE
  5
2B9
  8
DATA
  6
CONTINUOUS
 62
     7
 10
154.75
 20
-700.4000000000001
 30
0.0
 11
177.25
 21
-700.4000000000001
 31
0.0
  0
LINE
  5
2BA
  8
DATA
  6
CONTINUOUS
 62
     7
 10
154.75
 20
-701.4000000000001
 30
0.0
 11
177.25
 21
-701.4000000000001
 31
0.0
  0
LINE
  5
2BB
  8
DATA
  6
CONTINUOUS
 62
     7
 10
162.0000000000009
 20
-694.4000000000001
 30
0.0
 11
169.9999999999991
 21
-694.4000000000001
 31
0.0
  0
LINE
  5
2BC
  8
DATA
  6
CONTINUOUS
 62
     7
 10
157.3000000000002
 20
-699.4000000000001
 30
0.0
 11
157.3000000000002
 21
-700.4000000000001
 31
0.0
  0
LINE
  5
2BD
  8
DATA
  6
CONTINUOUS
 62
     7
 10
174.6999999999998
 20
-699.4000000000001
 30
0.0
 11
174.6999999999998
 21
-700.4000000000001
 31
0.0
  0
LINE
  5
2BE
  8
DATA
  6
CONTINUOUS
 62
     7
 10
157.3000000000002
 20
-699.4000000000001
 30
0.0
 11
174.6999999999998
 21
-699.4000000000001
 31
0.0
  0
ARC
  5
2BF
  8
DATA
  6
CONTINUOUS
 62
     7
 10
165.4605670103056
 20
-702.3619329896871
 30
0.0
 40
8.681468825324565
 50
113.4916478035448
 51
160.0512916765245
  0
ARC
  5
2C0
  8
DATA
  6
CONTINUOUS
 62
     7
 10
166.5394329896944
 20
-702.3619329896871
 30
0.0
 40
8.681468825324496
 50
19.94870832347553
 51
66.50835219645518
  0
LINE
  5
2C1
  8
DATA
  6
CONTINUOUS
 62
     7
 10
-1041.25
 20
-1699.6
 30
0.0
 11
-1041.25
 21
-1697.0
 31
0.0
  0
LINE
  5
2C2
  8
DATA
  6
CONTINUOUS
 62
     7
 10
-1018.75
 20
-1699.6
 30
0.0
 11
-1041.25
 21
-1699.6
 31
0.0
  0
LINE
  5
2C3
  8
DATA
  6
CONTINUOUS
 62
     7
 10
-1018.75
 20
-1697.0
 30
0.0
 11
-1018.75
 21
-1699.6
 31
0.0
  0
LINE
  5
2C4
  8
DATA
  6
CONTINUOUS
 62
     7
 10
-1041.25
 20
-1698.6
 30
0.0
 11
-1018.75
 21
-1698.6
 31
0.0
  0
LINE
  5
2C5
  8
DATA
  6
CONTINUOUS
 62
     7
 10
-1033.999999999999
 20
-1705.6
 30
0.0
 11
-1026.000000000001
 21
-1705.6
 31
0.0
  0
LINE
  5
2C6
  8
DATA
  6
CONTINUOUS
 62
     7
 10
-1038.7
 20
-1700.6
 30
0.0
 11
-1038.7
 21
-1699.6
 31
0.0
  0
LINE
  5
2C7
  8
DATA
  6
CONTINUOUS
 62
     7
 10
-1021.3
 20
-1700.6
 30
0.0
 11
-1021.3
 21
-1699.6
 31
0.0
  0
LINE
  5
2C8
  8
DATA
  6
CONTINUOUS
 62
     7
 10
-1038.7
 20
-1700.6
 30
0.0
 11
-1021.3
 21
-1700.6
 31
0.0
  0
ARC
  5
2C9
  8
DATA
  6
CONTINUOUS
 62
     7
 10
-1030.539432989694
 20
-1697.638067010313
 30
0.0
 40
8.681468825324496
 50
199.9487083234755
 51
246.5083521964552
  0
ARC
  5
2CA
  8
DATA
  6
CONTINUOUS
 62
     7
 10
-1029.460567010306
 20
-1697.638067010313
 30
0.0
 40
8.681468825324565
 50
293.4916478035448
 51
340.0512916765245
  0
LINE
  5
2CB
  8
DATA
  6
CONTINUOUS
 62
     7
 10
-781.25
 20
-1699.6
 30
0.0
 11
-781.25
 21
-1697.0
 31
0.0
  0
LINE
  5
2CC
  8
DATA
  6
CONTINUOUS
 62
     7
 10
-758.75
 20
-1699.6
 30
0.0
 11
-781.25
 21
-1699.6
 31
0.0
  0
LINE
  5
2CD
  8
DATA
  6
CONTINUOUS
 62
     7
 10
-758.75
 20
-1697.0
 30
0.0
 11
-758.75
 21
-1699.6
 31
0.0
  0
LINE
  5
2CE
  8
DATA
  6
CONTINUOUS
 62
     7
 10
-781.25
 20
-1698.6
 30
0.0
 11
-758.75
 21
-1698.6
 31
0.0
  0
LINE
  5
2CF
  8
DATA
  6
CONTINUOUS
 62
     7
 10
-773.9999999999991
 20
-1705.6
 30
0.0
 11
-766.0000000000009
 21
-1705.6
 31
0.0
  0
LINE
  5
2D0
  8
DATA
  6
CONTINUOUS
 62
     7
 10
-778.6999999999998
 20
-1700.6
 30
0.0
 11
-778.6999999999998
 21
-1699.6
 31
0.0
  0
LINE
  5
2D1
  8
DATA
  6
CONTINUOUS
 62
     7
 10
-761.3000000000002
 20
-1700.6
 30
0.0
 11
-761.3000000000002
 21
-1699.6
 31
0.0
  0
LINE
  5
2D2
  8
DATA
  6
CONTINUOUS
 62
     7
 10
-778.6999999999998
 20
-1700.6
 30
0.0
 11
-761.3000000000002
 21
-1700.6
 31
0.0
  0
ARC
  5
2D3
  8
DATA
  6
CONTINUOUS
 62
     7
 10
-770.5394329896944
 20
-1697.638067010313
 30
0.0
 40
8.681468825324496
 50
199.9487083234755
 51
246.5083521964552
  0
ARC
  5
2D4
  8
DATA
  6
CONTINUOUS
 62
     7
 10
-769.4605670103056
 20
-1697.638067010313
 30
0.0
 40
8.681468825324565
 50
293.4916478035448
 51
340.0512916765245
  0
LINE
  5
2D5
  8
DATA
  6
CONTINUOUS
 62
     7
 10
-1185.7464114901
 20
-1699.6
 30
0.0
 11
-1185.7464114901
 21
-1697.0
 31
0.0
  0
LINE
  5
2D6
  8
DATA
  6
CONTINUOUS
 62
     7
 10
-1163.2464114901
 20
-1699.6
 30
0.0
 11
-1185.7464114901
 21
-1699.6
 31
0.0
  0
LINE
  5
2D7
  8
DATA
  6
CONTINUOUS
 62
     7
 10
-1163.2464114901
 20
-1697.0
 30
0.0
 11
-1163.2464114901
 21
-1699.6
 31
0.0
  0
LINE
  5
2D8
  8
DATA
  6
CONTINUOUS
 62
     7
 10
-1185.7464114901
 20
-1698.6
 30
0.0
 11
-1163.2464114901
 21
-1698.6
 31
0.0
  0
LINE
  5
2D9
  8
DATA
  6
CONTINUOUS
 62
     7
 10
-1178.496411490099
 20
-1705.6
 30
0.0
 11
-1170.496411490101
 21
-1705.6
 31
0.0
  0
LINE
  5
2DA
  8
DATA
  6
CONTINUOUS
 62
     7
 10
-1183.1964114901
 20
-1700.6
 30
0.0
 11
-1183.1964114901
 21
-1699.6
 31
0.0
  0
LINE
  5
2DB
  8
DATA
  6
CONTINUOUS
 62
     7
 10
-1165.7964114901
 20
-1700.6
 30
0.0
 11
-1165.7964114901
 21
-1699.6
 31
0.0
  0
LINE
  5
2DC
  8
DATA
  6
CONTINUOUS
 62
     7
 10
-1183.1964114901
 20
-1700.6
 30
0.0
 11
-1165.7964114901
 21
-1700.6
 31
0.0
  0
ARC
  5
2DD
  8
DATA
  6
CONTINUOUS
 62
     7
 10
-1175.035844479794
 20
-1697.638067010313
 30
0.0
 40
8.681468825324496
 50
199.9487083234755
 51
246.5083521964552
  0
ARC
  5
2DE
  8
DATA
  6
CONTINUOUS
 62
     7
 10
-1173.956978500406
 20
-1697.638067010313
 30
0.0
 40
8.681468825324565
 50
293.4916478035448
 51
340.0512916765245
  0
LINE
  5
2DF
  8
DATA
  6
CONTINUOUS
 62
     7
 10
-636.7535885099
 20
-1699.6
 30
0.0
 11
-636.7535885099
 21
-1697.0
 31
0.0
  0
LINE
  5
2E0
  8
DATA
  6
CONTINUOUS
 62
     7
 10
-614.2535885099
 20
-1699.6
 30
0.0
 11
-636.7535885099
 21
-1699.6
 31
0.0
  0
LINE
  5
2E1
  8
DATA
  6
CONTINUOUS
 62
     7
 10
-614.2535885099
 20
-1697.0
 30
0.0
 11
-614.2535885099
 21
-1699.6
 31
0.0
  0
LINE
  5
2E2
  8
DATA
  6
CONTINUOUS
 62
     7
 10
-636.7535885099
 20
-1698.6
 30
0.0
 11
-614.2535885099
 21
-1698.6
 31
0.0
  0
LINE
  5
2E3
  8
DATA
  6
CONTINUOUS
 62
     7
 10
-629.5035885098991
 20
-1705.6
 30
0.0
 11
-621.503588509901
 21
-1705.6
 31
0.0
  0
LINE
  5
2E4
  8
DATA
  6
CONTINUOUS
 62
     7
 10
-634.2035885098999
 20
-1700.6
 30
0.0
 11
-634.2035885098999
 21
-1699.6
 31
0.0
  0
LINE
  5
2E5
  8
DATA
  6
CONTINUOUS
 62
     7
 10
-616.8035885099002
 20
-1700.6
 30
0.0
 11
-616.8035885099002
 21
-1699.6
 31
0.0
  0
LINE
  5
2E6
  8
DATA
  6
CONTINUOUS
 62
     7
 10
-634.2035885098999
 20
-1700.6
 30
0.0
 11
-616.8035885099002
 21
-1700.6
 31
0.0
  0
ARC
  5
2E7
  8
DATA
  6
CONTINUOUS
 62
     7
 10
-626.0430214995945
 20
-1697.638067010313
 30
0.0
 40
8.681468825324496
 50
199.9487083234755
 51
246.5083521964552
  0
ARC
  5
2E8
  8
DATA
  6
CONTINUOUS
 62
     7
 10
-624.9641555202056
 20
-1697.638067010313
 30
0.0
 40
8.681468825324565
 50
293.4916478035448
 51
340.0512916765245
  0
LINE
  5
2E9
  8
DATA
  6
CONTINUOUS
 62
     7
 10
-911.25
 20
-1699.6
 30
0.0
 11
-911.25
 21
-1697.0
 31
0.0
  0
LINE
  5
2EA
  8
DATA
  6
CONTINUOUS
 62
     7
 10
-888.75
 20
-1699.6
 30
0.0
 11
-911.25
 21
-1699.6
 31
0.0
  0
LINE
  5
2EB
  8
DATA
  6
CONTINUOUS
 62
     7
 10
-888.75
 20
-1697.0
 30
0.0
 11
-888.75
 21
-1699.6
 31
0.0
  0
LINE
  5
2EC
  8
DATA
  6
CONTINUOUS
 62
     7
 10
-911.25
 20
-1698.6
 30
0.0
 11
-888.75
 21
-1698.6
 31
0.0
  0
LINE
  5
2ED
  8
DATA
  6
CONTINUOUS
 62
     7
 10
-903.9999999999991
 20
-1705.6
 30
0.0
 11
-896.0000000000009
 21
-1705.6
 31
0.0
  0
LINE
  5
2EE
  8
DATA
  6
CONTINUOUS
 62
     7
 10
-908.6999999999998
 20
-1700.6
 30
0.0
 11
-908.6999999999998
 21
-1699.6
 31
0.0
  0
LINE
  5
2EF
  8
DATA
  6
CONTINUOUS
 62
     7
 10
-891.3000000000002
 20
-1700.6
 30
0.0
 11
-891.3000000000002
 21
-1699.6
 31
0.0
  0
LINE
  5
2F0
  8
DATA
  6
CONTINUOUS
 62
     7
 10
-908.6999999999998
 20
-1700.6
 30
0.0
 11
-891.3000000000002
 21
-1700.6
 31
0.0
  0
ARC
  5
2F1
  8
DATA
  6
CONTINUOUS
 62
     7
 10
-900.5394329896944
 20
-1697.638067010313
 30
0.0
 40
8.681468825324496
 50
199.9487083234755
 51
246.5083521964552
  0
ARC
  5
2F2
  8
DATA
  6
CONTINUOUS
 62
     7
 10
-899.4605670103056
 20
-1697.638067010313
 30
0.0
 40
8.681468825324565
 50
293.4916478035448
 51
340.0512916765245
  0
LINE
  5
2F3
  8
DATA
  6
CONTINUOUS
 62
     7
 10
-429.25
 20
-1699.6
 30
0.0
 11
-429.25
 21
-1697.0
 31
0.0
  0
LINE
  5
2F4
  8
DATA
  6
CONTINUOUS
 62
     7
 10
-406.75
 20
-1699.6
 30
0.0
 11
-429.25
 21
-1699.6
 31
0.0
  0
LINE
  5
2F5
  8
DATA
  6
CONTINUOUS
 62
     7
 10
-406.75
 20
-1697.0
 30
0.0
 11
-406.75
 21
-1699.6
 31
0.0
  0
LINE
  5
2F6
  8
DATA
  6
CONTINUOUS
 62
     7
 10
-429.25
 20
-1698.6
 30
0.0
 11
-406.75
 21
-1698.6
 31
0.0
  0
LINE
  5
2F7
  8
DATA
  6
CONTINUOUS
 62
     7
 10
-421.9999999999991
 20
-1705.6
 30
0.0
 11
-414.0000000000009
 21
-1705.6
 31
0.0
  0
LINE
  5
2F8
  8
DATA
  6
CONTINUOUS
 62
     7
 10
-426.6999999999998
 20
-1700.6
 30
0.0
 11
-426.6999999999998
 21
-1699.6
 31
0.0
  0
LINE
  5
2F9
  8
DATA
  6
CONTINUOUS
 62
     7
 10
-409.3000000000002
 20
-1700.6
 30
0.0
 11
-409.3000000000002
 21
-1699.6
 31
0.0
  0
LINE
  5
2FA
  8
DATA
  6
CONTINUOUS
 62
     7
 10
-426.6999999999998
 20
-1700.6
 30
0.0
 11
-409.3000000000002
 21
-1700.6
 31
0.0
  0
ARC
  5
2FB
  8
DATA
  6
CONTINUOUS
 62
     7
 10
-418.5394329896944
 20
-1697.638067010313
 30
0.0
 40
8.681468825324496
 50
199.9487083234755
 51
246.5083521964552
  0
ARC
  5
2FC
  8
DATA
  6
CONTINUOUS
 62
     7
 10
-417.4605670103056
 20
-1697.638067010313
 30
0.0
 40
8.681468825324565
 50
293.4916478035448
 51
340.0512916765245
  0
LINE
  5
2FD
  8
DATA
  6
CONTINUOUS
 62
     7
 10
113.75
 20
-1699.6
 30
0.0
 11
113.75
 21
-1697.0
 31
0.0
  0
LINE
  5
2FE
  8
DATA
  6
CONTINUOUS
 62
     7
 10
136.25
 20
-1699.6
 30
0.0
 11
113.75
 21
-1699.6
 31
0.0
  0
LINE
  5
2FF
  8
DATA
  6
CONTINUOUS
 62
     7
 10
136.25
 20
-1697.0
 30
0.0
 11
136.25
 21
-1699.6
 31
0.0
  0
LINE
  5
300
  8
DATA
  6
CONTINUOUS
 62
     7
 10
113.75
 20
-1698.6
 30
0.0
 11
136.25
 21
-1698.6
 31
0.0
  0
LINE
  5
301
  8
DATA
  6
CONTINUOUS
 62
     7
 10
121.0000000000009
 20
-1705.6
 30
0.0
 11
128.9999999999991
 21
-1705.6
 31
0.0
  0
LINE
  5
302
  8
DATA
  6
CONTINUOUS
 62
     7
 10
116.3000000000002
 20
-1700.6
 30
0.0
 11
116.3000000000002
 21
-1699.6
 31
0.0
  0
LINE
  5
303
  8
DATA
  6
CONTINUOUS
 62
     7
 10
133.6999999999998
 20
-1700.6
 30
0.0
 11
133.6999999999998
 21
-1699.6
 31
0.0
  0
LINE
  5
304
  8
DATA
  6
CONTINUOUS
 62
     7
 10
116.3000000000002
 20
-1700.6
 30
0.0
 11
133.6999999999998
 21
-1700.6
 31
0.0
  0
ARC
  5
305
  8
DATA
  6
CONTINUOUS
 62
     7
 10
124.4605670103056
 20
-1697.638067010313
 30
0.0
 40
8.681468825324496
 50
199.9487083234755
 51
246.5083521964552
  0
ARC
  5
306
  8
DATA
  6
CONTINUOUS
 62
     7
 10
125.5394329896944
 20
-1697.638067010313
 30
0.0
 40
8.681468825324565
 50
293.4916478035448
 51
340.0512916765245
  0
LINE
  5
307
  8
DATA
  6
CONTINUOUS
 62
     7
 10
154.75
 20
-1699.6
 30
0.0
 11
154.75
 21
-1697.0
 31
0.0
  0
LINE
  5
308
  8
DATA
  6
CONTINUOUS
 62
     7
 10
177.25
 20
-1699.6
 30
0.0
 11
154.75
 21
-1699.6
 31
0.0
  0
LINE
  5
309
  8
DATA
  6
CONTINUOUS
 62
     7
 10
177.25
 20
-1697.0
 30
0.0
 11
177.25
 21
-1699.6
 31
0.0
  0
LINE
  5
30A
  8
DATA
  6
CONTINUOUS
 62
     7
 10
154.75
 20
-1698.6
 30
0.0
 11
177.25
 21
-1698.6
 31
0.0
  0
LINE
  5
30B
  8
DATA
  6
CONTINUOUS
 62
     7
 10
162.0000000000009
 20
-1705.6
 30
0.0
 11
169.9999999999991
 21
-1705.6
 31
0.0
  0
LINE
  5
30C
  8
DATA
  6
CONTINUOUS
 62
     7
 10
157.3000000000002
 20
-1700.6
 30
0.0
 11
157.3000000000002
 21
-1699.6
 31
0.0
  0
LINE
  5
30D
  8
DATA
  6
CONTINUOUS
 62
     7
 10
174.6999999999998
 20
-1700.6
 30
0.0
 11
174.6999999999998
 21
-1699.6
 31
0.0
  0
LINE
  5
30E
  8
DATA
  6
CONTINUOUS
 62
     7
 10
157.3000000000002
 20
-1700.6
 30
0.0
 11
174.6999999999998
 21
-1700.6
 31
0.0
  0
ARC
  5
30F
  8
DATA
  6
CONTINUOUS
 62
     7
 10
165.4605670103056
 20
-1697.638067010313
 30
0.0
 40
8.681468825324496
 50
199.9487083234755
 51
246.5083521964552
  0
ARC
  5
310
  8
DATA
  6
CONTINUOUS
 62
     7
 10
166.5394329896944
 20
-1697.638067010313
 30
0.0
 40
8.681468825324565
 50
293.4916478035448
 51
340.0512916765245
  0
LINE
  5
311
  8
DATA
  6
CONTINUOUS
 62
     7
 10
758.75
 20
-703.0
 30
0.0
 11
758.75
 21
-700.4000000000001
 31
0.0
  0
LINE
  5
312
  8
DATA
  6
CONTINUOUS
 62
     7
 10
781.25
 20
-700.4000000000001
 30
0.0
 11
781.25
 21
-703.0
 31
0.0
  0
LINE
  5
313
  8
DATA
  6
CONTINUOUS
 62
     7
 10
758.75
 20
-700.4000000000001
 30
0.0
 11
781.25
 21
-700.4000000000001
 31
0.0
  0
LINE
  5
314
  8
DATA
  6
CONTINUOUS
 62
     7
 10
758.75
 20
-701.4000000000001
 30
0.0
 11
781.25
 21
-701.4000000000001
 31
0.0
  0
LINE
  5
315
  8
DATA
  6
CONTINUOUS
 62
     7
 10
766.0000000000009
 20
-694.4000000000001
 30
0.0
 11
773.9999999999991
 21
-694.4000000000001
 31
0.0
  0
LINE
  5
316
  8
DATA
  6
CONTINUOUS
 62
     7
 10
761.3000000000002
 20
-699.4000000000001
 30
0.0
 11
761.3000000000002
 21
-700.4000000000001
 31
0.0
  0
LINE
  5
317
  8
DATA
  6
CONTINUOUS
 62
     7
 10
778.6999999999998
 20
-699.4000000000001
 30
0.0
 11
778.6999999999998
 21
-700.4000000000001
 31
0.0
  0
LINE
  5
318
  8
DATA
  6
CONTINUOUS
 62
     7
 10
761.3000000000002
 20
-699.4000000000001
 30
0.0
 11
778.6999999999998
 21
-699.4000000000001
 31
0.0
  0
ARC
  5
319
  8
DATA
  6
CONTINUOUS
 62
     7
 10
769.4605670103056
 20
-702.3619329896871
 30
0.0
 40
8.681468825324565
 50
113.4916478035448
 51
160.0512916765245
  0
ARC
  5
31A
  8
DATA
  6
CONTINUOUS
 62
     7
 10
770.5394329896944
 20
-702.3619329896871
 30
0.0
 40
8.681468825324496
 50
19.94870832347553
 51
66.50835219645518
  0
LINE
  5
31B
  8
DATA
  6
CONTINUOUS
 62
     7
 10
1018.75
 20
-703.0
 30
0.0
 11
1018.75
 21
-700.4000000000001
 31
0.0
  0
LINE
  5
31C
  8
DATA
  6
CONTINUOUS
 62
     7
 10
1041.25
 20
-700.4000000000001
 30
0.0
 11
1041.25
 21
-703.0
 31
0.0
  0
LINE
  5
31D
  8
DATA
  6
CONTINUOUS
 62
     7
 10
1018.75
 20
-700.4000000000001
 30
0.0
 11
1041.25
 21
-700.4000000000001
 31
0.0
  0
LINE
  5
31E
  8
DATA
  6
CONTINUOUS
 62
     7
 10
1018.75
 20
-701.4000000000001
 30
0.0
 11
1041.25
 21
-701.4000000000001
 31
0.0
  0
LINE
  5
31F
  8
DATA
  6
CONTINUOUS
 62
     7
 10
1026.000000000001
 20
-694.4000000000001
 30
0.0
 11
1033.999999999999
 21
-694.4000000000001
 31
0.0
  0
LINE
  5
320
  8
DATA
  6
CONTINUOUS
 62
     7
 10
1021.3
 20
-699.4000000000001
 30
0.0
 11
1021.3
 21
-700.4000000000001
 31
0.0
  0
LINE
  5
321
  8
DATA
  6
CONTINUOUS
 62
     7
 10
1038.7
 20
-699.4000000000001
 30
0.0
 11
1038.7
 21
-700.4000000000001
 31
0.0
  0
LINE
  5
322
  8
DATA
  6
CONTINUOUS
 62
     7
 10
1021.3
 20
-699.4000000000001
 30
0.0
 11
1038.7
 21
-699.4000000000001
 31
0.0
  0
ARC
  5
323
  8
DATA
  6
CONTINUOUS
 62
     7
 10
1029.460567010306
 20
-702.3619329896871
 30
0.0
 40
8.681468825324565
 50
113.4916478035448
 51
160.0512916765245
  0
ARC
  5
324
  8
DATA
  6
CONTINUOUS
 62
     7
 10
1030.539432989694
 20
-702.3619329896871
 30
0.0
 40
8.681468825324496
 50
19.94870832347553
 51
66.50835219645518
  0
LINE
  5
325
  8
DATA
  6
CONTINUOUS
 62
     7
 10
614.2535885099
 20
-703.0
 30
0.0
 11
614.2535885099
 21
-700.4000000000001
 31
0.0
  0
LINE
  5
326
  8
DATA
  6
CONTINUOUS
 62
     7
 10
636.7535885099
 20
-700.4000000000001
 30
0.0
 11
636.7535885099
 21
-703.0
 31
0.0
  0
LINE
  5
327
  8
DATA
  6
CONTINUOUS
 62
     7
 10
614.2535885099
 20
-700.4000000000001
 30
0.0
 11
636.7535885099
 21
-700.4000000000001
 31
0.0
  0
LINE
  5
328
  8
DATA
  6
CONTINUOUS
 62
     7
 10
614.2535885099
 20
-701.4000000000001
 30
0.0
 11
636.7535885099
 21
-701.4000000000001
 31
0.0
  0
LINE
  5
329
  8
DATA
  6
CONTINUOUS
 62
     7
 10
621.503588509901
 20
-694.4000000000001
 30
0.0
 11
629.5035885098991
 21
-694.4000000000001
 31
0.0
  0
LINE
  5
32A
  8
DATA
  6
CONTINUOUS
 62
     7
 10
616.8035885099002
 20
-699.4000000000001
 30
0.0
 11
616.8035885099002
 21
-700.4000000000001
 31
0.0
  0
LINE
  5
32B
  8
DATA
  6
CONTINUOUS
 62
     7
 10
634.2035885098999
 20
-699.4000000000001
 30
0.0
 11
634.2035885098999
 21
-700.4000000000001
 31
0.0
  0
LINE
  5
32C
  8
DATA
  6
CONTINUOUS
 62
     7
 10
616.8035885099002
 20
-699.4000000000001
 30
0.0
 11
634.2035885098999
 21
-699.4000000000001
 31
0.0
  0
ARC
  5
32D
  8
DATA
  6
CONTINUOUS
 62
     7
 10
624.9641555202056
 20
-702.3619329896871
 30
0.0
 40
8.681468825324565
 50
113.4916478035448
 51
160.0512916765245
  0
ARC
  5
32E
  8
DATA
  6
CONTINUOUS
 62
     7
 10
626.0430214995945
 20
-702.3619329896871
 30
0.0
 40
8.681468825324496
 50
19.94870832347553
 51
66.50835219645518
  0
LINE
  5
32F
  8
DATA
  6
CONTINUOUS
 62
     7
 10
1163.2464114901
 20
-703.0
 30
0.0
 11
1163.2464114901
 21
-700.4000000000001
 31
0.0
  0
LINE
  5
330
  8
DATA
  6
CONTINUOUS
 62
     7
 10
1185.7464114901
 20
-700.4000000000001
 30
0.0
 11
1185.7464114901
 21
-703.0
 31
0.0
  0
LINE
  5
331
  8
DATA
  6
CONTINUOUS
 62
     7
 10
1163.2464114901
 20
-700.4000000000001
 30
0.0
 11
1185.7464114901
 21
-700.4000000000001
 31
0.0
  0
LINE
  5
332
  8
DATA
  6
CONTINUOUS
 62
     7
 10
1163.2464114901
 20
-701.4000000000001
 30
0.0
 11
1185.7464114901
 21
-701.4000000000001
 31
0.0
  0
LINE
  5
333
  8
DATA
  6
CONTINUOUS
 62
     7
 10
1170.496411490101
 20
-694.4000000000001
 30
0.0
 11
1178.496411490099
 21
-694.4000000000001
 31
0.0
  0
LINE
  5
334
  8
DATA
  6
CONTINUOUS
 62
     7
 10
1165.7964114901
 20
-699.4000000000001
 30
0.0
 11
1165.7964114901
 21
-700.4000000000001
 31
0.0
  0
LINE
  5
335
  8
DATA
  6
CONTINUOUS
 62
     7
 10
1183.1964114901
 20
-699.4000000000001
 30
0.0
 11
1183.1964114901
 21
-700.4000000000001
 31
0.0
  0
LINE
  5
336
  8
DATA
  6
CONTINUOUS
 62
     7
 10
1165.7964114901
 20
-699.4000000000001
 30
0.0
 11
1183.1964114901
 21
-699.4000000000001
 31
0.0
  0
ARC
  5
337
  8
DATA
  6
CONTINUOUS
 62
     7
 10
1173.956978500406
 20
-702.3619329896871
 30
0.0
 40
8.681468825324565
 50
113.4916478035448
 51
160.0512916765245
  0
ARC
  5
338
  8
DATA
  6
CONTINUOUS
 62
     7
 10
1175.035844479794
 20
-702.3619329896871
 30
0.0
 40
8.681468825324496
 50
19.94870832347553
 51
66.50835219645518
  0
LINE
  5
339
  8
DATA
  6
CONTINUOUS
 62
     7
 10
888.75
 20
-703.0
 30
0.0
 11
888.75
 21
-700.4000000000001
 31
0.0
  0
LINE
  5
33A
  8
DATA
  6
CONTINUOUS
 62
     7
 10
911.25
 20
-700.4000000000001
 30
0.0
 11
911.25
 21
-703.0
 31
0.0
  0
LINE
  5
33B
  8
DATA
  6
CONTINUOUS
 62
     7
 10
888.75
 20
-700.4000000000001
 30
0.0
 11
911.25
 21
-700.4000000000001
 31
0.0
  0
LINE
  5
33C
  8
DATA
  6
CONTINUOUS
 62
     7
 10
888.75
 20
-701.4000000000001
 30
0.0
 11
911.25
 21
-701.4000000000001
 31
0.0
  0
LINE
  5
33D
  8
DATA
  6
CONTINUOUS
 62
     7
 10
896.0000000000009
 20
-694.4000000000001
 30
0.0
 11
903.9999999999991
 21
-694.4000000000001
 31
0.0
  0
LINE
  5
33E
  8
DATA
  6
CONTINUOUS
 62
     7
 10
891.3000000000002
 20
-699.4000000000001
 30
0.0
 11
891.3000000000002
 21
-700.4000000000001
 31
0.0
  0
LINE
  5
33F
  8
DATA
  6
CONTINUOUS
 62
     7
 10
908.6999999999998
 20
-699.4000000000001
 30
0.0
 11
908.6999999999998
 21
-700.4000000000001
 31
0.0
  0
LINE
  5
340
  8
DATA
  6
CONTINUOUS
 62
     7
 10
891.3000000000002
 20
-699.4000000000001
 30
0.0
 11
908.6999999999998
 21
-699.4000000000001
 31
0.0
  0
ARC
  5
341
  8
DATA
  6
CONTINUOUS
 62
     7
 10
899.4605670103056
 20
-702.3619329896871
 30
0.0
 40
8.681468825324565
 50
113.4916478035448
 51
160.0512916765245
  0
ARC
  5
342
  8
DATA
  6
CONTINUOUS
 62
     7
 10
900.5394329896944
 20
-702.3619329896871
 30
0.0
 40
8.681468825324496
 50
19.94870832347553
 51
66.50835219645518
  0
LINE
  5
343
  8
DATA
  6
CONTINUOUS
 62
     7
 10
758.75
 20
-1699.6
 30
0.0
 11
758.75
 21
-1697.0
 31
0.0
  0
LINE
  5
344
  8
DATA
  6
CONTINUOUS
 62
     7
 10
781.25
 20
-1699.6
 30
0.0
 11
758.75
 21
-1699.6
 31
0.0
  0
LINE
  5
345
  8
DATA
  6
CONTINUOUS
 62
     7
 10
781.25
 20
-1697.0
 30
0.0
 11
781.25
 21
-1699.6
 31
0.0
  0
LINE
  5
346
  8
DATA
  6
CONTINUOUS
 62
     7
 10
758.75
 20
-1698.6
 30
0.0
 11
781.25
 21
-1698.6
 31
0.0
  0
LINE
  5
347
  8
DATA
  6
CONTINUOUS
 62
     7
 10
766.0000000000009
 20
-1705.6
 30
0.0
 11
773.9999999999991
 21
-1705.6
 31
0.0
  0
LINE
  5
348
  8
DATA
  6
CONTINUOUS
 62
     7
 10
761.3000000000002
 20
-1700.6
 30
0.0
 11
761.3000000000002
 21
-1699.6
 31
0.0
  0
LINE
  5
349
  8
DATA
  6
CONTINUOUS
 62
     7
 10
778.6999999999998
 20
-1700.6
 30
0.0
 11
778.6999999999998
 21
-1699.6
 31
0.0
  0
LINE
  5
34A
  8
DATA
  6
CONTINUOUS
 62
     7
 10
761.3000000000002
 20
-1700.6
 30
0.0
 11
778.6999999999998
 21
-1700.6
 31
0.0
  0
ARC
  5
34B
  8
DATA
  6
CONTINUOUS
 62
     7
 10
769.4605670103056
 20
-1697.638067010313
 30
0.0
 40
8.681468825324496
 50
199.9487083234755
 51
246.5083521964552
  0
ARC
  5
34C
  8
DATA
  6
CONTINUOUS
 62
     7
 10
770.5394329896944
 20
-1697.638067010313
 30
0.0
 40
8.681468825324565
 50
293.4916478035448
 51
340.0512916765245
  0
LINE
  5
34D
  8
DATA
  6
CONTINUOUS
 62
     7
 10
1018.75
 20
-1699.6
 30
0.0
 11
1018.75
 21
-1697.0
 31
0.0
  0
LINE
  5
34E
  8
DATA
  6
CONTINUOUS
 62
     7
 10
1041.25
 20
-1699.6
 30
0.0
 11
1018.75
 21
-1699.6
 31
0.0
  0
LINE
  5
34F
  8
DATA
  6
CONTINUOUS
 62
     7
 10
1041.25
 20
-1697.0
 30
0.0
 11
1041.25
 21
-1699.6
 31
0.0
  0
LINE
  5
350
  8
DATA
  6
CONTINUOUS
 62
     7
 10
1018.75
 20
-1698.6
 30
0.0
 11
1041.25
 21
-1698.6
 31
0.0
  0
LINE
  5
351
  8
DATA
  6
CONTINUOUS
 62
     7
 10
1026.000000000001
 20
-1705.6
 30
0.0
 11
1033.999999999999
 21
-1705.6
 31
0.0
  0
LINE
  5
352
  8
DATA
  6
CONTINUOUS
 62
     7
 10
1021.3
 20
-1700.6
 30
0.0
 11
1021.3
 21
-1699.6
 31
0.0
  0
LINE
  5
353
  8
DATA
  6
CONTINUOUS
 62
     7
 10
1038.7
 20
-1700.6
 30
0.0
 11
1038.7
 21
-1699.6
 31
0.0
  0
LINE
  5
354
  8
DATA
  6
CONTINUOUS
 62
     7
 10
1021.3
 20
-1700.6
 30
0.0
 11
1038.7
 21
-1700.6
 31
0.0
  0
ARC
  5
355
  8
DATA
  6
CONTINUOUS
 62
     7
 10
1029.460567010306
 20
-1697.638067010313
 30
0.0
 40
8.681468825324496
 50
199.9487083234755
 51
246.5083521964552
  0
ARC
  5
356
  8
DATA
  6
CONTINUOUS
 62
     7
 10
1030.539432989694
 20
-1697.638067010313
 30
0.0
 40
8.681468825324565
 50
293.4916478035448
 51
340.0512916765245
  0
LINE
  5
357
  8
DATA
  6
CONTINUOUS
 62
     7
 10
614.2535885099
 20
-1699.6
 30
0.0
 11
614.2535885099
 21
-1697.0
 31
0.0
  0
LINE
  5
358
  8
DATA
  6
CONTINUOUS
 62
     7
 10
636.7535885099
 20
-1699.6
 30
0.0
 11
614.2535885099
 21
-1699.6
 31
0.0
  0
LINE
  5
359
  8
DATA
  6
CONTINUOUS
 62
     7
 10
636.7535885099
 20
-1697.0
 30
0.0
 11
636.7535885099
 21
-1699.6
 31
0.0
  0
LINE
  5
35A
  8
DATA
  6
CONTINUOUS
 62
     7
 10
614.2535885099
 20
-1698.6
 30
0.0
 11
636.7535885099
 21
-1698.6
 31
0.0
  0
LINE
  5
35B
  8
DATA
  6
CONTINUOUS
 62
     7
 10
621.503588509901
 20
-1705.6
 30
0.0
 11
629.5035885098991
 21
-1705.6
 31
0.0
  0
LINE
  5
35C
  8
DATA
  6
CONTINUOUS
 62
     7
 10
616.8035885099002
 20
-1700.6
 30
0.0
 11
616.8035885099002
 21
-1699.6
 31
0.0
  0
LINE
  5
35D
  8
DATA
  6
CONTINUOUS
 62
     7
 10
634.2035885098999
 20
-1700.6
 30
0.0
 11
634.2035885098999
 21
-1699.6
 31
0.0
  0
LINE
  5
35E
  8
DATA
  6
CONTINUOUS
 62
     7
 10
616.8035885099002
 20
-1700.6
 30
0.0
 11
634.2035885098999
 21
-1700.6
 31
0.0
  0
ARC
  5
35F
  8
DATA
  6
CONTINUOUS
 62
     7
 10
624.9641555202056
 20
-1697.638067010313
 30
0.0
 40
8.681468825324496
 50
199.9487083234755
 51
246.5083521964552
  0
ARC
  5
360
  8
DATA
  6
CONTINUOUS
 62
     7
 10
626.0430214995945
 20
-1697.638067010313
 30
0.0
 40
8.681468825324565
 50
293.4916478035448
 51
340.0512916765245
  0
LINE
  5
361
  8
DATA
  6
CONTINUOUS
 62
     7
 10
1163.2464114901
 20
-1699.6
 30
0.0
 11
1163.2464114901
 21
-1697.0
 31
0.0
  0
LINE
  5
362
  8
DATA
  6
CONTINUOUS
 62
     7
 10
1185.7464114901
 20
-1699.6
 30
0.0
 11
1163.2464114901
 21
-1699.6
 31
0.0
  0
LINE
  5
363
  8
DATA
  6
CONTINUOUS
 62
     7
 10
1185.7464114901
 20
-1697.0
 30
0.0
 11
1185.7464114901
 21
-1699.6
 31
0.0
  0
LINE
  5
364
  8
DATA
  6
CONTINUOUS
 62
     7
 10
1163.2464114901
 20
-1698.6
 30
0.0
 11
1185.7464114901
 21
-1698.6
 31
0.0
  0
LINE
  5
365
  8
DATA
  6
CONTINUOUS
 62
     7
 10
1170.496411490101
 20
-1705.6
 30
0.0
 11
1178.496411490099
 21
-1705.6
 31
0.0
  0
LINE
  5
366
  8
DATA
  6
CONTINUOUS
 62
     7
 10
1165.7964114901
 20
-1700.6
 30
0.0
 11
1165.7964114901
 21
-1699.6
 31
0.0
  0
LINE
  5
367
  8
DATA
  6
CONTINUOUS
 62
     7
 10
1183.1964114901
 20
-1700.6
 30
0.0
 11
1183.1964114901
 21
-1699.6
 31
0.0
  0
LINE
  5
368
  8
DATA
  6
CONTINUOUS
 62
     7
 10
1165.7964114901
 20
-1700.6
 30
0.0
 11
1183.1964114901
 21
-1700.6
 31
0.0
  0
ARC
  5
369
  8
DATA
  6
CONTINUOUS
 62
     7
 10
1173.956978500406
 20
-1697.638067010313
 30
0.0
 40
8.681468825324496
 50
199.9487083234755
 51
246.5083521964552
  0
ARC
  5
36A
  8
DATA
  6
CONTINUOUS
 62
     7
 10
1175.035844479794
 20
-1697.638067010313
 30
0.0
 40
8.681468825324565
 50
293.4916478035448
 51
340.0512916765245
  0
LINE
  5
36B
  8
DATA
  6
CONTINUOUS
 62
     7
 10
888.75
 20
-1699.6
 30
0.0
 11
888.75
 21
-1697.0
 31
0.0
  0
LINE
  5
36C
  8
DATA
  6
CONTINUOUS
 62
     7
 10
911.25
 20
-1699.6
 30
0.0
 11
888.75
 21
-1699.6
 31
0.0
  0
LINE
  5
36D
  8
DATA
  6
CONTINUOUS
 62
     7
 10
911.25
 20
-1697.0
 30
0.0
 11
911.25
 21
-1699.6
 31
0.0
  0
LINE
  5
36E
  8
DATA
  6
CONTINUOUS
 62
     7
 10
888.75
 20
-1698.6
 30
0.0
 11
911.25
 21
-1698.6
 31
0.0
  0
LINE
  5
36F
  8
DATA
  6
CONTINUOUS
 62
     7
 10
896.0000000000009
 20
-1705.6
 30
0.0
 11
903.9999999999991
 21
-1705.6
 31
0.0
  0
LINE
  5
370
  8
DATA
  6
CONTINUOUS
 62
     7
 10
891.3000000000002
 20
-1700.6
 30
0.0
 11
891.3000000000002
 21
-1699.6
 31
0.0
  0
LINE
  5
371
  8
DATA
  6
CONTINUOUS
 62
     7
 10
908.6999999999998
 20
-1700.6
 30
0.0
 11
908.6999999999998
 21
-1699.6
 31
0.0
  0
LINE
  5
372
  8
DATA
  6
CONTINUOUS
 62
     7
 10
891.3000000000002
 20
-1700.6
 30
0.0
 11
908.6999999999998
 21
-1700.6
 31
0.0
  0
ARC
  5
373
  8
DATA
  6
CONTINUOUS
 62
     7
 10
899.4605670103056
 20
-1697.638067010313
 30
0.0
 40
8.681468825324496
 50
199.9487083234755
 51
246.5083521964552
  0
ARC
  5
374
  8
DATA
  6
CONTINUOUS
 62
     7
 10
900.5394329896944
 20
-1697.638067010313
 30
0.0
 40
8.681468825324565
 50
293.4916478035448
 51
340.0512916765245
  0
LINE
  5
375
  8
DATA
  6
CONTINUOUS
 62
     7
 10
-915.5000000000005
 20
310.0
 30
0.0
 11
-915.5000000000005
 21
316.6999999999998
 31
0.0
  0
LINE
  5
376
  8
DATA
  6
CONTINUOUS
 62
     7
 10
-884.5000000000005
 20
316.6999999999998
 30
0.0
 11
-884.5000000000005
 21
310.0
 31
0.0
  0
LINE
  5
377
  8
DATA
  6
CONTINUOUS
 62
     7
 10
-915.5000000000005
 20
316.6999999999998
 30
0.0
 11
-906.7540021134257
 21
316.6999999999998
 31
0.0
  0
LINE
  5
378
  8
DATA
  6
CONTINUOUS
 62
     7
 10
-893.2459978865754
 20
316.6999999999998
 30
0.0
 11
-884.5000000000005
 21
316.6999999999998
 31
0.0
  0
LINE
  5
379
  8
DATA
  6
CONTINUOUS
 62
     7
 10
-912.0000000000023
 20
316.6999999999998
 30
0.0
 11
-912.0000000000023
 21
334.0000000000014
 31
0.0
  0
LINE
  5
37A
  8
DATA
  6
CONTINUOUS
 62
     7
 10
-888.0000000000014
 20
334.0000000000014
 30
0.0
 11
-888.0000000000014
 21
316.6999999999998
 31
0.0
  0
LINE
  5
37B
  8
DATA
  6
CONTINUOUS
 62
     7
 10
-912.0000000000023
 20
334.0000000000014
 30
0.0
 11
-888.0000000000014
 21
334.0000000000014
 31
0.0
  0
LINE
  5
37C
  8
DATA
  6
CONTINUOUS
 62
     7
 10
-909.0
 20
341.0011993374283
 30
0.0
 11
-891.0
 21
341.0011993374283
 31
0.0
  0
ARC
  5
37D
  8
DATA
  6
CONTINUOUS
 62
     7
 10
-893.7179517270251
 20
330.699609540718
 30
0.0
 40
18.42996884851459
 50
146.0161906590783
 51
169.6839758185565
  0
ARC
  5
37E
  8
DATA
  6
CONTINUOUS
 62
     7
 10
-906.2820482729749
 20
330.699609540718
 30
0.0
 40
18.42996884851453
 50
10.31602418144346
 51
33.98380934092165
  0
LINE
  5
37F
  8
DATA
  6
CONTINUOUS
 62
     7
 10
-903.3499999999999
 20
366.6500000000001
 30
0.0
 11
-903.3499999999999
 21
341.0011993374283
 31
0.0
  0
LINE
  5
380
  8
DATA
  6
CONTINUOUS
 62
     7
 10
-896.6500000000001
 20
366.6500000000001
 30
0.0
 11
-896.6500000000001
 21
341.0011993374283
 31
0.0
  0
ARC
  5
381
  8
DATA
  6
CONTINUOUS
 62
     7
 10
-900.0
 20
366.6500000000001
 30
0.0
 40
3.349999999999909
 50
0.0
 51
179.999999999999
  0
CIRCLE
  5
382
  8
DATA
  6
CONTINUOUS
 62
     7
 10
584.5604561874251
 20
-747.0000000000005
 30
0.0
 40
11.25
  0
CIRCLE
  5
383
  8
DATA
  6
CONTINUOUS
 62
     7
 10
582.0490490390736
 20
-747.0000000000005
 30
0.0
 40
8.699999999999818
  0
POLYLINE
  5
384
  8
DATA
  6
CONTINUOUS
 62
     7
 66
     1
 10
0.0
 20
0.0
 30
0.0
 70
     1
  0
VERTEX
  5
4A7
  8
DATA
  6
CONTINUOUS
 62
     7
 10
574.6284940813391
 20
-744.1854174377008
 30
0.0
  0
VERTEX
  5
4A8
  8
DATA
  6
CONTINUOUS
 62
     7
 10
573.0034940813391
 20
-747.0000000000005
 30
0.0
  0
VERTEX
  5
4A9
  8
DATA
  6
CONTINUOUS
 62
     7
 10
574.6284940813391
 20
-749.8145825623001
 30
0.0
  0
VERTEX
  5
4AA
  8
DATA
  6
CONTINUOUS
 62
     7
 10
577.8784940813391
 20
-749.8145825623001
 30
0.0
  0
VERTEX
  5
4AB
  8
DATA
  6
CONTINUOUS
 62
     7
 10
579.5034940813391
 20
-747.0000000000005
 30
0.0
  0
VERTEX
  5
4AC
  8
DATA
  6
CONTINUOUS
 62
     7
 10
577.8784940813391
 20
-744.1854174377008
 30
0.0
  0
SEQEND
  5
4EA
  8
DATA
  6
CONTINUOUS
 62
     7
  0
CIRCLE
  5
38D
  8
DATA
  6
CONTINUOUS
 62
     7
 10
730.0568676775239
 20
-747.0000000000005
 30
0.0
 40
11.25
  0
CIRCLE
  5
38E
  8
DATA
  6
CONTINUOUS
 62
     7
 10
727.5454605291724
 20
-747.0000000000005
 30
0.0
 40
8.699999999999818
  0
POLYLINE
  5
38F
  8
DATA
  6
CONTINUOUS
 62
     7
 66
     1
 10
0.0
 20
0.0
 30
0.0
 70
     1
  0
VERTEX
  5
4AD
  8
DATA
  6
CONTINUOUS
 62
     7
 10
720.1249055714379
 20
-744.1854174377008
 30
0.0
  0
VERTEX
  5
4AE
  8
DATA
  6
CONTINUOUS
 62
     7
 10
718.4999055714379
 20
-747.0000000000005
 30
0.0
  0
VERTEX
  5
4AF
  8
DATA
  6
CONTINUOUS
 62
     7
 10
720.1249055714379
 20
-749.8145825623001
 30
0.0
  0
VERTEX
  5
4B0
  8
DATA
  6
CONTINUOUS
 62
     7
 10
723.3749055714379
 20
-749.8145825623001
 30
0.0
  0
VERTEX
  5
4B1
  8
DATA
  6
CONTINUOUS
 62
     7
 10
724.9999055714379
 20
-747.0000000000005
 30
0.0
  0
VERTEX
  5
4B2
  8
DATA
  6
CONTINUOUS
 62
     7
 10
723.3749055714379
 20
-744.1854174377008
 30
0.0
  0
SEQEND
  5
4EB
  8
DATA
  6
CONTINUOUS
 62
     7
  0
CIRCLE
  5
398
  8
DATA
  6
CONTINUOUS
 62
     7
 10
1215.439543812575
 20
-747.0000000000005
 30
0.0
 40
11.25
  0
CIRCLE
  5
399
  8
DATA
  6
CONTINUOUS
 62
     7
 10
1217.950950960927
 20
-747.0000000000005
 30
0.0
 40
8.699999999999818
  0
POLYLINE
  5
39A
  8
DATA
  6
CONTINUOUS
 62
     7
 66
     1
 10
0.0
 20
0.0
 30
0.0
 70
     1
  0
VERTEX
  5
4B3
  8
DATA
  6
CONTINUOUS
 62
     7
 10
1225.371505918661
 20
-744.1854174377008
 30
0.0
  0
VERTEX
  5
4B4
  8
DATA
  6
CONTINUOUS
 62
     7
 10
1226.996505918661
 20
-747.0000000000005
 30
0.0
  0
VERTEX
  5
4B5
  8
DATA
  6
CONTINUOUS
 62
     7
 10
1225.371505918661
 20
-749.8145825623001
 30
0.0
  0
VERTEX
  5
4B6
  8
DATA
  6
CONTINUOUS
 62
     7
 10
1222.121505918661
 20
-749.8145825623001
 30
0.0
  0
VERTEX
  5
4B7
  8
DATA
  6
CONTINUOUS
 62
     7
 10
1220.496505918661
 20
-747.0000000000005
 30
0.0
  0
VERTEX
  5
4B8
  8
DATA
  6
CONTINUOUS
 62
     7
 10
1222.121505918661
 20
-744.1854174377008
 30
0.0
  0
SEQEND
  5
4EC
  8
DATA
  6
CONTINUOUS
 62
     7
  0
CIRCLE
  5
3A3
  8
DATA
  6
CONTINUOUS
 62
     7
 10
1069.943132322476
 20
-747.0000000000005
 30
0.0
 40
11.25
  0
CIRCLE
  5
3A4
  8
DATA
  6
CONTINUOUS
 62
     7
 10
1072.454539470828
 20
-747.0000000000005
 30
0.0
 40
8.699999999999818
  0
POLYLINE
  5
3A5
  8
DATA
  6
CONTINUOUS
 62
     7
 66
     1
 10
0.0
 20
0.0
 30
0.0
 70
     1
  0
VERTEX
  5
4B9
  8
DATA
  6
CONTINUOUS
 62
     7
 10
1079.875094428562
 20
-744.1854174377008
 30
0.0
  0
VERTEX
  5
4BA
  8
DATA
  6
CONTINUOUS
 62
     7
 10
1081.500094428562
 20
-747.0000000000005
 30
0.0
  0
VERTEX
  5
4BB
  8
DATA
  6
CONTINUOUS
 62
     7
 10
1079.875094428562
 20
-749.8145825623001
 30
0.0
  0
VERTEX
  5
4BC
  8
DATA
  6
CONTINUOUS
 62
     7
 10
1076.625094428562
 20
-749.8145825623001
 30
0.0
  0
VERTEX
  5
4BD
  8
DATA
  6
CONTINUOUS
 62
     7
 10
1075.000094428562
 20
-747.0000000000005
 30
0.0
  0
VERTEX
  5
4BE
  8
DATA
  6
CONTINUOUS
 62
     7
 10
1076.625094428562
 20
-744.1854174377008
 30
0.0
  0
SEQEND
  5
4ED
  8
DATA
  6
CONTINUOUS
 62
     7
  0
LINE
  5
3AE
  8
DATA
  6
STYLE_06
 62
     7
 10
900.0000000000001
 20
-600.0000000000005
 30
0.0
 11
900.0000000000001
 21
-1800.0
 31
0.0
  0
CIRCLE
  5
3AF
  8
DATA
  6
CONTINUOUS
 62
     7
 10
584.5604561874251
 20
-1653.0
 30
0.0
 40
11.25
  0
CIRCLE
  5
3B0
  8
DATA
  6
CONTINUOUS
 62
     7
 10
582.0490490390736
 20
-1653.0
 30
0.0
 40
8.699999999999818
  0
POLYLINE
  5
3B1
  8
DATA
  6
CONTINUOUS
 62
     7
 66
     1
 10
0.0
 20
0.0
 30
0.0
 70
     1
  0
VERTEX
  5
4BF
  8
DATA
  6
CONTINUOUS
 62
     7
 10
574.6284940813391
 20
-1655.814582562299
 30
0.0
  0
VERTEX
  5
4C0
  8
DATA
  6
CONTINUOUS
 62
     7
 10
573.0034940813391
 20
-1653.0
 30
0.0
  0
VERTEX
  5
4C1
  8
DATA
  6
CONTINUOUS
 62
     7
 10
574.6284940813391
 20
-1650.1854174377
 30
0.0
  0
VERTEX
  5
4C2
  8
DATA
  6
CONTINUOUS
 62
     7
 10
577.8784940813391
 20
-1650.1854174377
 30
0.0
  0
VERTEX
  5
4C3
  8
DATA
  6
CONTINUOUS
 62
     7
 10
579.5034940813391
 20
-1653.0
 30
0.0
  0
VERTEX
  5
4C4
  8
DATA
  6
CONTINUOUS
 62
     7
 10
577.8784940813391
 20
-1655.814582562299
 30
0.0
  0
SEQEND
  5
4EE
  8
DATA
  6
CONTINUOUS
 62
     7
  0
CIRCLE
  5
3BA
  8
DATA
  6
CONTINUOUS
 62
     7
 10
730.0568676775239
 20
-1653.0
 30
0.0
 40
11.25
  0
CIRCLE
  5
3BB
  8
DATA
  6
CONTINUOUS
 62
     7
 10
727.5454605291724
 20
-1653.0
 30
0.0
 40
8.699999999999818
  0
POLYLINE
  5
3BC
  8
DATA
  6
CONTINUOUS
 62
     7
 66
     1
 10
0.0
 20
0.0
 30
0.0
 70
     1
  0
VERTEX
  5
4C5
  8
DATA
  6
CONTINUOUS
 62
     7
 10
720.1249055714379
 20
-1655.814582562299
 30
0.0
  0
VERTEX
  5
4C6
  8
DATA
  6
CONTINUOUS
 62
     7
 10
718.4999055714379
 20
-1653.0
 30
0.0
  0
VERTEX
  5
4C7
  8
DATA
  6
CONTINUOUS
 62
     7
 10
720.1249055714379
 20
-1650.1854174377
 30
0.0
  0
VERTEX
  5
4C8
  8
DATA
  6
CONTINUOUS
 62
     7
 10
723.3749055714379
 20
-1650.1854174377
 30
0.0
  0
VERTEX
  5
4C9
  8
DATA
  6
CONTINUOUS
 62
     7
 10
724.9999055714379
 20
-1653.0
 30
0.0
  0
VERTEX
  5
4CA
  8
DATA
  6
CONTINUOUS
 62
     7
 10
723.3749055714379
 20
-1655.814582562299
 30
0.0
  0
SEQEND
  5
4EF
  8
DATA
  6
CONTINUOUS
 62
     7
  0
CIRCLE
  5
3C5
  8
DATA
  6
CONTINUOUS
 62
     7
 10
1215.439543812575
 20
-1653.0
 30
0.0
 40
11.25
  0
CIRCLE
  5
3C6
  8
DATA
  6
CONTINUOUS
 62
     7
 10
1217.950950960927
 20
-1653.0
 30
0.0
 40
8.699999999999818
  0
POLYLINE
  5
3C7
  8
DATA
  6
CONTINUOUS
 62
     7
 66
     1
 10
0.0
 20
0.0
 30
0.0
 70
     1
  0
VERTEX
  5
4CB
  8
DATA
  6
CONTINUOUS
 62
     7
 10
1225.371505918661
 20
-1655.814582562299
 30
0.0
  0
VERTEX
  5
4CC
  8
DATA
  6
CONTINUOUS
 62
     7
 10
1226.996505918661
 20
-1653.0
 30
0.0
  0
VERTEX
  5
4CD
  8
DATA
  6
CONTINUOUS
 62
     7
 10
1225.371505918661
 20
-1650.1854174377
 30
0.0
  0
VERTEX
  5
4CE
  8
DATA
  6
CONTINUOUS
 62
     7
 10
1222.121505918661
 20
-1650.1854174377
 30
0.0
  0
VERTEX
  5
4CF
  8
DATA
  6
CONTINUOUS
 62
     7
 10
1220.496505918661
 20
-1653.0
 30
0.0
  0
VERTEX
  5
4D0
  8
DATA
  6
CONTINUOUS
 62
     7
 10
1222.121505918661
 20
-1655.814582562299
 30
0.0
  0
SEQEND
  5
4F0
  8
DATA
  6
CONTINUOUS
 62
     7
  0
CIRCLE
  5
3D0
  8
DATA
  6
CONTINUOUS
 62
     7
 10
1069.943132322476
 20
-1653.0
 30
0.0
 40
11.25
  0
CIRCLE
  5
3D1
  8
DATA
  6
CONTINUOUS
 62
     7
 10
1072.454539470828
 20
-1653.0
 30
0.0
 40
8.699999999999818
  0
POLYLINE
  5
3D2
  8
DATA
  6
CONTINUOUS
 62
     7
 66
     1
 10
0.0
 20
0.0
 30
0.0
 70
     1
  0
VERTEX
  5
4D1
  8
DATA
  6
CONTINUOUS
 62
     7
 10
1079.875094428562
 20
-1655.814582562299
 30
0.0
  0
VERTEX
  5
4D2
  8
DATA
  6
CONTINUOUS
 62
     7
 10
1081.500094428562
 20
-1653.0
 30
0.0
  0
VERTEX
  5
4D3
  8
DATA
  6
CONTINUOUS
 62
     7
 10
1079.875094428562
 20
-1650.1854174377
 30
0.0
  0
VERTEX
  5
4D4
  8
DATA
  6
CONTINUOUS
 62
     7
 10
1076.625094428562
 20
-1650.1854174377
 30
0.0
  0
VERTEX
  5
4D5
  8
DATA
  6
CONTINUOUS
 62
     7
 10
1075.000094428562
 20
-1653.0
 30
0.0
  0
VERTEX
  5
4D6
  8
DATA
  6
CONTINUOUS
 62
     7
 10
1076.625094428562
 20
-1655.814582562299
 30
0.0
  0
SEQEND
  5
4F1
  8
DATA
  6
CONTINUOUS
 62
     7
  0
ENDSEC
  0
EOF
