  0
SECTION
  2
HEADER
  9
$ACADVER
  1
AC1015
  9
$ACADMAINTVER
 70
    20
  9
$DWGCODEPAGE
  3
ANSI_932
  9
$INSBASE
 10
0.0
 20
0.0
 30
0.0
  9
$EXTMIN
 10
-1350.082391174606
 20
-2014.883294593333
 30
-0.0015258207003583
  9
$EXTMAX
 10
1350.082403747461
 20
1999.567671355127
 30
0.0000000349246037
  9
$LIMMIN
 10
0.0
 20
0.0
  9
$LIMMAX
 10
0.0
 20
0.0
  9
$ORTHOMODE
 70
     0
  9
$REGENMODE
 70
     1
  9
$FILLMODE
 70
     1
  9
$QTEXTMODE
 70
     0
  9
$MIRRTEXT
 70
     1
  9
$LTSCALE
 40
76.2
  9
$ATTMODE
 70
     1
  9
$TEXTSIZE
 40
0.0
  9
$TRACEWID
 40
1.0
  9
$TEXTSTYLE
  7
STANDARD
  9
$CLAYER
  8
DATA
  9
$CELTYPE
  6
ByLayer
  9
$CECOLOR
 62
   256
  9
$CELTSCALE
 40
1.0
  9
$DISPSILH
 70
     0
  9
$DIMSCALE
 40
1.0
  9
$DIMASZ
 40
0.18
  9
$DIMEXO
 40
0.0625
  9
$DIMDLI
 40
0.38
  9
$DIMRND
 40
0.0
  9
$DIMDLE
 40
0.0
  9
$DIMEXE
 40
0.18
  9
$DIMTP
 40
0.0
  9
$DIMTM
 40
0.0
  9
$DIMTXT
 40
0.18
  9
$DIMCEN
 40
0.09
  9
$DIMTSZ
 40
0.0
  9
$DIMTOL
 70
     0
  9
$DIMLIM
 70
     0
  9
$DIMTIH
 70
     1
  9
$DIMTOH
 70
     1
  9
$DIMSE1
 70
     0
  9
$DIMSE2
 70
     0
  9
$DIMTAD
 70
     0
  9
$DIMZIN
 70
     0
  9
$DIMBLK
  1

  9
$DIMASO
 70
     1
  9
$DIMSHO
 70
     1
  9
$DIMPOST
  1

  9
$DIMAPOST
  1

  9
$DIMALT
 70
     0
  9
$DIMALTD
 70
     2
  9
$DIMALTF
 40
25.4
  9
$DIMLFAC
 40
1.0
  9
$DIMTOFL
 70
     0
  9
$DIMTVP
 40
0.0
  9
$DIMTIX
 70
     0
  9
$DIMSOXD
 70
     0
  9
$DIMSAH
 70
     0
  9
$DIMBLK1
  1

  9
$DIMBLK2
  1

  9
$DIMSTYLE
  2
STANDARD
  9
$DIMCLRD
 70
     0
  9
$DIMCLRE
 70
     0
  9
$DIMCLRT
 70
     0
  9
$DIMTFAC
 40
1.0
  9
$DIMGAP
 40
0.09
  9
$DIMJUST
 70
     0
  9
$DIMSD1
 70
     0
  9
$DIMSD2
 70
     0
  9
$DIMTOLJ
 70
     1
  9
$DIMTZIN
 70
     0
  9
$DIMALTZ
 70
     0
  9
$DIMALTTZ
 70
     0
  9
$DIMUPT
 70
     0
  9
$DIMDEC
 70
     4
  9
$DIMTDEC
 70
     4
  9
$DIMALTU
 70
     2
  9
$DIMALTTD
 70
     2
  9
$DIMTXSTY
  7
STANDARD
  9
$DIMAUNIT
 70
     0
  9
$DIMADEC
 70
     0
  9
$DIMALTRND
 40
0.0
  9
$DIMAZIN
 70
     0
  9
$DIMDSEP
 70
    46
  9
$DIMATFIT
 70
     3
  9
$DIMFRAC
 70
     0
  9
$DIMLDRBLK
  1

  9
$DIMLUNIT
 70
     2
  9
$DIMLWD
 70
    -2
  9
$DIMLWE
 70
    -2
  9
$DIMTMOVE
 70
     0
  9
$LUNITS
 70
     2
  9
$LUPREC
 70
     2
  9
$SKETCHINC
 40
0.1
  9
$FILLETRAD
 40
0.0
  9
$AUNITS
 70
     0
  9
$AUPREC
 70
     0
  9
$MENU
  1
acad
  9
$ELEVATION
 40
0.0
  9
$PELEVATION
 40
0.0
  9
$THICKNESS
 40
0.0
  9
$LIMCHECK
 70
     0
  9
$CHAMFERA
 40
0.0
  9
$CHAMFERB
 40
0.0
  9
$CHAMFERC
 40
0.0
  9
$CHAMFERD
 40
0.0
  9
$SKPOLY
 70
     0
  9
$TDCREATE
 40
2458458.424386574
  9
$TDUCREATE
 40
2458458.049386574
  9
$TDUPDATE
 40
2458458.424976852
  9
$TDUUPDATE
 40
2458458.049976852
  9
$TDINDWG
 40
0.0004282407
  9
$TDUSRTIMER
 40
0.0004282407
  9
$USRTIMER
 70
     1
  9
$ANGBASE
 50
0.0
  9
$ANGDIR
 70
     0
  9
$PDMODE
 70
     1
  9
$PDSIZE
 40
-2.0
  9
$PLINEWID
 40
0.0
  9
$SPLFRAME
 70
     0
  9
$SPLINETYPE
 70
     6
  9
$SPLINESEGS
 70
     8
  9
$HANDSEED
  5
48A
  9
$SURFTAB1
 70
     6
  9
$SURFTAB2
 70
     6
  9
$SURFTYPE
 70
     6
  9
$SURFU
 70
     6
  9
$SURFV
 70
     6
  9
$UCSBASE
  2

  9
$UCSNAME
  2

  9
$UCSORG
 10
0.0
 20
0.0
 30
0.0
  9
$UCSXDIR
 10
1.0
 20
0.0
 30
0.0
  9
$UCSYDIR
 10
0.0
 20
1.0
 30
0.0
  9
$UCSORTHOREF
  2

  9
$UCSORTHOVIEW
 70
     0
  9
$UCSORGTOP
 10
0.0
 20
0.0
 30
0.0
  9
$UCSORGBOTTOM
 10
0.0
 20
0.0
 30
0.0
  9
$UCSORGLEFT
 10
0.0
 20
0.0
 30
0.0
  9
$UCSORGRIGHT
 10
0.0
 20
0.0
 30
0.0
  9
$UCSORGFRONT
 10
0.0
 20
0.0
 30
0.0
  9
$UCSORGBACK
 10
0.0
 20
0.0
 30
0.0
  9
$PUCSBASE
  2

  9
$PUCSNAME
  2

  9
$PUCSORG
 10
0.0
 20
0.0
 30
0.0
  9
$PUCSXDIR
 10
1.0
 20
0.0
 30
0.0
  9
$PUCSYDIR
 10
0.0
 20
1.0
 30
0.0
  9
$PUCSORTHOREF
  2

  9
$PUCSORTHOVIEW
 70
     0
  9
$PUCSORGTOP
 10
0.0
 20
0.0
 30
0.0
  9
$PUCSORGBOTTOM
 10
0.0
 20
0.0
 30
0.0
  9
$PUCSORGLEFT
 10
0.0
 20
0.0
 30
0.0
  9
$PUCSORGRIGHT
 10
0.0
 20
0.0
 30
0.0
  9
$PUCSORGFRONT
 10
0.0
 20
0.0
 30
0.0
  9
$PUCSORGBACK
 10
0.0
 20
0.0
 30
0.0
  9
$USERI1
 70
     0
  9
$USERI2
 70
     0
  9
$USERI3
 70
     0
  9
$USERI4
 70
     0
  9
$USERI5
 70
     0
  9
$USERR1
 40
0.0
  9
$USERR2
 40
0.0
  9
$USERR3
 40
0.0
  9
$USERR4
 40
0.0
  9
$USERR5
 40
0.0
  9
$WORLDVIEW
 70
     1
  9
$SHADEDGE
 70
     3
  9
$SHADEDIF
 70
    70
  9
$TILEMODE
 70
     1
  9
$MAXACTVP
 70
    64
  9
$PINSBASE
 10
0.0
 20
0.0
 30
0.0
  9
$PLIMCHECK
 70
     0
  9
$PEXTMIN
 10
1.000000000000000E+20
 20
1.000000000000000E+20
 30
1.000000000000000E+20
  9
$PEXTMAX
 10
-1.000000000000000E+20
 20
-1.000000000000000E+20
 30
-1.000000000000000E+20
  9
$PLIMMIN
 10
0.0
 20
0.0
  9
$PLIMMAX
 10
12.0
 20
9.0
  9
$UNITMODE
 70
     0
  9
$VISRETAIN
 70
     0
  9
$PLINEGEN
 70
     1
  9
$PSLTSCALE
 70
     0
  9
$TREEDEPTH
 70
  3020
  9
$CMLSTYLE
  2
Standard
  9
$CMLJUST
 70
     0
  9
$CMLSCALE
 40
1.0
  9
$PROXYGRAPHICS
 70
     1
  9
$MEASUREMENT
 70
     0
  9
$CELWEIGHT
370
    -1
  9
$ENDCAPS
280
     0
  9
$JOINSTYLE
280
     0
  9
$LWDISPLAY
290
     0
  9
$INSUNITS
 70
     4
  9
$HYPERLINKBASE
  1

  9
$STYLESHEET
  1

  9
$XEDIT
290
     1
  9
$CEPSNTYPE
380
     0
  9
$PSTYLEMODE
290
     1
  9
$FINGERPRINTGUID
  2
{91E49A2C-4C7C-4447-AF08-85FC3F1AA3E2}
  9
$VERSIONGUID
  2
{71E84F94-2909-0D4B-BB29-AD72C0F0CF9C}
  9
$EXTNAMES
290
     1
  9
$PSVPSCALE
 40
0.0
  9
$OLESTARTUP
290
     0
  0
ENDSEC
  0
SECTION
  2
CLASSES
  0
CLASS
  1
ACDBDICTIONARYWDFLT
  2
AcDbDictionaryWithDefault
  3
ObjectDBX Classes
 90
        0
280
     0
281
     0
  0
CLASS
  1
MATERIAL
  2
AcDbMaterial
  3
ObjectDBX Classes
 90
     1153
280
     0
281
     0
  0
CLASS
  1
VISUALSTYLE
  2
AcDbVisualStyle
  3
ObjectDBX Classes
 90
     4095
280
     0
281
     0
  0
CLASS
  1
SCALE
  2
AcDbScale
  3
ObjectDBX Classes
 90
     1153
280
     0
281
     0
  0
CLASS
  1
TABLESTYLE
  2
AcDbTableStyle
  3
ObjectDBX Classes
 90
     4095
280
     0
281
     0
  0
CLASS
  1
MLEADERSTYLE
  2
AcDbMLeaderStyle
  3
ACDB_MLEADERSTYLE_CLASS
 90
     4095
280
     0
281
     0
  0
CLASS
  1
ACDBSECTIONVIEWSTYLE
  2
AcDbSectionViewStyle
  3
ObjectDBX Classes
 90
     1025
280
     0
281
     0
  0
CLASS
  1
ACDBDETAILVIEWSTYLE
  2
AcDbDetailViewStyle
  3
ObjectDBX Classes
 90
     1025
280
     0
281
     0
  0
CLASS
  1
DICTIONARYVAR
  2
AcDbDictionaryVar
  3
ObjectDBX Classes
 90
        0
280
     0
281
     0
  0
CLASS
  1
CELLSTYLEMAP
  2
AcDbCellStyleMap
  3
ObjectDBX Classes
 90
     1152
280
     0
281
     0
  0
CLASS
  1
ACDBPLACEHOLDER
  2
AcDbPlaceHolder
  3
ObjectDBX Classes
 90
        0
280
     0
281
     0
  0
CLASS
  1
LAYOUT
  2
AcDbLayout
  3
ObjectDBX Classes
 90
        0
280
     0
281
     0
  0
ENDSEC
  0
SECTION
  2
TABLES
  0
TABLE
  2
VPORT
  5
3B4
330
0
100
AcDbSymbolTable
 70
     1
  0
VPORT
  5
420
330
3B4
100
AcDbSymbolTableRecord
100
AcDbViewportTableRecord
  2
*ACTIVE
 70
     0
 10
0.0
 20
0.0
 11
1.0
 21
1.0
 12
0.0000062864278334
 22
-7.657811619102631
 13
0.0
 23
0.0
 14
1.0
 24
1.0
 15
0.0
 25
0.0
 16
0.0
 26
0.0
 36
1.0
 17
0.0
 27
0.0
 37
0.0
 40
4036.447957542698
 41
2.321755027422303
 42
50.0
 43
0.0
 44
0.0
 50
0.0
 51
0.0
 71
     0
 72
  2000
 73
     1
 74
     1
 75
     0
 76
     0
 77
     0
 78
     0
281
     0
 65
     1
110
0.0
120
0.0
130
0.0
111
1.0
121
0.0
131
0.0
112
0.0
122
1.0
132
0.0
 79
     0
146
0.0
1001
ACAD_NAV_VCDISPLAY
1070
     3
  0
ENDTAB
  0
TABLE
  2
LTYPE
  5
3B1
330
0
100
AcDbSymbolTable
 70
    11
  0
LTYPE
  5
406
330
3B1
100
AcDbSymbolTableRecord
100
AcDbLinetypeTableRecord
  2
ByBlock
 70
     0
  3

 72
    65
 73
     0
 40
0.0
  0
LTYPE
  5
407
330
3B1
100
AcDbSymbolTableRecord
100
AcDbLinetypeTableRecord
  2
ByLayer
 70
     0
  3

 72
    65
 73
     0
 40
0.0
  0
LTYPE
  5
408
330
3B1
100
AcDbSymbolTableRecord
100
AcDbLinetypeTableRecord
  2
CONTINUOUS
 70
     0
  3
Solid line
 72
    65
 73
     0
 40
0.0
  0
ENDTAB
  0
TABLE
  2
LAYER
  5
3AE
330
0
100
AcDbSymbolTable
 70
     5
  0
LAYER
  5
400
102
{ACAD_XDICTIONARY
360
434
102
}
330
3AE
100
AcDbSymbolTableRecord
100
AcDbLayerTableRecord
  2
0
 70
     0
 62
     7
  6
CONTINUOUS
370
    -3
390
3BB
  0
LAYER
  5
41F
102
{ACAD_XDICTIONARY
360
436
102
}
330
3AE
100
AcDbSymbolTableRecord
100
AcDbLayerTableRecord
  2
DATA
 70
     0
 62
     7
  6
CONTINUOUS
370
    -3
390
3BB
  0
LAYER
  5
42B
102
{ACAD_XDICTIONARY
360
438
102
}
330
3AE
100
AcDbSymbolTableRecord
100
AcDbLayerTableRecord
  2
HIBINO-BASE
 70
     0
 62
     7
  6
CONTINUOUS
370
    -3
390
3BB
  0
LAYER
  5
42C
102
{ACAD_XDICTIONARY
360
43A
102
}
330
3AE
100
AcDbSymbolTableRecord
100
AcDbLayerTableRecord
  2
SPEC
 70
     0
 62
     7
  6
CONTINUOUS
370
    -3
390
3BB
  0
LAYER
  5
42D
102
{ACAD_XDICTIONARY
360
43C
102
}
330
3AE
100
AcDbSymbolTableRecord
100
AcDbLayerTableRecord
  2
DIMNSIONS
 70
     0
 62
     7
  6
CONTINUOUS
370
    -3
390
3BB
  0
ENDTAB
  0
TABLE
  2
STYLE
  5
3AF
330
0
100
AcDbSymbolTable
 70
     3
  0
STYLE
  5
401
330
3AF
100
AcDbSymbolTableRecord
100
AcDbTextStyleTableRecord
  2
STANDARD
 70
     0
 40
0.0
 41
1.0
 50
0.0
 71
     0
 42
0.0
  3
txt
  4
BIGFONT.SHX
  0
ENDTAB
  0
TABLE
  2
VIEW
  5
3B2
330
0
100
AcDbSymbolTable
 70
     0
  0
ENDTAB
  0
TABLE
  2
UCS
  5
3B3
330
0
100
AcDbSymbolTable
 70
     0
  0
ENDTAB
  0
TABLE
  2
APPID
  5
3B5
330
0
100
AcDbSymbolTable
 70
     4
  0
APPID
  5
402
330
3B5
100
AcDbSymbolTableRecord
100
AcDbRegAppTableRecord
  2
ACAD
 70
     0
  0
APPID
  5
409
330
3B5
100
AcDbSymbolTableRecord
100
AcDbRegAppTableRecord
  2
AcadAnnotative
 70
     0
  0
APPID
  5
448
330
3B5
100
AcDbSymbolTableRecord
100
AcDbRegAppTableRecord
  2
ACAD_NAV_VCDISPLAY
 70
     0
  0
APPID
  5
481
330
3B5
100
AcDbSymbolTableRecord
100
AcDbRegAppTableRecord
  2
ACAD_MLEADERVER
 70
     0
  0
ENDTAB
  0
TABLE
  2
DIMSTYLE
  5
3B6
330
0
100
AcDbSymbolTable
 70
     2
100
AcDbDimStyleTable
 71
     0
  0
DIMSTYLE
105
403
330
3B6
100
AcDbSymbolTableRecord
100
AcDbDimStyleTableRecord
  2
STANDARD
 70
     0
279
     2
340
401
  0
ENDTAB
  0
TABLE
  2
BLOCK_RECORD
  5
3AD
330
0
100
AcDbSymbolTable
 70
     0
  0
BLOCK_RECORD
  5
41B
330
3AD
100
AcDbSymbolTableRecord
100
AcDbBlockTableRecord
  2
*Model_Space
340
41E
  0
BLOCK_RECORD
  5
417
330
3AD
100
AcDbSymbolTableRecord
100
AcDbBlockTableRecord
  2
*Paper_Space
340
41A
  0
ENDTAB
  0
ENDSEC
  0
SECTION
  2
BLOCKS
  0
BLOCK
  5
41C
330
41B
100
AcDbEntity
  8
0
100
AcDbBlockBegin
  2
*Model_Space
 70
     0
 10
0.0
 20
0.0
 30
0.0
  3
*Model_Space
  1

  0
ENDBLK
  5
41D
330
41B
100
AcDbEntity
  8
0
100
AcDbBlockEnd
  0
BLOCK
  5
418
330
417
100
AcDbEntity
 67
     1
  8
0
100
AcDbBlockBegin
  2
*Paper_Space
 70
     0
 10
0.0
 20
0.0
 30
0.0
  3
*Paper_Space
  1

  0
ENDBLK
  5
419
330
417
100
AcDbEntity
 67
     1
  8
0
100
AcDbBlockEnd
  0
ENDSEC
  0
SECTION
  2
ENTITIES
  0
LINE
  5
2C
330
41B
100
AcDbEntity
  8
HIBINO-BASE
  6
Continuous
 62
     7
100
AcDbLine
 10
-1350.0
 20
1999.44541
 30
0.0
 11
1350.0
 21
1999.44541
 31
0.0
  0
LINE
  5
2D
330
41B
100
AcDbEntity
  8
HIBINO-BASE
  6
Continuous
 62
     7
100
AcDbLine
 10
1350.0
 20
-1900.55459
 30
0.0
 11
-1350.0
 21
-1900.55459
 31
0.0
  0
LINE
  5
2E
330
41B
100
AcDbEntity
  8
HIBINO-BASE
  6
Continuous
 62
     7
100
AcDbLine
 10
-1350.0
 20
-1900.55459
 30
0.0
 11
-1350.0
 21
1999.44541
 31
0.0
  0
LINE
  5
2F
330
41B
100
AcDbEntity
  8
HIBINO-BASE
  6
Continuous
 62
     7
100
AcDbLine
 10
1350.0
 20
1999.44541
 30
0.0
 11
1350.0
 21
-1900.55459
 31
0.0
  0
LINE
  5
30
330
41B
100
AcDbEntity
  8
HIBINO-BASE
  6
Continuous
 62
     7
100
AcDbLine
 10
0.0000000000002132
 20
-1563.05459
 30
0.0
 11
1350.0
 21
-1563.05459
 31
0.0
  0
LINE
  5
31
330
41B
100
AcDbEntity
  8
HIBINO-BASE
  6
Continuous
 62
     7
100
AcDbLine
 10
0.0000000000002132
 20
-1900.55459
 30
0.0
 11
0.0000000000002132
 21
-1563.05459
 31
0.0
  0
TEXT
  5
32
330
41B
100
AcDbEntity
  8
HIBINO-BASE
 62
     7
100
AcDbText
 10
13.5000000000003
 20
-1600.684989999999
 30
0.0
 40
24.4326171875
  1
NOTE
 41
0.7
 11
13.5000000000003
 21
-1576.252372812499
 31
0.0
100
AcDbText
 73
     3
  0
LINE
  5
33
330
41B
100
AcDbEntity
  8
HIBINO-BASE
  6
Continuous
 62
     7
100
AcDbLine
 10
525.0
 20
-1900.55459
 30
0.0
 11
525.0
 21
-1563.05459
 31
0.0
  0
TEXT
  5
34
330
41B
100
AcDbEntity
  8
HIBINO-BASE
 62
     7
100
AcDbText
 10
538.4999999999998
 20
-1600.684989999999
 30
0.0
 40
24.4326171875
  1
TITLE
 41
0.7
 11
538.4999999999998
 21
-1576.252372812499
 31
0.0
100
AcDbText
 73
     3
  0
LINE
  5
35
330
41B
100
AcDbEntity
  8
HIBINO-BASE
  6
Continuous
 62
     7
100
AcDbLine
 10
0.0000000000002132
 20
-1750.55459
 30
0.0
 11
1350.0
 21
-1750.55459
 31
0.0
  0
TEXT
  5
36
330
41B
100
AcDbEntity
  8
HIBINO-BASE
 62
     7
100
AcDbText
 10
726.0
 20
-1787.34019
 30
0.0
 40
24.4326171875
  1
DRAWN
 41
0.7
 11
726.0
 21
-1762.9075728125
 31
0.0
100
AcDbText
 73
     3
  0
TEXT
  5
37
330
41B
100
AcDbEntity
  8
HIBINO-BASE
 62
     7
100
AcDbText
 10
350.9999999999998
 20
-1787.34019
 30
0.0
 40
24.4326171875
  1
DATE
 41
0.7
 11
350.9999999999998
 21
-1762.9075728125
 31
0.0
100
AcDbText
 73
     3
  0
TEXT
  5
38
330
41B
100
AcDbEntity
  8
HIBINO-BASE
 62
     7
100
AcDbText
 10
200.9999999999999
 20
-1787.34019
 30
0.0
 40
24.4326171875
  1
SCALE
 41
0.7
 11
200.9999999999999
 21
-1762.9075728125
 31
0.0
100
AcDbText
 73
     3
  0
TEXT
  5
39
330
41B
100
AcDbEntity
  8
HIBINO-BASE
 62
     7
100
AcDbText
 10
538.4999999999998
 20
-1787.34019
 30
0.0
 40
24.4326171875
  1
DESIGN
 41
0.7
 11
538.4999999999998
 21
-1762.9075728125
 31
0.0
100
AcDbText
 73
     3
  0
TEXT
  5
3A
330
41B
100
AcDbEntity
  8
HIBINO-BASE
 62
     7
100
AcDbText
 10
1100.999999999999
 20
-1787.34019
 30
0.0
 40
24.4326171875
  1
DRAWING NO.
 41
0.7
 11
1100.999999999999
 21
-1762.9075728125
 31
0.0
100
AcDbText
 73
     3
  0
TEXT
  5
3B
330
41B
100
AcDbEntity
  8
HIBINO-BASE
 62
     7
100
AcDbText
 10
913.4999999999999
 20
-1787.34019
 30
0.0
 40
24.4326171875
  1
CHECK
 41
0.7
 11
913.4999999999999
 21
-1762.9075728125
 31
0.0
100
AcDbText
 73
     3
  0
LINE
  5
3C
330
41B
100
AcDbEntity
  8
HIBINO-BASE
  6
Continuous
 62
     7
100
AcDbLine
 10
215.6250000000003
 20
-1881.80459
 30
0.0
 11
271.8750000000003
 21
-1825.55459
 31
0.0
  0
TEXT
  5
3D
330
41B
100
AcDbEntity
  8
HIBINO-BASE
 62
     7
100
AcDbText
 10
206.2500000000003
 20
-1842.18874
 30
0.0
 40
24.4326171875
  1
1
 41
0.7
 11
206.2500000000003
 21
-1817.7561228125
 31
0.0
100
AcDbText
 73
     3
  0
LINE
  5
3E
330
41B
100
AcDbEntity
  8
HIBINO-BASE
  6
Continuous
 62
     7
100
AcDbLine
 10
187.5000000000002
 20
-1900.55459
 30
0.0
 11
187.5000000000002
 21
-1750.55459
 31
0.0
  0
LINE
  5
3F
330
41B
100
AcDbEntity
  8
HIBINO-BASE
  6
Continuous
 62
     7
100
AcDbLine
 10
337.4999999999997
 20
-1900.55459
 30
0.0
 11
337.4999999999997
 21
-1750.55459
 31
0.0
  0
LINE
  5
40
330
41B
100
AcDbEntity
  8
HIBINO-BASE
  6
Continuous
 62
     7
100
AcDbLine
 10
712.4999999999996
 20
-1750.55459
 30
0.0
 11
712.4999999999996
 21
-1900.55459
 31
0.0
  0
LINE
  5
41
330
41B
100
AcDbEntity
  8
HIBINO-BASE
  6
Continuous
 62
     7
100
AcDbLine
 10
1087.5
 20
-1750.55459
 30
0.0
 11
1087.5
 21
-1900.55459
 31
0.0
  0
LINE
  5
42
330
41B
100
AcDbEntity
  8
HIBINO-BASE
  6
Continuous
 62
     7
100
AcDbLine
 10
899.9999999999996
 20
-1900.55459
 30
0.0
 11
899.9999999999996
 21
-1750.55459
 31
0.0
  0
TEXT
  5
43
330
41B
100
AcDbEntity
  8
HIBINO-BASE
 62
     7
100
AcDbText
 10
350.3481000000002
 20
-1857.59989
 30
0.0
 40
24.4326171875
  1
'18.12.
 41
0.7
 11
350.3481000000002
 21
-1833.1672728125
 31
0.0
100
AcDbText
 73
     3
  0
TEXT
  5
44
330
41B
100
AcDbEntity
  8
HIBINO-BASE
 62
     7
100
AcDbText
 10
262.5000000000003
 20
-1870.31374
 30
0.0
 40
24.4326171875
  1
15
 41
0.7
 11
262.5000000000003
 21
-1845.8811228125
 31
0.0
100
AcDbText
 73
     3
  0
TEXT
  5
45
330
41B
100
AcDbEntity
  8
HIBINO-BASE
 62
     7
100
AcDbText
 10
735.0871501655194
 20
-1857.59989
 30
0.0
 40
24.4326171875
  1
N.Sasaki
 41
0.7
 11
735.0871501655194
 21
-1833.1672728125
 31
0.0
100
AcDbText
 73
     3
  0
TEXT
  5
46
330
41B
100
AcDbEntity
  8
HIBINO-BASE
 62
     7
100
AcDbText
 10
58.25000000000053
 20
-1870.91459
 30
0.0
 40
48.86523437499999
  1
A4
 41
0.7
 11
58.25000000000053
 21
-1822.049355625
 31
0.0
100
AcDbText
 73
     3
  0
TEXT
  5
47
330
41B
100
AcDbEntity
  8
HIBINO-BASE
 62
     7
100
AcDbText
 10
14.37499999999993
 20
-1789.846415
 30
0.0
 40
24.4326171875
  1
PAPER SIZE
 41
0.7
 11
14.37499999999993
 21
-1765.4137978125
 31
0.0
100
AcDbText
 73
     3
  0
TEXT
  5
48
330
41B
100
AcDbEntity
  8
HIBINO-BASE
 62
     7
100
AcDbText
 10
-1242.24
 20
-1996.684757
 30
0.0
 40
54.00066269531249
  1
Hibino Corporation
 41
0.7
 11
-1242.24
 21
-1942.684094304688
 31
0.0
100
AcDbText
 73
     3
  0
TEXT
  5
49
330
41B
100
AcDbEntity
  8
HIBINO-BASE
 62
     7
100
AcDbText
 10
751.02585
 20
-1996.684757
 30
0.0
 40
54.00066269531249
  1
ヒビノ株式会社
 41
0.7
 11
751.02585
 21
-1942.684094304688
 31
0.0
100
AcDbText
 73
     3
  0
LINE
  5
4A
330
41B
100
AcDbEntity
  8
SPEC
  6
Continuous
 62
     7
100
AcDbLine
 10
-1237.5
 20
1849.44541
 30
0.0
 11
975.0000000000001
 21
1849.44541
 31
0.0
  0
LINE
  5
4B
330
41B
100
AcDbEntity
  8
SPEC
  6
Continuous
 62
     7
100
AcDbLine
 10
-1237.5
 20
1793.195409999999
 30
0.0
 11
975.0000000000001
 21
1793.195409999999
 31
0.0
  0
LINE
  5
4C
330
41B
100
AcDbEntity
  8
SPEC
  6
Continuous
 62
     7
100
AcDbLine
 10
-1237.5
 20
1849.44541
 30
0.0
 11
-1237.5
 21
1118.19541
 31
0.0
  0
TEXT
  5
4D
330
41B
100
AcDbEntity
  8
SPEC
 62
     7
100
AcDbText
 10
-1218.75
 20
1870.344459999999
 30
0.0
 40
36.64892578125
  1
仕様
 41
0.7
 11
-1218.75
 21
1906.993385781249
 31
0.0
100
AcDbText
 73
     3
  0
LINE
  5
4E
330
41B
100
AcDbEntity
  8
SPEC
  6
Continuous
 62
     7
100
AcDbLine
 10
-750.0
 20
1849.44541
 30
0.0
 11
-750.0
 21
1118.19541
 31
0.0
  0
LINE
  5
4F
330
41B
100
AcDbEntity
  8
SPEC
  6
Continuous
 62
     7
100
AcDbLine
 10
975.0000000000001
 20
1849.44541
 30
0.0
 11
975.0000000000001
 21
1118.19541
 31
0.0
  0
LINE
  5
50
330
41B
100
AcDbEntity
  8
SPEC
  6
Continuous
 62
     7
100
AcDbLine
 10
-1237.5
 20
1736.945409999999
 30
0.0
 11
975.0000000000001
 21
1736.945409999999
 31
0.0
  0
LINE
  5
51
330
41B
100
AcDbEntity
  8
SPEC
  6
Continuous
 62
     7
100
AcDbLine
 10
-1237.5
 20
1680.695409999999
 30
0.0
 11
975.0000000000001
 21
1680.695409999999
 31
0.0
  0
LINE
  5
52
330
41B
100
AcDbEntity
  8
SPEC
  6
Continuous
 62
     7
100
AcDbLine
 10
-1237.5
 20
1624.445409999999
 30
0.0
 11
975.0000000000001
 21
1624.445409999999
 31
0.0
  0
LINE
  5
53
330
41B
100
AcDbEntity
  8
SPEC
  6
Continuous
 62
     7
100
AcDbLine
 10
-1237.5
 20
1568.195409999999
 30
0.0
 11
975.0000000000001
 21
1568.195409999999
 31
0.0
  0
LINE
  5
54
330
41B
100
AcDbEntity
  8
SPEC
  6
Continuous
 62
     7
100
AcDbLine
 10
-1237.5
 20
1511.94541
 30
0.0
 11
975.0000000000001
 21
1511.94541
 31
0.0
  0
LINE
  5
55
330
41B
100
AcDbEntity
  8
SPEC
  6
Continuous
 62
     7
100
AcDbLine
 10
-925.0
 20
1455.695409999999
 30
0.0
 11
975.0000000000001
 21
1455.695409999999
 31
0.0
  0
LINE
  5
56
330
41B
100
AcDbEntity
  8
SPEC
  6
Continuous
 62
     7
100
AcDbLine
 10
-1237.5
 20
1399.44541
 30
0.0
 11
975.0000000000001
 21
1399.44541
 31
0.0
  0
LINE
  5
57
330
41B
100
AcDbEntity
  8
SPEC
  6
Continuous
 62
     7
100
AcDbLine
 10
-1237.5
 20
1343.19541
 30
0.0
 11
975.0000000000001
 21
1343.19541
 31
0.0
  0
TEXT
  5
58
330
41B
100
AcDbEntity
  8
SPEC
 62
     7
100
AcDbText
 10
-1224.0
 20
1805.014176666666
 30
0.0
 40
28.50472005208333
  1
周波数レンジ(-10dB)
 41
0.7
 11
-1224.0
 21
1833.518896718749
 31
0.0
100
AcDbText
 73
     3
  0
TEXT
  5
59
330
41B
100
AcDbEntity
  8
SPEC
 62
     7
100
AcDbText
 10
-1224.0
 20
1748.764176666666
 30
0.0
 40
28.50472005208333
  1
指向角度(水平×垂直)
 41
0.7
 11
-1224.0
 21
1777.268896718749
 31
0.0
100
AcDbText
 73
     3
  0
TEXT
  5
5A
330
41B
100
AcDbEntity
  8
SPEC
 62
     7
100
AcDbText
 10
-1224.0
 20
1692.514176666666
 30
0.0
 40
28.50472005208333
  1
最大音圧レベル
 41
0.7
 11
-1224.0
 21
1721.018896718749
 31
0.0
100
AcDbText
 73
     3
  0
TEXT
  5
5B
330
41B
100
AcDbEntity
  8
SPEC
 62
     7
100
AcDbText
 10
-1224.0
 20
1636.264176666666
 30
0.0
 40
28.50472005208333
  1
感度(1W、1m)
 41
0.7
 11
-1224.0
 21
1664.768896718749
 31
0.0
100
AcDbText
 73
     3
  0
TEXT
  5
5C
330
41B
100
AcDbEntity
  8
SPEC
 62
     7
100
AcDbText
 10
-1224.0
 20
1580.014176666666
 30
0.0
 40
28.50472005208333
  1
公称インピーダンス
 41
0.7
 11
-1224.0
 21
1608.518896718749
 31
0.0
100
AcDbText
 73
     3
  0
TEXT
  5
5D
330
41B
100
AcDbEntity
  8
SPEC
 62
     7
100
AcDbText
 10
-1224.0
 20
1523.764176666666
 30
0.0
 40
28.50472005208333
  1
許容入力
 41
0.7
 11
-1224.0
 21
1552.268896718749
 31
0.0
100
AcDbText
 73
     3
  0
TEXT
  5
5E
330
41B
100
AcDbEntity
  8
SPEC
 62
     7
100
AcDbText
 10
-1224.0
 20
1467.514176666666
 30
0.0
 40
28.50472005208333
  1
ドライバー構成
 41
0.7
 11
-1224.0
 21
1496.018896718749
 31
0.0
100
AcDbText
 73
     3
  0
TEXT
  5
5F
330
41B
100
AcDbEntity
  8
SPEC
 62
     7
100
AcDbText
 10
-1226.900635094611
 20
1356.688859119361
 30
0.0
 40
28.50472005208333
  1
クロスオーバー周波数
 41
0.7
 11
-1226.900635094611
 21
1385.193579171444
 31
0.0
100
AcDbText
 73
     3
  0
TEXT
  5
60
330
41B
100
AcDbEntity
  8
SPEC
 62
     7
100
AcDbText
 10
-736.5
 20
1805.014176666666
 30
0.0
 40
28.50472005208333
  1
50Hz～20kHz
 41
0.7
 11
-736.5
 21
1833.518896718749
 31
0.0
100
AcDbText
 73
     3
  0
TEXT
  5
61
330
41B
100
AcDbEntity
  8
SPEC
 62
     7
100
AcDbText
 10
-736.5
 20
1748.764176666666
 30
0.0
 40
28.50472005208333
  1
90°×50°
 41
0.7
 11
-736.5
 21
1777.268896718749
 31
0.0
100
AcDbText
 73
     3
  0
TEXT
  5
62
330
41B
100
AcDbEntity
  8
SPEC
 62
     7
100
AcDbText
 10
-736.5
 20
1692.514176666666
 30
0.0
 40
28.50472005208333
  1
126dB SPL(ピーク)
 41
0.7
 11
-736.5
 21
1721.018896718749
 31
0.0
100
AcDbText
 73
     3
  0
TEXT
  5
63
330
41B
100
AcDbEntity
  8
SPEC
 62
     7
100
AcDbText
 10
-736.5
 20
1636.264176666666
 30
0.0
 40
28.50472005208333
  1
95dB SPL
 41
0.7
 11
-736.5
 21
1664.768896718749
 31
0.0
100
AcDbText
 73
     3
  0
TEXT
  5
64
330
41B
100
AcDbEntity
  8
SPEC
 62
     7
100
AcDbText
 10
-736.5
 20
1580.014176666666
 30
0.0
 40
28.50472005208333
  1
8Ω
 41
0.7
 11
-736.5
 21
1608.518896718749
 31
0.0
100
AcDbText
 73
     3
  0
TEXT
  5
65
330
41B
100
AcDbEntity
  8
SPEC
 62
     7
100
AcDbText
 10
-736.5
 20
1523.764176666666
 30
0.0
 40
28.50472005208333
  1
300W(連続)、1,200W(ピーク)
 41
0.7
 11
-736.5
 21
1552.268896718749
 31
0.0
100
AcDbText
 73
     3
  0
TEXT
  5
66
330
41B
100
AcDbEntity
  8
SPEC
 62
     7
100
AcDbText
 10
-911.5
 20
1467.514176666666
 30
0.0
 40
28.50472005208333
  1
LF
 41
0.7
 11
-911.5
 21
1496.018896718749
 31
0.0
100
AcDbText
 73
     3
  0
LINE
  5
67
330
41B
100
AcDbEntity
  8
SPEC
  6
Continuous
 62
     7
100
AcDbLine
 10
-925.0
 20
1511.94541
 30
0.0
 11
-925.0
 21
1399.44541
 31
0.0
  0
TEXT
  5
68
330
41B
100
AcDbEntity
  8
SPEC
 62
     7
100
AcDbText
 10
-911.5
 20
1411.264176666666
 30
0.0
 40
28.50472005208333
  1
HF
 41
0.7
 11
-911.5
 21
1439.768896718749
 31
0.0
100
AcDbText
 73
     3
  0
TEXT
  5
69
330
41B
100
AcDbEntity
  8
SPEC
 62
     7
100
AcDbText
 10
-736.5
 20
1467.514176666666
 30
0.0
 40
28.50472005208333
  1
MB112-8(12インチ(305mm))
 41
0.7
 11
-736.5
 21
1496.018896718749
 31
0.0
100
AcDbText
 73
     3
  0
TEXT
  5
6A
330
41B
100
AcDbEntity
  8
SPEC
 62
     7
100
AcDbText
 10
-736.5
 20
1411.264176666666
 30
0.0
 40
28.50472005208333
  1
2414H-C(1インチ(25mm))
 41
0.7
 11
-736.5
 21
1439.768896718749
 31
0.0
100
AcDbText
 73
     3
  0
TEXT
  5
6B
330
41B
100
AcDbEntity
  8
SPEC
 62
     7
100
AcDbText
 10
-1224.0
 20
1298.764176666666
 30
0.0
 40
28.50472005208333
  1
入力端子
 41
0.7
 11
-1224.0
 21
1327.26889671875
 31
0.0
100
AcDbText
 73
     3
  0
TEXT
  5
6C
330
41B
100
AcDbEntity
  8
SPEC
 62
     7
100
AcDbText
 10
-1224.0
 20
1242.514176666666
 30
0.0
 40
28.50472005208333
  1
エンクロージャー
 41
0.7
 11
-1224.0
 21
1271.018896718749
 31
0.0
100
AcDbText
 73
     3
  0
TEXT
  5
6D
330
41B
100
AcDbEntity
  8
SPEC
 62
     7
100
AcDbText
 10
-736.5
 20
1355.014176666666
 30
0.0
 40
28.50472005208333
  1
2.0kHz
 41
0.7
 11
-736.5
 21
1383.518896718749
 31
0.0
100
AcDbText
 73
     3
  0
TEXT
  5
6E
330
41B
100
AcDbEntity
  8
SPEC
 62
     7
100
AcDbText
 10
-736.5
 20
1298.764176666666
 30
0.0
 40
28.50472005208333
  1
2Pスピコンと標準フォーンジャック(2P)対応の複合型端子×2
 41
0.7
 11
-736.5
 21
1327.26889671875
 31
0.0
100
AcDbText
 73
     3
  0
TEXT
  5
6F
330
41B
100
AcDbEntity
  8
SPEC
 62
     7
100
AcDbText
 10
-736.5
 20
1242.514176666666
 30
0.0
 40
28.50472005208333
  1
18mmカバ/ポプラ合板、白、Duraflex仕上げ
 41
0.7
 11
-736.5
 21
1271.018896718749
 31
0.0
100
AcDbText
 73
     3
  0
LINE
  5
70
330
41B
100
AcDbEntity
  8
SPEC
  6
Continuous
 62
     7
100
AcDbLine
 10
-1237.5
 20
1286.945409999999
 30
0.0
 11
975.0000000000001
 21
1286.945409999999
 31
0.0
  0
LINE
  5
71
330
41B
100
AcDbEntity
  8
SPEC
  6
Continuous
 62
     7
100
AcDbLine
 10
-1237.5
 20
1230.69541
 30
0.0
 11
975.0000000000001
 21
1230.69541
 31
0.0
  0
LINE
  5
72
330
41B
100
AcDbEntity
  8
SPEC
  6
Continuous
 62
     7
100
AcDbLine
 10
-1237.5
 20
1174.445409999999
 30
0.0
 11
975.0000000000001
 21
1174.445409999999
 31
0.0
  0
LINE
  5
73
330
41B
100
AcDbEntity
  8
SPEC
  6
Continuous
 62
     7
100
AcDbLine
 10
-1237.5
 20
1118.19541
 30
0.0
 11
975.0000000000001
 21
1118.19541
 31
0.0
  0
TEXT
  5
74
330
41B
100
AcDbEntity
  8
SPEC
 62
     7
100
AcDbText
 10
-1224.0
 20
1186.264176666666
 30
0.0
 40
28.50472005208334
  1
寸法(W×H×D)
 41
0.7
 11
-1224.0
 21
1214.768896718749
 31
0.0
100
AcDbText
 73
     3
  0
TEXT
  5
75
330
41B
100
AcDbEntity
  8
SPEC
 62
     7
100
AcDbText
 10
-1224.0
 20
1130.014176666666
 30
0.0
 40
28.50472005208334
  1
質量
 41
0.7
 11
-1224.0
 21
1158.518896718749
 31
0.0
100
AcDbText
 73
     3
  0
TEXT
  5
76
330
41B
100
AcDbEntity
  8
SPEC
 62
     7
100
AcDbText
 10
-736.5
 20
1186.264176666666
 30
0.0
 40
28.50472005208334
  1
354×574×399mm(除突起部)
 41
0.7
 11
-736.5
 21
1214.768896718749
 31
0.0
100
AcDbText
 73
     3
  0
TEXT
  5
77
330
41B
100
AcDbEntity
  8
SPEC
 62
     7
100
AcDbText
 10
-736.5
 20
1130.014176666666
 30
0.0
 40
28.50472005208334
  1
16kg
 41
0.7
 11
-736.5
 21
1158.518896718749
 31
0.0
100
AcDbText
 73
     3
  0
TEXT
  5
78
330
41B
100
AcDbEntity
  8
DIMNSIONS
 62
     7
100
AcDbText
 10
-299.9999999999999
 20
-1716.512239999999
 30
0.0
 40
36.64892578125
  1
(単位：mm)
 41
0.7
 11
-299.9999999999999
 21
-1679.863314218749
 31
0.0
100
AcDbText
 73
     3
  0
LINE
  5
79
330
41B
100
AcDbEntity
  8
DIMNSIONS
  6
Continuous
 62
     7
100
AcDbLine
 10
618.3262852343526
 20
-967.4647737043283
 30
0.0
 11
600.0
 21
-1050.0
 31
0.0
  0
LINE
  5
7A
330
41B
100
AcDbEntity
  8
DIMNSIONS
  6
Continuous
 62
     7
100
AcDbLine
 10
618.3262852343526
 20
-967.4647737043283
 30
0.0
 11
619.9516510901576
 21
-998.4786017665063
 31
0.0
  0
LINE
  5
7B
330
41B
100
AcDbEntity
  8
DIMNSIONS
  6
Continuous
 62
     7
100
AcDbLine
 10
618.3262852343526
 20
-967.4647737043283
 30
0.0
 11
604.2269793248344
 21
-995.1362196026796
 31
0.0
  0
LINE
  5
7C
330
41B
100
AcDbEntity
  8
DIMNSIONS
  6
Continuous
 62
     7
100
AcDbLine
 10
600.0
 20
-1050.0
 30
0.0
 11
570.0000000000001
 21
-1050.0
 31
0.0
  0
TEXT
  5
7D
330
41B
100
AcDbEntity
  8
DIMNSIONS
 62
     7
100
AcDbText
 10
437.7083333333334
 20
-1069.05
 30
0.0
 40
40.72102864583334
  1
2-M10
 41
0.7
 11
437.7083333333334
 21
-1028.328971354167
 31
0.0
100
AcDbText
 73
     3
  0
LINE
  5
7E
330
41B
100
AcDbEntity
  8
DIMNSIONS
  6
Continuous
 62
     7
100
AcDbLine
 10
641.3712683800004
 20
-956.4999999999999
 30
0.0
 11
865.0
 21
-956.4999999999999
 31
0.0
  0
LINE
  5
7F
330
41B
100
AcDbEntity
  8
DIMNSIONS
  6
Continuous
 62
     7
100
AcDbLine
 10
789.7839999999996
 20
-1000.0
 30
0.0
 11
865.0
 21
-1000.0
 31
0.0
  0
LINE
  5
80
330
41B
100
AcDbEntity
  8
DIMNSIONS
  6
Continuous
 62
     7
100
AcDbLine
 10
850.0
 20
-1000.0
 30
0.0
 11
850.0
 21
-956.4999999999999
 31
0.0
  0
LINE
  5
81
330
41B
100
AcDbEntity
  8
DIMNSIONS
  6
Continuous
 62
     7
100
AcDbLine
 10
850.0
 20
-956.4999999999999
 30
0.0
 11
850.0
 21
-904.0
 31
0.0
  0
LINE
  5
82
330
41B
100
AcDbEntity
  8
DIMNSIONS
  6
Continuous
 62
     7
100
AcDbLine
 10
850.0
 20
-956.4999999999999
 30
0.0
 11
841.9620148566911
 21
-926.5018310546876
 31
0.0
  0
LINE
  5
83
330
41B
100
AcDbEntity
  8
DIMNSIONS
  6
Continuous
 62
     7
100
AcDbLine
 10
850.0
 20
-956.4999999999999
 30
0.0
 11
858.037985143309
 21
-926.5018310546876
 31
0.0
  0
LINE
  5
84
330
41B
100
AcDbEntity
  8
DIMNSIONS
  6
Continuous
 62
     7
100
AcDbLine
 10
850.0
 20
-1000.0
 30
0.0
 11
850.0
 21
-1130.833333333333
 31
0.0
  0
LINE
  5
85
330
41B
100
AcDbEntity
  8
DIMNSIONS
  6
Continuous
 62
     7
100
AcDbLine
 10
850.0
 20
-1000.0
 30
0.0
 11
858.037985143309
 21
-1029.998168945312
 31
0.0
  0
LINE
  5
86
330
41B
100
AcDbEntity
  8
DIMNSIONS
  6
Continuous
 62
     7
100
AcDbLine
 10
850.0
 20
-1000.0
 30
0.0
 11
841.9620148566911
 21
-1029.998168945312
 31
0.0
  0
TEXT
  5
87
330
41B
100
AcDbEntity
  8
DIMNSIONS
 62
     7
100
AcDbText
 10
835.0916666666666
 20
-1130.833333333333
 30
0.0
 40
40.72102864583334
  1
43.5
 50
90.0
 41
0.7
 11
794.3706380208333
 21
-1130.833333333333
 31
0.0
100
AcDbText
 73
     3
  0
LINE
  5
88
330
41B
100
AcDbEntity
  8
DIMNSIONS
  6
Continuous
 62
     7
100
AcDbLine
 10
641.3712683800004
 20
-956.4999999999999
 30
0.0
 11
865.0
 21
-956.4999999999999
 31
0.0
  0
LINE
  5
89
330
41B
100
AcDbEntity
  8
DIMNSIONS
  6
Continuous
 62
     7
100
AcDbLine
 10
641.3712683800004
 20
-469.46
 30
0.0
 11
865.0
 21
-469.46
 31
0.0
  0
LINE
  5
8A
330
41B
100
AcDbEntity
  8
DIMNSIONS
  6
Continuous
 62
     7
100
AcDbLine
 10
850.0
 20
-956.4999999999999
 30
0.0
 11
850.0
 21
-469.46
 31
0.0
  0
LINE
  5
8B
330
41B
100
AcDbEntity
  8
DIMNSIONS
  6
Continuous
 62
     7
100
AcDbLine
 10
850.0
 20
-956.4999999999999
 30
0.0
 11
841.9620148566911
 21
-926.5018310546876
 31
0.0
  0
LINE
  5
8C
330
41B
100
AcDbEntity
  8
DIMNSIONS
  6
Continuous
 62
     7
100
AcDbLine
 10
850.0
 20
-956.4999999999999
 30
0.0
 11
858.037985143309
 21
-926.5018310546876
 31
0.0
  0
LINE
  5
8D
330
41B
100
AcDbEntity
  8
DIMNSIONS
  6
Continuous
 62
     7
100
AcDbLine
 10
850.0
 20
-469.46
 30
0.0
 11
858.037985143309
 21
-499.4581689453124
 31
0.0
  0
LINE
  5
8E
330
41B
100
AcDbEntity
  8
DIMNSIONS
  6
Continuous
 62
     7
100
AcDbLine
 10
850.0
 20
-469.46
 30
0.0
 11
841.9620148566911
 21
-499.4581689453124
 31
0.0
  0
TEXT
  5
8F
330
41B
100
AcDbEntity
  8
DIMNSIONS
 62
     7
100
AcDbText
 10
835.0916666666666
 20
-752.6675
 30
0.0
 40
40.72102864583334
  1
487
 50
90.0
 41
0.7
 11
794.3706380208333
 21
-752.6675
 31
0.0
100
AcDbText
 73
     3
  0
LINE
  5
90
330
41B
100
AcDbEntity
  8
DIMNSIONS
  6
Continuous
 62
     7
100
AcDbLine
 10
-368.0000000000005
 20
-300.0
 30
0.0
 11
-590.0
 21
-300.0
 31
0.0
  0
LINE
  5
91
330
41B
100
AcDbEntity
  8
DIMNSIONS
  6
Continuous
 62
     7
100
AcDbLine
 10
-337.0557621135326
 20
98.77999999999973
 30
0.0
 11
-590.0
 21
98.77999999999973
 31
0.0
  0
LINE
  5
92
330
41B
100
AcDbEntity
  8
DIMNSIONS
  6
Continuous
 62
     7
100
AcDbLine
 10
-575.0
 20
-300.0
 30
0.0
 11
-575.0
 21
98.77999999999973
 31
0.0
  0
LINE
  5
93
330
41B
100
AcDbEntity
  8
DIMNSIONS
  6
Continuous
 62
     7
100
AcDbLine
 10
-575.0
 20
-300.0
 30
0.0
 11
-583.0379851433089
 21
-270.0018310546875
 31
0.0
  0
LINE
  5
94
330
41B
100
AcDbEntity
  8
DIMNSIONS
  6
Continuous
 62
     7
100
AcDbLine
 10
-575.0
 20
-300.0
 30
0.0
 11
-566.962014856691
 21
-270.0018310546875
 31
0.0
  0
LINE
  5
95
330
41B
100
AcDbEntity
  8
DIMNSIONS
  6
Continuous
 62
     7
100
AcDbLine
 10
-575.0
 20
98.77999999999973
 30
0.0
 11
-566.962014856691
 21
68.78183105468725
 31
0.0
  0
LINE
  5
96
330
41B
100
AcDbEntity
  8
DIMNSIONS
  6
Continuous
 62
     7
100
AcDbLine
 10
-575.0
 20
98.77999999999973
 30
0.0
 11
-583.0379851433089
 21
68.78183105468725
 31
0.0
  0
TEXT
  5
97
330
41B
100
AcDbEntity
  8
DIMNSIONS
 62
     7
100
AcDbText
 10
-594.9083333333333
 20
-140.2975000000001
 30
0.0
 40
40.72102864583334
  1
399
 50
90.0
 41
0.7
 11
-635.6293619791666
 21
-140.2975000000001
 31
0.0
100
AcDbText
 73
     3
  0
LINE
  5
98
330
41B
100
AcDbEntity
  8
DIMNSIONS
  6
Continuous
 62
     7
100
AcDbLine
 10
-160.2149999999997
 20
98.77999999999973
 30
0.0
 11
-60.0
 21
98.77999999999973
 31
0.0
  0
LINE
  5
99
330
41B
100
AcDbEntity
  8
DIMNSIONS
  6
Continuous
 62
     7
100
AcDbLine
 10
-331.9999999999996
 20
36.12306203619608
 30
0.0
 11
-60.0
 21
36.12306203619608
 31
0.0
  0
LINE
  5
9A
330
41B
100
AcDbEntity
  8
DIMNSIONS
  6
Continuous
 62
     7
100
AcDbLine
 10
-75.0
 20
36.12306203619608
 30
0.0
 11
-75.0
 21
98.77999999999973
 31
0.0
  0
LINE
  5
9B
330
41B
100
AcDbEntity
  8
DIMNSIONS
  6
Continuous
 62
     7
100
AcDbLine
 10
-75.0
 20
98.77999999999973
 30
0.0
 11
-75.0
 21
230.8333333333333
 31
0.0
  0
LINE
  5
9C
330
41B
100
AcDbEntity
  8
DIMNSIONS
  6
Continuous
 62
     7
100
AcDbLine
 10
-75.0
 20
98.77999999999973
 30
0.0
 11
-83.03798514330885
 21
128.7781689453122
 31
0.0
  0
LINE
  5
9D
330
41B
100
AcDbEntity
  8
DIMNSIONS
  6
Continuous
 62
     7
100
AcDbLine
 10
-75.0
 20
98.77999999999973
 30
0.0
 11
-66.96201485669113
 21
128.7781689453122
 31
0.0
  0
LINE
  5
9E
330
41B
100
AcDbEntity
  8
DIMNSIONS
  6
Continuous
 62
     7
100
AcDbLine
 10
-75.0
 20
36.12306203619608
 30
0.0
 11
-75.0
 21
-16.37693796380392
 31
0.0
  0
LINE
  5
9F
330
41B
100
AcDbEntity
  8
DIMNSIONS
  6
Continuous
 62
     7
100
AcDbLine
 10
-75.0
 20
36.12306203619608
 30
0.0
 11
-66.96201485669113
 21
6.124893090883575
 31
0.0
  0
LINE
  5
A0
330
41B
100
AcDbEntity
  8
DIMNSIONS
  6
Continuous
 62
     7
100
AcDbLine
 10
-75.0
 20
36.12306203619608
 30
0.0
 11
-83.03798514330885
 21
6.124893090883575
 31
0.0
  0
TEXT
  5
A1
330
41B
100
AcDbEntity
  8
DIMNSIONS
 62
     7
100
AcDbText
 10
-94.90833333333336
 20
125.0
 30
0.0
 40
40.72102864583334
  1
62.7
 50
90.0
 41
0.7
 11
-135.6293619791667
 21
125.0
 31
0.0
100
AcDbText
 73
     3
  0
LINE
  5
A2
330
41B
100
AcDbEntity
  8
DIMNSIONS
  6
Continuous
 62
     7
100
AcDbLine
 10
-160.2149999999997
 20
98.77999999999973
 30
0.0
 11
15.0
 21
98.77999999999973
 31
0.0
  0
LINE
  5
A3
330
41B
100
AcDbEntity
  8
DIMNSIONS
  6
Continuous
 62
     7
100
AcDbLine
 10
-196.0000000000004
 20
-185.2200000000002
 30
0.0
 11
15.0
 21
-185.2200000000002
 31
0.0
  0
LINE
  5
A4
330
41B
100
AcDbEntity
  8
DIMNSIONS
  6
Continuous
 62
     7
100
AcDbLine
 10
0.0
 20
98.77999999999973
 30
0.0
 11
0.0
 21
-185.2200000000002
 31
0.0
  0
LINE
  5
A5
330
41B
100
AcDbEntity
  8
DIMNSIONS
  6
Continuous
 62
     7
100
AcDbLine
 10
0.0
 20
98.77999999999973
 30
0.0
 11
8.037985143308867
 21
68.78183105468725
 31
0.0
  0
LINE
  5
A6
330
41B
100
AcDbEntity
  8
DIMNSIONS
  6
Continuous
 62
     7
100
AcDbLine
 10
0.0
 20
98.77999999999973
 30
0.0
 11
-8.037985143308869
 21
68.78183105468725
 31
0.0
  0
LINE
  5
A7
330
41B
100
AcDbEntity
  8
DIMNSIONS
  6
Continuous
 62
     7
100
AcDbLine
 10
0.0
 20
-185.2200000000002
 30
0.0
 11
-8.037985143308869
 21
-155.2218310546877
 31
0.0
  0
LINE
  5
A8
330
41B
100
AcDbEntity
  8
DIMNSIONS
  6
Continuous
 62
     7
100
AcDbLine
 10
0.0
 20
-185.2200000000002
 30
0.0
 11
8.037985143308867
 21
-155.2218310546877
 31
0.0
  0
TEXT
  5
A9
330
41B
100
AcDbEntity
  8
DIMNSIONS
 62
     7
100
AcDbText
 10
-19.90833333333334
 20
-82.90750000000027
 30
0.0
 40
40.72102864583334
  1
284
 50
90.0
 41
0.7
 11
-60.62936197916668
 21
-82.90750000000027
 31
0.0
100
AcDbText
 73
     3
  0
LINE
  5
AA
330
41B
100
AcDbEntity
  8
DIMNSIONS
  6
Continuous
 62
     7
100
AcDbLine
 10
-210.4044976325784
 20
-195.8018400444285
 30
0.0
 11
-175.0
 21
-300.0
 31
0.0
  0
LINE
  5
AB
330
41B
100
AcDbEntity
  8
DIMNSIONS
  6
Continuous
 62
     7
100
AcDbLine
 10
-210.4044976325784
 20
-195.8018400444285
 30
0.0
 11
-193.0379848685691
 21
-221.548754027527
 31
0.0
  0
LINE
  5
AC
330
41B
100
AcDbEntity
  8
DIMNSIONS
  6
Continuous
 62
     7
100
AcDbLine
 10
-210.4044976325784
 20
-195.8018400444285
 30
0.0
 11
-208.2381133953489
 21
-226.7825780048492
 31
0.0
  0
LINE
  5
AD
330
41B
100
AcDbEntity
  8
DIMNSIONS
  6
Continuous
 62
     7
100
AcDbLine
 10
-175.0
 20
-300.0
 30
0.0
 11
-145.0
 21
-300.0
 31
0.0
  0
TEXT
  5
AE
330
41B
100
AcDbEntity
  8
DIMNSIONS
 62
     7
100
AcDbText
 10
-145.0
 20
-319.05
 30
0.0
 40
40.72102864583334
  1
6-M10
 41
0.7
 11
-145.0
 21
-278.3289713541666
 31
0.0
100
AcDbText
 73
     3
  0
LINE
  5
AF
330
41B
100
AcDbEntity
  8
DIMNSIONS
  6
Continuous
 62
     7
100
AcDbLine
 10
-486.0000000000005
 20
-203.2200000000003
 30
0.0
 11
-486.0000000000005
 21
-390.0
 31
0.0
  0
LINE
  5
B0
330
41B
100
AcDbEntity
  8
DIMNSIONS
  6
Continuous
 62
     7
100
AcDbLine
 10
-214.0000000000004
 20
-203.2200000000003
 30
0.0
 11
-214.0000000000004
 21
-390.0
 31
0.0
  0
LINE
  5
B1
330
41B
100
AcDbEntity
  8
DIMNSIONS
  6
Continuous
 62
     7
100
AcDbLine
 10
-486.0000000000005
 20
-375.0
 30
0.0
 11
-214.0000000000004
 21
-375.0
 31
0.0
  0
LINE
  5
B2
330
41B
100
AcDbEntity
  8
DIMNSIONS
  6
Continuous
 62
     7
100
AcDbLine
 10
-486.0000000000005
 20
-375.0
 30
0.0
 11
-456.001831054688
 21
-366.9620148566912
 31
0.0
  0
LINE
  5
B3
330
41B
100
AcDbEntity
  8
DIMNSIONS
  6
Continuous
 62
     7
100
AcDbLine
 10
-486.0000000000005
 20
-375.0
 30
0.0
 11
-456.001831054688
 21
-383.0379851433088
 31
0.0
  0
LINE
  5
B4
330
41B
100
AcDbEntity
  8
DIMNSIONS
  6
Continuous
 62
     7
100
AcDbLine
 10
-214.0000000000004
 20
-375.0
 30
0.0
 11
-243.9981689453129
 21
-383.0379851433089
 31
0.0
  0
LINE
  5
B5
330
41B
100
AcDbEntity
  8
DIMNSIONS
  6
Continuous
 62
     7
100
AcDbLine
 10
-214.0000000000004
 20
-375.0
 30
0.0
 11
-243.9981689453129
 21
-366.9620148566912
 31
0.0
  0
TEXT
  5
B6
330
41B
100
AcDbEntity
  8
DIMNSIONS
 62
     7
100
AcDbText
 10
-389.6875000000005
 20
-355.0916666666667
 30
0.0
 40
40.72102864583334
  1
272
 41
0.7
 11
-389.6875000000005
 21
-314.3706380208333
 31
0.0
100
AcDbText
 73
     3
  0
LINE
  5
B7
330
41B
100
AcDbEntity
  8
DIMNSIONS
  6
Continuous
 62
     7
100
AcDbLine
 10
-349.9999999999996
 20
54.12306203619608
 30
0.0
 11
-349.9999999999996
 21
165.0
 31
0.0
  0
LINE
  5
B8
330
41B
100
AcDbEntity
  8
DIMNSIONS
  6
Continuous
 62
     7
100
AcDbLine
 10
-173.2149999999997
 20
111.7799999999997
 30
0.0
 11
-173.2149999999997
 21
165.0
 31
0.0
  0
LINE
  5
B9
330
41B
100
AcDbEntity
  8
DIMNSIONS
  6
Continuous
 62
     7
100
AcDbLine
 10
-349.9999999999996
 20
150.0
 30
0.0
 11
-173.2149999999997
 21
150.0
 31
0.0
  0
LINE
  5
BA
330
41B
100
AcDbEntity
  8
DIMNSIONS
  6
Continuous
 62
     7
100
AcDbLine
 10
-349.9999999999996
 20
150.0
 30
0.0
 11
-320.0018310546871
 21
158.0379851433088
 31
0.0
  0
LINE
  5
BB
330
41B
100
AcDbEntity
  8
DIMNSIONS
  6
Continuous
 62
     7
100
AcDbLine
 10
-349.9999999999996
 20
150.0
 30
0.0
 11
-320.0018310546871
 21
141.9620148566911
 31
0.0
  0
LINE
  5
BC
330
41B
100
AcDbEntity
  8
DIMNSIONS
  6
Continuous
 62
     7
100
AcDbLine
 10
-173.2149999999997
 20
150.0
 30
0.0
 11
-203.2131689453122
 21
141.9620148566911
 31
0.0
  0
LINE
  5
BD
330
41B
100
AcDbEntity
  8
DIMNSIONS
  6
Continuous
 62
     7
100
AcDbLine
 10
-173.2149999999997
 20
150.0
 30
0.0
 11
-203.2131689453122
 21
158.0379851433088
 31
0.0
  0
TEXT
  5
BE
330
41B
100
AcDbEntity
  8
DIMNSIONS
 62
     7
100
AcDbText
 10
-301.2949999999996
 20
169.9083333333333
 30
0.0
 40
40.72102864583334
  1
177
 41
0.7
 11
-301.2949999999996
 21
210.6293619791667
 31
0.0
100
AcDbText
 73
     3
  0
LINE
  5
BF
330
41B
100
AcDbEntity
  8
DIMNSIONS
  6
Continuous
 62
     7
100
AcDbLine
 10
-351.0749999999994
 20
98.77999999999973
 30
0.0
 11
-502.0523767060106
 21
98.77999999999973
 31
0.0
  0
ARC
  5
C0
330
41B
100
AcDbEntity
  8
DIMNSIONS
  6
Continuous
 62
     7
100
AcDbCircle
 10
-323.0749999999994
 20
98.77999999999973
 30
0.0
 40
163.9773767060113
100
AcDbArc
 50
180.0
 51
210.0
  0
LINE
  5
C1
330
41B
100
AcDbEntity
  8
DIMNSIONS
  6
Continuous
 62
     7
100
AcDbLine
 10
-465.0835738733357
 20
16.79131164699407
 30
0.0
 11
-487.0437576753394
 21
38.7514954489977
 31
0.0
  0
LINE
  5
C2
330
41B
100
AcDbEntity
  8
DIMNSIONS
  6
Continuous
 62
     7
100
AcDbLine
 10
-465.0835738733357
 20
16.79131164699407
 30
0.0
 11
-473.1215590166447
 21
46.78948059230657
 31
0.0
  0
LINE
  5
C3
330
41B
100
AcDbEntity
  8
DIMNSIONS
  6
Continuous
 62
     7
100
AcDbLine
 10
-487.0523767060106
 20
98.77999999999978
 30
0.0
 11
-479.0143915627018
 21
68.78183105468726
 31
0.0
  0
LINE
  5
C4
330
41B
100
AcDbEntity
  8
DIMNSIONS
  6
Continuous
 62
     7
100
AcDbLine
 10
-487.0523767060106
 20
98.77999999999978
 30
0.0
 11
-495.0903618493196
 21
68.78183105468726
 31
0.0
  0
TEXT
  5
C5
330
41B
100
AcDbEntity
  8
DIMNSIONS
 62
     7
100
AcDbText
 10
-499.509631128662
 20
24.71955910016584
 30
0.0
 40
40.72102864583334
  1
30°
 50
96.71658661976692
 41
0.7
 11
-539.9511845455054
 21
19.95689900234478
 31
0.0
100
AcDbText
 73
     3
  0
LINE
  5
C6
330
41B
100
AcDbEntity
  8
DIMNSIONS
  6
Continuous
 62
     7
100
AcDbLine
 10
-869.8193204730461
 20
-967.0031313008768
 30
0.0
 11
-900.0
 21
-1050.0
 31
0.0
  0
LINE
  5
C7
330
41B
100
AcDbEntity
  8
DIMNSIONS
  6
Continuous
 62
     7
100
AcDbLine
 10
-869.8193204730461
 20
-967.0031313008768
 30
0.0
 11
-871.9857047102756
 21
-997.9838692612972
 31
0.0
  0
LINE
  5
C8
330
41B
100
AcDbEntity
  8
DIMNSIONS
  6
Continuous
 62
     7
100
AcDbLine
 10
-869.8193204730461
 20
-967.0031313008768
 30
0.0
 11
-887.1858332370553
 21
-992.7500452839751
 31
0.0
  0
LINE
  5
C9
330
41B
100
AcDbEntity
  8
DIMNSIONS
  6
Continuous
 62
     7
100
AcDbLine
 10
-900.0
 20
-1050.0
 30
0.0
 11
-930.0
 21
-1050.0
 31
0.0
  0
TEXT
  5
CA
330
41B
100
AcDbEntity
  8
DIMNSIONS
 62
     7
100
AcDbText
 10
-1062.291666666666
 20
-1069.05
 30
0.0
 40
40.72102864583334
  1
2-M10
 41
0.7
 11
-1062.291666666666
 21
-1028.328971354167
 31
0.0
100
AcDbText
 73
     3
  0
LINE
  5
CB
330
41B
100
AcDbEntity
  8
DIMNSIONS
  6
Continuous
 62
     7
100
AcDbLine
 10
-848.0
 20
-956.4999999999999
 30
0.0
 11
-660.6100000000001
 21
-956.4999999999999
 31
0.0
  0
LINE
  5
CC
330
41B
100
AcDbEntity
  8
DIMNSIONS
  6
Continuous
 62
     7
100
AcDbLine
 10
-738.2200000000001
 20
-1000.0
 30
0.0
 11
-660.6100000000001
 21
-1000.0
 31
0.0
  0
LINE
  5
CD
330
41B
100
AcDbEntity
  8
DIMNSIONS
  6
Continuous
 62
     7
100
AcDbLine
 10
-675.6100000000001
 20
-1000.0
 30
0.0
 11
-675.6100000000001
 21
-956.4999999999999
 31
0.0
  0
LINE
  5
CE
330
41B
100
AcDbEntity
  8
DIMNSIONS
  6
Continuous
 62
     7
100
AcDbLine
 10
-675.6100000000001
 20
-956.4999999999999
 30
0.0
 11
-675.6100000000001
 21
-904.0
 31
0.0
  0
LINE
  5
CF
330
41B
100
AcDbEntity
  8
DIMNSIONS
  6
Continuous
 62
     7
100
AcDbLine
 10
-675.6100000000001
 20
-956.4999999999999
 30
0.0
 11
-683.647985143309
 21
-926.5018310546876
 31
0.0
  0
LINE
  5
D0
330
41B
100
AcDbEntity
  8
DIMNSIONS
  6
Continuous
 62
     7
100
AcDbLine
 10
-675.6100000000001
 20
-956.4999999999999
 30
0.0
 11
-667.5720148566913
 21
-926.5018310546876
 31
0.0
  0
LINE
  5
D1
330
41B
100
AcDbEntity
  8
DIMNSIONS
  6
Continuous
 62
     7
100
AcDbLine
 10
-675.6100000000001
 20
-1000.0
 30
0.0
 11
-675.6100000000001
 21
-1130.833333333333
 31
0.0
  0
LINE
  5
D2
330
41B
100
AcDbEntity
  8
DIMNSIONS
  6
Continuous
 62
     7
100
AcDbLine
 10
-675.6100000000001
 20
-1000.0
 30
0.0
 11
-667.5720148566913
 21
-1029.998168945312
 31
0.0
  0
LINE
  5
D3
330
41B
100
AcDbEntity
  8
DIMNSIONS
  6
Continuous
 62
     7
100
AcDbLine
 10
-675.6100000000001
 20
-1000.0
 30
0.0
 11
-683.647985143309
 21
-1029.998168945312
 31
0.0
  0
TEXT
  5
D4
330
41B
100
AcDbEntity
  8
DIMNSIONS
 62
     7
100
AcDbText
 10
-690.5183333333333
 20
-1130.833333333333
 30
0.0
 40
40.72102864583334
  1
43.5
 50
90.0
 41
0.7
 11
-731.2393619791667
 21
-1130.833333333333
 31
0.0
100
AcDbText
 73
     3
  0
LINE
  5
D5
330
41B
100
AcDbEntity
  8
DIMNSIONS
  6
Continuous
 62
     7
100
AcDbLine
 10
-848.0
 20
-956.4999999999999
 30
0.0
 11
-660.6100000000001
 21
-956.4999999999999
 31
0.0
  0
LINE
  5
D6
330
41B
100
AcDbEntity
  8
DIMNSIONS
  6
Continuous
 62
     7
100
AcDbLine
 10
-848.0
 20
-469.5209999999996
 30
0.0
 11
-660.6100000000001
 21
-469.5209999999996
 31
0.0
  0
LINE
  5
D7
330
41B
100
AcDbEntity
  8
DIMNSIONS
  6
Continuous
 62
     7
100
AcDbLine
 10
-675.6100000000001
 20
-956.4999999999999
 30
0.0
 11
-675.6100000000001
 21
-469.5209999999996
 31
0.0
  0
LINE
  5
D8
330
41B
100
AcDbEntity
  8
DIMNSIONS
  6
Continuous
 62
     7
100
AcDbLine
 10
-675.6100000000001
 20
-956.4999999999999
 30
0.0
 11
-683.647985143309
 21
-926.5018310546876
 31
0.0
  0
LINE
  5
D9
330
41B
100
AcDbEntity
  8
DIMNSIONS
  6
Continuous
 62
     7
100
AcDbLine
 10
-675.6100000000001
 20
-956.4999999999999
 30
0.0
 11
-667.5720148566913
 21
-926.5018310546876
 31
0.0
  0
LINE
  5
DA
330
41B
100
AcDbEntity
  8
DIMNSIONS
  6
Continuous
 62
     7
100
AcDbLine
 10
-675.6100000000001
 20
-469.5209999999996
 30
0.0
 11
-667.5720148566913
 21
-499.5191689453121
 31
0.0
  0
LINE
  5
DB
330
41B
100
AcDbEntity
  8
DIMNSIONS
  6
Continuous
 62
     7
100
AcDbLine
 10
-675.6100000000001
 20
-469.5209999999996
 30
0.0
 11
-683.647985143309
 21
-499.5191689453121
 31
0.0
  0
TEXT
  5
DC
330
41B
100
AcDbEntity
  8
DIMNSIONS
 62
     7
100
AcDbText
 10
-690.5183333333335
 20
-752.6979999999999
 30
0.0
 40
40.72102864583334
  1
487
 50
90.0
 41
0.7
 11
-731.2393619791669
 21
-752.6979999999999
 31
0.0
100
AcDbText
 73
     3
  0
LINE
  5
DD
330
41B
100
AcDbEntity
  8
DIMNSIONS
  6
Continuous
 62
     7
100
AcDbLine
 10
-1150.0
 20
-412.9599999999999
 30
0.0
 11
-1150.0
 21
-360.0
 31
0.0
  0
LINE
  5
DE
330
41B
100
AcDbEntity
  8
DIMNSIONS
  6
Continuous
 62
     7
100
AcDbLine
 10
-866.0
 20
-451.5209999999997
 30
0.0
 11
-866.0
 21
-360.0
 31
0.0
  0
LINE
  5
DF
330
41B
100
AcDbEntity
  8
DIMNSIONS
  6
Continuous
 62
     7
100
AcDbLine
 10
-1150.0
 20
-375.0
 30
0.0
 11
-866.0
 21
-375.0
 31
0.0
  0
LINE
  5
E0
330
41B
100
AcDbEntity
  8
DIMNSIONS
  6
Continuous
 62
     7
100
AcDbLine
 10
-1150.0
 20
-375.0
 30
0.0
 11
-1120.001831054687
 21
-366.9620148566912
 31
0.0
  0
LINE
  5
E1
330
41B
100
AcDbEntity
  8
DIMNSIONS
  6
Continuous
 62
     7
100
AcDbLine
 10
-1150.0
 20
-375.0
 30
0.0
 11
-1120.001831054687
 21
-383.0379851433088
 31
0.0
  0
LINE
  5
E2
330
41B
100
AcDbEntity
  8
DIMNSIONS
  6
Continuous
 62
     7
100
AcDbLine
 10
-866.0
 20
-375.0
 30
0.0
 11
-895.9981689453124
 21
-383.0379851433089
 31
0.0
  0
LINE
  5
E3
330
41B
100
AcDbEntity
  8
DIMNSIONS
  6
Continuous
 62
     7
100
AcDbLine
 10
-866.0
 20
-375.0
 30
0.0
 11
-895.9981689453124
 21
-366.9620148566912
 31
0.0
  0
TEXT
  5
E4
330
41B
100
AcDbEntity
  8
DIMNSIONS
 62
     7
100
AcDbText
 10
-1047.6875
 20
-360.0916666666667
 30
0.0
 40
40.72102864583334
  1
284
 41
0.7
 11
-1047.6875
 21
-319.3706380208333
 31
0.0
100
AcDbText
 73
     3
  0
LINE
  5
E5
330
41B
100
AcDbEntity
  8
DIMNSIONS
  6
Continuous
 62
     7
100
AcDbLine
 10
-526.7839999999991
 20
-1013.0
 30
0.0
 11
-526.7839999999991
 21
-1115.0
 31
0.0
  0
LINE
  5
E6
330
41B
100
AcDbEntity
  8
DIMNSIONS
  6
Continuous
 62
     7
100
AcDbLine
 10
-173.2159999999999
 20
-1013.0
 30
0.0
 11
-173.2159999999999
 21
-1115.0
 31
0.0
  0
LINE
  5
E7
330
41B
100
AcDbEntity
  8
DIMNSIONS
  6
Continuous
 62
     7
100
AcDbLine
 10
-526.7839999999991
 20
-1100.0
 30
0.0
 11
-173.2159999999999
 21
-1100.0
 31
0.0
  0
LINE
  5
E8
330
41B
100
AcDbEntity
  8
DIMNSIONS
  6
Continuous
 62
     7
100
AcDbLine
 10
-526.7839999999991
 20
-1100.0
 30
0.0
 11
-496.7858310546866
 21
-1091.962014856691
 31
0.0
  0
LINE
  5
E9
330
41B
100
AcDbEntity
  8
DIMNSIONS
  6
Continuous
 62
     7
100
AcDbLine
 10
-526.7839999999991
 20
-1100.0
 30
0.0
 11
-496.7858310546866
 21
-1108.037985143309
 31
0.0
  0
LINE
  5
EA
330
41B
100
AcDbEntity
  8
DIMNSIONS
  6
Continuous
 62
     7
100
AcDbLine
 10
-173.2159999999999
 20
-1100.0
 30
0.0
 11
-203.2141689453124
 21
-1108.037985143309
 31
0.0
  0
LINE
  5
EB
330
41B
100
AcDbEntity
  8
DIMNSIONS
  6
Continuous
 62
     7
100
AcDbLine
 10
-173.2159999999999
 20
-1100.0
 30
0.0
 11
-203.2141689453124
 21
-1091.962014856691
 31
0.0
  0
TEXT
  5
EC
330
41B
100
AcDbEntity
  8
DIMNSIONS
 62
     7
100
AcDbText
 10
-389.6874999999996
 20
-1080.091666666666
 30
0.0
 40
40.72102864583334
  1
354
 41
0.7
 11
-389.6874999999996
 21
-1039.370638020833
 31
0.0
100
AcDbText
 73
     3
  0
LINE
  5
ED
330
41B
100
AcDbEntity
  8
DIMNSIONS
  6
Continuous
 62
     7
100
AcDbLine
 10
-539.7839999999992
 20
-1000.0
 30
0.0
 11
-590.0
 21
-1000.0
 31
0.0
  0
LINE
  5
EE
330
41B
100
AcDbEntity
  8
DIMNSIONS
  6
Continuous
 62
     7
100
AcDbLine
 10
-539.7839999999992
 20
-425.9599999999999
 30
0.0
 11
-590.0
 21
-425.9599999999999
 31
0.0
  0
LINE
  5
EF
330
41B
100
AcDbEntity
  8
DIMNSIONS
  6
Continuous
 62
     7
100
AcDbLine
 10
-575.0
 20
-1000.0
 30
0.0
 11
-575.0
 21
-425.9599999999999
 31
0.0
  0
LINE
  5
F0
330
41B
100
AcDbEntity
  8
DIMNSIONS
  6
Continuous
 62
     7
100
AcDbLine
 10
-575.0
 20
-1000.0
 30
0.0
 11
-583.0379851433089
 21
-970.0018310546877
 31
0.0
  0
LINE
  5
F1
330
41B
100
AcDbEntity
  8
DIMNSIONS
  6
Continuous
 62
     7
100
AcDbLine
 10
-575.0
 20
-1000.0
 30
0.0
 11
-566.962014856691
 21
-970.0018310546877
 31
0.0
  0
LINE
  5
F2
330
41B
100
AcDbEntity
  8
DIMNSIONS
  6
Continuous
 62
     7
100
AcDbLine
 10
-575.0
 20
-425.9599999999999
 30
0.0
 11
-566.962014856691
 21
-455.9581689453124
 31
0.0
  0
LINE
  5
F3
330
41B
100
AcDbEntity
  8
DIMNSIONS
  6
Continuous
 62
     7
100
AcDbLine
 10
-575.0
 20
-425.9599999999999
 30
0.0
 11
-583.0379851433089
 21
-455.9581689453124
 31
0.0
  0
TEXT
  5
F4
330
41B
100
AcDbEntity
  8
DIMNSIONS
 62
     7
100
AcDbText
 10
-594.9083333333333
 20
-752.6675
 30
0.0
 40
40.72102864583334
  1
574
 50
90.0
 41
0.7
 11
-635.6293619791666
 21
-752.6675
 31
0.0
100
AcDbText
 73
     3
  0
LINE
  5
F5
330
41B
100
AcDbEntity
  8
DIMNSIONS
  6
Continuous
 62
     7
100
AcDbLine
 10
32.7800000000002
 20
-469.46
 30
0.0
 11
390.0
 21
-469.46
 31
0.0
  0
LINE
  5
F6
330
41B
100
AcDbEntity
  8
DIMNSIONS
  6
Continuous
 62
     7
100
AcDbLine
 10
32.7800000000002
 20
-956.4999999999999
 30
0.0
 11
390.0
 21
-956.4999999999999
 31
0.0
  0
LINE
  5
F7
330
41B
100
AcDbEntity
  8
DIMNSIONS
  6
Continuous
 62
     7
100
AcDbLine
 10
375.0
 20
-469.46
 30
0.0
 11
375.0
 21
-956.4999999999999
 31
0.0
  0
LINE
  5
F8
330
41B
100
AcDbEntity
  8
DIMNSIONS
  6
Continuous
 62
     7
100
AcDbLine
 10
375.0
 20
-469.46
 30
0.0
 11
383.0379851433088
 21
-499.4581689453124
 31
0.0
  0
LINE
  5
F9
330
41B
100
AcDbEntity
  8
DIMNSIONS
  6
Continuous
 62
     7
100
AcDbLine
 10
375.0
 20
-469.46
 30
0.0
 11
366.9620148566912
 21
-499.4581689453124
 31
0.0
  0
LINE
  5
FA
330
41B
100
AcDbEntity
  8
DIMNSIONS
  6
Continuous
 62
     7
100
AcDbLine
 10
375.0
 20
-956.4999999999999
 30
0.0
 11
366.9620148566912
 21
-926.5018310546876
 31
0.0
  0
LINE
  5
FB
330
41B
100
AcDbEntity
  8
DIMNSIONS
  6
Continuous
 62
     7
100
AcDbLine
 10
375.0
 20
-956.4999999999999
 30
0.0
 11
383.0379851433088
 21
-926.5018310546876
 31
0.0
  0
TEXT
  5
FC
330
41B
100
AcDbEntity
  8
DIMNSIONS
 62
     7
100
AcDbText
 10
355.0916666666667
 20
-752.6675
 30
0.0
 40
40.72102864583334
  1
487
 50
90.0
 41
0.7
 11
314.3706380208334
 21
-752.6675
 31
0.0
100
AcDbText
 73
     3
  0
LINE
  5
FD
330
41B
100
AcDbEntity
  8
DIMNSIONS
  6
Continuous
 62
     7
100
AcDbLine
 10
32.7800000000002
 20
-956.4999999999999
 30
0.0
 11
390.0
 21
-956.4999999999999
 31
0.0
  0
LINE
  5
FE
330
41B
100
AcDbEntity
  8
DIMNSIONS
  6
Continuous
 62
     7
100
AcDbLine
 10
311.7800000000002
 20
-1000.0
 30
0.0
 11
390.0
 21
-1000.0
 31
0.0
  0
LINE
  5
FF
330
41B
100
AcDbEntity
  8
DIMNSIONS
  6
Continuous
 62
     7
100
AcDbLine
 10
375.0
 20
-1000.0
 30
0.0
 11
375.0
 21
-956.4999999999999
 31
0.0
  0
LINE
  5
100
330
41B
100
AcDbEntity
  8
DIMNSIONS
  6
Continuous
 62
     7
100
AcDbLine
 10
375.0
 20
-956.4999999999999
 30
0.0
 11
375.0
 21
-904.0
 31
0.0
  0
LINE
  5
101
330
41B
100
AcDbEntity
  8
DIMNSIONS
  6
Continuous
 62
     7
100
AcDbLine
 10
375.0
 20
-956.4999999999999
 30
0.0
 11
366.9620148566912
 21
-926.5018310546876
 31
0.0
  0
LINE
  5
102
330
41B
100
AcDbEntity
  8
DIMNSIONS
  6
Continuous
 62
     7
100
AcDbLine
 10
375.0
 20
-956.4999999999999
 30
0.0
 11
383.0379851433088
 21
-926.5018310546876
 31
0.0
  0
LINE
  5
103
330
41B
100
AcDbEntity
  8
DIMNSIONS
  6
Continuous
 62
     7
100
AcDbLine
 10
375.0
 20
-1000.0
 30
0.0
 11
375.0
 21
-1130.833333333333
 31
0.0
  0
LINE
  5
104
330
41B
100
AcDbEntity
  8
DIMNSIONS
  6
Continuous
 62
     7
100
AcDbLine
 10
375.0
 20
-1000.0
 30
0.0
 11
383.0379851433088
 21
-1029.998168945312
 31
0.0
  0
LINE
  5
105
330
41B
100
AcDbEntity
  8
DIMNSIONS
  6
Continuous
 62
     7
100
AcDbLine
 10
375.0
 20
-1000.0
 30
0.0
 11
366.9620148566912
 21
-1029.998168945312
 31
0.0
  0
TEXT
  5
106
330
41B
100
AcDbEntity
  8
DIMNSIONS
 62
     7
100
AcDbText
 10
355.0916666666667
 20
-1130.833333333333
 30
0.0
 40
40.72102864583334
  1
43.5
 50
90.0
 41
0.7
 11
314.3706380208333
 21
-1130.833333333333
 31
0.0
100
AcDbText
 73
     3
  0
LINE
  5
107
330
41B
100
AcDbEntity
  8
DIMNSIONS
  6
Continuous
 62
     7
100
AcDbLine
 10
18.71959674175131
 20
-966.9586114524056
 30
0.0
 11
50.0
 21
-1050.0
 31
0.0
  0
LINE
  5
108
330
41B
100
AcDbEntity
  8
DIMNSIONS
  6
Continuous
 62
     7
100
AcDbLine
 10
18.71959674175131
 20
-966.9586114524056
 30
0.0
 11
36.97408463506491
 21
-992.0837585562223
 31
0.0
  0
LINE
  5
109
330
41B
100
AcDbEntity
  8
DIMNSIONS
  6
Continuous
 62
     7
100
AcDbLine
 10
18.71959674175131
 20
-966.9586114524056
 30
0.0
 11
21.96587343852799
 21
-997.844871064789
 31
0.0
  0
LINE
  5
10A
330
41B
100
AcDbEntity
  8
DIMNSIONS
  6
Continuous
 62
     7
100
AcDbLine
 10
50.0
 20
-1050.0
 30
0.0
 11
80.0
 21
-1050.0
 31
0.0
  0
TEXT
  5
10B
330
41B
100
AcDbEntity
  8
DIMNSIONS
 62
     7
100
AcDbText
 10
80.0
 20
-1069.05
 30
0.0
 40
40.72102864583334
  1
2-M10
 41
0.7
 11
80.0
 21
-1028.328971354167
 31
0.0
100
AcDbText
 73
     3
  0
LINE
  5
10C
330
41B
100
AcDbEntity
  8
DIMNSIONS
  6
Continuous
 62
     7
100
AcDbLine
 10
14.7800000000002
 20
-451.4599999999999
 30
0.0
 11
14.7800000000002
 21
-360.0
 31
0.0
  0
LINE
  5
10D
330
41B
100
AcDbEntity
  8
DIMNSIONS
  6
Continuous
 62
     7
100
AcDbLine
 10
298.7800000000002
 20
-412.9599999999999
 30
0.0
 11
298.7800000000002
 21
-360.0
 31
0.0
  0
LINE
  5
10E
330
41B
100
AcDbEntity
  8
DIMNSIONS
  6
Continuous
 62
     7
100
AcDbLine
 10
14.7800000000002
 20
-375.0
 30
0.0
 11
298.7800000000002
 21
-375.0
 31
0.0
  0
LINE
  5
10F
330
41B
100
AcDbEntity
  8
DIMNSIONS
  6
Continuous
 62
     7
100
AcDbLine
 10
14.7800000000002
 20
-375.0
 30
0.0
 11
44.7781689453127
 21
-366.9620148566912
 31
0.0
  0
LINE
  5
110
330
41B
100
AcDbEntity
  8
DIMNSIONS
  6
Continuous
 62
     7
100
AcDbLine
 10
14.7800000000002
 20
-375.0
 30
0.0
 11
44.7781689453127
 21
-383.0379851433088
 31
0.0
  0
LINE
  5
111
330
41B
100
AcDbEntity
  8
DIMNSIONS
  6
Continuous
 62
     7
100
AcDbLine
 10
298.7800000000002
 20
-375.0
 30
0.0
 11
268.7818310546877
 21
-383.0379851433089
 31
0.0
  0
LINE
  5
112
330
41B
100
AcDbEntity
  8
DIMNSIONS
  6
Continuous
 62
     7
100
AcDbLine
 10
298.7800000000002
 20
-375.0
 30
0.0
 11
268.7818310546877
 21
-366.9620148566912
 31
0.0
  0
TEXT
  5
113
330
41B
100
AcDbEntity
  8
DIMNSIONS
 62
     7
100
AcDbText
 10
117.0925000000002
 20
-360.0916666666667
 30
0.0
 40
40.72102864583334
  1
284
 41
0.7
 11
117.0925000000002
 21
-319.3706380208333
 31
0.0
100
AcDbText
 73
     3
  0
ARC
  5
114
330
41B
100
AcDbEntity
  8
DATA
  6
Continuous
 62
     7
100
AcDbCircle
 10
755.9778834031566
 20
-464.4996576145141
 30
0.0
 40
5.54231239608281
100
AcDbArc
 50
91.77347007062124
 51
155.5988215406816
  0
ARC
  5
115
330
41B
100
AcDbEntity
  8
DATA
  6
Continuous
 62
     7
100
AcDbCircle
 10
757.3376105086826
 20
-465.4094921214859
 30
0.0
 40
7.161428447502493
100
AcDbArc
 50
153.4635337118461
 51
180.404097071391
  0
ARC
  5
116
330
41B
100
AcDbEntity
  8
DATA
  6
Continuous
 62
     7
100
AcDbCircle
 10
620.2527822278225
 20
-467.1714999256332
 30
0.0
 40
8.887582053998851
100
AcDbArc
 50
39.47913493552521
 51
89.75368393135115
  0
ARC
  5
117
330
41B
100
AcDbEntity
  8
DATA
  6
Continuous
 62
     7
100
AcDbCircle
 10
618.1148082919715
 20
-469.2047627917276
 30
0.0
 40
11.83294624533521
100
AcDbArc
 50
10.27984620658075
 51
40.29180408541941
  0
ARC
  5
118
330
41B
100
AcDbEntity
  8
DATA
  6
Continuous
 62
     7
100
AcDbCircle
 10
616.778876723727
 20
-469.46
 30
0.0
 40
13.19298805627404
100
AcDbArc
 50
349.6648472601477
 51
10.33515273985028
  0
ARC
  5
119
330
41B
100
AcDbEntity
  8
DATA
  6
Continuous
 62
     7
100
AcDbCircle
 10
620.2527822278225
 20
-471.7485000743671
 30
0.0
 40
8.887582053999235
100
AcDbArc
 50
270.2463160686489
 51
320.5208650644749
  0
ARC
  5
11A
330
41B
100
AcDbEntity
  8
DATA
  6
Continuous
 62
     7
100
AcDbCircle
 10
618.1148082919715
 20
-469.7152372082727
 30
0.0
 40
11.8329462453355
100
AcDbArc
 50
319.7081959145806
 51
349.7201537934193
  0
LINE
  5
11B
330
41B
100
AcDbEntity
  8
DATA
  6
Continuous
 62
     7
100
AcDbLine
 10
423.2160000000003
 20
-995.0
 30
0.0
 11
423.2160000000003
 21
-430.9599999999999
 31
0.0
  0
LINE
  5
11C
330
41B
100
AcDbEntity
  8
DATA
  6
Continuous
 62
     7
100
AcDbLine
 10
771.7839999999996
 20
-1000.0
 30
0.0
 11
428.2160000000003
 21
-1000.0
 31
0.0
  0
LINE
  5
11D
330
41B
100
AcDbEntity
  8
DATA
  6
Continuous
 62
     7
100
AcDbLine
 10
776.7839999999996
 20
-430.9599999999999
 30
0.0
 11
776.7839999999996
 21
-995.0
 31
0.0
  0
LINE
  5
11E
330
41B
100
AcDbEntity
  8
DATA
  6
Continuous
 62
     7
100
AcDbLine
 10
428.2160000000003
 20
-425.9599999999999
 30
0.0
 11
771.7839999999996
 21
-425.9599999999999
 31
0.0
  0
ARC
  5
11F
330
41B
100
AcDbEntity
  8
DATA
  6
Continuous
 62
     7
100
AcDbCircle
 10
428.2160000000003
 20
-430.9599999999999
 30
0.0
 40
5.0
100
AcDbArc
 50
90.0
 51
180.0
  0
ARC
  5
120
330
41B
100
AcDbEntity
  8
DATA
  6
Continuous
 62
     7
100
AcDbCircle
 10
771.7839999999996
 20
-430.9599999999999
 30
0.0
 40
5.0
100
AcDbArc
 50
0.0
 51
90.0
  0
ARC
  5
121
330
41B
100
AcDbEntity
  8
DATA
  6
Continuous
 62
     7
100
AcDbCircle
 10
771.7839999999996
 20
-995.0
 30
0.0
 40
5.0
100
AcDbArc
 50
270.0
 51
0.0
  0
ARC
  5
122
330
41B
100
AcDbEntity
  8
DATA
  6
Continuous
 62
     7
100
AcDbCircle
 10
428.2160000000003
 20
-995.0
 30
0.0
 40
5.0
100
AcDbArc
 50
180.0
 51
270.0
  0
LINE
  5
123
330
41B
100
AcDbEntity
  8
DATA
  6
Continuous
 62
     7
100
AcDbLine
 10
573.0750000000007
 20
-425.9599999999999
 30
0.0
 11
573.0750000000007
 21
-1000.0
 31
0.0
  0
LINE
  5
124
330
41B
100
AcDbEntity
  8
DATA
  6
Continuous
 62
     7
100
AcDbLine
 10
436.2160000000003
 20
-789.96
 30
0.0
 11
436.2160000000003
 21
-641.96
 31
0.0
  0
LINE
  5
125
330
41B
100
AcDbEntity
  8
DATA
  6
Continuous
 62
     7
100
AcDbLine
 10
545.2160000000003
 20
-804.9599999999999
 30
0.0
 11
451.2160000000004
 21
-804.9599999999999
 31
0.0
  0
LINE
  5
126
330
41B
100
AcDbEntity
  8
DATA
  6
Continuous
 62
     7
100
AcDbLine
 10
560.2160000000004
 20
-641.96
 30
0.0
 11
560.2160000000004
 21
-789.96
 31
0.0
  0
LINE
  5
127
330
41B
100
AcDbEntity
  8
DATA
  6
Continuous
 62
     7
100
AcDbLine
 10
451.2160000000004
 20
-626.96
 30
0.0
 11
545.2160000000003
 21
-626.96
 31
0.0
  0
LWPOLYLINE
  5
128
330
41B
100
AcDbEntity
  8
DATA
  6
Continuous
 62
     7
100
AcDbPolyline
 90
        4
 70
     1
 43
0.0
 10
450.7160000000004
 20
-643.46
 10
545.7160000000003
 20
-643.46
 10
545.7160000000003
 20
-788.46
 10
450.7160000000004
 20
-788.46
  0
ARC
  5
12F
330
41B
100
AcDbEntity
  8
DATA
  6
Continuous
 62
     7
100
AcDbCircle
 10
451.2160000000004
 20
-641.96
 30
0.0
 40
15.0
100
AcDbArc
 50
90.0
 51
180.0
  0
ARC
  5
130
330
41B
100
AcDbEntity
  8
DATA
  6
Continuous
 62
     7
100
AcDbCircle
 10
451.2160000000004
 20
-789.96
 30
0.0
 40
15.0
100
AcDbArc
 50
180.0
 51
270.0
  0
ARC
  5
131
330
41B
100
AcDbEntity
  8
DATA
  6
Continuous
 62
     7
100
AcDbCircle
 10
545.2160000000003
 20
-789.96
 30
0.0
 40
15.0
100
AcDbArc
 50
270.0
 51
0.0
  0
ARC
  5
132
330
41B
100
AcDbEntity
  8
DATA
  6
Continuous
 62
     7
100
AcDbCircle
 10
545.2160000000003
 20
-641.96
 30
0.0
 40
15.0
100
AcDbArc
 50
0.0
 51
90.0
  0
CIRCLE
  5
133
330
41B
100
AcDbEntity
  8
DATA
  6
Continuous
 62
     7
100
AcDbCircle
 10
441.2160000000004
 20
-642.96
 30
0.0
 40
3.499999999999626
  0
LINE
  5
134
330
41B
100
AcDbEntity
  8
DATA
  6
Continuous
 62
     7
100
AcDbLine
 10
439.4660000000004
 20
-642.96
 30
0.0
 11
442.9660000000004
 21
-642.96
 31
0.0
  0
LINE
  5
135
330
41B
100
AcDbEntity
  8
DATA
  6
Continuous
 62
     7
100
AcDbLine
 10
441.2160000000004
 20
-644.71
 30
0.0
 11
441.2160000000004
 21
-641.21
 31
0.0
  0
CIRCLE
  5
136
330
41B
100
AcDbEntity
  8
DATA
  6
Continuous
 62
     7
100
AcDbCircle
 10
555.2160000000003
 20
-642.96
 30
0.0
 40
3.499999999999626
  0
LINE
  5
137
330
41B
100
AcDbEntity
  8
DATA
  6
Continuous
 62
     7
100
AcDbLine
 10
553.4660000000003
 20
-642.96
 30
0.0
 11
556.9660000000003
 21
-642.96
 31
0.0
  0
LINE
  5
138
330
41B
100
AcDbEntity
  8
DATA
  6
Continuous
 62
     7
100
AcDbLine
 10
555.2160000000003
 20
-644.71
 30
0.0
 11
555.2160000000003
 21
-641.21
 31
0.0
  0
CIRCLE
  5
139
330
41B
100
AcDbEntity
  8
DATA
  6
Continuous
 62
     7
100
AcDbCircle
 10
441.2160000000004
 20
-715.96
 30
0.0
 40
3.499999999999626
  0
LINE
  5
13A
330
41B
100
AcDbEntity
  8
DATA
  6
Continuous
 62
     7
100
AcDbLine
 10
439.4660000000004
 20
-715.96
 30
0.0
 11
442.9660000000004
 21
-715.96
 31
0.0
  0
LINE
  5
13B
330
41B
100
AcDbEntity
  8
DATA
  6
Continuous
 62
     7
100
AcDbLine
 10
441.2160000000004
 20
-717.71
 30
0.0
 11
441.2160000000004
 21
-714.21
 31
0.0
  0
CIRCLE
  5
13C
330
41B
100
AcDbEntity
  8
DATA
  6
Continuous
 62
     7
100
AcDbCircle
 10
555.2160000000003
 20
-715.96
 30
0.0
 40
3.499999999999626
  0
LINE
  5
13D
330
41B
100
AcDbEntity
  8
DATA
  6
Continuous
 62
     7
100
AcDbLine
 10
553.4660000000003
 20
-715.96
 30
0.0
 11
556.9660000000003
 21
-715.96
 31
0.0
  0
LINE
  5
13E
330
41B
100
AcDbEntity
  8
DATA
  6
Continuous
 62
     7
100
AcDbLine
 10
555.2160000000003
 20
-717.71
 30
0.0
 11
555.2160000000003
 21
-714.21
 31
0.0
  0
CIRCLE
  5
13F
330
41B
100
AcDbEntity
  8
DATA
  6
Continuous
 62
     7
100
AcDbCircle
 10
441.2160000000004
 20
-788.96
 30
0.0
 40
3.499999999999626
  0
LINE
  5
140
330
41B
100
AcDbEntity
  8
DATA
  6
Continuous
 62
     7
100
AcDbLine
 10
439.4660000000004
 20
-788.96
 30
0.0
 11
442.9660000000004
 21
-788.96
 31
0.0
  0
LINE
  5
141
330
41B
100
AcDbEntity
  8
DATA
  6
Continuous
 62
     7
100
AcDbLine
 10
441.2160000000004
 20
-790.71
 30
0.0
 11
441.2160000000004
 21
-787.21
 31
0.0
  0
CIRCLE
  5
142
330
41B
100
AcDbEntity
  8
DATA
  6
Continuous
 62
     7
100
AcDbCircle
 10
555.2160000000003
 20
-788.96
 30
0.0
 40
3.499999999999626
  0
LINE
  5
143
330
41B
100
AcDbEntity
  8
DATA
  6
Continuous
 62
     7
100
AcDbLine
 10
553.4660000000003
 20
-788.96
 30
0.0
 11
556.9660000000003
 21
-788.96
 31
0.0
  0
LINE
  5
144
330
41B
100
AcDbEntity
  8
DATA
  6
Continuous
 62
     7
100
AcDbLine
 10
555.2160000000003
 20
-790.71
 30
0.0
 11
555.2160000000003
 21
-787.21
 31
0.0
  0
CIRCLE
  5
145
330
41B
100
AcDbEntity
  8
DATA
  6
Continuous
 62
     7
100
AcDbCircle
 10
498.2160000000003
 20
-676.96
 30
0.0
 40
11.75
  0
CIRCLE
  5
146
330
41B
100
AcDbEntity
  8
DATA
  6
Continuous
 62
     7
100
AcDbCircle
 10
486.2160000000003
 20
-686.46
 30
0.0
 40
2.0
  0
CIRCLE
  5
147
330
41B
100
AcDbEntity
  8
DATA
  6
Continuous
 62
     7
100
AcDbCircle
 10
510.2160000000004
 20
-667.46
 30
0.0
 40
2.0
  0
LINE
  5
148
330
41B
100
AcDbEntity
  8
DATA
  6
Continuous
 62
     7
100
AcDbLine
 10
508.2160000000004
 20
-673.96
 30
0.0
 11
508.2160000000004
 21
-679.96
 31
0.0
  0
LINE
  5
149
330
41B
100
AcDbEntity
  8
DATA
  6
Continuous
 62
     7
100
AcDbLine
 10
488.2160000000004
 20
-674.96
 30
0.0
 11
488.2160000000004
 21
-678.96
 31
0.0
  0
LINE
  5
14A
330
41B
100
AcDbEntity
  8
DATA
  6
Continuous
 62
     7
100
AcDbLine
 10
488.2160000000004
 20
-674.96
 30
0.0
 11
489.416000000001
 21
-674.96
 31
0.0
  0
LINE
  5
14B
330
41B
100
AcDbEntity
  8
DATA
  6
Continuous
 62
     7
100
AcDbLine
 10
488.2160000000004
 20
-678.96
 30
0.0
 11
489.416000000001
 21
-678.96
 31
0.0
  0
LINE
  5
14C
330
41B
100
AcDbEntity
  8
DATA
  6
Continuous
 62
     7
100
AcDbLine
 10
508.2160000000004
 20
-673.96
 30
0.0
 11
506.4888499999996
 21
-673.96
 31
0.0
  0
LINE
  5
14D
330
41B
100
AcDbEntity
  8
DATA
  6
Continuous
 62
     7
100
AcDbLine
 10
508.2160000000004
 20
-679.96
 30
0.0
 11
506.4888499999996
 21
-679.96
 31
0.0
  0
ARC
  5
14E
330
41B
100
AcDbEntity
  8
DATA
  6
Continuous
 62
     7
100
AcDbCircle
 10
498.2160000000003
 20
-676.96
 30
0.0
 40
8.800002677413784
100
AcDbArc
 50
19.93226415068033
 51
167.1961668197019
  0
ARC
  5
14F
330
41B
100
AcDbEntity
  8
DATA
  6
Continuous
 62
     7
100
AcDbCircle
 10
498.2160000000003
 20
-676.96
 30
0.0
 40
8.800003504345708
100
AcDbArc
 50
192.9999995554215
 51
339.9999942379615
  0
ARC
  5
150
330
41B
100
AcDbEntity
  8
DATA
  6
Continuous
 62
     7
100
AcDbCircle
 10
498.2160000000003
 20
-676.96
 30
0.0
 40
6.200002162064611
100
AcDbArc
 50
330.0000115355644
 51
60.00001153555854
  0
LINE
  5
151
330
41B
100
AcDbEntity
  8
DATA
  6
Continuous
 62
     7
100
AcDbLine
 10
501.31603
 20
-671.5906600000002
 30
0.0
 11
501.0285299999996
 21
-672.0886199999999
 31
0.0
  0
LINE
  5
152
330
41B
100
AcDbEntity
  8
DATA
  6
Continuous
 62
     7
100
AcDbLine
 10
503.5853800000005
 20
-680.0599700000002
 30
0.0
 11
503.0874100000001
 21
-679.7724699999998
 31
0.0
  0
ARC
  5
153
330
41B
100
AcDbEntity
  8
DATA
  6
Continuous
 62
     7
100
AcDbCircle
 10
498.2160000000003
 20
-676.96
 30
0.0
 40
6.200002162064611
100
AcDbArc
 50
150.0000115355643
 51
240.0000115355585
  0
LINE
  5
154
330
41B
100
AcDbEntity
  8
DATA
  6
Continuous
 62
     7
100
AcDbLine
 10
492.8466399999997
 20
-673.8600000000001
 30
0.0
 11
493.3446100000002
 21
-674.1475
 31
0.0
  0
LINE
  5
155
330
41B
100
AcDbEntity
  8
DATA
  6
Continuous
 62
     7
100
AcDbLine
 10
495.1160200000012
 20
-682.3293699999998
 30
0.0
 11
495.4035199999998
 21
-681.8314
 31
0.0
  0
ARC
  5
156
330
41B
100
AcDbEntity
  8
DATA
  6
Continuous
 62
     7
100
AcDbCircle
 10
498.2160000000003
 20
-676.96
 30
0.0
 40
5.625003831580576
100
AcDbArc
 50
59.99966968210938
 51
150.0002126043028
  0
ARC
  5
157
330
41B
100
AcDbEntity
  8
DATA
  6
Continuous
 62
     7
100
AcDbCircle
 10
498.2160000000003
 20
-676.96
 30
0.0
 40
5.624996152034487
100
AcDbArc
 50
240.0002126042983
 51
330.0007182431216
  0
ARC
  5
158
330
41B
100
AcDbEntity
  8
DATA
  6
Continuous
 62
     7
100
AcDbCircle
 10
498.2160000000003
 20
-676.96
 30
0.0
 40
3.599990080874779
100
AcDbArc
 50
329.9999088546978
 51
59.99990885471402
  0
ARC
  5
159
330
41B
100
AcDbEntity
  8
DATA
  6
Continuous
 62
     7
100
AcDbCircle
 10
498.2160000000003
 20
-676.96
 30
0.0
 40
3.599990080874551
100
AcDbArc
 50
149.9999088547041
 51
239.999908854714
  0
LINE
  5
15A
330
41B
100
AcDbEntity
  8
DATA
  6
Continuous
 62
     7
100
AcDbLine
 10
501.3336900000012
 20
-678.7599800000002
 30
0.0
 11
500.7274799999996
 21
-678.4099900000001
 31
0.0
  0
LINE
  5
15B
330
41B
100
AcDbEntity
  8
DATA
  6
Continuous
 62
     7
100
AcDbLine
 10
500.0160100000012
 20
-673.84233
 30
0.0
 11
499.6660100000008
 21
-674.44853
 31
0.0
  0
LINE
  5
15C
330
41B
100
AcDbEntity
  8
DATA
  6
Continuous
 62
     7
100
AcDbLine
 10
495.0983200000009
 20
-675.1600000000004
 30
0.0
 11
495.7045300000008
 21
-675.5100000000001
 31
0.0
  0
LINE
  5
15D
330
41B
100
AcDbEntity
  8
DATA
  6
Continuous
 62
     7
100
AcDbLine
 10
496.4160200000005
 20
-680.0776900000002
 30
0.0
 11
496.7660100000012
 21
-679.4714800000001
 31
0.0
  0
ARC
  5
15E
330
41B
100
AcDbEntity
  8
DATA
  6
Continuous
 62
     7
100
AcDbCircle
 10
498.2160000000003
 20
-676.96
 30
0.0
 40
2.900001820861663
100
AcDbArc
 50
59.9997926340215
 51
150.0002336238325
  0
ARC
  5
15F
330
41B
100
AcDbEntity
  8
DATA
  6
Continuous
 62
     7
100
AcDbCircle
 10
498.2160000000003
 20
-676.96
 30
0.0
 40
2.900000481120334
100
AcDbArc
 50
240.0002336238457
 51
329.9997926340373
  0
LINE
  5
160
330
41B
100
AcDbEntity
  8
DATA
  6
Continuous
 62
     7
100
AcDbLine
 10
487.2160000000004
 20
-686.46
 30
0.0
 11
485.2160000000004
 21
-686.46
 31
0.0
  0
LINE
  5
161
330
41B
100
AcDbEntity
  8
DATA
  6
Continuous
 62
     7
100
AcDbLine
 10
486.2160000000003
 20
-685.46
 30
0.0
 11
486.2160000000003
 21
-687.46
 31
0.0
  0
LINE
  5
162
330
41B
100
AcDbEntity
  8
DATA
  6
Continuous
 62
     7
100
AcDbLine
 10
511.2160000000003
 20
-667.46
 30
0.0
 11
509.2160000000004
 21
-667.46
 31
0.0
  0
LINE
  5
163
330
41B
100
AcDbEntity
  8
DATA
  6
Continuous
 62
     7
100
AcDbLine
 10
510.2160000000004
 20
-666.46
 30
0.0
 11
510.2160000000004
 21
-668.46
 31
0.0
  0
CIRCLE
  5
164
330
41B
100
AcDbEntity
  8
DATA
  6
Continuous
 62
     7
100
AcDbCircle
 10
498.2160000000003
 20
-754.96
 30
0.0
 40
11.75
  0
CIRCLE
  5
165
330
41B
100
AcDbEntity
  8
DATA
  6
Continuous
 62
     7
100
AcDbCircle
 10
486.2160000000003
 20
-764.46
 30
0.0
 40
2.0
  0
CIRCLE
  5
166
330
41B
100
AcDbEntity
  8
DATA
  6
Continuous
 62
     7
100
AcDbCircle
 10
510.2160000000004
 20
-745.46
 30
0.0
 40
2.0
  0
LINE
  5
167
330
41B
100
AcDbEntity
  8
DATA
  6
Continuous
 62
     7
100
AcDbLine
 10
508.2160000000004
 20
-751.96
 30
0.0
 11
508.2160000000004
 21
-757.96
 31
0.0
  0
LINE
  5
168
330
41B
100
AcDbEntity
  8
DATA
  6
Continuous
 62
     7
100
AcDbLine
 10
488.2160000000004
 20
-752.96
 30
0.0
 11
488.2160000000004
 21
-756.96
 31
0.0
  0
LINE
  5
169
330
41B
100
AcDbEntity
  8
DATA
  6
Continuous
 62
     7
100
AcDbLine
 10
488.2160000000004
 20
-752.96
 30
0.0
 11
489.416000000001
 21
-752.96
 31
0.0
  0
LINE
  5
16A
330
41B
100
AcDbEntity
  8
DATA
  6
Continuous
 62
     7
100
AcDbLine
 10
488.2160000000004
 20
-756.96
 30
0.0
 11
489.416000000001
 21
-756.96
 31
0.0
  0
LINE
  5
16B
330
41B
100
AcDbEntity
  8
DATA
  6
Continuous
 62
     7
100
AcDbLine
 10
508.2160000000004
 20
-751.96
 30
0.0
 11
506.4888499999996
 21
-751.96
 31
0.0
  0
LINE
  5
16C
330
41B
100
AcDbEntity
  8
DATA
  6
Continuous
 62
     7
100
AcDbLine
 10
508.2160000000004
 20
-757.96
 30
0.0
 11
506.4888499999996
 21
-757.96
 31
0.0
  0
ARC
  5
16D
330
41B
100
AcDbEntity
  8
DATA
  6
Continuous
 62
     7
100
AcDbCircle
 10
498.2160000000003
 20
-754.96
 30
0.0
 40
8.800002677413784
100
AcDbArc
 50
19.93226415068033
 51
167.1961668197019
  0
ARC
  5
16E
330
41B
100
AcDbEntity
  8
DATA
  6
Continuous
 62
     7
100
AcDbCircle
 10
498.2160000000003
 20
-754.96
 30
0.0
 40
8.800003504345708
100
AcDbArc
 50
192.9999995554215
 51
339.9999942379615
  0
ARC
  5
16F
330
41B
100
AcDbEntity
  8
DATA
  6
Continuous
 62
     7
100
AcDbCircle
 10
498.2160000000003
 20
-754.96
 30
0.0
 40
6.200002162064611
100
AcDbArc
 50
330.0000115355644
 51
60.00001153555854
  0
LINE
  5
170
330
41B
100
AcDbEntity
  8
DATA
  6
Continuous
 62
     7
100
AcDbLine
 10
501.31603
 20
-749.5906600000003
 30
0.0
 11
501.0285299999996
 21
-750.08862
 31
0.0
  0
LINE
  5
171
330
41B
100
AcDbEntity
  8
DATA
  6
Continuous
 62
     7
100
AcDbLine
 10
503.5853800000005
 20
-758.0599700000001
 30
0.0
 11
503.0874100000001
 21
-757.77247
 31
0.0
  0
ARC
  5
172
330
41B
100
AcDbEntity
  8
DATA
  6
Continuous
 62
     7
100
AcDbCircle
 10
498.2160000000003
 20
-754.96
 30
0.0
 40
6.200002162064611
100
AcDbArc
 50
150.0000115355643
 51
240.0000115355585
  0
LINE
  5
173
330
41B
100
AcDbEntity
  8
DATA
  6
Continuous
 62
     7
100
AcDbLine
 10
492.8466399999997
 20
-751.8600000000001
 30
0.0
 11
493.3446100000002
 21
-752.1475
 31
0.0
  0
LINE
  5
174
330
41B
100
AcDbEntity
  8
DATA
  6
Continuous
 62
     7
100
AcDbLine
 10
495.1160200000012
 20
-760.3293699999998
 30
0.0
 11
495.4035199999998
 21
-759.8314
 31
0.0
  0
ARC
  5
175
330
41B
100
AcDbEntity
  8
DATA
  6
Continuous
 62
     7
100
AcDbCircle
 10
498.2160000000003
 20
-754.96
 30
0.0
 40
5.625003831580576
100
AcDbArc
 50
59.99966968210938
 51
150.0002126043028
  0
ARC
  5
176
330
41B
100
AcDbEntity
  8
DATA
  6
Continuous
 62
     7
100
AcDbCircle
 10
498.2160000000003
 20
-754.96
 30
0.0
 40
5.624996152034487
100
AcDbArc
 50
240.0002126042983
 51
330.0007182431216
  0
ARC
  5
177
330
41B
100
AcDbEntity
  8
DATA
  6
Continuous
 62
     7
100
AcDbCircle
 10
498.2160000000003
 20
-754.96
 30
0.0
 40
3.599990080874779
100
AcDbArc
 50
329.9999088546978
 51
59.99990885471402
  0
ARC
  5
178
330
41B
100
AcDbEntity
  8
DATA
  6
Continuous
 62
     7
100
AcDbCircle
 10
498.2160000000003
 20
-754.96
 30
0.0
 40
3.599990080874551
100
AcDbArc
 50
149.9999088547041
 51
239.999908854714
  0
LINE
  5
179
330
41B
100
AcDbEntity
  8
DATA
  6
Continuous
 62
     7
100
AcDbLine
 10
501.3336900000012
 20
-756.7599800000001
 30
0.0
 11
500.7274799999996
 21
-756.4099900000001
 31
0.0
  0
LINE
  5
17A
330
41B
100
AcDbEntity
  8
DATA
  6
Continuous
 62
     7
100
AcDbLine
 10
500.0160100000012
 20
-751.8423299999998
 30
0.0
 11
499.6660100000008
 21
-752.4485300000001
 31
0.0
  0
LINE
  5
17B
330
41B
100
AcDbEntity
  8
DATA
  6
Continuous
 62
     7
100
AcDbLine
 10
495.0983200000009
 20
-753.1600000000003
 30
0.0
 11
495.7045300000008
 21
-753.51
 31
0.0
  0
LINE
  5
17C
330
41B
100
AcDbEntity
  8
DATA
  6
Continuous
 62
     7
100
AcDbLine
 10
496.4160200000005
 20
-758.07769
 30
0.0
 11
496.7660100000012
 21
-757.4714800000001
 31
0.0
  0
ARC
  5
17D
330
41B
100
AcDbEntity
  8
DATA
  6
Continuous
 62
     7
100
AcDbCircle
 10
498.2160000000003
 20
-754.96
 30
0.0
 40
2.900001820861663
100
AcDbArc
 50
59.9997926340215
 51
150.0002336238325
  0
ARC
  5
17E
330
41B
100
AcDbEntity
  8
DATA
  6
Continuous
 62
     7
100
AcDbCircle
 10
498.2160000000003
 20
-754.96
 30
0.0
 40
2.900000481120334
100
AcDbArc
 50
240.0002336238457
 51
329.9997926340373
  0
LINE
  5
17F
330
41B
100
AcDbEntity
  8
DATA
  6
Continuous
 62
     7
100
AcDbLine
 10
487.2160000000004
 20
-764.46
 30
0.0
 11
485.2160000000004
 21
-764.46
 31
0.0
  0
LINE
  5
180
330
41B
100
AcDbEntity
  8
DATA
  6
Continuous
 62
     7
100
AcDbLine
 10
486.2160000000003
 20
-763.46
 30
0.0
 11
486.2160000000003
 21
-765.46
 31
0.0
  0
LINE
  5
181
330
41B
100
AcDbEntity
  8
DATA
  6
Continuous
 62
     7
100
AcDbLine
 10
511.2160000000003
 20
-745.46
 30
0.0
 11
509.2160000000004
 21
-745.46
 31
0.0
  0
LINE
  5
182
330
41B
100
AcDbEntity
  8
DATA
  6
Continuous
 62
     7
100
AcDbLine
 10
510.2160000000004
 20
-744.46
 30
0.0
 11
510.2160000000004
 21
-746.46
 31
0.0
  0
LINE
  5
183
330
41B
100
AcDbEntity
  8
DATA
  6
Continuous
 62
     7
100
AcDbLine
 10
498.2160000000003
 20
-691.71
 30
0.0
 11
498.2160000000003
 21
-707.71
 31
0.0
  0
LINE
  5
184
330
41B
100
AcDbEntity
  8
DATA
  6
Continuous
 62
     7
100
AcDbLine
 10
498.2160000000003
 20
-740.21
 30
0.0
 11
498.2160000000003
 21
-724.21
 31
0.0
  0
TEXT
  5
185
330
41B
100
AcDbEntity
  8
DATA
 62
     7
100
AcDbText
 10
500.5360271280732
 20
-659.1855557080718
 30
0.0
 40
10.18025716145833
  1
PRX400
 41
0.7
 11
500.5360271280732
 21
-654.0954271273426
 31
0.0
100
AcDbText
 73
     2
  0
TEXT
  5
186
330
41B
100
AcDbEntity
  8
DATA
 62
     7
100
AcDbText
 10
485.3318665364587
 20
-718.40326171875
 30
0.0
 40
4.8865234375
  1
IN / THRU
 41
0.7
 72
     1
 11
498.2160000000003
 21
-715.96
 31
0.0
100
AcDbText
 73
     2
  0
TEXT
  5
187
330
41B
100
AcDbEntity
  8
DATA
 62
     7
100
AcDbText
 10
517.7849963326734
 20
-717.9960514322917
 30
0.0
 40
4.072102864583333
  1
+1 IN:8Ω
 41
0.7
 11
517.7849963326734
 21
-715.96
 31
0.0
100
AcDbText
 73
     2
  0
TEXT
  5
188
330
41B
100
AcDbEntity
  8
DATA
 62
     7
100
AcDbText
 10
517.7849963326734
 20
-724.2877180989581
 30
0.0
 40
4.072102864583333
  1
+2 N/C
 41
0.7
 11
517.7849963326734
 21
-722.2516666666665
 31
0.0
100
AcDbText
 73
     2
  0
TEXT
  5
189
330
41B
100
AcDbEntity
  8
DATA
 62
     7
100
AcDbText
 10
517.7849963326734
 20
-711.704384765625
 30
0.0
 40
4.072102864583333
  1
PASSIVE
 41
0.7
 11
517.7849963326734
 21
-709.6683333333333
 31
0.0
100
AcDbText
 73
     2
  0
LINE
  5
18A
330
41B
100
AcDbEntity
  8
DATA
  6
Continuous
 62
     7
100
AcDbLine
 10
621.8311292199996
 20
-466.6660000000002
 30
0.0
 11
623.3712683800003
 21
-469.46
 31
0.0
  0
LINE
  5
18B
330
41B
100
AcDbEntity
  8
DATA
  6
Continuous
 62
     7
100
AcDbLine
 10
618.97087078
 20
-472.2539999999999
 30
0.0
 11
617.430731620001
 21
-469.46
 31
0.0
  0
LINE
  5
18C
330
41B
100
AcDbEntity
  8
DATA
  6
Continuous
 62
     7
100
AcDbLine
 10
618.97087078
 20
-466.6660000000002
 30
0.0
 11
621.8311292199996
 21
-466.6660000000002
 31
0.0
  0
LINE
  5
18D
330
41B
100
AcDbEntity
  8
DATA
  6
Continuous
 62
     7
100
AcDbLine
 10
621.8311292199996
 20
-472.2539999999999
 30
0.0
 11
618.97087078
 21
-472.2539999999999
 31
0.0
  0
LINE
  5
18E
330
41B
100
AcDbEntity
  8
DATA
  6
Continuous
 62
     7
100
AcDbLine
 10
617.430731620001
 20
-469.46
 30
0.0
 11
618.97087078
 21
-466.6660000000002
 31
0.0
  0
LINE
  5
18F
330
41B
100
AcDbEntity
  8
DATA
  6
Continuous
 62
     7
100
AcDbLine
 10
623.3712683800003
 20
-469.46
 30
0.0
 11
621.8311292199996
 21
-472.2539999999999
 31
0.0
  0
ARC
  5
190
330
41B
100
AcDbEntity
  8
DATA
  6
Continuous
 62
     7
100
AcDbCircle
 10
620.3291978921789
 20
-467.1714999256332
 30
0.0
 40
8.88758205399969
100
AcDbArc
 50
90.24631606864886
 51
140.5208650644748
  0
ARC
  5
191
330
41B
100
AcDbEntity
  8
DATA
  6
Continuous
 62
     7
100
AcDbCircle
 10
622.4671718280297
 20
-469.2047627917276
 30
0.0
 40
11.8329462453355
100
AcDbArc
 50
139.7081959145806
 51
169.7201537934192
  0
ARC
  5
192
330
41B
100
AcDbEntity
  8
DATA
  6
Continuous
 62
     7
100
AcDbCircle
 10
623.8031033962743
 20
-469.46
 30
0.0
 40
13.19298805627396
100
AcDbArc
 50
169.6648472601497
 51
190.3351527398522
  0
ARC
  5
193
330
41B
100
AcDbEntity
  8
DATA
  6
Continuous
 62
     7
100
AcDbCircle
 10
620.3291978921789
 20
-471.7485000743671
 30
0.0
 40
8.887582053998851
100
AcDbArc
 50
219.4791349355251
 51
269.7536839313511
  0
ARC
  5
194
330
41B
100
AcDbEntity
  8
DATA
  6
Continuous
 62
     7
100
AcDbCircle
 10
622.4671718280297
 20
-469.7152372082727
 30
0.0
 40
11.83294624533521
100
AcDbArc
 50
190.2798462065807
 51
220.2918040854194
  0
ARC
  5
195
330
41B
100
AcDbEntity
  8
DATA
  6
Continuous
 62
     7
100
AcDbCircle
 10
620.2527822278225
 20
-958.7885000743671
 30
0.0
 40
8.887582053999235
100
AcDbArc
 50
270.2463160686489
 51
320.5208650644749
  0
ARC
  5
196
330
41B
100
AcDbEntity
  8
DATA
  6
Continuous
 62
     7
100
AcDbCircle
 10
618.1148082919715
 20
-956.755237208273
 30
0.0
 40
11.8329462453355
100
AcDbArc
 50
319.7081959145806
 51
349.7201537934193
  0
ARC
  5
197
330
41B
100
AcDbEntity
  8
DATA
  6
Continuous
 62
     7
100
AcDbCircle
 10
616.778876723727
 20
-956.4999999999999
 30
0.0
 40
13.19298805627404
100
AcDbArc
 50
349.6648472601477
 51
10.33515273985028
  0
ARC
  5
198
330
41B
100
AcDbEntity
  8
DATA
  6
Continuous
 62
     7
100
AcDbCircle
 10
620.2527822278225
 20
-954.2114999256332
 30
0.0
 40
8.887582053998851
100
AcDbArc
 50
39.47913493552521
 51
89.75368393135115
  0
ARC
  5
199
330
41B
100
AcDbEntity
  8
DATA
  6
Continuous
 62
     7
100
AcDbCircle
 10
618.1148082919715
 20
-956.2447627917279
 30
0.0
 40
11.83294624533521
100
AcDbArc
 50
10.27984620658075
 51
40.29180408541941
  0
LINE
  5
19A
330
41B
100
AcDbEntity
  8
DATA
  6
Continuous
 62
     7
100
AcDbLine
 10
621.8311292199996
 20
-959.294
 30
0.0
 11
623.3712683800003
 21
-956.4999999999999
 31
0.0
  0
LINE
  5
19B
330
41B
100
AcDbEntity
  8
DATA
  6
Continuous
 62
     7
100
AcDbLine
 10
618.97087078
 20
-953.7060000000002
 30
0.0
 11
617.430731620001
 21
-956.4999999999999
 31
0.0
  0
LINE
  5
19C
330
41B
100
AcDbEntity
  8
DATA
  6
Continuous
 62
     7
100
AcDbLine
 10
618.97087078
 20
-959.294
 30
0.0
 11
621.8311292199996
 21
-959.294
 31
0.0
  0
LINE
  5
19D
330
41B
100
AcDbEntity
  8
DATA
  6
Continuous
 62
     7
100
AcDbLine
 10
621.8311292199996
 20
-953.7060000000002
 30
0.0
 11
618.97087078
 21
-953.7060000000002
 31
0.0
  0
LINE
  5
19E
330
41B
100
AcDbEntity
  8
DATA
  6
Continuous
 62
     7
100
AcDbLine
 10
617.430731620001
 20
-956.4999999999999
 30
0.0
 11
618.97087078
 21
-959.294
 31
0.0
  0
LINE
  5
19F
330
41B
100
AcDbEntity
  8
DATA
  6
Continuous
 62
     7
100
AcDbLine
 10
623.3712683800003
 20
-956.4999999999999
 30
0.0
 11
621.8311292199996
 21
-953.7060000000002
 31
0.0
  0
ARC
  5
1A0
330
41B
100
AcDbEntity
  8
DATA
  6
Continuous
 62
     7
100
AcDbCircle
 10
620.3291978921789
 20
-958.7885000743671
 30
0.0
 40
8.887582053998851
100
AcDbArc
 50
219.4791349355251
 51
269.7536839313511
  0
ARC
  5
1A1
330
41B
100
AcDbEntity
  8
DATA
  6
Continuous
 62
     7
100
AcDbCircle
 10
622.4671718280297
 20
-956.755237208273
 30
0.0
 40
11.83294624533521
100
AcDbArc
 50
190.2798462065807
 51
220.2918040854194
  0
ARC
  5
1A2
330
41B
100
AcDbEntity
  8
DATA
  6
Continuous
 62
     7
100
AcDbCircle
 10
623.8031033962743
 20
-956.4999999999999
 30
0.0
 40
13.19298805627396
100
AcDbArc
 50
169.6648472601497
 51
190.3351527398522
  0
ARC
  5
1A3
330
41B
100
AcDbEntity
  8
DATA
  6
Continuous
 62
     7
100
AcDbCircle
 10
620.3291978921789
 20
-954.2114999256332
 30
0.0
 40
8.88758205399969
100
AcDbArc
 50
90.24631606864886
 51
140.5208650644748
  0
ARC
  5
1A4
330
41B
100
AcDbEntity
  8
DATA
  6
Continuous
 62
     7
100
AcDbCircle
 10
622.4671718280297
 20
-956.2447627917279
 30
0.0
 40
11.8329462453355
100
AcDbArc
 50
139.7081959145806
 51
169.7201537934192
  0
LINE
  5
1A5
330
41B
100
AcDbEntity
  8
DATA
  6
Continuous
 62
     7
100
AcDbLine
 10
750.1763601735165
 20
-510.4599999999999
 30
0.0
 11
750.1763601735165
 21
-465.46
 31
0.0
  0
LINE
  5
1A6
330
41B
100
AcDbEntity
  8
DATA
  6
Continuous
 62
     7
100
AcDbLine
 10
761.4363602235171
 20
-510.4599999999999
 30
0.0
 11
761.4363602235171
 21
-465.46
 31
0.0
  0
ARC
  5
1A7
330
41B
100
AcDbEntity
  8
DATA
  6
Continuous
 62
     7
100
AcDbCircle
 10
755.634836993877
 20
-464.4996576145141
 30
0.0
 40
5.542312396082199
100
AcDbArc
 50
24.40117845931838
 51
88.22652992939755
  0
ARC
  5
1A8
330
41B
100
AcDbEntity
  8
DATA
  6
Continuous
 62
     7
100
AcDbCircle
 10
754.2751098883508
 20
-465.4094921214859
 30
0.0
 40
7.16142844750332
100
AcDbArc
 50
359.595902928609
 51
26.53646628815386
  0
ARC
  5
1A9
330
41B
100
AcDbEntity
  8
DATA
  6
Continuous
 62
     7
100
AcDbCircle
 10
755.9778834031566
 20
-511.4203423854861
 30
0.0
 40
5.542312396082199
100
AcDbArc
 50
204.4011784593184
 51
268.2265299293788
  0
ARC
  5
1AA
330
41B
100
AcDbEntity
  8
DATA
  6
Continuous
 62
     7
100
AcDbCircle
 10
757.3376105086826
 20
-510.5105078785141
 30
0.0
 40
7.16142844750332
100
AcDbArc
 50
179.595902928609
 51
206.5364662881538
  0
ARC
  5
1AB
330
41B
100
AcDbEntity
  8
DATA
  6
Continuous
 62
     7
100
AcDbCircle
 10
755.634836993877
 20
-511.4203423854861
 30
0.0
 40
5.542312396082753
100
AcDbArc
 50
271.7734700706024
 51
335.5988215406816
  0
ARC
  5
1AC
330
41B
100
AcDbEntity
  8
DATA
  6
Continuous
 62
     7
100
AcDbCircle
 10
754.2751098883508
 20
-510.5105078785141
 30
0.0
 40
7.161428447502493
100
AcDbArc
 50
333.4635337118462
 51
0.4040970713910498
  0
ARC
  5
1AD
330
41B
100
AcDbEntity
  8
DATA
  6
Continuous
 62
     7
100
AcDbCircle
 10
598.361259914389
 20
-464.4996576145141
 30
0.0
 40
5.54231239608281
100
AcDbArc
 50
91.77347007062124
 51
155.5988215406816
  0
ARC
  5
1AE
330
41B
100
AcDbEntity
  8
DATA
  6
Continuous
 62
     7
100
AcDbCircle
 10
599.7209870199148
 20
-465.4094921214859
 30
0.0
 40
7.161428447502493
100
AcDbArc
 50
153.4635337118461
 51
180.404097071391
  0
LINE
  5
1AF
330
41B
100
AcDbEntity
  8
DATA
  6
Continuous
 62
     7
100
AcDbLine
 10
592.5597366847487
 20
-510.4599999999999
 30
0.0
 11
592.5597366847487
 21
-465.46
 31
0.0
  0
LINE
  5
1B0
330
41B
100
AcDbEntity
  8
DATA
  6
Continuous
 62
     7
100
AcDbLine
 10
603.8197367347492
 20
-510.4599999999999
 30
0.0
 11
603.8197367347492
 21
-465.46
 31
0.0
  0
ARC
  5
1B1
330
41B
100
AcDbEntity
  8
DATA
  6
Continuous
 62
     7
100
AcDbCircle
 10
598.0182135051089
 20
-464.4996576145141
 30
0.0
 40
5.542312396082199
100
AcDbArc
 50
24.40117845931838
 51
88.22652992939755
  0
ARC
  5
1B2
330
41B
100
AcDbEntity
  8
DATA
  6
Continuous
 62
     7
100
AcDbCircle
 10
596.6584863995831
 20
-465.4094921214859
 30
0.0
 40
7.16142844750332
100
AcDbArc
 50
359.595902928609
 51
26.53646628815386
  0
ARC
  5
1B3
330
41B
100
AcDbEntity
  8
DATA
  6
Continuous
 62
     7
100
AcDbCircle
 10
598.361259914389
 20
-511.4203423854861
 30
0.0
 40
5.542312396082199
100
AcDbArc
 50
204.4011784593184
 51
268.2265299293788
  0
ARC
  5
1B4
330
41B
100
AcDbEntity
  8
DATA
  6
Continuous
 62
     7
100
AcDbCircle
 10
599.7209870199148
 20
-510.5105078785141
 30
0.0
 40
7.16142844750332
100
AcDbArc
 50
179.595902928609
 51
206.5364662881538
  0
ARC
  5
1B5
330
41B
100
AcDbEntity
  8
DATA
  6
Continuous
 62
     7
100
AcDbCircle
 10
598.0182135051089
 20
-511.4203423854861
 30
0.0
 40
5.542312396082753
100
AcDbArc
 50
271.7734700706024
 51
335.5988215406816
  0
ARC
  5
1B6
330
41B
100
AcDbEntity
  8
DATA
  6
Continuous
 62
     7
100
AcDbCircle
 10
596.6584863995831
 20
-510.5105078785141
 30
0.0
 40
7.161428447502493
100
AcDbArc
 50
333.4635337118462
 51
0.4040970713910498
  0
ARC
  5
1B7
330
41B
100
AcDbEntity
  8
DATA
  6
Continuous
 62
     7
100
AcDbCircle
 10
755.9778834031566
 20
-961.4603423854861
 30
0.0
 40
5.542312396082199
100
AcDbArc
 50
204.4011784593184
 51
268.2265299293788
  0
ARC
  5
1B8
330
41B
100
AcDbEntity
  8
DATA
  6
Continuous
 62
     7
100
AcDbCircle
 10
757.3376105086826
 20
-960.5505078785144
 30
0.0
 40
7.161428447503324
100
AcDbArc
 50
179.5959029286053
 51
206.5364662881505
  0
LINE
  5
1B9
330
41B
100
AcDbEntity
  8
DATA
  6
Continuous
 62
     7
100
AcDbLine
 10
750.1763601735165
 20
-915.4999999999999
 30
0.0
 11
750.1763601735165
 21
-960.5
 31
0.0
  0
LINE
  5
1BA
330
41B
100
AcDbEntity
  8
DATA
  6
Continuous
 62
     7
100
AcDbLine
 10
761.4363602235171
 20
-915.4999999999999
 30
0.0
 11
761.4363602235171
 21
-960.5
 31
0.0
  0
ARC
  5
1BB
330
41B
100
AcDbEntity
  8
DATA
  6
Continuous
 62
     7
100
AcDbCircle
 10
755.634836993877
 20
-961.4603423854861
 30
0.0
 40
5.542312396082753
100
AcDbArc
 50
271.7734700706024
 51
335.5988215406816
  0
ARC
  5
1BC
330
41B
100
AcDbEntity
  8
DATA
  6
Continuous
 62
     7
100
AcDbCircle
 10
754.2751098883508
 20
-960.5505078785144
 30
0.0
 40
7.161428447502289
100
AcDbArc
 50
333.4635337118494
 51
0.4040970713946878
  0
ARC
  5
1BD
330
41B
100
AcDbEntity
  8
DATA
  6
Continuous
 62
     7
100
AcDbCircle
 10
755.9778834031566
 20
-914.539657614514
 30
0.0
 40
5.54231239608281
100
AcDbArc
 50
91.77347007062124
 51
155.5988215406816
  0
ARC
  5
1BE
330
41B
100
AcDbEntity
  8
DATA
  6
Continuous
 62
     7
100
AcDbCircle
 10
757.3376105086826
 20
-915.449492121486
 30
0.0
 40
7.161428447502493
100
AcDbArc
 50
153.4635337118461
 51
180.404097071391
  0
ARC
  5
1BF
330
41B
100
AcDbEntity
  8
DATA
  6
Continuous
 62
     7
100
AcDbCircle
 10
755.634836993877
 20
-914.539657614514
 30
0.0
 40
5.542312396082199
100
AcDbArc
 50
24.40117845931838
 51
88.22652992939755
  0
ARC
  5
1C0
330
41B
100
AcDbEntity
  8
DATA
  6
Continuous
 62
     7
100
AcDbCircle
 10
754.2751098883508
 20
-915.449492121486
 30
0.0
 40
7.16142844750332
100
AcDbArc
 50
359.595902928609
 51
26.53646628815386
  0
ARC
  5
1C1
330
41B
100
AcDbEntity
  8
DATA
  6
Continuous
 62
     7
100
AcDbCircle
 10
598.361259914389
 20
-961.4603423854861
 30
0.0
 40
5.542312396082199
100
AcDbArc
 50
204.4011784593184
 51
268.2265299293788
  0
ARC
  5
1C2
330
41B
100
AcDbEntity
  8
DATA
  6
Continuous
 62
     7
100
AcDbCircle
 10
599.7209870199148
 20
-960.5505078785144
 30
0.0
 40
7.161428447503324
100
AcDbArc
 50
179.5959029286053
 51
206.5364662881505
  0
LINE
  5
1C3
330
41B
100
AcDbEntity
  8
DATA
  6
Continuous
 62
     7
100
AcDbLine
 10
592.5597366847487
 20
-915.4999999999999
 30
0.0
 11
592.5597366847487
 21
-960.5
 31
0.0
  0
LINE
  5
1C4
330
41B
100
AcDbEntity
  8
DATA
  6
Continuous
 62
     7
100
AcDbLine
 10
603.8197367347492
 20
-915.4999999999999
 30
0.0
 11
603.8197367347492
 21
-960.5
 31
0.0
  0
ARC
  5
1C5
330
41B
100
AcDbEntity
  8
DATA
  6
Continuous
 62
     7
100
AcDbCircle
 10
598.0182135051089
 20
-961.4603423854861
 30
0.0
 40
5.542312396082753
100
AcDbArc
 50
271.7734700706024
 51
335.5988215406816
  0
ARC
  5
1C6
330
41B
100
AcDbEntity
  8
DATA
  6
Continuous
 62
     7
100
AcDbCircle
 10
596.6584863995831
 20
-960.5505078785144
 30
0.0
 40
7.161428447502289
100
AcDbArc
 50
333.4635337118494
 51
0.4040970713946878
  0
ARC
  5
1C7
330
41B
100
AcDbEntity
  8
DATA
  6
Continuous
 62
     7
100
AcDbCircle
 10
598.361259914389
 20
-914.539657614514
 30
0.0
 40
5.54231239608281
100
AcDbArc
 50
91.77347007062124
 51
155.5988215406816
  0
ARC
  5
1C8
330
41B
100
AcDbEntity
  8
DATA
  6
Continuous
 62
     7
100
AcDbCircle
 10
599.7209870199148
 20
-915.449492121486
 30
0.0
 40
7.161428447502493
100
AcDbArc
 50
153.4635337118461
 51
180.404097071391
  0
ARC
  5
1C9
330
41B
100
AcDbEntity
  8
DATA
  6
Continuous
 62
     7
100
AcDbCircle
 10
598.0182135051089
 20
-914.539657614514
 30
0.0
 40
5.542312396082199
100
AcDbArc
 50
24.40117845931838
 51
88.22652992939755
  0
ARC
  5
1CA
330
41B
100
AcDbEntity
  8
DATA
  6
Continuous
 62
     7
100
AcDbCircle
 10
596.6584863995831
 20
-915.449492121486
 30
0.0
 40
7.16142844750332
100
AcDbArc
 50
359.595902928609
 51
26.53646628815386
  0
TEXT
  5
1CB
330
41B
100
AcDbEntity
  8
DATA
 62
     7
100
AcDbText
 10
501.8589437947412
 20
-775.558125
 30
0.0
 40
6.156250000000001
  1
PRX412M-WH
 41
0.7
 11
501.8589437947412
 21
-772.48
 31
0.0
100
AcDbText
 73
     2
  0
TEXT
  5
1CC
330
41B
100
AcDbEntity
  8
DATA
 62
     7
100
AcDbText
 10
-1312.5
 20
-1782.410423333333
 30
0.0
 40
28.50472005208334
  1
※仕様及び外観は予告なく変更されることがあります。
 41
0.7
 11
-1312.5
 21
-1753.90570328125
 31
0.0
100
AcDbText
 73
     3
  0
TEXT
  5
1CD
330
41B
100
AcDbEntity
  8
DATA
 62
     7
100
AcDbText
 10
-1312.5
 20
-1819.45209
 30
0.0
 40
28.50472005208334
  1
　また、同一商品でも若干の個体差があることがあります。ご了承ください。
 41
0.7
 11
-1312.5
 21
-1790.947369947917
 31
0.0
100
AcDbText
 73
     3
  0
TEXT
  5
1CE
330
41B
100
AcDbEntity
  8
DATA
 62
     7
100
AcDbText
 10
749.9999999999996
 20
-1624.841239999999
 30
0.0
 40
36.64892578125
  1
JBL PROFESSIONAL
 41
0.7
 11
749.9999999999996
 21
-1588.192314218749
 31
0.0
100
AcDbText
 73
     3
  0
TEXT
  5
1CF
330
41B
100
AcDbEntity
  8
DATA
 62
     7
100
AcDbText
 10
749.9999999999996
 20
-1733.591239999999
 30
0.0
 40
36.64892578125
  1
PRX412M-WH
 41
0.7
 11
749.9999999999996
 21
-1696.942314218749
 31
0.0
100
AcDbText
 73
     3
  0
TEXT
  5
1D0
330
41B
100
AcDbEntity
  8
DATA
 62
     7
100
AcDbText
 10
712.4999999999996
 20
-1678.900565
 30
0.0
 40
28.50472005208333
  1
2-Wayフルレンジ・スピーカー
 41
0.7
 11
712.4999999999996
 21
-1650.395844947917
 31
0.0
100
AcDbText
 73
     3
  0
ARC
  5
1D1
330
41B
100
AcDbEntity
  8
DATA
  6
Continuous
 62
     7
100
AcDbCircle
 10
-1128.948706495538
 20
-466.8862742797332
 30
0.0
 40
11.54245674051147
100
AcDbArc
 50
15.13811307124709
 51
37.99198928291087
  0
ARC
  5
1D2
330
41B
100
AcDbEntity
  8
DATA
  6
Continuous
 62
     7
100
AcDbCircle
 10
-1138.287157936073
 20
-469.46
 30
0.0
 40
21.22902493452238
100
AcDbArc
 50
344.7385195751404
 51
15.26148042485977
  0
ARC
  5
1D3
330
41B
100
AcDbEntity
  8
DATA
  6
Continuous
 62
     7
100
AcDbCircle
 10
-1128.948706495538
 20
-472.0337257202673
 30
0.0
 40
11.54245674051155
100
AcDbArc
 50
322.0080107170891
 51
344.8618869287551
  0
LINE
  5
1D4
330
41B
100
AcDbEntity
  8
DATA
  6
Continuous
 62
     7
100
AcDbLine
 10
-751.2200000000001
 20
-995.0
 30
0.0
 11
-751.2200000000001
 21
-981.4999999999999
 31
0.0
  0
LINE
  5
1D5
330
41B
100
AcDbEntity
  8
DATA
  6
Continuous
 62
     7
100
AcDbLine
 10
-751.2200000000001
 20
-444.46
 30
0.0
 11
-751.2200000000001
 21
-430.9599999999999
 31
0.0
  0
LINE
  5
1D6
330
41B
100
AcDbEntity
  8
DATA
  6
Continuous
 62
     7
100
AcDbLine
 10
-1145.0
 20
-1000.0
 30
0.0
 11
-756.2200000000001
 21
-1000.0
 31
0.0
  0
LINE
  5
1D7
330
41B
100
AcDbEntity
  8
DATA
  6
Continuous
 62
     7
100
AcDbLine
 10
-1150.0
 20
-430.9599999999999
 30
0.0
 11
-1150.0
 21
-995.0
 31
0.0
  0
LINE
  5
1D8
330
41B
100
AcDbEntity
  8
DATA
  6
Continuous
 62
     7
100
AcDbLine
 10
-756.2200000000001
 20
-425.9599999999999
 30
0.0
 11
-1145.0
 21
-425.9599999999999
 31
0.0
  0
LINE
  5
1D9
330
41B
100
AcDbEntity
  8
DATA
  6
Continuous
 62
     7
100
AcDbLine
 10
-795.233883748663
 20
-425.9599999999999
 30
0.0
 11
-795.233883748663
 21
-1000.0
 31
0.0
  0
ARC
  5
1DA
330
41B
100
AcDbEntity
  8
DATA
  6
Continuous
 62
     7
100
AcDbCircle
 10
-756.2200000000001
 20
-995.0
 30
0.0
 40
5.0
100
AcDbArc
 50
270.0
 51
0.0
  0
ARC
  5
1DB
330
41B
100
AcDbEntity
  8
DATA
  6
Continuous
 62
     7
100
AcDbCircle
 10
-756.2200000000001
 20
-430.9599999999999
 30
0.0
 40
5.0
100
AcDbArc
 50
0.0
 51
90.0
  0
ARC
  5
1DC
330
41B
100
AcDbEntity
  8
DATA
  6
Continuous
 62
     7
100
AcDbCircle
 10
-1145.0
 20
-430.9599999999999
 30
0.0
 40
5.0
100
AcDbArc
 50
90.0
 51
180.0
  0
ARC
  5
1DD
330
41B
100
AcDbEntity
  8
DATA
  6
Continuous
 62
     7
100
AcDbCircle
 10
-1145.0
 20
-995.0
 30
0.0
 40
5.0
100
AcDbArc
 50
180.0
 51
270.0
  0
LINE
  5
1DE
330
41B
100
AcDbEntity
  8
DATA
  6
Continuous
 62
     7
100
AcDbLine
 10
-751.2200000000001
 20
-444.46
 30
0.0
 11
-808.0
 21
-444.46
 31
0.0
  0
LINE
  5
1DF
330
41B
100
AcDbEntity
  8
DATA
  6
Continuous
 62
     7
100
AcDbLine
 10
-751.2200000000001
 20
-981.4999999999999
 30
0.0
 11
-808.0
 21
-981.4999999999999
 31
0.0
  0
LINE
  5
1E0
330
41B
100
AcDbEntity
  8
DATA
  6
Continuous
 62
     7
100
AcDbLine
 10
-753.7200000000001
 20
-981.4999999999999
 30
0.0
 11
-753.7200000000001
 21
-444.46
 31
0.0
  0
CIRCLE
  5
1E1
330
41B
100
AcDbEntity
  8
DATA
  6
Continuous
 62
     7
100
AcDbCircle
 10
-802.5
 20
-455.9599999999999
 30
0.0
 40
3.0
  0
LINE
  5
1E2
330
41B
100
AcDbEntity
  8
DATA
  6
Continuous
 62
     7
100
AcDbLine
 10
-808.0
 20
-444.46
 30
0.0
 11
-808.0
 21
-981.4999999999999
 31
0.0
  0
LINE
  5
1E3
330
41B
100
AcDbEntity
  8
DATA
  6
Continuous
 62
     7
100
AcDbLine
 10
-801.2499999999999
 20
-455.9599999999999
 30
0.0
 11
-803.7499999999999
 21
-455.9599999999999
 31
0.0
  0
LINE
  5
1E4
330
41B
100
AcDbEntity
  8
DATA
  6
Continuous
 62
     7
100
AcDbLine
 10
-802.5
 20
-457.2099999999999
 30
0.0
 11
-802.5
 21
-454.7099999999999
 31
0.0
  0
CIRCLE
  5
1E5
330
41B
100
AcDbEntity
  8
DATA
  6
Continuous
 62
     7
100
AcDbCircle
 10
-802.5
 20
-970.0
 30
0.0
 40
3.0
  0
LINE
  5
1E6
330
41B
100
AcDbEntity
  8
DATA
  6
Continuous
 62
     7
100
AcDbLine
 10
-801.2499999999999
 20
-970.0
 30
0.0
 11
-803.7499999999999
 21
-970.0
 31
0.0
  0
LINE
  5
1E7
330
41B
100
AcDbEntity
  8
DATA
  6
Continuous
 62
     7
100
AcDbLine
 10
-802.5
 20
-968.75
 30
0.0
 11
-802.5
 21
-971.25
 31
0.0
  0
CIRCLE
  5
1E8
330
41B
100
AcDbEntity
  8
DATA
  6
Continuous
 62
     7
100
AcDbCircle
 10
-802.5
 20
-712.98
 30
0.0
 40
3.0
  0
LINE
  5
1E9
330
41B
100
AcDbEntity
  8
DATA
  6
Continuous
 62
     7
100
AcDbLine
 10
-801.2499999999999
 20
-712.98
 30
0.0
 11
-803.7499999999999
 21
-712.98
 31
0.0
  0
LINE
  5
1EA
330
41B
100
AcDbEntity
  8
DATA
  6
Continuous
 62
     7
100
AcDbLine
 10
-802.5
 20
-711.73
 30
0.0
 11
-802.5
 21
-714.23
 31
0.0
  0
LINE
  5
1EB
330
41B
100
AcDbEntity
  8
DATA
  6
Continuous
 62
     7
100
AcDbLine
 10
-1032.387976663381
 20
-425.9599999999999
 30
0.0
 11
-1032.387976663381
 21
-1000.0
 31
0.0
  0
CIRCLE
  5
1EC
330
41B
100
AcDbEntity
  8
DATA
  6
Continuous
 62
     7
100
AcDbCircle
 10
-866.0
 20
-469.5209999999996
 30
0.0
 40
11.17600000000038
  0
LINE
  5
1ED
330
41B
100
AcDbEntity
  8
DATA
  6
Continuous
 62
     7
100
AcDbLine
 10
-867.7780000000002
 20
-466.7269999999999
 30
0.0
 11
-869.5560000000005
 21
-469.5209999999996
 31
0.0
  0
LINE
  5
1EE
330
41B
100
AcDbEntity
  8
DATA
  6
Continuous
 62
     7
100
AcDbLine
 10
-864.4760000000005
 20
-472.3149999999995
 30
0.0
 11
-862.6980000000003
 21
-469.5209999999996
 31
0.0
  0
LINE
  5
1EF
330
41B
100
AcDbEntity
  8
DATA
  6
Continuous
 62
     7
100
AcDbLine
 10
-864.4760000000005
 20
-466.7269999999999
 30
0.0
 11
-867.7780000000002
 21
-466.7269999999999
 31
0.0
  0
LINE
  5
1F0
330
41B
100
AcDbEntity
  8
DATA
  6
Continuous
 62
     7
100
AcDbLine
 10
-867.7780000000002
 20
-472.3149999999995
 30
0.0
 11
-864.4760000000005
 21
-472.3149999999995
 31
0.0
  0
LINE
  5
1F1
330
41B
100
AcDbEntity
  8
DATA
  6
Continuous
 62
     7
100
AcDbLine
 10
-862.6980000000003
 20
-469.5209999999996
 30
0.0
 11
-864.4760000000005
 21
-466.7269999999999
 31
0.0
  0
LINE
  5
1F2
330
41B
100
AcDbEntity
  8
DATA
  6
Continuous
 62
     7
100
AcDbLine
 10
-869.5560000000005
 20
-469.5209999999996
 30
0.0
 11
-867.7780000000002
 21
-472.3149999999995
 31
0.0
  0
CIRCLE
  5
1F3
330
41B
100
AcDbEntity
  8
DATA
  6
Continuous
 62
     7
100
AcDbCircle
 10
-866.0
 20
-956.4999999999999
 30
0.0
 40
11.17600000000038
  0
LINE
  5
1F4
330
41B
100
AcDbEntity
  8
DATA
  6
Continuous
 62
     7
100
AcDbLine
 10
-867.7780000000002
 20
-959.294
 30
0.0
 11
-869.5560000000005
 21
-956.4999999999999
 31
0.0
  0
LINE
  5
1F5
330
41B
100
AcDbEntity
  8
DATA
  6
Continuous
 62
     7
100
AcDbLine
 10
-864.4760000000005
 20
-953.7060000000002
 30
0.0
 11
-862.6980000000003
 21
-956.4999999999999
 31
0.0
  0
LINE
  5
1F6
330
41B
100
AcDbEntity
  8
DATA
  6
Continuous
 62
     7
100
AcDbLine
 10
-864.4760000000005
 20
-959.294
 30
0.0
 11
-867.7780000000002
 21
-959.294
 31
0.0
  0
LINE
  5
1F7
330
41B
100
AcDbEntity
  8
DATA
  6
Continuous
 62
     7
100
AcDbLine
 10
-867.7780000000002
 20
-953.7060000000002
 30
0.0
 11
-864.4760000000005
 21
-953.7060000000002
 31
0.0
  0
LINE
  5
1F8
330
41B
100
AcDbEntity
  8
DATA
  6
Continuous
 62
     7
100
AcDbLine
 10
-862.6980000000003
 20
-956.4999999999999
 30
0.0
 11
-864.4760000000005
 21
-959.294
 31
0.0
  0
LINE
  5
1F9
330
41B
100
AcDbEntity
  8
DATA
  6
Continuous
 62
     7
100
AcDbLine
 10
-869.5560000000005
 20
-956.4999999999999
 30
0.0
 11
-867.7780000000002
 21
-953.7060000000002
 31
0.0
  0
LINE
  5
1FA
330
41B
100
AcDbEntity
  8
DATA
  6
Continuous
 62
     7
100
AcDbLine
 10
-1047.751291008736
 20
-510.4599999999999
 30
0.0
 11
-1047.751291008736
 21
-465.46
 31
0.0
  0
LINE
  5
1FB
330
41B
100
AcDbEntity
  8
DATA
  6
Continuous
 62
     7
100
AcDbLine
 10
-1041.684191008736
 20
-510.4599999999999
 30
0.0
 11
-1041.684191008736
 21
-465.46
 31
0.0
  0
ARC
  5
1FC
330
41B
100
AcDbEntity
  8
DATA
  6
Continuous
 62
     7
100
AcDbCircle
 10
-1036.345092808812
 20
-465.2598084443793
 30
0.0
 40
11.40795485768073
100
AcDbArc
 50
158.2167291208665
 51
181.0055018760674
  0
ARC
  5
1FD
330
41B
100
AcDbEntity
  8
DATA
  6
Continuous
 62
     7
100
AcDbCircle
 10
-1043.088785460253
 20
-462.4945801848171
 30
0.0
 40
4.12014982451602
100
AcDbArc
 50
129.1236307650606
 51
159.1236307650565
  0
ARC
  5
1FE
330
41B
100
AcDbEntity
  8
DATA
  6
Continuous
 62
     7
100
AcDbCircle
 10
-1044.686975362242
 20
-460.6107766538429
 30
0.0
 40
1.651063319766134
100
AcDbArc
 50
91.06770206978969
 51
127.3472257506778
  0
ARC
  5
1FF
330
41B
100
AcDbEntity
  8
DATA
  6
Continuous
 62
     7
100
AcDbCircle
 10
-1053.09038920866
 20
-465.2598084443793
 30
0.0
 40
11.40795485768106
100
AcDbArc
 50
358.9944981239325
 51
21.7832708791334
  0
ARC
  5
200
330
41B
100
AcDbEntity
  8
DATA
  6
Continuous
 62
     7
100
AcDbCircle
 10
-1046.346696557219
 20
-462.4945801848171
 30
0.0
 40
4.120149824515568
100
AcDbArc
 50
20.87636923494348
 51
50.87636923493939
  0
ARC
  5
201
330
41B
100
AcDbEntity
  8
DATA
  6
Continuous
 62
     7
100
AcDbCircle
 10
-1044.74850665523
 20
-460.6107766538429
 30
0.0
 40
1.651063319766285
100
AcDbArc
 50
52.65277424932215
 51
88.93229793021033
  0
ARC
  5
202
330
41B
100
AcDbEntity
  8
DATA
  6
Continuous
 62
     7
100
AcDbCircle
 10
-1036.345092808812
 20
-510.6601915556207
 30
0.0
 40
11.40795485768106
100
AcDbArc
 50
178.9944981239326
 51
201.7832708791334
  0
ARC
  5
203
330
41B
100
AcDbEntity
  8
DATA
  6
Continuous
 62
     7
100
AcDbCircle
 10
-1043.088785460253
 20
-513.4254198151829
 30
0.0
 40
4.120149824515568
100
AcDbArc
 50
200.8763692349434
 51
230.8763692349394
  0
ARC
  5
204
330
41B
100
AcDbEntity
  8
DATA
  6
Continuous
 62
     7
100
AcDbCircle
 10
-1044.686975362242
 20
-515.3092233461575
 30
0.0
 40
1.651063319765923
100
AcDbArc
 50
232.6527742493126
 51
268.93229793021
  0
ARC
  5
205
330
41B
100
AcDbEntity
  8
DATA
  6
Continuous
 62
     7
100
AcDbCircle
 10
-1053.09038920866
 20
-510.6601915556207
 30
0.0
 40
11.40795485768073
100
AcDbArc
 50
338.2167291208666
 51
1.005501876067398
  0
ARC
  5
206
330
41B
100
AcDbEntity
  8
DATA
  6
Continuous
 62
     7
100
AcDbCircle
 10
-1046.346696557219
 20
-513.4254198151829
 30
0.0
 40
4.12014982451602
100
AcDbArc
 50
309.1236307650606
 51
339.1236307650566
  0
ARC
  5
207
330
41B
100
AcDbEntity
  8
DATA
  6
Continuous
 62
     7
100
AcDbCircle
 10
-1044.74850665523
 20
-515.3092233461575
 30
0.0
 40
1.651063319765679
100
AcDbArc
 50
271.06770206979
 51
307.3472257506874
  0
LINE
  5
208
330
41B
100
AcDbEntity
  8
DATA
  6
Continuous
 62
     7
100
AcDbLine
 10
-1138.315808991265
 20
-510.4599999999999
 30
0.0
 11
-1138.315808991265
 21
-465.46
 31
0.0
  0
LINE
  5
209
330
41B
100
AcDbEntity
  8
DATA
  6
Continuous
 62
     7
100
AcDbLine
 10
-1132.248708991264
 20
-510.4599999999999
 30
0.0
 11
-1132.248708991264
 21
-465.46
 31
0.0
  0
ARC
  5
20A
330
41B
100
AcDbEntity
  8
DATA
  6
Continuous
 62
     7
100
AcDbCircle
 10
-1126.90961079134
 20
-465.2598084443793
 30
0.0
 40
11.40795485768158
100
AcDbArc
 50
158.2167291208683
 51
181.0055018760674
  0
ARC
  5
20B
330
41B
100
AcDbEntity
  8
DATA
  6
Continuous
 62
     7
100
AcDbCircle
 10
-1133.653303442782
 20
-462.4945801848171
 30
0.0
 40
4.12014982451602
100
AcDbArc
 50
129.1236307650606
 51
159.1236307650565
  0
ARC
  5
20C
330
41B
100
AcDbEntity
  8
DATA
  6
Continuous
 62
     7
100
AcDbCircle
 10
-1135.251493344772
 20
-460.6107766538429
 30
0.0
 40
1.651063319766117
100
AcDbArc
 50
91.06770206975813
 51
127.3472257506527
  0
ARC
  5
20D
330
41B
100
AcDbEntity
  8
DATA
  6
Continuous
 62
     7
100
AcDbCircle
 10
-1143.654907191189
 20
-465.2598084443793
 30
0.0
 40
11.40795485768197
100
AcDbArc
 50
358.9944981239327
 51
21.78327087913174
  0
ARC
  5
20E
330
41B
100
AcDbEntity
  8
DATA
  6
Continuous
 62
     7
100
AcDbCircle
 10
-1136.911214539747
 20
-462.4945801848171
 30
0.0
 40
4.120149824515568
100
AcDbArc
 50
20.87636923494348
 51
50.87636923493939
  0
ARC
  5
20F
330
41B
100
AcDbEntity
  8
DATA
  6
Continuous
 62
     7
100
AcDbCircle
 10
-1135.313024637757
 20
-460.6107766538429
 30
0.0
 40
1.651063319765733
100
AcDbArc
 50
52.65277424934724
 51
88.93229793024191
  0
ARC
  5
210
330
41B
100
AcDbEntity
  8
DATA
  6
Continuous
 62
     7
100
AcDbCircle
 10
-1126.90961079134
 20
-510.6601915556207
 30
0.0
 40
11.40795485768197
100
AcDbArc
 50
178.9944981239326
 51
201.7832708791317
  0
ARC
  5
211
330
41B
100
AcDbEntity
  8
DATA
  6
Continuous
 62
     7
100
AcDbCircle
 10
-1133.653303442782
 20
-513.4254198151829
 30
0.0
 40
4.120149824515568
100
AcDbArc
 50
200.8763692349434
 51
230.8763692349394
  0
ARC
  5
212
330
41B
100
AcDbEntity
  8
DATA
  6
Continuous
 62
     7
100
AcDbCircle
 10
-1135.251493344772
 20
-515.3092233461575
 30
0.0
 40
1.651063319765372
100
AcDbArc
 50
232.6527742493376
 51
268.9322979302416
  0
ARC
  5
213
330
41B
100
AcDbEntity
  8
DATA
  6
Continuous
 62
     7
100
AcDbCircle
 10
-1143.654907191189
 20
-510.6601915556207
 30
0.0
 40
11.40795485768158
100
AcDbArc
 50
338.2167291208682
 51
1.005501876067398
  0
ARC
  5
214
330
41B
100
AcDbEntity
  8
DATA
  6
Continuous
 62
     7
100
AcDbCircle
 10
-1136.911214539747
 20
-513.4254198151829
 30
0.0
 40
4.12014982451602
100
AcDbArc
 50
309.1236307650606
 51
339.1236307650566
  0
ARC
  5
215
330
41B
100
AcDbEntity
  8
DATA
  6
Continuous
 62
     7
100
AcDbCircle
 10
-1135.313024637757
 20
-515.3092233461575
 30
0.0
 40
1.651063319765662
100
AcDbArc
 50
271.0677020697584
 51
307.3472257506622
  0
LINE
  5
216
330
41B
100
AcDbEntity
  8
DATA
  6
Continuous
 62
     7
100
AcDbLine
 10
-1121.757133001551
 20
-466.6660000000002
 30
0.0
 11
-1120.868133001551
 21
-469.46
 31
0.0
  0
LINE
  5
217
330
41B
100
AcDbEntity
  8
DATA
  6
Continuous
 62
     7
100
AcDbLine
 10
-1123.408133001551
 20
-472.2539999999999
 30
0.0
 11
-1124.297133001551
 21
-469.46
 31
0.0
  0
LINE
  5
218
330
41B
100
AcDbEntity
  8
DATA
  6
Continuous
 62
     7
100
AcDbLine
 10
-1123.408133001551
 20
-466.6660000000002
 30
0.0
 11
-1121.757133001551
 21
-466.6660000000002
 31
0.0
  0
LINE
  5
219
330
41B
100
AcDbEntity
  8
DATA
  6
Continuous
 62
     7
100
AcDbLine
 10
-1121.757133001551
 20
-472.2539999999999
 30
0.0
 11
-1123.408133001551
 21
-472.2539999999999
 31
0.0
  0
LINE
  5
21A
330
41B
100
AcDbEntity
  8
DATA
  6
Continuous
 62
     7
100
AcDbLine
 10
-1124.297133001551
 20
-469.46
 30
0.0
 11
-1123.408133001551
 21
-466.6660000000002
 31
0.0
  0
LINE
  5
21B
330
41B
100
AcDbEntity
  8
DATA
  6
Continuous
 62
     7
100
AcDbLine
 10
-1120.868133001551
 20
-469.46
 30
0.0
 11
-1121.757133001551
 21
-472.2539999999999
 31
0.0
  0
ARC
  5
21C
330
41B
100
AcDbEntity
  8
DATA
  6
Continuous
 62
     7
100
AcDbCircle
 10
-1122.646133001552
 20
-461.6394875327396
 30
0.0
 40
3.355487532740116
100
AcDbArc
 50
33.62642913596691
 51
146.3735708640245
  0
ARC
  5
21D
330
41B
100
AcDbEntity
  8
DATA
  6
Continuous
 62
     7
100
AcDbCircle
 10
-1116.343559507564
 20
-466.8862742797332
 30
0.0
 40
11.54245674051155
100
AcDbArc
 50
142.0080107170891
 51
164.8618869287529
  0
ARC
  5
21E
330
41B
100
AcDbEntity
  8
DATA
  6
Continuous
 62
     7
100
AcDbCircle
 10
-1107.005108067029
 20
-469.46
 30
0.0
 40
21.22902493452238
100
AcDbArc
 50
164.7385195751403
 51
195.2614804248597
  0
ARC
  5
21F
330
41B
100
AcDbEntity
  8
DATA
  6
Continuous
 62
     7
100
AcDbCircle
 10
-1116.343559507564
 20
-472.0337257202673
 30
0.0
 40
11.54245674051135
100
AcDbArc
 50
195.1381130712449
 51
217.9919892829109
  0
ARC
  5
220
330
41B
100
AcDbEntity
  8
DATA
  6
Continuous
 62
     7
100
AcDbCircle
 10
-1122.646133001552
 20
-477.2805124672609
 30
0.0
 40
3.355487532739359
100
AcDbArc
 50
213.6264291359756
 51
326.3735708640331
  0
ARC
  5
221
330
41B
100
AcDbEntity
  8
DATA
  6
Continuous
 62
     7
100
AcDbCircle
 10
-1128.948706495538
 20
-959.0737257202672
 30
0.0
 40
11.54245674051155
100
AcDbArc
 50
322.0080107170891
 51
344.8618869287551
  0
ARC
  5
222
330
41B
100
AcDbEntity
  8
DATA
  6
Continuous
 62
     7
100
AcDbCircle
 10
-1138.287157936073
 20
-956.4999999999999
 30
0.0
 40
21.22902493452238
100
AcDbArc
 50
344.7385195751404
 51
15.26148042485977
  0
ARC
  5
223
330
41B
100
AcDbEntity
  8
DATA
  6
Continuous
 62
     7
100
AcDbCircle
 10
-1128.948706495538
 20
-953.9262742797328
 30
0.0
 40
11.54245674051135
100
AcDbArc
 50
15.1381130712449
 51
37.99198928291087
  0
LINE
  5
224
330
41B
100
AcDbEntity
  8
DATA
  6
Continuous
 62
     7
100
AcDbLine
 10
-1121.757133001551
 20
-959.294
 30
0.0
 11
-1120.868133001551
 21
-956.4999999999999
 31
0.0
  0
LINE
  5
225
330
41B
100
AcDbEntity
  8
DATA
  6
Continuous
 62
     7
100
AcDbLine
 10
-1123.408133001551
 20
-953.7060000000002
 30
0.0
 11
-1124.297133001551
 21
-956.4999999999999
 31
0.0
  0
LINE
  5
226
330
41B
100
AcDbEntity
  8
DATA
  6
Continuous
 62
     7
100
AcDbLine
 10
-1123.408133001551
 20
-959.294
 30
0.0
 11
-1121.757133001551
 21
-959.294
 31
0.0
  0
LINE
  5
227
330
41B
100
AcDbEntity
  8
DATA
  6
Continuous
 62
     7
100
AcDbLine
 10
-1121.757133001551
 20
-953.7060000000002
 30
0.0
 11
-1123.408133001551
 21
-953.7060000000002
 31
0.0
  0
LINE
  5
228
330
41B
100
AcDbEntity
  8
DATA
  6
Continuous
 62
     7
100
AcDbLine
 10
-1124.297133001551
 20
-956.4999999999999
 30
0.0
 11
-1123.408133001551
 21
-959.294
 31
0.0
  0
LINE
  5
229
330
41B
100
AcDbEntity
  8
DATA
  6
Continuous
 62
     7
100
AcDbLine
 10
-1120.868133001551
 20
-956.4999999999999
 30
0.0
 11
-1121.757133001551
 21
-953.7060000000002
 31
0.0
  0
ARC
  5
22A
330
41B
100
AcDbEntity
  8
DATA
  6
Continuous
 62
     7
100
AcDbCircle
 10
-1122.646133001552
 20
-964.3205124672608
 30
0.0
 40
3.355487532739359
100
AcDbArc
 50
213.6264291359756
 51
326.3735708640331
  0
ARC
  5
22B
330
41B
100
AcDbEntity
  8
DATA
  6
Continuous
 62
     7
100
AcDbCircle
 10
-1116.343559507564
 20
-959.0737257202672
 30
0.0
 40
11.54245674051135
100
AcDbArc
 50
195.1381130712449
 51
217.9919892829109
  0
ARC
  5
22C
330
41B
100
AcDbEntity
  8
DATA
  6
Continuous
 62
     7
100
AcDbCircle
 10
-1107.005108067029
 20
-956.4999999999999
 30
0.0
 40
21.22902493452238
100
AcDbArc
 50
164.7385195751403
 51
195.2614804248597
  0
ARC
  5
22D
330
41B
100
AcDbEntity
  8
DATA
  6
Continuous
 62
     7
100
AcDbCircle
 10
-1116.343559507564
 20
-953.9262742797328
 30
0.0
 40
11.54245674051155
100
AcDbArc
 50
142.0080107170891
 51
164.8618869287551
  0
ARC
  5
22E
330
41B
100
AcDbEntity
  8
DATA
  6
Continuous
 62
     7
100
AcDbCircle
 10
-1122.646133001552
 20
-948.6794875327396
 30
0.0
 40
3.355487532740368
100
AcDbArc
 50
33.62642913597337
 51
146.373570864018
  0
LINE
  5
22F
330
41B
100
AcDbEntity
  8
DATA
  6
Continuous
 62
     7
100
AcDbLine
 10
-1047.751291008736
 20
-915.4999999999999
 30
0.0
 11
-1047.751291008736
 21
-960.5
 31
0.0
  0
LINE
  5
230
330
41B
100
AcDbEntity
  8
DATA
  6
Continuous
 62
     7
100
AcDbLine
 10
-1041.684191008736
 20
-915.4999999999999
 30
0.0
 11
-1041.684191008736
 21
-960.5
 31
0.0
  0
ARC
  5
231
330
41B
100
AcDbEntity
  8
DATA
  6
Continuous
 62
     7
100
AcDbCircle
 10
-1036.345092808812
 20
-960.700191555621
 30
0.0
 40
11.40795485768106
100
AcDbArc
 50
178.9944981239326
 51
201.7832708791334
  0
ARC
  5
232
330
41B
100
AcDbEntity
  8
DATA
  6
Continuous
 62
     7
100
AcDbCircle
 10
-1043.088785460253
 20
-963.4654198151835
 30
0.0
 40
4.120149824515405
100
AcDbArc
 50
200.8763692349376
 51
230.8763692349354
  0
ARC
  5
233
330
41B
100
AcDbEntity
  8
DATA
  6
Continuous
 62
     7
100
AcDbCircle
 10
-1044.686975362242
 20
-965.3492233461577
 30
0.0
 40
1.651063319765923
100
AcDbArc
 50
232.6527742493126
 51
268.93229793021
  0
ARC
  5
234
330
41B
100
AcDbEntity
  8
DATA
  6
Continuous
 62
     7
100
AcDbCircle
 10
-1053.09038920866
 20
-960.700191555621
 30
0.0
 40
11.40795485768073
100
AcDbArc
 50
338.2167291208666
 51
1.005501876067398
  0
ARC
  5
235
330
41B
100
AcDbEntity
  8
DATA
  6
Continuous
 62
     7
100
AcDbCircle
 10
-1046.346696557219
 20
-963.4654198151835
 30
0.0
 40
4.120149824515667
100
AcDbArc
 50
309.1236307650646
 51
339.1236307650625
  0
ARC
  5
236
330
41B
100
AcDbEntity
  8
DATA
  6
Continuous
 62
     7
100
AcDbCircle
 10
-1044.74850665523
 20
-965.3492233461577
 30
0.0
 40
1.651063319765679
100
AcDbArc
 50
271.06770206979
 51
307.3472257506874
  0
ARC
  5
237
330
41B
100
AcDbEntity
  8
DATA
  6
Continuous
 62
     7
100
AcDbCircle
 10
-1036.345092808812
 20
-915.2998084443794
 30
0.0
 40
11.4079548576809
100
AcDbArc
 50
158.2167291208645
 51
181.0055018760652
  0
ARC
  5
238
330
41B
100
AcDbEntity
  8
DATA
  6
Continuous
 62
     7
100
AcDbCircle
 10
-1043.088785460253
 20
-912.5345801848171
 30
0.0
 40
4.12014982451602
100
AcDbArc
 50
129.1236307650606
 51
159.1236307650565
  0
ARC
  5
239
330
41B
100
AcDbEntity
  8
DATA
  6
Continuous
 62
     7
100
AcDbCircle
 10
-1044.686975362242
 20
-910.6507766538429
 30
0.0
 40
1.651063319766134
100
AcDbArc
 50
91.06770206978969
 51
127.3472257506778
  0
ARC
  5
23A
330
41B
100
AcDbEntity
  8
DATA
  6
Continuous
 62
     7
100
AcDbCircle
 10
-1053.09038920866
 20
-915.2998084443794
 30
0.0
 40
11.40795485768105
100
AcDbArc
 50
358.9944981239349
 51
21.78327087913562
  0
ARC
  5
23B
330
41B
100
AcDbEntity
  8
DATA
  6
Continuous
 62
     7
100
AcDbCircle
 10
-1046.346696557219
 20
-912.5345801848171
 30
0.0
 40
4.120149824515568
100
AcDbArc
 50
20.87636923494348
 51
50.87636923493939
  0
ARC
  5
23C
330
41B
100
AcDbEntity
  8
DATA
  6
Continuous
 62
     7
100
AcDbCircle
 10
-1044.74850665523
 20
-910.6507766538429
 30
0.0
 40
1.651063319766285
100
AcDbArc
 50
52.65277424932215
 51
88.93229793021033
  0
LINE
  5
23D
330
41B
100
AcDbEntity
  8
DATA
  6
Continuous
 62
     7
100
AcDbLine
 10
-1138.315808991265
 20
-915.4999999999999
 30
0.0
 11
-1138.315808991265
 21
-960.5
 31
0.0
  0
LINE
  5
23E
330
41B
100
AcDbEntity
  8
DATA
  6
Continuous
 62
     7
100
AcDbLine
 10
-1132.248708991264
 20
-915.4999999999999
 30
0.0
 11
-1132.248708991264
 21
-960.5
 31
0.0
  0
ARC
  5
23F
330
41B
100
AcDbEntity
  8
DATA
  6
Continuous
 62
     7
100
AcDbCircle
 10
-1126.90961079134
 20
-960.700191555621
 30
0.0
 40
11.40795485768197
100
AcDbArc
 50
178.9944981239326
 51
201.7832708791317
  0
ARC
  5
240
330
41B
100
AcDbEntity
  8
DATA
  6
Continuous
 62
     7
100
AcDbCircle
 10
-1133.653303442782
 20
-963.4654198151835
 30
0.0
 40
4.120149824515405
100
AcDbArc
 50
200.8763692349376
 51
230.8763692349354
  0
ARC
  5
241
330
41B
100
AcDbEntity
  8
DATA
  6
Continuous
 62
     7
100
AcDbCircle
 10
-1135.251493344772
 20
-965.3492233461577
 30
0.0
 40
1.651063319765372
100
AcDbArc
 50
232.6527742493376
 51
268.9322979302416
  0
ARC
  5
242
330
41B
100
AcDbEntity
  8
DATA
  6
Continuous
 62
     7
100
AcDbCircle
 10
-1143.654907191189
 20
-960.700191555621
 30
0.0
 40
11.40795485768158
100
AcDbArc
 50
338.2167291208682
 51
1.005501876067398
  0
ARC
  5
243
330
41B
100
AcDbEntity
  8
DATA
  6
Continuous
 62
     7
100
AcDbCircle
 10
-1136.911214539747
 20
-963.4654198151835
 30
0.0
 40
4.120149824515667
100
AcDbArc
 50
309.1236307650646
 51
339.1236307650625
  0
ARC
  5
244
330
41B
100
AcDbEntity
  8
DATA
  6
Continuous
 62
     7
100
AcDbCircle
 10
-1135.313024637757
 20
-965.3492233461577
 30
0.0
 40
1.651063319765662
100
AcDbArc
 50
271.0677020697584
 51
307.3472257506622
  0
ARC
  5
245
330
41B
100
AcDbEntity
  8
DATA
  6
Continuous
 62
     7
100
AcDbCircle
 10
-1126.90961079134
 20
-915.2998084443794
 30
0.0
 40
11.40795485768175
100
AcDbArc
 50
158.2167291208661
 51
181.0055018760651
  0
ARC
  5
246
330
41B
100
AcDbEntity
  8
DATA
  6
Continuous
 62
     7
100
AcDbCircle
 10
-1133.653303442782
 20
-912.5345801848171
 30
0.0
 40
4.12014982451602
100
AcDbArc
 50
129.1236307650606
 51
159.1236307650565
  0
ARC
  5
247
330
41B
100
AcDbEntity
  8
DATA
  6
Continuous
 62
     7
100
AcDbCircle
 10
-1135.251493344772
 20
-910.6507766538429
 30
0.0
 40
1.651063319766117
100
AcDbArc
 50
91.06770206975813
 51
127.3472257506527
  0
ARC
  5
248
330
41B
100
AcDbEntity
  8
DATA
  6
Continuous
 62
     7
100
AcDbCircle
 10
-1143.654907191189
 20
-915.2998084443794
 30
0.0
 40
11.40795485768196
100
AcDbArc
 50
358.9944981239349
 51
21.7832708791338
  0
ARC
  5
249
330
41B
100
AcDbEntity
  8
DATA
  6
Continuous
 62
     7
100
AcDbCircle
 10
-1136.911214539747
 20
-912.5345801848171
 30
0.0
 40
4.120149824515568
100
AcDbArc
 50
20.87636923494348
 51
50.87636923493939
  0
ARC
  5
24A
330
41B
100
AcDbEntity
  8
DATA
  6
Continuous
 62
     7
100
AcDbCircle
 10
-1135.313024637757
 20
-910.6507766538429
 30
0.0
 40
1.651063319765733
100
AcDbArc
 50
52.65277424934724
 51
88.93229793024191
  0
LINE
  5
24B
330
41B
100
AcDbEntity
  8
DATA
  6
Continuous
 62
     7
100
AcDbLine
 10
-526.7839999999996
 20
-995.0
 30
0.0
 11
-526.7839999999996
 21
-430.9599999999999
 31
0.0
  0
LINE
  5
24C
330
41B
100
AcDbEntity
  8
DATA
  6
Continuous
 62
     7
100
AcDbLine
 10
-178.2160000000003
 20
-1000.0
 30
0.0
 11
-521.7839999999996
 21
-1000.0
 31
0.0
  0
LINE
  5
24D
330
41B
100
AcDbEntity
  8
DATA
  6
Continuous
 62
     7
100
AcDbLine
 10
-173.2160000000004
 20
-430.9599999999999
 30
0.0
 11
-173.2160000000004
 21
-995.0
 31
0.0
  0
LINE
  5
24E
330
41B
100
AcDbEntity
  8
DATA
  6
Continuous
 62
     7
100
AcDbLine
 10
-521.7839999999996
 20
-425.9599999999999
 30
0.0
 11
-178.2160000000003
 21
-425.9599999999999
 31
0.0
  0
ARC
  5
24F
330
41B
100
AcDbEntity
  8
DATA
  6
Continuous
 62
     7
100
AcDbCircle
 10
-521.7839999999996
 20
-430.9599999999999
 30
0.0
 40
5.0
100
AcDbArc
 50
90.0
 51
180.0
  0
ARC
  5
250
330
41B
100
AcDbEntity
  8
DATA
  6
Continuous
 62
     7
100
AcDbCircle
 10
-178.2160000000003
 20
-430.9599999999999
 30
0.0
 40
5.0
100
AcDbArc
 50
0.0
 51
90.0
  0
LINE
  5
251
330
41B
100
AcDbEntity
  8
DATA
  6
Continuous
 62
     7
100
AcDbLine
 10
-460.0769965505151
 20
-425.9599999999999
 30
0.0
 11
-460.0769965505151
 21
-1000.0
 31
0.0
  0
LINE
  5
252
330
41B
100
AcDbEntity
  8
DATA
  6
Continuous
 62
     7
100
AcDbLine
 10
-239.9230034494849
 20
-425.9599999999999
 30
0.0
 11
-239.9230034494849
 21
-1000.0
 31
0.0
  0
CIRCLE
  5
253
330
41B
100
AcDbEntity
  8
DATA
  6
Continuous
 62
     7
100
AcDbCircle
 10
-491.5
 20
-455.9599999999999
 30
0.0
 40
5.5
  0
CIRCLE
  5
254
330
41B
100
AcDbEntity
  8
DATA
  6
Continuous
 62
     7
100
AcDbCircle
 10
-491.5
 20
-455.9599999999999
 30
0.0
 40
3.5
  0
LWPOLYLINE
  5
255
330
41B
100
AcDbEntity
  8
DATA
  6
Continuous
 62
     7
100
AcDbPolyline
 90
        6
 70
     1
 43
0.0
 10
-493.4918584287042
 20
-454.8099999999999
 10
-493.4918584287042
 20
-457.11
 10
-491.5
 20
-458.2600000000002
 10
-489.5081415712957
 20
-457.11
 10
-489.5081415712957
 20
-454.8099999999999
 10
-491.5
 20
-453.6599999999999
  0
CIRCLE
  5
25E
330
41B
100
AcDbEntity
  8
DATA
  6
Continuous
 62
     7
100
AcDbCircle
 10
-208.5
 20
-455.9599999999999
 30
0.0
 40
5.5
  0
CIRCLE
  5
25F
330
41B
100
AcDbEntity
  8
DATA
  6
Continuous
 62
     7
100
AcDbCircle
 10
-208.5
 20
-455.9599999999999
 30
0.0
 40
3.5
  0
LWPOLYLINE
  5
260
330
41B
100
AcDbEntity
  8
DATA
  6
Continuous
 62
     7
100
AcDbPolyline
 90
        6
 70
     1
 43
0.0
 10
-210.4918584287043
 20
-454.8099999999999
 10
-210.4918584287043
 20
-457.11
 10
-208.5
 20
-458.2600000000002
 10
-206.5081415712957
 20
-457.11
 10
-206.5081415712957
 20
-454.8099999999999
 10
-208.5
 20
-453.6599999999999
  0
LINE
  5
269
330
41B
100
AcDbEntity
  8
DATA
  6
Continuous
 62
     7
100
AcDbLine
 10
-524.2839999999996
 20
-444.46
 30
0.0
 11
-175.7160000000004
 21
-444.46
 31
0.0
  0
LINE
  5
26A
330
41B
100
AcDbEntity
  8
DATA
  6
Continuous
 62
     7
100
AcDbLine
 10
-175.7160000000004
 20
-444.46
 30
0.0
 11
-175.7160000000004
 21
-981.4999999999999
 31
0.0
  0
LINE
  5
26B
330
41B
100
AcDbEntity
  8
DATA
  6
Continuous
 62
     7
100
AcDbLine
 10
-524.2839999999996
 20
-444.46
 30
0.0
 11
-524.2839999999996
 21
-981.4999999999999
 31
0.0
  0
CIRCLE
  5
26C
330
41B
100
AcDbEntity
  8
DATA
  6
Continuous
 62
     7
100
AcDbCircle
 10
-491.5
 20
-970.0
 30
0.0
 40
5.5
  0
CIRCLE
  5
26D
330
41B
100
AcDbEntity
  8
DATA
  6
Continuous
 62
     7
100
AcDbCircle
 10
-491.5
 20
-970.0
 30
0.0
 40
3.5
  0
LWPOLYLINE
  5
26E
330
41B
100
AcDbEntity
  8
DATA
  6
Continuous
 62
     7
100
AcDbPolyline
 90
        6
 70
     1
 43
0.0
 10
-493.4918584287042
 20
-971.1500000000002
 10
-493.4918584287042
 20
-968.8500000000001
 10
-491.5
 20
-967.7000000000004
 10
-489.5081415712957
 20
-968.8500000000001
 10
-489.5081415712957
 20
-971.1500000000002
 10
-491.5
 20
-972.3000000000002
  0
CIRCLE
  5
277
330
41B
100
AcDbEntity
  8
DATA
  6
Continuous
 62
     7
100
AcDbCircle
 10
-208.5
 20
-970.0
 30
0.0
 40
5.5
  0
CIRCLE
  5
278
330
41B
100
AcDbEntity
  8
DATA
  6
Continuous
 62
     7
100
AcDbCircle
 10
-208.5
 20
-970.0
 30
0.0
 40
3.5
  0
LWPOLYLINE
  5
279
330
41B
100
AcDbEntity
  8
DATA
  6
Continuous
 62
     7
100
AcDbPolyline
 90
        6
 70
     1
 43
0.0
 10
-210.4918584287043
 20
-971.1500000000002
 10
-210.4918584287043
 20
-968.8500000000001
 10
-208.5
 20
-967.7000000000004
 10
-206.5081415712957
 20
-968.8500000000001
 10
-206.5081415712957
 20
-971.1500000000002
 10
-208.5
 20
-972.3000000000002
  0
LINE
  5
282
330
41B
100
AcDbEntity
  8
DATA
  6
Continuous
 62
     7
100
AcDbLine
 10
-524.2839999999996
 20
-981.4999999999999
 30
0.0
 11
-175.7160000000004
 21
-981.4999999999999
 31
0.0
  0
LINE
  5
283
330
41B
100
AcDbEntity
  8
DATA
  6
Continuous
 62
     7
100
AcDbLine
 10
-227.75
 20
-444.46
 30
0.0
 11
-472.25
 21
-444.46
 31
0.0
  0
LINE
  5
284
330
41B
100
AcDbEntity
  8
DATA
  6
Continuous
 62
     7
100
AcDbLine
 10
-374.0
 20
-942.5
 30
0.0
 11
-374.0
 21
-877.5
 31
0.0
  0
LINE
  5
285
330
41B
100
AcDbEntity
  8
DATA
  6
Continuous
 62
     7
100
AcDbLine
 10
-333.5
 20
-950.0
 30
0.0
 11
-366.5
 21
-950.0
 31
0.0
  0
LINE
  5
286
330
41B
100
AcDbEntity
  8
DATA
  6
Continuous
 62
     7
100
AcDbLine
 10
-326.0
 20
-877.5
 30
0.0
 11
-326.0
 21
-942.5
 31
0.0
  0
LINE
  5
287
330
41B
100
AcDbEntity
  8
DATA
  6
Continuous
 62
     7
100
AcDbLine
 10
-366.5
 20
-870.0
 30
0.0
 11
-333.5
 21
-870.0
 31
0.0
  0
LWPOLYLINE
  5
288
330
41B
100
AcDbEntity
  8
DATA
  6
Continuous
 62
     7
100
AcDbPolyline
 90
        4
 70
     1
 43
0.0
 10
-366.0
 20
-880.0
 10
-334.0
 20
-880.0
 10
-334.0
 20
-940.0
 10
-366.0
 20
-940.0
  0
ARC
  5
28F
330
41B
100
AcDbEntity
  8
DATA
  6
Continuous
 62
     7
100
AcDbCircle
 10
-366.5
 20
-877.5
 30
0.0
 40
7.5
100
AcDbArc
 50
90.0
 51
180.0
  0
ARC
  5
290
330
41B
100
AcDbEntity
  8
DATA
  6
Continuous
 62
     7
100
AcDbCircle
 10
-366.5
 20
-942.5
 30
0.0
 40
7.5
100
AcDbArc
 50
180.0
 51
270.0
  0
ARC
  5
291
330
41B
100
AcDbEntity
  8
DATA
  6
Continuous
 62
     7
100
AcDbCircle
 10
-333.5
 20
-942.5
 30
0.0
 40
7.5
100
AcDbArc
 50
270.0
 51
0.0
  0
ARC
  5
292
330
41B
100
AcDbEntity
  8
DATA
  6
Continuous
 62
     7
100
AcDbCircle
 10
-333.5
 20
-877.5
 30
0.0
 40
7.5
100
AcDbArc
 50
0.0
 51
90.0
  0
LINE
  5
293
330
41B
100
AcDbEntity
  8
DATA
  6
Continuous
 62
     7
100
AcDbLine
 10
-334.0
 20
-911.0
 30
0.0
 11
-366.0
 21
-911.0
 31
0.0
  0
LINE
  5
294
330
41B
100
AcDbEntity
  8
DATA
  6
Continuous
 62
     7
100
AcDbLine
 10
-334.0
 20
-906.4999999999999
 30
0.0
 11
-366.0
 21
-906.4999999999999
 31
0.0
  0
ARC
  5
295
330
41B
100
AcDbEntity
  8
DATA
  6
Continuous
 62
     7
100
AcDbCircle
 10
-349.5192186364257
 20
-896.8288559547941
 30
0.0
 40
0.3187831148178217
100
AcDbArc
 50
307.641902497432
 51
354.2670192893208
  0
LINE
  5
296
330
41B
100
AcDbEntity
  8
DATA
  6
Continuous
 62
     7
100
AcDbLine
 10
-357.7075499999992
 20
-891.8053500000002
 30
0.0
 11
-356.2130899999992
 21
-888.2444700000002
 31
0.0
  0
LINE
  5
297
330
41B
100
AcDbEntity
  8
DATA
  6
Continuous
 62
     7
100
AcDbLine
 10
-357.7075499999992
 20
-891.8053500000002
 30
0.0
 11
-359.1835699999992
 21
-888.2444700000002
 31
0.0
  0
LINE
  5
298
330
41B
100
AcDbEntity
  8
DATA
  6
Continuous
 62
     7
100
AcDbLine
 10
-346.3791499999988
 20
-898.2444700000002
 30
0.0
 11
-346.3791499999988
 21
-888.2444700000002
 31
0.0
  0
LINE
  5
299
330
41B
100
AcDbEntity
  8
DATA
  6
Continuous
 62
     7
100
AcDbLine
 10
-344.4603299999998
 20
-888.2444700000002
 30
0.0
 11
-344.4603299999998
 21
-896.7131100000001
 31
0.0
  0
LINE
  5
29A
330
41B
100
AcDbEntity
  8
DATA
  6
Continuous
 62
     7
100
AcDbLine
 10
-355.5119799999993
 20
-888.2444700000002
 30
0.0
 11
-355.5119799999993
 21
-896.7131100000001
 31
0.0
  0
LINE
  5
29B
330
41B
100
AcDbEntity
  8
DATA
  6
Continuous
 62
     7
100
AcDbLine
 10
-353.6669600000005
 20
-888.2444700000002
 30
0.0
 11
-353.6669600000005
 21
-896.7131100000001
 31
0.0
  0
LINE
  5
29C
330
41B
100
AcDbEntity
  8
DATA
  6
Continuous
 62
     7
100
AcDbLine
 10
-352.7075499999992
 20
-888.2444700000002
 30
0.0
 11
-352.7075499999992
 21
-898.2444700000002
 31
0.0
  0
LINE
  5
29D
330
41B
100
AcDbEntity
  8
DATA
  6
Continuous
 62
     7
100
AcDbLine
 10
-351.0285800000001
 20
-889.18542
 30
0.0
 11
-351.0285800000001
 21
-892.3957599999999
 31
0.0
  0
LINE
  5
29E
330
41B
100
AcDbEntity
  8
DATA
  6
Continuous
 62
     7
100
AcDbLine
 10
-347.4300000000003
 20
-892.21
 30
0.0
 11
-347.4300000000003
 21
-889.8680899999998
 31
0.0
  0
LINE
  5
29F
330
41B
100
AcDbEntity
  8
DATA
  6
Continuous
 62
     7
100
AcDbLine
 10
-349.2020300000004
 20
-889.6282300000001
 30
0.0
 11
-349.2020300000004
 21
-891.95296
 31
0.0
  0
ARC
  5
2A0
330
41B
100
AcDbEntity
  8
DATA
  6
Continuous
 62
     7
100
AcDbCircle
 10
-355.8822199999994
 20
-895.6766699999999
 30
0.0
 40
2.578853425167925
100
AcDbArc
 50
264.6908562215338
 51
323.9911991542444
  0
LINE
  5
2A1
330
41B
100
AcDbEntity
  8
DATA
  6
Continuous
 62
     7
100
AcDbLine
 10
-356.9141899999995
 20
-895.1079300000001
 30
0.0
 11
-356.9141899999995
 21
-896.7130900000002
 31
0.0
  0
LINE
  5
2A2
330
41B
100
AcDbEntity
  8
DATA
  6
Continuous
 62
     7
100
AcDbLine
 10
-356.9141899999995
 20
-895.1079300000001
 30
0.0
 11
-358.574709999999
 21
-895.1079300000001
 31
0.0
  0
LINE
  5
2A3
330
41B
100
AcDbEntity
  8
DATA
  6
Continuous
 62
     7
100
AcDbLine
 10
-358.574709999999
 20
-895.1079300000001
 30
0.0
 11
-358.574709999999
 21
-896.7130900000002
 31
0.0
  0
ARC
  5
2A4
330
41B
100
AcDbEntity
  8
DATA
  6
Continuous
 62
     7
100
AcDbCircle
 10
-356.2095699999991
 20
-896.7347300000001
 30
0.0
 40
0.6979288262424023
100
AcDbArc
 50
269.711848792713
 51
1.77598700570428
  0
ARC
  5
2A5
330
41B
100
AcDbEntity
  8
DATA
  6
Continuous
 62
     7
100
AcDbCircle
 10
-356.2165999999998
 20
-896.7347300000001
 30
0.0
 40
0.6979252574593346
100
AcDbArc
 50
178.2240129942977
 51
270.2881512072897
  0
ARC
  5
2A6
330
41B
100
AcDbEntity
  8
DATA
  6
Continuous
 62
     7
100
AcDbCircle
 10
-356.3594499999999
 20
-895.6766699999999
 30
0.0
 40
2.578849236947199
100
AcDbArc
 50
216.0088008457599
 51
275.3091437784684
  0
ARC
  5
2A7
330
41B
100
AcDbEntity
  8
DATA
  6
Continuous
 62
     7
100
AcDbCircle
 10
-357.40927
 20
-896.6565599999999
 30
0.0
 40
1.16680020817531
100
AcDbArc
 50
182.7769954500102
 51
207.3596066671716
  0
CIRCLE
  5
2A8
330
41B
100
AcDbEntity
  8
DATA
  6
Continuous
 62
     7
100
AcDbCircle
 10
-357.6060699999999
 20
-893.1891199999999
 30
0.0
 40
0.9501799999998183
  0
LINE
  5
2A9
330
41B
100
AcDbEntity
  8
DATA
  6
Continuous
 62
     7
100
AcDbLine
 10
-341.3791499999988
 20
-898.24446
 30
0.0
 11
-346.3791499999988
 21
-898.24446
 31
0.0
  0
LINE
  5
2AA
330
41B
100
AcDbEntity
  8
DATA
  6
Continuous
 62
     7
100
AcDbLine
 10
-341.3791499999988
 20
-898.24446
 30
0.0
 11
-341.3791499999988
 21
-895.1079199999998
 31
0.0
  0
LINE
  5
2AB
330
41B
100
AcDbEntity
  8
DATA
  6
Continuous
 62
     7
100
AcDbLine
 10
-341.3791499999988
 20
-895.1079300000001
 30
0.0
 11
-343.0581099999999
 21
-895.1079300000001
 31
0.0
  0
LINE
  5
2AC
330
41B
100
AcDbEntity
  8
DATA
  6
Continuous
 62
     7
100
AcDbLine
 10
-343.0581099999999
 20
-895.1079300000001
 30
0.0
 11
-343.0581099999999
 21
-896.7130900000002
 31
0.0
  0
LINE
  5
2AD
330
41B
100
AcDbEntity
  8
DATA
  6
Continuous
 62
     7
100
AcDbLine
 10
-352.7075499999992
 20
-898.24446
 30
0.0
 11
-349.2020300000004
 21
-898.2444500000001
 31
0.0
  0
LINE
  5
2AE
330
41B
100
AcDbEntity
  8
DATA
  6
Continuous
 62
     7
100
AcDbLine
 10
-351.0285899999999
 20
-897.3034999999999
 30
0.0
 11
-350.1245299999991
 21
-897.3034999999999
 31
0.0
  0
LINE
  5
2AF
330
41B
100
AcDbEntity
  8
DATA
  6
Continuous
 62
     7
100
AcDbLine
 10
-351.0285800000001
 20
-897.3034999999999
 30
0.0
 11
-351.0285800000001
 21
-893.3551599999999
 31
0.0
  0
LINE
  5
2B0
330
41B
100
AcDbEntity
  8
DATA
  6
Continuous
 62
     7
100
AcDbLine
 10
-351.0285899999999
 20
-893.3551599999999
 30
0.0
 11
-350.1245299999991
 21
-893.3551599999999
 31
0.0
  0
LINE
  5
2B1
330
41B
100
AcDbEntity
  8
DATA
  6
Continuous
 62
     7
100
AcDbLine
 10
-349.2020300000004
 20
-896.8607000000003
 30
0.0
 11
-349.2020300000004
 21
-893.79796
 31
0.0
  0
ARC
  5
2B2
330
41B
100
AcDbEntity
  8
DATA
  6
Continuous
 62
     7
100
AcDbCircle
 10
-354.8323999999992
 20
-896.6565599999999
 30
0.0
 40
1.166798547865359
100
AcDbArc
 50
332.6403933328499
 51
357.2230045500069
  0
ARC
  5
2B3
330
41B
100
AcDbEntity
  8
DATA
  6
Continuous
 62
     7
100
AcDbCircle
 10
-343.7557099999994
 20
-896.7347300000001
 30
0.0
 40
0.6979288262424023
100
AcDbArc
 50
269.711848792713
 51
1.775987005699619
  0
ARC
  5
2B4
330
41B
100
AcDbEntity
  8
DATA
  6
Continuous
 62
     7
100
AcDbCircle
 10
-343.7627300000004
 20
-896.7347300000001
 30
0.0
 40
0.6979252574593346
100
AcDbArc
 50
178.2240129942977
 51
270.2881512072897
  0
LINE
  5
2B5
330
41B
100
AcDbEntity
  8
DATA
  6
Continuous
 62
     7
100
AcDbLine
 10
-347.4308099999998
 20
-896.63929
 30
0.0
 11
-347.4308099999998
 21
-893.9824699999999
 31
0.0
  0
LINE
  5
2B6
330
41B
100
AcDbEntity
  8
DATA
  6
Continuous
 62
     7
100
AcDbLine
 10
-351.0285899999999
 20
-892.3957599999999
 30
0.0
 11
-350.1245299999991
 21
-892.3957599999999
 31
0.0
  0
ARC
  5
2B7
330
41B
100
AcDbEntity
  8
DATA
  6
Continuous
 62
     7
100
AcDbCircle
 10
-349.3291499999996
 20
-896.3460899999999
 30
0.0
 40
1.9026114117182
100
AcDbArc
 50
273.8309816090905
 51
351.135147309799
  0
LINE
  5
2B8
330
41B
100
AcDbEntity
  8
DATA
  6
Continuous
 62
     7
100
AcDbLine
 10
-355.5119799999993
 20
-888.2444700000002
 30
0.0
 11
-353.6669600000005
 21
-888.2444700000002
 31
0.0
  0
LINE
  5
2B9
330
41B
100
AcDbEntity
  8
DATA
  6
Continuous
 62
     7
100
AcDbLine
 10
-359.1835699999992
 20
-888.2444700000002
 30
0.0
 11
-356.2130899999992
 21
-888.2444700000002
 31
0.0
  0
LINE
  5
2BA
330
41B
100
AcDbEntity
  8
DATA
  6
Continuous
 62
     7
100
AcDbLine
 10
-346.3791499999988
 20
-888.2444700000002
 30
0.0
 11
-344.4603299999998
 21
-888.2444700000002
 31
0.0
  0
LINE
  5
2BB
330
41B
100
AcDbEntity
  8
DATA
  6
Continuous
 62
     7
100
AcDbLine
 10
-352.7075499999992
 20
-888.2444700000002
 30
0.0
 11
-349.1827598718537
 21
-888.2444780937404
 31
0.0
  0
LINE
  5
2BC
330
41B
100
AcDbEntity
  8
DATA
  6
Continuous
 62
     7
100
AcDbLine
 10
-351.0285899999999
 20
-889.1854300000002
 30
0.0
 11
-350.1245299999991
 21
-889.1854300000002
 31
0.0
  0
ARC
  5
2BD
330
41B
100
AcDbEntity
  8
DATA
  6
Continuous
 62
     7
100
AcDbCircle
 10
-349.3101800000004
 20
-890.1399300000003
 30
0.0
 40
1.899729932911674
100
AcDbArc
 50
8.226923859025436
 51
86.15412669215286
  0
ARC
  5
2BE
330
41B
100
AcDbEntity
  8
DATA
  6
Continuous
 62
     7
100
AcDbCircle
 10
-350.1138545373961
 20
-895.5498120394132
 30
0.0
 40
1.753720453381606
100
AcDbArc
 50
269.6512199376213
 51
282.8264828068661
  0
ARC
  5
2BF
330
41B
100
AcDbEntity
  8
DATA
  6
Continuous
 62
     7
100
AcDbCircle
 10
-349.9168839725335
 20
-896.2912503112269
 30
0.0
 40
0.9874379036934399
100
AcDbArc
 50
281.2331036226942
 51
306.8620088940753
  0
ARC
  5
2C0
330
41B
100
AcDbEntity
  8
DATA
  6
Continuous
 62
     7
100
AcDbCircle
 10
-349.5192186364257
 20
-893.8298040452059
 30
0.0
 40
0.3187831148169698
100
AcDbArc
 50
5.732980710679145
 51
52.35809750256796
  0
ARC
  5
2C1
330
41B
100
AcDbEntity
  8
DATA
  6
Continuous
 62
     7
100
AcDbCircle
 10
-350.1138545373961
 20
-895.108847960587
 30
0.0
 40
1.753720453381579
100
AcDbArc
 50
77.17351719313388
 51
90.34878006237869
  0
ARC
  5
2C2
330
41B
100
AcDbEntity
  8
DATA
  6
Continuous
 62
     7
100
AcDbCircle
 10
-349.9168839725335
 20
-894.3674096887731
 30
0.0
 40
0.987437903693392
100
AcDbArc
 50
53.13799110592463
 51
78.76689637730574
  0
ARC
  5
2C3
330
41B
100
AcDbEntity
  8
DATA
  6
Continuous
 62
     7
100
AcDbCircle
 10
-348.3984899999996
 20
-894.0478799999999
 30
0.0
 40
0.9698881639135144
100
AcDbArc
 50
3.867006359832196
 51
88.36163456786378
  0
ARC
  5
2C4
330
41B
100
AcDbEntity
  8
DATA
  6
Continuous
 62
     7
100
AcDbCircle
 10
-348.3993799999989
 20
-892.1079600000002
 30
0.0
 40
0.9708519399474162
100
AcDbArc
 50
271.6892821045977
 51
356.0782829826753
  0
ARC
  5
2C5
330
41B
100
AcDbEntity
  8
DATA
  6
Continuous
 62
     7
100
AcDbCircle
 10
-349.5192186364257
 20
-891.9211159547939
 30
0.0
 40
0.3187831148181818
100
AcDbArc
 50
307.641902497382
 51
354.2670192893208
  0
ARC
  5
2C6
330
41B
100
AcDbEntity
  8
DATA
  6
Continuous
 62
     7
100
AcDbCircle
 10
-350.1138545373961
 20
-890.6420720394129
 30
0.0
 40
1.753720453381606
100
AcDbArc
 50
269.6512199376213
 51
282.8264828068661
  0
ARC
  5
2C7
330
41B
100
AcDbEntity
  8
DATA
  6
Continuous
 62
     7
100
AcDbCircle
 10
-349.9168839725335
 20
-891.3835103112276
 30
0.0
 40
0.9874379036929939
100
AcDbArc
 50
281.2331036226995
 51
306.8620088940753
  0
ARC
  5
2C8
330
41B
100
AcDbEntity
  8
DATA
  6
Continuous
 62
     7
100
AcDbCircle
 10
-349.5192186364257
 20
-889.6600740452056
 30
0.0
 40
0.3187831148169243
100
AcDbArc
 50
5.732980710597818
 51
52.35809750256796
  0
ARC
  5
2C9
330
41B
100
AcDbEntity
  8
DATA
  6
Continuous
 62
     7
100
AcDbCircle
 10
-350.1138545373961
 20
-890.9391179605869
 30
0.0
 40
1.753720453381579
100
AcDbArc
 50
77.17351719313388
 51
90.34878006237869
  0
ARC
  5
2CA
330
41B
100
AcDbEntity
  8
DATA
  6
Continuous
 62
     7
100
AcDbCircle
 10
-349.9168839725335
 20
-890.197679688773
 30
0.0
 40
0.987437903693392
100
AcDbArc
 50
53.13799110592463
 51
78.76689637730574
  0
LINE
  5
2CB
330
41B
100
AcDbEntity
  8
DATA
  6
Continuous
 62
     7
100
AcDbLine
 10
-524.2839999999996
 20
-645.916666666667
 30
0.0
 11
-432.0
 21
-645.916666666667
 31
0.0
  0
LINE
  5
2CC
330
41B
100
AcDbEntity
  8
DATA
  6
Continuous
 62
     7
100
AcDbLine
 10
-524.2839999999996
 20
-651.9166666666669
 30
0.0
 11
-437.0
 21
-651.9166666666669
 31
0.0
  0
LINE
  5
2CD
330
41B
100
AcDbEntity
  8
DATA
  6
Continuous
 62
     7
100
AcDbLine
 10
-432.0
 20
-645.916666666667
 30
0.0
 11
-420.0
 21
-660.9166666666669
 31
0.0
  0
LINE
  5
2CE
330
41B
100
AcDbEntity
  8
DATA
  6
Continuous
 62
     7
100
AcDbLine
 10
-437.0
 20
-651.9166666666669
 30
0.0
 11
-423.3999999999997
 21
-668.9166666666669
 31
0.0
  0
LINE
  5
2CF
330
41B
100
AcDbEntity
  8
DATA
  6
Continuous
 62
     7
100
AcDbLine
 10
-420.0
 20
-660.9166666666669
 30
0.0
 11
-280.0
 21
-660.9166666666669
 31
0.0
  0
LINE
  5
2D0
330
41B
100
AcDbEntity
  8
DATA
  6
Continuous
 62
     7
100
AcDbLine
 10
-423.3999999999997
 20
-668.9166666666669
 30
0.0
 11
-276.6000000000004
 21
-668.9166666666669
 31
0.0
  0
LINE
  5
2D1
330
41B
100
AcDbEntity
  8
DATA
  6
Continuous
 62
     7
100
AcDbLine
 10
-175.7160000000004
 20
-645.916666666667
 30
0.0
 11
-268.0
 21
-645.916666666667
 31
0.0
  0
LINE
  5
2D2
330
41B
100
AcDbEntity
  8
DATA
  6
Continuous
 62
     7
100
AcDbLine
 10
-175.7160000000004
 20
-651.9166666666669
 30
0.0
 11
-263.0
 21
-651.9166666666669
 31
0.0
  0
LINE
  5
2D3
330
41B
100
AcDbEntity
  8
DATA
  6
Continuous
 62
     7
100
AcDbLine
 10
-268.0
 20
-645.916666666667
 30
0.0
 11
-280.0
 21
-660.9166666666669
 31
0.0
  0
LINE
  5
2D4
330
41B
100
AcDbEntity
  8
DATA
  6
Continuous
 62
     7
100
AcDbLine
 10
-263.0
 20
-651.9166666666669
 30
0.0
 11
-276.6000000000004
 21
-668.9166666666669
 31
0.0
  0
ARC
  5
2D5
330
41B
100
AcDbEntity
  8
DATA
  6
Continuous
 62
     7
100
AcDbCircle
 10
-178.2160000000003
 20
-995.0
 30
0.0
 40
5.0
100
AcDbArc
 50
270.0
 51
0.0
  0
ARC
  5
2D6
330
41B
100
AcDbEntity
  8
DATA
  6
Continuous
 62
     7
100
AcDbCircle
 10
-521.7839999999996
 20
-995.0
 30
0.0
 40
5.0
100
AcDbArc
 50
180.0
 51
270.0
  0
LINE
  5
2D7
330
41B
100
AcDbEntity
  8
DATA
  6
Continuous
 62
     7
100
AcDbLine
 10
-526.785
 20
-247.3258622134931
 30
0.0
 11
-526.785
 21
-27.49227737446336
 31
0.0
  0
LINE
  5
2D8
330
41B
100
AcDbEntity
  8
DATA
  6
Continuous
 62
     7
100
AcDbLine
 10
-319.0557621135322
 20
98.77999999999973
 30
0.0
 11
-178.2150000000001
 21
98.77999999999973
 31
0.0
  0
LINE
  5
2D9
330
41B
100
AcDbEntity
  8
DATA
  6
Continuous
 62
     7
100
AcDbLine
 10
-173.2150000000001
 20
93.77999999999973
 30
0.0
 11
-173.2150000000001
 21
-247.3258622134926
 31
0.0
  0
LINE
  5
2DA
330
41B
100
AcDbEntity
  8
DATA
  6
Continuous
 62
     7
100
AcDbLine
 10
-235.2379487154321
 20
-291.795082388127
 30
0.0
 11
-180.7150000000001
 21
-260.3162432702593
 31
0.0
  0
ARC
  5
2DB
330
41B
100
AcDbEntity
  8
DATA
  6
Continuous
 62
     7
100
AcDbCircle
 10
-350.0
 20
804.2904699620011
 30
0.0
 40
1104.290469962001
100
AcDbArc
 50
264.5631074725426
 51
275.4368925274576
  0
LINE
  5
2DC
330
41B
100
AcDbEntity
  8
DATA
  6
Continuous
 62
     7
100
AcDbLine
 10
-464.762051284566
 20
-291.7950823881274
 30
0.0
 11
-519.2849999999999
 21
-260.3162432702593
 31
0.0
  0
LINE
  5
2DD
330
41B
100
AcDbEntity
  8
DATA
  6
Continuous
 62
     7
100
AcDbLine
 10
-519.2849999999999
 20
-14.50189631769672
 30
0.0
 11
-326.5557621135322
 21
96.77038105676638
 31
0.0
  0
ARC
  5
2DE
330
41B
100
AcDbEntity
  8
DATA
  6
Continuous
 62
     7
100
AcDbCircle
 10
-188.2150000000001
 20
-247.3258622134926
 30
0.0
 40
15.00000000000005
100
AcDbArc
 50
300.0
 51
0.0
  0
ARC
  5
2DF
330
41B
100
AcDbEntity
  8
DATA
  6
Continuous
 62
     7
100
AcDbCircle
 10
-511.7849999999998
 20
-247.3258622134931
 30
0.0
 40
15.0
100
AcDbArc
 50
180.0
 51
239.9999999999992
  0
ARC
  5
2E0
330
41B
100
AcDbEntity
  8
DATA
  6
Continuous
 62
     7
100
AcDbCircle
 10
-511.7849999999998
 20
-27.49227737446336
 30
0.0
 40
15.00000000000005
100
AcDbArc
 50
119.9999999999998
 51
180.0
  0
ARC
  5
2E1
330
41B
100
AcDbEntity
  8
DATA
  6
Continuous
 62
     7
100
AcDbCircle
 10
-319.0557621135322
 20
83.77999999999973
 30
0.0
 40
15.0
100
AcDbArc
 50
90.0
 51
119.9999999999998
  0
ARC
  5
2E2
330
41B
100
AcDbEntity
  8
DATA
  6
Continuous
 62
     7
100
AcDbCircle
 10
-452.262051284566
 20
-270.1444472935173
 30
0.0
 40
24.9999999999993
100
AcDbArc
 50
239.9999999999991
 51
264.5631074725435
  0
ARC
  5
2E3
330
41B
100
AcDbEntity
  8
DATA
  6
Continuous
 62
     7
100
AcDbCircle
 10
-247.737948715434
 20
-270.1444472935154
 30
0.0
 40
25.00000000000081
100
AcDbArc
 50
275.4368925274603
 51
300.000000000003
  0
CIRCLE
  5
2E4
330
41B
100
AcDbEntity
  8
DATA
  6
Continuous
 62
     7
100
AcDbCircle
 10
-350.0
 20
36.12306203619596
 30
0.0
 40
11.17600000000038
  0
LINE
  5
2E5
330
41B
100
AcDbEntity
  8
DATA
  6
Continuous
 62
     7
100
AcDbLine
 10
-348.2219999999998
 20
38.91706203619583
 30
0.0
 11
-346.4439999999994
 21
36.12306203619596
 31
0.0
  0
LINE
  5
2E6
330
41B
100
AcDbEntity
  8
DATA
  6
Continuous
 62
     7
100
AcDbLine
 10
-351.5239999999995
 20
33.32906203619609
 30
0.0
 11
-353.3019999999997
 21
36.12306203619596
 31
0.0
  0
LINE
  5
2E7
330
41B
100
AcDbEntity
  8
DATA
  6
Continuous
 62
     7
100
AcDbLine
 10
-351.5239999999995
 20
38.91706203619583
 30
0.0
 11
-348.2219999999998
 21
38.91706203619583
 31
0.0
  0
LINE
  5
2E8
330
41B
100
AcDbEntity
  8
DATA
  6
Continuous
 62
     7
100
AcDbLine
 10
-348.2219999999998
 20
33.32906203619609
 30
0.0
 11
-351.5239999999995
 21
33.32906203619609
 31
0.0
  0
LINE
  5
2E9
330
41B
100
AcDbEntity
  8
DATA
  6
Continuous
 62
     7
100
AcDbLine
 10
-353.3019999999997
 20
36.12306203619596
 30
0.0
 11
-351.5239999999995
 21
38.91706203619583
 31
0.0
  0
LINE
  5
2EA
330
41B
100
AcDbEntity
  8
DATA
  6
Continuous
 62
     7
100
AcDbLine
 10
-346.4439999999994
 20
36.12306203619596
 30
0.0
 11
-348.2219999999998
 21
33.32906203619609
 31
0.0
  0
ARC
  5
2EB
330
41B
100
AcDbEntity
  8
DATA
  6
Continuous
 62
     7
100
AcDbCircle
 10
-178.2150000000001
 20
93.77999999999973
 30
0.0
 40
5.0
100
AcDbArc
 50
0.0
 51
90.0
  0
CIRCLE
  5
2EC
330
41B
100
AcDbEntity
  8
DATA
  6
Continuous
 62
     7
100
AcDbCircle
 10
-214.0
 20
-185.2200000000002
 30
0.0
 40
11.17600000000038
  0
LINE
  5
2ED
330
41B
100
AcDbEntity
  8
DATA
  6
Continuous
 62
     7
100
AcDbLine
 10
-212.2220000000016
 20
-182.4260000000004
 30
0.0
 11
-210.4440000000013
 21
-185.2200000000002
 31
0.0
  0
LINE
  5
2EE
330
41B
100
AcDbEntity
  8
DATA
  6
Continuous
 62
     7
100
AcDbLine
 10
-215.5240000000012
 20
-188.014
 30
0.0
 11
-217.3019999999997
 21
-185.2200000000002
 31
0.0
  0
LINE
  5
2EF
330
41B
100
AcDbEntity
  8
DATA
  6
Continuous
 62
     7
100
AcDbLine
 10
-215.5240000000012
 20
-182.4260000000004
 30
0.0
 11
-212.2220000000016
 21
-182.4260000000004
 31
0.0
  0
LINE
  5
2F0
330
41B
100
AcDbEntity
  8
DATA
  6
Continuous
 62
     7
100
AcDbLine
 10
-212.2220000000016
 20
-188.014
 30
0.0
 11
-215.5240000000012
 21
-188.014
 31
0.0
  0
LINE
  5
2F1
330
41B
100
AcDbEntity
  8
DATA
  6
Continuous
 62
     7
100
AcDbLine
 10
-217.3019999999997
 20
-185.2200000000002
 30
0.0
 11
-215.5240000000012
 21
-182.4260000000004
 31
0.0
  0
LINE
  5
2F2
330
41B
100
AcDbEntity
  8
DATA
  6
Continuous
 62
     7
100
AcDbLine
 10
-210.4440000000013
 20
-185.2200000000002
 30
0.0
 11
-212.2220000000016
 21
-188.014
 31
0.0
  0
CIRCLE
  5
2F3
330
41B
100
AcDbEntity
  8
DATA
  6
Continuous
 62
     7
100
AcDbCircle
 10
-486.0
 20
-185.2200000000002
 30
0.0
 40
11.17600000000038
  0
LINE
  5
2F4
330
41B
100
AcDbEntity
  8
DATA
  6
Continuous
 62
     7
100
AcDbLine
 10
-484.2220000000016
 20
-182.4260000000004
 30
0.0
 11
-482.4440000000012
 21
-185.2200000000002
 31
0.0
  0
LINE
  5
2F5
330
41B
100
AcDbEntity
  8
DATA
  6
Continuous
 62
     7
100
AcDbLine
 10
-487.5240000000012
 20
-188.014
 30
0.0
 11
-489.3019999999997
 21
-185.2200000000002
 31
0.0
  0
LINE
  5
2F6
330
41B
100
AcDbEntity
  8
DATA
  6
Continuous
 62
     7
100
AcDbLine
 10
-487.5240000000012
 20
-182.4260000000004
 30
0.0
 11
-484.2220000000016
 21
-182.4260000000004
 31
0.0
  0
LINE
  5
2F7
330
41B
100
AcDbEntity
  8
DATA
  6
Continuous
 62
     7
100
AcDbLine
 10
-484.2220000000016
 20
-188.014
 30
0.0
 11
-487.5240000000012
 21
-188.014
 31
0.0
  0
LINE
  5
2F8
330
41B
100
AcDbEntity
  8
DATA
  6
Continuous
 62
     7
100
AcDbLine
 10
-489.3019999999997
 20
-185.2200000000002
 30
0.0
 11
-487.5240000000012
 21
-182.4260000000004
 31
0.0
  0
LINE
  5
2F9
330
41B
100
AcDbEntity
  8
DATA
  6
Continuous
 62
     7
100
AcDbLine
 10
-482.4440000000012
 20
-185.2200000000002
 30
0.0
 11
-484.2220000000016
 21
-188.014
 31
0.0
  0
LINE
  5
2FA
330
41B
100
AcDbEntity
  8
DATA
  6
Continuous
 62
     7
100
AcDbLine
 10
-402.5
 20
-57.8915262163066
 30
0.0
 11
-402.5
 21
-90.99999999999978
 31
0.0
  0
LINE
  5
2FB
330
41B
100
AcDbEntity
  8
DATA
  6
Continuous
 62
     7
100
AcDbLine
 10
-392.5
 20
-100.9999999999998
 30
0.0
 11
-307.5
 21
-100.9999999999998
 31
0.0
  0
LINE
  5
2FC
330
41B
100
AcDbEntity
  8
DATA
  6
Continuous
 62
     7
100
AcDbLine
 10
-297.5
 20
-90.99999999999978
 30
0.0
 11
-297.5
 21
-57.8915262163066
 31
0.0
  0
LINE
  5
2FD
330
41B
100
AcDbEntity
  8
DATA
  6
Continuous
 62
     7
100
AcDbLine
 10
-353.5599532759188
 20
-32.35617267654085
 30
0.0
 11
-396.0599532759188
 21
-48.54664886701698
 31
0.0
  0
LINE
  5
2FE
330
41B
100
AcDbEntity
  8
DATA
  6
Continuous
 62
     7
100
AcDbLine
 10
-346.4400467240793
 20
-32.35617267654085
 30
0.0
 11
-303.9400467240794
 21
-48.54664886701698
 31
0.0
  0
ARC
  5
2FF
330
41B
100
AcDbEntity
  8
DATA
  6
Continuous
 62
     7
100
AcDbCircle
 10
-392.5
 20
-57.8915262163066
 30
0.0
 40
9.999999999999564
100
AcDbArc
 50
110.8544580395728
 51
180.0
  0
ARC
  5
300
330
41B
100
AcDbEntity
  8
DATA
  6
Continuous
 62
     7
100
AcDbCircle
 10
-392.5
 20
-90.99999999999978
 30
0.0
 40
10.0
100
AcDbArc
 50
180.0
 51
270.0
  0
ARC
  5
301
330
41B
100
AcDbEntity
  8
DATA
  6
Continuous
 62
     7
100
AcDbCircle
 10
-307.5
 20
-90.99999999999978
 30
0.0
 40
10.0
100
AcDbArc
 50
270.0
 51
0.0
  0
ARC
  5
302
330
41B
100
AcDbEntity
  8
DATA
  6
Continuous
 62
     7
100
AcDbCircle
 10
-307.5
 20
-57.8915262163066
 30
0.0
 40
10.0
100
AcDbArc
 50
0.0
 51
69.14554196041746
  0
ARC
  5
303
330
41B
100
AcDbEntity
  8
DATA
  6
Continuous
 62
     7
100
AcDbCircle
 10
-350.0
 20
-41.70105002583045
 30
0.0
 40
10.00000000000021
100
AcDbArc
 50
69.14554196041748
 51
110.8544580395728
  0
LINE
  5
304
330
41B
100
AcDbEntity
  8
DATA
  6
Continuous
 62
     7
100
AcDbLine
 10
-100.0
 20
-995.0
 30
0.0
 11
-100.0
 21
-981.4999999999999
 31
0.0
  0
LINE
  5
305
330
41B
100
AcDbEntity
  8
DATA
  6
Continuous
 62
     7
100
AcDbLine
 10
-100.0
 20
-444.46
 30
0.0
 11
-100.0
 21
-430.9599999999999
 31
0.0
  0
LINE
  5
306
330
41B
100
AcDbEntity
  8
DATA
  6
Continuous
 62
     7
100
AcDbLine
 10
293.7800000000006
 20
-1000.0
 30
0.0
 11
-95.0
 21
-1000.0
 31
0.0
  0
LINE
  5
307
330
41B
100
AcDbEntity
  8
DATA
  6
Continuous
 62
     7
100
AcDbLine
 10
298.7800000000006
 20
-430.9599999999999
 30
0.0
 11
298.7800000000006
 21
-995.0
 31
0.0
  0
LINE
  5
308
330
41B
100
AcDbEntity
  8
DATA
  6
Continuous
 62
     7
100
AcDbLine
 10
-95.0
 20
-425.9599999999999
 30
0.0
 11
293.7800000000006
 21
-425.9599999999999
 31
0.0
  0
LINE
  5
309
330
41B
100
AcDbEntity
  8
DATA
  6
Continuous
 62
     7
100
AcDbLine
 10
-55.98611625133708
 20
-425.9599999999999
 30
0.0
 11
-55.98611625133708
 21
-1000.0
 31
0.0
  0
CIRCLE
  5
30A
330
41B
100
AcDbEntity
  8
DATA
  6
Continuous
 62
     7
100
AcDbCircle
 10
14.78000000000065
 20
-469.46
 30
0.0
 40
11.17600000000038
  0
LINE
  5
30B
330
41B
100
AcDbEntity
  8
DATA
  6
Continuous
 62
     7
100
AcDbLine
 10
16.5580000000009
 20
-466.6660000000002
 30
0.0
 11
18.33600000000115
 21
-469.46
 31
0.0
  0
LINE
  5
30C
330
41B
100
AcDbEntity
  8
DATA
  6
Continuous
 62
     7
100
AcDbLine
 10
13.25600000000122
 20
-472.2539999999999
 30
0.0
 11
11.47800000000097
 21
-469.46
 31
0.0
  0
LINE
  5
30D
330
41B
100
AcDbEntity
  8
DATA
  6
Continuous
 62
     7
100
AcDbLine
 10
13.25600000000122
 20
-466.6660000000002
 30
0.0
 11
16.5580000000009
 21
-466.6660000000002
 31
0.0
  0
LINE
  5
30E
330
41B
100
AcDbEntity
  8
DATA
  6
Continuous
 62
     7
100
AcDbLine
 10
16.5580000000009
 20
-472.2539999999999
 30
0.0
 11
13.25600000000122
 21
-472.2539999999999
 31
0.0
  0
LINE
  5
30F
330
41B
100
AcDbEntity
  8
DATA
  6
Continuous
 62
     7
100
AcDbLine
 10
11.47800000000097
 20
-469.46
 30
0.0
 11
13.25600000000122
 21
-466.6660000000002
 31
0.0
  0
LINE
  5
310
330
41B
100
AcDbEntity
  8
DATA
  6
Continuous
 62
     7
100
AcDbLine
 10
18.33600000000115
 20
-469.46
 30
0.0
 11
16.5580000000009
 21
-472.2539999999999
 31
0.0
  0
CIRCLE
  5
311
330
41B
100
AcDbEntity
  8
DATA
  6
Continuous
 62
     7
100
AcDbCircle
 10
14.78000000000065
 20
-956.4999999999999
 30
0.0
 40
11.17600000000038
  0
LINE
  5
312
330
41B
100
AcDbEntity
  8
DATA
  6
Continuous
 62
     7
100
AcDbLine
 10
16.5580000000009
 20
-959.294
 30
0.0
 11
18.33600000000115
 21
-956.4999999999999
 31
0.0
  0
LINE
  5
313
330
41B
100
AcDbEntity
  8
DATA
  6
Continuous
 62
     7
100
AcDbLine
 10
13.25600000000122
 20
-953.7060000000002
 30
0.0
 11
11.47800000000097
 21
-956.4999999999999
 31
0.0
  0
LINE
  5
314
330
41B
100
AcDbEntity
  8
DATA
  6
Continuous
 62
     7
100
AcDbLine
 10
13.25600000000122
 20
-959.294
 30
0.0
 11
16.5580000000009
 21
-959.294
 31
0.0
  0
LINE
  5
315
330
41B
100
AcDbEntity
  8
DATA
  6
Continuous
 62
     7
100
AcDbLine
 10
16.5580000000009
 20
-953.7060000000002
 30
0.0
 11
13.25600000000122
 21
-953.7060000000002
 31
0.0
  0
LINE
  5
316
330
41B
100
AcDbEntity
  8
DATA
  6
Continuous
 62
     7
100
AcDbLine
 10
11.47800000000097
 20
-956.4999999999999
 30
0.0
 11
13.25600000000122
 21
-959.294
 31
0.0
  0
LINE
  5
317
330
41B
100
AcDbEntity
  8
DATA
  6
Continuous
 62
     7
100
AcDbLine
 10
18.33600000000115
 20
-956.4999999999999
 30
0.0
 11
16.5580000000009
 21
-953.7060000000002
 31
0.0
  0
ARC
  5
318
330
41B
100
AcDbEntity
  8
DATA
  6
Continuous
 62
     7
100
AcDbCircle
 10
-95.0
 20
-995.0
 30
0.0
 40
5.0
100
AcDbArc
 50
180.0
 51
270.0
  0
ARC
  5
319
330
41B
100
AcDbEntity
  8
DATA
  6
Continuous
 62
     7
100
AcDbCircle
 10
-95.0
 20
-430.9599999999999
 30
0.0
 40
5.0
100
AcDbArc
 50
90.0
 51
180.0
  0
ARC
  5
31A
330
41B
100
AcDbEntity
  8
DATA
  6
Continuous
 62
     7
100
AcDbCircle
 10
293.7800000000006
 20
-430.9599999999999
 30
0.0
 40
5.0
100
AcDbArc
 50
0.0
 51
90.0
  0
ARC
  5
31B
330
41B
100
AcDbEntity
  8
DATA
  6
Continuous
 62
     7
100
AcDbCircle
 10
293.7800000000006
 20
-995.0
 30
0.0
 40
5.0
100
AcDbArc
 50
270.0
 51
0.0
  0
LINE
  5
31C
330
41B
100
AcDbEntity
  8
DATA
  6
Continuous
 62
     7
100
AcDbLine
 10
-100.0
 20
-444.46
 30
0.0
 11
-43.21999999999935
 21
-444.46
 31
0.0
  0
LINE
  5
31D
330
41B
100
AcDbEntity
  8
DATA
  6
Continuous
 62
     7
100
AcDbLine
 10
-100.0
 20
-981.4999999999999
 30
0.0
 11
-43.21999999999935
 21
-981.4999999999999
 31
0.0
  0
LINE
  5
31E
330
41B
100
AcDbEntity
  8
DATA
  6
Continuous
 62
     7
100
AcDbLine
 10
-97.5
 20
-981.4999999999999
 30
0.0
 11
-97.5
 21
-444.46
 31
0.0
  0
CIRCLE
  5
31F
330
41B
100
AcDbEntity
  8
DATA
  6
Continuous
 62
     7
100
AcDbCircle
 10
-48.71999999999935
 20
-455.9599999999999
 30
0.0
 40
3.0
  0
LINE
  5
320
330
41B
100
AcDbEntity
  8
DATA
  6
Continuous
 62
     7
100
AcDbLine
 10
-43.21999999999935
 20
-444.46
 30
0.0
 11
-43.21999999999935
 21
-981.4999999999999
 31
0.0
  0
LINE
  5
321
330
41B
100
AcDbEntity
  8
DATA
  6
Continuous
 62
     7
100
AcDbLine
 10
-49.96999999999935
 20
-455.9599999999999
 30
0.0
 11
-47.46999999999935
 21
-455.9599999999999
 31
0.0
  0
LINE
  5
322
330
41B
100
AcDbEntity
  8
DATA
  6
Continuous
 62
     7
100
AcDbLine
 10
-48.71999999999935
 20
-457.2099999999999
 30
0.0
 11
-48.71999999999935
 21
-454.7099999999999
 31
0.0
  0
CIRCLE
  5
323
330
41B
100
AcDbEntity
  8
DATA
  6
Continuous
 62
     7
100
AcDbCircle
 10
-48.71999999999935
 20
-970.0
 30
0.0
 40
3.0
  0
LINE
  5
324
330
41B
100
AcDbEntity
  8
DATA
  6
Continuous
 62
     7
100
AcDbLine
 10
-49.96999999999935
 20
-970.0
 30
0.0
 11
-47.46999999999935
 21
-970.0
 31
0.0
  0
LINE
  5
325
330
41B
100
AcDbEntity
  8
DATA
  6
Continuous
 62
     7
100
AcDbLine
 10
-48.71999999999935
 20
-968.75
 30
0.0
 11
-48.71999999999935
 21
-971.25
 31
0.0
  0
CIRCLE
  5
326
330
41B
100
AcDbEntity
  8
DATA
  6
Continuous
 62
     7
100
AcDbCircle
 10
-48.71999999999935
 20
-712.98
 30
0.0
 40
3.0
  0
LINE
  5
327
330
41B
100
AcDbEntity
  8
DATA
  6
Continuous
 62
     7
100
AcDbLine
 10
-49.96999999999935
 20
-712.98
 30
0.0
 11
-47.46999999999935
 21
-712.98
 31
0.0
  0
LINE
  5
328
330
41B
100
AcDbEntity
  8
DATA
  6
Continuous
 62
     7
100
AcDbLine
 10
-48.71999999999935
 20
-711.73
 30
0.0
 11
-48.71999999999935
 21
-714.23
 31
0.0
  0
LINE
  5
329
330
41B
100
AcDbEntity
  8
DATA
  6
Continuous
 62
     7
100
AcDbLine
 10
-526.785
 20
-1202.674137786507
 30
0.0
 11
-526.785
 21
-1422.507722625536
 31
0.0
  0
LINE
  5
32A
330
41B
100
AcDbEntity
  8
DATA
  6
Continuous
 62
     7
100
AcDbLine
 10
-319.055762113534
 20
-1548.779999999999
 30
0.0
 11
-178.2150000000001
 21
-1548.779999999999
 31
0.0
  0
LINE
  5
32B
330
41B
100
AcDbEntity
  8
DATA
  6
Continuous
 62
     7
100
AcDbLine
 10
-173.2150000000001
 20
-1543.779999999999
 30
0.0
 11
-173.2150000000001
 21
-1202.674137786507
 31
0.0
  0
LINE
  5
32C
330
41B
100
AcDbEntity
  8
DATA
  6
Continuous
 62
     7
100
AcDbLine
 10
-235.237948715434
 20
-1158.204917611872
 30
0.0
 11
-180.7150000000001
 21
-1189.68375672974
 31
0.0
  0
ARC
  5
32D
330
41B
100
AcDbEntity
  8
DATA
  6
Continuous
 62
     7
100
AcDbCircle
 10
-350.0
 20
-2254.290469962001
 30
0.0
 40
1104.290469962001
100
AcDbArc
 50
84.56310747254258
 51
95.43689252745755
  0
LINE
  5
32E
330
41B
100
AcDbEntity
  8
DATA
  6
Continuous
 62
     7
100
AcDbLine
 10
-464.762051284566
 20
-1158.204917611872
 30
0.0
 11
-519.2849999999999
 21
-1189.68375672974
 31
0.0
  0
LINE
  5
32F
330
41B
100
AcDbEntity
  8
DATA
  6
Continuous
 62
     7
100
AcDbLine
 10
-519.2849999999999
 20
-1435.498103682303
 30
0.0
 11
-326.555762113534
 21
-1546.770381056766
 31
0.0
  0
ARC
  5
330
330
41B
100
AcDbEntity
  8
DATA
  6
Continuous
 62
     7
100
AcDbCircle
 10
-188.2150000000001
 20
-1202.674137786507
 30
0.0
 40
15.0
100
AcDbArc
 50
0.0
 51
60.0000000000001
  0
ARC
  5
331
330
41B
100
AcDbEntity
  8
DATA
  6
Continuous
 62
     7
100
AcDbCircle
 10
-511.7849999999998
 20
-1202.674137786507
 30
0.0
 40
15.00000000000005
100
AcDbArc
 50
119.9999999999998
 51
180.0
  0
ARC
  5
332
330
41B
100
AcDbEntity
  8
DATA
  6
Continuous
 62
     7
100
AcDbCircle
 10
-511.7849999999998
 20
-1422.507722625536
 30
0.0
 40
15.0
100
AcDbArc
 50
180.0
 51
240.0000000000001
  0
ARC
  5
333
330
41B
100
AcDbEntity
  8
DATA
  6
Continuous
 62
     7
100
AcDbCircle
 10
-319.055762113534
 20
-1533.779999999999
 30
0.0
 40
15.00000000000005
100
AcDbArc
 50
240.0000000000001
 51
270.0
  0
ARC
  5
334
330
41B
100
AcDbEntity
  8
DATA
  6
Continuous
 62
     7
100
AcDbCircle
 10
-452.2620512845679
 20
-1179.855552706482
 30
0.0
 40
24.99999999999882
100
AcDbArc
 50
95.4368925274565
 51
119.9999999999973
  0
ARC
  5
335
330
41B
100
AcDbEntity
  8
DATA
  6
Continuous
 62
     7
100
AcDbCircle
 10
-247.737948715434
 20
-1179.855552706484
 30
0.0
 40
25.00000000000087
100
AcDbArc
 50
60.00000000000114
 51
84.5631074725439
  0
LINE
  5
336
330
41B
100
AcDbEntity
  8
DATA
  6
Continuous
 62
     7
100
AcDbLine
 10
-198.7150000000001
 20
-1536.779999999999
 30
0.0
 11
-198.7150000000001
 21
-1491.779999999999
 31
0.0
  0
ARC
  5
337
330
41B
100
AcDbEntity
  8
DATA
  6
Continuous
 62
     7
100
AcDbCircle
 10
-192.2150000000001
 20
-1491.779999999999
 30
0.0
 40
6.5
100
AcDbArc
 50
0.0
 51
180.0
  0
ARC
  5
338
330
41B
100
AcDbEntity
  8
DATA
  6
Continuous
 62
     7
100
AcDbCircle
 10
-192.2150000000001
 20
-1536.779999999999
 30
0.0
 40
6.5
100
AcDbArc
 50
180.0
 51
0.0
  0
LINE
  5
339
330
41B
100
AcDbEntity
  8
DATA
  6
Continuous
 62
     7
100
AcDbLine
 10
-185.7150000000001
 20
-1536.779999999999
 30
0.0
 11
-185.7150000000001
 21
-1491.779999999999
 31
0.0
  0
LINE
  5
33A
330
41B
100
AcDbEntity
  8
DATA
  6
Continuous
 62
     7
100
AcDbLine
 10
-201.740902772568
 20
-1208.144010371094
 30
0.0
 11
-240.7120459428679
 21
-1185.644010371094
 31
0.0
  0
ARC
  5
33B
330
41B
100
AcDbEntity
  8
DATA
  6
Continuous
 62
     7
100
AcDbCircle
 10
-237.4620459428679
 20
-1180.014845246495
 30
0.0
 40
6.500000000000336
100
AcDbArc
 50
60.0000000000017
 51
239.9999999999997
  0
ARC
  5
33C
330
41B
100
AcDbEntity
  8
DATA
  6
Continuous
 62
     7
100
AcDbCircle
 10
-198.490902772568
 20
-1202.514845246495
 30
0.0
 40
6.499999999999942
100
AcDbArc
 50
239.9999999999997
 51
59.99999999999973
  0
LINE
  5
33D
330
41B
100
AcDbEntity
  8
DATA
  6
Continuous
 62
     7
100
AcDbLine
 10
-195.240902772568
 20
-1196.885680121896
 30
0.0
 11
-234.2120459428679
 21
-1174.385680121896
 31
0.0
  0
LINE
  5
33E
330
41B
100
AcDbEntity
  8
DATA
  6
Continuous
 62
     7
100
AcDbLine
 10
-498.2590972274319
 20
-1208.144010371094
 30
0.0
 11
-459.287954057132
 21
-1185.644010371094
 31
0.0
  0
ARC
  5
33F
330
41B
100
AcDbEntity
  8
DATA
  6
Continuous
 62
     7
100
AcDbCircle
 10
-462.537954057132
 20
-1180.014845246495
 30
0.0
 40
6.499999999999942
100
AcDbArc
 50
300.0000000000003
 51
119.9999999999983
  0
ARC
  5
340
330
41B
100
AcDbEntity
  8
DATA
  6
Continuous
 62
     7
100
AcDbCircle
 10
-501.509097227432
 20
-1202.514845246495
 30
0.0
 40
6.499999999999942
100
AcDbArc
 50
120.0000000000003
 51
300.0000000000003
  0
LINE
  5
341
330
41B
100
AcDbEntity
  8
DATA
  6
Continuous
 62
     7
100
AcDbLine
 10
-504.759097227432
 20
-1196.885680121896
 30
0.0
 11
-465.787954057132
 21
-1174.385680121896
 31
0.0
  0
LINE
  5
342
330
41B
100
AcDbEntity
  8
DATA
  6
Continuous
 62
     7
100
AcDbLine
 10
-410.5497737193763
 20
-1483.842659116075
 30
0.0
 11
-449.5209168896763
 21
-1461.342659116075
 31
0.0
  0
ARC
  5
343
330
41B
100
AcDbEntity
  8
DATA
  6
Continuous
 62
     7
100
AcDbCircle
 10
-446.2709168896763
 20
-1455.713493991476
 30
0.0
 40
6.499999999999942
100
AcDbArc
 50
59.99999999999973
 51
239.9999999999997
  0
ARC
  5
344
330
41B
100
AcDbEntity
  8
DATA
  6
Continuous
 62
     7
100
AcDbCircle
 10
-407.2997737193763
 20
-1478.213493991476
 30
0.0
 40
6.499999999999942
100
AcDbArc
 50
239.9999999999997
 51
59.99999999999973
  0
LINE
  5
345
330
41B
100
AcDbEntity
  8
DATA
  6
Continuous
 62
     7
100
AcDbLine
 10
-404.0497737193764
 20
-1472.584328866877
 30
0.0
 11
-443.0209168896762
 21
-1450.084328866877
 31
0.0
  0
ARC
  5
346
330
41B
100
AcDbEntity
  8
DATA
  6
Continuous
 62
     7
100
AcDbCircle
 10
-178.2150000000001
 20
-1543.779999999999
 30
0.0
 40
5.0
100
AcDbArc
 50
270.0
 51
0.0
  0
CIRCLE
  5
347
330
41B
100
AcDbEntity
  8
DATA
  6
Continuous
 62
     7
100
AcDbCircle
 10
-214.0000000000018
 20
-1264.779999999999
 30
0.0
 40
11.17600000000038
  0
LINE
  5
348
330
41B
100
AcDbEntity
  8
DATA
  6
Continuous
 62
     7
100
AcDbLine
 10
-212.2220000000016
 20
-1267.573999999999
 30
0.0
 11
-210.4440000000013
 21
-1264.779999999999
 31
0.0
  0
LINE
  5
349
330
41B
100
AcDbEntity
  8
DATA
  6
Continuous
 62
     7
100
AcDbLine
 10
-215.5240000000012
 20
-1261.986
 30
0.0
 11
-217.3020000000015
 21
-1264.779999999999
 31
0.0
  0
LINE
  5
34A
330
41B
100
AcDbEntity
  8
DATA
  6
Continuous
 62
     7
100
AcDbLine
 10
-215.5240000000012
 20
-1267.573999999999
 30
0.0
 11
-212.2220000000016
 21
-1267.573999999999
 31
0.0
  0
LINE
  5
34B
330
41B
100
AcDbEntity
  8
DATA
  6
Continuous
 62
     7
100
AcDbLine
 10
-212.2220000000016
 20
-1261.986
 30
0.0
 11
-215.5240000000012
 21
-1261.986
 31
0.0
  0
LINE
  5
34C
330
41B
100
AcDbEntity
  8
DATA
  6
Continuous
 62
     7
100
AcDbLine
 10
-217.3020000000015
 20
-1264.779999999999
 30
0.0
 11
-215.5240000000012
 21
-1267.573999999999
 31
0.0
  0
LINE
  5
34D
330
41B
100
AcDbEntity
  8
DATA
  6
Continuous
 62
     7
100
AcDbLine
 10
-210.4440000000013
 20
-1264.779999999999
 30
0.0
 11
-212.2220000000016
 21
-1261.986
 31
0.0
  0
CIRCLE
  5
34E
330
41B
100
AcDbEntity
  8
DATA
  6
Continuous
 62
     7
100
AcDbCircle
 10
-486.0000000000018
 20
-1264.779999999999
 30
0.0
 40
11.17600000000038
  0
LINE
  5
34F
330
41B
100
AcDbEntity
  8
DATA
  6
Continuous
 62
     7
100
AcDbLine
 10
-484.2220000000016
 20
-1267.573999999999
 30
0.0
 11
-482.4440000000012
 21
-1264.779999999999
 31
0.0
  0
LINE
  5
350
330
41B
100
AcDbEntity
  8
DATA
  6
Continuous
 62
     7
100
AcDbLine
 10
-487.5240000000012
 20
-1261.986
 30
0.0
 11
-489.3020000000015
 21
-1264.779999999999
 31
0.0
  0
LINE
  5
351
330
41B
100
AcDbEntity
  8
DATA
  6
Continuous
 62
     7
100
AcDbLine
 10
-487.5240000000012
 20
-1267.573999999999
 30
0.0
 11
-484.2220000000016
 21
-1267.573999999999
 31
0.0
  0
LINE
  5
352
330
41B
100
AcDbEntity
  8
DATA
  6
Continuous
 62
     7
100
AcDbLine
 10
-484.2220000000016
 20
-1261.986
 30
0.0
 11
-487.5240000000012
 21
-1261.986
 31
0.0
  0
LINE
  5
353
330
41B
100
AcDbEntity
  8
DATA
  6
Continuous
 62
     7
100
AcDbLine
 10
-489.3020000000015
 20
-1264.779999999999
 30
0.0
 11
-487.5240000000012
 21
-1267.573999999999
 31
0.0
  0
LINE
  5
354
330
41B
100
AcDbEntity
  8
DATA
  6
Continuous
 62
     7
100
AcDbLine
 10
-482.4440000000012
 20
-1264.779999999999
 30
0.0
 11
-484.2220000000016
 21
-1261.986
 31
0.0
  0
CIRCLE
  5
355
330
41B
100
AcDbEntity
  8
DATA
  6
Continuous
 62
     7
100
AcDbCircle
 10
-350.0
 20
-1486.123062036196
 30
0.0
 40
11.17600000000038
  0
LINE
  5
356
330
41B
100
AcDbEntity
  8
DATA
  6
Continuous
 62
     7
100
AcDbLine
 10
-348.2220000000016
 20
-1488.917062036195
 30
0.0
 11
-346.4440000000012
 21
-1486.123062036196
 31
0.0
  0
LINE
  5
357
330
41B
100
AcDbEntity
  8
DATA
  6
Continuous
 62
     7
100
AcDbLine
 10
-351.5240000000012
 20
-1483.329062036196
 30
0.0
 11
-353.3019999999997
 21
-1486.123062036196
 31
0.0
  0
LINE
  5
358
330
41B
100
AcDbEntity
  8
DATA
  6
Continuous
 62
     7
100
AcDbLine
 10
-351.5240000000012
 20
-1488.917062036195
 30
0.0
 11
-348.2220000000016
 21
-1488.917062036195
 31
0.0
  0
LINE
  5
359
330
41B
100
AcDbEntity
  8
DATA
  6
Continuous
 62
     7
100
AcDbLine
 10
-348.2220000000016
 20
-1483.329062036196
 30
0.0
 11
-351.5240000000012
 21
-1483.329062036196
 31
0.0
  0
LINE
  5
35A
330
41B
100
AcDbEntity
  8
DATA
  6
Continuous
 62
     7
100
AcDbLine
 10
-353.3019999999997
 20
-1486.123062036196
 30
0.0
 11
-351.5240000000012
 21
-1488.917062036195
 31
0.0
  0
LINE
  5
35B
330
41B
100
AcDbEntity
  8
DATA
  6
Continuous
 62
     7
100
AcDbLine
 10
-346.4440000000012
 20
-1486.123062036196
 30
0.0
 11
-348.2220000000016
 21
-1483.329062036196
 31
0.0
  0
LWPOLYLINE
  5
35C
330
41B
100
AcDbEntity
  8
DATA
  6
Continuous
 62
     7
100
AcDbPolyline
 90
        4
 70
     1
 43
0.0
 10
617.4999999999999
 20
705.4999999999998
 10
1282.5
 20
705.4999999999998
 10
1282.5
 20
-309.5
 10
617.4999999999999
 20
-309.5
  0
CIRCLE
  5
363
330
41B
100
AcDbEntity
  8
DATA
  6
Continuous
 62
     7
100
AcDbCircle
 10
950.0
 20
471.0
 30
0.0
 40
82.24999999999999
  0
CIRCLE
  5
364
330
41B
100
AcDbEntity
  8
DATA
  6
Continuous
 62
     7
100
AcDbCircle
 10
866.0
 20
404.4999999999999
 30
0.0
 40
14.0
  0
CIRCLE
  5
365
330
41B
100
AcDbEntity
  8
DATA
  6
Continuous
 62
     7
100
AcDbCircle
 10
1034.0
 20
537.5
 30
0.0
 40
14.0
  0
LINE
  5
366
330
41B
100
AcDbEntity
  8
DATA
  6
Continuous
 62
     7
100
AcDbLine
 10
1020.0
 20
492.0
 30
0.0
 11
1020.0
 21
450.0
 31
0.0
  0
LINE
  5
367
330
41B
100
AcDbEntity
  8
DATA
  6
Continuous
 62
     7
100
AcDbLine
 10
880.0
 20
485.0
 30
0.0
 11
880.0
 21
457.0
 31
0.0
  0
LINE
  5
368
330
41B
100
AcDbEntity
  8
DATA
  6
Continuous
 62
     7
100
AcDbLine
 10
880.0
 20
485.0
 30
0.0
 11
888.3999999999998
 21
485.0
 31
0.0
  0
LINE
  5
369
330
41B
100
AcDbEntity
  8
DATA
  6
Continuous
 62
     7
100
AcDbLine
 10
880.0
 20
457.0
 30
0.0
 11
888.3999999999998
 21
457.0
 31
0.0
  0
LINE
  5
36A
330
41B
100
AcDbEntity
  8
DATA
  6
Continuous
 62
     7
100
AcDbLine
 10
1020.0
 20
492.0
 30
0.0
 11
1007.909949999995
 21
492.0
 31
0.0
  0
LINE
  5
36B
330
41B
100
AcDbEntity
  8
DATA
  6
Continuous
 62
     7
100
AcDbLine
 10
1020.0
 20
450.0
 30
0.0
 11
1007.909949999995
 21
450.0
 31
0.0
  0
ARC
  5
36C
330
41B
100
AcDbEntity
  8
DATA
  6
Continuous
 62
     7
100
AcDbCircle
 10
950.0
 20
471.0
 30
0.0
 40
61.60001874189648
100
AcDbArc
 50
19.93226415068033
 51
167.1961668197003
  0
ARC
  5
36D
330
41B
100
AcDbEntity
  8
DATA
  6
Continuous
 62
     7
100
AcDbCircle
 10
950.0
 20
471.0
 30
0.0
 40
61.60002453042527
100
AcDbArc
 50
192.9999995554204
 51
339.9999942379628
  0
ARC
  5
36E
330
41B
100
AcDbEntity
  8
DATA
  6
Continuous
 62
     7
100
AcDbCircle
 10
950.0
 20
471.0
 30
0.0
 40
43.40001513444754
100
AcDbArc
 50
330.0000115355607
 51
60.00001153556627
  0
LINE
  5
36F
330
41B
100
AcDbEntity
  8
DATA
  6
Continuous
 62
     7
100
AcDbLine
 10
971.7002099999971
 20
508.5853799999994
 30
0.0
 11
969.6877099999948
 21
505.0996600000003
 31
0.0
  0
LINE
  5
370
330
41B
100
AcDbEntity
  8
DATA
  6
Continuous
 62
     7
100
AcDbLine
 10
987.5856600000005
 20
449.3002099999999
 30
0.0
 11
984.0998699999984
 21
451.312710000001
 31
0.0
  0
ARC
  5
371
330
41B
100
AcDbEntity
  8
DATA
  6
Continuous
 62
     7
100
AcDbCircle
 10
950.0
 20
471.0
 30
0.0
 40
43.40001513445296
100
AcDbArc
 50
150.0000115355627
 51
240.0000115355574
  0
LINE
  5
372
330
41B
100
AcDbEntity
  8
DATA
  6
Continuous
 62
     7
100
AcDbLine
 10
912.4144799999958
 20
492.7000000000007
 30
0.0
 11
915.9002699999982
 21
490.6875
 31
0.0
  0
LINE
  5
373
330
41B
100
AcDbEntity
  8
DATA
  6
Continuous
 62
     7
100
AcDbLine
 10
928.3001400000015
 20
433.4144100000008
 30
0.0
 11
930.3126399999964
 21
436.9002
 31
0.0
  0
ARC
  5
374
330
41B
100
AcDbEntity
  8
DATA
  6
Continuous
 62
     7
100
AcDbCircle
 10
950.0
 20
471.0
 30
0.0
 40
39.37502682106404
100
AcDbArc
 50
59.99966968210938
 51
150.0002126043059
  0
ARC
  5
375
330
41B
100
AcDbEntity
  8
DATA
  6
Continuous
 62
     7
100
AcDbCircle
 10
950.0
 20
471.0
 30
0.0
 40
39.3749730642414
100
AcDbArc
 50
240.0002126042983
 51
330.0007182431235
  0
ARC
  5
376
330
41B
100
AcDbEntity
  8
DATA
  6
Continuous
 62
     7
100
AcDbCircle
 10
950.0
 20
471.0
 30
0.0
 40
25.19993056612277
100
AcDbArc
 50
329.9999088547005
 51
59.9999088547139
  0
ARC
  5
377
330
41B
100
AcDbEntity
  8
DATA
  6
Continuous
 62
     7
100
AcDbCircle
 10
950.0
 20
471.0
 30
0.0
 40
25.19993056612727
100
AcDbArc
 50
149.9999088547076
 51
239.9999088547017
  0
LINE
  5
378
330
41B
100
AcDbEntity
  8
DATA
  6
Continuous
 62
     7
100
AcDbLine
 10
971.8238300000011
 20
458.4001399999997
 30
0.0
 11
967.5803599999943
 21
460.8500700000008
 31
0.0
  0
LINE
  5
379
330
41B
100
AcDbEntity
  8
DATA
  6
Continuous
 62
     7
100
AcDbLine
 10
962.6000700000004
 20
492.8236900000006
 30
0.0
 11
960.1500699999977
 21
488.5802900000008
 31
0.0
  0
LINE
  5
37A
330
41B
100
AcDbEntity
  8
DATA
  6
Continuous
 62
     7
100
AcDbLine
 10
928.1762399999987
 20
483.5999999999994
 30
0.0
 11
932.4197099999983
 21
481.1500000000001
 31
0.0
  0
LINE
  5
37B
330
41B
100
AcDbEntity
  8
DATA
  6
Continuous
 62
     7
100
AcDbLine
 10
937.400139999996
 20
449.1761699999996
 30
0.0
 11
939.8500700000003
 21
453.4196400000005
 31
0.0
  0
ARC
  5
37C
330
41B
100
AcDbEntity
  8
DATA
  6
Continuous
 62
     7
100
AcDbCircle
 10
950.0
 20
471.0
 30
0.0
 40
20.3000127460301
100
AcDbArc
 50
59.99979263403676
 51
150.0002336238322
  0
ARC
  5
37D
330
41B
100
AcDbEntity
  8
DATA
  6
Continuous
 62
     7
100
AcDbCircle
 10
950.0
 20
471.0
 30
0.0
 40
20.30000336784389
100
AcDbArc
 50
240.0002336238304
 51
329.9997926340272
  0
LINE
  5
37E
330
41B
100
AcDbEntity
  8
DATA
  6
Continuous
 62
     7
100
AcDbLine
 10
873.0
 20
404.4999999999999
 30
0.0
 11
859.0
 21
404.4999999999999
 31
0.0
  0
LINE
  5
37F
330
41B
100
AcDbEntity
  8
DATA
  6
Continuous
 62
     7
100
AcDbLine
 10
866.0
 20
411.5
 30
0.0
 11
866.0
 21
397.5
 31
0.0
  0
LINE
  5
380
330
41B
100
AcDbEntity
  8
DATA
  6
Continuous
 62
     7
100
AcDbLine
 10
1041.0
 20
537.5
 30
0.0
 11
1027.0
 21
537.5
 31
0.0
  0
LINE
  5
381
330
41B
100
AcDbEntity
  8
DATA
  6
Continuous
 62
     7
100
AcDbLine
 10
1034.0
 20
544.4999999999999
 30
0.0
 11
1034.0
 21
530.4999999999999
 31
0.0
  0
CIRCLE
  5
382
330
41B
100
AcDbEntity
  8
DATA
  6
Continuous
 62
     7
100
AcDbCircle
 10
950.0
 20
-75.0
 30
0.0
 40
82.24999999999999
  0
CIRCLE
  5
383
330
41B
100
AcDbEntity
  8
DATA
  6
Continuous
 62
     7
100
AcDbCircle
 10
866.0
 20
-141.5
 30
0.0
 40
14.0
  0
CIRCLE
  5
384
330
41B
100
AcDbEntity
  8
DATA
  6
Continuous
 62
     7
100
AcDbCircle
 10
1034.0
 20
-8.5
 30
0.0
 40
14.0
  0
LINE
  5
385
330
41B
100
AcDbEntity
  8
DATA
  6
Continuous
 62
     7
100
AcDbLine
 10
1020.0
 20
-54.0
 30
0.0
 11
1020.0
 21
-96.0
 31
0.0
  0
LINE
  5
386
330
41B
100
AcDbEntity
  8
DATA
  6
Continuous
 62
     7
100
AcDbLine
 10
880.0
 20
-61.0
 30
0.0
 11
880.0
 21
-89.0
 31
0.0
  0
LINE
  5
387
330
41B
100
AcDbEntity
  8
DATA
  6
Continuous
 62
     7
100
AcDbLine
 10
880.0
 20
-61.0
 30
0.0
 11
888.3999999999998
 21
-61.0
 31
0.0
  0
LINE
  5
388
330
41B
100
AcDbEntity
  8
DATA
  6
Continuous
 62
     7
100
AcDbLine
 10
880.0
 20
-89.0
 30
0.0
 11
888.3999999999998
 21
-89.0
 31
0.0
  0
LINE
  5
389
330
41B
100
AcDbEntity
  8
DATA
  6
Continuous
 62
     7
100
AcDbLine
 10
1020.0
 20
-54.0
 30
0.0
 11
1007.909949999995
 21
-54.0
 31
0.0
  0
LINE
  5
38A
330
41B
100
AcDbEntity
  8
DATA
  6
Continuous
 62
     7
100
AcDbLine
 10
1020.0
 20
-96.0
 30
0.0
 11
1007.909949999995
 21
-96.0
 31
0.0
  0
ARC
  5
38B
330
41B
100
AcDbEntity
  8
DATA
  6
Continuous
 62
     7
100
AcDbCircle
 10
950.0
 20
-75.0
 30
0.0
 40
61.60001874189648
100
AcDbArc
 50
19.93226415068033
 51
167.1961668197003
  0
ARC
  5
38C
330
41B
100
AcDbEntity
  8
DATA
  6
Continuous
 62
     7
100
AcDbCircle
 10
950.0
 20
-75.0
 30
0.0
 40
61.60002453042527
100
AcDbArc
 50
192.9999995554204
 51
339.9999942379628
  0
ARC
  5
38D
330
41B
100
AcDbEntity
  8
DATA
  6
Continuous
 62
     7
100
AcDbCircle
 10
950.0
 20
-75.0
 30
0.0
 40
43.40001513444754
100
AcDbArc
 50
330.0000115355607
 51
60.00001153556616
  0
LINE
  5
38E
330
41B
100
AcDbEntity
  8
DATA
  6
Continuous
 62
     7
100
AcDbLine
 10
971.7002099999971
 20
-37.41462000000047
 30
0.0
 11
969.6877099999948
 21
-40.90033999999969
 31
0.0
  0
LINE
  5
38F
330
41B
100
AcDbEntity
  8
DATA
  6
Continuous
 62
     7
100
AcDbLine
 10
987.5856600000005
 20
-96.69979000000013
 30
0.0
 11
984.0998699999984
 21
-94.68728999999891
 31
0.0
  0
ARC
  5
390
330
41B
100
AcDbEntity
  8
DATA
  6
Continuous
 62
     7
100
AcDbCircle
 10
950.0
 20
-75.0
 30
0.0
 40
43.40001513445296
100
AcDbArc
 50
150.0000115355627
 51
240.0000115355574
  0
LINE
  5
391
330
41B
100
AcDbEntity
  8
DATA
  6
Continuous
 62
     7
100
AcDbLine
 10
912.4144799999958
 20
-53.29999999999927
 30
0.0
 11
915.9002699999982
 21
-55.3125
 31
0.0
  0
LINE
  5
392
330
41B
100
AcDbEntity
  8
DATA
  6
Continuous
 62
     7
100
AcDbLine
 10
928.3001400000015
 20
-112.5855899999992
 30
0.0
 11
930.3126399999964
 21
-109.0997999999999
 31
0.0
  0
ARC
  5
393
330
41B
100
AcDbEntity
  8
DATA
  6
Continuous
 62
     7
100
AcDbCircle
 10
950.0
 20
-75.0
 30
0.0
 40
39.37502682106404
100
AcDbArc
 50
59.99966968210938
 51
150.0002126043059
  0
ARC
  5
394
330
41B
100
AcDbEntity
  8
DATA
  6
Continuous
 62
     7
100
AcDbCircle
 10
950.0
 20
-75.0
 30
0.0
 40
39.3749730642414
100
AcDbArc
 50
240.0002126042983
 51
330.0007182431235
  0
ARC
  5
395
330
41B
100
AcDbEntity
  8
DATA
  6
Continuous
 62
     7
100
AcDbCircle
 10
950.0
 20
-75.0
 30
0.0
 40
25.19993056612277
100
AcDbArc
 50
329.9999088547005
 51
59.9999088547139
  0
ARC
  5
396
330
41B
100
AcDbEntity
  8
DATA
  6
Continuous
 62
     7
100
AcDbCircle
 10
950.0
 20
-75.0
 30
0.0
 40
25.19993056612727
100
AcDbArc
 50
149.9999088547076
 51
239.9999088547017
  0
LINE
  5
397
330
41B
100
AcDbEntity
  8
DATA
  6
Continuous
 62
     7
100
AcDbLine
 10
971.8238300000011
 20
-87.59986000000026
 30
0.0
 11
967.5803599999943
 21
-85.14992999999915
 31
0.0
  0
LINE
  5
398
330
41B
100
AcDbEntity
  8
DATA
  6
Continuous
 62
     7
100
AcDbLine
 10
962.6000700000004
 20
-53.17630999999938
 30
0.0
 11
960.1500699999977
 21
-57.41970999999921
 31
0.0
  0
LINE
  5
399
330
41B
100
AcDbEntity
  8
DATA
  6
Continuous
 62
     7
100
AcDbLine
 10
928.1762399999987
 20
-62.40000000000055
 30
0.0
 11
932.4197099999983
 21
-64.84999999999991
 31
0.0
  0
LINE
  5
39A
330
41B
100
AcDbEntity
  8
DATA
  6
Continuous
 62
     7
100
AcDbLine
 10
937.400139999996
 20
-96.82383000000029
 30
0.0
 11
939.8500700000003
 21
-92.58035999999949
 31
0.0
  0
ARC
  5
39B
330
41B
100
AcDbEntity
  8
DATA
  6
Continuous
 62
     7
100
AcDbCircle
 10
950.0
 20
-75.0
 30
0.0
 40
20.3000127460301
100
AcDbArc
 50
59.99979263403676
 51
150.0002336238322
  0
ARC
  5
39C
330
41B
100
AcDbEntity
  8
DATA
  6
Continuous
 62
     7
100
AcDbCircle
 10
950.0
 20
-75.0
 30
0.0
 40
20.30000336784389
100
AcDbArc
 50
240.0002336238304
 51
329.9997926340272
  0
LINE
  5
39D
330
41B
100
AcDbEntity
  8
DATA
  6
Continuous
 62
     7
100
AcDbLine
 10
873.0
 20
-141.5
 30
0.0
 11
859.0
 21
-141.5
 31
0.0
  0
LINE
  5
39E
330
41B
100
AcDbEntity
  8
DATA
  6
Continuous
 62
     7
100
AcDbLine
 10
866.0
 20
-134.5
 30
0.0
 11
866.0
 21
-148.5
 31
0.0
  0
LINE
  5
39F
330
41B
100
AcDbEntity
  8
DATA
  6
Continuous
 62
     7
100
AcDbLine
 10
1041.0
 20
-8.5
 30
0.0
 11
1027.0
 21
-8.5
 31
0.0
  0
LINE
  5
3A0
330
41B
100
AcDbEntity
  8
DATA
  6
Continuous
 62
     7
100
AcDbLine
 10
1034.0
 20
-1.5
 30
0.0
 11
1034.0
 21
-15.5
 31
0.0
  0
LINE
  5
3A1
330
41B
100
AcDbEntity
  8
DATA
  6
Continuous
 62
     7
100
AcDbLine
 10
950.0
 20
367.75
 30
0.0
 11
950.0
 21
255.75
 31
0.0
  0
LINE
  5
3A2
330
41B
100
AcDbEntity
  8
DATA
  6
Continuous
 62
     7
100
AcDbLine
 10
950.0
 20
28.25
 30
0.0
 11
950.0
 21
140.25
 31
0.0
  0
TEXT
  5
3A3
330
41B
100
AcDbEntity
  8
DATA
 62
     7
100
AcDbText
 10
966.2401898965107
 20
595.4211100434974
 30
0.0
 40
71.26180013020834
  1
PRX400
 41
0.7
 11
966.2401898965107
 21
631.0520101086016
 31
0.0
100
AcDbText
 73
     2
  0
TEXT
  5
3A4
330
41B
100
AcDbEntity
  8
DATA
 62
     7
100
AcDbText
 10
859.8110657552084
 20
180.89716796875
 30
0.0
 40
34.2056640625
  1
IN / THRU
 41
0.7
 72
     1
 11
950.0
 21
198.0
 31
0.0
100
AcDbText
 73
     2
  0
TEXT
  5
3A5
330
41B
100
AcDbEntity
  8
DATA
 62
     7
100
AcDbText
 10
1086.982974328706
 20
183.7476399739583
 30
0.0
 40
28.50472005208333
  1
+1 IN:8Ω
 41
0.7
 11
1086.982974328706
 21
198.0
 31
0.0
100
AcDbText
 73
     2
  0
TEXT
  5
3A6
330
41B
100
AcDbEntity
  8
DATA
 62
     7
100
AcDbText
 10
1086.982974328706
 20
139.7059733072927
 30
0.0
 40
28.50472005208333
  1
+2 N/C
 41
0.7
 11
1086.982974328706
 21
153.9583333333344
 31
0.0
100
AcDbText
 73
     2
  0
TEXT
  5
3A7
330
41B
100
AcDbEntity
  8
DATA
 62
     7
100
AcDbText
 10
1086.982974328706
 20
227.7893066406253
 30
0.0
 40
28.50472005208333
  1
PASSIVE
 41
0.7
 11
1086.982974328706
 21
242.041666666667
 31
0.0
100
AcDbText
 73
     2
  0
TEXT
  5
3A8
330
41B
100
AcDbEntity
  8
DATA
 62
     7
100
AcDbText
 10
975.5006065631805
 20
-219.1868749999998
 30
0.0
 40
43.09375000000001
  1
PRX412M-WH
 41
0.7
 11
975.5006065631805
 21
-197.6399999999998
 31
0.0
100
AcDbText
 73
     2
  0
TEXT
  5
3A9
330
41B
100
AcDbEntity
  8
DATA
 62
     7
100
AcDbText
 10
835.0309624565971
 20
-381.7102752415315
 30
0.0
 40
40.72102864583334
  1
背面端子拡大図
 41
0.7
 72
     1
 11
950.0
 21
-361.3497609186148
 31
0.0
100
AcDbText
 73
     2
  0
LINE
  5
3AA
330
41B
100
AcDbEntity
  8
DATA
  6
Continuous
 62
     7
100
AcDbLine
 10
762.5
 20
-400.0
 30
0.0
 11
1137.5
 21
-400.0
 31
0.0
  0
ENDSEC
  0
SECTION
  2
OBJECTS
  0
DICTIONARY
  5
3B8
330
0
100
AcDbDictionary
281
     1
  3
ACAD_CIP_PREVIOUS_PRODUCT_INFO
350
433
  3
ACAD_COLOR
350
40E
  3
ACAD_DETAILVIEWSTYLE
350
415
  3
ACAD_GROUP
350
3B9
  3
ACAD_LAYOUT
350
40D
  3
ACAD_MATERIAL
350
3BC
  3
ACAD_MLEADERSTYLE
350
411
  3
ACAD_MLINESTYLE
350
40A
  3
ACAD_PLOTSETTINGS
350
40C
  3
ACAD_PLOTSTYLENAME
350
3BA
  3
ACAD_SCALELIST
350
3EE
  3
ACAD_SECTIONVIEWSTYLE
350
413
  3
ACAD_TABLESTYLE
350
40F
  3
ACAD_VISUALSTYLE
350
3D5
  3
ACDB_RECOMPOSE_DATA
350
44B
  3
AcDbVariableDictionary
350
43E
  3
DWGPROPS
350
44C
  0
DICTIONARY
  5
434
330
400
100
AcDbDictionary
280
     1
281
     1
  3
ADSK_XREC_LAYER_RECONCILED
360
435
  0
DICTIONARY
  5
436
330
41F
100
AcDbDictionary
280
     1
281
     1
  3
ADSK_XREC_LAYER_RECONCILED
360
437
  0
DICTIONARY
  5
438
330
42B
100
AcDbDictionary
280
     1
281
     1
  3
ADSK_XREC_LAYER_RECONCILED
360
439
  0
DICTIONARY
  5
43A
330
42C
100
AcDbDictionary
280
     1
281
     1
  3
ADSK_XREC_LAYER_RECONCILED
360
43B
  0
DICTIONARY
  5
43C
330
42D
100
AcDbDictionary
280
     1
281
     1
  3
ADSK_XREC_LAYER_RECONCILED
360
43D
  0
XRECORD
  5
433
102
{ACAD_REACTORS
330
3B8
102
}
330
3B8
100
AcDbXrecord
280
     1
300
ACDLT
300
2019
300
ACDLT_F_S
  0
DICTIONARY
  5
40E
102
{ACAD_REACTORS
330
3B8
102
}
330
3B8
100
AcDbDictionary
281
     1
  0
DICTIONARY
  5
415
102
{ACAD_REACTORS
330
3B8
102
}
330
3B8
100
AcDbDictionary
281
     1
  3
Imperial24
350
416
  0
DICTIONARY
  5
3B9
102
{ACAD_REACTORS
330
3B8
102
}
330
3B8
100
AcDbDictionary
281
     1
  0
DICTIONARY
  5
40D
102
{ACAD_REACTORS
330
3B8
102
}
330
3B8
100
AcDbDictionary
281
     1
  3
Model
350
41E
  3
レイアウト1
350
41A
  0
DICTIONARY
  5
3BC
102
{ACAD_REACTORS
330
3B8
102
}
330
3B8
100
AcDbDictionary
281
     1
  3
ByBlock
350
3C5
  3
ByLayer
350
3BD
  3
Global
350
3CD
  0
DICTIONARY
  5
411
102
{ACAD_REACTORS
330
3B8
102
}
330
3B8
100
AcDbDictionary
281
     1
  3
Standard
350
412
  0
DICTIONARY
  5
40A
102
{ACAD_REACTORS
330
3B8
102
}
330
3B8
100
AcDbDictionary
281
     1
  3
Standard
350
40B
  0
DICTIONARY
  5
40C
102
{ACAD_REACTORS
330
3B8
102
}
330
3B8
100
AcDbDictionary
281
     1
  0
ACDBDICTIONARYWDFLT
  5
3BA
102
{ACAD_REACTORS
330
3B8
102
}
330
3B8
100
AcDbDictionary
281
     1
  3
Normal
350
3BB
100
AcDbDictionaryWithDefault
340
3BB
  0
DICTIONARY
  5
3EE
102
{ACAD_REACTORS
330
3B8
102
}
330
3B8
100
AcDbDictionary
281
     1
  3
A0
350
3EF
  3
A1
350
3F0
  3
A2
350
3F1
  3
A3
350
3F2
  3
A4
350
3F3
  3
A5
350
3F4
  3
A6
350
3F5
  3
A7
350
3F6
  3
A8
350
3F7
  3
A9
350
3F8
  3
B0
350
3F9
  3
B1
350
3FA
  3
B2
350
3FB
  3
B3
350
3FC
  3
B4
350
3FD
  3
B5
350
3FE
  3
B6
350
3FF
  0
DICTIONARY
  5
413
102
{ACAD_REACTORS
330
3B8
102
}
330
3B8
100
AcDbDictionary
281
     1
  3
Imperial24
350
414
  0
DICTIONARY
  5
40F
102
{ACAD_REACTORS
330
3B8
102
}
330
3B8
100
AcDbDictionary
281
     1
  3
Standard
350
410
  0
DICTIONARY
  5
3D5
102
{ACAD_REACTORS
330
3B8
102
}
330
3B8
100
AcDbDictionary
281
     1
  3
2dWireframe
350
3DB
  3
Basic
350
3DA
  3
Brighten
350
3E1
  3
ColorChange
350
3E5
  3
Conceptual
350
3DE
  3
Dim
350
3E0
  3
EdgeColorOff
350
3ED
  3
Facepattern
350
3E4
  3
Flat
350
3D6
  3
FlatWithEdges
350
3D7
  3
Gouraud
350
3D8
  3
GouraudWithEdges
350
3D9
  3
Hidden
350
3DD
  3
JitterOff
350
3EB
  3
Linepattern
350
3E3
  3
OverhangOff
350
3EC
  3
Realistic
350
3DF
  3
Shaded
350
3EA
  3
Shaded with edges
350
3E9
  3
Shades of Gray
350
3E6
  3
Sketchy
350
3E7
  3
Thicken
350
3E2
  3
Wireframe
350
3DC
  3
X-Ray
350
3E8
  0
XRECORD
  5
44B
102
{ACAD_REACTORS
330
3B8
102
}
330
3B8
100
AcDbXrecord
280
     1
 90
        1
330
410
  0
DICTIONARY
  5
43E
102
{ACAD_REACTORS
330
3B8
102
}
330
3B8
100
AcDbDictionary
281
     1
  3
CANNOSCALE
350
443
  3
CMLEADERSTYLE
350
440
  3
CTABLESTYLE
350
43F
  3
CVIEWDETAILSTYLE
350
441
  3
CVIEWSECTIONSTYLE
350
442
  3
DIMASSOC
350
446
  3
INDEXCTL
350
445
  3
SORTENTS
350
444
  3
XCLIPFRAME
350
447
  0
XRECORD
  5
44C
102
{ACAD_REACTORS
330
3B8
102
}
330
3B8
100
AcDbXrecord
280
     1
  1
DWGPROPS COOKIE
  2

  3

  4

  6

  7

  8
sasaki_n
  9

300
=
301
=
302
=
303
=
304
=
305
=
306
=
307
=
308
=
309
=
 40
0.0004282407407407
 41
2458458.424386574
 42
2458458.424976852
  1

 90
        0
  0
XRECORD
  5
435
102
{ACAD_REACTORS
330
434
102
}
330
434
100
AcDbXrecord
280
     1
290
     1
  0
XRECORD
  5
437
102
{ACAD_REACTORS
330
436
102
}
330
436
100
AcDbXrecord
280
     1
290
     1
  0
XRECORD
  5
439
102
{ACAD_REACTORS
330
438
102
}
330
438
100
AcDbXrecord
280
     1
290
     1
  0
XRECORD
  5
43B
102
{ACAD_REACTORS
330
43A
102
}
330
43A
100
AcDbXrecord
280
     1
290
     1
  0
XRECORD
  5
43D
102
{ACAD_REACTORS
330
43C
102
}
330
43C
100
AcDbXrecord
280
     1
290
     1
  0
ACDBDETAILVIEWSTYLE
  5
416
102
{ACAD_XDICTIONARY
360
484
102
}
102
{ACAD_REACTORS
330
415
102
}
330
415
100
AcDbModelDocViewStyle
 70
     0
  3
Imperial24
290
     0
100
AcDbDetailViewStyle
 70
     0
 71
     0
 90
        3
 71
     1
340
401
 40
0.24
340
0
 40
0.24
300

 40
0.36
280
     3
 71
     2
340
408
 90
       25
 71
     3
340
401
 40
0.24
 90
        1
 40
0.75
 90
        1
300
%<\AcVar ViewType \f "%tc1">% %<\AcVar ViewDetailId>%\PSCALE %<\AcVar ViewScale \f "%sn">%
 71
     4
340
408
 90
       25
340
408
 90
       25
280
     0
  0
LAYOUT
  5
41E
102
{ACAD_XDICTIONARY
360
488
102
}
102
{ACAD_REACTORS
330
40D
102
}
330
40D
100
AcDbPlotSettings
  1

  2
DocuPrint 3000-3
  4

  6

 40
0.0
 41
0.0
 42
0.0
 43
0.0
 44
0.0
 45
0.0
 46
0.0
 47
0.0
 48
0.0
 49
0.0
140
0.0
141
0.0
142
1.0
143
1.0
 70
  1712
 72
     0
 73
     0
 74
     0
  7

 75
     0
147
1.0
148
0.0
149
0.0
100
AcDbLayout
  1
Model
 70
     1
 71
     0
 10
0.0
 20
0.0
 11
12.0
 21
9.0
 12
0.0
 22
0.0
 32
0.0
 14
0.0
 24
0.0
 34
0.0
 15
0.0
 25
0.0
 35
0.0
146
0.0
 13
0.0
 23
0.0
 33
0.0
 16
1.0
 26
0.0
 36
0.0
 17
0.0
 27
1.0
 37
0.0
 76
     0
330
41B
331
420
  0
LAYOUT
  5
41A
102
{ACAD_XDICTIONARY
360
486
102
}
102
{ACAD_REACTORS
330
40D
102
}
330
40D
100
AcDbPlotSettings
  1

  2
DocuPrint 3000-3
  4

  6

 40
0.0
 41
0.0
 42
0.0
 43
0.0
 44
0.0
 45
0.0
 46
0.0
 47
0.0
 48
0.0
 49
0.0
140
0.0
141
0.0
142
1.0
143
1.0
 70
   688
 72
     0
 73
     0
 74
     5
  7

 75
    16
147
1.0
148
0.0
149
0.0
100
AcDbLayout
  1
レイアウト1
 70
     0
 71
     1
 10
0.0
 20
0.0
 11
12.0
 21
9.0
 12
0.0
 22
0.0
 32
0.0
 14
1.000000000000000E+20
 24
1.000000000000000E+20
 34
1.000000000000000E+20
 15
-1.000000000000000E+20
 25
-1.000000000000000E+20
 35
-1.000000000000000E+20
146
0.0
 13
0.0
 23
0.0
 33
0.0
 16
1.0
 26
0.0
 36
0.0
 17
0.0
 27
1.0
 37
0.0
 76
     0
330
417
  0
MATERIAL
  5
3C5
102
{ACAD_XDICTIONARY
360
3C6
102
}
102
{ACAD_REACTORS
330
3BC
102
}
330
3BC
100
AcDbMaterial
  1
ByBlock
 72
     0
 43
0.0208333333333333
 43
0.0
 43
0.0
 43
0.0
 43
0.0
 43
0.0208333333333333
 43
0.0
 43
0.0
 43
0.0
 43
0.0
 43
1.0
 43
0.0
 43
0.0
 43
0.0
 43
0.0
 43
1.0
 77
     0
 47
0.0208333333333333
 47
0.0
 47
0.0
 47
0.0
 47
0.0
 47
0.0208333333333333
 47
0.0
 47
0.0
 47
0.0
 47
0.0
 47
1.0
 47
0.0
 47
0.0
 47
0.0
 47
0.0
 47
1.0
171
     0
 49
0.0208333333333333
 49
0.0
 49
0.0
 49
0.0
 49
0.0
 49
0.0208333333333333
 49
0.0
 49
0.0
 49
0.0
 49
0.0
 49
1.0
 49
0.0
 49
0.0
 49
0.0
 49
0.0
 49
1.0
175
     0
142
0.0208333333333333
142
0.0
142
0.0
142
0.0
142
0.0
142
0.0208333333333333
142
0.0
142
0.0
142
0.0
142
0.0
142
1.0
142
0.0
142
0.0
142
0.0
142
0.0
142
1.0
179
     0
144
0.0208333333333333
144
0.0
144
0.0
144
0.0
144
0.0
144
0.0208333333333333
144
0.0
144
0.0
144
0.0
144
0.0
144
1.0
144
0.0
144
0.0
144
0.0
144
0.0
144
1.0
147
0.0208333333333333
147
0.0
147
0.0
147
0.0
147
0.0
147
0.0208333333333333
147
0.0
147
0.0
147
0.0
147
0.0
147
1.0
147
0.0
147
0.0
147
0.0
147
0.0
147
1.0
  0
MATERIAL
  5
3BD
102
{ACAD_XDICTIONARY
360
3BE
102
}
102
{ACAD_REACTORS
330
3BC
102
}
330
3BC
100
AcDbMaterial
  1
ByLayer
 72
     0
 43
0.0208333333333333
 43
0.0
 43
0.0
 43
0.0
 43
0.0
 43
0.0208333333333333
 43
0.0
 43
0.0
 43
0.0
 43
0.0
 43
1.0
 43
0.0
 43
0.0
 43
0.0
 43
0.0
 43
1.0
 77
     0
 47
0.0208333333333333
 47
0.0
 47
0.0
 47
0.0
 47
0.0
 47
0.0208333333333333
 47
0.0
 47
0.0
 47
0.0
 47
0.0
 47
1.0
 47
0.0
 47
0.0
 47
0.0
 47
0.0
 47
1.0
171
     0
 49
0.0208333333333333
 49
0.0
 49
0.0
 49
0.0
 49
0.0
 49
0.0208333333333333
 49
0.0
 49
0.0
 49
0.0
 49
0.0
 49
1.0
 49
0.0
 49
0.0
 49
0.0
 49
0.0
 49
1.0
175
     0
142
0.0208333333333333
142
0.0
142
0.0
142
0.0
142
0.0
142
0.0208333333333333
142
0.0
142
0.0
142
0.0
142
0.0
142
1.0
142
0.0
142
0.0
142
0.0
142
0.0
142
1.0
179
     0
144
0.0208333333333333
144
0.0
144
0.0
144
0.0
144
0.0
144
0.0208333333333333
144
0.0
144
0.0
144
0.0
144
0.0
144
1.0
144
0.0
144
0.0
144
0.0
144
0.0
144
1.0
147
0.0208333333333333
147
0.0
147
0.0
147
0.0
147
0.0
147
0.0208333333333333
147
0.0
147
0.0
147
0.0
147
0.0
147
1.0
147
0.0
147
0.0
147
0.0
147
0.0
147
1.0
  0
MATERIAL
  5
3CD
102
{ACAD_XDICTIONARY
360
3CE
102
}
102
{ACAD_REACTORS
330
3BC
102
}
330
3BC
100
AcDbMaterial
  1
Global
 72
     0
 43
0.0208333333333333
 43
0.0
 43
0.0
 43
0.0
 43
0.0
 43
0.0208333333333333
 43
0.0
 43
0.0
 43
0.0
 43
0.0
 43
1.0
 43
0.0
 43
0.0
 43
0.0
 43
0.0
 43
1.0
 77
     0
 47
0.0208333333333333
 47
0.0
 47
0.0
 47
0.0
 47
0.0
 47
0.0208333333333333
 47
0.0
 47
0.0
 47
0.0
 47
0.0
 47
1.0
 47
0.0
 47
0.0
 47
0.0
 47
0.0
 47
1.0
171
     0
 49
0.0208333333333333
 49
0.0
 49
0.0
 49
0.0
 49
0.0
 49
0.0208333333333333
 49
0.0
 49
0.0
 49
0.0
 49
0.0
 49
1.0
 49
0.0
 49
0.0
 49
0.0
 49
0.0
 49
1.0
175
     0
142
0.0208333333333333
142
0.0
142
0.0
142
0.0
142
0.0
142
0.0208333333333333
142
0.0
142
0.0
142
0.0
142
0.0
142
1.0
142
0.0
142
0.0
142
0.0
142
0.0
142
1.0
179
     0
144
0.0208333333333333
144
0.0
144
0.0
144
0.0
144
0.0
144
0.0208333333333333
144
0.0
144
0.0
144
0.0
144
0.0
144
1.0
144
0.0
144
0.0
144
0.0
144
0.0
144
1.0
147
0.0208333333333333
147
0.0
147
0.0
147
0.0
147
0.0
147
0.0208333333333333
147
0.0
147
0.0
147
0.0
147
0.0
147
1.0
147
0.0
147
0.0
147
0.0
147
0.0
147
1.0
  0
MLEADERSTYLE
  5
412
102
{ACAD_REACTORS
330
411
102
}
330
411
100
AcDbMLeaderStyle
170
     2
171
     1
172
     0
 90
        2
 40
0.0
 41
0.0
173
     1
 91
-1056964608
340
406
 92
       -2
290
     1
 42
0.09
291
     1
 43
0.36
  3
Standard
 44
0.18
300

342
401
174
     1
178
     6
175
     1
176
     0
 93
-1056964608
 45
0.18
292
     0
297
     0
 46
0.18
 94
-1056964608
 47
1.0
 49
1.0
140
1.0
293
     1
141
0.0
294
     1
177
     0
142
1.0
295
     0
296
     0
143
0.125
1001
ACAD_MLEADERVER
1070
     2
  0
MLINESTYLE
  5
40B
102
{ACAD_REACTORS
330
40A
102
}
330
40A
100
AcDbMlineStyle
  2
STANDARD
 70
     0
  3

 62
   256
 51
90.0
 52
90.0
 71
     2
 49
0.5
 62
   256
  6
BYLAYER
 49
-0.5
 62
   256
  6
BYLAYER
  0
ACDBPLACEHOLDER
  5
3BB
102
{ACAD_REACTORS
330
3BA
102
}
330
3BA
  0
SCALE
  5
3EF
102
{ACAD_REACTORS
330
3EE
102
}
330
3EE
100
AcDbScale
 70
     0
300
1:1
140
1.0
141
1.0
290
     1
  0
SCALE
  5
3F0
102
{ACAD_REACTORS
330
3EE
102
}
330
3EE
100
AcDbScale
 70
     0
300
1/128" = 1'-0"
140
0.0078125
141
12.0
290
     0
  0
SCALE
  5
3F1
102
{ACAD_REACTORS
330
3EE
102
}
330
3EE
100
AcDbScale
 70
     0
300
1/64" = 1'-0"
140
0.015625
141
12.0
290
     0
  0
SCALE
  5
3F2
102
{ACAD_REACTORS
330
3EE
102
}
330
3EE
100
AcDbScale
 70
     0
300
1/32" = 1'-0"
140
0.03125
141
12.0
290
     0
  0
SCALE
  5
3F3
102
{ACAD_REACTORS
330
3EE
102
}
330
3EE
100
AcDbScale
 70
     0
300
1/16" = 1'-0"
140
0.0625
141
12.0
290
     0
  0
SCALE
  5
3F4
102
{ACAD_REACTORS
330
3EE
102
}
330
3EE
100
AcDbScale
 70
     0
300
3/32" = 1'-0"
140
0.09375
141
12.0
290
     0
  0
SCALE
  5
3F5
102
{ACAD_REACTORS
330
3EE
102
}
330
3EE
100
AcDbScale
 70
     0
300
1/8" = 1'-0"
140
0.125
141
12.0
290
     0
  0
SCALE
  5
3F6
102
{ACAD_REACTORS
330
3EE
102
}
330
3EE
100
AcDbScale
 70
     0
300
3/16" = 1'-0"
140
0.1875
141
12.0
290
     0
  0
SCALE
  5
3F7
102
{ACAD_REACTORS
330
3EE
102
}
330
3EE
100
AcDbScale
 70
     0
300
1/4" = 1'-0"
140
0.25
141
12.0
290
     0
  0
SCALE
  5
3F8
102
{ACAD_REACTORS
330
3EE
102
}
330
3EE
100
AcDbScale
 70
     0
300
3/8" = 1'-0"
140
0.375
141
12.0
290
     0
  0
SCALE
  5
3F9
102
{ACAD_REACTORS
330
3EE
102
}
330
3EE
100
AcDbScale
 70
     0
300
1/2" = 1'-0"
140
0.5
141
12.0
290
     0
  0
SCALE
  5
3FA
102
{ACAD_REACTORS
330
3EE
102
}
330
3EE
100
AcDbScale
 70
     0
300
3/4" = 1'-0"
140
0.75
141
12.0
290
     0
  0
SCALE
  5
3FB
102
{ACAD_REACTORS
330
3EE
102
}
330
3EE
100
AcDbScale
 70
     0
300
1" = 1'-0"
140
1.0
141
12.0
290
     0
  0
SCALE
  5
3FC
102
{ACAD_REACTORS
330
3EE
102
}
330
3EE
100
AcDbScale
 70
     0
300
1-1/2" = 1'-0"
140
1.5
141
12.0
290
     0
  0
SCALE
  5
3FD
102
{ACAD_REACTORS
330
3EE
102
}
330
3EE
100
AcDbScale
 70
     0
300
3" = 1'-0"
140
3.0
141
12.0
290
     0
  0
SCALE
  5
3FE
102
{ACAD_REACTORS
330
3EE
102
}
330
3EE
100
AcDbScale
 70
     0
300
6" = 1'-0"
140
6.0
141
12.0
290
     0
  0
SCALE
  5
3FF
102
{ACAD_REACTORS
330
3EE
102
}
330
3EE
100
AcDbScale
 70
     0
300
1'-0" = 1'-0"
140
12.0
141
12.0
290
     0
  0
ACDBSECTIONVIEWSTYLE
  5
414
102
{ACAD_XDICTIONARY
360
482
102
}
102
{ACAD_REACTORS
330
413
102
}
330
413
100
AcDbModelDocViewStyle
 70
     0
  3
Imperial24
290
     0
100
AcDbSectionViewStyle
 70
     0
 71
     0
 90
       78
 71
     1
340
401
 40
0.24
340
0
340
0
 40
0.24
300
I, O, Q, S, X, Z
 40
0.48
 90
        3
 40
0.18
 90
        1
 71
     2
340
408
 90
       25
340
408
 90
       50
 40
0.24
 40
0.0
 40
0.24
 71
     3
340
401
 40
0.24
 90
        1
 40
0.75
 90
        1
300
%<\AcVar ViewType \f "%tc1">% %<\AcVar ViewSectionStartId>%-%<\AcVar ViewSectionEndId>%\PSCALE %<\AcVar ViewScale \f "%sn">%
 71
     4
300
ANSI31
 40
1.0
 90
        0
290
     0
290
     0
 90
        6
 40
0.0
 40
1.570796326794896
 40
0.2617993877991494
 40
1.308996938995747
 40
-0.2617993877991494
 40
1.832595714594046
  0
TABLESTYLE
  5
410
102
{ACAD_XDICTIONARY
360
449
102
}
102
{ACAD_REACTORS
330
40F
102
}
330
40F
100
AcDbTableStyle
  3
Standard
 70
     0
 71
     0
 40
0.06
 41
0.06
280
     0
281
     0
  7
STANDARD
140
0.18
170
     2
 62
     0
 63
     7
283
     0
274
    -2
284
     1
 64
     0
275
    -2
285
     1
 65
     0
276
    -2
286
     1
 66
     0
277
    -2
287
     1
 67
     0
278
    -2
288
     1
 68
     0
279
    -2
289
     1
 69
     0
  7
STANDARD
140
0.25
170
     5
 62
     0
 63
     7
283
     0
274
    -2
284
     1
 64
     0
275
    -2
285
     1
 65
     0
276
    -2
286
     1
 66
     0
277
    -2
287
     1
 67
     0
278
    -2
288
     1
 68
     0
279
    -2
289
     1
 69
     0
  7
STANDARD
140
0.18
170
     5
 62
     0
 63
     7
283
     0
274
    -2
284
     1
 64
     0
275
    -2
285
     1
 65
     0
276
    -2
286
     1
 66
     0
277
    -2
287
     1
 67
     0
278
    -2
288
     1
 68
     0
279
    -2
289
     1
 69
     0
  0
VISUALSTYLE
  5
3DB
102
{ACAD_XDICTIONARY
360
45A
102
}
102
{ACAD_REACTORS
330
3D5
102
}
330
3D5
100
AcDbVisualStyle
  2
2dWireframe
 70
     4
 71
     0
 72
     2
 73
     0
 90
        0
 40
-0.6
 41
-30.0
 62
     5
 63
     7
 74
     1
 91
        4
 64
     7
 65
   257
 75
     1
175
     1
 42
1.0
 92
        0
 66
   257
 43
1.0
 76
     1
 77
     6
 78
     2
 67
     7
 79
     5
170
     0
171
     0
290
     0
174
     0
 93
        1
 44
0.0
173
     0
291
     0
 45
0.0
1001
ACAD
1000
AcDbSavedByObjectVersion
1070
     0
  0
VISUALSTYLE
  5
3DA
102
{ACAD_XDICTIONARY
360
458
102
}
102
{ACAD_REACTORS
330
3D5
102
}
330
3D5
100
AcDbVisualStyle
  2
Basic
 70
     7
 71
     1
 72
     0
 73
     1
 90
        0
 40
-0.6
 41
-30.0
 62
     5
 63
     7
 74
     0
 91
        4
 64
     7
 65
   257
 75
     1
175
     1
 42
1.0
 92
        8
 66
     7
 43
1.0
 76
     1
 77
     6
 78
     2
 67
     7
 79
     5
170
     0
171
     0
290
     0
174
     0
 93
        1
 44
0.0
173
     0
291
     1
 45
0.0
1001
ACAD
1000
AcDbSavedByObjectVersion
1070
     0
  0
VISUALSTYLE
  5
3E1
102
{ACAD_XDICTIONARY
360
466
102
}
102
{ACAD_REACTORS
330
3D5
102
}
330
3D5
100
AcDbVisualStyle
  2
Brighten
 70
    12
 71
     2
 72
     2
 73
     0
 90
        0
 40
-0.6
 41
-30.0
 62
     5
 63
     7
 74
     1
 91
        4
 64
     7
 65
   257
 75
     1
175
     1
 42
1.0
 92
        8
 66
     7
 43
1.0
 76
     1
 77
     6
 78
     2
 67
     7
 79
     5
170
     0
171
     0
290
     0
174
     0
 93
        1
 44
50.0
173
     0
291
     1
 45
0.0
1001
ACAD
1000
AcDbSavedByObjectVersion
1070
     0
  0
VISUALSTYLE
  5
3E5
102
{ACAD_XDICTIONARY
360
46E
102
}
102
{ACAD_REACTORS
330
3D5
102
}
330
3D5
100
AcDbVisualStyle
  2
ColorChange
 70
    16
 71
     2
 72
     2
 73
     3
 90
        0
 40
-0.6
 41
-30.0
 62
     5
 63
     8
 74
     1
 91
        4
 64
     7
 65
   257
 75
     1
175
     1
 42
1.0
 92
        8
 66
     8
 43
1.0
 76
     1
 77
     6
 78
     2
 67
     7
 79
     5
170
     0
171
     0
290
     0
174
     0
 93
        1
 44
0.0
173
     0
291
     1
 45
0.0
1001
ACAD
1000
AcDbSavedByObjectVersion
1070
     0
  0
VISUALSTYLE
  5
3DE
102
{ACAD_XDICTIONARY
360
460
102
}
102
{ACAD_REACTORS
330
3D5
102
}
330
3D5
100
AcDbVisualStyle
  2
Conceptual
 70
     9
 71
     3
 72
     2
 73
     0
 90
        0
 40
-0.6
 41
-30.0
 62
     5
 63
     7
 74
     2
 91
        2
 64
     7
 65
   257
 75
     1
175
     1
 42
179.0
 92
        8
 66
     7
 43
1.0
 76
     1
 77
     6
 78
     2
 67
     7
 79
     3
170
     0
171
     0
290
     0
174
     0
 93
        1
 44
0.0
173
     0
291
     0
 45
0.0
1001
ACAD
1000
AcDbSavedByObjectVersion
1070
     0
  0
VISUALSTYLE
  5
3E0
102
{ACAD_XDICTIONARY
360
464
102
}
102
{ACAD_REACTORS
330
3D5
102
}
330
3D5
100
AcDbVisualStyle
  2
Dim
 70
    11
 71
     2
 72
     2
 73
     0
 90
        0
 40
-0.6
 41
-30.0
 62
     5
 63
     7
 74
     1
 91
        4
 64
     7
 65
   257
 75
     1
175
     1
 42
1.0
 92
        8
 66
     7
 43
1.0
 76
     1
 77
     6
 78
     2
 67
     7
 79
     5
170
     0
171
     0
290
     0
174
     0
 93
        1
 44
-50.0
173
     0
291
     1
 45
0.0
1001
ACAD
1000
AcDbSavedByObjectVersion
1070
     0
  0
VISUALSTYLE
  5
3ED
102
{ACAD_XDICTIONARY
360
47E
102
}
102
{ACAD_REACTORS
330
3D5
102
}
330
3D5
100
AcDbVisualStyle
  2
EdgeColorOff
 70
    22
 71
     2
 72
     2
 73
     0
 90
        0
 40
-0.6
 41
-30.0
 62
     5
 63
     7
 74
     1
 91
        4
 64
     7
 65
   257
 75
     1
175
     1
 42
1.0
 92
        8
 66
     7
 43
1.0
 76
     1
 77
     6
 78
     2
 67
     7
 79
     5
170
     0
171
     0
290
     0
174
     0
 93
        1
 44
0.0
173
     0
291
     1
 45
0.0
1001
ACAD
1000
AcDbSavedByObjectVersion
1070
     0
  0
VISUALSTYLE
  5
3E4
102
{ACAD_XDICTIONARY
360
46C
102
}
102
{ACAD_REACTORS
330
3D5
102
}
330
3D5
100
AcDbVisualStyle
  2
Facepattern
 70
    15
 71
     2
 72
     2
 73
     0
 90
        0
 40
-0.6
 41
-30.0
 62
     5
 63
     7
 74
     1
 91
        4
 64
     7
 65
   257
 75
     1
175
     1
 42
1.0
 92
        8
 66
     7
 43
1.0
 76
     1
 77
     6
 78
     2
 67
     7
 79
     5
170
     0
171
     0
290
     0
174
     0
 93
        1
 44
0.0
173
     0
291
     1
 45
0.0
1001
ACAD
1000
AcDbSavedByObjectVersion
1070
     0
  0
VISUALSTYLE
  5
3D6
102
{ACAD_XDICTIONARY
360
450
102
}
102
{ACAD_REACTORS
330
3D5
102
}
330
3D5
100
AcDbVisualStyle
  2
Flat
 70
     0
 71
     2
 72
     1
 73
     1
 90
        2
 40
-0.6
 41
30.0
 62
     5
 63
     7
 74
     0
 91
        0
 64
     7
 65
   257
 75
     1
175
     1
 42
1.0
 92
        8
 66
     7
 43
1.0
 76
     1
 77
     6
 78
     2
 67
     7
 79
     5
170
     0
171
     0
290
     0
174
     0
 93
       13
 44
0.0
173
     0
291
     1
 45
0.0
1001
ACAD
1000
AcDbSavedByObjectVersion
1070
     0
  0
VISUALSTYLE
  5
3D7
102
{ACAD_XDICTIONARY
360
452
102
}
102
{ACAD_REACTORS
330
3D5
102
}
330
3D5
100
AcDbVisualStyle
  2
FlatWithEdges
 70
     1
 71
     2
 72
     1
 73
     1
 90
        2
 40
-0.6
 41
30.0
 62
     5
 63
     7
 74
     1
 91
        0
 64
     7
 65
   257
 75
     1
175
     1
 42
1.0
 92
        0
 66
   257
 43
1.0
 76
     1
 77
     6
 78
     2
 67
     7
 79
     5
170
     0
171
     0
290
     0
174
     0
 93
       13
 44
0.0
173
     0
291
     1
 45
0.0
1001
ACAD
1000
AcDbSavedByObjectVersion
1070
     0
  0
VISUALSTYLE
  5
3D8
102
{ACAD_XDICTIONARY
360
454
102
}
102
{ACAD_REACTORS
330
3D5
102
}
330
3D5
100
AcDbVisualStyle
  2
Gouraud
 70
     2
 71
     2
 72
     2
 73
     1
 90
        2
 40
-0.6
 41
30.0
 62
     5
 63
     7
 74
     0
 91
        0
 64
     7
 65
   257
 75
     1
175
     1
 42
1.0
 92
        0
 66
     7
 43
1.0
 76
     1
 77
     6
 78
     2
 67
     7
 79
     5
170
     0
171
     0
290
     0
174
     0
 93
       13
 44
0.0
173
     0
291
     1
 45
0.0
1001
ACAD
1000
AcDbSavedByObjectVersion
1070
     0
  0
VISUALSTYLE
  5
3D9
102
{ACAD_XDICTIONARY
360
456
102
}
102
{ACAD_REACTORS
330
3D5
102
}
330
3D5
100
AcDbVisualStyle
  2
GouraudWithEdges
 70
     3
 71
     2
 72
     2
 73
     1
 90
        2
 40
-0.6
 41
30.0
 62
     5
 63
     7
 74
     1
 91
        0
 64
     7
 65
   257
 75
     1
175
     1
 42
1.0
 92
        0
 66
   257
 43
1.0
 76
     1
 77
     6
 78
     2
 67
     7
 79
     5
170
     0
171
     0
290
     0
174
     0
 93
       13
 44
0.0
173
     0
291
     1
 45
0.0
1001
ACAD
1000
AcDbSavedByObjectVersion
1070
     0
  0
VISUALSTYLE
  5
3DD
102
{ACAD_XDICTIONARY
360
45E
102
}
102
{ACAD_REACTORS
330
3D5
102
}
330
3D5
100
AcDbVisualStyle
  2
Hidden
 70
     6
 71
     1
 72
     2
 73
     2
 90
        0
 40
-0.6
 41
-30.0
 62
     5
 63
     7
 74
     2
 91
        2
 64
     7
 65
   257
 75
     2
175
     1
 42
40.0
 92
        0
 66
   257
 43
1.0
 76
     1
 77
     6
 78
     2
 67
     7
 79
     3
170
     0
171
     0
290
     0
174
     0
 93
        1
 44
0.0
173
     0
291
     0
 45
0.0
1001
ACAD
1000
AcDbSavedByObjectVersion
1070
     0
  0
VISUALSTYLE
  5
3EB
102
{ACAD_XDICTIONARY
360
47A
102
}
102
{ACAD_REACTORS
330
3D5
102
}
330
3D5
100
AcDbVisualStyle
  2
JitterOff
 70
    20
 71
     2
 72
     2
 73
     0
 90
        0
 40
-0.6
 41
-30.0
 62
     5
 63
     7
 74
     1
 91
        4
 64
     7
 65
   257
 75
     1
175
     1
 42
1.0
 92
       10
 66
     7
 43
1.0
 76
     1
 77
     6
 78
     2
 67
     7
 79
     5
170
     0
171
     0
290
     0
174
     0
 93
        1
 44
0.0
173
     0
291
     1
 45
0.0
1001
ACAD
1000
AcDbSavedByObjectVersion
1070
     0
  0
VISUALSTYLE
  5
3E3
102
{ACAD_XDICTIONARY
360
46A
102
}
102
{ACAD_REACTORS
330
3D5
102
}
330
3D5
100
AcDbVisualStyle
  2
Linepattern
 70
    14
 71
     2
 72
     2
 73
     0
 90
        0
 40
-0.6
 41
-30.0
 62
     5
 63
     7
 74
     1
 91
        4
 64
     7
 65
   257
 75
     7
175
     7
 42
1.0
 92
        8
 66
     7
 43
1.0
 76
     1
 77
     6
 78
     2
 67
     7
 79
     5
170
     0
171
     0
290
     0
174
     0
 93
        1
 44
0.0
173
     0
291
     1
 45
0.0
1001
ACAD
1000
AcDbSavedByObjectVersion
1070
     0
  0
VISUALSTYLE
  5
3EC
102
{ACAD_XDICTIONARY
360
47C
102
}
102
{ACAD_REACTORS
330
3D5
102
}
330
3D5
100
AcDbVisualStyle
  2
OverhangOff
 70
    21
 71
     2
 72
     2
 73
     0
 90
        0
 40
-0.6
 41
-30.0
 62
     5
 63
     7
 74
     1
 91
        4
 64
     7
 65
   257
 75
     1
175
     1
 42
1.0
 92
        9
 66
     7
 43
1.0
 76
     1
 77
     6
 78
     2
 67
     7
 79
     5
170
     0
171
     0
290
     0
174
     0
 93
        1
 44
0.0
173
     0
291
     1
 45
0.0
1001
ACAD
1000
AcDbSavedByObjectVersion
1070
     0
  0
VISUALSTYLE
  5
3DF
102
{ACAD_XDICTIONARY
360
462
102
}
102
{ACAD_REACTORS
330
3D5
102
}
330
3D5
100
AcDbVisualStyle
  2
Realistic
 70
     8
 71
     2
 72
     3
 73
     0
 90
        2
 40
-0.6
 41
30.0
 62
     5
 63
     7
 74
     0
 91
        0
 64
     7
 65
   257
 75
     1
175
     1
 42
1.0
 92
        8
 66
   257
 43
1.0
 76
     1
 77
     6
 78
     2
 67
     7
 79
     3
170
     0
171
     0
290
     0
174
     0
 93
       13
 44
0.0
173
     0
291
     0
 45
0.0
1001
ACAD
1000
AcDbSavedByObjectVersion
1070
     0
  0
VISUALSTYLE
  5
3EA
102
{ACAD_XDICTIONARY
360
478
102
}
102
{ACAD_REACTORS
330
3D5
102
}
330
3D5
100
AcDbVisualStyle
  2
Shaded
 70
    27
 71
     2
 72
     2
 73
     1
 90
        2
 40
-0.6
 41
30.0
 62
     5
 63
     7
 74
     0
 91
        4
 64
     7
 65
   257
 75
     1
175
     1
 42
1.0
 92
        8
 66
   257
 43
1.0
 76
     1
 77
     6
 78
     2
 67
     8
 79
     3
170
     0
171
     0
290
     0
174
     0
 93
        5
 44
0.0
173
     0
291
     0
 45
0.0
1001
ACAD
1000
AcDbSavedByObjectVersion
1070
     0
  0
VISUALSTYLE
  5
3E9
102
{ACAD_XDICTIONARY
360
476
102
}
102
{ACAD_REACTORS
330
3D5
102
}
330
3D5
100
AcDbVisualStyle
  2
Shaded with edges
 70
    26
 71
     2
 72
     2
 73
     1
 90
        2
 40
-0.6
 41
30.0
 62
     5
 63
     7
 74
     1
 91
        2
 64
     7
 65
   257
 75
     2
175
     1
 42
1.0
 92
        8
 66
   257
 43
1.0
 76
     1
 77
     6
 78
     2
 67
     7
 79
     3
170
     0
171
     0
290
     0
174
     0
 93
        5
 44
0.0
173
     0
291
     0
 45
0.0
1001
ACAD
1000
AcDbSavedByObjectVersion
1070
     0
  0
VISUALSTYLE
  5
3E6
102
{ACAD_XDICTIONARY
360
470
102
}
102
{ACAD_REACTORS
330
3D5
102
}
330
3D5
100
AcDbVisualStyle
  2
Shades of Gray
 70
    23
 71
     2
 72
     2
 73
     3
 90
        0
 40
-0.6
 41
-30.0
 62
     5
 63
     7
 74
     2
 91
        2
 64
     7
 65
     7
 75
     1
175
     1
 42
40.0
 92
        8
 66
     7
 43
1.0
 76
     1
 77
     6
 78
     2
 67
     7
 79
     3
170
     0
171
     0
290
     0
174
     0
 93
        1
 44
0.0
173
     0
291
     0
 45
0.0
1001
ACAD
1000
AcDbSavedByObjectVersion
1070
     0
  0
VISUALSTYLE
  5
3E7
102
{ACAD_XDICTIONARY
360
472
102
}
102
{ACAD_REACTORS
330
3D5
102
}
330
3D5
100
AcDbVisualStyle
  2
Sketchy
 70
    24
 71
     1
 72
     2
 73
     2
 90
        0
 40
-0.6
 41
-30.0
 62
     5
 63
     7
 74
     2
 91
        2
 64
     7
 65
     7
 75
     1
175
     1
 42
40.0
 92
       11
 66
     7
 43
1.0
 76
     1
 77
     6
 78
     2
 67
     7
 79
     6
170
     0
171
     0
290
     0
174
     0
 93
        1
 44
0.0
173
     0
291
     0
 45
0.0
1001
ACAD
1000
AcDbSavedByObjectVersion
1070
     0
  0
VISUALSTYLE
  5
3E2
102
{ACAD_XDICTIONARY
360
468
102
}
102
{ACAD_REACTORS
330
3D5
102
}
330
3D5
100
AcDbVisualStyle
  2
Thicken
 70
    13
 71
     2
 72
     2
 73
     0
 90
        0
 40
-0.6
 41
-30.0
 62
     5
 63
     7
 74
     1
 91
        4
 64
     7
 65
   257
 75
     1
175
     1
 42
1.0
 92
       12
 66
     7
 43
1.0
 76
     1
 77
     6
 78
     2
 67
     7
 79
     5
170
     0
171
     0
290
     0
174
     0
 93
        1
 44
0.0
173
     0
291
     1
 45
0.0
1001
ACAD
1000
AcDbSavedByObjectVersion
1070
     0
  0
VISUALSTYLE
  5
3DC
102
{ACAD_XDICTIONARY
360
45C
102
}
102
{ACAD_REACTORS
330
3D5
102
}
330
3D5
100
AcDbVisualStyle
  2
Wireframe
 70
     5
 71
     0
 72
     2
 73
     0
 90
        0
 40
-0.6
 41
-30.0
 62
     5
 63
     7
 74
     1
 91
        4
 64
     7
 65
   257
 75
     1
175
     1
 42
1.0
 92
        0
 66
   257
 43
1.0
 76
     1
 77
     6
 78
     2
 67
     7
 79
     3
170
     0
171
     0
290
     0
174
     0
 93
        1
 44
0.0
173
     0
291
     0
 45
0.0
1001
ACAD
1000
AcDbSavedByObjectVersion
1070
     0
  0
VISUALSTYLE
  5
3E8
102
{ACAD_XDICTIONARY
360
474
102
}
102
{ACAD_REACTORS
330
3D5
102
}
330
3D5
100
AcDbVisualStyle
  2
X-Ray
 70
    25
 71
     2
 72
     2
 73
     1
 90
        1
 40
0.5
 41
-30.0
 62
     5
 63
     7
 74
     1
 91
        0
 64
     7
 65
   257
 75
     1
175
     1
 42
1.0
 92
        8
 66
     7
 43
1.0
 76
     1
 77
     6
 78
     2
 67
     7
 79
     3
170
     0
171
     0
290
     0
174
     0
 93
       13
 44
0.0
173
     0
291
     0
 45
0.0
1001
ACAD
1000
AcDbSavedByObjectVersion
1070
     0
  0
DICTIONARYVAR
  5
443
102
{ACAD_REACTORS
330
43E
102
}
330
43E
100
DictionaryVariables
280
     0
  1
1:1
  0
DICTIONARYVAR
  5
440
102
{ACAD_REACTORS
330
43E
102
}
330
43E
100
DictionaryVariables
280
     0
  1
STANDARD
  0
DICTIONARYVAR
  5
43F
102
{ACAD_REACTORS
330
43E
102
}
330
43E
100
DictionaryVariables
280
     0
  1
STANDARD
  0
DICTIONARYVAR
  5
441
102
{ACAD_REACTORS
330
43E
102
}
330
43E
100
DictionaryVariables
280
     0
  1
Imperial24
  0
DICTIONARYVAR
  5
442
102
{ACAD_REACTORS
330
43E
102
}
330
43E
100
DictionaryVariables
280
     0
  1
Imperial24
  0
DICTIONARYVAR
  5
446
102
{ACAD_REACTORS
330
43E
102
}
330
43E
100
DictionaryVariables
280
     0
  1
1
  0
DICTIONARYVAR
  5
445
102
{ACAD_REACTORS
330
43E
102
}
330
43E
100
DictionaryVariables
280
     0
  1
0
  0
DICTIONARYVAR
  5
444
102
{ACAD_REACTORS
330
43E
102
}
330
43E
100
DictionaryVariables
280
     0
  1
127
  0
DICTIONARYVAR
  5
447
102
{ACAD_REACTORS
330
43E
102
}
330
43E
100
DictionaryVariables
280
     0
  1
2
  0
DICTIONARY
  5
484
330
416
100
AcDbDictionary
280
     1
281
     1
  3
ACAD_XREC_ROUNDTRIP
360
485
  0
DICTIONARY
  5
488
330
41E
100
AcDbDictionary
280
     1
281
     1
  3
ACAD_XREC_ROUNDTRIP
360
489
  0
DICTIONARY
  5
486
330
41A
100
AcDbDictionary
280
     1
281
     1
  3
ACAD_XREC_ROUNDTRIP
360
487
  0
DICTIONARY
  5
3C6
330
3C5
100
AcDbDictionary
280
     1
281
     1
  3
ACAD_XREC_ROUNDTRIP
360
44E
  3
BUMPTILE
360
3C8
  3
DIFFUSETILE
360
3C7
  3
OPACITYTILE
360
3CB
  3
REFLECTIONTILE
360
3CA
  3
REFRACTIONTILE
360
3CC
  3
SPECULARTILE
360
3C9
  0
DICTIONARY
  5
3BE
330
3BD
100
AcDbDictionary
280
     1
281
     1
  3
ACAD_XREC_ROUNDTRIP
360
44D
  3
BUMPTILE
360
3C0
  3
DIFFUSETILE
360
3BF
  3
OPACITYTILE
360
3C3
  3
REFLECTIONTILE
360
3C2
  3
REFRACTIONTILE
360
3C4
  3
SPECULARTILE
360
3C1
  0
DICTIONARY
  5
3CE
330
3CD
100
AcDbDictionary
280
     1
281
     1
  3
ACAD_XREC_ROUNDTRIP
360
44F
  3
BUMPTILE
360
3D0
  3
DIFFUSETILE
360
3CF
  3
OPACITYTILE
360
3D3
  3
REFLECTIONTILE
360
3D2
  3
REFRACTIONTILE
360
3D4
  3
SPECULARTILE
360
3D1
  0
DICTIONARY
  5
482
330
414
100
AcDbDictionary
280
     1
281
     1
  3
ACAD_XREC_ROUNDTRIP
360
483
  0
DICTIONARY
  5
449
330
410
100
AcDbDictionary
280
     1
281
     1
  3
ACAD_ROUNDTRIP_2008_TABLESTYLE_CELLSTYLEMAP
360
44A
  3
ACAD_XREC_ROUNDTRIP
360
480
  0
DICTIONARY
  5
45A
330
3DB
100
AcDbDictionary
280
     1
281
     1
  3
ACAD_XREC_ROUNDTRIP
360
45B
  0
DICTIONARY
  5
458
330
3DA
100
AcDbDictionary
280
     1
281
     1
  3
ACAD_XREC_ROUNDTRIP
360
459
  0
DICTIONARY
  5
466
330
3E1
100
AcDbDictionary
280
     1
281
     1
  3
ACAD_XREC_ROUNDTRIP
360
467
  0
DICTIONARY
  5
46E
330
3E5
100
AcDbDictionary
280
     1
281
     1
  3
ACAD_XREC_ROUNDTRIP
360
46F
  0
DICTIONARY
  5
460
330
3DE
100
AcDbDictionary
280
     1
281
     1
  3
ACAD_XREC_ROUNDTRIP
360
461
  0
DICTIONARY
  5
464
330
3E0
100
AcDbDictionary
280
     1
281
     1
  3
ACAD_XREC_ROUNDTRIP
360
465
  0
DICTIONARY
  5
47E
330
3ED
100
AcDbDictionary
280
     1
281
     1
  3
ACAD_XREC_ROUNDTRIP
360
47F
  0
DICTIONARY
  5
46C
330
3E4
100
AcDbDictionary
280
     1
281
     1
  3
ACAD_XREC_ROUNDTRIP
360
46D
  0
DICTIONARY
  5
450
330
3D6
100
AcDbDictionary
280
     1
281
     1
  3
ACAD_XREC_ROUNDTRIP
360
451
  0
DICTIONARY
  5
452
330
3D7
100
AcDbDictionary
280
     1
281
     1
  3
ACAD_XREC_ROUNDTRIP
360
453
  0
DICTIONARY
  5
454
330
3D8
100
AcDbDictionary
280
     1
281
     1
  3
ACAD_XREC_ROUNDTRIP
360
455
  0
DICTIONARY
  5
456
330
3D9
100
AcDbDictionary
280
     1
281
     1
  3
ACAD_XREC_ROUNDTRIP
360
457
  0
DICTIONARY
  5
45E
330
3DD
100
AcDbDictionary
280
     1
281
     1
  3
ACAD_XREC_ROUNDTRIP
360
45F
  0
DICTIONARY
  5
47A
330
3EB
100
AcDbDictionary
280
     1
281
     1
  3
ACAD_XREC_ROUNDTRIP
360
47B
  0
DICTIONARY
  5
46A
330
3E3
100
AcDbDictionary
280
     1
281
     1
  3
ACAD_XREC_ROUNDTRIP
360
46B
  0
DICTIONARY
  5
47C
330
3EC
100
AcDbDictionary
280
     1
281
     1
  3
ACAD_XREC_ROUNDTRIP
360
47D
  0
DICTIONARY
  5
462
330
3DF
100
AcDbDictionary
280
     1
281
     1
  3
ACAD_XREC_ROUNDTRIP
360
463
  0
DICTIONARY
  5
478
330
3EA
100
AcDbDictionary
280
     1
281
     1
  3
ACAD_XREC_ROUNDTRIP
360
479
  0
DICTIONARY
  5
476
330
3E9
100
AcDbDictionary
280
     1
281
     1
  3
ACAD_XREC_ROUNDTRIP
360
477
  0
DICTIONARY
  5
470
330
3E6
100
AcDbDictionary
280
     1
281
     1
  3
ACAD_XREC_ROUNDTRIP
360
471
  0
DICTIONARY
  5
472
330
3E7
100
AcDbDictionary
280
     1
281
     1
  3
ACAD_XREC_ROUNDTRIP
360
473
  0
DICTIONARY
  5
468
330
3E2
100
AcDbDictionary
280
     1
281
     1
  3
ACAD_XREC_ROUNDTRIP
360
469
  0
DICTIONARY
  5
45C
330
3DC
100
AcDbDictionary
280
     1
281
     1
  3
ACAD_XREC_ROUNDTRIP
360
45D
  0
DICTIONARY
  5
474
330
3E8
100
AcDbDictionary
280
     1
281
     1
  3
ACAD_XREC_ROUNDTRIP
360
475
  0
XRECORD
  5
485
102
{ACAD_REACTORS
330
484
102
}
330
484
100
AcDbXrecord
280
     1
102
DISPLAYNAME
  1
Imperial24
102
FLAGS
 90
        0
  0
XRECORD
  5
489
102
{ACAD_REACTORS
330
488
102
}
330
488
100
AcDbXrecord
280
     1
102
SHADEPLOT
 70
     0
102
SHADEPLOTRESLEVEL
 70
     2
102
SHADEPLOTCUSTOMDPI
 70
   300
  0
XRECORD
  5
487
102
{ACAD_REACTORS
330
486
102
}
330
486
100
AcDbXrecord
280
     1
102
SHADEPLOT
 70
     0
102
SHADEPLOTRESLEVEL
 70
     2
102
SHADEPLOTCUSTOMDPI
 70
   300
  0
XRECORD
  5
44E
102
{ACAD_REACTORS
330
3C6
102
}
330
3C6
100
AcDbXrecord
280
     1
102
MATERIAL
148
0.0
149
0.0
149
0.0
 93
        0
 94
      127
282
     0
 72
     0
 77
     0
171
     0
175
     0
179
     0
273
     0
  0
XRECORD
  5
3C8
102
{ACAD_REACTORS
330
3C6
102
}
330
3C6
100
AcDbXrecord
280
     1
270
     1
271
     1
  0
XRECORD
  5
3C7
102
{ACAD_REACTORS
330
3C6
102
}
330
3C6
100
AcDbXrecord
280
     1
270
     1
271
     1
  0
XRECORD
  5
3CB
102
{ACAD_REACTORS
330
3C6
102
}
330
3C6
100
AcDbXrecord
280
     1
270
     1
271
     1
  0
XRECORD
  5
3CA
102
{ACAD_REACTORS
330
3C6
102
}
330
3C6
100
AcDbXrecord
280
     1
270
     1
271
     1
  0
XRECORD
  5
3CC
102
{ACAD_REACTORS
330
3C6
102
}
330
3C6
100
AcDbXrecord
280
     1
270
     1
271
     1
  0
XRECORD
  5
3C9
102
{ACAD_REACTORS
330
3C6
102
}
330
3C6
100
AcDbXrecord
280
     1
270
     1
271
     1
  0
XRECORD
  5
44D
102
{ACAD_REACTORS
330
3BE
102
}
330
3BE
100
AcDbXrecord
280
     1
102
MATERIAL
148
0.0
149
0.0
149
0.0
 93
        0
 94
      127
282
     0
 72
     0
 77
     0
171
     0
175
     0
179
     0
273
     0
  0
XRECORD
  5
3C0
102
{ACAD_REACTORS
330
3BE
102
}
330
3BE
100
AcDbXrecord
280
     1
270
     1
271
     1
  0
XRECORD
  5
3BF
102
{ACAD_REACTORS
330
3BE
102
}
330
3BE
100
AcDbXrecord
280
     1
270
     1
271
     1
  0
XRECORD
  5
3C3
102
{ACAD_REACTORS
330
3BE
102
}
330
3BE
100
AcDbXrecord
280
     1
270
     1
271
     1
  0
XRECORD
  5
3C2
102
{ACAD_REACTORS
330
3BE
102
}
330
3BE
100
AcDbXrecord
280
     1
270
     1
271
     1
  0
XRECORD
  5
3C4
102
{ACAD_REACTORS
330
3BE
102
}
330
3BE
100
AcDbXrecord
280
     1
270
     1
271
     1
  0
XRECORD
  5
3C1
102
{ACAD_REACTORS
330
3BE
102
}
330
3BE
100
AcDbXrecord
280
     1
270
     1
271
     1
  0
XRECORD
  5
44F
102
{ACAD_REACTORS
330
3CE
102
}
330
3CE
100
AcDbXrecord
280
     1
102
MATERIAL
148
0.0
149
0.0
149
0.0
 93
        0
 94
      127
282
     0
 72
     0
 77
     0
171
     0
175
     0
179
     0
273
     0
  0
XRECORD
  5
3D0
102
{ACAD_REACTORS
330
3CE
102
}
330
3CE
100
AcDbXrecord
280
     1
270
     1
271
     1
  0
XRECORD
  5
3CF
102
{ACAD_REACTORS
330
3CE
102
}
330
3CE
100
AcDbXrecord
280
     1
270
     1
271
     1
  0
XRECORD
  5
3D3
102
{ACAD_REACTORS
330
3CE
102
}
330
3CE
100
AcDbXrecord
280
     1
270
     1
271
     1
  0
XRECORD
  5
3D2
102
{ACAD_REACTORS
330
3CE
102
}
330
3CE
100
AcDbXrecord
280
     1
270
     1
271
     1
  0
XRECORD
  5
3D4
102
{ACAD_REACTORS
330
3CE
102
}
330
3CE
100
AcDbXrecord
280
     1
270
     1
271
     1
  0
XRECORD
  5
3D1
102
{ACAD_REACTORS
330
3CE
102
}
330
3CE
100
AcDbXrecord
280
     1
270
     1
271
     1
  0
XRECORD
  5
483
102
{ACAD_REACTORS
330
482
102
}
330
482
100
AcDbXrecord
280
     1
102
DISPLAYNAME
  1
Imperial24
102
FLAGS
 90
        0
  0
CELLSTYLEMAP
  5
44A
102
{ACAD_REACTORS
330
449
102
}
330
449
100
AcDbCellStyleMap
 90
        3
300
CELLSTYLE
  1
TABLEFORMAT_BEGIN
 90
        5
170
     1
 91
        0
 92
    32768
 62
   257
 93
        1
300
CONTENTFORMAT
  1
CONTENTFORMAT_BEGIN
 90
        0
 91
        0
 92
      512
 93
        0
300

 40
0.0
140
1.0
 94
        5
 62
     0
340
401
144
0.25
309
CONTENTFORMAT_END
171
     0
 94
        0
309
TABLEFORMAT_END
  1
CELLSTYLE_BEGIN
 90
        1
 91
        1
300
_TITLE
309
CELLSTYLE_END
300
CELLSTYLE
  1
TABLEFORMAT_BEGIN
 90
        5
170
     1
 91
        0
 92
        0
 62
   257
 93
        1
300
CONTENTFORMAT
  1
CONTENTFORMAT_BEGIN
 90
        0
 91
        0
 92
      512
 93
        0
300

 40
0.0
140
1.0
 94
        5
 62
     0
340
401
144
0.18
309
CONTENTFORMAT_END
171
     0
 94
        0
309
TABLEFORMAT_END
  1
CELLSTYLE_BEGIN
 90
        2
 91
        1
300
_HEADER
309
CELLSTYLE_END
300
CELLSTYLE
  1
TABLEFORMAT_BEGIN
 90
        5
170
     1
 91
        0
 92
        0
 62
   257
 93
        1
300
CONTENTFORMAT
  1
CONTENTFORMAT_BEGIN
 90
        0
 91
        0
 92
      512
 93
        0
300

 40
0.0
140
1.0
 94
        2
 62
     0
340
401
144
0.18
309
CONTENTFORMAT_END
171
     0
 94
        0
309
TABLEFORMAT_END
  1
CELLSTYLE_BEGIN
 90
        3
 91
        2
300
_DATA
309
CELLSTYLE_END
  0
XRECORD
  5
480
102
{ACAD_REACTORS
330
449
102
}
330
449
100
AcDbXrecord
280
     1
102
ACAD_ROUNDTRIP_PRE2007_TABLESTYLE
 90
      512
 91
        0
  1

 92
      512
 93
        0
  2

 94
      512
 95
        0
  3

  0
XRECORD
  5
45B
102
{ACAD_REACTORS
330
45A
102
}
330
45A
100
AcDbXrecord
280
     1
102
RTVSPost2010Prop28
280
     1
102
RTVSPost2010PropOp28
 70
     1
102
RTVSPost2010Prop29
280
     1
102
RTVSPost2010PropOp29
 70
     1
102
RTVSPost2010Prop30
280
     0
102
RTVSPost2010PropOp30
 70
     1
102
RTVSPost2010Prop31
280
     0
102
RTVSPost2010PropOp31
 70
     1
102
RTVSPost2010Prop32
280
     0
102
RTVSPost2010PropOp32
 70
     1
102
RTVSPost2010Prop33
280
     0
102
RTVSPost2010PropOp33
 70
     1
102
RTVSPost2010Prop34
280
     0
102
RTVSPost2010PropOp34
 70
     1
102
RTVSPost2010Prop35
280
     0
102
RTVSPost2010PropOp35
 70
     1
102
RTVSPost2010Prop36
280
     0
102
RTVSPost2010PropOp36
 70
     1
102
RTVSPost2010Prop37
 90
       50
102
RTVSPost2010PropOp37
 70
     1
102
RTVSPost2010Prop38
140
0.0
102
RTVSPost2010PropOp38
 70
     1
102
RTVSPost2010Prop39
140
1.0
102
RTVSPost2010PropOp39
 70
     1
102
RTVSPost2010Prop40
 90
        0
102
RTVSPost2010PropOp40
 70
     1
102
RTVSPost2010Prop41ColorIndex
 90
       18
102
RTVSPost2010Prop41ColorRGB
 90
        0
102
RTVSPost2010PropOp41
 70
     1
102
RTVSPost2010Prop42
 90
       50
102
RTVSPost2010PropOp42
 70
     1
102
RTVSPost2010Prop43
 90
        3
102
RTVSPost2010PropOp43
 70
     1
102
RTVSPost2010Prop44ColorIndex
 90
        5
102
RTVSPost2010Prop44ColorRGB
 90
      255
102
RTVSPost2010PropOp44
 70
     1
102
RTVSPost2010Prop45
280
     0
102
RTVSPost2010PropOp45
 70
     1
102
RTVSPost2010Prop46
 90
       50
102
RTVSPost2010PropOp46
 70
     1
102
RTVSPost2010Prop47
 90
       50
102
RTVSPost2010PropOp47
 70
     1
102
RTVSPost2010Prop48
 90
       50
102
RTVSPost2010PropOp48
 70
     1
102
RTVSPost2010Prop49
280
     0
102
RTVSPost2010PropOp49
 70
     1
102
RTVSPost2010Prop50
 90
       50
102
RTVSPost2010PropOp50
 70
     1
102
RTVSPost2010Prop51ColorIndex
 90
      256
102
RTVSPost2010Prop51ColorRGB
 90
-16777216
102
RTVSPost2010PropOp51
 70
     0
102
RTVSPost2010Prop52
140
1.0
102
RTVSPost2010PropOp52
 70
     0
102
RTVSPost2010Prop53
 90
        2
102
RTVSPost2010PropOp53
 70
     1
102
RTVSPost2010Prop54
  1
strokes_ogs.tif
102
RTVSPost2010PropOp54
 70
     1
102
RTVSPost2010Prop55
280
     0
102
RTVSPost2010PropOp55
 70
     1
102
RTVSPost2010Prop56
140
1.0
102
RTVSPost2010PropOp56
 70
     1
102
RTVSPost2010Prop57
140
1.0
102
RTVSPost2010PropOp57
 70
     1
102
RTVSPropertyOp0
 70
     1
102
RTVSPropertyOp1
 70
     1
102
RTVSPropertyOp2
 70
     1
102
RTVSPropertyOp3
 70
     1
102
RTVSPropertyOp4
 70
     1
102
RTVSPropertyOp5
 70
     1
102
RTVSPropertyOp6
 70
     1
102
RTVSPropertyOp7
 70
     1
102
RTVSPropertyOp8
 70
     1
102
RTVSPropertyOp9
 70
     1
102
RTVSPropertyOp10
 70
     1
102
RTVSPropertyOp11
 70
     1
102
RTVSPropertyOp12
 70
     1
102
RTVSPropertyOp13
 70
     1
102
RTVSPropertyOp14
 70
     1
102
RTVSPropertyOp15
 70
     1
102
RTVSPropertyOp16
 70
     1
102
RTVSPropertyOp17
 70
     1
102
RTVSPropertyOp18
 70
     1
102
RTVSPropertyOp19
 70
     1
102
RTVSPropertyOp20
 70
     1
102
RTVSPropertyOp21
 70
     1
102
RTVSPropertyOp22
 70
     1
102
RTVSPropertyOp23
 70
     1
102
RTVSPropertyOp24
 70
     1
102
RTVSPropertyOp25
 70
     1
102
RTVSPropertyOp26
 70
     1
102
RTVSPropertyOp27
 70
     1
102
RTVSPropertyOp28
 70
     1
102
RTVSPropertyOp29
 70
     1
102
RTVSPropertyOp30
 70
     1
102
RTVSPropertyOp31
 70
     1
102
RTVSPropertyOp32
 70
     1
102
RTVSPropertyOp33
 70
     1
102
RTVSPropertyOp34
 70
     1
102
RTVSPropertyOp35
 70
     1
102
RTVSPropertyOp36
 70
     1
102
RTVSPropertyOp37
 70
     1
102
RTVSPropertyOp38
 70
     1
102
RTVSPropertyOp39
 70
     1
102
RTVSPropertyOp40
 70
     1
102
RTVSPropertyOp41
 70
     1
102
RTVSPropertyOp42
 70
     1
102
RTVSPropertyOp43
 70
     1
102
RTVSPropertyOp44
 70
     1
102
RTVSPropertyOp45
 70
     1
102
RTVSPropertyOp46
 70
     1
102
RTVSPropertyOp47
 70
     1
102
RTVSPropertyOp48
 70
     1
102
RTVSPropertyOp49
 70
     1
102
RTVSPropertyOp50
 70
     1
102
RTVSPropertyOp51
 70
     0
102
RTVSPropertyOp52
 70
     0
102
RTVSPropertyOp53
 70
     1
102
RTVSPropertyOp54
 70
     1
102
RTVSPropertyOp55
 70
     1
102
RTVSPropertyOp56
 70
     1
102
RTVSPropertyOp57
 70
     1
102
RTVSPropertyOp58
 70
     1
102
RTVSPropertyOp59
 70
     1
102
RTVSPropertyOp60
 70
     1
102
RTVSPropertyOp61
 70
     1
102
RTVSPropertyOp62
 70
     1
  0
XRECORD
  5
459
102
{ACAD_REACTORS
330
458
102
}
330
458
100
AcDbXrecord
280
     1
102
RTVSPost2010Prop28
280
     0
102
RTVSPost2010PropOp28
 70
     1
102
RTVSPost2010Prop29
280
     1
102
RTVSPost2010PropOp29
 70
     1
102
RTVSPost2010Prop30
280
     1
102
RTVSPost2010PropOp30
 70
     1
102
RTVSPost2010Prop31
280
     0
102
RTVSPost2010PropOp31
 70
     1
102
RTVSPost2010Prop32
280
     0
102
RTVSPost2010PropOp32
 70
     1
102
RTVSPost2010Prop33
280
     0
102
RTVSPost2010PropOp33
 70
     1
102
RTVSPost2010Prop34
280
     0
102
RTVSPost2010PropOp34
 70
     1
102
RTVSPost2010Prop35
280
     0
102
RTVSPost2010PropOp35
 70
     1
102
RTVSPost2010Prop36
280
     0
102
RTVSPost2010PropOp36
 70
     1
102
RTVSPost2010Prop37
 90
       50
102
RTVSPost2010PropOp37
 70
     1
102
RTVSPost2010Prop38
140
0.0
102
RTVSPost2010PropOp38
 70
     1
102
RTVSPost2010Prop39
140
1.0
102
RTVSPost2010PropOp39
 70
     1
102
RTVSPost2010Prop40
 90
        0
102
RTVSPost2010PropOp40
 70
     1
102
RTVSPost2010Prop41ColorIndex
 90
       18
102
RTVSPost2010Prop41ColorRGB
 90
        0
102
RTVSPost2010PropOp41
 70
     1
102
RTVSPost2010Prop42
 90
       50
102
RTVSPost2010PropOp42
 70
     1
102
RTVSPost2010Prop43
 90
        3
102
RTVSPost2010PropOp43
 70
     1
102
RTVSPost2010Prop44ColorIndex
 90
        5
102
RTVSPost2010Prop44ColorRGB
 90
      255
102
RTVSPost2010PropOp44
 70
     1
102
RTVSPost2010Prop45
280
     0
102
RTVSPost2010PropOp45
 70
     1
102
RTVSPost2010Prop46
 90
       50
102
RTVSPost2010PropOp46
 70
     1
102
RTVSPost2010Prop47
 90
       50
102
RTVSPost2010PropOp47
 70
     1
102
RTVSPost2010Prop48
 90
       50
102
RTVSPost2010PropOp48
 70
     1
102
RTVSPost2010Prop49
280
     0
102
RTVSPost2010PropOp49
 70
     1
102
RTVSPost2010Prop50
 90
       50
102
RTVSPost2010PropOp50
 70
     1
102
RTVSPost2010Prop51ColorIndex
 90
      256
102
RTVSPost2010Prop51ColorRGB
 90
-16777216
102
RTVSPost2010PropOp51
 70
     0
102
RTVSPost2010Prop52
140
1.0
102
RTVSPost2010PropOp52
 70
     0
102
RTVSPost2010Prop53
 90
        2
102
RTVSPost2010PropOp53
 70
     1
102
RTVSPost2010Prop54
  1
strokes_ogs.tif
102
RTVSPost2010PropOp54
 70
     1
102
RTVSPost2010Prop55
280
     0
102
RTVSPost2010PropOp55
 70
     1
102
RTVSPost2010Prop56
140
1.0
102
RTVSPost2010PropOp56
 70
     1
102
RTVSPost2010Prop57
140
1.0
102
RTVSPost2010PropOp57
 70
     1
102
RTVSPropertyOp0
 70
     1
102
RTVSPropertyOp1
 70
     1
102
RTVSPropertyOp2
 70
     1
102
RTVSPropertyOp3
 70
     1
102
RTVSPropertyOp4
 70
     1
102
RTVSPropertyOp5
 70
     1
102
RTVSPropertyOp6
 70
     1
102
RTVSPropertyOp7
 70
     1
102
RTVSPropertyOp8
 70
     1
102
RTVSPropertyOp9
 70
     1
102
RTVSPropertyOp10
 70
     1
102
RTVSPropertyOp11
 70
     1
102
RTVSPropertyOp12
 70
     1
102
RTVSPropertyOp13
 70
     1
102
RTVSPropertyOp14
 70
     1
102
RTVSPropertyOp15
 70
     1
102
RTVSPropertyOp16
 70
     1
102
RTVSPropertyOp17
 70
     1
102
RTVSPropertyOp18
 70
     1
102
RTVSPropertyOp19
 70
     1
102
RTVSPropertyOp20
 70
     1
102
RTVSPropertyOp21
 70
     1
102
RTVSPropertyOp22
 70
     1
102
RTVSPropertyOp23
 70
     1
102
RTVSPropertyOp24
 70
     1
102
RTVSPropertyOp25
 70
     1
102
RTVSPropertyOp26
 70
     1
102
RTVSPropertyOp27
 70
     1
102
RTVSPropertyOp28
 70
     1
102
RTVSPropertyOp29
 70
     1
102
RTVSPropertyOp30
 70
     1
102
RTVSPropertyOp31
 70
     1
102
RTVSPropertyOp32
 70
     1
102
RTVSPropertyOp33
 70
     1
102
RTVSPropertyOp34
 70
     1
102
RTVSPropertyOp35
 70
     1
102
RTVSPropertyOp36
 70
     1
102
RTVSPropertyOp37
 70
     1
102
RTVSPropertyOp38
 70
     1
102
RTVSPropertyOp39
 70
     1
102
RTVSPropertyOp40
 70
     1
102
RTVSPropertyOp41
 70
     1
102
RTVSPropertyOp42
 70
     1
102
RTVSPropertyOp43
 70
     1
102
RTVSPropertyOp44
 70
     1
102
RTVSPropertyOp45
 70
     1
102
RTVSPropertyOp46
 70
     1
102
RTVSPropertyOp47
 70
     1
102
RTVSPropertyOp48
 70
     1
102
RTVSPropertyOp49
 70
     1
102
RTVSPropertyOp50
 70
     1
102
RTVSPropertyOp51
 70
     0
102
RTVSPropertyOp52
 70
     0
102
RTVSPropertyOp53
 70
     1
102
RTVSPropertyOp54
 70
     1
102
RTVSPropertyOp55
 70
     1
102
RTVSPropertyOp56
 70
     1
102
RTVSPropertyOp57
 70
     1
102
RTVSPropertyOp58
 70
     1
102
RTVSPropertyOp59
 70
     1
102
RTVSPropertyOp60
 70
     1
102
RTVSPropertyOp61
 70
     1
102
RTVSPropertyOp62
 70
     1
  0
XRECORD
  5
467
102
{ACAD_REACTORS
330
466
102
}
330
466
100
AcDbXrecord
280
     1
102
RTVSPost2010Prop28
280
     0
102
RTVSPost2010PropOp28
 70
     1
102
RTVSPost2010Prop29
280
     1
102
RTVSPost2010PropOp29
 70
     1
102
RTVSPost2010Prop30
280
     1
102
RTVSPost2010PropOp30
 70
     1
102
RTVSPost2010Prop31
280
     0
102
RTVSPost2010PropOp31
 70
     1
102
RTVSPost2010Prop32
280
     0
102
RTVSPost2010PropOp32
 70
     1
102
RTVSPost2010Prop33
280
     0
102
RTVSPost2010PropOp33
 70
     1
102
RTVSPost2010Prop34
280
     0
102
RTVSPost2010PropOp34
 70
     1
102
RTVSPost2010Prop35
280
     0
102
RTVSPost2010PropOp35
 70
     1
102
RTVSPost2010Prop36
280
     0
102
RTVSPost2010PropOp36
 70
     1
102
RTVSPost2010Prop37
 90
       50
102
RTVSPost2010PropOp37
 70
     1
102
RTVSPost2010Prop38
140
0.0
102
RTVSPost2010PropOp38
 70
     1
102
RTVSPost2010Prop39
140
1.0
102
RTVSPost2010PropOp39
 70
     1
102
RTVSPost2010Prop40
 90
        0
102
RTVSPost2010PropOp40
 70
     1
102
RTVSPost2010Prop41ColorIndex
 90
       18
102
RTVSPost2010Prop41ColorRGB
 90
        0
102
RTVSPost2010PropOp41
 70
     1
102
RTVSPost2010Prop42
 90
       50
102
RTVSPost2010PropOp42
 70
     1
102
RTVSPost2010Prop43
 90
        3
102
RTVSPost2010PropOp43
 70
     1
102
RTVSPost2010Prop44ColorIndex
 90
        5
102
RTVSPost2010Prop44ColorRGB
 90
      255
102
RTVSPost2010PropOp44
 70
     1
102
RTVSPost2010Prop45
280
     0
102
RTVSPost2010PropOp45
 70
     1
102
RTVSPost2010Prop46
 90
       50
102
RTVSPost2010PropOp46
 70
     1
102
RTVSPost2010Prop47
 90
       50
102
RTVSPost2010PropOp47
 70
     1
102
RTVSPost2010Prop48
 90
       50
102
RTVSPost2010PropOp48
 70
     1
102
RTVSPost2010Prop49
280
     0
102
RTVSPost2010PropOp49
 70
     1
102
RTVSPost2010Prop50
 90
       50
102
RTVSPost2010PropOp50
 70
     1
102
RTVSPost2010Prop51ColorIndex
 90
      256
102
RTVSPost2010Prop51ColorRGB
 90
-16777216
102
RTVSPost2010PropOp51
 70
     0
102
RTVSPost2010Prop52
140
1.0
102
RTVSPost2010PropOp52
 70
     0
102
RTVSPost2010Prop53
 90
        2
102
RTVSPost2010PropOp53
 70
     1
102
RTVSPost2010Prop54
  1
strokes_ogs.tif
102
RTVSPost2010PropOp54
 70
     1
102
RTVSPost2010Prop55
280
     0
102
RTVSPost2010PropOp55
 70
     1
102
RTVSPost2010Prop56
140
1.0
102
RTVSPost2010PropOp56
 70
     1
102
RTVSPost2010Prop57
140
1.0
102
RTVSPost2010PropOp57
 70
     1
102
RTVSPropertyOp0
 70
     1
102
RTVSPropertyOp1
 70
     1
102
RTVSPropertyOp2
 70
     1
102
RTVSPropertyOp3
 70
     1
102
RTVSPropertyOp4
 70
     1
102
RTVSPropertyOp5
 70
     1
102
RTVSPropertyOp6
 70
     1
102
RTVSPropertyOp7
 70
     1
102
RTVSPropertyOp8
 70
     1
102
RTVSPropertyOp9
 70
     1
102
RTVSPropertyOp10
 70
     1
102
RTVSPropertyOp11
 70
     1
102
RTVSPropertyOp12
 70
     1
102
RTVSPropertyOp13
 70
     1
102
RTVSPropertyOp14
 70
     1
102
RTVSPropertyOp15
 70
     1
102
RTVSPropertyOp16
 70
     1
102
RTVSPropertyOp17
 70
     1
102
RTVSPropertyOp18
 70
     1
102
RTVSPropertyOp19
 70
     1
102
RTVSPropertyOp20
 70
     1
102
RTVSPropertyOp21
 70
     1
102
RTVSPropertyOp22
 70
     1
102
RTVSPropertyOp23
 70
     1
102
RTVSPropertyOp24
 70
     1
102
RTVSPropertyOp25
 70
     1
102
RTVSPropertyOp26
 70
     1
102
RTVSPropertyOp27
 70
     1
102
RTVSPropertyOp28
 70
     1
102
RTVSPropertyOp29
 70
     1
102
RTVSPropertyOp30
 70
     1
102
RTVSPropertyOp31
 70
     1
102
RTVSPropertyOp32
 70
     1
102
RTVSPropertyOp33
 70
     1
102
RTVSPropertyOp34
 70
     1
102
RTVSPropertyOp35
 70
     1
102
RTVSPropertyOp36
 70
     1
102
RTVSPropertyOp37
 70
     1
102
RTVSPropertyOp38
 70
     1
102
RTVSPropertyOp39
 70
     1
102
RTVSPropertyOp40
 70
     1
102
RTVSPropertyOp41
 70
     1
102
RTVSPropertyOp42
 70
     1
102
RTVSPropertyOp43
 70
     1
102
RTVSPropertyOp44
 70
     1
102
RTVSPropertyOp45
 70
     1
102
RTVSPropertyOp46
 70
     1
102
RTVSPropertyOp47
 70
     1
102
RTVSPropertyOp48
 70
     1
102
RTVSPropertyOp49
 70
     1
102
RTVSPropertyOp50
 70
     1
102
RTVSPropertyOp51
 70
     0
102
RTVSPropertyOp52
 70
     0
102
RTVSPropertyOp53
 70
     1
102
RTVSPropertyOp54
 70
     1
102
RTVSPropertyOp55
 70
     1
102
RTVSPropertyOp56
 70
     1
102
RTVSPropertyOp57
 70
     1
102
RTVSPropertyOp58
 70
     1
102
RTVSPropertyOp59
 70
     1
102
RTVSPropertyOp60
 70
     1
102
RTVSPropertyOp61
 70
     1
102
RTVSPropertyOp62
 70
     1
  0
XRECORD
  5
46F
102
{ACAD_REACTORS
330
46E
102
}
330
46E
100
AcDbXrecord
280
     1
102
RTVSPost2010Prop28
280
     0
102
RTVSPost2010PropOp28
 70
     1
102
RTVSPost2010Prop29
280
     1
102
RTVSPost2010PropOp29
 70
     1
102
RTVSPost2010Prop30
280
     1
102
RTVSPost2010PropOp30
 70
     1
102
RTVSPost2010Prop31
280
     0
102
RTVSPost2010PropOp31
 70
     1
102
RTVSPost2010Prop32
280
     0
102
RTVSPost2010PropOp32
 70
     1
102
RTVSPost2010Prop33
280
     0
102
RTVSPost2010PropOp33
 70
     1
102
RTVSPost2010Prop34
280
     0
102
RTVSPost2010PropOp34
 70
     1
102
RTVSPost2010Prop35
280
     0
102
RTVSPost2010PropOp35
 70
     1
102
RTVSPost2010Prop36
280
     0
102
RTVSPost2010PropOp36
 70
     1
102
RTVSPost2010Prop37
 90
       50
102
RTVSPost2010PropOp37
 70
     1
102
RTVSPost2010Prop38
140
0.0
102
RTVSPost2010PropOp38
 70
     1
102
RTVSPost2010Prop39
140
1.0
102
RTVSPost2010PropOp39
 70
     1
102
RTVSPost2010Prop40
 90
        0
102
RTVSPost2010PropOp40
 70
     1
102
RTVSPost2010Prop41ColorIndex
 90
       18
102
RTVSPost2010Prop41ColorRGB
 90
        0
102
RTVSPost2010PropOp41
 70
     1
102
RTVSPost2010Prop42
 90
       50
102
RTVSPost2010PropOp42
 70
     1
102
RTVSPost2010Prop43
 90
        3
102
RTVSPost2010PropOp43
 70
     1
102
RTVSPost2010Prop44ColorIndex
 90
        5
102
RTVSPost2010Prop44ColorRGB
 90
      255
102
RTVSPost2010PropOp44
 70
     1
102
RTVSPost2010Prop45
280
     0
102
RTVSPost2010PropOp45
 70
     1
102
RTVSPost2010Prop46
 90
       50
102
RTVSPost2010PropOp46
 70
     1
102
RTVSPost2010Prop47
 90
       50
102
RTVSPost2010PropOp47
 70
     1
102
RTVSPost2010Prop48
 90
       50
102
RTVSPost2010PropOp48
 70
     1
102
RTVSPost2010Prop49
280
     0
102
RTVSPost2010PropOp49
 70
     1
102
RTVSPost2010Prop50
 90
       50
102
RTVSPost2010PropOp50
 70
     1
102
RTVSPost2010Prop51ColorIndex
 90
      256
102
RTVSPost2010Prop51ColorRGB
 90
-16777216
102
RTVSPost2010PropOp51
 70
     0
102
RTVSPost2010Prop52
140
1.0
102
RTVSPost2010PropOp52
 70
     0
102
RTVSPost2010Prop53
 90
        2
102
RTVSPost2010PropOp53
 70
     1
102
RTVSPost2010Prop54
  1
strokes_ogs.tif
102
RTVSPost2010PropOp54
 70
     1
102
RTVSPost2010Prop55
280
     0
102
RTVSPost2010PropOp55
 70
     1
102
RTVSPost2010Prop56
140
1.0
102
RTVSPost2010PropOp56
 70
     1
102
RTVSPost2010Prop57
140
1.0
102
RTVSPost2010PropOp57
 70
     1
102
RTVSPropertyOp0
 70
     1
102
RTVSPropertyOp1
 70
     1
102
RTVSPropertyOp2
 70
     1
102
RTVSPropertyOp3
 70
     1
102
RTVSPropertyOp4
 70
     1
102
RTVSPropertyOp5
 70
     1
102
RTVSPropertyOp6
 70
     1
102
RTVSPropertyOp7
 70
     1
102
RTVSPropertyOp8
 70
     1
102
RTVSPropertyOp9
 70
     1
102
RTVSPropertyOp10
 70
     1
102
RTVSPropertyOp11
 70
     1
102
RTVSPropertyOp12
 70
     1
102
RTVSPropertyOp13
 70
     1
102
RTVSPropertyOp14
 70
     1
102
RTVSPropertyOp15
 70
     1
102
RTVSPropertyOp16
 70
     1
102
RTVSPropertyOp17
 70
     1
102
RTVSPropertyOp18
 70
     1
102
RTVSPropertyOp19
 70
     1
102
RTVSPropertyOp20
 70
     1
102
RTVSPropertyOp21
 70
     1
102
RTVSPropertyOp22
 70
     1
102
RTVSPropertyOp23
 70
     1
102
RTVSPropertyOp24
 70
     1
102
RTVSPropertyOp25
 70
     1
102
RTVSPropertyOp26
 70
     1
102
RTVSPropertyOp27
 70
     1
102
RTVSPropertyOp28
 70
     1
102
RTVSPropertyOp29
 70
     1
102
RTVSPropertyOp30
 70
     1
102
RTVSPropertyOp31
 70
     1
102
RTVSPropertyOp32
 70
     1
102
RTVSPropertyOp33
 70
     1
102
RTVSPropertyOp34
 70
     1
102
RTVSPropertyOp35
 70
     1
102
RTVSPropertyOp36
 70
     1
102
RTVSPropertyOp37
 70
     1
102
RTVSPropertyOp38
 70
     1
102
RTVSPropertyOp39
 70
     1
102
RTVSPropertyOp40
 70
     1
102
RTVSPropertyOp41
 70
     1
102
RTVSPropertyOp42
 70
     1
102
RTVSPropertyOp43
 70
     1
102
RTVSPropertyOp44
 70
     1
102
RTVSPropertyOp45
 70
     1
102
RTVSPropertyOp46
 70
     1
102
RTVSPropertyOp47
 70
     1
102
RTVSPropertyOp48
 70
     1
102
RTVSPropertyOp49
 70
     1
102
RTVSPropertyOp50
 70
     1
102
RTVSPropertyOp51
 70
     0
102
RTVSPropertyOp52
 70
     0
102
RTVSPropertyOp53
 70
     1
102
RTVSPropertyOp54
 70
     1
102
RTVSPropertyOp55
 70
     1
102
RTVSPropertyOp56
 70
     1
102
RTVSPropertyOp57
 70
     1
102
RTVSPropertyOp58
 70
     1
102
RTVSPropertyOp59
 70
     1
102
RTVSPropertyOp60
 70
     1
102
RTVSPropertyOp61
 70
     1
102
RTVSPropertyOp62
 70
     1
  0
XRECORD
  5
461
102
{ACAD_REACTORS
330
460
102
}
330
460
100
AcDbXrecord
280
     1
102
RTVSPost2010Prop28
280
     0
102
RTVSPost2010PropOp28
 70
     1
102
RTVSPost2010Prop29
280
     1
102
RTVSPost2010PropOp29
 70
     1
102
RTVSPost2010Prop30
280
     1
102
RTVSPost2010PropOp30
 70
     1
102
RTVSPost2010Prop31
280
     0
102
RTVSPost2010PropOp31
 70
     1
102
RTVSPost2010Prop32
280
     0
102
RTVSPost2010PropOp32
 70
     1
102
RTVSPost2010Prop33
280
     0
102
RTVSPost2010PropOp33
 70
     1
102
RTVSPost2010Prop34
280
     0
102
RTVSPost2010PropOp34
 70
     1
102
RTVSPost2010Prop35
280
     0
102
RTVSPost2010PropOp35
 70
     1
102
RTVSPost2010Prop36
280
     0
102
RTVSPost2010PropOp36
 70
     1
102
RTVSPost2010Prop37
 90
       50
102
RTVSPost2010PropOp37
 70
     1
102
RTVSPost2010Prop38
140
0.0
102
RTVSPost2010PropOp38
 70
     1
102
RTVSPost2010Prop39
140
1.0
102
RTVSPost2010PropOp39
 70
     1
102
RTVSPost2010Prop40
 90
        0
102
RTVSPost2010PropOp40
 70
     1
102
RTVSPost2010Prop41ColorIndex
 90
       18
102
RTVSPost2010Prop41ColorRGB
 90
        0
102
RTVSPost2010PropOp41
 70
     1
102
RTVSPost2010Prop42
 90
       50
102
RTVSPost2010PropOp42
 70
     1
102
RTVSPost2010Prop43
 90
        3
102
RTVSPost2010PropOp43
 70
     1
102
RTVSPost2010Prop44ColorIndex
 90
        5
102
RTVSPost2010Prop44ColorRGB
 90
      255
102
RTVSPost2010PropOp44
 70
     1
102
RTVSPost2010Prop45
280
     0
102
RTVSPost2010PropOp45
 70
     1
102
RTVSPost2010Prop46
 90
       50
102
RTVSPost2010PropOp46
 70
     1
102
RTVSPost2010Prop47
 90
       50
102
RTVSPost2010PropOp47
 70
     1
102
RTVSPost2010Prop48
 90
       50
102
RTVSPost2010PropOp48
 70
     1
102
RTVSPost2010Prop49
280
     0
102
RTVSPost2010PropOp49
 70
     1
102
RTVSPost2010Prop50
 90
       50
102
RTVSPost2010PropOp50
 70
     1
102
RTVSPost2010Prop51ColorIndex
 90
      256
102
RTVSPost2010Prop51ColorRGB
 90
-16777216
102
RTVSPost2010PropOp51
 70
     0
102
RTVSPost2010Prop52
140
1.0
102
RTVSPost2010PropOp52
 70
     0
102
RTVSPost2010Prop53
 90
        2
102
RTVSPost2010PropOp53
 70
     1
102
RTVSPost2010Prop54
  1
strokes_ogs.tif
102
RTVSPost2010PropOp54
 70
     1
102
RTVSPost2010Prop55
280
     0
102
RTVSPost2010PropOp55
 70
     1
102
RTVSPost2010Prop56
140
1.0
102
RTVSPost2010PropOp56
 70
     1
102
RTVSPost2010Prop57
140
1.0
102
RTVSPost2010PropOp57
 70
     1
102
RTVSPropertyOp0
 70
     1
102
RTVSPropertyOp1
 70
     1
102
RTVSPropertyOp2
 70
     1
102
RTVSPropertyOp3
 70
     1
102
RTVSPropertyOp4
 70
     1
102
RTVSPropertyOp5
 70
     1
102
RTVSPropertyOp6
 70
     1
102
RTVSPropertyOp7
 70
     1
102
RTVSPropertyOp8
 70
     1
102
RTVSPropertyOp9
 70
     1
102
RTVSPropertyOp10
 70
     1
102
RTVSPropertyOp11
 70
     1
102
RTVSPropertyOp12
 70
     1
102
RTVSPropertyOp13
 70
     1
102
RTVSPropertyOp14
 70
     1
102
RTVSPropertyOp15
 70
     1
102
RTVSPropertyOp16
 70
     1
102
RTVSPropertyOp17
 70
     1
102
RTVSPropertyOp18
 70
     1
102
RTVSPropertyOp19
 70
     1
102
RTVSPropertyOp20
 70
     1
102
RTVSPropertyOp21
 70
     1
102
RTVSPropertyOp22
 70
     1
102
RTVSPropertyOp23
 70
     1
102
RTVSPropertyOp24
 70
     1
102
RTVSPropertyOp25
 70
     1
102
RTVSPropertyOp26
 70
     1
102
RTVSPropertyOp27
 70
     1
102
RTVSPropertyOp28
 70
     1
102
RTVSPropertyOp29
 70
     1
102
RTVSPropertyOp30
 70
     1
102
RTVSPropertyOp31
 70
     1
102
RTVSPropertyOp32
 70
     1
102
RTVSPropertyOp33
 70
     1
102
RTVSPropertyOp34
 70
     1
102
RTVSPropertyOp35
 70
     1
102
RTVSPropertyOp36
 70
     1
102
RTVSPropertyOp37
 70
     1
102
RTVSPropertyOp38
 70
     1
102
RTVSPropertyOp39
 70
     1
102
RTVSPropertyOp40
 70
     1
102
RTVSPropertyOp41
 70
     1
102
RTVSPropertyOp42
 70
     1
102
RTVSPropertyOp43
 70
     1
102
RTVSPropertyOp44
 70
     1
102
RTVSPropertyOp45
 70
     1
102
RTVSPropertyOp46
 70
     1
102
RTVSPropertyOp47
 70
     1
102
RTVSPropertyOp48
 70
     1
102
RTVSPropertyOp49
 70
     1
102
RTVSPropertyOp50
 70
     1
102
RTVSPropertyOp51
 70
     0
102
RTVSPropertyOp52
 70
     0
102
RTVSPropertyOp53
 70
     1
102
RTVSPropertyOp54
 70
     1
102
RTVSPropertyOp55
 70
     1
102
RTVSPropertyOp56
 70
     1
102
RTVSPropertyOp57
 70
     1
102
RTVSPropertyOp58
 70
     1
102
RTVSPropertyOp59
 70
     1
102
RTVSPropertyOp60
 70
     1
102
RTVSPropertyOp61
 70
     1
102
RTVSPropertyOp62
 70
     1
  0
XRECORD
  5
465
102
{ACAD_REACTORS
330
464
102
}
330
464
100
AcDbXrecord
280
     1
102
RTVSPost2010Prop28
280
     0
102
RTVSPost2010PropOp28
 70
     1
102
RTVSPost2010Prop29
280
     1
102
RTVSPost2010PropOp29
 70
     1
102
RTVSPost2010Prop30
280
     1
102
RTVSPost2010PropOp30
 70
     1
102
RTVSPost2010Prop31
280
     0
102
RTVSPost2010PropOp31
 70
     1
102
RTVSPost2010Prop32
280
     0
102
RTVSPost2010PropOp32
 70
     1
102
RTVSPost2010Prop33
280
     0
102
RTVSPost2010PropOp33
 70
     1
102
RTVSPost2010Prop34
280
     0
102
RTVSPost2010PropOp34
 70
     1
102
RTVSPost2010Prop35
280
     0
102
RTVSPost2010PropOp35
 70
     1
102
RTVSPost2010Prop36
280
     0
102
RTVSPost2010PropOp36
 70
     1
102
RTVSPost2010Prop37
 90
       50
102
RTVSPost2010PropOp37
 70
     1
102
RTVSPost2010Prop38
140
0.0
102
RTVSPost2010PropOp38
 70
     1
102
RTVSPost2010Prop39
140
1.0
102
RTVSPost2010PropOp39
 70
     1
102
RTVSPost2010Prop40
 90
        0
102
RTVSPost2010PropOp40
 70
     1
102
RTVSPost2010Prop41ColorIndex
 90
       18
102
RTVSPost2010Prop41ColorRGB
 90
        0
102
RTVSPost2010PropOp41
 70
     1
102
RTVSPost2010Prop42
 90
       50
102
RTVSPost2010PropOp42
 70
     1
102
RTVSPost2010Prop43
 90
        3
102
RTVSPost2010PropOp43
 70
     1
102
RTVSPost2010Prop44ColorIndex
 90
        5
102
RTVSPost2010Prop44ColorRGB
 90
      255
102
RTVSPost2010PropOp44
 70
     1
102
RTVSPost2010Prop45
280
     0
102
RTVSPost2010PropOp45
 70
     1
102
RTVSPost2010Prop46
 90
       50
102
RTVSPost2010PropOp46
 70
     1
102
RTVSPost2010Prop47
 90
       50
102
RTVSPost2010PropOp47
 70
     1
102
RTVSPost2010Prop48
 90
       50
102
RTVSPost2010PropOp48
 70
     1
102
RTVSPost2010Prop49
280
     0
102
RTVSPost2010PropOp49
 70
     1
102
RTVSPost2010Prop50
 90
       50
102
RTVSPost2010PropOp50
 70
     1
102
RTVSPost2010Prop51ColorIndex
 90
      256
102
RTVSPost2010Prop51ColorRGB
 90
-16777216
102
RTVSPost2010PropOp51
 70
     0
102
RTVSPost2010Prop52
140
1.0
102
RTVSPost2010PropOp52
 70
     0
102
RTVSPost2010Prop53
 90
        2
102
RTVSPost2010PropOp53
 70
     1
102
RTVSPost2010Prop54
  1
strokes_ogs.tif
102
RTVSPost2010PropOp54
 70
     1
102
RTVSPost2010Prop55
280
     0
102
RTVSPost2010PropOp55
 70
     1
102
RTVSPost2010Prop56
140
1.0
102
RTVSPost2010PropOp56
 70
     1
102
RTVSPost2010Prop57
140
1.0
102
RTVSPost2010PropOp57
 70
     1
102
RTVSPropertyOp0
 70
     1
102
RTVSPropertyOp1
 70
     1
102
RTVSPropertyOp2
 70
     1
102
RTVSPropertyOp3
 70
     1
102
RTVSPropertyOp4
 70
     1
102
RTVSPropertyOp5
 70
     1
102
RTVSPropertyOp6
 70
     1
102
RTVSPropertyOp7
 70
     1
102
RTVSPropertyOp8
 70
     1
102
RTVSPropertyOp9
 70
     1
102
RTVSPropertyOp10
 70
     1
102
RTVSPropertyOp11
 70
     1
102
RTVSPropertyOp12
 70
     1
102
RTVSPropertyOp13
 70
     1
102
RTVSPropertyOp14
 70
     1
102
RTVSPropertyOp15
 70
     1
102
RTVSPropertyOp16
 70
     1
102
RTVSPropertyOp17
 70
     1
102
RTVSPropertyOp18
 70
     1
102
RTVSPropertyOp19
 70
     1
102
RTVSPropertyOp20
 70
     1
102
RTVSPropertyOp21
 70
     1
102
RTVSPropertyOp22
 70
     1
102
RTVSPropertyOp23
 70
     1
102
RTVSPropertyOp24
 70
     1
102
RTVSPropertyOp25
 70
     1
102
RTVSPropertyOp26
 70
     1
102
RTVSPropertyOp27
 70
     1
102
RTVSPropertyOp28
 70
     1
102
RTVSPropertyOp29
 70
     1
102
RTVSPropertyOp30
 70
     1
102
RTVSPropertyOp31
 70
     1
102
RTVSPropertyOp32
 70
     1
102
RTVSPropertyOp33
 70
     1
102
RTVSPropertyOp34
 70
     1
102
RTVSPropertyOp35
 70
     1
102
RTVSPropertyOp36
 70
     1
102
RTVSPropertyOp37
 70
     1
102
RTVSPropertyOp38
 70
     1
102
RTVSPropertyOp39
 70
     1
102
RTVSPropertyOp40
 70
     1
102
RTVSPropertyOp41
 70
     1
102
RTVSPropertyOp42
 70
     1
102
RTVSPropertyOp43
 70
     1
102
RTVSPropertyOp44
 70
     1
102
RTVSPropertyOp45
 70
     1
102
RTVSPropertyOp46
 70
     1
102
RTVSPropertyOp47
 70
     1
102
RTVSPropertyOp48
 70
     1
102
RTVSPropertyOp49
 70
     1
102
RTVSPropertyOp50
 70
     1
102
RTVSPropertyOp51
 70
     0
102
RTVSPropertyOp52
 70
     0
102
RTVSPropertyOp53
 70
     1
102
RTVSPropertyOp54
 70
     1
102
RTVSPropertyOp55
 70
     1
102
RTVSPropertyOp56
 70
     1
102
RTVSPropertyOp57
 70
     1
102
RTVSPropertyOp58
 70
     1
102
RTVSPropertyOp59
 70
     1
102
RTVSPropertyOp60
 70
     1
102
RTVSPropertyOp61
 70
     1
102
RTVSPropertyOp62
 70
     1
  0
XRECORD
  5
47F
102
{ACAD_REACTORS
330
47E
102
}
330
47E
100
AcDbXrecord
280
     1
102
RTVSPost2010Prop28
280
     0
102
RTVSPost2010PropOp28
 70
     1
102
RTVSPost2010Prop29
280
     1
102
RTVSPost2010PropOp29
 70
     1
102
RTVSPost2010Prop30
280
     1
102
RTVSPost2010PropOp30
 70
     1
102
RTVSPost2010Prop31
280
     0
102
RTVSPost2010PropOp31
 70
     1
102
RTVSPost2010Prop32
280
     0
102
RTVSPost2010PropOp32
 70
     1
102
RTVSPost2010Prop33
280
     0
102
RTVSPost2010PropOp33
 70
     1
102
RTVSPost2010Prop34
280
     0
102
RTVSPost2010PropOp34
 70
     1
102
RTVSPost2010Prop35
280
     0
102
RTVSPost2010PropOp35
 70
     1
102
RTVSPost2010Prop36
280
     0
102
RTVSPost2010PropOp36
 70
     1
102
RTVSPost2010Prop37
 90
       50
102
RTVSPost2010PropOp37
 70
     0
102
RTVSPost2010Prop38
140
0.0
102
RTVSPost2010PropOp38
 70
     0
102
RTVSPost2010Prop39
140
1.0
102
RTVSPost2010PropOp39
 70
     0
102
RTVSPost2010Prop40
 90
        0
102
RTVSPost2010PropOp40
 70
     0
102
RTVSPost2010Prop41ColorIndex
 90
       18
102
RTVSPost2010Prop41ColorRGB
 90
        0
102
RTVSPost2010PropOp41
 70
     0
102
RTVSPost2010Prop42
 90
       50
102
RTVSPost2010PropOp42
 70
     0
102
RTVSPost2010Prop43
 90
        3
102
RTVSPost2010PropOp43
 70
     0
102
RTVSPost2010Prop44ColorIndex
 90
        5
102
RTVSPost2010Prop44ColorRGB
 90
      255
102
RTVSPost2010PropOp44
 70
     0
102
RTVSPost2010Prop45
280
     0
102
RTVSPost2010PropOp45
 70
     1
102
RTVSPost2010Prop46
 90
       50
102
RTVSPost2010PropOp46
 70
     0
102
RTVSPost2010Prop47
 90
       50
102
RTVSPost2010PropOp47
 70
     0
102
RTVSPost2010Prop48
 90
       50
102
RTVSPost2010PropOp48
 70
     0
102
RTVSPost2010Prop49
280
     0
102
RTVSPost2010PropOp49
 70
     1
102
RTVSPost2010Prop50
 90
       50
102
RTVSPost2010PropOp50
 70
     0
102
RTVSPost2010Prop51ColorIndex
 90
      256
102
RTVSPost2010Prop51ColorRGB
 90
-16777216
102
RTVSPost2010PropOp51
 70
     0
102
RTVSPost2010Prop52
140
1.0
102
RTVSPost2010PropOp52
 70
     0
102
RTVSPost2010Prop53
 90
        2
102
RTVSPost2010PropOp53
 70
     0
102
RTVSPost2010Prop54
  1
strokes_ogs.tif
102
RTVSPost2010PropOp54
 70
     0
102
RTVSPost2010Prop55
280
     0
102
RTVSPost2010PropOp55
 70
     1
102
RTVSPost2010Prop56
140
1.0
102
RTVSPost2010PropOp56
 70
     0
102
RTVSPost2010Prop57
140
1.0
102
RTVSPost2010PropOp57
 70
     0
102
RTVSPropertyOp0
 70
     0
102
RTVSPropertyOp1
 70
     0
102
RTVSPropertyOp2
 70
     0
102
RTVSPropertyOp3
 70
     0
102
RTVSPropertyOp4
 70
     0
102
RTVSPropertyOp5
 70
     0
102
RTVSPropertyOp6
 70
     0
102
RTVSPropertyOp7
 70
     0
102
RTVSPropertyOp8
 70
     0
102
RTVSPropertyOp9
 70
     0
102
RTVSPropertyOp10
 70
     0
102
RTVSPropertyOp11
 70
     0
102
RTVSPropertyOp12
 70
     0
102
RTVSPropertyOp13
 70
     0
102
RTVSPropertyOp14
 70
     2
102
RTVSPropertyOp15
 70
     0
102
RTVSPropertyOp16
 70
     0
102
RTVSPropertyOp17
 70
     0
102
RTVSPropertyOp18
 70
     0
102
RTVSPropertyOp19
 70
     0
102
RTVSPropertyOp20
 70
     0
102
RTVSPropertyOp21
 70
     0
102
RTVSPropertyOp22
 70
     0
102
RTVSPropertyOp23
 70
     0
102
RTVSPropertyOp24
 70
     0
102
RTVSPropertyOp25
 70
     0
102
RTVSPropertyOp26
 70
     0
102
RTVSPropertyOp27
 70
     0
102
RTVSPropertyOp28
 70
     1
102
RTVSPropertyOp29
 70
     1
102
RTVSPropertyOp30
 70
     1
102
RTVSPropertyOp31
 70
     1
102
RTVSPropertyOp32
 70
     1
102
RTVSPropertyOp33
 70
     1
102
RTVSPropertyOp34
 70
     1
102
RTVSPropertyOp35
 70
     1
102
RTVSPropertyOp36
 70
     1
102
RTVSPropertyOp37
 70
     0
102
RTVSPropertyOp38
 70
     0
102
RTVSPropertyOp39
 70
     0
102
RTVSPropertyOp40
 70
     0
102
RTVSPropertyOp41
 70
     0
102
RTVSPropertyOp42
 70
     0
102
RTVSPropertyOp43
 70
     0
102
RTVSPropertyOp44
 70
     0
102
RTVSPropertyOp45
 70
     1
102
RTVSPropertyOp46
 70
     0
102
RTVSPropertyOp47
 70
     0
102
RTVSPropertyOp48
 70
     0
102
RTVSPropertyOp49
 70
     1
102
RTVSPropertyOp50
 70
     0
102
RTVSPropertyOp51
 70
     0
102
RTVSPropertyOp52
 70
     0
102
RTVSPropertyOp53
 70
     0
102
RTVSPropertyOp54
 70
     0
102
RTVSPropertyOp55
 70
     1
102
RTVSPropertyOp56
 70
     0
102
RTVSPropertyOp57
 70
     0
102
RTVSPropertyOp58
 70
     0
102
RTVSPropertyOp59
 70
     0
102
RTVSPropertyOp60
 70
     0
102
RTVSPropertyOp61
 70
     0
102
RTVSPropertyOp62
 70
     0
  0
XRECORD
  5
46D
102
{ACAD_REACTORS
330
46C
102
}
330
46C
100
AcDbXrecord
280
     1
102
RTVSPost2010Prop28
280
     0
102
RTVSPost2010PropOp28
 70
     1
102
RTVSPost2010Prop29
280
     1
102
RTVSPost2010PropOp29
 70
     1
102
RTVSPost2010Prop30
280
     1
102
RTVSPost2010PropOp30
 70
     1
102
RTVSPost2010Prop31
280
     0
102
RTVSPost2010PropOp31
 70
     1
102
RTVSPost2010Prop32
280
     0
102
RTVSPost2010PropOp32
 70
     1
102
RTVSPost2010Prop33
280
     0
102
RTVSPost2010PropOp33
 70
     1
102
RTVSPost2010Prop34
280
     0
102
RTVSPost2010PropOp34
 70
     1
102
RTVSPost2010Prop35
280
     0
102
RTVSPost2010PropOp35
 70
     1
102
RTVSPost2010Prop36
280
     0
102
RTVSPost2010PropOp36
 70
     1
102
RTVSPost2010Prop37
 90
       50
102
RTVSPost2010PropOp37
 70
     1
102
RTVSPost2010Prop38
140
0.0
102
RTVSPost2010PropOp38
 70
     1
102
RTVSPost2010Prop39
140
1.0
102
RTVSPost2010PropOp39
 70
     1
102
RTVSPost2010Prop40
 90
        0
102
RTVSPost2010PropOp40
 70
     1
102
RTVSPost2010Prop41ColorIndex
 90
       18
102
RTVSPost2010Prop41ColorRGB
 90
        0
102
RTVSPost2010PropOp41
 70
     1
102
RTVSPost2010Prop42
 90
       50
102
RTVSPost2010PropOp42
 70
     1
102
RTVSPost2010Prop43
 90
        3
102
RTVSPost2010PropOp43
 70
     1
102
RTVSPost2010Prop44ColorIndex
 90
        5
102
RTVSPost2010Prop44ColorRGB
 90
      255
102
RTVSPost2010PropOp44
 70
     1
102
RTVSPost2010Prop45
280
     0
102
RTVSPost2010PropOp45
 70
     1
102
RTVSPost2010Prop46
 90
       50
102
RTVSPost2010PropOp46
 70
     1
102
RTVSPost2010Prop47
 90
       50
102
RTVSPost2010PropOp47
 70
     1
102
RTVSPost2010Prop48
 90
       50
102
RTVSPost2010PropOp48
 70
     1
102
RTVSPost2010Prop49
280
     0
102
RTVSPost2010PropOp49
 70
     1
102
RTVSPost2010Prop50
 90
       50
102
RTVSPost2010PropOp50
 70
     1
102
RTVSPost2010Prop51ColorIndex
 90
      256
102
RTVSPost2010Prop51ColorRGB
 90
-16777216
102
RTVSPost2010PropOp51
 70
     0
102
RTVSPost2010Prop52
140
1.0
102
RTVSPost2010PropOp52
 70
     0
102
RTVSPost2010Prop53
 90
        2
102
RTVSPost2010PropOp53
 70
     1
102
RTVSPost2010Prop54
  1
strokes_ogs.tif
102
RTVSPost2010PropOp54
 70
     1
102
RTVSPost2010Prop55
280
     0
102
RTVSPost2010PropOp55
 70
     1
102
RTVSPost2010Prop56
140
1.0
102
RTVSPost2010PropOp56
 70
     1
102
RTVSPost2010Prop57
140
1.0
102
RTVSPost2010PropOp57
 70
     1
102
RTVSPropertyOp0
 70
     1
102
RTVSPropertyOp1
 70
     1
102
RTVSPropertyOp2
 70
     1
102
RTVSPropertyOp3
 70
     1
102
RTVSPropertyOp4
 70
     1
102
RTVSPropertyOp5
 70
     1
102
RTVSPropertyOp6
 70
     1
102
RTVSPropertyOp7
 70
     1
102
RTVSPropertyOp8
 70
     1
102
RTVSPropertyOp9
 70
     1
102
RTVSPropertyOp10
 70
     1
102
RTVSPropertyOp11
 70
     1
102
RTVSPropertyOp12
 70
     1
102
RTVSPropertyOp13
 70
     1
102
RTVSPropertyOp14
 70
     1
102
RTVSPropertyOp15
 70
     1
102
RTVSPropertyOp16
 70
     1
102
RTVSPropertyOp17
 70
     1
102
RTVSPropertyOp18
 70
     1
102
RTVSPropertyOp19
 70
     1
102
RTVSPropertyOp20
 70
     1
102
RTVSPropertyOp21
 70
     1
102
RTVSPropertyOp22
 70
     1
102
RTVSPropertyOp23
 70
     1
102
RTVSPropertyOp24
 70
     1
102
RTVSPropertyOp25
 70
     1
102
RTVSPropertyOp26
 70
     1
102
RTVSPropertyOp27
 70
     1
102
RTVSPropertyOp28
 70
     1
102
RTVSPropertyOp29
 70
     1
102
RTVSPropertyOp30
 70
     1
102
RTVSPropertyOp31
 70
     1
102
RTVSPropertyOp32
 70
     1
102
RTVSPropertyOp33
 70
     1
102
RTVSPropertyOp34
 70
     1
102
RTVSPropertyOp35
 70
     1
102
RTVSPropertyOp36
 70
     1
102
RTVSPropertyOp37
 70
     1
102
RTVSPropertyOp38
 70
     1
102
RTVSPropertyOp39
 70
     1
102
RTVSPropertyOp40
 70
     1
102
RTVSPropertyOp41
 70
     1
102
RTVSPropertyOp42
 70
     1
102
RTVSPropertyOp43
 70
     1
102
RTVSPropertyOp44
 70
     1
102
RTVSPropertyOp45
 70
     1
102
RTVSPropertyOp46
 70
     1
102
RTVSPropertyOp47
 70
     1
102
RTVSPropertyOp48
 70
     1
102
RTVSPropertyOp49
 70
     1
102
RTVSPropertyOp50
 70
     1
102
RTVSPropertyOp51
 70
     0
102
RTVSPropertyOp52
 70
     0
102
RTVSPropertyOp53
 70
     1
102
RTVSPropertyOp54
 70
     1
102
RTVSPropertyOp55
 70
     1
102
RTVSPropertyOp56
 70
     1
102
RTVSPropertyOp57
 70
     1
102
RTVSPropertyOp58
 70
     1
102
RTVSPropertyOp59
 70
     1
102
RTVSPropertyOp60
 70
     1
102
RTVSPropertyOp61
 70
     1
102
RTVSPropertyOp62
 70
     1
  0
XRECORD
  5
451
102
{ACAD_REACTORS
330
450
102
}
330
450
100
AcDbXrecord
280
     1
102
RTVSPost2010Prop28
280
     0
102
RTVSPost2010PropOp28
 70
     1
102
RTVSPost2010Prop29
280
     1
102
RTVSPost2010PropOp29
 70
     1
102
RTVSPost2010Prop30
280
     1
102
RTVSPost2010PropOp30
 70
     1
102
RTVSPost2010Prop31
280
     0
102
RTVSPost2010PropOp31
 70
     1
102
RTVSPost2010Prop32
280
     0
102
RTVSPost2010PropOp32
 70
     1
102
RTVSPost2010Prop33
280
     0
102
RTVSPost2010PropOp33
 70
     1
102
RTVSPost2010Prop34
280
     0
102
RTVSPost2010PropOp34
 70
     1
102
RTVSPost2010Prop35
280
     0
102
RTVSPost2010PropOp35
 70
     1
102
RTVSPost2010Prop36
280
     0
102
RTVSPost2010PropOp36
 70
     1
102
RTVSPost2010Prop37
 90
       50
102
RTVSPost2010PropOp37
 70
     1
102
RTVSPost2010Prop38
140
0.0
102
RTVSPost2010PropOp38
 70
     1
102
RTVSPost2010Prop39
140
1.0
102
RTVSPost2010PropOp39
 70
     1
102
RTVSPost2010Prop40
 90
        0
102
RTVSPost2010PropOp40
 70
     1
102
RTVSPost2010Prop41ColorIndex
 90
       18
102
RTVSPost2010Prop41ColorRGB
 90
        0
102
RTVSPost2010PropOp41
 70
     1
102
RTVSPost2010Prop42
 90
       50
102
RTVSPost2010PropOp42
 70
     1
102
RTVSPost2010Prop43
 90
        3
102
RTVSPost2010PropOp43
 70
     1
102
RTVSPost2010Prop44ColorIndex
 90
        5
102
RTVSPost2010Prop44ColorRGB
 90
      255
102
RTVSPost2010PropOp44
 70
     1
102
RTVSPost2010Prop45
280
     0
102
RTVSPost2010PropOp45
 70
     1
102
RTVSPost2010Prop46
 90
       50
102
RTVSPost2010PropOp46
 70
     1
102
RTVSPost2010Prop47
 90
       50
102
RTVSPost2010PropOp47
 70
     1
102
RTVSPost2010Prop48
 90
       50
102
RTVSPost2010PropOp48
 70
     1
102
RTVSPost2010Prop49
280
     0
102
RTVSPost2010PropOp49
 70
     1
102
RTVSPost2010Prop50
 90
       50
102
RTVSPost2010PropOp50
 70
     1
102
RTVSPost2010Prop51ColorIndex
 90
      256
102
RTVSPost2010Prop51ColorRGB
 90
-16777216
102
RTVSPost2010PropOp51
 70
     0
102
RTVSPost2010Prop52
140
1.0
102
RTVSPost2010PropOp52
 70
     0
102
RTVSPost2010Prop53
 90
        2
102
RTVSPost2010PropOp53
 70
     1
102
RTVSPost2010Prop54
  1
strokes_ogs.tif
102
RTVSPost2010PropOp54
 70
     1
102
RTVSPost2010Prop55
280
     0
102
RTVSPost2010PropOp55
 70
     1
102
RTVSPost2010Prop56
140
1.0
102
RTVSPost2010PropOp56
 70
     1
102
RTVSPost2010Prop57
140
1.0
102
RTVSPost2010PropOp57
 70
     1
102
RTVSPropertyOp0
 70
     1
102
RTVSPropertyOp1
 70
     1
102
RTVSPropertyOp2
 70
     1
102
RTVSPropertyOp3
 70
     1
102
RTVSPropertyOp4
 70
     1
102
RTVSPropertyOp5
 70
     1
102
RTVSPropertyOp6
 70
     1
102
RTVSPropertyOp7
 70
     1
102
RTVSPropertyOp8
 70
     1
102
RTVSPropertyOp9
 70
     1
102
RTVSPropertyOp10
 70
     1
102
RTVSPropertyOp11
 70
     1
102
RTVSPropertyOp12
 70
     1
102
RTVSPropertyOp13
 70
     1
102
RTVSPropertyOp14
 70
     1
102
RTVSPropertyOp15
 70
     1
102
RTVSPropertyOp16
 70
     1
102
RTVSPropertyOp17
 70
     1
102
RTVSPropertyOp18
 70
     1
102
RTVSPropertyOp19
 70
     1
102
RTVSPropertyOp20
 70
     1
102
RTVSPropertyOp21
 70
     1
102
RTVSPropertyOp22
 70
     1
102
RTVSPropertyOp23
 70
     1
102
RTVSPropertyOp24
 70
     1
102
RTVSPropertyOp25
 70
     1
102
RTVSPropertyOp26
 70
     1
102
RTVSPropertyOp27
 70
     1
102
RTVSPropertyOp28
 70
     1
102
RTVSPropertyOp29
 70
     1
102
RTVSPropertyOp30
 70
     1
102
RTVSPropertyOp31
 70
     1
102
RTVSPropertyOp32
 70
     1
102
RTVSPropertyOp33
 70
     1
102
RTVSPropertyOp34
 70
     1
102
RTVSPropertyOp35
 70
     1
102
RTVSPropertyOp36
 70
     1
102
RTVSPropertyOp37
 70
     1
102
RTVSPropertyOp38
 70
     1
102
RTVSPropertyOp39
 70
     1
102
RTVSPropertyOp40
 70
     1
102
RTVSPropertyOp41
 70
     1
102
RTVSPropertyOp42
 70
     1
102
RTVSPropertyOp43
 70
     1
102
RTVSPropertyOp44
 70
     1
102
RTVSPropertyOp45
 70
     1
102
RTVSPropertyOp46
 70
     1
102
RTVSPropertyOp47
 70
     1
102
RTVSPropertyOp48
 70
     1
102
RTVSPropertyOp49
 70
     1
102
RTVSPropertyOp50
 70
     1
102
RTVSPropertyOp51
 70
     0
102
RTVSPropertyOp52
 70
     0
102
RTVSPropertyOp53
 70
     1
102
RTVSPropertyOp54
 70
     1
102
RTVSPropertyOp55
 70
     1
102
RTVSPropertyOp56
 70
     1
102
RTVSPropertyOp57
 70
     1
102
RTVSPropertyOp58
 70
     1
102
RTVSPropertyOp59
 70
     1
102
RTVSPropertyOp60
 70
     1
102
RTVSPropertyOp61
 70
     1
102
RTVSPropertyOp62
 70
     1
  0
XRECORD
  5
453
102
{ACAD_REACTORS
330
452
102
}
330
452
100
AcDbXrecord
280
     1
102
RTVSPost2010Prop28
280
     0
102
RTVSPost2010PropOp28
 70
     1
102
RTVSPost2010Prop29
280
     1
102
RTVSPost2010PropOp29
 70
     1
102
RTVSPost2010Prop30
280
     1
102
RTVSPost2010PropOp30
 70
     1
102
RTVSPost2010Prop31
280
     0
102
RTVSPost2010PropOp31
 70
     1
102
RTVSPost2010Prop32
280
     0
102
RTVSPost2010PropOp32
 70
     1
102
RTVSPost2010Prop33
280
     0
102
RTVSPost2010PropOp33
 70
     1
102
RTVSPost2010Prop34
280
     0
102
RTVSPost2010PropOp34
 70
     1
102
RTVSPost2010Prop35
280
     0
102
RTVSPost2010PropOp35
 70
     1
102
RTVSPost2010Prop36
280
     0
102
RTVSPost2010PropOp36
 70
     1
102
RTVSPost2010Prop37
 90
       50
102
RTVSPost2010PropOp37
 70
     1
102
RTVSPost2010Prop38
140
0.0
102
RTVSPost2010PropOp38
 70
     1
102
RTVSPost2010Prop39
140
1.0
102
RTVSPost2010PropOp39
 70
     1
102
RTVSPost2010Prop40
 90
        0
102
RTVSPost2010PropOp40
 70
     1
102
RTVSPost2010Prop41ColorIndex
 90
       18
102
RTVSPost2010Prop41ColorRGB
 90
        0
102
RTVSPost2010PropOp41
 70
     1
102
RTVSPost2010Prop42
 90
       50
102
RTVSPost2010PropOp42
 70
     1
102
RTVSPost2010Prop43
 90
        3
102
RTVSPost2010PropOp43
 70
     1
102
RTVSPost2010Prop44ColorIndex
 90
        5
102
RTVSPost2010Prop44ColorRGB
 90
      255
102
RTVSPost2010PropOp44
 70
     1
102
RTVSPost2010Prop45
280
     0
102
RTVSPost2010PropOp45
 70
     1
102
RTVSPost2010Prop46
 90
       50
102
RTVSPost2010PropOp46
 70
     1
102
RTVSPost2010Prop47
 90
       50
102
RTVSPost2010PropOp47
 70
     1
102
RTVSPost2010Prop48
 90
       50
102
RTVSPost2010PropOp48
 70
     1
102
RTVSPost2010Prop49
280
     0
102
RTVSPost2010PropOp49
 70
     1
102
RTVSPost2010Prop50
 90
       50
102
RTVSPost2010PropOp50
 70
     1
102
RTVSPost2010Prop51ColorIndex
 90
      256
102
RTVSPost2010Prop51ColorRGB
 90
-16777216
102
RTVSPost2010PropOp51
 70
     0
102
RTVSPost2010Prop52
140
1.0
102
RTVSPost2010PropOp52
 70
     0
102
RTVSPost2010Prop53
 90
        2
102
RTVSPost2010PropOp53
 70
     1
102
RTVSPost2010Prop54
  1
strokes_ogs.tif
102
RTVSPost2010PropOp54
 70
     1
102
RTVSPost2010Prop55
280
     0
102
RTVSPost2010PropOp55
 70
     1
102
RTVSPost2010Prop56
140
1.0
102
RTVSPost2010PropOp56
 70
     1
102
RTVSPost2010Prop57
140
1.0
102
RTVSPost2010PropOp57
 70
     1
102
RTVSPropertyOp0
 70
     1
102
RTVSPropertyOp1
 70
     1
102
RTVSPropertyOp2
 70
     1
102
RTVSPropertyOp3
 70
     1
102
RTVSPropertyOp4
 70
     1
102
RTVSPropertyOp5
 70
     1
102
RTVSPropertyOp6
 70
     1
102
RTVSPropertyOp7
 70
     1
102
RTVSPropertyOp8
 70
     1
102
RTVSPropertyOp9
 70
     1
102
RTVSPropertyOp10
 70
     1
102
RTVSPropertyOp11
 70
     1
102
RTVSPropertyOp12
 70
     1
102
RTVSPropertyOp13
 70
     1
102
RTVSPropertyOp14
 70
     1
102
RTVSPropertyOp15
 70
     1
102
RTVSPropertyOp16
 70
     1
102
RTVSPropertyOp17
 70
     1
102
RTVSPropertyOp18
 70
     1
102
RTVSPropertyOp19
 70
     1
102
RTVSPropertyOp20
 70
     1
102
RTVSPropertyOp21
 70
     1
102
RTVSPropertyOp22
 70
     1
102
RTVSPropertyOp23
 70
     1
102
RTVSPropertyOp24
 70
     1
102
RTVSPropertyOp25
 70
     1
102
RTVSPropertyOp26
 70
     1
102
RTVSPropertyOp27
 70
     1
102
RTVSPropertyOp28
 70
     1
102
RTVSPropertyOp29
 70
     1
102
RTVSPropertyOp30
 70
     1
102
RTVSPropertyOp31
 70
     1
102
RTVSPropertyOp32
 70
     1
102
RTVSPropertyOp33
 70
     1
102
RTVSPropertyOp34
 70
     1
102
RTVSPropertyOp35
 70
     1
102
RTVSPropertyOp36
 70
     1
102
RTVSPropertyOp37
 70
     1
102
RTVSPropertyOp38
 70
     1
102
RTVSPropertyOp39
 70
     1
102
RTVSPropertyOp40
 70
     1
102
RTVSPropertyOp41
 70
     1
102
RTVSPropertyOp42
 70
     1
102
RTVSPropertyOp43
 70
     1
102
RTVSPropertyOp44
 70
     1
102
RTVSPropertyOp45
 70
     1
102
RTVSPropertyOp46
 70
     1
102
RTVSPropertyOp47
 70
     1
102
RTVSPropertyOp48
 70
     1
102
RTVSPropertyOp49
 70
     1
102
RTVSPropertyOp50
 70
     1
102
RTVSPropertyOp51
 70
     0
102
RTVSPropertyOp52
 70
     0
102
RTVSPropertyOp53
 70
     1
102
RTVSPropertyOp54
 70
     1
102
RTVSPropertyOp55
 70
     1
102
RTVSPropertyOp56
 70
     1
102
RTVSPropertyOp57
 70
     1
102
RTVSPropertyOp58
 70
     1
102
RTVSPropertyOp59
 70
     1
102
RTVSPropertyOp60
 70
     1
102
RTVSPropertyOp61
 70
     1
102
RTVSPropertyOp62
 70
     1
  0
XRECORD
  5
455
102
{ACAD_REACTORS
330
454
102
}
330
454
100
AcDbXrecord
280
     1
102
RTVSPost2010Prop28
280
     0
102
RTVSPost2010PropOp28
 70
     1
102
RTVSPost2010Prop29
280
     1
102
RTVSPost2010PropOp29
 70
     1
102
RTVSPost2010Prop30
280
     1
102
RTVSPost2010PropOp30
 70
     1
102
RTVSPost2010Prop31
280
     0
102
RTVSPost2010PropOp31
 70
     1
102
RTVSPost2010Prop32
280
     0
102
RTVSPost2010PropOp32
 70
     1
102
RTVSPost2010Prop33
280
     0
102
RTVSPost2010PropOp33
 70
     1
102
RTVSPost2010Prop34
280
     0
102
RTVSPost2010PropOp34
 70
     1
102
RTVSPost2010Prop35
280
     0
102
RTVSPost2010PropOp35
 70
     1
102
RTVSPost2010Prop36
280
     0
102
RTVSPost2010PropOp36
 70
     1
102
RTVSPost2010Prop37
 90
       50
102
RTVSPost2010PropOp37
 70
     1
102
RTVSPost2010Prop38
140
0.0
102
RTVSPost2010PropOp38
 70
     1
102
RTVSPost2010Prop39
140
1.0
102
RTVSPost2010PropOp39
 70
     1
102
RTVSPost2010Prop40
 90
        0
102
RTVSPost2010PropOp40
 70
     1
102
RTVSPost2010Prop41ColorIndex
 90
       18
102
RTVSPost2010Prop41ColorRGB
 90
        0
102
RTVSPost2010PropOp41
 70
     1
102
RTVSPost2010Prop42
 90
       50
102
RTVSPost2010PropOp42
 70
     1
102
RTVSPost2010Prop43
 90
        3
102
RTVSPost2010PropOp43
 70
     1
102
RTVSPost2010Prop44ColorIndex
 90
        5
102
RTVSPost2010Prop44ColorRGB
 90
      255
102
RTVSPost2010PropOp44
 70
     1
102
RTVSPost2010Prop45
280
     0
102
RTVSPost2010PropOp45
 70
     1
102
RTVSPost2010Prop46
 90
       50
102
RTVSPost2010PropOp46
 70
     1
102
RTVSPost2010Prop47
 90
       50
102
RTVSPost2010PropOp47
 70
     1
102
RTVSPost2010Prop48
 90
       50
102
RTVSPost2010PropOp48
 70
     1
102
RTVSPost2010Prop49
280
     0
102
RTVSPost2010PropOp49
 70
     1
102
RTVSPost2010Prop50
 90
       50
102
RTVSPost2010PropOp50
 70
     1
102
RTVSPost2010Prop51ColorIndex
 90
      256
102
RTVSPost2010Prop51ColorRGB
 90
-16777216
102
RTVSPost2010PropOp51
 70
     0
102
RTVSPost2010Prop52
140
1.0
102
RTVSPost2010PropOp52
 70
     0
102
RTVSPost2010Prop53
 90
        2
102
RTVSPost2010PropOp53
 70
     1
102
RTVSPost2010Prop54
  1
strokes_ogs.tif
102
RTVSPost2010PropOp54
 70
     1
102
RTVSPost2010Prop55
280
     0
102
RTVSPost2010PropOp55
 70
     1
102
RTVSPost2010Prop56
140
1.0
102
RTVSPost2010PropOp56
 70
     1
102
RTVSPost2010Prop57
140
1.0
102
RTVSPost2010PropOp57
 70
     1
102
RTVSPropertyOp0
 70
     1
102
RTVSPropertyOp1
 70
     1
102
RTVSPropertyOp2
 70
     1
102
RTVSPropertyOp3
 70
     1
102
RTVSPropertyOp4
 70
     1
102
RTVSPropertyOp5
 70
     1
102
RTVSPropertyOp6
 70
     1
102
RTVSPropertyOp7
 70
     1
102
RTVSPropertyOp8
 70
     1
102
RTVSPropertyOp9
 70
     1
102
RTVSPropertyOp10
 70
     1
102
RTVSPropertyOp11
 70
     1
102
RTVSPropertyOp12
 70
     1
102
RTVSPropertyOp13
 70
     1
102
RTVSPropertyOp14
 70
     1
102
RTVSPropertyOp15
 70
     1
102
RTVSPropertyOp16
 70
     1
102
RTVSPropertyOp17
 70
     1
102
RTVSPropertyOp18
 70
     1
102
RTVSPropertyOp19
 70
     1
102
RTVSPropertyOp20
 70
     1
102
RTVSPropertyOp21
 70
     1
102
RTVSPropertyOp22
 70
     1
102
RTVSPropertyOp23
 70
     1
102
RTVSPropertyOp24
 70
     1
102
RTVSPropertyOp25
 70
     1
102
RTVSPropertyOp26
 70
     1
102
RTVSPropertyOp27
 70
     1
102
RTVSPropertyOp28
 70
     1
102
RTVSPropertyOp29
 70
     1
102
RTVSPropertyOp30
 70
     1
102
RTVSPropertyOp31
 70
     1
102
RTVSPropertyOp32
 70
     1
102
RTVSPropertyOp33
 70
     1
102
RTVSPropertyOp34
 70
     1
102
RTVSPropertyOp35
 70
     1
102
RTVSPropertyOp36
 70
     1
102
RTVSPropertyOp37
 70
     1
102
RTVSPropertyOp38
 70
     1
102
RTVSPropertyOp39
 70
     1
102
RTVSPropertyOp40
 70
     1
102
RTVSPropertyOp41
 70
     1
102
RTVSPropertyOp42
 70
     1
102
RTVSPropertyOp43
 70
     1
102
RTVSPropertyOp44
 70
     1
102
RTVSPropertyOp45
 70
     1
102
RTVSPropertyOp46
 70
     1
102
RTVSPropertyOp47
 70
     1
102
RTVSPropertyOp48
 70
     1
102
RTVSPropertyOp49
 70
     1
102
RTVSPropertyOp50
 70
     1
102
RTVSPropertyOp51
 70
     0
102
RTVSPropertyOp52
 70
     0
102
RTVSPropertyOp53
 70
     1
102
RTVSPropertyOp54
 70
     1
102
RTVSPropertyOp55
 70
     1
102
RTVSPropertyOp56
 70
     1
102
RTVSPropertyOp57
 70
     1
102
RTVSPropertyOp58
 70
     1
102
RTVSPropertyOp59
 70
     1
102
RTVSPropertyOp60
 70
     1
102
RTVSPropertyOp61
 70
     1
102
RTVSPropertyOp62
 70
     1
  0
XRECORD
  5
457
102
{ACAD_REACTORS
330
456
102
}
330
456
100
AcDbXrecord
280
     1
102
RTVSPost2010Prop28
280
     0
102
RTVSPost2010PropOp28
 70
     1
102
RTVSPost2010Prop29
280
     1
102
RTVSPost2010PropOp29
 70
     1
102
RTVSPost2010Prop30
280
     1
102
RTVSPost2010PropOp30
 70
     1
102
RTVSPost2010Prop31
280
     0
102
RTVSPost2010PropOp31
 70
     1
102
RTVSPost2010Prop32
280
     0
102
RTVSPost2010PropOp32
 70
     1
102
RTVSPost2010Prop33
280
     0
102
RTVSPost2010PropOp33
 70
     1
102
RTVSPost2010Prop34
280
     0
102
RTVSPost2010PropOp34
 70
     1
102
RTVSPost2010Prop35
280
     0
102
RTVSPost2010PropOp35
 70
     1
102
RTVSPost2010Prop36
280
     0
102
RTVSPost2010PropOp36
 70
     1
102
RTVSPost2010Prop37
 90
       50
102
RTVSPost2010PropOp37
 70
     1
102
RTVSPost2010Prop38
140
0.0
102
RTVSPost2010PropOp38
 70
     1
102
RTVSPost2010Prop39
140
1.0
102
RTVSPost2010PropOp39
 70
     1
102
RTVSPost2010Prop40
 90
        0
102
RTVSPost2010PropOp40
 70
     1
102
RTVSPost2010Prop41ColorIndex
 90
       18
102
RTVSPost2010Prop41ColorRGB
 90
        0
102
RTVSPost2010PropOp41
 70
     1
102
RTVSPost2010Prop42
 90
       50
102
RTVSPost2010PropOp42
 70
     1
102
RTVSPost2010Prop43
 90
        3
102
RTVSPost2010PropOp43
 70
     1
102
RTVSPost2010Prop44ColorIndex
 90
        5
102
RTVSPost2010Prop44ColorRGB
 90
      255
102
RTVSPost2010PropOp44
 70
     1
102
RTVSPost2010Prop45
280
     0
102
RTVSPost2010PropOp45
 70
     1
102
RTVSPost2010Prop46
 90
       50
102
RTVSPost2010PropOp46
 70
     1
102
RTVSPost2010Prop47
 90
       50
102
RTVSPost2010PropOp47
 70
     1
102
RTVSPost2010Prop48
 90
       50
102
RTVSPost2010PropOp48
 70
     1
102
RTVSPost2010Prop49
280
     0
102
RTVSPost2010PropOp49
 70
     1
102
RTVSPost2010Prop50
 90
       50
102
RTVSPost2010PropOp50
 70
     1
102
RTVSPost2010Prop51ColorIndex
 90
      256
102
RTVSPost2010Prop51ColorRGB
 90
-16777216
102
RTVSPost2010PropOp51
 70
     0
102
RTVSPost2010Prop52
140
1.0
102
RTVSPost2010PropOp52
 70
     0
102
RTVSPost2010Prop53
 90
        2
102
RTVSPost2010PropOp53
 70
     1
102
RTVSPost2010Prop54
  1
strokes_ogs.tif
102
RTVSPost2010PropOp54
 70
     1
102
RTVSPost2010Prop55
280
     0
102
RTVSPost2010PropOp55
 70
     1
102
RTVSPost2010Prop56
140
1.0
102
RTVSPost2010PropOp56
 70
     1
102
RTVSPost2010Prop57
140
1.0
102
RTVSPost2010PropOp57
 70
     1
102
RTVSPropertyOp0
 70
     1
102
RTVSPropertyOp1
 70
     1
102
RTVSPropertyOp2
 70
     1
102
RTVSPropertyOp3
 70
     1
102
RTVSPropertyOp4
 70
     1
102
RTVSPropertyOp5
 70
     1
102
RTVSPropertyOp6
 70
     1
102
RTVSPropertyOp7
 70
     1
102
RTVSPropertyOp8
 70
     1
102
RTVSPropertyOp9
 70
     1
102
RTVSPropertyOp10
 70
     1
102
RTVSPropertyOp11
 70
     1
102
RTVSPropertyOp12
 70
     1
102
RTVSPropertyOp13
 70
     1
102
RTVSPropertyOp14
 70
     1
102
RTVSPropertyOp15
 70
     1
102
RTVSPropertyOp16
 70
     1
102
RTVSPropertyOp17
 70
     1
102
RTVSPropertyOp18
 70
     1
102
RTVSPropertyOp19
 70
     1
102
RTVSPropertyOp20
 70
     1
102
RTVSPropertyOp21
 70
     1
102
RTVSPropertyOp22
 70
     1
102
RTVSPropertyOp23
 70
     1
102
RTVSPropertyOp24
 70
     1
102
RTVSPropertyOp25
 70
     1
102
RTVSPropertyOp26
 70
     1
102
RTVSPropertyOp27
 70
     1
102
RTVSPropertyOp28
 70
     1
102
RTVSPropertyOp29
 70
     1
102
RTVSPropertyOp30
 70
     1
102
RTVSPropertyOp31
 70
     1
102
RTVSPropertyOp32
 70
     1
102
RTVSPropertyOp33
 70
     1
102
RTVSPropertyOp34
 70
     1
102
RTVSPropertyOp35
 70
     1
102
RTVSPropertyOp36
 70
     1
102
RTVSPropertyOp37
 70
     1
102
RTVSPropertyOp38
 70
     1
102
RTVSPropertyOp39
 70
     1
102
RTVSPropertyOp40
 70
     1
102
RTVSPropertyOp41
 70
     1
102
RTVSPropertyOp42
 70
     1
102
RTVSPropertyOp43
 70
     1
102
RTVSPropertyOp44
 70
     1
102
RTVSPropertyOp45
 70
     1
102
RTVSPropertyOp46
 70
     1
102
RTVSPropertyOp47
 70
     1
102
RTVSPropertyOp48
 70
     1
102
RTVSPropertyOp49
 70
     1
102
RTVSPropertyOp50
 70
     1
102
RTVSPropertyOp51
 70
     0
102
RTVSPropertyOp52
 70
     0
102
RTVSPropertyOp53
 70
     1
102
RTVSPropertyOp54
 70
     1
102
RTVSPropertyOp55
 70
     1
102
RTVSPropertyOp56
 70
     1
102
RTVSPropertyOp57
 70
     1
102
RTVSPropertyOp58
 70
     1
102
RTVSPropertyOp59
 70
     1
102
RTVSPropertyOp60
 70
     1
102
RTVSPropertyOp61
 70
     1
102
RTVSPropertyOp62
 70
     1
  0
XRECORD
  5
45F
102
{ACAD_REACTORS
330
45E
102
}
330
45E
100
AcDbXrecord
280
     1
102
RTVSPost2010Prop28
280
     0
102
RTVSPost2010PropOp28
 70
     1
102
RTVSPost2010Prop29
280
     1
102
RTVSPost2010PropOp29
 70
     1
102
RTVSPost2010Prop30
280
     1
102
RTVSPost2010PropOp30
 70
     1
102
RTVSPost2010Prop31
280
     0
102
RTVSPost2010PropOp31
 70
     1
102
RTVSPost2010Prop32
280
     0
102
RTVSPost2010PropOp32
 70
     1
102
RTVSPost2010Prop33
280
     0
102
RTVSPost2010PropOp33
 70
     1
102
RTVSPost2010Prop34
280
     0
102
RTVSPost2010PropOp34
 70
     1
102
RTVSPost2010Prop35
280
     0
102
RTVSPost2010PropOp35
 70
     1
102
RTVSPost2010Prop36
280
     0
102
RTVSPost2010PropOp36
 70
     1
102
RTVSPost2010Prop37
 90
       50
102
RTVSPost2010PropOp37
 70
     1
102
RTVSPost2010Prop38
140
0.0
102
RTVSPost2010PropOp38
 70
     1
102
RTVSPost2010Prop39
140
1.0
102
RTVSPost2010PropOp39
 70
     1
102
RTVSPost2010Prop40
 90
        0
102
RTVSPost2010PropOp40
 70
     1
102
RTVSPost2010Prop41ColorIndex
 90
       18
102
RTVSPost2010Prop41ColorRGB
 90
        0
102
RTVSPost2010PropOp41
 70
     1
102
RTVSPost2010Prop42
 90
       50
102
RTVSPost2010PropOp42
 70
     1
102
RTVSPost2010Prop43
 90
        3
102
RTVSPost2010PropOp43
 70
     1
102
RTVSPost2010Prop44ColorIndex
 90
        5
102
RTVSPost2010Prop44ColorRGB
 90
      255
102
RTVSPost2010PropOp44
 70
     1
102
RTVSPost2010Prop45
280
     0
102
RTVSPost2010PropOp45
 70
     1
102
RTVSPost2010Prop46
 90
       50
102
RTVSPost2010PropOp46
 70
     1
102
RTVSPost2010Prop47
 90
       50
102
RTVSPost2010PropOp47
 70
     1
102
RTVSPost2010Prop48
 90
       50
102
RTVSPost2010PropOp48
 70
     1
102
RTVSPost2010Prop49
280
     0
102
RTVSPost2010PropOp49
 70
     1
102
RTVSPost2010Prop50
 90
       50
102
RTVSPost2010PropOp50
 70
     1
102
RTVSPost2010Prop51ColorIndex
 90
      256
102
RTVSPost2010Prop51ColorRGB
 90
-16777216
102
RTVSPost2010PropOp51
 70
     0
102
RTVSPost2010Prop52
140
1.0
102
RTVSPost2010PropOp52
 70
     0
102
RTVSPost2010Prop53
 90
        2
102
RTVSPost2010PropOp53
 70
     1
102
RTVSPost2010Prop54
  1
strokes_ogs.tif
102
RTVSPost2010PropOp54
 70
     1
102
RTVSPost2010Prop55
280
     0
102
RTVSPost2010PropOp55
 70
     1
102
RTVSPost2010Prop56
140
1.0
102
RTVSPost2010PropOp56
 70
     1
102
RTVSPost2010Prop57
140
1.0
102
RTVSPost2010PropOp57
 70
     1
102
RTVSPropertyOp0
 70
     1
102
RTVSPropertyOp1
 70
     1
102
RTVSPropertyOp2
 70
     1
102
RTVSPropertyOp3
 70
     1
102
RTVSPropertyOp4
 70
     1
102
RTVSPropertyOp5
 70
     1
102
RTVSPropertyOp6
 70
     1
102
RTVSPropertyOp7
 70
     1
102
RTVSPropertyOp8
 70
     1
102
RTVSPropertyOp9
 70
     1
102
RTVSPropertyOp10
 70
     1
102
RTVSPropertyOp11
 70
     1
102
RTVSPropertyOp12
 70
     1
102
RTVSPropertyOp13
 70
     1
102
RTVSPropertyOp14
 70
     1
102
RTVSPropertyOp15
 70
     1
102
RTVSPropertyOp16
 70
     1
102
RTVSPropertyOp17
 70
     1
102
RTVSPropertyOp18
 70
     1
102
RTVSPropertyOp19
 70
     1
102
RTVSPropertyOp20
 70
     1
102
RTVSPropertyOp21
 70
     1
102
RTVSPropertyOp22
 70
     1
102
RTVSPropertyOp23
 70
     1
102
RTVSPropertyOp24
 70
     1
102
RTVSPropertyOp25
 70
     1
102
RTVSPropertyOp26
 70
     1
102
RTVSPropertyOp27
 70
     1
102
RTVSPropertyOp28
 70
     1
102
RTVSPropertyOp29
 70
     1
102
RTVSPropertyOp30
 70
     1
102
RTVSPropertyOp31
 70
     1
102
RTVSPropertyOp32
 70
     1
102
RTVSPropertyOp33
 70
     1
102
RTVSPropertyOp34
 70
     1
102
RTVSPropertyOp35
 70
     1
102
RTVSPropertyOp36
 70
     1
102
RTVSPropertyOp37
 70
     1
102
RTVSPropertyOp38
 70
     1
102
RTVSPropertyOp39
 70
     1
102
RTVSPropertyOp40
 70
     1
102
RTVSPropertyOp41
 70
     1
102
RTVSPropertyOp42
 70
     1
102
RTVSPropertyOp43
 70
     1
102
RTVSPropertyOp44
 70
     1
102
RTVSPropertyOp45
 70
     1
102
RTVSPropertyOp46
 70
     1
102
RTVSPropertyOp47
 70
     1
102
RTVSPropertyOp48
 70
     1
102
RTVSPropertyOp49
 70
     1
102
RTVSPropertyOp50
 70
     1
102
RTVSPropertyOp51
 70
     0
102
RTVSPropertyOp52
 70
     0
102
RTVSPropertyOp53
 70
     1
102
RTVSPropertyOp54
 70
     1
102
RTVSPropertyOp55
 70
     1
102
RTVSPropertyOp56
 70
     1
102
RTVSPropertyOp57
 70
     1
102
RTVSPropertyOp58
 70
     1
102
RTVSPropertyOp59
 70
     1
102
RTVSPropertyOp60
 70
     1
102
RTVSPropertyOp61
 70
     1
102
RTVSPropertyOp62
 70
     1
  0
XRECORD
  5
47B
102
{ACAD_REACTORS
330
47A
102
}
330
47A
100
AcDbXrecord
280
     1
102
RTVSPost2010Prop28
280
     0
102
RTVSPost2010PropOp28
 70
     1
102
RTVSPost2010Prop29
280
     1
102
RTVSPost2010PropOp29
 70
     1
102
RTVSPost2010Prop30
280
     1
102
RTVSPost2010PropOp30
 70
     1
102
RTVSPost2010Prop31
280
     0
102
RTVSPost2010PropOp31
 70
     1
102
RTVSPost2010Prop32
280
     0
102
RTVSPost2010PropOp32
 70
     1
102
RTVSPost2010Prop33
280
     0
102
RTVSPost2010PropOp33
 70
     1
102
RTVSPost2010Prop34
280
     0
102
RTVSPost2010PropOp34
 70
     1
102
RTVSPost2010Prop35
280
     0
102
RTVSPost2010PropOp35
 70
     1
102
RTVSPost2010Prop36
280
     0
102
RTVSPost2010PropOp36
 70
     1
102
RTVSPost2010Prop37
 90
       50
102
RTVSPost2010PropOp37
 70
     0
102
RTVSPost2010Prop38
140
0.0
102
RTVSPost2010PropOp38
 70
     0
102
RTVSPost2010Prop39
140
1.0
102
RTVSPost2010PropOp39
 70
     0
102
RTVSPost2010Prop40
 90
        0
102
RTVSPost2010PropOp40
 70
     0
102
RTVSPost2010Prop41ColorIndex
 90
       18
102
RTVSPost2010Prop41ColorRGB
 90
        0
102
RTVSPost2010PropOp41
 70
     0
102
RTVSPost2010Prop42
 90
       50
102
RTVSPost2010PropOp42
 70
     0
102
RTVSPost2010Prop43
 90
        3
102
RTVSPost2010PropOp43
 70
     0
102
RTVSPost2010Prop44ColorIndex
 90
        5
102
RTVSPost2010Prop44ColorRGB
 90
      255
102
RTVSPost2010PropOp44
 70
     0
102
RTVSPost2010Prop45
280
     0
102
RTVSPost2010PropOp45
 70
     1
102
RTVSPost2010Prop46
 90
       50
102
RTVSPost2010PropOp46
 70
     0
102
RTVSPost2010Prop47
 90
       50
102
RTVSPost2010PropOp47
 70
     0
102
RTVSPost2010Prop48
 90
       50
102
RTVSPost2010PropOp48
 70
     0
102
RTVSPost2010Prop49
280
     0
102
RTVSPost2010PropOp49
 70
     1
102
RTVSPost2010Prop50
 90
       50
102
RTVSPost2010PropOp50
 70
     0
102
RTVSPost2010Prop51ColorIndex
 90
      256
102
RTVSPost2010Prop51ColorRGB
 90
-16777216
102
RTVSPost2010PropOp51
 70
     0
102
RTVSPost2010Prop52
140
1.0
102
RTVSPost2010PropOp52
 70
     0
102
RTVSPost2010Prop53
 90
        2
102
RTVSPost2010PropOp53
 70
     0
102
RTVSPost2010Prop54
  1
strokes_ogs.tif
102
RTVSPost2010PropOp54
 70
     0
102
RTVSPost2010Prop55
280
     0
102
RTVSPost2010PropOp55
 70
     1
102
RTVSPost2010Prop56
140
1.0
102
RTVSPost2010PropOp56
 70
     0
102
RTVSPost2010Prop57
140
1.0
102
RTVSPost2010PropOp57
 70
     0
102
RTVSPropertyOp0
 70
     0
102
RTVSPropertyOp1
 70
     0
102
RTVSPropertyOp2
 70
     0
102
RTVSPropertyOp3
 70
     0
102
RTVSPropertyOp4
 70
     0
102
RTVSPropertyOp5
 70
     0
102
RTVSPropertyOp6
 70
     0
102
RTVSPropertyOp7
 70
     0
102
RTVSPropertyOp8
 70
     0
102
RTVSPropertyOp9
 70
     0
102
RTVSPropertyOp10
 70
     0
102
RTVSPropertyOp11
 70
     0
102
RTVSPropertyOp12
 70
     0
102
RTVSPropertyOp13
 70
     0
102
RTVSPropertyOp14
 70
     2
102
RTVSPropertyOp15
 70
     0
102
RTVSPropertyOp16
 70
     0
102
RTVSPropertyOp17
 70
     0
102
RTVSPropertyOp18
 70
     0
102
RTVSPropertyOp19
 70
     0
102
RTVSPropertyOp20
 70
     0
102
RTVSPropertyOp21
 70
     0
102
RTVSPropertyOp22
 70
     0
102
RTVSPropertyOp23
 70
     0
102
RTVSPropertyOp24
 70
     0
102
RTVSPropertyOp25
 70
     0
102
RTVSPropertyOp26
 70
     0
102
RTVSPropertyOp27
 70
     0
102
RTVSPropertyOp28
 70
     1
102
RTVSPropertyOp29
 70
     1
102
RTVSPropertyOp30
 70
     1
102
RTVSPropertyOp31
 70
     1
102
RTVSPropertyOp32
 70
     1
102
RTVSPropertyOp33
 70
     1
102
RTVSPropertyOp34
 70
     1
102
RTVSPropertyOp35
 70
     1
102
RTVSPropertyOp36
 70
     1
102
RTVSPropertyOp37
 70
     0
102
RTVSPropertyOp38
 70
     0
102
RTVSPropertyOp39
 70
     0
102
RTVSPropertyOp40
 70
     0
102
RTVSPropertyOp41
 70
     0
102
RTVSPropertyOp42
 70
     0
102
RTVSPropertyOp43
 70
     0
102
RTVSPropertyOp44
 70
     0
102
RTVSPropertyOp45
 70
     1
102
RTVSPropertyOp46
 70
     0
102
RTVSPropertyOp47
 70
     0
102
RTVSPropertyOp48
 70
     0
102
RTVSPropertyOp49
 70
     1
102
RTVSPropertyOp50
 70
     0
102
RTVSPropertyOp51
 70
     0
102
RTVSPropertyOp52
 70
     0
102
RTVSPropertyOp53
 70
     0
102
RTVSPropertyOp54
 70
     0
102
RTVSPropertyOp55
 70
     1
102
RTVSPropertyOp56
 70
     0
102
RTVSPropertyOp57
 70
     0
102
RTVSPropertyOp58
 70
     0
102
RTVSPropertyOp59
 70
     0
102
RTVSPropertyOp60
 70
     0
102
RTVSPropertyOp61
 70
     0
102
RTVSPropertyOp62
 70
     0
  0
XRECORD
  5
46B
102
{ACAD_REACTORS
330
46A
102
}
330
46A
100
AcDbXrecord
280
     1
102
RTVSPost2010Prop28
280
     0
102
RTVSPost2010PropOp28
 70
     1
102
RTVSPost2010Prop29
280
     1
102
RTVSPost2010PropOp29
 70
     1
102
RTVSPost2010Prop30
280
     1
102
RTVSPost2010PropOp30
 70
     1
102
RTVSPost2010Prop31
280
     0
102
RTVSPost2010PropOp31
 70
     1
102
RTVSPost2010Prop32
280
     0
102
RTVSPost2010PropOp32
 70
     1
102
RTVSPost2010Prop33
280
     0
102
RTVSPost2010PropOp33
 70
     1
102
RTVSPost2010Prop34
280
     0
102
RTVSPost2010PropOp34
 70
     1
102
RTVSPost2010Prop35
280
     0
102
RTVSPost2010PropOp35
 70
     1
102
RTVSPost2010Prop36
280
     0
102
RTVSPost2010PropOp36
 70
     1
102
RTVSPost2010Prop37
 90
       50
102
RTVSPost2010PropOp37
 70
     1
102
RTVSPost2010Prop38
140
0.0
102
RTVSPost2010PropOp38
 70
     1
102
RTVSPost2010Prop39
140
1.0
102
RTVSPost2010PropOp39
 70
     1
102
RTVSPost2010Prop40
 90
        0
102
RTVSPost2010PropOp40
 70
     1
102
RTVSPost2010Prop41ColorIndex
 90
       18
102
RTVSPost2010Prop41ColorRGB
 90
        0
102
RTVSPost2010PropOp41
 70
     1
102
RTVSPost2010Prop42
 90
       50
102
RTVSPost2010PropOp42
 70
     1
102
RTVSPost2010Prop43
 90
        3
102
RTVSPost2010PropOp43
 70
     1
102
RTVSPost2010Prop44ColorIndex
 90
        5
102
RTVSPost2010Prop44ColorRGB
 90
      255
102
RTVSPost2010PropOp44
 70
     1
102
RTVSPost2010Prop45
280
     0
102
RTVSPost2010PropOp45
 70
     1
102
RTVSPost2010Prop46
 90
       50
102
RTVSPost2010PropOp46
 70
     1
102
RTVSPost2010Prop47
 90
       50
102
RTVSPost2010PropOp47
 70
     1
102
RTVSPost2010Prop48
 90
       50
102
RTVSPost2010PropOp48
 70
     1
102
RTVSPost2010Prop49
280
     0
102
RTVSPost2010PropOp49
 70
     1
102
RTVSPost2010Prop50
 90
       50
102
RTVSPost2010PropOp50
 70
     1
102
RTVSPost2010Prop51ColorIndex
 90
      256
102
RTVSPost2010Prop51ColorRGB
 90
-16777216
102
RTVSPost2010PropOp51
 70
     0
102
RTVSPost2010Prop52
140
1.0
102
RTVSPost2010PropOp52
 70
     0
102
RTVSPost2010Prop53
 90
        2
102
RTVSPost2010PropOp53
 70
     1
102
RTVSPost2010Prop54
  1
strokes_ogs.tif
102
RTVSPost2010PropOp54
 70
     1
102
RTVSPost2010Prop55
280
     0
102
RTVSPost2010PropOp55
 70
     1
102
RTVSPost2010Prop56
140
1.0
102
RTVSPost2010PropOp56
 70
     1
102
RTVSPost2010Prop57
140
1.0
102
RTVSPost2010PropOp57
 70
     1
102
RTVSPropertyOp0
 70
     1
102
RTVSPropertyOp1
 70
     1
102
RTVSPropertyOp2
 70
     1
102
RTVSPropertyOp3
 70
     1
102
RTVSPropertyOp4
 70
     1
102
RTVSPropertyOp5
 70
     1
102
RTVSPropertyOp6
 70
     1
102
RTVSPropertyOp7
 70
     1
102
RTVSPropertyOp8
 70
     1
102
RTVSPropertyOp9
 70
     1
102
RTVSPropertyOp10
 70
     1
102
RTVSPropertyOp11
 70
     1
102
RTVSPropertyOp12
 70
     1
102
RTVSPropertyOp13
 70
     1
102
RTVSPropertyOp14
 70
     1
102
RTVSPropertyOp15
 70
     1
102
RTVSPropertyOp16
 70
     1
102
RTVSPropertyOp17
 70
     1
102
RTVSPropertyOp18
 70
     1
102
RTVSPropertyOp19
 70
     1
102
RTVSPropertyOp20
 70
     1
102
RTVSPropertyOp21
 70
     1
102
RTVSPropertyOp22
 70
     1
102
RTVSPropertyOp23
 70
     1
102
RTVSPropertyOp24
 70
     1
102
RTVSPropertyOp25
 70
     1
102
RTVSPropertyOp26
 70
     1
102
RTVSPropertyOp27
 70
     1
102
RTVSPropertyOp28
 70
     1
102
RTVSPropertyOp29
 70
     1
102
RTVSPropertyOp30
 70
     1
102
RTVSPropertyOp31
 70
     1
102
RTVSPropertyOp32
 70
     1
102
RTVSPropertyOp33
 70
     1
102
RTVSPropertyOp34
 70
     1
102
RTVSPropertyOp35
 70
     1
102
RTVSPropertyOp36
 70
     1
102
RTVSPropertyOp37
 70
     1
102
RTVSPropertyOp38
 70
     1
102
RTVSPropertyOp39
 70
     1
102
RTVSPropertyOp40
 70
     1
102
RTVSPropertyOp41
 70
     1
102
RTVSPropertyOp42
 70
     1
102
RTVSPropertyOp43
 70
     1
102
RTVSPropertyOp44
 70
     1
102
RTVSPropertyOp45
 70
     1
102
RTVSPropertyOp46
 70
     1
102
RTVSPropertyOp47
 70
     1
102
RTVSPropertyOp48
 70
     1
102
RTVSPropertyOp49
 70
     1
102
RTVSPropertyOp50
 70
     1
102
RTVSPropertyOp51
 70
     0
102
RTVSPropertyOp52
 70
     0
102
RTVSPropertyOp53
 70
     1
102
RTVSPropertyOp54
 70
     1
102
RTVSPropertyOp55
 70
     1
102
RTVSPropertyOp56
 70
     1
102
RTVSPropertyOp57
 70
     1
102
RTVSPropertyOp58
 70
     1
102
RTVSPropertyOp59
 70
     1
102
RTVSPropertyOp60
 70
     1
102
RTVSPropertyOp61
 70
     1
102
RTVSPropertyOp62
 70
     1
  0
XRECORD
  5
47D
102
{ACAD_REACTORS
330
47C
102
}
330
47C
100
AcDbXrecord
280
     1
102
RTVSPost2010Prop28
280
     0
102
RTVSPost2010PropOp28
 70
     1
102
RTVSPost2010Prop29
280
     1
102
RTVSPost2010PropOp29
 70
     1
102
RTVSPost2010Prop30
280
     1
102
RTVSPost2010PropOp30
 70
     1
102
RTVSPost2010Prop31
280
     0
102
RTVSPost2010PropOp31
 70
     1
102
RTVSPost2010Prop32
280
     0
102
RTVSPost2010PropOp32
 70
     1
102
RTVSPost2010Prop33
280
     0
102
RTVSPost2010PropOp33
 70
     1
102
RTVSPost2010Prop34
280
     0
102
RTVSPost2010PropOp34
 70
     1
102
RTVSPost2010Prop35
280
     0
102
RTVSPost2010PropOp35
 70
     1
102
RTVSPost2010Prop36
280
     0
102
RTVSPost2010PropOp36
 70
     1
102
RTVSPost2010Prop37
 90
       50
102
RTVSPost2010PropOp37
 70
     0
102
RTVSPost2010Prop38
140
0.0
102
RTVSPost2010PropOp38
 70
     0
102
RTVSPost2010Prop39
140
1.0
102
RTVSPost2010PropOp39
 70
     0
102
RTVSPost2010Prop40
 90
        0
102
RTVSPost2010PropOp40
 70
     0
102
RTVSPost2010Prop41ColorIndex
 90
       18
102
RTVSPost2010Prop41ColorRGB
 90
        0
102
RTVSPost2010PropOp41
 70
     0
102
RTVSPost2010Prop42
 90
       50
102
RTVSPost2010PropOp42
 70
     0
102
RTVSPost2010Prop43
 90
        3
102
RTVSPost2010PropOp43
 70
     0
102
RTVSPost2010Prop44ColorIndex
 90
        5
102
RTVSPost2010Prop44ColorRGB
 90
      255
102
RTVSPost2010PropOp44
 70
     0
102
RTVSPost2010Prop45
280
     0
102
RTVSPost2010PropOp45
 70
     1
102
RTVSPost2010Prop46
 90
       50
102
RTVSPost2010PropOp46
 70
     0
102
RTVSPost2010Prop47
 90
       50
102
RTVSPost2010PropOp47
 70
     0
102
RTVSPost2010Prop48
 90
       50
102
RTVSPost2010PropOp48
 70
     0
102
RTVSPost2010Prop49
280
     0
102
RTVSPost2010PropOp49
 70
     1
102
RTVSPost2010Prop50
 90
       50
102
RTVSPost2010PropOp50
 70
     0
102
RTVSPost2010Prop51ColorIndex
 90
      256
102
RTVSPost2010Prop51ColorRGB
 90
-16777216
102
RTVSPost2010PropOp51
 70
     0
102
RTVSPost2010Prop52
140
1.0
102
RTVSPost2010PropOp52
 70
     0
102
RTVSPost2010Prop53
 90
        2
102
RTVSPost2010PropOp53
 70
     0
102
RTVSPost2010Prop54
  1
strokes_ogs.tif
102
RTVSPost2010PropOp54
 70
     0
102
RTVSPost2010Prop55
280
     0
102
RTVSPost2010PropOp55
 70
     1
102
RTVSPost2010Prop56
140
1.0
102
RTVSPost2010PropOp56
 70
     0
102
RTVSPost2010Prop57
140
1.0
102
RTVSPost2010PropOp57
 70
     0
102
RTVSPropertyOp0
 70
     0
102
RTVSPropertyOp1
 70
     0
102
RTVSPropertyOp2
 70
     0
102
RTVSPropertyOp3
 70
     0
102
RTVSPropertyOp4
 70
     0
102
RTVSPropertyOp5
 70
     0
102
RTVSPropertyOp6
 70
     0
102
RTVSPropertyOp7
 70
     0
102
RTVSPropertyOp8
 70
     0
102
RTVSPropertyOp9
 70
     0
102
RTVSPropertyOp10
 70
     0
102
RTVSPropertyOp11
 70
     0
102
RTVSPropertyOp12
 70
     0
102
RTVSPropertyOp13
 70
     0
102
RTVSPropertyOp14
 70
     2
102
RTVSPropertyOp15
 70
     0
102
RTVSPropertyOp16
 70
     0
102
RTVSPropertyOp17
 70
     0
102
RTVSPropertyOp18
 70
     0
102
RTVSPropertyOp19
 70
     0
102
RTVSPropertyOp20
 70
     0
102
RTVSPropertyOp21
 70
     0
102
RTVSPropertyOp22
 70
     0
102
RTVSPropertyOp23
 70
     0
102
RTVSPropertyOp24
 70
     0
102
RTVSPropertyOp25
 70
     0
102
RTVSPropertyOp26
 70
     0
102
RTVSPropertyOp27
 70
     0
102
RTVSPropertyOp28
 70
     1
102
RTVSPropertyOp29
 70
     1
102
RTVSPropertyOp30
 70
     1
102
RTVSPropertyOp31
 70
     1
102
RTVSPropertyOp32
 70
     1
102
RTVSPropertyOp33
 70
     1
102
RTVSPropertyOp34
 70
     1
102
RTVSPropertyOp35
 70
     1
102
RTVSPropertyOp36
 70
     1
102
RTVSPropertyOp37
 70
     0
102
RTVSPropertyOp38
 70
     0
102
RTVSPropertyOp39
 70
     0
102
RTVSPropertyOp40
 70
     0
102
RTVSPropertyOp41
 70
     0
102
RTVSPropertyOp42
 70
     0
102
RTVSPropertyOp43
 70
     0
102
RTVSPropertyOp44
 70
     0
102
RTVSPropertyOp45
 70
     1
102
RTVSPropertyOp46
 70
     0
102
RTVSPropertyOp47
 70
     0
102
RTVSPropertyOp48
 70
     0
102
RTVSPropertyOp49
 70
     1
102
RTVSPropertyOp50
 70
     0
102
RTVSPropertyOp51
 70
     0
102
RTVSPropertyOp52
 70
     0
102
RTVSPropertyOp53
 70
     0
102
RTVSPropertyOp54
 70
     0
102
RTVSPropertyOp55
 70
     1
102
RTVSPropertyOp56
 70
     0
102
RTVSPropertyOp57
 70
     0
102
RTVSPropertyOp58
 70
     0
102
RTVSPropertyOp59
 70
     0
102
RTVSPropertyOp60
 70
     0
102
RTVSPropertyOp61
 70
     0
102
RTVSPropertyOp62
 70
     0
  0
XRECORD
  5
463
102
{ACAD_REACTORS
330
462
102
}
330
462
100
AcDbXrecord
280
     1
102
RTVSPost2010Prop28
280
     0
102
RTVSPost2010PropOp28
 70
     1
102
RTVSPost2010Prop29
280
     1
102
RTVSPost2010PropOp29
 70
     1
102
RTVSPost2010Prop30
280
     1
102
RTVSPost2010PropOp30
 70
     1
102
RTVSPost2010Prop31
280
     0
102
RTVSPost2010PropOp31
 70
     1
102
RTVSPost2010Prop32
280
     0
102
RTVSPost2010PropOp32
 70
     1
102
RTVSPost2010Prop33
280
     0
102
RTVSPost2010PropOp33
 70
     1
102
RTVSPost2010Prop34
280
     0
102
RTVSPost2010PropOp34
 70
     1
102
RTVSPost2010Prop35
280
     0
102
RTVSPost2010PropOp35
 70
     1
102
RTVSPost2010Prop36
280
     0
102
RTVSPost2010PropOp36
 70
     1
102
RTVSPost2010Prop37
 90
       50
102
RTVSPost2010PropOp37
 70
     1
102
RTVSPost2010Prop38
140
0.0
102
RTVSPost2010PropOp38
 70
     1
102
RTVSPost2010Prop39
140
1.0
102
RTVSPost2010PropOp39
 70
     1
102
RTVSPost2010Prop40
 90
        0
102
RTVSPost2010PropOp40
 70
     1
102
RTVSPost2010Prop41ColorIndex
 90
       18
102
RTVSPost2010Prop41ColorRGB
 90
        0
102
RTVSPost2010PropOp41
 70
     1
102
RTVSPost2010Prop42
 90
       50
102
RTVSPost2010PropOp42
 70
     1
102
RTVSPost2010Prop43
 90
        3
102
RTVSPost2010PropOp43
 70
     1
102
RTVSPost2010Prop44ColorIndex
 90
        5
102
RTVSPost2010Prop44ColorRGB
 90
      255
102
RTVSPost2010PropOp44
 70
     1
102
RTVSPost2010Prop45
280
     0
102
RTVSPost2010PropOp45
 70
     1
102
RTVSPost2010Prop46
 90
       50
102
RTVSPost2010PropOp46
 70
     1
102
RTVSPost2010Prop47
 90
       50
102
RTVSPost2010PropOp47
 70
     1
102
RTVSPost2010Prop48
 90
       50
102
RTVSPost2010PropOp48
 70
     1
102
RTVSPost2010Prop49
280
     0
102
RTVSPost2010PropOp49
 70
     1
102
RTVSPost2010Prop50
 90
       50
102
RTVSPost2010PropOp50
 70
     1
102
RTVSPost2010Prop51ColorIndex
 90
      256
102
RTVSPost2010Prop51ColorRGB
 90
-16777216
102
RTVSPost2010PropOp51
 70
     0
102
RTVSPost2010Prop52
140
1.0
102
RTVSPost2010PropOp52
 70
     0
102
RTVSPost2010Prop53
 90
        2
102
RTVSPost2010PropOp53
 70
     1
102
RTVSPost2010Prop54
  1
strokes_ogs.tif
102
RTVSPost2010PropOp54
 70
     1
102
RTVSPost2010Prop55
280
     0
102
RTVSPost2010PropOp55
 70
     1
102
RTVSPost2010Prop56
140
1.0
102
RTVSPost2010PropOp56
 70
     1
102
RTVSPost2010Prop57
140
1.0
102
RTVSPost2010PropOp57
 70
     1
102
RTVSPropertyOp0
 70
     1
102
RTVSPropertyOp1
 70
     1
102
RTVSPropertyOp2
 70
     1
102
RTVSPropertyOp3
 70
     1
102
RTVSPropertyOp4
 70
     1
102
RTVSPropertyOp5
 70
     1
102
RTVSPropertyOp6
 70
     1
102
RTVSPropertyOp7
 70
     1
102
RTVSPropertyOp8
 70
     1
102
RTVSPropertyOp9
 70
     1
102
RTVSPropertyOp10
 70
     1
102
RTVSPropertyOp11
 70
     1
102
RTVSPropertyOp12
 70
     1
102
RTVSPropertyOp13
 70
     1
102
RTVSPropertyOp14
 70
     1
102
RTVSPropertyOp15
 70
     1
102
RTVSPropertyOp16
 70
     1
102
RTVSPropertyOp17
 70
     1
102
RTVSPropertyOp18
 70
     1
102
RTVSPropertyOp19
 70
     1
102
RTVSPropertyOp20
 70
     1
102
RTVSPropertyOp21
 70
     1
102
RTVSPropertyOp22
 70
     1
102
RTVSPropertyOp23
 70
     1
102
RTVSPropertyOp24
 70
     1
102
RTVSPropertyOp25
 70
     1
102
RTVSPropertyOp26
 70
     1
102
RTVSPropertyOp27
 70
     1
102
RTVSPropertyOp28
 70
     1
102
RTVSPropertyOp29
 70
     1
102
RTVSPropertyOp30
 70
     1
102
RTVSPropertyOp31
 70
     1
102
RTVSPropertyOp32
 70
     1
102
RTVSPropertyOp33
 70
     1
102
RTVSPropertyOp34
 70
     1
102
RTVSPropertyOp35
 70
     1
102
RTVSPropertyOp36
 70
     1
102
RTVSPropertyOp37
 70
     1
102
RTVSPropertyOp38
 70
     1
102
RTVSPropertyOp39
 70
     1
102
RTVSPropertyOp40
 70
     1
102
RTVSPropertyOp41
 70
     1
102
RTVSPropertyOp42
 70
     1
102
RTVSPropertyOp43
 70
     1
102
RTVSPropertyOp44
 70
     1
102
RTVSPropertyOp45
 70
     1
102
RTVSPropertyOp46
 70
     1
102
RTVSPropertyOp47
 70
     1
102
RTVSPropertyOp48
 70
     1
102
RTVSPropertyOp49
 70
     1
102
RTVSPropertyOp50
 70
     1
102
RTVSPropertyOp51
 70
     0
102
RTVSPropertyOp52
 70
     0
102
RTVSPropertyOp53
 70
     1
102
RTVSPropertyOp54
 70
     1
102
RTVSPropertyOp55
 70
     1
102
RTVSPropertyOp56
 70
     1
102
RTVSPropertyOp57
 70
     1
102
RTVSPropertyOp58
 70
     1
102
RTVSPropertyOp59
 70
     1
102
RTVSPropertyOp60
 70
     1
102
RTVSPropertyOp61
 70
     1
102
RTVSPropertyOp62
 70
     1
  0
XRECORD
  5
479
102
{ACAD_REACTORS
330
478
102
}
330
478
100
AcDbXrecord
280
     1
102
RTVSPost2010Prop28
280
     0
102
RTVSPost2010PropOp28
 70
     1
102
RTVSPost2010Prop29
280
     1
102
RTVSPost2010PropOp29
 70
     1
102
RTVSPost2010Prop30
280
     1
102
RTVSPost2010PropOp30
 70
     1
102
RTVSPost2010Prop31
280
     0
102
RTVSPost2010PropOp31
 70
     1
102
RTVSPost2010Prop32
280
     0
102
RTVSPost2010PropOp32
 70
     1
102
RTVSPost2010Prop33
280
     0
102
RTVSPost2010PropOp33
 70
     1
102
RTVSPost2010Prop34
280
     0
102
RTVSPost2010PropOp34
 70
     1
102
RTVSPost2010Prop35
280
     0
102
RTVSPost2010PropOp35
 70
     1
102
RTVSPost2010Prop36
280
     0
102
RTVSPost2010PropOp36
 70
     1
102
RTVSPost2010Prop37
 90
       50
102
RTVSPost2010PropOp37
 70
     1
102
RTVSPost2010Prop38
140
0.0
102
RTVSPost2010PropOp38
 70
     1
102
RTVSPost2010Prop39
140
1.0
102
RTVSPost2010PropOp39
 70
     1
102
RTVSPost2010Prop40
 90
        0
102
RTVSPost2010PropOp40
 70
     1
102
RTVSPost2010Prop41ColorIndex
 90
       18
102
RTVSPost2010Prop41ColorRGB
 90
        0
102
RTVSPost2010PropOp41
 70
     1
102
RTVSPost2010Prop42
 90
       50
102
RTVSPost2010PropOp42
 70
     1
102
RTVSPost2010Prop43
 90
        3
102
RTVSPost2010PropOp43
 70
     1
102
RTVSPost2010Prop44ColorIndex
 90
        5
102
RTVSPost2010Prop44ColorRGB
 90
      255
102
RTVSPost2010PropOp44
 70
     1
102
RTVSPost2010Prop45
280
     0
102
RTVSPost2010PropOp45
 70
     1
102
RTVSPost2010Prop46
 90
       50
102
RTVSPost2010PropOp46
 70
     1
102
RTVSPost2010Prop47
 90
       50
102
RTVSPost2010PropOp47
 70
     1
102
RTVSPost2010Prop48
 90
       50
102
RTVSPost2010PropOp48
 70
     1
102
RTVSPost2010Prop49
280
     0
102
RTVSPost2010PropOp49
 70
     1
102
RTVSPost2010Prop50
 90
       50
102
RTVSPost2010PropOp50
 70
     1
102
RTVSPost2010Prop51ColorIndex
 90
      256
102
RTVSPost2010Prop51ColorRGB
 90
-16777216
102
RTVSPost2010PropOp51
 70
     0
102
RTVSPost2010Prop52
140
1.0
102
RTVSPost2010PropOp52
 70
     0
102
RTVSPost2010Prop53
 90
        2
102
RTVSPost2010PropOp53
 70
     1
102
RTVSPost2010Prop54
  1
strokes_ogs.tif
102
RTVSPost2010PropOp54
 70
     1
102
RTVSPost2010Prop55
280
     0
102
RTVSPost2010PropOp55
 70
     1
102
RTVSPost2010Prop56
140
1.0
102
RTVSPost2010PropOp56
 70
     1
102
RTVSPost2010Prop57
140
1.0
102
RTVSPost2010PropOp57
 70
     1
102
RTVSPropertyOp0
 70
     1
102
RTVSPropertyOp1
 70
     1
102
RTVSPropertyOp2
 70
     1
102
RTVSPropertyOp3
 70
     1
102
RTVSPropertyOp4
 70
     1
102
RTVSPropertyOp5
 70
     1
102
RTVSPropertyOp6
 70
     1
102
RTVSPropertyOp7
 70
     1
102
RTVSPropertyOp8
 70
     1
102
RTVSPropertyOp9
 70
     1
102
RTVSPropertyOp10
 70
     1
102
RTVSPropertyOp11
 70
     1
102
RTVSPropertyOp12
 70
     1
102
RTVSPropertyOp13
 70
     1
102
RTVSPropertyOp14
 70
     1
102
RTVSPropertyOp15
 70
     1
102
RTVSPropertyOp16
 70
     1
102
RTVSPropertyOp17
 70
     1
102
RTVSPropertyOp18
 70
     1
102
RTVSPropertyOp19
 70
     1
102
RTVSPropertyOp20
 70
     1
102
RTVSPropertyOp21
 70
     1
102
RTVSPropertyOp22
 70
     1
102
RTVSPropertyOp23
 70
     1
102
RTVSPropertyOp24
 70
     1
102
RTVSPropertyOp25
 70
     1
102
RTVSPropertyOp26
 70
     1
102
RTVSPropertyOp27
 70
     1
102
RTVSPropertyOp28
 70
     1
102
RTVSPropertyOp29
 70
     1
102
RTVSPropertyOp30
 70
     1
102
RTVSPropertyOp31
 70
     1
102
RTVSPropertyOp32
 70
     1
102
RTVSPropertyOp33
 70
     1
102
RTVSPropertyOp34
 70
     1
102
RTVSPropertyOp35
 70
     1
102
RTVSPropertyOp36
 70
     1
102
RTVSPropertyOp37
 70
     1
102
RTVSPropertyOp38
 70
     1
102
RTVSPropertyOp39
 70
     1
102
RTVSPropertyOp40
 70
     1
102
RTVSPropertyOp41
 70
     1
102
RTVSPropertyOp42
 70
     1
102
RTVSPropertyOp43
 70
     1
102
RTVSPropertyOp44
 70
     1
102
RTVSPropertyOp45
 70
     1
102
RTVSPropertyOp46
 70
     1
102
RTVSPropertyOp47
 70
     1
102
RTVSPropertyOp48
 70
     1
102
RTVSPropertyOp49
 70
     1
102
RTVSPropertyOp50
 70
     1
102
RTVSPropertyOp51
 70
     0
102
RTVSPropertyOp52
 70
     0
102
RTVSPropertyOp53
 70
     1
102
RTVSPropertyOp54
 70
     1
102
RTVSPropertyOp55
 70
     1
102
RTVSPropertyOp56
 70
     1
102
RTVSPropertyOp57
 70
     1
102
RTVSPropertyOp58
 70
     1
102
RTVSPropertyOp59
 70
     1
102
RTVSPropertyOp60
 70
     1
102
RTVSPropertyOp61
 70
     1
102
RTVSPropertyOp62
 70
     1
  0
XRECORD
  5
477
102
{ACAD_REACTORS
330
476
102
}
330
476
100
AcDbXrecord
280
     1
102
RTVSPost2010Prop28
280
     0
102
RTVSPost2010PropOp28
 70
     1
102
RTVSPost2010Prop29
280
     1
102
RTVSPost2010PropOp29
 70
     1
102
RTVSPost2010Prop30
280
     1
102
RTVSPost2010PropOp30
 70
     1
102
RTVSPost2010Prop31
280
     0
102
RTVSPost2010PropOp31
 70
     1
102
RTVSPost2010Prop32
280
     0
102
RTVSPost2010PropOp32
 70
     1
102
RTVSPost2010Prop33
280
     0
102
RTVSPost2010PropOp33
 70
     1
102
RTVSPost2010Prop34
280
     0
102
RTVSPost2010PropOp34
 70
     1
102
RTVSPost2010Prop35
280
     0
102
RTVSPost2010PropOp35
 70
     1
102
RTVSPost2010Prop36
280
     0
102
RTVSPost2010PropOp36
 70
     1
102
RTVSPost2010Prop37
 90
       50
102
RTVSPost2010PropOp37
 70
     1
102
RTVSPost2010Prop38
140
0.0
102
RTVSPost2010PropOp38
 70
     1
102
RTVSPost2010Prop39
140
1.0
102
RTVSPost2010PropOp39
 70
     1
102
RTVSPost2010Prop40
 90
        0
102
RTVSPost2010PropOp40
 70
     1
102
RTVSPost2010Prop41ColorIndex
 90
       18
102
RTVSPost2010Prop41ColorRGB
 90
        0
102
RTVSPost2010PropOp41
 70
     1
102
RTVSPost2010Prop42
 90
       50
102
RTVSPost2010PropOp42
 70
     1
102
RTVSPost2010Prop43
 90
        3
102
RTVSPost2010PropOp43
 70
     1
102
RTVSPost2010Prop44ColorIndex
 90
        5
102
RTVSPost2010Prop44ColorRGB
 90
      255
102
RTVSPost2010PropOp44
 70
     1
102
RTVSPost2010Prop45
280
     0
102
RTVSPost2010PropOp45
 70
     1
102
RTVSPost2010Prop46
 90
       50
102
RTVSPost2010PropOp46
 70
     1
102
RTVSPost2010Prop47
 90
       50
102
RTVSPost2010PropOp47
 70
     1
102
RTVSPost2010Prop48
 90
       50
102
RTVSPost2010PropOp48
 70
     1
102
RTVSPost2010Prop49
280
     0
102
RTVSPost2010PropOp49
 70
     1
102
RTVSPost2010Prop50
 90
       50
102
RTVSPost2010PropOp50
 70
     1
102
RTVSPost2010Prop51ColorIndex
 90
      256
102
RTVSPost2010Prop51ColorRGB
 90
-16777216
102
RTVSPost2010PropOp51
 70
     0
102
RTVSPost2010Prop52
140
1.0
102
RTVSPost2010PropOp52
 70
     0
102
RTVSPost2010Prop53
 90
        2
102
RTVSPost2010PropOp53
 70
     1
102
RTVSPost2010Prop54
  1
strokes_ogs.tif
102
RTVSPost2010PropOp54
 70
     1
102
RTVSPost2010Prop55
280
     0
102
RTVSPost2010PropOp55
 70
     1
102
RTVSPost2010Prop56
140
1.0
102
RTVSPost2010PropOp56
 70
     1
102
RTVSPost2010Prop57
140
1.0
102
RTVSPost2010PropOp57
 70
     1
102
RTVSPropertyOp0
 70
     1
102
RTVSPropertyOp1
 70
     1
102
RTVSPropertyOp2
 70
     1
102
RTVSPropertyOp3
 70
     1
102
RTVSPropertyOp4
 70
     1
102
RTVSPropertyOp5
 70
     1
102
RTVSPropertyOp6
 70
     1
102
RTVSPropertyOp7
 70
     1
102
RTVSPropertyOp8
 70
     1
102
RTVSPropertyOp9
 70
     1
102
RTVSPropertyOp10
 70
     1
102
RTVSPropertyOp11
 70
     1
102
RTVSPropertyOp12
 70
     1
102
RTVSPropertyOp13
 70
     1
102
RTVSPropertyOp14
 70
     1
102
RTVSPropertyOp15
 70
     1
102
RTVSPropertyOp16
 70
     1
102
RTVSPropertyOp17
 70
     1
102
RTVSPropertyOp18
 70
     1
102
RTVSPropertyOp19
 70
     1
102
RTVSPropertyOp20
 70
     1
102
RTVSPropertyOp21
 70
     1
102
RTVSPropertyOp22
 70
     1
102
RTVSPropertyOp23
 70
     1
102
RTVSPropertyOp24
 70
     1
102
RTVSPropertyOp25
 70
     1
102
RTVSPropertyOp26
 70
     1
102
RTVSPropertyOp27
 70
     1
102
RTVSPropertyOp28
 70
     1
102
RTVSPropertyOp29
 70
     1
102
RTVSPropertyOp30
 70
     1
102
RTVSPropertyOp31
 70
     1
102
RTVSPropertyOp32
 70
     1
102
RTVSPropertyOp33
 70
     1
102
RTVSPropertyOp34
 70
     1
102
RTVSPropertyOp35
 70
     1
102
RTVSPropertyOp36
 70
     1
102
RTVSPropertyOp37
 70
     1
102
RTVSPropertyOp38
 70
     1
102
RTVSPropertyOp39
 70
     1
102
RTVSPropertyOp40
 70
     1
102
RTVSPropertyOp41
 70
     1
102
RTVSPropertyOp42
 70
     1
102
RTVSPropertyOp43
 70
     1
102
RTVSPropertyOp44
 70
     1
102
RTVSPropertyOp45
 70
     1
102
RTVSPropertyOp46
 70
     1
102
RTVSPropertyOp47
 70
     1
102
RTVSPropertyOp48
 70
     1
102
RTVSPropertyOp49
 70
     1
102
RTVSPropertyOp50
 70
     1
102
RTVSPropertyOp51
 70
     0
102
RTVSPropertyOp52
 70
     0
102
RTVSPropertyOp53
 70
     1
102
RTVSPropertyOp54
 70
     1
102
RTVSPropertyOp55
 70
     1
102
RTVSPropertyOp56
 70
     1
102
RTVSPropertyOp57
 70
     1
102
RTVSPropertyOp58
 70
     1
102
RTVSPropertyOp59
 70
     1
102
RTVSPropertyOp60
 70
     1
102
RTVSPropertyOp61
 70
     1
102
RTVSPropertyOp62
 70
     1
  0
XRECORD
  5
471
102
{ACAD_REACTORS
330
470
102
}
330
470
100
AcDbXrecord
280
     1
102
RTVSPost2010Prop28
280
     0
102
RTVSPost2010PropOp28
 70
     1
102
RTVSPost2010Prop29
280
     1
102
RTVSPost2010PropOp29
 70
     1
102
RTVSPost2010Prop30
280
     1
102
RTVSPost2010PropOp30
 70
     1
102
RTVSPost2010Prop31
280
     0
102
RTVSPost2010PropOp31
 70
     1
102
RTVSPost2010Prop32
280
     0
102
RTVSPost2010PropOp32
 70
     1
102
RTVSPost2010Prop33
280
     0
102
RTVSPost2010PropOp33
 70
     1
102
RTVSPost2010Prop34
280
     0
102
RTVSPost2010PropOp34
 70
     1
102
RTVSPost2010Prop35
280
     0
102
RTVSPost2010PropOp35
 70
     1
102
RTVSPost2010Prop36
280
     0
102
RTVSPost2010PropOp36
 70
     1
102
RTVSPost2010Prop37
 90
       50
102
RTVSPost2010PropOp37
 70
     1
102
RTVSPost2010Prop38
140
0.0
102
RTVSPost2010PropOp38
 70
     1
102
RTVSPost2010Prop39
140
1.0
102
RTVSPost2010PropOp39
 70
     1
102
RTVSPost2010Prop40
 90
        0
102
RTVSPost2010PropOp40
 70
     1
102
RTVSPost2010Prop41ColorIndex
 90
       18
102
RTVSPost2010Prop41ColorRGB
 90
        0
102
RTVSPost2010PropOp41
 70
     1
102
RTVSPost2010Prop42
 90
       50
102
RTVSPost2010PropOp42
 70
     1
102
RTVSPost2010Prop43
 90
        3
102
RTVSPost2010PropOp43
 70
     1
102
RTVSPost2010Prop44ColorIndex
 90
        5
102
RTVSPost2010Prop44ColorRGB
 90
      255
102
RTVSPost2010PropOp44
 70
     1
102
RTVSPost2010Prop45
280
     0
102
RTVSPost2010PropOp45
 70
     1
102
RTVSPost2010Prop46
 90
       50
102
RTVSPost2010PropOp46
 70
     1
102
RTVSPost2010Prop47
 90
       50
102
RTVSPost2010PropOp47
 70
     1
102
RTVSPost2010Prop48
 90
       50
102
RTVSPost2010PropOp48
 70
     1
102
RTVSPost2010Prop49
280
     0
102
RTVSPost2010PropOp49
 70
     1
102
RTVSPost2010Prop50
 90
       50
102
RTVSPost2010PropOp50
 70
     1
102
RTVSPost2010Prop51ColorIndex
 90
      256
102
RTVSPost2010Prop51ColorRGB
 90
-16777216
102
RTVSPost2010PropOp51
 70
     0
102
RTVSPost2010Prop52
140
1.0
102
RTVSPost2010PropOp52
 70
     0
102
RTVSPost2010Prop53
 90
        2
102
RTVSPost2010PropOp53
 70
     1
102
RTVSPost2010Prop54
  1
strokes_ogs.tif
102
RTVSPost2010PropOp54
 70
     1
102
RTVSPost2010Prop55
280
     0
102
RTVSPost2010PropOp55
 70
     1
102
RTVSPost2010Prop56
140
1.0
102
RTVSPost2010PropOp56
 70
     1
102
RTVSPost2010Prop57
140
1.0
102
RTVSPost2010PropOp57
 70
     1
102
RTVSPropertyOp0
 70
     1
102
RTVSPropertyOp1
 70
     1
102
RTVSPropertyOp2
 70
     1
102
RTVSPropertyOp3
 70
     1
102
RTVSPropertyOp4
 70
     1
102
RTVSPropertyOp5
 70
     1
102
RTVSPropertyOp6
 70
     1
102
RTVSPropertyOp7
 70
     1
102
RTVSPropertyOp8
 70
     1
102
RTVSPropertyOp9
 70
     1
102
RTVSPropertyOp10
 70
     1
102
RTVSPropertyOp11
 70
     1
102
RTVSPropertyOp12
 70
     1
102
RTVSPropertyOp13
 70
     1
102
RTVSPropertyOp14
 70
     1
102
RTVSPropertyOp15
 70
     1
102
RTVSPropertyOp16
 70
     1
102
RTVSPropertyOp17
 70
     1
102
RTVSPropertyOp18
 70
     1
102
RTVSPropertyOp19
 70
     1
102
RTVSPropertyOp20
 70
     1
102
RTVSPropertyOp21
 70
     1
102
RTVSPropertyOp22
 70
     1
102
RTVSPropertyOp23
 70
     1
102
RTVSPropertyOp24
 70
     1
102
RTVSPropertyOp25
 70
     1
102
RTVSPropertyOp26
 70
     1
102
RTVSPropertyOp27
 70
     1
102
RTVSPropertyOp28
 70
     1
102
RTVSPropertyOp29
 70
     1
102
RTVSPropertyOp30
 70
     1
102
RTVSPropertyOp31
 70
     1
102
RTVSPropertyOp32
 70
     1
102
RTVSPropertyOp33
 70
     1
102
RTVSPropertyOp34
 70
     1
102
RTVSPropertyOp35
 70
     1
102
RTVSPropertyOp36
 70
     1
102
RTVSPropertyOp37
 70
     1
102
RTVSPropertyOp38
 70
     1
102
RTVSPropertyOp39
 70
     1
102
RTVSPropertyOp40
 70
     1
102
RTVSPropertyOp41
 70
     1
102
RTVSPropertyOp42
 70
     1
102
RTVSPropertyOp43
 70
     1
102
RTVSPropertyOp44
 70
     1
102
RTVSPropertyOp45
 70
     1
102
RTVSPropertyOp46
 70
     1
102
RTVSPropertyOp47
 70
     1
102
RTVSPropertyOp48
 70
     1
102
RTVSPropertyOp49
 70
     1
102
RTVSPropertyOp50
 70
     1
102
RTVSPropertyOp51
 70
     0
102
RTVSPropertyOp52
 70
     0
102
RTVSPropertyOp53
 70
     1
102
RTVSPropertyOp54
 70
     1
102
RTVSPropertyOp55
 70
     1
102
RTVSPropertyOp56
 70
     1
102
RTVSPropertyOp57
 70
     1
102
RTVSPropertyOp58
 70
     1
102
RTVSPropertyOp59
 70
     1
102
RTVSPropertyOp60
 70
     1
102
RTVSPropertyOp61
 70
     1
102
RTVSPropertyOp62
 70
     1
  0
XRECORD
  5
473
102
{ACAD_REACTORS
330
472
102
}
330
472
100
AcDbXrecord
280
     1
102
RTVSPost2010Prop28
280
     0
102
RTVSPost2010PropOp28
 70
     1
102
RTVSPost2010Prop29
280
     1
102
RTVSPost2010PropOp29
 70
     1
102
RTVSPost2010Prop30
280
     1
102
RTVSPost2010PropOp30
 70
     1
102
RTVSPost2010Prop31
280
     0
102
RTVSPost2010PropOp31
 70
     1
102
RTVSPost2010Prop32
280
     0
102
RTVSPost2010PropOp32
 70
     1
102
RTVSPost2010Prop33
280
     0
102
RTVSPost2010PropOp33
 70
     1
102
RTVSPost2010Prop34
280
     0
102
RTVSPost2010PropOp34
 70
     1
102
RTVSPost2010Prop35
280
     0
102
RTVSPost2010PropOp35
 70
     1
102
RTVSPost2010Prop36
280
     0
102
RTVSPost2010PropOp36
 70
     1
102
RTVSPost2010Prop37
 90
       50
102
RTVSPost2010PropOp37
 70
     1
102
RTVSPost2010Prop38
140
0.0
102
RTVSPost2010PropOp38
 70
     1
102
RTVSPost2010Prop39
140
1.0
102
RTVSPost2010PropOp39
 70
     1
102
RTVSPost2010Prop40
 90
        0
102
RTVSPost2010PropOp40
 70
     1
102
RTVSPost2010Prop41ColorIndex
 90
       18
102
RTVSPost2010Prop41ColorRGB
 90
        0
102
RTVSPost2010PropOp41
 70
     1
102
RTVSPost2010Prop42
 90
       50
102
RTVSPost2010PropOp42
 70
     1
102
RTVSPost2010Prop43
 90
        3
102
RTVSPost2010PropOp43
 70
     1
102
RTVSPost2010Prop44ColorIndex
 90
        5
102
RTVSPost2010Prop44ColorRGB
 90
      255
102
RTVSPost2010PropOp44
 70
     1
102
RTVSPost2010Prop45
280
     0
102
RTVSPost2010PropOp45
 70
     1
102
RTVSPost2010Prop46
 90
       50
102
RTVSPost2010PropOp46
 70
     1
102
RTVSPost2010Prop47
 90
       50
102
RTVSPost2010PropOp47
 70
     1
102
RTVSPost2010Prop48
 90
       50
102
RTVSPost2010PropOp48
 70
     1
102
RTVSPost2010Prop49
280
     0
102
RTVSPost2010PropOp49
 70
     1
102
RTVSPost2010Prop50
 90
       50
102
RTVSPost2010PropOp50
 70
     1
102
RTVSPost2010Prop51ColorIndex
 90
      256
102
RTVSPost2010Prop51ColorRGB
 90
-16777216
102
RTVSPost2010PropOp51
 70
     0
102
RTVSPost2010Prop52
140
1.0
102
RTVSPost2010PropOp52
 70
     0
102
RTVSPost2010Prop53
 90
        2
102
RTVSPost2010PropOp53
 70
     1
102
RTVSPost2010Prop54
  1
strokes_ogs.tif
102
RTVSPost2010PropOp54
 70
     1
102
RTVSPost2010Prop55
280
     0
102
RTVSPost2010PropOp55
 70
     1
102
RTVSPost2010Prop56
140
1.0
102
RTVSPost2010PropOp56
 70
     1
102
RTVSPost2010Prop57
140
1.0
102
RTVSPost2010PropOp57
 70
     1
102
RTVSPropertyOp0
 70
     1
102
RTVSPropertyOp1
 70
     1
102
RTVSPropertyOp2
 70
     1
102
RTVSPropertyOp3
 70
     1
102
RTVSPropertyOp4
 70
     1
102
RTVSPropertyOp5
 70
     1
102
RTVSPropertyOp6
 70
     1
102
RTVSPropertyOp7
 70
     1
102
RTVSPropertyOp8
 70
     1
102
RTVSPropertyOp9
 70
     1
102
RTVSPropertyOp10
 70
     1
102
RTVSPropertyOp11
 70
     1
102
RTVSPropertyOp12
 70
     1
102
RTVSPropertyOp13
 70
     1
102
RTVSPropertyOp14
 70
     1
102
RTVSPropertyOp15
 70
     1
102
RTVSPropertyOp16
 70
     1
102
RTVSPropertyOp17
 70
     1
102
RTVSPropertyOp18
 70
     1
102
RTVSPropertyOp19
 70
     1
102
RTVSPropertyOp20
 70
     1
102
RTVSPropertyOp21
 70
     1
102
RTVSPropertyOp22
 70
     1
102
RTVSPropertyOp23
 70
     1
102
RTVSPropertyOp24
 70
     1
102
RTVSPropertyOp25
 70
     1
102
RTVSPropertyOp26
 70
     1
102
RTVSPropertyOp27
 70
     1
102
RTVSPropertyOp28
 70
     1
102
RTVSPropertyOp29
 70
     1
102
RTVSPropertyOp30
 70
     1
102
RTVSPropertyOp31
 70
     1
102
RTVSPropertyOp32
 70
     1
102
RTVSPropertyOp33
 70
     1
102
RTVSPropertyOp34
 70
     1
102
RTVSPropertyOp35
 70
     1
102
RTVSPropertyOp36
 70
     1
102
RTVSPropertyOp37
 70
     1
102
RTVSPropertyOp38
 70
     1
102
RTVSPropertyOp39
 70
     1
102
RTVSPropertyOp40
 70
     1
102
RTVSPropertyOp41
 70
     1
102
RTVSPropertyOp42
 70
     1
102
RTVSPropertyOp43
 70
     1
102
RTVSPropertyOp44
 70
     1
102
RTVSPropertyOp45
 70
     1
102
RTVSPropertyOp46
 70
     1
102
RTVSPropertyOp47
 70
     1
102
RTVSPropertyOp48
 70
     1
102
RTVSPropertyOp49
 70
     1
102
RTVSPropertyOp50
 70
     1
102
RTVSPropertyOp51
 70
     0
102
RTVSPropertyOp52
 70
     0
102
RTVSPropertyOp53
 70
     1
102
RTVSPropertyOp54
 70
     1
102
RTVSPropertyOp55
 70
     1
102
RTVSPropertyOp56
 70
     1
102
RTVSPropertyOp57
 70
     1
102
RTVSPropertyOp58
 70
     1
102
RTVSPropertyOp59
 70
     1
102
RTVSPropertyOp60
 70
     1
102
RTVSPropertyOp61
 70
     1
102
RTVSPropertyOp62
 70
     1
  0
XRECORD
  5
469
102
{ACAD_REACTORS
330
468
102
}
330
468
100
AcDbXrecord
280
     1
102
RTVSPost2010Prop28
280
     0
102
RTVSPost2010PropOp28
 70
     1
102
RTVSPost2010Prop29
280
     1
102
RTVSPost2010PropOp29
 70
     1
102
RTVSPost2010Prop30
280
     1
102
RTVSPost2010PropOp30
 70
     1
102
RTVSPost2010Prop31
280
     0
102
RTVSPost2010PropOp31
 70
     1
102
RTVSPost2010Prop32
280
     0
102
RTVSPost2010PropOp32
 70
     1
102
RTVSPost2010Prop33
280
     0
102
RTVSPost2010PropOp33
 70
     1
102
RTVSPost2010Prop34
280
     0
102
RTVSPost2010PropOp34
 70
     1
102
RTVSPost2010Prop35
280
     0
102
RTVSPost2010PropOp35
 70
     1
102
RTVSPost2010Prop36
280
     0
102
RTVSPost2010PropOp36
 70
     1
102
RTVSPost2010Prop37
 90
       50
102
RTVSPost2010PropOp37
 70
     1
102
RTVSPost2010Prop38
140
0.0
102
RTVSPost2010PropOp38
 70
     1
102
RTVSPost2010Prop39
140
1.0
102
RTVSPost2010PropOp39
 70
     1
102
RTVSPost2010Prop40
 90
        0
102
RTVSPost2010PropOp40
 70
     1
102
RTVSPost2010Prop41ColorIndex
 90
       18
102
RTVSPost2010Prop41ColorRGB
 90
        0
102
RTVSPost2010PropOp41
 70
     1
102
RTVSPost2010Prop42
 90
       50
102
RTVSPost2010PropOp42
 70
     1
102
RTVSPost2010Prop43
 90
        3
102
RTVSPost2010PropOp43
 70
     1
102
RTVSPost2010Prop44ColorIndex
 90
        5
102
RTVSPost2010Prop44ColorRGB
 90
      255
102
RTVSPost2010PropOp44
 70
     1
102
RTVSPost2010Prop45
280
     0
102
RTVSPost2010PropOp45
 70
     1
102
RTVSPost2010Prop46
 90
       50
102
RTVSPost2010PropOp46
 70
     1
102
RTVSPost2010Prop47
 90
       50
102
RTVSPost2010PropOp47
 70
     1
102
RTVSPost2010Prop48
 90
       50
102
RTVSPost2010PropOp48
 70
     1
102
RTVSPost2010Prop49
280
     0
102
RTVSPost2010PropOp49
 70
     1
102
RTVSPost2010Prop50
 90
       50
102
RTVSPost2010PropOp50
 70
     1
102
RTVSPost2010Prop51ColorIndex
 90
      256
102
RTVSPost2010Prop51ColorRGB
 90
-16777216
102
RTVSPost2010PropOp51
 70
     0
102
RTVSPost2010Prop52
140
1.0
102
RTVSPost2010PropOp52
 70
     0
102
RTVSPost2010Prop53
 90
        2
102
RTVSPost2010PropOp53
 70
     1
102
RTVSPost2010Prop54
  1
strokes_ogs.tif
102
RTVSPost2010PropOp54
 70
     1
102
RTVSPost2010Prop55
280
     0
102
RTVSPost2010PropOp55
 70
     1
102
RTVSPost2010Prop56
140
1.0
102
RTVSPost2010PropOp56
 70
     1
102
RTVSPost2010Prop57
140
1.0
102
RTVSPost2010PropOp57
 70
     1
102
RTVSPropertyOp0
 70
     1
102
RTVSPropertyOp1
 70
     1
102
RTVSPropertyOp2
 70
     1
102
RTVSPropertyOp3
 70
     1
102
RTVSPropertyOp4
 70
     1
102
RTVSPropertyOp5
 70
     1
102
RTVSPropertyOp6
 70
     1
102
RTVSPropertyOp7
 70
     1
102
RTVSPropertyOp8
 70
     1
102
RTVSPropertyOp9
 70
     1
102
RTVSPropertyOp10
 70
     1
102
RTVSPropertyOp11
 70
     1
102
RTVSPropertyOp12
 70
     1
102
RTVSPropertyOp13
 70
     1
102
RTVSPropertyOp14
 70
     1
102
RTVSPropertyOp15
 70
     1
102
RTVSPropertyOp16
 70
     1
102
RTVSPropertyOp17
 70
     1
102
RTVSPropertyOp18
 70
     1
102
RTVSPropertyOp19
 70
     1
102
RTVSPropertyOp20
 70
     1
102
RTVSPropertyOp21
 70
     1
102
RTVSPropertyOp22
 70
     1
102
RTVSPropertyOp23
 70
     1
102
RTVSPropertyOp24
 70
     1
102
RTVSPropertyOp25
 70
     1
102
RTVSPropertyOp26
 70
     1
102
RTVSPropertyOp27
 70
     1
102
RTVSPropertyOp28
 70
     1
102
RTVSPropertyOp29
 70
     1
102
RTVSPropertyOp30
 70
     1
102
RTVSPropertyOp31
 70
     1
102
RTVSPropertyOp32
 70
     1
102
RTVSPropertyOp33
 70
     1
102
RTVSPropertyOp34
 70
     1
102
RTVSPropertyOp35
 70
     1
102
RTVSPropertyOp36
 70
     1
102
RTVSPropertyOp37
 70
     1
102
RTVSPropertyOp38
 70
     1
102
RTVSPropertyOp39
 70
     1
102
RTVSPropertyOp40
 70
     1
102
RTVSPropertyOp41
 70
     1
102
RTVSPropertyOp42
 70
     1
102
RTVSPropertyOp43
 70
     1
102
RTVSPropertyOp44
 70
     1
102
RTVSPropertyOp45
 70
     1
102
RTVSPropertyOp46
 70
     1
102
RTVSPropertyOp47
 70
     1
102
RTVSPropertyOp48
 70
     1
102
RTVSPropertyOp49
 70
     1
102
RTVSPropertyOp50
 70
     1
102
RTVSPropertyOp51
 70
     0
102
RTVSPropertyOp52
 70
     0
102
RTVSPropertyOp53
 70
     1
102
RTVSPropertyOp54
 70
     1
102
RTVSPropertyOp55
 70
     1
102
RTVSPropertyOp56
 70
     1
102
RTVSPropertyOp57
 70
     1
102
RTVSPropertyOp58
 70
     1
102
RTVSPropertyOp59
 70
     1
102
RTVSPropertyOp60
 70
     1
102
RTVSPropertyOp61
 70
     1
102
RTVSPropertyOp62
 70
     1
  0
XRECORD
  5
45D
102
{ACAD_REACTORS
330
45C
102
}
330
45C
100
AcDbXrecord
280
     1
102
RTVSPost2010Prop28
280
     0
102
RTVSPost2010PropOp28
 70
     1
102
RTVSPost2010Prop29
280
     1
102
RTVSPost2010PropOp29
 70
     1
102
RTVSPost2010Prop30
280
     1
102
RTVSPost2010PropOp30
 70
     1
102
RTVSPost2010Prop31
280
     0
102
RTVSPost2010PropOp31
 70
     1
102
RTVSPost2010Prop32
280
     0
102
RTVSPost2010PropOp32
 70
     1
102
RTVSPost2010Prop33
280
     0
102
RTVSPost2010PropOp33
 70
     1
102
RTVSPost2010Prop34
280
     0
102
RTVSPost2010PropOp34
 70
     1
102
RTVSPost2010Prop35
280
     0
102
RTVSPost2010PropOp35
 70
     1
102
RTVSPost2010Prop36
280
     0
102
RTVSPost2010PropOp36
 70
     1
102
RTVSPost2010Prop37
 90
       50
102
RTVSPost2010PropOp37
 70
     1
102
RTVSPost2010Prop38
140
0.0
102
RTVSPost2010PropOp38
 70
     1
102
RTVSPost2010Prop39
140
1.0
102
RTVSPost2010PropOp39
 70
     1
102
RTVSPost2010Prop40
 90
        0
102
RTVSPost2010PropOp40
 70
     1
102
RTVSPost2010Prop41ColorIndex
 90
       18
102
RTVSPost2010Prop41ColorRGB
 90
        0
102
RTVSPost2010PropOp41
 70
     1
102
RTVSPost2010Prop42
 90
       50
102
RTVSPost2010PropOp42
 70
     1
102
RTVSPost2010Prop43
 90
        3
102
RTVSPost2010PropOp43
 70
     1
102
RTVSPost2010Prop44ColorIndex
 90
        5
102
RTVSPost2010Prop44ColorRGB
 90
      255
102
RTVSPost2010PropOp44
 70
     1
102
RTVSPost2010Prop45
280
     0
102
RTVSPost2010PropOp45
 70
     1
102
RTVSPost2010Prop46
 90
       50
102
RTVSPost2010PropOp46
 70
     1
102
RTVSPost2010Prop47
 90
       50
102
RTVSPost2010PropOp47
 70
     1
102
RTVSPost2010Prop48
 90
       50
102
RTVSPost2010PropOp48
 70
     1
102
RTVSPost2010Prop49
280
     0
102
RTVSPost2010PropOp49
 70
     1
102
RTVSPost2010Prop50
 90
       50
102
RTVSPost2010PropOp50
 70
     1
102
RTVSPost2010Prop51ColorIndex
 90
      256
102
RTVSPost2010Prop51ColorRGB
 90
-16777216
102
RTVSPost2010PropOp51
 70
     0
102
RTVSPost2010Prop52
140
1.0
102
RTVSPost2010PropOp52
 70
     0
102
RTVSPost2010Prop53
 90
        2
102
RTVSPost2010PropOp53
 70
     1
102
RTVSPost2010Prop54
  1
strokes_ogs.tif
102
RTVSPost2010PropOp54
 70
     1
102
RTVSPost2010Prop55
280
     0
102
RTVSPost2010PropOp55
 70
     1
102
RTVSPost2010Prop56
140
1.0
102
RTVSPost2010PropOp56
 70
     1
102
RTVSPost2010Prop57
140
1.0
102
RTVSPost2010PropOp57
 70
     1
102
RTVSPropertyOp0
 70
     1
102
RTVSPropertyOp1
 70
     1
102
RTVSPropertyOp2
 70
     1
102
RTVSPropertyOp3
 70
     1
102
RTVSPropertyOp4
 70
     1
102
RTVSPropertyOp5
 70
     1
102
RTVSPropertyOp6
 70
     1
102
RTVSPropertyOp7
 70
     1
102
RTVSPropertyOp8
 70
     1
102
RTVSPropertyOp9
 70
     1
102
RTVSPropertyOp10
 70
     1
102
RTVSPropertyOp11
 70
     1
102
RTVSPropertyOp12
 70
     1
102
RTVSPropertyOp13
 70
     1
102
RTVSPropertyOp14
 70
     1
102
RTVSPropertyOp15
 70
     1
102
RTVSPropertyOp16
 70
     1
102
RTVSPropertyOp17
 70
     1
102
RTVSPropertyOp18
 70
     1
102
RTVSPropertyOp19
 70
     1
102
RTVSPropertyOp20
 70
     1
102
RTVSPropertyOp21
 70
     1
102
RTVSPropertyOp22
 70
     1
102
RTVSPropertyOp23
 70
     1
102
RTVSPropertyOp24
 70
     1
102
RTVSPropertyOp25
 70
     1
102
RTVSPropertyOp26
 70
     1
102
RTVSPropertyOp27
 70
     1
102
RTVSPropertyOp28
 70
     1
102
RTVSPropertyOp29
 70
     1
102
RTVSPropertyOp30
 70
     1
102
RTVSPropertyOp31
 70
     1
102
RTVSPropertyOp32
 70
     1
102
RTVSPropertyOp33
 70
     1
102
RTVSPropertyOp34
 70
     1
102
RTVSPropertyOp35
 70
     1
102
RTVSPropertyOp36
 70
     1
102
RTVSPropertyOp37
 70
     1
102
RTVSPropertyOp38
 70
     1
102
RTVSPropertyOp39
 70
     1
102
RTVSPropertyOp40
 70
     1
102
RTVSPropertyOp41
 70
     1
102
RTVSPropertyOp42
 70
     1
102
RTVSPropertyOp43
 70
     1
102
RTVSPropertyOp44
 70
     1
102
RTVSPropertyOp45
 70
     1
102
RTVSPropertyOp46
 70
     1
102
RTVSPropertyOp47
 70
     1
102
RTVSPropertyOp48
 70
     1
102
RTVSPropertyOp49
 70
     1
102
RTVSPropertyOp50
 70
     1
102
RTVSPropertyOp51
 70
     0
102
RTVSPropertyOp52
 70
     0
102
RTVSPropertyOp53
 70
     1
102
RTVSPropertyOp54
 70
     1
102
RTVSPropertyOp55
 70
     1
102
RTVSPropertyOp56
 70
     1
102
RTVSPropertyOp57
 70
     1
102
RTVSPropertyOp58
 70
     1
102
RTVSPropertyOp59
 70
     1
102
RTVSPropertyOp60
 70
     1
102
RTVSPropertyOp61
 70
     1
102
RTVSPropertyOp62
 70
     1
  0
XRECORD
  5
475
102
{ACAD_REACTORS
330
474
102
}
330
474
100
AcDbXrecord
280
     1
102
RTVSPost2010Prop28
280
     0
102
RTVSPost2010PropOp28
 70
     1
102
RTVSPost2010Prop29
280
     1
102
RTVSPost2010PropOp29
 70
     1
102
RTVSPost2010Prop30
280
     1
102
RTVSPost2010PropOp30
 70
     1
102
RTVSPost2010Prop31
280
     0
102
RTVSPost2010PropOp31
 70
     1
102
RTVSPost2010Prop32
280
     0
102
RTVSPost2010PropOp32
 70
     1
102
RTVSPost2010Prop33
280
     0
102
RTVSPost2010PropOp33
 70
     1
102
RTVSPost2010Prop34
280
     0
102
RTVSPost2010PropOp34
 70
     1
102
RTVSPost2010Prop35
280
     0
102
RTVSPost2010PropOp35
 70
     1
102
RTVSPost2010Prop36
280
     0
102
RTVSPost2010PropOp36
 70
     1
102
RTVSPost2010Prop37
 90
       50
102
RTVSPost2010PropOp37
 70
     1
102
RTVSPost2010Prop38
140
0.0
102
RTVSPost2010PropOp38
 70
     1
102
RTVSPost2010Prop39
140
1.0
102
RTVSPost2010PropOp39
 70
     1
102
RTVSPost2010Prop40
 90
        0
102
RTVSPost2010PropOp40
 70
     1
102
RTVSPost2010Prop41ColorIndex
 90
       18
102
RTVSPost2010Prop41ColorRGB
 90
        0
102
RTVSPost2010PropOp41
 70
     1
102
RTVSPost2010Prop42
 90
       50
102
RTVSPost2010PropOp42
 70
     1
102
RTVSPost2010Prop43
 90
        3
102
RTVSPost2010PropOp43
 70
     1
102
RTVSPost2010Prop44ColorIndex
 90
        5
102
RTVSPost2010Prop44ColorRGB
 90
      255
102
RTVSPost2010PropOp44
 70
     1
102
RTVSPost2010Prop45
280
     0
102
RTVSPost2010PropOp45
 70
     1
102
RTVSPost2010Prop46
 90
       50
102
RTVSPost2010PropOp46
 70
     1
102
RTVSPost2010Prop47
 90
       50
102
RTVSPost2010PropOp47
 70
     1
102
RTVSPost2010Prop48
 90
       50
102
RTVSPost2010PropOp48
 70
     1
102
RTVSPost2010Prop49
280
     0
102
RTVSPost2010PropOp49
 70
     1
102
RTVSPost2010Prop50
 90
       50
102
RTVSPost2010PropOp50
 70
     1
102
RTVSPost2010Prop51ColorIndex
 90
      256
102
RTVSPost2010Prop51ColorRGB
 90
-16777216
102
RTVSPost2010PropOp51
 70
     0
102
RTVSPost2010Prop52
140
1.0
102
RTVSPost2010PropOp52
 70
     0
102
RTVSPost2010Prop53
 90
        2
102
RTVSPost2010PropOp53
 70
     1
102
RTVSPost2010Prop54
  1
strokes_ogs.tif
102
RTVSPost2010PropOp54
 70
     1
102
RTVSPost2010Prop55
280
     0
102
RTVSPost2010PropOp55
 70
     1
102
RTVSPost2010Prop56
140
1.0
102
RTVSPost2010PropOp56
 70
     1
102
RTVSPost2010Prop57
140
1.0
102
RTVSPost2010PropOp57
 70
     1
102
RTVSPropertyOp0
 70
     1
102
RTVSPropertyOp1
 70
     1
102
RTVSPropertyOp2
 70
     1
102
RTVSPropertyOp3
 70
     1
102
RTVSPropertyOp4
 70
     1
102
RTVSPropertyOp5
 70
     1
102
RTVSPropertyOp6
 70
     1
102
RTVSPropertyOp7
 70
     1
102
RTVSPropertyOp8
 70
     1
102
RTVSPropertyOp9
 70
     1
102
RTVSPropertyOp10
 70
     1
102
RTVSPropertyOp11
 70
     1
102
RTVSPropertyOp12
 70
     1
102
RTVSPropertyOp13
 70
     1
102
RTVSPropertyOp14
 70
     1
102
RTVSPropertyOp15
 70
     1
102
RTVSPropertyOp16
 70
     1
102
RTVSPropertyOp17
 70
     1
102
RTVSPropertyOp18
 70
     1
102
RTVSPropertyOp19
 70
     1
102
RTVSPropertyOp20
 70
     1
102
RTVSPropertyOp21
 70
     1
102
RTVSPropertyOp22
 70
     1
102
RTVSPropertyOp23
 70
     1
102
RTVSPropertyOp24
 70
     1
102
RTVSPropertyOp25
 70
     1
102
RTVSPropertyOp26
 70
     1
102
RTVSPropertyOp27
 70
     1
102
RTVSPropertyOp28
 70
     1
102
RTVSPropertyOp29
 70
     1
102
RTVSPropertyOp30
 70
     1
102
RTVSPropertyOp31
 70
     1
102
RTVSPropertyOp32
 70
     1
102
RTVSPropertyOp33
 70
     1
102
RTVSPropertyOp34
 70
     1
102
RTVSPropertyOp35
 70
     1
102
RTVSPropertyOp36
 70
     1
102
RTVSPropertyOp37
 70
     1
102
RTVSPropertyOp38
 70
     1
102
RTVSPropertyOp39
 70
     1
102
RTVSPropertyOp40
 70
     1
102
RTVSPropertyOp41
 70
     1
102
RTVSPropertyOp42
 70
     1
102
RTVSPropertyOp43
 70
     1
102
RTVSPropertyOp44
 70
     1
102
RTVSPropertyOp45
 70
     1
102
RTVSPropertyOp46
 70
     1
102
RTVSPropertyOp47
 70
     1
102
RTVSPropertyOp48
 70
     1
102
RTVSPropertyOp49
 70
     1
102
RTVSPropertyOp50
 70
     1
102
RTVSPropertyOp51
 70
     0
102
RTVSPropertyOp52
 70
     0
102
RTVSPropertyOp53
 70
     1
102
RTVSPropertyOp54
 70
     1
102
RTVSPropertyOp55
 70
     1
102
RTVSPropertyOp56
 70
     1
102
RTVSPropertyOp57
 70
     1
102
RTVSPropertyOp58
 70
     1
102
RTVSPropertyOp59
 70
     1
102
RTVSPropertyOp60
 70
     1
102
RTVSPropertyOp61
 70
     1
102
RTVSPropertyOp62
 70
     1
  0
ENDSEC
  0
EOF
