  0
SECTION
  2
HEADER
  9
$ACADVER
  1
AC1009
  9
$INSBASE
 10
0.0
 20
0.0
 30
0.0
  9
$EXTMIN
 10
-1350.0823911746061
 20
-2014.8832945933329
 30
-0.0015258207003583
  9
$EXTMAX
 10
1350.0824037474611
 20
1999.567671355127
 30
0.0000000349246037
  9
$LIMMIN
 10
0.0
 20
0.0
  9
$LIMMAX
 10
0.0
 20
0.0
  9
$ORTHOMODE
 70
     0
  9
$REGENMODE
 70
     1
  9
$FILLMODE
 70
     1
  9
$QTEXTMODE
 70
     0
  9
$MIRRTEXT
 70
     1
  9
$DRAGMODE
 70
     2
  9
$LTSCALE
 40
190.5
  9
$OSMODE
 70
   231
  9
$ATTMODE
 70
     1
  9
$TEXTSIZE
 40
0.0
  9
$TRACEWID
 40
1.0
  9
$TEXTSTYLE
  7
STANDARD
  9
$CLAYER
  8
DATA
  9
$CELTYPE
  6
BYLAYER
  9
$CECOLOR
 62
   256
  9
$DIMSCALE
 40
1.0
  9
$DIMASZ
 40
0.18
  9
$DIMEXO
 40
0.0625
  9
$DIMDLI
 40
0.38
  9
$DIMRND
 40
0.0
  9
$DIMDLE
 40
0.0
  9
$DIMEXE
 40
0.18
  9
$DIMTP
 40
0.0
  9
$DIMTM
 40
0.0
  9
$DIMTXT
 40
0.18
  9
$DIMCEN
 40
0.09
  9
$DIMTSZ
 40
0.0
  9
$DIMTOL
 70
     0
  9
$DIMLIM
 70
     0
  9
$DIMTIH
 70
     1
  9
$DIMTOH
 70
     1
  9
$DIMSE1
 70
     0
  9
$DIMSE2
 70
     0
  9
$DIMTAD
 70
     0
  9
$DIMZIN
 70
     0
  9
$DIMBLK
  1

  9
$DIMASO
 70
     1
  9
$DIMSHO
 70
     1
  9
$DIMPOST
  1

  9
$DIMAPOST
  1

  9
$DIMALT
 70
     0
  9
$DIMALTD
 70
     2
  9
$DIMALTF
 40
25.399999999999999
  9
$DIMLFAC
 40
1.0
  9
$DIMTOFL
 70
     0
  9
$DIMTVP
 40
0.0
  9
$DIMTIX
 70
     0
  9
$DIMSOXD
 70
     0
  9
$DIMSAH
 70
     0
  9
$DIMBLK1
  1

  9
$DIMBLK2
  1

  9
$DIMSTYLE
  2
STANDARD
  9
$DIMCLRD
 70
     0
  9
$DIMCLRE
 70
     0
  9
$DIMCLRT
 70
     0
  9
$DIMTFAC
 40
1.0
  9
$DIMGAP
 40
0.09
  9
$LUNITS
 70
     2
  9
$LUPREC
 70
     4
  9
$SKETCHINC
 40
0.1
  9
$FILLETRAD
 40
0.0
  9
$AUNITS
 70
     0
  9
$AUPREC
 70
     0
  9
$MENU
  1
acad
  9
$ELEVATION
 40
0.0
  9
$PELEVATION
 40
0.0
  9
$THICKNESS
 40
0.0
  9
$LIMCHECK
 70
     0
  9
$BLIPMODE
 70
     0
  9
$CHAMFERA
 40
0.0
  9
$CHAMFERB
 40
0.0
  9
$SKPOLY
 70
     0
  9
$TDCREATE
 40
2456693.7633333332
  9
$TDUPDATE
 40
2456693.7727480098
  9
$TDINDWG
 40
0.0003879282
  9
$TDUSRTIMER
 40
0.0003879282
  9
$USRTIMER
 70
     1
  9
$ANGBASE
 50
0.0
  9
$ANGDIR
 70
     0
  9
$PDMODE
 70
     1
  9
$PDSIZE
 40
-2.0
  9
$PLINEWID
 40
0.0
  9
$COORDS
 70
     2
  9
$SPLFRAME
 70
     0
  9
$SPLINETYPE
 70
     6
  9
$SPLINESEGS
 70
     8
  9
$ATTDIA
 70
     0
  9
$ATTREQ
 70
     1
  9
$HANDLING
 70
     1
  9
$HANDSEED
  5
884
  9
$SURFTAB1
 70
     6
  9
$SURFTAB2
 70
     6
  9
$SURFTYPE
 70
     6
  9
$SURFU
 70
     6
  9
$SURFV
 70
     6
  9
$UCSNAME
  2

  9
$UCSORG
 10
0.0
 20
0.0
 30
0.0
  9
$UCSXDIR
 10
1.0
 20
0.0
 30
0.0
  9
$UCSYDIR
 10
0.0
 20
1.0
 30
0.0
  9
$PUCSNAME
  2

  9
$PUCSORG
 10
0.0
 20
0.0
 30
0.0
  9
$PUCSXDIR
 10
1.0
 20
0.0
 30
0.0
  9
$PUCSYDIR
 10
0.0
 20
1.0
 30
0.0
  9
$USERI1
 70
     0
  9
$USERI2
 70
     0
  9
$USERI3
 70
     0
  9
$USERI4
 70
     0
  9
$USERI5
 70
     0
  9
$USERR1
 40
0.0
  9
$USERR2
 40
0.0
  9
$USERR3
 40
0.0
  9
$USERR4
 40
0.0
  9
$USERR5
 40
0.0
  9
$WORLDVIEW
 70
     1
  9
$SHADEDGE
 70
     3
  9
$SHADEDIF
 70
    70
  9
$TILEMODE
 70
     1
  9
$MAXACTVP
 70
    64
  9
$PLIMCHECK
 70
     0
  9
$PEXTMIN
 10
1.0000000000000000E+020
 20
1.0000000000000000E+020
 30
1.0000000000000000E+020
  9
$PEXTMAX
 10
-1.0000000000000000E+020
 20
-1.0000000000000000E+020
 30
-1.0000000000000000E+020
  9
$PLIMMIN
 10
0.0
 20
0.0
  9
$PLIMMAX
 10
12.0
 20
9.0
  9
$UNITMODE
 70
     0
  9
$VISRETAIN
 70
     0
  9
$PLINEGEN
 70
     1
  9
$PSLTSCALE
 70
     0
  0
ENDSEC
  0
SECTION
  2
TABLES
  0
TABLE
  2
VPORT
 70
     1
  0
VPORT
  2
*ACTIVE
 70
     0
 10
0.0
 20
0.0
 11
1.0
 21
1.0
 12
0.0000062864273787
 22
-7.6578116191026311
 13
0.0
 23
0.0
 14
1.0
 24
1.0
 15
0.0
 25
0.0
 16
0.0
 26
0.0
 36
1.0
 17
0.0
 27
0.0
 37
0.0
 40
4046.060816074038
 41
2.1787122207621552
 42
50.0
 43
0.0
 44
0.0
 50
0.0
 51
0.0
 71
     0
 72
  2000
 73
     1
 74
     1
 75
     0
 76
     0
 77
     0
 78
     0
  0
ENDTAB
  0
TABLE
  2
LTYPE
 70
    12
  0
LTYPE
  2
CONTINUOUS
 70
     0
  3
Solid line
 72
    65
 73
     0
 40
0.0
  0
ENDTAB
  0
TABLE
  2
LAYER
 70
     5
  0
LAYER
  2
0
 70
     0
 62
     7
  6
CONTINUOUS
  0
LAYER
  2
DATA
 70
     0
 62
     7
  6
CONTINUOUS
  0
LAYER
  2
HIBINO-BASE
 70
     0
 62
     7
  6
CONTINUOUS
  0
LAYER
  2
SPEC
 70
     0
 62
     7
  6
CONTINUOUS
  0
LAYER
  2
DIMNSIONS
 70
     0
 62
     7
  6
CONTINUOUS
  0
ENDTAB
  0
TABLE
  2
STYLE
 70
     3
  0
STYLE
  2
STANDARD
 70
     0
 40
0.0
 41
1.0
 50
0.0
 71
     0
 42
0.0
  3
txt
  4
BIGFONT.SHX
  0
ENDTAB
  0
TABLE
  2
VIEW
 70
     0
  0
ENDTAB
  0
TABLE
  2
UCS
 70
     0
  0
ENDTAB
  0
TABLE
  2
APPID
 70
     4
  0
APPID
  2
ACAD
 70
     0
  0
APPID
  2
ACADANNOTATIVE
 70
     0
  0
APPID
  2
ACAD_NAV_VCDISPLAY
 70
     0
  0
APPID
  2
ACAD_MLEADERVER
 70
     0
  0
ENDTAB
  0
TABLE
  2
DIMSTYLE
 70
     2
  0
DIMSTYLE
  2
STANDARD
 70
     0
  3

  4

  5

  6

  7

 40
1.0
 41
0.18
 42
0.0625
 43
0.38
 44
0.18
 45
0.0
 46
0.0
 47
0.0
 48
0.0
140
0.18
141
0.09
142
0.0
143
25.399999999999999
144
1.0
145
0.0
146
1.0
147
0.09
 71
     0
 72
     0
 73
     1
 74
     1
 75
     0
 76
     0
 77
     0
 78
     0
170
     0
171
     2
172
     0
173
     0
174
     0
175
     0
176
     0
177
     0
178
     0
  0
ENDTAB
  0
ENDSEC
  0
SECTION
  2
BLOCKS
  0
BLOCK
  8
0
  2
$MODEL_SPACE
 70
     0
 10
0.0
 20
0.0
 30
0.0
  3
$MODEL_SPACE
  1

  0
ENDBLK
  5
795
  8
0
  0
BLOCK
 67
     1
  8
0
  2
$PAPER_SPACE
 70
     0
 10
0.0
 20
0.0
 30
0.0
  3
$PAPER_SPACE
  1

  0
ENDBLK
  5
791
 67
     1
  8
0
  0
ENDSEC
  0
SECTION
  2
ENTITIES
  0
LINE
  5
2D
  8
HIBINO-BASE
  6
CONTINUOUS
 62
     7
 10
-1350.0
 20
1999.44541
 30
0.0
 11
1350.0
 21
1999.44541
 31
0.0
  0
LINE
  5
2E
  8
HIBINO-BASE
  6
CONTINUOUS
 62
     7
 10
1350.0
 20
-1900.5545900000011
 30
0.0
 11
-1350.0
 21
-1900.5545900000011
 31
0.0
  0
LINE
  5
2F
  8
HIBINO-BASE
  6
CONTINUOUS
 62
     7
 10
-1350.0
 20
-1900.5545900000011
 30
0.0
 11
-1350.0
 21
1999.44541
 31
0.0
  0
LINE
  5
30
  8
HIBINO-BASE
  6
CONTINUOUS
 62
     7
 10
1350.0
 20
1999.44541
 30
0.0
 11
1350.0
 21
-1900.5545900000011
 31
0.0
  0
LINE
  5
31
  8
HIBINO-BASE
  6
CONTINUOUS
 62
     7
 10
0.0000000000001066
 20
-1563.0545900000011
 30
0.0
 11
1350.0
 21
-1563.0545900000011
 31
0.0
  0
LINE
  5
32
  8
HIBINO-BASE
  6
CONTINUOUS
 62
     7
 10
0.0000000000001066
 20
-1900.5545900000011
 30
0.0
 11
0.0000000000001066
 21
-1563.0545900000011
 31
0.0
  0
TEXT
  5
33
  8
HIBINO-BASE
 62
     7
 10
13.50000000000019
 20
-1600.68499
 30
0.0
 40
24.4326171875
  1
NOTE
 41
0.7
 11
13.50000000000019
 21
-1576.2523728125
 31
0.0
 73
     3
  0
LINE
  5
34
  8
HIBINO-BASE
  6
CONTINUOUS
 62
     7
 10
525.00000000000034
 20
-1900.5545900000011
 30
0.0
 11
525.00000000000034
 21
-1563.0545900000011
 31
0.0
  0
TEXT
  5
35
  8
HIBINO-BASE
 62
     7
 10
538.49999999999989
 20
-1600.68499
 30
0.0
 40
24.4326171875
  1
TITLE
 41
0.7
 11
538.49999999999989
 21
-1576.2523728125
 31
0.0
 73
     3
  0
LINE
  5
36
  8
HIBINO-BASE
  6
CONTINUOUS
 62
     7
 10
0.0000000000001066
 20
-1750.5545900000011
 30
0.0
 11
1350.0
 21
-1750.5545900000011
 31
0.0
  0
TEXT
  5
37
  8
HIBINO-BASE
 62
     7
 10
726.0
 20
-1787.3401899999999
 30
0.0
 40
24.4326171875
  1
DRAWN
 41
0.7
 11
726.0
 21
-1762.9075728124999
 31
0.0
 73
     3
  0
TEXT
  5
38
  8
HIBINO-BASE
 62
     7
 10
351.0
 20
-1787.3401899999999
 30
0.0
 40
24.4326171875
  1
DATE
 41
0.7
 11
351.0
 21
-1762.9075728124999
 31
0.0
 73
     3
  0
TEXT
  5
39
  8
HIBINO-BASE
 62
     7
 10
201.0
 20
-1787.3401899999999
 30
0.0
 40
24.4326171875
  1
SCALE
 41
0.7
 11
201.0
 21
-1762.9075728124999
 31
0.0
 73
     3
  0
TEXT
  5
3A
  8
HIBINO-BASE
 62
     7
 10
538.49999999999989
 20
-1787.3401899999999
 30
0.0
 40
24.4326171875
  1
DESIGN
 41
0.7
 11
538.49999999999989
 21
-1762.9075728124999
 31
0.0
 73
     3
  0
TEXT
  5
3B
  8
HIBINO-BASE
 62
     7
 10
1100.9999999999991
 20
-1787.3401899999999
 30
0.0
 40
24.4326171875
  1
DRAWING NO.
 41
0.7
 11
1100.9999999999991
 21
-1762.9075728124999
 31
0.0
 73
     3
  0
TEXT
  5
3C
  8
HIBINO-BASE
 62
     7
 10
913.49999999999989
 20
-1787.3401899999999
 30
0.0
 40
24.4326171875
  1
CHECK
 41
0.7
 11
913.49999999999989
 21
-1762.9075728124999
 31
0.0
 73
     3
  0
LINE
  5
3D
  8
HIBINO-BASE
  6
CONTINUOUS
 62
     7
 10
215.62500000000011
 20
-1881.8045900000011
 30
0.0
 11
271.8750000000004
 21
-1825.5545900000011
 31
0.0
  0
TEXT
  5
3E
  8
HIBINO-BASE
 62
     7
 10
206.25000000000011
 20
-1842.1887400000001
 30
0.0
 40
24.4326171875
  1
1
 41
0.7
 11
206.25000000000011
 21
-1817.7561228125001
 31
0.0
 73
     3
  0
LINE
  5
3F
  8
HIBINO-BASE
  6
CONTINUOUS
 62
     7
 10
187.50000000000011
 20
-1900.5545900000011
 30
0.0
 11
187.50000000000011
 21
-1750.5545900000011
 31
0.0
  0
LINE
  5
40
  8
HIBINO-BASE
  6
CONTINUOUS
 62
     7
 10
337.49999999999989
 20
-1900.5545900000011
 30
0.0
 11
337.49999999999989
 21
-1750.5545900000011
 31
0.0
  0
LINE
  5
41
  8
HIBINO-BASE
  6
CONTINUOUS
 62
     7
 10
712.49999999999955
 20
-1750.5545900000011
 30
0.0
 11
712.49999999999955
 21
-1900.5545900000011
 31
0.0
  0
LINE
  5
42
  8
HIBINO-BASE
  6
CONTINUOUS
 62
     7
 10
1087.5
 20
-1750.5545900000011
 30
0.0
 11
1087.5
 21
-1900.5545900000011
 31
0.0
  0
LINE
  5
43
  8
HIBINO-BASE
  6
CONTINUOUS
 62
     7
 10
899.99999999999955
 20
-1900.5545900000011
 30
0.0
 11
899.99999999999955
 21
-1750.5545900000011
 31
0.0
  0
TEXT
  5
44
  8
HIBINO-BASE
 62
     7
 10
350.34810000000022
 20
-1857.59989
 30
0.0
 40
24.4326171875
  1
'14.01.
 41
0.7
 11
350.34810000000022
 21
-1833.1672728125
 31
0.0
 73
     3
  0
TEXT
  5
45
  8
HIBINO-BASE
 62
     7
 10
262.5
 20
-1870.3137400000001
 30
0.0
 40
24.4326171875
  1
15
 41
0.7
 11
262.5
 21
-1845.8811228125001
 31
0.0
 73
     3
  0
TEXT
  5
46
  8
HIBINO-BASE
 62
     7
 10
735.08715016551935
 20
-1857.59989
 30
0.0
 40
24.4326171875
  1
N.Sasaki
 41
0.7
 11
735.08715016551935
 21
-1833.1672728125
 31
0.0
 73
     3
  0
TEXT
  5
47
  8
HIBINO-BASE
 62
     7
 10
58.250000000000412
 20
-1870.9145900000001
 30
0.0
 40
48.865234374999993
  1
A4
 41
0.7
 11
58.250000000000412
 21
-1822.0493556250001
 31
0.0
 73
     3
  0
TEXT
  5
48
  8
HIBINO-BASE
 62
     7
 10
14.37500000000003
 20
-1789.846415
 30
0.0
 40
24.4326171875
  1
PAPER SIZE
 41
0.7
 11
14.37500000000003
 21
-1765.4137978125
 31
0.0
 73
     3
  0
TEXT
  5
49
  8
HIBINO-BASE
 62
     7
 10
-1242.24
 20
-1996.684757
 30
0.0
 40
54.000662695312492
  1
Hibino Corporation
 41
0.7
 11
-1242.24
 21
-1942.684094304688
 31
0.0
 73
     3
  0
TEXT
  5
4A
  8
HIBINO-BASE
 62
     7
 10
751.02584999999999
 20
-1996.684757
 30
0.0
 40
54.000662695312492
  1
ヒビノ株式会社
 41
0.7
 11
751.02584999999999
 21
-1942.684094304688
 31
0.0
 73
     3
  0
TEXT
  5
4B
  8
SPEC
 62
     7
 10
-536.50000000000034
 20
907.98540999999955
 30
0.0
 40
28.504720052083339
  1
21kg
 41
0.7
 11
-536.50000000000034
 21
936.49013005208269
 31
0.0
 73
     3
  0
TEXT
  5
4C
  8
SPEC
 62
     7
 10
-536.50000000000034
 20
964.23540999999955
 30
0.0
 40
28.504720052083329
  1
446\U+00D7710\U+00D7358(除突起部)
 41
0.7
 11
-536.50000000000034
 21
992.74013005208269
 31
0.0
 73
     3
  0
LINE
  5
4D
  8
SPEC
  6
CONTINUOUS
 62
     7
 10
-1237.5
 20
1849.44541
 30
0.0
 11
975.00000000000034
 21
1849.44541
 31
0.0
  0
LINE
  5
4E
  8
SPEC
  6
CONTINUOUS
 62
     7
 10
-1237.5
 20
1793.1954099999989
 30
0.0
 11
975.00000000000034
 21
1793.1954099999989
 31
0.0
  0
LINE
  5
4F
  8
SPEC
  6
CONTINUOUS
 62
     7
 10
-1237.5
 20
893.19540999999958
 30
0.0
 11
975.00000000000034
 21
893.19540999999958
 31
0.0
  0
LINE
  5
50
  8
SPEC
  6
CONTINUOUS
 62
     7
 10
-1237.5
 20
949.44540999999958
 30
0.0
 11
975.00000000000034
 21
949.44540999999958
 31
0.0
  0
LINE
  5
51
  8
SPEC
  6
CONTINUOUS
 62
     7
 10
-1237.5
 20
1849.44541
 30
0.0
 11
-1237.5
 21
893.19540999999958
 31
0.0
  0
TEXT
  5
52
  8
SPEC
 62
     7
 10
-1218.75
 20
1870.3444599999989
 30
0.0
 40
36.64892578125
  1
仕様
 41
0.7
 11
-1218.75
 21
1906.9933857812489
 31
0.0
 73
     3
  0
LINE
  5
53
  8
SPEC
  6
CONTINUOUS
 62
     7
 10
-549.99999999999989
 20
1849.44541
 30
0.0
 11
-549.99999999999989
 21
893.19540999999958
 31
0.0
  0
LINE
  5
54
  8
SPEC
  6
CONTINUOUS
 62
     7
 10
975.00000000000034
 20
1849.44541
 30
0.0
 11
975.00000000000034
 21
893.19540999999958
 31
0.0
  0
TEXT
  5
55
  8
SPEC
 62
     7
 10
-1224.0
 20
964.23540999999909
 30
0.0
 40
28.504720052083339
  1
寸法(W\U+00D7H\U+00D7D)
 41
0.7
 11
-1224.0
 21
992.74013005208246
 31
0.0
 73
     3
  0
TEXT
  5
56
  8
SPEC
 62
     7
 10
-1224.0
 20
907.98540999999909
 30
0.0
 40
28.504720052083339
  1
質量
 41
0.7
 11
-1224.0
 21
936.49013005208246
 31
0.0
 73
     3
  0
LINE
  5
57
  8
SPEC
  6
CONTINUOUS
 62
     7
 10
-1237.5
 20
1736.9454099999989
 30
0.0
 11
975.00000000000034
 21
1736.9454099999989
 31
0.0
  0
LINE
  5
58
  8
SPEC
  6
CONTINUOUS
 62
     7
 10
-1237.5
 20
1680.6954099999989
 30
0.0
 11
975.00000000000034
 21
1680.6954099999989
 31
0.0
  0
LINE
  5
59
  8
SPEC
  6
CONTINUOUS
 62
     7
 10
-900.0
 20
1568.1954099999989
 30
0.0
 11
975.00000000000034
 21
1568.1954099999989
 31
0.0
  0
LINE
  5
5A
  8
SPEC
  6
CONTINUOUS
 62
     7
 10
-1237.5
 20
1455.6954099999989
 30
0.0
 11
975.00000000000034
 21
1455.6954099999989
 31
0.0
  0
LINE
  5
5B
  8
SPEC
  6
CONTINUOUS
 62
     7
 10
-900.0
 20
1343.19541
 30
0.0
 11
975.00000000000034
 21
1343.19541
 31
0.0
  0
LINE
  5
5C
  8
SPEC
  6
CONTINUOUS
 62
     7
 10
-900.0
 20
1286.9454099999989
 30
0.0
 11
975.00000000000034
 21
1286.9454099999989
 31
0.0
  0
LINE
  5
5D
  8
SPEC
  6
CONTINUOUS
 62
     7
 10
-1237.5
 20
1174.4454099999989
 30
0.0
 11
975.00000000000034
 21
1174.4454099999989
 31
0.0
  0
LINE
  5
5E
  8
SPEC
  6
CONTINUOUS
 62
     7
 10
-1237.5
 20
1118.1954099999989
 30
0.0
 11
975.00000000000034
 21
1118.1954099999989
 31
0.0
  0
LINE
  5
5F
  8
SPEC
  6
CONTINUOUS
 62
     7
 10
-1237.5
 20
1061.9454099999989
 30
0.0
 11
975.00000000000034
 21
1061.9454099999989
 31
0.0
  0
LINE
  5
60
  8
SPEC
  6
CONTINUOUS
 62
     7
 10
-1237.5
 20
1005.695409999999
 30
0.0
 11
975.00000000000034
 21
1005.695409999999
 31
0.0
  0
TEXT
  5
61
  8
SPEC
 62
     7
 10
-1224.0
 20
1805.0141766666659
 30
0.0
 40
28.504720052083329
  1
形式
 41
0.7
 11
-1224.0
 21
1833.5188967187489
 31
0.0
 73
     3
  0
TEXT
  5
62
  8
SPEC
 62
     7
 10
-1224.0
 20
1751.7354099999991
 30
0.0
 40
28.504720052083329
  1
周波数レンジ(-10dB)
 41
0.7
 11
-1224.0
 21
1780.240130052083
 31
0.0
 73
     3
  0
TEXT
  5
63
  8
SPEC
 62
     7
 10
-1224.0
 20
1695.4854099999991
 30
0.0
 40
28.504720052083329
  1
指向角度(水平\U+00D7垂直)
 41
0.7
 11
-1224.0
 21
1723.990130052083
 31
0.0
 73
     3
  0
TEXT
  5
64
  8
SPEC
 62
     7
 10
-1224.0
 20
1639.2354099999991
 30
0.0
 40
28.504720052083329
  1
最大音圧レベル(1m)
 41
0.7
 11
-1224.0
 21
1667.740130052083
 31
0.0
 73
     3
  0
TEXT
  5
65
  8
SPEC
 62
     7
 10
-1224.0
 20
1582.9854099999991
 30
0.0
 40
28.504720052083329
  1
ドライバー構成
 41
0.7
 11
-1224.0
 21
1611.4901300520819
 31
0.0
 73
     3
  0
TEXT
  5
66
  8
SPEC
 62
     7
 10
-534.99631648924378
 20
1359.489093510756
 30
0.0
 40
28.504720052083329
  1
2
 41
0.7
 11
-534.99631648924378
 21
1387.993813562839
 31
0.0
 73
     3
  0
TEXT
  5
67
  8
SPEC
 62
     7
 10
-1224.0
 20
1470.4854099999991
 30
0.0
 40
28.504720052083329
  1
クロスオーバー周波数
 41
0.7
 11
-1224.0
 21
1498.9901300520819
 31
0.0
 73
     3
  0
TEXT
  5
68
  8
SPEC
 62
     7
 10
-1224.0
 20
1414.2354099999991
 30
0.0
 40
28.504720052083329
  1
パワーアンプ
 41
0.7
 11
-1224.0
 21
1442.7401300520819
 31
0.0
 73
     3
  0
TEXT
  5
69
  8
SPEC
 62
     7
 10
-1224.0
 20
1357.9854099999991
 30
0.0
 40
28.504720052083329
  1
入力
 41
0.7
 11
-1224.0
 21
1386.4901300520819
 31
0.0
 73
     3
  0
TEXT
  5
6A
  8
SPEC
 62
     7
 10
-536.50000000000034
 20
1076.7354099999991
 30
0.0
 40
28.504720052083329
  1
110W
 41
0.7
 11
-536.50000000000034
 21
1105.2401300520819
 31
0.0
 73
     3
  0
TEXT
  5
6B
  8
SPEC
 62
     7
 10
-1224.0
 20
1189.2354099999991
 30
0.0
 40
28.504720052083329
  1
インジケーター
 41
0.7
 11
-1224.0
 21
1217.7401300520819
 31
0.0
 73
     3
  0
TEXT
  5
6C
  8
SPEC
 62
     7
 10
-1224.0
 20
1132.9854099999991
 30
0.0
 40
28.504720052083329
  1
電源
 41
0.7
 11
-1224.0
 21
1161.4901300520819
 31
0.0
 73
     3
  0
TEXT
  5
6D
  8
SPEC
 62
     7
 10
-1224.0
 20
1076.7354099999991
 30
0.0
 40
28.504720052083329
  1
消費電力(1/8出力時、ピンクノイズ)
 41
0.7
 11
-1224.0
 21
1105.2401300520819
 31
0.0
 73
     3
  0
TEXT
  5
6E
  8
SPEC
 62
     7
 10
-1224.0
 20
1020.485409999999
 30
0.0
 40
28.504720052083329
  1
エンクロージャー
 41
0.7
 11
-1224.0
 21
1048.9901300520819
 31
0.0
 73
     3
  0
TEXT
  5
6F
  8
SPEC
 62
     7
 10
-883.95930982527341
 20
1582.9854099999991
 30
0.0
 40
28.504720052083339
  1
LF
 41
0.7
 11
-883.95930982527341
 21
1611.4901300520819
 31
0.0
 73
     3
  0
TEXT
  5
70
  8
SPEC
 62
     7
 10
-886.50000000000034
 20
1526.7354099999991
 30
0.0
 40
28.504720052083339
  1
HF
 41
0.7
 11
-886.50000000000034
 21
1555.2401300520819
 31
0.0
 73
     3
  0
TEXT
  5
71
  8
SPEC
 62
     7
 10
-886.50000000000034
 20
1301.7354099999991
 30
0.0
 40
28.504720052083339
  1
端子・形式
 41
0.7
 11
-886.50000000000034
 21
1330.2401300520819
 31
0.0
 73
     3
  0
TEXT
  5
72
  8
SPEC
 62
     7
 10
-886.50000000000034
 20
1245.4854099999991
 30
0.0
 40
28.504720052083339
  1
インピーダンス
 41
0.7
 11
-886.50000000000034
 21
1273.9901300520819
 31
0.0
 73
     3
  0
LINE
  5
73
  8
SPEC
  6
CONTINUOUS
 62
     7
 10
-1237.5
 20
1624.4454099999989
 30
0.0
 11
975.00000000000034
 21
1624.4454099999989
 31
0.0
  0
LINE
  5
74
  8
SPEC
  6
CONTINUOUS
 62
     7
 10
-1237.5
 20
1511.9454099999989
 30
0.0
 11
975.00000000000034
 21
1511.9454099999989
 31
0.0
  0
LINE
  5
75
  8
SPEC
  6
CONTINUOUS
 62
     7
 10
-1237.5
 20
1399.4454099999989
 30
0.0
 11
975.00000000000034
 21
1399.4454099999989
 31
0.0
  0
LINE
  5
76
  8
SPEC
  6
CONTINUOUS
 62
     7
 10
-1237.5
 20
1230.69541
 30
0.0
 11
975.00000000000034
 21
1230.69541
 31
0.0
  0
LINE
  5
77
  8
SPEC
  6
CONTINUOUS
 62
     7
 10
-900.0
 20
1624.4454099999989
 30
0.0
 11
-900.0
 21
1511.9454099999989
 31
0.0
  0
LINE
  5
78
  8
SPEC
  6
CONTINUOUS
 62
     7
 10
-900.0
 20
1399.4454099999989
 30
0.0
 11
-900.0
 21
1230.69541
 31
0.0
  0
TEXT
  5
79
  8
SPEC
 62
     7
 10
-886.50000000000034
 20
1357.9854099999991
 30
0.0
 40
28.504720052083329
  1
チャンネル数
 41
0.7
 11
-886.50000000000034
 21
1386.4901300520819
 31
0.0
 73
     3
  0
TEXT
  5
7A
  8
SPEC
 62
     7
 10
-536.50000000000034
 20
1807.9854099999991
 30
0.0
 40
28.504720052083329
  1
2-Wayパワード・フルレンジ
 41
0.7
 11
-536.50000000000034
 21
1836.490130052083
 31
0.0
 73
     3
  0
TEXT
  5
7B
  8
SPEC
 62
     7
 10
-536.50000000000034
 20
1695.4854099999991
 30
0.0
 40
28.504720052083329
  1
90\U+00B0\U+00D7 50\U+00B0
 41
0.7
 11
-536.50000000000034
 21
1723.990130052083
 31
0.0
 73
     3
  0
TEXT
  5
7C
  8
SPEC
 62
     7
 10
-536.50000000000034
 20
1639.2354099999991
 30
0.0
 40
28.504720052083329
  1
136dB SPL(ピーク)
 41
0.7
 11
-536.50000000000034
 21
1667.740130052083
 31
0.0
 73
     3
  0
TEXT
  5
7D
  8
SPEC
 62
     7
 10
-536.50000000000034
 20
1582.9854099999991
 30
0.0
 40
28.504720052083329
  1
380mm(275G)
 41
0.7
 11
-536.50000000000034
 21
1611.4901300520819
 31
0.0
 73
     3
  0
TEXT
  5
7E
  8
SPEC
 62
     7
 10
-536.50000000000034
 20
1526.7354099999991
 30
0.0
 40
28.504720052083329
  1
38mm(2408H-2)
 41
0.7
 11
-536.50000000000034
 21
1555.2401300520819
 31
0.0
 73
     3
  0
TEXT
  5
7F
  8
SPEC
 62
     7
 10
-536.50000000000034
 20
1470.4854099999991
 30
0.0
 40
28.504720052083329
  1
1.7Hz
 41
0.7
 11
-536.50000000000034
 21
1498.9901300520819
 31
0.0
 73
     3
  0
TEXT
  5
80
  8
SPEC
 62
     7
 10
-536.50000000000034
 20
1414.2354099999991
 30
0.0
 40
28.504720052083329
  1
Class D
 41
0.7
 11
-536.50000000000034
 21
1442.7401300520819
 31
0.0
 73
     3
  0
TEXT
  5
81
  8
SPEC
 62
     7
 10
-536.50000000000034
 20
1301.7354099999991
 30
0.0
 40
28.504720052083329
  1
XLRと標準フォーンジャック(3P)対応の複合型 端子\U+00D72、RCA\U+00D72
 41
0.7
 11
-536.50000000000034
 21
1330.2401300520819
 31
0.0
 73
     3
  0
TEXT
  5
82
  8
SPEC
 62
     7
 10
-531.13181529524684
 20
1248.5847328843481
 30
0.0
 40
28.504720052083329
  1
20k\U+03A9(バランス)、10k\U+03A9(アンバランス)
 41
0.7
 11
-531.13181529524684
 21
1277.0894529364309
 31
0.0
 73
     3
  0
TEXT
  5
83
  8
SPEC
 62
     7
 10
-536.31923315591007
 20
1189.416176844089
 30
0.0
 40
28.504720052083329
  1
EQ、Limit、Mic/Line、Signal、Power(前面、背面)
 41
0.7
 11
-536.31923315591007
 21
1217.9208968961721
 31
0.0
 73
     3
  0
TEXT
  5
84
  8
SPEC
 62
     7
 10
-536.3192331559103
 20
1133.166176844089
 30
0.0
 40
28.504720052083329
  1
AC100V、50/60Hz
 41
0.7
 11
-536.3192331559103
 21
1161.670896896173
 31
0.0
 73
     3
  0
TEXT
  5
85
  8
SPEC
 62
     7
 10
-536.3192331559103
 20
1020.666176844089
 30
0.0
 40
28.504720052083329
  1
25/18mm合板、黒、DuraFlex仕上げ
 41
0.7
 11
-536.3192331559103
 21
1049.170896896173
 31
0.0
 73
     3
  0
TEXT
  5
86
  8
SPEC
 62
     7
 10
-536.50000000000034
 20
1751.7354099999991
 30
0.0
 40
28.504720052083329
  1
42.9Hz～19.5kHz(EQ:MAIN時)
 41
0.7
 11
-536.50000000000034
 21
1780.240130052083
 31
0.0
 73
     3
  0
TEXT
  5
87
  8
DIMNSIONS
 62
     7
 10
-299.99999999999989
 20
-1716.51224
 30
0.0
 40
36.64892578125
  1
(単位：mm)
 41
0.7
 11
-299.99999999999989
 21
-1679.86331421875
 31
0.0
 73
     3
  0
LINE
  5
88
  8
DIMNSIONS
  6
CONTINUOUS
 62
     7
 10
-722.75
 20
-1120.0
 30
0.0
 11
-722.75
 21
-1230.0
 31
0.0
  0
LINE
  5
89
  8
DIMNSIONS
  6
CONTINUOUS
 62
     7
 10
-277.25
 20
-1120.0
 30
0.0
 11
-277.25
 21
-1230.0
 31
0.0
  0
LINE
  5
8A
  8
DIMNSIONS
  6
CONTINUOUS
 62
     7
 10
-722.75
 20
-1200.0
 30
0.0
 11
-277.25
 21
-1200.0
 31
0.0
  0
LINE
  5
8B
  8
DIMNSIONS
  6
CONTINUOUS
 62
     7
 10
-722.75
 20
-1200.0
 30
0.0
 11
-685.24066162109375
 21
-1189.949403072746
 31
0.0
  0
LINE
  5
8C
  8
DIMNSIONS
  6
CONTINUOUS
 62
     7
 10
-722.75
 20
-1200.0
 30
0.0
 11
-685.24066162109375
 21
-1210.0505969272531
 31
0.0
  0
LINE
  5
8D
  8
DIMNSIONS
  6
CONTINUOUS
 62
     7
 10
-277.25
 20
-1200.0
 30
0.0
 11
-314.75933837890619
 21
-1210.050596927254
 31
0.0
  0
LINE
  5
8E
  8
DIMNSIONS
  6
CONTINUOUS
 62
     7
 10
-277.25
 20
-1200.0
 30
0.0
 11
-314.75933837890619
 21
-1189.949403072746
 31
0.0
  0
TEXT
  5
8F
  8
DIMNSIONS
 62
     7
 10
-539.6875
 20
-1185.091666666666
 30
0.0
 40
40.721028645833371
  1
446
 41
0.7
 11
-539.6875
 21
-1144.370638020833
 31
0.0
 73
     3
  0
LINE
  5
90
  8
DIMNSIONS
  6
CONTINUOUS
 62
     7
 10
-529.9999999999967
 20
-200.0
 30
0.0
 11
-830.0
 21
-200.0
 31
0.0
  0
LINE
  5
91
  8
DIMNSIONS
  6
CONTINUOUS
 62
     7
 10
-733.0
 20
158.0
 30
0.0
 11
-830.0
 21
158.0
 31
0.0
  0
LINE
  5
92
  8
DIMNSIONS
  6
CONTINUOUS
 62
     7
 10
-800.0
 20
-200.0
 30
0.0
 11
-800.0
 21
158.0
 31
0.0
  0
LINE
  5
93
  8
DIMNSIONS
  6
CONTINUOUS
 62
     7
 10
-800.0
 20
-200.0
 30
0.0
 11
-810.05059692725365
 21
-162.49066162109369
 31
0.0
  0
LINE
  5
94
  8
DIMNSIONS
  6
CONTINUOUS
 62
     7
 10
-800.0
 20
-200.0
 30
0.0
 11
-789.94940307274624
 21
-162.49066162109369
 31
0.0
  0
LINE
  5
95
  8
DIMNSIONS
  6
CONTINUOUS
 62
     7
 10
-800.0
 20
158.0
 30
0.0
 11
-789.94940307274624
 21
120.49066162109369
 31
0.0
  0
LINE
  5
96
  8
DIMNSIONS
  6
CONTINUOUS
 62
     7
 10
-800.0
 20
158.0
 30
0.0
 11
-810.05059692725365
 21
120.49066162109369
 31
0.0
  0
TEXT
  5
97
  8
DIMNSIONS
 62
     7
 10
-814.9083358723675
 20
-60.687512616316489
 30
0.0
 40
40.721042602019452
  1
358
 50
90.0
 41
0.7
 11
-855.62937847438695
 21
-60.687512616316482
 31
0.0
 73
     3
  0
LINE
  5
98
  8
DIMNSIONS
  6
CONTINUOUS
 62
     7
 10
-732.75
 20
-390.5
 30
0.0
 11
-830.0
 21
-390.5
 31
0.0
  0
LINE
  5
99
  8
DIMNSIONS
  6
CONTINUOUS
 62
     7
 10
-733.0
 20
-1100.0
 30
0.0
 11
-830.0
 21
-1100.0
 31
0.0
  0
LINE
  5
9A
  8
DIMNSIONS
  6
CONTINUOUS
 62
     7
 10
-800.0
 20
-390.5
 30
0.0
 11
-800.0
 21
-1100.0
 31
0.0
  0
LINE
  5
9B
  8
DIMNSIONS
  6
CONTINUOUS
 62
     7
 10
-800.0
 20
-390.5
 30
0.0
 11
-789.94940307274624
 21
-428.00933837890631
 31
0.0
  0
LINE
  5
9C
  8
DIMNSIONS
  6
CONTINUOUS
 62
     7
 10
-800.0
 20
-390.5
 30
0.0
 11
-810.05059692725365
 21
-428.00933837890631
 31
0.0
  0
LINE
  5
9D
  8
DIMNSIONS
  6
CONTINUOUS
 62
     7
 10
-800.0
 20
-1100.0
 30
0.0
 11
-810.05059692725365
 21
-1062.4906616210931
 31
0.0
  0
LINE
  5
9E
  8
DIMNSIONS
  6
CONTINUOUS
 62
     7
 10
-800.0
 20
-1100.0
 30
0.0
 11
-789.94940307274624
 21
-1062.4906616210931
 31
0.0
  0
TEXT
  5
9F
  8
DIMNSIONS
 62
     7
 10
-814.9083358723675
 20
-784.93751261631655
 30
0.0
 40
40.721042602019452
  1
710
 50
90.0
 41
0.7
 11
-855.62937847438695
 21
-784.93751261631655
 31
0.0
 73
     3
  0
LINE
  5
A0
  8
DIMNSIONS
  6
CONTINUOUS
 62
     7
 10
-732.75
 20
-1100.0
 30
0.0
 11
-830.0
 21
-1100.0
 31
0.0
  0
LINE
  5
A1
  8
DIMNSIONS
  6
CONTINUOUS
 62
     7
 10
-727.91959798982862
 20
-1104.0
 30
0.0
 11
-830.0
 21
-1104.0
 31
0.0
  0
LINE
  5
A2
  8
DIMNSIONS
  6
CONTINUOUS
 62
     7
 10
-800.0
 20
-1104.0
 30
0.0
 11
-800.0
 21
-1100.0
 31
0.0
  0
LINE
  5
A3
  8
DIMNSIONS
  6
CONTINUOUS
 62
     7
 10
-800.0
 20
-1100.0
 30
0.0
 11
-800.0
 21
-1025.0
 31
0.0
  0
LINE
  5
A4
  8
DIMNSIONS
  6
CONTINUOUS
 62
     7
 10
-800.0
 20
-1100.0
 30
0.0
 11
-810.05059692725365
 21
-1062.4906616210931
 31
0.0
  0
LINE
  5
A5
  8
DIMNSIONS
  6
CONTINUOUS
 62
     7
 10
-800.0
 20
-1100.0
 30
0.0
 11
-789.94940307274624
 21
-1062.4906616210931
 31
0.0
  0
LINE
  5
A6
  8
DIMNSIONS
  6
CONTINUOUS
 62
     7
 10
-800.0
 20
-1104.0
 30
0.0
 11
-800.0
 21
-1191.417412113773
 31
0.0
  0
LINE
  5
A7
  8
DIMNSIONS
  6
CONTINUOUS
 62
     7
 10
-800.0
 20
-1104.0
 30
0.0
 11
-789.94940307274624
 21
-1141.509338378906
 31
0.0
  0
LINE
  5
A8
  8
DIMNSIONS
  6
CONTINUOUS
 62
     7
 10
-800.0
 20
-1104.0
 30
0.0
 11
-810.05059692725365
 21
-1141.509338378906
 31
0.0
  0
TEXT
  5
A9
  8
DIMNSIONS
 62
     7
 10
-814.9083358723675
 20
-1191.4174121137739
 30
0.0
 40
40.721042602019452
  1
4.0
 50
90.0
 41
0.7
 11
-855.62937847438695
 21
-1191.4174121137739
 31
0.0
 73
     3
  0
LINE
  5
AA
  8
DIMNSIONS
  6
CONTINUOUS
 62
     7
 10
-494.74999999999989
 20
115.0
 30
0.0
 11
-270.0
 21
115.0
 31
0.0
  0
LINE
  5
AB
  8
DIMNSIONS
  6
CONTINUOUS
 62
     7
 10
-475.53427124746207
 20
158.0
 30
0.0
 11
-270.0
 21
158.0
 31
0.0
  0
LINE
  5
AC
  8
DIMNSIONS
  6
CONTINUOUS
 62
     7
 10
-300.0
 20
158.0
 30
0.0
 11
-300.0
 21
115.0
 31
0.0
  0
LINE
  5
AD
  8
DIMNSIONS
  6
CONTINUOUS
 62
     7
 10
-300.0
 20
115.0
 30
0.0
 11
-300.0
 21
40.0
 31
0.0
  0
LINE
  5
AE
  8
DIMNSIONS
  6
CONTINUOUS
 62
     7
 10
-300.0
 20
115.0
 30
0.0
 11
-289.94940307274641
 21
77.49066162109375
 31
0.0
  0
LINE
  5
AF
  8
DIMNSIONS
  6
CONTINUOUS
 62
     7
 10
-300.0
 20
115.0
 30
0.0
 11
-310.05059692725359
 21
77.49066162109375
 31
0.0
  0
LINE
  5
B0
  8
DIMNSIONS
  6
CONTINUOUS
 62
     7
 10
-300.0
 20
158.0
 30
0.0
 11
-300.0
 21
294.44549265501058
 31
0.0
  0
LINE
  5
B1
  8
DIMNSIONS
  6
CONTINUOUS
 62
     7
 10
-300.0
 20
158.0
 30
0.0
 11
-310.05059692725359
 21
195.50933837890619
 31
0.0
  0
LINE
  5
B2
  8
DIMNSIONS
  6
CONTINUOUS
 62
     7
 10
-300.0
 20
158.0
 30
0.0
 11
-289.94940307274641
 21
195.50933837890619
 31
0.0
  0
TEXT
  5
B3
  8
DIMNSIONS
 62
     7
 10
-314.90833333333342
 20
188.6121593216773
 30
0.0
 40
40.721028645833343
  1
43.0
 50
90.0
 41
0.7
 11
-355.62936197916667
 21
188.6121593216773
 31
0.0
 73
     3
  0
LINE
  5
B4
  8
DIMNSIONS
  6
CONTINUOUS
 62
     7
 10
-475.53427124746207
 20
158.0
 30
0.0
 11
-145.0
 21
158.0
 31
0.0
  0
LINE
  5
B5
  8
DIMNSIONS
  6
CONTINUOUS
 62
     7
 10
-290.24999999999898
 20
-95.0
 30
0.0
 11
-145.0
 21
-95.0
 31
0.0
  0
LINE
  5
B6
  8
DIMNSIONS
  6
CONTINUOUS
 62
     7
 10
-175.0
 20
158.0
 30
0.0
 11
-175.0
 21
-95.0
 31
0.0
  0
LINE
  5
B7
  8
DIMNSIONS
  6
CONTINUOUS
 62
     7
 10
-175.0
 20
158.0
 30
0.0
 11
-164.94940307274641
 21
120.49066162109369
 31
0.0
  0
LINE
  5
B8
  8
DIMNSIONS
  6
CONTINUOUS
 62
     7
 10
-175.0
 20
158.0
 30
0.0
 11
-185.05059692725359
 21
120.49066162109369
 31
0.0
  0
LINE
  5
B9
  8
DIMNSIONS
  6
CONTINUOUS
 62
     7
 10
-175.0
 20
-95.0
 30
0.0
 11
-185.05059692725359
 21
-57.49066162109375
 31
0.0
  0
LINE
  5
BA
  8
DIMNSIONS
  6
CONTINUOUS
 62
     7
 10
-175.0
 20
-95.0
 30
0.0
 11
-164.94940307274641
 21
-57.49066162109375
 31
0.0
  0
TEXT
  5
BB
  8
DIMNSIONS
 62
     7
 10
-189.9083333333333
 20
-8.1875000000000053
 30
0.0
 40
40.721028645833343
  1
253
 50
90.0
 41
0.7
 11
-230.6293619791667
 21
-8.1875
 31
0.0
 73
     3
  0
LINE
  5
BC
  8
DIMNSIONS
  6
CONTINUOUS
 62
     7
 10
-722.75
 20
168.0
 30
0.0
 11
-722.75
 21
280.0
 31
0.0
  0
LINE
  5
BD
  8
DIMNSIONS
  6
CONTINUOUS
 62
     7
 10
-524.75
 20
145.0
 30
0.0
 11
-524.75
 21
280.0
 31
0.0
  0
LINE
  5
BE
  8
DIMNSIONS
  6
CONTINUOUS
 62
     7
 10
-722.75
 20
250.0
 30
0.0
 11
-524.75
 21
250.0
 31
0.0
  0
LINE
  5
BF
  8
DIMNSIONS
  6
CONTINUOUS
 62
     7
 10
-722.75
 20
250.0
 30
0.0
 11
-685.24066162109375
 21
260.05059692725359
 31
0.0
  0
LINE
  5
C0
  8
DIMNSIONS
  6
CONTINUOUS
 62
     7
 10
-722.75
 20
250.0
 30
0.0
 11
-685.24066162109375
 21
239.94940307274641
 31
0.0
  0
LINE
  5
C1
  8
DIMNSIONS
  6
CONTINUOUS
 62
     7
 10
-524.75
 20
250.0
 30
0.0
 11
-562.25933837890625
 21
239.94940307274641
 31
0.0
  0
LINE
  5
C2
  8
DIMNSIONS
  6
CONTINUOUS
 62
     7
 10
-524.75
 20
250.0
 30
0.0
 11
-562.25933837890625
 21
260.05059692725359
 31
0.0
  0
TEXT
  5
C3
  8
DIMNSIONS
 62
     7
 10
-663.4375
 20
264.9083333333333
 30
0.0
 40
40.721028645833343
  1
198
 41
0.7
 11
-663.4375
 21
305.62936197916667
 31
0.0
 73
     3
  0
LINE
  5
C4
  8
DIMNSIONS
  6
CONTINUOUS
 62
     7
 10
-679.75
 20
-125.0
 30
0.0
 11
-679.75
 21
-330.0
 31
0.0
  0
LINE
  5
C5
  8
DIMNSIONS
  6
CONTINUOUS
 62
     7
 10
-320.24999999999898
 20
-125.0
 30
0.0
 11
-320.24999999999898
 21
-330.0
 31
0.0
  0
LINE
  5
C6
  8
DIMNSIONS
  6
CONTINUOUS
 62
     7
 10
-679.75
 20
-300.0
 30
0.0
 11
-320.24999999999898
 21
-300.0
 31
0.0
  0
LINE
  5
C7
  8
DIMNSIONS
  6
CONTINUOUS
 62
     7
 10
-679.75
 20
-300.0
 30
0.0
 11
-642.24066162109375
 21
-289.94940307274641
 31
0.0
  0
LINE
  5
C8
  8
DIMNSIONS
  6
CONTINUOUS
 62
     7
 10
-679.75
 20
-300.0
 30
0.0
 11
-642.24066162109375
 21
-310.05059692725359
 31
0.0
  0
LINE
  5
C9
  8
DIMNSIONS
  6
CONTINUOUS
 62
     7
 10
-320.24999999999898
 20
-300.0
 30
0.0
 11
-357.7593383789054
 21
-310.05059692725359
 31
0.0
  0
LINE
  5
CA
  8
DIMNSIONS
  6
CONTINUOUS
 62
     7
 10
-320.24999999999898
 20
-300.0
 30
0.0
 11
-357.7593383789054
 21
-289.94940307274641
 31
0.0
  0
TEXT
  5
CB
  8
DIMNSIONS
 62
     7
 10
-566.14583333333292
 20
-285.0916666666667
 30
0.0
 40
40.721028645833343
  1
359.5
 41
0.7
 11
-566.14583333333292
 21
-244.3706380208333
 31
0.0
 73
     3
  0
LINE
  5
CC
  8
DIMNSIONS
  6
CONTINUOUS
 62
     7
 10
35.0
 20
-441.0
 30
0.0
 11
380.0
 21
-441.0
 31
0.0
  0
LINE
  5
CD
  8
DIMNSIONS
  6
CONTINUOUS
 62
     7
 10
35.0
 20
-1049.5
 30
0.0
 11
380.0
 21
-1049.5
 31
0.0
  0
LINE
  5
CE
  8
DIMNSIONS
  6
CONTINUOUS
 62
     7
 10
350.0
 20
-441.0
 30
0.0
 11
350.0
 21
-1049.5
 31
0.0
  0
LINE
  5
CF
  8
DIMNSIONS
  6
CONTINUOUS
 62
     7
 10
350.0
 20
-441.0
 30
0.0
 11
360.05059692725359
 21
-478.50933837890631
 31
0.0
  0
LINE
  5
D0
  8
DIMNSIONS
  6
CONTINUOUS
 62
     7
 10
350.0
 20
-441.0
 30
0.0
 11
339.94940307274641
 21
-478.50933837890631
 31
0.0
  0
LINE
  5
D1
  8
DIMNSIONS
  6
CONTINUOUS
 62
     7
 10
350.0
 20
-1049.5
 30
0.0
 11
339.94940307274641
 21
-1011.990661621093
 31
0.0
  0
LINE
  5
D2
  8
DIMNSIONS
  6
CONTINUOUS
 62
     7
 10
350.0
 20
-1049.5
 30
0.0
 11
360.05059692725359
 21
-1011.990661621093
 31
0.0
  0
TEXT
  5
D3
  8
DIMNSIONS
 62
     7
 10
335.0916666666667
 20
-811.39583333333314
 30
0.0
 40
40.721028645833343
  1
608.5
 50
90.0
 41
0.7
 11
294.37063802083338
 21
-811.39583333333314
 31
0.0
 73
     3
  0
LINE
  5
D4
  8
DIMNSIONS
  6
CONTINUOUS
 62
     7
 10
35.0
 20
-1049.5
 30
0.0
 11
380.0
 21
-1049.5
 31
0.0
  0
LINE
  5
D5
  8
DIMNSIONS
  6
CONTINUOUS
 62
     7
 10
268.0
 20
-1100.0
 30
0.0
 11
380.0
 21
-1100.0
 31
0.0
  0
LINE
  5
D6
  8
DIMNSIONS
  6
CONTINUOUS
 62
     7
 10
350.0
 20
-1100.0
 30
0.0
 11
350.0
 21
-1049.5
 31
0.0
  0
LINE
  5
D7
  8
DIMNSIONS
  6
CONTINUOUS
 62
     7
 10
350.0
 20
-1049.5
 30
0.0
 11
350.0
 21
-974.5
 31
0.0
  0
LINE
  5
D8
  8
DIMNSIONS
  6
CONTINUOUS
 62
     7
 10
350.0
 20
-1049.5
 30
0.0
 11
339.94940307274641
 21
-1011.990661621093
 31
0.0
  0
LINE
  5
D9
  8
DIMNSIONS
  6
CONTINUOUS
 62
     7
 10
350.0
 20
-1049.5
 30
0.0
 11
360.05059692725359
 21
-1011.990661621093
 31
0.0
  0
LINE
  5
DA
  8
DIMNSIONS
  6
CONTINUOUS
 62
     7
 10
350.0
 20
-1100.0
 30
0.0
 11
350.0
 21
-1230.833333333333
 31
0.0
  0
LINE
  5
DB
  8
DIMNSIONS
  6
CONTINUOUS
 62
     7
 10
350.0
 20
-1100.0
 30
0.0
 11
360.05059692725359
 21
-1137.509338378906
 31
0.0
  0
LINE
  5
DC
  8
DIMNSIONS
  6
CONTINUOUS
 62
     7
 10
350.0
 20
-1100.0
 30
0.0
 11
339.94940307274641
 21
-1137.509338378906
 31
0.0
  0
TEXT
  5
DD
  8
DIMNSIONS
 62
     7
 10
335.0916666666667
 20
-1230.833333333333
 30
0.0
 40
40.721028645833343
  1
50.5
 50
90.0
 41
0.7
 11
294.37063802083333
 21
-1230.833333333333
 31
0.0
 73
     3
  0
LINE
  5
DE
  8
DIMNSIONS
  6
CONTINUOUS
 62
     7
 10
754.75
 20
-1049.5
 30
0.0
 11
1055.0
 21
-1049.5
 31
0.0
  0
LINE
  5
DF
  8
DIMNSIONS
  6
CONTINUOUS
 62
     7
 10
932.75
 20
-1100.0
 30
0.0
 11
1055.0
 21
-1100.0
 31
0.0
  0
LINE
  5
E0
  8
DIMNSIONS
  6
CONTINUOUS
 62
     7
 10
1025.0
 20
-1100.0
 30
0.0
 11
1025.0
 21
-1049.5
 31
0.0
  0
LINE
  5
E1
  8
DIMNSIONS
  6
CONTINUOUS
 62
     7
 10
1025.0
 20
-1049.5
 30
0.0
 11
1025.0
 21
-974.5
 31
0.0
  0
LINE
  5
E2
  8
DIMNSIONS
  6
CONTINUOUS
 62
     7
 10
1025.0
 20
-1049.5
 30
0.0
 11
1014.949403072746
 21
-1011.990661621093
 31
0.0
  0
LINE
  5
E3
  8
DIMNSIONS
  6
CONTINUOUS
 62
     7
 10
1025.0
 20
-1049.5
 30
0.0
 11
1035.0505969272531
 21
-1011.990661621093
 31
0.0
  0
LINE
  5
E4
  8
DIMNSIONS
  6
CONTINUOUS
 62
     7
 10
1025.0
 20
-1100.0
 30
0.0
 11
1025.0
 21
-1230.833333333333
 31
0.0
  0
LINE
  5
E5
  8
DIMNSIONS
  6
CONTINUOUS
 62
     7
 10
1025.0
 20
-1100.0
 30
0.0
 11
1035.0505969272531
 21
-1137.509338378906
 31
0.0
  0
LINE
  5
E6
  8
DIMNSIONS
  6
CONTINUOUS
 62
     7
 10
1025.0
 20
-1100.0
 30
0.0
 11
1014.949403072746
 21
-1137.509338378906
 31
0.0
  0
TEXT
  5
E7
  8
DIMNSIONS
 62
     7
 10
1010.091666666666
 20
-1230.833333333333
 30
0.0
 40
40.721028645833343
  1
50.5
 50
90.0
 41
0.7
 11
969.37063802083321
 21
-1230.833333333333
 31
0.0
 73
     3
  0
LINE
  5
E8
  8
DIMNSIONS
  6
CONTINUOUS
 62
     7
 10
754.75
 20
-1049.5
 30
0.0
 11
1055.0
 21
-1049.5
 31
0.0
  0
LINE
  5
E9
  8
DIMNSIONS
  6
CONTINUOUS
 62
     7
 10
754.75
 20
-441.0
 30
0.0
 11
1055.0
 21
-441.0
 31
0.0
  0
LINE
  5
EA
  8
DIMNSIONS
  6
CONTINUOUS
 62
     7
 10
1025.0
 20
-1049.5
 30
0.0
 11
1025.0
 21
-441.0
 31
0.0
  0
LINE
  5
EB
  8
DIMNSIONS
  6
CONTINUOUS
 62
     7
 10
1025.0
 20
-1049.5
 30
0.0
 11
1014.949403072746
 21
-1011.990661621093
 31
0.0
  0
LINE
  5
EC
  8
DIMNSIONS
  6
CONTINUOUS
 62
     7
 10
1025.0
 20
-1049.5
 30
0.0
 11
1035.0505969272531
 21
-1011.990661621093
 31
0.0
  0
LINE
  5
ED
  8
DIMNSIONS
  6
CONTINUOUS
 62
     7
 10
1025.0
 20
-441.0
 30
0.0
 11
1035.0505969272531
 21
-478.50933837890631
 31
0.0
  0
LINE
  5
EE
  8
DIMNSIONS
  6
CONTINUOUS
 62
     7
 10
1025.0
 20
-441.0
 30
0.0
 11
1014.949403072746
 21
-478.50933837890631
 31
0.0
  0
TEXT
  5
EF
  8
DIMNSIONS
 62
     7
 10
1010.091666666666
 20
-811.39583333333314
 30
0.0
 40
40.721028645833343
  1
608.5
 50
90.0
 41
0.7
 11
969.37063802083321
 21
-811.39583333333314
 31
0.0
 73
     3
  0
LINE
  5
F0
  8
DIMNSIONS
  6
CONTINUOUS
 62
     7
 10
724.75
 20
-1079.5
 30
0.0
 11
724.75
 21
-1230.0
 31
0.0
  0
LINE
  5
F1
  8
DIMNSIONS
  6
CONTINUOUS
 62
     7
 10
922.75
 20
-1120.0
 30
0.0
 11
922.75
 21
-1230.0
 31
0.0
  0
LINE
  5
F2
  8
DIMNSIONS
  6
CONTINUOUS
 62
     7
 10
724.75
 20
-1200.0
 30
0.0
 11
922.75
 21
-1200.0
 31
0.0
  0
LINE
  5
F3
  8
DIMNSIONS
  6
CONTINUOUS
 62
     7
 10
724.75
 20
-1200.0
 30
0.0
 11
762.25933837890625
 21
-1189.949403072746
 31
0.0
  0
LINE
  5
F4
  8
DIMNSIONS
  6
CONTINUOUS
 62
     7
 10
724.75
 20
-1200.0
 30
0.0
 11
762.25933837890625
 21
-1210.0505969272531
 31
0.0
  0
LINE
  5
F5
  8
DIMNSIONS
  6
CONTINUOUS
 62
     7
 10
922.75
 20
-1200.0
 30
0.0
 11
885.24066162109375
 21
-1210.050596927254
 31
0.0
  0
LINE
  5
F6
  8
DIMNSIONS
  6
CONTINUOUS
 62
     7
 10
922.75
 20
-1200.0
 30
0.0
 11
885.24066162109375
 21
-1189.949403072746
 31
0.0
  0
TEXT
  5
F7
  8
DIMNSIONS
 62
     7
 10
784.0625
 20
-1185.091666666666
 30
0.0
 40
40.721028645833343
  1
198
 41
0.7
 11
784.0625
 21
-1144.370638020833
 31
0.0
 73
     3
  0
LINE
  5
F8
  8
DIMNSIONS
  6
CONTINUOUS
 62
     7
 10
-313.53117560519019
 20
-102.4065780730178
 30
0.0
 11
-225.0
 21
-200.0
 31
0.0
  0
LINE
  5
F9
  8
DIMNSIONS
  6
CONTINUOUS
 62
     7
 10
-313.53117560519019
 20
-102.4065780730178
 30
0.0
 11
-280.5993270775175
 21
-122.9846809196807
 31
0.0
  0
LINE
  5
FA
  8
DIMNSIONS
  6
CONTINUOUS
 62
     7
 10
-313.53117560519019
 20
-102.4065780730178
 30
0.0
 11
-295.30040960997599
 21
-136.693662163753
 31
0.0
  0
LINE
  5
FB
  8
DIMNSIONS
  6
CONTINUOUS
 62
     7
 10
-225.0
 20
-200.0
 30
0.0
 11
-62.708333333333321
 21
-200.0
 31
0.0
  0
TEXT
  5
FC
  8
DIMNSIONS
 62
     7
 10
-195.0
 20
-185.09166666666661
 30
0.0
 40
40.721028645833343
  1
6-M10
 41
0.7
 11
-195.0
 21
-144.3706380208333
 31
0.0
 73
     3
  0
LINE
  5
FD
  8
DIMNSIONS
  6
CONTINUOUS
 62
     7
 10
7.1465703069033291
 20
-431.23310510358971
 30
0.0
 11
25.000000000000011
 21
-350.0
 31
0.0
  0
LINE
  5
FE
  8
DIMNSIONS
  6
CONTINUOUS
 62
     7
 10
7.1465703069033291
 20
-431.23310510358971
 30
0.0
 11
5.791334743840669
 21
-392.42423626171279
 31
0.0
  0
LINE
  5
FF
  8
DIMNSIONS
  6
CONTINUOUS
 62
     7
 10
7.1465703069033291
 20
-431.23310510358971
 30
0.0
 11
25.377336302117509
 21
-396.9460210128546
 31
0.0
  0
LINE
  5
100
  8
DIMNSIONS
  6
CONTINUOUS
 62
     7
 10
25.000000000000011
 20
-350.0
 30
0.0
 11
187.2916666666666
 21
-350.0
 31
0.0
  0
TEXT
  5
101
  8
DIMNSIONS
 62
     7
 10
55.0
 20
-335.0916666666667
 30
0.0
 40
40.721028645833343
  1
2-M10
 41
0.7
 11
55.0
 21
-294.37063802083333
 31
0.0
 73
     3
  0
LINE
  5
102
  8
DIMNSIONS
  6
CONTINUOUS
 62
     7
 10
731.12264359794517
 20
-433.29354727690333
 30
0.0
 11
800.0
 21
-350.0
 31
0.0
  0
LINE
  5
103
  8
DIMNSIONS
  6
CONTINUOUS
 62
     7
 10
731.12264359794517
 20
-433.29354727690333
 30
0.0
 11
747.53397762929444
 21
-398.09932787188058
 31
0.0
  0
LINE
  5
104
  8
DIMNSIONS
  6
CONTINUOUS
 62
     7
 10
731.12264359794517
 20
-433.29354727690333
 30
0.0
 11
762.93238548159718
 21
-411.02012622146498
 31
0.0
  0
LINE
  5
105
  8
DIMNSIONS
  6
CONTINUOUS
 62
     7
 10
800.0
 20
-350.0
 30
0.0
 11
962.29166666666686
 21
-350.0
 31
0.0
  0
TEXT
  5
106
  8
DIMNSIONS
 62
     7
 10
830.0
 20
-335.0916666666667
 30
0.0
 40
40.721028645833343
  1
2-M10
 41
0.7
 11
830.0
 21
-294.37063802083333
 31
0.0
 73
     3
  0
LINE
  5
107
  8
DIMNSIONS
  6
CONTINUOUS
 62
     7
 10
-1009.432690864702
 20
-432.03611402915669
 30
0.0
 11
-1050.0
 21
-350.0
 31
0.0
  0
LINE
  5
108
  8
DIMNSIONS
  6
CONTINUOUS
 62
     7
 10
-1009.432690864702
 20
-432.03611402915669
 30
0.0
 11
-1034.909119225131
 21
-402.72883571448989
 31
0.0
  0
LINE
  5
109
  8
DIMNSIONS
  6
CONTINUOUS
 62
     7
 10
-1009.432690864702
 20
-432.03611402915669
 30
0.0
 11
-1016.842285865195
 21
-393.91705231266008
 31
0.0
  0
LINE
  5
10A
  8
DIMNSIONS
  6
CONTINUOUS
 62
     7
 10
-1050.0
 20
-350.0
 30
0.0
 11
-1212.2916666666661
 21
-350.0
 31
0.0
  0
TEXT
  5
10B
  8
DIMNSIONS
 62
     7
 10
-1212.2916666666661
 20
-335.09166666666658
 30
0.0
 40
40.721028645833343
  1
2-M10
 41
0.7
 11
-1212.2916666666661
 21
-294.37063802083321
 31
0.0
 73
     3
  0
ARC
  5
10C
  8
DATA
  6
CONTINUOUS
 62
     7
 10
575.0
 20
1385.7266976116809
 30
0.0
 40
697.98622403084562
 50
251.1945383269246
 51
288.80546167307529
  0
ARC
  5
10D
  8
DATA
  6
CONTINUOUS
 62
     7
 10
1025.0
 20
64.273302388318825
 30
0.0
 40
697.98622403084562
 50
71.194538326924629
 51
108.8054616730753
  0
ARC
  5
10E
  8
DATA
  6
CONTINUOUS
 62
     7
 10
575.0
 20
360.72669761168117
 30
0.0
 40
697.98622403084562
 50
251.1945383269246
 51
288.80546167307529
  0
ARC
  5
10F
  8
DATA
  6
CONTINUOUS
 62
     7
 10
1025.0
 20
-960.72669761168106
 30
0.0
 40
697.98622403084562
 50
71.194538326924629
 51
108.8054616730753
  0
TEXT
  5
110
  8
DATA
 62
     7
 10
935.50023367973506
 20
119.5488497906189
 30
0.0
 40
17.102832031249999
  1
CH1/MIX/CH2
 41
0.7
 72
     1
 11
995.36014578911011
 21
128.1002658062439
 31
0.0
 73
     2
  0
TEXT
  5
111
  8
DATA
 62
     7
 10
935.50023367973506
 20
221.5488497906189
 30
0.0
 40
17.102832031249999
  1
CH1/MIX/CH2
 41
0.7
 72
     1
 11
995.36014578911011
 21
230.1002658062439
 31
0.0
 73
     2
  0
TEXT
  5
112
  8
DATA
 62
     7
 10
482.07798739524537
 20
-32.588534080307269
 30
0.0
 40
17.102832031249999
  1
+4
 41
0.7
 72
     1
 11
492.0546394134746
 21
-24.037118064682272
 31
0.0
 73
     2
  0
TEXT
  5
113
  8
DATA
 62
     7
 10
476.0919961843079
 20
-54.813534080307257
 30
0.0
 40
17.102832031249999
  1
dBu
 41
0.7
 72
     1
 11
492.0546394134746
 21
-46.262118064682262
 31
0.0
 73
     2
  0
TEXT
  5
114
  8
DATA
 62
     7
 10
826.10575470382662
 20
138.41498091969311
 30
0.0
 40
17.102832031249999
  1
Ground
 41
0.7
 72
     1
 11
860.02637156580568
 21
146.9663969353181
 31
0.0
 73
     2
  0
TEXT
  5
115
  8
DATA
 62
     7
 10
842.06839793299332
 20
116.189980919693
 30
0.0
 40
17.102832031249999
  1
Lift
 41
0.7
 72
     1
 11
860.02637156580568
 21
124.74139693531799
 31
0.0
 73
     2
  0
TEXT
  5
116
  8
DATA
 62
     7
 10
490.09923004564757
 20
130.30248091969301
 30
0.0
 40
17.102832031249999
  1
Mic/Line
 41
0.7
 72
     1
 11
528.01050771491828
 21
138.85389693531801
 31
0.0
 73
     2
  0
LINE
  5
117
  8
DATA
  6
CONTINUOUS
 62
     7
 10
898.76014579271475
 20
-161.14786056468211
 30
0.0
 11
898.76014579271475
 21
113.6288969353181
 31
0.0
  0
LINE
  5
118
  8
DATA
  6
CONTINUOUS
 62
     7
 10
898.76014579271475
 20
158.078896935318
 30
0.0
 11
898.76014579271475
 21
357.85389693531812
 31
0.0
  0
TEXT
  5
119
  8
DATA
 62
     7
 10
579.7620732168125
 20
-188.58677658030709
 30
0.0
 40
17.102832031249999
  1
-10
 41
0.7
 72
     1
 11
592.73172084051043
 21
-180.03536056468209
 31
0.0
 73
     2
  0
TEXT
  5
11A
  8
DATA
 62
     7
 10
576.76907761134373
 20
-210.81177658030711
 30
0.0
 40
17.102832031249999
  1
dBv
 41
0.7
 72
     1
 11
592.73172084051043
 21
-202.26036056468209
 31
0.0
 73
     2
  0
LINE
  5
11B
  8
DATA
  6
CONTINUOUS
 62
     7
 10
491.96782338571307
 20
-161.14786056468211
 30
0.0
 11
491.96782338571307
 21
-62.149618064682272
 31
0.0
  0
LINE
  5
11C
  8
DATA
  6
CONTINUOUS
 62
     7
 10
491.96782338571307
 20
-8.1496180646822722
 30
0.0
 11
491.96782338571307
 21
113.6288969353181
 31
0.0
  0
LINE
  5
11D
  8
DATA
  6
CONTINUOUS
 62
     7
 10
491.96782338571307
 20
158.078896935318
 30
0.0
 11
491.96782338571307
 21
357.85389693531812
 31
0.0
  0
TEXT
  5
11E
  8
DATA
 62
     7
 10
675.41068050985575
 20
346.01498091969307
 30
0.0
 40
17.102832031249999
  1
Limit
 41
0.7
 72
     1
 11
695.3639845463141
 21
354.5663969353181
 31
0.0
 73
     2
  0
TEXT
  5
11F
  8
DATA
 62
     7
 10
563.43086284709614
 20
346.68998091969348
 30
0.0
 40
17.102832031249999
  1
Signal
 41
0.7
 72
     1
 11
590.3678232963149
 21
355.24139693531851
 31
0.0
 73
     2
  0
TEXT
  5
120
  8
DATA
 62
     7
 10
773.42318534709455
 20
346.6899809196928
 30
0.0
 40
17.102832031249999
  1
Signal
 41
0.7
 72
     1
 11
800.3601457963133
 21
355.24139693531782
 31
0.0
 73
     2
  0
TEXT
  5
121
  8
DATA
 62
     7
 10
1092.1281591817019
 20
-32.588534080307269
 30
0.0
 40
17.102832031249999
  1
+4
 41
0.7
 72
     1
 11
1102.104811199931
 21
-24.037118064682272
 31
0.0
 73
     2
  0
TEXT
  5
122
  8
DATA
 62
     7
 10
1086.1421679707651
 20
-54.813534080307257
 30
0.0
 40
17.102832031249999
  1
dBu
 41
0.7
 72
     1
 11
1102.104811199931
 21
-46.262118064682262
 31
0.0
 73
     2
  0
TEXT
  5
123
  8
DATA
 62
     7
 10
502.60684175985381
 20
428.93352846806408
 30
0.0
 40
17.102832031249999
  1
MAIN
 41
0.7
 72
     1
 11
522.5601457963121
 21
437.48494448368911
 31
0.0
 73
     2
  0
TEXT
  5
124
  8
DATA
 62
     7
 10
642.21285756715076
 20
428.93352846806408
 30
0.0
 40
17.102832031249999
  1
MON
 41
0.7
 72
     1
 11
658.17550079631758
 21
437.48494448368911
 31
0.0
 73
     2
  0
TEXT
  5
125
  8
DATA
 62
     7
 10
989.57581627808111
 20
428.93352846806408
 30
0.0
 40
17.102832031249999
  1
ON
 41
0.7
 72
     1
 11
999.55246829631039
 21
437.48494448368911
 31
0.0
 73
     2
  0
TEXT
  5
126
  8
DATA
 62
     7
 10
1119.2051800671491
 20
428.93352846806408
 30
0.0
 40
17.102832031249999
  1
OFF
 41
0.7
 72
     1
 11
1135.1678232963161
 21
437.48494448368911
 31
0.0
 73
     2
  0
TEXT
  5
127
  8
DATA
 62
     7
 10
587.49505491660454
 20
390.20999642950102
 30
0.0
 40
17.591484375
  1
CH1
 41
0.7
 72
     1
 11
601.86143382285445
 21
399.00573861700099
 31
0.0
 73
     2
  0
LINE
  5
128
  8
DATA
  6
CONTINUOUS
 62
     7
 10
629.68901285623099
 20
387.29758029868287
 30
0.0
 11
622.48901285623208
 21
410.1575802986826
 31
0.0
  0
LINE
  5
129
  8
DATA
  6
CONTINUOUS
 62
     7
 10
574.03385478947814
 20
387.29758029868287
 30
0.0
 11
581.23385478947705
 21
410.1575802986826
 31
0.0
  0
LINE
  5
12A
  8
DATA
  6
CONTINUOUS
 62
     7
 10
581.23385478947705
 20
410.1575802986826
 30
0.0
 11
622.48901285623208
 21
410.1575802986826
 31
0.0
  0
TEXT
  5
12B
  8
DATA
 62
     7
 10
772.76900616549233
 20
390.76631306613609
 30
0.0
 40
17.591484375
  1
CH2
 41
0.7
 72
     1
 11
789.18772491549237
 21
399.56205525363612
 31
0.0
 73
     2
  0
LINE
  5
12C
  8
DATA
  6
CONTINUOUS
 62
     7
 10
817.01530394886584
 20
387.85389693531812
 30
0.0
 11
809.81530394886704
 21
410.71389693531768
 31
0.0
  0
LINE
  5
12D
  8
DATA
  6
CONTINUOUS
 62
     7
 10
761.36014588211322
 20
387.85389693531812
 30
0.0
 11
768.56014588211212
 21
410.71389693531768
 31
0.0
  0
LINE
  5
12E
  8
DATA
  6
CONTINUOUS
 62
     7
 10
768.56014588212031
 20
410.71389693531768
 30
0.0
 11
809.81530394886704
 21
410.71389693531768
 31
0.0
  0
CIRCLE
  5
12F
  8
DATA
  6
CONTINUOUS
 62
     7
 10
800.36014579601851
 20
234.8538969348501
 30
0.0
 40
38.999999999996291
  0
LINE
  5
130
  8
DATA
  6
CONTINUOUS
 62
     7
 10
823.28377063542848
 20
203.30223415422279
 30
0.0
 11
835.62726093356582
 21
186.31287727235031
 31
0.0
  0
LINE
  5
131
  8
DATA
  6
CONTINUOUS
 62
     7
 10
837.45134993153363
 20
246.90555971547471
 30
0.0
 11
857.42353677372478
 21
253.39491659734719
 31
0.0
  0
LINE
  5
132
  8
DATA
  6
CONTINUOUS
 62
     7
 10
800.36014579601851
 20
273.85389693485013
 30
0.0
 11
800.36014579601851
 21
294.85389693485013
 31
0.0
  0
LINE
  5
133
  8
DATA
  6
CONTINUOUS
 62
     7
 10
763.26894166050374
 20
246.90555971547471
 30
0.0
 11
743.29675481831225
 21
253.39491659734719
 31
0.0
  0
LINE
  5
134
  8
DATA
  6
CONTINUOUS
 62
     7
 10
777.43652095983373
 20
203.30223415867971
 30
0.0
 11
765.09303065847155
 21
186.31287727235571
 31
0.0
  0
LINE
  5
135
  8
DATA
  6
CONTINUOUS
 62
     7
 10
785.33177431604508
 20
209.0652132856066
 30
0.0
 11
781.70052885553832
 21
204.06723268497529
 31
0.0
  0
LINE
  5
136
  8
DATA
  6
CONTINUOUS
 62
     7
 10
797.93309481318761
 20
236.6172526921932
 30
0.0
 11
797.75495970722943
 21
236.37207075295561
 31
0.0
  0
LINE
  5
137
  8
DATA
  6
CONTINUOUS
 62
     7
 10
780.47767234979369
 20
212.5919247993584
 30
0.0
 11
776.84642688929205
 21
207.59394419873121
 31
0.0
  0
LINE
  5
138
  8
DATA
  6
CONTINUOUS
 62
     7
 10
761.9526434285408
 20
241.62617586386111
 30
0.0
 11
753.08937365143265
 21
243.18900946286291
 31
0.0
  0
LINE
  5
139
  8
DATA
  6
CONTINUOUS
 62
     7
 10
761.38390354227431
 20
236.21497730624881
 30
0.0
 11
752.38938609910383
 21
236.5290727765705
 31
0.0
  0
LINE
  5
13A
  8
DATA
  6
CONTINUOUS
 62
     7
 10
761.57379187665083
 20
230.7772868674129
 30
0.0
 11
752.62309481834109
 21
229.836530698004
 31
0.0
  0
LINE
  5
13B
  8
DATA
  6
CONTINUOUS
 62
     7
 10
762.51861247125385
 20
225.41894300646391
 30
0.0
 11
753.78595093477372
 21
223.24164594606791
 31
0.0
  0
LINE
  5
13C
  8
DATA
  6
CONTINUOUS
 62
     7
 10
764.19997546791012
 20
220.24423979162839
 30
0.0
 11
755.85532077681739
 21
216.87278045088809
 31
0.0
  0
LINE
  5
13D
  8
DATA
  6
CONTINUOUS
 62
     7
 10
766.58515504842865
 20
215.35389693485291
 30
0.0
 11
758.79092641436625
 21
210.85389693485149
 31
0.0
  0
LINE
  5
13E
  8
DATA
  6
CONTINUOUS
 62
     7
 10
769.62772640535809
 20
210.84309939715149
 30
0.0
 11
762.53562962290118
 21
205.3021461192202
 31
0.0
  0
LINE
  5
13F
  8
DATA
  6
CONTINUOUS
 62
     7
 10
773.26846934811431
 20
206.79964472164369
 30
0.0
 11
767.01654401399094
 21
200.32558651859651
 31
0.0
  0
LINE
  5
140
  8
DATA
  6
CONTINUOUS
 62
     7
 10
827.4518222439176
 20
206.7996447216465
 30
0.0
 11
833.70374757805189
 21
200.32558651859381
 31
0.0
  0
LINE
  5
141
  8
DATA
  6
CONTINUOUS
 62
     7
 10
831.09256518667939
 20
210.8430993971528
 30
0.0
 11
838.18466196914153
 21
205.3021461192202
 31
0.0
  0
LINE
  5
142
  8
DATA
  6
CONTINUOUS
 62
     7
 10
834.13513654361407
 20
215.3538969348474
 30
0.0
 11
841.92936517767623
 21
210.8538969348501
 31
0.0
  0
LINE
  5
143
  8
DATA
  6
CONTINUOUS
 62
     7
 10
836.52031612412702
 20
220.24423979162839
 30
0.0
 11
844.86497081523055
 21
216.8727804508853
 31
0.0
  0
LINE
  5
144
  8
DATA
  6
CONTINUOUS
 62
     7
 10
838.20167912078352
 20
225.41894300645981
 30
0.0
 11
846.93434065726353
 21
223.24164594606651
 31
0.0
  0
LINE
  5
145
  8
DATA
  6
CONTINUOUS
 62
     7
 10
839.14649971538074
 20
230.77728686741011
 30
0.0
 11
848.09719677369594
 21
229.836530698004
 31
0.0
  0
LINE
  5
146
  8
DATA
  6
CONTINUOUS
 62
     7
 10
839.33638804976272
 20
236.21497730625009
 30
0.0
 11
848.33090549293865
 21
236.5290727765705
 31
0.0
  0
LINE
  5
147
  8
DATA
  6
CONTINUOUS
 62
     7
 10
838.76764816349635
 20
241.62617586386111
 30
0.0
 11
847.63091794059915
 21
243.18900946286161
 31
0.0
  0
LINE
  5
148
  8
DATA
  6
CONTINUOUS
 62
     7
 10
835.41311360168868
 20
251.9503716596237
 30
0.0
 11
843.50226001837757
 21
255.8957119807246
 31
0.0
  0
LINE
  5
149
  8
DATA
  6
CONTINUOUS
 62
     7
 10
832.69261112566824
 20
256.6624201702125
 30
0.0
 11
840.15394927865702
 21
261.69515630144451
 31
0.0
  0
LINE
  5
14A
  8
DATA
  6
CONTINUOUS
 62
     7
 10
829.34279398964395
 20
260.94999058284611
 30
0.0
 11
836.03109741893525
 21
266.97216604007559
 31
0.0
  0
LINE
  5
14B
  8
DATA
  6
CONTINUOUS
 62
     7
 10
825.42886257379655
 20
264.7296302164886
 30
0.0
 11
831.21395106097509
 21
271.6240302045635
 31
0.0
  0
LINE
  5
14C
  8
DATA
  6
CONTINUOUS
 62
     7
 10
821.02699710111949
 20
267.92777268495138
 30
0.0
 11
825.79627047921076
 21
275.56020555035678
 31
0.0
  0
LINE
  5
14D
  8
DATA
  6
CONTINUOUS
 62
     7
 10
816.22287487597634
 20
270.48216978290662
 30
0.0
 11
819.88350466365489
 21
278.70407890169548
 31
0.0
  0
LINE
  5
14E
  8
DATA
  6
CONTINUOUS
 62
     7
 10
811.1100026728792
 20
272.34310307644409
 30
0.0
 11
813.59073887523596
 21
280.99445833988739
 31
0.0
  0
LINE
  5
14F
  8
DATA
  6
CONTINUOUS
 62
     7
 10
805.78789673346114
 20
273.4743516157705
 30
0.0
 11
807.0404546421023
 21
282.3867642344394
 31
0.0
  0
LINE
  5
150
  8
DATA
  6
CONTINUOUS
 62
     7
 10
794.93239485858157
 20
273.47435161573782
 30
0.0
 11
793.67983694993472
 21
282.3867642344448
 31
0.0
  0
LINE
  5
151
  8
DATA
  6
CONTINUOUS
 62
     7
 10
789.61028891915271
 20
272.3431030764508
 30
0.0
 11
787.12955271680141
 21
280.99445833988472
 31
0.0
  0
LINE
  5
152
  8
DATA
  6
CONTINUOUS
 62
     7
 10
784.49741671606091
 20
270.48216978291481
 30
0.0
 11
780.83678692837645
 21
278.70407890169281
 31
0.0
  0
LINE
  5
153
  8
DATA
  6
CONTINUOUS
 62
     7
 10
779.69329449092857
 20
267.92777268495138
 30
0.0
 11
774.92402111282104
 21
275.5602055503623
 31
0.0
  0
LINE
  5
154
  8
DATA
  6
CONTINUOUS
 62
     7
 10
775.29142901824616
 20
264.72963021649139
 30
0.0
 11
769.50634053106205
 21
271.62403020456082
 31
0.0
  0
LINE
  5
155
  8
DATA
  6
CONTINUOUS
 62
     7
 10
771.37749760240433
 20
260.94999058284611
 30
0.0
 11
764.68919417310212
 21
266.97216604007559
 31
0.0
  0
LINE
  5
156
  8
DATA
  6
CONTINUOUS
 62
     7
 10
768.02768046636913
 20
256.6624201702071
 30
0.0
 11
760.56634231337478
 21
261.69515630144451
 31
0.0
  0
LINE
  5
157
  8
DATA
  6
CONTINUOUS
 62
     7
 10
765.30717799034835
 20
251.9503716596237
 30
0.0
 11
757.21803157366514
 21
255.8957119807219
 31
0.0
  0
ARC
  5
158
  8
DATA
  6
CONTINUOUS
 62
     7
 10
804.12317047365389
 20
270.65668516810678
 30
0.0
 40
2.999999999994067
 50
351.61198453549321
 51
176.38801546444509
  0
ARC
  5
159
  8
DATA
  6
CONTINUOUS
 62
     7
 10
800.36014579599657
 20
234.85389693482151
 30
0.0
 40
35.999999999963812
 50
238.78019184717519
 51
229.2198081527709
  0
ARC
  5
15A
  8
DATA
  6
CONTINUOUS
 62
     7
 10
800.3601457963133
 20
234.85389693531809
 30
0.0
 40
30.000000000554351
 50
239.73026269141371
 51
228.2608295228726
  0
ARC
  5
15B
  8
DATA
  6
CONTINUOUS
 62
     7
 10
791.54336701164812
 20
222.71864201927841
 30
0.0
 40
15.000000000052969
 50
245.53695903275849
 51
222.4630409672217
  0
ARC
  5
15C
  8
DATA
  6
CONTINUOUS
 62
     7
 10
785.71762664527057
 20
267.7415334099868
 30
0.0
 40
3.00000000000284
 50
21.61198453550028
 51
206.38801546441431
  0
ARC
  5
15D
  8
DATA
  6
CONTINUOUS
 62
     7
 10
771.23553399848709
 20
256.0141660173781
 30
0.0
 40
2.9999999999987521
 50
51.61198453558476
 51
236.38801546443511
  0
ARC
  5
15E
  8
DATA
  6
CONTINUOUS
 62
     7
 10
764.55735756271395
 20
238.61692161247311
 30
0.0
 40
2.9999999999975202
 50
81.611984535581826
 51
266.3880154644167
  0
ARC
  5
15F
  8
DATA
  6
CONTINUOUS
 62
     7
 10
767.47250932083546
 20
220.21137778409269
 30
0.0
 40
3.0000000000013078
 50
111.6119845355679
 51
296.38801546445887
  0
ARC
  5
160
  8
DATA
  6
CONTINUOUS
 62
     7
 10
779.1998767134404
 20
205.7292851373077
 30
0.0
 40
2.9999999999986589
 50
144.00000000006671
 51
324.00000000004508
  0
ARC
  5
161
  8
DATA
  6
CONTINUOUS
 62
     7
 10
796.59712111835051
 20
199.05110870153609
 30
0.0
 40
2.9999999999994662
 50
171.6119845355083
 51
356.38801546446467
  0
ARC
  5
162
  8
DATA
  6
CONTINUOUS
 62
     7
 10
815.00266494672269
 20
201.9662604596588
 30
0.0
 40
3.0000000000038449
 50
201.6119845355488
 51
26.388015464390971
  0
ARC
  5
163
  8
DATA
  6
CONTINUOUS
 62
     7
 10
829.48475759351186
 20
213.6936278522648
 30
0.0
 40
2.9999999999989342
 50
231.6119845354545
 51
56.388015464433863
  0
ARC
  5
164
  8
DATA
  6
CONTINUOUS
 62
     7
 10
836.16293402927931
 20
231.09087225717121
 30
0.0
 40
3.000000000000218
 50
261.61198453558939
 51
86.388015464419922
  0
ARC
  5
165
  8
DATA
  6
CONTINUOUS
 62
     7
 10
833.2477822711636
 20
249.49641608555021
 30
0.0
 40
2.9999999999980309
 50
291.61198453548059
 51
116.3880154644508
  0
ARC
  5
166
  8
DATA
  6
CONTINUOUS
 62
     7
 10
821.52041487855342
 20
263.97850873233529
 30
0.0
 40
3.0000000000047242
 50
321.6119845356086
 51
146.3880154644277
  0
LINE
  5
167
  8
DATA
  6
CONTINUOUS
 62
     7
 10
800.36782338211492
 20
-281.14610306468199
 30
0.0
 11
710.36026866853092
 21
-281.14610306468199
 31
0.0
  0
LINE
  5
168
  8
DATA
  6
CONTINUOUS
 62
     7
 10
830.36782338211481
 20
-221.14786056468211
 30
0.0
 11
830.36782338211481
 21
-251.14610306468199
 31
0.0
  0
LINE
  5
169
  8
DATA
  6
CONTINUOUS
 62
     7
 10
860.36782338211492
 20
-191.14786056468199
 30
0.0
 11
868.76014579271487
 21
-191.14786056468199
 31
0.0
  0
LINE
  5
16A
  8
DATA
  6
CONTINUOUS
 62
     7
 10
868.76014579271487
 20
387.85389693531812
 30
0.0
 11
761.36014588211322
 21
387.85389693531812
 31
0.0
  0
ARC
  5
16B
  8
DATA
  6
CONTINUOUS
 62
     7
 10
868.76014579271487
 20
357.85389693531812
 30
0.0
 40
30.0
 50
0.0
 51
90.0
  0
ARC
  5
16C
  8
DATA
  6
CONTINUOUS
 62
     7
 10
868.76014579271487
 20
-161.14786056468211
 30
0.0
 40
30.0
 50
270.0
 51
0.0
  0
ARC
  5
16D
  8
DATA
  6
CONTINUOUS
 62
     7
 10
860.36782338211492
 20
-221.14786056468211
 30
0.0
 40
30.0
 50
90.0
 51
180.0
  0
ARC
  5
16E
  8
DATA
  6
CONTINUOUS
 62
     7
 10
800.36782338211492
 20
-251.14610306468199
 30
0.0
 40
30.0
 50
270.0
 51
0.0
  0
LINE
  5
16F
  8
DATA
  6
CONTINUOUS
 62
     7
 10
395.3601457963133
 20
-313.74664635271608
 30
0.0
 11
395.3601457963133
 21
711.2533536472838
 31
0.0
  0
LINE
  5
170
  8
DATA
  6
CONTINUOUS
 62
     7
 10
1205.360145796313
 20
738.55439121194172
 30
0.0
 11
1205.360145796313
 21
-286.44560878805828
 31
0.0
  0
CIRCLE
  5
171
  8
DATA
  6
CONTINUOUS
 62
     7
 10
968.36014579180562
 20
-35.146103064681938
 30
0.0
 40
9.8999999990155612
  0
CIRCLE
  5
172
  8
DATA
  6
CONTINUOUS
 62
     7
 10
1022.360145786414
 20
-35.146103064681938
 30
0.0
 40
9.8999999990045353
  0
CIRCLE
  5
173
  8
DATA
  6
CONTINUOUS
 62
     7
 10
995.36014578911011
 20
-35.146103064681938
 30
0.0
 40
71.999999992799999
  0
CIRCLE
  5
174
  8
DATA
  6
CONTINUOUS
 62
     7
 10
1052.3447907834091
 20
-107.1461030574815
 30
0.0
 40
15.0
  0
LINE
  5
175
  8
DATA
  6
CONTINUOUS
 62
     7
 10
1043.329435783407
 20
-107.1461030574815
 30
0.0
 11
1061.329435783407
 21
-107.1461030574815
 31
0.0
  0
LINE
  5
176
  8
DATA
  6
CONTINUOUS
 62
     7
 10
1052.3447907834091
 20
-98.139073057483543
 30
0.0
 11
1052.3447907834091
 21
-116.1390730574835
 31
0.0
  0
CIRCLE
  5
177
  8
DATA
  6
CONTINUOUS
 62
     7
 10
938.37550079481025
 20
36.853896928117592
 30
0.0
 40
15.0
  0
LINE
  5
178
  8
DATA
  6
CONTINUOUS
 62
     7
 10
929.36014579480741
 20
36.853896928117592
 30
0.0
 11
947.36014579480741
 21
36.853896928117592
 31
0.0
  0
LINE
  5
179
  8
DATA
  6
CONTINUOUS
 62
     7
 10
938.37550079481025
 20
45.860926928118261
 30
0.0
 11
938.37550079481025
 21
27.860926928118261
 31
0.0
  0
CIRCLE
  5
17A
  8
DATA
  6
CONTINUOUS
 62
     7
 10
995.36014578911011
 20
-35.146103064681938
 30
0.0
 40
58.500000094089359
  0
CIRCLE
  5
17B
  8
DATA
  6
CONTINUOUS
 62
     7
 10
995.36014578911011
 20
-11.44610306705135
 30
0.0
 40
9.8999999990046472
  0
CIRCLE
  5
17C
  8
DATA
  6
CONTINUOUS
 62
     7
 10
800.3601457963133
 20
-35.146103064681938
 30
0.0
 40
47.39999911425592
  0
CIRCLE
  5
17D
  8
DATA
  6
CONTINUOUS
 62
     7
 10
800.3601457963133
 20
-35.146103064681938
 30
0.0
 40
58.499999994151111
  0
CIRCLE
  5
17E
  8
DATA
  6
CONTINUOUS
 62
     7
 10
800.3601457963133
 20
-35.146103064681938
 30
0.0
 40
71.99999999280125
  0
LINE
  5
17F
  8
DATA
  6
CONTINUOUS
 62
     7
 10
814.76014579487025
 20
10.013613493243151
 30
0.0
 11
814.76014579487025
 21
10.013612568535329
 31
0.0
  0
LINE
  5
180
  8
DATA
  6
CONTINUOUS
 62
     7
 10
783.26014579801893
 20
9.0619269308967851
 30
0.0
 11
783.26014579801893
 21
9.0619259862819472
 31
0.0
  0
ARC
  5
181
  8
DATA
  6
CONTINUOUS
 62
     7
 10
773.36014579900893
 20
-35.146103064681938
 30
0.0
 40
11.99999999880057
 50
32.089183874050867
 51
327.91081612594922
  0
ARC
  5
182
  8
DATA
  6
CONTINUOUS
 62
     7
 10
827.36014579361199
 20
-35.146103064681938
 30
0.0
 40
11.99999999880057
 50
212.0891838740508
 51
147.91081612594911
  0
ARC
  5
183
  8
DATA
  6
CONTINUOUS
 62
     7
 10
800.3601457963133
 20
-58.846103062315251
 30
0.0
 40
11.99999999880462
 50
137.8522840898888
 51
42.147715910128809
  0
ARC
  5
184
  8
DATA
  6
CONTINUOUS
 62
     7
 10
767.69181179957479
 20
-2.4777710679495608
 30
0.0
 40
4.7999999995242639
 50
56.612913999968789
 51
213.38708600002141
  0
ARC
  5
185
  8
DATA
  6
CONTINUOUS
 62
     7
 10
800.3601457963133
 20
-35.146103064681938
 30
0.0
 40
17.999999999998462
 50
20.741916485081301
 51
159.25808351492489
  0
ARC
  5
186
  8
DATA
  6
CONTINUOUS
 62
     7
 10
800.3601457963133
 20
-35.146103064681938
 30
0.0
 40
18.00000000000357
 50
200.74191648507511
 51
240.37783679919141
  0
ARC
  5
187
  8
DATA
  6
CONTINUOUS
 62
     7
 10
800.3601457963133
 20
-35.146103064681938
 30
0.0
 40
17.999999999997851
 50
299.6221632007933
 51
339.25808351491889
  0
CIRCLE
  5
188
  8
DATA
  6
CONTINUOUS
 62
     7
 10
857.36014579061066
 20
-107.1461030574815
 30
0.0
 40
15.0
  0
LINE
  5
189
  8
DATA
  6
CONTINUOUS
 62
     7
 10
848.34479079061282
 20
-107.1461030574815
 30
0.0
 11
866.34479079061305
 21
-107.1461030574815
 31
0.0
  0
LINE
  5
18A
  8
DATA
  6
CONTINUOUS
 62
     7
 10
857.36014579061066
 20
-98.139073057483543
 30
0.0
 11
857.36014579061066
 21
-116.1390730574835
 31
0.0
  0
CIRCLE
  5
18B
  8
DATA
  6
CONTINUOUS
 62
     7
 10
743.34479080201265
 20
36.860926928118261
 30
0.0
 40
15.0
  0
LINE
  5
18C
  8
DATA
  6
CONTINUOUS
 62
     7
 10
734.32943580201493
 20
36.860926928118261
 30
0.0
 11
752.32943580201493
 21
36.860926928118261
 31
0.0
  0
LINE
  5
18D
  8
DATA
  6
CONTINUOUS
 62
     7
 10
743.34479080201265
 20
45.8679569281162
 30
0.0
 11
743.34479080201265
 21
27.8679569281162
 31
0.0
  0
LINE
  5
18E
  8
DATA
  6
CONTINUOUS
 62
     7
 10
785.96014579775056
 20
21.553896929647181
 30
0.0
 11
785.96014579775056
 21
35.076329241266649
 31
0.0
  0
LINE
  5
18F
  8
DATA
  6
CONTINUOUS
 62
     7
 10
814.76014579487025
 20
21.553896929648548
 30
0.0
 11
814.76014579487025
 21
35.076329241266649
 31
0.0
  0
CIRCLE
  5
190
  8
DATA
  6
CONTINUOUS
 62
     7
 10
590.3678232963149
 20
-35.149618064682272
 30
0.0
 40
47.39999911425592
  0
CIRCLE
  5
191
  8
DATA
  6
CONTINUOUS
 62
     7
 10
590.3678232963149
 20
-35.149618064682272
 30
0.0
 40
58.499999994151111
  0
CIRCLE
  5
192
  8
DATA
  6
CONTINUOUS
 62
     7
 10
590.3678232963149
 20
-35.149618064682272
 30
0.0
 40
71.99999999280125
  0
LINE
  5
193
  8
DATA
  6
CONTINUOUS
 62
     7
 10
604.76782329487207
 20
10.01009849324282
 30
0.0
 11
604.76782329487207
 21
10.010097568535
 31
0.0
  0
LINE
  5
194
  8
DATA
  6
CONTINUOUS
 62
     7
 10
573.26782329802074
 20
9.0584119308964546
 30
0.0
 11
573.26782329802074
 21
9.0584109862816167
 31
0.0
  0
ARC
  5
195
  8
DATA
  6
CONTINUOUS
 62
     7
 10
563.36782329901052
 20
-35.149618064682272
 30
0.0
 40
11.99999999880057
 50
32.089183874050867
 51
327.91081612594922
  0
ARC
  5
196
  8
DATA
  6
CONTINUOUS
 62
     7
 10
617.36782329361358
 20
-35.149618064682272
 30
0.0
 40
11.99999999880057
 50
212.0891838740508
 51
147.91081612594911
  0
ARC
  5
197
  8
DATA
  6
CONTINUOUS
 62
     7
 10
590.3678232963149
 20
-58.849618062315599
 30
0.0
 40
11.99999999880462
 50
137.8522840898888
 51
42.147715910128809
  0
ARC
  5
198
  8
DATA
  6
CONTINUOUS
 62
     7
 10
557.69948929957627
 20
-2.4812860679498949
 30
0.0
 40
4.7999999995242639
 50
56.612913999968789
 51
213.38708600002141
  0
ARC
  5
199
  8
DATA
  6
CONTINUOUS
 62
     7
 10
590.3678232963149
 20
-35.149618064682272
 30
0.0
 40
17.999999999998462
 50
20.741916485081301
 51
159.25808351492489
  0
ARC
  5
19A
  8
DATA
  6
CONTINUOUS
 62
     7
 10
590.3678232963149
 20
-35.149618064682272
 30
0.0
 40
18.00000000000357
 50
200.74191648507511
 51
240.37783679919201
  0
ARC
  5
19B
  8
DATA
  6
CONTINUOUS
 62
     7
 10
590.3678232963149
 20
-35.149618064682272
 30
0.0
 40
17.999999999997851
 50
299.6221632007933
 51
339.25808351491889
  0
CIRCLE
  5
19C
  8
DATA
  6
CONTINUOUS
 62
     7
 10
647.36782329061236
 20
-107.1496180574818
 30
0.0
 40
15.0
  0
LINE
  5
19D
  8
DATA
  6
CONTINUOUS
 62
     7
 10
638.35246829061452
 20
-107.1496180574818
 30
0.0
 11
656.35246829061452
 21
-107.1496180574818
 31
0.0
  0
LINE
  5
19E
  8
DATA
  6
CONTINUOUS
 62
     7
 10
647.36782329061236
 20
-98.142588057483863
 30
0.0
 11
647.36782329061236
 21
-116.14258805748381
 31
0.0
  0
CIRCLE
  5
19F
  8
DATA
  6
CONTINUOUS
 62
     7
 10
533.35246830201424
 20
36.857411928117934
 30
0.0
 40
15.0
  0
LINE
  5
1A0
  8
DATA
  6
CONTINUOUS
 62
     7
 10
524.33711330201652
 20
36.857411928117934
 30
0.0
 11
542.33711330201652
 21
36.857411928117934
 31
0.0
  0
LINE
  5
1A1
  8
DATA
  6
CONTINUOUS
 62
     7
 10
533.35246830201424
 20
45.864441928115859
 30
0.0
 11
533.35246830201424
 21
27.86444192811587
 31
0.0
  0
LINE
  5
1A2
  8
DATA
  6
CONTINUOUS
 62
     7
 10
575.96782329775215
 20
21.55038192964685
 30
0.0
 11
575.96782329775215
 21
35.072814241266308
 31
0.0
  0
LINE
  5
1A3
  8
DATA
  6
CONTINUOUS
 62
     7
 10
604.76782329487207
 20
21.550381929648211
 30
0.0
 11
604.76782329487207
 21
35.072814241266308
 31
0.0
  0
CIRCLE
  5
1A4
  8
DATA
  6
CONTINUOUS
 62
     7
 10
740.36770050989162
 20
-191.14786056468199
 30
0.0
 40
10.5
  0
CIRCLE
  5
1A5
  8
DATA
  6
CONTINUOUS
 62
     7
 10
740.36770050989162
 20
-191.14786056468199
 30
0.0
 40
18.0
  0
CIRCLE
  5
1A6
  8
DATA
  6
CONTINUOUS
 62
     7
 10
740.36770050989162
 20
-191.14786056468199
 30
0.0
 40
23.999999999998991
  0
CIRCLE
  5
1A7
  8
DATA
  6
CONTINUOUS
 62
     7
 10
740.36770050989162
 20
-191.14786056468199
 30
0.0
 40
30.000000000003009
  0
CIRCLE
  5
1A8
  8
DATA
  6
CONTINUOUS
 62
     7
 10
650.36770050989162
 20
-191.14786056468199
 30
0.0
 40
10.5
  0
CIRCLE
  5
1A9
  8
DATA
  6
CONTINUOUS
 62
     7
 10
650.36770050989162
 20
-191.14786056468199
 30
0.0
 40
18.0
  0
CIRCLE
  5
1AA
  8
DATA
  6
CONTINUOUS
 62
     7
 10
650.36770050989162
 20
-191.14786056468199
 30
0.0
 40
23.999999999998991
  0
CIRCLE
  5
1AB
  8
DATA
  6
CONTINUOUS
 62
     7
 10
650.36770050989162
 20
-191.14786056468199
 30
0.0
 40
29.999999999997861
  0
CIRCLE
  5
1AC
  8
DATA
  6
CONTINUOUS
 62
     7
 10
590.3678232963149
 20
138.85389693531801
 30
0.0
 40
15.00000000000005
  0
CIRCLE
  5
1AD
  8
DATA
  6
CONTINUOUS
 62
     7
 10
800.3601457963133
 20
138.85389693531801
 30
0.0
 40
15.00000000000005
  0
CIRCLE
  5
1AE
  8
DATA
  6
CONTINUOUS
 62
     7
 10
590.3678232963149
 20
318.85389693531812
 30
0.0
 40
9.0
  0
CIRCLE
  5
1AF
  8
DATA
  6
CONTINUOUS
 62
     7
 10
695.3639845463141
 20
318.85389693531812
 30
0.0
 40
9.0
  0
CIRCLE
  5
1B0
  8
DATA
  6
CONTINUOUS
 62
     7
 10
800.3601457963133
 20
318.85389693531812
 30
0.0
 40
8.9999999999991172
  0
CIRCLE
  5
1B1
  8
DATA
  6
CONTINUOUS
 62
     7
 10
671.36014579631319
 20
138.85389693531801
 30
0.0
 40
9.0000000000019202
  0
CIRCLE
  5
1B2
  8
DATA
  6
CONTINUOUS
 62
     7
 10
590.3678232963149
 20
468.85389693531812
 30
0.0
 40
23.999999999999989
  0
CIRCLE
  5
1B3
  8
DATA
  6
CONTINUOUS
 62
     7
 10
590.3678232963149
 20
546.85389693531795
 30
0.0
 40
12.003514999999441
  0
LINE
  5
1B4
  8
DATA
  6
CONTINUOUS
 62
     7
 10
962.36014578911011
 20
246.85389693531809
 30
0.0
 11
962.36014578911011
 21
276.85389693531812
 31
0.0
  0
LINE
  5
1B5
  8
DATA
  6
CONTINUOUS
 62
     7
 10
1028.36014578911
 20
246.85389693531809
 30
0.0
 11
962.36014578911011
 21
246.85389693531809
 31
0.0
  0
LINE
  5
1B6
  8
DATA
  6
CONTINUOUS
 62
     7
 10
1028.36014578911
 20
276.85389693531812
 30
0.0
 11
1028.36014578911
 21
246.85389693531809
 31
0.0
  0
LINE
  5
1B7
  8
DATA
  6
CONTINUOUS
 62
     7
 10
962.36014578911011
 20
276.85389693531812
 30
0.0
 11
1028.36014578911
 21
276.85389693531812
 31
0.0
  0
LINE
  5
1B8
  8
DATA
  6
CONTINUOUS
 62
     7
 10
980.36014578911011
 20
249.85389693531809
 30
0.0
 11
980.36014578911011
 21
273.85389693531812
 31
0.0
  0
LINE
  5
1B9
  8
DATA
  6
CONTINUOUS
 62
     7
 10
1010.36014578911
 20
249.85389693531809
 30
0.0
 11
980.36014578911011
 21
249.85389693531809
 31
0.0
  0
LINE
  5
1BA
  8
DATA
  6
CONTINUOUS
 62
     7
 10
1010.36014578911
 20
273.85389693531812
 30
0.0
 11
1010.36014578911
 21
249.85389693531809
 31
0.0
  0
LINE
  5
1BB
  8
DATA
  6
CONTINUOUS
 62
     7
 10
980.36014578911011
 20
273.85389693531812
 30
0.0
 11
1010.36014578911
 21
273.85389693531812
 31
0.0
  0
LINE
  5
1BC
  8
DATA
  6
CONTINUOUS
 62
     7
 10
962.36014578911011
 20
144.85389693531801
 30
0.0
 11
962.36014578911011
 21
174.85389693531801
 31
0.0
  0
LINE
  5
1BD
  8
DATA
  6
CONTINUOUS
 62
     7
 10
1028.36014578911
 20
144.85389693531801
 30
0.0
 11
962.36014578911011
 21
144.85389693531801
 31
0.0
  0
LINE
  5
1BE
  8
DATA
  6
CONTINUOUS
 62
     7
 10
1028.36014578911
 20
174.85389693531801
 30
0.0
 11
1028.36014578911
 21
144.85389693531801
 31
0.0
  0
LINE
  5
1BF
  8
DATA
  6
CONTINUOUS
 62
     7
 10
962.36014578911011
 20
174.85389693531801
 30
0.0
 11
1028.36014578911
 21
174.85389693531801
 31
0.0
  0
LINE
  5
1C0
  8
DATA
  6
CONTINUOUS
 62
     7
 10
980.36014578911011
 20
147.85389693531809
 30
0.0
 11
980.36014578911011
 21
171.85389693531801
 31
0.0
  0
LINE
  5
1C1
  8
DATA
  6
CONTINUOUS
 62
     7
 10
1010.36014578911
 20
147.85389693531809
 30
0.0
 11
980.36014578911011
 21
147.85389693531809
 31
0.0
  0
LINE
  5
1C2
  8
DATA
  6
CONTINUOUS
 62
     7
 10
1010.36014578911
 20
171.85389693531801
 30
0.0
 11
1010.36014578911
 21
147.85389693531809
 31
0.0
  0
LINE
  5
1C3
  8
DATA
  6
CONTINUOUS
 62
     7
 10
980.36014578911011
 20
171.85389693531801
 30
0.0
 11
1010.36014578911
 21
171.85389693531801
 31
0.0
  0
CIRCLE
  5
1C4
  8
DATA
  6
CONTINUOUS
 62
     7
 10
1067.360145796313
 20
468.85389693531812
 30
0.0
 40
23.999999999999989
  0
CIRCLE
  5
1C5
  8
DATA
  6
CONTINUOUS
 62
     7
 10
1067.360145796313
 20
546.85389693531795
 30
0.0
 40
12.003514999999441
  0
TEXT
  5
1C6
  8
DATA
 62
     7
 10
658.30784852150305
 20
55.516103334368161
 30
0.0
 40
24.4326171875
  1
INPUT
 41
0.7
 72
     1
 11
695.36398458921133
 21
67.732411928118154
 31
0.0
 73
     2
  0
LINE
  5
1C7
  8
DATA
  6
CONTINUOUS
 62
     7
 10
590.3601457963133
 20
-281.14610306468199
 30
0.0
 11
680.36770050989162
 21
-281.14610306468199
 31
0.0
  0
LINE
  5
1C8
  8
DATA
  6
CONTINUOUS
 62
     7
 10
560.3601457963133
 20
-221.14786056468211
 30
0.0
 11
560.3601457963133
 21
-251.14610306468199
 31
0.0
  0
LINE
  5
1C9
  8
DATA
  6
CONTINUOUS
 62
     7
 10
530.36014579631319
 20
-191.14786056468199
 30
0.0
 11
521.96782338571313
 21
-191.14786056468199
 31
0.0
  0
TEXT
  5
1CA
  8
DATA
 62
     7
 10
964.00495373181843
 20
55.516103334368161
 30
0.0
 40
24.4326171875
  1
THRU
 41
0.7
 72
     1
 11
995.36014578911011
 21
67.732411928118154
 31
0.0
 73
     2
  0
CIRCLE
  5
1CB
  8
DATA
  6
CONTINUOUS
 62
     7
 10
695.3793395892144
 20
-146.74610306468139
 30
0.0
 40
15.0
  0
LINE
  5
1CC
  8
DATA
  6
CONTINUOUS
 62
     7
 10
686.36398458921133
 20
-146.74610306468139
 30
0.0
 11
704.36398458921133
 21
-146.74610306468139
 31
0.0
  0
LINE
  5
1CD
  8
DATA
  6
CONTINUOUS
 62
     7
 10
695.3793395892144
 20
-137.7390730646834
 30
0.0
 11
695.3793395892144
 21
-155.7390730646834
 31
0.0
  0
LINE
  5
1CE
  8
DATA
  6
CONTINUOUS
 62
     7
 10
521.96782338571313
 20
387.85389693531812
 30
0.0
 11
629.3678232963149
 21
387.85389693531812
 31
0.0
  0
ARC
  5
1CF
  8
DATA
  6
CONTINUOUS
 62
     7
 10
521.96782338571313
 20
357.85389693531812
 30
0.0
 40
30.0
 50
90.0
 51
180.0
  0
ARC
  5
1D0
  8
DATA
  6
CONTINUOUS
 62
     7
 10
521.96782338571313
 20
-161.14786056468211
 30
0.0
 40
30.0
 50
180.0
 51
270.0
  0
ARC
  5
1D1
  8
DATA
  6
CONTINUOUS
 62
     7
 10
530.36014579631319
 20
-221.14786056468211
 30
0.0
 40
30.0
 50
0.0
 51
90.0
  0
ARC
  5
1D2
  8
DATA
  6
CONTINUOUS
 62
     7
 10
590.3601457963133
 20
-251.14610306468199
 30
0.0
 40
30.0
 50
180.0
 51
270.0
  0
TEXT
  5
1D3
  8
DATA
 62
     7
 10
666.85926453712796
 20
222.63758834156809
 30
0.0
 40
24.4326171875
  1
GAIN
 41
0.7
 72
     1
 11
695.36398458921133
 21
234.85389693531809
 31
0.0
 73
     2
  0
CIRCLE
  5
1D4
  8
DATA
  6
CONTINUOUS
 62
     7
 10
590.3678232963149
 20
234.85389693531809
 30
0.0
 40
38.999999999996291
  0
LINE
  5
1D5
  8
DATA
  6
CONTINUOUS
 62
     7
 10
613.29144813572475
 20
203.30223415468939
 30
0.0
 11
625.63493843386186
 21
186.31287727281821
 31
0.0
  0
LINE
  5
1D6
  8
DATA
  6
CONTINUOUS
 62
     7
 10
627.4590274318299
 20
246.90555971594131
 30
0.0
 11
647.43121427402104
 21
253.39491659781521
 31
0.0
  0
LINE
  5
1D7
  8
DATA
  6
CONTINUOUS
 62
     7
 10
590.3678232963149
 20
273.85389693531812
 30
0.0
 11
590.3678232963149
 21
294.85389693531801
 31
0.0
  0
LINE
  5
1D8
  8
DATA
  6
CONTINUOUS
 62
     7
 10
553.2766191607999
 20
246.90555971594131
 30
0.0
 11
533.30443231860875
 21
253.39491659781521
 31
0.0
  0
LINE
  5
1D9
  8
DATA
  6
CONTINUOUS
 62
     7
 10
567.44419846012988
 20
203.3022341591477
 30
0.0
 11
555.10070815876782
 21
186.31287727282361
 31
0.0
  0
LINE
  5
1DA
  8
DATA
  6
CONTINUOUS
 62
     7
 10
575.33945181634135
 20
209.0652132860746
 30
0.0
 11
571.7082063558347
 21
204.06723268544189
 31
0.0
  0
LINE
  5
1DB
  8
DATA
  6
CONTINUOUS
 62
     7
 10
587.94077231348365
 20
236.6172526926612
 30
0.0
 11
587.7626372075257
 21
236.37207075342349
 31
0.0
  0
LINE
  5
1DC
  8
DATA
  6
CONTINUOUS
 62
     7
 10
570.48534985008985
 20
212.59192479982491
 30
0.0
 11
566.85410438958843
 21
207.59394419919909
 31
0.0
  0
LINE
  5
1DD
  8
DATA
  6
CONTINUOUS
 62
     7
 10
551.96032092883706
 20
241.62617586432771
 30
0.0
 11
543.09705115172892
 21
243.1890094633309
 31
0.0
  0
LINE
  5
1DE
  8
DATA
  6
CONTINUOUS
 62
     7
 10
551.39158104257058
 20
236.2149773067153
 30
0.0
 11
542.39706359940021
 21
236.52907277703841
 31
0.0
  0
LINE
  5
1DF
  8
DATA
  6
CONTINUOUS
 62
     7
 10
551.5814693769471
 20
230.77728686787941
 30
0.0
 11
542.63077231863747
 21
229.8365306984706
 31
0.0
  0
LINE
  5
1E0
  8
DATA
  6
CONTINUOUS
 62
     7
 10
552.52628997154989
 20
225.4189430069305
 30
0.0
 11
543.79362843506988
 21
223.24164594653439
 31
0.0
  0
LINE
  5
1E1
  8
DATA
  6
CONTINUOUS
 62
     7
 10
554.20765296820639
 20
220.2442397920949
 30
0.0
 11
545.86299827711366
 21
216.8727804513546
 31
0.0
  0
LINE
  5
1E2
  8
DATA
  6
CONTINUOUS
 62
     7
 10
556.59283254872491
 20
215.35389693532079
 30
0.0
 11
548.79860391466275
 21
210.85389693531809
 31
0.0
  0
LINE
  5
1E3
  8
DATA
  6
CONTINUOUS
 62
     7
 10
559.63540390565424
 20
210.8430993976194
 30
0.0
 11
552.54330712319745
 21
205.3021461196868
 31
0.0
  0
LINE
  5
1E4
  8
DATA
  6
CONTINUOUS
 62
     7
 10
563.27614684841035
 20
206.79964472211029
 30
0.0
 11
557.02422151428709
 21
200.32558651906311
 31
0.0
  0
LINE
  5
1E5
  8
DATA
  6
CONTINUOUS
 62
     7
 10
617.45949974421364
 20
206.79964472211299
 30
0.0
 11
623.71142507834804
 21
200.3255865190618
 31
0.0
  0
LINE
  5
1E6
  8
DATA
  6
CONTINUOUS
 62
     7
 10
621.10024268697566
 20
210.8430993976194
 30
0.0
 11
628.19233946943757
 21
205.3021461196881
 31
0.0
  0
LINE
  5
1E7
  8
DATA
  6
CONTINUOUS
 62
     7
 10
624.14281404391033
 20
215.3538969353153
 30
0.0
 11
631.9370426779725
 21
210.85389693531809
 31
0.0
  0
LINE
  5
1E8
  8
DATA
  6
CONTINUOUS
 62
     7
 10
626.52799362442329
 20
220.24423979209629
 30
0.0
 11
634.87264831552693
 21
216.87278045135329
 31
0.0
  0
LINE
  5
1E9
  8
DATA
  6
CONTINUOUS
 62
     7
 10
628.20935662107968
 20
225.41894300692769
 30
0.0
 11
636.94201815755969
 21
223.24164594653439
 31
0.0
  0
LINE
  5
1EA
  8
DATA
  6
CONTINUOUS
 62
     7
 10
629.15417721567712
 20
230.77728686787799
 30
0.0
 11
638.10487427399244
 21
229.83653069847199
 31
0.0
  0
LINE
  5
1EB
  8
DATA
  6
CONTINUOUS
 62
     7
 10
629.3440655500591
 20
236.21497730671811
 30
0.0
 11
638.33858299323504
 21
236.52907277703841
 31
0.0
  0
LINE
  5
1EC
  8
DATA
  6
CONTINUOUS
 62
     7
 10
628.77532566379261
 20
241.6261758643291
 30
0.0
 11
637.63859544089507
 21
243.18900946332951
 31
0.0
  0
LINE
  5
1ED
  8
DATA
  6
CONTINUOUS
 62
     7
 10
625.42079110198495
 20
251.95037166009161
 30
0.0
 11
633.50993751867384
 21
255.89571198119259
 31
0.0
  0
LINE
  5
1EE
  8
DATA
  6
CONTINUOUS
 62
     7
 10
622.70028862596439
 20
256.66242017068049
 30
0.0
 11
630.16162677895318
 21
261.69515630191239
 31
0.0
  0
LINE
  5
1EF
  8
DATA
  6
CONTINUOUS
 62
     7
 10
619.35047148993999
 20
260.94999058331399
 30
0.0
 11
626.0387749192314
 21
266.97216604054353
 31
0.0
  0
LINE
  5
1F0
  8
DATA
  6
CONTINUOUS
 62
     7
 10
615.43654007409259
 20
264.72963021695648
 30
0.0
 11
621.22162856127125
 21
271.62403020503137
 31
0.0
  0
LINE
  5
1F1
  8
DATA
  6
CONTINUOUS
 62
     7
 10
611.03467460141565
 20
267.92777268541931
 30
0.0
 11
615.80394797950726
 21
275.56020555082478
 31
0.0
  0
LINE
  5
1F2
  8
DATA
  6
CONTINUOUS
 62
     7
 10
606.2305523762725
 20
270.4821697833745
 30
0.0
 11
609.89118216395127
 21
278.70407890216347
 31
0.0
  0
LINE
  5
1F3
  8
DATA
  6
CONTINUOUS
 62
     7
 10
601.11768017317536
 20
272.34310307691197
 30
0.0
 11
603.59841637553211
 21
280.99445834035532
 31
0.0
  0
LINE
  5
1F4
  8
DATA
  6
CONTINUOUS
 62
     7
 10
595.79557423375718
 20
273.47435161623838
 30
0.0
 11
597.04813214239846
 21
282.38676423490728
 31
0.0
  0
LINE
  5
1F5
  8
DATA
  6
CONTINUOUS
 62
     7
 10
584.94007235887807
 20
273.47435161620569
 30
0.0
 11
583.68751445023111
 21
282.38676423491279
 31
0.0
  0
LINE
  5
1F6
  8
DATA
  6
CONTINUOUS
 62
     7
 10
579.61796641944886
 20
272.34310307691737
 30
0.0
 11
577.13723021709757
 21
280.99445834035248
 31
0.0
  0
LINE
  5
1F7
  8
DATA
  6
CONTINUOUS
 62
     7
 10
574.50509421635718
 20
270.48216978338269
 30
0.0
 11
570.84446442867295
 21
278.70407890216069
 31
0.0
  0
LINE
  5
1F8
  8
DATA
  6
CONTINUOUS
 62
     7
 10
569.70097199122495
 20
267.92777268541931
 30
0.0
 11
564.93169861311719
 21
275.56020555083029
 31
0.0
  0
LINE
  5
1F9
  8
DATA
  6
CONTINUOUS
 62
     7
 10
565.29910651854243
 20
264.72963021695932
 30
0.0
 11
559.51401803135832
 21
271.6240302050287
 31
0.0
  0
LINE
  5
1FA
  8
DATA
  6
CONTINUOUS
 62
     7
 10
561.3851751027006
 20
260.94999058331399
 30
0.0
 11
554.69687167339816
 21
266.97216604054353
 31
0.0
  0
LINE
  5
1FB
  8
DATA
  6
CONTINUOUS
 62
     7
 10
558.03535796666529
 20
256.66242017067498
 30
0.0
 11
550.57401981367104
 21
261.69515630191239
 31
0.0
  0
LINE
  5
1FC
  8
DATA
  6
CONTINUOUS
 62
     7
 10
555.31485549064485
 20
251.95037166009161
 30
0.0
 11
547.2257090739613
 21
255.89571198118981
 31
0.0
  0
ARC
  5
1FD
  8
DATA
  6
CONTINUOUS
 62
     7
 10
594.13084797395015
 20
270.65668516857482
 30
0.0
 40
2.999999999994067
 50
351.61198453549321
 51
176.38801546444509
  0
ARC
  5
1FE
  8
DATA
  6
CONTINUOUS
 62
     7
 10
590.36782329629295
 20
234.85389693528941
 30
0.0
 40
35.999999999964977
 50
238.7801918471763
 51
229.21980815277081
  0
ARC
  5
1FF
  8
DATA
  6
CONTINUOUS
 62
     7
 10
590.36782329660969
 20
234.8538969357846
 30
0.0
 40
30.000000000553172
 50
239.73026269141241
 51
228.26082952287081
  0
ARC
  5
200
  8
DATA
  6
CONTINUOUS
 62
     7
 10
581.5510445119445
 20
222.71864201974631
 30
0.0
 40
15.000000000054211
 50
245.53695903276059
 51
222.4630409672256
  0
ARC
  5
201
  8
DATA
  6
CONTINUOUS
 62
     7
 10
575.72530414556695
 20
267.74153341045479
 30
0.0
 40
3.00000000000284
 50
21.61198453550028
 51
206.3880154644375
  0
ARC
  5
202
  8
DATA
  6
CONTINUOUS
 62
     7
 10
561.24321149878335
 20
256.01416601784609
 30
0.0
 40
2.9999999999976832
 50
51.611984535568602
 51
236.3880154644483
  0
ARC
  5
203
  8
DATA
  6
CONTINUOUS
 62
     7
 10
554.56503506301044
 20
238.61692161294101
 30
0.0
 40
2.9999999999975202
 50
81.611984535581826
 51
266.3880154644167
  0
ARC
  5
204
  8
DATA
  6
CONTINUOUS
 62
     7
 10
557.48018682113161
 20
220.21137778456071
 30
0.0
 40
3.0000000000013078
 50
111.6119845355679
 51
296.3880154644491
  0
ARC
  5
205
  8
DATA
  6
CONTINUOUS
 62
     7
 10
569.20755421373644
 20
205.72928513777561
 30
0.0
 40
2.9999999999978568
 50
144.00000000008771
 51
324.00000000002518
  0
ARC
  5
206
  8
DATA
  6
CONTINUOUS
 62
     7
 10
586.6047986186469
 20
199.05110870200409
 30
0.0
 40
2.9999999999994662
 50
171.6119845355083
 51
356.38801546443852
  0
ARC
  5
207
  8
DATA
  6
CONTINUOUS
 62
     7
 10
605.01034244701896
 20
201.96626046012531
 30
0.0
 40
3.0000000000033431
 50
201.6119845355245
 51
26.388015464390921
  0
ARC
  5
208
  8
DATA
  6
CONTINUOUS
 62
     7
 10
619.49243509380813
 20
213.69362785273279
 30
0.0
 40
3.0000000000000031
 50
231.6119845354707
 51
56.388015464436258
  0
ARC
  5
209
  8
DATA
  6
CONTINUOUS
 62
     7
 10
626.17061152957569
 20
231.09087225763781
 30
0.0
 40
2.9999999999988689
 50
261.61198453558558
 51
86.388015464418316
  0
ARC
  5
20A
  8
DATA
  6
CONTINUOUS
 62
     7
 10
623.25545977145987
 20
249.4964160860182
 30
0.0
 40
2.9999999999993001
 50
291.61198453547092
 51
116.3880154644586
  0
ARC
  5
20B
  8
DATA
  6
CONTINUOUS
 62
     7
 10
611.52809237884958
 20
263.97850873280322
 30
0.0
 40
3.000000000005572
 50
321.61198453558831
 51
146.38801546444941
  0
TEXT
  5
20C
  8
DATA
 62
     7
 10
907.56560802869342
 20
180.9505623153764
 30
0.0
 40
24.4326171875
  1
THRU SELECT
 41
0.7
 72
     1
 11
995.36014578911011
 21
193.1668709091264
 31
0.0
 73
     2
  0
TEXT
  5
20D
  8
DATA
 62
     7
 10
916.11702404431833
 20
284.6917288557965
 30
0.0
 40
24.4326171875
  1
SPK SELECT
 41
0.7
 72
     1
 11
995.36014578911011
 21
296.9080374495465
 31
0.0
 73
     2
  0
TEXT
  5
20E
  8
DATA
 62
     7
 10
576.11546327027327
 20
496.51258834156829
 30
0.0
 40
24.4326171875
  1
EQ
 41
0.7
 72
     1
 11
590.3678232963149
 21
508.72889693531818
 31
0.0
 73
     2
  0
TEXT
  5
20F
  8
DATA
 62
     7
 10
996.66844006714678
 20
496.51258834156829
 30
0.0
 40
24.4326171875
  1
FRONT LED
 41
0.7
 72
     1
 11
1067.360145796313
 21
508.72889693531818
 31
0.0
 73
     2
  0
LINE
  5
210
  8
DATA
  6
CONTINUOUS
 62
     7
 10
546.56014579631221
 20
456.85389693531812
 30
0.0
 11
498.5601457963121
 21
456.85389693531812
 31
0.0
  0
LINE
  5
211
  8
DATA
  6
CONTINUOUS
 62
     7
 10
507.5601457963121
 20
456.85389693531812
 30
0.0
 11
507.5601457963121
 21
468.85389693531812
 31
0.0
  0
LINE
  5
212
  8
DATA
  6
CONTINUOUS
 62
     7
 10
537.56014579631221
 20
468.85389693531812
 30
0.0
 11
537.56014579631221
 21
456.85389693531812
 31
0.0
  0
LINE
  5
213
  8
DATA
  6
CONTINUOUS
 62
     7
 10
507.5601457963121
 20
468.85389693531812
 30
0.0
 11
537.56014579631221
 21
468.85389693531812
 31
0.0
  0
LINE
  5
214
  8
DATA
  6
CONTINUOUS
 62
     7
 10
682.17550079631758
 20
456.85389693531812
 30
0.0
 11
634.17550079631746
 21
456.85389693531812
 31
0.0
  0
LINE
  5
215
  8
DATA
  6
CONTINUOUS
 62
     7
 10
643.17550079631746
 20
456.85389693531812
 30
0.0
 11
643.17550079631746
 21
486.85389693531801
 31
0.0
  0
LINE
  5
216
  8
DATA
  6
CONTINUOUS
 62
     7
 10
673.17550079631746
 20
486.85389693531801
 30
0.0
 11
673.17550079631746
 21
456.85389693531812
 31
0.0
  0
LINE
  5
217
  8
DATA
  6
CONTINUOUS
 62
     7
 10
643.17550079631746
 20
474.85389693531801
 30
0.0
 11
673.17550079631746
 21
474.85389693531801
 31
0.0
  0
LINE
  5
218
  8
DATA
  6
CONTINUOUS
 62
     7
 10
643.17550079631746
 20
486.85389693531801
 30
0.0
 11
673.17550079631746
 21
486.85389693531801
 31
0.0
  0
LINE
  5
219
  8
DATA
  6
CONTINUOUS
 62
     7
 10
1023.5524682963101
 20
456.85389693531812
 30
0.0
 11
975.55246829631039
 21
456.85389693531812
 31
0.0
  0
LINE
  5
21A
  8
DATA
  6
CONTINUOUS
 62
     7
 10
984.55246829631039
 20
456.85389693531812
 30
0.0
 11
984.55246829631039
 21
468.85389693531812
 31
0.0
  0
LINE
  5
21B
  8
DATA
  6
CONTINUOUS
 62
     7
 10
1014.5524682963101
 20
468.85389693531812
 30
0.0
 11
1014.5524682963101
 21
456.85389693531812
 31
0.0
  0
LINE
  5
21C
  8
DATA
  6
CONTINUOUS
 62
     7
 10
984.55246829631039
 20
468.85389693531812
 30
0.0
 11
1014.5524682963101
 21
468.85389693531812
 31
0.0
  0
LINE
  5
21D
  8
DATA
  6
CONTINUOUS
 62
     7
 10
1159.1678232963161
 20
456.85389693531812
 30
0.0
 11
1111.1678232963161
 21
456.85389693531812
 31
0.0
  0
LINE
  5
21E
  8
DATA
  6
CONTINUOUS
 62
     7
 10
1120.1678232963161
 20
456.85389693531812
 30
0.0
 11
1120.1678232963161
 21
486.85389693531801
 31
0.0
  0
LINE
  5
21F
  8
DATA
  6
CONTINUOUS
 62
     7
 10
1150.1678232963161
 20
486.85389693531801
 30
0.0
 11
1150.1678232963161
 21
456.85389693531812
 31
0.0
  0
LINE
  5
220
  8
DATA
  6
CONTINUOUS
 62
     7
 10
1120.1678232963161
 20
474.85389693531801
 30
0.0
 11
1150.1678232963161
 21
474.85389693531801
 31
0.0
  0
LINE
  5
221
  8
DATA
  6
CONTINUOUS
 62
     7
 10
1120.1678232963161
 20
486.85389693531801
 30
0.0
 11
1150.1678232963161
 21
486.85389693531801
 31
0.0
  0
TEXT
  5
222
  8
DATA
 62
     7
 10
998.94881767131335
 20
562.51610334156715
 30
0.0
 40
24.4326171875
  1
PWR/STBY
 41
0.7
 72
     1
 11
1067.360145796313
 21
574.73241193531715
 31
0.0
 73
     2
  0
CIRCLE
  5
223
  8
DATA
  6
CONTINUOUS
 62
     7
 10
1180.8801457963129
 20
618.85389693531818
 30
0.0
 40
15.00000000000133
  0
LINE
  5
224
  8
DATA
  6
CONTINUOUS
 62
     7
 10
1189.8801457963129
 20
618.85389693531818
 30
0.0
 11
1171.8801457963129
 21
618.85389693531818
 31
0.0
  0
LINE
  5
225
  8
DATA
  6
CONTINUOUS
 62
     7
 10
1181.360145796313
 20
627.85389693531806
 30
0.0
 11
1181.360145796313
 21
609.85389693531818
 31
0.0
  0
CIRCLE
  5
226
  8
DATA
  6
CONTINUOUS
 62
     7
 10
1180.8801457963129
 20
-29.14610306468057
 30
0.0
 40
15.00000000000133
  0
LINE
  5
227
  8
DATA
  6
CONTINUOUS
 62
     7
 10
1189.8801457963129
 20
-29.14610306468057
 30
0.0
 11
1171.8801457963129
 21
-29.14610306468057
 31
0.0
  0
LINE
  5
228
  8
DATA
  6
CONTINUOUS
 62
     7
 10
1181.360145796313
 20
-20.14610306468057
 30
0.0
 11
1181.360145796313
 21
-38.146103064680581
 31
0.0
  0
CIRCLE
  5
229
  8
DATA
  6
CONTINUOUS
 62
     7
 10
419.84014579631281
 20
618.85389693531818
 30
0.0
 40
15.00000000000133
  0
LINE
  5
22A
  8
DATA
  6
CONTINUOUS
 62
     7
 10
410.84014579631281
 20
618.85389693531818
 30
0.0
 11
428.84014579631292
 21
618.85389693531818
 31
0.0
  0
LINE
  5
22B
  8
DATA
  6
CONTINUOUS
 62
     7
 10
419.3601457963133
 20
627.85389693531806
 30
0.0
 11
419.3601457963133
 21
609.85389693531818
 31
0.0
  0
CIRCLE
  5
22C
  8
DATA
  6
CONTINUOUS
 62
     7
 10
419.84014579631281
 20
-29.14610306468057
 30
0.0
 40
15.00000000000133
  0
LINE
  5
22D
  8
DATA
  6
CONTINUOUS
 62
     7
 10
410.84014579631281
 20
-29.14610306468057
 30
0.0
 11
428.84014579631292
 21
-29.14610306468057
 31
0.0
  0
LINE
  5
22E
  8
DATA
  6
CONTINUOUS
 62
     7
 10
419.3601457963133
 20
-20.14610306468057
 30
0.0
 11
419.3601457963133
 21
-38.146103064680581
 31
0.0
  0
TEXT
  5
22F
  8
DATA
 62
     7
 10
653.9374895463111
 20
604.35497115406781
 30
0.0
 40
73.2978515625
  1
PRX715
 41
0.7
 72
     1
 11
790.76014579631101
 21
641.00389693531781
 31
0.0
 73
     2
  0
TEXT
  5
230
  8
DATA
 62
     7
 10
832.34441579243583
 20
-751.46750785744985
 30
0.0
 40
2.8504720052083332
  1
CH1/MIX/CH2
 41
0.7
 72
     1
 11
842.321067810665
 21
-750.04227185484558
 31
0.0
 73
     2
  0
TEXT
  5
231
  8
DATA
 62
     7
 10
-1312.5
 20
-1782.4104233333339
 30
0.0
 40
28.504720052083339
  1
※仕様及び外観は予告なく変更されることがあります。
 41
0.7
 11
-1312.5
 21
-1753.9057032812509
 31
0.0
 73
     3
  0
TEXT
  5
232
  8
DATA
 62
     7
 10
-1312.5
 20
-1819.45209
 30
0.0
 40
28.504720052083339
  1
　また、同一商品でも若干の個体差があることがあります。ご了承ください。
 41
0.7
 11
-1312.5
 21
-1790.947369947917
 31
0.0
 73
     3
  0
TEXT
  5
233
  8
DATA
 62
     7
 10
749.99999999999955
 20
-1733.59124
 30
0.0
 40
36.64892578125
  1
PRX715
 41
0.7
 11
749.99999999999955
 21
-1696.94231421875
 31
0.0
 73
     3
  0
TEXT
  5
234
  8
DATA
 62
     7
 10
749.99999999999955
 20
-1624.84124
 30
0.0
 40
36.64892578125
  1
JBL PROFESSIONAL
 41
0.7
 11
749.99999999999955
 21
-1588.19231421875
 31
0.0
 73
     3
  0
TEXT
  5
235
  8
DATA
 62
     7
 10
510.75321220423291
 20
815.70524337104791
 30
0.0
 40
40.721028645833343
  1
コネクターパネル拡大図
 41
0.7
 11
510.75321220423291
 21
856.42627201688117
 31
0.0
 73
     3
  0
LINE
  5
236
  8
DATA
  6
CONTINUOUS
 62
     7
 10
500.0
 20
800.0
 30
0.0
 11
1100.0
 21
800.0
 31
0.0
  0
LINE
  5
237
  8
DATA
  6
CONTINUOUS
 62
     7
 10
-636.0
 20
-1035.0
 30
0.0
 11
-616.0
 21
-1000.0
 31
0.0
  0
LINE
  5
238
  8
DATA
  6
CONTINUOUS
 62
     7
 10
-640.64258028377026
 20
-1027.0
 30
0.0
 11
-620.64258028377037
 21
-992.0
 31
0.0
  0
LINE
  5
239
  8
DATA
  6
CONTINUOUS
 62
     7
 10
-616.0
 20
-1000.0
 30
0.0
 11
-384.0
 21
-1000.0
 31
0.0
  0
LINE
  5
23A
  8
DATA
  6
CONTINUOUS
 62
     7
 10
-620.64258028377037
 20
-992.0
 30
0.0
 11
-379.3574197162298
 21
-992.0
 31
0.0
  0
LINE
  5
23B
  8
DATA
  6
CONTINUOUS
 62
     7
 10
-364.0
 20
-1035.0
 30
0.0
 11
-299.25
 21
-1035.0
 31
0.0
  0
LINE
  5
23C
  8
DATA
  6
CONTINUOUS
 62
     7
 10
-359.3574197162298
 20
-1027.0
 30
0.0
 11
-299.25
 21
-1027.0
 31
0.0
  0
LINE
  5
23D
  8
DATA
  6
CONTINUOUS
 62
     7
 10
-364.0
 20
-1035.0
 30
0.0
 11
-384.0
 21
-1000.0
 31
0.0
  0
LINE
  5
23E
  8
DATA
  6
CONTINUOUS
 62
     7
 10
-359.3574197162298
 20
-1027.0
 30
0.0
 11
-379.3574197162298
 21
-992.0
 31
0.0
  0
LINE
  5
23F
  8
DATA
  6
CONTINUOUS
 62
     7
 10
-636.0
 20
-602.24999999999989
 30
0.0
 11
-616.0
 21
-637.25
 31
0.0
  0
LINE
  5
240
  8
DATA
  6
CONTINUOUS
 62
     7
 10
-626.17898671720275
 20
-595.24999999999989
 30
0.0
 11
-606.17898671720275
 21
-630.25
 31
0.0
  0
LINE
  5
241
  8
DATA
  6
CONTINUOUS
 62
     7
 10
-616.0
 20
-637.25
 30
0.0
 11
-384.0
 21
-637.25
 31
0.0
  0
LINE
  5
242
  8
DATA
  6
CONTINUOUS
 62
     7
 10
-606.17898671720275
 20
-630.25
 30
0.0
 11
-393.82101328279708
 21
-630.25
 31
0.0
  0
LINE
  5
243
  8
DATA
  6
CONTINUOUS
 62
     7
 10
-364.0
 20
-602.24999999999989
 30
0.0
 11
-299.25
 21
-602.24999999999989
 31
0.0
  0
LINE
  5
244
  8
DATA
  6
CONTINUOUS
 62
     7
 10
-373.82101328279708
 20
-595.24999999999989
 30
0.0
 11
-299.25
 21
-595.24999999999989
 31
0.0
  0
LINE
  5
245
  8
DATA
  6
CONTINUOUS
 62
     7
 10
-364.0
 20
-602.24999999999989
 30
0.0
 11
-384.0
 21
-637.25
 31
0.0
  0
LINE
  5
246
  8
DATA
  6
CONTINUOUS
 62
     7
 10
-373.82101328279708
 20
-595.24999999999989
 30
0.0
 11
-393.82101328279708
 21
-630.25
 31
0.0
  0
CIRCLE
  5
247
  8
DATA
  6
CONTINUOUS
 62
     7
 10
-500.0
 20
-1067.5
 30
0.0
 40
2.0
  0
CIRCLE
  5
248
  8
DATA
  6
CONTINUOUS
 62
     7
 10
-408.0
 20
-1067.0
 30
0.0
 40
3.2500000000001199
  0
CIRCLE
  5
249
  8
DATA
  6
CONTINUOUS
 62
     7
 10
-592.0
 20
-1067.0
 30
0.0
 40
3.2500000000001199
  0
LINE
  5
24A
  8
DATA
  6
CONTINUOUS
 62
     7
 10
-410.0
 20
-1067.0
 30
0.0
 11
-406.0
 21
-1067.0
 31
0.0
  0
LINE
  5
24B
  8
DATA
  6
CONTINUOUS
 62
     7
 10
-408.0
 20
-1065.0
 30
0.0
 11
-408.0
 21
-1069.0
 31
0.0
  0
LINE
  5
24C
  8
DATA
  6
CONTINUOUS
 62
     7
 10
-594.0
 20
-1067.0
 30
0.0
 11
-590.0
 21
-1067.0
 31
0.0
  0
LINE
  5
24D
  8
DATA
  6
CONTINUOUS
 62
     7
 10
-592.0
 20
-1065.0
 30
0.0
 11
-592.0
 21
-1069.0
 31
0.0
  0
CIRCLE
  5
24E
  8
DATA
  6
CONTINUOUS
 62
     7
 10
-408.0
 20
-423.5
 30
0.0
 40
3.2500000000001199
  0
CIRCLE
  5
24F
  8
DATA
  6
CONTINUOUS
 62
     7
 10
-592.0
 20
-423.5
 30
0.0
 40
3.2500000000001199
  0
LINE
  5
250
  8
DATA
  6
CONTINUOUS
 62
     7
 10
-410.0
 20
-423.5
 30
0.0
 11
-406.0
 21
-423.5
 31
0.0
  0
LINE
  5
251
  8
DATA
  6
CONTINUOUS
 62
     7
 10
-408.0
 20
-425.49999999999989
 30
0.0
 11
-408.0
 21
-421.49999999999989
 31
0.0
  0
LINE
  5
252
  8
DATA
  6
CONTINUOUS
 62
     7
 10
-594.0
 20
-423.5
 30
0.0
 11
-590.0
 21
-423.5
 31
0.0
  0
LINE
  5
253
  8
DATA
  6
CONTINUOUS
 62
     7
 10
-592.0
 20
-425.49999999999989
 30
0.0
 11
-592.0
 21
-421.49999999999989
 31
0.0
  0
LINE
  5
254
  8
DATA
  6
CONTINUOUS
 62
     7
 10
-530.0
 20
-956.0
 30
0.0
 11
-530.0
 21
-906.0
 31
0.0
  0
LINE
  5
255
  8
DATA
  6
CONTINUOUS
 62
     7
 10
-470.0
 20
-956.0
 30
0.0
 11
-530.0
 21
-956.0
 31
0.0
  0
LINE
  5
256
  8
DATA
  6
CONTINUOUS
 62
     7
 10
-470.0
 20
-906.0
 30
0.0
 11
-470.0
 21
-956.0
 31
0.0
  0
LINE
  5
257
  8
DATA
  6
CONTINUOUS
 62
     7
 10
-530.0
 20
-906.0
 30
0.0
 11
-470.0
 21
-906.0
 31
0.0
  0
LINE
  5
258
  8
DATA
  6
CONTINUOUS
 62
     7
 10
-519.0
 20
-946.0
 30
0.0
 11
-519.0
 21
-916.0
 31
0.0
  0
LINE
  5
259
  8
DATA
  6
CONTINUOUS
 62
     7
 10
-481.0
 20
-946.0
 30
0.0
 11
-519.0
 21
-946.0
 31
0.0
  0
LINE
  5
25A
  8
DATA
  6
CONTINUOUS
 62
     7
 10
-481.0
 20
-916.0
 30
0.0
 11
-481.0
 21
-946.0
 31
0.0
  0
LINE
  5
25B
  8
DATA
  6
CONTINUOUS
 62
     7
 10
-519.0
 20
-916.0
 30
0.0
 11
-481.0
 21
-916.0
 31
0.0
  0
LINE
  5
25C
  8
DATA
  6
CONTINUOUS
 62
     7
 10
-1258.0
 20
-1090.0
 30
0.0
 11
-1258.0
 21
-400.5
 31
0.0
  0
LINE
  5
25D
  8
DATA
  6
CONTINUOUS
 62
     7
 10
-952.0
 20
-1075.0
 30
0.0
 11
-952.0
 21
-415.5
 31
0.0
  0
LINE
  5
25E
  8
DATA
  6
CONTINUOUS
 62
     7
 10
-900.0
 20
-1090.0
 30
0.0
 11
-1258.0
 21
-1090.0
 31
0.0
  0
LINE
  5
25F
  8
DATA
  6
CONTINUOUS
 62
     7
 10
-900.0
 20
-1075.0
 30
0.0
 11
-952.0
 21
-1075.0
 31
0.0
  0
LINE
  5
260
  8
DATA
  6
CONTINUOUS
 62
     7
 10
-900.0
 20
-400.5
 30
0.0
 11
-900.0
 21
-1090.0
 31
0.0
  0
LINE
  5
261
  8
DATA
  6
CONTINUOUS
 62
     7
 10
-1238.0
 20
-390.50000000000011
 30
0.0
 11
-920.0
 21
-390.50000000000011
 31
0.0
  0
LINE
  5
262
  8
DATA
  6
CONTINUOUS
 62
     7
 10
-1238.0
 20
-390.50000000000011
 30
0.0
 11
-1258.0
 21
-400.5
 31
0.0
  0
LINE
  5
263
  8
DATA
  6
CONTINUOUS
 62
     7
 10
-920.0
 20
-390.50000000000011
 30
0.0
 11
-900.0
 21
-400.5
 31
0.0
  0
LINE
  5
264
  8
DATA
  6
CONTINUOUS
 62
     7
 10
-1258.0
 20
-400.5
 30
0.0
 11
-900.0
 21
-400.5
 31
0.0
  0
LINE
  5
265
  8
DATA
  6
CONTINUOUS
 62
     7
 10
-952.0
 20
-415.5
 30
0.0
 11
-900.0
 21
-415.5
 31
0.0
  0
CIRCLE
  5
266
  8
DATA
  6
CONTINUOUS
 62
     7
 10
-668.0
 20
-1367.0
 30
0.0
 40
20.00000000000016
  0
CIRCLE
  5
267
  8
DATA
  6
CONTINUOUS
 62
     7
 10
-668.0
 20
-1367.0
 30
0.0
 40
9.9999999999998117
  0
CIRCLE
  5
268
  8
DATA
  6
CONTINUOUS
 62
     7
 10
-668.0
 20
-1367.0
 30
0.0
 40
5.5
  0
LINE
  5
269
  8
DATA
  6
CONTINUOUS
 62
     7
 10
-722.75
 20
-1363.9317121994609
 30
0.0
 11
-722.75
 21
-1638.0
 31
0.0
  0
LINE
  5
26A
  8
DATA
  6
CONTINUOUS
 62
     7
 10
-702.74999999999989
 20
-1373.630496349057
 30
0.0
 11
-702.74999999999989
 21
-1623.0
 31
0.0
  0
LINE
  5
26B
  8
DATA
  6
CONTINUOUS
 62
     7
 10
-652.74999999999989
 20
-1402.7268487978449
 30
0.0
 11
-652.74999999999989
 21
-1578.0
 31
0.0
  0
LINE
  5
26C
  8
DATA
  6
CONTINUOUS
 62
     7
 10
-374.24415949382973
 20
-1307.352628227776
 30
0.0
 11
-289.04270645342427
 21
-1345.6932820959589
 31
0.0
  0
LINE
  5
26D
  8
DATA
  6
CONTINUOUS
 62
     7
 10
-380.18074400072089
 20
-1326.6128773991361
 30
0.0
 11
-306.09452984006788
 21
-1359.95167377143
 31
0.0
  0
LINE
  5
26E
  8
DATA
  6
CONTINUOUS
 62
     7
 10
-393.80001246771093
 20
-1375.313487087644
 30
0.0
 11
-353.14635322671211
 21
-1393.6076337460941
 31
0.0
  0
LINE
  5
26F
  8
DATA
  6
CONTINUOUS
 62
     7
 10
-625.75584050616362
 20
-1307.352628227773
 30
0.0
 11
-710.95729354657578
 21
-1345.6932820959589
 31
0.0
  0
LINE
  5
270
  8
DATA
  6
CONTINUOUS
 62
     7
 10
-619.81925599927945
 20
-1326.612877399137
 30
0.0
 11
-693.90547015993195
 21
-1359.95167377143
 31
0.0
  0
LINE
  5
271
  8
DATA
  6
CONTINUOUS
 62
     7
 10
-606.19998753228481
 20
-1375.3134870876429
 30
0.0
 11
-646.85364677328789
 21
-1393.6076337460941
 31
0.0
  0
LINE
  5
272
  8
DATA
  6
CONTINUOUS
 62
     7
 10
-277.25
 20
-1429.7157287525381
 30
0.0
 11
-277.25
 21
-1363.9317121994609
 31
0.0
  0
LINE
  5
273
  8
DATA
  6
CONTINUOUS
 62
     7
 10
-297.25
 20
-1423.502525316941
 30
0.0
 11
-297.25
 21
-1373.630496349057
 31
0.0
  0
LINE
  5
274
  8
DATA
  6
CONTINUOUS
 62
     7
 10
-347.25
 20
-1404.8629150101519
 30
0.0
 11
-347.25
 21
-1402.7268487978449
 31
0.0
  0
LINE
  5
275
  8
DATA
  6
CONTINUOUS
 62
     7
 10
-702.74999999999989
 20
-1658.0
 30
0.0
 11
-505.53427124746207
 21
-1658.0
 31
0.0
  0
LINE
  5
276
  8
DATA
  6
CONTINUOUS
 62
     7
 10
-687.75
 20
-1638.0
 30
0.0
 11
-511.7474746830585
 21
-1638.0
 31
0.0
  0
LINE
  5
277
  8
DATA
  6
CONTINUOUS
 62
     7
 10
-642.75
 20
-1588.0
 30
0.0
 11
-530.38708498984749
 21
-1588.0
 31
0.0
  0
LINE
  5
278
  8
DATA
  6
CONTINUOUS
 62
     7
 10
-491.39213562373112
 20
-1652.1421356237299
 30
0.0
 11
-283.10786437626899
 21
-1443.857864376268
 31
0.0
  0
LINE
  5
279
  8
DATA
  6
CONTINUOUS
 62
     7
 10
-501.14087296526031
 20
-1633.606601717798
 30
0.0
 11
-301.64339828220182
 21
-1434.109127034739
 31
0.0
  0
LINE
  5
27A
  8
DATA
  6
CONTINUOUS
 62
     7
 10
-523.3160171779823
 20
-1585.0710678118651
 30
0.0
 11
-350.1789321881347
 21
-1411.933982822017
 31
0.0
  0
ARC
  5
27B
  8
DATA
  6
CONTINUOUS
 62
     7
 10
-500.0
 20
-2563.75
 30
0.0
 40
1263.75
 50
84.565233116125739
 51
95.434766883873905
  0
ARC
  5
27C
  8
DATA
  6
CONTINUOUS
 62
     7
 10
-500.0
 20
-2563.75
 30
0.0
 40
1243.75
 50
84.680639125798592
 51
95.319360874201436
  0
ARC
  5
27D
  8
DATA
  6
CONTINUOUS
 62
     7
 10
-500.0
 20
-2563.75
 30
0.0
 40
1193.75
 50
85.040047417602082
 51
94.959952582397733
  0
ARC
  5
27E
  8
DATA
  6
CONTINUOUS
 62
     7
 10
-702.74999999999989
 20
-1638.0
 30
0.0
 40
20.0
 50
180.0
 51
270.0
  0
ARC
  5
27F
  8
DATA
  6
CONTINUOUS
 62
     7
 10
-505.53427124746162
 20
-1638.0
 30
0.0
 40
20.0
 50
269.99999999999869
 51
314.9999999999996
  0
ARC
  5
280
  8
DATA
  6
CONTINUOUS
 62
     7
 10
-702.74999999999989
 20
-1363.9317121994609
 30
0.0
 40
20.0
 50
114.22774531795361
 51
180.0
  0
ARC
  5
281
  8
DATA
  6
CONTINUOUS
 62
     7
 10
-617.54854695960682
 20
-1325.5910583312329
 30
0.0
 40
19.99999999995325
 50
95.434766883831344
 51
114.2277453179542
  0
ARC
  5
282
  8
DATA
  6
CONTINUOUS
 62
     7
 10
-382.45145304040813
 20
-1325.5910583312841
 30
0.0
 40
20.000000000006089
 50
65.772254682045656
 51
84.565233116118833
  0
ARC
  5
283
  8
DATA
  6
CONTINUOUS
 62
     7
 10
-297.25
 20
-1363.9317121994609
 30
0.0
 40
20.0
 50
0.0000000000006821
 51
65.77225468204665
  0
ARC
  5
284
  8
DATA
  6
CONTINUOUS
 62
     7
 10
-297.2499999999996
 20
-1429.715728752537
 30
0.0
 40
20.0
 50
314.99999999999869
 51
359.99999999999869
  0
ARC
  5
285
  8
DATA
  6
CONTINUOUS
 62
     7
 10
-687.75
 20
-1623.0
 30
0.0
 40
15.0
 50
180.0
 51
270.0
  0
ARC
  5
286
  8
DATA
  6
CONTINUOUS
 62
     7
 10
-687.75000000000045
 20
-1373.630496349057
 30
0.0
 40
15.0
 50
114.2277453179527
 51
180.0
  0
ARC
  5
287
  8
DATA
  6
CONTINUOUS
 62
     7
 10
-613.66378583934727
 20
-1340.2916999767631
 30
0.0
 40
14.99999999999997
 50
95.319360874200868
 51
114.2277453179542
  0
ARC
  5
288
  8
DATA
  6
CONTINUOUS
 62
     7
 10
-386.33621416064977
 20
-1340.291699976756
 30
0.0
 40
14.99999999999225
 50
65.772254682045428
 51
84.680639125808639
  0
ARC
  5
289
  8
DATA
  6
CONTINUOUS
 62
     7
 10
-312.25
 20
-1373.630496349057
 30
0.0
 40
15.0
 50
359.9999999999992
 51
65.7722546820454
  0
ARC
  5
28A
  8
DATA
  6
CONTINUOUS
 62
     7
 10
-312.25
 20
-1423.502525316941
 30
0.0
 40
14.999999999999959
 50
315.0
 51
0.0
  0
ARC
  5
28B
  8
DATA
  6
CONTINUOUS
 62
     7
 10
-511.7474746830585
 20
-1623.0
 30
0.0
 40
15.0
 50
270.0
 51
315.0
  0
ARC
  5
28C
  8
DATA
  6
CONTINUOUS
 62
     7
 10
-642.75
 20
-1578.0
 30
0.0
 40
10.0
 50
180.0
 51
270.0
  0
ARC
  5
28D
  8
DATA
  6
CONTINUOUS
 62
     7
 10
-530.38708498984795
 20
-1578.0
 30
0.0
 40
10.0
 50
270.00000000000261
 51
315.00000000000091
  0
ARC
  5
28E
  8
DATA
  6
CONTINUOUS
 62
     7
 10
-642.75000000000045
 20
-1402.7268487978449
 30
0.0
 40
10.000000000000011
 50
114.22774531795071
 51
179.99999999999869
  0
ARC
  5
28F
  8
DATA
  6
CONTINUOUS
 62
     7
 10
-602.09634075899203
 20
-1384.432702139404
 30
0.0
 40
10.000000000011919
 50
94.959952582421934
 51
114.2277453179546
  0
ARC
  5
290
  8
DATA
  6
CONTINUOUS
 62
     7
 10
-397.90365924101621
 20
-1384.4327021394331
 30
0.0
 40
10.0000000000413
 50
65.772254682044291
 51
85.040047417522018
  0
ARC
  5
291
  8
DATA
  6
CONTINUOUS
 62
     7
 10
-357.25
 20
-1402.7268487978449
 30
0.0
 40
10.0
 50
359.99999999999869
 51
65.772254682045855
  0
ARC
  5
292
  8
DATA
  6
CONTINUOUS
 62
     7
 10
-357.25000000000051
 20
-1404.8629150101519
 30
0.0
 40
10.00000000000008
 50
315.00000000000182
 51
0.0000000000013074
  0
CIRCLE
  5
293
  8
DATA
  6
CONTINUOUS
 62
     7
 10
-679.75
 20
-1403.0
 30
0.0
 40
10.00000000000003
  0
CIRCLE
  5
294
  8
DATA
  6
CONTINUOUS
 62
     7
 10
-333.0
 20
-1367.0
 30
0.0
 40
20.00000000000016
  0
CIRCLE
  5
295
  8
DATA
  6
CONTINUOUS
 62
     7
 10
-333.0
 20
-1367.0
 30
0.0
 40
9.9999999999998117
  0
CIRCLE
  5
296
  8
DATA
  6
CONTINUOUS
 62
     7
 10
-333.0
 20
-1367.0
 30
0.0
 40
5.5
  0
CIRCLE
  5
297
  8
DATA
  6
CONTINUOUS
 62
     7
 10
-679.75
 20
-1594.0
 30
0.0
 40
20.00000000000016
  0
CIRCLE
  5
298
  8
DATA
  6
CONTINUOUS
 62
     7
 10
-679.75
 20
-1594.0
 30
0.0
 40
9.9999999999998117
  0
CIRCLE
  5
299
  8
DATA
  6
CONTINUOUS
 62
     7
 10
-679.75
 20
-1594.0
 30
0.0
 40
5.5
  0
CIRCLE
  5
29A
  8
DATA
  6
CONTINUOUS
 62
     7
 10
-492.75
 20
-1594.0
 30
0.0
 40
20.00000000000016
  0
CIRCLE
  5
29B
  8
DATA
  6
CONTINUOUS
 62
     7
 10
-492.75
 20
-1594.0
 30
0.0
 40
9.9999999999998117
  0
CIRCLE
  5
29C
  8
DATA
  6
CONTINUOUS
 62
     7
 10
-492.75
 20
-1594.0
 30
0.0
 40
5.5
  0
LINE
  5
29D
  8
DATA
  6
CONTINUOUS
 62
     7
 10
-296.7403320081221
 20
-1463.1471862576141
 30
0.0
 11
-299.56875913286831
 21
-1460.3187591328681
 31
0.0
  0
LINE
  5
29E
  8
DATA
  6
CONTINUOUS
 62
     7
 10
-325.02460325558383
 20
-1491.431457505076
 30
0.0
 11
-296.7403320081221
 21
-1463.1471862576141
 31
0.0
  0
LINE
  5
29F
  8
DATA
  6
CONTINUOUS
 62
     7
 10
-327.85303038032998
 20
-1488.60303038033
 30
0.0
 11
-325.02460325558383
 21
-1491.431457505076
 31
0.0
  0
LINE
  5
2A0
  8
DATA
  6
CONTINUOUS
 62
     7
 10
-299.56875913286831
 20
-1460.3187591328681
 30
0.0
 11
-327.85303038032998
 21
-1488.60303038033
 31
0.0
  0
LINE
  5
2A1
  8
DATA
  6
CONTINUOUS
 62
     7
 10
-443.8185424949238
 20
-1610.225396744416
 30
0.0
 11
-446.64696961967002
 21
-1607.39696961967
 31
0.0
  0
LINE
  5
2A2
  8
DATA
  6
CONTINUOUS
 62
     7
 10
-472.10281374238588
 20
-1638.509667991877
 30
0.0
 11
-443.8185424949238
 21
-1610.225396744416
 31
0.0
  0
LINE
  5
2A3
  8
DATA
  6
CONTINUOUS
 62
     7
 10
-474.9312408671322
 20
-1635.681240867131
 30
0.0
 11
-472.10281374238588
 21
-1638.509667991877
 31
0.0
  0
LINE
  5
2A4
  8
DATA
  6
CONTINUOUS
 62
     7
 10
-446.64696961967002
 20
-1607.39696961967
 30
0.0
 11
-474.9312408671322
 21
-1635.681240867131
 31
0.0
  0
LINE
  5
2A5
  8
DATA
  6
CONTINUOUS
 62
     7
 10
-722.75
 20
-136.06828780053871
 30
0.0
 11
-722.75
 21
138.0
 31
0.0
  0
LINE
  5
2A6
  8
DATA
  6
CONTINUOUS
 62
     7
 10
-702.74999999999989
 20
-126.3695036509426
 30
0.0
 11
-702.74999999999989
 21
123.0
 31
0.0
  0
LINE
  5
2A7
  8
DATA
  6
CONTINUOUS
 62
     7
 10
-652.74999999999989
 20
-97.273151202154864
 30
0.0
 11
-652.74999999999989
 21
78.0
 31
0.0
  0
LINE
  5
2A8
  8
DATA
  6
CONTINUOUS
 62
     7
 10
-625.75584050616362
 20
-192.64737177222631
 30
0.0
 11
-710.95729354657578
 21
-154.3067179040408
 31
0.0
  0
LINE
  5
2A9
  8
DATA
  6
CONTINUOUS
 62
     7
 10
-619.81925599927945
 20
-173.38712260086299
 30
0.0
 11
-693.90547015993195
 21
-140.04832622856921
 31
0.0
  0
LINE
  5
2AA
  8
DATA
  6
CONTINUOUS
 62
     7
 10
-606.19998753228481
 20
-124.6865129123572
 30
0.0
 11
-646.85364677328789
 21
-106.39236625390591
 31
0.0
  0
ARC
  5
2AB
  8
DATA
  6
CONTINUOUS
 62
     7
 10
-702.74999999999989
 20
138.0
 30
0.0
 40
20.0
 50
90.0
 51
180.0
  0
ARC
  5
2AC
  8
DATA
  6
CONTINUOUS
 62
     7
 10
-702.74999999999989
 20
-136.0682878005386
 30
0.0
 40
20.0
 50
180.0000000000004
 51
245.77225468204631
  0
ARC
  5
2AD
  8
DATA
  6
CONTINUOUS
 62
     7
 10
-617.54854695960682
 20
-174.40894166876689
 30
0.0
 40
19.999999999953069
 50
245.77225468204591
 51
264.56523311616871
  0
ARC
  5
2AE
  8
DATA
  6
CONTINUOUS
 62
     7
 10
-687.75
 20
123.0
 30
0.0
 40
15.0
 50
90.0
 51
180.0
  0
ARC
  5
2AF
  8
DATA
  6
CONTINUOUS
 62
     7
 10
-687.75000000000045
 20
-126.36950365094251
 30
0.0
 40
14.99999999999954
 50
180.0000000000004
 51
245.7722546820473
  0
ARC
  5
2B0
  8
DATA
  6
CONTINUOUS
 62
     7
 10
-613.66378583934727
 20
-159.70830002323621
 30
0.0
 40
15.00000000000019
 50
245.7722546820456
 51
264.68063912579908
  0
ARC
  5
2B1
  8
DATA
  6
CONTINUOUS
 62
     7
 10
-642.75
 20
78.0
 30
0.0
 40
10.0
 50
90.0
 51
180.0
  0
ARC
  5
2B2
  8
DATA
  6
CONTINUOUS
 62
     7
 10
-642.75000000000045
 20
-97.273151202154637
 30
0.0
 40
9.9999999999995435
 50
180.00000000000131
 51
245.77225468204929
  0
ARC
  5
2B3
  8
DATA
  6
CONTINUOUS
 62
     7
 10
-602.09634075899203
 20
-115.5672978605954
 30
0.0
 40
10.00000000001179
 50
245.77225468204529
 51
265.04004741757802
  0
CIRCLE
  5
2B4
  8
DATA
  6
CONTINUOUS
 62
     7
 10
-679.75
 20
-95.0
 30
0.0
 40
10.00000000000003
  0
LINE
  5
2B5
  8
DATA
  6
CONTINUOUS
 62
     7
 10
-676.7499999999992
 20
-95.000000000000441
 30
0.0
 11
-678.24999999999989
 21
-97.598076211354041
 31
0.0
  0
LINE
  5
2B6
  8
DATA
  6
CONTINUOUS
 62
     7
 10
-678.24999999999909
 20
-92.401923788646414
 30
0.0
 11
-676.7499999999992
 21
-95.000000000000441
 31
0.0
  0
LINE
  5
2B7
  8
DATA
  6
CONTINUOUS
 62
     7
 10
-681.25
 20
-92.401923788645931
 30
0.0
 11
-678.24999999999909
 21
-92.401923788646414
 31
0.0
  0
LINE
  5
2B8
  8
DATA
  6
CONTINUOUS
 62
     7
 10
-682.75000000000068
 20
-94.999999999999545
 30
0.0
 11
-681.25
 21
-92.401923788645931
 31
0.0
  0
LINE
  5
2B9
  8
DATA
  6
CONTINUOUS
 62
     7
 10
-681.25000000000068
 20
-97.598076211353586
 30
0.0
 11
-682.75000000000068
 21
-94.999999999999545
 31
0.0
  0
LINE
  5
2BA
  8
DATA
  6
CONTINUOUS
 62
     7
 10
-678.24999999999989
 20
-97.598076211354041
 30
0.0
 11
-681.25000000000068
 21
-97.598076211353586
 31
0.0
  0
TEXT
  5
2BB
  8
DATA
 62
     7
 10
712.49999999999955
 20
-1676.9955650000011
 30
0.0
 40
24.4326171875
  1
2-Wayパワード・フルレンジ
 41
0.7
 11
712.49999999999955
 21
-1652.5629478124999
 31
0.0
 73
     3
  0
CIRCLE
  5
2BC
  8
DATA
  6
CONTINUOUS
 62
     7
 10
-524.75
 20
115.0
 30
0.0
 40
10.00000000000003
  0
LINE
  5
2BD
  8
DATA
  6
CONTINUOUS
 62
     7
 10
-521.7499999999992
 20
114.9999999999995
 30
0.0
 11
-523.24999999999989
 21
112.4019237886459
 31
0.0
  0
LINE
  5
2BE
  8
DATA
  6
CONTINUOUS
 62
     7
 10
-523.24999999999909
 20
117.5980762113536
 30
0.0
 11
-521.7499999999992
 21
114.9999999999995
 31
0.0
  0
LINE
  5
2BF
  8
DATA
  6
CONTINUOUS
 62
     7
 10
-526.25
 20
117.598076211354
 30
0.0
 11
-523.24999999999909
 21
117.5980762113536
 31
0.0
  0
LINE
  5
2C0
  8
DATA
  6
CONTINUOUS
 62
     7
 10
-527.75000000000068
 20
115.0000000000004
 30
0.0
 11
-526.25
 21
117.598076211354
 31
0.0
  0
LINE
  5
2C1
  8
DATA
  6
CONTINUOUS
 62
     7
 10
-526.2500000000008
 20
112.4019237886464
 30
0.0
 11
-527.75000000000068
 21
115.0000000000004
 31
0.0
  0
LINE
  5
2C2
  8
DATA
  6
CONTINUOUS
 62
     7
 10
-523.24999999999989
 20
112.4019237886459
 30
0.0
 11
-526.2500000000008
 21
112.4019237886464
 31
0.0
  0
LINE
  5
2C3
  8
DATA
  6
CONTINUOUS
 62
     7
 10
-374.24415949382973
 20
-192.64737177222321
 30
0.0
 11
-289.04270645342427
 21
-154.3067179040408
 31
0.0
  0
LINE
  5
2C4
  8
DATA
  6
CONTINUOUS
 62
     7
 10
-380.18074400072089
 20
-173.38712260086319
 30
0.0
 11
-306.09452984006788
 21
-140.04832622856921
 31
0.0
  0
LINE
  5
2C5
  8
DATA
  6
CONTINUOUS
 62
     7
 10
-393.80001246771093
 20
-124.6865129123554
 30
0.0
 11
-353.14635322671211
 21
-106.39236625390591
 31
0.0
  0
LINE
  5
2C6
  8
DATA
  6
CONTINUOUS
 62
     7
 10
-277.25
 20
-70.28427124746203
 30
0.0
 11
-277.25
 21
-136.06828780053871
 31
0.0
  0
LINE
  5
2C7
  8
DATA
  6
CONTINUOUS
 62
     7
 10
-297.25
 20
-76.497474683058371
 30
0.0
 11
-297.25
 21
-126.3695036509426
 31
0.0
  0
LINE
  5
2C8
  8
DATA
  6
CONTINUOUS
 62
     7
 10
-347.25
 20
-95.137084989847622
 30
0.0
 11
-347.25
 21
-97.273151202154864
 31
0.0
  0
LINE
  5
2C9
  8
DATA
  6
CONTINUOUS
 62
     7
 10
-702.74999999999989
 20
158.0
 30
0.0
 11
-505.53427124746207
 21
158.0
 31
0.0
  0
LINE
  5
2CA
  8
DATA
  6
CONTINUOUS
 62
     7
 10
-687.75
 20
138.0
 30
0.0
 11
-511.7474746830585
 21
138.0
 31
0.0
  0
LINE
  5
2CB
  8
DATA
  6
CONTINUOUS
 62
     7
 10
-642.75
 20
88.0
 30
0.0
 11
-530.38708498984749
 21
88.0
 31
0.0
  0
LINE
  5
2CC
  8
DATA
  6
CONTINUOUS
 62
     7
 10
-491.39213562373112
 20
152.14213562373081
 30
0.0
 11
-283.10786437626899
 21
-56.14213562373105
 31
0.0
  0
LINE
  5
2CD
  8
DATA
  6
CONTINUOUS
 62
     7
 10
-501.14087296526031
 20
133.60660171779821
 30
0.0
 11
-301.64339828220182
 21
-65.890872965260201
 31
0.0
  0
LINE
  5
2CE
  8
DATA
  6
CONTINUOUS
 62
     7
 10
-523.3160171779823
 20
85.071067811865547
 30
0.0
 11
-350.1789321881347
 21
-88.066017177982204
 31
0.0
  0
ARC
  5
2CF
  8
DATA
  6
CONTINUOUS
 62
     7
 10
-500.0
 20
1063.7499999999991
 30
0.0
 40
1263.75
 50
264.56523311612608
 51
275.43476688387432
  0
ARC
  5
2D0
  8
DATA
  6
CONTINUOUS
 62
     7
 10
-500.0
 20
1063.7499999999991
 30
0.0
 40
1243.75
 50
264.68063912579862
 51
275.31936087420149
  0
ARC
  5
2D1
  8
DATA
  6
CONTINUOUS
 62
     7
 10
-500.0
 20
1063.7499999999991
 30
0.0
 40
1193.75
 50
265.04004741760218
 51
274.95995258239788
  0
ARC
  5
2D2
  8
DATA
  6
CONTINUOUS
 62
     7
 10
-505.53427124746162
 20
138.0
 30
0.0
 40
19.99999999999968
 50
45.000000000000469
 51
90.000000000001293
  0
ARC
  5
2D3
  8
DATA
  6
CONTINUOUS
 62
     7
 10
-382.45145304040813
 20
-174.4089416687157
 30
0.0
 40
20.000000000005841
 50
275.4347668838812
 51
294.22774531795449
  0
ARC
  5
2D4
  8
DATA
  6
CONTINUOUS
 62
     7
 10
-297.25
 20
-136.06828780053851
 30
0.0
 40
20.000000000000089
 50
294.22774531795352
 51
359.99999999999937
  0
ARC
  5
2D5
  8
DATA
  6
CONTINUOUS
 62
     7
 10
-297.2499999999996
 20
-70.284271247462357
 30
0.0
 40
19.999999999999542
 50
0.0000000000009663
 51
45.000000000001357
  0
ARC
  5
2D6
  8
DATA
  6
CONTINUOUS
 62
     7
 10
-386.33621416064977
 20
-159.70830002324371
 30
0.0
 40
14.999999999992429
 50
275.31936087419132
 51
294.22774531795471
  0
ARC
  5
2D7
  8
DATA
  6
CONTINUOUS
 62
     7
 10
-312.25
 20
-126.3695036509429
 30
0.0
 40
14.999999999999879
 50
294.22774531795483
 51
0.0000000000008527
  0
ARC
  5
2D8
  8
DATA
  6
CONTINUOUS
 62
     7
 10
-312.25
 20
-76.497474683058371
 30
0.0
 40
15.0
 50
0.0
 51
45.0
  0
ARC
  5
2D9
  8
DATA
  6
CONTINUOUS
 62
     7
 10
-511.7474746830585
 20
123.0
 30
0.0
 40
14.999999999999959
 50
45.0
 51
90.0
  0
ARC
  5
2DA
  8
DATA
  6
CONTINUOUS
 62
     7
 10
-530.38708498984795
 20
78.0
 30
0.0
 40
10.00000000000024
 50
44.999999999999069
 51
89.999999999997399
  0
ARC
  5
2DB
  8
DATA
  6
CONTINUOUS
 62
     7
 10
-397.90365924101621
 20
-115.5672978605667
 30
0.0
 40
10.0000000000413
 50
274.95995258247791
 51
294.22774531795528
  0
ARC
  5
2DC
  8
DATA
  6
CONTINUOUS
 62
     7
 10
-357.25
 20
-97.273151202155077
 30
0.0
 40
9.9999999999997886
 50
294.2277453179542
 51
0.0000000000013642
  0
ARC
  5
2DD
  8
DATA
  6
CONTINUOUS
 62
     7
 10
-357.25000000000051
 20
-95.137084989847395
 30
0.0
 40
10.000000000000449
 50
359.99999999999869
 51
44.999999999997733
  0
CIRCLE
  5
2DE
  8
DATA
  6
CONTINUOUS
 62
     7
 10
-320.24999999999898
 20
-95.0
 30
0.0
 40
10.00000000000003
  0
LINE
  5
2DF
  8
DATA
  6
CONTINUOUS
 62
     7
 10
-323.25
 20
-95.000000000000441
 30
0.0
 11
-321.74999999999898
 21
-97.598076211354041
 31
0.0
  0
LINE
  5
2E0
  8
DATA
  6
CONTINUOUS
 62
     7
 10
-321.75
 20
-92.401923788646414
 30
0.0
 11
-323.25
 21
-95.000000000000441
 31
0.0
  0
LINE
  5
2E1
  8
DATA
  6
CONTINUOUS
 62
     7
 10
-318.74999999999898
 20
-92.401923788645931
 30
0.0
 11
-321.75
 21
-92.401923788646414
 31
0.0
  0
LINE
  5
2E2
  8
DATA
  6
CONTINUOUS
 62
     7
 10
-317.24999999999818
 20
-94.999999999999545
 30
0.0
 11
-318.74999999999898
 21
-92.401923788645931
 31
0.0
  0
LINE
  5
2E3
  8
DATA
  6
CONTINUOUS
 62
     7
 10
-318.74999999999818
 20
-97.598076211353586
 30
0.0
 11
-317.24999999999818
 21
-94.999999999999545
 31
0.0
  0
LINE
  5
2E4
  8
DATA
  6
CONTINUOUS
 62
     7
 10
-321.74999999999898
 20
-97.598076211354041
 30
0.0
 11
-318.74999999999818
 21
-97.598076211353586
 31
0.0
  0
LINE
  5
2E5
  8
DATA
  6
CONTINUOUS
 62
     7
 10
-296.7403320081221
 20
-36.852813742385422
 30
0.0
 11
-299.56875913286831
 21
-39.681240867131642
 31
0.0
  0
LINE
  5
2E6
  8
DATA
  6
CONTINUOUS
 62
     7
 10
-325.02460325558383
 20
-8.5685424949237472
 30
0.0
 11
-296.7403320081221
 21
-36.852813742385422
 31
0.0
  0
LINE
  5
2E7
  8
DATA
  6
CONTINUOUS
 62
     7
 10
-327.85303038032998
 20
-11.39696961966996
 30
0.0
 11
-325.02460325558383
 21
-8.5685424949237472
 31
0.0
  0
LINE
  5
2E8
  8
DATA
  6
CONTINUOUS
 62
     7
 10
-443.8185424949238
 20
110.2253967444162
 30
0.0
 11
-446.64696961967002
 21
107.39696961967
 31
0.0
  0
LINE
  5
2E9
  8
DATA
  6
CONTINUOUS
 62
     7
 10
-472.10281374238588
 20
138.5096679918779
 30
0.0
 11
-443.8185424949238
 21
110.2253967444162
 31
0.0
  0
LINE
  5
2EA
  8
DATA
  6
CONTINUOUS
 62
     7
 10
-474.9312408671322
 20
135.68124086713169
 30
0.0
 11
-472.10281374238588
 21
138.5096679918779
 31
0.0
  0
LINE
  5
2EB
  8
DATA
  6
CONTINUOUS
 62
     7
 10
-722.75
 20
-1090.0
 30
0.0
 11
-722.75
 21
-400.49999999999989
 31
0.0
  0
LINE
  5
2EC
  8
DATA
  6
CONTINUOUS
 62
     7
 10
-712.75
 20
-1075.0
 30
0.0
 11
-712.75
 21
-415.5
 31
0.0
  0
LINE
  5
2ED
  8
DATA
  6
CONTINUOUS
 62
     7
 10
-700.75
 20
-1060.0
 30
0.0
 11
-700.75
 21
-1035.0
 31
0.0
  0
LINE
  5
2EE
  8
DATA
  6
CONTINUOUS
 62
     7
 10
-700.75
 20
-1027.0
 30
0.0
 11
-700.75
 21
-602.24999999999989
 31
0.0
  0
LINE
  5
2EF
  8
DATA
  6
CONTINUOUS
 62
     7
 10
-700.75
 20
-595.24999999999989
 30
0.0
 11
-700.75
 21
-430.49999999999989
 31
0.0
  0
LINE
  5
2F0
  8
DATA
  6
CONTINUOUS
 62
     7
 10
-277.25
 20
-1090.0
 30
0.0
 11
-722.75
 21
-1090.0
 31
0.0
  0
LINE
  5
2F1
  8
DATA
  6
CONTINUOUS
 62
     7
 10
-287.25
 20
-1075.0
 30
0.0
 11
-712.75
 21
-1075.0
 31
0.0
  0
LINE
  5
2F2
  8
DATA
  6
CONTINUOUS
 62
     7
 10
-299.25
 20
-1060.0
 30
0.0
 11
-700.75
 21
-1060.0
 31
0.0
  0
LINE
  5
2F3
  8
DATA
  6
CONTINUOUS
 62
     7
 10
-636.0
 20
-1035.0
 30
0.0
 11
-700.75
 21
-1035.0
 31
0.0
  0
LINE
  5
2F4
  8
DATA
  6
CONTINUOUS
 62
     7
 10
-640.64258028377026
 20
-1027.0
 30
0.0
 11
-700.75
 21
-1027.0
 31
0.0
  0
LINE
  5
2F5
  8
DATA
  6
CONTINUOUS
 62
     7
 10
-702.74999999999989
 20
-390.5
 30
0.0
 11
-297.25
 21
-390.5
 31
0.0
  0
LINE
  5
2F6
  8
DATA
  6
CONTINUOUS
 62
     7
 10
-702.74999999999989
 20
-390.5
 30
0.0
 11
-722.75
 21
-400.49999999999989
 31
0.0
  0
LINE
  5
2F7
  8
DATA
  6
CONTINUOUS
 62
     7
 10
-712.75
 20
-415.5
 30
0.0
 11
-287.25
 21
-415.5
 31
0.0
  0
LINE
  5
2F8
  8
DATA
  6
CONTINUOUS
 62
     7
 10
-700.75
 20
-430.49999999999989
 30
0.0
 11
-299.25
 21
-430.49999999999989
 31
0.0
  0
LINE
  5
2F9
  8
DATA
  6
CONTINUOUS
 62
     7
 10
-636.0
 20
-602.24999999999989
 30
0.0
 11
-700.75
 21
-602.24999999999989
 31
0.0
  0
LINE
  5
2FA
  8
DATA
  6
CONTINUOUS
 62
     7
 10
-626.17898671720275
 20
-595.24999999999989
 30
0.0
 11
-700.75
 21
-595.24999999999989
 31
0.0
  0
CIRCLE
  5
2FB
  8
DATA
  6
CONTINUOUS
 62
     7
 10
-704.75
 20
-1067.0
 30
0.0
 40
3.2500000000000542
  0
LINE
  5
2FC
  8
DATA
  6
CONTINUOUS
 62
     7
 10
-706.74999999999989
 20
-1067.0
 30
0.0
 11
-702.74999999999989
 21
-1067.0
 31
0.0
  0
LINE
  5
2FD
  8
DATA
  6
CONTINUOUS
 62
     7
 10
-704.75
 20
-1065.0
 30
0.0
 11
-704.75
 21
-1069.0
 31
0.0
  0
CIRCLE
  5
2FE
  8
DATA
  6
CONTINUOUS
 62
     7
 10
-704.75
 20
-423.5
 30
0.0
 40
3.2500000000000342
  0
LINE
  5
2FF
  8
DATA
  6
CONTINUOUS
 62
     7
 10
-706.74999999999989
 20
-423.5
 30
0.0
 11
-702.74999999999989
 21
-423.5
 31
0.0
  0
LINE
  5
300
  8
DATA
  6
CONTINUOUS
 62
     7
 10
-704.75
 20
-425.49999999999989
 30
0.0
 11
-704.75
 21
-421.49999999999989
 31
0.0
  0
CIRCLE
  5
301
  8
DATA
  6
CONTINUOUS
 62
     7
 10
-704.75
 20
-745.25
 30
0.0
 40
3.2500000000000542
  0
LINE
  5
302
  8
DATA
  6
CONTINUOUS
 62
     7
 10
-706.74999999999989
 20
-745.25
 30
0.0
 11
-702.74999999999989
 21
-745.25
 31
0.0
  0
LINE
  5
303
  8
DATA
  6
CONTINUOUS
 62
     7
 10
-704.75
 20
-743.25
 30
0.0
 11
-704.75
 21
-747.25
 31
0.0
  0
CIRCLE
  5
304
  8
DATA
  6
CONTINUOUS
 62
     7
 10
-704.75
 20
-585.25
 30
0.0
 40
3.2500000000000542
  0
LINE
  5
305
  8
DATA
  6
CONTINUOUS
 62
     7
 10
-706.74999999999989
 20
-585.25
 30
0.0
 11
-702.74999999999989
 21
-585.25
 31
0.0
  0
LINE
  5
306
  8
DATA
  6
CONTINUOUS
 62
     7
 10
-704.75
 20
-583.25
 30
0.0
 11
-704.75
 21
-587.25
 31
0.0
  0
CIRCLE
  5
307
  8
DATA
  6
CONTINUOUS
 62
     7
 10
-704.75
 20
-905.25
 30
0.0
 40
3.2500000000000542
  0
LINE
  5
308
  8
DATA
  6
CONTINUOUS
 62
     7
 10
-706.74999999999989
 20
-905.25
 30
0.0
 11
-702.74999999999989
 21
-905.25
 31
0.0
  0
LINE
  5
309
  8
DATA
  6
CONTINUOUS
 62
     7
 10
-704.75
 20
-903.25
 30
0.0
 11
-704.75
 21
-907.24999999999989
 31
0.0
  0
LINE
  5
30A
  8
DATA
  6
CONTINUOUS
 62
     7
 10
-277.25
 20
-400.49999999999989
 30
0.0
 11
-277.25
 21
-1090.0
 31
0.0
  0
LINE
  5
30B
  8
DATA
  6
CONTINUOUS
 62
     7
 10
-287.25
 20
-415.5
 30
0.0
 11
-287.25
 21
-1075.0
 31
0.0
  0
LINE
  5
30C
  8
DATA
  6
CONTINUOUS
 62
     7
 10
-299.25
 20
-430.49999999999989
 30
0.0
 11
-299.25
 21
-595.24999999999989
 31
0.0
  0
LINE
  5
30D
  8
DATA
  6
CONTINUOUS
 62
     7
 10
-299.25
 20
-602.24999999999989
 30
0.0
 11
-299.25
 21
-1027.0
 31
0.0
  0
LINE
  5
30E
  8
DATA
  6
CONTINUOUS
 62
     7
 10
-299.25
 20
-1035.0
 30
0.0
 11
-299.25
 21
-1060.0
 31
0.0
  0
LINE
  5
30F
  8
DATA
  6
CONTINUOUS
 62
     7
 10
-297.25
 20
-390.5
 30
0.0
 11
-277.25
 21
-400.49999999999989
 31
0.0
  0
CIRCLE
  5
310
  8
DATA
  6
CONTINUOUS
 62
     7
 10
-295.25
 20
-1067.0
 30
0.0
 40
3.2500000000000542
  0
LINE
  5
311
  8
DATA
  6
CONTINUOUS
 62
     7
 10
-297.25
 20
-1067.0
 30
0.0
 11
-293.25
 21
-1067.0
 31
0.0
  0
LINE
  5
312
  8
DATA
  6
CONTINUOUS
 62
     7
 10
-295.25
 20
-1065.0
 30
0.0
 11
-295.25
 21
-1069.0
 31
0.0
  0
CIRCLE
  5
313
  8
DATA
  6
CONTINUOUS
 62
     7
 10
-295.25
 20
-423.5
 30
0.0
 40
3.2500000000000342
  0
LINE
  5
314
  8
DATA
  6
CONTINUOUS
 62
     7
 10
-297.25
 20
-423.5
 30
0.0
 11
-293.25
 21
-423.5
 31
0.0
  0
LINE
  5
315
  8
DATA
  6
CONTINUOUS
 62
     7
 10
-295.25
 20
-425.49999999999989
 30
0.0
 11
-295.25
 21
-421.49999999999989
 31
0.0
  0
CIRCLE
  5
316
  8
DATA
  6
CONTINUOUS
 62
     7
 10
-295.25
 20
-1067.0
 30
0.0
 40
3.2500000000000542
  0
LINE
  5
317
  8
DATA
  6
CONTINUOUS
 62
     7
 10
-293.25
 20
-1067.0
 30
0.0
 11
-297.25
 21
-1067.0
 31
0.0
  0
LINE
  5
318
  8
DATA
  6
CONTINUOUS
 62
     7
 10
-295.25
 20
-1065.0
 30
0.0
 11
-295.25
 21
-1069.0
 31
0.0
  0
CIRCLE
  5
319
  8
DATA
  6
CONTINUOUS
 62
     7
 10
-295.25
 20
-423.5
 30
0.0
 40
3.2500000000000342
  0
LINE
  5
31A
  8
DATA
  6
CONTINUOUS
 62
     7
 10
-293.25
 20
-423.5
 30
0.0
 11
-297.25
 21
-423.5
 31
0.0
  0
LINE
  5
31B
  8
DATA
  6
CONTINUOUS
 62
     7
 10
-295.25
 20
-425.49999999999989
 30
0.0
 11
-295.25
 21
-421.49999999999989
 31
0.0
  0
CIRCLE
  5
31C
  8
DATA
  6
CONTINUOUS
 62
     7
 10
-295.25
 20
-745.25
 30
0.0
 40
3.2500000000000542
  0
LINE
  5
31D
  8
DATA
  6
CONTINUOUS
 62
     7
 10
-293.25
 20
-745.25
 30
0.0
 11
-297.25
 21
-745.25
 31
0.0
  0
LINE
  5
31E
  8
DATA
  6
CONTINUOUS
 62
     7
 10
-295.25
 20
-743.25
 30
0.0
 11
-295.25
 21
-747.25
 31
0.0
  0
CIRCLE
  5
31F
  8
DATA
  6
CONTINUOUS
 62
     7
 10
-295.25
 20
-585.25
 30
0.0
 40
3.2500000000000542
  0
LINE
  5
320
  8
DATA
  6
CONTINUOUS
 62
     7
 10
-293.25
 20
-585.25
 30
0.0
 11
-297.25
 21
-585.25
 31
0.0
  0
LINE
  5
321
  8
DATA
  6
CONTINUOUS
 62
     7
 10
-295.25
 20
-583.25
 30
0.0
 11
-295.25
 21
-587.25
 31
0.0
  0
CIRCLE
  5
322
  8
DATA
  6
CONTINUOUS
 62
     7
 10
-295.25
 20
-905.25
 30
0.0
 40
3.2500000000000542
  0
LINE
  5
323
  8
DATA
  6
CONTINUOUS
 62
     7
 10
-293.25
 20
-905.25
 30
0.0
 11
-297.25
 21
-905.25
 31
0.0
  0
LINE
  5
324
  8
DATA
  6
CONTINUOUS
 62
     7
 10
-295.25
 20
-903.25
 30
0.0
 11
-295.25
 21
-907.24999999999989
 31
0.0
  0
LINE
  5
325
  8
DATA
  6
CONTINUOUS
 62
     7
 10
258.0
 20
-1090.0
 30
0.0
 11
258.0
 21
-400.49999999999989
 31
0.0
  0
LINE
  5
326
  8
DATA
  6
CONTINUOUS
 62
     7
 10
-48.0
 20
-1075.0
 30
0.0
 11
-48.0
 21
-415.5
 31
0.0
  0
LINE
  5
327
  8
DATA
  6
CONTINUOUS
 62
     7
 10
-100.0
 20
-1090.0
 30
0.0
 11
258.0
 21
-1090.0
 31
0.0
  0
LINE
  5
328
  8
DATA
  6
CONTINUOUS
 62
     7
 10
-100.0
 20
-1075.0
 30
0.0
 11
-48.0
 21
-1075.0
 31
0.0
  0
LINE
  5
329
  8
DATA
  6
CONTINUOUS
 62
     7
 10
-100.0
 20
-400.49999999999989
 30
0.0
 11
-100.0
 21
-1090.0
 31
0.0
  0
LINE
  5
32A
  8
DATA
  6
CONTINUOUS
 62
     7
 10
40.0
 20
-400.49999999999989
 30
0.0
 11
40.0
 21
-1090.0
 31
0.0
  0
LINE
  5
32B
  8
DATA
  6
CONTINUOUS
 62
     7
 10
238.0
 20
-390.5
 30
0.0
 11
-80.0
 21
-390.5
 31
0.0
  0
LINE
  5
32C
  8
DATA
  6
CONTINUOUS
 62
     7
 10
238.0
 20
-390.5
 30
0.0
 11
258.0
 21
-400.49999999999989
 31
0.0
  0
LINE
  5
32D
  8
DATA
  6
CONTINUOUS
 62
     7
 10
-80.0
 20
-390.5
 30
0.0
 11
-100.0
 21
-400.49999999999989
 31
0.0
  0
LINE
  5
32E
  8
DATA
  6
CONTINUOUS
 62
     7
 10
258.0
 20
-400.49999999999989
 30
0.0
 11
-100.0
 21
-400.49999999999989
 31
0.0
  0
LINE
  5
32F
  8
DATA
  6
CONTINUOUS
 62
     7
 10
-48.0
 20
-415.5
 30
0.0
 11
-100.0
 21
-415.5
 31
0.0
  0
LINE
  5
330
  8
DATA
  6
CONTINUOUS
 62
     7
 10
-53.0
 20
-1104.0
 30
0.0
 11
-53.0
 21
-1100.0
 31
0.0
  0
LINE
  5
331
  8
DATA
  6
CONTINUOUS
 62
     7
 10
-13.0
 20
-1104.0
 30
0.0
 11
-53.0
 21
-1104.0
 31
0.0
  0
LINE
  5
332
  8
DATA
  6
CONTINUOUS
 62
     7
 10
-13.0
 20
-1100.0
 30
0.0
 11
-13.0
 21
-1104.0
 31
0.0
  0
LINE
  5
333
  8
DATA
  6
CONTINUOUS
 62
     7
 10
922.75
 20
-1090.0
 30
0.0
 11
922.75
 21
-400.49999999999989
 31
0.0
  0
LINE
  5
334
  8
DATA
  6
CONTINUOUS
 62
     7
 10
477.24999999999989
 20
-1090.0
 30
0.0
 11
922.75
 21
-1090.0
 31
0.0
  0
LINE
  5
335
  8
DATA
  6
CONTINUOUS
 62
     7
 10
477.24999999999989
 20
-400.49999999999989
 30
0.0
 11
477.24999999999989
 21
-1090.0
 31
0.0
  0
LINE
  5
336
  8
DATA
  6
CONTINUOUS
 62
     7
 10
902.74999999999989
 20
-390.5
 30
0.0
 11
497.25
 21
-390.5
 31
0.0
  0
LINE
  5
337
  8
DATA
  6
CONTINUOUS
 62
     7
 10
902.74999999999989
 20
-390.5
 30
0.0
 11
922.75
 21
-400.49999999999989
 31
0.0
  0
LINE
  5
338
  8
DATA
  6
CONTINUOUS
 62
     7
 10
497.25
 20
-390.5
 30
0.0
 11
477.24999999999989
 21
-400.49999999999989
 31
0.0
  0
LINE
  5
339
  8
DATA
  6
CONTINUOUS
 62
     7
 10
922.75
 20
-400.49999999999989
 30
0.0
 11
477.24999999999989
 21
-400.49999999999989
 31
0.0
  0
TEXT
  5
33A
  8
DATA
 62
     7
 10
832.34441579243583
 20
-734.46750785744985
 30
0.0
 40
2.8504720052083332
  1
CH1/MIX/CH2
 41
0.7
 72
     1
 11
842.321067810665
 21
-733.04227185484558
 31
0.0
 73
     2
  0
TEXT
  5
33B
  8
DATA
 62
     7
 10
756.77404141168745
 20
-776.8237385026041
 30
0.0
 40
2.8504720052083332
  1
+4
 41
0.7
 72
     1
 11
758.43681674805885
 21
-775.39850249999995
 31
0.0
 73
     2
  0
TEXT
  5
33C
  8
DATA
 62
     7
 10
755.77637620986445
 20
-780.52790516927075
 30
0.0
 40
2.8504720052083332
  1
dBu
 41
0.7
 72
     1
 11
758.43681674805885
 21
-779.10266916666671
 31
0.0
 73
     2
  0
TEXT
  5
33D
  8
DATA
 62
     7
 10
814.11200262978446
 20
-748.32315266927071
 30
0.0
 40
2.8504720052083332
  1
Ground
 41
0.7
 72
     1
 11
819.7654387734475
 21
-746.89791666666645
 31
0.0
 73
     2
  0
TEXT
  5
33E
  8
DATA
 62
     7
 10
816.77244316797885
 20
-752.02731933593748
 30
0.0
 40
2.8504720052083332
  1
Lift
 41
0.7
 72
     1
 11
819.7654387734475
 21
-750.60208333333333
 31
0.0
 73
     2
  0
TEXT
  5
33F
  8
DATA
 62
     7
 10
758.11091518675437
 20
-749.67523600260415
 30
0.0
 40
2.8504720052083332
  1
Mic/Line
 41
0.7
 72
     1
 11
764.42946146496627
 21
-748.24999999999989
 31
0.0
 73
     2
  0
LINE
  5
340
  8
DATA
  6
CONTINUOUS
 62
     7
 10
826.2210678112657
 20
-798.25029291666669
 30
0.0
 11
826.2210678112657
 21
-752.45416666666654
 31
0.0
  0
LINE
  5
341
  8
DATA
  6
CONTINUOUS
 62
     7
 10
826.2210678112657
 20
-745.04583333333323
 30
0.0
 11
826.2210678112657
 21
-711.74999999999989
 31
0.0
  0
TEXT
  5
342
  8
DATA
 62
     7
 10
773.05472238194864
 20
-802.82344558593741
 30
0.0
 40
2.8504720052083332
  1
-10
 41
0.7
 72
     1
 11
775.21633031923159
 21
-801.39820958333326
 31
0.0
 73
     2
  0
TEXT
  5
343
  8
DATA
 62
     7
 10
772.55588978103719
 20
-806.52761225260406
 30
0.0
 40
2.8504720052083332
  1
dBv
 41
0.7
 72
     1
 11
775.21633031923159
 21
-805.10237624999991
 31
0.0
 73
     2
  0
LINE
  5
344
  8
DATA
  6
CONTINUOUS
 62
     7
 10
758.42234741009872
 20
-798.25029291666669
 30
0.0
 11
758.42234741009872
 21
-781.75058583333328
 31
0.0
  0
LINE
  5
345
  8
DATA
  6
CONTINUOUS
 62
     7
 10
758.42234741009872
 20
-772.75058583333339
 30
0.0
 11
758.42234741009872
 21
-752.45416666666654
 31
0.0
  0
LINE
  5
346
  8
DATA
  6
CONTINUOUS
 62
     7
 10
758.42234741009872
 20
-745.04583333333323
 30
0.0
 11
758.42234741009872
 21
-711.74999999999989
 31
0.0
  0
TEXT
  5
347
  8
DATA
 62
     7
 10
788.99615693078908
 20
-713.72315266927069
 30
0.0
 40
2.8504720052083332
  1
Limit
 41
0.7
 72
     1
 11
792.3217076035321
 21
-712.29791666666654
 31
0.0
 73
     2
  0
TEXT
  5
348
  8
DATA
 62
     7
 10
770.33285398699593
 20
-713.61065266927073
 30
0.0
 40
2.8504720052083332
  1
Signal
 41
0.7
 72
     1
 11
774.8223473951989
 21
-712.18541666666658
 31
0.0
 73
     2
  0
TEXT
  5
349
  8
DATA
 62
     7
 10
805.33157440366233
 20
-713.61065266927085
 30
0.0
 40
2.8504720052083332
  1
Signal
 41
0.7
 72
     1
 11
809.82106781186565
 21
-712.1854166666667
 31
0.0
 73
     2
  0
TEXT
  5
34A
  8
DATA
 62
     7
 10
858.44907004276342
 20
-776.8237385026041
 30
0.0
 40
2.8504720052083332
  1
+4
 41
0.7
 72
     1
 11
860.11184537913482
 21
-775.39850249999995
 31
0.0
 73
     2
  0
TEXT
  5
34B
  8
DATA
 62
     7
 10
857.45140484094054
 20
-780.52790516927075
 30
0.0
 40
2.8504720052083332
  1
dBu
 41
0.7
 72
     1
 11
860.11184537913482
 21
-779.10266916666671
 31
0.0
 73
     2
  0
TEXT
  5
34C
  8
DATA
 62
     7
 10
760.19551713912222
 20
-699.90339474454231
 30
0.0
 40
2.8504720052083332
  1
MAIN
 41
0.7
 72
     1
 11
763.52106781186524
 21
-698.47815874193805
 31
0.0
 73
     2
  0
TEXT
  5
34D
  8
DATA
 62
     7
 10
783.46318644033829
 20
-699.90339474454231
 30
0.0
 40
2.8504720052083332
  1
MON
 41
0.7
 72
     1
 11
786.12362697853268
 21
-698.47815874193805
 31
0.0
 73
     2
  0
TEXT
  5
34E
  8
DATA
 62
     7
 10
841.35701289216001
 20
-699.90339474454231
 30
0.0
 40
2.8504720052083332
  1
ON
 41
0.7
 72
     1
 11
843.01978822853141
 21
-698.47815874193805
 31
0.0
 73
     2
  0
TEXT
  5
34F
  8
DATA
 62
     7
 10
862.96190685700492
 20
-699.90339474454231
 30
0.0
 40
2.8504720052083332
  1
OFF
 41
0.7
 72
     1
 11
865.6223473951992
 21
-698.47815874193805
 31
0.0
 73
     2
  0
TEXT
  5
350
  8
DATA
 62
     7
 10
774.34355266524722
 20
-706.3573167509694
 30
0.0
 40
2.9319140625000002
  1
CH1
 41
0.7
 72
     1
 11
776.73794914962218
 21
-704.8913597197195
 31
0.0
 73
     2
  0
LINE
  5
351
  8
DATA
  6
CONTINUOUS
 62
     7
 10
781.37587898851825
 20
-706.84271943943918
 30
0.0
 11
780.17587898851855
 21
-703.03271943943923
 31
0.0
  0
LINE
  5
352
  8
DATA
  6
CONTINUOUS
 62
     7
 10
772.10001931072634
 20
-706.84271943943918
 30
0.0
 11
773.30001931072616
 21
-703.03271943943923
 31
0.0
  0
LINE
  5
353
  8
DATA
  6
CONTINUOUS
 62
     7
 10
773.30001931072616
 20
-703.03271943943923
 30
0.0
 11
780.17587898851855
 21
-703.03271943943923
 31
0.0
  0
TEXT
  5
354
  8
DATA
 62
     7
 10
805.2225445400619
 20
-706.26459731153034
 30
0.0
 40
2.9319140625000002
  1
CH2
 41
0.7
 72
     1
 11
807.95899766506204
 21
-704.79864028028032
 31
0.0
 73
     2
  0
LINE
  5
355
  8
DATA
  6
CONTINUOUS
 62
     7
 10
812.59692750395755
 20
-706.74999999999989
 30
0.0
 11
811.39692750395773
 21
-702.94000000000005
 31
0.0
  0
LINE
  5
356
  8
DATA
  6
CONTINUOUS
 62
     7
 10
803.32106782616529
 20
-706.74999999999989
 30
0.0
 11
804.52106782616499
 21
-702.94000000000005
 31
0.0
  0
LINE
  5
357
  8
DATA
  6
CONTINUOUS
 62
     7
 10
804.52106782616659
 20
-702.94000000000005
 30
0.0
 11
811.39692750395773
 21
-702.94000000000005
 31
0.0
  0
CIRCLE
  5
358
  8
DATA
  6
CONTINUOUS
 62
     7
 10
809.82106781181642
 20
-732.2500000000781
 30
0.0
 40
6.4999999999993809
  0
LINE
  5
359
  8
DATA
  6
CONTINUOUS
 62
     7
 10
813.64167195171785
 20
-737.50861046351577
 30
0.0
 11
815.69892033474071
 21
-740.34016994382785
 31
0.0
  0
LINE
  5
35A
  8
DATA
  6
CONTINUOUS
 62
     7
 10
816.00293516773547
 20
-730.24138953664044
 30
0.0
 11
819.33163297476733
 21
-729.15983005632836
 31
0.0
  0
LINE
  5
35B
  8
DATA
  6
CONTINUOUS
 62
     7
 10
809.82106781181642
 20
-725.75000000007799
 30
0.0
 11
809.82106781181642
 21
-722.25000000007799
 31
0.0
  0
LINE
  5
35C
  8
DATA
  6
CONTINUOUS
 62
     7
 10
803.63920045589714
 20
-730.24138953664044
 30
0.0
 11
800.31050264886505
 21
-729.15983005632836
 31
0.0
  0
LINE
  5
35D
  8
DATA
  6
CONTINUOUS
 62
     7
 10
806.00046367245216
 20
-737.50861046277294
 30
0.0
 11
803.94321528889179
 21
-740.34016994382705
 31
0.0
  0
LINE
  5
35E
  8
DATA
  6
CONTINUOUS
 62
     7
 10
807.31633923182073
 20
-736.54811394161845
 30
0.0
 11
806.71113165506949
 21
-737.38111070839034
 31
0.0
  0
LINE
  5
35F
  8
DATA
  6
CONTINUOUS
 62
     7
 10
809.41655931467778
 20
-731.95610737385402
 30
0.0
 11
809.38687013035155
 21
-731.99697103039364
 31
0.0
  0
LINE
  5
360
  8
DATA
  6
CONTINUOUS
 62
     7
 10
806.50732223744558
 20
-735.9603286893265
 30
0.0
 11
805.90211466069513
 21
-736.7933254560977
 31
0.0
  0
LINE
  5
361
  8
DATA
  6
CONTINUOUS
 62
     7
 10
803.4198174172368
 20
-731.12128684524293
 30
0.0
 11
801.94260578771843
 21
-730.86081457874252
 31
0.0
  0
LINE
  5
362
  8
DATA
  6
CONTINUOUS
 62
     7
 10
803.32502743619216
 20
-732.02315327151155
 30
0.0
 11
801.82594119566375
 21
-731.97080402645781
 31
0.0
  0
LINE
  5
363
  8
DATA
  6
CONTINUOUS
 62
     7
 10
803.35667549192169
 20
-732.92943501131731
 30
0.0
 11
801.86489264887007
 21
-733.08622770621889
 31
0.0
  0
LINE
  5
364
  8
DATA
  6
CONTINUOUS
 62
     7
 10
803.51414559102204
 20
-733.82249232147569
 30
0.0
 11
802.05870200160871
 21
-734.18537516487504
 31
0.0
  0
LINE
  5
365
  8
DATA
  6
CONTINUOUS
 62
     7
 10
803.79437275713155
 20
-734.68494285728161
 30
0.0
 11
802.40359697528265
 21
-735.24685274740489
 31
0.0
  0
LINE
  5
366
  8
DATA
  6
CONTINUOUS
 62
     7
 10
804.19190268721786
 20
-735.50000000007753
 30
0.0
 11
802.89286458154083
 21
-736.25000000007776
 31
0.0
  0
LINE
  5
367
  8
DATA
  6
CONTINUOUS
 62
     7
 10
804.69899791337264
 20
-736.25179958969431
 30
0.0
 11
803.5169817829634
 21
-737.17529180268275
 31
0.0
  0
LINE
  5
368
  8
DATA
  6
CONTINUOUS
 62
     7
 10
805.30578840383203
 20
-736.92570870227905
 30
0.0
 11
804.26380084814502
 21
-738.00471840278692
 31
0.0
  0
LINE
  5
369
  8
DATA
  6
CONTINUOUS
 62
     7
 10
814.33634721979934
 20
-736.9257087022786
 30
0.0
 11
815.37833477548827
 21
-738.00471840278738
 31
0.0
  0
LINE
  5
36A
  8
DATA
  6
CONTINUOUS
 62
     7
 10
814.94313771025963
 20
-736.2517995896942
 30
0.0
 11
816.12515384067001
 21
-737.17529180268275
 31
0.0
  0
LINE
  5
36B
  8
DATA
  6
CONTINUOUS
 62
     7
 10
815.45023293641555
 20
-735.50000000007844
 30
0.0
 11
816.74927104209235
 21
-736.2500000000781
 31
0.0
  0
LINE
  5
36C
  8
DATA
  6
CONTINUOUS
 62
     7
 10
815.84776286650106
 20
-734.68494285728161
 30
0.0
 11
817.23853864835155
 21
-735.24685274740546
 31
0.0
  0
LINE
  5
36D
  8
DATA
  6
CONTINUOUS
 62
     7
 10
816.12799003261034
 20
-733.82249232147649
 30
0.0
 11
817.5834336220239
 21
-734.18537516487515
 31
0.0
  0
LINE
  5
36E
  8
DATA
  6
CONTINUOUS
 62
     7
 10
816.28546013171001
 20
-732.92943501131811
 30
0.0
 11
817.77724297476254
 21
-733.08622770621889
 31
0.0
  0
LINE
  5
36F
  8
DATA
  6
CONTINUOUS
 62
     7
 10
816.31710818744045
 20
-732.02315327151143
 30
0.0
 11
817.81619442796966
 21
-731.97080402645781
 31
0.0
  0
LINE
  5
370
  8
DATA
  6
CONTINUOUS
 62
     7
 10
816.22231820639593
 20
-731.12128684524293
 30
0.0
 11
817.69952983591293
 21
-730.86081457874263
 31
0.0
  0
LINE
  5
371
  8
DATA
  6
CONTINUOUS
 62
     7
 10
815.6632291127612
 20
-729.40058754594895
 30
0.0
 11
817.01142018220935
 21
-728.74303082576546
 31
0.0
  0
LINE
  5
372
  8
DATA
  6
CONTINUOUS
 62
     7
 10
815.20981203342456
 20
-728.61524612751771
 30
0.0
 11
816.45336839225592
 21
-727.77645677231214
 31
0.0
  0
LINE
  5
373
  8
DATA
  6
CONTINUOUS
 62
     7
 10
814.65150917742051
 20
-727.90065105874532
 30
0.0
 11
815.76622641563551
 21
-726.89695514920732
 31
0.0
  0
LINE
  5
374
  8
DATA
  6
CONTINUOUS
 62
     7
 10
813.99918727477916
 20
-727.27071111980467
 30
0.0
 11
814.96336868930894
 21
-726.12164445512576
 31
0.0
  0
LINE
  5
375
  8
DATA
  6
CONTINUOUS
 62
     7
 10
813.26554302933334
 20
-726.73768737506123
 30
0.0
 11
814.06042192568145
 21
-725.46561523082676
 31
0.0
  0
LINE
  5
376
  8
DATA
  6
CONTINUOUS
 62
     7
 10
812.46485599180915
 20
-726.31195452540192
 30
0.0
 11
813.07496095642239
 21
-724.94163633893709
 31
0.0
  0
LINE
  5
377
  8
DATA
  6
CONTINUOUS
 62
     7
 10
811.61271062462629
 20
-726.00179897647899
 30
0.0
 11
812.02616665835251
 21
-724.55990643257189
 31
0.0
  0
LINE
  5
378
  8
DATA
  6
CONTINUOUS
 62
     7
 10
810.72569296805659
 20
-725.81325755325793
 30
0.0
 11
810.93445261949705
 21
-724.32785545014633
 31
0.0
  0
LINE
  5
379
  8
DATA
  6
CONTINUOUS
 62
     7
 10
808.91644265557682
 20
-725.81325755326327
 30
0.0
 11
808.70768300413556
 21
-724.32785545014553
 31
0.0
  0
LINE
  5
37A
  8
DATA
  6
CONTINUOUS
 62
     7
 10
808.0294249990053
 20
-726.00179897647774
 30
0.0
 11
807.6159689652801
 21
-724.55990643257212
 31
0.0
  0
LINE
  5
37B
  8
DATA
  6
CONTINUOUS
 62
     7
 10
807.17727963182347
 20
-726.31195452540055
 30
0.0
 11
806.56717466720931
 21
-724.94163633893754
 31
0.0
  0
LINE
  5
37C
  8
DATA
  6
CONTINUOUS
 62
     7
 10
806.37659259430131
 20
-726.73768737506123
 30
0.0
 11
805.58171369795002
 21
-725.46561523082585
 31
0.0
  0
LINE
  5
37D
  8
DATA
  6
CONTINUOUS
 62
     7
 10
805.64294834885425
 20
-727.27071111980445
 30
0.0
 11
804.67876693432345
 21
-726.12164445512622
 31
0.0
  0
LINE
  5
37E
  8
DATA
  6
CONTINUOUS
 62
     7
 10
804.9906264462137
 20
-727.90065105874532
 30
0.0
 11
803.87590920799687
 21
-726.89695514920732
 31
0.0
  0
LINE
  5
37F
  8
DATA
  6
CONTINUOUS
 62
     7
 10
804.43232359020794
 20
-728.6152461275185
 30
0.0
 11
803.18876723137555
 21
-727.77645677231214
 31
0.0
  0
LINE
  5
380
  8
DATA
  6
CONTINUOUS
 62
     7
 10
803.9789065108713
 20
-729.40058754594895
 30
0.0
 11
802.63071544142383
 21
-728.74303082576614
 31
0.0
  0
ARC
  5
381
  8
DATA
  6
CONTINUOUS
 62
     7
 10
810.44823859142195
 20
-726.28286862786854
 30
0.0
 40
0.4999999999990113
 50
351.61198453549321
 51
176.3880154644454
  0
ARC
  5
382
  8
DATA
  6
CONTINUOUS
 62
     7
 10
809.82106781181255
 20
-732.25000000008265
 30
0.0
 40
5.9999999999939684
 50
238.78019184717519
 51
229.2198081527709
  0
ARC
  5
383
  8
DATA
  6
CONTINUOUS
 62
     7
 10
809.82106781186565
 20
-732.24999999999989
 30
0.0
 40
5.0000000000923901
 50
239.73026269141371
 51
228.2608295228726
  0
ARC
  5
384
  8
DATA
  6
CONTINUOUS
 62
     7
 10
808.35160468108779
 20
-734.2725424860065
 30
0.0
 40
2.500000000008828
 50
245.53695903275849
 51
222.46304096722159
  0
ARC
  5
385
  8
DATA
  6
CONTINUOUS
 62
     7
 10
807.38064795335833
 20
-726.76872725422174
 30
0.0
 40
0.5000000000004735
 50
21.61198453550028
 51
206.38801546441431
  0
ARC
  5
386
  8
DATA
  6
CONTINUOUS
 62
     7
 10
804.96696584556094
 20
-728.72328848632344
 30
0.0
 40
0.4999999999997923
 50
51.61198453558476
 51
236.38801546443511
  0
ARC
  5
387
  8
DATA
  6
CONTINUOUS
 62
     7
 10
803.8539364395989
 20
-731.62282922047405
 30
0.0
 40
0.4999999999995867
 50
81.611984535581826
 51
266.3880154644163
  0
ARC
  5
388
  8
DATA
  6
CONTINUOUS
 62
     7
 10
804.33979506595233
 20
-734.69041985853744
 30
0.0
 40
0.5000000000002182
 50
111.6119845355679
 51
296.38801546446058
  0
ARC
  5
389
  8
DATA
  6
CONTINUOUS
 62
     7
 10
806.29435629805323
 20
-737.10410196633495
 30
0.0
 40
0.4999999999997766
 50
144.00000000006671
 51
324.0000000000457
  0
ARC
  5
38A
  8
DATA
  6
CONTINUOUS
 62
     7
 10
809.19389703220509
 20
-738.21713137229699
 30
0.0
 40
0.4999999999999111
 50
171.6119845355083
 51
356.38801546446501
  0
ARC
  5
38B
  8
DATA
  6
CONTINUOUS
 62
     7
 10
812.261487670267
 20
-737.73127274594333
 30
0.0
 40
0.5000000000006409
 50
201.6119845355488
 51
26.388015464390971
  0
ARC
  5
38C
  8
DATA
  6
CONTINUOUS
 62
     7
 10
814.6751697780652
 20
-735.77671151384232
 30
0.0
 40
0.4999999999998225
 50
231.6119845354545
 51
56.388015464435092
  0
ARC
  5
38D
  8
DATA
  6
CONTINUOUS
 62
     7
 10
815.78819918402621
 20
-732.87717077969103
 30
0.0
 40
0.5000000000000365
 50
261.61198453558939
 51
86.388015464419524
  0
ARC
  5
38E
  8
DATA
  6
CONTINUOUS
 62
     7
 10
815.30234055767369
 20
-729.80958014162786
 30
0.0
 40
0.4999999999996719
 50
291.61198453548059
 51
116.388015464449
  0
ARC
  5
38F
  8
DATA
  6
CONTINUOUS
 62
     7
 10
813.34777932557211
 20
-727.39589803383046
 30
0.0
 40
0.5000000000007875
 50
321.6119845356086
 51
146.3880154644277
  0
LINE
  5
390
  8
DATA
  6
CONTINUOUS
 62
     7
 10
809.82234740949889
 20
-818.25
 30
0.0
 11
794.82108829056835
 21
-818.25
 31
0.0
  0
LINE
  5
391
  8
DATA
  6
CONTINUOUS
 62
     7
 10
814.822347409499
 20
-808.25029291666669
 30
0.0
 11
814.822347409499
 21
-813.25
 31
0.0
  0
LINE
  5
392
  8
DATA
  6
CONTINUOUS
 62
     7
 10
819.82234740949889
 20
-803.25029291666658
 30
0.0
 11
821.22106781126558
 21
-803.25029291666658
 31
0.0
  0
LINE
  5
393
  8
DATA
  6
CONTINUOUS
 62
     7
 10
821.22106781126558
 20
-706.74999999999989
 30
0.0
 11
803.32106782616529
 21
-706.74999999999989
 31
0.0
  0
ARC
  5
394
  8
DATA
  6
CONTINUOUS
 62
     7
 10
821.22106781126558
 20
-711.74999999999989
 30
0.0
 40
5.0
 50
0.0
 51
90.0
  0
ARC
  5
395
  8
DATA
  6
CONTINUOUS
 62
     7
 10
821.22106781126558
 20
-798.25029291666669
 30
0.0
 40
5.0
 50
270.0
 51
0.0
  0
ARC
  5
396
  8
DATA
  6
CONTINUOUS
 62
     7
 10
819.82234740949889
 20
-808.25029291666669
 30
0.0
 40
5.0
 50
90.0
 51
180.0
  0
ARC
  5
397
  8
DATA
  6
CONTINUOUS
 62
     7
 10
809.82234740949889
 20
-813.25
 30
0.0
 40
5.0
 50
270.0
 51
0.0
  0
LINE
  5
398
  8
DATA
  6
CONTINUOUS
 62
     7
 10
722.32106781186553
 20
-969.25
 30
0.0
 11
722.32106781186553
 21
-605.25
 31
0.0
  0
LINE
  5
399
  8
DATA
  6
CONTINUOUS
 62
     7
 10
742.32106781186553
 20
-959.24999999999989
 30
0.0
 11
742.32106781186553
 21
-615.24999999999989
 31
0.0
  0
LINE
  5
39A
  8
DATA
  6
CONTINUOUS
 62
     7
 10
887.32106781186542
 20
-979.25
 30
0.0
 11
732.32106781186553
 21
-979.25
 31
0.0
  0
LINE
  5
39B
  8
DATA
  6
CONTINUOUS
 62
     7
 10
742.32106781186553
 20
-959.24999999999989
 30
0.0
 11
877.32106781186553
 21
-959.24999999999989
 31
0.0
  0
LINE
  5
39C
  8
DATA
  6
CONTINUOUS
 62
     7
 10
877.32106781186553
 20
-909.24999999999989
 30
0.0
 11
742.32106781186553
 21
-909.24999999999989
 31
0.0
  0
LINE
  5
39D
  8
DATA
  6
CONTINUOUS
 62
     7
 10
877.32106781186553
 20
-904.25
 30
0.0
 11
742.32106781186553
 21
-904.25
 31
0.0
  0
LINE
  5
39E
  8
DATA
  6
CONTINUOUS
 62
     7
 10
897.32106781186565
 20
-605.25
 30
0.0
 11
897.32106781186565
 21
-969.25
 31
0.0
  0
LINE
  5
39F
  8
DATA
  6
CONTINUOUS
 62
     7
 10
877.32106781186553
 20
-615.24999999999989
 30
0.0
 11
877.32106781186553
 21
-959.24999999999989
 31
0.0
  0
LINE
  5
3A0
  8
DATA
  6
CONTINUOUS
 62
     7
 10
732.32106781186553
 20
-595.24999999999989
 30
0.0
 11
887.32106781186542
 21
-595.24999999999989
 31
0.0
  0
LINE
  5
3A1
  8
DATA
  6
CONTINUOUS
 62
     7
 10
742.32106781186553
 20
-615.24999999999989
 30
0.0
 11
877.32106781186553
 21
-615.24999999999989
 31
0.0
  0
ARC
  5
3A2
  8
DATA
  6
CONTINUOUS
 62
     7
 10
732.32106781186553
 20
-969.25
 30
0.0
 40
10.0
 50
180.0
 51
270.0
  0
ARC
  5
3A3
  8
DATA
  6
CONTINUOUS
 62
     7
 10
887.32106781186542
 20
-969.25
 30
0.0
 40
10.0
 50
270.0
 51
0.0
  0
ARC
  5
3A4
  8
DATA
  6
CONTINUOUS
 62
     7
 10
732.32106781186553
 20
-605.25
 30
0.0
 40
10.0
 50
90.0
 51
180.0
  0
ARC
  5
3A5
  8
DATA
  6
CONTINUOUS
 62
     7
 10
887.32106781186542
 20
-605.25
 30
0.0
 40
10.0
 50
0.0
 51
90.0
  0
CIRCLE
  5
3A6
  8
DATA
  6
CONTINUOUS
 62
     7
 10
843.32106781186553
 20
-954.25
 30
0.0
 40
2.5000000000004241
  0
CIRCLE
  5
3A7
  8
DATA
  6
CONTINUOUS
 62
     7
 10
776.32106781186553
 20
-954.25
 30
0.0
 40
2.5000000000004241
  0
LINE
  5
3A8
  8
DATA
  6
CONTINUOUS
 62
     7
 10
774.82106781186553
 20
-954.25
 30
0.0
 11
777.82106781186553
 21
-954.25
 31
0.0
  0
LINE
  5
3A9
  8
DATA
  6
CONTINUOUS
 62
     7
 10
776.24106781186572
 20
-955.75
 30
0.0
 11
776.24106781186572
 21
-952.74999999999989
 31
0.0
  0
LINE
  5
3AA
  8
DATA
  6
CONTINUOUS
 62
     7
 10
844.82106781186553
 20
-954.25
 30
0.0
 11
841.82106781186542
 21
-954.25
 31
0.0
  0
LINE
  5
3AB
  8
DATA
  6
CONTINUOUS
 62
     7
 10
843.40106781186512
 20
-955.75
 30
0.0
 11
843.40106781186512
 21
-952.74999999999989
 31
0.0
  0
ARC
  5
3AC
  8
DATA
  6
CONTINUOUS
 62
     7
 10
784.32106781190157
 20
-875.24999999994873
 30
0.0
 40
23.249999999937408
 50
60.356338108124589
 51
143.44380664840369
  0
ARC
  5
3AD
  8
DATA
  6
CONTINUOUS
 62
     7
 10
784.32106781190157
 20
-875.24999999994873
 30
0.0
 40
23.249999999938169
 50
150.35633810836481
 51
233.44380664831979
  0
ARC
  5
3AE
  8
DATA
  6
CONTINUOUS
 62
     7
 10
784.32106781190157
 20
-875.24999999994873
 30
0.0
 40
23.249999999937589
 50
240.35633810827451
 51
323.44380664809802
  0
ARC
  5
3AF
  8
DATA
  6
CONTINUOUS
 62
     7
 10
784.32106781190157
 20
-875.24999999994873
 30
0.0
 40
23.249999999937032
 50
330.35633810803893
 51
53.443806648181237
  0
ARC
  5
3B0
  8
DATA
  6
CONTINUOUS
 62
     7
 10
784.32106781183643
 20
-875.2500000000615
 30
0.0
 40
19.000000000067772
 50
68.200922830828603
 51
149.13323278369131
  0
ARC
  5
3B1
  8
DATA
  6
CONTINUOUS
 62
     7
 10
784.32106781183643
 20
-875.2500000000615
 30
0.0
 40
19.000000000066802
 50
158.2009228304685
 51
239.13323278374969
  0
ARC
  5
3B2
  8
DATA
  6
CONTINUOUS
 62
     7
 10
784.32106781183643
 20
-875.2500000000615
 30
0.0
 40
19.000000000067349
 50
248.20092283053259
 51
329.13323278407648
  0
ARC
  5
3B3
  8
DATA
  6
CONTINUOUS
 62
     7
 10
784.32106781183643
 20
-875.2500000000615
 30
0.0
 40
19.000000000067988
 50
338.20092283089531
 51
59.133232784015888
  0
ARC
  5
3B4
  8
DATA
  6
CONTINUOUS
 62
     7
 10
784.32106781186724
 20
-875.24999999998875
 30
0.0
 40
16.499999999988589
 50
75.407766102218673
 51
154.09772123936361
  0
ARC
  5
3B5
  8
DATA
  6
CONTINUOUS
 62
     7
 10
784.32106781186724
 20
-875.24999999998875
 30
0.0
 40
16.499999999988251
 50
165.40776610230151
 51
244.097721239371
  0
ARC
  5
3B6
  8
DATA
  6
CONTINUOUS
 62
     7
 10
784.32106781186724
 20
-875.24999999998875
 30
0.0
 40
16.499999999988329
 50
255.40776610230969
 51
334.0977212393035
  0
ARC
  5
3B7
  8
DATA
  6
CONTINUOUS
 62
     7
 10
784.32106781186724
 20
-875.24999999998875
 30
0.0
 40
16.49999999998883
 50
345.40776610223122
 51
64.097721239291559
  0
ARC
  5
3B8
  8
DATA
  6
CONTINUOUS
 62
     7
 10
784.32106781186553
 20
-875.25000000000102
 30
0.0
 40
11.75000000000086
 50
119.9999999999975
 51
171.92777458635189
  0
ARC
  5
3B9
  8
DATA
  6
CONTINUOUS
 62
     7
 10
784.32106781186553
 20
-875.25000000000102
 30
0.0
 40
11.750000000000099
 50
210.00000000000219
 51
261.9277745863443
  0
ARC
  5
3BA
  8
DATA
  6
CONTINUOUS
 62
     7
 10
784.32106781186553
 20
-875.25000000000102
 30
0.0
 40
11.75000000000132
 50
300.00000000000148
 51
351.92777458635459
  0
ARC
  5
3BB
  8
DATA
  6
CONTINUOUS
 62
     7
 10
784.32106781186553
 20
-875.25000000000102
 30
0.0
 40
11.75000000000168
 50
29.999999999997829
 51
81.927774586357813
  0
LINE
  5
3BC
  8
DATA
  6
CONTINUOUS
 62
     7
 10
774.14526931739829
 20
-881.12499999999989
 30
0.0
 11
768.35330289830449
 21
-871.09301988639709
 31
0.0
  0
LINE
  5
3BD
  8
DATA
  6
CONTINUOUS
 62
     7
 10
766.67972345653345
 20
-868.19429526274689
 30
0.0
 11
764.11406799352847
 21
-863.75044964610584
 31
0.0
  0
LINE
  5
3BE
  8
DATA
  6
CONTINUOUS
 62
     7
 10
772.6874886403117
 20
-873.60004980099552
 30
0.0
 11
769.4786511158951
 21
-868.04218017547021
 31
0.0
  0
LINE
  5
3BF
  8
DATA
  6
CONTINUOUS
 62
     7
 10
768.01217791142301
 20
-865.50217407738728
 30
0.0
 11
765.64496832300904
 21
-861.40204679809005
 31
0.0
  0
LINE
  5
3C0
  8
DATA
  6
CONTINUOUS
 62
     7
 10
778.44606781186553
 20
-865.07420150553298
 30
0.0
 11
788.47804792548186
 21
-859.28223508643146
 31
0.0
  0
LINE
  5
3C1
  8
DATA
  6
CONTINUOUS
 62
     7
 10
791.37677254904042
 20
-857.60865564471305
 30
0.0
 11
795.82061816575947
 21
-855.04300018166339
 31
0.0
  0
LINE
  5
3C2
  8
DATA
  6
CONTINUOUS
 62
     7
 10
785.97101801087183
 20
-863.61642082844639
 30
0.0
 11
791.52888763640453
 21
-860.40758330402423
 31
0.0
  0
LINE
  5
3C3
  8
DATA
  6
CONTINUOUS
 62
     7
 10
794.06889373441891
 20
-858.94111009959261
 30
0.0
 11
798.1690210137773
 21
-856.57390051114351
 31
0.0
  0
LINE
  5
3C4
  8
DATA
  6
CONTINUOUS
 62
     7
 10
794.49686630633255
 20
-869.37499999999989
 30
0.0
 11
800.28883272542475
 21
-879.40698011360109
 31
0.0
  0
LINE
  5
3C5
  8
DATA
  6
CONTINUOUS
 62
     7
 10
801.96241216719193
 20
-882.30570473724515
 30
0.0
 11
804.52806763020146
 21
-886.74955035389405
 31
0.0
  0
LINE
  5
3C6
  8
DATA
  6
CONTINUOUS
 62
     7
 10
795.95464698342107
 20
-876.89995019900834
 30
0.0
 11
799.16348450783221
 21
-882.45781982452274
 31
0.0
  0
LINE
  5
3C7
  8
DATA
  6
CONTINUOUS
 62
     7
 10
800.62995771231419
 20
-884.99782592262557
 30
0.0
 11
802.99716730072169
 21
-889.09795320191085
 31
0.0
  0
LINE
  5
3C8
  8
DATA
  6
CONTINUOUS
 62
     7
 10
790.19606781186553
 20
-885.42579849446702
 30
0.0
 11
780.16408769827694
 21
-891.21776491355195
 31
0.0
  0
LINE
  5
3C9
  8
DATA
  6
CONTINUOUS
 62
     7
 10
777.26536307454137
 20
-892.89134435537278
 30
0.0
 11
772.82151745797137
 21
-895.45699981833639
 31
0.0
  0
LINE
  5
3CA
  8
DATA
  6
CONTINUOUS
 62
     7
 10
782.67111761285696
 20
-886.88357917155486
 30
0.0
 11
777.11324798735086
 21
-890.0924166959619
 31
0.0
  0
LINE
  5
3CB
  8
DATA
  6
CONTINUOUS
 62
     7
 10
774.57324188917892
 20
-891.55888990048447
 30
0.0
 11
770.47311460995434
 21
-893.92609948885672
 31
0.0
  0
LINE
  5
3CC
  8
DATA
  6
CONTINUOUS
 62
     7
 10
837.82106781186553
 20
-892.24999999999989
 30
0.0
 11
837.82106781186553
 21
-849.24999999999989
 31
0.0
  0
LINE
  5
3CD
  8
DATA
  6
CONTINUOUS
 62
     7
 10
839.82106781186553
 20
-869.25
 30
0.0
 11
839.82106781186553
 21
-851.24999999999989
 31
0.0
  0
LINE
  5
3CE
  8
DATA
  6
CONTINUOUS
 62
     7
 10
841.82106781186542
 20
-867.24999999999989
 30
0.0
 11
841.82106781186542
 21
-853.25
 31
0.0
  0
LINE
  5
3CF
  8
DATA
  6
CONTINUOUS
 62
     7
 10
865.82106781186542
 20
-892.24999999999989
 30
0.0
 11
837.82106781186553
 21
-892.24999999999989
 31
0.0
  0
LINE
  5
3D0
  8
DATA
  6
CONTINUOUS
 62
     7
 10
865.82106781186542
 20
-849.24999999999989
 30
0.0
 11
865.82106781186542
 21
-892.24999999999989
 31
0.0
  0
LINE
  5
3D1
  8
DATA
  6
CONTINUOUS
 62
     7
 10
863.82106781186553
 20
-851.24999999999989
 30
0.0
 11
863.82106781186553
 21
-869.25
 31
0.0
  0
LINE
  5
3D2
  8
DATA
  6
CONTINUOUS
 62
     7
 10
861.82106781186553
 20
-853.25
 30
0.0
 11
861.82106781186553
 21
-867.24999999999989
 31
0.0
  0
LINE
  5
3D3
  8
DATA
  6
CONTINUOUS
 62
     7
 10
837.82106781186553
 20
-849.24999999999989
 30
0.0
 11
865.82106781186542
 21
-849.24999999999989
 31
0.0
  0
LINE
  5
3D4
  8
DATA
  6
CONTINUOUS
 62
     7
 10
839.82106781186553
 20
-851.24999999999989
 30
0.0
 11
863.82106781186553
 21
-851.24999999999989
 31
0.0
  0
LINE
  5
3D5
  8
DATA
  6
CONTINUOUS
 62
     7
 10
839.82106781186553
 20
-882.24999999999989
 30
0.0
 11
839.82106781186553
 21
-871.25
 31
0.0
  0
LINE
  5
3D6
  8
DATA
  6
CONTINUOUS
 62
     7
 10
844.82106781186553
 20
-887.25
 30
0.0
 11
839.82106781186553
 21
-882.24999999999989
 31
0.0
  0
LINE
  5
3D7
  8
DATA
  6
CONTINUOUS
 62
     7
 10
858.82106781186542
 20
-887.25
 30
0.0
 11
844.82106781186553
 21
-887.25
 31
0.0
  0
LINE
  5
3D8
  8
DATA
  6
CONTINUOUS
 62
     7
 10
863.82106781186553
 20
-882.24999999999989
 30
0.0
 11
858.82106781186542
 21
-887.25
 31
0.0
  0
LINE
  5
3D9
  8
DATA
  6
CONTINUOUS
 62
     7
 10
863.82106781186553
 20
-871.25
 30
0.0
 11
863.82106781186553
 21
-882.24999999999989
 31
0.0
  0
LINE
  5
3DA
  8
DATA
  6
CONTINUOUS
 62
     7
 10
839.82106781186553
 20
-871.25
 30
0.0
 11
863.82106781186553
 21
-871.25
 31
0.0
  0
LINE
  5
3DB
  8
DATA
  6
CONTINUOUS
 62
     7
 10
839.82106781186553
 20
-869.25
 30
0.0
 11
863.82106781186553
 21
-869.25
 31
0.0
  0
ARC
  5
3DC
  8
DATA
  6
CONTINUOUS
 62
     7
 10
763.09612148068345
 20
-922.9029451963338
 30
0.0
 40
0.2869048033359047
 50
307.64190249759048
 51
354.2670192896154
  0
LINE
  5
3DD
  8
DATA
  6
CONTINUOUS
 62
     7
 10
755.72662325346812
 20
-918.38178983701835
 30
0.0
 11
757.07163725346675
 21
-915.17699783701858
 31
0.0
  0
LINE
  5
3DE
  8
DATA
  6
CONTINUOUS
 62
     7
 10
755.72662325346812
 20
-918.38178983701835
 30
0.0
 11
754.39820525346693
 21
-915.17699783701858
 31
0.0
  0
LINE
  5
3DF
  8
DATA
  6
CONTINUOUS
 62
     7
 10
765.92218325346812
 20
-924.17699783701858
 30
0.0
 11
765.92218325346812
 21
-915.17699783701858
 31
0.0
  0
LINE
  5
3E0
  8
DATA
  6
CONTINUOUS
 62
     7
 10
767.64912125346802
 20
-915.17699783701858
 30
0.0
 11
767.64912125346802
 21
-922.79877383701762
 31
0.0
  0
LINE
  5
3E1
  8
DATA
  6
CONTINUOUS
 62
     7
 10
757.70263625346752
 20
-915.17699783701858
 30
0.0
 11
757.70263625346752
 21
-922.79877383701762
 31
0.0
  0
LINE
  5
3E2
  8
DATA
  6
CONTINUOUS
 62
     7
 10
759.36315425346822
 20
-915.17699783701858
 30
0.0
 11
759.36315425346822
 21
-922.79877383701762
 31
0.0
  0
LINE
  5
3E3
  8
DATA
  6
CONTINUOUS
 62
     7
 10
760.22662325346812
 20
-915.17699783701858
 30
0.0
 11
760.22662325346812
 21
-924.17699783701858
 31
0.0
  0
LINE
  5
3E4
  8
DATA
  6
CONTINUOUS
 62
     7
 10
761.73769625346779
 20
-916.02385283701767
 30
0.0
 11
761.73769625346779
 21
-918.91315883701782
 31
0.0
  0
LINE
  5
3E5
  8
DATA
  6
CONTINUOUS
 62
     7
 10
764.97641825346784
 20
-918.74597483701848
 30
0.0
 11
764.97641825346784
 21
-916.63825583701794
 31
0.0
  0
LINE
  5
3E6
  8
DATA
  6
CONTINUOUS
 62
     7
 10
763.38159125346692
 20
-916.42238183701829
 30
0.0
 11
763.38159125346692
 21
-918.51463883701877
 31
0.0
  0
ARC
  5
3E7
  8
DATA
  6
CONTINUOUS
 62
     7
 10
757.36942025346843
 20
-921.86597783701768
 30
0.0
 40
2.3209680826510288
 50
264.69085622148839
 51
323.9911991542312
  0
LINE
  5
3E8
  8
DATA
  6
CONTINUOUS
 62
     7
 10
756.44064725346891
 20
-921.35411183701785
 30
0.0
 11
756.44064725346891
 21
-922.79875583701767
 31
0.0
  0
LINE
  5
3E9
  8
DATA
  6
CONTINUOUS
 62
     7
 10
756.44064725346891
 20
-921.35411183701785
 30
0.0
 11
754.94617925346813
 21
-921.35411183701785
 31
0.0
  0
LINE
  5
3EA
  8
DATA
  6
CONTINUOUS
 62
     7
 10
754.94617925346813
 20
-921.35411183701785
 30
0.0
 11
754.94617925346813
 21
-922.79875583701767
 31
0.0
  0
ARC
  5
3EB
  8
DATA
  6
CONTINUOUS
 62
     7
 10
757.07480525346784
 20
-922.81823183701829
 30
0.0
 40
0.6281359436174772
 50
269.71184879276251
 51
1.775987005712067
  0
ARC
  5
3EC
  8
DATA
  6
CONTINUOUS
 62
     7
 10
757.06847825346688
 20
-922.81823183701829
 30
0.0
 40
0.6281327317115519
 50
178.22401299438391
 51
270.28815120729058
  0
ARC
  5
3ED
  8
DATA
  6
CONTINUOUS
 62
     7
 10
756.93991325346781
 20
-921.86597783701768
 30
0.0
 40
2.3209643132525319
 50
216.00880084574641
 51
275.30914377847182
  0
ARC
  5
3EE
  8
DATA
  6
CONTINUOUS
 62
     7
 10
755.99507525346837
 20
-922.74787883701845
 30
0.0
 40
1.0501201873593851
 50
182.7769954499737
 51
207.35960666708209
  0
CIRCLE
  5
3EF
  8
DATA
  6
CONTINUOUS
 62
     7
 10
755.81795525346809
 20
-919.62718283701838
 30
0.0
 40
0.8551619999998366
  0
LINE
  5
3F0
  8
DATA
  6
CONTINUOUS
 62
     7
 10
770.42218325346812
 20
-924.17698883701746
 30
0.0
 11
765.92218325346812
 21
-924.17698883701746
 31
0.0
  0
LINE
  5
3F1
  8
DATA
  6
CONTINUOUS
 62
     7
 10
770.42218325346812
 20
-924.17698883701746
 30
0.0
 11
770.42218325346812
 21
-921.35410283701924
 31
0.0
  0
LINE
  5
3F2
  8
DATA
  6
CONTINUOUS
 62
     7
 10
770.42218325346812
 20
-921.35411183701785
 30
0.0
 11
768.91111925346775
 21
-921.35411183701785
 31
0.0
  0
LINE
  5
3F3
  8
DATA
  6
CONTINUOUS
 62
     7
 10
768.91111925346775
 20
-921.35411183701785
 30
0.0
 11
768.91111925346775
 21
-922.79875583701767
 31
0.0
  0
LINE
  5
3F4
  8
DATA
  6
CONTINUOUS
 62
     7
 10
760.22662325346812
 20
-924.17698883701746
 30
0.0
 11
763.38159125346692
 21
-924.17697983701783
 31
0.0
  0
LINE
  5
3F5
  8
DATA
  6
CONTINUOUS
 62
     7
 10
761.73768725346838
 20
-923.33012483701816
 30
0.0
 11
762.55134125346785
 21
-923.33012483701816
 31
0.0
  0
LINE
  5
3F6
  8
DATA
  6
CONTINUOUS
 62
     7
 10
761.73769625346779
 20
-923.33012483701816
 30
0.0
 11
761.73769625346779
 21
-919.77661883701785
 31
0.0
  0
LINE
  5
3F7
  8
DATA
  6
CONTINUOUS
 62
     7
 10
761.73768725346838
 20
-919.77661883701785
 30
0.0
 11
762.55134125346785
 21
-919.77661883701785
 31
0.0
  0
LINE
  5
3F8
  8
DATA
  6
CONTINUOUS
 62
     7
 10
763.38159125346692
 20
-922.93160483701763
 30
0.0
 11
763.38159125346692
 21
-920.17513883701895
 31
0.0
  0
ARC
  5
3F9
  8
DATA
  6
CONTINUOUS
 62
     7
 10
758.31425825346776
 20
-922.74787883701845
 30
0.0
 40
1.0501186930780719
 50
332.64039333284268
 51
357.22300455000988
  0
ARC
  5
3FA
  8
DATA
  6
CONTINUOUS
 62
     7
 10
768.28327925346866
 20
-922.81823183701829
 30
0.0
 40
0.6281359436174772
 50
269.71184879276251
 51
1.775987005712067
  0
ARC
  5
3FB
  8
DATA
  6
CONTINUOUS
 62
     7
 10
768.27696125346722
 20
-922.81823183701829
 30
0.0
 40
0.62813273171337
 50
178.22401299438889
 51
270.28815120728967
  0
LINE
  5
3FC
  8
DATA
  6
CONTINUOUS
 62
     7
 10
764.97568925346843
 20
-922.73233583701881
 30
0.0
 11
764.97568925346843
 21
-920.34119783701783
 31
0.0
  0
LINE
  5
3FD
  8
DATA
  6
CONTINUOUS
 62
     7
 10
761.73768725346838
 20
-918.91315883701782
 30
0.0
 11
762.55134125346785
 21
-918.91315883701782
 31
0.0
  0
ARC
  5
3FE
  8
DATA
  6
CONTINUOUS
 62
     7
 10
763.26718325346758
 20
-922.46845583701827
 30
0.0
 40
1.7123502705459379
 50
273.83098160909748
 51
351.1351473098112
  0
LINE
  5
3FF
  8
DATA
  6
CONTINUOUS
 62
     7
 10
757.70263625346752
 20
-915.17699783701858
 30
0.0
 11
759.36315425346822
 21
-915.17699783701858
 31
0.0
  0
LINE
  5
400
  8
DATA
  6
CONTINUOUS
 62
     7
 10
754.39820525346693
 20
-915.17699783701858
 30
0.0
 11
757.07163725346675
 21
-915.17699783701858
 31
0.0
  0
LINE
  5
401
  8
DATA
  6
CONTINUOUS
 62
     7
 10
765.92218325346812
 20
-915.17699783701858
 30
0.0
 11
767.64912125346802
 21
-915.17699783701858
 31
0.0
  0
LINE
  5
402
  8
DATA
  6
CONTINUOUS
 62
     7
 10
760.22662325346812
 20
-915.17699783701858
 30
0.0
 11
763.39893436879947
 21
-915.17700512138435
 31
0.0
  0
LINE
  5
403
  8
DATA
  6
CONTINUOUS
 62
     7
 10
761.73768725346838
 20
-916.02386183701788
 30
0.0
 11
762.55134125346785
 21
-916.02386183701788
 31
0.0
  0
ARC
  5
404
  8
DATA
  6
CONTINUOUS
 62
     7
 10
763.28425625346836
 20
-916.88291183701881
 30
0.0
 40
1.709756939619852
 50
8.2269238590440068
 51
86.154126692181322
  0
ARC
  5
405
  8
DATA
  6
CONTINUOUS
 62
     7
 10
762.56094916981078
 20
-921.75180567248958
 30
0.0
 40
1.5783484080439929
 50
269.65121993760812
 51
282.82648280688181
  0
ARC
  5
406
  8
DATA
  6
CONTINUOUS
 62
     7
 10
762.73822267818684
 20
-922.41910011712332
 30
0.0
 40
0.8886941133236042
 50
281.23310362276038
 51
306.8620088940894
  0
ARC
  5
407
  8
DATA
  6
CONTINUOUS
 62
     7
 10
763.09612148068345
 20
-920.20379847770278
 30
0.0
 40
0.2869048033358559
 50
5.7329807103845116
 51
52.358097502381838
  0
ARC
  5
408
  8
DATA
  6
CONTINUOUS
 62
     7
 10
762.56094916981078
 20
-921.35493800154677
 30
0.0
 40
1.578348408043986
 50
77.173517193118244
 51
90.348780062391782
  0
ARC
  5
409
  8
DATA
  6
CONTINUOUS
 62
     7
 10
762.73822267818684
 20
-920.68764355691314
 30
0.0
 40
0.8886941133235801
 50
53.137991105901783
 51
78.766896377236819
  0
ARC
  5
40A
  8
DATA
  6
CONTINUOUS
 62
     7
 10
764.10477725346811
 20
-920.40006683701836
 30
0.0
 40
0.8728993475227257
 50
3.867006359847649
 51
88.361634567947604
  0
ARC
  5
40B
  8
DATA
  6
CONTINUOUS
 62
     7
 10
764.10397625346786
 20
-918.65413883701785
 30
0.0
 40
0.8737667459524635
 50
271.689282104634
 51
356.07828298258949
  0
ARC
  5
40C
  8
DATA
  6
CONTINUOUS
 62
     7
 10
763.09612148068345
 20
-918.48597919633289
 30
0.0
 40
0.2869048033359047
 50
307.64190249759048
 51
354.26701928925399
  0
ARC
  5
40D
  8
DATA
  6
CONTINUOUS
 62
     7
 10
762.56094916981078
 20
-917.33483967248981
 30
0.0
 40
1.5783484080430841
 50
269.651219937608
 51
282.82648280688909
  0
ARC
  5
40E
  8
DATA
  6
CONTINUOUS
 62
     7
 10
762.73822267818684
 20
-918.00213411712218
 30
0.0
 40
0.8886941133253882
 50
281.23310362273747
 51
306.86200889415687
  0
ARC
  5
40F
  8
DATA
  6
CONTINUOUS
 62
     7
 10
763.09612148068345
 20
-916.45104147770235
 30
0.0
 40
0.2869048033358559
 50
5.7329807103845116
 51
52.358097502381838
  0
ARC
  5
410
  8
DATA
  6
CONTINUOUS
 62
     7
 10
762.56094916981078
 20
-917.60218100154634
 30
0.0
 40
1.578348408043986
 50
77.173517193118244
 51
90.348780062391782
  0
ARC
  5
411
  8
DATA
  6
CONTINUOUS
 62
     7
 10
762.73822267818684
 20
-916.9348865569126
 30
0.0
 40
0.8886941133235801
 50
53.137991105901783
 51
78.766896377236819
  0
POLYLINE
  5
412
  8
DATA
  6
CONTINUOUS
 62
     7
 66
     1
 10
0.0
 20
0.0
 30
0.0
 70
     1
  0
VERTEX
  5
7C6
  8
DATA
  6
CONTINUOUS
 62
     7
 10
750.6210678118648
 20
-913.25
 30
0.0
  0
VERTEX
  5
7C7
  8
DATA
  6
CONTINUOUS
 62
     7
 10
775.6210678118648
 20
-913.25
 30
0.0
  0
VERTEX
  5
7C8
  8
DATA
  6
CONTINUOUS
 62
     7
 10
775.6210678118648
 20
-938.25
 30
0.0
  0
VERTEX
  5
7C9
  8
DATA
  6
CONTINUOUS
 62
     7
 10
750.6210678118648
 20
-938.25
 30
0.0
  0
SEQEND
  5
7CA
  8
DATA
  6
CONTINUOUS
 62
     7
  0
LINE
  5
419
  8
DATA
  6
CONTINUOUS
 62
     7
 10
861.82106781186553
 20
-867.24999999999989
 30
0.0
 11
841.82106781186542
 21
-867.24999999999989
 31
0.0
  0
LINE
  5
41A
  8
DATA
  6
CONTINUOUS
 62
     7
 10
841.82106781186542
 20
-853.25
 30
0.0
 11
861.82106781186553
 21
-853.25
 31
0.0
  0
LINE
  5
41B
  8
DATA
  6
CONTINUOUS
 62
     7
 10
841.82106781186542
 20
-855.25
 30
0.0
 11
861.82106781186553
 21
-855.25
 31
0.0
  0
CIRCLE
  5
41C
  8
DATA
  6
CONTINUOUS
 62
     7
 10
851.82106781186565
 20
-865.24999999999989
 30
0.0
 40
1.2499999999999081
  0
LINE
  5
41D
  8
DATA
  6
CONTINUOUS
 62
     7
 10
851.82106781186565
 20
-858.79999999999995
 30
0.0
 11
851.82106781186565
 21
-856.29999999999984
 31
0.0
  0
CIRCLE
  5
41E
  8
DATA
  6
CONTINUOUS
 62
     7
 10
851.82106781186565
 20
-845.24999999999966
 30
0.0
 40
2.7499999999998379
  0
LINE
  5
41F
  8
DATA
  6
CONTINUOUS
 62
     7
 10
850.32106781186553
 20
-845.24999999999966
 30
0.0
 11
853.32106781186542
 21
-845.24999999999966
 31
0.0
  0
LINE
  5
420
  8
DATA
  6
CONTINUOUS
 62
     7
 10
851.82106781186565
 20
-846.74999999999966
 30
0.0
 11
851.82106781186565
 21
-843.74999999999955
 31
0.0
  0
CIRCLE
  5
421
  8
DATA
  6
CONTINUOUS
 62
     7
 10
851.82106781186565
 20
-896.25000000000023
 30
0.0
 40
2.7499999999998379
  0
LINE
  5
422
  8
DATA
  6
CONTINUOUS
 62
     7
 10
850.32106781186553
 20
-896.25000000000023
 30
0.0
 11
853.32106781186542
 21
-896.25000000000023
 31
0.0
  0
LINE
  5
423
  8
DATA
  6
CONTINUOUS
 62
     7
 10
851.82106781186565
 20
-894.75000000000011
 30
0.0
 11
851.82106781186565
 21
-897.75
 31
0.0
  0
CIRCLE
  5
424
  8
DATA
  6
CONTINUOUS
 62
     7
 10
837.82106781111406
 20
-777.24999999999989
 30
0.0
 40
1.6499999998359269
  0
CIRCLE
  5
425
  8
DATA
  6
CONTINUOUS
 62
     7
 10
846.8210678102156
 20
-777.24999999999989
 30
0.0
 40
1.6499999998341079
  0
CIRCLE
  5
426
  8
DATA
  6
CONTINUOUS
 62
     7
 10
842.321067810665
 20
-777.24999999999989
 30
0.0
 40
11.9999999988
  0
CIRCLE
  5
427
  8
DATA
  6
CONTINUOUS
 62
     7
 10
851.8185086430484
 20
-789.24999999879992
 30
0.0
 40
2.5
  0
LINE
  5
428
  8
DATA
  6
CONTINUOUS
 62
     7
 10
850.31594947638098
 20
-789.24999999879992
 30
0.0
 11
853.31594947638109
 21
-789.24999999879992
 31
0.0
  0
LINE
  5
429
  8
DATA
  6
CONTINUOUS
 62
     7
 10
851.8185086430484
 20
-787.74882833213348
 30
0.0
 11
851.8185086430484
 21
-790.7488283321336
 31
0.0
  0
CIRCLE
  5
42A
  8
DATA
  6
CONTINUOUS
 62
     7
 10
832.8236269782816
 20
-765.25000000119996
 30
0.0
 40
2.5
  0
LINE
  5
42B
  8
DATA
  6
CONTINUOUS
 62
     7
 10
831.3210678116144
 20
-765.25000000119996
 30
0.0
 11
834.32106781161428
 21
-765.25000000119996
 31
0.0
  0
LINE
  5
42C
  8
DATA
  6
CONTINUOUS
 62
     7
 10
832.8236269782816
 20
-763.74882833453319
 30
0.0
 11
832.8236269782816
 21
-766.74882833453307
 31
0.0
  0
CIRCLE
  5
42D
  8
DATA
  6
CONTINUOUS
 62
     7
 10
842.321067810665
 20
-777.24999999999989
 30
0.0
 40
9.7500000156815751
  0
CIRCLE
  5
42E
  8
DATA
  6
CONTINUOUS
 62
     7
 10
842.321067810665
 20
-773.3000000003949
 30
0.0
 40
1.6499999998341079
  0
CIRCLE
  5
42F
  8
DATA
  6
CONTINUOUS
 62
     7
 10
809.82106781186565
 20
-777.24999999999989
 30
0.0
 40
7.899999852375986
  0
CIRCLE
  5
430
  8
DATA
  6
CONTINUOUS
 62
     7
 10
809.82106781186565
 20
-777.24999999999989
 30
0.0
 40
9.7499999990251833
  0
CIRCLE
  5
431
  8
DATA
  6
CONTINUOUS
 62
     7
 10
809.82106781186565
 20
-777.24999999999989
 30
0.0
 40
11.999999998800201
  0
LINE
  5
432
  8
DATA
  6
CONTINUOUS
 62
     7
 10
812.22106781162495
 20
-769.72338057367904
 30
0.0
 11
812.22106781162495
 21
-769.72338072779712
 31
0.0
  0
LINE
  5
433
  8
DATA
  6
CONTINUOUS
 62
     7
 10
806.97106781214995
 20
-769.88199500073688
 30
0.0
 11
806.97106781214995
 21
-769.8819951581728
 31
0.0
  0
ARC
  5
434
  8
DATA
  6
CONTINUOUS
 62
     7
 10
805.3210678123146
 20
-777.24999999999989
 30
0.0
 40
1.999999999800095
 50
32.089183874050867
 51
327.91081612594922
  0
ARC
  5
435
  8
DATA
  6
CONTINUOUS
 62
     7
 10
814.32106781141533
 20
-777.24999999999989
 30
0.0
 40
1.999999999800095
 50
212.0891838740508
 51
147.91081612594911
  0
ARC
  5
436
  8
DATA
  6
CONTINUOUS
 62
     7
 10
809.82106781186565
 20
-781.19999999960555
 30
0.0
 40
1.99999999980077
 50
137.8522840898888
 51
42.147715910128611
  0
ARC
  5
437
  8
DATA
  6
CONTINUOUS
 62
     7
 10
804.37634547907544
 20
-771.8052780005446
 30
0.0
 40
0.7999999999207108
 50
56.612913999968789
 51
213.3870860000219
  0
ARC
  5
438
  8
DATA
  6
CONTINUOUS
 62
     7
 10
809.82106781186565
 20
-777.24999999999989
 30
0.0
 40
2.9999999999997442
 50
20.741916485081301
 51
159.25808351492489
  0
ARC
  5
439
  8
DATA
  6
CONTINUOUS
 62
     7
 10
809.82106781186565
 20
-777.24999999999989
 30
0.0
 40
3.0000000000005942
 50
200.74191648507511
 51
240.3778367991917
  0
ARC
  5
43A
  8
DATA
  6
CONTINUOUS
 62
     7
 10
809.82106781186565
 20
-777.24999999999989
 30
0.0
 40
2.999999999999643
 50
299.6221632007933
 51
339.25808351491872
  0
CIRCLE
  5
43B
  8
DATA
  6
CONTINUOUS
 62
     7
 10
819.32106781091511
 20
-789.24999999879992
 30
0.0
 40
2.5
  0
LINE
  5
43C
  8
DATA
  6
CONTINUOUS
 62
     7
 10
817.81850864424871
 20
-789.24999999879992
 30
0.0
 11
820.81850864424871
 21
-789.24999999879992
 31
0.0
  0
LINE
  5
43D
  8
DATA
  6
CONTINUOUS
 62
     7
 10
819.32106781091511
 20
-787.74882833213348
 30
0.0
 11
819.32106781091511
 21
-790.7488283321336
 31
0.0
  0
CIRCLE
  5
43E
  8
DATA
  6
CONTINUOUS
 62
     7
 10
800.31850864614864
 20
-765.24882833453319
 30
0.0
 40
2.5
  0
LINE
  5
43F
  8
DATA
  6
CONTINUOUS
 62
     7
 10
798.81594947948224
 20
-765.24882833453319
 30
0.0
 11
801.81594947948224
 21
-765.24882833453319
 31
0.0
  0
LINE
  5
440
  8
DATA
  6
CONTINUOUS
 62
     7
 10
800.31850864614864
 20
-763.74765666786675
 30
0.0
 11
800.31850864614864
 21
-766.74765666786686
 31
0.0
  0
LINE
  5
441
  8
DATA
  6
CONTINUOUS
 62
     7
 10
807.42106781210487
 20
-767.80000000094515
 30
0.0
 11
807.42106781210487
 21
-765.5462612823419
 31
0.0
  0
LINE
  5
442
  8
DATA
  6
CONTINUOUS
 62
     7
 10
812.22106781162495
 20
-767.80000000094503
 30
0.0
 11
812.22106781162495
 21
-765.5462612823419
 31
0.0
  0
CIRCLE
  5
443
  8
DATA
  6
CONTINUOUS
 62
     7
 10
774.8223473951989
 20
-777.25058583333328
 30
0.0
 40
7.899999852375986
  0
CIRCLE
  5
444
  8
DATA
  6
CONTINUOUS
 62
     7
 10
774.8223473951989
 20
-777.25058583333328
 30
0.0
 40
9.7499999990251833
  0
CIRCLE
  5
445
  8
DATA
  6
CONTINUOUS
 62
     7
 10
774.8223473951989
 20
-777.25058583333328
 30
0.0
 40
11.999999998800201
  0
LINE
  5
446
  8
DATA
  6
CONTINUOUS
 62
     7
 10
777.22234739495855
 20
-769.72396640701243
 30
0.0
 11
777.22234739495855
 21
-769.72396656113051
 31
0.0
  0
LINE
  5
447
  8
DATA
  6
CONTINUOUS
 62
     7
 10
771.97234739548344
 20
-769.88258083407027
 30
0.0
 11
771.97234739548344
 21
-769.88258099150585
 31
0.0
  0
ARC
  5
448
  8
DATA
  6
CONTINUOUS
 62
     7
 10
770.32234739564831
 20
-777.25058583333328
 30
0.0
 40
1.999999999800095
 50
32.089183874050867
 51
327.91081612594922
  0
ARC
  5
449
  8
DATA
  6
CONTINUOUS
 62
     7
 10
779.32234739474859
 20
-777.25058583333328
 30
0.0
 40
1.999999999800095
 50
212.0891838740508
 51
147.91081612594911
  0
ARC
  5
44A
  8
DATA
  6
CONTINUOUS
 62
     7
 10
774.8223473951989
 20
-781.20058583293883
 30
0.0
 40
1.99999999980077
 50
137.8522840898888
 51
42.147715910128611
  0
ARC
  5
44B
  8
DATA
  6
CONTINUOUS
 62
     7
 10
769.37762506240915
 20
-771.80586383387822
 30
0.0
 40
0.7999999999207108
 50
56.612913999968789
 51
213.3870860000219
  0
ARC
  5
44C
  8
DATA
  6
CONTINUOUS
 62
     7
 10
774.8223473951989
 20
-777.25058583333328
 30
0.0
 40
2.9999999999997442
 50
20.741916485081301
 51
159.25808351492489
  0
ARC
  5
44D
  8
DATA
  6
CONTINUOUS
 62
     7
 10
774.8223473951989
 20
-777.25058583333328
 30
0.0
 40
3.0000000000005942
 50
200.74191648507511
 51
240.3778367991917
  0
ARC
  5
44E
  8
DATA
  6
CONTINUOUS
 62
     7
 10
774.8223473951989
 20
-777.25058583333328
 30
0.0
 40
2.999999999999643
 50
299.6221632007933
 51
339.25808351491872
  0
CIRCLE
  5
44F
  8
DATA
  6
CONTINUOUS
 62
     7
 10
784.32234739424871
 20
-789.2505858321332
 30
0.0
 40
2.5
  0
LINE
  5
450
  8
DATA
  6
CONTINUOUS
 62
     7
 10
782.81978822758219
 20
-789.2505858321332
 30
0.0
 11
785.81978822758208
 21
-789.2505858321332
 31
0.0
  0
LINE
  5
451
  8
DATA
  6
CONTINUOUS
 62
     7
 10
784.32234739424871
 20
-787.7494141654671
 30
0.0
 11
784.32234739424871
 21
-790.74941416546699
 31
0.0
  0
CIRCLE
  5
452
  8
DATA
  6
CONTINUOUS
 62
     7
 10
765.31978822948224
 20
-765.24941416786669
 30
0.0
 40
2.5
  0
LINE
  5
453
  8
DATA
  6
CONTINUOUS
 62
     7
 10
763.81722906281584
 20
-765.24941416786669
 30
0.0
 11
766.81722906281584
 21
-765.24941416786669
 31
0.0
  0
LINE
  5
454
  8
DATA
  6
CONTINUOUS
 62
     7
 10
765.31978822948224
 20
-763.74824250120025
 30
0.0
 11
765.31978822948224
 21
-766.74824250120025
 31
0.0
  0
LINE
  5
455
  8
DATA
  6
CONTINUOUS
 62
     7
 10
772.42234739543869
 20
-767.80058583427854
 30
0.0
 11
772.42234739543869
 21
-765.5468471156754
 31
0.0
  0
LINE
  5
456
  8
DATA
  6
CONTINUOUS
 62
     7
 10
777.22234739495855
 20
-767.80058583427831
 30
0.0
 11
777.22234739495855
 21
-765.5468471156754
 31
0.0
  0
CIRCLE
  5
457
  8
DATA
  6
CONTINUOUS
 62
     7
 10
799.82232693079493
 20
-803.25029291666658
 30
0.0
 40
1.75
  0
CIRCLE
  5
458
  8
DATA
  6
CONTINUOUS
 62
     7
 10
799.82232693079493
 20
-803.25029291666658
 30
0.0
 40
3.0
  0
CIRCLE
  5
459
  8
DATA
  6
CONTINUOUS
 62
     7
 10
799.82232693079493
 20
-803.25029291666658
 30
0.0
 40
3.9999999999998321
  0
CIRCLE
  5
45A
  8
DATA
  6
CONTINUOUS
 62
     7
 10
799.82232693079493
 20
-803.25029291666658
 30
0.0
 40
5.0000000000005027
  0
CIRCLE
  5
45B
  8
DATA
  6
CONTINUOUS
 62
     7
 10
784.82232693079493
 20
-803.25029291666658
 30
0.0
 40
1.75
  0
CIRCLE
  5
45C
  8
DATA
  6
CONTINUOUS
 62
     7
 10
784.82232693079493
 20
-803.25029291666658
 30
0.0
 40
3.0
  0
CIRCLE
  5
45D
  8
DATA
  6
CONTINUOUS
 62
     7
 10
784.82232693079493
 20
-803.25029291666658
 30
0.0
 40
3.9999999999998321
  0
CIRCLE
  5
45E
  8
DATA
  6
CONTINUOUS
 62
     7
 10
784.82232693079493
 20
-803.25029291666658
 30
0.0
 40
4.999999999999643
  0
CIRCLE
  5
45F
  8
DATA
  6
CONTINUOUS
 62
     7
 10
774.8223473951989
 20
-748.24999999999989
 30
0.0
 40
2.500000000000008
  0
CIRCLE
  5
460
  8
DATA
  6
CONTINUOUS
 62
     7
 10
809.82106781186565
 20
-748.24999999999989
 30
0.0
 40
2.500000000000008
  0
CIRCLE
  5
461
  8
DATA
  6
CONTINUOUS
 62
     7
 10
774.8223473951989
 20
-718.25
 30
0.0
 40
1.5
  0
CIRCLE
  5
462
  8
DATA
  6
CONTINUOUS
 62
     7
 10
792.3217076035321
 20
-718.25
 30
0.0
 40
1.5
  0
CIRCLE
  5
463
  8
DATA
  6
CONTINUOUS
 62
     7
 10
809.82106781186565
 20
-718.25
 30
0.0
 40
1.4999999999998519
  0
CIRCLE
  5
464
  8
DATA
  6
CONTINUOUS
 62
     7
 10
788.32106781186553
 20
-748.24999999999989
 30
0.0
 40
1.5000000000003191
  0
CIRCLE
  5
465
  8
DATA
  6
CONTINUOUS
 62
     7
 10
774.8223473951989
 20
-693.25
 30
0.0
 40
3.9999999999999978
  0
CIRCLE
  5
466
  8
DATA
  6
CONTINUOUS
 62
     7
 10
774.8223473951989
 20
-680.25
 30
0.0
 40
2.0005858333332398
  0
LINE
  5
467
  8
DATA
  6
CONTINUOUS
 62
     7
 10
836.82106781066489
 20
-730.25
 30
0.0
 11
836.82106781066489
 21
-725.25
 31
0.0
  0
LINE
  5
468
  8
DATA
  6
CONTINUOUS
 62
     7
 10
847.821067810665
 20
-730.25
 30
0.0
 11
836.82106781066489
 21
-730.25
 31
0.0
  0
LINE
  5
469
  8
DATA
  6
CONTINUOUS
 62
     7
 10
847.821067810665
 20
-725.25
 30
0.0
 11
847.821067810665
 21
-730.25
 31
0.0
  0
LINE
  5
46A
  8
DATA
  6
CONTINUOUS
 62
     7
 10
836.82106781066489
 20
-725.25
 30
0.0
 11
847.821067810665
 21
-725.25
 31
0.0
  0
LINE
  5
46B
  8
DATA
  6
CONTINUOUS
 62
     7
 10
839.821067810665
 20
-729.75
 30
0.0
 11
839.821067810665
 21
-725.75
 31
0.0
  0
LINE
  5
46C
  8
DATA
  6
CONTINUOUS
 62
     7
 10
844.82106781066489
 20
-729.75
 30
0.0
 11
839.821067810665
 21
-729.75
 31
0.0
  0
LINE
  5
46D
  8
DATA
  6
CONTINUOUS
 62
     7
 10
844.82106781066489
 20
-725.75
 30
0.0
 11
844.82106781066489
 21
-729.75
 31
0.0
  0
LINE
  5
46E
  8
DATA
  6
CONTINUOUS
 62
     7
 10
839.821067810665
 20
-725.75
 30
0.0
 11
844.82106781066489
 21
-725.75
 31
0.0
  0
LINE
  5
46F
  8
DATA
  6
CONTINUOUS
 62
     7
 10
836.82106781066489
 20
-747.25
 30
0.0
 11
836.82106781066489
 21
-742.25
 31
0.0
  0
LINE
  5
470
  8
DATA
  6
CONTINUOUS
 62
     7
 10
847.821067810665
 20
-747.25
 30
0.0
 11
836.82106781066489
 21
-747.25
 31
0.0
  0
LINE
  5
471
  8
DATA
  6
CONTINUOUS
 62
     7
 10
847.821067810665
 20
-742.25
 30
0.0
 11
847.821067810665
 21
-747.25
 31
0.0
  0
LINE
  5
472
  8
DATA
  6
CONTINUOUS
 62
     7
 10
836.82106781066489
 20
-742.25
 30
0.0
 11
847.821067810665
 21
-742.25
 31
0.0
  0
LINE
  5
473
  8
DATA
  6
CONTINUOUS
 62
     7
 10
839.821067810665
 20
-746.75
 30
0.0
 11
839.821067810665
 21
-742.75
 31
0.0
  0
LINE
  5
474
  8
DATA
  6
CONTINUOUS
 62
     7
 10
844.82106781066489
 20
-746.75
 30
0.0
 11
839.821067810665
 21
-746.75
 31
0.0
  0
LINE
  5
475
  8
DATA
  6
CONTINUOUS
 62
     7
 10
844.82106781066489
 20
-742.75
 30
0.0
 11
844.82106781066489
 21
-746.75
 31
0.0
  0
LINE
  5
476
  8
DATA
  6
CONTINUOUS
 62
     7
 10
839.821067810665
 20
-742.75
 30
0.0
 11
844.82106781066489
 21
-742.75
 31
0.0
  0
CIRCLE
  5
477
  8
DATA
  6
CONTINUOUS
 62
     7
 10
854.32106781186542
 20
-693.25
 30
0.0
 40
3.9999999999999978
  0
CIRCLE
  5
478
  8
DATA
  6
CONTINUOUS
 62
     7
 10
854.32106781186542
 20
-680.25
 30
0.0
 40
2.0005858333332398
  0
TEXT
  5
479
  8
DATA
 62
     7
 10
786.14568493273032
 20
-762.13963226682483
 30
0.0
 40
4.072102864583333
  1
INPUT
 41
0.7
 72
     1
 11
792.32170761068176
 21
-760.1035808345332
 31
0.0
 73
     2
  0
LINE
  5
47A
  8
DATA
  6
CONTINUOUS
 62
     7
 10
774.82106781186553
 20
-818.25
 30
0.0
 11
789.82232693079493
 21
-818.25
 31
0.0
  0
LINE
  5
47B
  8
DATA
  6
CONTINUOUS
 62
     7
 10
769.82106781186553
 20
-808.25029291666669
 30
0.0
 11
769.82106781186553
 21
-813.25
 31
0.0
  0
LINE
  5
47C
  8
DATA
  6
CONTINUOUS
 62
     7
 10
764.82106781186553
 20
-803.25029291666658
 30
0.0
 11
763.42234741009872
 21
-803.25029291666658
 31
0.0
  0
TEXT
  5
47D
  8
DATA
 62
     7
 10
837.095202467783
 20
-762.13963226682483
 30
0.0
 40
4.072102864583333
  1
THRU
 41
0.7
 72
     1
 11
842.321067810665
 21
-760.1035808345332
 31
0.0
 73
     2
  0
CIRCLE
  5
47E
  8
DATA
  6
CONTINUOUS
 62
     7
 10
792.32426677734895
 20
-795.8499999999998
 30
0.0
 40
2.5
  0
LINE
  5
47F
  8
DATA
  6
CONTINUOUS
 62
     7
 10
790.82170761068176
 20
-795.8499999999998
 30
0.0
 11
793.82170761068176
 21
-795.8499999999998
 31
0.0
  0
LINE
  5
480
  8
DATA
  6
CONTINUOUS
 62
     7
 10
792.32426677734895
 20
-794.34882833333347
 30
0.0
 11
792.32426677734895
 21
-797.34882833333359
 31
0.0
  0
LINE
  5
481
  8
DATA
  6
CONTINUOUS
 62
     7
 10
763.42234741009872
 20
-706.74999999999989
 30
0.0
 11
781.32234739519902
 21
-706.74999999999989
 31
0.0
  0
ARC
  5
482
  8
DATA
  6
CONTINUOUS
 62
     7
 10
763.42234741009872
 20
-711.74999999999989
 30
0.0
 40
5.0
 50
90.0
 51
180.0
  0
ARC
  5
483
  8
DATA
  6
CONTINUOUS
 62
     7
 10
763.42234741009872
 20
-798.25029291666669
 30
0.0
 40
5.0
 50
180.0
 51
270.0
  0
ARC
  5
484
  8
DATA
  6
CONTINUOUS
 62
     7
 10
764.82106781186553
 20
-808.25029291666669
 30
0.0
 40
5.0
 50
0.0
 51
90.0
  0
ARC
  5
485
  8
DATA
  6
CONTINUOUS
 62
     7
 10
774.82106781186553
 20
-813.25
 30
0.0
 40
5.0
 50
180.0
 51
270.0
  0
TEXT
  5
486
  8
DATA
 62
     7
 10
787.57092093533447
 20
-734.28605143229163
 30
0.0
 40
4.072102864583333
  1
GAIN
 41
0.7
 72
     1
 11
792.32170761068176
 21
-732.24999999999989
 31
0.0
 73
     2
  0
CIRCLE
  5
487
  8
DATA
  6
CONTINUOUS
 62
     7
 10
774.8223473951989
 20
-732.24999999999989
 30
0.0
 40
6.4999999999993809
  0
LINE
  5
488
  8
DATA
  6
CONTINUOUS
 62
     7
 10
778.64295153510068
 20
-737.50861046343812
 30
0.0
 11
780.70019991812353
 21
-740.34016994374986
 31
0.0
  0
LINE
  5
489
  8
DATA
  6
CONTINUOUS
 62
     7
 10
781.00421475111818
 20
-730.24138953656279
 30
0.0
 11
784.33291255815016
 21
-729.15983005625048
 31
0.0
  0
LINE
  5
48A
  8
DATA
  6
CONTINUOUS
 62
     7
 10
774.8223473951989
 20
-725.75
 30
0.0
 11
774.8223473951989
 21
-722.25
 31
0.0
  0
LINE
  5
48B
  8
DATA
  6
CONTINUOUS
 62
     7
 10
768.64048003927985
 20
-730.24138953656279
 30
0.0
 11
765.31178223224777
 21
-729.15983005625048
 31
0.0
  0
LINE
  5
48C
  8
DATA
  6
CONTINUOUS
 62
     7
 10
771.00174325583475
 20
-737.50861046269506
 30
0.0
 11
768.9444948722745
 21
-740.34016994374895
 31
0.0
  0
LINE
  5
48D
  8
DATA
  6
CONTINUOUS
 62
     7
 10
772.31761881520345
 20
-736.54811394154058
 30
0.0
 11
771.71241123845232
 21
-737.38111070831269
 31
0.0
  0
LINE
  5
48E
  8
DATA
  6
CONTINUOUS
 62
     7
 10
774.41783889806038
 20
-731.95610737377615
 30
0.0
 11
774.38814971373415
 21
-731.99697103031554
 31
0.0
  0
LINE
  5
48F
  8
DATA
  6
CONTINUOUS
 62
     7
 10
771.50860182082795
 20
-735.96032868924885
 30
0.0
 11
770.90339424407784
 21
-736.79332545601994
 31
0.0
  0
LINE
  5
490
  8
DATA
  6
CONTINUOUS
 62
     7
 10
768.42109700061928
 20
-731.12128684516495
 30
0.0
 11
766.94388537110115
 21
-730.86081457866453
 31
0.0
  0
LINE
  5
491
  8
DATA
  6
CONTINUOUS
 62
     7
 10
768.32630701957498
 20
-732.0231532714339
 30
0.0
 11
766.82722077904646
 21
-731.97080402637971
 31
0.0
  0
LINE
  5
492
  8
DATA
  6
CONTINUOUS
 62
     7
 10
768.35795507530429
 20
-732.92943501123955
 30
0.0
 11
766.86617223225278
 21
-733.08622770614102
 31
0.0
  0
LINE
  5
493
  8
DATA
  6
CONTINUOUS
 62
     7
 10
768.51542517440475
 20
-733.82249232139782
 30
0.0
 11
767.05998158499142
 21
-734.18537516479705
 31
0.0
  0
LINE
  5
494
  8
DATA
  6
CONTINUOUS
 62
     7
 10
768.79565234051427
 20
-734.68494285720385
 30
0.0
 11
767.40487655866559
 21
-735.24685274732724
 31
0.0
  0
LINE
  5
495
  8
DATA
  6
CONTINUOUS
 62
     7
 10
769.19318227060057
 20
-735.49999999999955
 30
0.0
 11
767.89414416492355
 21
-736.24999999999989
 31
0.0
  0
LINE
  5
496
  8
DATA
  6
CONTINUOUS
 62
     7
 10
769.70027749675558
 20
-736.25179958961644
 30
0.0
 11
768.51826136634611
 21
-737.1752918026051
 31
0.0
  0
LINE
  5
497
  8
DATA
  6
CONTINUOUS
 62
     7
 10
770.30706798721485
 20
-736.92570870220152
 30
0.0
 11
769.26508043152751
 21
-738.00471840270905
 31
0.0
  0
LINE
  5
498
  8
DATA
  6
CONTINUOUS
 62
     7
 10
779.33762680318205
 20
-736.92570870220072
 30
0.0
 11
780.37961435887132
 21
-738.0047184027095
 31
0.0
  0
LINE
  5
499
  8
DATA
  6
CONTINUOUS
 62
     7
 10
779.94441729364235
 20
-736.25179958961644
 30
0.0
 11
781.12643342405272
 21
-737.1752918026051
 31
0.0
  0
LINE
  5
49A
  8
DATA
  6
CONTINUOUS
 62
     7
 10
780.45151251979814
 20
-735.50000000000034
 30
0.0
 11
781.75055062547528
 21
-736.24999999999989
 31
0.0
  0
LINE
  5
49B
  8
DATA
  6
CONTINUOUS
 62
     7
 10
780.84904244988365
 20
-734.68494285720351
 30
0.0
 11
782.23981823173426
 21
-735.24685274732735
 31
0.0
  0
LINE
  5
49C
  8
DATA
  6
CONTINUOUS
 62
     7
 10
781.12926961599317
 20
-733.82249232139816
 30
0.0
 11
782.5847132054065
 21
-734.18537516479705
 31
0.0
  0
LINE
  5
49D
  8
DATA
  6
CONTINUOUS
 62
     7
 10
781.28673971509261
 20
-732.92943501124012
 30
0.0
 11
782.77852255814526
 21
-733.08622770614102
 31
0.0
  0
LINE
  5
49E
  8
DATA
  6
CONTINUOUS
 62
     7
 10
781.31838777082305
 20
-732.0231532714331
 30
0.0
 11
782.81747401135226
 21
-731.97080402637971
 31
0.0
  0
LINE
  5
49F
  8
DATA
  6
CONTINUOUS
 62
     7
 10
781.22359778977841
 20
-731.12128684516483
 30
0.0
 11
782.70080941929564
 21
-730.86081457866453
 31
0.0
  0
LINE
  5
4A0
  8
DATA
  6
CONTINUOUS
 62
     7
 10
780.66450869614391
 20
-729.40058754587085
 30
0.0
 11
782.01269976559206
 21
-728.74303082568747
 31
0.0
  0
LINE
  5
4A1
  8
DATA
  6
CONTINUOUS
 62
     7
 10
780.21109161680715
 20
-728.61524612743949
 30
0.0
 11
781.45464797563875
 21
-727.77645677223416
 31
0.0
  0
LINE
  5
4A2
  8
DATA
  6
CONTINUOUS
 62
     7
 10
779.65278876080322
 20
-727.90065105866745
 30
0.0
 11
780.76750599901845
 21
-726.8969551491291
 31
0.0
  0
LINE
  5
4A3
  8
DATA
  6
CONTINUOUS
 62
     7
 10
779.00046685816199
 20
-727.27071111972691
 30
0.0
 11
779.96464827269165
 21
-726.12164445504754
 31
0.0
  0
LINE
  5
4A4
  8
DATA
  6
CONTINUOUS
 62
     7
 10
778.26682261271594
 20
-726.73768737498301
 30
0.0
 11
779.06170150906451
 21
-725.46561523074877
 31
0.0
  0
LINE
  5
4A5
  8
DATA
  6
CONTINUOUS
 62
     7
 10
777.46613557519186
 20
-726.31195452532393
 30
0.0
 11
778.0762405398051
 21
-724.9416363388591
 31
0.0
  0
LINE
  5
4A6
  8
DATA
  6
CONTINUOUS
 62
     7
 10
776.61399020800923
 20
-726.00179897640089
 30
0.0
 11
777.02744624173522
 21
-724.5599064324939
 31
0.0
  0
LINE
  5
4A7
  8
DATA
  6
CONTINUOUS
 62
     7
 10
775.72697255143942
 20
-725.81325755317994
 30
0.0
 11
775.93573220287965
 21
-724.32785545006845
 31
0.0
  0
LINE
  5
4A8
  8
DATA
  6
CONTINUOUS
 62
     7
 10
773.91772223895953
 20
-725.81325755318528
 30
0.0
 11
773.70896258751816
 21
-724.32785545006743
 31
0.0
  0
LINE
  5
4A9
  8
DATA
  6
CONTINUOUS
 62
     7
 10
773.03070458238801
 20
-726.00179897639998
 30
0.0
 11
772.61724854866259
 21
-724.55990643249424
 31
0.0
  0
LINE
  5
4AA
  8
DATA
  6
CONTINUOUS
 62
     7
 10
772.17855921520618
 20
-726.31195452532245
 30
0.0
 11
771.56845425059203
 21
-724.94163633885955
 31
0.0
  0
LINE
  5
4AB
  8
DATA
  6
CONTINUOUS
 62
     7
 10
771.37787217768403
 20
-726.73768737498301
 30
0.0
 11
770.58299328133239
 21
-725.46561523074774
 31
0.0
  0
LINE
  5
4AC
  8
DATA
  6
CONTINUOUS
 62
     7
 10
770.64422793223684
 20
-727.27071111972646
 30
0.0
 11
769.68004651770616
 21
-726.121644455048
 31
0.0
  0
LINE
  5
4AD
  8
DATA
  6
CONTINUOUS
 62
     7
 10
769.99190602959652
 20
-727.90065105866745
 30
0.0
 11
768.87718879137947
 21
-726.8969551491291
 31
0.0
  0
LINE
  5
4AE
  8
DATA
  6
CONTINUOUS
 62
     7
 10
769.43360317359065
 20
-728.6152461274404
 30
0.0
 11
768.19004681475815
 21
-727.77645677223416
 31
0.0
  0
LINE
  5
4AF
  8
DATA
  6
CONTINUOUS
 62
     7
 10
768.98018609425412
 20
-729.40058754587085
 30
0.0
 11
767.63199502480677
 21
-728.74303082568804
 31
0.0
  0
ARC
  5
4B0
  8
DATA
  6
CONTINUOUS
 62
     7
 10
775.44951817480489
 20
-726.28286862779055
 30
0.0
 40
0.4999999999990113
 50
351.61198453549321
 51
176.3880154644454
  0
ARC
  5
4B1
  8
DATA
  6
CONTINUOUS
 62
     7
 10
774.82234739519549
 20
-732.25000000000455
 30
0.0
 40
5.999999999994162
 50
238.7801918471763
 51
229.2198081527709
  0
ARC
  5
4B2
  8
DATA
  6
CONTINUOUS
 62
     7
 10
774.82234739524813
 20
-732.24999999992212
 30
0.0
 40
5.0000000000921938
 50
239.73026269141241
 51
228.26082952287089
  0
ARC
  5
4B3
  8
DATA
  6
CONTINUOUS
 62
     7
 10
773.35288426447039
 20
-734.27254248592862
 30
0.0
 40
2.500000000009035
 50
245.53695903276059
 51
222.46304096722551
  0
ARC
  5
4B4
  8
DATA
  6
CONTINUOUS
 62
     7
 10
772.38192753674105
 20
-726.76872725414376
 30
0.0
 40
0.5000000000004735
 50
21.61198453550028
 51
206.3880154644377
  0
ARC
  5
4B5
  8
DATA
  6
CONTINUOUS
 62
     7
 10
769.96824542894365
 20
-728.72328848624522
 30
0.0
 40
0.499999999999614
 50
51.611984535568602
 51
236.38801546444961
  0
ARC
  5
4B6
  8
DATA
  6
CONTINUOUS
 62
     7
 10
768.85521602298161
 20
-731.62282922039617
 30
0.0
 40
0.4999999999995867
 50
81.611984535581826
 51
266.38801546441789
  0
ARC
  5
4B7
  8
DATA
  6
CONTINUOUS
 62
     7
 10
769.34107464933504
 20
-734.69041985845945
 30
0.0
 40
0.5000000000002182
 50
111.6119845355679
 51
296.3880154644491
  0
ARC
  5
4B8
  8
DATA
  6
CONTINUOUS
 62
     7
 10
771.29563588143583
 20
-737.10410196625696
 30
0.0
 40
0.4999999999996429
 50
144.00000000008771
 51
324.00000000002473
  0
ARC
  5
4B9
  8
DATA
  6
CONTINUOUS
 62
     7
 10
774.19517661558746
 20
-738.21713137221889
 30
0.0
 40
0.4999999999999111
 50
171.6119845355083
 51
356.38801546443892
  0
ARC
  5
4BA
  8
DATA
  6
CONTINUOUS
 62
     7
 10
777.26276725364971
 20
-737.73127274586545
 30
0.0
 40
0.5000000000005573
 50
201.6119845355245
 51
26.38801546439095
  0
ARC
  5
4BB
  8
DATA
  6
CONTINUOUS
 62
     7
 10
779.67644936144791
 20
-735.77671151376421
 30
0.0
 40
0.5000000000000006
 50
231.6119845354707
 51
56.388015464435092
  0
ARC
  5
4BC
  8
DATA
  6
CONTINUOUS
 62
     7
 10
780.78947876740904
 20
-732.87717077961349
 30
0.0
 40
0.4999999999998116
 50
261.61198453558558
 51
86.388015464419524
  0
ARC
  5
4BD
  8
DATA
  6
CONTINUOUS
 62
     7
 10
780.30362014105651
 20
-729.8095801415501
 30
0.0
 40
0.4999999999998832
 50
291.61198453547092
 51
116.38801546446059
  0
ARC
  5
4BE
  8
DATA
  6
CONTINUOUS
 62
     7
 10
778.34905890895493
 20
-727.39589803375247
 30
0.0
 40
0.5000000000009287
 50
321.61198453558831
 51
146.38801546444941
  0
TEXT
  5
4BF
  8
DATA
 62
     7
 10
827.68864485059555
 20
-741.23388910332335
 30
0.0
 40
4.072102864583333
  1
THRU SELECT
 41
0.7
 72
     1
 11
842.321067810665
 21
-739.19783767103183
 31
0.0
 73
     2
  0
TEXT
  5
4C0
  8
DATA
 62
     7
 10
829.1138808531997
 20
-723.9436946799201
 30
0.0
 40
4.072102864583333
  1
SPK SELECT
 41
0.7
 72
     1
 11
842.321067810665
 21
-721.90764324762847
 31
0.0
 73
     2
  0
TEXT
  5
4C1
  8
DATA
 62
     7
 10
772.44695405752543
 20
-688.64021809895814
 30
0.0
 40
4.072102864583333
  1
EQ
 41
0.7
 72
     1
 11
774.8223473951989
 21
-686.60416666666652
 31
0.0
 73
     2
  0
TEXT
  5
4C2
  8
DATA
 62
     7
 10
842.53911685700439
 20
-688.64021809895814
 30
0.0
 40
4.072102864583333
  1
FRONT LED
 41
0.7
 72
     1
 11
854.32106781186542
 21
-686.60416666666652
 31
0.0
 73
     2
  0
LINE
  5
4C3
  8
DATA
  6
CONTINUOUS
 62
     7
 10
767.52106781186524
 20
-695.25
 30
0.0
 11
759.52106781186524
 21
-695.25
 31
0.0
  0
LINE
  5
4C4
  8
DATA
  6
CONTINUOUS
 62
     7
 10
761.02106781186524
 20
-695.25
 30
0.0
 11
761.02106781186524
 21
-693.25
 31
0.0
  0
LINE
  5
4C5
  8
DATA
  6
CONTINUOUS
 62
     7
 10
766.02106781186524
 20
-693.25
 30
0.0
 11
766.02106781186524
 21
-695.25
 31
0.0
  0
LINE
  5
4C6
  8
DATA
  6
CONTINUOUS
 62
     7
 10
761.02106781186524
 20
-693.25
 30
0.0
 11
766.02106781186524
 21
-693.25
 31
0.0
  0
LINE
  5
4C7
  8
DATA
  6
CONTINUOUS
 62
     7
 10
790.12362697853268
 20
-695.25
 30
0.0
 11
782.12362697853268
 21
-695.25
 31
0.0
  0
LINE
  5
4C8
  8
DATA
  6
CONTINUOUS
 62
     7
 10
783.62362697853257
 20
-695.25
 30
0.0
 11
783.62362697853257
 21
-690.24999999999989
 31
0.0
  0
LINE
  5
4C9
  8
DATA
  6
CONTINUOUS
 62
     7
 10
788.62362697853257
 20
-690.24999999999989
 30
0.0
 11
788.62362697853257
 21
-695.25
 31
0.0
  0
LINE
  5
4CA
  8
DATA
  6
CONTINUOUS
 62
     7
 10
783.62362697853257
 20
-692.25
 30
0.0
 11
788.62362697853257
 21
-692.25
 31
0.0
  0
LINE
  5
4CB
  8
DATA
  6
CONTINUOUS
 62
     7
 10
783.62362697853257
 20
-690.24999999999989
 30
0.0
 11
788.62362697853257
 21
-690.24999999999989
 31
0.0
  0
LINE
  5
4CC
  8
DATA
  6
CONTINUOUS
 62
     7
 10
847.01978822853152
 20
-695.25
 30
0.0
 11
839.01978822853152
 21
-695.25
 31
0.0
  0
LINE
  5
4CD
  8
DATA
  6
CONTINUOUS
 62
     7
 10
840.51978822853164
 20
-695.25
 30
0.0
 11
840.51978822853164
 21
-693.25
 31
0.0
  0
LINE
  5
4CE
  8
DATA
  6
CONTINUOUS
 62
     7
 10
845.51978822853152
 20
-693.25
 30
0.0
 11
845.51978822853152
 21
-695.25
 31
0.0
  0
LINE
  5
4CF
  8
DATA
  6
CONTINUOUS
 62
     7
 10
840.51978822853164
 20
-693.25
 30
0.0
 11
845.51978822853152
 21
-693.25
 31
0.0
  0
LINE
  5
4D0
  8
DATA
  6
CONTINUOUS
 62
     7
 10
869.62234739519931
 20
-695.25
 30
0.0
 11
861.62234739519931
 21
-695.25
 31
0.0
  0
LINE
  5
4D1
  8
DATA
  6
CONTINUOUS
 62
     7
 10
863.1223473951992
 20
-695.25
 30
0.0
 11
863.1223473951992
 21
-690.24999999999989
 31
0.0
  0
LINE
  5
4D2
  8
DATA
  6
CONTINUOUS
 62
     7
 10
868.12234739519931
 20
-690.24999999999989
 30
0.0
 11
868.12234739519931
 21
-695.25
 31
0.0
  0
LINE
  5
4D3
  8
DATA
  6
CONTINUOUS
 62
     7
 10
863.1223473951992
 20
-692.25
 30
0.0
 11
868.12234739519931
 21
-692.25
 31
0.0
  0
LINE
  5
4D4
  8
DATA
  6
CONTINUOUS
 62
     7
 10
863.1223473951992
 20
-690.24999999999989
 30
0.0
 11
868.12234739519931
 21
-690.24999999999989
 31
0.0
  0
TEXT
  5
4D5
  8
DATA
 62
     7
 10
842.91917979103221
 20
-677.6396322656251
 30
0.0
 40
4.072102864583333
  1
PWR/STBY
 41
0.7
 72
     1
 11
854.32106781186542
 21
-675.60358083333347
 31
0.0
 73
     2
  0
CIRCLE
  5
4D6
  8
DATA
  6
CONTINUOUS
 62
     7
 10
776.32106781186553
 20
-972.25
 30
0.0
 40
4.7500000000002034
  0
LINE
  5
4D7
  8
DATA
  6
CONTINUOUS
 62
     7
 10
773.82106781186553
 20
-972.25
 30
0.0
 11
778.82106781186553
 21
-972.25
 31
0.0
  0
LINE
  5
4D8
  8
DATA
  6
CONTINUOUS
 62
     7
 10
776.32106781186553
 20
-974.75
 30
0.0
 11
776.32106781186553
 21
-969.74999999999989
 31
0.0
  0
CIRCLE
  5
4D9
  8
DATA
  6
CONTINUOUS
 62
     7
 10
843.32106781186553
 20
-972.25
 30
0.0
 40
4.7500000000002034
  0
LINE
  5
4DA
  8
DATA
  6
CONTINUOUS
 62
     7
 10
840.82106781186542
 20
-972.25
 30
0.0
 11
845.82106781186553
 21
-972.25
 31
0.0
  0
LINE
  5
4DB
  8
DATA
  6
CONTINUOUS
 62
     7
 10
843.32106781186553
 20
-974.75
 30
0.0
 11
843.32106781186553
 21
-969.74999999999989
 31
0.0
  0
CIRCLE
  5
4DC
  8
DATA
  6
CONTINUOUS
 62
     7
 10
776.32106781186553
 20
-602.24999999999989
 30
0.0
 40
4.7500000000002034
  0
LINE
  5
4DD
  8
DATA
  6
CONTINUOUS
 62
     7
 10
773.82106781186553
 20
-602.24999999999989
 30
0.0
 11
778.82106781186553
 21
-602.24999999999989
 31
0.0
  0
LINE
  5
4DE
  8
DATA
  6
CONTINUOUS
 62
     7
 10
776.32106781186553
 20
-599.75
 30
0.0
 11
776.32106781186553
 21
-604.75
 31
0.0
  0
CIRCLE
  5
4DF
  8
DATA
  6
CONTINUOUS
 62
     7
 10
843.32106781186553
 20
-602.24999999999989
 30
0.0
 40
4.7500000000002034
  0
LINE
  5
4E0
  8
DATA
  6
CONTINUOUS
 62
     7
 10
840.82106781186542
 20
-602.24999999999989
 30
0.0
 11
845.82106781186553
 21
-602.24999999999989
 31
0.0
  0
LINE
  5
4E1
  8
DATA
  6
CONTINUOUS
 62
     7
 10
843.32106781186553
 20
-599.75
 30
0.0
 11
843.32106781186553
 21
-604.75
 31
0.0
  0
CIRCLE
  5
4E2
  8
DATA
  6
CONTINUOUS
 62
     7
 10
729.32106781186553
 20
-776.24999999999955
 30
0.0
 40
4.7500000000002034
  0
LINE
  5
4E3
  8
DATA
  6
CONTINUOUS
 62
     7
 10
726.82106781186553
 20
-776.24999999999955
 30
0.0
 11
731.82106781186553
 21
-776.24999999999955
 31
0.0
  0
LINE
  5
4E4
  8
DATA
  6
CONTINUOUS
 62
     7
 10
729.32106781186553
 20
-778.74999999999955
 30
0.0
 11
729.32106781186553
 21
-773.74999999999966
 31
0.0
  0
CIRCLE
  5
4E5
  8
DATA
  6
CONTINUOUS
 62
     7
 10
729.32106781186553
 20
-668.25
 30
0.0
 40
4.7500000000002034
  0
LINE
  5
4E6
  8
DATA
  6
CONTINUOUS
 62
     7
 10
726.82106781186553
 20
-668.25
 30
0.0
 11
731.82106781186553
 21
-668.25
 31
0.0
  0
LINE
  5
4E7
  8
DATA
  6
CONTINUOUS
 62
     7
 10
729.32106781186553
 20
-670.75
 30
0.0
 11
729.32106781186553
 21
-665.74999999999989
 31
0.0
  0
CIRCLE
  5
4E8
  8
DATA
  6
CONTINUOUS
 62
     7
 10
729.32106781186553
 20
-884.24999999999989
 30
0.0
 40
4.7500000000002034
  0
LINE
  5
4E9
  8
DATA
  6
CONTINUOUS
 62
     7
 10
726.82106781186553
 20
-884.24999999999989
 30
0.0
 11
731.82106781186553
 21
-884.24999999999989
 31
0.0
  0
LINE
  5
4EA
  8
DATA
  6
CONTINUOUS
 62
     7
 10
729.32106781186553
 20
-886.74999999999989
 30
0.0
 11
729.32106781186553
 21
-881.75
 31
0.0
  0
CIRCLE
  5
4EB
  8
DATA
  6
CONTINUOUS
 62
     7
 10
890.32106781186553
 20
-776.24999999999955
 30
0.0
 40
4.7500000000002034
  0
LINE
  5
4EC
  8
DATA
  6
CONTINUOUS
 62
     7
 10
892.82106781186565
 20
-776.24999999999955
 30
0.0
 11
887.82106781186553
 21
-776.24999999999955
 31
0.0
  0
LINE
  5
4ED
  8
DATA
  6
CONTINUOUS
 62
     7
 10
890.32106781186553
 20
-778.74999999999955
 30
0.0
 11
890.32106781186553
 21
-773.74999999999966
 31
0.0
  0
CIRCLE
  5
4EE
  8
DATA
  6
CONTINUOUS
 62
     7
 10
890.32106781186553
 20
-668.25
 30
0.0
 40
4.7500000000002034
  0
LINE
  5
4EF
  8
DATA
  6
CONTINUOUS
 62
     7
 10
892.82106781186565
 20
-668.25
 30
0.0
 11
887.82106781186553
 21
-668.25
 31
0.0
  0
LINE
  5
4F0
  8
DATA
  6
CONTINUOUS
 62
     7
 10
890.32106781186553
 20
-670.75
 30
0.0
 11
890.32106781186553
 21
-665.74999999999989
 31
0.0
  0
CIRCLE
  5
4F1
  8
DATA
  6
CONTINUOUS
 62
     7
 10
890.32106781186553
 20
-884.24999999999989
 30
0.0
 40
4.7500000000002034
  0
LINE
  5
4F2
  8
DATA
  6
CONTINUOUS
 62
     7
 10
892.82106781186565
 20
-884.24999999999989
 30
0.0
 11
887.82106781186553
 21
-884.24999999999989
 31
0.0
  0
LINE
  5
4F3
  8
DATA
  6
CONTINUOUS
 62
     7
 10
890.32106781186553
 20
-886.74999999999989
 30
0.0
 11
890.32106781186553
 21
-881.75
 31
0.0
  0
CIRCLE
  5
4F4
  8
DATA
  6
CONTINUOUS
 62
     7
 10
843.32106781186553
 20
-620.25
 30
0.0
 40
2.5000000000002212
  0
CIRCLE
  5
4F5
  8
DATA
  6
CONTINUOUS
 62
     7
 10
776.32106781186553
 20
-620.25
 30
0.0
 40
2.5000000000002212
  0
LINE
  5
4F6
  8
DATA
  6
CONTINUOUS
 62
     7
 10
774.82106781186553
 20
-620.25
 30
0.0
 11
777.82106781186553
 21
-620.25
 31
0.0
  0
LINE
  5
4F7
  8
DATA
  6
CONTINUOUS
 62
     7
 10
776.24106781186572
 20
-618.75
 30
0.0
 11
776.24106781186572
 21
-621.75
 31
0.0
  0
LINE
  5
4F8
  8
DATA
  6
CONTINUOUS
 62
     7
 10
844.82106781186553
 20
-620.25
 30
0.0
 11
841.82106781186542
 21
-620.25
 31
0.0
  0
LINE
  5
4F9
  8
DATA
  6
CONTINUOUS
 62
     7
 10
843.40106781186512
 20
-618.75
 30
0.0
 11
843.40106781186512
 21
-621.75
 31
0.0
  0
CIRCLE
  5
4FA
  8
DATA
  6
CONTINUOUS
 62
     7
 10
873.24106781186572
 20
-668.25
 30
0.0
 40
2.5000000000002212
  0
LINE
  5
4FB
  8
DATA
  6
CONTINUOUS
 62
     7
 10
874.74106781186561
 20
-668.25
 30
0.0
 11
871.74106781186572
 21
-668.25
 31
0.0
  0
LINE
  5
4FC
  8
DATA
  6
CONTINUOUS
 62
     7
 10
873.32106781186565
 20
-666.75
 30
0.0
 11
873.32106781186565
 21
-669.74999999999989
 31
0.0
  0
CIRCLE
  5
4FD
  8
DATA
  6
CONTINUOUS
 62
     7
 10
873.24106781186572
 20
-776.24999999999955
 30
0.0
 40
2.5000000000002212
  0
LINE
  5
4FE
  8
DATA
  6
CONTINUOUS
 62
     7
 10
874.74106781186561
 20
-776.24999999999955
 30
0.0
 11
871.74106781186572
 21
-776.24999999999955
 31
0.0
  0
LINE
  5
4FF
  8
DATA
  6
CONTINUOUS
 62
     7
 10
873.32106781186565
 20
-774.74999999999955
 30
0.0
 11
873.32106781186565
 21
-777.74999999999966
 31
0.0
  0
CIRCLE
  5
500
  8
DATA
  6
CONTINUOUS
 62
     7
 10
873.24106781186572
 20
-884.24999999999989
 30
0.0
 40
2.5000000000002212
  0
LINE
  5
501
  8
DATA
  6
CONTINUOUS
 62
     7
 10
874.74106781186561
 20
-884.24999999999989
 30
0.0
 11
871.74106781186572
 21
-884.24999999999989
 31
0.0
  0
LINE
  5
502
  8
DATA
  6
CONTINUOUS
 62
     7
 10
873.32106781186565
 20
-882.75
 30
0.0
 11
873.32106781186565
 21
-885.74999999999989
 31
0.0
  0
CIRCLE
  5
503
  8
DATA
  6
CONTINUOUS
 62
     7
 10
746.40106781186523
 20
-668.25
 30
0.0
 40
2.5000000000002212
  0
LINE
  5
504
  8
DATA
  6
CONTINUOUS
 62
     7
 10
744.90106781186523
 20
-668.25
 30
0.0
 11
747.90106781186523
 21
-668.25
 31
0.0
  0
LINE
  5
505
  8
DATA
  6
CONTINUOUS
 62
     7
 10
746.32106781186553
 20
-666.75
 30
0.0
 11
746.32106781186553
 21
-669.74999999999989
 31
0.0
  0
CIRCLE
  5
506
  8
DATA
  6
CONTINUOUS
 62
     7
 10
746.40106781186523
 20
-776.24999999999955
 30
0.0
 40
2.5000000000002212
  0
LINE
  5
507
  8
DATA
  6
CONTINUOUS
 62
     7
 10
744.90106781186523
 20
-776.24999999999955
 30
0.0
 11
747.90106781186523
 21
-776.24999999999955
 31
0.0
  0
LINE
  5
508
  8
DATA
  6
CONTINUOUS
 62
     7
 10
746.32106781186553
 20
-774.74999999999955
 30
0.0
 11
746.32106781186553
 21
-777.74999999999966
 31
0.0
  0
CIRCLE
  5
509
  8
DATA
  6
CONTINUOUS
 62
     7
 10
746.40106781186523
 20
-884.24999999999989
 30
0.0
 40
2.5000000000002212
  0
LINE
  5
50A
  8
DATA
  6
CONTINUOUS
 62
     7
 10
744.90106781186523
 20
-884.24999999999989
 30
0.0
 11
747.90106781186523
 21
-884.24999999999989
 31
0.0
  0
LINE
  5
50B
  8
DATA
  6
CONTINUOUS
 62
     7
 10
746.32106781186553
 20
-882.75
 30
0.0
 11
746.32106781186553
 21
-885.74999999999989
 31
0.0
  0
TEXT
  5
50C
  8
DATA
 62
     7
 10
785.41729177019829
 20
-670.66648763020839
 30
0.0
 40
12.21630859375
  1
PRX715
 41
0.7
 72
     1
 11
808.22106781186494
 21
-664.55833333333339
 31
0.0
 73
     2
  0
LINE
  5
50D
  8
DATA
  6
CONTINUOUS
 62
     7
 10
-622.66800982369125
 20
-390.5
 30
0.0
 11
-622.66800982369125
 21
-1100.0
 31
0.0
  0
LINE
  5
50E
  8
DATA
  6
CONTINUOUS
 62
     7
 10
-377.33199017630881
 20
-390.5
 30
0.0
 11
-377.33199017630881
 21
-1100.0
 31
0.0
  0
LINE
  5
50F
  8
DATA
  6
CONTINUOUS
 62
     7
 10
-1016.31838794521
 20
-884.25000000000011
 30
0.0
 11
-1150.1816120547901
 21
-884.25000000000011
 31
0.0
  0
LINE
  5
510
  8
DATA
  6
CONTINUOUS
 62
     7
 10
-1027.3255710416099
 20
-869.25
 30
0.0
 11
-1139.1744289583889
 21
-869.25
 31
0.0
  0
LINE
  5
511
  8
DATA
  6
CONTINUOUS
 62
     7
 10
-1027.3255710416099
 20
-861.25
 30
0.0
 11
-1139.1744289583889
 21
-861.25
 31
0.0
  0
LINE
  5
512
  8
DATA
  6
CONTINUOUS
 62
     7
 10
-1150.1816120547901
 20
-678.25000000000011
 30
0.0
 11
-1016.31838794521
 21
-678.25000000000011
 31
0.0
  0
LINE
  5
513
  8
DATA
  6
CONTINUOUS
 62
     7
 10
-1139.1744289583889
 20
-693.25
 30
0.0
 11
-1027.3255710416099
 21
-693.25
 31
0.0
  0
LINE
  5
514
  8
DATA
  6
CONTINUOUS
 62
     7
 10
-1139.1744289583889
 20
-701.25000000000011
 30
0.0
 11
-1027.3255710416099
 21
-701.25000000000011
 31
0.0
  0
LINE
  5
515
  8
DATA
  6
CONTINUOUS
 62
     7
 10
-1143.2555272747479
 20
-784.25000000000011
 30
0.0
 11
-1023.2444727252509
 21
-784.25000000000011
 31
0.0
  0
LINE
  5
516
  8
DATA
  6
CONTINUOUS
 62
     7
 10
-1143.2555272747479
 20
-776.25000000000011
 30
0.0
 11
-1023.2444727252509
 21
-776.25000000000011
 31
0.0
  0
LINE
  5
517
  8
DATA
  6
CONTINUOUS
 62
     7
 10
-1170.75
 20
-798.25000000000011
 30
0.0
 11
-1170.615820966839
 21
-798.25000000000011
 31
0.0
  0
LINE
  5
518
  8
DATA
  6
CONTINUOUS
 62
     7
 10
-1142.689549125309
 20
-798.25000000000011
 30
0.0
 11
-1023.810450874691
 21
-798.25000000000011
 31
0.0
  0
LINE
  5
519
  8
DATA
  6
CONTINUOUS
 62
     7
 10
-1142.689549125309
 20
-806.25000000000011
 30
0.0
 11
-1023.810450874691
 21
-806.25000000000011
 31
0.0
  0
LINE
  5
51A
  8
DATA
  6
CONTINUOUS
 62
     7
 10
-995.88417903316054
 20
-798.25000000000011
 30
0.0
 11
-995.74999999999989
 21
-798.25000000000011
 31
0.0
  0
ARC
  5
51B
  8
DATA
  6
CONTINUOUS
 62
     7
 10
-1700.0999999999999
 20
-781.25
 30
0.0
 40
704.42098385837437
 50
352.66656866709002
 51
7.3334313329099787
  0
ARC
  5
51C
  8
DATA
  6
CONTINUOUS
 62
     7
 10
-1700.0999999999999
 20
-781.25
 30
0.0
 40
689.42098385837392
 50
353.48109737401433
 51
357.54759612915598
  0
ARC
  5
51D
  8
DATA
  6
CONTINUOUS
 62
     7
 10
-1700.0999999999999
 20
-781.25
 30
0.0
 40
681.42098385837323
 50
353.48109737401433
 51
357.54759612915598
  0
ARC
  5
51E
  8
DATA
  6
CONTINUOUS
 62
     7
 10
-1700.0999999999999
 20
-781.25
 30
0.0
 40
689.42098385837426
 50
0.7895566874362969
 51
6.5189026259889138
  0
ARC
  5
51F
  8
DATA
  6
CONTINUOUS
 62
     7
 10
-1700.0999999999999
 20
-781.25
 30
0.0
 40
681.42098385837357
 50
0.7895566874362955
 51
6.5189026259889236
  0
ARC
  5
520
  8
DATA
  6
CONTINUOUS
 62
     7
 10
-466.39999999999969
 20
-781.25
 30
0.0
 40
704.42098385837448
 50
172.66656866708999
 51
187.33343133291001
  0
ARC
  5
521
  8
DATA
  6
CONTINUOUS
 62
     7
 10
-466.39999999999969
 20
-781.25
 30
0.0
 40
689.42098385837346
 50
173.4810973740108
 51
179.2104866720847
  0
ARC
  5
522
  8
DATA
  6
CONTINUOUS
 62
     7
 10
-466.39999999999969
 20
-781.25
 30
0.0
 40
681.42098385837437
 50
173.4810973740108
 51
179.21048667208481
  0
ARC
  5
523
  8
DATA
  6
CONTINUOUS
 62
     7
 10
-466.39999999999969
 20
-781.25
 30
0.0
 40
689.42098385837437
 50
182.4523973684436
 51
186.51890262597729
  0
ARC
  5
524
  8
DATA
  6
CONTINUOUS
 62
     7
 10
-466.39999999999969
 20
-781.25
 30
0.0
 40
681.42098385837426
 50
182.4523973684436
 51
186.51890262597709
  0
ARC
  5
525
  8
DATA
  6
CONTINUOUS
 62
     7
 10
-1016.31838794521
 20
-869.24999999999875
 30
0.0
 40
15.000000000001361
 50
270.0
 51
352.66656866708468
  0
ARC
  5
526
  8
DATA
  6
CONTINUOUS
 62
     7
 10
-1150.1816120547901
 20
-869.24999999999875
 30
0.0
 40
15.000000000000959
 50
187.3334313329153
 51
270.0
  0
ARC
  5
527
  8
DATA
  6
CONTINUOUS
 62
     7
 10
-1150.1816120547901
 20
-693.25000000000159
 30
0.0
 40
15.000000000001361
 50
90.0
 51
172.66656866708459
  0
ARC
  5
528
  8
DATA
  6
CONTINUOUS
 62
     7
 10
-1016.31838794521
 20
-693.25000000000159
 30
0.0
 40
15.000000000000959
 50
7.3334313329153584
 51
90.0
  0
ARC
  5
529
  8
DATA
  6
CONTINUOUS
 62
     7
 10
-1139.1744289583889
 20
-705.75
 30
0.0
 40
12.499999999999771
 50
90.0
 51
180.0000000214938
  0
ARC
  5
52A
  8
DATA
  6
CONTINUOUS
 62
     7
 10
-1139.1744289583889
 20
-705.75
 30
0.0
 40
4.5
 50
90.0
 51
180.000000021494
  0
ARC
  5
52B
  8
DATA
  6
CONTINUOUS
 62
     7
 10
-1027.3255710416099
 20
-705.75
 30
0.0
 40
12.5
 50
0.0000000090895836
 51
90.000000000000028
  0
ARC
  5
52C
  8
DATA
  6
CONTINUOUS
 62
     7
 10
-1027.3255710416099
 20
-705.75
 30
0.0
 40
4.5
 50
0.0000000090888888
 51
90.0
  0
ARC
  5
52D
  8
DATA
  6
CONTINUOUS
 62
     7
 10
-1139.1744289583889
 20
-856.74999999999909
 30
0.0
 40
12.5
 50
180.00000000909219
 51
270.0
  0
ARC
  5
52E
  8
DATA
  6
CONTINUOUS
 62
     7
 10
-1027.3255710416099
 20
-856.74999999999909
 30
0.0
 40
12.499999999999771
 50
270.0
 51
0.0000000112995622
  0
ARC
  5
52F
  8
DATA
  6
CONTINUOUS
 62
     7
 10
-1027.3255710416099
 20
-856.74999999999909
 30
0.0
 40
4.5
 50
270.0
 51
0.0000000112992211
  0
ARC
  5
530
  8
DATA
  6
CONTINUOUS
 62
     7
 10
-1142.689549125309
 20
-810.74999999999989
 30
0.0
 40
12.499999999999771
 50
90.0
 51
184.9953597590015
  0
ARC
  5
531
  8
DATA
  6
CONTINUOUS
 62
     7
 10
-1142.689549125309
 20
-810.74999999999989
 30
0.0
 40
4.5
 50
90.0
 51
184.99535975900031
  0
ARC
  5
532
  8
DATA
  6
CONTINUOUS
 62
     7
 10
-1023.810450874691
 20
-810.74999999999989
 30
0.0
 40
12.49999999999976
 50
355.00464040666532
 51
90.0
  0
ARC
  5
533
  8
DATA
  6
CONTINUOUS
 62
     7
 10
-1143.2555272747479
 20
-771.75000000000034
 30
0.0
 40
12.49999999999973
 50
178.3917598544397
 51
270.0
  0
ARC
  5
534
  8
DATA
  6
CONTINUOUS
 62
     7
 10
-1143.2555272747479
 20
-771.75000000000034
 30
0.0
 40
4.4999999999997566
 50
178.39175985444029
 51
270.0
  0
ARC
  5
535
  8
DATA
  6
CONTINUOUS
 62
     7
 10
-1023.2444727252509
 20
-771.75000000000034
 30
0.0
 40
12.499999999999771
 50
270.0
 51
1.608245109610265
  0
ARC
  5
536
  8
DATA
  6
CONTINUOUS
 62
     7
 10
-1023.2444727252509
 20
-771.75000000000034
 30
0.0
 40
4.5
 50
270.0
 51
1.6082401455597051
  0
ARC
  5
537
  8
DATA
  6
CONTINUOUS
 62
     7
 10
-1023.810450874691
 20
-810.75000000000011
 30
0.0
 40
4.5000000000005969
 50
355.00464024099961
 51
90.0
  0
ARC
  5
538
  8
DATA
  6
CONTINUOUS
 62
     7
 10
-1139.1744289583889
 20
-856.74999999999909
 30
0.0
 40
4.5
 50
179.99999998870069
 51
270.0
  0
ARC
  5
539
  8
DATA
  6
CONTINUOUS
 62
     7
 10
236.22726951329631
 20
-455.43558139923903
 30
0.0
 40
6.0267731363634542
 50
131.07979334002539
 51
182.09375776723249
  0
ARC
  5
53A
  8
DATA
  6
CONTINUOUS
 62
     7
 10
234.35722122346121
 20
-453.48824360438851
 30
0.0
 40
3.3325901797522981
 50
90.476261125328406
 51
128.84385967883591
  0
ARC
  5
53B
  8
DATA
  6
CONTINUOUS
 62
     7
 10
236.22726951329631
 20
-455.87595571316803
 30
0.0
 40
6.0267731363633663
 50
177.9062422327674
 51
228.92020665997461
  0
ARC
  5
53C
  8
DATA
  6
CONTINUOUS
 62
     7
 10
234.35722122346121
 20
-457.82329350801842
 30
0.0
 40
3.332590179752271
 50
231.15614032116409
 51
269.52373887467149
  0
ARC
  5
53D
  8
DATA
  6
CONTINUOUS
 62
     7
 10
232.4317619953645
 20
-455.43558139923903
 30
0.0
 40
6.0267731363633663
 50
357.90624223276751
 51
48.920206659974617
  0
ARC
  5
53E
  8
DATA
  6
CONTINUOUS
 62
     7
 10
234.30181028519959
 20
-453.48824360438851
 30
0.0
 40
3.332590179752271
 50
51.156140321164102
 51
89.523738874672574
  0
ARC
  5
53F
  8
DATA
  6
CONTINUOUS
 62
     7
 10
232.4317619953645
 20
-455.87595571316803
 30
0.0
 40
6.0267731363634542
 50
311.07979334002539
 51
2.093757767232546
  0
ARC
  5
540
  8
DATA
  6
CONTINUOUS
 62
     7
 10
234.30181028519959
 20
-457.82329350801842
 30
0.0
 40
3.3325901797522959
 50
270.47626112532743
 51
308.843859678836
  0
ARC
  5
541
  8
DATA
  6
CONTINUOUS
 62
     7
 10
238.7525769074536
 20
-455.51758231511837
 30
0.0
 40
11.927898608329579
 50
141.99819940582671
 51
180.6637938315487
  0
ARC
  5
542
  8
DATA
  6
CONTINUOUS
 62
     7
 10
234.4516334371713
 20
-452.05915609053392
 30
0.0
 40
6.4099513299422277
 50
91.091623132576018
 51
142.68808064484639
  0
ARC
  5
543
  8
DATA
  6
CONTINUOUS
 62
     7
 10
229.7870194624206
 20
-455.54417042443509
 30
0.0
 40
11.9278986083295
 50
359.67603601005271
 51
38.341630435774682
  0
ARC
  5
544
  8
DATA
  6
CONTINUOUS
 62
     7
 10
234.06737495931259
 20
-452.06029564113931
 30
0.0
 40
6.4099513299421282
 50
37.651749196755041
 51
89.248206709025894
  0
ARC
  5
545
  8
DATA
  6
CONTINUOUS
 62
     7
 10
238.7525769074536
 20
-455.79395479728868
 30
0.0
 40
11.927898608329491
 50
179.33620616845121
 51
218.0018005941732
  0
ARC
  5
546
  8
DATA
  6
CONTINUOUS
 62
     7
 10
234.4516334371713
 20
-459.25238102187319
 30
0.0
 40
6.4099513299421131
 50
217.31191935515361
 51
268.9083768674239
  0
ARC
  5
547
  8
DATA
  6
CONTINUOUS
 62
     7
 10
229.7870194624206
 20
-455.76736668797201
 30
0.0
 40
11.927898608329579
 50
321.65836956422538
 51
0.3239639899472878
  0
ARC
  5
548
  8
DATA
  6
CONTINUOUS
 62
     7
 10
234.06737495931259
 20
-459.25124147126758
 30
0.0
 40
6.4099513299421886
 50
270.75179329097409
 51
322.34825080324492
  0
ARC
  5
549
  8
DATA
  6
CONTINUOUS
 62
     7
 10
242.37845375204239
 20
-455.3583311836282
 30
0.0
 40
23.05986715728471
 50
132.2147451885993
 51
180.73904930082591
  0
ARC
  5
54A
  8
DATA
  6
CONTINUOUS
 62
     7
 10
234.55306007855921
 20
-448.10855900669009
 30
0.0
 40
12.466814881978831
 50
91.02743426384005
 51
127.9618206731447
  0
ARC
  5
54B
  8
DATA
  6
CONTINUOUS
 62
     7
 10
226.28057775661841
 20
-455.3583311836282
 30
0.0
 40
23.059867157284401
 50
359.26095069917397
 51
47.785254811400712
  0
ARC
  5
54C
  8
DATA
  6
CONTINUOUS
 62
     7
 10
234.1059714301015
 20
-448.10855900669009
 30
0.0
 40
12.466814881978699
 50
52.038179326855278
 51
88.972565736159936
  0
ARC
  5
54D
  8
DATA
  6
CONTINUOUS
 62
     7
 10
242.37845375204239
 20
-455.9532059287788
 30
0.0
 40
23.059867157284572
 50
179.26095069917409
 51
227.7852548114007
  0
ARC
  5
54E
  8
DATA
  6
CONTINUOUS
 62
     7
 10
234.55306007855921
 20
-463.20297810571691
 30
0.0
 40
12.466814881978699
 50
232.03817932685519
 51
268.97256573615999
  0
ARC
  5
54F
  8
DATA
  6
CONTINUOUS
 62
     7
 10
226.28057775661841
 20
-455.9532059287788
 30
0.0
 40
23.05986715728471
 50
312.2147451885993
 51
0.7390493008259115
  0
ARC
  5
550
  8
DATA
  6
CONTINUOUS
 62
     7
 10
234.1059714301015
 20
-463.20297810571691
 30
0.0
 40
12.466814881978831
 50
271.02743426384012
 51
307.9618206731447
  0
ARC
  5
551
  8
DATA
  6
CONTINUOUS
 62
     7
 10
236.14744107083561
 20
-1028.875955713168
 30
0.0
 40
6.0267731363633681
 50
177.90624223276691
 51
228.92020665997359
  0
ARC
  5
552
  8
DATA
  6
CONTINUOUS
 62
     7
 10
234.27739278100049
 20
-1030.823293508018
 30
0.0
 40
3.332590179752271
 50
231.15614032116409
 51
269.52373887467161
  0
ARC
  5
553
  8
DATA
  6
CONTINUOUS
 62
     7
 10
236.14744107083561
 20
-1028.435581399239
 30
0.0
 40
6.0267731363633246
 50
131.07979334002641
 51
182.09375776723309
  0
ARC
  5
554
  8
DATA
  6
CONTINUOUS
 62
     7
 10
234.27739278100049
 20
-1026.488243604389
 30
0.0
 40
3.3325901797524682
 50
90.476261125328364
 51
128.84385967883591
  0
ARC
  5
555
  8
DATA
  6
CONTINUOUS
 62
     7
 10
232.35193355290369
 20
-1028.875955713168
 30
0.0
 40
6.0267731363633246
 50
311.07979334002653
 51
2.093757767233114
  0
ARC
  5
556
  8
DATA
  6
CONTINUOUS
 62
     7
 10
234.2219818427389
 20
-1030.823293508018
 30
0.0
 40
3.3325901797524682
 50
270.47626112532743
 51
308.843859678836
  0
ARC
  5
557
  8
DATA
  6
CONTINUOUS
 62
     7
 10
232.35193355290369
 20
-1028.435581399239
 30
0.0
 40
6.0267731363633681
 50
357.90624223276689
 51
48.92020665997353
  0
ARC
  5
558
  8
DATA
  6
CONTINUOUS
 62
     7
 10
234.2219818427389
 20
-1026.488243604389
 30
0.0
 40
3.332590179752271
 50
51.156140321164102
 51
89.523738874672603
  0
ARC
  5
559
  8
DATA
  6
CONTINUOUS
 62
     7
 10
238.67274846499291
 20
-1028.793954797289
 30
0.0
 40
11.927898608329491
 50
179.3362061684515
 51
218.0018005941734
  0
ARC
  5
55A
  8
DATA
  6
CONTINUOUS
 62
     7
 10
234.3718049947106
 20
-1032.2523810218729
 30
0.0
 40
6.409951329942043
 50
217.3119193551527
 51
268.90837686742412
  0
ARC
  5
55B
  8
DATA
  6
CONTINUOUS
 62
     7
 10
229.70719101995999
 20
-1028.7673666879721
 30
0.0
 40
11.927898608329579
 50
321.65836956422538
 51
0.3239639899478561
  0
ARC
  5
55C
  8
DATA
  6
CONTINUOUS
 62
     7
 10
233.98754651685181
 20
-1032.251241471268
 30
0.0
 40
6.4099513299420749
 50
270.75179329097409
 51
322.34825080324492
  0
ARC
  5
55D
  8
DATA
  6
CONTINUOUS
 62
     7
 10
238.67274846499291
 20
-1028.517582315118
 30
0.0
 40
11.92789860832961
 50
141.99819940582651
 51
180.66379383154839
  0
ARC
  5
55E
  8
DATA
  6
CONTINUOUS
 62
     7
 10
234.3718049947106
 20
-1025.0591560905341
 30
0.0
 40
6.409951329942114
 50
91.091623132576018
 51
142.68808064484719
  0
ARC
  5
55F
  8
DATA
  6
CONTINUOUS
 62
     7
 10
229.70719101995999
 20
-1028.5441704244349
 30
0.0
 40
11.9278986083295
 50
359.6760360100522
 51
38.341630435774682
  0
ARC
  5
560
  8
DATA
  6
CONTINUOUS
 62
     7
 10
233.98754651685181
 20
-1025.060295641139
 30
0.0
 40
6.4099513299421282
 50
37.651749196755041
 51
89.248206709025894
  0
ARC
  5
561
  8
DATA
  6
CONTINUOUS
 62
     7
 10
242.29862530958169
 20
-1028.953205928779
 30
0.0
 40
23.059867157284572
 50
179.26095069917389
 51
227.78525481140039
  0
ARC
  5
562
  8
DATA
  6
CONTINUOUS
 62
     7
 10
234.47323163609849
 20
-1036.202978105717
 30
0.0
 40
12.46681488197865
 50
232.0381793268551
 51
268.97256573615999
  0
ARC
  5
563
  8
DATA
  6
CONTINUOUS
 62
     7
 10
226.20074931415769
 20
-1028.953205928779
 30
0.0
 40
23.059867157284579
 50
312.21474518859969
 51
0.7390493008260251
  0
ARC
  5
564
  8
DATA
  6
CONTINUOUS
 62
     7
 10
234.02614298764081
 20
-1036.202978105717
 30
0.0
 40
12.46681488197901
 50
271.02743426384012
 51
307.96182067314493
  0
ARC
  5
565
  8
DATA
  6
CONTINUOUS
 62
     7
 10
242.29862530958169
 20
-1028.358331183628
 30
0.0
 40
23.059867157284671
 50
132.21474518859941
 51
180.739049300826
  0
ARC
  5
566
  8
DATA
  6
CONTINUOUS
 62
     7
 10
234.47323163609849
 20
-1021.10855900669
 30
0.0
 40
12.466814881978889
 50
91.02743426384005
 51
127.9618206731445
  0
ARC
  5
567
  8
DATA
  6
CONTINUOUS
 62
     7
 10
226.20074931415769
 20
-1028.358331183628
 30
0.0
 40
23.059867157284401
 50
359.26095069917397
 51
47.785254811400591
  0
ARC
  5
568
  8
DATA
  6
CONTINUOUS
 62
     7
 10
234.02614298764081
 20
-1021.10855900669
 30
0.0
 40
12.46681488197874
 50
52.038179326855442
 51
88.972565736159936
  0
ARC
  5
569
  8
DATA
  6
CONTINUOUS
 62
     7
 10
63.693214903778667
 20
-458.52981284303542
 30
0.0
 40
6.0267731363634542
 50
131.07979334002539
 51
182.09375776723249
  0
ARC
  5
56A
  8
DATA
  6
CONTINUOUS
 62
     7
 10
61.823166613943577
 20
-456.58247504818502
 30
0.0
 40
3.3325901797522981
 50
90.476261125328406
 51
128.84385967883591
  0
ARC
  5
56B
  8
DATA
  6
CONTINUOUS
 62
     7
 10
63.693214903778667
 20
-458.97018715696441
 30
0.0
 40
6.0267731363633663
 50
177.9062422327674
 51
228.92020665997461
  0
ARC
  5
56C
  8
DATA
  6
CONTINUOUS
 62
     7
 10
61.823166613943577
 20
-460.91752495181481
 30
0.0
 40
3.332590179752271
 50
231.15614032116409
 51
269.52373887467149
  0
ARC
  5
56D
  8
DATA
  6
CONTINUOUS
 62
     7
 10
59.897707385846857
 20
-458.52981284303542
 30
0.0
 40
6.0267731363633663
 50
357.90624223276751
 51
48.920206659974617
  0
ARC
  5
56E
  8
DATA
  6
CONTINUOUS
 62
     7
 10
61.767755675681968
 20
-456.58247504818502
 30
0.0
 40
3.332590179752271
 50
51.156140321164102
 51
89.523738874672574
  0
ARC
  5
56F
  8
DATA
  6
CONTINUOUS
 62
     7
 10
59.897707385846857
 20
-458.97018715696441
 30
0.0
 40
6.0267731363634542
 50
311.07979334002539
 51
2.093757767232546
  0
ARC
  5
570
  8
DATA
  6
CONTINUOUS
 62
     7
 10
61.767755675681968
 20
-460.91752495181481
 30
0.0
 40
3.3325901797522959
 50
270.47626112532743
 51
308.843859678836
  0
ARC
  5
571
  8
DATA
  6
CONTINUOUS
 62
     7
 10
66.218522297936005
 20
-458.61181375891471
 30
0.0
 40
11.927898608329579
 50
141.99819940582671
 51
180.6637938315487
  0
ARC
  5
572
  8
DATA
  6
CONTINUOUS
 62
     7
 10
61.917578827653777
 20
-455.15338753433031
 30
0.0
 40
6.4099513299422277
 50
91.091623132576018
 51
142.68808064484639
  0
ARC
  5
573
  8
DATA
  6
CONTINUOUS
 62
     7
 10
57.252964852903091
 20
-458.6384018682316
 30
0.0
 40
11.9278986083295
 50
359.67603601005271
 51
38.341630435774682
  0
ARC
  5
574
  8
DATA
  6
CONTINUOUS
 62
     7
 10
61.533320349794991
 20
-455.15452708493581
 30
0.0
 40
6.4099513299421282
 50
37.651749196755041
 51
89.248206709025894
  0
ARC
  5
575
  8
DATA
  6
CONTINUOUS
 62
     7
 10
66.218522297936005
 20
-458.88818624108512
 30
0.0
 40
11.927898608329491
 50
179.33620616845121
 51
218.0018005941732
  0
ARC
  5
576
  8
DATA
  6
CONTINUOUS
 62
     7
 10
61.917578827653777
 20
-462.34661246566958
 30
0.0
 40
6.4099513299421131
 50
217.31191935515361
 51
268.9083768674239
  0
ARC
  5
577
  8
DATA
  6
CONTINUOUS
 62
     7
 10
57.252964852903091
 20
-458.86159813176829
 30
0.0
 40
11.927898608329579
 50
321.65836956422538
 51
0.3239639899472878
  0
ARC
  5
578
  8
DATA
  6
CONTINUOUS
 62
     7
 10
61.533320349794991
 20
-462.34547291506408
 30
0.0
 40
6.4099513299421886
 50
270.75179329097409
 51
322.34825080324492
  0
ARC
  5
579
  8
DATA
  6
CONTINUOUS
 62
     7
 10
69.844399142524793
 20
-458.45256262742458
 30
0.0
 40
23.05986715728471
 50
132.2147451885993
 51
180.73904930082591
  0
ARC
  5
57A
  8
DATA
  6
CONTINUOUS
 62
     7
 10
62.019005469041623
 20
-451.20279045048648
 30
0.0
 40
12.466814881978831
 50
91.02743426384005
 51
127.9618206731447
  0
ARC
  5
57B
  8
DATA
  6
CONTINUOUS
 62
     7
 10
53.746523147100753
 20
-458.45256262742458
 30
0.0
 40
23.059867157284401
 50
359.26095069917397
 51
47.785254811400712
  0
ARC
  5
57C
  8
DATA
  6
CONTINUOUS
 62
     7
 10
61.57191682058393
 20
-451.20279045048648
 30
0.0
 40
12.466814881978699
 50
52.038179326855278
 51
88.972565736159936
  0
ARC
  5
57D
  8
DATA
  6
CONTINUOUS
 62
     7
 10
69.844399142524793
 20
-459.04743737257519
 30
0.0
 40
23.059867157284572
 50
179.26095069917409
 51
227.7852548114007
  0
ARC
  5
57E
  8
DATA
  6
CONTINUOUS
 62
     7
 10
62.019005469041623
 20
-466.29720954951341
 30
0.0
 40
12.466814881978699
 50
232.03817932685519
 51
268.97256573615999
  0
ARC
  5
57F
  8
DATA
  6
CONTINUOUS
 62
     7
 10
53.746523147100753
 20
-459.04743737257519
 30
0.0
 40
23.05986715728471
 50
312.2147451885993
 51
0.7390493008259115
  0
ARC
  5
580
  8
DATA
  6
CONTINUOUS
 62
     7
 10
61.57191682058393
 20
-466.29720954951341
 30
0.0
 40
12.466814881978831
 50
271.02743426384012
 51
307.9618206731447
  0
ARC
  5
581
  8
DATA
  6
CONTINUOUS
 62
     7
 10
63.613386461317987
 20
-1031.9701871569639
 30
0.0
 40
6.0267731363633681
 50
177.90624223276691
 51
228.92020665997359
  0
ARC
  5
582
  8
DATA
  6
CONTINUOUS
 62
     7
 10
61.743338171482897
 20
-1033.917524951815
 30
0.0
 40
3.332590179752271
 50
231.15614032116409
 51
269.52373887467161
  0
ARC
  5
583
  8
DATA
  6
CONTINUOUS
 62
     7
 10
63.613386461317987
 20
-1031.529812843035
 30
0.0
 40
6.0267731363633246
 50
131.07979334002641
 51
182.09375776723309
  0
ARC
  5
584
  8
DATA
  6
CONTINUOUS
 62
     7
 10
61.743338171482897
 20
-1029.582475048185
 30
0.0
 40
3.3325901797524682
 50
90.476261125328364
 51
128.84385967883591
  0
ARC
  5
585
  8
DATA
  6
CONTINUOUS
 62
     7
 10
59.817878943386177
 20
-1031.9701871569639
 30
0.0
 40
6.0267731363633246
 50
311.07979334002653
 51
2.093757767233114
  0
ARC
  5
586
  8
DATA
  6
CONTINUOUS
 62
     7
 10
61.687927233221302
 20
-1033.917524951815
 30
0.0
 40
3.3325901797524682
 50
270.47626112532743
 51
308.843859678836
  0
ARC
  5
587
  8
DATA
  6
CONTINUOUS
 62
     7
 10
59.817878943386177
 20
-1031.529812843035
 30
0.0
 40
6.0267731363633681
 50
357.90624223276689
 51
48.92020665997353
  0
ARC
  5
588
  8
DATA
  6
CONTINUOUS
 62
     7
 10
61.687927233221302
 20
-1029.582475048185
 30
0.0
 40
3.332590179752271
 50
51.156140321164102
 51
89.523738874672603
  0
ARC
  5
589
  8
DATA
  6
CONTINUOUS
 62
     7
 10
66.138693855475324
 20
-1031.8881862410849
 30
0.0
 40
11.927898608329491
 50
179.3362061684515
 51
218.0018005941734
  0
ARC
  5
58A
  8
DATA
  6
CONTINUOUS
 62
     7
 10
61.837750385193097
 20
-1035.34661246567
 30
0.0
 40
6.409951329942043
 50
217.3119193551527
 51
268.90837686742412
  0
ARC
  5
58B
  8
DATA
  6
CONTINUOUS
 62
     7
 10
57.17313641044241
 20
-1031.861598131768
 30
0.0
 40
11.927898608329579
 50
321.65836956422538
 51
0.3239639899478561
  0
ARC
  5
58C
  8
DATA
  6
CONTINUOUS
 62
     7
 10
61.45349190733431
 20
-1035.345472915064
 30
0.0
 40
6.4099513299420749
 50
270.75179329097409
 51
322.34825080324492
  0
ARC
  5
58D
  8
DATA
  6
CONTINUOUS
 62
     7
 10
66.138693855475324
 20
-1031.6118137589151
 30
0.0
 40
11.92789860832961
 50
141.99819940582651
 51
180.66379383154839
  0
ARC
  5
58E
  8
DATA
  6
CONTINUOUS
 62
     7
 10
61.837750385193097
 20
-1028.15338753433
 30
0.0
 40
6.409951329942114
 50
91.091623132576018
 51
142.68808064484719
  0
ARC
  5
58F
  8
DATA
  6
CONTINUOUS
 62
     7
 10
57.17313641044241
 20
-1031.638401868232
 30
0.0
 40
11.9278986083295
 50
359.6760360100522
 51
38.341630435774682
  0
ARC
  5
590
  8
DATA
  6
CONTINUOUS
 62
     7
 10
61.45349190733431
 20
-1028.154527084936
 30
0.0
 40
6.4099513299421282
 50
37.651749196755041
 51
89.248206709025894
  0
ARC
  5
591
  8
DATA
  6
CONTINUOUS
 62
     7
 10
69.764570700064112
 20
-1032.0474373725749
 30
0.0
 40
23.059867157284572
 50
179.26095069917389
 51
227.78525481140039
  0
ARC
  5
592
  8
DATA
  6
CONTINUOUS
 62
     7
 10
61.939177026580943
 20
-1039.2972095495129
 30
0.0
 40
12.46681488197865
 50
232.0381793268551
 51
268.97256573615999
  0
ARC
  5
593
  8
DATA
  6
CONTINUOUS
 62
     7
 10
53.666694704640072
 20
-1032.0474373725749
 30
0.0
 40
23.059867157284579
 50
312.21474518859969
 51
0.7390493008260251
  0
ARC
  5
594
  8
DATA
  6
CONTINUOUS
 62
     7
 10
61.492088378123249
 20
-1039.2972095495129
 30
0.0
 40
12.46681488197901
 50
271.02743426384012
 51
307.96182067314493
  0
ARC
  5
595
  8
DATA
  6
CONTINUOUS
 62
     7
 10
69.764570700064112
 20
-1031.452562627424
 30
0.0
 40
23.059867157284579
 50
132.21474518859961
 51
180.73904930082611
  0
ARC
  5
596
  8
DATA
  6
CONTINUOUS
 62
     7
 10
61.939177026580943
 20
-1024.202790450486
 30
0.0
 40
12.466814881978779
 50
91.02743426384005
 51
127.9618206731448
  0
ARC
  5
597
  8
DATA
  6
CONTINUOUS
 62
     7
 10
53.666694704640072
 20
-1031.452562627424
 30
0.0
 40
23.059867157284401
 50
359.26095069917397
 51
47.785254811400421
  0
ARC
  5
598
  8
DATA
  6
CONTINUOUS
 62
     7
 10
61.492088378123249
 20
-1024.202790450486
 30
0.0
 40
12.46681488197865
 50
52.038179326855143
 51
88.972565736159936
  0
ARC
  5
599
  8
DATA
  6
CONTINUOUS
 62
     7
 10
502.88072645420692
 20
-455.43558139923903
 30
0.0
 40
6.0267731363634924
 50
131.07979334002579
 51
182.09375776723249
  0
ARC
  5
59A
  8
DATA
  6
CONTINUOUS
 62
     7
 10
501.01067816437183
 20
-453.48824360438851
 30
0.0
 40
3.3325901797522959
 50
90.476261125327383
 51
128.84385967883591
  0
ARC
  5
59B
  8
DATA
  6
CONTINUOUS
 62
     7
 10
502.88072645420692
 20
-455.87595571316803
 30
0.0
 40
6.0267731363633663
 50
177.9062422327674
 51
228.92020665997421
  0
ARC
  5
59C
  8
DATA
  6
CONTINUOUS
 62
     7
 10
501.01067816437183
 20
-457.82329350801842
 30
0.0
 40
3.332590179752271
 50
231.15614032116409
 51
269.52373887467257
  0
ARC
  5
59D
  8
DATA
  6
CONTINUOUS
 62
     7
 10
499.08521893627511
 20
-455.43558139923903
 30
0.0
 40
6.0267731363633663
 50
357.90624223276751
 51
48.920206659975022
  0
ARC
  5
59E
  8
DATA
  6
CONTINUOUS
 62
     7
 10
500.95526722611021
 20
-453.48824360438851
 30
0.0
 40
3.332590179752271
 50
51.156140321164102
 51
89.523738874672574
  0
ARC
  5
59F
  8
DATA
  6
CONTINUOUS
 62
     7
 10
499.08521893627511
 20
-455.87595571316803
 30
0.0
 40
6.0267731363634161
 50
311.07979334002488
 51
2.093757767232546
  0
ARC
  5
5A0
  8
DATA
  6
CONTINUOUS
 62
     7
 10
500.95526722611021
 20
-457.82329350801842
 30
0.0
 40
3.3325901797522959
 50
270.47626112532743
 51
308.843859678836
  0
ARC
  5
5A1
  8
DATA
  6
CONTINUOUS
 62
     7
 10
505.40603384836419
 20
-455.51758231511837
 30
0.0
 40
11.927898608329579
 50
141.99819940582671
 51
180.6637938315487
  0
ARC
  5
5A2
  8
DATA
  6
CONTINUOUS
 62
     7
 10
501.10509037808191
 20
-452.05915609053392
 30
0.0
 40
6.4099513299422277
 50
91.091623132576018
 51
142.68808064484671
  0
ARC
  5
5A3
  8
DATA
  6
CONTINUOUS
 62
     7
 10
496.44047640333122
 20
-455.54417042443509
 30
0.0
 40
11.927898608329549
 50
359.67603601005271
 51
38.341630435774512
  0
ARC
  5
5A4
  8
DATA
  6
CONTINUOUS
 62
     7
 10
500.72083190022317
 20
-452.06029564113931
 30
0.0
 40
6.4099513299421282
 50
37.651749196755041
 51
89.248206709025894
  0
ARC
  5
5A5
  8
DATA
  6
CONTINUOUS
 62
     7
 10
505.40603384836419
 20
-455.79395479728868
 30
0.0
 40
11.927898608329491
 50
179.33620616845121
 51
218.0018005941732
  0
ARC
  5
5A6
  8
DATA
  6
CONTINUOUS
 62
     7
 10
501.10509037808191
 20
-459.25238102187319
 30
0.0
 40
6.4099513299421584
 50
217.31191935515329
 51
268.90837686742412
  0
ARC
  5
5A7
  8
DATA
  6
CONTINUOUS
 62
     7
 10
496.44047640333122
 20
-455.76736668797201
 30
0.0
 40
11.92789860832962
 50
321.6583695642255
 51
0.3239639899472878
  0
ARC
  5
5A8
  8
DATA
  6
CONTINUOUS
 62
     7
 10
500.72083190022317
 20
-459.25124147126758
 30
0.0
 40
6.4099513299421886
 50
270.75179329097409
 51
322.34825080324492
  0
ARC
  5
5A9
  8
DATA
  6
CONTINUOUS
 62
     7
 10
509.03191069295298
 20
-455.3583311836282
 30
0.0
 40
23.059867157284671
 50
132.21474518859921
 51
180.73904930082591
  0
ARC
  5
5AA
  8
DATA
  6
CONTINUOUS
 62
     7
 10
501.2065170194698
 20
-448.10855900669009
 30
0.0
 40
12.466814881978831
 50
91.027434263839794
 51
127.9618206731444
  0
ARC
  5
5AB
  8
DATA
  6
CONTINUOUS
 62
     7
 10
492.934034697529
 20
-455.3583311836282
 30
0.0
 40
23.059867157284401
 50
359.26095069917397
 51
47.785254811400591
  0
ARC
  5
5AC
  8
DATA
  6
CONTINUOUS
 62
     7
 10
500.75942837101218
 20
-448.10855900669009
 30
0.0
 40
12.466814881978729
 50
52.038179326855079
 51
88.972565736159666
  0
ARC
  5
5AD
  8
DATA
  6
CONTINUOUS
 62
     7
 10
509.03191069295298
 20
-455.9532059287788
 30
0.0
 40
23.059867157284511
 50
179.26095069917409
 51
227.78525481140079
  0
ARC
  5
5AE
  8
DATA
  6
CONTINUOUS
 62
     7
 10
501.2065170194698
 20
-463.20297810571691
 30
0.0
 40
12.46681488197866
 50
232.0381793268555
 51
268.97256573616028
  0
ARC
  5
5AF
  8
DATA
  6
CONTINUOUS
 62
     7
 10
492.934034697529
 20
-455.9532059287788
 30
0.0
 40
23.059867157284749
 50
312.2147451885993
 51
0.7390493008259115
  0
ARC
  5
5B0
  8
DATA
  6
CONTINUOUS
 62
     7
 10
500.75942837101218
 20
-463.20297810571691
 30
0.0
 40
12.46681488197884
 50
271.02743426384029
 51
307.96182067314493
  0
ARC
  5
5B1
  8
DATA
  6
CONTINUOUS
 62
     7
 10
502.80089801174631
 20
-1028.875955713168
 30
0.0
 40
6.0267731363633681
 50
177.90624223276691
 51
228.92020665997359
  0
ARC
  5
5B2
  8
DATA
  6
CONTINUOUS
 62
     7
 10
500.9308497219111
 20
-1030.823293508018
 30
0.0
 40
3.332590179752271
 50
231.15614032116409
 51
269.52373887467161
  0
ARC
  5
5B3
  8
DATA
  6
CONTINUOUS
 62
     7
 10
502.80089801174631
 20
-1028.435581399239
 30
0.0
 40
6.0267731363633246
 50
131.07979334002641
 51
182.09375776723309
  0
ARC
  5
5B4
  8
DATA
  6
CONTINUOUS
 62
     7
 10
500.9308497219111
 20
-1026.488243604389
 30
0.0
 40
3.3325901797524682
 50
90.476261125328364
 51
128.84385967883591
  0
ARC
  5
5B5
  8
DATA
  6
CONTINUOUS
 62
     7
 10
499.00539049381439
 20
-1028.875955713168
 30
0.0
 40
6.0267731363633246
 50
311.07979334002653
 51
2.093757767233114
  0
ARC
  5
5B6
  8
DATA
  6
CONTINUOUS
 62
     7
 10
500.87543878364949
 20
-1030.823293508018
 30
0.0
 40
3.3325901797524682
 50
270.47626112532743
 51
308.843859678836
  0
ARC
  5
5B7
  8
DATA
  6
CONTINUOUS
 62
     7
 10
499.00539049381439
 20
-1028.435581399239
 30
0.0
 40
6.0267731363633681
 50
357.90624223276689
 51
48.92020665997353
  0
ARC
  5
5B8
  8
DATA
  6
CONTINUOUS
 62
     7
 10
500.87543878364949
 20
-1026.488243604389
 30
0.0
 40
3.332590179752271
 50
51.156140321164102
 51
89.523738874672603
  0
ARC
  5
5B9
  8
DATA
  6
CONTINUOUS
 62
     7
 10
505.32620540590358
 20
-1028.793954797289
 30
0.0
 40
11.927898608329491
 50
179.3362061684515
 51
218.0018005941734
  0
ARC
  5
5BA
  8
DATA
  6
CONTINUOUS
 62
     7
 10
501.0252619356213
 20
-1032.2523810218729
 30
0.0
 40
6.409951329942043
 50
217.3119193551527
 51
268.90837686742412
  0
ARC
  5
5BB
  8
DATA
  6
CONTINUOUS
 62
     7
 10
496.36064796087061
 20
-1028.7673666879721
 30
0.0
 40
11.927898608329579
 50
321.65836956422538
 51
0.3239639899478561
  0
ARC
  5
5BC
  8
DATA
  6
CONTINUOUS
 62
     7
 10
500.64100345776251
 20
-1032.251241471268
 30
0.0
 40
6.4099513299420749
 50
270.75179329097409
 51
322.34825080324492
  0
ARC
  5
5BD
  8
DATA
  6
CONTINUOUS
 62
     7
 10
505.32620540590358
 20
-1028.517582315118
 30
0.0
 40
11.92789860832961
 50
141.99819940582651
 51
180.66379383154839
  0
ARC
  5
5BE
  8
DATA
  6
CONTINUOUS
 62
     7
 10
501.0252619356213
 20
-1025.0591560905341
 30
0.0
 40
6.409951329942114
 50
91.091623132576018
 51
142.68808064484719
  0
ARC
  5
5BF
  8
DATA
  6
CONTINUOUS
 62
     7
 10
496.36064796087061
 20
-1028.5441704244349
 30
0.0
 40
11.9278986083295
 50
359.6760360100522
 51
38.341630435774682
  0
ARC
  5
5C0
  8
DATA
  6
CONTINUOUS
 62
     7
 10
500.64100345776251
 20
-1025.060295641139
 30
0.0
 40
6.4099513299421282
 50
37.651749196755041
 51
89.248206709025894
  0
ARC
  5
5C1
  8
DATA
  6
CONTINUOUS
 62
     7
 10
508.95208225049231
 20
-1028.953205928779
 30
0.0
 40
23.059867157284572
 50
179.26095069917389
 51
227.78525481140039
  0
ARC
  5
5C2
  8
DATA
  6
CONTINUOUS
 62
     7
 10
501.12668857700908
 20
-1036.202978105717
 30
0.0
 40
12.46681488197865
 50
232.0381793268551
 51
268.97256573615999
  0
ARC
  5
5C3
  8
DATA
  6
CONTINUOUS
 62
     7
 10
492.85420625506828
 20
-1028.953205928779
 30
0.0
 40
23.059867157284579
 50
312.21474518859969
 51
0.7390493008260251
  0
ARC
  5
5C4
  8
DATA
  6
CONTINUOUS
 62
     7
 10
500.67959992855151
 20
-1036.202978105717
 30
0.0
 40
12.46681488197901
 50
271.02743426384012
 51
307.96182067314493
  0
ARC
  5
5C5
  8
DATA
  6
CONTINUOUS
 62
     7
 10
508.95208225049231
 20
-1028.358331183628
 30
0.0
 40
23.059867157284671
 50
132.21474518859941
 51
180.739049300826
  0
ARC
  5
5C6
  8
DATA
  6
CONTINUOUS
 62
     7
 10
501.12668857700908
 20
-1021.10855900669
 30
0.0
 40
12.466814881978889
 50
91.02743426384005
 51
127.9618206731445
  0
ARC
  5
5C7
  8
DATA
  6
CONTINUOUS
 62
     7
 10
492.85420625506828
 20
-1028.358331183628
 30
0.0
 40
23.059867157284401
 50
359.26095069917397
 51
47.785254811400591
  0
ARC
  5
5C8
  8
DATA
  6
CONTINUOUS
 62
     7
 10
500.67959992855151
 20
-1021.10855900669
 30
0.0
 40
12.46681488197874
 50
52.038179326855442
 51
88.972565736159936
  0
ARC
  5
5C9
  8
DATA
  6
CONTINUOUS
 62
     7
 10
675.41478106372472
 20
-455.43558139923903
 30
0.0
 40
6.0267731363634924
 50
131.07979334002579
 51
182.09375776723249
  0
ARC
  5
5CA
  8
DATA
  6
CONTINUOUS
 62
     7
 10
673.54473277388956
 20
-453.48824360438851
 30
0.0
 40
3.3325901797522959
 50
90.476261125327383
 51
128.84385967883591
  0
ARC
  5
5CB
  8
DATA
  6
CONTINUOUS
 62
     7
 10
675.41478106372472
 20
-455.87595571316803
 30
0.0
 40
6.0267731363633663
 50
177.9062422327674
 51
228.92020665997421
  0
ARC
  5
5CC
  8
DATA
  6
CONTINUOUS
 62
     7
 10
673.54473277388956
 20
-457.82329350801842
 30
0.0
 40
3.332590179752271
 50
231.15614032116409
 51
269.52373887467257
  0
ARC
  5
5CD
  8
DATA
  6
CONTINUOUS
 62
     7
 10
671.61927354579268
 20
-455.43558139923903
 30
0.0
 40
6.0267731363633663
 50
357.90624223276751
 51
48.920206659975022
  0
ARC
  5
5CE
  8
DATA
  6
CONTINUOUS
 62
     7
 10
673.48932183562795
 20
-453.48824360438851
 30
0.0
 40
3.332590179752271
 50
51.156140321164102
 51
89.523738874672574
  0
ARC
  5
5CF
  8
DATA
  6
CONTINUOUS
 62
     7
 10
671.61927354579268
 20
-455.87595571316803
 30
0.0
 40
6.0267731363634161
 50
311.07979334002488
 51
2.093757767232546
  0
ARC
  5
5D0
  8
DATA
  6
CONTINUOUS
 62
     7
 10
673.48932183562795
 20
-457.82329350801842
 30
0.0
 40
3.3325901797522959
 50
270.47626112532743
 51
308.843859678836
  0
ARC
  5
5D1
  8
DATA
  6
CONTINUOUS
 62
     7
 10
677.94008845788187
 20
-455.51758231511837
 30
0.0
 40
11.927898608329579
 50
141.99819940582671
 51
180.6637938315487
  0
ARC
  5
5D2
  8
DATA
  6
CONTINUOUS
 62
     7
 10
673.63914498759982
 20
-452.05915609053392
 30
0.0
 40
6.4099513299422277
 50
91.091623132576018
 51
142.68808064484671
  0
ARC
  5
5D3
  8
DATA
  6
CONTINUOUS
 62
     7
 10
668.97453101284896
 20
-455.54417042443509
 30
0.0
 40
11.927898608329549
 50
359.67603601005271
 51
38.341630435774512
  0
ARC
  5
5D4
  8
DATA
  6
CONTINUOUS
 62
     7
 10
673.25488650974103
 20
-452.06029564113931
 30
0.0
 40
6.4099513299421282
 50
37.651749196755041
 51
89.248206709025894
  0
ARC
  5
5D5
  8
DATA
  6
CONTINUOUS
 62
     7
 10
677.94008845788187
 20
-455.79395479728868
 30
0.0
 40
11.927898608329491
 50
179.33620616845121
 51
218.0018005941732
  0
ARC
  5
5D6
  8
DATA
  6
CONTINUOUS
 62
     7
 10
673.63914498759982
 20
-459.25238102187319
 30
0.0
 40
6.4099513299421584
 50
217.31191935515329
 51
268.90837686742412
  0
ARC
  5
5D7
  8
DATA
  6
CONTINUOUS
 62
     7
 10
668.97453101284896
 20
-455.76736668797201
 30
0.0
 40
11.92789860832962
 50
321.6583695642255
 51
0.3239639899472878
  0
ARC
  5
5D8
  8
DATA
  6
CONTINUOUS
 62
     7
 10
673.25488650974103
 20
-459.25124147126758
 30
0.0
 40
6.4099513299421886
 50
270.75179329097409
 51
322.34825080324492
  0
ARC
  5
5D9
  8
DATA
  6
CONTINUOUS
 62
     7
 10
681.56596530247077
 20
-455.3583311836282
 30
0.0
 40
23.059867157284671
 50
132.21474518859921
 51
180.73904930082591
  0
ARC
  5
5DA
  8
DATA
  6
CONTINUOUS
 62
     7
 10
673.74057162898771
 20
-448.10855900669009
 30
0.0
 40
12.466814881978831
 50
91.027434263839794
 51
127.9618206731444
  0
ARC
  5
5DB
  8
DATA
  6
CONTINUOUS
 62
     7
 10
665.46808930704674
 20
-455.3583311836282
 30
0.0
 40
23.059867157284401
 50
359.26095069917397
 51
47.785254811400591
  0
ARC
  5
5DC
  8
DATA
  6
CONTINUOUS
 62
     7
 10
673.29348298052992
 20
-448.10855900669009
 30
0.0
 40
12.466814881978729
 50
52.038179326855079
 51
88.972565736159666
  0
ARC
  5
5DD
  8
DATA
  6
CONTINUOUS
 62
     7
 10
681.56596530247077
 20
-455.9532059287788
 30
0.0
 40
23.059867157284511
 50
179.26095069917409
 51
227.78525481140079
  0
ARC
  5
5DE
  8
DATA
  6
CONTINUOUS
 62
     7
 10
673.74057162898771
 20
-463.20297810571691
 30
0.0
 40
12.46681488197866
 50
232.0381793268555
 51
268.97256573616028
  0
ARC
  5
5DF
  8
DATA
  6
CONTINUOUS
 62
     7
 10
665.46808930704674
 20
-455.9532059287788
 30
0.0
 40
23.059867157284749
 50
312.2147451885993
 51
0.7390493008259115
  0
ARC
  5
5E0
  8
DATA
  6
CONTINUOUS
 62
     7
 10
673.29348298052992
 20
-463.20297810571691
 30
0.0
 40
12.46681488197884
 50
271.02743426384029
 51
307.96182067314493
  0
ARC
  5
5E1
  8
DATA
  6
CONTINUOUS
 62
     7
 10
675.33495262126405
 20
-1028.875955713168
 30
0.0
 40
6.0267731363633681
 50
177.90624223276691
 51
228.92020665997401
  0
ARC
  5
5E2
  8
DATA
  6
CONTINUOUS
 62
     7
 10
673.4649043314289
 20
-1030.823293508018
 30
0.0
 40
3.332590179752271
 50
231.15614032116409
 51
269.52373887467257
  0
ARC
  5
5E3
  8
DATA
  6
CONTINUOUS
 62
     7
 10
675.33495262126405
 20
-1028.435581399239
 30
0.0
 40
6.0267731363632882
 50
131.07979334002599
 51
182.09375776723309
  0
ARC
  5
5E4
  8
DATA
  6
CONTINUOUS
 62
     7
 10
673.4649043314289
 20
-1026.488243604389
 30
0.0
 40
3.3325901797524682
 50
90.476261125327383
 51
128.84385967883591
  0
ARC
  5
5E5
  8
DATA
  6
CONTINUOUS
 62
     7
 10
671.53944510333213
 20
-1028.875955713168
 30
0.0
 40
6.0267731363633619
 50
311.07979334002692
 51
2.093757767233114
  0
ARC
  5
5E6
  8
DATA
  6
CONTINUOUS
 62
     7
 10
673.40949339316728
 20
-1030.823293508018
 30
0.0
 40
3.3325901797524682
 50
270.47626112532743
 51
308.843859678836
  0
ARC
  5
5E7
  8
DATA
  6
CONTINUOUS
 62
     7
 10
671.53944510333213
 20
-1028.435581399239
 30
0.0
 40
6.0267731363633681
 50
357.90624223276689
 51
48.920206659973132
  0
ARC
  5
5E8
  8
DATA
  6
CONTINUOUS
 62
     7
 10
673.40949339316728
 20
-1026.488243604389
 30
0.0
 40
3.332590179752271
 50
51.156140321164102
 51
89.523738874672603
  0
ARC
  5
5E9
  8
DATA
  6
CONTINUOUS
 62
     7
 10
677.86026001542109
 20
-1028.793954797289
 30
0.0
 40
11.927898608329491
 50
179.3362061684515
 51
218.0018005941734
  0
ARC
  5
5EA
  8
DATA
  6
CONTINUOUS
 62
     7
 10
673.55931654513915
 20
-1032.2523810218729
 30
0.0
 40
6.4099513299420892
 50
217.31191935515241
 51
268.9083768674239
  0
ARC
  5
5EB
  8
DATA
  6
CONTINUOUS
 62
     7
 10
668.8947025703884
 20
-1028.7673666879721
 30
0.0
 40
11.92789860832953
 50
321.65836956422521
 51
0.3239639899478561
  0
ARC
  5
5EC
  8
DATA
  6
CONTINUOUS
 62
     7
 10
673.17505806728025
 20
-1032.251241471268
 30
0.0
 40
6.4099513299420749
 50
270.75179329097409
 51
322.3482508032443
  0
ARC
  5
5ED
  8
DATA
  6
CONTINUOUS
 62
     7
 10
677.86026001542109
 20
-1028.517582315118
 30
0.0
 40
11.92789860832961
 50
141.99819940582651
 51
180.66379383154839
  0
ARC
  5
5EE
  8
DATA
  6
CONTINUOUS
 62
     7
 10
673.55931654513915
 20
-1025.0591560905341
 30
0.0
 40
6.409951329942114
 50
91.091623132576018
 51
142.6880806448475
  0
ARC
  5
5EF
  8
DATA
  6
CONTINUOUS
 62
     7
 10
668.8947025703884
 20
-1028.5441704244349
 30
0.0
 40
11.92789860832956
 50
359.6760360100522
 51
38.341630435774789
  0
ARC
  5
5F0
  8
DATA
  6
CONTINUOUS
 62
     7
 10
673.17505806728025
 20
-1025.060295641139
 30
0.0
 40
6.4099513299420368
 50
37.651749196755659
 51
89.248206709025894
  0
ARC
  5
5F1
  8
DATA
  6
CONTINUOUS
 62
     7
 10
681.48613686001011
 20
-1028.953205928779
 30
0.0
 40
23.059867157284511
 50
179.26095069917389
 51
227.78525481140051
  0
ARC
  5
5F2
  8
DATA
  6
CONTINUOUS
 62
     7
 10
673.66074318652682
 20
-1036.202978105717
 30
0.0
 40
12.466814881978619
 50
232.03817932685541
 51
268.97256573616028
  0
ARC
  5
5F3
  8
DATA
  6
CONTINUOUS
 62
     7
 10
665.38826086458607
 20
-1028.953205928779
 30
0.0
 40
23.059867157284621
 50
312.21474518859969
 51
0.7390493008260251
  0
ARC
  5
5F4
  8
DATA
  6
CONTINUOUS
 62
     7
 10
673.21365453806925
 20
-1036.202978105717
 30
0.0
 40
12.46681488197901
 50
271.02743426384029
 51
307.9618206731451
  0
ARC
  5
5F5
  8
DATA
  6
CONTINUOUS
 62
     7
 10
681.48613686001011
 20
-1028.358331183628
 30
0.0
 40
23.059867157284629
 50
132.2147451885993
 51
180.739049300826
  0
ARC
  5
5F6
  8
DATA
  6
CONTINUOUS
 62
     7
 10
673.66074318652682
 20
-1021.10855900669
 30
0.0
 40
12.466814881978889
 50
91.027434263839794
 51
127.9618206731444
  0
ARC
  5
5F7
  8
DATA
  6
CONTINUOUS
 62
     7
 10
665.38826086458607
 20
-1028.358331183628
 30
0.0
 40
23.059867157284401
 50
359.26095069917397
 51
47.785254811400492
  0
ARC
  5
5F8
  8
DATA
  6
CONTINUOUS
 62
     7
 10
673.21365453806925
 20
-1021.10855900669
 30
0.0
 40
12.466814881978779
 50
52.038179326855243
 51
88.972565736159666
  0
LINE
  5
5F9
  8
DATA
  6
CONTINUOUS
 62
     7
 10
-702.74999999999989
 20
-1100.0
 30
0.0
 11
-297.25
 21
-1100.0
 31
0.0
  0
LINE
  5
5FA
  8
DATA
  6
CONTINUOUS
 62
     7
 10
-702.74999999999989
 20
-1100.0
 30
0.0
 11
-722.75
 21
-1090.0
 31
0.0
  0
LINE
  5
5FB
  8
DATA
  6
CONTINUOUS
 62
     7
 10
-297.25
 20
-1100.0
 30
0.0
 11
-277.25
 21
-1090.0
 31
0.0
  0
LINE
  5
5FC
  8
DATA
  6
CONTINUOUS
 62
     7
 10
-1238.0
 20
-1100.0
 30
0.0
 11
-1258.0
 21
-1090.0
 31
0.0
  0
LINE
  5
5FD
  8
DATA
  6
CONTINUOUS
 62
     7
 10
-920.0
 20
-1100.0
 30
0.0
 11
-900.0
 21
-1090.0
 31
0.0
  0
LINE
  5
5FE
  8
DATA
  6
CONTINUOUS
 62
     7
 10
238.0
 20
-1100.0
 30
0.0
 11
-80.0
 21
-1100.0
 31
0.0
  0
LINE
  5
5FF
  8
DATA
  6
CONTINUOUS
 62
     7
 10
238.0
 20
-1100.0
 30
0.0
 11
258.0
 21
-1090.0
 31
0.0
  0
LINE
  5
600
  8
DATA
  6
CONTINUOUS
 62
     7
 10
-80.0
 20
-1100.0
 30
0.0
 11
-100.0
 21
-1090.0
 31
0.0
  0
LINE
  5
601
  8
DATA
  6
CONTINUOUS
 62
     7
 10
902.74999999999989
 20
-1100.0
 30
0.0
 11
922.75
 21
-1090.0
 31
0.0
  0
LINE
  5
602
  8
DATA
  6
CONTINUOUS
 62
     7
 10
497.25
 20
-1100.0
 30
0.0
 11
477.24999999999989
 21
-1090.0
 31
0.0
  0
LINE
  5
603
  8
DATA
  6
CONTINUOUS
 62
     7
 10
922.75
 20
-1090.0
 30
0.0
 11
477.24999999999989
 21
-1090.0
 31
0.0
  0
CIRCLE
  5
604
  8
DATA
  6
CONTINUOUS
 62
     7
 10
-1005.0
 20
-441.0
 30
0.0
 40
10.00000000000003
  0
LINE
  5
605
  8
DATA
  6
CONTINUOUS
 62
     7
 10
-1001.999999999998
 20
-440.99999999999949
 30
0.0
 11
-1003.5
 21
-438.401923788646
 31
0.0
  0
LINE
  5
606
  8
DATA
  6
CONTINUOUS
 62
     7
 10
-1003.499999999998
 20
-443.59807621135371
 30
0.0
 11
-1001.999999999998
 21
-440.99999999999949
 31
0.0
  0
LINE
  5
607
  8
DATA
  6
CONTINUOUS
 62
     7
 10
-1006.5
 20
-443.598076211354
 30
0.0
 11
-1003.499999999998
 21
-443.59807621135371
 31
0.0
  0
LINE
  5
608
  8
DATA
  6
CONTINUOUS
 62
     7
 10
-1008.0
 20
-441.00000000000051
 30
0.0
 11
-1006.5
 21
-443.598076211354
 31
0.0
  0
LINE
  5
609
  8
DATA
  6
CONTINUOUS
 62
     7
 10
-1006.5
 20
-438.40192378864629
 30
0.0
 11
-1008.0
 21
-441.00000000000051
 31
0.0
  0
LINE
  5
60A
  8
DATA
  6
CONTINUOUS
 62
     7
 10
-1003.5
 20
-438.401923788646
 30
0.0
 11
-1006.5
 21
-438.40192378864629
 31
0.0
  0
CIRCLE
  5
60B
  8
DATA
  6
CONTINUOUS
 62
     7
 10
-1005.0
 20
-1049.5
 30
0.0
 40
10.00000000000003
  0
LINE
  5
60C
  8
DATA
  6
CONTINUOUS
 62
     7
 10
-1001.999999999998
 20
-1049.5
 30
0.0
 11
-1003.5
 21
-1052.0980762113541
 31
0.0
  0
LINE
  5
60D
  8
DATA
  6
CONTINUOUS
 62
     7
 10
-1003.499999999998
 20
-1046.9019237886459
 30
0.0
 11
-1001.999999999998
 21
-1049.5
 31
0.0
  0
LINE
  5
60E
  8
DATA
  6
CONTINUOUS
 62
     7
 10
-1006.5
 20
-1046.9019237886459
 30
0.0
 11
-1003.499999999998
 21
-1046.9019237886459
 31
0.0
  0
LINE
  5
60F
  8
DATA
  6
CONTINUOUS
 62
     7
 10
-1008.0
 20
-1049.5
 30
0.0
 11
-1006.5
 21
-1046.9019237886459
 31
0.0
  0
LINE
  5
610
  8
DATA
  6
CONTINUOUS
 62
     7
 10
-1006.5
 20
-1052.0980762113529
 30
0.0
 11
-1008.0
 21
-1049.5
 31
0.0
  0
LINE
  5
611
  8
DATA
  6
CONTINUOUS
 62
     7
 10
-1003.5
 20
-1052.0980762113541
 30
0.0
 11
-1006.5
 21
-1052.0980762113529
 31
0.0
  0
ARC
  5
612
  8
DATA
  6
CONTINUOUS
 62
     7
 10
-500.0
 20
-1480.3631082119359
 30
0.0
 40
43.999999999999652
 50
180.0
 51
0.0
  0
ARC
  5
613
  8
DATA
  6
CONTINUOUS
 62
     7
 10
-500.0
 20
-1428.3631082119359
 30
0.0
 40
44.000000000000107
 50
0.0
 51
180.0
  0
LINE
  5
614
  8
DATA
  6
CONTINUOUS
 62
     7
 10
-543.99999999999955
 20
-1480.3631082119359
 30
0.0
 11
-543.99999999999955
 21
-1427.6368917880629
 31
0.0
  0
LINE
  5
615
  8
DATA
  6
CONTINUOUS
 62
     7
 10
-455.99999999999989
 20
-1480.3631082119359
 30
0.0
 11
-455.99999999999989
 21
-1427.1476666671749
 31
0.0
  0
CIRCLE
  5
616
  8
DATA
  6
CONTINUOUS
 62
     7
 10
-534.99999999999943
 20
-1481.98499167963
 30
0.0
 40
4.5
  0
POLYLINE
  5
617
  8
DATA
  6
CONTINUOUS
 62
     7
 66
     1
 10
0.0
 20
0.0
 30
0.0
  0
VERTEX
  5
7CB
  8
DATA
  6
CONTINUOUS
 62
     7
 10
-535.64999999999952
 20
-1481.3349916796301
 30
0.0
  0
VERTEX
  5
7CC
  8
DATA
  6
CONTINUOUS
 62
     7
 10
-535.64999999999952
 20
-1478.73499167963
 30
0.0
  0
VERTEX
  5
7CD
  8
DATA
  6
CONTINUOUS
 62
     7
 10
-534.34999999999957
 20
-1478.73499167963
 30
0.0
  0
VERTEX
  5
7CE
  8
DATA
  6
CONTINUOUS
 62
     7
 10
-534.34999999999957
 20
-1481.3349916796301
 30
0.0
  0
SEQEND
  5
7CF
  8
DATA
  6
CONTINUOUS
 62
     7
  0
POLYLINE
  5
61E
  8
DATA
  6
CONTINUOUS
 62
     7
 66
     1
 10
0.0
 20
0.0
 30
0.0
  0
VERTEX
  5
7D0
  8
DATA
  6
CONTINUOUS
 62
     7
 10
-534.34999999999957
 20
-1482.63499167963
 30
0.0
  0
VERTEX
  5
7D1
  8
DATA
  6
CONTINUOUS
 62
     7
 10
-534.34999999999957
 20
-1485.23499167963
 30
0.0
  0
VERTEX
  5
7D2
  8
DATA
  6
CONTINUOUS
 62
     7
 10
-535.64999999999952
 20
-1485.23499167963
 30
0.0
  0
VERTEX
  5
7D3
  8
DATA
  6
CONTINUOUS
 62
     7
 10
-535.64999999999952
 20
-1482.63499167963
 30
0.0
  0
SEQEND
  5
7D4
  8
DATA
  6
CONTINUOUS
 62
     7
  0
POLYLINE
  5
625
  8
DATA
  6
CONTINUOUS
 62
     7
 66
     1
 10
0.0
 20
0.0
 30
0.0
  0
VERTEX
  5
7D5
  8
DATA
  6
CONTINUOUS
 62
     7
 10
-534.34999999999957
 20
-1481.3349916796301
 30
0.0
  0
VERTEX
  5
7D6
  8
DATA
  6
CONTINUOUS
 62
     7
 10
-531.74999999999943
 20
-1481.3349916796301
 30
0.0
  0
VERTEX
  5
7D7
  8
DATA
  6
CONTINUOUS
 62
     7
 10
-531.74999999999943
 20
-1482.63499167963
 30
0.0
  0
VERTEX
  5
7D8
  8
DATA
  6
CONTINUOUS
 62
     7
 10
-534.34999999999957
 20
-1482.63499167963
 30
0.0
  0
SEQEND
  5
7D9
  8
DATA
  6
CONTINUOUS
 62
     7
  0
POLYLINE
  5
62C
  8
DATA
  6
CONTINUOUS
 62
     7
 66
     1
 10
0.0
 20
0.0
 30
0.0
  0
VERTEX
  5
7DA
  8
DATA
  6
CONTINUOUS
 62
     7
 10
-535.64999999999952
 20
-1482.63499167963
 30
0.0
  0
VERTEX
  5
7DB
  8
DATA
  6
CONTINUOUS
 62
     7
 10
-538.24999999999943
 20
-1482.63499167963
 30
0.0
  0
VERTEX
  5
7DC
  8
DATA
  6
CONTINUOUS
 62
     7
 10
-538.24999999999943
 20
-1481.3349916796301
 30
0.0
  0
VERTEX
  5
7DD
  8
DATA
  6
CONTINUOUS
 62
     7
 10
-535.64999999999952
 20
-1481.3349916796301
 30
0.0
  0
SEQEND
  5
7DE
  8
DATA
  6
CONTINUOUS
 62
     7
  0
CIRCLE
  5
633
  8
DATA
  6
CONTINUOUS
 62
     7
 10
-534.99999999999943
 20
-1426.98499167963
 30
0.0
 40
4.5
  0
POLYLINE
  5
634
  8
DATA
  6
CONTINUOUS
 62
     7
 66
     1
 10
0.0
 20
0.0
 30
0.0
  0
VERTEX
  5
7DF
  8
DATA
  6
CONTINUOUS
 62
     7
 10
-535.64999999999952
 20
-1426.3349916796301
 30
0.0
  0
VERTEX
  5
7E0
  8
DATA
  6
CONTINUOUS
 62
     7
 10
-535.64999999999952
 20
-1423.73499167963
 30
0.0
  0
VERTEX
  5
7E1
  8
DATA
  6
CONTINUOUS
 62
     7
 10
-534.34999999999957
 20
-1423.73499167963
 30
0.0
  0
VERTEX
  5
7E2
  8
DATA
  6
CONTINUOUS
 62
     7
 10
-534.34999999999957
 20
-1426.3349916796301
 30
0.0
  0
SEQEND
  5
7E3
  8
DATA
  6
CONTINUOUS
 62
     7
  0
POLYLINE
  5
63B
  8
DATA
  6
CONTINUOUS
 62
     7
 66
     1
 10
0.0
 20
0.0
 30
0.0
  0
VERTEX
  5
7E4
  8
DATA
  6
CONTINUOUS
 62
     7
 10
-534.34999999999957
 20
-1427.63499167963
 30
0.0
  0
VERTEX
  5
7E5
  8
DATA
  6
CONTINUOUS
 62
     7
 10
-534.34999999999957
 20
-1430.23499167963
 30
0.0
  0
VERTEX
  5
7E6
  8
DATA
  6
CONTINUOUS
 62
     7
 10
-535.64999999999952
 20
-1430.23499167963
 30
0.0
  0
VERTEX
  5
7E7
  8
DATA
  6
CONTINUOUS
 62
     7
 10
-535.64999999999952
 20
-1427.63499167963
 30
0.0
  0
SEQEND
  5
7E8
  8
DATA
  6
CONTINUOUS
 62
     7
  0
POLYLINE
  5
642
  8
DATA
  6
CONTINUOUS
 62
     7
 66
     1
 10
0.0
 20
0.0
 30
0.0
  0
VERTEX
  5
7E9
  8
DATA
  6
CONTINUOUS
 62
     7
 10
-534.34999999999957
 20
-1426.3349916796301
 30
0.0
  0
VERTEX
  5
7EA
  8
DATA
  6
CONTINUOUS
 62
     7
 10
-531.74999999999943
 20
-1426.3349916796301
 30
0.0
  0
VERTEX
  5
7EB
  8
DATA
  6
CONTINUOUS
 62
     7
 10
-531.74999999999943
 20
-1427.63499167963
 30
0.0
  0
VERTEX
  5
7EC
  8
DATA
  6
CONTINUOUS
 62
     7
 10
-534.34999999999957
 20
-1427.63499167963
 30
0.0
  0
SEQEND
  5
7ED
  8
DATA
  6
CONTINUOUS
 62
     7
  0
POLYLINE
  5
649
  8
DATA
  6
CONTINUOUS
 62
     7
 66
     1
 10
0.0
 20
0.0
 30
0.0
  0
VERTEX
  5
7EE
  8
DATA
  6
CONTINUOUS
 62
     7
 10
-535.64999999999952
 20
-1427.63499167963
 30
0.0
  0
VERTEX
  5
7EF
  8
DATA
  6
CONTINUOUS
 62
     7
 10
-538.24999999999943
 20
-1427.63499167963
 30
0.0
  0
VERTEX
  5
7F0
  8
DATA
  6
CONTINUOUS
 62
     7
 10
-538.24999999999943
 20
-1426.3349916796301
 30
0.0
  0
VERTEX
  5
7F1
  8
DATA
  6
CONTINUOUS
 62
     7
 10
-535.64999999999952
 20
-1426.3349916796301
 30
0.0
  0
SEQEND
  5
7F2
  8
DATA
  6
CONTINUOUS
 62
     7
  0
CIRCLE
  5
650
  8
DATA
  6
CONTINUOUS
 62
     7
 10
-464.99999999999989
 20
-1426.98499167963
 30
0.0
 40
4.5
  0
POLYLINE
  5
651
  8
DATA
  6
CONTINUOUS
 62
     7
 66
     1
 10
0.0
 20
0.0
 30
0.0
  0
VERTEX
  5
7F3
  8
DATA
  6
CONTINUOUS
 62
     7
 10
-465.64999999999992
 20
-1426.3349916796301
 30
0.0
  0
VERTEX
  5
7F4
  8
DATA
  6
CONTINUOUS
 62
     7
 10
-465.64999999999992
 20
-1423.73499167963
 30
0.0
  0
VERTEX
  5
7F5
  8
DATA
  6
CONTINUOUS
 62
     7
 10
-464.34999999999991
 20
-1423.73499167963
 30
0.0
  0
VERTEX
  5
7F6
  8
DATA
  6
CONTINUOUS
 62
     7
 10
-464.34999999999991
 20
-1426.3349916796301
 30
0.0
  0
SEQEND
  5
7F7
  8
DATA
  6
CONTINUOUS
 62
     7
  0
POLYLINE
  5
658
  8
DATA
  6
CONTINUOUS
 62
     7
 66
     1
 10
0.0
 20
0.0
 30
0.0
  0
VERTEX
  5
7F8
  8
DATA
  6
CONTINUOUS
 62
     7
 10
-464.34999999999991
 20
-1427.63499167963
 30
0.0
  0
VERTEX
  5
7F9
  8
DATA
  6
CONTINUOUS
 62
     7
 10
-464.34999999999991
 20
-1430.23499167963
 30
0.0
  0
VERTEX
  5
7FA
  8
DATA
  6
CONTINUOUS
 62
     7
 10
-465.64999999999992
 20
-1430.23499167963
 30
0.0
  0
VERTEX
  5
7FB
  8
DATA
  6
CONTINUOUS
 62
     7
 10
-465.64999999999992
 20
-1427.63499167963
 30
0.0
  0
SEQEND
  5
7FC
  8
DATA
  6
CONTINUOUS
 62
     7
  0
POLYLINE
  5
65F
  8
DATA
  6
CONTINUOUS
 62
     7
 66
     1
 10
0.0
 20
0.0
 30
0.0
  0
VERTEX
  5
7FD
  8
DATA
  6
CONTINUOUS
 62
     7
 10
-464.34999999999991
 20
-1426.3349916796301
 30
0.0
  0
VERTEX
  5
7FE
  8
DATA
  6
CONTINUOUS
 62
     7
 10
-461.74999999999989
 20
-1426.3349916796301
 30
0.0
  0
VERTEX
  5
7FF
  8
DATA
  6
CONTINUOUS
 62
     7
 10
-461.74999999999989
 20
-1427.63499167963
 30
0.0
  0
VERTEX
  5
800
  8
DATA
  6
CONTINUOUS
 62
     7
 10
-464.34999999999991
 20
-1427.63499167963
 30
0.0
  0
SEQEND
  5
801
  8
DATA
  6
CONTINUOUS
 62
     7
  0
POLYLINE
  5
666
  8
DATA
  6
CONTINUOUS
 62
     7
 66
     1
 10
0.0
 20
0.0
 30
0.0
  0
VERTEX
  5
802
  8
DATA
  6
CONTINUOUS
 62
     7
 10
-465.64999999999992
 20
-1427.63499167963
 30
0.0
  0
VERTEX
  5
803
  8
DATA
  6
CONTINUOUS
 62
     7
 10
-468.24999999999989
 20
-1427.63499167963
 30
0.0
  0
VERTEX
  5
804
  8
DATA
  6
CONTINUOUS
 62
     7
 10
-468.24999999999989
 20
-1426.3349916796301
 30
0.0
  0
VERTEX
  5
805
  8
DATA
  6
CONTINUOUS
 62
     7
 10
-465.64999999999992
 20
-1426.3349916796301
 30
0.0
  0
SEQEND
  5
806
  8
DATA
  6
CONTINUOUS
 62
     7
  0
CIRCLE
  5
66D
  8
DATA
  6
CONTINUOUS
 62
     7
 10
-464.99999999999989
 20
-1481.98499167963
 30
0.0
 40
4.5
  0
POLYLINE
  5
66E
  8
DATA
  6
CONTINUOUS
 62
     7
 66
     1
 10
0.0
 20
0.0
 30
0.0
  0
VERTEX
  5
807
  8
DATA
  6
CONTINUOUS
 62
     7
 10
-465.64999999999992
 20
-1481.3349916796301
 30
0.0
  0
VERTEX
  5
808
  8
DATA
  6
CONTINUOUS
 62
     7
 10
-465.64999999999992
 20
-1478.73499167963
 30
0.0
  0
VERTEX
  5
809
  8
DATA
  6
CONTINUOUS
 62
     7
 10
-464.34999999999991
 20
-1478.73499167963
 30
0.0
  0
VERTEX
  5
80A
  8
DATA
  6
CONTINUOUS
 62
     7
 10
-464.34999999999991
 20
-1481.3349916796301
 30
0.0
  0
SEQEND
  5
80B
  8
DATA
  6
CONTINUOUS
 62
     7
  0
POLYLINE
  5
675
  8
DATA
  6
CONTINUOUS
 62
     7
 66
     1
 10
0.0
 20
0.0
 30
0.0
  0
VERTEX
  5
80C
  8
DATA
  6
CONTINUOUS
 62
     7
 10
-464.34999999999991
 20
-1482.63499167963
 30
0.0
  0
VERTEX
  5
80D
  8
DATA
  6
CONTINUOUS
 62
     7
 10
-464.34999999999991
 20
-1485.23499167963
 30
0.0
  0
VERTEX
  5
80E
  8
DATA
  6
CONTINUOUS
 62
     7
 10
-465.64999999999992
 20
-1485.23499167963
 30
0.0
  0
VERTEX
  5
80F
  8
DATA
  6
CONTINUOUS
 62
     7
 10
-465.64999999999992
 20
-1482.63499167963
 30
0.0
  0
SEQEND
  5
810
  8
DATA
  6
CONTINUOUS
 62
     7
  0
POLYLINE
  5
67C
  8
DATA
  6
CONTINUOUS
 62
     7
 66
     1
 10
0.0
 20
0.0
 30
0.0
  0
VERTEX
  5
811
  8
DATA
  6
CONTINUOUS
 62
     7
 10
-464.34999999999991
 20
-1481.3349916796301
 30
0.0
  0
VERTEX
  5
812
  8
DATA
  6
CONTINUOUS
 62
     7
 10
-461.74999999999989
 20
-1481.3349916796301
 30
0.0
  0
VERTEX
  5
813
  8
DATA
  6
CONTINUOUS
 62
     7
 10
-461.74999999999989
 20
-1482.63499167963
 30
0.0
  0
VERTEX
  5
814
  8
DATA
  6
CONTINUOUS
 62
     7
 10
-464.34999999999991
 20
-1482.63499167963
 30
0.0
  0
SEQEND
  5
815
  8
DATA
  6
CONTINUOUS
 62
     7
  0
POLYLINE
  5
683
  8
DATA
  6
CONTINUOUS
 62
     7
 66
     1
 10
0.0
 20
0.0
 30
0.0
  0
VERTEX
  5
816
  8
DATA
  6
CONTINUOUS
 62
     7
 10
-465.64999999999992
 20
-1482.63499167963
 30
0.0
  0
VERTEX
  5
817
  8
DATA
  6
CONTINUOUS
 62
     7
 10
-468.24999999999989
 20
-1482.63499167963
 30
0.0
  0
VERTEX
  5
818
  8
DATA
  6
CONTINUOUS
 62
     7
 10
-468.24999999999989
 20
-1481.3349916796301
 30
0.0
  0
VERTEX
  5
819
  8
DATA
  6
CONTINUOUS
 62
     7
 10
-465.64999999999992
 20
-1481.3349916796301
 30
0.0
  0
SEQEND
  5
81A
  8
DATA
  6
CONTINUOUS
 62
     7
  0
CIRCLE
  5
68A
  8
DATA
  6
CONTINUOUS
 62
     7
 10
-499.99999999999977
 20
-1392.0049742964629
 30
0.0
 40
4.5
  0
POLYLINE
  5
68B
  8
DATA
  6
CONTINUOUS
 62
     7
 66
     1
 10
0.0
 20
0.0
 30
0.0
  0
VERTEX
  5
81B
  8
DATA
  6
CONTINUOUS
 62
     7
 10
-500.64999999999992
 20
-1391.3549742964619
 30
0.0
  0
VERTEX
  5
81C
  8
DATA
  6
CONTINUOUS
 62
     7
 10
-500.64999999999992
 20
-1388.754974296462
 30
0.0
  0
VERTEX
  5
81D
  8
DATA
  6
CONTINUOUS
 62
     7
 10
-499.34999999999991
 20
-1388.754974296462
 30
0.0
  0
VERTEX
  5
81E
  8
DATA
  6
CONTINUOUS
 62
     7
 10
-499.34999999999991
 20
-1391.3549742964619
 30
0.0
  0
SEQEND
  5
81F
  8
DATA
  6
CONTINUOUS
 62
     7
  0
POLYLINE
  5
692
  8
DATA
  6
CONTINUOUS
 62
     7
 66
     1
 10
0.0
 20
0.0
 30
0.0
  0
VERTEX
  5
820
  8
DATA
  6
CONTINUOUS
 62
     7
 10
-499.34999999999991
 20
-1392.654974296463
 30
0.0
  0
VERTEX
  5
821
  8
DATA
  6
CONTINUOUS
 62
     7
 10
-499.34999999999991
 20
-1395.2549742964629
 30
0.0
  0
VERTEX
  5
822
  8
DATA
  6
CONTINUOUS
 62
     7
 10
-500.64999999999992
 20
-1395.2549742964629
 30
0.0
  0
VERTEX
  5
823
  8
DATA
  6
CONTINUOUS
 62
     7
 10
-500.64999999999992
 20
-1392.654974296463
 30
0.0
  0
SEQEND
  5
824
  8
DATA
  6
CONTINUOUS
 62
     7
  0
POLYLINE
  5
699
  8
DATA
  6
CONTINUOUS
 62
     7
 66
     1
 10
0.0
 20
0.0
 30
0.0
  0
VERTEX
  5
825
  8
DATA
  6
CONTINUOUS
 62
     7
 10
-499.34999999999991
 20
-1391.3549742964619
 30
0.0
  0
VERTEX
  5
826
  8
DATA
  6
CONTINUOUS
 62
     7
 10
-496.74999999999972
 20
-1391.3549742964619
 30
0.0
  0
VERTEX
  5
827
  8
DATA
  6
CONTINUOUS
 62
     7
 10
-496.74999999999972
 20
-1392.654974296463
 30
0.0
  0
VERTEX
  5
828
  8
DATA
  6
CONTINUOUS
 62
     7
 10
-499.34999999999991
 20
-1392.654974296463
 30
0.0
  0
SEQEND
  5
829
  8
DATA
  6
CONTINUOUS
 62
     7
  0
POLYLINE
  5
6A0
  8
DATA
  6
CONTINUOUS
 62
     7
 66
     1
 10
0.0
 20
0.0
 30
0.0
  0
VERTEX
  5
82A
  8
DATA
  6
CONTINUOUS
 62
     7
 10
-500.64999999999992
 20
-1392.654974296463
 30
0.0
  0
VERTEX
  5
82B
  8
DATA
  6
CONTINUOUS
 62
     7
 10
-503.24999999999972
 20
-1392.654974296463
 30
0.0
  0
VERTEX
  5
82C
  8
DATA
  6
CONTINUOUS
 62
     7
 10
-503.24999999999972
 20
-1391.3549742964619
 30
0.0
  0
VERTEX
  5
82D
  8
DATA
  6
CONTINUOUS
 62
     7
 10
-500.64999999999992
 20
-1391.3549742964619
 30
0.0
  0
SEQEND
  5
82E
  8
DATA
  6
CONTINUOUS
 62
     7
  0
CIRCLE
  5
6A7
  8
DATA
  6
CONTINUOUS
 62
     7
 10
-499.99999999999977
 20
-1515.6235068106371
 30
0.0
 40
4.5
  0
POLYLINE
  5
6A8
  8
DATA
  6
CONTINUOUS
 62
     7
 66
     1
 10
0.0
 20
0.0
 30
0.0
  0
VERTEX
  5
82F
  8
DATA
  6
CONTINUOUS
 62
     7
 10
-500.64999999999992
 20
-1514.973506810637
 30
0.0
  0
VERTEX
  5
830
  8
DATA
  6
CONTINUOUS
 62
     7
 10
-500.64999999999992
 20
-1512.3735068106371
 30
0.0
  0
VERTEX
  5
831
  8
DATA
  6
CONTINUOUS
 62
     7
 10
-499.34999999999991
 20
-1512.3735068106371
 30
0.0
  0
VERTEX
  5
832
  8
DATA
  6
CONTINUOUS
 62
     7
 10
-499.34999999999991
 20
-1514.973506810637
 30
0.0
  0
SEQEND
  5
833
  8
DATA
  6
CONTINUOUS
 62
     7
  0
POLYLINE
  5
6AF
  8
DATA
  6
CONTINUOUS
 62
     7
 66
     1
 10
0.0
 20
0.0
 30
0.0
  0
VERTEX
  5
834
  8
DATA
  6
CONTINUOUS
 62
     7
 10
-499.34999999999991
 20
-1516.2735068106369
 30
0.0
  0
VERTEX
  5
835
  8
DATA
  6
CONTINUOUS
 62
     7
 10
-499.34999999999991
 20
-1518.8735068106371
 30
0.0
  0
VERTEX
  5
836
  8
DATA
  6
CONTINUOUS
 62
     7
 10
-500.64999999999992
 20
-1518.8735068106371
 30
0.0
  0
VERTEX
  5
837
  8
DATA
  6
CONTINUOUS
 62
     7
 10
-500.64999999999992
 20
-1516.2735068106369
 30
0.0
  0
SEQEND
  5
838
  8
DATA
  6
CONTINUOUS
 62
     7
  0
POLYLINE
  5
6B6
  8
DATA
  6
CONTINUOUS
 62
     7
 66
     1
 10
0.0
 20
0.0
 30
0.0
  0
VERTEX
  5
839
  8
DATA
  6
CONTINUOUS
 62
     7
 10
-499.34999999999991
 20
-1514.973506810637
 30
0.0
  0
VERTEX
  5
83A
  8
DATA
  6
CONTINUOUS
 62
     7
 10
-496.74999999999972
 20
-1514.973506810637
 30
0.0
  0
VERTEX
  5
83B
  8
DATA
  6
CONTINUOUS
 62
     7
 10
-496.74999999999972
 20
-1516.2735068106369
 30
0.0
  0
VERTEX
  5
83C
  8
DATA
  6
CONTINUOUS
 62
     7
 10
-499.34999999999991
 20
-1516.2735068106369
 30
0.0
  0
SEQEND
  5
83D
  8
DATA
  6
CONTINUOUS
 62
     7
  0
POLYLINE
  5
6BD
  8
DATA
  6
CONTINUOUS
 62
     7
 66
     1
 10
0.0
 20
0.0
 30
0.0
  0
VERTEX
  5
83E
  8
DATA
  6
CONTINUOUS
 62
     7
 10
-500.64999999999992
 20
-1516.2735068106369
 30
0.0
  0
VERTEX
  5
83F
  8
DATA
  6
CONTINUOUS
 62
     7
 10
-503.24999999999972
 20
-1516.2735068106369
 30
0.0
  0
VERTEX
  5
840
  8
DATA
  6
CONTINUOUS
 62
     7
 10
-503.24999999999972
 20
-1514.973506810637
 30
0.0
  0
VERTEX
  5
841
  8
DATA
  6
CONTINUOUS
 62
     7
 10
-500.64999999999992
 20
-1514.973506810637
 30
0.0
  0
SEQEND
  5
842
  8
DATA
  6
CONTINUOUS
 62
     7
  0
CIRCLE
  5
6C4
  8
DATA
  6
CONTINUOUS
 62
     7
 10
-500.0
 20
-1426.8631082119359
 30
0.0
 40
18.0
  0
CIRCLE
  5
6C5
  8
DATA
  6
CONTINUOUS
 62
     7
 10
-500.0
 20
-1481.8631082119359
 30
0.0
 40
18.0
  0
TEXT
  5
6C6
  8
DATA
 62
     7
 10
-266.14583333333343
 20
-1319.05
 30
0.0
 40
40.721028645833343
  1
-10\U+00B0
 41
0.7
 11
-266.14583333333343
 21
-1278.328971354166
 31
0.0
 73
     3
  0
TEXT
  5
6C7
  8
DATA
 62
     7
 10
-239.6875
 20
-1444.05
 30
0.0
 40
40.721028645833343
  1
0\U+00B0
 41
0.7
 11
-239.6875
 21
-1403.3289713541669
 31
0.0
 73
     3
  0
LINE
  5
6C8
  8
DATA
  6
CONTINUOUS
 62
     7
 10
-482.41895787831248
 20
-1423.002155231713
 30
0.0
 11
-150.0
 21
-1350.0
 31
0.0
  0
LINE
  5
6C9
  8
DATA
  6
CONTINUOUS
 62
     7
 10
-482.41895787831248
 20
-1423.002155231713
 30
0.0
 11
-438.48785617302292
 21
-1400.61814088854
 31
0.0
  0
LINE
  5
6CA
  8
DATA
  6
CONTINUOUS
 62
     7
 10
-482.41895787831248
 20
-1423.002155231713
 30
0.0
 11
-433.18150061370721
 21
-1425.5825810244951
 31
0.0
  0
LINE
  5
6CB
  8
DATA
  6
CONTINUOUS
 62
     7
 10
-483.15579546610587
 20
-1475.5170248828019
 30
0.0
 11
-150.0
 21
-1350.0
 31
0.0
  0
LINE
  5
6CC
  8
DATA
  6
CONTINUOUS
 62
     7
 10
-483.15579546610587
 20
-1475.5170248828019
 30
0.0
 11
-442.7674809107931
 21
-1447.236822575587
 31
0.0
  0
LINE
  5
6CD
  8
DATA
  6
CONTINUOUS
 62
     7
 10
-483.15579546610587
 20
-1475.5170248828019
 30
0.0
 11
-434.03838789156077
 21
-1471.219808538247
 31
0.0
  0
ARC
  5
6CE
  8
DATA
  6
CONTINUOUS
 62
     7
 10
-500.0
 20
-1433.0460647128409
 30
0.0
 40
18.0
 50
9.8895130866591767
 51
170.11048691334059
  0
LINE
  5
6CF
  8
DATA
  6
CONTINUOUS
 62
     7
 10
-512.75
 20
-1104.0
 30
0.0
 11
-512.75
 21
-1100.0
 31
0.0
  0
LINE
  5
6D0
  8
DATA
  6
CONTINUOUS
 62
     7
 10
-472.75
 20
-1104.0
 30
0.0
 11
-512.75
 21
-1104.0
 31
0.0
  0
LINE
  5
6D1
  8
DATA
  6
CONTINUOUS
 62
     7
 10
-472.75
 20
-1100.0
 30
0.0
 11
-472.75
 21
-1104.0
 31
0.0
  0
LINE
  5
6D2
  8
DATA
  6
CONTINUOUS
 62
     7
 10
-688.0
 20
-1104.0
 30
0.0
 11
-688.0
 21
-1100.0
 31
0.0
  0
LINE
  5
6D3
  8
DATA
  6
CONTINUOUS
 62
     7
 10
-648.0
 20
-1104.0
 30
0.0
 11
-688.0
 21
-1104.0
 31
0.0
  0
LINE
  5
6D4
  8
DATA
  6
CONTINUOUS
 62
     7
 10
-648.0
 20
-1100.0
 30
0.0
 11
-648.0
 21
-1104.0
 31
0.0
  0
LINE
  5
6D5
  8
DATA
  6
CONTINUOUS
 62
     7
 10
-699.75
 20
-1104.0
 30
0.0
 11
-699.75
 21
-1100.0
 31
0.0
  0
LINE
  5
6D6
  8
DATA
  6
CONTINUOUS
 62
     7
 10
-688.0
 20
-1104.0
 30
0.0
 11
-699.75
 21
-1104.0
 31
0.0
  0
LINE
  5
6D7
  8
DATA
  6
CONTINUOUS
 62
     7
 10
-312.0
 20
-1104.0
 30
0.0
 11
-312.0
 21
-1100.0
 31
0.0
  0
LINE
  5
6D8
  8
DATA
  6
CONTINUOUS
 62
     7
 10
-352.0
 20
-1104.0
 30
0.0
 11
-312.0
 21
-1104.0
 31
0.0
  0
LINE
  5
6D9
  8
DATA
  6
CONTINUOUS
 62
     7
 10
-352.0
 20
-1100.0
 30
0.0
 11
-352.0
 21
-1104.0
 31
0.0
  0
LINE
  5
6DA
  8
DATA
  6
CONTINUOUS
 62
     7
 10
174.0
 20
-1104.0
 30
0.0
 11
174.0
 21
-1100.0
 31
0.0
  0
LINE
  5
6DB
  8
DATA
  6
CONTINUOUS
 62
     7
 10
214.0
 20
-1104.0
 30
0.0
 11
174.0
 21
-1104.0
 31
0.0
  0
LINE
  5
6DC
  8
DATA
  6
CONTINUOUS
 62
     7
 10
214.0
 20
-1100.0
 30
0.0
 11
214.0
 21
-1104.0
 31
0.0
  0
LINE
  5
6DD
  8
DATA
  6
CONTINUOUS
 62
     7
 10
-947.0
 20
-1104.0
 30
0.0
 11
-947.0
 21
-1100.0
 31
0.0
  0
LINE
  5
6DE
  8
DATA
  6
CONTINUOUS
 62
     7
 10
-987.0
 20
-1104.0
 30
0.0
 11
-947.0
 21
-1104.0
 31
0.0
  0
LINE
  5
6DF
  8
DATA
  6
CONTINUOUS
 62
     7
 10
-987.0
 20
-1100.0
 30
0.0
 11
-987.0
 21
-1104.0
 31
0.0
  0
LINE
  5
6E0
  8
DATA
  6
CONTINUOUS
 62
     7
 10
-1238.0
 20
-1100.0
 30
0.0
 11
-920.0
 21
-1100.0
 31
0.0
  0
LINE
  5
6E1
  8
DATA
  6
CONTINUOUS
 62
     7
 10
-1174.0
 20
-1104.0
 30
0.0
 11
-1174.0
 21
-1100.0
 31
0.0
  0
LINE
  5
6E2
  8
DATA
  6
CONTINUOUS
 62
     7
 10
-1214.0
 20
-1104.0
 30
0.0
 11
-1174.0
 21
-1104.0
 31
0.0
  0
LINE
  5
6E3
  8
DATA
  6
CONTINUOUS
 62
     7
 10
-1214.0
 20
-1100.0
 30
0.0
 11
-1214.0
 21
-1104.0
 31
0.0
  0
LINE
  5
6E4
  8
DATA
  6
CONTINUOUS
 62
     7
 10
902.74999999999989
 20
-1100.0
 30
0.0
 11
497.25
 21
-1100.0
 31
0.0
  0
LINE
  5
6E5
  8
DATA
  6
CONTINUOUS
 62
     7
 10
712.75
 20
-1104.0
 30
0.0
 11
712.75
 21
-1100.0
 31
0.0
  0
LINE
  5
6E6
  8
DATA
  6
CONTINUOUS
 62
     7
 10
672.75
 20
-1104.0
 30
0.0
 11
712.75
 21
-1104.0
 31
0.0
  0
LINE
  5
6E7
  8
DATA
  6
CONTINUOUS
 62
     7
 10
672.75
 20
-1100.0
 30
0.0
 11
672.75
 21
-1104.0
 31
0.0
  0
LINE
  5
6E8
  8
DATA
  6
CONTINUOUS
 62
     7
 10
859.75
 20
-1104.0
 30
0.0
 11
859.75
 21
-1100.0
 31
0.0
  0
LINE
  5
6E9
  8
DATA
  6
CONTINUOUS
 62
     7
 10
859.75
 20
-1104.0
 30
0.0
 11
899.75
 21
-1104.0
 31
0.0
  0
LINE
  5
6EA
  8
DATA
  6
CONTINUOUS
 62
     7
 10
848.0
 20
-1100.0
 30
0.0
 11
848.0
 21
-1104.0
 31
0.0
  0
LINE
  5
6EB
  8
DATA
  6
CONTINUOUS
 62
     7
 10
899.75
 20
-1104.0
 30
0.0
 11
899.75
 21
-1100.0
 31
0.0
  0
LINE
  5
6EC
  8
DATA
  6
CONTINUOUS
 62
     7
 10
848.0
 20
-1104.0
 30
0.0
 11
859.75
 21
-1104.0
 31
0.0
  0
LINE
  5
6ED
  8
DATA
  6
CONTINUOUS
 62
     7
 10
512.0
 20
-1104.0
 30
0.0
 11
512.0
 21
-1100.0
 31
0.0
  0
LINE
  5
6EE
  8
DATA
  6
CONTINUOUS
 62
     7
 10
552.0
 20
-1104.0
 30
0.0
 11
512.0
 21
-1104.0
 31
0.0
  0
LINE
  5
6EF
  8
DATA
  6
CONTINUOUS
 62
     7
 10
552.0
 20
-1100.0
 30
0.0
 11
552.0
 21
-1104.0
 31
0.0
  0
CIRCLE
  5
6F0
  8
DATA
  6
CONTINUOUS
 62
     7
 10
5.0
 20
-1049.5
 30
0.0
 40
10.00000000000003
  0
LINE
  5
6F1
  8
DATA
  6
CONTINUOUS
 62
     7
 10
1.9999999999981799
 20
-1049.5
 30
0.0
 11
3.5
 21
-1052.0980762113541
 31
0.0
  0
LINE
  5
6F2
  8
DATA
  6
CONTINUOUS
 62
     7
 10
3.499999999998181
 20
-1046.9019237886459
 30
0.0
 11
1.9999999999981799
 21
-1049.5
 31
0.0
  0
LINE
  5
6F3
  8
DATA
  6
CONTINUOUS
 62
     7
 10
6.5
 20
-1046.9019237886459
 30
0.0
 11
3.499999999998181
 21
-1046.9019237886459
 31
0.0
  0
LINE
  5
6F4
  8
DATA
  6
CONTINUOUS
 62
     7
 10
8.0
 20
-1049.5
 30
0.0
 11
6.5
 21
-1046.9019237886459
 31
0.0
  0
LINE
  5
6F5
  8
DATA
  6
CONTINUOUS
 62
     7
 10
6.5
 20
-1052.0980762113529
 30
0.0
 11
8.0
 21
-1049.5
 31
0.0
  0
LINE
  5
6F6
  8
DATA
  6
CONTINUOUS
 62
     7
 10
3.5
 20
-1052.0980762113541
 30
0.0
 11
6.5
 21
-1052.0980762113529
 31
0.0
  0
CIRCLE
  5
6F7
  8
DATA
  6
CONTINUOUS
 62
     7
 10
5.0
 20
-441.0
 30
0.0
 40
10.00000000000003
  0
LINE
  5
6F8
  8
DATA
  6
CONTINUOUS
 62
     7
 10
1.9999999999981799
 20
-440.99999999999949
 30
0.0
 11
3.5
 21
-438.401923788646
 31
0.0
  0
LINE
  5
6F9
  8
DATA
  6
CONTINUOUS
 62
     7
 10
3.499999999998181
 20
-443.59807621135371
 30
0.0
 11
1.9999999999981799
 21
-440.99999999999949
 31
0.0
  0
LINE
  5
6FA
  8
DATA
  6
CONTINUOUS
 62
     7
 10
6.5
 20
-443.598076211354
 30
0.0
 11
3.499999999998181
 21
-443.59807621135371
 31
0.0
  0
LINE
  5
6FB
  8
DATA
  6
CONTINUOUS
 62
     7
 10
8.0
 20
-441.00000000000051
 30
0.0
 11
6.5
 21
-443.598076211354
 31
0.0
  0
LINE
  5
6FC
  8
DATA
  6
CONTINUOUS
 62
     7
 10
6.5
 20
-438.40192378864629
 30
0.0
 11
8.0
 21
-441.00000000000051
 31
0.0
  0
LINE
  5
6FD
  8
DATA
  6
CONTINUOUS
 62
     7
 10
3.5
 20
-438.401923788646
 30
0.0
 11
6.5
 21
-438.40192378864629
 31
0.0
  0
LINE
  5
6FE
  8
DATA
  6
CONTINUOUS
 62
     7
 10
697.25
 20
-1100.0
 30
0.0
 11
697.25
 21
-390.5
 31
0.0
  0
CIRCLE
  5
6FF
  8
DATA
  6
CONTINUOUS
 62
     7
 10
724.75
 20
-441.0
 30
0.0
 40
10.00000000000003
  0
LINE
  5
700
  8
DATA
  6
CONTINUOUS
 62
     7
 10
727.75000000000102
 20
-440.99999999999949
 30
0.0
 11
726.25
 21
-438.401923788646
 31
0.0
  0
LINE
  5
701
  8
DATA
  6
CONTINUOUS
 62
     7
 10
726.25000000000091
 20
-443.59807621135371
 30
0.0
 11
727.75000000000102
 21
-440.99999999999949
 31
0.0
  0
LINE
  5
702
  8
DATA
  6
CONTINUOUS
 62
     7
 10
723.24999999999989
 20
-443.598076211354
 30
0.0
 11
726.25000000000091
 21
-443.59807621135371
 31
0.0
  0
LINE
  5
703
  8
DATA
  6
CONTINUOUS
 62
     7
 10
721.7499999999992
 20
-441.00000000000051
 30
0.0
 11
723.24999999999989
 21
-443.598076211354
 31
0.0
  0
LINE
  5
704
  8
DATA
  6
CONTINUOUS
 62
     7
 10
723.24999999999909
 20
-438.40192378864629
 30
0.0
 11
721.7499999999992
 21
-441.00000000000051
 31
0.0
  0
LINE
  5
705
  8
DATA
  6
CONTINUOUS
 62
     7
 10
726.25
 20
-438.401923788646
 30
0.0
 11
723.24999999999909
 21
-438.40192378864629
 31
0.0
  0
CIRCLE
  5
706
  8
DATA
  6
CONTINUOUS
 62
     7
 10
724.75
 20
-1049.5
 30
0.0
 40
10.00000000000003
  0
LINE
  5
707
  8
DATA
  6
CONTINUOUS
 62
     7
 10
727.75000000000102
 20
-1049.5
 30
0.0
 11
726.25
 21
-1052.0980762113541
 31
0.0
  0
LINE
  5
708
  8
DATA
  6
CONTINUOUS
 62
     7
 10
726.25000000000091
 20
-1046.9019237886459
 30
0.0
 11
727.75000000000102
 21
-1049.5
 31
0.0
  0
LINE
  5
709
  8
DATA
  6
CONTINUOUS
 62
     7
 10
723.24999999999989
 20
-1046.9019237886459
 30
0.0
 11
726.25000000000091
 21
-1046.9019237886459
 31
0.0
  0
LINE
  5
70A
  8
DATA
  6
CONTINUOUS
 62
     7
 10
721.7499999999992
 20
-1049.5
 30
0.0
 11
723.24999999999989
 21
-1046.9019237886459
 31
0.0
  0
LINE
  5
70B
  8
DATA
  6
CONTINUOUS
 62
     7
 10
723.24999999999909
 20
-1052.0980762113529
 30
0.0
 11
721.7499999999992
 21
-1049.5
 31
0.0
  0
LINE
  5
70C
  8
DATA
  6
CONTINUOUS
 62
     7
 10
726.25
 20
-1052.0980762113541
 30
0.0
 11
723.24999999999909
 21
-1052.0980762113529
 31
0.0
  0
CIRCLE
  5
70D
  8
DATA
  6
CONTINUOUS
 62
     7
 10
-679.75
 20
-1405.0
 30
0.0
 40
10.00000000000003
  0
LINE
  5
70E
  8
DATA
  6
CONTINUOUS
 62
     7
 10
-676.7499999999992
 20
-1404.9999999999991
 30
0.0
 11
-678.24999999999989
 21
-1402.401923788645
 31
0.0
  0
LINE
  5
70F
  8
DATA
  6
CONTINUOUS
 62
     7
 10
-678.24999999999909
 20
-1407.5980762113529
 30
0.0
 11
-676.7499999999992
 21
-1404.9999999999991
 31
0.0
  0
LINE
  5
710
  8
DATA
  6
CONTINUOUS
 62
     7
 10
-681.25
 20
-1407.5980762113529
 30
0.0
 11
-678.24999999999909
 21
-1407.5980762113529
 31
0.0
  0
LINE
  5
711
  8
DATA
  6
CONTINUOUS
 62
     7
 10
-682.75000000000068
 20
-1405.0
 30
0.0
 11
-681.25
 21
-1407.5980762113529
 31
0.0
  0
LINE
  5
712
  8
DATA
  6
CONTINUOUS
 62
     7
 10
-681.25000000000068
 20
-1402.4019237886459
 30
0.0
 11
-682.75000000000068
 21
-1405.0
 31
0.0
  0
LINE
  5
713
  8
DATA
  6
CONTINUOUS
 62
     7
 10
-678.24999999999989
 20
-1402.401923788645
 30
0.0
 11
-681.25000000000068
 21
-1402.4019237886459
 31
0.0
  0
CIRCLE
  5
714
  8
DATA
  6
CONTINUOUS
 62
     7
 10
-524.75
 20
-1615.0
 30
0.0
 40
10.00000000000003
  0
LINE
  5
715
  8
DATA
  6
CONTINUOUS
 62
     7
 10
-521.7499999999992
 20
-1614.9999999999991
 30
0.0
 11
-523.24999999999989
 21
-1612.401923788645
 31
0.0
  0
LINE
  5
716
  8
DATA
  6
CONTINUOUS
 62
     7
 10
-523.24999999999909
 20
-1617.5980762113529
 30
0.0
 11
-521.7499999999992
 21
-1614.9999999999991
 31
0.0
  0
LINE
  5
717
  8
DATA
  6
CONTINUOUS
 62
     7
 10
-526.25
 20
-1617.5980762113541
 30
0.0
 11
-523.24999999999909
 21
-1617.5980762113529
 31
0.0
  0
LINE
  5
718
  8
DATA
  6
CONTINUOUS
 62
     7
 10
-527.75000000000068
 20
-1615.0
 30
0.0
 11
-526.25
 21
-1617.5980762113541
 31
0.0
  0
LINE
  5
719
  8
DATA
  6
CONTINUOUS
 62
     7
 10
-526.2500000000008
 20
-1612.4019237886459
 30
0.0
 11
-527.75000000000068
 21
-1615.0
 31
0.0
  0
LINE
  5
71A
  8
DATA
  6
CONTINUOUS
 62
     7
 10
-523.24999999999989
 20
-1612.401923788645
 30
0.0
 11
-526.2500000000008
 21
-1612.4019237886459
 31
0.0
  0
CIRCLE
  5
71B
  8
DATA
  6
CONTINUOUS
 62
     7
 10
-320.24999999999898
 20
-1405.0
 30
0.0
 40
10.00000000000003
  0
LINE
  5
71C
  8
DATA
  6
CONTINUOUS
 62
     7
 10
-323.25
 20
-1404.9999999999991
 30
0.0
 11
-321.74999999999898
 21
-1402.401923788645
 31
0.0
  0
LINE
  5
71D
  8
DATA
  6
CONTINUOUS
 62
     7
 10
-321.75
 20
-1407.5980762113529
 30
0.0
 11
-323.25
 21
-1404.9999999999991
 31
0.0
  0
LINE
  5
71E
  8
DATA
  6
CONTINUOUS
 62
     7
 10
-318.74999999999898
 20
-1407.5980762113529
 30
0.0
 11
-321.75
 21
-1407.5980762113529
 31
0.0
  0
LINE
  5
71F
  8
DATA
  6
CONTINUOUS
 62
     7
 10
-317.24999999999818
 20
-1405.0
 30
0.0
 11
-318.74999999999898
 21
-1407.5980762113529
 31
0.0
  0
LINE
  5
720
  8
DATA
  6
CONTINUOUS
 62
     7
 10
-318.74999999999818
 20
-1402.4019237886459
 30
0.0
 11
-317.24999999999818
 21
-1405.0
 31
0.0
  0
LINE
  5
721
  8
DATA
  6
CONTINUOUS
 62
     7
 10
-321.74999999999898
 20
-1402.401923788645
 30
0.0
 11
-318.74999999999818
 21
-1402.4019237886459
 31
0.0
  0
TEXT
  5
722
  8
DATA
 62
     7
 10
-125.0
 20
-1369.05
 30
0.0
 40
40.721028645833343
  1
\U+03C635ポールソケット
 41
0.7
 11
-125.0
 21
-1328.328971354166
 31
0.0
 73
     3
  0
ENDSEC
  0
EOF
