  0
SECTION
  2
HEADER
  9
$ACADVER
  1
AC1009
  9
$INSBASE
 10
0.0
 20
0.0
 30
0.0
  9
$EXTMIN
 10
-1350.0823911746061
 20
-2014.8832945933329
 30
-0.0015258207003583
  9
$EXTMAX
 10
1350.0824037474611
 20
1999.567671355127
 30
0.0000000349246037
  9
$LIMMIN
 10
0.0
 20
0.0
  9
$LIMMAX
 10
0.0
 20
0.0
  9
$ORTHOMODE
 70
     0
  9
$REGENMODE
 70
     1
  9
$FILLMODE
 70
     1
  9
$QTEXTMODE
 70
     0
  9
$MIRRTEXT
 70
     1
  9
$DRAGMODE
 70
     2
  9
$LTSCALE
 40
76.200000000000003
  9
$OSMODE
 70
   231
  9
$ATTMODE
 70
     1
  9
$TEXTSIZE
 40
0.0
  9
$TRACEWID
 40
1.0
  9
$TEXTSTYLE
  7
STANDARD
  9
$CLAYER
  8
DATA
  9
$CELTYPE
  6
BYLAYER
  9
$CECOLOR
 62
   256
  9
$DIMSCALE
 40
1.0
  9
$DIMASZ
 40
0.18
  9
$DIMEXO
 40
0.0625
  9
$DIMDLI
 40
0.38
  9
$DIMRND
 40
0.0
  9
$DIMDLE
 40
0.0
  9
$DIMEXE
 40
0.18
  9
$DIMTP
 40
0.0
  9
$DIMTM
 40
0.0
  9
$DIMTXT
 40
0.18
  9
$DIMCEN
 40
0.09
  9
$DIMTSZ
 40
0.0
  9
$DIMTOL
 70
     0
  9
$DIMLIM
 70
     0
  9
$DIMTIH
 70
     1
  9
$DIMTOH
 70
     1
  9
$DIMSE1
 70
     0
  9
$DIMSE2
 70
     0
  9
$DIMTAD
 70
     0
  9
$DIMZIN
 70
     0
  9
$DIMBLK
  1

  9
$DIMASO
 70
     1
  9
$DIMSHO
 70
     1
  9
$DIMPOST
  1

  9
$DIMAPOST
  1

  9
$DIMALT
 70
     0
  9
$DIMALTD
 70
     2
  9
$DIMALTF
 40
25.399999999999999
  9
$DIMLFAC
 40
1.0
  9
$DIMTOFL
 70
     0
  9
$DIMTVP
 40
0.0
  9
$DIMTIX
 70
     0
  9
$DIMSOXD
 70
     0
  9
$DIMSAH
 70
     0
  9
$DIMBLK1
  1

  9
$DIMBLK2
  1

  9
$DIMSTYLE
  2
STANDARD
  9
$DIMCLRD
 70
     0
  9
$DIMCLRE
 70
     0
  9
$DIMCLRT
 70
     0
  9
$DIMTFAC
 40
1.0
  9
$DIMGAP
 40
0.09
  9
$LUNITS
 70
     2
  9
$LUPREC
 70
     4
  9
$SKETCHINC
 40
0.1
  9
$FILLETRAD
 40
0.0
  9
$AUNITS
 70
     0
  9
$AUPREC
 70
     0
  9
$MENU
  1
acad
  9
$ELEVATION
 40
0.0
  9
$PELEVATION
 40
0.0
  9
$THICKNESS
 40
0.0
  9
$LIMCHECK
 70
     0
  9
$BLIPMODE
 70
     0
  9
$CHAMFERA
 40
0.0
  9
$CHAMFERB
 40
0.0
  9
$SKPOLY
 70
     0
  9
$TDCREATE
 40
2456693.763993056
  9
$TDUPDATE
 40
2456693.7737079752
  9
$TDINDWG
 40
0.0003786574
  9
$TDUSRTIMER
 40
0.000378588
  9
$USRTIMER
 70
     1
  9
$ANGBASE
 50
0.0
  9
$ANGDIR
 70
     0
  9
$PDMODE
 70
     1
  9
$PDSIZE
 40
-2.0
  9
$PLINEWID
 40
0.0
  9
$COORDS
 70
     2
  9
$SPLFRAME
 70
     0
  9
$SPLINETYPE
 70
     6
  9
$SPLINESEGS
 70
     8
  9
$ATTDIA
 70
     0
  9
$ATTREQ
 70
     1
  9
$HANDLING
 70
     1
  9
$HANDSEED
  5
4F2
  9
$SURFTAB1
 70
     6
  9
$SURFTAB2
 70
     6
  9
$SURFTYPE
 70
     6
  9
$SURFU
 70
     6
  9
$SURFV
 70
     6
  9
$UCSNAME
  2

  9
$UCSORG
 10
0.0
 20
0.0
 30
0.0
  9
$UCSXDIR
 10
1.0
 20
0.0
 30
0.0
  9
$UCSYDIR
 10
0.0
 20
1.0
 30
0.0
  9
$PUCSNAME
  2

  9
$PUCSORG
 10
0.0
 20
0.0
 30
0.0
  9
$PUCSXDIR
 10
1.0
 20
0.0
 30
0.0
  9
$PUCSYDIR
 10
0.0
 20
1.0
 30
0.0
  9
$USERI1
 70
     0
  9
$USERI2
 70
     0
  9
$USERI3
 70
     0
  9
$USERI4
 70
     0
  9
$USERI5
 70
     0
  9
$USERR1
 40
0.0
  9
$USERR2
 40
0.0
  9
$USERR3
 40
0.0
  9
$USERR4
 40
0.0
  9
$USERR5
 40
0.0
  9
$WORLDVIEW
 70
     1
  9
$SHADEDGE
 70
     3
  9
$SHADEDIF
 70
    70
  9
$TILEMODE
 70
     1
  9
$MAXACTVP
 70
    64
  9
$PLIMCHECK
 70
     0
  9
$PEXTMIN
 10
1.0000000000000000E+020
 20
1.0000000000000000E+020
 30
1.0000000000000000E+020
  9
$PEXTMAX
 10
-1.0000000000000000E+020
 20
-1.0000000000000000E+020
 30
-1.0000000000000000E+020
  9
$PLIMMIN
 10
0.0
 20
0.0
  9
$PLIMMAX
 10
12.0
 20
9.0
  9
$UNITMODE
 70
     0
  9
$VISRETAIN
 70
     0
  9
$PLINEGEN
 70
     1
  9
$PSLTSCALE
 70
     0
  0
ENDSEC
  0
SECTION
  2
TABLES
  0
TABLE
  2
VPORT
 70
     1
  0
VPORT
  2
*ACTIVE
 70
     0
 10
0.0
 20
0.0
 11
1.0
 21
1.0
 12
0.0000062864273787
 22
-7.6578116191026311
 13
0.0
 23
0.0
 14
1.0
 24
1.0
 15
0.0
 25
0.0
 16
0.0
 26
0.0
 36
1.0
 17
0.0
 27
0.0
 37
0.0
 40
4046.060816074038
 41
2.1787122207621552
 42
50.0
 43
0.0
 44
0.0
 50
0.0
 51
0.0
 71
     0
 72
  2000
 73
     1
 74
     1
 75
     0
 76
     0
 77
     0
 78
     0
  0
ENDTAB
  0
TABLE
  2
LTYPE
 70
    11
  0
LTYPE
  2
CONTINUOUS
 70
     0
  3
Solid line
 72
    65
 73
     0
 40
0.0
  0
ENDTAB
  0
TABLE
  2
LAYER
 70
     5
  0
LAYER
  2
0
 70
     0
 62
     7
  6
CONTINUOUS
  0
LAYER
  2
DATA
 70
     0
 62
     7
  6
CONTINUOUS
  0
LAYER
  2
HIBINO-BASE
 70
     0
 62
     7
  6
CONTINUOUS
  0
LAYER
  2
SPEC
 70
     0
 62
     7
  6
CONTINUOUS
  0
LAYER
  2
DIMNSIONS
 70
     0
 62
     7
  6
CONTINUOUS
  0
ENDTAB
  0
TABLE
  2
STYLE
 70
     3
  0
STYLE
  2
STANDARD
 70
     0
 40
0.0
 41
1.0
 50
0.0
 71
     0
 42
0.0
  3
txt
  4
BIGFONT.SHX
  0
ENDTAB
  0
TABLE
  2
VIEW
 70
     0
  0
ENDTAB
  0
TABLE
  2
UCS
 70
     0
  0
ENDTAB
  0
TABLE
  2
APPID
 70
     4
  0
APPID
  2
ACAD
 70
     0
  0
APPID
  2
ACADANNOTATIVE
 70
     0
  0
APPID
  2
ACAD_NAV_VCDISPLAY
 70
     0
  0
APPID
  2
ACAD_MLEADERVER
 70
     0
  0
ENDTAB
  0
TABLE
  2
DIMSTYLE
 70
     2
  0
DIMSTYLE
  2
STANDARD
 70
     0
  3

  4

  5

  6

  7

 40
1.0
 41
0.18
 42
0.0625
 43
0.38
 44
0.18
 45
0.0
 46
0.0
 47
0.0
 48
0.0
140
0.18
141
0.09
142
0.0
143
25.399999999999999
144
1.0
145
0.0
146
1.0
147
0.09
 71
     0
 72
     0
 73
     1
 74
     1
 75
     0
 76
     0
 77
     0
 78
     0
170
     0
171
     2
172
     0
173
     0
174
     0
175
     0
176
     0
177
     0
178
     0
  0
ENDTAB
  0
ENDSEC
  0
SECTION
  2
BLOCKS
  0
BLOCK
  8
0
  2
$MODEL_SPACE
 70
     0
 10
0.0
 20
0.0
 30
0.0
  3
$MODEL_SPACE
  1

  0
ENDBLK
  5
467
  8
0
  0
BLOCK
 67
     1
  8
0
  2
$PAPER_SPACE
 70
     0
 10
0.0
 20
0.0
 30
0.0
  3
$PAPER_SPACE
  1

  0
ENDBLK
  5
463
 67
     1
  8
0
  0
ENDSEC
  0
SECTION
  2
ENTITIES
  0
LINE
  5
2C
  8
HIBINO-BASE
  6
CONTINUOUS
 62
     7
 10
-1350.0
 20
1999.44541
 30
0.0
 11
1350.0
 21
1999.44541
 31
0.0
  0
LINE
  5
2D
  8
HIBINO-BASE
  6
CONTINUOUS
 62
     7
 10
1350.0
 20
-1900.5545900000011
 30
0.0
 11
-1350.0
 21
-1900.5545900000011
 31
0.0
  0
LINE
  5
2E
  8
HIBINO-BASE
  6
CONTINUOUS
 62
     7
 10
-1350.0
 20
-1900.5545900000011
 30
0.0
 11
-1350.0
 21
1999.44541
 31
0.0
  0
LINE
  5
2F
  8
HIBINO-BASE
  6
CONTINUOUS
 62
     7
 10
1350.0
 20
1999.44541
 30
0.0
 11
1350.0
 21
-1900.5545900000011
 31
0.0
  0
LINE
  5
30
  8
HIBINO-BASE
  6
CONTINUOUS
 62
     7
 10
0.0000000000001066
 20
-1563.0545900000011
 30
0.0
 11
1350.0
 21
-1563.0545900000011
 31
0.0
  0
LINE
  5
31
  8
HIBINO-BASE
  6
CONTINUOUS
 62
     7
 10
0.0000000000001066
 20
-1900.5545900000011
 30
0.0
 11
0.0000000000001066
 21
-1563.0545900000011
 31
0.0
  0
TEXT
  5
32
  8
HIBINO-BASE
 62
     7
 10
13.50000000000019
 20
-1600.68499
 30
0.0
 40
24.4326171875
  1
NOTE
 41
0.7
 11
13.50000000000019
 21
-1576.2523728125
 31
0.0
 73
     3
  0
LINE
  5
33
  8
HIBINO-BASE
  6
CONTINUOUS
 62
     7
 10
525.00000000000034
 20
-1900.5545900000011
 30
0.0
 11
525.00000000000034
 21
-1563.0545900000011
 31
0.0
  0
TEXT
  5
34
  8
HIBINO-BASE
 62
     7
 10
538.49999999999989
 20
-1600.68499
 30
0.0
 40
24.4326171875
  1
TITLE
 41
0.7
 11
538.49999999999989
 21
-1576.2523728125
 31
0.0
 73
     3
  0
LINE
  5
35
  8
HIBINO-BASE
  6
CONTINUOUS
 62
     7
 10
0.0000000000001066
 20
-1750.5545900000011
 30
0.0
 11
1350.0
 21
-1750.5545900000011
 31
0.0
  0
TEXT
  5
36
  8
HIBINO-BASE
 62
     7
 10
726.0
 20
-1787.3401899999999
 30
0.0
 40
24.4326171875
  1
DRAWN
 41
0.7
 11
726.0
 21
-1762.9075728124999
 31
0.0
 73
     3
  0
TEXT
  5
37
  8
HIBINO-BASE
 62
     7
 10
351.0
 20
-1787.3401899999999
 30
0.0
 40
24.4326171875
  1
DATE
 41
0.7
 11
351.0
 21
-1762.9075728124999
 31
0.0
 73
     3
  0
TEXT
  5
38
  8
HIBINO-BASE
 62
     7
 10
201.0
 20
-1787.3401899999999
 30
0.0
 40
24.4326171875
  1
SCALE
 41
0.7
 11
201.0
 21
-1762.9075728124999
 31
0.0
 73
     3
  0
TEXT
  5
39
  8
HIBINO-BASE
 62
     7
 10
538.49999999999989
 20
-1787.3401899999999
 30
0.0
 40
24.4326171875
  1
DESIGN
 41
0.7
 11
538.49999999999989
 21
-1762.9075728124999
 31
0.0
 73
     3
  0
TEXT
  5
3A
  8
HIBINO-BASE
 62
     7
 10
1100.9999999999991
 20
-1787.3401899999999
 30
0.0
 40
24.4326171875
  1
DRAWING NO.
 41
0.7
 11
1100.9999999999991
 21
-1762.9075728124999
 31
0.0
 73
     3
  0
TEXT
  5
3B
  8
HIBINO-BASE
 62
     7
 10
913.49999999999989
 20
-1787.3401899999999
 30
0.0
 40
24.4326171875
  1
CHECK
 41
0.7
 11
913.49999999999989
 21
-1762.9075728124999
 31
0.0
 73
     3
  0
LINE
  5
3C
  8
HIBINO-BASE
  6
CONTINUOUS
 62
     7
 10
215.62500000000011
 20
-1881.8045900000011
 30
0.0
 11
271.8750000000004
 21
-1825.5545900000011
 31
0.0
  0
TEXT
  5
3D
  8
HIBINO-BASE
 62
     7
 10
206.25000000000011
 20
-1842.1887400000001
 30
0.0
 40
24.4326171875
  1
1
 41
0.7
 11
206.25000000000011
 21
-1817.7561228125001
 31
0.0
 73
     3
  0
LINE
  5
3E
  8
HIBINO-BASE
  6
CONTINUOUS
 62
     7
 10
187.50000000000011
 20
-1900.5545900000011
 30
0.0
 11
187.50000000000011
 21
-1750.5545900000011
 31
0.0
  0
LINE
  5
3F
  8
HIBINO-BASE
  6
CONTINUOUS
 62
     7
 10
337.49999999999989
 20
-1900.5545900000011
 30
0.0
 11
337.49999999999989
 21
-1750.5545900000011
 31
0.0
  0
LINE
  5
40
  8
HIBINO-BASE
  6
CONTINUOUS
 62
     7
 10
712.49999999999955
 20
-1750.5545900000011
 30
0.0
 11
712.49999999999955
 21
-1900.5545900000011
 31
0.0
  0
LINE
  5
41
  8
HIBINO-BASE
  6
CONTINUOUS
 62
     7
 10
1087.5
 20
-1750.5545900000011
 30
0.0
 11
1087.5
 21
-1900.5545900000011
 31
0.0
  0
LINE
  5
42
  8
HIBINO-BASE
  6
CONTINUOUS
 62
     7
 10
899.99999999999955
 20
-1900.5545900000011
 30
0.0
 11
899.99999999999955
 21
-1750.5545900000011
 31
0.0
  0
TEXT
  5
43
  8
HIBINO-BASE
 62
     7
 10
350.34810000000022
 20
-1857.59989
 30
0.0
 40
24.4326171875
  1
'14.01.
 41
0.7
 11
350.34810000000022
 21
-1833.1672728125
 31
0.0
 73
     3
  0
TEXT
  5
44
  8
HIBINO-BASE
 62
     7
 10
262.5
 20
-1870.3137400000001
 30
0.0
 40
24.4326171875
  1
15
 41
0.7
 11
262.5
 21
-1845.8811228125001
 31
0.0
 73
     3
  0
TEXT
  5
45
  8
HIBINO-BASE
 62
     7
 10
735.08715016551935
 20
-1857.59989
 30
0.0
 40
24.4326171875
  1
N.Sasaki
 41
0.7
 11
735.08715016551935
 21
-1833.1672728125
 31
0.0
 73
     3
  0
TEXT
  5
46
  8
HIBINO-BASE
 62
     7
 10
58.250000000000412
 20
-1870.9145900000001
 30
0.0
 40
48.865234374999993
  1
A4
 41
0.7
 11
58.250000000000412
 21
-1822.0493556250001
 31
0.0
 73
     3
  0
TEXT
  5
47
  8
HIBINO-BASE
 62
     7
 10
14.37500000000003
 20
-1789.846415
 30
0.0
 40
24.4326171875
  1
PAPER SIZE
 41
0.7
 11
14.37500000000003
 21
-1765.4137978125
 31
0.0
 73
     3
  0
TEXT
  5
48
  8
HIBINO-BASE
 62
     7
 10
-1242.24
 20
-1996.684757
 30
0.0
 40
54.000662695312492
  1
Hibino Corporation
 41
0.7
 11
-1242.24
 21
-1942.684094304688
 31
0.0
 73
     3
  0
TEXT
  5
49
  8
HIBINO-BASE
 62
     7
 10
751.02584999999999
 20
-1996.684757
 30
0.0
 40
54.000662695312492
  1
ヒビノ株式会社
 41
0.7
 11
751.02584999999999
 21
-1942.684094304688
 31
0.0
 73
     3
  0
TEXT
  5
4A
  8
SPEC
 62
     7
 10
-536.5
 20
964.23540999999955
 30
0.0
 40
28.504720052083339
  1
38kg
 41
0.7
 11
-536.5
 21
992.74013005208269
 31
0.0
 73
     3
  0
TEXT
  5
4B
  8
SPEC
 62
     7
 10
-536.5
 20
1020.485409999999
 30
0.0
 40
28.504720052083329
  1
522\U+00D7688\U+00D7724(除突起部)
 41
0.7
 11
-536.5
 21
1048.9901300520819
 31
0.0
 73
     3
  0
TEXT
  5
4C
  8
SPEC
 62
     7
 10
-1218.75
 20
1870.3444599999989
 30
0.0
 40
36.64892578125
  1
仕様
 41
0.7
 11
-1218.75
 21
1906.9933857812489
 31
0.0
 73
     3
  0
LINE
  5
4D
  8
SPEC
  6
CONTINUOUS
 62
     7
 10
-1237.5
 20
1849.44541
 30
0.0
 11
975.00000000000034
 21
1849.44541
 31
0.0
  0
LINE
  5
4E
  8
SPEC
  6
CONTINUOUS
 62
     7
 10
-1237.5
 20
1793.1954099999989
 30
0.0
 11
975.00000000000034
 21
1793.1954099999989
 31
0.0
  0
LINE
  5
4F
  8
SPEC
  6
CONTINUOUS
 62
     7
 10
-1237.5
 20
1849.44541
 30
0.0
 11
-1237.5
 21
949.44540999999958
 31
0.0
  0
LINE
  5
50
  8
SPEC
  6
CONTINUOUS
 62
     7
 10
-549.99999999999955
 20
1849.44541
 30
0.0
 11
-549.99999999999955
 21
949.44540999999958
 31
0.0
  0
LINE
  5
51
  8
SPEC
  6
CONTINUOUS
 62
     7
 10
975.00000000000034
 20
1849.44541
 30
0.0
 11
975.00000000000034
 21
949.44540999999958
 31
0.0
  0
LINE
  5
52
  8
SPEC
  6
CONTINUOUS
 62
     7
 10
-1237.5
 20
1736.9454099999989
 30
0.0
 11
975.00000000000034
 21
1736.9454099999989
 31
0.0
  0
TEXT
  5
53
  8
SPEC
 62
     7
 10
-1223.9999999999991
 20
1805.0141766666659
 30
0.0
 40
28.504720052083329
  1
形式
 41
0.7
 11
-1223.9999999999991
 21
1833.5188967187489
 31
0.0
 73
     3
  0
TEXT
  5
54
  8
SPEC
 62
     7
 10
-1223.9999999999991
 20
1751.7354099999991
 30
0.0
 40
28.504720052083329
  1
周波数レンジ(-10dB)
 41
0.7
 11
-1223.9999999999991
 21
1780.240130052083
 31
0.0
 73
     3
  0
TEXT
  5
55
  8
SPEC
 62
     7
 10
-1223.9999999999991
 20
1695.4854099999991
 30
0.0
 40
28.504720052083329
  1
最大音圧レベル(1m)
 41
0.7
 11
-1223.9999999999991
 21
1723.990130052083
 31
0.0
 73
     3
  0
TEXT
  5
56
  8
SPEC
 62
     7
 10
-1223.9999999999991
 20
1639.2354099999991
 30
0.0
 40
28.504720052083329
  1
ドライバー構成
 41
0.7
 11
-1223.9999999999991
 21
1667.740130052083
 31
0.0
 73
     3
  0
LINE
  5
57
  8
SPEC
  6
CONTINUOUS
 62
     7
 10
-1237.5
 20
1680.6954099999989
 30
0.0
 11
975.00000000000034
 21
1680.6954099999989
 31
0.0
  0
TEXT
  5
58
  8
SPEC
 62
     7
 10
-536.5
 20
1695.4854099999991
 30
0.0
 40
28.504720052083329
  1
134dB SPL(ピーク)
 41
0.7
 11
-536.5
 21
1723.990130052083
 31
0.0
 73
     3
  0
TEXT
  5
59
  8
SPEC
 62
     7
 10
-536.5
 20
1807.9854099999991
 30
0.0
 40
28.504720052083329
  1
パワード・サブウーファー
 41
0.7
 11
-536.5
 21
1836.490130052083
 31
0.0
 73
     3
  0
TEXT
  5
5A
  8
SPEC
 62
     7
 10
-536.50000000000045
 20
1751.7354099999991
 30
0.0
 40
28.504720052083329
  1
30～103Hz
 41
0.7
 11
-536.50000000000045
 21
1780.240130052083
 31
0.0
 73
     3
  0
LINE
  5
5B
  8
SPEC
  6
CONTINUOUS
 62
     7
 10
-1237.5
 20
1624.4454099999989
 30
0.0
 11
975.00000000000034
 21
1624.4454099999989
 31
0.0
  0
TEXT
  5
5C
  8
SPEC
 62
     7
 10
-1223.9999999999991
 20
1582.9854099999991
 30
0.0
 40
28.504720052083329
  1
クロスオーバー
 41
0.7
 11
-1223.9999999999991
 21
1611.4901300520819
 31
0.0
 73
     3
  0
LINE
  5
5D
  8
SPEC
  6
CONTINUOUS
 62
     7
 10
-1237.5
 20
1568.1954099999989
 30
0.0
 11
975.00000000000034
 21
1568.1954099999989
 31
0.0
  0
LINE
  5
5E
  8
SPEC
  6
CONTINUOUS
 62
     7
 10
-1237.5
 20
1511.9454099999989
 30
0.0
 11
975.00000000000034
 21
1511.9454099999989
 31
0.0
  0
LINE
  5
5F
  8
SPEC
  6
CONTINUOUS
 62
     7
 10
-899.99999999999955
 20
1399.4454099999989
 30
0.0
 11
975.00000000000034
 21
1399.4454099999989
 31
0.0
  0
LINE
  5
60
  8
SPEC
  6
CONTINUOUS
 62
     7
 10
-899.99999999999955
 20
1343.19541
 30
0.0
 11
975.00000000000034
 21
1343.19541
 31
0.0
  0
LINE
  5
61
  8
SPEC
  6
CONTINUOUS
 62
     7
 10
-1237.5
 20
1230.69541
 30
0.0
 11
975.00000000000034
 21
1230.69541
 31
0.0
  0
LINE
  5
62
  8
SPEC
  6
CONTINUOUS
 62
     7
 10
-1237.5
 20
1174.4454099999989
 30
0.0
 11
975.00000000000034
 21
1174.4454099999989
 31
0.0
  0
LINE
  5
63
  8
SPEC
  6
CONTINUOUS
 62
     7
 10
-1237.5
 20
1118.1954099999989
 30
0.0
 11
975.00000000000034
 21
1118.1954099999989
 31
0.0
  0
TEXT
  5
64
  8
SPEC
 62
     7
 10
-534.99631648924378
 20
1415.739093510756
 30
0.0
 40
28.504720052083329
  1
2
 41
0.7
 11
-534.99631648924378
 21
1444.243813562839
 31
0.0
 73
     3
  0
TEXT
  5
65
  8
SPEC
 62
     7
 10
-1223.9999999999991
 20
1526.7354099999991
 30
0.0
 40
28.504720052083329
  1
クロスオーバー周波数
 41
0.7
 11
-1223.9999999999991
 21
1555.2401300520819
 31
0.0
 73
     3
  0
TEXT
  5
66
  8
SPEC
 62
     7
 10
-1223.9999999999991
 20
1470.4854099999991
 30
0.0
 40
28.504720052083329
  1
パワーアンプ
 41
0.7
 11
-1223.9999999999991
 21
1498.9901300520819
 31
0.0
 73
     3
  0
TEXT
  5
67
  8
SPEC
 62
     7
 10
-1223.9999999999991
 20
1414.2354099999991
 30
0.0
 40
28.504720052083329
  1
入力
 41
0.7
 11
-1223.9999999999991
 21
1442.7401300520819
 31
0.0
 73
     3
  0
TEXT
  5
68
  8
SPEC
 62
     7
 10
-1223.9999999999991
 20
1245.4854099999991
 30
0.0
 40
28.504720052083329
  1
インジケーター
 41
0.7
 11
-1223.9999999999991
 21
1273.9901300520819
 31
0.0
 73
     3
  0
TEXT
  5
69
  8
SPEC
 62
     7
 10
-1223.9999999999991
 20
1189.2354099999991
 30
0.0
 40
28.504720052083329
  1
電源
 41
0.7
 11
-1223.9999999999991
 21
1217.7401300520819
 31
0.0
 73
     3
  0
TEXT
  5
6A
  8
SPEC
 62
     7
 10
-1223.9999999999991
 20
1132.9854099999991
 30
0.0
 40
28.504720052083329
  1
消費電力(1/8出力時、ピンクノイズ)
 41
0.7
 11
-1223.9999999999991
 21
1161.4901300520819
 31
0.0
 73
     3
  0
TEXT
  5
6B
  8
SPEC
 62
     7
 10
-1223.9999999999991
 20
1076.7354099999991
 30
0.0
 40
28.504720052083329
  1
エンクロージャー
 41
0.7
 11
-1223.9999999999991
 21
1105.2401300520819
 31
0.0
 73
     3
  0
TEXT
  5
6C
  8
SPEC
 62
     7
 10
-886.50000000000034
 20
1357.9854099999991
 30
0.0
 40
28.504720052083339
  1
端子・形式
 41
0.7
 11
-886.50000000000034
 21
1386.4901300520819
 31
0.0
 73
     3
  0
TEXT
  5
6D
  8
SPEC
 62
     7
 10
-886.50000000000034
 20
1301.7354099999991
 30
0.0
 40
28.504720052083339
  1
インピーダンス
 41
0.7
 11
-886.50000000000034
 21
1330.2401300520819
 31
0.0
 73
     3
  0
LINE
  5
6E
  8
SPEC
  6
CONTINUOUS
 62
     7
 10
-1237.5
 20
1455.6954099999989
 30
0.0
 11
975.00000000000034
 21
1455.6954099999989
 31
0.0
  0
LINE
  5
6F
  8
SPEC
  6
CONTINUOUS
 62
     7
 10
-1237.5
 20
1286.9454099999989
 30
0.0
 11
975.00000000000034
 21
1286.9454099999989
 31
0.0
  0
LINE
  5
70
  8
SPEC
  6
CONTINUOUS
 62
     7
 10
-899.99999999999955
 20
1455.6954099999989
 30
0.0
 11
-899.99999999999955
 21
1286.9454099999989
 31
0.0
  0
TEXT
  5
71
  8
SPEC
 62
     7
 10
-886.50000000000034
 20
1414.2354099999991
 30
0.0
 40
28.504720052083329
  1
チャンネル数
 41
0.7
 11
-886.50000000000034
 21
1442.7401300520819
 31
0.0
 73
     3
  0
TEXT
  5
72
  8
SPEC
 62
     7
 10
-536.5
 20
1470.4854099999991
 30
0.0
 40
28.504720052083329
  1
Class D
 41
0.7
 11
-536.5
 21
1498.9901300520819
 31
0.0
 73
     3
  0
TEXT
  5
73
  8
SPEC
 62
     7
 10
-536.5
 20
1357.9854099999991
 30
0.0
 40
28.504720052083329
  1
XLRと標準フォーンジャック(3P)対応の複合型 端子\U+00D72
 41
0.7
 11
-536.5
 21
1386.4901300520819
 31
0.0
 73
     3
  0
TEXT
  5
74
  8
SPEC
 62
     7
 10
-531.13181529524672
 20
1304.8347328843481
 30
0.0
 40
28.504720052083329
  1
20k\U+03A9(バランス)
 41
0.7
 11
-531.13181529524672
 21
1333.3394529364309
 31
0.0
 73
     3
  0
TEXT
  5
75
  8
SPEC
 62
     7
 10
-536.31923315590973
 20
1189.416176844089
 30
0.0
 40
28.504720052083329
  1
AC100V、50/60Hz
 41
0.7
 11
-536.31923315590973
 21
1217.9208968961721
 31
0.0
 73
     3
  0
TEXT
  5
76
  8
SPEC
 62
     7
 10
-536.31923315590973
 20
1076.916176844089
 30
0.0
 40
28.504720052083329
  1
25/18mm合板、黒、DuraFlex仕上げ
 41
0.7
 11
-536.31923315590973
 21
1105.4208968961721
 31
0.0
 73
     3
  0
TEXT
  5
77
  8
SPEC
 62
     7
 10
-536.50000000000045
 20
1582.9854099999991
 30
0.0
 40
28.504720052083329
  1
DSP制御、48dB/Oct
 41
0.7
 11
-536.50000000000045
 21
1611.4901300520819
 31
0.0
 73
     3
  0
TEXT
  5
78
  8
SPEC
 62
     7
 10
-536.50000000000045
 20
1526.7354099999991
 30
0.0
 40
28.504720052083329
  1
90Hz
 41
0.7
 11
-536.50000000000045
 21
1555.240130052083
 31
0.0
 73
     3
  0
TEXT
  5
79
  8
SPEC
 62
     7
 10
-536.31923315590973
 20
1245.666176844089
 30
0.0
 40
28.504720052083329
  1
PASS THRU、Limit、Signal、Power(前面、背面)
 41
0.7
 11
-536.31923315590973
 21
1274.1708968961721
 31
0.0
 73
     3
  0
TEXT
  5
7A
  8
SPEC
 62
     7
 10
-536.5
 20
1132.9854099999991
 30
0.0
 40
28.504720052083329
  1
80W(55Hz)
 41
0.7
 11
-536.5
 21
1161.4901300520819
 31
0.0
 73
     3
  0
LINE
  5
7B
  8
SPEC
  6
CONTINUOUS
 62
     7
 10
-1237.5
 20
949.44540999999958
 30
0.0
 11
975.00000000000034
 21
949.44540999999958
 31
0.0
  0
LINE
  5
7C
  8
SPEC
  6
CONTINUOUS
 62
     7
 10
-1237.5
 20
1005.695409999999
 30
0.0
 11
975.00000000000034
 21
1005.695409999999
 31
0.0
  0
TEXT
  5
7D
  8
SPEC
 62
     7
 10
-1223.9999999999991
 20
1020.485409999999
 30
0.0
 40
28.504720052083339
  1
寸法(W\U+00D7H\U+00D7D)
 41
0.7
 11
-1223.9999999999991
 21
1048.9901300520819
 31
0.0
 73
     3
  0
TEXT
  5
7E
  8
SPEC
 62
     7
 10
-1223.9999999999991
 20
964.23540999999909
 30
0.0
 40
28.504720052083339
  1
質量
 41
0.7
 11
-1223.9999999999991
 21
992.74013005208246
 31
0.0
 73
     3
  0
LINE
  5
7F
  8
SPEC
  6
CONTINUOUS
 62
     7
 10
-1237.5
 20
1061.9454099999989
 30
0.0
 11
975.00000000000034
 21
1061.9454099999989
 31
0.0
  0
TEXT
  5
80
  8
SPEC
 62
     7
 10
-536.50000000000045
 20
1639.2354099999991
 30
0.0
 40
28.504720052083329
  1
460mm(2278G)
 41
0.7
 11
-536.50000000000045
 21
1667.740130052083
 31
0.0
 73
     3
  0
TEXT
  5
81
  8
DIMNSIONS
 62
     7
 10
-299.99999999999989
 20
-1716.51224
 30
0.0
 40
36.64892578125
  1
(単位：mm)
 41
0.7
 11
-299.99999999999989
 21
-1679.86331421875
 31
0.0
 73
     3
  0
LINE
  5
82
  8
DIMNSIONS
  6
CONTINUOUS
 62
     7
 10
-830.00000000001262
 20
-50.0
 30
0.0
 11
-1230.0
 21
-50.0
 31
0.0
  0
LINE
  5
83
  8
DIMNSIONS
  6
CONTINUOUS
 62
     7
 10
-1071.0
 20
674.0
 30
0.0
 11
-1230.0
 21
674.0
 31
0.0
  0
LINE
  5
84
  8
DIMNSIONS
  6
CONTINUOUS
 62
     7
 10
-1200.0
 20
-50.0
 30
0.0
 11
-1200.0
 21
674.0
 31
0.0
  0
LINE
  5
85
  8
DIMNSIONS
  6
CONTINUOUS
 62
     7
 10
-1200.0
 20
-50.0
 30
0.0
 11
-1210.0505969272531
 21
-12.49066162109375
 31
0.0
  0
LINE
  5
86
  8
DIMNSIONS
  6
CONTINUOUS
 62
     7
 10
-1200.0
 20
-50.0
 30
0.0
 11
-1189.949403072746
 21
-12.49066162109375
 31
0.0
  0
LINE
  5
87
  8
DIMNSIONS
  6
CONTINUOUS
 62
     7
 10
-1200.0
 20
674.0
 30
0.0
 11
-1189.949403072746
 21
636.49066162109375
 31
0.0
  0
LINE
  5
88
  8
DIMNSIONS
  6
CONTINUOUS
 62
     7
 10
-1200.0
 20
674.0
 30
0.0
 11
-1210.0505969272531
 21
636.49066162109375
 31
0.0
  0
TEXT
  5
89
  8
DIMNSIONS
 62
     7
 10
-1214.9083366451171
 20
272.31248233715689
 30
0.0
 40
40.721046849555528
  1
724
 50
90.0
 41
0.7
 11
-1255.6293834946721
 21
272.31248233715689
 31
0.0
 73
     3
  0
LINE
  5
8A
  8
DIMNSIONS
  6
CONTINUOUS
 62
     7
 10
-1071.0
 20
-162.0
 30
0.0
 11
-1230.0
 21
-162.0
 31
0.0
  0
LINE
  5
8B
  8
DIMNSIONS
  6
CONTINUOUS
 62
     7
 10
-1071.0
 20
-850.0
 30
0.0
 11
-1230.0
 21
-850.0
 31
0.0
  0
LINE
  5
8C
  8
DIMNSIONS
  6
CONTINUOUS
 62
     7
 10
-1200.0
 20
-162.0
 30
0.0
 11
-1200.0
 21
-850.0
 31
0.0
  0
LINE
  5
8D
  8
DIMNSIONS
  6
CONTINUOUS
 62
     7
 10
-1200.0
 20
-162.0
 30
0.0
 11
-1189.949403072746
 21
-199.50933837890619
 31
0.0
  0
LINE
  5
8E
  8
DIMNSIONS
  6
CONTINUOUS
 62
     7
 10
-1200.0
 20
-162.0
 30
0.0
 11
-1210.0505969272531
 21
-199.50933837890619
 31
0.0
  0
LINE
  5
8F
  8
DIMNSIONS
  6
CONTINUOUS
 62
     7
 10
-1200.0
 20
-850.0
 30
0.0
 11
-1210.0505969272531
 21
-812.49066162109375
 31
0.0
  0
LINE
  5
90
  8
DIMNSIONS
  6
CONTINUOUS
 62
     7
 10
-1200.0
 20
-850.0
 30
0.0
 11
-1189.949403072746
 21
-812.49066162109375
 31
0.0
  0
TEXT
  5
91
  8
DIMNSIONS
 62
     7
 10
-1214.9083366451171
 20
-545.68751766284311
 30
0.0
 40
40.721046849555528
  1
688
 50
90.0
 41
0.7
 11
-1255.6293834946721
 21
-545.68751766284311
 31
0.0
 73
     3
  0
LINE
  5
92
  8
DIMNSIONS
  6
CONTINUOUS
 62
     7
 10
-1071.0
 20
-850.0
 30
0.0
 11
-1230.0
 21
-850.0
 31
0.0
  0
LINE
  5
93
  8
DIMNSIONS
  6
CONTINUOUS
 62
     7
 10
-1059.0
 20
-854.0
 30
0.0
 11
-1230.0
 21
-854.0
 31
0.0
  0
LINE
  5
94
  8
DIMNSIONS
  6
CONTINUOUS
 62
     7
 10
-1200.0
 20
-854.0
 30
0.0
 11
-1200.0
 21
-850.0
 31
0.0
  0
LINE
  5
95
  8
DIMNSIONS
  6
CONTINUOUS
 62
     7
 10
-1200.0
 20
-850.0
 30
0.0
 11
-1200.0
 21
-775.0
 31
0.0
  0
LINE
  5
96
  8
DIMNSIONS
  6
CONTINUOUS
 62
     7
 10
-1200.0
 20
-850.0
 30
0.0
 11
-1210.0505969272531
 21
-812.49066162109375
 31
0.0
  0
LINE
  5
97
  8
DIMNSIONS
  6
CONTINUOUS
 62
     7
 10
-1200.0
 20
-850.0
 30
0.0
 11
-1189.949403072746
 21
-812.49066162109375
 31
0.0
  0
LINE
  5
98
  8
DIMNSIONS
  6
CONTINUOUS
 62
     7
 10
-1200.0
 20
-854.0
 30
0.0
 11
-1200.0
 21
-941.68751766284333
 31
0.0
  0
LINE
  5
99
  8
DIMNSIONS
  6
CONTINUOUS
 62
     7
 10
-1200.0
 20
-854.0
 30
0.0
 11
-1189.949403072746
 21
-891.50933837890625
 31
0.0
  0
LINE
  5
9A
  8
DIMNSIONS
  6
CONTINUOUS
 62
     7
 10
-1200.0
 20
-854.0
 30
0.0
 11
-1210.0505969272531
 21
-891.50933837890625
 31
0.0
  0
TEXT
  5
9B
  8
DIMNSIONS
 62
     7
 10
-1214.9083366451171
 20
-941.68751766284333
 30
0.0
 40
40.721046849555528
  1
4.0
 50
90.0
 41
0.7
 11
-1255.6293834946721
 21
-941.68751766284333
 31
0.0
 73
     3
  0
LINE
  5
9C
  8
DIMNSIONS
  6
CONTINUOUS
 62
     7
 10
-1061.0
 20
-870.0
 30
0.0
 11
-1061.0
 21
-975.65509926169909
 31
0.0
  0
LINE
  5
9D
  8
DIMNSIONS
  6
CONTINUOUS
 62
     7
 10
-539.0
 20
-870.0
 30
0.0
 11
-539.0
 21
-975.65509926169909
 31
0.0
  0
LINE
  5
9E
  8
DIMNSIONS
  6
CONTINUOUS
 62
     7
 10
-1061.0
 20
-945.65509926169932
 30
0.0
 11
-539.0
 21
-945.65509926169932
 31
0.0
  0
LINE
  5
9F
  8
DIMNSIONS
  6
CONTINUOUS
 62
     7
 10
-1061.0
 20
-945.65509926169932
 30
0.0
 11
-1023.490661621093
 21
-935.60450233444556
 31
0.0
  0
LINE
  5
A0
  8
DIMNSIONS
  6
CONTINUOUS
 62
     7
 10
-1061.0
 20
-945.65509926169932
 30
0.0
 11
-1023.490661621093
 21
-955.70569618895274
 31
0.0
  0
LINE
  5
A1
  8
DIMNSIONS
  6
CONTINUOUS
 62
     7
 10
-539.0
 20
-945.65509926169932
 30
0.0
 11
-576.50933837890625
 21
-955.70569618895274
 31
0.0
  0
LINE
  5
A2
  8
DIMNSIONS
  6
CONTINUOUS
 62
     7
 10
-539.0
 20
-945.65509926169932
 30
0.0
 11
-576.50933837890625
 21
-935.60450233444556
 31
0.0
  0
TEXT
  5
A3
  8
DIMNSIONS
 62
     7
 10
-839.68751766284299
 20
-930.74676261658203
 30
0.0
 40
40.721046849555528
  1
522
 41
0.7
 11
-839.68751766284299
 21
-890.02571576702655
 31
0.0
 73
     3
  0
LINE
  5
A4
  8
DIMNSIONS
  6
CONTINUOUS
 62
     7
 10
-789.12025346379949
 20
210.6220713017608
 30
0.0
 11
-525.0
 21
250.0
 31
0.0
  0
LINE
  5
A5
  8
DIMNSIONS
  6
CONTINUOUS
 62
     7
 10
-789.12025346379949
 20
210.6220713017608
 30
0.0
 11
-753.37472612841145
 21
225.795147447765
 31
0.0
  0
LINE
  5
A6
  8
DIMNSIONS
  6
CONTINUOUS
 62
     7
 10
-789.12025346379949
 20
210.6220713017608
 30
0.0
 11
-750.57718064668029
 21
205.88957703006221
 31
0.0
  0
LINE
  5
A7
  8
DIMNSIONS
  6
CONTINUOUS
 62
     7
 10
-525.0
 20
250.0
 30
0.0
 11
219.375
 21
250.0
 31
0.0
  0
TEXT
  5
A8
  8
DIMNSIONS
 62
     7
 10
-495.0
 20
264.9083333333333
 30
0.0
 40
40.721028645833343
  1
M20ねじ込み式ポールソケット
 41
0.7
 11
-495.0
 21
305.62936197916667
 31
0.0
 73
     3
  0
LINE
  5
A9
  8
DIMNSIONS
  6
CONTINUOUS
 62
     7
 10
-716.50000000000034
 20
209.0
 30
0.0
 11
-420.0
 21
209.0
 31
0.0
  0
LINE
  5
AA
  8
DIMNSIONS
  6
CONTINUOUS
 62
     7
 10
-770.00000000000034
 20
-50.0
 30
0.0
 11
-420.0
 21
-50.0
 31
0.0
  0
LINE
  5
AB
  8
DIMNSIONS
  6
CONTINUOUS
 62
     7
 10
-450.0
 20
209.0
 30
0.0
 11
-450.0
 21
-50.0
 31
0.0
  0
LINE
  5
AC
  8
DIMNSIONS
  6
CONTINUOUS
 62
     7
 10
-450.0
 20
209.0
 30
0.0
 11
-439.94940307274629
 21
171.49066162109369
 31
0.0
  0
LINE
  5
AD
  8
DIMNSIONS
  6
CONTINUOUS
 62
     7
 10
-450.0
 20
209.0
 30
0.0
 11
-460.05059692725359
 21
171.49066162109369
 31
0.0
  0
LINE
  5
AE
  8
DIMNSIONS
  6
CONTINUOUS
 62
     7
 10
-450.0
 20
-50.0
 30
0.0
 11
-460.05059692725359
 21
-12.49066162109375
 31
0.0
  0
LINE
  5
AF
  8
DIMNSIONS
  6
CONTINUOUS
 62
     7
 10
-450.0
 20
-50.0
 30
0.0
 11
-439.94940307274629
 21
-12.49066162109375
 31
0.0
  0
TEXT
  5
B0
  8
DIMNSIONS
 62
     7
 10
-464.90833333333308
 20
39.812499999999993
 30
0.0
 40
40.721028645833343
  1
259
 50
90.0
 41
0.7
 11
-505.62936197916662
 21
39.8125
 31
0.0
 73
     3
  0
TEXT
  5
B1
  8
DATA
 62
     7
 10
750.04954889756971
 20
-467.64021809895809
 30
0.0
 40
4.072102864583333
  1
POLARITY
 41
0.7
 72
     1
 11
760.5012795833336
 21
-465.6041666666664
 31
0.0
 73
     2
  0
TEXT
  5
B2
  8
DATA
 62
     7
 10
780.04594726562505
 20
-486.52936197916648
 30
0.0
 40
3.462890625
  1
Signal
 41
0.7
 72
     1
 11
785.5
 21
-484.79791666666648
 31
0.0
 73
     2
  0
TEXT
  5
B3
  8
DATA
 62
     7
 10
801.4599609375
 20
-486.52936197916648
 30
0.0
 40
3.462890625
  1
Limit
 41
0.7
 72
     1
 11
805.49999999999989
 21
-484.79791666666648
 31
0.0
 73
     2
  0
TEXT
  5
B4
  8
DATA
 62
     7
 10
749.36792756192358
 20
-479.6476703047723
 30
0.0
 40
3.462890625
  1
0\U+00B0
 41
0.7
 72
     1
 11
750.78194123379865
 21
-477.9162249922723
 31
0.0
 73
     2
  0
TEXT
  5
B5
  8
DATA
 62
     7
 10
769.95046719734125
 20
-479.6476703047723
 30
0.0
 40
3.462890625
  1
180\U+00B0
 41
0.7
 72
     1
 11
773.38450040046632
 21
-477.9162249922723
 31
0.0
 73
     2
  0
TEXT
  5
B6
  8
DATA
 62
     7
 10
826.67870088541622
 20
-479.6476703047723
 30
0.0
 40
3.462890625
  1
ON
 41
0.7
 72
     1
 11
828.69872041666622
 21
-477.9162249922723
 31
0.0
 73
     2
  0
TEXT
  5
B7
  8
DATA
 62
     7
 10
848.06924833333392
 20
-479.6476703047723
 30
0.0
 40
3.462890625
  1
OFF
 41
0.7
 72
     1
 11
851.30127958333378
 21
-477.9162249922723
 31
0.0
 73
     2
  0
TEXT
  5
B8
  8
DATA
 62
     7
 10
765.66979724232431
 20
-518.25107697616318
 30
0.0
 40
3.462890625
  1
CH1
 41
0.7
 72
     1
 11
768.49782458607433
 21
-516.51963166366329
 31
0.0
 73
     2
  0
LINE
  5
B9
  8
DATA
  6
CONTINUOUS
 62
     7
 10
774.02829682508764
 20
-518.74999999999977
 30
0.0
 11
772.62334039274992
 21
-514.28926332732681
 31
0.0
  0
LINE
  5
BA
  8
DATA
  6
CONTINUOUS
 62
     7
 10
762.96735234706114
 20
-518.74999999999977
 30
0.0
 11
764.37230877939885
 21
-514.28926332732681
 31
0.0
  0
LINE
  5
BB
  8
DATA
  6
CONTINUOUS
 62
     7
 10
764.37230877939885
 20
-514.28926332732681
 30
0.0
 11
772.62334039274992
 21
-514.28926332732681
 31
0.0
  0
TEXT
  5
BC
  8
DATA
 62
     7
 10
767.35851619791754
 20
-504.24975363810557
 30
0.0
 40
3.462890625
  1
FULL
 41
0.7
 72
     1
 11
771.80255916666738
 21
-502.51830832560557
 31
0.0
 73
     2
  0
TEXT
  5
BD
  8
DATA
 62
     7
 10
766.14650447916745
 20
-508.74975363810557
 30
0.0
 40
3.462890625
  1
RANGE
 41
0.7
 72
     1
 11
771.80255916666738
 21
-507.01830832560557
 31
0.0
 73
     2
  0
TEXT
  5
BE
  8
DATA
 62
     7
 10
819.29447278419332
 20
-518.25107697616318
 30
0.0
 40
3.462890625
  1
CH2
 41
0.7
 72
     1
 11
822.52650403419318
 21
-516.51963166366329
 31
0.0
 73
     2
  0
LINE
  5
BF
  8
DATA
  6
CONTINUOUS
 62
     7
 10
828.05697627320615
 20
-518.74999999999977
 30
0.0
 11
826.65201984086855
 21
-514.28926332732681
 31
0.0
  0
LINE
  5
C0
  8
DATA
  6
CONTINUOUS
 62
     7
 10
816.9960317951801
 20
-518.74999999999977
 30
0.0
 11
818.4009882275177
 21
-514.28926332732681
 31
0.0
  0
LINE
  5
C1
  8
DATA
  6
CONTINUOUS
 62
     7
 10
818.4009882275177
 20
-514.28926332732681
 30
0.0
 11
826.65201984086855
 21
-514.28926332732681
 31
0.0
  0
TEXT
  5
C2
  8
DATA
 62
     7
 10
-1312.5
 20
-1782.4104233333339
 30
0.0
 40
28.504720052083339
  1
※仕様及び外観は予告なく変更されることがあります。
 41
0.7
 11
-1312.5
 21
-1753.9057032812509
 31
0.0
 73
     3
  0
TEXT
  5
C3
  8
DATA
 62
     7
 10
-1312.5
 20
-1819.45209
 30
0.0
 40
28.504720052083339
  1
　また、同一商品でも若干の個体差があることがあります。ご了承ください。
 41
0.7
 11
-1312.5
 21
-1790.947369947917
 31
0.0
 73
     3
  0
TEXT
  5
C4
  8
DATA
 62
     7
 10
749.99999999999955
 20
-1733.59124
 30
0.0
 40
36.64892578125
  1
PRX718XLF
 41
0.7
 11
749.99999999999955
 21
-1696.94231421875
 31
0.0
 73
     3
  0
TEXT
  5
C5
  8
DATA
 62
     7
 10
749.99999999999955
 20
-1624.84124
 30
0.0
 40
36.64892578125
  1
JBL PROFESSIONAL
 41
0.7
 11
749.99999999999955
 21
-1588.19231421875
 31
0.0
 73
     3
  0
TEXT
  5
C6
  8
DATA
 62
     7
 10
510.75321220423291
 20
830.94999999999993
 30
0.0
 40
40.721028645833343
  1
コネクターパネル拡大図
 41
0.7
 11
510.75321220423291
 21
871.6710286458333
 31
0.0
 73
     3
  0
LINE
  5
C7
  8
DATA
  6
CONTINUOUS
 62
     7
 10
501.79487887089971
 20
811.77083333333314
 30
0.0
 11
1101.7948788708991
 21
811.77083333333314
 31
0.0
  0
LINE
  5
C8
  8
DATA
  6
CONTINUOUS
 62
     7
 10
1061.0
 20
-840.0
 30
0.0
 11
1061.0
 21
-172.0
 31
0.0
  0
LINE
  5
C9
  8
DATA
  6
CONTINUOUS
 62
     7
 10
1041.0
 20
-850.0
 30
0.0
 11
1061.0
 21
-840.0
 31
0.0
  0
LINE
  5
CA
  8
DATA
  6
CONTINUOUS
 62
     7
 10
559.0
 20
-850.0
 30
0.0
 11
539.0
 21
-840.0
 31
0.0
  0
LINE
  5
CB
  8
DATA
  6
CONTINUOUS
 62
     7
 10
539.0
 20
-840.0
 30
0.0
 11
1061.0
 21
-840.0
 31
0.0
  0
LINE
  5
CC
  8
DATA
  6
CONTINUOUS
 62
     7
 10
539.0
 20
-172.0
 30
0.0
 11
539.0
 21
-840.0
 31
0.0
  0
LINE
  5
CD
  8
DATA
  6
CONTINUOUS
 62
     7
 10
1041.0
 20
-162.0
 30
0.0
 11
559.0
 21
-162.0
 31
0.0
  0
LINE
  5
CE
  8
DATA
  6
CONTINUOUS
 62
     7
 10
559.0
 20
-162.0
 30
0.0
 11
539.0
 21
-172.0
 31
0.0
  0
LINE
  5
CF
  8
DATA
  6
CONTINUOUS
 62
     7
 10
1041.0
 20
-162.0
 30
0.0
 11
1061.0
 21
-172.0
 31
0.0
  0
LINE
  5
D0
  8
DATA
  6
CONTINUOUS
 62
     7
 10
1061.0
 20
-172.0
 30
0.0
 11
539.0
 21
-172.0
 31
0.0
  0
CIRCLE
  5
D1
  8
DATA
  6
CONTINUOUS
 62
     7
 10
760.5012795833336
 20
-497.24999999999972
 30
0.0
 40
3.9999999999999978
  0
CIRCLE
  5
D2
  8
DATA
  6
CONTINUOUS
 62
     7
 10
760.5012795833336
 20
-484.24999999999972
 30
0.0
 40
2.0005858333332398
  0
LINE
  5
D3
  8
DATA
  6
CONTINUOUS
 62
     7
 10
751.10396821971972
 20
-576.74999999999966
 30
0.0
 11
751.10396821972017
 21
-571.24999999999966
 31
0.0
  0
LINE
  5
D4
  8
DATA
  6
CONTINUOUS
 62
     7
 10
834.89603178028017
 20
-518.74999999999977
 30
0.0
 11
816.9960317951801
 21
-518.74999999999977
 31
0.0
  0
ARC
  5
D5
  8
DATA
  6
CONTINUOUS
 62
     7
 10
834.89603178028017
 20
-523.74999999999977
 30
0.0
 40
5.0
 50
0.0
 51
90.0
  0
LINE
  5
D6
  8
DATA
  6
CONTINUOUS
 62
     7
 10
708.0
 20
-748.24999999999955
 30
0.0
 11
708.0
 21
-384.24999999999977
 31
0.0
  0
LINE
  5
D7
  8
DATA
  6
CONTINUOUS
 62
     7
 10
728.0
 20
-738.24999999999955
 30
0.0
 11
728.0
 21
-394.24999999999977
 31
0.0
  0
LINE
  5
D8
  8
DATA
  6
CONTINUOUS
 62
     7
 10
873.0
 20
-758.24999999999955
 30
0.0
 11
718.0
 21
-758.24999999999955
 31
0.0
  0
LINE
  5
D9
  8
DATA
  6
CONTINUOUS
 62
     7
 10
728.0
 20
-738.24999999999955
 30
0.0
 11
863.0
 21
-738.24999999999955
 31
0.0
  0
LINE
  5
DA
  8
DATA
  6
CONTINUOUS
 62
     7
 10
863.0
 20
-688.24999999999955
 30
0.0
 11
728.0
 21
-688.24999999999955
 31
0.0
  0
LINE
  5
DB
  8
DATA
  6
CONTINUOUS
 62
     7
 10
863.0
 20
-683.24999999999966
 30
0.0
 11
728.0
 21
-683.24999999999966
 31
0.0
  0
LINE
  5
DC
  8
DATA
  6
CONTINUOUS
 62
     7
 10
883.0
 20
-384.24999999999977
 30
0.0
 11
883.0
 21
-748.24999999999955
 31
0.0
  0
LINE
  5
DD
  8
DATA
  6
CONTINUOUS
 62
     7
 10
863.0
 20
-394.24999999999977
 30
0.0
 11
863.0
 21
-738.24999999999955
 31
0.0
  0
LINE
  5
DE
  8
DATA
  6
CONTINUOUS
 62
     7
 10
718.0
 20
-374.24999999999977
 30
0.0
 11
873.0
 21
-374.24999999999977
 31
0.0
  0
LINE
  5
DF
  8
DATA
  6
CONTINUOUS
 62
     7
 10
728.0
 20
-394.24999999999977
 30
0.0
 11
863.0
 21
-394.24999999999977
 31
0.0
  0
ARC
  5
E0
  8
DATA
  6
CONTINUOUS
 62
     7
 10
718.0
 20
-748.24999999999955
 30
0.0
 40
10.0
 50
180.0
 51
270.0
  0
ARC
  5
E1
  8
DATA
  6
CONTINUOUS
 62
     7
 10
873.0
 20
-748.24999999999955
 30
0.0
 40
10.0
 50
270.0
 51
0.0
  0
ARC
  5
E2
  8
DATA
  6
CONTINUOUS
 62
     7
 10
718.0
 20
-384.24999999999977
 30
0.0
 40
10.0
 50
90.0
 51
180.0
  0
ARC
  5
E3
  8
DATA
  6
CONTINUOUS
 62
     7
 10
873.0
 20
-384.24999999999977
 30
0.0
 40
10.0
 50
0.0
 51
90.0
  0
CIRCLE
  5
E4
  8
DATA
  6
CONTINUOUS
 62
     7
 10
829.0
 20
-733.24999999999955
 30
0.0
 40
2.5000000000004241
  0
CIRCLE
  5
E5
  8
DATA
  6
CONTINUOUS
 62
     7
 10
762.0
 20
-733.24999999999955
 30
0.0
 40
2.5000000000004241
  0
LINE
  5
E6
  8
DATA
  6
CONTINUOUS
 62
     7
 10
760.5
 20
-733.24999999999955
 30
0.0
 11
763.49999999999989
 21
-733.24999999999955
 31
0.0
  0
LINE
  5
E7
  8
DATA
  6
CONTINUOUS
 62
     7
 10
761.91999999999985
 20
-734.74999999999955
 30
0.0
 11
761.91999999999985
 21
-731.74999999999955
 31
0.0
  0
LINE
  5
E8
  8
DATA
  6
CONTINUOUS
 62
     7
 10
830.49999999999989
 20
-733.24999999999955
 30
0.0
 11
827.5
 21
-733.24999999999955
 31
0.0
  0
LINE
  5
E9
  8
DATA
  6
CONTINUOUS
 62
     7
 10
829.07999999999993
 20
-734.74999999999955
 30
0.0
 11
829.07999999999993
 21
-731.74999999999955
 31
0.0
  0
ARC
  5
EA
  8
DATA
  6
CONTINUOUS
 62
     7
 10
770.00000000003649
 20
-654.24999999994861
 30
0.0
 40
23.249999999937408
 50
60.356338108124589
 51
143.44380664840369
  0
ARC
  5
EB
  8
DATA
  6
CONTINUOUS
 62
     7
 10
770.00000000003649
 20
-654.24999999994861
 30
0.0
 40
23.249999999938169
 50
150.35633810836481
 51
233.44380664831979
  0
ARC
  5
EC
  8
DATA
  6
CONTINUOUS
 62
     7
 10
770.00000000003649
 20
-654.24999999994861
 30
0.0
 40
23.249999999937589
 50
240.35633810827451
 51
323.44380664809802
  0
ARC
  5
ED
  8
DATA
  6
CONTINUOUS
 62
     7
 10
770.00000000003649
 20
-654.24999999994861
 30
0.0
 40
23.249999999937032
 50
330.35633810803893
 51
53.443806648181237
  0
ARC
  5
EE
  8
DATA
  6
CONTINUOUS
 62
     7
 10
769.99999999997078
 20
-654.25000000006128
 30
0.0
 40
19.000000000067772
 50
68.200922830828603
 51
149.13323278369131
  0
ARC
  5
EF
  8
DATA
  6
CONTINUOUS
 62
     7
 10
769.99999999997078
 20
-654.25000000006128
 30
0.0
 40
19.000000000066802
 50
158.2009228304685
 51
239.13323278374969
  0
ARC
  5
F0
  8
DATA
  6
CONTINUOUS
 62
     7
 10
769.99999999997078
 20
-654.25000000006128
 30
0.0
 40
19.000000000067349
 50
248.20092283053259
 51
329.13323278407648
  0
ARC
  5
F1
  8
DATA
  6
CONTINUOUS
 62
     7
 10
769.99999999997078
 20
-654.25000000006128
 30
0.0
 40
19.000000000067988
 50
338.20092283089531
 51
59.133232784015888
  0
ARC
  5
F2
  8
DATA
  6
CONTINUOUS
 62
     7
 10
770.00000000000171
 20
-654.24999999998863
 30
0.0
 40
16.499999999988589
 50
75.407766102218673
 51
154.09772123936361
  0
ARC
  5
F3
  8
DATA
  6
CONTINUOUS
 62
     7
 10
770.00000000000171
 20
-654.24999999998863
 30
0.0
 40
16.499999999988251
 50
165.40776610230151
 51
244.097721239371
  0
ARC
  5
F4
  8
DATA
  6
CONTINUOUS
 62
     7
 10
770.00000000000171
 20
-654.24999999998863
 30
0.0
 40
16.499999999988329
 50
255.40776610230969
 51
334.0977212393035
  0
ARC
  5
F5
  8
DATA
  6
CONTINUOUS
 62
     7
 10
770.00000000000171
 20
-654.24999999998863
 30
0.0
 40
16.49999999998883
 50
345.40776610223122
 51
64.097721239291559
  0
ARC
  5
F6
  8
DATA
  6
CONTINUOUS
 62
     7
 10
770.0
 20
-654.2500000000008
 30
0.0
 40
11.75000000000086
 50
119.9999999999975
 51
171.92777458635189
  0
ARC
  5
F7
  8
DATA
  6
CONTINUOUS
 62
     7
 10
770.0
 20
-654.2500000000008
 30
0.0
 40
11.750000000000099
 50
210.00000000000219
 51
261.9277745863443
  0
ARC
  5
F8
  8
DATA
  6
CONTINUOUS
 62
     7
 10
770.0
 20
-654.2500000000008
 30
0.0
 40
11.75000000000132
 50
300.00000000000148
 51
351.92777458635459
  0
ARC
  5
F9
  8
DATA
  6
CONTINUOUS
 62
     7
 10
770.0
 20
-654.2500000000008
 30
0.0
 40
11.75000000000168
 50
29.999999999997829
 51
81.927774586357813
  0
LINE
  5
FA
  8
DATA
  6
CONTINUOUS
 62
     7
 10
759.8242015055331
 20
-660.12499999999966
 30
0.0
 11
754.03223508643885
 21
-650.09301988639686
 31
0.0
  0
LINE
  5
FB
  8
DATA
  6
CONTINUOUS
 62
     7
 10
752.35865564466792
 20
-647.19429526274655
 30
0.0
 11
749.79300018166305
 21
-642.75044964610572
 31
0.0
  0
LINE
  5
FC
  8
DATA
  6
CONTINUOUS
 62
     7
 10
758.36642082844639
 20
-652.60004980099529
 30
0.0
 11
755.15758330402957
 21
-647.04218017546998
 31
0.0
  0
LINE
  5
FD
  8
DATA
  6
CONTINUOUS
 62
     7
 10
753.6911100995577
 20
-644.50217407738717
 30
0.0
 11
751.32390051114362
 21
-640.40204679808949
 31
0.0
  0
LINE
  5
FE
  8
DATA
  6
CONTINUOUS
 62
     7
 10
764.125
 20
-644.07420150553276
 30
0.0
 11
774.15698011361644
 21
-638.28223508643123
 31
0.0
  0
LINE
  5
FF
  8
DATA
  6
CONTINUOUS
 62
     7
 10
777.05570473717466
 20
-636.60865564471271
 30
0.0
 11
781.49955035389394
 21
-634.04300018166316
 31
0.0
  0
LINE
  5
100
  8
DATA
  6
CONTINUOUS
 62
     7
 10
771.64995019900653
 20
-642.61642082844605
 30
0.0
 11
777.207819824539
 21
-639.407583304024
 31
0.0
  0
LINE
  5
101
  8
DATA
  6
CONTINUOUS
 62
     7
 10
779.7478259225536
 20
-637.94111009959227
 30
0.0
 11
783.84795320191176
 21
-635.57390051114317
 31
0.0
  0
LINE
  5
102
  8
DATA
  6
CONTINUOUS
 62
     7
 10
780.17579849446702
 20
-648.37499999999966
 30
0.0
 11
785.96776491355911
 21
-658.40698011360075
 31
0.0
  0
LINE
  5
103
  8
DATA
  6
CONTINUOUS
 62
     7
 10
787.64134435532651
 20
-661.30570473724458
 30
0.0
 11
790.20699981833604
 21
-665.74955035389371
 31
0.0
  0
LINE
  5
104
  8
DATA
  6
CONTINUOUS
 62
     7
 10
781.63357917155543
 20
-655.89995019900846
 30
0.0
 11
784.84241669596668
 21
-661.45781982452252
 31
0.0
  0
LINE
  5
105
  8
DATA
  6
CONTINUOUS
 62
     7
 10
786.30888990044866
 20
-663.99782592262545
 30
0.0
 11
788.67609948885638
 21
-668.09795320191074
 31
0.0
  0
LINE
  5
106
  8
DATA
  6
CONTINUOUS
 62
     7
 10
775.875
 20
-664.42579849446668
 30
0.0
 11
765.84301988641141
 21
-670.21776491355149
 31
0.0
  0
LINE
  5
107
  8
DATA
  6
CONTINUOUS
 62
     7
 10
762.94429526267595
 20
-671.89134435537267
 30
0.0
 11
758.50044964610584
 21
-674.45699981833616
 31
0.0
  0
LINE
  5
108
  8
DATA
  6
CONTINUOUS
 62
     7
 10
768.35004980099166
 20
-665.88357917155452
 30
0.0
 11
762.79218017548556
 21
-669.09241669596145
 31
0.0
  0
LINE
  5
109
  8
DATA
  6
CONTINUOUS
 62
     7
 10
760.25217407731373
 20
-670.55888990048425
 30
0.0
 11
756.15204679808903
 21
-672.92609948885627
 31
0.0
  0
LINE
  5
10A
  8
DATA
  6
CONTINUOUS
 62
     7
 10
823.49999999999989
 20
-671.24999999999966
 30
0.0
 11
823.49999999999989
 21
-628.24999999999966
 31
0.0
  0
LINE
  5
10B
  8
DATA
  6
CONTINUOUS
 62
     7
 10
825.5
 20
-648.24999999999977
 30
0.0
 11
825.5
 21
-630.24999999999966
 31
0.0
  0
LINE
  5
10C
  8
DATA
  6
CONTINUOUS
 62
     7
 10
827.5
 20
-646.24999999999966
 30
0.0
 11
827.5
 21
-632.24999999999977
 31
0.0
  0
LINE
  5
10D
  8
DATA
  6
CONTINUOUS
 62
     7
 10
851.5
 20
-671.24999999999966
 30
0.0
 11
823.49999999999989
 21
-671.24999999999966
 31
0.0
  0
LINE
  5
10E
  8
DATA
  6
CONTINUOUS
 62
     7
 10
851.5
 20
-628.24999999999966
 30
0.0
 11
851.5
 21
-671.24999999999966
 31
0.0
  0
LINE
  5
10F
  8
DATA
  6
CONTINUOUS
 62
     7
 10
849.5
 20
-630.24999999999966
 30
0.0
 11
849.5
 21
-648.24999999999977
 31
0.0
  0
LINE
  5
110
  8
DATA
  6
CONTINUOUS
 62
     7
 10
847.49999999999989
 20
-632.24999999999977
 30
0.0
 11
847.49999999999989
 21
-646.24999999999966
 31
0.0
  0
LINE
  5
111
  8
DATA
  6
CONTINUOUS
 62
     7
 10
823.49999999999989
 20
-628.24999999999966
 30
0.0
 11
851.5
 21
-628.24999999999966
 31
0.0
  0
LINE
  5
112
  8
DATA
  6
CONTINUOUS
 62
     7
 10
825.5
 20
-630.24999999999966
 30
0.0
 11
849.5
 21
-630.24999999999966
 31
0.0
  0
LINE
  5
113
  8
DATA
  6
CONTINUOUS
 62
     7
 10
825.5
 20
-661.24999999999977
 30
0.0
 11
825.5
 21
-650.24999999999966
 31
0.0
  0
LINE
  5
114
  8
DATA
  6
CONTINUOUS
 62
     7
 10
830.49999999999989
 20
-666.24999999999966
 30
0.0
 11
825.5
 21
-661.24999999999977
 31
0.0
  0
LINE
  5
115
  8
DATA
  6
CONTINUOUS
 62
     7
 10
844.5
 20
-666.24999999999966
 30
0.0
 11
830.49999999999989
 21
-666.24999999999966
 31
0.0
  0
LINE
  5
116
  8
DATA
  6
CONTINUOUS
 62
     7
 10
849.5
 20
-661.24999999999977
 30
0.0
 11
844.5
 21
-666.24999999999966
 31
0.0
  0
LINE
  5
117
  8
DATA
  6
CONTINUOUS
 62
     7
 10
849.5
 20
-650.24999999999966
 30
0.0
 11
849.5
 21
-661.24999999999977
 31
0.0
  0
LINE
  5
118
  8
DATA
  6
CONTINUOUS
 62
     7
 10
825.5
 20
-650.24999999999966
 30
0.0
 11
849.5
 21
-650.24999999999966
 31
0.0
  0
LINE
  5
119
  8
DATA
  6
CONTINUOUS
 62
     7
 10
825.5
 20
-648.24999999999977
 30
0.0
 11
849.5
 21
-648.24999999999977
 31
0.0
  0
ARC
  5
11A
  8
DATA
  6
CONTINUOUS
 62
     7
 10
748.77505366881803
 20
-701.90294519633335
 30
0.0
 40
0.2869048033359047
 50
307.64190249759048
 51
354.2670192896154
  0
LINE
  5
11B
  8
DATA
  6
CONTINUOUS
 62
     7
 10
741.40555544160281
 20
-697.381789837018
 30
0.0
 11
742.75056944160121
 21
-694.17699783701835
 31
0.0
  0
LINE
  5
11C
  8
DATA
  6
CONTINUOUS
 62
     7
 10
741.40555544160281
 20
-697.381789837018
 30
0.0
 11
740.07713744160174
 21
-694.17699783701835
 31
0.0
  0
LINE
  5
11D
  8
DATA
  6
CONTINUOUS
 62
     7
 10
751.60111544160293
 20
-703.17699783701835
 30
0.0
 11
751.60111544160293
 21
-694.17699783701835
 31
0.0
  0
LINE
  5
11E
  8
DATA
  6
CONTINUOUS
 62
     7
 10
753.32805344160238
 20
-694.17699783701835
 30
0.0
 11
753.32805344160238
 21
-701.79877383701751
 31
0.0
  0
LINE
  5
11F
  8
DATA
  6
CONTINUOUS
 62
     7
 10
743.38156844160233
 20
-694.17699783701835
 30
0.0
 11
743.38156844160233
 21
-701.79877383701751
 31
0.0
  0
LINE
  5
120
  8
DATA
  6
CONTINUOUS
 62
     7
 10
745.04208644160292
 20
-694.17699783701835
 30
0.0
 11
745.04208644160292
 21
-701.79877383701751
 31
0.0
  0
LINE
  5
121
  8
DATA
  6
CONTINUOUS
 62
     7
 10
745.9055554416027
 20
-694.17699783701835
 30
0.0
 11
745.9055554416027
 21
-703.17699783701835
 31
0.0
  0
LINE
  5
122
  8
DATA
  6
CONTINUOUS
 62
     7
 10
747.41662844160226
 20
-695.02385283701722
 30
0.0
 11
747.41662844160226
 21
-697.91315883701725
 31
0.0
  0
LINE
  5
123
  8
DATA
  6
CONTINUOUS
 62
     7
 10
750.6553504416022
 20
-697.74597483701848
 30
0.0
 11
750.6553504416022
 21
-695.63825583701782
 31
0.0
  0
LINE
  5
124
  8
DATA
  6
CONTINUOUS
 62
     7
 10
749.0605234416015
 20
-695.42238183701829
 30
0.0
 11
749.0605234416015
 21
-697.51463883701842
 31
0.0
  0
ARC
  5
125
  8
DATA
  6
CONTINUOUS
 62
     7
 10
743.0483524416029
 20
-700.86597783701757
 30
0.0
 40
2.3209680826510288
 50
264.69085622148839
 51
323.9911991542312
  0
LINE
  5
126
  8
DATA
  6
CONTINUOUS
 62
     7
 10
742.11957944160349
 20
-700.35411183701763
 30
0.0
 11
742.11957944160349
 21
-701.79875583701778
 31
0.0
  0
LINE
  5
127
  8
DATA
  6
CONTINUOUS
 62
     7
 10
742.11957944160349
 20
-700.35411183701763
 30
0.0
 11
740.62511144160283
 21
-700.35411183701763
 31
0.0
  0
LINE
  5
128
  8
DATA
  6
CONTINUOUS
 62
     7
 10
740.62511144160283
 20
-700.35411183701763
 30
0.0
 11
740.62511144160283
 21
-701.79875583701778
 31
0.0
  0
ARC
  5
129
  8
DATA
  6
CONTINUOUS
 62
     7
 10
742.75373744160231
 20
-701.81823183701817
 30
0.0
 40
0.6281359436174772
 50
269.71184879276251
 51
1.775987005712067
  0
ARC
  5
12A
  8
DATA
  6
CONTINUOUS
 62
     7
 10
742.74741044160146
 20
-701.81823183701817
 30
0.0
 40
0.6281327317115519
 50
178.22401299438391
 51
270.28815120729058
  0
ARC
  5
12B
  8
DATA
  6
CONTINUOUS
 62
     7
 10
742.61884544160216
 20
-700.86597783701757
 30
0.0
 40
2.3209643132525319
 50
216.00880084574641
 51
275.30914377847182
  0
ARC
  5
12C
  8
DATA
  6
CONTINUOUS
 62
     7
 10
741.67400744160295
 20
-701.74787883701811
 30
0.0
 40
1.0501201873593851
 50
182.7769954499737
 51
207.35960666708209
  0
CIRCLE
  5
12D
  8
DATA
  6
CONTINUOUS
 62
     7
 10
741.49688744160244
 20
-698.62718283701815
 30
0.0
 40
0.8551619999998366
  0
LINE
  5
12E
  8
DATA
  6
CONTINUOUS
 62
     7
 10
756.10111544160293
 20
-703.17698883701723
 30
0.0
 11
751.60111544160293
 21
-703.17698883701723
 31
0.0
  0
LINE
  5
12F
  8
DATA
  6
CONTINUOUS
 62
     7
 10
756.10111544160293
 20
-703.17698883701723
 30
0.0
 11
756.10111544160293
 21
-700.35410283701924
 31
0.0
  0
LINE
  5
130
  8
DATA
  6
CONTINUOUS
 62
     7
 10
756.10111544160293
 20
-700.35411183701763
 30
0.0
 11
754.59005144160244
 21
-700.35411183701763
 31
0.0
  0
LINE
  5
131
  8
DATA
  6
CONTINUOUS
 62
     7
 10
754.59005144160244
 20
-700.35411183701763
 30
0.0
 11
754.59005144160244
 21
-701.79875583701778
 31
0.0
  0
LINE
  5
132
  8
DATA
  6
CONTINUOUS
 62
     7
 10
745.9055554416027
 20
-703.17698883701723
 30
0.0
 11
749.0605234416015
 21
-703.17697983701783
 31
0.0
  0
LINE
  5
133
  8
DATA
  6
CONTINUOUS
 62
     7
 10
747.41661944160285
 20
-702.33012483701805
 30
0.0
 11
748.23027344160244
 21
-702.33012483701805
 31
0.0
  0
LINE
  5
134
  8
DATA
  6
CONTINUOUS
 62
     7
 10
747.41662844160226
 20
-702.33012483701805
 30
0.0
 11
747.41662844160226
 21
-698.77661883701785
 31
0.0
  0
LINE
  5
135
  8
DATA
  6
CONTINUOUS
 62
     7
 10
747.41661944160285
 20
-698.77661883701785
 30
0.0
 11
748.23027344160244
 21
-698.77661883701785
 31
0.0
  0
LINE
  5
136
  8
DATA
  6
CONTINUOUS
 62
     7
 10
749.0605234416015
 20
-701.9316048370174
 30
0.0
 11
749.0605234416015
 21
-699.17513883701827
 31
0.0
  0
ARC
  5
137
  8
DATA
  6
CONTINUOUS
 62
     7
 10
743.99319044160245
 20
-701.74787883701811
 30
0.0
 40
1.0501186930780719
 50
332.64039333284268
 51
357.22300455000988
  0
ARC
  5
138
  8
DATA
  6
CONTINUOUS
 62
     7
 10
753.96221144160324
 20
-701.81823183701817
 30
0.0
 40
0.6281359436174772
 50
269.71184879276251
 51
1.775987005712067
  0
ARC
  5
139
  8
DATA
  6
CONTINUOUS
 62
     7
 10
753.95589344160157
 20
-701.81823183701817
 30
0.0
 40
0.62813273171337
 50
178.22401299438889
 51
270.28815120728967
  0
LINE
  5
13A
  8
DATA
  6
CONTINUOUS
 62
     7
 10
750.6546214416029
 20
-701.73233583701835
 30
0.0
 11
750.6546214416029
 21
-699.3411978370176
 31
0.0
  0
LINE
  5
13B
  8
DATA
  6
CONTINUOUS
 62
     7
 10
747.41661944160285
 20
-697.91315883701725
 30
0.0
 11
748.23027344160244
 21
-697.91315883701725
 31
0.0
  0
ARC
  5
13C
  8
DATA
  6
CONTINUOUS
 62
     7
 10
748.94611544160205
 20
-701.46845583701815
 30
0.0
 40
1.7123502705459379
 50
273.83098160909748
 51
351.1351473098112
  0
LINE
  5
13D
  8
DATA
  6
CONTINUOUS
 62
     7
 10
743.38156844160233
 20
-694.17699783701835
 30
0.0
 11
745.04208644160292
 21
-694.17699783701835
 31
0.0
  0
LINE
  5
13E
  8
DATA
  6
CONTINUOUS
 62
     7
 10
740.07713744160174
 20
-694.17699783701835
 30
0.0
 11
742.75056944160121
 21
-694.17699783701835
 31
0.0
  0
LINE
  5
13F
  8
DATA
  6
CONTINUOUS
 62
     7
 10
751.60111544160293
 20
-694.17699783701835
 30
0.0
 11
753.32805344160238
 21
-694.17699783701835
 31
0.0
  0
LINE
  5
140
  8
DATA
  6
CONTINUOUS
 62
     7
 10
745.9055554416027
 20
-694.17699783701835
 30
0.0
 11
749.07786655693405
 21
-694.17700512138435
 31
0.0
  0
LINE
  5
141
  8
DATA
  6
CONTINUOUS
 62
     7
 10
747.41661944160285
 20
-695.02386183701765
 30
0.0
 11
748.23027344160244
 21
-695.02386183701765
 31
0.0
  0
ARC
  5
142
  8
DATA
  6
CONTINUOUS
 62
     7
 10
748.96318844160294
 20
-695.88291183701836
 30
0.0
 40
1.709756939619852
 50
8.2269238590440068
 51
86.154126692181322
  0
ARC
  5
143
  8
DATA
  6
CONTINUOUS
 62
     7
 10
748.23988135794571
 20
-700.75180567248935
 30
0.0
 40
1.5783484080439929
 50
269.65121993760812
 51
282.82648280688181
  0
ARC
  5
144
  8
DATA
  6
CONTINUOUS
 62
     7
 10
748.41715486632154
 20
-701.41910011712287
 30
0.0
 40
0.8886941133236042
 50
281.23310362276038
 51
306.8620088940894
  0
ARC
  5
145
  8
DATA
  6
CONTINUOUS
 62
     7
 10
748.77505366881803
 20
-699.20379847770243
 30
0.0
 40
0.2869048033358559
 50
5.7329807103845116
 51
52.358097502381838
  0
ARC
  5
146
  8
DATA
  6
CONTINUOUS
 62
     7
 10
748.23988135794571
 20
-700.35493800154643
 30
0.0
 40
1.578348408043986
 50
77.173517193118244
 51
90.348780062391782
  0
ARC
  5
147
  8
DATA
  6
CONTINUOUS
 62
     7
 10
748.41715486632154
 20
-699.68764355691269
 30
0.0
 40
0.8886941133235801
 50
53.137991105901783
 51
78.766896377236819
  0
ARC
  5
148
  8
DATA
  6
CONTINUOUS
 62
     7
 10
749.78370944160281
 20
-699.40006683701813
 30
0.0
 40
0.8728993475227257
 50
3.867006359847649
 51
88.361634567947604
  0
ARC
  5
149
  8
DATA
  6
CONTINUOUS
 62
     7
 10
749.78290844160244
 20
-697.65413883701785
 30
0.0
 40
0.8737667459524635
 50
271.689282104634
 51
356.07828298258949
  0
ARC
  5
14A
  8
DATA
  6
CONTINUOUS
 62
     7
 10
748.77505366881803
 20
-697.48597919633255
 30
0.0
 40
0.2869048033359047
 50
307.64190249759048
 51
354.26701928925399
  0
ARC
  5
14B
  8
DATA
  6
CONTINUOUS
 62
     7
 10
748.23988135794571
 20
-696.33483967248958
 30
0.0
 40
1.5783484080430841
 50
269.651219937608
 51
282.82648280688909
  0
ARC
  5
14C
  8
DATA
  6
CONTINUOUS
 62
     7
 10
748.41715486632154
 20
-697.00213411712207
 30
0.0
 40
0.8886941133253882
 50
281.23310362273747
 51
306.86200889415687
  0
ARC
  5
14D
  8
DATA
  6
CONTINUOUS
 62
     7
 10
748.77505366881803
 20
-695.45104147770235
 30
0.0
 40
0.2869048033358559
 50
5.7329807103845116
 51
52.358097502381838
  0
ARC
  5
14E
  8
DATA
  6
CONTINUOUS
 62
     7
 10
748.23988135794571
 20
-696.60218100154634
 30
0.0
 40
1.578348408043986
 50
77.173517193118244
 51
90.348780062391782
  0
ARC
  5
14F
  8
DATA
  6
CONTINUOUS
 62
     7
 10
748.41715486632154
 20
-695.9348865569126
 30
0.0
 40
0.8886941133235801
 50
53.137991105901783
 51
78.766896377236819
  0
POLYLINE
  5
150
  8
DATA
  6
CONTINUOUS
 62
     7
 66
     1
 10
0.0
 20
0.0
 30
0.0
 70
     1
  0
VERTEX
  5
497
  8
DATA
  6
CONTINUOUS
 62
     7
 10
736.29999999999916
 20
-692.24999999999955
 30
0.0
  0
VERTEX
  5
498
  8
DATA
  6
CONTINUOUS
 62
     7
 10
761.29999999999916
 20
-692.24999999999955
 30
0.0
  0
VERTEX
  5
499
  8
DATA
  6
CONTINUOUS
 62
     7
 10
761.29999999999916
 20
-717.24999999999955
 30
0.0
  0
VERTEX
  5
49A
  8
DATA
  6
CONTINUOUS
 62
     7
 10
736.29999999999916
 20
-717.24999999999955
 30
0.0
  0
SEQEND
  5
49B
  8
DATA
  6
CONTINUOUS
 62
     7
  0
LINE
  5
157
  8
DATA
  6
CONTINUOUS
 62
     7
 10
847.49999999999989
 20
-646.24999999999966
 30
0.0
 11
827.5
 21
-646.24999999999966
 31
0.0
  0
LINE
  5
158
  8
DATA
  6
CONTINUOUS
 62
     7
 10
827.5
 20
-632.24999999999977
 30
0.0
 11
847.49999999999989
 21
-632.24999999999977
 31
0.0
  0
LINE
  5
159
  8
DATA
  6
CONTINUOUS
 62
     7
 10
827.5
 20
-634.24999999999966
 30
0.0
 11
847.49999999999989
 21
-634.24999999999966
 31
0.0
  0
CIRCLE
  5
15A
  8
DATA
  6
CONTINUOUS
 62
     7
 10
837.5
 20
-644.24999999999977
 30
0.0
 40
1.2499999999999081
  0
LINE
  5
15B
  8
DATA
  6
CONTINUOUS
 62
     7
 10
837.5
 20
-637.79999999999961
 30
0.0
 11
837.5
 21
-635.29999999999961
 31
0.0
  0
CIRCLE
  5
15C
  8
DATA
  6
CONTINUOUS
 62
     7
 10
837.5
 20
-624.24999999999966
 30
0.0
 40
2.7499999999998379
  0
LINE
  5
15D
  8
DATA
  6
CONTINUOUS
 62
     7
 10
836.0
 20
-624.24999999999966
 30
0.0
 11
839.0
 21
-624.24999999999966
 31
0.0
  0
LINE
  5
15E
  8
DATA
  6
CONTINUOUS
 62
     7
 10
837.5
 20
-625.74999999999955
 30
0.0
 11
837.5
 21
-622.74999999999955
 31
0.0
  0
CIRCLE
  5
15F
  8
DATA
  6
CONTINUOUS
 62
     7
 10
837.5
 20
-675.25
 30
0.0
 40
2.7499999999998379
  0
LINE
  5
160
  8
DATA
  6
CONTINUOUS
 62
     7
 10
836.0
 20
-675.25
 30
0.0
 11
839.0
 21
-675.25
 31
0.0
  0
LINE
  5
161
  8
DATA
  6
CONTINUOUS
 62
     7
 10
837.5
 20
-673.74999999999989
 30
0.0
 11
837.5
 21
-676.75
 31
0.0
  0
CIRCLE
  5
162
  8
DATA
  6
CONTINUOUS
 62
     7
 10
765.50000000044952
 20
-566.24999999999966
 30
0.0
 40
1.6499999998359269
  0
CIRCLE
  5
163
  8
DATA
  6
CONTINUOUS
 62
     7
 10
774.49999999955082
 20
-566.24999999999966
 30
0.0
 40
1.6499999998341079
  0
CIRCLE
  5
164
  8
DATA
  6
CONTINUOUS
 62
     7
 10
770.0
 20
-566.24999999999966
 30
0.0
 40
11.9999999988
  0
CIRCLE
  5
165
  8
DATA
  6
CONTINUOUS
 62
     7
 10
779.4974408323834
 20
-578.24999999879958
 30
0.0
 40
2.5
  0
LINE
  5
166
  8
DATA
  6
CONTINUOUS
 62
     7
 10
777.99488166571609
 20
-578.24999999879958
 30
0.0
 11
780.99488166571598
 21
-578.24999999879958
 31
0.0
  0
LINE
  5
167
  8
DATA
  6
CONTINUOUS
 62
     7
 10
779.4974408323834
 20
-576.74882833213326
 30
0.0
 11
779.4974408323834
 21
-579.74882833213326
 31
0.0
  0
CIRCLE
  5
168
  8
DATA
  6
CONTINUOUS
 62
     7
 10
760.5025591676166
 20
-554.25000000119985
 30
0.0
 40
2.5
  0
LINE
  5
169
  8
DATA
  6
CONTINUOUS
 62
     7
 10
759.00000000094951
 20
-554.25000000119985
 30
0.0
 11
762.00000000094951
 21
-554.25000000119985
 31
0.0
  0
LINE
  5
16A
  8
DATA
  6
CONTINUOUS
 62
     7
 10
760.5025591676166
 20
-552.74882833453307
 30
0.0
 11
760.5025591676166
 21
-555.74882833453296
 31
0.0
  0
CIRCLE
  5
16B
  8
DATA
  6
CONTINUOUS
 62
     7
 10
770.0
 20
-566.24999999999966
 30
0.0
 40
9.7500000156815751
  0
CIRCLE
  5
16C
  8
DATA
  6
CONTINUOUS
 62
     7
 10
770.0
 20
-562.30000000039445
 30
0.0
 40
1.6499999998341079
  0
CIRCLE
  5
16D
  8
DATA
  6
CONTINUOUS
 62
     7
 10
821.0
 20
-534.24999999999966
 30
0.0
 40
7.899999852375986
  0
CIRCLE
  5
16E
  8
DATA
  6
CONTINUOUS
 62
     7
 10
821.0
 20
-534.24999999999966
 30
0.0
 40
9.7499999990251833
  0
CIRCLE
  5
16F
  8
DATA
  6
CONTINUOUS
 62
     7
 10
821.0
 20
-534.24999999999966
 30
0.0
 40
11.999999998800201
  0
LINE
  5
170
  8
DATA
  6
CONTINUOUS
 62
     7
 10
823.39999999975942
 20
-526.72338057367892
 30
0.0
 11
823.39999999975942
 21
-526.72338072779678
 31
0.0
  0
LINE
  5
171
  8
DATA
  6
CONTINUOUS
 62
     7
 10
818.15000000028431
 20
-526.88199500073665
 30
0.0
 11
818.15000000028431
 21
-526.88199515817257
 31
0.0
  0
ARC
  5
172
  8
DATA
  6
CONTINUOUS
 62
     7
 10
816.50000000044952
 20
-534.24999999999966
 30
0.0
 40
1.999999999800095
 50
32.089183874050867
 51
327.91081612594922
  0
ARC
  5
173
  8
DATA
  6
CONTINUOUS
 62
     7
 10
825.49999999954969
 20
-534.24999999999966
 30
0.0
 40
1.999999999800095
 50
212.0891838740508
 51
147.91081612594911
  0
ARC
  5
174
  8
DATA
  6
CONTINUOUS
 62
     7
 10
821.0
 20
-538.19999999960521
 30
0.0
 40
1.99999999980077
 50
137.8522840898888
 51
42.147715910128611
  0
ARC
  5
175
  8
DATA
  6
CONTINUOUS
 62
     7
 10
815.55527766721025
 20
-528.80527800054426
 30
0.0
 40
0.7999999999207108
 50
56.612913999968789
 51
213.3870860000219
  0
ARC
  5
176
  8
DATA
  6
CONTINUOUS
 62
     7
 10
821.0
 20
-534.24999999999966
 30
0.0
 40
2.9999999999997442
 50
20.741916485081301
 51
159.25808351492489
  0
ARC
  5
177
  8
DATA
  6
CONTINUOUS
 62
     7
 10
821.0
 20
-534.24999999999966
 30
0.0
 40
3.0000000000005942
 50
200.74191648507511
 51
240.3778367991917
  0
ARC
  5
178
  8
DATA
  6
CONTINUOUS
 62
     7
 10
821.0
 20
-534.24999999999966
 30
0.0
 40
2.999999999999643
 50
299.6221632007933
 51
339.25808351491872
  0
CIRCLE
  5
179
  8
DATA
  6
CONTINUOUS
 62
     7
 10
830.49999999904958
 20
-546.24999999879958
 30
0.0
 40
2.5
  0
LINE
  5
17A
  8
DATA
  6
CONTINUOUS
 62
     7
 10
828.9974408323834
 20
-546.24999999879958
 30
0.0
 11
831.99744083238329
 21
-546.24999999879958
 31
0.0
  0
LINE
  5
17B
  8
DATA
  6
CONTINUOUS
 62
     7
 10
830.49999999904958
 20
-544.74882833213326
 30
0.0
 11
830.49999999904958
 21
-547.74882833213326
 31
0.0
  0
CIRCLE
  5
17C
  8
DATA
  6
CONTINUOUS
 62
     7
 10
811.49744083428334
 20
-522.24882833453296
 30
0.0
 40
2.5
  0
LINE
  5
17D
  8
DATA
  6
CONTINUOUS
 62
     7
 10
809.99488166761705
 20
-522.24882833453296
 30
0.0
 11
812.99488166761705
 21
-522.24882833453296
 31
0.0
  0
LINE
  5
17E
  8
DATA
  6
CONTINUOUS
 62
     7
 10
811.49744083428334
 20
-520.74765666786686
 30
0.0
 11
811.49744083428334
 21
-523.74765666786675
 31
0.0
  0
LINE
  5
17F
  8
DATA
  6
CONTINUOUS
 62
     7
 10
818.60000000023956
 20
-524.80000000094492
 30
0.0
 11
818.60000000023956
 21
-522.54626128234167
 31
0.0
  0
LINE
  5
180
  8
DATA
  6
CONTINUOUS
 62
     7
 10
823.39999999975942
 20
-524.80000000094458
 30
0.0
 11
823.39999999975942
 21
-522.54626128234167
 31
0.0
  0
CIRCLE
  5
181
  8
DATA
  6
CONTINUOUS
 62
     7
 10
770.0
 20
-534.24999999999966
 30
0.0
 40
7.899999852375986
  0
CIRCLE
  5
182
  8
DATA
  6
CONTINUOUS
 62
     7
 10
770.0
 20
-534.24999999999966
 30
0.0
 40
9.7499999990251833
  0
CIRCLE
  5
183
  8
DATA
  6
CONTINUOUS
 62
     7
 10
770.0
 20
-534.24999999999966
 30
0.0
 40
11.999999998800201
  0
LINE
  5
184
  8
DATA
  6
CONTINUOUS
 62
     7
 10
772.39999999975953
 20
-526.72338057367892
 30
0.0
 11
772.39999999975953
 21
-526.72338072779678
 31
0.0
  0
LINE
  5
185
  8
DATA
  6
CONTINUOUS
 62
     7
 10
767.15000000028431
 20
-526.88199500073665
 30
0.0
 11
767.15000000028431
 21
-526.88199515817257
 31
0.0
  0
ARC
  5
186
  8
DATA
  6
CONTINUOUS
 62
     7
 10
765.50000000044952
 20
-534.24999999999966
 30
0.0
 40
1.999999999800095
 50
32.089183874050867
 51
327.91081612594922
  0
ARC
  5
187
  8
DATA
  6
CONTINUOUS
 62
     7
 10
774.49999999954969
 20
-534.24999999999966
 30
0.0
 40
1.999999999800095
 50
212.0891838740508
 51
147.91081612594911
  0
ARC
  5
188
  8
DATA
  6
CONTINUOUS
 62
     7
 10
770.0
 20
-538.19999999960521
 30
0.0
 40
1.99999999980077
 50
137.8522840898888
 51
42.147715910128611
  0
ARC
  5
189
  8
DATA
  6
CONTINUOUS
 62
     7
 10
764.55527766721025
 20
-528.80527800054426
 30
0.0
 40
0.7999999999207108
 50
56.612913999968789
 51
213.3870860000219
  0
ARC
  5
18A
  8
DATA
  6
CONTINUOUS
 62
     7
 10
770.0
 20
-534.24999999999966
 30
0.0
 40
2.9999999999997442
 50
20.741916485081301
 51
159.25808351492489
  0
ARC
  5
18B
  8
DATA
  6
CONTINUOUS
 62
     7
 10
770.0
 20
-534.24999999999966
 30
0.0
 40
3.0000000000005942
 50
200.74191648507511
 51
240.3778367991917
  0
ARC
  5
18C
  8
DATA
  6
CONTINUOUS
 62
     7
 10
770.0
 20
-534.24999999999966
 30
0.0
 40
2.999999999999643
 50
299.6221632007933
 51
339.25808351491872
  0
CIRCLE
  5
18D
  8
DATA
  6
CONTINUOUS
 62
     7
 10
779.49999999904969
 20
-546.24999999879958
 30
0.0
 40
2.5
  0
LINE
  5
18E
  8
DATA
  6
CONTINUOUS
 62
     7
 10
777.9974408323834
 20
-546.24999999879958
 30
0.0
 11
780.99744083238329
 21
-546.24999999879958
 31
0.0
  0
LINE
  5
18F
  8
DATA
  6
CONTINUOUS
 62
     7
 10
779.49999999904969
 20
-544.74882833213326
 30
0.0
 11
779.49999999904969
 21
-547.74882833213326
 31
0.0
  0
CIRCLE
  5
190
  8
DATA
  6
CONTINUOUS
 62
     7
 10
760.49744083428334
 20
-522.24882833453296
 30
0.0
 40
2.5
  0
LINE
  5
191
  8
DATA
  6
CONTINUOUS
 62
     7
 10
758.99488166761705
 20
-522.24882833453296
 30
0.0
 11
761.99488166761705
 21
-522.24882833453296
 31
0.0
  0
LINE
  5
192
  8
DATA
  6
CONTINUOUS
 62
     7
 10
760.49744083428334
 20
-520.74765666786686
 30
0.0
 11
760.49744083428334
 21
-523.74765666786675
 31
0.0
  0
LINE
  5
193
  8
DATA
  6
CONTINUOUS
 62
     7
 10
767.60000000023945
 20
-524.80000000094492
 30
0.0
 11
767.60000000023945
 21
-522.54626128234167
 31
0.0
  0
LINE
  5
194
  8
DATA
  6
CONTINUOUS
 62
     7
 10
772.39999999975953
 20
-524.80000000094458
 30
0.0
 11
772.39999999975953
 21
-522.54626128234167
 31
0.0
  0
CIRCLE
  5
195
  8
DATA
  6
CONTINUOUS
 62
     7
 10
785.5
 20
-490.74999999999972
 30
0.0
 40
1.5
  0
CIRCLE
  5
196
  8
DATA
  6
CONTINUOUS
 62
     7
 10
805.49999999999989
 20
-490.74999999999972
 30
0.0
 40
1.4999999999998519
  0
CIRCLE
  5
197
  8
DATA
  6
CONTINUOUS
 62
     7
 10
760.5012795833336
 20
-472.24999999999972
 30
0.0
 40
3.9999999999999978
  0
CIRCLE
  5
198
  8
DATA
  6
CONTINUOUS
 62
     7
 10
760.5012795833336
 20
-459.24999999999972
 30
0.0
 40
2.0005858333332398
  0
CIRCLE
  5
199
  8
DATA
  6
CONTINUOUS
 62
     7
 10
840.0
 20
-472.24999999999972
 30
0.0
 40
3.9999999999999978
  0
CIRCLE
  5
19A
  8
DATA
  6
CONTINUOUS
 62
     7
 10
840.0
 20
-459.24999999999972
 30
0.0
 40
2.0005858333332398
  0
TEXT
  5
19B
  8
DATA
 62
     7
 10
789.32397732204856
 20
-536.28605143229117
 30
0.0
 40
4.072102864583333
  1
INPUT
 41
0.7
 72
     1
 11
795.5
 21
-534.24999999999955
 31
0.0
 73
     2
  0
TEXT
  5
19C
  8
DATA
 62
     7
 10
790.27413465711811
 20
-568.28605143229117
 30
0.0
 40
4.072102864583333
  1
THRU
 41
0.7
 72
     1
 11
795.5
 21
-566.24999999999955
 31
0.0
 73
     2
  0
LINE
  5
19D
  8
DATA
  6
CONTINUOUS
 62
     7
 10
756.10396821971972
 20
-518.74999999999977
 30
0.0
 11
774.02829682508764
 21
-518.74999999999977
 31
0.0
  0
ARC
  5
19E
  8
DATA
  6
CONTINUOUS
 62
     7
 10
756.10396821971972
 20
-523.74999999999977
 30
0.0
 40
5.0
 50
90.0
 51
180.0
  0
TEXT
  5
19F
  8
DATA
 62
     7
 10
790.74921332460372
 20
-496.75486421154523
 30
0.0
 40
4.072102864583333
  1
GAIN
 41
0.7
 72
     1
 11
795.49999999995077
 21
-494.71881277925348
 31
0.0
 73
     2
  0
TEXT
  5
1A0
  8
DATA
 62
     7
 10
828.21804904513886
 20
-467.64021809895809
 30
0.0
 40
4.072102864583333
  1
FRONT LED
 41
0.7
 72
     1
 11
840.0
 21
-465.60416666666652
 31
0.0
 73
     2
  0
LINE
  5
1A1
  8
DATA
  6
CONTINUOUS
 62
     7
 10
753.19999999999982
 20
-474.24999999999972
 30
0.0
 11
745.19999999999982
 21
-474.24999999999972
 31
0.0
  0
LINE
  5
1A2
  8
DATA
  6
CONTINUOUS
 62
     7
 10
746.69999999999982
 20
-474.24999999999972
 30
0.0
 11
746.69999999999982
 21
-472.24999999999972
 31
0.0
  0
LINE
  5
1A3
  8
DATA
  6
CONTINUOUS
 62
     7
 10
751.69999999999982
 20
-472.24999999999972
 30
0.0
 11
751.69999999999982
 21
-474.24999999999972
 31
0.0
  0
LINE
  5
1A4
  8
DATA
  6
CONTINUOUS
 62
     7
 10
746.69999999999982
 20
-472.24999999999972
 30
0.0
 11
751.69999999999982
 21
-472.24999999999972
 31
0.0
  0
LINE
  5
1A5
  8
DATA
  6
CONTINUOUS
 62
     7
 10
775.80255916666738
 20
-474.24999999999972
 30
0.0
 11
767.80255916666738
 21
-474.24999999999972
 31
0.0
  0
LINE
  5
1A6
  8
DATA
  6
CONTINUOUS
 62
     7
 10
769.30255916666749
 20
-474.24999999999972
 30
0.0
 11
769.30255916666749
 21
-469.24999999999977
 31
0.0
  0
LINE
  5
1A7
  8
DATA
  6
CONTINUOUS
 62
     7
 10
774.30255916666749
 20
-469.24999999999977
 30
0.0
 11
774.30255916666749
 21
-474.24999999999972
 31
0.0
  0
LINE
  5
1A8
  8
DATA
  6
CONTINUOUS
 62
     7
 10
769.30255916666749
 20
-471.24999999999972
 30
0.0
 11
774.30255916666749
 21
-471.24999999999972
 31
0.0
  0
LINE
  5
1A9
  8
DATA
  6
CONTINUOUS
 62
     7
 10
769.30255916666749
 20
-469.24999999999977
 30
0.0
 11
774.30255916666749
 21
-469.24999999999977
 31
0.0
  0
LINE
  5
1AA
  8
DATA
  6
CONTINUOUS
 62
     7
 10
832.69872041666633
 20
-474.24999999999972
 30
0.0
 11
824.69872041666622
 21
-474.24999999999972
 31
0.0
  0
LINE
  5
1AB
  8
DATA
  6
CONTINUOUS
 62
     7
 10
826.19872041666611
 20
-474.24999999999972
 30
0.0
 11
826.19872041666611
 21
-472.24999999999972
 31
0.0
  0
LINE
  5
1AC
  8
DATA
  6
CONTINUOUS
 62
     7
 10
831.19872041666622
 20
-472.24999999999972
 30
0.0
 11
831.19872041666622
 21
-474.24999999999972
 31
0.0
  0
LINE
  5
1AD
  8
DATA
  6
CONTINUOUS
 62
     7
 10
826.19872041666611
 20
-472.24999999999972
 30
0.0
 11
831.19872041666622
 21
-472.24999999999972
 31
0.0
  0
LINE
  5
1AE
  8
DATA
  6
CONTINUOUS
 62
     7
 10
855.30127958333367
 20
-474.24999999999972
 30
0.0
 11
847.30127958333367
 21
-474.24999999999972
 31
0.0
  0
LINE
  5
1AF
  8
DATA
  6
CONTINUOUS
 62
     7
 10
848.80127958333378
 20
-474.24999999999972
 30
0.0
 11
848.80127958333378
 21
-469.24999999999977
 31
0.0
  0
LINE
  5
1B0
  8
DATA
  6
CONTINUOUS
 62
     7
 10
853.80127958333367
 20
-469.24999999999977
 30
0.0
 11
853.80127958333367
 21
-474.24999999999972
 31
0.0
  0
LINE
  5
1B1
  8
DATA
  6
CONTINUOUS
 62
     7
 10
848.80127958333378
 20
-471.24999999999972
 30
0.0
 11
853.80127958333367
 21
-471.24999999999972
 31
0.0
  0
LINE
  5
1B2
  8
DATA
  6
CONTINUOUS
 62
     7
 10
848.80127958333378
 20
-469.24999999999977
 30
0.0
 11
853.80127958333367
 21
-469.24999999999977
 31
0.0
  0
TEXT
  5
1B3
  8
DATA
 62
     7
 10
828.59811197916667
 20
-456.63963226562498
 30
0.0
 40
4.072102864583333
  1
PWR/STBY
 41
0.7
 72
     1
 11
840.0
 21
-454.6035808333333
 31
0.0
 73
     2
  0
CIRCLE
  5
1B4
  8
DATA
  6
CONTINUOUS
 62
     7
 10
762.0
 20
-751.24999999999955
 30
0.0
 40
4.7500000000002034
  0
LINE
  5
1B5
  8
DATA
  6
CONTINUOUS
 62
     7
 10
759.49999999999989
 20
-751.24999999999955
 30
0.0
 11
764.5
 21
-751.24999999999955
 31
0.0
  0
LINE
  5
1B6
  8
DATA
  6
CONTINUOUS
 62
     7
 10
762.0
 20
-753.74999999999955
 30
0.0
 11
762.0
 21
-748.74999999999966
 31
0.0
  0
CIRCLE
  5
1B7
  8
DATA
  6
CONTINUOUS
 62
     7
 10
829.0
 20
-751.24999999999955
 30
0.0
 40
4.7500000000002034
  0
LINE
  5
1B8
  8
DATA
  6
CONTINUOUS
 62
     7
 10
826.5
 20
-751.24999999999955
 30
0.0
 11
831.49999999999989
 21
-751.24999999999955
 31
0.0
  0
LINE
  5
1B9
  8
DATA
  6
CONTINUOUS
 62
     7
 10
829.0
 20
-753.74999999999955
 30
0.0
 11
829.0
 21
-748.74999999999966
 31
0.0
  0
CIRCLE
  5
1BA
  8
DATA
  6
CONTINUOUS
 62
     7
 10
762.0
 20
-381.24999999999977
 30
0.0
 40
4.7500000000002034
  0
LINE
  5
1BB
  8
DATA
  6
CONTINUOUS
 62
     7
 10
759.49999999999989
 20
-381.24999999999977
 30
0.0
 11
764.5
 21
-381.24999999999977
 31
0.0
  0
LINE
  5
1BC
  8
DATA
  6
CONTINUOUS
 62
     7
 10
762.0
 20
-378.74999999999977
 30
0.0
 11
762.0
 21
-383.74999999999977
 31
0.0
  0
CIRCLE
  5
1BD
  8
DATA
  6
CONTINUOUS
 62
     7
 10
829.0
 20
-381.24999999999977
 30
0.0
 40
4.7500000000002034
  0
LINE
  5
1BE
  8
DATA
  6
CONTINUOUS
 62
     7
 10
826.5
 20
-381.24999999999977
 30
0.0
 11
831.49999999999989
 21
-381.24999999999977
 31
0.0
  0
LINE
  5
1BF
  8
DATA
  6
CONTINUOUS
 62
     7
 10
829.0
 20
-378.74999999999977
 30
0.0
 11
829.0
 21
-383.74999999999977
 31
0.0
  0
CIRCLE
  5
1C0
  8
DATA
  6
CONTINUOUS
 62
     7
 10
715.0
 20
-555.24999999999955
 30
0.0
 40
4.7500000000002034
  0
LINE
  5
1C1
  8
DATA
  6
CONTINUOUS
 62
     7
 10
712.5
 20
-555.24999999999955
 30
0.0
 11
717.49999999999989
 21
-555.24999999999955
 31
0.0
  0
LINE
  5
1C2
  8
DATA
  6
CONTINUOUS
 62
     7
 10
715.0
 20
-557.74999999999966
 30
0.0
 11
715.0
 21
-552.74999999999955
 31
0.0
  0
CIRCLE
  5
1C3
  8
DATA
  6
CONTINUOUS
 62
     7
 10
715.0
 20
-447.24999999999972
 30
0.0
 40
4.7500000000002034
  0
LINE
  5
1C4
  8
DATA
  6
CONTINUOUS
 62
     7
 10
712.5
 20
-447.24999999999972
 30
0.0
 11
717.49999999999989
 21
-447.24999999999972
 31
0.0
  0
LINE
  5
1C5
  8
DATA
  6
CONTINUOUS
 62
     7
 10
715.0
 20
-449.74999999999972
 30
0.0
 11
715.0
 21
-444.74999999999977
 31
0.0
  0
CIRCLE
  5
1C6
  8
DATA
  6
CONTINUOUS
 62
     7
 10
715.0
 20
-663.24999999999966
 30
0.0
 40
4.7500000000002034
  0
LINE
  5
1C7
  8
DATA
  6
CONTINUOUS
 62
     7
 10
712.5
 20
-663.24999999999966
 30
0.0
 11
717.49999999999989
 21
-663.24999999999966
 31
0.0
  0
LINE
  5
1C8
  8
DATA
  6
CONTINUOUS
 62
     7
 10
715.0
 20
-665.74999999999966
 30
0.0
 11
715.0
 21
-660.74999999999977
 31
0.0
  0
CIRCLE
  5
1C9
  8
DATA
  6
CONTINUOUS
 62
     7
 10
876.0
 20
-555.24999999999955
 30
0.0
 40
4.7500000000002034
  0
LINE
  5
1CA
  8
DATA
  6
CONTINUOUS
 62
     7
 10
878.5
 20
-555.24999999999955
 30
0.0
 11
873.49999999999989
 21
-555.24999999999955
 31
0.0
  0
LINE
  5
1CB
  8
DATA
  6
CONTINUOUS
 62
     7
 10
876.0
 20
-557.74999999999966
 30
0.0
 11
876.0
 21
-552.74999999999955
 31
0.0
  0
CIRCLE
  5
1CC
  8
DATA
  6
CONTINUOUS
 62
     7
 10
876.0
 20
-447.24999999999972
 30
0.0
 40
4.7500000000002034
  0
LINE
  5
1CD
  8
DATA
  6
CONTINUOUS
 62
     7
 10
878.5
 20
-447.24999999999972
 30
0.0
 11
873.49999999999989
 21
-447.24999999999972
 31
0.0
  0
LINE
  5
1CE
  8
DATA
  6
CONTINUOUS
 62
     7
 10
876.0
 20
-449.74999999999972
 30
0.0
 11
876.0
 21
-444.74999999999977
 31
0.0
  0
CIRCLE
  5
1CF
  8
DATA
  6
CONTINUOUS
 62
     7
 10
876.0
 20
-663.24999999999966
 30
0.0
 40
4.7500000000002034
  0
LINE
  5
1D0
  8
DATA
  6
CONTINUOUS
 62
     7
 10
878.5
 20
-663.24999999999966
 30
0.0
 11
873.49999999999989
 21
-663.24999999999966
 31
0.0
  0
LINE
  5
1D1
  8
DATA
  6
CONTINUOUS
 62
     7
 10
876.0
 20
-665.74999999999966
 30
0.0
 11
876.0
 21
-660.74999999999977
 31
0.0
  0
CIRCLE
  5
1D2
  8
DATA
  6
CONTINUOUS
 62
     7
 10
829.0
 20
-399.24999999999977
 30
0.0
 40
2.5000000000002212
  0
CIRCLE
  5
1D3
  8
DATA
  6
CONTINUOUS
 62
     7
 10
762.0
 20
-399.24999999999977
 30
0.0
 40
2.5000000000002212
  0
LINE
  5
1D4
  8
DATA
  6
CONTINUOUS
 62
     7
 10
760.5
 20
-399.24999999999977
 30
0.0
 11
763.49999999999989
 21
-399.24999999999977
 31
0.0
  0
LINE
  5
1D5
  8
DATA
  6
CONTINUOUS
 62
     7
 10
761.91999999999985
 20
-397.74999999999977
 30
0.0
 11
761.91999999999985
 21
-400.74999999999972
 31
0.0
  0
LINE
  5
1D6
  8
DATA
  6
CONTINUOUS
 62
     7
 10
830.49999999999989
 20
-399.24999999999977
 30
0.0
 11
827.5
 21
-399.24999999999977
 31
0.0
  0
LINE
  5
1D7
  8
DATA
  6
CONTINUOUS
 62
     7
 10
829.07999999999993
 20
-397.74999999999977
 30
0.0
 11
829.07999999999993
 21
-400.74999999999972
 31
0.0
  0
CIRCLE
  5
1D8
  8
DATA
  6
CONTINUOUS
 62
     7
 10
858.91999999999985
 20
-447.24999999999972
 30
0.0
 40
2.5000000000002212
  0
LINE
  5
1D9
  8
DATA
  6
CONTINUOUS
 62
     7
 10
860.41999999999996
 20
-447.24999999999972
 30
0.0
 11
857.41999999999985
 21
-447.24999999999972
 31
0.0
  0
LINE
  5
1DA
  8
DATA
  6
CONTINUOUS
 62
     7
 10
859.0
 20
-445.74999999999972
 30
0.0
 11
859.0
 21
-448.74999999999977
 31
0.0
  0
CIRCLE
  5
1DB
  8
DATA
  6
CONTINUOUS
 62
     7
 10
858.91999999999985
 20
-555.24999999999955
 30
0.0
 40
2.5000000000002212
  0
LINE
  5
1DC
  8
DATA
  6
CONTINUOUS
 62
     7
 10
860.41999999999996
 20
-555.24999999999955
 30
0.0
 11
857.41999999999985
 21
-555.24999999999955
 31
0.0
  0
LINE
  5
1DD
  8
DATA
  6
CONTINUOUS
 62
     7
 10
859.0
 20
-553.74999999999955
 30
0.0
 11
859.0
 21
-556.74999999999955
 31
0.0
  0
CIRCLE
  5
1DE
  8
DATA
  6
CONTINUOUS
 62
     7
 10
858.91999999999985
 20
-663.24999999999966
 30
0.0
 40
2.5000000000002212
  0
LINE
  5
1DF
  8
DATA
  6
CONTINUOUS
 62
     7
 10
860.41999999999996
 20
-663.24999999999966
 30
0.0
 11
857.41999999999985
 21
-663.24999999999966
 31
0.0
  0
LINE
  5
1E0
  8
DATA
  6
CONTINUOUS
 62
     7
 10
859.0
 20
-661.74999999999966
 30
0.0
 11
859.0
 21
-664.74999999999977
 31
0.0
  0
CIRCLE
  5
1E1
  8
DATA
  6
CONTINUOUS
 62
     7
 10
732.07999999999981
 20
-447.24999999999972
 30
0.0
 40
2.5000000000002212
  0
LINE
  5
1E2
  8
DATA
  6
CONTINUOUS
 62
     7
 10
730.5799999999997
 20
-447.24999999999972
 30
0.0
 11
733.57999999999981
 21
-447.24999999999972
 31
0.0
  0
LINE
  5
1E3
  8
DATA
  6
CONTINUOUS
 62
     7
 10
732.0
 20
-445.74999999999972
 30
0.0
 11
732.0
 21
-448.74999999999977
 31
0.0
  0
CIRCLE
  5
1E4
  8
DATA
  6
CONTINUOUS
 62
     7
 10
732.07999999999981
 20
-555.24999999999955
 30
0.0
 40
2.5000000000002212
  0
LINE
  5
1E5
  8
DATA
  6
CONTINUOUS
 62
     7
 10
730.5799999999997
 20
-555.24999999999955
 30
0.0
 11
733.57999999999981
 21
-555.24999999999955
 31
0.0
  0
LINE
  5
1E6
  8
DATA
  6
CONTINUOUS
 62
     7
 10
732.0
 20
-553.74999999999955
 30
0.0
 11
732.0
 21
-556.74999999999955
 31
0.0
  0
CIRCLE
  5
1E7
  8
DATA
  6
CONTINUOUS
 62
     7
 10
732.07999999999981
 20
-663.24999999999966
 30
0.0
 40
2.5000000000002212
  0
LINE
  5
1E8
  8
DATA
  6
CONTINUOUS
 62
     7
 10
730.5799999999997
 20
-663.24999999999966
 30
0.0
 11
733.57999999999981
 21
-663.24999999999966
 31
0.0
  0
LINE
  5
1E9
  8
DATA
  6
CONTINUOUS
 62
     7
 10
732.0
 20
-661.74999999999966
 30
0.0
 11
732.0
 21
-664.74999999999977
 31
0.0
  0
TEXT
  5
1EA
  8
DATA
 62
     7
 10
758.26909993489551
 20
-449.66648763020822
 30
0.0
 40
12.21630859375
  1
PRX718XLF
 41
0.7
 72
     1
 11
793.89999999999975
 21
-443.55833333333322
 31
0.0
 73
     2
  0
TEXT
  5
1EB
  8
DATA
 62
     7
 10
748.71932862847245
 20
-492.64021809895809
 30
0.0
 40
4.072102864583333
  1
PASS THRU
 41
0.7
 72
     1
 11
760.5012795833336
 21
-490.60416666666652
 31
0.0
 73
     2
  0
LINE
  5
1EC
  8
DATA
  6
CONTINUOUS
 62
     7
 10
753.19999999999982
 20
-499.24999999999972
 30
0.0
 11
745.19999999999982
 21
-499.24999999999972
 31
0.0
  0
LINE
  5
1ED
  8
DATA
  6
CONTINUOUS
 62
     7
 10
746.69999999999982
 20
-499.24999999999972
 30
0.0
 11
746.69999999999982
 21
-497.24999999999972
 31
0.0
  0
LINE
  5
1EE
  8
DATA
  6
CONTINUOUS
 62
     7
 10
751.69999999999982
 20
-497.24999999999972
 30
0.0
 11
751.69999999999982
 21
-499.24999999999972
 31
0.0
  0
LINE
  5
1EF
  8
DATA
  6
CONTINUOUS
 62
     7
 10
746.69999999999982
 20
-497.24999999999972
 30
0.0
 11
751.69999999999982
 21
-497.24999999999972
 31
0.0
  0
LINE
  5
1F0
  8
DATA
  6
CONTINUOUS
 62
     7
 10
775.80255916666738
 20
-499.24999999999972
 30
0.0
 11
767.80255916666738
 21
-499.24999999999972
 31
0.0
  0
LINE
  5
1F1
  8
DATA
  6
CONTINUOUS
 62
     7
 10
769.30255916666749
 20
-499.24999999999972
 30
0.0
 11
769.30255916666749
 21
-494.24999999999977
 31
0.0
  0
LINE
  5
1F2
  8
DATA
  6
CONTINUOUS
 62
     7
 10
774.30255916666749
 20
-494.24999999999977
 30
0.0
 11
774.30255916666749
 21
-499.24999999999972
 31
0.0
  0
LINE
  5
1F3
  8
DATA
  6
CONTINUOUS
 62
     7
 10
769.30255916666749
 20
-496.24999999999972
 30
0.0
 11
774.30255916666749
 21
-496.24999999999972
 31
0.0
  0
LINE
  5
1F4
  8
DATA
  6
CONTINUOUS
 62
     7
 10
769.30255916666749
 20
-494.24999999999977
 30
0.0
 11
774.30255916666749
 21
-494.24999999999977
 31
0.0
  0
CIRCLE
  5
1F5
  8
DATA
  6
CONTINUOUS
 62
     7
 10
795.49999999995077
 20
-507.2500000000777
 30
0.0
 40
6.4999999999993809
  0
LINE
  5
1F6
  8
DATA
  6
CONTINUOUS
 62
     7
 10
799.32060413985243
 20
-512.50861046351565
 30
0.0
 11
801.37785252287551
 21
-515.3401699438275
 31
0.0
  0
LINE
  5
1F7
  8
DATA
  6
CONTINUOUS
 62
     7
 10
801.68186735587005
 20
-505.24138953664033
 30
0.0
 11
805.01056516290191
 21
-504.1598300563283
 31
0.0
  0
LINE
  5
1F8
  8
DATA
  6
CONTINUOUS
 62
     7
 10
795.49999999995077
 20
-500.7500000000777
 30
0.0
 11
795.49999999995077
 21
-497.2500000000777
 31
0.0
  0
LINE
  5
1F9
  8
DATA
  6
CONTINUOUS
 62
     7
 10
789.31813264403172
 20
-505.24138953664033
 30
0.0
 11
785.98943483699986
 21
-504.1598300563283
 31
0.0
  0
LINE
  5
1FA
  8
DATA
  6
CONTINUOUS
 62
     7
 10
791.67939586058674
 20
-512.50861046277282
 30
0.0
 11
789.62214747702615
 21
-515.34016994382682
 31
0.0
  0
LINE
  5
1FB
  8
DATA
  6
CONTINUOUS
 62
     7
 10
792.99527141995543
 20
-511.54811394161828
 30
0.0
 11
792.39006384320419
 21
-512.38111070839022
 31
0.0
  0
LINE
  5
1FC
  8
DATA
  6
CONTINUOUS
 62
     7
 10
795.09549150281225
 20
-506.95610737385391
 30
0.0
 11
795.06580231848613
 21
-506.99697103039352
 31
0.0
  0
LINE
  5
1FD
  8
DATA
  6
CONTINUOUS
 62
     7
 10
792.18625442557993
 20
-510.96032868932627
 30
0.0
 11
791.58104684882983
 21
-511.79332545609759
 31
0.0
  0
LINE
  5
1FE
  8
DATA
  6
CONTINUOUS
 62
     7
 10
789.09874960537115
 20
-506.12128684524248
 30
0.0
 11
787.62153797585313
 21
-505.86081457874229
 31
0.0
  0
LINE
  5
1FF
  8
DATA
  6
CONTINUOUS
 62
     7
 10
789.00395962432674
 20
-507.02315327151109
 30
0.0
 11
787.50487338379833
 21
-506.97080402645759
 31
0.0
  0
LINE
  5
200
  8
DATA
  6
CONTINUOUS
 62
     7
 10
789.03560768005616
 20
-507.9294350113172
 30
0.0
 11
787.54382483700465
 21
-508.08622770621878
 31
0.0
  0
LINE
  5
201
  8
DATA
  6
CONTINUOUS
 62
     7
 10
789.19307777915662
 20
-508.82249232147541
 30
0.0
 11
787.73763418974329
 21
-509.18537516487481
 31
0.0
  0
LINE
  5
202
  8
DATA
  6
CONTINUOUS
 62
     7
 10
789.47330494526614
 20
-509.68494285728133
 30
0.0
 11
788.08252916341723
 21
-510.24685274740472
 31
0.0
  0
LINE
  5
203
  8
DATA
  6
CONTINUOUS
 62
     7
 10
789.87083487535244
 20
-510.50000000007731
 30
0.0
 11
788.57179676967542
 21
-511.25000000007748
 31
0.0
  0
LINE
  5
204
  8
DATA
  6
CONTINUOUS
 62
     7
 10
790.37793010150745
 20
-511.2517995896942
 30
0.0
 11
789.19591397109775
 21
-512.17529180268275
 31
0.0
  0
LINE
  5
205
  8
DATA
  6
CONTINUOUS
 62
     7
 10
790.98472059196672
 20
-511.92570870227883
 30
0.0
 11
789.94273303627949
 21
-513.00471840278658
 31
0.0
  0
LINE
  5
206
  8
DATA
  6
CONTINUOUS
 62
     7
 10
800.01527940793403
 20
-511.92570870227831
 30
0.0
 11
801.05726696362296
 21
-513.00471840278715
 31
0.0
  0
LINE
  5
207
  8
DATA
  6
CONTINUOUS
 62
     7
 10
800.62206989839433
 20
-511.25179958969392
 30
0.0
 11
801.8040860288047
 21
-512.17529180268275
 31
0.0
  0
LINE
  5
208
  8
DATA
  6
CONTINUOUS
 62
     7
 10
801.12916512455013
 20
-510.50000000007822
 30
0.0
 11
802.42820323022704
 21
-511.2500000000777
 31
0.0
  0
LINE
  5
209
  8
DATA
  6
CONTINUOUS
 62
     7
 10
801.52669505463541
 20
-509.68494285728133
 30
0.0
 11
802.91747083648625
 21
-510.24685274740511
 31
0.0
  0
LINE
  5
20A
  8
DATA
  6
CONTINUOUS
 62
     7
 10
801.80692222074492
 20
-508.82249232147609
 30
0.0
 11
803.26236581015826
 21
-509.18537516487498
 31
0.0
  0
LINE
  5
20B
  8
DATA
  6
CONTINUOUS
 62
     7
 10
801.96439231984471
 20
-507.92943501131771
 30
0.0
 11
803.45617516289724
 21
-508.08622770621878
 31
0.0
  0
LINE
  5
20C
  8
DATA
  6
CONTINUOUS
 62
     7
 10
801.99604037557492
 20
-507.02315327151109
 30
0.0
 11
803.49512661610413
 21
-506.97080402645759
 31
0.0
  0
LINE
  5
20D
  8
DATA
  6
CONTINUOUS
 62
     7
 10
801.90125039453051
 20
-506.12128684524248
 30
0.0
 11
803.37846202404785
 21
-505.86081457874252
 31
0.0
  0
LINE
  5
20E
  8
DATA
  6
CONTINUOUS
 62
     7
 10
801.34216130089578
 20
-504.40058754594878
 30
0.0
 11
802.69035237034382
 21
-503.74303082576529
 31
0.0
  0
LINE
  5
20F
  8
DATA
  6
CONTINUOUS
 62
     7
 10
800.88874422155902
 20
-503.61524612751742
 30
0.0
 11
802.13230058039051
 21
-502.77645677231197
 31
0.0
  0
LINE
  5
210
  8
DATA
  6
CONTINUOUS
 62
     7
 10
800.3304413655552
 20
-502.9006510587451
 30
0.0
 11
801.44515860377032
 21
-501.89695514920692
 31
0.0
  0
LINE
  5
211
  8
DATA
  6
CONTINUOUS
 62
     7
 10
799.67811946291386
 20
-502.27071111980467
 30
0.0
 11
800.64230087744352
 21
-501.12164445512542
 31
0.0
  0
LINE
  5
212
  8
DATA
  6
CONTINUOUS
 62
     7
 10
798.9444752174677
 20
-501.73768737506089
 30
0.0
 11
799.73935411381603
 21
-500.46561523082659
 31
0.0
  0
LINE
  5
213
  8
DATA
  6
CONTINUOUS
 62
     7
 10
798.14378817994384
 20
-501.31195452540157
 30
0.0
 11
798.75389314455708
 21
-499.9416363389368
 31
0.0
  0
LINE
  5
214
  8
DATA
  6
CONTINUOUS
 62
     7
 10
797.29164281276076
 20
-501.00179897647882
 30
0.0
 11
797.70509884648732
 21
-499.55990643257161
 31
0.0
  0
LINE
  5
215
  8
DATA
  6
CONTINUOUS
 62
     7
 10
796.4046251561914
 20
-500.81325755325759
 30
0.0
 11
796.61338480763152
 21
-499.32785545014622
 31
0.0
  0
LINE
  5
216
  8
DATA
  6
CONTINUOUS
 62
     7
 10
794.5953748437114
 20
-500.81325755326321
 30
0.0
 11
794.38661519227026
 21
-499.32785545014519
 31
0.0
  0
LINE
  5
217
  8
DATA
  6
CONTINUOUS
 62
     7
 10
793.70835718713977
 20
-501.00179897647769
 30
0.0
 11
793.2949011534148
 21
-499.55990643257201
 31
0.0
  0
LINE
  5
218
  8
DATA
  6
CONTINUOUS
 62
     7
 10
792.85621181995793
 20
-501.31195452540032
 30
0.0
 11
792.2461068553439
 21
-499.9416363389372
 31
0.0
  0
LINE
  5
219
  8
DATA
  6
CONTINUOUS
 62
     7
 10
792.0555247824359
 20
-501.73768737506089
 30
0.0
 11
791.2606458860846
 21
-500.46561523082562
 31
0.0
  0
LINE
  5
21A
  8
DATA
  6
CONTINUOUS
 62
     7
 10
791.32188053698871
 20
-502.2707111198041
 30
0.0
 11
790.35769912245814
 21
-501.12164445512599
 31
0.0
  0
LINE
  5
21B
  8
DATA
  6
CONTINUOUS
 62
     7
 10
790.66955863434839
 20
-502.9006510587451
 30
0.0
 11
789.55484139613145
 21
-501.89695514920692
 31
0.0
  0
LINE
  5
21C
  8
DATA
  6
CONTINUOUS
 62
     7
 10
790.11125577834241
 20
-503.61524612751828
 30
0.0
 11
788.86769941951025
 21
-502.77645677231197
 31
0.0
  0
LINE
  5
21D
  8
DATA
  6
CONTINUOUS
 62
     7
 10
789.65783869900565
 20
-504.40058754594878
 30
0.0
 11
788.30964762955853
 21
-503.74303082576591
 31
0.0
  0
ARC
  5
21E
  8
DATA
  6
CONTINUOUS
 62
     7
 10
796.12717077955654
 20
-501.28286862786831
 30
0.0
 40
0.4999999999990113
 50
351.61198453549321
 51
176.3880154644454
  0
ARC
  5
21F
  8
DATA
  6
CONTINUOUS
 62
     7
 10
795.49999999994725
 20
-507.25000000008248
 30
0.0
 40
5.9999999999939684
 50
238.78019184717519
 51
229.2198081527709
  0
ARC
  5
220
  8
DATA
  6
CONTINUOUS
 62
     7
 10
795.5
 20
-507.24999999999977
 30
0.0
 40
5.0000000000923901
 50
239.73026269141371
 51
228.2608295228726
  0
ARC
  5
221
  8
DATA
  6
CONTINUOUS
 62
     7
 10
794.0305368692226
 20
-509.27254248600639
 30
0.0
 40
2.500000000008828
 50
245.53695903275849
 51
222.46304096722159
  0
ARC
  5
222
  8
DATA
  6
CONTINUOUS
 62
     7
 10
793.05958014149303
 20
-501.76872725422157
 30
0.0
 40
0.5000000000004735
 50
21.61198453550028
 51
206.38801546441431
  0
ARC
  5
223
  8
DATA
  6
CONTINUOUS
 62
     7
 10
790.64589803369563
 20
-503.7232884863231
 30
0.0
 40
0.4999999999997923
 50
51.61198453558476
 51
236.38801546443511
  0
ARC
  5
224
  8
DATA
  6
CONTINUOUS
 62
     7
 10
789.53286862773336
 20
-506.62282922047388
 30
0.0
 40
0.4999999999995867
 50
81.611984535581826
 51
266.3880154644163
  0
ARC
  5
225
  8
DATA
  6
CONTINUOUS
 62
     7
 10
790.01872725408703
 20
-509.69041985853721
 30
0.0
 40
0.5000000000002182
 50
111.6119845355679
 51
296.38801546446058
  0
ARC
  5
226
  8
DATA
  6
CONTINUOUS
 62
     7
 10
791.97328848618793
 20
-512.10410196633484
 30
0.0
 40
0.4999999999997766
 50
144.00000000006671
 51
324.0000000000457
  0
ARC
  5
227
  8
DATA
  6
CONTINUOUS
 62
     7
 10
794.87282922033955
 20
-513.21713137229676
 30
0.0
 40
0.4999999999999111
 50
171.6119845355083
 51
356.38801546446501
  0
ARC
  5
228
  8
DATA
  6
CONTINUOUS
 62
     7
 10
797.9404198584017
 20
-512.73127274594276
 30
0.0
 40
0.5000000000006409
 50
201.6119845355488
 51
26.388015464390971
  0
ARC
  5
229
  8
DATA
  6
CONTINUOUS
 62
     7
 10
800.35410196619955
 20
-510.77671151384197
 30
0.0
 40
0.4999999999998225
 50
231.6119845354545
 51
56.388015464435092
  0
ARC
  5
22A
  8
DATA
  6
CONTINUOUS
 62
     7
 10
801.46713137216079
 20
-507.8771707796908
 30
0.0
 40
0.5000000000000365
 50
261.61198453558939
 51
86.388015464419524
  0
ARC
  5
22B
  8
DATA
  6
CONTINUOUS
 62
     7
 10
800.98127274580827
 20
-504.80958014162769
 30
0.0
 40
0.4999999999996719
 50
291.61198453548059
 51
116.388015464449
  0
ARC
  5
22C
  8
DATA
  6
CONTINUOUS
 62
     7
 10
799.0267115137068
 20
-502.39589803383018
 30
0.0
 40
0.5000000000007875
 50
321.6119845356086
 51
146.3880154644277
  0
CIRCLE
  5
22D
  8
DATA
  6
CONTINUOUS
 62
     7
 10
816.50000000044952
 20
-566.24999999999966
 30
0.0
 40
1.6499999998359269
  0
CIRCLE
  5
22E
  8
DATA
  6
CONTINUOUS
 62
     7
 10
825.49999999955082
 20
-566.24999999999966
 30
0.0
 40
1.6499999998341079
  0
CIRCLE
  5
22F
  8
DATA
  6
CONTINUOUS
 62
     7
 10
821.0
 20
-566.24999999999966
 30
0.0
 40
11.9999999988
  0
CIRCLE
  5
230
  8
DATA
  6
CONTINUOUS
 62
     7
 10
830.4974408323834
 20
-578.24999999879958
 30
0.0
 40
2.5
  0
LINE
  5
231
  8
DATA
  6
CONTINUOUS
 62
     7
 10
828.99488166571598
 20
-578.24999999879958
 30
0.0
 11
831.99488166571609
 21
-578.24999999879958
 31
0.0
  0
LINE
  5
232
  8
DATA
  6
CONTINUOUS
 62
     7
 10
830.4974408323834
 20
-576.74882833213326
 30
0.0
 11
830.4974408323834
 21
-579.74882833213326
 31
0.0
  0
CIRCLE
  5
233
  8
DATA
  6
CONTINUOUS
 62
     7
 10
811.5025591676166
 20
-554.25000000119985
 30
0.0
 40
2.5
  0
LINE
  5
234
  8
DATA
  6
CONTINUOUS
 62
     7
 10
810.00000000094963
 20
-554.25000000119985
 30
0.0
 11
813.00000000094951
 21
-554.25000000119985
 31
0.0
  0
LINE
  5
235
  8
DATA
  6
CONTINUOUS
 62
     7
 10
811.5025591676166
 20
-552.74882833453307
 30
0.0
 11
811.5025591676166
 21
-555.74882833453296
 31
0.0
  0
CIRCLE
  5
236
  8
DATA
  6
CONTINUOUS
 62
     7
 10
821.0
 20
-566.24999999999966
 30
0.0
 40
9.7500000156815751
  0
CIRCLE
  5
237
  8
DATA
  6
CONTINUOUS
 62
     7
 10
821.0
 20
-562.30000000039445
 30
0.0
 40
1.6499999998341079
  0
ARC
  5
238
  8
DATA
  6
CONTINUOUS
 62
     7
 10
834.89603178028017
 20
-576.74999999999966
 30
0.0
 40
5.0
 50
270.0
 51
0.0
  0
LINE
  5
239
  8
DATA
  6
CONTINUOUS
 62
     7
 10
756.10396821971972
 20
-581.74999999999977
 30
0.0
 11
781.9974408323834
 21
-581.74999999999977
 31
0.0
  0
ARC
  5
23A
  8
DATA
  6
CONTINUOUS
 62
     7
 10
756.10396821971972
 20
-576.74999999999966
 30
0.0
 40
5.0
 50
180.0
 51
270.0
  0
LINE
  5
23B
  8
DATA
  6
CONTINUOUS
 62
     7
 10
839.89603178028028
 20
-576.74999999999966
 30
0.0
 11
839.89603178028028
 21
-523.74999999999977
 31
0.0
  0
LINE
  5
23C
  8
DATA
  6
CONTINUOUS
 62
     7
 10
834.89603178028017
 20
-581.74999999999977
 30
0.0
 11
809.0025591676166
 21
-581.74999999999977
 31
0.0
  0
LINE
  5
23D
  8
DATA
  6
CONTINUOUS
 62
     7
 10
751.10396821972017
 20
-561.24999999999977
 30
0.0
 11
751.10396821972017
 21
-539.24999999999966
 31
0.0
  0
LINE
  5
23E
  8
DATA
  6
CONTINUOUS
 62
     7
 10
751.10396821972017
 20
-529.24999999999966
 30
0.0
 11
751.10396821971972
 21
-523.74999999999977
 31
0.0
  0
LINE
  5
23F
  8
DATA
  6
CONTINUOUS
 62
     7
 10
1041.0
 20
-850.0
 30
0.0
 11
559.0
 21
-850.0
 31
0.0
  0
LINE
  5
240
  8
DATA
  6
CONTINUOUS
 62
     7
 10
-400.0
 20
-187.0
 30
0.0
 11
-353.0
 21
-187.0
 31
0.0
  0
LINE
  5
241
  8
DATA
  6
CONTINUOUS
 62
     7
 10
-400.0
 20
-202.0
 30
0.0
 11
-356.0
 21
-202.0
 31
0.0
  0
LINE
  5
242
  8
DATA
  6
CONTINUOUS
 62
     7
 10
-400.0
 20
-840.0
 30
0.0
 11
-400.0
 21
-172.0
 31
0.0
  0
LINE
  5
243
  8
DATA
  6
CONTINUOUS
 62
     7
 10
-350.0
 20
-840.0
 30
0.0
 11
-350.0
 21
-172.0
 31
0.0
  0
LINE
  5
244
  8
DATA
  6
CONTINUOUS
 62
     7
 10
-353.0
 20
-825.0
 30
0.0
 11
-353.0
 21
-187.0
 31
0.0
  0
LINE
  5
245
  8
DATA
  6
CONTINUOUS
 62
     7
 10
-356.0
 20
-810.0
 30
0.0
 11
-356.0
 21
-785.0
 31
0.0
  0
LINE
  5
246
  8
DATA
  6
CONTINUOUS
 62
     7
 10
-356.0
 20
-776.0
 30
0.0
 11
-356.0
 21
-202.0
 31
0.0
  0
LINE
  5
247
  8
DATA
  6
CONTINUOUS
 62
     7
 10
304.0
 20
-850.0
 30
0.0
 11
-380.0
 21
-850.0
 31
0.0
  0
LINE
  5
248
  8
DATA
  6
CONTINUOUS
 62
     7
 10
324.0
 20
-840.0
 30
0.0
 11
-400.0
 21
-840.0
 31
0.0
  0
LINE
  5
249
  8
DATA
  6
CONTINUOUS
 62
     7
 10
304.0
 20
-850.0
 30
0.0
 11
324.0
 21
-840.0
 31
0.0
  0
LINE
  5
24A
  8
DATA
  6
CONTINUOUS
 62
     7
 10
-380.0
 20
-850.0
 30
0.0
 11
-400.0
 21
-840.0
 31
0.0
  0
LINE
  5
24B
  8
DATA
  6
CONTINUOUS
 62
     7
 10
324.0
 20
-172.0
 30
0.0
 11
324.0
 21
-840.0
 31
0.0
  0
LINE
  5
24C
  8
DATA
  6
CONTINUOUS
 62
     7
 10
-380.0
 20
-162.0
 30
0.0
 11
304.0
 21
-162.0
 31
0.0
  0
LINE
  5
24D
  8
DATA
  6
CONTINUOUS
 62
     7
 10
-400.0
 20
-172.0
 30
0.0
 11
324.0
 21
-172.0
 31
0.0
  0
LINE
  5
24E
  8
DATA
  6
CONTINUOUS
 62
     7
 10
304.0
 20
-162.0
 30
0.0
 11
324.0
 21
-172.0
 31
0.0
  0
LINE
  5
24F
  8
DATA
  6
CONTINUOUS
 62
     7
 10
-380.0
 20
-162.0
 30
0.0
 11
-400.0
 21
-172.0
 31
0.0
  0
LINE
  5
250
  8
DATA
  6
CONTINUOUS
 62
     7
 10
-400.0
 20
-785.0
 30
0.0
 11
-356.0
 21
-785.0
 31
0.0
  0
LINE
  5
251
  8
DATA
  6
CONTINUOUS
 62
     7
 10
-400.0
 20
-776.0
 30
0.0
 11
-356.0
 21
-776.0
 31
0.0
  0
LINE
  5
252
  8
DATA
  6
CONTINUOUS
 62
     7
 10
-400.0
 20
-825.0
 30
0.0
 11
-353.0
 21
-825.0
 31
0.0
  0
LINE
  5
253
  8
DATA
  6
CONTINUOUS
 62
     7
 10
-400.0
 20
-810.0
 30
0.0
 11
-356.0
 21
-810.0
 31
0.0
  0
LINE
  5
254
  8
DATA
  6
CONTINUOUS
 62
     7
 10
252.0
 20
-854.0
 30
0.0
 11
252.0
 21
-850.0
 31
0.0
  0
LINE
  5
255
  8
DATA
  6
CONTINUOUS
 62
     7
 10
292.0
 20
-854.0
 30
0.0
 11
252.0
 21
-854.0
 31
0.0
  0
LINE
  5
256
  8
DATA
  6
CONTINUOUS
 62
     7
 10
292.0
 20
-850.0
 30
0.0
 11
292.0
 21
-854.0
 31
0.0
  0
LINE
  5
257
  8
DATA
  6
CONTINUOUS
 62
     7
 10
-288.0
 20
-854.0
 30
0.0
 11
-288.0
 21
-850.0
 31
0.0
  0
LINE
  5
258
  8
DATA
  6
CONTINUOUS
 62
     7
 10
-328.0
 20
-854.0
 30
0.0
 11
-288.0
 21
-854.0
 31
0.0
  0
LINE
  5
259
  8
DATA
  6
CONTINUOUS
 62
     7
 10
-328.0
 20
-850.0
 30
0.0
 11
-328.0
 21
-854.0
 31
0.0
  0
LINE
  5
25A
  8
DATA
  6
CONTINUOUS
 62
     7
 10
-1061.0
 20
-840.0
 30
0.0
 11
-1061.0
 21
-172.0
 31
0.0
  0
LINE
  5
25B
  8
DATA
  6
CONTINUOUS
 62
     7
 10
-1051.0
 20
-825.0
 30
0.0
 11
-1051.0
 21
-187.0
 31
0.0
  0
LINE
  5
25C
  8
DATA
  6
CONTINUOUS
 62
     7
 10
-1036.0
 20
-810.0
 30
0.0
 11
-1036.0
 21
-785.0
 31
0.0
  0
LINE
  5
25D
  8
DATA
  6
CONTINUOUS
 62
     7
 10
-1036.0
 20
-776.0
 30
0.0
 11
-1036.0
 21
-202.0
 31
0.0
  0
LINE
  5
25E
  8
DATA
  6
CONTINUOUS
 62
     7
 10
-559.0
 20
-850.0
 30
0.0
 11
-1041.0
 21
-850.0
 31
0.0
  0
LINE
  5
25F
  8
DATA
  6
CONTINUOUS
 62
     7
 10
-1041.0
 20
-850.0
 30
0.0
 11
-1061.0
 21
-840.0
 31
0.0
  0
LINE
  5
260
  8
DATA
  6
CONTINUOUS
 62
     7
 10
-559.0
 20
-850.0
 30
0.0
 11
-539.0
 21
-840.0
 31
0.0
  0
LINE
  5
261
  8
DATA
  6
CONTINUOUS
 62
     7
 10
-539.0
 20
-840.0
 30
0.0
 11
-1061.0
 21
-840.0
 31
0.0
  0
LINE
  5
262
  8
DATA
  6
CONTINUOUS
 62
     7
 10
-549.0
 20
-825.0
 30
0.0
 11
-1051.0
 21
-825.0
 31
0.0
  0
LINE
  5
263
  8
DATA
  6
CONTINUOUS
 62
     7
 10
-564.0
 20
-810.0
 30
0.0
 11
-1036.0
 21
-810.0
 31
0.0
  0
LINE
  5
264
  8
DATA
  6
CONTINUOUS
 62
     7
 10
-971.0
 20
-785.0
 30
0.0
 11
-1036.0
 21
-785.0
 31
0.0
  0
LINE
  5
265
  8
DATA
  6
CONTINUOUS
 62
     7
 10
-976.22290281924154
 20
-776.0
 30
0.0
 11
-1036.0
 21
-776.0
 31
0.0
  0
LINE
  5
266
  8
DATA
  6
CONTINUOUS
 62
     7
 10
-539.0
 20
-172.0
 30
0.0
 11
-539.0
 21
-840.0
 31
0.0
  0
LINE
  5
267
  8
DATA
  6
CONTINUOUS
 62
     7
 10
-549.0
 20
-187.0
 30
0.0
 11
-549.0
 21
-825.0
 31
0.0
  0
LINE
  5
268
  8
DATA
  6
CONTINUOUS
 62
     7
 10
-564.0
 20
-202.0
 30
0.0
 11
-564.0
 21
-776.0
 31
0.0
  0
LINE
  5
269
  8
DATA
  6
CONTINUOUS
 62
     7
 10
-564.0
 20
-785.0
 30
0.0
 11
-564.0
 21
-810.0
 31
0.0
  0
LINE
  5
26A
  8
DATA
  6
CONTINUOUS
 62
     7
 10
-1041.0
 20
-162.0
 30
0.0
 11
-559.0
 21
-162.0
 31
0.0
  0
LINE
  5
26B
  8
DATA
  6
CONTINUOUS
 62
     7
 10
-559.0
 20
-162.0
 30
0.0
 11
-539.0
 21
-172.0
 31
0.0
  0
LINE
  5
26C
  8
DATA
  6
CONTINUOUS
 62
     7
 10
-1041.0
 20
-162.0
 30
0.0
 11
-1061.0
 21
-172.0
 31
0.0
  0
LINE
  5
26D
  8
DATA
  6
CONTINUOUS
 62
     7
 10
-1061.0
 20
-172.0
 30
0.0
 11
-539.0
 21
-172.0
 31
0.0
  0
LINE
  5
26E
  8
DATA
  6
CONTINUOUS
 62
     7
 10
-1051.0
 20
-187.0
 30
0.0
 11
-549.0
 21
-187.0
 31
0.0
  0
LINE
  5
26F
  8
DATA
  6
CONTINUOUS
 62
     7
 10
-1036.0
 20
-202.0
 30
0.0
 11
-564.0
 21
-202.0
 31
0.0
  0
CIRCLE
  5
270
  8
DATA
  6
CONTINUOUS
 62
     7
 10
-1043.0
 20
-817.0
 30
0.0
 40
3.2500000000003899
  0
LINE
  5
271
  8
DATA
  6
CONTINUOUS
 62
     7
 10
-1043.0
 20
-819.0
 30
0.0
 11
-1043.0
 21
-815.0
 31
0.0
  0
LINE
  5
272
  8
DATA
  6
CONTINUOUS
 62
     7
 10
-1045.0
 20
-817.0
 30
0.0
 11
-1041.0
 21
-817.0
 31
0.0
  0
CIRCLE
  5
273
  8
DATA
  6
CONTINUOUS
 62
     7
 10
-941.0
 20
-817.0
 30
0.0
 40
3.2500000000003899
  0
LINE
  5
274
  8
DATA
  6
CONTINUOUS
 62
     7
 10
-941.0
 20
-819.0
 30
0.0
 11
-941.0
 21
-815.0
 31
0.0
  0
LINE
  5
275
  8
DATA
  6
CONTINUOUS
 62
     7
 10
-943.0
 20
-817.0
 30
0.0
 11
-939.0
 21
-817.0
 31
0.0
  0
CIRCLE
  5
276
  8
DATA
  6
CONTINUOUS
 62
     7
 10
-557.0
 20
-817.0
 30
0.0
 40
3.2500000000003899
  0
LINE
  5
277
  8
DATA
  6
CONTINUOUS
 62
     7
 10
-557.0
 20
-819.0
 30
0.0
 11
-557.0
 21
-815.0
 31
0.0
  0
LINE
  5
278
  8
DATA
  6
CONTINUOUS
 62
     7
 10
-555.0
 20
-817.0
 30
0.0
 11
-559.0
 21
-817.0
 31
0.0
  0
CIRCLE
  5
279
  8
DATA
  6
CONTINUOUS
 62
     7
 10
-1043.0
 20
-195.0
 30
0.0
 40
3.2500000000003899
  0
LINE
  5
27A
  8
DATA
  6
CONTINUOUS
 62
     7
 10
-1043.0
 20
-193.0
 30
0.0
 11
-1043.0
 21
-197.0
 31
0.0
  0
LINE
  5
27B
  8
DATA
  6
CONTINUOUS
 62
     7
 10
-1045.0
 20
-195.0
 30
0.0
 11
-1041.0
 21
-195.0
 31
0.0
  0
CIRCLE
  5
27C
  8
DATA
  6
CONTINUOUS
 62
     7
 10
-557.0
 20
-195.0
 30
0.0
 40
3.2500000000003899
  0
LINE
  5
27D
  8
DATA
  6
CONTINUOUS
 62
     7
 10
-557.0
 20
-193.0
 30
0.0
 11
-557.0
 21
-197.0
 31
0.0
  0
LINE
  5
27E
  8
DATA
  6
CONTINUOUS
 62
     7
 10
-555.0
 20
-195.0
 30
0.0
 11
-559.0
 21
-195.0
 31
0.0
  0
CIRCLE
  5
27F
  8
DATA
  6
CONTINUOUS
 62
     7
 10
-800.0
 20
-817.0
 30
0.0
 40
2.000000000000163
  0
CIRCLE
  5
280
  8
DATA
  6
CONTINUOUS
 62
     7
 10
-1043.0
 20
-506.0
 30
0.0
 40
3.2500000000003162
  0
LINE
  5
281
  8
DATA
  6
CONTINUOUS
 62
     7
 10
-1043.0
 20
-508.0
 30
0.0
 11
-1043.0
 21
-504.0
 31
0.0
  0
LINE
  5
282
  8
DATA
  6
CONTINUOUS
 62
     7
 10
-1045.0
 20
-506.0
 30
0.0
 11
-1041.0
 21
-506.0
 31
0.0
  0
CIRCLE
  5
283
  8
DATA
  6
CONTINUOUS
 62
     7
 10
-557.0
 20
-506.0
 30
0.0
 40
3.2500000000003162
  0
LINE
  5
284
  8
DATA
  6
CONTINUOUS
 62
     7
 10
-557.0
 20
-508.0
 30
0.0
 11
-557.0
 21
-504.0
 31
0.0
  0
LINE
  5
285
  8
DATA
  6
CONTINUOUS
 62
     7
 10
-555.0
 20
-506.0
 30
0.0
 11
-559.0
 21
-506.0
 31
0.0
  0
LINE
  5
286
  8
DATA
  6
CONTINUOUS
 62
     7
 10
-971.0
 20
-785.0
 30
0.0
 11
-951.0
 21
-750.0
 31
0.0
  0
LINE
  5
287
  8
DATA
  6
CONTINUOUS
 62
     7
 10
-976.22290281924154
 20
-776.0
 30
0.0
 11
-956.22290281924154
 21
-741.0
 31
0.0
  0
LINE
  5
288
  8
DATA
  6
CONTINUOUS
 62
     7
 10
-951.0
 20
-750.0
 30
0.0
 11
-649.0
 21
-750.0
 31
0.0
  0
LINE
  5
289
  8
DATA
  6
CONTINUOUS
 62
     7
 10
-956.22290281924154
 20
-741.0
 30
0.0
 11
-643.77709718075846
 21
-741.0
 31
0.0
  0
LINE
  5
28A
  8
DATA
  6
CONTINUOUS
 62
     7
 10
-629.0
 20
-785.0
 30
0.0
 11
-564.0
 21
-785.0
 31
0.0
  0
LINE
  5
28B
  8
DATA
  6
CONTINUOUS
 62
     7
 10
-623.77709718075835
 20
-776.0
 30
0.0
 11
-564.0
 21
-776.0
 31
0.0
  0
LINE
  5
28C
  8
DATA
  6
CONTINUOUS
 62
     7
 10
-629.0
 20
-785.0
 30
0.0
 11
-649.0
 21
-750.0
 31
0.0
  0
LINE
  5
28D
  8
DATA
  6
CONTINUOUS
 62
     7
 10
-623.77709718075835
 20
-776.0
 30
0.0
 11
-643.77709718075846
 21
-741.0
 31
0.0
  0
LINE
  5
28E
  8
DATA
  6
CONTINUOUS
 62
     7
 10
-825.0
 20
-706.0
 30
0.0
 11
-825.0
 21
-646.0
 31
0.0
  0
LINE
  5
28F
  8
DATA
  6
CONTINUOUS
 62
     7
 10
-775.0
 20
-706.0
 30
0.0
 11
-825.0
 21
-706.0
 31
0.0
  0
LINE
  5
290
  8
DATA
  6
CONTINUOUS
 62
     7
 10
-775.0
 20
-646.0
 30
0.0
 11
-775.0
 21
-706.0
 31
0.0
  0
LINE
  5
291
  8
DATA
  6
CONTINUOUS
 62
     7
 10
-825.0
 20
-646.0
 30
0.0
 11
-775.0
 21
-646.0
 31
0.0
  0
LINE
  5
292
  8
DATA
  6
CONTINUOUS
 62
     7
 10
-815.0
 20
-695.0
 30
0.0
 11
-815.0
 21
-657.0
 31
0.0
  0
LINE
  5
293
  8
DATA
  6
CONTINUOUS
 62
     7
 10
-785.0
 20
-695.0
 30
0.0
 11
-815.0
 21
-695.0
 31
0.0
  0
LINE
  5
294
  8
DATA
  6
CONTINUOUS
 62
     7
 10
-785.0
 20
-657.0
 30
0.0
 11
-785.0
 21
-695.0
 31
0.0
  0
LINE
  5
295
  8
DATA
  6
CONTINUOUS
 62
     7
 10
-815.0
 20
-657.0
 30
0.0
 11
-785.0
 21
-657.0
 31
0.0
  0
LINE
  5
296
  8
DATA
  6
CONTINUOUS
 62
     7
 10
-611.00000000000011
 20
-854.0
 30
0.0
 11
-611.00000000000011
 21
-850.0
 31
0.0
  0
LINE
  5
297
  8
DATA
  6
CONTINUOUS
 62
     7
 10
-571.0
 20
-854.0
 30
0.0
 11
-611.00000000000011
 21
-854.0
 31
0.0
  0
LINE
  5
298
  8
DATA
  6
CONTINUOUS
 62
     7
 10
-571.0
 20
-850.0
 30
0.0
 11
-571.0
 21
-854.0
 31
0.0
  0
CIRCLE
  5
299
  8
DATA
  6
CONTINUOUS
 62
     7
 10
-1043.0
 20
-661.00000000000034
 30
0.0
 40
3.2500000000003162
  0
LINE
  5
29A
  8
DATA
  6
CONTINUOUS
 62
     7
 10
-1043.0
 20
-663.00000000000034
 30
0.0
 11
-1043.0
 21
-659.00000000000034
 31
0.0
  0
LINE
  5
29B
  8
DATA
  6
CONTINUOUS
 62
     7
 10
-1045.0
 20
-661.00000000000034
 30
0.0
 11
-1041.0
 21
-661.00000000000034
 31
0.0
  0
CIRCLE
  5
29C
  8
DATA
  6
CONTINUOUS
 62
     7
 10
-1043.0
 20
-351.0000000000004
 30
0.0
 40
3.2500000000003162
  0
LINE
  5
29D
  8
DATA
  6
CONTINUOUS
 62
     7
 10
-1043.0
 20
-353.0000000000004
 30
0.0
 11
-1043.0
 21
-349.0000000000004
 31
0.0
  0
LINE
  5
29E
  8
DATA
  6
CONTINUOUS
 62
     7
 10
-1045.0
 20
-351.0000000000004
 30
0.0
 11
-1041.0
 21
-351.0000000000004
 31
0.0
  0
CIRCLE
  5
29F
  8
DATA
  6
CONTINUOUS
 62
     7
 10
-557.0
 20
-661.00000000000034
 30
0.0
 40
3.2500000000003162
  0
LINE
  5
2A0
  8
DATA
  6
CONTINUOUS
 62
     7
 10
-557.0
 20
-663.00000000000034
 30
0.0
 11
-557.0
 21
-659.00000000000034
 31
0.0
  0
LINE
  5
2A1
  8
DATA
  6
CONTINUOUS
 62
     7
 10
-555.0
 20
-661.00000000000034
 30
0.0
 11
-559.0
 21
-661.00000000000034
 31
0.0
  0
CIRCLE
  5
2A2
  8
DATA
  6
CONTINUOUS
 62
     7
 10
-557.0
 20
-351.0000000000004
 30
0.0
 40
3.2500000000003162
  0
LINE
  5
2A3
  8
DATA
  6
CONTINUOUS
 62
     7
 10
-557.0
 20
-353.0000000000004
 30
0.0
 11
-557.0
 21
-349.0000000000004
 31
0.0
  0
LINE
  5
2A4
  8
DATA
  6
CONTINUOUS
 62
     7
 10
-555.0
 20
-351.0000000000004
 30
0.0
 11
-559.0
 21
-351.0000000000004
 31
0.0
  0
CIRCLE
  5
2A5
  8
DATA
  6
CONTINUOUS
 62
     7
 10
-659.0
 20
-817.0
 30
0.0
 40
3.2500000000003899
  0
LINE
  5
2A6
  8
DATA
  6
CONTINUOUS
 62
     7
 10
-659.0
 20
-819.0
 30
0.0
 11
-659.0
 21
-815.0
 31
0.0
  0
LINE
  5
2A7
  8
DATA
  6
CONTINUOUS
 62
     7
 10
-657.0
 20
-817.0
 30
0.0
 11
-661.0
 21
-817.0
 31
0.0
  0
CIRCLE
  5
2A8
  8
DATA
  6
CONTINUOUS
 62
     7
 10
-941.0
 20
-195.0
 30
0.0
 40
3.2500000000003899
  0
LINE
  5
2A9
  8
DATA
  6
CONTINUOUS
 62
     7
 10
-941.0
 20
-193.0
 30
0.0
 11
-941.0
 21
-197.0
 31
0.0
  0
LINE
  5
2AA
  8
DATA
  6
CONTINUOUS
 62
     7
 10
-943.0
 20
-195.0
 30
0.0
 11
-939.0
 21
-195.0
 31
0.0
  0
CIRCLE
  5
2AB
  8
DATA
  6
CONTINUOUS
 62
     7
 10
-659.0
 20
-195.0
 30
0.0
 40
3.2500000000003899
  0
LINE
  5
2AC
  8
DATA
  6
CONTINUOUS
 62
     7
 10
-659.0
 20
-193.0
 30
0.0
 11
-659.0
 21
-197.0
 31
0.0
  0
LINE
  5
2AD
  8
DATA
  6
CONTINUOUS
 62
     7
 10
-657.0
 20
-195.0
 30
0.0
 11
-661.0
 21
-195.0
 31
0.0
  0
LINE
  5
2AE
  8
DATA
  6
CONTINUOUS
 62
     7
 10
-989.0
 20
-854.0
 30
0.0
 11
-989.0
 21
-850.0
 31
0.0
  0
LINE
  5
2AF
  8
DATA
  6
CONTINUOUS
 62
     7
 10
-1029.0
 20
-854.0
 30
0.0
 11
-989.0
 21
-854.0
 31
0.0
  0
LINE
  5
2B0
  8
DATA
  6
CONTINUOUS
 62
     7
 10
-1029.0
 20
-850.0
 30
0.0
 11
-1029.0
 21
-854.0
 31
0.0
  0
LINE
  5
2B1
  8
DATA
  6
CONTINUOUS
 62
     7
 10
-1061.0
 20
-1072.6280063802151
 30
0.0
 11
-1061.0
 21
-1704.0
 31
0.0
  0
LINE
  5
2B2
  8
DATA
  6
CONTINUOUS
 62
     7
 10
-1041.0
 20
-1085.2560127604299
 30
0.0
 11
-1041.0
 21
-1684.0
 31
0.0
  0
LINE
  5
2B3
  8
DATA
  6
CONTINUOUS
 62
     7
 10
-641.10718545046348
 20
-1011.3775307378741
 30
0.0
 11
-550.40132839215312
 21
-1054.5707960037359
 31
0.0
  0
LINE
  5
2B4
  8
DATA
  6
CONTINUOUS
 62
     7
 10
-646.78824158392331
 20
-1030.824081816442
 30
0.0
 11
-570.40132839215323
 21
-1067.1988023839519
 31
0.0
  0
LINE
  5
2B5
  8
DATA
  6
CONTINUOUS
 62
     7
 10
-958.89281454955835
 20
-1011.3775307378839
 30
0.0
 11
-1049.598671607846
 21
-1054.5707960037359
 31
0.0
  0
LINE
  5
2B6
  8
DATA
  6
CONTINUOUS
 62
     7
 10
-953.21175841612455
 20
-1030.824081816465
 30
0.0
 11
-1029.598671607846
 21
-1067.1988023839519
 31
0.0
  0
LINE
  5
2B7
  8
DATA
  6
CONTINUOUS
 62
     7
 10
-539.00000000000011
 20
-1704.0
 30
0.0
 11
-539.00000000000011
 21
-1072.6280063802151
 31
0.0
  0
LINE
  5
2B8
  8
DATA
  6
CONTINUOUS
 62
     7
 10
-559.00000000000011
 20
-1684.0
 30
0.0
 11
-559.00000000000011
 21
-1085.2560127604299
 31
0.0
  0
LINE
  5
2B9
  8
DATA
  6
CONTINUOUS
 62
     7
 10
-1041.0
 20
-1724.0
 30
0.0
 11
-559.00000000000011
 21
-1724.0
 31
0.0
  0
LINE
  5
2BA
  8
DATA
  6
CONTINUOUS
 62
     7
 10
-1021.0
 20
-1704.0
 30
0.0
 11
-579.0
 21
-1704.0
 31
0.0
  0
ARC
  5
2BB
  8
DATA
  6
CONTINUOUS
 62
     7
 10
-800.00000000000011
 20
-2221.8000000000002
 30
0.0
 40
1221.8
 50
82.815921759893584
 51
97.184078240107524
  0
ARC
  5
2BC
  8
DATA
  6
CONTINUOUS
 62
     7
 10
-800.00000000000011
 20
-2221.8000000000002
 30
0.0
 40
1201.8
 50
82.971282780061017
 51
97.02871721994137
  0
ARC
  5
2BD
  8
DATA
  6
CONTINUOUS
 62
     7
 10
-1041.0
 20
-1704.0
 30
0.0
 40
20.0
 50
180.0
 51
270.0
  0
ARC
  5
2BE
  8
DATA
  6
CONTINUOUS
 62
     7
 10
-559.00000000000011
 20
-1704.0
 30
0.0
 40
20.0
 50
270.0
 51
0.0
  0
ARC
  5
2BF
  8
DATA
  6
CONTINUOUS
 62
     7
 10
-1041.0000000000009
 20
-1072.628006380216
 30
0.0
 40
20.00000000000005
 50
115.4633450618684
 51
179.99999999999869
  0
ARC
  5
2C0
  8
DATA
  6
CONTINUOUS
 62
     7
 10
-950.29414294169135
 20
-1029.4347411144049
 30
0.0
 40
20.00000000004648
 50
97.184078240150058
 51
115.46334506187119
  0
ARC
  5
2C1
  8
DATA
  6
CONTINUOUS
 62
     7
 10
-649.70585705826761
 20
-1029.434741114263
 30
0.0
 40
19.999999999900162
 50
64.536654938128066
 51
82.815921759983482
  0
ARC
  5
2C2
  8
DATA
  6
CONTINUOUS
 62
     7
 10
-559.00000000000011
 20
-1072.6280063802151
 30
0.0
 40
20.0
 50
359.99999999999937
 51
64.536654938128379
  0
ARC
  5
2C3
  8
DATA
  6
CONTINUOUS
 62
     7
 10
-1021.000000000001
 20
-1085.2560127604311
 30
0.0
 40
20.0
 50
115.4633450618681
 51
179.99999999999869
  0
ARC
  5
2C4
  8
DATA
  6
CONTINUOUS
 62
     7
 10
-944.61308680825368
 20
-1048.881292192993
 30
0.0
 40
20.000000000054381
 50
97.028717219990995
 51
115.463345061872
  0
ARC
  5
2C5
  8
DATA
  6
CONTINUOUS
 62
     7
 10
-655.38691319165355
 20
-1048.8812921926769
 30
0.0
 40
19.999999999729919
 50
64.536654938129544
 51
82.971282780306652
  0
ARC
  5
2C6
  8
DATA
  6
CONTINUOUS
 62
     7
 10
-579.0
 20
-1085.2560127604299
 30
0.0
 40
20.0
 50
359.99999999999801
 51
64.536654938127811
  0
ARC
  5
2C7
  8
DATA
  6
CONTINUOUS
 62
     7
 10
-579.0
 20
-1684.0
 30
0.0
 40
20.0
 50
270.0
 51
0.0
  0
ARC
  5
2C8
  8
DATA
  6
CONTINUOUS
 62
     7
 10
-1021.0
 20
-1684.0
 30
0.0
 40
19.999999999999879
 50
180.0
 51
270.0
  0
CIRCLE
  5
2C9
  8
DATA
  6
CONTINUOUS
 62
     7
 10
-591.00000000000011
 20
-1672.0
 30
0.0
 40
20.00000000000005
  0
CIRCLE
  5
2CA
  8
DATA
  6
CONTINUOUS
 62
     7
 10
-1009.0
 20
-1672.0
 30
0.0
 40
20.00000000000005
  0
CIRCLE
  5
2CB
  8
DATA
  6
CONTINUOUS
 62
     7
 10
-591.00000000000011
 20
-1092.0
 30
0.0
 40
19.999999999999929
  0
CIRCLE
  5
2CC
  8
DATA
  6
CONTINUOUS
 62
     7
 10
-1009.0
 20
-1092.0
 30
0.0
 40
19.999999999999929
  0
LINE
  5
2CD
  8
DATA
  6
CONTINUOUS
 62
     7
 10
-1061.0
 20
22.628006380215311
 30
0.0
 11
-1061.0
 21
654.0
 31
0.0
  0
LINE
  5
2CE
  8
DATA
  6
CONTINUOUS
 62
     7
 10
-1041.0
 20
35.256012760430629
 30
0.0
 11
-1041.0
 21
634.0
 31
0.0
  0
LINE
  5
2CF
  8
DATA
  6
CONTINUOUS
 62
     7
 10
-996.00000000000045
 20
60.51202552086103
 30
0.0
 11
-996.00000000000045
 21
594.0
 31
0.0
  0
LINE
  5
2D0
  8
DATA
  6
CONTINUOUS
 62
     7
 10
-641.10718545046382
 20
-38.622469262125371
 30
0.0
 11
-550.40132839215346
 21
4.5707960037366311
 31
0.0
  0
LINE
  5
2D1
  8
DATA
  6
CONTINUOUS
 62
     7
 10
-646.78824158392354
 20
-19.175918183557538
 30
0.0
 11
-570.40132839215346
 21
17.198802383951939
 31
0.0
  0
LINE
  5
2D2
  8
DATA
  6
CONTINUOUS
 62
     7
 10
-660.22299404987507
 20
24.26816642623567
 30
0.0
 11
-612.55099629411552
 21
46.969117738502057
 31
0.0
  0
LINE
  5
2D3
  8
DATA
  6
CONTINUOUS
 62
     7
 10
-958.89281454955858
 20
-38.622469262115153
 30
0.0
 11
-1049.5986716078471
 21
4.5707960037366311
 31
0.0
  0
LINE
  5
2D4
  8
DATA
  6
CONTINUOUS
 62
     7
 10
-953.21175841612455
 20
-19.175918183535028
 30
0.0
 11
-1029.5986716078471
 21
17.198802383951939
 31
0.0
  0
LINE
  5
2D5
  8
DATA
  6
CONTINUOUS
 62
     7
 10
-939.77700595010401
 20
24.268166426225442
 30
0.0
 11
-987.44900370588527
 21
46.969117738502057
 31
0.0
  0
LINE
  5
2D6
  8
DATA
  6
CONTINUOUS
 62
     7
 10
-539.00000000000045
 20
654.0
 30
0.0
 11
-539.00000000000045
 21
22.628006380215311
 31
0.0
  0
LINE
  5
2D7
  8
DATA
  6
CONTINUOUS
 62
     7
 10
-559.00000000000057
 20
634.0
 30
0.0
 11
-559.00000000000057
 21
35.256012760430629
 31
0.0
  0
LINE
  5
2D8
  8
DATA
  6
CONTINUOUS
 62
     7
 10
-604.00000000000057
 20
594.0
 30
0.0
 11
-604.00000000000057
 21
60.51202552086103
 31
0.0
  0
LINE
  5
2D9
  8
DATA
  6
CONTINUOUS
 62
     7
 10
-1041.0
 20
674.0
 30
0.0
 11
-559.00000000000057
 21
674.0
 31
0.0
  0
LINE
  5
2DA
  8
DATA
  6
CONTINUOUS
 62
     7
 10
-1021.0
 20
654.0
 30
0.0
 11
-579.00000000000045
 21
654.0
 31
0.0
  0
LINE
  5
2DB
  8
DATA
  6
CONTINUOUS
 62
     7
 10
-981.00000000000045
 20
609.0
 30
0.0
 11
-619.00000000000045
 21
609.0
 31
0.0
  0
ARC
  5
2DC
  8
DATA
  6
CONTINUOUS
 62
     7
 10
-800.00000000000034
 20
1171.8
 30
0.0
 40
1221.8
 50
262.81592175989249
 51
277.18407824010637
  0
ARC
  5
2DD
  8
DATA
  6
CONTINUOUS
 62
     7
 10
-800.00000000000034
 20
1171.8
 30
0.0
 40
1201.8
 50
262.97128278005857
 51
277.02871721993898
  0
ARC
  5
2DE
  8
DATA
  6
CONTINUOUS
 62
     7
 10
-800.00000000000034
 20
1171.8
 30
0.0
 40
1156.8
 50
263.29427269239352
 51
276.70572730760762
  0
ARC
  5
2DF
  8
DATA
  6
CONTINUOUS
 62
     7
 10
-1041.0
 20
654.0
 30
0.0
 40
20.0
 50
90.0
 51
180.0
  0
ARC
  5
2E0
  8
DATA
  6
CONTINUOUS
 62
     7
 10
-559.00000000000057
 20
654.0
 30
0.0
 40
20.0
 50
0.0
 51
90.0
  0
ARC
  5
2E1
  8
DATA
  6
CONTINUOUS
 62
     7
 10
-1041.0000000000009
 20
22.628006380215769
 30
0.0
 40
19.999999999999091
 50
180.00000000000131
 51
244.53665493813159
  0
ARC
  5
2E2
  8
DATA
  6
CONTINUOUS
 62
     7
 10
-950.29414294169192
 20
-20.56525888559441
 30
0.0
 40
20.000000000046612
 50
244.53665493812869
 51
262.81592175985003
  0
ARC
  5
2E3
  8
DATA
  6
CONTINUOUS
 62
     7
 10
-649.70585705826807
 20
-20.56525888573697
 30
0.0
 40
19.999999999899881
 50
277.1840782400165
 51
295.46334506187202
  0
ARC
  5
2E4
  8
DATA
  6
CONTINUOUS
 62
     7
 10
-559.00000000000057
 20
22.628006380215091
 30
0.0
 40
19.999999999999829
 50
295.46334506187162
 51
0.0000000000006821
  0
ARC
  5
2E5
  8
DATA
  6
CONTINUOUS
 62
     7
 10
-1021.000000000001
 20
35.256012760431076
 30
0.0
 40
19.999999999999091
 50
180.00000000000131
 51
244.53665493813159
  0
ARC
  5
2E6
  8
DATA
  6
CONTINUOUS
 62
     7
 10
-944.61308680825414
 20
-1.11870780700724
 30
0.0
 40
20.000000000054541
 50
244.53665493812801
 51
262.97128278000901
  0
ARC
  5
2E7
  8
DATA
  6
CONTINUOUS
 62
     7
 10
-655.386913191654
 20
-1.1187078073226071
 30
0.0
 40
19.999999999730228
 50
277.02871721969342
 51
295.46334506187048
  0
ARC
  5
2E8
  8
DATA
  6
CONTINUOUS
 62
     7
 10
-579.00000000000045
 20
35.256012760429932
 30
0.0
 40
19.99999999999941
 50
295.46334506187219
 51
0.0000000000019327
  0
ARC
  5
2E9
  8
DATA
  6
CONTINUOUS
 62
     7
 10
-579.00000000000045
 20
634.0
 30
0.0
 40
20.0
 50
0.0
 51
90.0
  0
ARC
  5
2EA
  8
DATA
  6
CONTINUOUS
 62
     7
 10
-1021.0
 20
634.0
 30
0.0
 40
20.0
 50
90.0
 51
180.0
  0
ARC
  5
2EB
  8
DATA
  6
CONTINUOUS
 62
     7
 10
-981.00000000000125
 20
60.512025520861698
 30
0.0
 40
14.999999999999091
 50
180.0000000000025
 51
244.53665493813349
  0
ARC
  5
2EC
  8
DATA
  6
CONTINUOUS
 62
     7
 10
-933.32800224422806
 20
37.81107420856415
 30
0.0
 40
14.999999999977691
 50
244.5366549381275
 51
263.29427269241802
  0
ARC
  5
2ED
  8
DATA
  6
CONTINUOUS
 62
     7
 10
-666.67199775581082
 20
37.811074208701712
 30
0.0
 40
15.000000000118799
 50
276.70572730775302
 51
295.46334506187043
  0
ARC
  5
2EE
  8
DATA
  6
CONTINUOUS
 62
     7
 10
-619.00000000000045
 20
60.51202552086103
 30
0.0
 40
14.99999999999987
 50
295.4633450618706
 51
0.0
  0
ARC
  5
2EF
  8
DATA
  6
CONTINUOUS
 62
     7
 10
-619.00000000000045
 20
594.0
 30
0.0
 40
15.0
 50
0.0
 51
90.0
  0
ARC
  5
2F0
  8
DATA
  6
CONTINUOUS
 62
     7
 10
-981.00000000000045
 20
594.0
 30
0.0
 40
15.0
 50
90.0
 51
180.0
  0
LINE
  5
2F1
  8
DATA
  6
CONTINUOUS
 62
     7
 10
989.0
 20
-854.0
 30
0.0
 11
989.0
 21
-850.0
 31
0.0
  0
LINE
  5
2F2
  8
DATA
  6
CONTINUOUS
 62
     7
 10
1029.0
 20
-854.0
 30
0.0
 11
989.0
 21
-854.0
 31
0.0
  0
LINE
  5
2F3
  8
DATA
  6
CONTINUOUS
 62
     7
 10
1029.0
 20
-850.0
 30
0.0
 11
1029.0
 21
-854.0
 31
0.0
  0
LINE
  5
2F4
  8
DATA
  6
CONTINUOUS
 62
     7
 10
611.0
 20
-854.0
 30
0.0
 11
611.0
 21
-850.0
 31
0.0
  0
LINE
  5
2F5
  8
DATA
  6
CONTINUOUS
 62
     7
 10
571.0
 20
-854.0
 30
0.0
 11
611.0
 21
-854.0
 31
0.0
  0
LINE
  5
2F6
  8
DATA
  6
CONTINUOUS
 62
     7
 10
571.0
 20
-850.0
 30
0.0
 11
571.0
 21
-854.0
 31
0.0
  0
LINE
  5
2F7
  8
DATA
  6
CONTINUOUS
 62
     7
 10
-955.91542087813491
 20
-162.0
 30
0.0
 11
-955.91542087813491
 21
-850.0
 31
0.0
  0
LINE
  5
2F8
  8
DATA
  6
CONTINUOUS
 62
     7
 10
-644.08457912186509
 20
-162.0
 30
0.0
 11
-644.08457912186509
 21
-850.0
 31
0.0
  0
TEXT
  5
2F9
  8
DATA
 62
     7
 10
712.49999999999955
 20
-1676.9955650000011
 30
0.0
 40
24.4326171875
  1
パワード・サブウーファー
 41
0.7
 11
712.49999999999955
 21
-1652.5629478124999
 31
0.0
 73
     3
  0
CIRCLE
  5
2FA
  8
DATA
  6
CONTINUOUS
 62
     7
 10
-800.00000000000034
 20
209.0
 30
0.0
 40
53.500000000000149
  0
CIRCLE
  5
2FB
  8
DATA
  6
CONTINUOUS
 62
     7
 10
-800.00000000000034
 20
209.0
 30
0.0
 40
51.499999999998877
  0
CIRCLE
  5
2FC
  8
DATA
  6
CONTINUOUS
 62
     7
 10
-800.00000000000034
 20
209.0
 30
0.0
 40
10.999999999999799
  0
CIRCLE
  5
2FD
  8
DATA
  6
CONTINUOUS
 62
     7
 10
-765.35898384862298
 20
228.99999999999989
 30
0.0
 40
6.0000000000001128
  0
CIRCLE
  5
2FE
  8
DATA
  6
CONTINUOUS
 62
     7
 10
-800.00000000000034
 20
169.0
 30
0.0
 40
6.0
  0
CIRCLE
  5
2FF
  8
DATA
  6
CONTINUOUS
 62
     7
 10
-834.64101615137781
 20
229.0
 30
0.0
 40
5.9999999999998996
  0
POLYLINE
  5
300
  8
DATA
  6
CONTINUOUS
 62
     7
 66
     1
 10
0.0
 20
0.0
 30
0.0
 70
     1
  0
VERTEX
  5
49C
  8
DATA
  6
CONTINUOUS
 62
     7
 10
-833.09804866896945
 20
230.27249807395799
 30
0.0
  0
VERTEX
  5
49D
  8
DATA
  6
CONTINUOUS
 62
     7
 10
-834.97154806848903
 20
230.97249807395809
 30
0.0
  0
VERTEX
  5
49E
  8
DATA
  6
CONTINUOUS
 62
     7
 10
-836.51451555089739
 20
229.7000000000003
 30
0.0
  0
VERTEX
  5
49F
  8
DATA
  6
CONTINUOUS
 62
     7
 10
-836.18398363378708
 20
227.7275019260405
 30
0.0
  0
VERTEX
  5
4A0
  8
DATA
  6
CONTINUOUS
 62
     7
 10
-834.31048423426785
 20
227.0275019260402
 30
0.0
  0
VERTEX
  5
4A1
  8
DATA
  6
CONTINUOUS
 62
     7
 10
-832.76751675185835
 20
228.2999999999999
 30
0.0
  0
SEQEND
  5
4A2
  8
DATA
  6
CONTINUOUS
 62
     7
  0
POLYLINE
  5
309
  8
DATA
  6
CONTINUOUS
 62
     7
 66
     1
 10
0.0
 20
0.0
 30
0.0
 70
     1
  0
VERTEX
  5
4A3
  8
DATA
  6
CONTINUOUS
 62
     7
 10
-763.8160163662144
 20
230.27249807395791
 30
0.0
  0
VERTEX
  5
4A4
  8
DATA
  6
CONTINUOUS
 62
     7
 10
-765.68951576573374
 20
230.97249807395801
 30
0.0
  0
VERTEX
  5
4A5
  8
DATA
  6
CONTINUOUS
 62
     7
 10
-767.23248324814222
 20
229.7000000000001
 30
0.0
  0
VERTEX
  5
4A6
  8
DATA
  6
CONTINUOUS
 62
     7
 10
-766.90195133103214
 20
227.72750192604039
 30
0.0
  0
VERTEX
  5
4A7
  8
DATA
  6
CONTINUOUS
 62
     7
 10
-765.02845193151268
 20
227.02750192604009
 30
0.0
  0
VERTEX
  5
4A8
  8
DATA
  6
CONTINUOUS
 62
     7
 10
-763.48548444910352
 20
228.2999999999997
 30
0.0
  0
SEQEND
  5
4A9
  8
DATA
  6
CONTINUOUS
 62
     7
  0
POLYLINE
  5
312
  8
DATA
  6
CONTINUOUS
 62
     7
 66
     1
 10
0.0
 20
0.0
 30
0.0
 70
     1
  0
VERTEX
  5
4AA
  8
DATA
  6
CONTINUOUS
 62
     7
 10
-798.45703251759221
 20
170.27249807395791
 30
0.0
  0
VERTEX
  5
4AB
  8
DATA
  6
CONTINUOUS
 62
     7
 10
-800.33053191711144
 20
170.97249807395809
 30
0.0
  0
VERTEX
  5
4AC
  8
DATA
  6
CONTINUOUS
 62
     7
 10
-801.87349939951969
 20
169.7000000000001
 30
0.0
  0
VERTEX
  5
4AD
  8
DATA
  6
CONTINUOUS
 62
     7
 10
-801.54296748240984
 20
167.72750192604039
 30
0.0
  0
VERTEX
  5
4AE
  8
DATA
  6
CONTINUOUS
 62
     7
 10
-799.66946808289038
 20
167.0275019260402
 30
0.0
  0
VERTEX
  5
4AF
  8
DATA
  6
CONTINUOUS
 62
     7
 10
-798.12650060048111
 20
168.2999999999997
 30
0.0
  0
SEQEND
  5
4B0
  8
DATA
  6
CONTINUOUS
 62
     7
  0
CIRCLE
  5
31B
  8
DATA
  6
CONTINUOUS
 62
     7
 10
-800.00000000000034
 20
209.0
 30
0.0
 40
9.9999999999996305
  0
TEXT
  5
31C
  8
DATA
 62
     7
 10
749.08394868847006
 20
-533.73144531249977
 30
0.0
 40
3.462890625
  1
+4
 41
0.7
 72
     1
 11
751.10396821972017
 21
-531.99999999999966
 31
0.0
 73
     2
  0
TEXT
  5
31D
  8
DATA
 62
     7
 10
747.8719369697202
 20
-538.23144531249977
 30
0.0
 40
3.462890625
  1
dBu
 41
0.7
 72
     1
 11
751.10396821972017
 21
-536.49999999999966
 31
0.0
 73
     2
  0
TEXT
  5
31E
  8
DATA
 62
     7
 10
749.08394868847006
 20
-565.73144531249966
 30
0.0
 40
3.462890625
  1
+4
 41
0.7
 72
     1
 11
751.10396821972017
 21
-563.99999999999966
 31
0.0
 73
     2
  0
TEXT
  5
31F
  8
DATA
 62
     7
 10
747.8719369697202
 20
-570.23144531249966
 30
0.0
 40
3.462890625
  1
dBu
 41
0.7
 72
     1
 11
751.10396821972017
 21
-568.49999999999966
 31
0.0
 73
     2
  0
TEXT
  5
320
  8
DATA
 62
     7
 10
742.73593749999986
 20
-504.6476703047723
 30
0.0
 40
3.462890625
  1
HIPASS
 41
0.7
 72
     1
 11
749.19999999999982
 21
-502.9162249922723
 31
0.0
 73
     2
  0
ARC
  5
321
  8
DATA
  6
CONTINUOUS
 62
     7
 10
606.94663394858037
 20
1395.757855227635
 30
0.0
 40
673.99763332817315
 50
254.3386225292773
 51
286.64436540140122
  0
ARC
  5
322
  8
DATA
  6
CONTINUOUS
 62
     7
 10
993.0533660514194
 20
104.24214477236509
 30
0.0
 40
673.99763332817304
 50
74.338622529277316
 51
106.6443654014012
  0
ARC
  5
323
  8
DATA
  6
CONTINUOUS
 62
     7
 10
606.94663394858037
 20
567.54095584091669
 30
0.0
 40
673.99763332817304
 50
254.3386225292773
 51
286.64436540140122
  0
ARC
  5
324
  8
DATA
  6
CONTINUOUS
 62
     7
 10
993.0533660514194
 20
-723.97475461435295
 30
0.0
 40
673.99763332817304
 50
74.338622529277316
 51
106.6443654014012
  0
TEXT
  5
325
  8
DATA
 62
     7
 10
573.04786598477608
 20
531.37692423125543
 30
0.0
 40
20.360514322916661
  1
POLARITY
 41
0.7
 72
     1
 11
625.30651941359565
 21
541.5571813927138
 31
0.0
 73
     2
  0
TEXT
  5
326
  8
DATA
 62
     7
 10
723.02985782505255
 20
436.93120483021312
 30
0.0
 40
17.314453125
  1
Signal
 41
0.7
 72
     1
 11
750.30012149692755
 21
445.58843139271301
 31
0.0
 73
     2
  0
TEXT
  5
327
  8
DATA
 62
     7
 10
830.09992618442755
 20
436.93120483021312
 30
0.0
 40
17.314453125
  1
Limit
 41
0.7
 72
     1
 11
850.30012149692766
 21
445.58843139271301
 31
0.0
 73
     2
  0
TEXT
  5
328
  8
DATA
 62
     7
 10
569.63975930654635
 20
471.33966320218423
 30
0.0
 40
17.314453125
  1
0\U+00B0
 41
0.7
 72
     1
 11
576.70982766592135
 21
479.99688976468411
 31
0.0
 73
     2
  0
TEXT
  5
329
  8
DATA
 62
     7
 10
672.55245748363416
 20
471.33966320218423
 30
0.0
 40
17.314453125
  1
180\U+00B0
 41
0.7
 72
     1
 11
689.72262349925904
 21
479.99688976468411
 31
0.0
 73
     2
  0
TEXT
  5
32A
  8
DATA
 62
     7
 10
956.19362592400898
 20
471.33966320218423
 30
0.0
 40
17.314453125
  1
ON
 41
0.7
 72
     1
 11
966.29372358025887
 21
479.99688976468411
 31
0.0
 73
     2
  0
TEXT
  5
32B
  8
DATA
 62
     7
 10
1063.1463631635961
 20
471.33966320218423
 30
0.0
 40
17.314453125
  1
OFF
 41
0.7
 72
     1
 11
1079.3065194135961
 21
479.99688976468411
 31
0.0
 73
     2
  0
TEXT
  5
32C
  8
DATA
 62
     7
 10
651.14910770854931
 20
278.3226298452293
 30
0.0
 40
17.314453125
  1
CH1
 41
0.7
 72
     1
 11
665.28924442729931
 21
286.97985640772941
 31
0.0
 73
     2
  0
LINE
  5
32D
  8
DATA
  6
CONTINUOUS
 62
     7
 10
692.94160562236573
 20
275.82801472604689
 30
0.0
 11
685.91682346067716
 21
298.13169808941171
 31
0.0
  0
LINE
  5
32E
  8
DATA
  6
CONTINUOUS
 62
     7
 10
637.63688323223391
 20
275.82801472604689
 30
0.0
 11
644.66166539392248
 21
298.13169808941171
 31
0.0
  0
LINE
  5
32F
  8
DATA
  6
CONTINUOUS
 62
     7
 10
644.66166539392248
 20
298.13169808941171
 30
0.0
 11
685.91682346067716
 21
298.13169808941171
 31
0.0
  0
TEXT
  5
330
  8
DATA
 62
     7
 10
659.59270248651455
 20
348.32924653551771
 30
0.0
 40
17.314453125
  1
FULL
 41
0.7
 72
     1
 11
681.81291733026455
 21
356.98647309801771
 31
0.0
 73
     2
  0
TEXT
  5
331
  8
DATA
 62
     7
 10
653.53264389276455
 20
325.8292465355176
 30
0.0
 40
17.314453125
  1
RANGE
 41
0.7
 72
     1
 11
681.81291733026455
 21
334.4864730980176
 31
0.0
 73
     2
  0
TEXT
  5
332
  8
DATA
 62
     7
 10
919.27248541789413
 20
278.3226298452293
 30
0.0
 40
17.314453125
  1
CH2
 41
0.7
 72
     1
 11
935.43264166789425
 21
286.97985640772941
 31
0.0
 73
     2
  0
LINE
  5
333
  8
DATA
  6
CONTINUOUS
 62
     7
 10
963.08500286295975
 20
275.82801472604689
 30
0.0
 11
956.06022070127062
 21
298.13169808941171
 31
0.0
  0
LINE
  5
334
  8
DATA
  6
CONTINUOUS
 62
     7
 10
907.78028047282771
 20
275.82801472604689
 30
0.0
 11
914.80506263451605
 21
298.13169808941171
 31
0.0
  0
LINE
  5
335
  8
DATA
  6
CONTINUOUS
 62
     7
 10
914.80506263451605
 20
298.13169808941171
 30
0.0
 11
956.06022070127062
 21
298.13169808941171
 31
0.0
  0
CIRCLE
  5
336
  8
DATA
  6
CONTINUOUS
 62
     7
 10
625.30651941359565
 20
383.32801472604689
 30
0.0
 40
20.0
  0
CIRCLE
  5
337
  8
DATA
  6
CONTINUOUS
 62
     7
 10
625.30651941359565
 20
448.32801472604689
 30
0.0
 40
10.00292916666621
  0
LINE
  5
338
  8
DATA
  6
CONTINUOUS
 62
     7
 10
578.31996259552625
 20
-14.17198527395305
 30
0.0
 11
578.31996259552852
 21
13.32801472604695
 31
0.0
  0
LINE
  5
339
  8
DATA
  6
CONTINUOUS
 62
     7
 10
997.28028039832896
 20
275.82801472604689
 30
0.0
 11
907.78028047282771
 21
275.82801472604689
 31
0.0
  0
ARC
  5
33A
  8
DATA
  6
CONTINUOUS
 62
     7
 10
997.28028039832896
 20
250.82801472604689
 30
0.0
 40
25.0
 50
0.0
 51
90.0
  0
LINE
  5
33B
  8
DATA
  6
CONTINUOUS
 62
     7
 10
462.80012149692772
 20
-90.862106636775707
 30
0.0
 11
462.80012149692772
 21
737.35479274994225
 31
0.0
  0
LINE
  5
33C
  8
DATA
  6
CONTINUOUS
 62
     7
 10
1137.800121496927
 20
762.5135071450394
 30
0.0
 11
1137.800121496927
 21
-65.703392241678785
 31
0.0
  0
CIRCLE
  5
33D
  8
DATA
  6
CONTINUOUS
 62
     7
 10
650.30012149917411
 20
38.328014726046952
 30
0.0
 40
8.2499999991796358
  0
CIRCLE
  5
33E
  8
DATA
  6
CONTINUOUS
 62
     7
 10
695.30012149468109
 20
38.328014726046952
 30
0.0
 40
8.2499999991705408
  0
CIRCLE
  5
33F
  8
DATA
  6
CONTINUOUS
 62
     7
 10
672.80012149692755
 20
38.328014726046952
 30
0.0
 40
59.999999993999992
  0
CIRCLE
  5
340
  8
DATA
  6
CONTINUOUS
 62
     7
 10
720.28732565884411
 20
-21.671985267952671
 30
0.0
 40
12.5
  0
LINE
  5
341
  8
DATA
  6
CONTINUOUS
 62
     7
 10
712.77452982550813
 20
-21.671985267952671
 30
0.0
 11
727.77452982550813
 21
-21.671985267952671
 31
0.0
  0
LINE
  5
342
  8
DATA
  6
CONTINUOUS
 62
     7
 10
720.28732565884411
 20
-14.166126934621049
 30
0.0
 11
720.28732565884411
 21
-29.166126934621051
 31
0.0
  0
CIRCLE
  5
343
  8
DATA
  6
CONTINUOUS
 62
     7
 10
625.31291733501121
 20
98.328014720046554
 30
0.0
 40
12.5
  0
LINE
  5
344
  8
DATA
  6
CONTINUOUS
 62
     7
 10
617.80012150167522
 20
98.328014720046554
 30
0.0
 11
632.80012150167522
 21
98.328014720046554
 31
0.0
  0
LINE
  5
345
  8
DATA
  6
CONTINUOUS
 62
     7
 10
625.31291733501121
 20
105.8338730533804
 30
0.0
 11
625.31291733501121
 21
90.833873053380415
 31
0.0
  0
CIRCLE
  5
346
  8
DATA
  6
CONTINUOUS
 62
     7
 10
672.80012149692755
 20
38.328014726046952
 30
0.0
 40
48.750000078407894
  0
CIRCLE
  5
347
  8
DATA
  6
CONTINUOUS
 62
     7
 10
672.80012149692755
 20
58.078014724072418
 30
0.0
 40
8.2499999991705408
  0
CIRCLE
  5
348
  8
DATA
  6
CONTINUOUS
 62
     7
 10
927.80012149692766
 20
198.32801472604689
 30
0.0
 40
39.499999261879928
  0
CIRCLE
  5
349
  8
DATA
  6
CONTINUOUS
 62
     7
 10
927.80012149692766
 20
198.32801472604689
 30
0.0
 40
48.749999995125918
  0
CIRCLE
  5
34A
  8
DATA
  6
CONTINUOUS
 62
     7
 10
927.80012149692766
 20
198.32801472604689
 30
0.0
 40
59.99999999400103
  0
LINE
  5
34B
  8
DATA
  6
CONTINUOUS
 62
     7
 10
939.80012149572497
 20
235.96111185765119
 30
0.0
 11
939.80012149572497
 21
235.96111108706131
 31
0.0
  0
LINE
  5
34C
  8
DATA
  6
CONTINUOUS
 62
     7
 10
913.55012149834931
 20
235.16803972236249
 30
0.0
 11
913.55012149834931
 21
235.16803893518349
 31
0.0
  0
ARC
  5
34D
  8
DATA
  6
CONTINUOUS
 62
     7
 10
905.30012149917411
 20
198.32801472604689
 30
0.0
 40
9.9999999990004742
 50
32.089183874050867
 51
327.91081612594922
  0
ARC
  5
34E
  8
DATA
  6
CONTINUOUS
 62
     7
 10
950.30012149467666
 20
198.32801472604689
 30
0.0
 40
9.9999999990004742
 50
212.0891838740508
 51
147.91081612594911
  0
ARC
  5
34F
  8
DATA
  6
CONTINUOUS
 62
     7
 10
927.80012149692766
 20
178.57801472801921
 30
0.0
 40
9.9999999990038528
 50
137.8522840898888
 51
42.14771591012866
  0
ARC
  5
350
  8
DATA
  6
CONTINUOUS
 62
     7
 10
900.57650983297867
 20
225.55162472332401
 30
0.0
 40
3.9999999996035531
 50
56.612913999968789
 51
213.38708600002079
  0
ARC
  5
351
  8
DATA
  6
CONTINUOUS
 62
     7
 10
927.80012149692766
 20
198.32801472604689
 30
0.0
 40
14.999999999998719
 50
20.741916485081301
 51
159.25808351492461
  0
ARC
  5
352
  8
DATA
  6
CONTINUOUS
 62
     7
 10
927.80012149692766
 20
198.32801472604689
 30
0.0
 40
15.00000000000297
 50
200.74191648507511
 51
240.37783679919201
  0
ARC
  5
353
  8
DATA
  6
CONTINUOUS
 62
     7
 10
927.80012149692766
 20
198.32801472604689
 30
0.0
 40
14.999999999998209
 50
299.6221632007933
 51
339.25808351491872
  0
CIRCLE
  5
354
  8
DATA
  6
CONTINUOUS
 62
     7
 10
975.30012149217555
 20
138.32801473204731
 30
0.0
 40
12.5
  0
LINE
  5
355
  8
DATA
  6
CONTINUOUS
 62
     7
 10
967.78732565884388
 20
138.32801473204731
 30
0.0
 11
982.78732565884388
 21
138.32801473204731
 31
0.0
  0
LINE
  5
356
  8
DATA
  6
CONTINUOUS
 62
     7
 10
975.30012149217555
 20
145.83387306537901
 30
0.0
 11
975.30012149217555
 21
130.8338730653789
 31
0.0
  0
CIRCLE
  5
357
  8
DATA
  6
CONTINUOUS
 62
     7
 10
880.28732566834367
 20
258.33387305338039
 30
0.0
 40
12.5
  0
LINE
  5
358
  8
DATA
  6
CONTINUOUS
 62
     7
 10
872.77452983501234
 20
258.33387305338039
 30
0.0
 11
887.77452983501234
 21
258.33387305338039
 31
0.0
  0
LINE
  5
359
  8
DATA
  6
CONTINUOUS
 62
     7
 10
880.28732566834367
 20
265.83973138671212
 30
0.0
 11
880.28732566834367
 21
250.83973138671209
 31
0.0
  0
LINE
  5
35A
  8
DATA
  6
CONTINUOUS
 62
     7
 10
915.80012149812535
 20
245.57801472132121
 30
0.0
 11
915.80012149812535
 21
256.84670831433738
 31
0.0
  0
LINE
  5
35B
  8
DATA
  6
CONTINUOUS
 62
     7
 10
939.80012149572497
 20
245.5780147213224
 30
0.0
 11
939.80012149572497
 21
256.84670831433738
 31
0.0
  0
CIRCLE
  5
35C
  8
DATA
  6
CONTINUOUS
 62
     7
 10
672.80012149692755
 20
198.32801472604689
 30
0.0
 40
39.499999261879928
  0
CIRCLE
  5
35D
  8
DATA
  6
CONTINUOUS
 62
     7
 10
672.80012149692755
 20
198.32801472604689
 30
0.0
 40
48.749999995125918
  0
CIRCLE
  5
35E
  8
DATA
  6
CONTINUOUS
 62
     7
 10
672.80012149692755
 20
198.32801472604689
 30
0.0
 40
59.99999999400103
  0
LINE
  5
35F
  8
DATA
  6
CONTINUOUS
 62
     7
 10
684.80012149572519
 20
235.96111185765119
 30
0.0
 11
684.80012149572519
 21
235.96111108706131
 31
0.0
  0
LINE
  5
360
  8
DATA
  6
CONTINUOUS
 62
     7
 10
658.5501214983492
 20
235.16803972236249
 30
0.0
 11
658.5501214983492
 21
235.16803893518349
 31
0.0
  0
ARC
  5
361
  8
DATA
  6
CONTINUOUS
 62
     7
 10
650.30012149917411
 20
198.32801472604689
 30
0.0
 40
9.9999999990004742
 50
32.089183874050867
 51
327.91081612594922
  0
ARC
  5
362
  8
DATA
  6
CONTINUOUS
 62
     7
 10
695.30012149467666
 20
198.32801472604689
 30
0.0
 40
9.9999999990004742
 50
212.0891838740508
 51
147.91081612594911
  0
ARC
  5
363
  8
DATA
  6
CONTINUOUS
 62
     7
 10
672.80012149692755
 20
178.57801472801921
 30
0.0
 40
9.9999999990038528
 50
137.8522840898888
 51
42.14771591012866
  0
ARC
  5
364
  8
DATA
  6
CONTINUOUS
 62
     7
 10
645.5765098329789
 20
225.55162472332401
 30
0.0
 40
3.9999999996035531
 50
56.612913999968789
 51
213.38708600002079
  0
ARC
  5
365
  8
DATA
  6
CONTINUOUS
 62
     7
 10
672.80012149692755
 20
198.32801472604689
 30
0.0
 40
14.999999999998719
 50
20.741916485081301
 51
159.25808351492461
  0
ARC
  5
366
  8
DATA
  6
CONTINUOUS
 62
     7
 10
672.80012149692755
 20
198.32801472604689
 30
0.0
 40
15.00000000000297
 50
200.74191648507511
 51
240.37783679919119
  0
ARC
  5
367
  8
DATA
  6
CONTINUOUS
 62
     7
 10
672.80012149692755
 20
198.32801472604689
 30
0.0
 40
14.999999999998209
 50
299.6221632007933
 51
339.25808351491872
  0
CIRCLE
  5
368
  8
DATA
  6
CONTINUOUS
 62
     7
 10
720.30012149217555
 20
138.32801473204731
 30
0.0
 40
12.5
  0
LINE
  5
369
  8
DATA
  6
CONTINUOUS
 62
     7
 10
712.78732565884411
 20
138.32801473204731
 30
0.0
 11
727.78732565884411
 21
138.32801473204731
 31
0.0
  0
LINE
  5
36A
  8
DATA
  6
CONTINUOUS
 62
     7
 10
720.30012149217555
 20
145.83387306537901
 30
0.0
 11
720.30012149217555
 21
130.8338730653789
 31
0.0
  0
CIRCLE
  5
36B
  8
DATA
  6
CONTINUOUS
 62
     7
 10
625.28732566834378
 20
258.33387305338039
 30
0.0
 40
12.5
  0
LINE
  5
36C
  8
DATA
  6
CONTINUOUS
 62
     7
 10
617.77452983501234
 20
258.33387305338039
 30
0.0
 11
632.77452983501234
 21
258.33387305338039
 31
0.0
  0
LINE
  5
36D
  8
DATA
  6
CONTINUOUS
 62
     7
 10
625.28732566834378
 20
265.83973138671212
 30
0.0
 11
625.28732566834378
 21
250.83973138671209
 31
0.0
  0
LINE
  5
36E
  8
DATA
  6
CONTINUOUS
 62
     7
 10
660.80012149812546
 20
245.57801472132121
 30
0.0
 11
660.80012149812546
 21
256.84670831433738
 31
0.0
  0
LINE
  5
36F
  8
DATA
  6
CONTINUOUS
 62
     7
 10
684.80012149572519
 20
245.5780147213224
 30
0.0
 11
684.80012149572519
 21
256.84670831433738
 31
0.0
  0
CIRCLE
  5
370
  8
DATA
  6
CONTINUOUS
 62
     7
 10
750.30012149692755
 20
415.82801472604689
 30
0.0
 40
7.5
  0
CIRCLE
  5
371
  8
DATA
  6
CONTINUOUS
 62
     7
 10
850.30012149692766
 20
415.82801472604689
 30
0.0
 40
7.4999999999992619
  0
CIRCLE
  5
372
  8
DATA
  6
CONTINUOUS
 62
     7
 10
625.30651941359565
 20
508.32801472604677
 30
0.0
 40
20.0
  0
CIRCLE
  5
373
  8
DATA
  6
CONTINUOUS
 62
     7
 10
625.30651941359565
 20
573.32801472604694
 30
0.0
 40
10.00292916666621
  0
CIRCLE
  5
374
  8
DATA
  6
CONTINUOUS
 62
     7
 10
1022.800121496928
 20
508.32801472604677
 30
0.0
 40
20.0
  0
CIRCLE
  5
375
  8
DATA
  6
CONTINUOUS
 62
     7
 10
1022.800121496928
 20
573.32801472604694
 30
0.0
 40
10.00292916666621
  0
TEXT
  5
376
  8
DATA
 62
     7
 10
769.4200081071707
 20
188.14775756458911
 30
0.0
 40
20.360514322916661
  1
INPUT
 41
0.7
 72
     1
 11
800.30012149692766
 21
198.32801472604751
 31
0.0
 73
     2
  0
TEXT
  5
377
  8
DATA
 62
     7
 10
774.17079478251799
 20
28.147757564589181
 30
0.0
 40
20.360514322916661
  1
THRU
 41
0.7
 72
     1
 11
800.30012149692766
 21
38.328014726047513
 31
0.0
 73
     2
  0
LINE
  5
378
  8
DATA
  6
CONTINUOUS
 62
     7
 10
603.31996259552625
 20
275.82801472604689
 30
0.0
 11
692.94160562236573
 21
275.82801472604689
 31
0.0
  0
ARC
  5
379
  8
DATA
  6
CONTINUOUS
 62
     7
 10
603.31996259552625
 20
250.82801472604689
 30
0.0
 40
25.0
 50
90.0
 51
180.0
  0
TEXT
  5
37A
  8
DATA
 62
     7
 10
776.54618811994601
 20
385.80369366832031
 30
0.0
 40
20.360514322916661
  1
GAIN
 41
0.7
 72
     1
 11
800.30012149668198
 21
395.98395082977862
 31
0.0
 73
     2
  0
TEXT
  5
37B
  8
DATA
 62
     7
 10
963.89036672262205
 20
531.37692423125509
 30
0.0
 40
20.360514322916661
  1
FRONT LED
 41
0.7
 72
     1
 11
1022.800121496928
 21
541.55718139271335
 31
0.0
 73
     2
  0
LINE
  5
37C
  8
DATA
  6
CONTINUOUS
 62
     7
 10
588.80012149692675
 20
498.32801472604689
 30
0.0
 11
548.80012149692675
 21
498.32801472604689
 31
0.0
  0
LINE
  5
37D
  8
DATA
  6
CONTINUOUS
 62
     7
 10
556.30012149692675
 20
498.32801472604689
 30
0.0
 11
556.30012149692675
 21
508.32801472604677
 31
0.0
  0
LINE
  5
37E
  8
DATA
  6
CONTINUOUS
 62
     7
 10
581.30012149692675
 20
508.32801472604677
 30
0.0
 11
581.30012149692675
 21
498.32801472604689
 31
0.0
  0
LINE
  5
37F
  8
DATA
  6
CONTINUOUS
 62
     7
 10
556.30012149692675
 20
508.32801472604677
 30
0.0
 11
581.30012149692675
 21
508.32801472604677
 31
0.0
  0
LINE
  5
380
  8
DATA
  6
CONTINUOUS
 62
     7
 10
701.81291733026444
 20
498.32801472604689
 30
0.0
 11
661.81291733026455
 21
498.32801472604689
 31
0.0
  0
LINE
  5
381
  8
DATA
  6
CONTINUOUS
 62
     7
 10
669.31291733026455
 20
498.32801472604689
 30
0.0
 11
669.31291733026455
 21
523.32801472604694
 31
0.0
  0
LINE
  5
382
  8
DATA
  6
CONTINUOUS
 62
     7
 10
694.31291733026444
 20
523.32801472604694
 30
0.0
 11
694.31291733026444
 21
498.32801472604689
 31
0.0
  0
LINE
  5
383
  8
DATA
  6
CONTINUOUS
 62
     7
 10
669.31291733026455
 20
513.32801472604694
 30
0.0
 11
694.31291733026444
 21
513.32801472604694
 31
0.0
  0
LINE
  5
384
  8
DATA
  6
CONTINUOUS
 62
     7
 10
669.31291733026455
 20
523.32801472604694
 30
0.0
 11
694.31291733026444
 21
523.32801472604694
 31
0.0
  0
LINE
  5
385
  8
DATA
  6
CONTINUOUS
 62
     7
 10
986.29372358025898
 20
498.32801472604689
 30
0.0
 11
946.29372358025898
 21
498.32801472604689
 31
0.0
  0
LINE
  5
386
  8
DATA
  6
CONTINUOUS
 62
     7
 10
953.79372358025887
 20
498.32801472604689
 30
0.0
 11
953.79372358025887
 21
508.32801472604677
 31
0.0
  0
LINE
  5
387
  8
DATA
  6
CONTINUOUS
 62
     7
 10
978.79372358025887
 20
508.32801472604677
 30
0.0
 11
978.79372358025887
 21
498.32801472604689
 31
0.0
  0
LINE
  5
388
  8
DATA
  6
CONTINUOUS
 62
     7
 10
953.79372358025887
 20
508.32801472604677
 30
0.0
 11
978.79372358025887
 21
508.32801472604677
 31
0.0
  0
LINE
  5
389
  8
DATA
  6
CONTINUOUS
 62
     7
 10
1099.3065194135961
 20
498.32801472604689
 30
0.0
 11
1059.3065194135961
 21
498.32801472604689
 31
0.0
  0
LINE
  5
38A
  8
DATA
  6
CONTINUOUS
 62
     7
 10
1066.8065194135961
 20
498.32801472604689
 30
0.0
 11
1066.8065194135961
 21
523.32801472604694
 31
0.0
  0
LINE
  5
38B
  8
DATA
  6
CONTINUOUS
 62
     7
 10
1091.8065194135961
 20
523.32801472604694
 30
0.0
 11
1091.8065194135961
 21
498.32801472604689
 31
0.0
  0
LINE
  5
38C
  8
DATA
  6
CONTINUOUS
 62
     7
 10
1066.8065194135961
 20
513.32801472604694
 30
0.0
 11
1091.8065194135961
 21
513.32801472604694
 31
0.0
  0
LINE
  5
38D
  8
DATA
  6
CONTINUOUS
 62
     7
 10
1066.8065194135961
 20
523.32801472604694
 30
0.0
 11
1091.8065194135961
 21
523.32801472604694
 31
0.0
  0
TEXT
  5
38E
  8
DATA
 62
     7
 10
965.7906813927608
 20
586.3798533979209
 30
0.0
 40
20.360514322916661
  1
PWR/STBY
 41
0.7
 72
     1
 11
1022.800121496928
 21
596.56011055937915
 31
0.0
 73
     2
  0
CIRCLE
  5
38F
  8
DATA
  6
CONTINUOUS
 62
     7
 10
1117.400121496928
 20
633.32801472604694
 30
0.0
 40
12.50000000000111
  0
LINE
  5
390
  8
DATA
  6
CONTINUOUS
 62
     7
 10
1124.900121496928
 20
633.32801472604694
 30
0.0
 11
1109.900121496928
 21
633.32801472604694
 31
0.0
  0
LINE
  5
391
  8
DATA
  6
CONTINUOUS
 62
     7
 10
1117.800121496927
 20
640.82801472604694
 30
0.0
 11
1117.800121496927
 21
625.82801472604694
 31
0.0
  0
CIRCLE
  5
392
  8
DATA
  6
CONTINUOUS
 62
     7
 10
1117.400121496928
 20
93.328014726048053
 30
0.0
 40
12.50000000000111
  0
LINE
  5
393
  8
DATA
  6
CONTINUOUS
 62
     7
 10
1124.900121496928
 20
93.328014726048053
 30
0.0
 11
1109.900121496928
 21
93.328014726048053
 31
0.0
  0
LINE
  5
394
  8
DATA
  6
CONTINUOUS
 62
     7
 10
1117.800121496927
 20
100.828014726048
 30
0.0
 11
1117.800121496927
 21
85.828014726048082
 31
0.0
  0
CIRCLE
  5
395
  8
DATA
  6
CONTINUOUS
 62
     7
 10
483.2001214969273
 20
633.32801472604694
 30
0.0
 40
12.50000000000111
  0
LINE
  5
396
  8
DATA
  6
CONTINUOUS
 62
     7
 10
475.7001214969273
 20
633.32801472604694
 30
0.0
 11
490.7001214969273
 21
633.32801472604694
 31
0.0
  0
LINE
  5
397
  8
DATA
  6
CONTINUOUS
 62
     7
 10
482.80012149692772
 20
640.82801472604694
 30
0.0
 11
482.80012149692772
 21
625.82801472604694
 31
0.0
  0
CIRCLE
  5
398
  8
DATA
  6
CONTINUOUS
 62
     7
 10
483.2001214969273
 20
93.328014726048053
 30
0.0
 40
12.50000000000111
  0
LINE
  5
399
  8
DATA
  6
CONTINUOUS
 62
     7
 10
475.7001214969273
 20
93.328014726048053
 30
0.0
 11
490.7001214969273
 21
93.328014726048053
 31
0.0
  0
LINE
  5
39A
  8
DATA
  6
CONTINUOUS
 62
     7
 10
482.80012149692772
 20
100.828014726048
 30
0.0
 11
482.80012149692772
 21
85.828014726048082
 31
0.0
  0
TEXT
  5
39B
  8
DATA
 62
     7
 10
614.14562117140497
 20
621.24557657500509
 30
0.0
 40
61.08154296875
  1
PRX718XLF
 41
0.7
 72
     1
 11
792.30012149692584
 21
651.78634805938009
 31
0.0
 73
     2
  0
TEXT
  5
39C
  8
DATA
 62
     7
 10
566.39676463929004
 20
406.37692423125509
 30
0.0
 40
20.360514322916661
  1
PASS THRU
 41
0.7
 72
     1
 11
625.30651941359565
 21
416.5571813927134
 31
0.0
 73
     2
  0
LINE
  5
39D
  8
DATA
  6
CONTINUOUS
 62
     7
 10
588.80012149692675
 20
373.32801472604689
 30
0.0
 11
548.80012149692675
 21
373.32801472604689
 31
0.0
  0
LINE
  5
39E
  8
DATA
  6
CONTINUOUS
 62
     7
 10
556.30012149692675
 20
373.32801472604689
 30
0.0
 11
556.30012149692675
 21
383.32801472604689
 31
0.0
  0
LINE
  5
39F
  8
DATA
  6
CONTINUOUS
 62
     7
 10
581.30012149692675
 20
383.32801472604689
 30
0.0
 11
581.30012149692675
 21
373.32801472604689
 31
0.0
  0
LINE
  5
3A0
  8
DATA
  6
CONTINUOUS
 62
     7
 10
556.30012149692675
 20
383.32801472604689
 30
0.0
 11
581.30012149692675
 21
383.32801472604689
 31
0.0
  0
LINE
  5
3A1
  8
DATA
  6
CONTINUOUS
 62
     7
 10
701.81291733026444
 20
373.32801472604689
 30
0.0
 11
661.81291733026455
 21
373.32801472604689
 31
0.0
  0
LINE
  5
3A2
  8
DATA
  6
CONTINUOUS
 62
     7
 10
669.31291733026455
 20
373.32801472604689
 30
0.0
 11
669.31291733026455
 21
398.32801472604689
 31
0.0
  0
LINE
  5
3A3
  8
DATA
  6
CONTINUOUS
 62
     7
 10
694.31291733026444
 20
398.32801472604689
 30
0.0
 11
694.31291733026444
 21
373.32801472604689
 31
0.0
  0
LINE
  5
3A4
  8
DATA
  6
CONTINUOUS
 62
     7
 10
669.31291733026455
 20
388.32801472604689
 30
0.0
 11
694.31291733026444
 21
388.32801472604689
 31
0.0
  0
LINE
  5
3A5
  8
DATA
  6
CONTINUOUS
 62
     7
 10
669.31291733026455
 20
398.32801472604689
 30
0.0
 11
694.31291733026444
 21
398.32801472604689
 31
0.0
  0
CIRCLE
  5
3A6
  8
DATA
  6
CONTINUOUS
 62
     7
 10
800.30012149668198
 20
333.328014725657
 30
0.0
 40
32.499999999996909
  0
LINE
  5
3A7
  8
DATA
  6
CONTINUOUS
 62
     7
 10
819.40314219619017
 20
307.03496240846761
 30
0.0
 11
829.68938411130455
 21
292.87716500690721
 31
0.0
  0
LINE
  5
3A8
  8
DATA
  6
CONTINUOUS
 62
     7
 10
831.20945827627781
 20
343.37106704284417
 30
0.0
 11
847.85294731143699
 21
348.77886444440452
 31
0.0
  0
LINE
  5
3A9
  8
DATA
  6
CONTINUOUS
 62
     7
 10
800.30012149668198
 20
365.828014725657
 30
0.0
 11
800.30012149668198
 21
383.32801472565689
 31
0.0
  0
LINE
  5
3AA
  8
DATA
  6
CONTINUOUS
 62
     7
 10
769.39078471708615
 20
343.37106704284417
 30
0.0
 11
752.74729568192674
 21
348.77886444440452
 31
0.0
  0
LINE
  5
3AB
  8
DATA
  6
CONTINUOUS
 62
     7
 10
781.19710079986135
 20
307.0349624121817
 30
0.0
 11
770.91085888205953
 21
292.8771650069117
 31
0.0
  0
LINE
  5
3AC
  8
DATA
  6
CONTINUOUS
 62
     7
 10
787.77647859670412
 20
311.837445017954
 30
0.0
 11
784.7504407129486
 21
307.67246118409469
 31
0.0
  0
LINE
  5
3AD
  8
DATA
  6
CONTINUOUS
 62
     7
 10
798.27757901098948
 20
334.7974778567762
 30
0.0
 11
798.12913308935777
 21
334.59315957407819
 31
0.0
  0
LINE
  5
3AE
  8
DATA
  6
CONTINUOUS
 62
     7
 10
783.73139362482789
 20
314.77637127941392
 30
0.0
 11
780.7053557410768
 21
310.6113874455578
 31
0.0
  0
LINE
  5
3AF
  8
DATA
  6
CONTINUOUS
 62
     7
 10
768.29386952378388
 20
338.97158049983278
 30
0.0
 11
760.90781137619376
 21
340.27394183233429
 31
0.0
  0
LINE
  5
3B0
  8
DATA
  6
CONTINUOUS
 62
     7
 10
767.81991961856181
 20
334.46224836848921
 30
0.0
 11
760.32448841591975
 21
334.72399459375731
 31
0.0
  0
LINE
  5
3B1
  8
DATA
  6
CONTINUOUS
 62
     7
 10
767.97815989720903
 20
329.93083966945932
 30
0.0
 11
760.51924568195079
 21
329.14687619495191
 31
0.0
  0
LINE
  5
3B2
  8
DATA
  6
CONTINUOUS
 62
     7
 10
768.76551039271135
 20
325.46555311866848
 30
0.0
 11
761.48829244564467
 21
323.6511389016718
 31
0.0
  0
LINE
  5
3B3
  8
DATA
  6
CONTINUOUS
 62
     7
 10
770.16664622325823
 20
321.15330043963888
 30
0.0
 11
763.2127673140144
 21
318.34375098902188
 31
0.0
  0
LINE
  5
3B4
  8
DATA
  6
CONTINUOUS
 62
     7
 10
772.15429587369033
 20
317.07801472565927
 30
0.0
 11
765.65910534530519
 21
313.32801472565808
 31
0.0
  0
LINE
  5
3B5
  8
DATA
  6
CONTINUOUS
 62
     7
 10
774.689772004465
 20
313.3190167775748
 30
0.0
 11
768.77969135241744
 21
308.70155571263211
 31
0.0
  0
LINE
  5
3B6
  8
DATA
  6
CONTINUOUS
 62
     7
 10
777.72372445676183
 20
309.94947121465168
 30
0.0
 11
772.51378667832569
 21
304.5544227121124
 31
0.0
  0
LINE
  5
3B7
  8
DATA
  6
CONTINUOUS
 62
     7
 10
822.8765185365977
 20
309.9494712146539
 30
0.0
 11
828.08645631504305
 21
304.55442271211012
 31
0.0
  0
LINE
  5
3B8
  8
DATA
  6
CONTINUOUS
 62
     7
 10
825.91047098889942
 20
313.31901677757588
 30
0.0
 11
831.82055164095095
 21
308.70155571263211
 31
0.0
  0
LINE
  5
3B9
  8
DATA
  6
CONTINUOUS
 62
     7
 10
828.44594711967818
 20
317.07801472565478
 30
0.0
 11
834.94113764806332
 21
313.328014725657
 31
0.0
  0
LINE
  5
3BA
  8
DATA
  6
CONTINUOUS
 62
     7
 10
830.43359677010574
 20
321.15330043963888
 30
0.0
 11
837.38747567935877
 21
318.34375098901972
 31
0.0
  0
LINE
  5
3BB
  8
DATA
  6
CONTINUOUS
 62
     7
 10
831.83473260065273
 20
325.46555311866513
 30
0.0
 11
839.11195054771952
 21
323.65113890167061
 31
0.0
  0
LINE
  5
3BC
  8
DATA
  6
CONTINUOUS
 62
     7
 10
832.6220830961505
 20
329.93083966945687
 30
0.0
 11
840.08099731141317
 21
329.14687619495191
 31
0.0
  0
LINE
  5
3BD
  8
DATA
  6
CONTINUOUS
 62
     7
 10
832.78032337480226
 20
334.46224836849029
 30
0.0
 11
840.27575457744888
 21
334.72399459375731
 31
0.0
  0
LINE
  5
3BE
  8
DATA
  6
CONTINUOUS
 62
     7
 10
832.30637346958042
 20
338.97158049983278
 30
0.0
 11
839.69243161716565
 21
340.27394183233321
 31
0.0
  0
LINE
  5
3BF
  8
DATA
  6
CONTINUOUS
 62
     7
 10
829.51092800140702
 20
347.57507699630168
 30
0.0
 11
836.25188334864811
 21
350.86286059721908
 31
0.0
  0
LINE
  5
3C0
  8
DATA
  6
CONTINUOUS
 62
     7
 10
827.24384260472345
 20
351.50178408845892
 30
0.0
 11
833.46162439888064
 21
355.6957308644856
 31
0.0
  0
LINE
  5
3C1
  8
DATA
  6
CONTINUOUS
 62
     7
 10
824.45232832470299
 20
355.07475943232032
 30
0.0
 11
830.02591451577916
 21
360.09323898001151
 31
0.0
  0
LINE
  5
3C2
  8
DATA
  6
CONTINUOUS
 62
     7
 10
821.19071881149705
 20
358.22445912702239
 30
0.0
 11
826.01162588414581
 21
363.96979245041808
 31
0.0
  0
LINE
  5
3C3
  8
DATA
  6
CONTINUOUS
 62
     7
 10
817.52249758426603
 20
360.88957785074138
 30
0.0
 11
821.49689206600908
 21
367.24993857191248
 31
0.0
  0
LINE
  5
3C4
  8
DATA
  6
CONTINUOUS
 62
     7
 10
813.51906239664675
 20
363.01824209903742
 30
0.0
 11
816.56958721971239
 21
369.8698330313614
 31
0.0
  0
LINE
  5
3C5
  8
DATA
  6
CONTINUOUS
 62
     7
 10
809.25833556073258
 20
364.56901984365197
 30
0.0
 11
811.32561572936299
 21
371.77848256318811
 31
0.0
  0
LINE
  5
3C6
  8
DATA
  6
CONTINUOUS
 62
     7
 10
804.82324727788398
 20
365.5117269597572
 30
0.0
 11
805.86704553508514
 21
372.93873747531472
 31
0.0
  0
LINE
  5
3C7
  8
DATA
  6
CONTINUOUS
 62
     7
 10
795.77699571548465
 20
365.51172695973003
 30
0.0
 11
794.73319745827882
 21
372.93873747531921
 31
0.0
  0
LINE
  5
3C8
  8
DATA
  6
CONTINUOUS
 62
     7
 10
791.34190743262695
 20
364.56901984365771
 30
0.0
 11
789.27462726400086
 21
371.77848256318572
 31
0.0
  0
LINE
  5
3C9
  8
DATA
  6
CONTINUOUS
 62
     7
 10
787.08118059671722
 20
363.01824209904419
 30
0.0
 11
784.03065577364703
 21
369.86983303135918
 31
0.0
  0
LINE
  5
3CA
  8
DATA
  6
CONTINUOUS
 62
     7
 10
783.07774540910702
 20
360.88957785074138
 30
0.0
 11
779.10335092735079
 21
367.24993857191708
 31
0.0
  0
LINE
  5
3CB
  8
DATA
  6
CONTINUOUS
 62
     7
 10
779.4095241818718
 20
358.22445912702477
 30
0.0
 11
774.58861710921815
 21
363.96979245041598
 31
0.0
  0
LINE
  5
3CC
  8
DATA
  6
CONTINUOUS
 62
     7
 10
776.14791466867018
 20
355.07475943232032
 30
0.0
 11
770.57432847758503
 21
360.09323898001151
 31
0.0
  0
LINE
  5
3CD
  8
DATA
  6
CONTINUOUS
 62
     7
 10
773.35640038864074
 20
351.50178408845437
 30
0.0
 11
767.13861859447866
 21
355.6957308644856
 31
0.0
  0
LINE
  5
3CE
  8
DATA
  6
CONTINUOUS
 62
     7
 10
771.08931499195694
 20
347.57507699630168
 30
0.0
 11
764.34835964472074
 21
350.86286059721681
 31
0.0
  0
ARC
  5
3CF
  8
DATA
  6
CONTINUOUS
 62
     7
 10
803.43597539471125
 20
363.1636715867042
 30
0.0
 40
2.499999999995056
 50
351.61198453549321
 51
176.38801546444381
  0
ARC
  5
3D0
  8
DATA
  6
CONTINUOUS
 62
     7
 10
800.30012149666368
 20
333.32801472563312
 30
0.0
 40
29.999999999969841
 50
238.78019184717519
 51
229.2198081527709
  0
ARC
  5
3D1
  8
DATA
  6
CONTINUOUS
 62
     7
 10
800.30012149692766
 20
333.32801472604689
 30
0.0
 40
25.000000000461959
 50
239.73026269141371
 51
228.26082952287271
  0
ARC
  5
3D2
  8
DATA
  6
CONTINUOUS
 62
     7
 10
792.95280584304021
 20
323.21530229601387
 30
0.0
 40
12.500000000044141
 50
245.53695903275849
 51
222.4630409672217
  0
ARC
  5
3D3
  8
DATA
  6
CONTINUOUS
 62
     7
 10
788.09802220439212
 20
360.73437845493771
 30
0.0
 40
2.500000000002367
 50
21.61198453550028
 51
206.38801546441189
  0
ARC
  5
3D4
  8
DATA
  6
CONTINUOUS
 62
     7
 10
776.0296116654057
 20
350.96157229443031
 30
0.0
 40
2.4999999999989608
 50
51.61198453558476
 51
236.38801546443511
  0
ARC
  5
3D5
  8
DATA
  6
CONTINUOUS
 62
     7
 10
770.46446463559494
 20
336.46386862367609
 30
0.0
 40
2.4999999999979319
 50
81.611984535581826
 51
266.38801546441653
  0
ARC
  5
3D6
  8
DATA
  6
CONTINUOUS
 62
     7
 10
772.89375776736279
 20
321.12591543335918
 30
0.0
 40
2.5000000000010911
 50
111.6119845355679
 51
296.38801546446189
  0
ARC
  5
3D7
  8
DATA
  6
CONTINUOUS
 62
     7
 10
782.66656392786683
 20
309.05750489437162
 30
0.0
 40
2.4999999999988818
 50
144.00000000006671
 51
324.00000000004798
  0
ARC
  5
3D8
  8
DATA
  6
CONTINUOUS
 62
     7
 10
797.16426759862554
 20
303.492357864562
 30
0.0
 40
2.499999999999555
 50
171.6119845355083
 51
356.38801546446609
  0
ARC
  5
3D9
  8
DATA
  6
CONTINUOUS
 62
     7
 10
812.50222078893546
 20
305.92165099633092
 30
0.0
 40
2.5000000000032041
 50
201.6119845355488
 51
26.388015464390971
  0
ARC
  5
3DA
  8
DATA
  6
CONTINUOUS
 62
     7
 10
824.57063132792644
 20
315.69445715683588
 30
0.0
 40
2.4999999999991109
 50
231.6119845354545
 51
56.388015464435071
  0
ARC
  5
3DB
  8
DATA
  6
CONTINUOUS
 62
     7
 10
830.13577835773265
 20
330.19216082759118
 30
0.0
 40
2.5000000000001821
 50
261.61198453558939
 51
86.388015464419794
  0
ARC
  5
3DC
  8
DATA
  6
CONTINUOUS
 62
     7
 10
827.70648522596946
 20
345.53011401790701
 30
0.0
 40
2.4999999999983591
 50
291.61198453548059
 51
116.3880154644466
  0
ARC
  5
3DD
  8
DATA
  6
CONTINUOUS
 62
     7
 10
817.93367906546109
 20
357.59852455689457
 30
0.0
 40
2.5000000000039369
 50
321.6119845356086
 51
146.3880154644277
  0
CIRCLE
  5
3DE
  8
DATA
  6
CONTINUOUS
 62
     7
 10
905.30012149917411
 20
38.328014726046952
 30
0.0
 40
8.2499999991796358
  0
CIRCLE
  5
3DF
  8
DATA
  6
CONTINUOUS
 62
     7
 10
950.30012149468109
 20
38.328014726046952
 30
0.0
 40
8.2499999991705408
  0
CIRCLE
  5
3E0
  8
DATA
  6
CONTINUOUS
 62
     7
 10
927.80012149692766
 20
38.328014726046952
 30
0.0
 40
59.999999993999992
  0
CIRCLE
  5
3E1
  8
DATA
  6
CONTINUOUS
 62
     7
 10
975.287325658844
 20
-21.671985267952671
 30
0.0
 40
12.5
  0
LINE
  5
3E2
  8
DATA
  6
CONTINUOUS
 62
     7
 10
967.77452982550801
 20
-21.671985267952671
 30
0.0
 11
982.7745298255079
 21
-21.671985267952671
 31
0.0
  0
LINE
  5
3E3
  8
DATA
  6
CONTINUOUS
 62
     7
 10
975.287325658844
 20
-14.166126934621049
 30
0.0
 11
975.287325658844
 21
-29.166126934621051
 31
0.0
  0
CIRCLE
  5
3E4
  8
DATA
  6
CONTINUOUS
 62
     7
 10
880.31291733501132
 20
98.328014720046554
 30
0.0
 40
12.5
  0
LINE
  5
3E5
  8
DATA
  6
CONTINUOUS
 62
     7
 10
872.80012150167511
 20
98.328014720046554
 30
0.0
 11
887.80012150167522
 21
98.328014720046554
 31
0.0
  0
LINE
  5
3E6
  8
DATA
  6
CONTINUOUS
 62
     7
 10
880.31291733501132
 20
105.8338730533804
 30
0.0
 11
880.31291733501132
 21
90.833873053380415
 31
0.0
  0
CIRCLE
  5
3E7
  8
DATA
  6
CONTINUOUS
 62
     7
 10
927.80012149692766
 20
38.328014726046952
 30
0.0
 40
48.750000078407894
  0
CIRCLE
  5
3E8
  8
DATA
  6
CONTINUOUS
 62
     7
 10
927.80012149692766
 20
58.078014724072418
 30
0.0
 40
8.2499999991705408
  0
ARC
  5
3E9
  8
DATA
  6
CONTINUOUS
 62
     7
 10
997.28028039832896
 20
-14.17198527395305
 30
0.0
 40
25.0
 50
270.0
 51
0.0
  0
LINE
  5
3EA
  8
DATA
  6
CONTINUOUS
 62
     7
 10
603.31996259552625
 20
-39.171985273953062
 30
0.0
 11
732.78732565884411
 21
-39.171985273953062
 31
0.0
  0
ARC
  5
3EB
  8
DATA
  6
CONTINUOUS
 62
     7
 10
603.31996259552625
 20
-14.17198527395305
 30
0.0
 40
25.0
 50
180.0
 51
270.0
  0
LINE
  5
3EC
  8
DATA
  6
CONTINUOUS
 62
     7
 10
1022.280280398329
 20
-14.17198527395305
 30
0.0
 11
1022.280280398329
 21
250.82801472604689
 31
0.0
  0
LINE
  5
3ED
  8
DATA
  6
CONTINUOUS
 62
     7
 10
997.28028039832896
 20
-39.171985273953062
 30
0.0
 11
867.81291733501132
 21
-39.171985273953062
 31
0.0
  0
LINE
  5
3EE
  8
DATA
  6
CONTINUOUS
 62
     7
 10
578.31996259552852
 20
63.328014726046952
 30
0.0
 11
578.31996259552852
 21
173.32801472604689
 31
0.0
  0
LINE
  5
3EF
  8
DATA
  6
CONTINUOUS
 62
     7
 10
578.31996259552852
 20
223.32801472604689
 30
0.0
 11
578.31996259552625
 21
250.82801472604689
 31
0.0
  0
TEXT
  5
3F0
  8
DATA
 62
     7
 10
568.21986493927852
 20
200.92078816354689
 30
0.0
 40
17.314453125
  1
+4
 41
0.7
 72
     1
 11
578.31996259552852
 21
209.57801472604689
 31
0.0
 73
     2
  0
TEXT
  5
3F1
  8
DATA
 62
     7
 10
562.15980634552852
 20
178.42078816354689
 30
0.0
 40
17.314453125
  1
dBu
 41
0.7
 72
     1
 11
578.31996259552852
 21
187.07801472604689
 31
0.0
 73
     2
  0
TEXT
  5
3F2
  8
DATA
 62
     7
 10
568.21986493927852
 20
40.920788163546952
 30
0.0
 40
17.314453125
  1
+4
 41
0.7
 72
     1
 11
578.31996259552852
 21
49.578014726046952
 31
0.0
 73
     2
  0
TEXT
  5
3F3
  8
DATA
 62
     7
 10
562.15980634552852
 20
18.420788163546941
 30
0.0
 40
17.314453125
  1
dBu
 41
0.7
 72
     1
 11
578.31996259552852
 21
27.078014726046948
 31
0.0
 73
     2
  0
TEXT
  5
3F4
  8
DATA
 62
     7
 10
536.47980899692675
 20
346.33966320218423
 30
0.0
 40
17.314453125
  1
HIPASS
 41
0.7
 72
     1
 11
568.80012149692675
 21
354.99688976468423
 31
0.0
 73
     2
  0
ENDSEC
  0
EOF
