  0
SECTION
  2
HEADER
  9
$ACADVER
  1
AC1009
  9
$INSBASE
 10
0.0
 20
0.0
 30
0.0
  9
$EXTMIN
 10
-1800.1098548994739
 20
-2685.0693655312512
 30
-0.0015258207003583
  9
$EXTMAX
 10
1800.109871663281
 20
2667.2675001401681
 30
0.0000000349246037
  9
$LIMMIN
 10
0.0
 20
0.0
  9
$LIMMAX
 10
0.0
 20
0.0
  9
$ORTHOMODE
 70
     0
  9
$REGENMODE
 70
     1
  9
$FILLMODE
 70
     1
  9
$QTEXTMODE
 70
     0
  9
$MIRRTEXT
 70
     1
  9
$DRAGMODE
 70
     2
  9
$LTSCALE
 40
254.0
  9
$OSMODE
 70
   231
  9
$ATTMODE
 70
     1
  9
$TEXTSIZE
 40
0.0
  9
$TRACEWID
 40
1.0
  9
$TEXTSTYLE
  7
STANDARD
  9
$CLAYER
  8
DATA
  9
$CELTYPE
  6
BYLAYER
  9
$CECOLOR
 62
   256
  9
$DIMSCALE
 40
1.0
  9
$DIMASZ
 40
0.18
  9
$DIMEXO
 40
0.0625
  9
$DIMDLI
 40
0.38
  9
$DIMRND
 40
0.0
  9
$DIMDLE
 40
0.0
  9
$DIMEXE
 40
0.18
  9
$DIMTP
 40
0.0
  9
$DIMTM
 40
0.0
  9
$DIMTXT
 40
0.18
  9
$DIMCEN
 40
0.09
  9
$DIMTSZ
 40
0.0
  9
$DIMTOL
 70
     0
  9
$DIMLIM
 70
     0
  9
$DIMTIH
 70
     1
  9
$DIMTOH
 70
     1
  9
$DIMSE1
 70
     0
  9
$DIMSE2
 70
     0
  9
$DIMTAD
 70
     0
  9
$DIMZIN
 70
     0
  9
$DIMBLK
  1

  9
$DIMASO
 70
     1
  9
$DIMSHO
 70
     1
  9
$DIMPOST
  1

  9
$DIMAPOST
  1

  9
$DIMALT
 70
     0
  9
$DIMALTD
 70
     2
  9
$DIMALTF
 40
25.399999999999999
  9
$DIMLFAC
 40
1.0
  9
$DIMTOFL
 70
     0
  9
$DIMTVP
 40
0.0
  9
$DIMTIX
 70
     0
  9
$DIMSOXD
 70
     0
  9
$DIMSAH
 70
     0
  9
$DIMBLK1
  1

  9
$DIMBLK2
  1

  9
$DIMSTYLE
  2
STANDARD
  9
$DIMCLRD
 70
     0
  9
$DIMCLRE
 70
     0
  9
$DIMCLRT
 70
     0
  9
$DIMTFAC
 40
1.0
  9
$DIMGAP
 40
0.09
  9
$LUNITS
 70
     2
  9
$LUPREC
 70
     4
  9
$SKETCHINC
 40
0.1
  9
$FILLETRAD
 40
0.0
  9
$AUNITS
 70
     0
  9
$AUPREC
 70
     0
  9
$MENU
  1
acad
  9
$ELEVATION
 40
0.0
  9
$PELEVATION
 40
0.0
  9
$THICKNESS
 40
0.0
  9
$LIMCHECK
 70
     0
  9
$BLIPMODE
 70
     0
  9
$CHAMFERA
 40
0.0
  9
$CHAMFERB
 40
0.0
  9
$SKPOLY
 70
     0
  9
$TDCREATE
 40
2456693.7642824068
  9
$TDUPDATE
 40
2456693.7741289702
  9
$TDINDWG
 40
0.0003402431
  9
$TDUSRTIMER
 40
0.000340162
  9
$USRTIMER
 70
     1
  9
$ANGBASE
 50
0.0
  9
$ANGDIR
 70
     0
  9
$PDMODE
 70
     1
  9
$PDSIZE
 40
-2.0
  9
$PLINEWID
 40
0.0
  9
$COORDS
 70
     2
  9
$SPLFRAME
 70
     0
  9
$SPLINETYPE
 70
     6
  9
$SPLINESEGS
 70
     8
  9
$ATTDIA
 70
     0
  9
$ATTREQ
 70
     1
  9
$HANDLING
 70
     1
  9
$HANDSEED
  5
68F
  9
$SURFTAB1
 70
     6
  9
$SURFTAB2
 70
     6
  9
$SURFTYPE
 70
     6
  9
$SURFU
 70
     6
  9
$SURFV
 70
     6
  9
$UCSNAME
  2

  9
$UCSORG
 10
0.0
 20
0.0
 30
0.0
  9
$UCSXDIR
 10
1.0
 20
0.0
 30
0.0
  9
$UCSYDIR
 10
0.0
 20
1.0
 30
0.0
  9
$PUCSNAME
  2

  9
$PUCSORG
 10
0.0
 20
0.0
 30
0.0
  9
$PUCSXDIR
 10
1.0
 20
0.0
 30
0.0
  9
$PUCSYDIR
 10
0.0
 20
1.0
 30
0.0
  9
$USERI1
 70
     0
  9
$USERI2
 70
     0
  9
$USERI3
 70
     0
  9
$USERI4
 70
     0
  9
$USERI5
 70
     0
  9
$USERR1
 40
0.0
  9
$USERR2
 40
0.0
  9
$USERR3
 40
0.0
  9
$USERR4
 40
0.0
  9
$USERR5
 40
0.0
  9
$WORLDVIEW
 70
     1
  9
$SHADEDGE
 70
     3
  9
$SHADEDIF
 70
    70
  9
$TILEMODE
 70
     1
  9
$MAXACTVP
 70
    64
  9
$PLIMCHECK
 70
     0
  9
$PEXTMIN
 10
1.0000000000000000E+020
 20
1.0000000000000000E+020
 30
1.0000000000000000E+020
  9
$PEXTMAX
 10
-1.0000000000000000E+020
 20
-1.0000000000000000E+020
 30
-1.0000000000000000E+020
  9
$PLIMMIN
 10
0.0
 20
0.0
  9
$PLIMMAX
 10
12.0
 20
9.0
  9
$UNITMODE
 70
     0
  9
$VISRETAIN
 70
     0
  9
$PLINEGEN
 70
     1
  9
$PSLTSCALE
 70
     0
  0
ENDSEC
  0
SECTION
  2
TABLES
  0
TABLE
  2
VPORT
 70
     1
  0
VPORT
  2
*ACTIVE
 70
     0
 10
0.0
 20
0.0
 11
1.0
 21
1.0
 12
0.000008381902262
 22
-3.5318025638807731
 13
0.0
 23
0.0
 14
1.0
 24
1.0
 15
0.0
 25
0.0
 16
0.0
 26
0.0
 36
1.0
 17
0.0
 27
0.0
 37
0.0
 40
5383.6584369467428
 41
2.1787122207621552
 42
50.0
 43
0.0
 44
0.0
 50
0.0
 51
0.0
 71
     0
 72
  2000
 73
     1
 74
     1
 75
     0
 76
     0
 77
     0
 78
     0
  0
ENDTAB
  0
TABLE
  2
LTYPE
 70
    12
  0
LTYPE
  2
CONTINUOUS
 70
     0
  3
Solid line
 72
    65
 73
     0
 40
0.0
  0
ENDTAB
  0
TABLE
  2
LAYER
 70
     5
  0
LAYER
  2
0
 70
     0
 62
     7
  6
CONTINUOUS
  0
LAYER
  2
DATA
 70
     0
 62
     7
  6
CONTINUOUS
  0
LAYER
  2
HIBINO-BASE
 70
     0
 62
     7
  6
CONTINUOUS
  0
LAYER
  2
SPEC
 70
     0
 62
     7
  6
CONTINUOUS
  0
LAYER
  2
DIMNSIONS
 70
     0
 62
     7
  6
CONTINUOUS
  0
ENDTAB
  0
TABLE
  2
STYLE
 70
     3
  0
STYLE
  2
STANDARD
 70
     0
 40
0.0
 41
1.0
 50
0.0
 71
     0
 42
0.0
  3
txt
  4
BIGFONT.SHX
  0
ENDTAB
  0
TABLE
  2
VIEW
 70
     0
  0
ENDTAB
  0
TABLE
  2
UCS
 70
     0
  0
ENDTAB
  0
TABLE
  2
APPID
 70
     4
  0
APPID
  2
ACAD
 70
     0
  0
APPID
  2
ACADANNOTATIVE
 70
     0
  0
APPID
  2
ACAD_NAV_VCDISPLAY
 70
     0
  0
APPID
  2
ACAD_MLEADERVER
 70
     0
  0
ENDTAB
  0
TABLE
  2
DIMSTYLE
 70
     2
  0
DIMSTYLE
  2
STANDARD
 70
     0
  3

  4

  5

  6

  7

 40
1.0
 41
0.18
 42
0.0625
 43
0.38
 44
0.18
 45
0.0
 46
0.0
 47
0.0
 48
0.0
140
0.18
141
0.09
142
0.0
143
25.399999999999999
144
1.0
145
0.0
146
1.0
147
0.09
 71
     0
 72
     0
 73
     1
 74
     1
 75
     0
 76
     0
 77
     0
 78
     0
170
     0
171
     2
172
     0
173
     0
174
     0
175
     0
176
     0
177
     0
178
     0
  0
ENDTAB
  0
ENDSEC
  0
SECTION
  2
BLOCKS
  0
BLOCK
  8
0
  2
$MODEL_SPACE
 70
     0
 10
0.0
 20
0.0
 30
0.0
  3
$MODEL_SPACE
  1

  0
ENDBLK
  5
618
  8
0
  0
BLOCK
 67
     1
  8
0
  2
$PAPER_SPACE
 70
     0
 10
0.0
 20
0.0
 30
0.0
  3
$PAPER_SPACE
  1

  0
ENDBLK
  5
614
 67
     1
  8
0
  0
ENDSEC
  0
SECTION
  2
ENTITIES
  0
LINE
  5
2D
  8
HIBINO-BASE
  6
CONTINUOUS
 62
     7
 10
-1800.0
 20
2667.1044850000012
 30
0.0
 11
1800.0
 21
2667.1044850000012
 31
0.0
  0
LINE
  5
2E
  8
HIBINO-BASE
  6
CONTINUOUS
 62
     7
 10
1800.0
 20
-2532.8955150000002
 30
0.0
 11
-1800.0
 21
-2532.8955150000002
 31
0.0
  0
LINE
  5
2F
  8
HIBINO-BASE
  6
CONTINUOUS
 62
     7
 10
-1800.0
 20
-2532.8955150000002
 30
0.0
 11
-1800.0
 21
2667.1044850000012
 31
0.0
  0
LINE
  5
30
  8
HIBINO-BASE
  6
CONTINUOUS
 62
     7
 10
1800.0
 20
2667.1044850000012
 30
0.0
 11
1800.0
 21
-2532.8955150000002
 31
0.0
  0
LINE
  5
31
  8
HIBINO-BASE
  6
CONTINUOUS
 62
     7
 10
0.0000000000001421
 20
-2082.8955150000002
 30
0.0
 11
1800.0
 21
-2082.8955150000002
 31
0.0
  0
LINE
  5
32
  8
HIBINO-BASE
  6
CONTINUOUS
 62
     7
 10
0.0000000000001421
 20
-2532.8955150000002
 30
0.0
 11
0.0000000000001421
 21
-2082.8955150000002
 31
0.0
  0
TEXT
  5
33
  8
HIBINO-BASE
 62
     7
 10
18.000000000000249
 20
-2133.0693816666671
 30
0.0
 40
32.576822916666671
  1
NOTE
 41
0.7
 11
18.000000000000249
 21
-2100.4925587500002
 31
0.0
 73
     3
  0
LINE
  5
34
  8
HIBINO-BASE
  6
CONTINUOUS
 62
     7
 10
700.00000000000045
 20
-2532.8955150000002
 30
0.0
 11
700.00000000000045
 21
-2082.8955150000002
 31
0.0
  0
TEXT
  5
35
  8
HIBINO-BASE
 62
     7
 10
718.0
 20
-2133.0693816666671
 30
0.0
 40
32.576822916666671
  1
TITLE
 41
0.7
 11
718.0
 21
-2100.4925587500002
 31
0.0
 73
     3
  0
LINE
  5
36
  8
HIBINO-BASE
  6
CONTINUOUS
 62
     7
 10
0.0000000000001421
 20
-2332.8955150000002
 30
0.0
 11
1800.0
 21
-2332.8955150000002
 31
0.0
  0
TEXT
  5
37
  8
HIBINO-BASE
 62
     7
 10
967.99999999999955
 20
-2381.942981666667
 30
0.0
 40
32.576822916666671
  1
DRAWN
 41
0.7
 11
967.99999999999955
 21
-2349.3661587500001
 31
0.0
 73
     3
  0
TEXT
  5
38
  8
HIBINO-BASE
 62
     7
 10
468.0
 20
-2381.942981666667
 30
0.0
 40
32.576822916666671
  1
DATE
 41
0.7
 11
468.0
 21
-2349.3661587500001
 31
0.0
 73
     3
  0
TEXT
  5
39
  8
HIBINO-BASE
 62
     7
 10
268.0
 20
-2381.942981666667
 30
0.0
 40
32.576822916666671
  1
SCALE
 41
0.7
 11
268.0
 21
-2349.3661587500001
 31
0.0
 73
     3
  0
TEXT
  5
3A
  8
HIBINO-BASE
 62
     7
 10
718.0
 20
-2381.942981666667
 30
0.0
 40
32.576822916666671
  1
DESIGN
 41
0.7
 11
718.0
 21
-2349.3661587500001
 31
0.0
 73
     3
  0
TEXT
  5
3B
  8
HIBINO-BASE
 62
     7
 10
1468.0
 20
-2381.942981666667
 30
0.0
 40
32.576822916666671
  1
DRAWING NO.
 41
0.7
 11
1468.0
 21
-2349.3661587500001
 31
0.0
 73
     3
  0
TEXT
  5
3C
  8
HIBINO-BASE
 62
     7
 10
1218.0
 20
-2381.942981666667
 30
0.0
 40
32.576822916666671
  1
CHECK
 41
0.7
 11
1218.0
 21
-2349.3661587500001
 31
0.0
 73
     3
  0
LINE
  5
3D
  8
HIBINO-BASE
  6
CONTINUOUS
 62
     7
 10
287.5
 20
-2507.8955150000002
 30
0.0
 11
362.50000000000051
 21
-2432.8955150000002
 31
0.0
  0
TEXT
  5
3E
  8
HIBINO-BASE
 62
     7
 10
275.0
 20
-2455.0743816666682
 30
0.0
 40
32.576822916666671
  1
1
 41
0.7
 11
275.0
 21
-2422.4975587500012
 31
0.0
 73
     3
  0
LINE
  5
3F
  8
HIBINO-BASE
  6
CONTINUOUS
 62
     7
 10
250.00000000000011
 20
-2532.8955150000002
 30
0.0
 11
250.00000000000011
 21
-2332.8955150000002
 31
0.0
  0
LINE
  5
40
  8
HIBINO-BASE
  6
CONTINUOUS
 62
     7
 10
449.99999999999989
 20
-2532.8955150000002
 30
0.0
 11
449.99999999999989
 21
-2332.8955150000002
 31
0.0
  0
LINE
  5
41
  8
HIBINO-BASE
  6
CONTINUOUS
 62
     7
 10
949.99999999999955
 20
-2332.8955150000002
 30
0.0
 11
949.99999999999955
 21
-2532.8955150000002
 31
0.0
  0
LINE
  5
42
  8
HIBINO-BASE
  6
CONTINUOUS
 62
     7
 10
1450.0
 20
-2332.8955150000002
 30
0.0
 11
1450.0
 21
-2532.8955150000002
 31
0.0
  0
LINE
  5
43
  8
HIBINO-BASE
  6
CONTINUOUS
 62
     7
 10
1200.0
 20
-2532.8955150000002
 30
0.0
 11
1200.0
 21
-2332.8955150000002
 31
0.0
  0
TEXT
  5
44
  8
HIBINO-BASE
 62
     7
 10
467.13080000000031
 20
-2475.6225816666661
 30
0.0
 40
32.576822916666671
  1
'14.01.
 41
0.7
 11
467.13080000000031
 21
-2443.04575875
 31
0.0
 73
     3
  0
TEXT
  5
45
  8
HIBINO-BASE
 62
     7
 10
350.0
 20
-2492.5743816666668
 30
0.0
 40
32.576822916666671
  1
20
 41
0.7
 11
350.0
 21
-2459.9975587500012
 31
0.0
 73
     3
  0
TEXT
  5
46
  8
HIBINO-BASE
 62
     7
 10
980.11620022069235
 20
-2475.6225816666661
 30
0.0
 40
32.576822916666671
  1
N.Sasaki
 41
0.7
 11
980.11620022069235
 21
-2443.04575875
 31
0.0
 73
     3
  0
TEXT
  5
47
  8
HIBINO-BASE
 62
     7
 10
77.666666666667226
 20
-2493.3755150000002
 30
0.0
 40
65.153645833333329
  1
A4
 41
0.7
 11
77.666666666667226
 21
-2428.2218691666671
 31
0.0
 73
     3
  0
TEXT
  5
48
  8
HIBINO-BASE
 62
     7
 10
19.16666666666671
 20
-2385.284615
 30
0.0
 40
32.576822916666671
  1
PAPER SIZE
 41
0.7
 11
19.16666666666671
 21
-2352.7077920833331
 31
0.0
 73
     3
  0
TEXT
  5
49
  8
HIBINO-BASE
 62
     7
 10
-1656.319999999999
 20
-2661.0690710000008
 30
0.0
 40
72.000883593749975
  1
Hibino Corporation
 41
0.7
 11
-1656.319999999999
 21
-2589.0681874062511
 31
0.0
 73
     3
  0
TEXT
  5
4A
  8
HIBINO-BASE
 62
     7
 10
1001.3678
 20
-2661.0690710000008
 30
0.0
 40
72.000883593749975
  1
ヒビノ株式会社
 41
0.7
 11
1001.3678
 21
-2589.0681874062511
 31
0.0
 73
     3
  0
LINE
  5
4B
  8
SPEC
  6
CONTINUOUS
 62
     7
 10
-1649.9999999999991
 20
2467.1044849999998
 30
0.0
 11
1299.999992625
 21
2467.1044849999998
 31
0.0
  0
LINE
  5
4C
  8
SPEC
  6
CONTINUOUS
 62
     7
 10
-1649.9999999999991
 20
2392.1044851874999
 30
0.0
 11
1299.999992625
 21
2392.1044851874999
 31
0.0
  0
LINE
  5
4D
  8
SPEC
  6
CONTINUOUS
 62
     7
 10
-1649.9999999999991
 20
1192.1044881875
 30
0.0
 11
1299.999992625
 21
1192.1044881875
 31
0.0
  0
LINE
  5
4E
  8
SPEC
  6
CONTINUOUS
 62
     7
 10
-1649.9999999999991
 20
1267.1044879999999
 30
0.0
 11
1299.999992625
 21
1267.1044879999999
 31
0.0
  0
LINE
  5
4F
  8
SPEC
  6
CONTINUOUS
 62
     7
 10
-1649.9999999999991
 20
2467.1044849999998
 30
0.0
 11
-1649.9999999999991
 21
1192.1044881874991
 31
0.0
  0
TEXT
  5
50
  8
SPEC
 62
     7
 10
-1625.0000000624991
 20
2494.9698849303359
 30
0.0
 40
48.865234252836913
  1
仕様
 41
0.7
 11
-1625.0000000624991
 21
2543.835119183173
 31
0.0
 73
     3
  0
LINE
  5
51
  8
SPEC
  6
CONTINUOUS
 62
     7
 10
-733.33333562500013
 20
2467.1044849999998
 30
0.0
 11
-733.33333562500013
 21
1192.1044881874991
 31
0.0
  0
LINE
  5
52
  8
SPEC
  6
CONTINUOUS
 62
     7
 10
1299.999992625
 20
2467.1044849999998
 30
0.0
 11
1299.999992625
 21
1192.1044881874991
 31
0.0
  0
TEXT
  5
53
  8
SPEC
 62
     7
 10
-1632.000000045
 20
1286.824487844513
 30
0.0
 40
38.006293402777779
  1
寸法(W\U+00D7H\U+00D7D)
 41
0.7
 11
-1632.000000045
 21
1324.830781247291
 31
0.0
 73
     3
  0
TEXT
  5
54
  8
SPEC
 62
     7
 10
-1632.000000045
 20
1211.8244880320131
 30
0.0
 40
38.006293402777779
  1
質量
 41
0.7
 11
-1632.000000045
 21
1249.8307814347911
 31
0.0
 73
     3
  0
TEXT
  5
55
  8
SPEC
 62
     7
 10
-715.33333567000079
 20
1211.8244880320131
 30
0.0
 40
38.006293402777779
  1
37kg
 41
0.7
 11
-715.33333567000079
 21
1249.8307814347911
 31
0.0
 73
     3
  0
LINE
  5
56
  8
SPEC
  6
CONTINUOUS
 62
     7
 10
-1649.9999999999991
 20
2317.104485375
 30
0.0
 11
1299.999992625
 21
2317.104485375
 31
0.0
  0
LINE
  5
57
  8
SPEC
  6
CONTINUOUS
 62
     7
 10
-1649.9999999999991
 20
2242.1044855625
 30
0.0
 11
1299.999992625
 21
2242.1044855625
 31
0.0
  0
LINE
  5
58
  8
SPEC
  6
CONTINUOUS
 62
     7
 10
-1200.0000011249999
 20
2092.1044859374988
 30
0.0
 11
1299.999992625
 21
2092.1044859374988
 31
0.0
  0
LINE
  5
59
  8
SPEC
  6
CONTINUOUS
 62
     7
 10
-1649.9999999999991
 20
1942.1044863124989
 30
0.0
 11
1299.999992625
 21
1942.1044863124989
 31
0.0
  0
LINE
  5
5A
  8
SPEC
  6
CONTINUOUS
 62
     7
 10
-1200.0000011249999
 20
1792.1044866875
 30
0.0
 11
1299.999992625
 21
1792.1044866875
 31
0.0
  0
LINE
  5
5B
  8
SPEC
  6
CONTINUOUS
 62
     7
 10
-1200.0000011249999
 20
1717.1044868749991
 30
0.0
 11
1299.999992625
 21
1717.1044868749991
 31
0.0
  0
LINE
  5
5C
  8
SPEC
  6
CONTINUOUS
 62
     7
 10
-1649.9999999999991
 20
1567.104487249999
 30
0.0
 11
1299.999992625
 21
1567.104487249999
 31
0.0
  0
LINE
  5
5D
  8
SPEC
  6
CONTINUOUS
 62
     7
 10
-1649.9999999999991
 20
1492.1044874374991
 30
0.0
 11
1299.999992625
 21
1492.1044874374991
 31
0.0
  0
LINE
  5
5E
  8
SPEC
  6
CONTINUOUS
 62
     7
 10
-1649.9999999999991
 20
1417.1044876249989
 30
0.0
 11
1299.999992625
 21
1417.1044876249989
 31
0.0
  0
LINE
  5
5F
  8
SPEC
  6
CONTINUOUS
 62
     7
 10
-1649.9999999999991
 20
1342.1044878125001
 30
0.0
 11
1299.999992625
 21
1342.1044878125001
 31
0.0
  0
TEXT
  5
60
  8
SPEC
 62
     7
 10
-715.33333567000079
 20
1286.824487844513
 30
0.0
 40
38.006293402777779
  1
446\U+00D71071\U+00D7538(除突起部)
 41
0.7
 11
-715.33333567000079
 21
1324.830781247291
 31
0.0
 73
     3
  0
TEXT
  5
61
  8
SPEC
 62
     7
 10
-1632.000000045
 20
2407.8628405974732
 30
0.0
 40
38.006293402777779
  1
形式
 41
0.7
 11
-1632.000000045
 21
2445.8691340002511
 31
0.0
 73
     3
  0
TEXT
  5
62
  8
SPEC
 62
     7
 10
-1632.000000045
 20
2336.824485219513
 30
0.0
 40
38.006293402777779
  1
周波数レンジ(-10dB)
 41
0.7
 11
-1632.000000045
 21
2374.8307786222908
 31
0.0
 73
     3
  0
TEXT
  5
63
  8
SPEC
 62
     7
 10
-1632.000000045
 20
2261.8244854070131
 30
0.0
 40
38.006293402777779
  1
指向角度(水平\U+00D7垂直)
 41
0.7
 11
-1632.000000045
 21
2299.8307788097909
 31
0.0
 73
     3
  0
TEXT
  5
64
  8
SPEC
 62
     7
 10
-1632.000000045
 20
2186.8244855945131
 30
0.0
 40
38.006293402777779
  1
最大音圧レベル(1m)
 41
0.7
 11
-1632.000000045
 21
2224.8307789972901
 31
0.0
 73
     3
  0
TEXT
  5
65
  8
SPEC
 62
     7
 10
-1632.000000045
 20
2111.8244857820141
 30
0.0
 40
38.006293402777779
  1
ドライバー構成
 41
0.7
 11
-1632.000000045
 21
2149.830779184791
 31
0.0
 73
     3
  0
TEXT
  5
66
  8
SPEC
 62
     7
 10
-713.32842432733764
 20
1813.829397874676
 30
0.0
 40
38.006293402777779
  1
2
 41
0.7
 11
-713.32842432733764
 21
1851.8356912774541
 31
0.0
 73
     3
  0
TEXT
  5
67
  8
SPEC
 62
     7
 10
-1632.000000045
 20
1961.8244861570131
 30
0.0
 40
38.006293402777779
  1
クロスオーバー周波数
 41
0.7
 11
-1632.000000045
 21
1999.8307795597909
 31
0.0
 73
     3
  0
TEXT
  5
68
  8
SPEC
 62
     7
 10
-1632.000000045
 20
1886.8244863445129
 30
0.0
 40
38.006293402777779
  1
パワーアンプ
 41
0.7
 11
-1632.000000045
 21
1924.8307797472901
 31
0.0
 73
     3
  0
TEXT
  5
69
  8
SPEC
 62
     7
 10
-1632.000000045
 20
1811.824486532013
 30
0.0
 40
38.006293402777779
  1
入力
 41
0.7
 11
-1632.000000045
 21
1849.8307799347911
 31
0.0
 73
     3
  0
TEXT
  5
6A
  8
SPEC
 62
     7
 10
-715.33333567000079
 20
1436.824487469514
 30
0.0
 40
38.006293402777779
  1
100W
 41
0.7
 11
-715.33333567000079
 21
1474.8307808722909
 31
0.0
 73
     3
  0
TEXT
  5
6B
  8
SPEC
 62
     7
 10
-1632.000000045
 20
1586.824487094513
 30
0.0
 40
38.006293402777779
  1
インジケーター
 41
0.7
 11
-1632.000000045
 21
1624.830780497291
 31
0.0
 73
     3
  0
TEXT
  5
6C
  8
SPEC
 62
     7
 10
-1632.000000045
 20
1511.824487282013
 30
0.0
 40
38.006293402777779
  1
電源
 41
0.7
 11
-1632.000000045
 21
1549.8307806847911
 31
0.0
 73
     3
  0
TEXT
  5
6D
  8
SPEC
 62
     7
 10
-1632.000000045
 20
1436.824487469514
 30
0.0
 40
38.006293402777779
  1
消費電力(1/8出力時、ピンクノイズ)
 41
0.7
 11
-1632.000000045
 21
1474.8307808722909
 31
0.0
 73
     3
  0
TEXT
  5
6E
  8
SPEC
 62
     7
 10
-1632.000000045
 20
1361.8244876570129
 30
0.0
 40
38.006293402777779
  1
エンクロージャー
 41
0.7
 11
-1632.000000045
 21
1399.830781059791
 31
0.0
 73
     3
  0
TEXT
  5
6F
  8
SPEC
 62
     7
 10
-1182.000001170001
 20
2111.8244857820132
 30
0.0
 40
38.006293402777779
  1
LF
 41
0.7
 11
-1182.000001170001
 21
2149.830779184791
 31
0.0
 73
     3
  0
TEXT
  5
70
  8
SPEC
 62
     7
 10
-1182.000001170001
 20
2036.824485969513
 30
0.0
 40
38.006293402777779
  1
HF
 41
0.7
 11
-1182.000001170001
 21
2074.8307793722911
 31
0.0
 73
     3
  0
TEXT
  5
71
  8
SPEC
 62
     7
 10
-1182.000001170001
 20
1736.8244867195131
 30
0.0
 40
38.006293402777779
  1
端子・形式
 41
0.7
 11
-1182.000001170001
 21
1774.8307801222909
 31
0.0
 73
     3
  0
TEXT
  5
72
  8
SPEC
 62
     7
 10
-1182.000001170001
 20
1661.8244869070129
 30
0.0
 40
38.006293402777779
  1
インピーダンス
 41
0.7
 11
-1182.000001170001
 21
1699.830780309791
 31
0.0
 73
     3
  0
LINE
  5
73
  8
SPEC
  6
CONTINUOUS
 62
     7
 10
-1649.9999999999991
 20
2167.1044857499992
 30
0.0
 11
1299.999992625
 21
2167.1044857499992
 31
0.0
  0
LINE
  5
74
  8
SPEC
  6
CONTINUOUS
 62
     7
 10
-1649.9999999999991
 20
2017.1044861249991
 30
0.0
 11
1299.999992625
 21
2017.1044861249991
 31
0.0
  0
LINE
  5
75
  8
SPEC
  6
CONTINUOUS
 62
     7
 10
-1649.9999999999991
 20
1867.104486499999
 30
0.0
 11
1299.999992625
 21
1867.104486499999
 31
0.0
  0
LINE
  5
76
  8
SPEC
  6
CONTINUOUS
 62
     7
 10
-1649.9999999999991
 20
1642.1044870624989
 30
0.0
 11
1299.999992625
 21
1642.1044870624989
 31
0.0
  0
LINE
  5
77
  8
SPEC
  6
CONTINUOUS
 62
     7
 10
-1200.0000011249999
 20
2167.1044857499992
 30
0.0
 11
-1200.0000011249999
 21
2017.1044861249991
 31
0.0
  0
LINE
  5
78
  8
SPEC
  6
CONTINUOUS
 62
     7
 10
-1200.0000011249999
 20
1867.104486499999
 30
0.0
 11
-1200.0000011249999
 21
1642.1044870624989
 31
0.0
  0
TEXT
  5
79
  8
SPEC
 62
     7
 10
-1182.000001170001
 20
1811.824486532013
 30
0.0
 40
38.006293402777779
  1
チャンネル数
 41
0.7
 11
-1182.000001170001
 21
1849.8307799347911
 31
0.0
 73
     3
  0
TEXT
  5
7A
  8
SPEC
 62
     7
 10
-715.33333567000079
 20
2411.1279236143509
 30
0.0
 40
38.006293402777779
  1
2-Wayパワード・フルレンジ
 41
0.7
 11
-715.33333567000079
 21
2449.1342170171288
 31
0.0
 73
     3
  0
TEXT
  5
7B
  8
SPEC
 62
     7
 10
-715.33333567000079
 20
2261.8244859695128
 30
0.0
 40
38.006293402777779
  1
90\U+00B0\U+00D750\U+00B0
 41
0.7
 11
-715.33333567000079
 21
2299.8307793722911
 31
0.0
 73
     3
  0
TEXT
  5
7C
  8
SPEC
 62
     7
 10
-715.33333567000079
 20
2186.8244859695128
 30
0.0
 40
38.006293402777779
  1
139dB SPL(ピーク)
 41
0.7
 11
-715.33333567000079
 21
2224.8307793722911
 31
0.0
 73
     3
  0
TEXT
  5
7D
  8
SPEC
 62
     7
 10
-715.33333567000079
 20
2036.824485969513
 30
0.0
 40
38.006293402777779
  1
38mm(2408H-2)
 41
0.7
 11
-715.33333567000079
 21
2074.8307793722911
 31
0.0
 73
     3
  0
TEXT
  5
7E
  8
SPEC
 62
     7
 10
-715.33333567000079
 20
1961.8244861570131
 30
0.0
 40
38.006293402777779
  1
2.4kHz
 41
0.7
 11
-715.33333567000079
 21
1999.8307795597909
 31
0.0
 73
     3
  0
TEXT
  5
7F
  8
SPEC
 62
     7
 10
-715.33333567000079
 20
1886.8244863445129
 30
0.0
 40
38.006293402777779
  1
Class D
 41
0.7
 11
-715.33333567000079
 21
1924.8307797472901
 31
0.0
 73
     3
  0
TEXT
  5
80
  8
SPEC
 62
     7
 10
-715.33333567000079
 20
1736.8244867195131
 30
0.0
 40
38.006293402777779
  1
XLRと標準フォーンジャック(3P)対応の複合型 端子\U+00D72、RCA\U+00D72
 41
0.7
 11
-715.33333567000079
 21
1774.8307801222909
 31
0.0
 73
     3
  0
TEXT
  5
81
  8
SPEC
 62
     7
 10
-708.17575608155653
 20
1665.956917409148
 30
0.0
 40
38.006293402777779
  1
20k\U+03A9(バランス)、10k\U+03A9(アンバランス)
 41
0.7
 11
-708.17575608155653
 21
1703.9632108119249
 31
0.0
 73
     3
  0
TEXT
  5
82
  8
SPEC
 62
     7
 10
-715.09231321181653
 20
1587.065509552697
 30
0.0
 40
38.006293402777779
  1
EQ、Limit、Mic/Line、Signal、Power(前面、背面)
 41
0.7
 11
-715.09231321181653
 21
1625.0718029554751
 31
0.0
 73
     3
  0
TEXT
  5
83
  8
SPEC
 62
     7
 10
-715.09231321181653
 20
1512.0655097401971
 30
0.0
 40
38.006293402777779
  1
AC100V、50/60Hz
 41
0.7
 11
-715.09231321181653
 21
1550.0718031429751
 31
0.0
 73
     3
  0
TEXT
  5
84
  8
SPEC
 62
     7
 10
-715.09231321181653
 20
1362.065510115197
 30
0.0
 40
38.006293402777779
  1
25/18mm合板、黒、DuraFlex仕上げ
 41
0.7
 11
-715.09231321181653
 21
1400.071803517975
 31
0.0
 73
     3
  0
TEXT
  5
85
  8
SPEC
 62
     7
 10
-715.33333567000079
 20
2336.8244859695128
 30
0.0
 40
38.006293402777779
  1
42Hz～18.5kHz(EQ:NORMAL時)
 41
0.7
 11
-715.33333567000079
 21
2374.8307793722911
 31
0.0
 73
     3
  0
TEXT
  5
86
  8
SPEC
 62
     7
 10
-715.33333567000079
 20
2111.8244859695128
 30
0.0
 40
38.006293402777779
  1
380mm(275G)\U+00D72
 41
0.7
 11
-715.33333567000079
 21
2149.8307793722911
 31
0.0
 73
     3
  0
TEXT
  5
87
  8
DIMNSIONS
 62
     7
 10
-400.0
 20
-2287.5057149999998
 30
0.0
 40
48.865234375000007
  1
(単位：mm)
 41
0.7
 11
-400.0
 21
-2238.6404806249998
 31
0.0
 73
     3
  0
LINE
  5
88
  8
DIMNSIONS
  6
CONTINUOUS
 62
     7
 10
-1448.0
 20
-1200.0
 30
0.0
 11
-1640.0
 21
-1200.0
 31
0.0
  0
LINE
  5
89
  8
DIMNSIONS
  6
CONTINUOUS
 62
     7
 10
-1448.0
 20
-129.0
 30
0.0
 11
-1640.0
 21
-129.0
 31
0.0
  0
LINE
  5
8A
  8
DIMNSIONS
  6
CONTINUOUS
 62
     7
 10
-1600.0
 20
-1200.0
 30
0.0
 11
-1600.0
 21
-129.0
 31
0.0
  0
LINE
  5
8B
  8
DIMNSIONS
  6
CONTINUOUS
 62
     7
 10
-1600.0
 20
-1200.0
 30
0.0
 11
-1613.400795903005
 21
-1149.987548828125
 31
0.0
  0
LINE
  5
8C
  8
DIMNSIONS
  6
CONTINUOUS
 62
     7
 10
-1600.0
 20
-1200.0
 30
0.0
 11
-1586.599204096995
 21
-1149.987548828125
 31
0.0
  0
LINE
  5
8D
  8
DIMNSIONS
  6
CONTINUOUS
 62
     7
 10
-1600.0
 20
-129.0
 30
0.0
 11
-1586.599204096995
 21
-179.012451171875
 31
0.0
  0
LINE
  5
8E
  8
DIMNSIONS
  6
CONTINUOUS
 62
     7
 10
-1600.0
 20
-129.0
 30
0.0
 11
-1613.400795903005
 21
-179.012451171875
 31
0.0
  0
TEXT
  5
8F
  8
DIMNSIONS
 62
     7
 10
-1619.877777777778
 20
-735.05555555555554
 30
0.0
 40
54.294704861111107
  1
1071
 50
90.0
 41
0.7
 11
-1674.1724826388891
 21
-735.05555555555554
 31
0.0
 73
     3
  0
LINE
  5
90
  8
DIMNSIONS
  6
CONTINUOUS
 62
     7
 10
-1448.0
 20
-1200.0
 30
0.0
 11
-1640.0
 21
-1200.0
 31
0.0
  0
LINE
  5
91
  8
DIMNSIONS
  6
CONTINUOUS
 62
     7
 10
-1440.5
 20
-1203.5
 30
0.0
 11
-1640.0
 21
-1203.5
 31
0.0
  0
LINE
  5
92
  8
DIMNSIONS
  6
CONTINUOUS
 62
     7
 10
-1600.0
 20
-1203.5
 30
0.0
 11
-1600.0
 21
-1200.0
 31
0.0
  0
LINE
  5
93
  8
DIMNSIONS
  6
CONTINUOUS
 62
     7
 10
-1600.0
 20
-1200.0
 30
0.0
 11
-1600.0
 21
-1100.0
 31
0.0
  0
LINE
  5
94
  8
DIMNSIONS
  6
CONTINUOUS
 62
     7
 10
-1600.0
 20
-1200.0
 30
0.0
 11
-1613.400795903005
 21
-1149.987548828125
 31
0.0
  0
LINE
  5
95
  8
DIMNSIONS
  6
CONTINUOUS
 62
     7
 10
-1600.0
 20
-1200.0
 30
0.0
 11
-1586.599204096995
 21
-1149.987548828125
 31
0.0
  0
LINE
  5
96
  8
DIMNSIONS
  6
CONTINUOUS
 62
     7
 10
-1600.0
 20
-1203.5
 30
0.0
 11
-1600.0
 21
-1330.833333333333
 31
0.0
  0
LINE
  5
97
  8
DIMNSIONS
  6
CONTINUOUS
 62
     7
 10
-1600.0
 20
-1203.5
 30
0.0
 11
-1586.599204096995
 21
-1253.512451171875
 31
0.0
  0
LINE
  5
98
  8
DIMNSIONS
  6
CONTINUOUS
 62
     7
 10
-1600.0
 20
-1203.5
 30
0.0
 11
-1613.400795903005
 21
-1253.512451171875
 31
0.0
  0
TEXT
  5
99
  8
DIMNSIONS
 62
     7
 10
-1619.877777777778
 20
-1330.833333333333
 30
0.0
 40
54.294704861111107
  1
3.5
 50
90.0
 41
0.7
 11
-1674.1724826388891
 21
-1330.833333333333
 31
0.0
 73
     3
  0
LINE
  5
9A
  8
DIMNSIONS
  6
CONTINUOUS
 62
     7
 10
-1423.0
 20
-1230.0
 30
0.0
 11
-1423.0
 21
-1440.0
 31
0.0
  0
LINE
  5
9B
  8
DIMNSIONS
  6
CONTINUOUS
 62
     7
 10
-977.0
 20
-1230.0
 30
0.0
 11
-977.0
 21
-1440.0
 31
0.0
  0
LINE
  5
9C
  8
DIMNSIONS
  6
CONTINUOUS
 62
     7
 10
-1423.0
 20
-1400.0
 30
0.0
 11
-977.0
 21
-1400.0
 31
0.0
  0
LINE
  5
9D
  8
DIMNSIONS
  6
CONTINUOUS
 62
     7
 10
-1423.0
 20
-1400.0
 30
0.0
 11
-1372.987548828125
 21
-1386.599204096995
 31
0.0
  0
LINE
  5
9E
  8
DIMNSIONS
  6
CONTINUOUS
 62
     7
 10
-1423.0
 20
-1400.0
 30
0.0
 11
-1372.987548828125
 21
-1413.400795903005
 31
0.0
  0
LINE
  5
9F
  8
DIMNSIONS
  6
CONTINUOUS
 62
     7
 10
-977.0
 20
-1400.0
 30
0.0
 11
-1027.012451171875
 21
-1413.400795903005
 31
0.0
  0
LINE
  5
A0
  8
DIMNSIONS
  6
CONTINUOUS
 62
     7
 10
-977.0
 20
-1400.0
 30
0.0
 11
-1027.012451171875
 21
-1386.599204096995
 31
0.0
  0
TEXT
  5
A1
  8
DIMNSIONS
 62
     7
 10
-1252.916666666667
 20
-1380.122222222222
 30
0.0
 40
54.294704861111107
  1
446
 41
0.7
 11
-1252.916666666667
 21
-1325.82751736111
 31
0.0
 73
     3
  0
LINE
  5
A2
  8
DIMNSIONS
  6
CONTINUOUS
 62
     7
 10
-1341.8987248127339
 20
638.0
 30
0.0
 11
-1640.0
 21
638.0
 31
0.0
  0
LINE
  5
A3
  8
DIMNSIONS
  6
CONTINUOUS
 62
     7
 10
-1240.0
 20
100.0
 30
0.0
 11
-1640.0
 21
100.0
 31
0.0
  0
LINE
  5
A4
  8
DIMNSIONS
  6
CONTINUOUS
 62
     7
 10
-1600.0
 20
638.0
 30
0.0
 11
-1600.0
 21
100.0
 31
0.0
  0
LINE
  5
A5
  8
DIMNSIONS
  6
CONTINUOUS
 62
     7
 10
-1600.0
 20
638.0
 30
0.0
 11
-1586.599204096995
 21
587.987548828125
 31
0.0
  0
LINE
  5
A6
  8
DIMNSIONS
  6
CONTINUOUS
 62
     7
 10
-1600.0
 20
638.0
 30
0.0
 11
-1613.400795903005
 21
587.987548828125
 31
0.0
  0
LINE
  5
A7
  8
DIMNSIONS
  6
CONTINUOUS
 62
     7
 10
-1600.0
 20
100.0
 30
0.0
 11
-1613.400795903005
 21
150.012451171875
 31
0.0
  0
LINE
  5
A8
  8
DIMNSIONS
  6
CONTINUOUS
 62
     7
 10
-1600.0
 20
100.0
 30
0.0
 11
-1586.599204096995
 21
150.012451171875
 31
0.0
  0
TEXT
  5
A9
  8
DIMNSIONS
 62
     7
 10
-1619.877777777778
 20
316.08333333333331
 30
0.0
 40
54.294704861111107
  1
538
 50
90.0
 41
0.7
 11
-1674.1724826388891
 21
316.08333333333331
 31
0.0
 73
     3
  0
LINE
  5
AA
  8
DIMNSIONS
  6
CONTINUOUS
 62
     7
 10
-1058.1012751872661
 20
638.0
 30
0.0
 11
-910.0
 21
638.0
 31
0.0
  0
LINE
  5
AB
  8
DIMNSIONS
  6
CONTINUOUS
 62
     7
 10
-1160.0
 20
595.0
 30
0.0
 11
-910.0
 21
595.0
 31
0.0
  0
LINE
  5
AC
  8
DIMNSIONS
  6
CONTINUOUS
 62
     7
 10
-950.0
 20
595.0
 30
0.0
 11
-950.0
 21
638.0
 31
0.0
  0
LINE
  5
AD
  8
DIMNSIONS
  6
CONTINUOUS
 62
     7
 10
-950.0
 20
638.0
 30
0.0
 11
-950.0
 21
816.11111111111131
 31
0.0
  0
LINE
  5
AE
  8
DIMNSIONS
  6
CONTINUOUS
 62
     7
 10
-950.0
 20
638.0
 30
0.0
 11
-963.40079590300479
 21
688.012451171875
 31
0.0
  0
LINE
  5
AF
  8
DIMNSIONS
  6
CONTINUOUS
 62
     7
 10
-950.0
 20
638.0
 30
0.0
 11
-936.59920409699532
 21
688.012451171875
 31
0.0
  0
LINE
  5
B0
  8
DIMNSIONS
  6
CONTINUOUS
 62
     7
 10
-950.0
 20
595.0
 30
0.0
 11
-950.0
 21
495.0
 31
0.0
  0
LINE
  5
B1
  8
DIMNSIONS
  6
CONTINUOUS
 62
     7
 10
-950.0
 20
595.0
 30
0.0
 11
-936.59920409699532
 21
544.98754882812489
 31
0.0
  0
LINE
  5
B2
  8
DIMNSIONS
  6
CONTINUOUS
 62
     7
 10
-950.0
 20
595.0
 30
0.0
 11
-963.40079590300479
 21
544.98754882812489
 31
0.0
  0
TEXT
  5
B3
  8
DIMNSIONS
 62
     7
 10
-969.87777777777808
 20
674.99999999999989
 30
0.0
 40
54.294704861111107
  1
43.0
 50
90.0
 41
0.7
 11
-1024.1724826388891
 21
674.99999999999989
 31
0.0
 73
     3
  0
LINE
  5
B4
  8
DIMNSIONS
  6
CONTINUOUS
 62
     7
 10
-1058.1012751872661
 20
638.0
 30
0.0
 11
-810.0
 21
638.0
 31
0.0
  0
LINE
  5
B5
  8
DIMNSIONS
  6
CONTINUOUS
 62
     7
 10
-980.0
 20
229.5
 30
0.0
 11
-810.0
 21
229.5
 31
0.0
  0
LINE
  5
B6
  8
DIMNSIONS
  6
CONTINUOUS
 62
     7
 10
-850.0
 20
638.0
 30
0.0
 11
-850.0
 21
229.5
 31
0.0
  0
LINE
  5
B7
  8
DIMNSIONS
  6
CONTINUOUS
 62
     7
 10
-850.0
 20
638.0
 30
0.0
 11
-836.59920409699532
 21
587.987548828125
 31
0.0
  0
LINE
  5
B8
  8
DIMNSIONS
  6
CONTINUOUS
 62
     7
 10
-850.0
 20
638.0
 30
0.0
 11
-863.40079590300502
 21
587.987548828125
 31
0.0
  0
LINE
  5
B9
  8
DIMNSIONS
  6
CONTINUOUS
 62
     7
 10
-850.0
 20
229.5
 30
0.0
 11
-863.40079590300502
 21
279.512451171875
 31
0.0
  0
LINE
  5
BA
  8
DIMNSIONS
  6
CONTINUOUS
 62
     7
 10
-850.0
 20
229.5
 30
0.0
 11
-836.59920409699532
 21
279.512451171875
 31
0.0
  0
TEXT
  5
BB
  8
DIMNSIONS
 62
     7
 10
-869.87777777777785
 20
345.5555555555556
 30
0.0
 40
54.294704861111107
  1
408.5
 50
90.0
 41
0.7
 11
-924.17248263888905
 21
345.5555555555556
 31
0.0
 73
     3
  0
LINE
  5
BC
  8
DIMNSIONS
  6
CONTINUOUS
 62
     7
 10
-1380.0
 20
189.5
 30
0.0
 11
-1380.0
 21
-40.0
 31
0.0
  0
LINE
  5
BD
  8
DIMNSIONS
  6
CONTINUOUS
 62
     7
 10
-1020.0
 20
189.5
 30
0.0
 11
-1020.0
 21
-40.0
 31
0.0
  0
LINE
  5
BE
  8
DIMNSIONS
  6
CONTINUOUS
 62
     7
 10
-1380.0
 20
0.0
 30
0.0
 11
-1020.0
 21
0.0
 31
0.0
  0
LINE
  5
BF
  8
DIMNSIONS
  6
CONTINUOUS
 62
     7
 10
-1380.0
 20
0.0
 30
0.0
 11
-1329.987548828125
 21
13.400795903004861
 31
0.0
  0
LINE
  5
C0
  8
DIMNSIONS
  6
CONTINUOUS
 62
     7
 10
-1380.0
 20
0.0
 30
0.0
 11
-1329.987548828125
 21
-13.400795903004861
 31
0.0
  0
LINE
  5
C1
  8
DIMNSIONS
  6
CONTINUOUS
 62
     7
 10
-1020.0
 20
0.0
 30
0.0
 11
-1070.012451171875
 21
-13.40079590300487
 31
0.0
  0
LINE
  5
C2
  8
DIMNSIONS
  6
CONTINUOUS
 62
     7
 10
-1020.0
 20
0.0
 30
0.0
 11
-1070.012451171875
 21
13.400795903004861
 31
0.0
  0
TEXT
  5
C3
  8
DIMNSIONS
 62
     7
 10
-1252.916666666667
 20
19.877777777777791
 30
0.0
 40
54.294704861111107
  1
360
 41
0.7
 11
-1252.916666666667
 21
74.172482638888908
 31
0.0
 73
     3
  0
LINE
  5
C4
  8
DIMNSIONS
  6
CONTINUOUS
 62
     7
 10
-267.0000000000004
 20
-1200.0
 30
0.0
 11
-135.0
 21
-1200.0
 31
0.0
  0
LINE
  5
C5
  8
DIMNSIONS
  6
CONTINUOUS
 62
     7
 10
-660.50000000000045
 20
-1149.5
 30
0.0
 11
-135.0
 21
-1149.5
 31
0.0
  0
LINE
  5
C6
  8
DIMNSIONS
  6
CONTINUOUS
 62
     7
 10
-175.0
 20
-1149.5
 30
0.0
 11
-175.0
 21
-1200.0
 31
0.0
  0
LINE
  5
C7
  8
DIMNSIONS
  6
CONTINUOUS
 62
     7
 10
-175.0
 20
-1200.0
 30
0.0
 11
-175.0
 21
-1391.1111111111111
 31
0.0
  0
LINE
  5
C8
  8
DIMNSIONS
  6
CONTINUOUS
 62
     7
 10
-175.0
 20
-1200.0
 30
0.0
 11
-161.59920409699509
 21
-1250.012451171875
 31
0.0
  0
LINE
  5
C9
  8
DIMNSIONS
  6
CONTINUOUS
 62
     7
 10
-175.0
 20
-1200.0
 30
0.0
 11
-188.40079590300479
 21
-1250.012451171875
 31
0.0
  0
LINE
  5
CA
  8
DIMNSIONS
  6
CONTINUOUS
 62
     7
 10
-175.0
 20
-1149.5
 30
0.0
 11
-175.0
 21
-1049.5
 31
0.0
  0
LINE
  5
CB
  8
DIMNSIONS
  6
CONTINUOUS
 62
     7
 10
-175.0
 20
-1149.5
 30
0.0
 11
-188.40079590300479
 21
-1099.487548828125
 31
0.0
  0
LINE
  5
CC
  8
DIMNSIONS
  6
CONTINUOUS
 62
     7
 10
-175.0
 20
-1149.5
 30
0.0
 11
-161.59920409699509
 21
-1099.487548828125
 31
0.0
  0
TEXT
  5
CD
  8
DIMNSIONS
 62
     7
 10
-194.87777777777771
 20
-1391.1111111111111
 30
0.0
 40
54.294704861111107
  1
50.5
 50
90.0
 41
0.7
 11
-249.17248263888891
 21
-1391.1111111111111
 31
0.0
 73
     3
  0
LINE
  5
CE
  8
DIMNSIONS
  6
CONTINUOUS
 62
     7
 10
-660.50000000000045
 20
-1149.5
 30
0.0
 11
-135.0
 21
-1149.5
 31
0.0
  0
LINE
  5
CF
  8
DIMNSIONS
  6
CONTINUOUS
 62
     7
 10
-660.50000000000045
 20
-179.5
 30
0.0
 11
-135.0
 21
-179.5
 31
0.0
  0
LINE
  5
D0
  8
DIMNSIONS
  6
CONTINUOUS
 62
     7
 10
-175.0
 20
-1149.5
 30
0.0
 11
-175.0
 21
-179.5
 31
0.0
  0
LINE
  5
D1
  8
DIMNSIONS
  6
CONTINUOUS
 62
     7
 10
-175.0
 20
-1149.5
 30
0.0
 11
-188.40079590300479
 21
-1099.487548828125
 31
0.0
  0
LINE
  5
D2
  8
DIMNSIONS
  6
CONTINUOUS
 62
     7
 10
-175.0
 20
-1149.5
 30
0.0
 11
-161.59920409699509
 21
-1099.487548828125
 31
0.0
  0
LINE
  5
D3
  8
DIMNSIONS
  6
CONTINUOUS
 62
     7
 10
-175.0
 20
-179.5
 30
0.0
 11
-161.59920409699509
 21
-229.512451171875
 31
0.0
  0
LINE
  5
D4
  8
DIMNSIONS
  6
CONTINUOUS
 62
     7
 10
-175.0
 20
-179.5
 30
0.0
 11
-188.40079590300479
 21
-229.512451171875
 31
0.0
  0
TEXT
  5
D5
  8
DIMNSIONS
 62
     7
 10
-194.87777777777771
 20
-717.41666666666674
 30
0.0
 40
54.294704861111107
  1
970
 50
90.0
 41
0.7
 11
-249.17248263888891
 21
-717.41666666666674
 31
0.0
 73
     3
  0
LINE
  5
D6
  8
DIMNSIONS
  6
CONTINUOUS
 62
     7
 10
240.0
 20
-179.5
 30
0.0
 11
590.0
 21
-179.5
 31
0.0
  0
LINE
  5
D7
  8
DIMNSIONS
  6
CONTINUOUS
 62
     7
 10
240.0
 20
-1149.5
 30
0.0
 11
590.0
 21
-1149.5
 31
0.0
  0
LINE
  5
D8
  8
DIMNSIONS
  6
CONTINUOUS
 62
     7
 10
550.0
 20
-179.5
 30
0.0
 11
550.0
 21
-1149.5
 31
0.0
  0
LINE
  5
D9
  8
DIMNSIONS
  6
CONTINUOUS
 62
     7
 10
550.0
 20
-179.5
 30
0.0
 11
563.40079590300468
 21
-229.512451171875
 31
0.0
  0
LINE
  5
DA
  8
DIMNSIONS
  6
CONTINUOUS
 62
     7
 10
550.0
 20
-179.5
 30
0.0
 11
536.59920409699521
 21
-229.512451171875
 31
0.0
  0
LINE
  5
DB
  8
DIMNSIONS
  6
CONTINUOUS
 62
     7
 10
550.0
 20
-1149.5
 30
0.0
 11
536.59920409699521
 21
-1099.487548828125
 31
0.0
  0
LINE
  5
DC
  8
DIMNSIONS
  6
CONTINUOUS
 62
     7
 10
550.0
 20
-1149.5
 30
0.0
 11
563.40079590300468
 21
-1099.487548828125
 31
0.0
  0
TEXT
  5
DD
  8
DIMNSIONS
 62
     7
 10
530.12222222222215
 20
-717.41666666666674
 30
0.0
 40
54.294704861111107
  1
970
 50
90.0
 41
0.7
 11
475.82751736111112
 21
-717.41666666666674
 31
0.0
 73
     3
  0
LINE
  5
DE
  8
DIMNSIONS
  6
CONTINUOUS
 62
     7
 10
240.0
 20
-1149.5
 30
0.0
 11
590.0
 21
-1149.5
 31
0.0
  0
LINE
  5
DF
  8
DIMNSIONS
  6
CONTINUOUS
 62
     7
 10
448.0
 20
-1200.0
 30
0.0
 11
590.0
 21
-1200.0
 31
0.0
  0
LINE
  5
E0
  8
DIMNSIONS
  6
CONTINUOUS
 62
     7
 10
550.0
 20
-1200.0
 30
0.0
 11
550.0
 21
-1149.5
 31
0.0
  0
LINE
  5
E1
  8
DIMNSIONS
  6
CONTINUOUS
 62
     7
 10
550.0
 20
-1149.5
 30
0.0
 11
550.0
 21
-1049.5
 31
0.0
  0
LINE
  5
E2
  8
DIMNSIONS
  6
CONTINUOUS
 62
     7
 10
550.0
 20
-1149.5
 30
0.0
 11
536.59920409699521
 21
-1099.487548828125
 31
0.0
  0
LINE
  5
E3
  8
DIMNSIONS
  6
CONTINUOUS
 62
     7
 10
550.0
 20
-1149.5
 30
0.0
 11
563.40079590300468
 21
-1099.487548828125
 31
0.0
  0
LINE
  5
E4
  8
DIMNSIONS
  6
CONTINUOUS
 62
     7
 10
550.0
 20
-1200.0
 30
0.0
 11
550.0
 21
-1377.213651489554
 31
0.0
  0
LINE
  5
E5
  8
DIMNSIONS
  6
CONTINUOUS
 62
     7
 10
550.0
 20
-1200.0
 30
0.0
 11
563.40079590300468
 21
-1250.012451171875
 31
0.0
  0
LINE
  5
E6
  8
DIMNSIONS
  6
CONTINUOUS
 62
     7
 10
550.0
 20
-1200.0
 30
0.0
 11
536.59920409699521
 21
-1250.012451171875
 31
0.0
  0
TEXT
  5
E7
  8
DIMNSIONS
 62
     7
 10
530.12222222222215
 20
-1377.2136514895551
 30
0.0
 40
54.294704861111107
  1
50.5
 50
90.0
 41
0.7
 11
475.82751736111112
 21
-1377.2136514895551
 31
0.0
 73
     3
  0
LINE
  5
E8
  8
DIMNSIONS
  6
CONTINUOUS
 62
     7
 10
-1012.045145749002
 20
223.44027279115161
 30
0.0
 11
-850.0
 21
99.999999999999943
 31
0.0
  0
LINE
  5
E9
  8
DIMNSIONS
  6
CONTINUOUS
 62
     7
 10
-1012.045145749002
 20
223.44027279115161
 30
0.0
 11
-964.03862600201342
 21
204.044379802295
 31
0.0
  0
LINE
  5
EA
  8
DIMNSIONS
  6
CONTINUOUS
 62
     7
 10
-1012.045145749002
 20
223.44027279115161
 30
0.0
 11
-980.16822659525917
 21
182.63967686022301
 31
0.0
  0
LINE
  5
EB
  8
DIMNSIONS
  6
CONTINUOUS
 62
     7
 10
-850.0
 20
99.999999999999943
 30
0.0
 11
-633.6111111111112
 21
99.999999999999943
 31
0.0
  0
TEXT
  5
EC
  8
DIMNSIONS
 62
     7
 10
-810.0
 20
119.87777777777769
 30
0.0
 40
54.294704861111107
  1
6-M10
 41
0.7
 11
-810.0
 21
174.17248263888879
 31
0.0
 73
     3
  0
LINE
  5
ED
  8
DIMNSIONS
  6
CONTINUOUS
 62
     7
 10
-696.99272835765976
 20
-170.13522314055439
 30
0.0
 11
-652.00000000000045
 21
-50.0
 31
0.0
  0
LINE
  5
EE
  8
DIMNSIONS
  6
CONTINUOUS
 62
     7
 10
-696.99272835765976
 20
-170.13522314055439
 30
0.0
 11
-691.58058953398972
 21
-118.64216189531
 31
0.0
  0
LINE
  5
EF
  8
DIMNSIONS
  6
CONTINUOUS
 62
     7
 10
-696.99272835765976
 20
-170.13522314055439
 30
0.0
 11
-666.55914802493146
 21
-128.2469933953798
 31
0.0
  0
LINE
  5
F0
  8
DIMNSIONS
  6
CONTINUOUS
 62
     7
 10
-652.00000000000045
 20
-50.0
 30
0.0
 11
-435.61111111111171
 21
-50.0
 31
0.0
  0
TEXT
  5
F1
  8
DIMNSIONS
 62
     7
 10
-612.00000000000045
 20
-30.122222222222231
 30
0.0
 40
54.294704861111107
  1
4-M10
 41
0.7
 11
-612.00000000000045
 21
24.172482638888891
 31
0.0
 73
     3
  0
LINE
  5
F2
  8
DIMNSIONS
  6
CONTINUOUS
 62
     7
 10
203.60185586611269
 20
-170.171193306768
 30
0.0
 11
250.0
 21
-50.000000000000021
 31
0.0
  0
LINE
  5
F3
  8
DIMNSIONS
  6
CONTINUOUS
 62
     7
 10
203.60185586611269
 20
-170.171193306768
 30
0.0
 11
209.91184822837761
 21
-118.7804295506091
 31
0.0
  0
LINE
  5
F4
  8
DIMNSIONS
  6
CONTINUOUS
 62
     7
 10
203.60185586611269
 20
-170.171193306768
 30
0.0
 11
234.76185142759931
 21
-128.82048255518231
 31
0.0
  0
LINE
  5
F5
  8
DIMNSIONS
  6
CONTINUOUS
 62
     7
 10
250.0
 20
-50.000000000000021
 30
0.0
 11
466.3888888888888
 21
-50.000000000000021
 31
0.0
  0
TEXT
  5
F6
  8
DIMNSIONS
 62
     7
 10
290.0
 20
-30.122222222222241
 30
0.0
 40
54.294704861111107
  1
2-M10
 41
0.7
 11
290.0
 21
24.17248263888888
 31
0.0
 73
     3
  0
TEXT
  5
F7
  8
DATA
 62
     7
 10
147.90029947916639
 20
-845.69026811693811
 30
0.0
 40
2.9242187500000001
  1
NORMAL
 41
0.7
 72
     1
 11
153.69999999999979
 21
-844.22815874193805
 31
0.0
 73
     2
  0
TEXT
  5
F8
  8
DATA
 62
     7
 10
171.52633520833399
 20
-845.69026811693811
 30
0.0
 40
2.9242187500000001
  1
BOOST
 41
0.7
 72
     1
 11
176.30255916666729
 21
-844.22815874193805
 31
0.0
 73
     2
  0
TEXT
  5
F9
  8
DATA
 62
     7
 10
231.49292614583291
 20
-845.69026811693811
 30
0.0
 40
2.9242187500000001
  1
ON
 41
0.7
 72
     1
 11
233.19872041666619
 21
-844.22815874193805
 31
0.0
 73
     2
  0
TEXT
  5
FA
  8
DATA
 62
     7
 10
253.07200875000041
 20
-845.04960937499993
 30
0.0
 40
2.9242187500000001
  1
OFF
 41
0.7
 72
     1
 11
255.80127958333381
 21
-843.58749999999986
 31
0.0
 73
     2
  0
CIRCLE
  5
FB
  8
DATA
  6
CONTINUOUS
 62
     7
 10
-1380.0
 20
-1577.0
 30
0.0
 40
20.00000000000016
  0
CIRCLE
  5
FC
  8
DATA
  6
CONTINUOUS
 62
     7
 10
-1380.0
 20
-1577.0
 30
0.0
 40
9.9999999999996678
  0
CIRCLE
  5
FD
  8
DATA
  6
CONTINUOUS
 62
     7
 10
-1380.0
 20
-1577.0
 30
0.0
 40
5.5
  0
CIRCLE
  5
FE
  8
DATA
  6
CONTINUOUS
 62
     7
 10
-1283.0
 20
-1996.5
 30
0.0
 40
20.00000000000016
  0
CIRCLE
  5
FF
  8
DATA
  6
CONTINUOUS
 62
     7
 10
-1283.0
 20
-1996.5
 30
0.0
 40
9.9999999999996678
  0
CIRCLE
  5
100
  8
DATA
  6
CONTINUOUS
 62
     7
 10
-1283.0
 20
-1996.5
 30
0.0
 40
5.5
  0
LINE
  5
101
  8
DATA
  6
CONTINUOUS
 62
     7
 10
-1423.0
 20
-1564.270509831249
 30
0.0
 11
-1423.0
 21
-1678.0
 31
0.0
  0
LINE
  5
102
  8
DATA
  6
CONTINUOUS
 62
     7
 10
-1408.0
 20
-1573.5410196624971
 30
0.0
 11
-1408.0
 21
-1673.5189260469881
 31
0.0
  0
LINE
  5
103
  8
DATA
  6
CONTINUOUS
 62
     7
 10
-1353.0
 20
-1607.5328890437399
 30
0.0
 11
-1353.0
 21
-1665.3036237998001
 31
0.0
  0
LINE
  5
104
  8
DATA
  6
CONTINUOUS
 62
     7
 10
-1325.60132595867
 20
-1506.300662979336
 30
0.0
 11
-1414.7082039324989
 21
-1550.85410196625
 31
0.0
  0
LINE
  5
105
  8
DATA
  6
CONTINUOUS
 62
     7
 10
-1321.508089807189
 20
-1521.0245547348429
 30
0.0
 11
-1399.7082039324989
 21
-1560.1246117974979
 31
0.0
  0
LINE
  5
106
  8
DATA
  6
CONTINUOUS
 62
     7
 10
-1306.619839189153
 20
-1575.072298807069
 30
0.0
 11
-1344.7082039325001
 21
-1594.1164811787421
 31
0.0
  0
LINE
  5
107
  8
DATA
  6
CONTINUOUS
 62
     7
 10
-1074.3986740413279
 20
-1506.300662979336
 30
0.0
 11
-985.29179606750017
 21
-1550.85410196625
 31
0.0
  0
LINE
  5
108
  8
DATA
  6
CONTINUOUS
 62
     7
 10
-1078.491910192811
 20
-1521.0245547348429
 30
0.0
 11
-1000.2917960674999
 21
-1560.1246117974979
 31
0.0
  0
LINE
  5
109
  8
DATA
  6
CONTINUOUS
 62
     7
 10
-1093.3801608108461
 20
-1575.072298807069
 30
0.0
 11
-1055.2917960674999
 21
-1594.1164811787421
 31
0.0
  0
LINE
  5
10A
  8
DATA
  6
CONTINUOUS
 62
     7
 10
-977.0
 20
-1675.7594630234939
 30
0.0
 11
-977.0
 21
-1564.270509831249
 31
0.0
  0
LINE
  5
10B
  8
DATA
  6
CONTINUOUS
 62
     7
 10
-992.0
 20
-1673.5189260469881
 30
0.0
 11
-992.0
 21
-1573.5410196624971
 31
0.0
  0
LINE
  5
10C
  8
DATA
  6
CONTINUOUS
 62
     7
 10
-1047.0
 20
-1665.3036237998001
 30
0.0
 11
-1047.0
 21
-1607.5328890437399
 31
0.0
  0
LINE
  5
10D
  8
DATA
  6
CONTINUOUS
 62
     7
 10
-1301.8987248127339
 20
-2038.0
 30
0.0
 11
-1098.1012751872661
 21
-2038.0
 31
0.0
  0
LINE
  5
10E
  8
DATA
  6
CONTINUOUS
 62
     7
 10
-1290.7974496254681
 20
-2023.0
 30
0.0
 11
-1109.202550374531
 21
-2023.0
 31
0.0
  0
LINE
  5
10F
  8
DATA
  6
CONTINUOUS
 62
     7
 10
-1250.0927739388269
 20
-1968.0
 30
0.0
 11
-1149.9072260611731
 21
-1968.0
 31
0.0
  0
LINE
  5
110
  8
DATA
  6
CONTINUOUS
 62
     7
 10
-1316.2439983785041
 20
-2027.3832780339851
 30
0.0
 11
-1423.0
 21
-1678.0
 31
0.0
  0
LINE
  5
111
  8
DATA
  6
CONTINUOUS
 62
     7
 10
-1305.142723191238
 20
-2012.3832780339851
 30
0.0
 11
-1407.34527356577
 21
-1677.902204080973
 31
0.0
  0
LINE
  5
112
  8
DATA
  6
CONTINUOUS
 62
     7
 10
-1264.4380475045971
 20
-1957.3832780339851
 30
0.0
 11
-1352.34527356577
 21
-1669.6869018337841
 31
0.0
  0
LINE
  5
113
  8
DATA
  6
CONTINUOUS
 62
     7
 10
-1083.756001621495
 20
-2027.3832780339851
 30
0.0
 11
-977.65472643422959
 21
-1680.142741057479
 31
0.0
  0
LINE
  5
114
  8
DATA
  6
CONTINUOUS
 62
     7
 10
-1094.8572768087611
 20
-2012.3832780339851
 30
0.0
 11
-992.65472643422959
 21
-1677.902204080973
 31
0.0
  0
LINE
  5
115
  8
DATA
  6
CONTINUOUS
 62
     7
 10
-1135.5619524954029
 20
-1957.3832780339851
 30
0.0
 11
-1047.65472643423
 21
-1669.6869018337841
 31
0.0
  0
ARC
  5
116
  8
DATA
  6
CONTINUOUS
 62
     7
 10
-1408.0
 20
-1564.270509831249
 30
0.0
 40
15.00000000000011
 50
116.5650511770788
 51
180.0
  0
ARC
  5
117
  8
DATA
  6
CONTINUOUS
 62
     7
 10
-1318.8931220261779
 20
-1519.7170708443191
 30
0.0
 40
14.999999999983119
 50
94.563193752010193
 51
116.5650511770795
  0
ARC
  5
118
  8
DATA
  6
CONTINUOUS
 62
     7
 10
-1081.106877973818
 20
-1519.717070844315
 30
0.0
 40
14.99999999997855
 50
63.434948822922777
 51
85.436806247998987
  0
ARC
  5
119
  8
DATA
  6
CONTINUOUS
 62
     7
 10
-992.0
 20
-1564.270509831249
 30
0.0
 40
15.0
 50
0.0
 51
63.434948822921228
  0
ARC
  5
11A
  8
DATA
  6
CONTINUOUS
 62
     7
 10
-992.0
 20
-1675.7594630234951
 30
0.0
 40
14.99999999999997
 50
343.00917670801562
 51
0.0000000000017621
  0
ARC
  5
11B
  8
DATA
  6
CONTINUOUS
 62
     7
 10
-1301.8987248127339
 20
-2023.0
 30
0.0
 40
15.000000000000099
 50
196.99082329198609
 51
270.0
  0
ARC
  5
11C
  8
DATA
  6
CONTINUOUS
 62
     7
 10
-1098.1012751872661
 20
-2023.0
 30
0.0
 40
15.0
 50
270.0
 51
343.0091767080138
  0
ARC
  5
11D
  8
DATA
  6
CONTINUOUS
 62
     7
 10
-1290.7974496254681
 20
-2008.0
 30
0.0
 40
15.000000000000099
 50
196.99082329198609
 51
270.0
  0
ARC
  5
11E
  8
DATA
  6
CONTINUOUS
 62
     7
 10
-1109.202550374531
 20
-2008.0
 30
0.0
 40
15.0
 50
270.0
 51
343.0091767080138
  0
ARC
  5
11F
  8
DATA
  6
CONTINUOUS
 62
     7
 10
-1393.0
 20
-1673.518926046989
 30
0.0
 40
15.0
 50
179.99999999999829
 51
196.9908232919845
  0
ARC
  5
120
  8
DATA
  6
CONTINUOUS
 62
     7
 10
-1393.0
 20
-1573.5410196624971
 30
0.0
 40
15.00000000000011
 50
116.5650511770788
 51
180.0
  0
ARC
  5
121
  8
DATA
  6
CONTINUOUS
 62
     7
 10
-1314.7998858746821
 20
-1534.440962599858
 30
0.0
 40
15.00000000001852
 50
94.450056781526953
 51
116.565051177078
  0
ARC
  5
122
  8
DATA
  6
CONTINUOUS
 62
     7
 10
-1085.2001141253179
 20
-1534.440962599858
 30
0.0
 40
15.00000000001841
 50
63.434948822921228
 51
85.549943218472933
  0
ARC
  5
123
  8
DATA
  6
CONTINUOUS
 62
     7
 10
-1007.0
 20
-1573.5410196624971
 30
0.0
 40
15.0
 50
0.0
 51
63.434948822921228
  0
ARC
  5
124
  8
DATA
  6
CONTINUOUS
 62
     7
 10
-1007.0
 20
-1673.518926046989
 30
0.0
 40
14.99999999999997
 50
343.00917670801562
 51
0.0000000000017621
  0
ARC
  5
125
  8
DATA
  6
CONTINUOUS
 62
     7
 10
-1149.9072260611731
 20
-1953.0
 30
0.0
 40
15.0
 50
270.0
 51
343.0091767080138
  0
ARC
  5
126
  8
DATA
  6
CONTINUOUS
 62
     7
 10
-1250.0927739388269
 20
-1953.0
 30
0.0
 40
15.000000000000099
 50
196.99082329198609
 51
270.0
  0
ARC
  5
127
  8
DATA
  6
CONTINUOUS
 62
     7
 10
-1338.0
 20
-1665.3036237998001
 30
0.0
 40
15.0
 50
179.99999999999829
 51
196.9908232919845
  0
ARC
  5
128
  8
DATA
  6
CONTINUOUS
 62
     7
 10
-1338.0
 20
-1607.5328890437399
 30
0.0
 40
15.00000000000011
 50
116.5650511770788
 51
180.0
  0
ARC
  5
129
  8
DATA
  6
CONTINUOUS
 62
     7
 10
-1299.9116352566409
 20
-1588.488706672093
 30
0.0
 40
15.000000000029029
 50
94.019774354450746
 51
116.565051177078
  0
ARC
  5
12A
  8
DATA
  6
CONTINUOUS
 62
     7
 10
-1100.0883647433579
 20
-1588.4887066720939
 30
0.0
 40
15.00000000002939
 50
63.434948822922777
 51
85.980225645549496
  0
ARC
  5
12B
  8
DATA
  6
CONTINUOUS
 62
     7
 10
-1062.0
 20
-1607.5328890437399
 30
0.0
 40
15.0
 50
0.0
 51
63.434948822921228
  0
ARC
  5
12C
  8
DATA
  6
CONTINUOUS
 62
     7
 10
-1062.0
 20
-1665.3036237998001
 30
0.0
 40
14.99999999999997
 50
343.00917670801562
 51
0.0000000000017621
  0
CIRCLE
  5
12D
  8
DATA
  6
CONTINUOUS
 62
     7
 10
-1200.0
 20
-1995.0
 30
0.0
 40
10.000000000000229
  0
LINE
  5
12E
  8
DATA
  6
CONTINUOUS
 62
     7
 10
-1198.0
 20
-1991.5358983848621
 30
0.0
 11
-1196.0
 21
-1995.0
 31
0.0
  0
LINE
  5
12F
  8
DATA
  6
CONTINUOUS
 62
     7
 10
-1202.0
 20
-1991.5358983848621
 30
0.0
 11
-1198.0
 21
-1991.5358983848621
 31
0.0
  0
LINE
  5
130
  8
DATA
  6
CONTINUOUS
 62
     7
 10
-1204.0
 20
-1995.0
 30
0.0
 11
-1202.0
 21
-1991.5358983848621
 31
0.0
  0
LINE
  5
131
  8
DATA
  6
CONTINUOUS
 62
     7
 10
-1202.0
 20
-1998.4641016151379
 30
0.0
 11
-1204.0
 21
-1995.0
 31
0.0
  0
LINE
  5
132
  8
DATA
  6
CONTINUOUS
 62
     7
 10
-1198.0
 20
-1998.4641016151379
 30
0.0
 11
-1202.0
 21
-1998.4641016151379
 31
0.0
  0
LINE
  5
133
  8
DATA
  6
CONTINUOUS
 62
     7
 10
-1196.0
 20
-1995.0
 30
0.0
 11
-1198.0
 21
-1998.4641016151379
 31
0.0
  0
ARC
  5
134
  8
DATA
  6
CONTINUOUS
 62
     7
 10
-1199.9999999999991
 20
-3017.4080894031881
 30
0.0
 40
1447.408089403187
 50
86.000116576327386
 51
93.999883423672657
  0
ARC
  5
135
  8
DATA
  6
CONTINUOUS
 62
     7
 10
-1200.000000000002
 20
-3015.7006673090759
 30
0.0
 40
1515.7006673090759
 50
85.455785905369765
 51
94.544214094629993
  0
ARC
  5
136
  8
DATA
  6
CONTINUOUS
 62
     7
 10
-1200.0
 20
-3016.0216821212598
 30
0.0
 40
1501.02168212126
 50
85.569111335410767
 51
94.430888664589247
  0
LINE
  5
137
  8
DATA
  6
CONTINUOUS
 62
     7
 10
211.39999999940031
 20
-852.5
 30
0.0
 11
193.50000001430001
 21
-852.5
 31
0.0
  0
TEXT
  5
138
  8
DATA
 62
     7
 10
-1750.0
 20
-2375.3699594444452
 30
0.0
 40
38.006293402777779
  1
※仕様及び外観は予告なく変更されることがあります。
 41
0.7
 11
-1750.0
 21
-2337.3636660416669
 31
0.0
 73
     3
  0
TEXT
  5
139
  8
DATA
 62
     7
 10
-1750.0
 20
-2424.7588483333338
 30
0.0
 40
38.006293402777779
  1
　また、同一商品でも若干の個体差があることがあります。ご了承ください。
 41
0.7
 11
-1750.0
 21
-2386.752554930556
 31
0.0
 73
     3
  0
LINE
  5
13A
  8
DATA
  6
CONTINUOUS
 62
     7
 10
-1423.0
 20
164.2705098312486
 30
0.0
 11
-1423.0
 21
278.0
 31
0.0
  0
LINE
  5
13B
  8
DATA
  6
CONTINUOUS
 62
     7
 10
-1408.0
 20
173.54101966249709
 30
0.0
 11
-1408.0
 21
273.5189260469881
 31
0.0
  0
LINE
  5
13C
  8
DATA
  6
CONTINUOUS
 62
     7
 10
-1353.0
 20
207.53288904374111
 30
0.0
 11
-1353.0
 21
265.30362379980011
 31
0.0
  0
LINE
  5
13D
  8
DATA
  6
CONTINUOUS
 62
     7
 10
-1325.60132595867
 20
106.3006629793354
 30
0.0
 11
-1414.7082039324989
 21
150.8541019662498
 31
0.0
  0
LINE
  5
13E
  8
DATA
  6
CONTINUOUS
 62
     7
 10
-1321.508089807189
 20
121.02455473484289
 30
0.0
 11
-1399.7082039324989
 21
160.12461179749829
 31
0.0
  0
LINE
  5
13F
  8
DATA
  6
CONTINUOUS
 62
     7
 10
-1306.619839189153
 20
175.07229880706879
 30
0.0
 11
-1344.7082039325001
 21
194.1164811787423
 31
0.0
  0
LINE
  5
140
  8
DATA
  6
CONTINUOUS
 62
     7
 10
-1074.3986740413279
 20
106.3006629793358
 30
0.0
 11
-985.29179606750017
 21
150.8541019662498
 31
0.0
  0
LINE
  5
141
  8
DATA
  6
CONTINUOUS
 62
     7
 10
-1078.491910192811
 20
121.02455473484289
 30
0.0
 11
-1000.2917960674999
 21
160.12461179749829
 31
0.0
  0
LINE
  5
142
  8
DATA
  6
CONTINUOUS
 62
     7
 10
-1093.3801608108461
 20
175.07229880706919
 30
0.0
 11
-1055.2917960674999
 21
194.11648117874211
 31
0.0
  0
LINE
  5
143
  8
DATA
  6
CONTINUOUS
 62
     7
 10
-977.0
 20
275.75946302349422
 30
0.0
 11
-977.0
 21
164.2705098312486
 31
0.0
  0
LINE
  5
144
  8
DATA
  6
CONTINUOUS
 62
     7
 10
-992.0
 20
273.5189260469881
 30
0.0
 11
-992.0
 21
173.54101966249709
 31
0.0
  0
LINE
  5
145
  8
DATA
  6
CONTINUOUS
 62
     7
 10
-1047.0
 20
265.30362379980011
 30
0.0
 11
-1047.0
 21
207.53288904374079
 31
0.0
  0
LINE
  5
146
  8
DATA
  6
CONTINUOUS
 62
     7
 10
-1301.8987248127339
 20
638.0
 30
0.0
 11
-1098.1012751872661
 21
638.0
 31
0.0
  0
LINE
  5
147
  8
DATA
  6
CONTINUOUS
 62
     7
 10
-1290.7974496254681
 20
623.0
 30
0.0
 11
-1109.202550374531
 21
623.0
 31
0.0
  0
LINE
  5
148
  8
DATA
  6
CONTINUOUS
 62
     7
 10
-1250.0927739388269
 20
568.0
 30
0.0
 11
-1149.9072260611731
 21
568.0
 31
0.0
  0
LINE
  5
149
  8
DATA
  6
CONTINUOUS
 62
     7
 10
-1316.2439983785041
 20
627.38327803398511
 30
0.0
 11
-1423.0
 21
278.0
 31
0.0
  0
LINE
  5
14A
  8
DATA
  6
CONTINUOUS
 62
     7
 10
-1305.142723191238
 20
612.38327803398522
 30
0.0
 11
-1407.34527356577
 21
277.90220408097349
 31
0.0
  0
LINE
  5
14B
  8
DATA
  6
CONTINUOUS
 62
     7
 10
-1264.4380475045971
 20
557.38327803398522
 30
0.0
 11
-1352.34527356577
 21
269.68690183378499
 31
0.0
  0
LINE
  5
14C
  8
DATA
  6
CONTINUOUS
 62
     7
 10
-1083.756001621495
 20
627.38327803398511
 30
0.0
 11
-977.65472643422959
 21
280.14274105747933
 31
0.0
  0
LINE
  5
14D
  8
DATA
  6
CONTINUOUS
 62
     7
 10
-1094.8572768087611
 20
612.38327803398522
 30
0.0
 11
-992.65472643422959
 21
277.90220408097349
 31
0.0
  0
LINE
  5
14E
  8
DATA
  6
CONTINUOUS
 62
     7
 10
-1135.5619524954029
 20
557.38327803398522
 30
0.0
 11
-1047.65472643423
 21
269.68690183378499
 31
0.0
  0
ARC
  5
14F
  8
DATA
  6
CONTINUOUS
 62
     7
 10
-1408.0
 20
164.2705098312486
 30
0.0
 40
15.0
 50
180.0
 51
243.43494882292131
  0
ARC
  5
150
  8
DATA
  6
CONTINUOUS
 62
     7
 10
-1318.8931220261779
 20
119.7170708443191
 30
0.0
 40
14.99999999998343
 50
243.43494882292049
 51
265.43680624798969
  0
ARC
  5
151
  8
DATA
  6
CONTINUOUS
 62
     7
 10
-1081.106877973818
 20
119.7170708443154
 30
0.0
 40
14.9999999999786
 50
274.5631937520011
 51
296.56505117707729
  0
ARC
  5
152
  8
DATA
  6
CONTINUOUS
 62
     7
 10
-992.0
 20
164.2705098312486
 30
0.0
 40
15.00000000000011
 50
296.56505117707889
 51
0.0
  0
ARC
  5
153
  8
DATA
  6
CONTINUOUS
 62
     7
 10
-992.0
 20
275.75946302349439
 30
0.0
 40
15.0
 50
359.9999999999992
 51
16.990823291984551
  0
ARC
  5
154
  8
DATA
  6
CONTINUOUS
 62
     7
 10
-1301.8987248127339
 20
623.0
 30
0.0
 40
15.0
 50
90.0
 51
163.0091767080138
  0
ARC
  5
155
  8
DATA
  6
CONTINUOUS
 62
     7
 10
-1098.1012751872661
 20
623.0
 30
0.0
 40
15.000000000000099
 50
16.990823291986171
 51
90.0
  0
ARC
  5
156
  8
DATA
  6
CONTINUOUS
 62
     7
 10
-1290.7974496254681
 20
608.0
 30
0.0
 40
15.0
 50
90.0
 51
163.0091767080138
  0
ARC
  5
157
  8
DATA
  6
CONTINUOUS
 62
     7
 10
-1109.202550374531
 20
608.0
 30
0.0
 40
15.000000000000099
 50
16.990823291986171
 51
90.0
  0
ARC
  5
158
  8
DATA
  6
CONTINUOUS
 62
     7
 10
-1393.0
 20
273.5189260469885
 30
0.0
 40
14.99999999999997
 50
163.0091767080155
 51
180.00000000000171
  0
ARC
  5
159
  8
DATA
  6
CONTINUOUS
 62
     7
 10
-1393.0
 20
173.54101966249709
 30
0.0
 40
15.0
 50
180.0
 51
243.43494882292131
  0
ARC
  5
15A
  8
DATA
  6
CONTINUOUS
 62
     7
 10
-1314.7998858746821
 20
134.4409625998583
 30
0.0
 40
15.00000000001862
 50
243.43494882292171
 51
265.549943218473
  0
ARC
  5
15B
  8
DATA
  6
CONTINUOUS
 62
     7
 10
-1085.2001141253179
 20
134.44096259985781
 30
0.0
 40
15.00000000001784
 50
274.45005678152711
 51
296.56505117707923
  0
ARC
  5
15C
  8
DATA
  6
CONTINUOUS
 62
     7
 10
-1007.0
 20
173.54101966249709
 30
0.0
 40
15.00000000000011
 50
296.56505117707889
 51
0.0
  0
ARC
  5
15D
  8
DATA
  6
CONTINUOUS
 62
     7
 10
-1007.0
 20
273.51892604698838
 30
0.0
 40
15.0
 50
359.9999999999992
 51
16.99082329198535
  0
ARC
  5
15E
  8
DATA
  6
CONTINUOUS
 62
     7
 10
-1149.9072260611731
 20
553.0
 30
0.0
 40
15.000000000000099
 50
16.990823291986171
 51
90.0
  0
ARC
  5
15F
  8
DATA
  6
CONTINUOUS
 62
     7
 10
-1250.0927739388269
 20
553.0
 30
0.0
 40
15.0
 50
90.0
 51
163.0091767080138
  0
ARC
  5
160
  8
DATA
  6
CONTINUOUS
 62
     7
 10
-1338.0
 20
265.30362379980011
 30
0.0
 40
14.99999999999997
 50
163.0091767080155
 51
180.00000000000171
  0
ARC
  5
161
  8
DATA
  6
CONTINUOUS
 62
     7
 10
-1338.0
 20
207.53288904374079
 30
0.0
 40
15.0
 50
179.9999999999992
 51
243.43494882292089
  0
ARC
  5
162
  8
DATA
  6
CONTINUOUS
 62
     7
 10
-1299.9116352566409
 20
188.4887066720934
 30
0.0
 40
15.00000000002899
 50
243.434948822922
 51
265.98022564554918
  0
ARC
  5
163
  8
DATA
  6
CONTINUOUS
 62
     7
 10
-1100.0883647433579
 20
188.48870667209439
 30
0.0
 40
15.00000000002972
 50
274.01977435445048
 51
296.56505117707718
  0
ARC
  5
164
  8
DATA
  6
CONTINUOUS
 62
     7
 10
-1062.0
 20
207.53288904374079
 30
0.0
 40
15.00000000000011
 50
296.56505117707889
 51
0.0
  0
ARC
  5
165
  8
DATA
  6
CONTINUOUS
 62
     7
 10
-1062.0
 20
265.30362379980011
 30
0.0
 40
15.0
 50
359.99999999999841
 51
16.990823291984551
  0
CIRCLE
  5
166
  8
DATA
  6
CONTINUOUS
 62
     7
 10
-1200.0
 20
595.0
 30
0.0
 40
10.000000000000229
  0
LINE
  5
167
  8
DATA
  6
CONTINUOUS
 62
     7
 10
-1198.0
 20
591.53589838486232
 30
0.0
 11
-1196.0
 21
595.0
 31
0.0
  0
LINE
  5
168
  8
DATA
  6
CONTINUOUS
 62
     7
 10
-1202.0
 20
591.53589838486232
 30
0.0
 11
-1198.0
 21
591.53589838486232
 31
0.0
  0
LINE
  5
169
  8
DATA
  6
CONTINUOUS
 62
     7
 10
-1204.0
 20
595.0
 30
0.0
 11
-1202.0
 21
591.53589838486232
 31
0.0
  0
LINE
  5
16A
  8
DATA
  6
CONTINUOUS
 62
     7
 10
-1202.0
 20
598.46410161513768
 30
0.0
 11
-1204.0
 21
595.0
 31
0.0
  0
LINE
  5
16B
  8
DATA
  6
CONTINUOUS
 62
     7
 10
-1198.0
 20
598.46410161513768
 30
0.0
 11
-1202.0
 21
598.46410161513768
 31
0.0
  0
LINE
  5
16C
  8
DATA
  6
CONTINUOUS
 62
     7
 10
-1196.0
 20
595.0
 30
0.0
 11
-1198.0
 21
598.46410161513768
 31
0.0
  0
CIRCLE
  5
16D
  8
DATA
  6
CONTINUOUS
 62
     7
 10
-1020.0
 20
229.5
 30
0.0
 40
10.000000000000229
  0
LINE
  5
16E
  8
DATA
  6
CONTINUOUS
 62
     7
 10
-1018.0
 20
226.03589838486229
 30
0.0
 11
-1016.0
 21
229.5
 31
0.0
  0
LINE
  5
16F
  8
DATA
  6
CONTINUOUS
 62
     7
 10
-1022.0
 20
226.03589838486229
 30
0.0
 11
-1018.0
 21
226.03589838486229
 31
0.0
  0
LINE
  5
170
  8
DATA
  6
CONTINUOUS
 62
     7
 10
-1024.0
 20
229.5
 30
0.0
 11
-1022.0
 21
226.03589838486229
 31
0.0
  0
LINE
  5
171
  8
DATA
  6
CONTINUOUS
 62
     7
 10
-1022.0
 20
232.96410161513771
 30
0.0
 11
-1024.0
 21
229.5
 31
0.0
  0
LINE
  5
172
  8
DATA
  6
CONTINUOUS
 62
     7
 10
-1018.0
 20
232.96410161513771
 30
0.0
 11
-1022.0
 21
232.96410161513771
 31
0.0
  0
LINE
  5
173
  8
DATA
  6
CONTINUOUS
 62
     7
 10
-1016.0
 20
229.5
 30
0.0
 11
-1018.0
 21
232.96410161513771
 31
0.0
  0
LINE
  5
174
  8
DATA
  6
CONTINUOUS
 62
     7
 10
-1423.0
 20
-1190.0
 30
0.0
 11
-1423.0
 21
-139.0
 31
0.0
  0
LINE
  5
175
  8
DATA
  6
CONTINUOUS
 62
     7
 10
-1413.0
 20
-1175.0
 30
0.0
 11
-1413.0
 21
-154.0
 31
0.0
  0
LINE
  5
176
  8
DATA
  6
CONTINUOUS
 62
     7
 10
-1400.0
 20
-1162.0
 30
0.0
 11
-1400.0
 21
-1122.0
 31
0.0
  0
LINE
  5
177
  8
DATA
  6
CONTINUOUS
 62
     7
 10
-1400.0
 20
-1112.0
 30
0.0
 11
-1400.0
 21
-350.0
 31
0.0
  0
LINE
  5
178
  8
DATA
  6
CONTINUOUS
 62
     7
 10
-992.0
 20
-1200.0
 30
0.0
 11
-1408.0
 21
-1200.0
 31
0.0
  0
LINE
  5
179
  8
DATA
  6
CONTINUOUS
 62
     7
 10
-992.0
 20
-1200.0
 30
0.0
 11
-977.0
 21
-1190.0
 31
0.0
  0
LINE
  5
17A
  8
DATA
  6
CONTINUOUS
 62
     7
 10
-1408.0
 20
-1200.0
 30
0.0
 11
-1423.0
 21
-1190.0
 31
0.0
  0
LINE
  5
17B
  8
DATA
  6
CONTINUOUS
 62
     7
 10
-977.0
 20
-1190.0
 30
0.0
 11
-1423.0
 21
-1190.0
 31
0.0
  0
LINE
  5
17C
  8
DATA
  6
CONTINUOUS
 62
     7
 10
-987.0
 20
-1175.0
 30
0.0
 11
-1413.0
 21
-1175.0
 31
0.0
  0
LINE
  5
17D
  8
DATA
  6
CONTINUOUS
 62
     7
 10
-1000.0
 20
-1162.0
 30
0.0
 11
-1400.0
 21
-1162.0
 31
0.0
  0
LINE
  5
17E
  8
DATA
  6
CONTINUOUS
 62
     7
 10
-1334.5
 20
-1122.0
 30
0.0
 11
-1400.0
 21
-1122.0
 31
0.0
  0
LINE
  5
17F
  8
DATA
  6
CONTINUOUS
 62
     7
 10
-1341.093961579805
 20
-1112.0
 30
0.0
 11
-1400.0
 21
-1112.0
 31
0.0
  0
LINE
  5
180
  8
DATA
  6
CONTINUOUS
 62
     7
 10
-977.0
 20
-139.0
 30
0.0
 11
-977.0
 21
-1190.0
 31
0.0
  0
LINE
  5
181
  8
DATA
  6
CONTINUOUS
 62
     7
 10
-987.0
 20
-154.0
 30
0.0
 11
-987.0
 21
-1175.0
 31
0.0
  0
LINE
  5
182
  8
DATA
  6
CONTINUOUS
 62
     7
 10
-1000.0
 20
-167.0
 30
0.0
 11
-1000.0
 21
-342.0
 31
0.0
  0
LINE
  5
183
  8
DATA
  6
CONTINUOUS
 62
     7
 10
-1000.0
 20
-350.0
 30
0.0
 11
-1000.0
 21
-1112.0
 31
0.0
  0
LINE
  5
184
  8
DATA
  6
CONTINUOUS
 62
     7
 10
-1000.0
 20
-1122.0
 30
0.0
 11
-1000.0
 21
-1162.0
 31
0.0
  0
LINE
  5
185
  8
DATA
  6
CONTINUOUS
 62
     7
 10
-1408.0
 20
-129.0
 30
0.0
 11
-992.0
 21
-129.0
 31
0.0
  0
LINE
  5
186
  8
DATA
  6
CONTINUOUS
 62
     7
 10
-992.0
 20
-129.0
 30
0.0
 11
-977.0
 21
-139.0
 31
0.0
  0
LINE
  5
187
  8
DATA
  6
CONTINUOUS
 62
     7
 10
-1408.0
 20
-129.0
 30
0.0
 11
-1423.0
 21
-139.0
 31
0.0
  0
LINE
  5
188
  8
DATA
  6
CONTINUOUS
 62
     7
 10
-1423.0
 20
-139.0
 30
0.0
 11
-977.0
 21
-139.0
 31
0.0
  0
LINE
  5
189
  8
DATA
  6
CONTINUOUS
 62
     7
 10
-1413.0
 20
-154.0
 30
0.0
 11
-987.0
 21
-154.0
 31
0.0
  0
LINE
  5
18A
  8
DATA
  6
CONTINUOUS
 62
     7
 10
-1400.0
 20
-167.0
 30
0.0
 11
-1000.0
 21
-167.0
 31
0.0
  0
LINE
  5
18B
  8
DATA
  6
CONTINUOUS
 62
     7
 10
-1319.5
 20
-1087.0
 30
0.0
 11
-1080.5
 21
-1087.0
 31
0.0
  0
LINE
  5
18C
  8
DATA
  6
CONTINUOUS
 62
     7
 10
-1326.093961579805
 20
-1077.0
 30
0.0
 11
-1073.9060384201939
 21
-1077.0
 31
0.0
  0
LINE
  5
18D
  8
DATA
  6
CONTINUOUS
 62
     7
 10
-1334.5
 20
-1122.0
 30
0.0
 11
-1319.5
 21
-1087.0
 31
0.0
  0
LINE
  5
18E
  8
DATA
  6
CONTINUOUS
 62
     7
 10
-1341.093961579805
 20
-1112.0
 30
0.0
 11
-1326.093961579805
 21
-1077.0
 31
0.0
  0
LINE
  5
18F
  8
DATA
  6
CONTINUOUS
 62
     7
 10
-1065.5
 20
-1122.0
 30
0.0
 11
-1000.0
 21
-1122.0
 31
0.0
  0
LINE
  5
190
  8
DATA
  6
CONTINUOUS
 62
     7
 10
-1058.9060384201939
 20
-1112.0
 30
0.0
 11
-1000.0
 21
-1112.0
 31
0.0
  0
LINE
  5
191
  8
DATA
  6
CONTINUOUS
 62
     7
 10
-1065.5
 20
-1122.0
 30
0.0
 11
-1080.5
 21
-1087.0
 31
0.0
  0
LINE
  5
192
  8
DATA
  6
CONTINUOUS
 62
     7
 10
-1058.9060384201939
 20
-1112.0
 30
0.0
 11
-1073.9060384201939
 21
-1077.0
 31
0.0
  0
LINE
  5
193
  8
DATA
  6
CONTINUOUS
 62
     7
 10
-1341.093961579805
 20
-350.0
 30
0.0
 11
-1400.0
 21
-350.0
 31
0.0
  0
LINE
  5
194
  8
DATA
  6
CONTINUOUS
 62
     7
 10
-1331.466921969753
 20
-342.0
 30
0.0
 11
-1400.0
 21
-342.0
 31
0.0
  0
LINE
  5
195
  8
DATA
  6
CONTINUOUS
 62
     7
 10
-1326.093961579805
 20
-385.0
 30
0.0
 11
-1073.9060384201939
 21
-385.0
 31
0.0
  0
LINE
  5
196
  8
DATA
  6
CONTINUOUS
 62
     7
 10
-1318.181207684039
 20
-373.0
 30
0.0
 11
-1081.818792315961
 21
-373.0
 31
0.0
  0
LINE
  5
197
  8
DATA
  6
CONTINUOUS
 62
     7
 10
-1341.093961579805
 20
-350.0
 30
0.0
 11
-1326.093961579805
 21
-385.0
 31
0.0
  0
LINE
  5
198
  8
DATA
  6
CONTINUOUS
 62
     7
 10
-1331.466921969753
 20
-342.0
 30
0.0
 11
-1318.181207684039
 21
-373.0
 31
0.0
  0
LINE
  5
199
  8
DATA
  6
CONTINUOUS
 62
     7
 10
-1058.9060384201939
 20
-350.0
 30
0.0
 11
-1000.0
 21
-350.0
 31
0.0
  0
LINE
  5
19A
  8
DATA
  6
CONTINUOUS
 62
     7
 10
-1068.5330780302461
 20
-342.0
 30
0.0
 11
-1000.0
 21
-342.0
 31
0.0
  0
LINE
  5
19B
  8
DATA
  6
CONTINUOUS
 62
     7
 10
-1058.9060384201939
 20
-350.0
 30
0.0
 11
-1073.9060384201939
 21
-385.0
 31
0.0
  0
LINE
  5
19C
  8
DATA
  6
CONTINUOUS
 62
     7
 10
-1068.5330780302461
 20
-342.0
 30
0.0
 11
-1081.818792315961
 21
-373.0
 31
0.0
  0
LINE
  5
19D
  8
DATA
  6
CONTINUOUS
 62
     7
 10
-1400.0
 20
-342.0
 30
0.0
 11
-1400.0
 21
-167.0
 31
0.0
  0
CIRCLE
  5
19E
  8
DATA
  6
CONTINUOUS
 62
     7
 10
-1405.0
 20
-1167.0
 30
0.0
 40
3.2500000000001719
  0
CIRCLE
  5
19F
  8
DATA
  6
CONTINUOUS
 62
     7
 10
-1311.0
 20
-1167.0
 30
0.0
 40
3.2500000000001719
  0
CIRCLE
  5
1A0
  8
DATA
  6
CONTINUOUS
 62
     7
 10
-1089.0
 20
-1167.0
 30
0.0
 40
3.2500000000001719
  0
CIRCLE
  5
1A1
  8
DATA
  6
CONTINUOUS
 62
     7
 10
-995.0
 20
-1167.0
 30
0.0
 40
3.2500000000001719
  0
CIRCLE
  5
1A2
  8
DATA
  6
CONTINUOUS
 62
     7
 10
-1200.0
 20
-1167.0
 30
0.0
 40
2.0000000000001679
  0
LINE
  5
1A3
  8
DATA
  6
CONTINUOUS
 62
     7
 10
-1407.0
 20
-1167.0
 30
0.0
 11
-1403.0
 21
-1167.0
 31
0.0
  0
LINE
  5
1A4
  8
DATA
  6
CONTINUOUS
 62
     7
 10
-1405.0
 20
-1169.0
 30
0.0
 11
-1405.0
 21
-1165.0
 31
0.0
  0
LINE
  5
1A5
  8
DATA
  6
CONTINUOUS
 62
     7
 10
-1313.0
 20
-1167.0
 30
0.0
 11
-1309.0
 21
-1167.0
 31
0.0
  0
LINE
  5
1A6
  8
DATA
  6
CONTINUOUS
 62
     7
 10
-1311.0
 20
-1169.0
 30
0.0
 11
-1311.0
 21
-1165.0
 31
0.0
  0
LINE
  5
1A7
  8
DATA
  6
CONTINUOUS
 62
     7
 10
-1091.0
 20
-1167.0
 30
0.0
 11
-1087.0
 21
-1167.0
 31
0.0
  0
LINE
  5
1A8
  8
DATA
  6
CONTINUOUS
 62
     7
 10
-1089.0
 20
-1169.0
 30
0.0
 11
-1089.0
 21
-1165.0
 31
0.0
  0
LINE
  5
1A9
  8
DATA
  6
CONTINUOUS
 62
     7
 10
-997.0
 20
-1167.0
 30
0.0
 11
-993.0
 21
-1167.0
 31
0.0
  0
LINE
  5
1AA
  8
DATA
  6
CONTINUOUS
 62
     7
 10
-995.0
 20
-1169.0
 30
0.0
 11
-995.0
 21
-1165.0
 31
0.0
  0
CIRCLE
  5
1AB
  8
DATA
  6
CONTINUOUS
 62
     7
 10
-1405.0
 20
-162.0
 30
0.0
 40
3.2500000000001719
  0
CIRCLE
  5
1AC
  8
DATA
  6
CONTINUOUS
 62
     7
 10
-1311.0
 20
-162.0
 30
0.0
 40
3.2500000000001719
  0
CIRCLE
  5
1AD
  8
DATA
  6
CONTINUOUS
 62
     7
 10
-1089.0
 20
-162.0
 30
0.0
 40
3.2500000000001719
  0
CIRCLE
  5
1AE
  8
DATA
  6
CONTINUOUS
 62
     7
 10
-995.0
 20
-162.0
 30
0.0
 40
3.2500000000001719
  0
LINE
  5
1AF
  8
DATA
  6
CONTINUOUS
 62
     7
 10
-1407.0
 20
-162.0
 30
0.0
 11
-1403.0
 21
-162.0
 31
0.0
  0
LINE
  5
1B0
  8
DATA
  6
CONTINUOUS
 62
     7
 10
-1405.0
 20
-160.0
 30
0.0
 11
-1405.0
 21
-164.0
 31
0.0
  0
LINE
  5
1B1
  8
DATA
  6
CONTINUOUS
 62
     7
 10
-1313.0
 20
-162.0
 30
0.0
 11
-1309.0
 21
-162.0
 31
0.0
  0
LINE
  5
1B2
  8
DATA
  6
CONTINUOUS
 62
     7
 10
-1311.0
 20
-160.0
 30
0.0
 11
-1311.0
 21
-164.0
 31
0.0
  0
LINE
  5
1B3
  8
DATA
  6
CONTINUOUS
 62
     7
 10
-1091.0
 20
-162.0
 30
0.0
 11
-1087.0
 21
-162.0
 31
0.0
  0
LINE
  5
1B4
  8
DATA
  6
CONTINUOUS
 62
     7
 10
-1089.0
 20
-160.0
 30
0.0
 11
-1089.0
 21
-164.0
 31
0.0
  0
LINE
  5
1B5
  8
DATA
  6
CONTINUOUS
 62
     7
 10
-997.0
 20
-162.0
 30
0.0
 11
-993.0
 21
-162.0
 31
0.0
  0
LINE
  5
1B6
  8
DATA
  6
CONTINUOUS
 62
     7
 10
-995.0
 20
-160.0
 30
0.0
 11
-995.0
 21
-164.0
 31
0.0
  0
CIRCLE
  5
1B7
  8
DATA
  6
CONTINUOUS
 62
     7
 10
-1405.0
 20
-330.0
 30
0.0
 40
3.2500000000001719
  0
LINE
  5
1B8
  8
DATA
  6
CONTINUOUS
 62
     7
 10
-1407.0
 20
-330.0
 30
0.0
 11
-1403.0
 21
-330.0
 31
0.0
  0
LINE
  5
1B9
  8
DATA
  6
CONTINUOUS
 62
     7
 10
-1405.0
 20
-328.0
 30
0.0
 11
-1405.0
 21
-332.0
 31
0.0
  0
CIRCLE
  5
1BA
  8
DATA
  6
CONTINUOUS
 62
     7
 10
-1405.0
 20
-498.0
 30
0.0
 40
3.2500000000001719
  0
LINE
  5
1BB
  8
DATA
  6
CONTINUOUS
 62
     7
 10
-1407.0
 20
-498.0
 30
0.0
 11
-1403.0
 21
-498.0
 31
0.0
  0
LINE
  5
1BC
  8
DATA
  6
CONTINUOUS
 62
     7
 10
-1405.0
 20
-496.0
 30
0.0
 11
-1405.0
 21
-500.0
 31
0.0
  0
CIRCLE
  5
1BD
  8
DATA
  6
CONTINUOUS
 62
     7
 10
-1405.0
 20
-666.0
 30
0.0
 40
3.2500000000001719
  0
LINE
  5
1BE
  8
DATA
  6
CONTINUOUS
 62
     7
 10
-1407.0
 20
-666.0
 30
0.0
 11
-1403.0
 21
-666.0
 31
0.0
  0
LINE
  5
1BF
  8
DATA
  6
CONTINUOUS
 62
     7
 10
-1405.0
 20
-664.0
 30
0.0
 11
-1405.0
 21
-668.0
 31
0.0
  0
CIRCLE
  5
1C0
  8
DATA
  6
CONTINUOUS
 62
     7
 10
-1405.0
 20
-834.0
 30
0.0
 40
3.2500000000001719
  0
LINE
  5
1C1
  8
DATA
  6
CONTINUOUS
 62
     7
 10
-1407.0
 20
-834.0
 30
0.0
 11
-1403.0
 21
-834.0
 31
0.0
  0
LINE
  5
1C2
  8
DATA
  6
CONTINUOUS
 62
     7
 10
-1405.0
 20
-832.0
 30
0.0
 11
-1405.0
 21
-836.0
 31
0.0
  0
CIRCLE
  5
1C3
  8
DATA
  6
CONTINUOUS
 62
     7
 10
-1405.0
 20
-1002.0
 30
0.0
 40
3.2500000000001719
  0
LINE
  5
1C4
  8
DATA
  6
CONTINUOUS
 62
     7
 10
-1407.0
 20
-1002.0
 30
0.0
 11
-1403.0
 21
-1002.0
 31
0.0
  0
LINE
  5
1C5
  8
DATA
  6
CONTINUOUS
 62
     7
 10
-1405.0
 20
-1000.0
 30
0.0
 11
-1405.0
 21
-1004.0
 31
0.0
  0
CIRCLE
  5
1C6
  8
DATA
  6
CONTINUOUS
 62
     7
 10
-995.0
 20
-330.0
 30
0.0
 40
3.2500000000001719
  0
LINE
  5
1C7
  8
DATA
  6
CONTINUOUS
 62
     7
 10
-997.0
 20
-330.0
 30
0.0
 11
-993.0
 21
-330.0
 31
0.0
  0
LINE
  5
1C8
  8
DATA
  6
CONTINUOUS
 62
     7
 10
-995.0
 20
-328.0
 30
0.0
 11
-995.0
 21
-332.0
 31
0.0
  0
CIRCLE
  5
1C9
  8
DATA
  6
CONTINUOUS
 62
     7
 10
-995.0
 20
-498.0
 30
0.0
 40
3.2500000000001719
  0
LINE
  5
1CA
  8
DATA
  6
CONTINUOUS
 62
     7
 10
-997.0
 20
-498.0
 30
0.0
 11
-993.0
 21
-498.0
 31
0.0
  0
LINE
  5
1CB
  8
DATA
  6
CONTINUOUS
 62
     7
 10
-995.0
 20
-496.0
 30
0.0
 11
-995.0
 21
-500.0
 31
0.0
  0
CIRCLE
  5
1CC
  8
DATA
  6
CONTINUOUS
 62
     7
 10
-995.0
 20
-666.0
 30
0.0
 40
3.2500000000001719
  0
LINE
  5
1CD
  8
DATA
  6
CONTINUOUS
 62
     7
 10
-997.0
 20
-666.0
 30
0.0
 11
-993.0
 21
-666.0
 31
0.0
  0
LINE
  5
1CE
  8
DATA
  6
CONTINUOUS
 62
     7
 10
-995.0
 20
-664.0
 30
0.0
 11
-995.0
 21
-668.0
 31
0.0
  0
CIRCLE
  5
1CF
  8
DATA
  6
CONTINUOUS
 62
     7
 10
-995.0
 20
-834.0
 30
0.0
 40
3.2500000000001719
  0
LINE
  5
1D0
  8
DATA
  6
CONTINUOUS
 62
     7
 10
-997.0
 20
-834.0
 30
0.0
 11
-993.0
 21
-834.0
 31
0.0
  0
LINE
  5
1D1
  8
DATA
  6
CONTINUOUS
 62
     7
 10
-995.0
 20
-832.0
 30
0.0
 11
-995.0
 21
-836.0
 31
0.0
  0
CIRCLE
  5
1D2
  8
DATA
  6
CONTINUOUS
 62
     7
 10
-995.0
 20
-1002.0
 30
0.0
 40
3.2500000000001719
  0
LINE
  5
1D3
  8
DATA
  6
CONTINUOUS
 62
     7
 10
-997.0
 20
-1002.0
 30
0.0
 11
-993.0
 21
-1002.0
 31
0.0
  0
LINE
  5
1D4
  8
DATA
  6
CONTINUOUS
 62
     7
 10
-995.0
 20
-1000.0
 30
0.0
 11
-995.0
 21
-1004.0
 31
0.0
  0
LINE
  5
1D5
  8
DATA
  6
CONTINUOUS
 62
     7
 10
-1230.0
 20
-1041.0
 30
0.0
 11
-1230.0
 21
-991.0
 31
0.0
  0
LINE
  5
1D6
  8
DATA
  6
CONTINUOUS
 62
     7
 10
-1170.0
 20
-1041.0
 30
0.0
 11
-1230.0
 21
-1041.0
 31
0.0
  0
LINE
  5
1D7
  8
DATA
  6
CONTINUOUS
 62
     7
 10
-1170.0
 20
-991.0
 30
0.0
 11
-1170.0
 21
-1041.0
 31
0.0
  0
LINE
  5
1D8
  8
DATA
  6
CONTINUOUS
 62
     7
 10
-1230.0
 20
-991.0
 30
0.0
 11
-1170.0
 21
-991.0
 31
0.0
  0
LINE
  5
1D9
  8
DATA
  6
CONTINUOUS
 62
     7
 10
-1223.0
 20
-1034.5
 30
0.0
 11
-1223.0
 21
-997.49999999999989
 31
0.0
  0
LINE
  5
1DA
  8
DATA
  6
CONTINUOUS
 62
     7
 10
-1177.0
 20
-1034.5
 30
0.0
 11
-1223.0
 21
-1034.5
 31
0.0
  0
LINE
  5
1DB
  8
DATA
  6
CONTINUOUS
 62
     7
 10
-1177.0
 20
-997.49999999999989
 30
0.0
 11
-1177.0
 21
-1034.5
 31
0.0
  0
LINE
  5
1DC
  8
DATA
  6
CONTINUOUS
 62
     7
 10
-1223.0
 20
-997.49999999999989
 30
0.0
 11
-1177.0
 21
-997.49999999999989
 31
0.0
  0
LINE
  5
1DD
  8
DATA
  6
CONTINUOUS
 62
     7
 10
-1400.0
 20
-1203.5
 30
0.0
 11
-1400.0
 21
-1200.0
 31
0.0
  0
LINE
  5
1DE
  8
DATA
  6
CONTINUOUS
 62
     7
 10
-1360.0
 20
-1203.5
 30
0.0
 11
-1400.0
 21
-1203.5
 31
0.0
  0
LINE
  5
1DF
  8
DATA
  6
CONTINUOUS
 62
     7
 10
-1360.0
 20
-1200.0
 30
0.0
 11
-1360.0
 21
-1203.5
 31
0.0
  0
LINE
  5
1E0
  8
DATA
  6
CONTINUOUS
 62
     7
 10
-353.50000000000051
 20
-1203.5
 30
0.0
 11
-353.50000000000051
 21
-1200.0
 31
0.0
  0
LINE
  5
1E1
  8
DATA
  6
CONTINUOUS
 62
     7
 10
-313.5000000000004
 20
-1203.5
 30
0.0
 11
-353.50000000000051
 21
-1203.5
 31
0.0
  0
LINE
  5
1E2
  8
DATA
  6
CONTINUOUS
 62
     7
 10
-313.5000000000004
 20
-1200.0
 30
0.0
 11
-313.5000000000004
 21
-1203.5
 31
0.0
  0
LINE
  5
1E3
  8
DATA
  6
CONTINUOUS
 62
     7
 10
-850.0
 20
-1190.0
 30
0.0
 11
-850.0
 21
-139.0
 31
0.0
  0
LINE
  5
1E4
  8
DATA
  6
CONTINUOUS
 62
     7
 10
-785.0
 20
-1190.0
 30
0.0
 11
-785.0
 21
-139.0
 31
0.0
  0
LINE
  5
1E5
  8
DATA
  6
CONTINUOUS
 62
     7
 10
-307.0000000000004
 20
-1200.0
 30
0.0
 11
-835.0
 21
-1200.0
 31
0.0
  0
LINE
  5
1E6
  8
DATA
  6
CONTINUOUS
 62
     7
 10
-307.0000000000004
 20
-1200.0
 30
0.0
 11
-292.0000000000004
 21
-1190.0
 31
0.0
  0
LINE
  5
1E7
  8
DATA
  6
CONTINUOUS
 62
     7
 10
-835.0
 20
-1200.0
 30
0.0
 11
-850.0
 21
-1190.0
 31
0.0
  0
LINE
  5
1E8
  8
DATA
  6
CONTINUOUS
 62
     7
 10
-292.0000000000004
 20
-1190.0
 30
0.0
 11
-850.0
 21
-1190.0
 31
0.0
  0
LINE
  5
1E9
  8
DATA
  6
CONTINUOUS
 62
     7
 10
-815.0
 20
-1175.0
 30
0.0
 11
-850.0
 21
-1175.0
 31
0.0
  0
LINE
  5
1EA
  8
DATA
  6
CONTINUOUS
 62
     7
 10
-292.0000000000004
 20
-139.0
 30
0.0
 11
-292.0000000000004
 21
-1190.0
 31
0.0
  0
LINE
  5
1EB
  8
DATA
  6
CONTINUOUS
 62
     7
 10
-815.0
 20
-154.0
 30
0.0
 11
-815.0
 21
-1175.0
 31
0.0
  0
LINE
  5
1EC
  8
DATA
  6
CONTINUOUS
 62
     7
 10
-815.0
 20
-154.0
 30
0.0
 11
-815.0
 21
-1175.0
 31
0.0
  0
LINE
  5
1ED
  8
DATA
  6
CONTINUOUS
 62
     7
 10
-835.0
 20
-129.0
 30
0.0
 11
-307.0000000000004
 21
-129.0
 31
0.0
  0
LINE
  5
1EE
  8
DATA
  6
CONTINUOUS
 62
     7
 10
-307.0000000000004
 20
-129.0
 30
0.0
 11
-292.0000000000004
 21
-139.0
 31
0.0
  0
LINE
  5
1EF
  8
DATA
  6
CONTINUOUS
 62
     7
 10
-835.0
 20
-129.0
 30
0.0
 11
-850.0
 21
-139.0
 31
0.0
  0
LINE
  5
1F0
  8
DATA
  6
CONTINUOUS
 62
     7
 10
-850.0
 20
-139.0
 30
0.0
 11
-292.0000000000004
 21
-139.0
 31
0.0
  0
LINE
  5
1F1
  8
DATA
  6
CONTINUOUS
 62
     7
 10
-850.0
 20
-154.0
 30
0.0
 11
-815.0
 21
-154.0
 31
0.0
  0
LINE
  5
1F2
  8
DATA
  6
CONTINUOUS
 62
     7
 10
-773.00000000000034
 20
-1203.5
 30
0.0
 11
-773.00000000000034
 21
-1200.0
 31
0.0
  0
LINE
  5
1F3
  8
DATA
  6
CONTINUOUS
 62
     7
 10
-733.00000000000034
 20
-1203.5
 30
0.0
 11
-773.00000000000034
 21
-1203.5
 31
0.0
  0
LINE
  5
1F4
  8
DATA
  6
CONTINUOUS
 62
     7
 10
-733.00000000000034
 20
-1200.0
 30
0.0
 11
-733.00000000000034
 21
-1203.5
 31
0.0
  0
LINE
  5
1F5
  8
DATA
  6
CONTINUOUS
 62
     7
 10
423.0
 20
-1190.0
 30
0.0
 11
423.0
 21
-139.0
 31
0.0
  0
LINE
  5
1F6
  8
DATA
  6
CONTINUOUS
 62
     7
 10
-8.0
 20
-1200.0
 30
0.0
 11
-23.0
 21
-1190.0
 31
0.0
  0
LINE
  5
1F7
  8
DATA
  6
CONTINUOUS
 62
     7
 10
408.0
 20
-1200.0
 30
0.0
 11
423.0
 21
-1190.0
 31
0.0
  0
LINE
  5
1F8
  8
DATA
  6
CONTINUOUS
 62
     7
 10
-23.0
 20
-1190.0
 30
0.0
 11
423.0
 21
-1190.0
 31
0.0
  0
LINE
  5
1F9
  8
DATA
  6
CONTINUOUS
 62
     7
 10
-23.0
 20
-139.0
 30
0.0
 11
-23.0
 21
-1190.0
 31
0.0
  0
LINE
  5
1FA
  8
DATA
  6
CONTINUOUS
 62
     7
 10
408.0
 20
-129.0
 30
0.0
 11
-8.0
 21
-129.0
 31
0.0
  0
LINE
  5
1FB
  8
DATA
  6
CONTINUOUS
 62
     7
 10
-8.0
 20
-129.0
 30
0.0
 11
-23.0
 21
-139.0
 31
0.0
  0
LINE
  5
1FC
  8
DATA
  6
CONTINUOUS
 62
     7
 10
408.0
 20
-129.0
 30
0.0
 11
423.0
 21
-139.0
 31
0.0
  0
LINE
  5
1FD
  8
DATA
  6
CONTINUOUS
 62
     7
 10
423.0
 20
-139.0
 30
0.0
 11
-23.0
 21
-139.0
 31
0.0
  0
CIRCLE
  5
1FE
  8
DATA
  6
CONTINUOUS
 62
     7
 10
199.9999999999508
 20
-878.00000000007788
 30
0.0
 40
6.4999999999994564
  0
LINE
  5
1FF
  8
DATA
  6
CONTINUOUS
 62
     7
 10
203.82060413985249
 20
-883.25861046351577
 30
0.0
 11
205.8778525228754
 21
-886.09016994382762
 31
0.0
  0
LINE
  5
200
  8
DATA
  6
CONTINUOUS
 62
     7
 10
206.18186735587
 20
-875.99138953664044
 30
0.0
 11
209.51056516290191
 21
-874.90983005632802
 31
0.0
  0
LINE
  5
201
  8
DATA
  6
CONTINUOUS
 62
     7
 10
199.9999999999508
 20
-871.50000000007788
 30
0.0
 11
199.9999999999508
 21
-868.00000000007788
 31
0.0
  0
LINE
  5
202
  8
DATA
  6
CONTINUOUS
 62
     7
 10
193.81813264403161
 20
-875.99138953664044
 30
0.0
 11
190.48943483699981
 21
-874.90983005632802
 31
0.0
  0
LINE
  5
203
  8
DATA
  6
CONTINUOUS
 62
     7
 10
196.17939586058671
 20
-883.25861046277294
 30
0.0
 11
194.1221474770264
 21
-886.09016994382694
 31
0.0
  0
LINE
  5
204
  8
DATA
  6
CONTINUOUS
 62
     7
 10
197.49527141995529
 20
-882.29811394161834
 30
0.0
 11
196.8900638432041
 21
-883.13111070839034
 31
0.0
  0
LINE
  5
205
  8
DATA
  6
CONTINUOUS
 62
     7
 10
199.59549150281239
 20
-877.70610737385402
 30
0.0
 11
199.56580231848599
 21
-877.74697103039364
 31
0.0
  0
LINE
  5
206
  8
DATA
  6
CONTINUOUS
 62
     7
 10
196.68625442557999
 20
-881.7103286893265
 30
0.0
 11
196.0810468488298
 21
-882.5433254560977
 31
0.0
  0
LINE
  5
207
  8
DATA
  6
CONTINUOUS
 62
     7
 10
193.5987496053713
 20
-876.87128684524282
 30
0.0
 11
192.12153797585319
 21
-876.61081457874252
 31
0.0
  0
LINE
  5
208
  8
DATA
  6
CONTINUOUS
 62
     7
 10
193.5039596243268
 20
-877.77315327151155
 30
0.0
 11
192.00487338379841
 21
-877.72080402645793
 31
0.0
  0
LINE
  5
209
  8
DATA
  6
CONTINUOUS
 62
     7
 10
193.5356076800563
 20
-878.67943501131742
 30
0.0
 11
192.04382483700459
 21
-878.83622770621889
 31
0.0
  0
LINE
  5
20A
  8
DATA
  6
CONTINUOUS
 62
     7
 10
193.69307777915671
 20
-879.57249232147569
 30
0.0
 11
192.2376341897434
 21
-879.93537516487504
 31
0.0
  0
LINE
  5
20B
  8
DATA
  6
CONTINUOUS
 62
     7
 10
193.97330494526611
 20
-880.43494285728161
 30
0.0
 11
192.58252916341729
 21
-880.99685274740489
 31
0.0
  0
LINE
  5
20C
  8
DATA
  6
CONTINUOUS
 62
     7
 10
194.3708348753525
 20
-881.25000000007765
 30
0.0
 11
193.0717967696755
 21
-882.00000000007776
 31
0.0
  0
LINE
  5
20D
  8
DATA
  6
CONTINUOUS
 62
     7
 10
194.87793010150739
 20
-882.00179958969409
 30
0.0
 11
193.69591397109801
 21
-882.92529180268275
 31
0.0
  0
LINE
  5
20E
  8
DATA
  6
CONTINUOUS
 62
     7
 10
195.48472059196681
 20
-882.67570870227905
 30
0.0
 11
194.44273303627961
 21
-883.75471840278692
 31
0.0
  0
LINE
  5
20F
  8
DATA
  6
CONTINUOUS
 62
     7
 10
204.515279407934
 20
-882.6757087022786
 30
0.0
 11
205.55726696362311
 21
-883.75471840278703
 31
0.0
  0
LINE
  5
210
  8
DATA
  6
CONTINUOUS
 62
     7
 10
205.12206989839439
 20
-882.00179958969409
 30
0.0
 11
206.3040860288047
 21
-882.92529180268275
 31
0.0
  0
LINE
  5
211
  8
DATA
  6
CONTINUOUS
 62
     7
 10
205.6291651245501
 20
-881.25000000007833
 30
0.0
 11
206.9282032302271
 21
-882.00000000007776
 31
0.0
  0
LINE
  5
212
  8
DATA
  6
CONTINUOUS
 62
     7
 10
206.02669505463561
 20
-880.43494285728104
 30
0.0
 11
207.41747083648619
 21
-880.99685274740511
 31
0.0
  0
LINE
  5
213
  8
DATA
  6
CONTINUOUS
 62
     7
 10
206.30692222074501
 20
-879.57249232147615
 30
0.0
 11
207.7623658101584
 21
-879.93537516487504
 31
0.0
  0
LINE
  5
214
  8
DATA
  6
CONTINUOUS
 62
     7
 10
206.46439231984451
 20
-878.67943501131765
 30
0.0
 11
207.9561751628971
 21
-878.83622770621889
 31
0.0
  0
LINE
  5
215
  8
DATA
  6
CONTINUOUS
 62
     7
 10
206.49604037557481
 20
-877.77315327151121
 30
0.0
 11
207.99512661610419
 21
-877.72080402645793
 31
0.0
  0
LINE
  5
216
  8
DATA
  6
CONTINUOUS
 62
     7
 10
206.40125039453051
 20
-876.87128684524282
 30
0.0
 11
207.87846202404759
 21
-876.61081457874252
 31
0.0
  0
LINE
  5
217
  8
DATA
  6
CONTINUOUS
 62
     7
 10
205.8421613008959
 20
-875.15058754594872
 30
0.0
 11
207.19035237034399
 21
-874.49303082576523
 31
0.0
  0
LINE
  5
218
  8
DATA
  6
CONTINUOUS
 62
     7
 10
205.38874422155911
 20
-874.36524612751771
 30
0.0
 11
206.63230058039059
 21
-873.52645677231203
 31
0.0
  0
LINE
  5
219
  8
DATA
  6
CONTINUOUS
 62
     7
 10
204.83044136555509
 20
-873.6506510587451
 30
0.0
 11
205.9451586037703
 21
-872.64695514920675
 31
0.0
  0
LINE
  5
21A
  8
DATA
  6
CONTINUOUS
 62
     7
 10
204.1781194629138
 20
-873.02071111980456
 30
0.0
 11
205.1423008774436
 21
-871.87164445512553
 31
0.0
  0
LINE
  5
21B
  8
DATA
  6
CONTINUOUS
 62
     7
 10
203.4444752174677
 20
-872.48768737506089
 30
0.0
 11
204.23935411381629
 21
-871.21561523082653
 31
0.0
  0
LINE
  5
21C
  8
DATA
  6
CONTINUOUS
 62
     7
 10
202.64378817994381
 20
-872.0619545254018
 30
0.0
 11
203.253893144557
 21
-870.69163633893675
 31
0.0
  0
LINE
  5
21D
  8
DATA
  6
CONTINUOUS
 62
     7
 10
201.7916428127609
 20
-871.75179897647877
 30
0.0
 11
202.20509884648709
 21
-870.30990643257155
 31
0.0
  0
LINE
  5
21E
  8
DATA
  6
CONTINUOUS
 62
     7
 10
200.90462515619129
 20
-871.5632575532577
 30
0.0
 11
201.11338480763149
 21
-870.07785545014633
 31
0.0
  0
LINE
  5
21F
  8
DATA
  6
CONTINUOUS
 62
     7
 10
199.0953748437114
 20
-871.56325755326282
 30
0.0
 11
198.8866151922702
 21
-870.07785545014519
 31
0.0
  0
LINE
  5
220
  8
DATA
  6
CONTINUOUS
 62
     7
 10
198.20835718713991
 20
-871.75179897647786
 30
0.0
 11
197.79490115341471
 21
-870.30990643257189
 31
0.0
  0
LINE
  5
221
  8
DATA
  6
CONTINUOUS
 62
     7
 10
197.35621181995791
 20
-872.06195452540044
 30
0.0
 11
196.7461068553439
 21
-870.69163633893709
 31
0.0
  0
LINE
  5
222
  8
DATA
  6
CONTINUOUS
 62
     7
 10
196.5555247824359
 20
-872.48768737506089
 30
0.0
 11
195.7606458860846
 21
-871.21561523082585
 31
0.0
  0
LINE
  5
223
  8
DATA
  6
CONTINUOUS
 62
     7
 10
195.8218805369888
 20
-873.0207111198041
 30
0.0
 11
194.85769912245809
 21
-871.87164445512622
 31
0.0
  0
LINE
  5
224
  8
DATA
  6
CONTINUOUS
 62
     7
 10
195.1695586343485
 20
-873.6506510587451
 30
0.0
 11
194.05484139613139
 21
-872.64695514920675
 31
0.0
  0
LINE
  5
225
  8
DATA
  6
CONTINUOUS
 62
     7
 10
194.61125577834261
 20
-874.36524612751816
 30
0.0
 11
193.36769941951019
 21
-873.52645677231203
 31
0.0
  0
LINE
  5
226
  8
DATA
  6
CONTINUOUS
 62
     7
 10
194.15783869900591
 20
-875.15058754594872
 30
0.0
 11
192.80964762955861
 21
-874.49303082576569
 31
0.0
  0
ARC
  5
227
  8
DATA
  6
CONTINUOUS
 62
     7
 10
200.62717077955679
 20
-872.03286862786854
 30
0.0
 40
0.4999999999990113
 50
351.61198453549321
 51
176.3880154644454
  0
ARC
  5
228
  8
DATA
  6
CONTINUOUS
 62
     7
 10
199.99999999994719
 20
-878.00000000008265
 30
0.0
 40
5.9999999999939684
 50
238.78019184717519
 51
229.2198081527709
  0
ARC
  5
229
  8
DATA
  6
CONTINUOUS
 62
     7
 10
200.0
 20
-878.0
 30
0.0
 40
5.0000000000921938
 50
239.73026269141241
 51
228.2608295228726
  0
ARC
  5
22A
  8
DATA
  6
CONTINUOUS
 62
     7
 10
198.5305368692224
 20
-880.02254248600616
 30
0.0
 40
2.500000000009035
 50
245.53695903276059
 51
222.46304096722551
  0
ARC
  5
22B
  8
DATA
  6
CONTINUOUS
 62
     7
 10
197.55958014149289
 20
-872.51872725422163
 30
0.0
 40
0.5000000000004735
 50
21.61198453550028
 51
206.3880154644377
  0
ARC
  5
22C
  8
DATA
  6
CONTINUOUS
 62
     7
 10
195.1458980336956
 20
-874.47328848632344
 30
0.0
 40
0.4999999999997923
 50
51.61198453558476
 51
236.38801546443511
  0
ARC
  5
22D
  8
DATA
  6
CONTINUOUS
 62
     7
 10
194.03286862773339
 20
-877.37282922047405
 30
0.0
 40
0.4999999999995867
 50
81.611984535581826
 51
266.3880154644163
  0
ARC
  5
22E
  8
DATA
  6
CONTINUOUS
 62
     7
 10
194.518727254087
 20
-880.44041985853733
 30
0.0
 40
0.5000000000002182
 50
111.6119845355679
 51
296.38801546446058
  0
ARC
  5
22F
  8
DATA
  6
CONTINUOUS
 62
     7
 10
196.47328848618781
 20
-882.85410196633472
 30
0.0
 40
0.4999999999996429
 50
144.00000000008771
 51
324.00000000002473
  0
ARC
  5
230
  8
DATA
  6
CONTINUOUS
 62
     7
 10
199.3728292203395
 20
-883.96713137229722
 30
0.0
 40
0.4999999999999443
 50
171.61198453548249
 51
356.38801546446501
  0
ARC
  5
231
  8
DATA
  6
CONTINUOUS
 62
     7
 10
202.44041985840161
 20
-883.48127274594344
 30
0.0
 40
0.5000000000006409
 50
201.6119845355488
 51
26.388015464390971
  0
ARC
  5
232
  8
DATA
  6
CONTINUOUS
 62
     7
 10
204.85410196619969
 20
-881.52671151384232
 30
0.0
 40
0.4999999999998225
 50
231.6119845354545
 51
56.388015464435092
  0
ARC
  5
233
  8
DATA
  6
CONTINUOUS
 62
     7
 10
205.96713137216099
 20
-878.62717077969103
 30
0.0
 40
0.5000000000000365
 50
261.61198453558939
 51
86.388015464419524
  0
ARC
  5
234
  8
DATA
  6
CONTINUOUS
 62
     7
 10
205.48127274580841
 20
-875.55958014162775
 30
0.0
 40
0.4999999999996719
 50
291.61198453548059
 51
116.388015464449
  0
ARC
  5
235
  8
DATA
  6
CONTINUOUS
 62
     7
 10
203.52671151370669
 20
-873.14589803383024
 30
0.0
 40
0.5000000000009287
 50
321.61198453558831
 51
146.38801546444941
  0
LINE
  5
236
  8
DATA
  6
CONTINUOUS
 62
     7
 10
200.00127959763361
 20
-964.0
 30
0.0
 11
185.00002047870279
 21
-964.0
 31
0.0
  0
LINE
  5
237
  8
DATA
  6
CONTINUOUS
 62
     7
 10
205.00127959763361
 20
-954.00029291666658
 30
0.0
 11
205.00127959763361
 21
-959.0
 31
0.0
  0
LINE
  5
238
  8
DATA
  6
CONTINUOUS
 62
     7
 10
210.00127959763361
 20
-949.00029291666669
 30
0.0
 11
211.39999999940031
 21
-949.00029291666669
 31
0.0
  0
ARC
  5
239
  8
DATA
  6
CONTINUOUS
 62
     7
 10
211.39999999940031
 20
-857.50000000000011
 30
0.0
 40
5.0
 50
0.0
 51
90.0
  0
ARC
  5
23A
  8
DATA
  6
CONTINUOUS
 62
     7
 10
211.39999999940031
 20
-944.00029291666658
 30
0.0
 40
5.0
 50
270.0
 51
0.0
  0
ARC
  5
23B
  8
DATA
  6
CONTINUOUS
 62
     7
 10
210.00127959763361
 20
-954.00029291666658
 30
0.0
 40
5.0
 50
90.0
 51
180.0
  0
ARC
  5
23C
  8
DATA
  6
CONTINUOUS
 62
     7
 10
200.00127959763361
 20
-959.0
 30
0.0
 40
5.0
 50
270.0
 51
0.0
  0
LINE
  5
23D
  8
DATA
  6
CONTINUOUS
 62
     7
 10
112.5
 20
-1115.0
 30
0.0
 11
112.5
 21
-751.0
 31
0.0
  0
LINE
  5
23E
  8
DATA
  6
CONTINUOUS
 62
     7
 10
132.5
 20
-1105.0
 30
0.0
 11
132.5
 21
-761.0
 31
0.0
  0
LINE
  5
23F
  8
DATA
  6
CONTINUOUS
 62
     7
 10
277.5
 20
-1125.0
 30
0.0
 11
122.5
 21
-1125.0
 31
0.0
  0
LINE
  5
240
  8
DATA
  6
CONTINUOUS
 62
     7
 10
132.5
 20
-1105.0
 30
0.0
 11
267.5
 21
-1105.0
 31
0.0
  0
LINE
  5
241
  8
DATA
  6
CONTINUOUS
 62
     7
 10
267.5
 20
-1055.0
 30
0.0
 11
132.5
 21
-1055.0
 31
0.0
  0
LINE
  5
242
  8
DATA
  6
CONTINUOUS
 62
     7
 10
267.5
 20
-1050.0
 30
0.0
 11
132.5
 21
-1050.0
 31
0.0
  0
LINE
  5
243
  8
DATA
  6
CONTINUOUS
 62
     7
 10
287.5
 20
-751.0
 30
0.0
 11
287.5
 21
-1115.0
 31
0.0
  0
LINE
  5
244
  8
DATA
  6
CONTINUOUS
 62
     7
 10
267.5
 20
-761.0
 30
0.0
 11
267.5
 21
-1105.0
 31
0.0
  0
LINE
  5
245
  8
DATA
  6
CONTINUOUS
 62
     7
 10
122.5
 20
-741.0
 30
0.0
 11
277.5
 21
-741.0
 31
0.0
  0
LINE
  5
246
  8
DATA
  6
CONTINUOUS
 62
     7
 10
132.5
 20
-761.0
 30
0.0
 11
267.5
 21
-761.0
 31
0.0
  0
ARC
  5
247
  8
DATA
  6
CONTINUOUS
 62
     7
 10
122.5
 20
-1115.0
 30
0.0
 40
10.0
 50
180.0
 51
270.0
  0
ARC
  5
248
  8
DATA
  6
CONTINUOUS
 62
     7
 10
277.5
 20
-1115.0
 30
0.0
 40
10.0
 50
270.0
 51
0.0
  0
ARC
  5
249
  8
DATA
  6
CONTINUOUS
 62
     7
 10
122.5
 20
-751.0
 30
0.0
 40
10.0
 50
90.0
 51
180.0
  0
ARC
  5
24A
  8
DATA
  6
CONTINUOUS
 62
     7
 10
277.5
 20
-751.0
 30
0.0
 40
10.0
 50
0.0
 51
90.0
  0
CIRCLE
  5
24B
  8
DATA
  6
CONTINUOUS
 62
     7
 10
233.5
 20
-1100.0
 30
0.0
 40
2.5000000000002212
  0
CIRCLE
  5
24C
  8
DATA
  6
CONTINUOUS
 62
     7
 10
166.5
 20
-1100.0
 30
0.0
 40
2.5000000000002212
  0
LINE
  5
24D
  8
DATA
  6
CONTINUOUS
 62
     7
 10
165.0
 20
-1100.0
 30
0.0
 11
168.0
 21
-1100.0
 31
0.0
  0
LINE
  5
24E
  8
DATA
  6
CONTINUOUS
 62
     7
 10
166.4200000000001
 20
-1101.5
 30
0.0
 11
166.4200000000001
 21
-1098.5
 31
0.0
  0
LINE
  5
24F
  8
DATA
  6
CONTINUOUS
 62
     7
 10
235.0
 20
-1100.0
 30
0.0
 11
232.0
 21
-1100.0
 31
0.0
  0
LINE
  5
250
  8
DATA
  6
CONTINUOUS
 62
     7
 10
233.5799999999999
 20
-1101.5
 30
0.0
 11
233.5799999999999
 21
-1098.5
 31
0.0
  0
ARC
  5
251
  8
DATA
  6
CONTINUOUS
 62
     7
 10
174.50000000003641
 20
-1020.999999999949
 30
0.0
 40
23.249999999937408
 50
60.356338108124589
 51
143.44380664840369
  0
ARC
  5
252
  8
DATA
  6
CONTINUOUS
 62
     7
 10
174.50000000003641
 20
-1020.999999999949
 30
0.0
 40
23.249999999938169
 50
150.35633810836481
 51
233.44380664831959
  0
ARC
  5
253
  8
DATA
  6
CONTINUOUS
 62
     7
 10
174.50000000003641
 20
-1020.999999999949
 30
0.0
 40
23.249999999937401
 50
240.35633810827409
 51
323.44380664809802
  0
ARC
  5
254
  8
DATA
  6
CONTINUOUS
 62
     7
 10
174.50000000003641
 20
-1020.999999999949
 30
0.0
 40
23.249999999937032
 50
330.35633810803893
 51
53.443806648181237
  0
ARC
  5
255
  8
DATA
  6
CONTINUOUS
 62
     7
 10
174.4999999999709
 20
-1021.000000000061
 30
0.0
 40
19.000000000067772
 50
68.200922830828603
 51
149.13323278369069
  0
ARC
  5
256
  8
DATA
  6
CONTINUOUS
 62
     7
 10
174.4999999999709
 20
-1021.000000000061
 30
0.0
 40
19.000000000066802
 50
158.2009228304685
 51
239.13323278374969
  0
ARC
  5
257
  8
DATA
  6
CONTINUOUS
 62
     7
 10
174.4999999999709
 20
-1021.000000000061
 30
0.0
 40
19.000000000067349
 50
248.20092283053259
 51
329.13323278407648
  0
ARC
  5
258
  8
DATA
  6
CONTINUOUS
 62
     7
 10
174.4999999999709
 20
-1021.000000000061
 30
0.0
 40
19.000000000067988
 50
338.20092283089531
 51
59.133232784015888
  0
ARC
  5
259
  8
DATA
  6
CONTINUOUS
 62
     7
 10
174.50000000000179
 20
-1020.999999999989
 30
0.0
 40
16.499999999988589
 50
75.407766102218673
 51
154.09772123936361
  0
ARC
  5
25A
  8
DATA
  6
CONTINUOUS
 62
     7
 10
174.50000000000179
 20
-1020.999999999989
 30
0.0
 40
16.499999999988251
 50
165.40776610230151
 51
244.097721239371
  0
ARC
  5
25B
  8
DATA
  6
CONTINUOUS
 62
     7
 10
174.50000000000179
 20
-1020.999999999989
 30
0.0
 40
16.499999999988329
 50
255.40776610230969
 51
334.0977212393035
  0
ARC
  5
25C
  8
DATA
  6
CONTINUOUS
 62
     7
 10
174.50000000000179
 20
-1020.999999999989
 30
0.0
 40
16.49999999998883
 50
345.40776610223122
 51
64.097721239291559
  0
ARC
  5
25D
  8
DATA
  6
CONTINUOUS
 62
     7
 10
174.5
 20
-1021.000000000001
 30
0.0
 40
11.75000000000086
 50
119.9999999999975
 51
171.92777458635189
  0
ARC
  5
25E
  8
DATA
  6
CONTINUOUS
 62
     7
 10
174.5
 20
-1021.000000000001
 30
0.0
 40
11.750000000000099
 50
210.00000000000219
 51
261.9277745863443
  0
ARC
  5
25F
  8
DATA
  6
CONTINUOUS
 62
     7
 10
174.5
 20
-1021.000000000001
 30
0.0
 40
11.75000000000132
 50
300.00000000000148
 51
351.92777458635459
  0
ARC
  5
260
  8
DATA
  6
CONTINUOUS
 62
     7
 10
174.5
 20
-1021.000000000001
 30
0.0
 40
11.750000000001799
 50
29.999999999998781
 51
81.927774586357813
  0
LINE
  5
261
  8
DATA
  6
CONTINUOUS
 62
     7
 10
164.32420150553301
 20
-1026.875
 30
0.0
 11
158.5322350864389
 21
-1016.843019886397
 31
0.0
  0
LINE
  5
262
  8
DATA
  6
CONTINUOUS
 62
     7
 10
156.858655644668
 20
-1013.944295262747
 30
0.0
 11
154.29300018166299
 21
-1009.5004496461059
 31
0.0
  0
LINE
  5
263
  8
DATA
  6
CONTINUOUS
 62
     7
 10
162.86642082844631
 20
-1019.350049800995
 30
0.0
 11
159.6575833040296
 21
-1013.79218017547
 31
0.0
  0
LINE
  5
264
  8
DATA
  6
CONTINUOUS
 62
     7
 10
158.19111009955759
 20
-1011.2521740773871
 30
0.0
 11
155.82390051114359
 21
-1007.1520467980901
 31
0.0
  0
LINE
  5
265
  8
DATA
  6
CONTINUOUS
 62
     7
 10
168.625
 20
-1010.824201505533
 30
0.0
 11
178.6569801136165
 21
-1005.032235086432
 31
0.0
  0
LINE
  5
266
  8
DATA
  6
CONTINUOUS
 62
     7
 10
181.55570473717481
 20
-1003.3586556447131
 30
0.0
 11
185.99955035389391
 21
-1000.793000181663
 31
0.0
  0
LINE
  5
267
  8
DATA
  6
CONTINUOUS
 62
     7
 10
176.1499501990065
 20
-1009.3664208284461
 30
0.0
 11
181.707819824539
 21
-1006.157583304024
 31
0.0
  0
LINE
  5
268
  8
DATA
  6
CONTINUOUS
 62
     7
 10
184.2478259225536
 20
-1004.691110099592
 30
0.0
 11
188.34795320191191
 21
-1002.3239005111431
 31
0.0
  0
LINE
  5
269
  8
DATA
  6
CONTINUOUS
 62
     7
 10
184.67579849446699
 20
-1015.125
 30
0.0
 11
190.46776491355919
 21
-1025.1569801136011
 31
0.0
  0
LINE
  5
26A
  8
DATA
  6
CONTINUOUS
 62
     7
 10
192.1413443553264
 20
-1028.055704737244
 30
0.0
 11
194.70699981833599
 21
-1032.4995503538939
 31
0.0
  0
LINE
  5
26B
  8
DATA
  6
CONTINUOUS
 62
     7
 10
186.13357917155551
 20
-1022.649950199008
 30
0.0
 11
189.34241669596659
 21
-1028.2078198245231
 31
0.0
  0
LINE
  5
26C
  8
DATA
  6
CONTINUOUS
 62
     7
 10
190.8088899004488
 20
-1030.747825922625
 30
0.0
 11
193.17609948885641
 21
-1034.847953201911
 31
0.0
  0
LINE
  5
26D
  8
DATA
  6
CONTINUOUS
 62
     7
 10
180.375
 20
-1031.175798494467
 30
0.0
 11
170.34301988641161
 21
-1036.9677649135519
 31
0.0
  0
LINE
  5
26E
  8
DATA
  6
CONTINUOUS
 62
     7
 10
167.44429526267601
 20
-1038.641344355372
 30
0.0
 11
163.00044964610601
 21
-1041.206999818336
 31
0.0
  0
LINE
  5
26F
  8
DATA
  6
CONTINUOUS
 62
     7
 10
172.8500498009916
 20
-1032.6335791715539
 30
0.0
 11
167.2921801754855
 21
-1035.8424166959619
 31
0.0
  0
LINE
  5
270
  8
DATA
  6
CONTINUOUS
 62
     7
 10
164.75217407731361
 20
-1037.308889900484
 30
0.0
 11
160.652046798089
 21
-1039.6760994888559
 31
0.0
  0
LINE
  5
271
  8
DATA
  6
CONTINUOUS
 62
     7
 10
228.0
 20
-1038.0
 30
0.0
 11
228.0
 21
-995.0
 31
0.0
  0
LINE
  5
272
  8
DATA
  6
CONTINUOUS
 62
     7
 10
230.0
 20
-1015.0
 30
0.0
 11
230.0
 21
-997.0
 31
0.0
  0
LINE
  5
273
  8
DATA
  6
CONTINUOUS
 62
     7
 10
232.0
 20
-1013.0
 30
0.0
 11
232.0
 21
-999.0
 31
0.0
  0
LINE
  5
274
  8
DATA
  6
CONTINUOUS
 62
     7
 10
256.0
 20
-1038.0
 30
0.0
 11
228.0
 21
-1038.0
 31
0.0
  0
LINE
  5
275
  8
DATA
  6
CONTINUOUS
 62
     7
 10
256.0
 20
-995.0
 30
0.0
 11
256.0
 21
-1038.0
 31
0.0
  0
LINE
  5
276
  8
DATA
  6
CONTINUOUS
 62
     7
 10
254.0
 20
-997.0
 30
0.0
 11
254.0
 21
-1015.0
 31
0.0
  0
LINE
  5
277
  8
DATA
  6
CONTINUOUS
 62
     7
 10
252.0
 20
-999.0
 30
0.0
 11
252.0
 21
-1013.0
 31
0.0
  0
LINE
  5
278
  8
DATA
  6
CONTINUOUS
 62
     7
 10
228.0
 20
-995.0
 30
0.0
 11
256.0
 21
-995.0
 31
0.0
  0
LINE
  5
279
  8
DATA
  6
CONTINUOUS
 62
     7
 10
230.0
 20
-997.0
 30
0.0
 11
254.0
 21
-997.0
 31
0.0
  0
LINE
  5
27A
  8
DATA
  6
CONTINUOUS
 62
     7
 10
230.0
 20
-1028.0
 30
0.0
 11
230.0
 21
-1017.0
 31
0.0
  0
LINE
  5
27B
  8
DATA
  6
CONTINUOUS
 62
     7
 10
235.0
 20
-1033.0
 30
0.0
 11
230.0
 21
-1028.0
 31
0.0
  0
LINE
  5
27C
  8
DATA
  6
CONTINUOUS
 62
     7
 10
249.0
 20
-1033.0
 30
0.0
 11
235.0
 21
-1033.0
 31
0.0
  0
LINE
  5
27D
  8
DATA
  6
CONTINUOUS
 62
     7
 10
254.0
 20
-1028.0
 30
0.0
 11
249.0
 21
-1033.0
 31
0.0
  0
LINE
  5
27E
  8
DATA
  6
CONTINUOUS
 62
     7
 10
254.0
 20
-1017.0
 30
0.0
 11
254.0
 21
-1028.0
 31
0.0
  0
LINE
  5
27F
  8
DATA
  6
CONTINUOUS
 62
     7
 10
230.0
 20
-1017.0
 30
0.0
 11
254.0
 21
-1017.0
 31
0.0
  0
LINE
  5
280
  8
DATA
  6
CONTINUOUS
 62
     7
 10
230.0
 20
-1015.0
 30
0.0
 11
254.0
 21
-1015.0
 31
0.0
  0
ARC
  5
281
  8
DATA
  6
CONTINUOUS
 62
     7
 10
153.27505366881809
 20
-1068.6529451963329
 30
0.0
 40
0.2869048033359047
 50
307.64190249759048
 51
354.2670192896154
  0
LINE
  5
282
  8
DATA
  6
CONTINUOUS
 62
     7
 10
145.9055554416027
 20
-1064.131789837018
 30
0.0
 11
147.2505694416013
 21
-1060.9269978370189
 31
0.0
  0
LINE
  5
283
  8
DATA
  6
CONTINUOUS
 62
     7
 10
145.9055554416027
 20
-1064.131789837018
 30
0.0
 11
144.57713744160171
 21
-1060.9269978370189
 31
0.0
  0
LINE
  5
284
  8
DATA
  6
CONTINUOUS
 62
     7
 10
156.10111544160279
 20
-1069.926997837018
 30
0.0
 11
156.10111544160279
 21
-1060.9269978370189
 31
0.0
  0
LINE
  5
285
  8
DATA
  6
CONTINUOUS
 62
     7
 10
157.82805344160261
 20
-1060.9269978370189
 30
0.0
 11
157.82805344160261
 21
-1068.548773837018
 31
0.0
  0
LINE
  5
286
  8
DATA
  6
CONTINUOUS
 62
     7
 10
147.88156844160221
 20
-1060.9269978370189
 30
0.0
 11
147.88156844160221
 21
-1068.548773837018
 31
0.0
  0
LINE
  5
287
  8
DATA
  6
CONTINUOUS
 62
     7
 10
149.54208644160281
 20
-1060.9269978370189
 30
0.0
 11
149.54208644160281
 21
-1068.548773837018
 31
0.0
  0
LINE
  5
288
  8
DATA
  6
CONTINUOUS
 62
     7
 10
150.4055554416027
 20
-1060.9269978370189
 30
0.0
 11
150.4055554416027
 21
-1069.926997837018
 31
0.0
  0
LINE
  5
289
  8
DATA
  6
CONTINUOUS
 62
     7
 10
151.91662844160231
 20
-1061.7738528370171
 30
0.0
 11
151.91662844160231
 21
-1064.6631588370169
 31
0.0
  0
LINE
  5
28A
  8
DATA
  6
CONTINUOUS
 62
     7
 10
155.15535044160239
 20
-1064.4959748370179
 30
0.0
 11
155.15535044160239
 21
-1062.3882558370181
 31
0.0
  0
LINE
  5
28B
  8
DATA
  6
CONTINUOUS
 62
     7
 10
153.56052344160159
 20
-1062.1723818370181
 30
0.0
 11
153.56052344160159
 21
-1064.264638837019
 31
0.0
  0
ARC
  5
28C
  8
DATA
  6
CONTINUOUS
 62
     7
 10
147.5483524416031
 20
-1067.6159778370179
 30
0.0
 40
2.3209680826510288
 50
264.69085622148839
 51
323.9911991542312
  0
LINE
  5
28D
  8
DATA
  6
CONTINUOUS
 62
     7
 10
146.61957944160341
 20
-1067.1041118370181
 30
0.0
 11
146.61957944160341
 21
-1068.548755837018
 31
0.0
  0
LINE
  5
28E
  8
DATA
  6
CONTINUOUS
 62
     7
 10
146.61957944160341
 20
-1067.1041118370181
 30
0.0
 11
145.12511144160271
 21
-1067.1041118370181
 31
0.0
  0
LINE
  5
28F
  8
DATA
  6
CONTINUOUS
 62
     7
 10
145.12511144160271
 20
-1067.1041118370181
 30
0.0
 11
145.12511144160271
 21
-1068.548755837018
 31
0.0
  0
ARC
  5
290
  8
DATA
  6
CONTINUOUS
 62
     7
 10
147.2537374416024
 20
-1068.5682318370179
 30
0.0
 40
0.6281359436174772
 50
269.71184879276251
 51
1.775987005712067
  0
ARC
  5
291
  8
DATA
  6
CONTINUOUS
 62
     7
 10
147.2474104416014
 20
-1068.5682318370179
 30
0.0
 40
0.6281327317115519
 50
178.22401299438391
 51
270.28815120729058
  0
ARC
  5
292
  8
DATA
  6
CONTINUOUS
 62
     7
 10
147.11884544160239
 20
-1067.6159778370179
 30
0.0
 40
2.3209643132525319
 50
216.00880084574641
 51
275.30914377847228
  0
ARC
  5
293
  8
DATA
  6
CONTINUOUS
 62
     7
 10
146.17400744160301
 20
-1068.4978788370181
 30
0.0
 40
1.0501201873593851
 50
182.7769954499737
 51
207.35960666708209
  0
CIRCLE
  5
294
  8
DATA
  6
CONTINUOUS
 62
     7
 10
145.99688744160269
 20
-1065.3771828370179
 30
0.0
 40
0.8551619999998366
  0
LINE
  5
295
  8
DATA
  6
CONTINUOUS
 62
     7
 10
160.60111544160279
 20
-1069.926988837017
 30
0.0
 11
156.10111544160279
 21
-1069.926988837017
 31
0.0
  0
LINE
  5
296
  8
DATA
  6
CONTINUOUS
 62
     7
 10
160.60111544160279
 20
-1069.926988837017
 30
0.0
 11
160.60111544160279
 21
-1067.1041028370189
 31
0.0
  0
LINE
  5
297
  8
DATA
  6
CONTINUOUS
 62
     7
 10
160.60111544160279
 20
-1067.1041118370181
 30
0.0
 11
159.0900514416025
 21
-1067.1041118370181
 31
0.0
  0
LINE
  5
298
  8
DATA
  6
CONTINUOUS
 62
     7
 10
159.0900514416025
 20
-1067.1041118370181
 30
0.0
 11
159.0900514416025
 21
-1068.548755837018
 31
0.0
  0
LINE
  5
299
  8
DATA
  6
CONTINUOUS
 62
     7
 10
150.4055554416027
 20
-1069.926988837017
 30
0.0
 11
153.56052344160159
 21
-1069.9269798370181
 31
0.0
  0
LINE
  5
29A
  8
DATA
  6
CONTINUOUS
 62
     7
 10
151.91661944160299
 20
-1069.080124837018
 30
0.0
 11
152.73027344160249
 21
-1069.080124837018
 31
0.0
  0
LINE
  5
29B
  8
DATA
  6
CONTINUOUS
 62
     7
 10
151.91662844160231
 20
-1069.080124837018
 30
0.0
 11
151.91662844160231
 21
-1065.5266188370181
 31
0.0
  0
LINE
  5
29C
  8
DATA
  6
CONTINUOUS
 62
     7
 10
151.91661944160299
 20
-1065.5266188370181
 30
0.0
 11
152.73027344160249
 21
-1065.5266188370181
 31
0.0
  0
LINE
  5
29D
  8
DATA
  6
CONTINUOUS
 62
     7
 10
153.56052344160159
 20
-1068.6816048370169
 30
0.0
 11
153.56052344160159
 21
-1065.9251388370189
 31
0.0
  0
ARC
  5
29E
  8
DATA
  6
CONTINUOUS
 62
     7
 10
148.49319044160251
 20
-1068.4978788370181
 30
0.0
 40
1.0501186930780719
 50
332.64039333284268
 51
357.22300455000988
  0
ARC
  5
29F
  8
DATA
  6
CONTINUOUS
 62
     7
 10
158.46221144160339
 20
-1068.5682318370179
 30
0.0
 40
0.6281359436174772
 50
269.71184879276251
 51
1.775987005712067
  0
ARC
  5
2A0
  8
DATA
  6
CONTINUOUS
 62
     7
 10
158.4558934416018
 20
-1068.5682318370179
 30
0.0
 40
0.62813273171337
 50
178.22401299438889
 51
270.28815120728967
  0
LINE
  5
2A1
  8
DATA
  6
CONTINUOUS
 62
     7
 10
155.15462144160301
 20
-1068.482335837019
 30
0.0
 11
155.15462144160301
 21
-1066.0911978370179
 31
0.0
  0
LINE
  5
2A2
  8
DATA
  6
CONTINUOUS
 62
     7
 10
151.91661944160299
 20
-1064.6631588370169
 30
0.0
 11
152.73027344160249
 21
-1064.6631588370169
 31
0.0
  0
ARC
  5
2A3
  8
DATA
  6
CONTINUOUS
 62
     7
 10
153.4461154416021
 20
-1068.2184558370179
 30
0.0
 40
1.7123502705459379
 50
273.83098160909748
 51
351.1351473098112
  0
LINE
  5
2A4
  8
DATA
  6
CONTINUOUS
 62
     7
 10
147.88156844160221
 20
-1060.9269978370189
 30
0.0
 11
149.54208644160281
 21
-1060.9269978370189
 31
0.0
  0
LINE
  5
2A5
  8
DATA
  6
CONTINUOUS
 62
     7
 10
144.57713744160171
 20
-1060.9269978370189
 30
0.0
 11
147.2505694416013
 21
-1060.9269978370189
 31
0.0
  0
LINE
  5
2A6
  8
DATA
  6
CONTINUOUS
 62
     7
 10
156.10111544160279
 20
-1060.9269978370189
 30
0.0
 11
157.82805344160261
 21
-1060.9269978370189
 31
0.0
  0
LINE
  5
2A7
  8
DATA
  6
CONTINUOUS
 62
     7
 10
150.4055554416027
 20
-1060.9269978370189
 30
0.0
 11
153.57786655693411
 21
-1060.9270051213839
 31
0.0
  0
LINE
  5
2A8
  8
DATA
  6
CONTINUOUS
 62
     7
 10
151.91661944160299
 20
-1061.7738618370181
 30
0.0
 11
152.73027344160249
 21
-1061.7738618370181
 31
0.0
  0
ARC
  5
2A9
  8
DATA
  6
CONTINUOUS
 62
     7
 10
153.46318844160299
 20
-1062.632911837019
 30
0.0
 40
1.709756939619852
 50
8.2269238590440068
 51
86.154126692181322
  0
ARC
  5
2AA
  8
DATA
  6
CONTINUOUS
 62
     7
 10
152.73988135794571
 20
-1067.5018056724889
 30
0.0
 40
1.5783484080439929
 50
269.65121993760812
 51
282.82648280688181
  0
ARC
  5
2AB
  8
DATA
  6
CONTINUOUS
 62
     7
 10
152.9171548663216
 20
-1068.169100117123
 30
0.0
 40
0.8886941133236042
 50
281.23310362276038
 51
306.8620088940894
  0
ARC
  5
2AC
  8
DATA
  6
CONTINUOUS
 62
     7
 10
153.27505366881809
 20
-1065.9537984777021
 30
0.0
 40
0.2869048033358559
 50
5.7329807103845116
 51
52.358097502381838
  0
ARC
  5
2AD
  8
DATA
  6
CONTINUOUS
 62
     7
 10
152.73988135794571
 20
-1067.104938001547
 30
0.0
 40
1.578348408043986
 50
77.173517193118244
 51
90.348780062391782
  0
ARC
  5
2AE
  8
DATA
  6
CONTINUOUS
 62
     7
 10
152.9171548663216
 20
-1066.4376435569129
 30
0.0
 40
0.8886941133235801
 50
53.137991105901783
 51
78.766896377236819
  0
ARC
  5
2AF
  8
DATA
  6
CONTINUOUS
 62
     7
 10
154.2837094416027
 20
-1066.1500668370179
 30
0.0
 40
0.8728993475227257
 50
3.867006359847649
 51
88.36163456794803
  0
ARC
  5
2B0
  8
DATA
  6
CONTINUOUS
 62
     7
 10
154.2829084416025
 20
-1064.4041388370181
 30
0.0
 40
0.8737667459524635
 50
271.689282104634
 51
356.07828298258949
  0
ARC
  5
2B1
  8
DATA
  6
CONTINUOUS
 62
     7
 10
153.27505366881809
 20
-1064.235979196332
 30
0.0
 40
0.2869048033359047
 50
307.64190249759048
 51
354.26701928925399
  0
ARC
  5
2B2
  8
DATA
  6
CONTINUOUS
 62
     7
 10
152.73988135794571
 20
-1063.08483967249
 30
0.0
 40
1.5783484080430841
 50
269.651219937608
 51
282.82648280688909
  0
ARC
  5
2B3
  8
DATA
  6
CONTINUOUS
 62
     7
 10
152.9171548663216
 20
-1063.7521341171221
 30
0.0
 40
0.8886941133253882
 50
281.23310362273747
 51
306.86200889415687
  0
ARC
  5
2B4
  8
DATA
  6
CONTINUOUS
 62
     7
 10
153.27505366881809
 20
-1062.201041477703
 30
0.0
 40
0.2869048033358559
 50
5.7329807103845116
 51
52.358097502381838
  0
ARC
  5
2B5
  8
DATA
  6
CONTINUOUS
 62
     7
 10
152.73988135794571
 20
-1063.3521810015459
 30
0.0
 40
1.578348408043986
 50
77.173517193118244
 51
90.348780062391782
  0
ARC
  5
2B6
  8
DATA
  6
CONTINUOUS
 62
     7
 10
152.9171548663216
 20
-1062.6848865569129
 30
0.0
 40
0.8886941133235801
 50
53.137991105901783
 51
78.766896377236819
  0
POLYLINE
  5
2B7
  8
DATA
  6
CONTINUOUS
 62
     7
 66
     1
 10
0.0
 20
0.0
 30
0.0
 70
     1
  0
VERTEX
  5
649
  8
DATA
  6
CONTINUOUS
 62
     7
 10
140.7999999999993
 20
-1059.0
 30
0.0
  0
VERTEX
  5
64A
  8
DATA
  6
CONTINUOUS
 62
     7
 10
165.7999999999993
 20
-1059.0
 30
0.0
  0
VERTEX
  5
64B
  8
DATA
  6
CONTINUOUS
 62
     7
 10
165.7999999999993
 20
-1084.0
 30
0.0
  0
VERTEX
  5
64C
  8
DATA
  6
CONTINUOUS
 62
     7
 10
140.7999999999993
 20
-1084.0
 30
0.0
  0
SEQEND
  5
64D
  8
DATA
  6
CONTINUOUS
 62
     7
  0
LINE
  5
2BE
  8
DATA
  6
CONTINUOUS
 62
     7
 10
252.0
 20
-1013.0
 30
0.0
 11
232.0
 21
-1013.0
 31
0.0
  0
LINE
  5
2BF
  8
DATA
  6
CONTINUOUS
 62
     7
 10
232.0
 20
-999.0
 30
0.0
 11
252.0
 21
-999.0
 31
0.0
  0
LINE
  5
2C0
  8
DATA
  6
CONTINUOUS
 62
     7
 10
232.0
 20
-1001.0
 30
0.0
 11
252.0
 21
-1001.0
 31
0.0
  0
CIRCLE
  5
2C1
  8
DATA
  6
CONTINUOUS
 62
     7
 10
242.0
 20
-1011.0
 30
0.0
 40
1.2499999999999081
  0
LINE
  5
2C2
  8
DATA
  6
CONTINUOUS
 62
     7
 10
242.0
 20
-1004.55
 30
0.0
 11
242.0
 21
-1002.05
 31
0.0
  0
CIRCLE
  5
2C3
  8
DATA
  6
CONTINUOUS
 62
     7
 10
242.0
 20
-990.99999999999955
 30
0.0
 40
2.7499999999998379
  0
LINE
  5
2C4
  8
DATA
  6
CONTINUOUS
 62
     7
 10
240.5
 20
-990.99999999999955
 30
0.0
 11
243.5
 21
-990.99999999999955
 31
0.0
  0
LINE
  5
2C5
  8
DATA
  6
CONTINUOUS
 62
     7
 10
242.0
 20
-992.49999999999966
 30
0.0
 11
242.0
 21
-989.49999999999955
 31
0.0
  0
CIRCLE
  5
2C6
  8
DATA
  6
CONTINUOUS
 62
     7
 10
242.0
 20
-1042.0
 30
0.0
 40
2.7499999999998379
  0
LINE
  5
2C7
  8
DATA
  6
CONTINUOUS
 62
     7
 10
240.5
 20
-1042.0
 30
0.0
 11
243.5
 21
-1042.0
 31
0.0
  0
LINE
  5
2C8
  8
DATA
  6
CONTINUOUS
 62
     7
 10
242.0
 20
-1040.5
 30
0.0
 11
242.0
 21
-1043.5
 31
0.0
  0
CIRCLE
  5
2C9
  8
DATA
  6
CONTINUOUS
 62
     7
 10
227.99999999924879
 20
-923.0
 30
0.0
 40
1.6499999998359269
  0
CIRCLE
  5
2CA
  8
DATA
  6
CONTINUOUS
 62
     7
 10
236.99999999835021
 20
-923.0
 30
0.0
 40
1.6499999998341079
  0
CIRCLE
  5
2CB
  8
DATA
  6
CONTINUOUS
 62
     7
 10
232.4999999987995
 20
-923.0
 30
0.0
 40
11.9999999988
  0
CIRCLE
  5
2CC
  8
DATA
  6
CONTINUOUS
 62
     7
 10
241.99744083118279
 20
-934.99999999880004
 30
0.0
 40
2.5
  0
LINE
  5
2CD
  8
DATA
  6
CONTINUOUS
 62
     7
 10
240.49488166451559
 20
-934.99999999880004
 30
0.0
 11
243.49488166451559
 21
-934.99999999880004
 31
0.0
  0
LINE
  5
2CE
  8
DATA
  6
CONTINUOUS
 62
     7
 10
241.99744083118279
 20
-933.49882833213348
 30
0.0
 11
241.99744083118279
 21
-936.4988283321336
 31
0.0
  0
CIRCLE
  5
2CF
  8
DATA
  6
CONTINUOUS
 62
     7
 10
223.00255916641621
 20
-911.00000000119996
 30
0.0
 40
2.5
  0
LINE
  5
2D0
  8
DATA
  6
CONTINUOUS
 62
     7
 10
221.49999999974889
 20
-911.00000000119996
 30
0.0
 11
224.49999999974901
 21
-911.00000000119996
 31
0.0
  0
LINE
  5
2D1
  8
DATA
  6
CONTINUOUS
 62
     7
 10
223.00255916641621
 20
-909.49882833453307
 30
0.0
 11
223.00255916641621
 21
-912.49882833453307
 31
0.0
  0
CIRCLE
  5
2D2
  8
DATA
  6
CONTINUOUS
 62
     7
 10
232.4999999987995
 20
-923.0
 30
0.0
 40
9.7500000156815751
  0
CIRCLE
  5
2D3
  8
DATA
  6
CONTINUOUS
 62
     7
 10
232.4999999987995
 20
-919.05000000039479
 30
0.0
 40
1.6499999998341079
  0
CIRCLE
  5
2D4
  8
DATA
  6
CONTINUOUS
 62
     7
 10
200.0
 20
-923.0
 30
0.0
 40
7.899999852375986
  0
CIRCLE
  5
2D5
  8
DATA
  6
CONTINUOUS
 62
     7
 10
200.0
 20
-923.0
 30
0.0
 40
9.7499999990251833
  0
CIRCLE
  5
2D6
  8
DATA
  6
CONTINUOUS
 62
     7
 10
200.0
 20
-923.0
 30
0.0
 40
11.999999998800201
  0
LINE
  5
2D7
  8
DATA
  6
CONTINUOUS
 62
     7
 10
202.39999999975959
 20
-915.47338057367915
 30
0.0
 11
202.39999999975959
 21
-915.47338072779701
 31
0.0
  0
LINE
  5
2D8
  8
DATA
  6
CONTINUOUS
 62
     7
 10
197.15000000028431
 20
-915.63199500073699
 30
0.0
 11
197.15000000028431
 21
-915.6319951581728
 31
0.0
  0
ARC
  5
2D9
  8
DATA
  6
CONTINUOUS
 62
     7
 10
195.50000000044929
 20
-923.0
 30
0.0
 40
1.999999999800095
 50
32.089183874050867
 51
327.91081612594922
  0
ARC
  5
2DA
  8
DATA
  6
CONTINUOUS
 62
     7
 10
204.4999999995498
 20
-923.0
 30
0.0
 40
1.999999999800095
 50
212.0891838740508
 51
147.91081612594911
  0
ARC
  5
2DB
  8
DATA
  6
CONTINUOUS
 62
     7
 10
200.0
 20
-926.94999999960555
 30
0.0
 40
1.99999999980077
 50
137.8522840898888
 51
42.147715910128611
  0
ARC
  5
2DC
  8
DATA
  6
CONTINUOUS
 62
     7
 10
194.55527766721019
 20
-917.5552780005446
 30
0.0
 40
0.7999999999207108
 50
56.612913999968789
 51
213.3870860000219
  0
ARC
  5
2DD
  8
DATA
  6
CONTINUOUS
 62
     7
 10
200.0
 20
-923.0
 30
0.0
 40
2.9999999999997442
 50
20.741916485081301
 51
159.25808351492489
  0
ARC
  5
2DE
  8
DATA
  6
CONTINUOUS
 62
     7
 10
200.0
 20
-923.0
 30
0.0
 40
3.0000000000005942
 50
200.74191648507511
 51
240.3778367991917
  0
ARC
  5
2DF
  8
DATA
  6
CONTINUOUS
 62
     7
 10
200.0
 20
-923.0
 30
0.0
 40
2.999999999999643
 50
299.6221632007933
 51
339.25808351491872
  0
CIRCLE
  5
2E0
  8
DATA
  6
CONTINUOUS
 62
     7
 10
209.49999999904961
 20
-934.99999999880004
 30
0.0
 40
2.5
  0
LINE
  5
2E1
  8
DATA
  6
CONTINUOUS
 62
     7
 10
207.99744083238321
 20
-934.99999999880004
 30
0.0
 11
210.99744083238329
 21
-934.99999999880004
 31
0.0
  0
LINE
  5
2E2
  8
DATA
  6
CONTINUOUS
 62
     7
 10
209.49999999904961
 20
-933.49882833213348
 30
0.0
 11
209.49999999904961
 21
-936.4988283321336
 31
0.0
  0
CIRCLE
  5
2E3
  8
DATA
  6
CONTINUOUS
 62
     7
 10
190.49744083428311
 20
-910.99882833453319
 30
0.0
 40
2.5
  0
LINE
  5
2E4
  8
DATA
  6
CONTINUOUS
 62
     7
 10
188.99488166761691
 20
-910.99882833453319
 30
0.0
 11
191.99488166761691
 21
-910.99882833453319
 31
0.0
  0
LINE
  5
2E5
  8
DATA
  6
CONTINUOUS
 62
     7
 10
190.49744083428311
 20
-909.49765666786686
 30
0.0
 11
190.49744083428311
 21
-912.49765666786675
 31
0.0
  0
LINE
  5
2E6
  8
DATA
  6
CONTINUOUS
 62
     7
 10
197.60000000023959
 20
-913.55000000094515
 30
0.0
 11
197.60000000023959
 21
-911.29626128234202
 31
0.0
  0
LINE
  5
2E7
  8
DATA
  6
CONTINUOUS
 62
     7
 10
202.39999999975959
 20
-913.55000000094481
 30
0.0
 11
202.39999999975959
 21
-911.29626128234202
 31
0.0
  0
CIRCLE
  5
2E8
  8
DATA
  6
CONTINUOUS
 62
     7
 10
165.0012795833336
 20
-923.00058583333328
 30
0.0
 40
7.899999852375986
  0
CIRCLE
  5
2E9
  8
DATA
  6
CONTINUOUS
 62
     7
 10
165.0012795833336
 20
-923.00058583333328
 30
0.0
 40
9.7499999990251833
  0
CIRCLE
  5
2EA
  8
DATA
  6
CONTINUOUS
 62
     7
 10
165.0012795833336
 20
-923.00058583333328
 30
0.0
 40
11.999999998800201
  0
LINE
  5
2EB
  8
DATA
  6
CONTINUOUS
 62
     7
 10
167.4012795830931
 20
-915.47396640701243
 30
0.0
 11
167.4012795830931
 21
-915.4739665611304
 31
0.0
  0
LINE
  5
2EC
  8
DATA
  6
CONTINUOUS
 62
     7
 10
162.15127958361791
 20
-915.63258083407027
 30
0.0
 11
162.15127958361791
 21
-915.63258099150585
 31
0.0
  0
ARC
  5
2ED
  8
DATA
  6
CONTINUOUS
 62
     7
 10
160.50127958378289
 20
-923.00058583333328
 30
0.0
 40
1.999999999800095
 50
32.089183874050867
 51
327.91081612594922
  0
ARC
  5
2EE
  8
DATA
  6
CONTINUOUS
 62
     7
 10
169.5012795828834
 20
-923.00058583333328
 30
0.0
 40
1.999999999800095
 50
212.0891838740508
 51
147.91081612594911
  0
ARC
  5
2EF
  8
DATA
  6
CONTINUOUS
 62
     7
 10
165.0012795833336
 20
-926.95058583293883
 30
0.0
 40
1.99999999980077
 50
137.8522840898888
 51
42.147715910128611
  0
ARC
  5
2F0
  8
DATA
  6
CONTINUOUS
 62
     7
 10
159.55655725054379
 20
-917.55586383387833
 30
0.0
 40
0.7999999999207108
 50
56.612913999968789
 51
213.3870860000219
  0
ARC
  5
2F1
  8
DATA
  6
CONTINUOUS
 62
     7
 10
165.0012795833336
 20
-923.00058583333328
 30
0.0
 40
2.9999999999997442
 50
20.741916485081301
 51
159.25808351492489
  0
ARC
  5
2F2
  8
DATA
  6
CONTINUOUS
 62
     7
 10
165.0012795833336
 20
-923.00058583333328
 30
0.0
 40
3.0000000000005942
 50
200.74191648507511
 51
240.3778367991917
  0
ARC
  5
2F3
  8
DATA
  6
CONTINUOUS
 62
     7
 10
165.0012795833336
 20
-923.00058583333328
 30
0.0
 40
2.999999999999643
 50
299.6221632007933
 51
339.25808351491872
  0
CIRCLE
  5
2F4
  8
DATA
  6
CONTINUOUS
 62
     7
 10
174.50127958238321
 20
-935.00058583213308
 30
0.0
 40
2.5
  0
LINE
  5
2F5
  8
DATA
  6
CONTINUOUS
 62
     7
 10
172.9987204157168
 20
-935.00058583213308
 30
0.0
 11
175.9987204157168
 21
-935.00058583213308
 31
0.0
  0
LINE
  5
2F6
  8
DATA
  6
CONTINUOUS
 62
     7
 10
174.50127958238321
 20
-933.49941416546721
 30
0.0
 11
174.50127958238321
 21
-936.4994141654671
 31
0.0
  0
CIRCLE
  5
2F7
  8
DATA
  6
CONTINUOUS
 62
     7
 10
155.49872041761679
 20
-910.99941416786669
 30
0.0
 40
2.5
  0
LINE
  5
2F8
  8
DATA
  6
CONTINUOUS
 62
     7
 10
153.99616125095051
 20
-910.99941416786669
 30
0.0
 11
156.99616125095051
 21
-910.99941416786669
 31
0.0
  0
LINE
  5
2F9
  8
DATA
  6
CONTINUOUS
 62
     7
 10
155.49872041761679
 20
-909.49824250120037
 30
0.0
 11
155.49872041761679
 21
-912.49824250120025
 31
0.0
  0
LINE
  5
2FA
  8
DATA
  6
CONTINUOUS
 62
     7
 10
162.6012795835731
 20
-913.55058583427831
 30
0.0
 11
162.6012795835731
 21
-911.2968471156754
 31
0.0
  0
LINE
  5
2FB
  8
DATA
  6
CONTINUOUS
 62
     7
 10
167.4012795830931
 20
-913.55058583427831
 30
0.0
 11
167.4012795830931
 21
-911.2968471156754
 31
0.0
  0
CIRCLE
  5
2FC
  8
DATA
  6
CONTINUOUS
 62
     7
 10
190.00125911892971
 20
-949.00029291666669
 30
0.0
 40
1.75
  0
CIRCLE
  5
2FD
  8
DATA
  6
CONTINUOUS
 62
     7
 10
190.00125911892971
 20
-949.00029291666669
 30
0.0
 40
3.0
  0
CIRCLE
  5
2FE
  8
DATA
  6
CONTINUOUS
 62
     7
 10
190.00125911892971
 20
-949.00029291666669
 30
0.0
 40
3.9999999999998321
  0
CIRCLE
  5
2FF
  8
DATA
  6
CONTINUOUS
 62
     7
 10
190.00125911892971
 20
-949.00029291666669
 30
0.0
 40
5.0000000000005027
  0
CIRCLE
  5
300
  8
DATA
  6
CONTINUOUS
 62
     7
 10
175.00125911892971
 20
-949.00029291666669
 30
0.0
 40
1.75
  0
CIRCLE
  5
301
  8
DATA
  6
CONTINUOUS
 62
     7
 10
175.00125911892971
 20
-949.00029291666669
 30
0.0
 40
3.0
  0
CIRCLE
  5
302
  8
DATA
  6
CONTINUOUS
 62
     7
 10
175.00125911892971
 20
-949.00029291666669
 30
0.0
 40
3.9999999999998321
  0
CIRCLE
  5
303
  8
DATA
  6
CONTINUOUS
 62
     7
 10
175.00125911892971
 20
-949.00029291666669
 30
0.0
 40
4.999999999999643
  0
CIRCLE
  5
304
  8
DATA
  6
CONTINUOUS
 62
     7
 10
165.0012795833336
 20
-894.0
 30
0.0
 40
2.500000000000008
  0
CIRCLE
  5
305
  8
DATA
  6
CONTINUOUS
 62
     7
 10
200.0
 20
-894.0
 30
0.0
 40
2.500000000000008
  0
CIRCLE
  5
306
  8
DATA
  6
CONTINUOUS
 62
     7
 10
165.0012795833336
 20
-864.0
 30
0.0
 40
1.5
  0
CIRCLE
  5
307
  8
DATA
  6
CONTINUOUS
 62
     7
 10
182.5006397916668
 20
-864.0
 30
0.0
 40
1.5
  0
CIRCLE
  5
308
  8
DATA
  6
CONTINUOUS
 62
     7
 10
200.0
 20
-864.0
 30
0.0
 40
1.4999999999998519
  0
CIRCLE
  5
309
  8
DATA
  6
CONTINUOUS
 62
     7
 10
178.5
 20
-894.0
 30
0.0
 40
1.5000000000003191
  0
CIRCLE
  5
30A
  8
DATA
  6
CONTINUOUS
 62
     7
 10
165.0012795833336
 20
-839.0
 30
0.0
 40
3.9999999999999978
  0
CIRCLE
  5
30B
  8
DATA
  6
CONTINUOUS
 62
     7
 10
165.0012795833336
 20
-826.0
 30
0.0
 40
2.0005858333330151
  0
LINE
  5
30C
  8
DATA
  6
CONTINUOUS
 62
     7
 10
226.99999999879941
 20
-876.0
 30
0.0
 11
226.99999999879941
 21
-871.0
 31
0.0
  0
LINE
  5
30D
  8
DATA
  6
CONTINUOUS
 62
     7
 10
237.9999999987995
 20
-876.0
 30
0.0
 11
226.99999999879941
 21
-876.0
 31
0.0
  0
LINE
  5
30E
  8
DATA
  6
CONTINUOUS
 62
     7
 10
237.9999999987995
 20
-871.0
 30
0.0
 11
237.9999999987995
 21
-876.0
 31
0.0
  0
LINE
  5
30F
  8
DATA
  6
CONTINUOUS
 62
     7
 10
226.99999999879941
 20
-871.0
 30
0.0
 11
237.9999999987995
 21
-871.0
 31
0.0
  0
LINE
  5
310
  8
DATA
  6
CONTINUOUS
 62
     7
 10
229.9999999987995
 20
-875.5
 30
0.0
 11
229.9999999987995
 21
-871.49999999999989
 31
0.0
  0
LINE
  5
311
  8
DATA
  6
CONTINUOUS
 62
     7
 10
234.9999999987995
 20
-875.5
 30
0.0
 11
229.9999999987995
 21
-875.5
 31
0.0
  0
LINE
  5
312
  8
DATA
  6
CONTINUOUS
 62
     7
 10
234.9999999987995
 20
-871.49999999999989
 30
0.0
 11
234.9999999987995
 21
-875.5
 31
0.0
  0
LINE
  5
313
  8
DATA
  6
CONTINUOUS
 62
     7
 10
229.9999999987995
 20
-871.49999999999989
 30
0.0
 11
234.9999999987995
 21
-871.49999999999989
 31
0.0
  0
LINE
  5
314
  8
DATA
  6
CONTINUOUS
 62
     7
 10
226.99999999879941
 20
-893.0
 30
0.0
 11
226.99999999879941
 21
-888.0
 31
0.0
  0
LINE
  5
315
  8
DATA
  6
CONTINUOUS
 62
     7
 10
237.9999999987995
 20
-893.0
 30
0.0
 11
226.99999999879941
 21
-893.0
 31
0.0
  0
LINE
  5
316
  8
DATA
  6
CONTINUOUS
 62
     7
 10
237.9999999987995
 20
-888.0
 30
0.0
 11
237.9999999987995
 21
-893.0
 31
0.0
  0
LINE
  5
317
  8
DATA
  6
CONTINUOUS
 62
     7
 10
226.99999999879941
 20
-888.0
 30
0.0
 11
237.9999999987995
 21
-888.0
 31
0.0
  0
LINE
  5
318
  8
DATA
  6
CONTINUOUS
 62
     7
 10
229.9999999987995
 20
-892.5
 30
0.0
 11
229.9999999987995
 21
-888.49999999999989
 31
0.0
  0
LINE
  5
319
  8
DATA
  6
CONTINUOUS
 62
     7
 10
234.9999999987995
 20
-892.5
 30
0.0
 11
229.9999999987995
 21
-892.5
 31
0.0
  0
LINE
  5
31A
  8
DATA
  6
CONTINUOUS
 62
     7
 10
234.9999999987995
 20
-888.49999999999989
 30
0.0
 11
234.9999999987995
 21
-892.5
 31
0.0
  0
LINE
  5
31B
  8
DATA
  6
CONTINUOUS
 62
     7
 10
229.9999999987995
 20
-888.49999999999989
 30
0.0
 11
234.9999999987995
 21
-888.49999999999989
 31
0.0
  0
CIRCLE
  5
31C
  8
DATA
  6
CONTINUOUS
 62
     7
 10
244.5
 20
-839.0
 30
0.0
 40
3.9999999999999978
  0
CIRCLE
  5
31D
  8
DATA
  6
CONTINUOUS
 62
     7
 10
244.5
 20
-826.0
 30
0.0
 40
2.0005858333330151
  0
LINE
  5
31E
  8
DATA
  6
CONTINUOUS
 62
     7
 10
148.6012795982333
 20
-944.00029291666658
 30
0.0
 11
148.6012795982333
 21
-927.50058583333328
 31
0.0
  0
LINE
  5
31F
  8
DATA
  6
CONTINUOUS
 62
     7
 10
165.0
 20
-964.0
 30
0.0
 11
180.00125911892971
 21
-964.0
 31
0.0
  0
LINE
  5
320
  8
DATA
  6
CONTINUOUS
 62
     7
 10
160.0
 20
-954.00029291666658
 30
0.0
 11
160.0
 21
-959.0
 31
0.0
  0
LINE
  5
321
  8
DATA
  6
CONTINUOUS
 62
     7
 10
155.0
 20
-949.00029291666669
 30
0.0
 11
153.6012795982333
 21
-949.00029291666669
 31
0.0
  0
CIRCLE
  5
322
  8
DATA
  6
CONTINUOUS
 62
     7
 10
182.50319896548351
 20
-941.60000000000002
 30
0.0
 40
2.5
  0
LINE
  5
323
  8
DATA
  6
CONTINUOUS
 62
     7
 10
181.00063979881631
 20
-941.60000000000002
 30
0.0
 11
184.00063979881639
 21
-941.60000000000002
 31
0.0
  0
LINE
  5
324
  8
DATA
  6
CONTINUOUS
 62
     7
 10
182.50319896548351
 20
-940.0988283333337
 30
0.0
 11
182.50319896548351
 21
-943.09882833333359
 31
0.0
  0
LINE
  5
325
  8
DATA
  6
CONTINUOUS
 62
     7
 10
153.6012795982333
 20
-852.5
 30
0.0
 11
171.5012795833336
 21
-852.5
 31
0.0
  0
ARC
  5
326
  8
DATA
  6
CONTINUOUS
 62
     7
 10
153.6012795982333
 20
-857.50000000000011
 30
0.0
 40
5.0
 50
90.0
 51
180.0
  0
ARC
  5
327
  8
DATA
  6
CONTINUOUS
 62
     7
 10
153.6012795982333
 20
-944.00029291666658
 30
0.0
 40
5.0
 50
180.0
 51
270.0
  0
ARC
  5
328
  8
DATA
  6
CONTINUOUS
 62
     7
 10
155.0
 20
-954.00029291666658
 30
0.0
 40
5.0
 50
0.0
 51
90.0
  0
ARC
  5
329
  8
DATA
  6
CONTINUOUS
 62
     7
 10
165.0
 20
-959.0
 30
0.0
 40
5.0
 50
180.0
 51
270.0
  0
CIRCLE
  5
32A
  8
DATA
  6
CONTINUOUS
 62
     7
 10
165.0012795833336
 20
-878.0
 30
0.0
 40
6.4999999999993809
  0
LINE
  5
32B
  8
DATA
  6
CONTINUOUS
 62
     7
 10
168.8218837232352
 20
-883.25861046343823
 30
0.0
 11
170.87913210625811
 21
-886.09016994374986
 31
0.0
  0
LINE
  5
32C
  8
DATA
  6
CONTINUOUS
 62
     7
 10
171.18314693925271
 20
-875.99138953656268
 30
0.0
 11
174.51184474628459
 21
-874.90983005625037
 31
0.0
  0
LINE
  5
32D
  8
DATA
  6
CONTINUOUS
 62
     7
 10
165.0012795833336
 20
-871.49999999999989
 30
0.0
 11
165.0012795833336
 21
-868.0
 31
0.0
  0
LINE
  5
32E
  8
DATA
  6
CONTINUOUS
 62
     7
 10
158.8194122274144
 20
-875.99138953656268
 30
0.0
 11
155.49071442038249
 21
-874.90983005625037
 31
0.0
  0
LINE
  5
32F
  8
DATA
  6
CONTINUOUS
 62
     7
 10
161.18067544396939
 20
-883.25861046269506
 30
0.0
 11
159.12342706040911
 21
-886.09016994374895
 31
0.0
  0
LINE
  5
330
  8
DATA
  6
CONTINUOUS
 62
     7
 10
162.496551003338
 20
-882.29811394154046
 30
0.0
 11
161.8913434265869
 21
-883.13111070831235
 31
0.0
  0
LINE
  5
331
  8
DATA
  6
CONTINUOUS
 62
     7
 10
164.5967710861951
 20
-877.70610737377615
 30
0.0
 11
164.5670819018687
 21
-877.74697103031542
 31
0.0
  0
LINE
  5
332
  8
DATA
  6
CONTINUOUS
 62
     7
 10
161.6875340089627
 20
-881.71032868924874
 30
0.0
 11
161.08232643221251
 21
-882.54332545601994
 31
0.0
  0
LINE
  5
333
  8
DATA
  6
CONTINUOUS
 62
     7
 10
158.60002918875401
 20
-876.87128684516495
 30
0.0
 11
157.12281755923601
 21
-876.61081457866453
 31
0.0
  0
LINE
  5
334
  8
DATA
  6
CONTINUOUS
 62
     7
 10
158.50523920770951
 20
-877.7731532714339
 30
0.0
 11
157.00615296718109
 21
-877.72080402637994
 31
0.0
  0
LINE
  5
335
  8
DATA
  6
CONTINUOUS
 62
     7
 10
158.5368872634389
 20
-878.67943501123955
 30
0.0
 11
157.04510442038739
 21
-878.8362277061409
 31
0.0
  0
LINE
  5
336
  8
DATA
  6
CONTINUOUS
 62
     7
 10
158.69435736253939
 20
-879.57249232139782
 30
0.0
 11
157.23891377312609
 21
-879.93537516479705
 31
0.0
  0
LINE
  5
337
  8
DATA
  6
CONTINUOUS
 62
     7
 10
158.97458452864879
 20
-880.4349428572034
 30
0.0
 11
157.5838087468
 21
-880.99685274732713
 31
0.0
  0
LINE
  5
338
  8
DATA
  6
CONTINUOUS
 62
     7
 10
159.37211445873521
 20
-881.24999999999955
 30
0.0
 11
158.07307635305821
 21
-882.0
 31
0.0
  0
LINE
  5
339
  8
DATA
  6
CONTINUOUS
 62
     7
 10
159.8792096848901
 20
-882.00179958961633
 30
0.0
 11
158.69719355448069
 21
-882.9252918026051
 31
0.0
  0
LINE
  5
33A
  8
DATA
  6
CONTINUOUS
 62
     7
 10
160.48600017534949
 20
-882.67570870220152
 30
0.0
 11
159.44401261966229
 21
-883.75471840270905
 31
0.0
  0
LINE
  5
33B
  8
DATA
  6
CONTINUOUS
 62
     7
 10
169.51655899131671
 20
-882.67570870220061
 30
0.0
 11
170.55854654700579
 21
-883.75471840270939
 31
0.0
  0
LINE
  5
33C
  8
DATA
  6
CONTINUOUS
 62
     7
 10
170.12334948177701
 20
-882.00179958961633
 30
0.0
 11
171.30536561218739
 21
-882.9252918026051
 31
0.0
  0
LINE
  5
33D
  8
DATA
  6
CONTINUOUS
 62
     7
 10
170.63044470793281
 20
-881.25000000000034
 30
0.0
 11
171.92948281360989
 21
-882.0
 31
0.0
  0
LINE
  5
33E
  8
DATA
  6
CONTINUOUS
 62
     7
 10
171.02797463801841
 20
-880.4349428572034
 30
0.0
 11
172.4187504198689
 21
-880.99685274732747
 31
0.0
  0
LINE
  5
33F
  8
DATA
  6
CONTINUOUS
 62
     7
 10
171.30820180412769
 20
-879.57249232139827
 30
0.0
 11
172.76364539354111
 21
-879.93537516479705
 31
0.0
  0
LINE
  5
340
  8
DATA
  6
CONTINUOUS
 62
     7
 10
171.4656719032273
 20
-878.67943501124012
 30
0.0
 11
172.95745474627981
 21
-878.8362277061409
 31
0.0
  0
LINE
  5
341
  8
DATA
  6
CONTINUOUS
 62
     7
 10
171.4973199589576
 20
-877.77315327143322
 30
0.0
 11
172.9964061994869
 21
-877.72080402637994
 31
0.0
  0
LINE
  5
342
  8
DATA
  6
CONTINUOUS
 62
     7
 10
171.40252997791319
 20
-876.87128684516495
 30
0.0
 11
172.8797416074303
 21
-876.61081457866453
 31
0.0
  0
LINE
  5
343
  8
DATA
  6
CONTINUOUS
 62
     7
 10
170.84344088427861
 20
-875.15058754587085
 30
0.0
 11
172.1916319537267
 21
-874.49303082568758
 31
0.0
  0
LINE
  5
344
  8
DATA
  6
CONTINUOUS
 62
     7
 10
170.39002380494179
 20
-874.36524612743949
 30
0.0
 11
171.6335801637733
 21
-873.52645677223416
 31
0.0
  0
LINE
  5
345
  8
DATA
  6
CONTINUOUS
 62
     7
 10
169.8317209489378
 20
-873.65065105866745
 30
0.0
 11
170.94643818715301
 21
-872.6469551491291
 31
0.0
  0
LINE
  5
346
  8
DATA
  6
CONTINUOUS
 62
     7
 10
169.17939904629651
 20
-873.02071111972703
 30
0.0
 11
170.14358046082631
 21
-871.87164445504766
 31
0.0
  0
LINE
  5
347
  8
DATA
  6
CONTINUOUS
 62
     7
 10
168.44575480085041
 20
-872.4876873749829
 30
0.0
 11
169.24063369719889
 21
-871.21561523074865
 31
0.0
  0
LINE
  5
348
  8
DATA
  6
CONTINUOUS
 62
     7
 10
167.64506776332661
 20
-872.06195452532393
 30
0.0
 11
168.25517272793971
 21
-870.6916363388591
 31
0.0
  0
LINE
  5
349
  8
DATA
  6
CONTINUOUS
 62
     7
 10
166.79292239614369
 20
-871.75179897640101
 30
0.0
 11
167.2063784298698
 21
-870.3099064324939
 31
0.0
  0
LINE
  5
34A
  8
DATA
  6
CONTINUOUS
 62
     7
 10
165.905904739574
 20
-871.56325755317994
 30
0.0
 11
166.1146643910142
 21
-870.07785545006845
 31
0.0
  0
LINE
  5
34B
  8
DATA
  6
CONTINUOUS
 62
     7
 10
164.09665442709411
 20
-871.56325755318539
 30
0.0
 11
163.887894775653
 21
-870.07785545006743
 31
0.0
  0
LINE
  5
34C
  8
DATA
  6
CONTINUOUS
 62
     7
 10
163.20963677052259
 20
-871.7517989764001
 30
0.0
 11
162.7961807367974
 21
-870.30990643249424
 31
0.0
  0
LINE
  5
34D
  8
DATA
  6
CONTINUOUS
 62
     7
 10
162.35749140334059
 20
-872.06195452532256
 30
0.0
 11
161.74738643872661
 21
-870.69163633885955
 31
0.0
  0
LINE
  5
34E
  8
DATA
  6
CONTINUOUS
 62
     7
 10
161.55680436581861
 20
-872.4876873749829
 30
0.0
 11
160.76192546946729
 21
-871.21561523074774
 31
0.0
  0
LINE
  5
34F
  8
DATA
  6
CONTINUOUS
 62
     7
 10
160.82316012037151
 20
-873.02071111972646
 30
0.0
 11
159.8589787058408
 21
-871.871644455048
 31
0.0
  0
LINE
  5
350
  8
DATA
  6
CONTINUOUS
 62
     7
 10
160.17083821773119
 20
-873.65065105866745
 30
0.0
 11
159.05612097951411
 21
-872.6469551491291
 31
0.0
  0
LINE
  5
351
  8
DATA
  6
CONTINUOUS
 62
     7
 10
159.61253536172529
 20
-874.36524612744063
 30
0.0
 11
158.36897900289301
 21
-873.52645677223416
 31
0.0
  0
LINE
  5
352
  8
DATA
  6
CONTINUOUS
 62
     7
 10
159.15911828238859
 20
-875.15058754587085
 30
0.0
 11
157.81092721294141
 21
-874.49303082568815
 31
0.0
  0
ARC
  5
353
  8
DATA
  6
CONTINUOUS
 62
     7
 10
165.62845036293939
 20
-872.03286862779055
 30
0.0
 40
0.4999999999990113
 50
351.61198453549321
 51
176.3880154644454
  0
ARC
  5
354
  8
DATA
  6
CONTINUOUS
 62
     7
 10
165.0012795833299
 20
-878.00000000000455
 30
0.0
 40
5.9999999999939684
 50
238.78019184717519
 51
229.2198081527709
  0
ARC
  5
355
  8
DATA
  6
CONTINUOUS
 62
     7
 10
165.00127958338271
 20
-877.99999999992212
 30
0.0
 40
5.0000000000921938
 50
239.73026269141241
 51
228.26082952287089
  0
ARC
  5
356
  8
DATA
  6
CONTINUOUS
 62
     7
 10
163.5318164526052
 20
-880.02254248592862
 30
0.0
 40
2.500000000008828
 50
245.53695903275849
 51
222.46304096722551
  0
ARC
  5
357
  8
DATA
  6
CONTINUOUS
 62
     7
 10
162.5608597248756
 20
-872.51872725414376
 30
0.0
 40
0.5000000000004735
 50
21.61198453550028
 51
206.3880154644377
  0
ARC
  5
358
  8
DATA
  6
CONTINUOUS
 62
     7
 10
160.14717761707831
 20
-874.47328848624522
 30
0.0
 40
0.499999999999614
 50
51.611984535568602
 51
236.38801546444961
  0
ARC
  5
359
  8
DATA
  6
CONTINUOUS
 62
     7
 10
159.03414821111619
 20
-877.37282922039617
 30
0.0
 40
0.4999999999995867
 50
81.611984535581826
 51
266.38801546441789
  0
ARC
  5
35A
  8
DATA
  6
CONTINUOUS
 62
     7
 10
159.52000683746971
 20
-880.44041985845934
 30
0.0
 40
0.5000000000002182
 50
111.6119845355679
 51
296.3880154644491
  0
ARC
  5
35B
  8
DATA
  6
CONTINUOUS
 62
     7
 10
161.47456806957049
 20
-882.85410196625685
 30
0.0
 40
0.4999999999996429
 50
144.00000000008771
 51
324.0000000000457
  0
ARC
  5
35C
  8
DATA
  6
CONTINUOUS
 62
     7
 10
164.37410880372229
 20
-883.96713137221877
 30
0.0
 40
0.4999999999999111
 50
171.6119845355083
 51
356.38801546443892
  0
ARC
  5
35D
  8
DATA
  6
CONTINUOUS
 62
     7
 10
167.44169944178429
 20
-883.48127274586545
 30
0.0
 40
0.5000000000005573
 50
201.6119845355245
 51
26.38801546439095
  0
ARC
  5
35E
  8
DATA
  6
CONTINUOUS
 62
     7
 10
169.8553815495824
 20
-881.52671151376421
 30
0.0
 40
0.4999999999998225
 50
231.6119845354545
 51
56.388015464435092
  0
ARC
  5
35F
  8
DATA
  6
CONTINUOUS
 62
     7
 10
170.9684109555437
 20
-878.62717077961349
 30
0.0
 40
0.4999999999998116
 50
261.61198453558558
 51
86.388015464419524
  0
ARC
  5
360
  8
DATA
  6
CONTINUOUS
 62
     7
 10
170.48255232919109
 20
-875.55958014154999
 30
0.0
 40
0.4999999999998832
 50
291.61198453547092
 51
116.388015464449
  0
ARC
  5
361
  8
DATA
  6
CONTINUOUS
 62
     7
 10
168.5279910970894
 20
-873.14589803375236
 30
0.0
 40
0.5000000000007875
 50
321.6119845356086
 51
146.38801546444941
  0
LINE
  5
362
  8
DATA
  6
CONTINUOUS
 62
     7
 10
157.69999999999979
 20
-841.0
 30
0.0
 11
149.69999999999979
 21
-841.0
 31
0.0
  0
LINE
  5
363
  8
DATA
  6
CONTINUOUS
 62
     7
 10
151.19999999999979
 20
-841.0
 30
0.0
 11
151.19999999999979
 21
-839.0
 31
0.0
  0
LINE
  5
364
  8
DATA
  6
CONTINUOUS
 62
     7
 10
156.19999999999979
 20
-839.0
 30
0.0
 11
156.19999999999979
 21
-841.0
 31
0.0
  0
LINE
  5
365
  8
DATA
  6
CONTINUOUS
 62
     7
 10
151.19999999999979
 20
-839.0
 30
0.0
 11
156.19999999999979
 21
-839.0
 31
0.0
  0
LINE
  5
366
  8
DATA
  6
CONTINUOUS
 62
     7
 10
180.30255916666729
 20
-841.0
 30
0.0
 11
172.30255916666741
 21
-841.0
 31
0.0
  0
LINE
  5
367
  8
DATA
  6
CONTINUOUS
 62
     7
 10
173.80255916666741
 20
-841.0
 30
0.0
 11
173.80255916666741
 21
-836.0
 31
0.0
  0
LINE
  5
368
  8
DATA
  6
CONTINUOUS
 62
     7
 10
178.80255916666741
 20
-836.0
 30
0.0
 11
178.80255916666741
 21
-841.0
 31
0.0
  0
LINE
  5
369
  8
DATA
  6
CONTINUOUS
 62
     7
 10
173.80255916666741
 20
-838.0
 30
0.0
 11
178.80255916666741
 21
-838.0
 31
0.0
  0
LINE
  5
36A
  8
DATA
  6
CONTINUOUS
 62
     7
 10
173.80255916666741
 20
-836.0
 30
0.0
 11
178.80255916666741
 21
-836.0
 31
0.0
  0
LINE
  5
36B
  8
DATA
  6
CONTINUOUS
 62
     7
 10
237.19872041666619
 20
-841.0
 30
0.0
 11
229.19872041666619
 21
-841.0
 31
0.0
  0
LINE
  5
36C
  8
DATA
  6
CONTINUOUS
 62
     7
 10
230.6987204166663
 20
-841.0
 30
0.0
 11
230.6987204166663
 21
-839.0
 31
0.0
  0
LINE
  5
36D
  8
DATA
  6
CONTINUOUS
 62
     7
 10
235.69872041666619
 20
-839.0
 30
0.0
 11
235.69872041666619
 21
-841.0
 31
0.0
  0
LINE
  5
36E
  8
DATA
  6
CONTINUOUS
 62
     7
 10
230.6987204166663
 20
-839.0
 30
0.0
 11
235.69872041666619
 21
-839.0
 31
0.0
  0
LINE
  5
36F
  8
DATA
  6
CONTINUOUS
 62
     7
 10
259.80127958333372
 20
-841.0
 30
0.0
 11
251.80127958333381
 21
-841.0
 31
0.0
  0
LINE
  5
370
  8
DATA
  6
CONTINUOUS
 62
     7
 10
253.30127958333381
 20
-841.0
 30
0.0
 11
253.30127958333381
 21
-836.0
 31
0.0
  0
LINE
  5
371
  8
DATA
  6
CONTINUOUS
 62
     7
 10
258.30127958333372
 20
-836.0
 30
0.0
 11
258.30127958333372
 21
-841.0
 31
0.0
  0
LINE
  5
372
  8
DATA
  6
CONTINUOUS
 62
     7
 10
253.30127958333381
 20
-838.0
 30
0.0
 11
258.30127958333372
 21
-838.0
 31
0.0
  0
LINE
  5
373
  8
DATA
  6
CONTINUOUS
 62
     7
 10
253.30127958333381
 20
-836.0
 30
0.0
 11
258.30127958333372
 21
-836.0
 31
0.0
  0
CIRCLE
  5
374
  8
DATA
  6
CONTINUOUS
 62
     7
 10
166.5
 20
-1118.0
 30
0.0
 40
4.7500000000002034
  0
LINE
  5
375
  8
DATA
  6
CONTINUOUS
 62
     7
 10
164.0
 20
-1118.0
 30
0.0
 11
169.0
 21
-1118.0
 31
0.0
  0
LINE
  5
376
  8
DATA
  6
CONTINUOUS
 62
     7
 10
166.5
 20
-1120.5
 30
0.0
 11
166.5
 21
-1115.5
 31
0.0
  0
CIRCLE
  5
377
  8
DATA
  6
CONTINUOUS
 62
     7
 10
233.5
 20
-1118.0
 30
0.0
 40
4.7500000000002034
  0
LINE
  5
378
  8
DATA
  6
CONTINUOUS
 62
     7
 10
231.0
 20
-1118.0
 30
0.0
 11
236.0
 21
-1118.0
 31
0.0
  0
LINE
  5
379
  8
DATA
  6
CONTINUOUS
 62
     7
 10
233.5
 20
-1120.5
 30
0.0
 11
233.5
 21
-1115.5
 31
0.0
  0
CIRCLE
  5
37A
  8
DATA
  6
CONTINUOUS
 62
     7
 10
166.5
 20
-748.0
 30
0.0
 40
4.7500000000002034
  0
LINE
  5
37B
  8
DATA
  6
CONTINUOUS
 62
     7
 10
164.0
 20
-748.0
 30
0.0
 11
169.0
 21
-748.0
 31
0.0
  0
LINE
  5
37C
  8
DATA
  6
CONTINUOUS
 62
     7
 10
166.5
 20
-745.5
 30
0.0
 11
166.5
 21
-750.49999999999989
 31
0.0
  0
CIRCLE
  5
37D
  8
DATA
  6
CONTINUOUS
 62
     7
 10
233.5
 20
-748.0
 30
0.0
 40
4.7500000000002034
  0
LINE
  5
37E
  8
DATA
  6
CONTINUOUS
 62
     7
 10
231.0
 20
-748.0
 30
0.0
 11
236.0
 21
-748.0
 31
0.0
  0
LINE
  5
37F
  8
DATA
  6
CONTINUOUS
 62
     7
 10
233.5
 20
-745.5
 30
0.0
 11
233.5
 21
-750.49999999999989
 31
0.0
  0
CIRCLE
  5
380
  8
DATA
  6
CONTINUOUS
 62
     7
 10
119.5
 20
-921.99999999999966
 30
0.0
 40
4.7500000000002034
  0
LINE
  5
381
  8
DATA
  6
CONTINUOUS
 62
     7
 10
117.0
 20
-921.99999999999966
 30
0.0
 11
122.0
 21
-921.99999999999966
 31
0.0
  0
LINE
  5
382
  8
DATA
  6
CONTINUOUS
 62
     7
 10
119.5
 20
-924.49999999999966
 30
0.0
 11
119.5
 21
-919.49999999999955
 31
0.0
  0
CIRCLE
  5
383
  8
DATA
  6
CONTINUOUS
 62
     7
 10
119.5
 20
-814.0
 30
0.0
 40
4.7500000000002034
  0
LINE
  5
384
  8
DATA
  6
CONTINUOUS
 62
     7
 10
117.0
 20
-814.0
 30
0.0
 11
122.0
 21
-814.0
 31
0.0
  0
LINE
  5
385
  8
DATA
  6
CONTINUOUS
 62
     7
 10
119.5
 20
-816.5
 30
0.0
 11
119.5
 21
-811.5
 31
0.0
  0
CIRCLE
  5
386
  8
DATA
  6
CONTINUOUS
 62
     7
 10
119.5
 20
-1030.0
 30
0.0
 40
4.7500000000002034
  0
LINE
  5
387
  8
DATA
  6
CONTINUOUS
 62
     7
 10
117.0
 20
-1030.0
 30
0.0
 11
122.0
 21
-1030.0
 31
0.0
  0
LINE
  5
388
  8
DATA
  6
CONTINUOUS
 62
     7
 10
119.5
 20
-1032.5
 30
0.0
 11
119.5
 21
-1027.5
 31
0.0
  0
CIRCLE
  5
389
  8
DATA
  6
CONTINUOUS
 62
     7
 10
280.5
 20
-921.99999999999966
 30
0.0
 40
4.7500000000002034
  0
LINE
  5
38A
  8
DATA
  6
CONTINUOUS
 62
     7
 10
283.0
 20
-921.99999999999966
 30
0.0
 11
278.0
 21
-921.99999999999966
 31
0.0
  0
LINE
  5
38B
  8
DATA
  6
CONTINUOUS
 62
     7
 10
280.5
 20
-924.49999999999966
 30
0.0
 11
280.5
 21
-919.49999999999955
 31
0.0
  0
CIRCLE
  5
38C
  8
DATA
  6
CONTINUOUS
 62
     7
 10
280.5
 20
-814.0
 30
0.0
 40
4.7500000000002034
  0
LINE
  5
38D
  8
DATA
  6
CONTINUOUS
 62
     7
 10
283.0
 20
-814.0
 30
0.0
 11
278.0
 21
-814.0
 31
0.0
  0
LINE
  5
38E
  8
DATA
  6
CONTINUOUS
 62
     7
 10
280.5
 20
-816.5
 30
0.0
 11
280.5
 21
-811.5
 31
0.0
  0
CIRCLE
  5
38F
  8
DATA
  6
CONTINUOUS
 62
     7
 10
280.5
 20
-1030.0
 30
0.0
 40
4.7500000000002034
  0
LINE
  5
390
  8
DATA
  6
CONTINUOUS
 62
     7
 10
283.0
 20
-1030.0
 30
0.0
 11
278.0
 21
-1030.0
 31
0.0
  0
LINE
  5
391
  8
DATA
  6
CONTINUOUS
 62
     7
 10
280.5
 20
-1032.5
 30
0.0
 11
280.5
 21
-1027.5
 31
0.0
  0
CIRCLE
  5
392
  8
DATA
  6
CONTINUOUS
 62
     7
 10
233.5
 20
-766.0
 30
0.0
 40
2.5000000000002212
  0
CIRCLE
  5
393
  8
DATA
  6
CONTINUOUS
 62
     7
 10
166.5
 20
-766.0
 30
0.0
 40
2.5000000000002212
  0
LINE
  5
394
  8
DATA
  6
CONTINUOUS
 62
     7
 10
165.0
 20
-766.0
 30
0.0
 11
168.0
 21
-766.0
 31
0.0
  0
LINE
  5
395
  8
DATA
  6
CONTINUOUS
 62
     7
 10
166.4200000000001
 20
-764.5
 30
0.0
 11
166.4200000000001
 21
-767.49999999999989
 31
0.0
  0
LINE
  5
396
  8
DATA
  6
CONTINUOUS
 62
     7
 10
235.0
 20
-766.0
 30
0.0
 11
232.0
 21
-766.0
 31
0.0
  0
LINE
  5
397
  8
DATA
  6
CONTINUOUS
 62
     7
 10
233.5799999999999
 20
-764.5
 30
0.0
 11
233.5799999999999
 21
-767.49999999999989
 31
0.0
  0
CIRCLE
  5
398
  8
DATA
  6
CONTINUOUS
 62
     7
 10
263.42000000000007
 20
-814.0
 30
0.0
 40
2.5000000000002212
  0
LINE
  5
399
  8
DATA
  6
CONTINUOUS
 62
     7
 10
264.92000000000007
 20
-814.0
 30
0.0
 11
261.92000000000007
 21
-814.0
 31
0.0
  0
LINE
  5
39A
  8
DATA
  6
CONTINUOUS
 62
     7
 10
263.5
 20
-812.5
 30
0.0
 11
263.5
 21
-815.49999999999989
 31
0.0
  0
CIRCLE
  5
39B
  8
DATA
  6
CONTINUOUS
 62
     7
 10
263.42000000000007
 20
-921.99999999999966
 30
0.0
 40
2.5000000000004241
  0
LINE
  5
39C
  8
DATA
  6
CONTINUOUS
 62
     7
 10
264.92000000000007
 20
-921.99999999999966
 30
0.0
 11
261.92000000000007
 21
-921.99999999999966
 31
0.0
  0
LINE
  5
39D
  8
DATA
  6
CONTINUOUS
 62
     7
 10
263.5
 20
-920.49999999999955
 30
0.0
 11
263.5
 21
-923.49999999999966
 31
0.0
  0
CIRCLE
  5
39E
  8
DATA
  6
CONTINUOUS
 62
     7
 10
263.42000000000007
 20
-1030.0
 30
0.0
 40
2.5000000000002212
  0
LINE
  5
39F
  8
DATA
  6
CONTINUOUS
 62
     7
 10
264.92000000000007
 20
-1030.0
 30
0.0
 11
261.92000000000007
 21
-1030.0
 31
0.0
  0
LINE
  5
3A0
  8
DATA
  6
CONTINUOUS
 62
     7
 10
263.5
 20
-1028.5
 30
0.0
 11
263.5
 21
-1031.5
 31
0.0
  0
CIRCLE
  5
3A1
  8
DATA
  6
CONTINUOUS
 62
     7
 10
136.5799999999999
 20
-814.0
 30
0.0
 40
2.5000000000002212
  0
LINE
  5
3A2
  8
DATA
  6
CONTINUOUS
 62
     7
 10
135.0799999999999
 20
-814.0
 30
0.0
 11
138.0799999999999
 21
-814.0
 31
0.0
  0
LINE
  5
3A3
  8
DATA
  6
CONTINUOUS
 62
     7
 10
136.5
 20
-812.5
 30
0.0
 11
136.5
 21
-815.49999999999989
 31
0.0
  0
CIRCLE
  5
3A4
  8
DATA
  6
CONTINUOUS
 62
     7
 10
136.5799999999999
 20
-921.99999999999966
 30
0.0
 40
2.5000000000004241
  0
LINE
  5
3A5
  8
DATA
  6
CONTINUOUS
 62
     7
 10
135.0799999999999
 20
-921.99999999999966
 30
0.0
 11
138.0799999999999
 21
-921.99999999999966
 31
0.0
  0
LINE
  5
3A6
  8
DATA
  6
CONTINUOUS
 62
     7
 10
136.5
 20
-920.49999999999955
 30
0.0
 11
136.5
 21
-923.49999999999966
 31
0.0
  0
CIRCLE
  5
3A7
  8
DATA
  6
CONTINUOUS
 62
     7
 10
136.5799999999999
 20
-1030.0
 30
0.0
 40
2.5000000000002212
  0
LINE
  5
3A8
  8
DATA
  6
CONTINUOUS
 62
     7
 10
135.0799999999999
 20
-1030.0
 30
0.0
 11
138.0799999999999
 21
-1030.0
 31
0.0
  0
LINE
  5
3A9
  8
DATA
  6
CONTINUOUS
 62
     7
 10
136.5
 20
-1028.5
 30
0.0
 11
136.5
 21
-1031.5
 31
0.0
  0
TEXT
  5
3AA
  8
DATA
 62
     7
 10
174.1709879557288
 20
-816.41648763020839
 30
0.0
 40
12.21630859375
  1
PRX725
 41
0.7
 72
     1
 11
198.39999999999961
 21
-810.30833333333339
 31
0.0
 73
     2
  0
LINE
  5
3AB
  8
DATA
  6
CONTINUOUS
 62
     7
 10
267.5
 20
-1105.0
 30
0.0
 11
267.5
 21
-1030.0
 31
0.0
  0
LINE
  5
3AC
  8
DATA
  6
CONTINUOUS
 62
     7
 10
87.000000000000128
 20
-129.0
 30
0.0
 11
87.000000000000128
 21
-1200.0
 31
0.0
  0
CIRCLE
  5
3AD
  8
DATA
  6
CONTINUOUS
 62
     7
 10
200.0
 20
-1149.5
 30
0.0
 40
10.000000000000229
  0
LINE
  5
3AE
  8
DATA
  6
CONTINUOUS
 62
     7
 10
202.0
 20
-1152.964101615137
 30
0.0
 11
204.0
 21
-1149.5
 31
0.0
  0
LINE
  5
3AF
  8
DATA
  6
CONTINUOUS
 62
     7
 10
198.0
 20
-1152.964101615137
 30
0.0
 11
202.0
 21
-1152.964101615137
 31
0.0
  0
LINE
  5
3B0
  8
DATA
  6
CONTINUOUS
 62
     7
 10
196.0
 20
-1149.5
 30
0.0
 11
198.0
 21
-1152.964101615137
 31
0.0
  0
LINE
  5
3B1
  8
DATA
  6
CONTINUOUS
 62
     7
 10
198.0
 20
-1146.0358983848621
 30
0.0
 11
196.0
 21
-1149.5
 31
0.0
  0
LINE
  5
3B2
  8
DATA
  6
CONTINUOUS
 62
     7
 10
202.0
 20
-1146.0358983848621
 30
0.0
 11
198.0
 21
-1146.0358983848621
 31
0.0
  0
LINE
  5
3B3
  8
DATA
  6
CONTINUOUS
 62
     7
 10
204.0
 20
-1149.5
 30
0.0
 11
202.0
 21
-1146.0358983848621
 31
0.0
  0
LINE
  5
3B4
  8
DATA
  6
CONTINUOUS
 62
     7
 10
60.0
 20
-570.0
 30
0.0
 11
60.0
 21
-394.0
 31
0.0
  0
LINE
  5
3B5
  8
DATA
  6
CONTINUOUS
 62
     7
 10
52.5
 20
-570.0
 30
0.0
 11
52.5
 21
-499.0
 31
0.0
  0
LINE
  5
3B6
  8
DATA
  6
CONTINUOUS
 62
     7
 10
52.5
 20
-485.0
 30
0.0
 11
52.5
 21
-394.0
 31
0.0
  0
LINE
  5
3B7
  8
DATA
  6
CONTINUOUS
 62
     7
 10
12.0
 20
-585.0
 30
0.0
 11
55.5
 21
-585.0
 31
0.0
  0
LINE
  5
3B8
  8
DATA
  6
CONTINUOUS
 62
     7
 10
15.0
 20
-570.0
 30
0.0
 11
52.5
 21
-570.0
 31
0.0
  0
LINE
  5
3B9
  8
DATA
  6
CONTINUOUS
 62
     7
 10
7.5
 20
-394.0
 30
0.0
 11
7.5
 21
-570.0
 31
0.0
  0
LINE
  5
3BA
  8
DATA
  6
CONTINUOUS
 62
     7
 10
15.0
 20
-394.0
 30
0.0
 11
15.0
 21
-485.0
 31
0.0
  0
LINE
  5
3BB
  8
DATA
  6
CONTINUOUS
 62
     7
 10
15.0
 20
-499.0
 30
0.0
 11
15.0
 21
-570.0
 31
0.0
  0
LINE
  5
3BC
  8
DATA
  6
CONTINUOUS
 62
     7
 10
55.5
 20
-379.0
 30
0.0
 11
12.0
 21
-379.0
 31
0.0
  0
LINE
  5
3BD
  8
DATA
  6
CONTINUOUS
 62
     7
 10
52.5
 20
-394.0
 30
0.0
 11
15.0
 21
-394.0
 31
0.0
  0
LINE
  5
3BE
  8
DATA
  6
CONTINUOUS
 62
     7
 10
52.5
 20
-499.0
 30
0.0
 11
15.0
 21
-499.0
 31
0.0
  0
LINE
  5
3BF
  8
DATA
  6
CONTINUOUS
 62
     7
 10
52.5
 20
-485.0
 30
0.0
 11
15.0
 21
-485.0
 31
0.0
  0
TEXT
  5
3C0
  8
DATA
 62
     7
 10
1002.959092881944
 20
1024.5999999999999
 30
0.0
 40
54.294704861111107
  1
コネクターパネル拡大図
 41
0.7
 72
     1
 11
1250.0
 21
1078.894704861111
 31
0.0
 73
     3
  0
TEXT
  5
3C1
  8
DATA
 62
     7
 10
999.99999999999955
 20
-2310.2777150000002
 30
0.0
 40
48.865234375000007
  1
PRX725
 41
0.7
 11
999.99999999999955
 21
-2261.4124806250002
 31
0.0
 73
     3
  0
TEXT
  5
3C2
  8
DATA
 62
     7
 10
999.99999999999955
 20
-2165.2777150000002
 30
0.0
 40
48.865234375000007
  1
JBL PROFESSIONAL
 41
0.7
 11
999.99999999999955
 21
-2116.4124806250002
 31
0.0
 73
     3
  0
TEXT
  5
3C3
  8
DATA
 62
     7
 10
949.99999999999955
 20
-2234.8168150000001
 30
0.0
 40
32.576822916666671
  1
2-Wayパワード・フルレンジ
 41
0.7
 11
949.99999999999955
 21
-2202.2399920833341
 31
0.0
 73
     3
  0
TEXT
  5
3C4
  8
DATA
 62
     7
 10
179.17508911892369
 20
-859.47315266927058
 30
0.0
 40
2.8504720052083332
  1
Limit
 41
0.7
 72
     1
 11
182.5006397916668
 21
-858.04791666666642
 31
0.0
 73
     2
  0
TEXT
  5
3C5
  8
DATA
 62
     7
 10
160.51178617513051
 20
-859.36065266927085
 30
0.0
 40
2.8504720052083332
  1
Signal
 41
0.7
 72
     1
 11
165.0012795833336
 21
-857.93541666666658
 31
0.0
 73
     2
  0
TEXT
  5
3C6
  8
DATA
 62
     7
 10
195.51050659179691
 20
-859.36065266927085
 30
0.0
 40
2.8504720052083332
  1
Signal
 41
0.7
 72
     1
 11
200.0
 21
-857.93541666666658
 31
0.0
 73
     2
  0
TEXT
  5
3C7
  8
DATA
 62
     7
 10
222.52334798057029
 20
-880.21750785744985
 30
0.0
 40
2.8504720052083332
  1
CH1/MIX/CH2
 41
0.7
 72
     1
 11
232.4999999987995
 21
-878.79227185484558
 31
0.0
 73
     2
  0
TEXT
  5
3C8
  8
DATA
 62
     7
 10
222.52334798057029
 20
-897.21750785744985
 30
0.0
 40
2.8504720052083332
  1
CH1/MIX/CH2
 41
0.7
 72
     1
 11
232.4999999987995
 21
-895.79227185484581
 31
0.0
 73
     2
  0
TEXT
  5
3C9
  8
DATA
 62
     7
 10
146.95297381009379
 20
-922.5737385026041
 30
0.0
 40
2.8504720052083332
  1
+4
 41
0.7
 72
     1
 11
148.6157491464653
 21
-921.14850249999995
 31
0.0
 73
     2
  0
TEXT
  5
3CA
  8
DATA
 62
     7
 10
145.95530860827091
 20
-926.27790516927098
 30
0.0
 40
2.8504720052083332
  1
dBu
 41
0.7
 72
     1
 11
148.6157491464653
 21
-924.85266916666683
 31
0.0
 73
     2
  0
TEXT
  5
3CB
  8
DATA
 62
     7
 10
204.29093418710301
 20
-894.0731526692706
 30
0.0
 40
2.8504720052083332
  1
Ground
 41
0.7
 72
     1
 11
209.9443703307663
 21
-892.64791666666645
 31
0.0
 73
     2
  0
TEXT
  5
3CC
  8
DATA
 62
     7
 10
206.95137472529751
 20
-897.77731933593748
 30
0.0
 40
2.8504720052083332
  1
Lift
 41
0.7
 72
     1
 11
209.9443703307663
 21
-896.35208333333333
 31
0.0
 73
     2
  0
TEXT
  5
3CD
  8
DATA
 62
     7
 10
148.28984653380121
 20
-895.42523600260415
 30
0.0
 40
2.8504720052083332
  1
Mic/Line
 41
0.7
 72
     1
 11
154.60839281201311
 21
-894.0
 31
0.0
 73
     2
  0
LINE
  5
3CE
  8
DATA
  6
CONTINUOUS
 62
     7
 10
216.39999999940031
 20
-944.00029291666658
 30
0.0
 11
216.39999999940031
 21
-898.20416666666654
 31
0.0
  0
LINE
  5
3CF
  8
DATA
  6
CONTINUOUS
 62
     7
 10
216.39999999940031
 20
-890.79583333333335
 30
0.0
 11
216.39999999940031
 21
-857.50000000000011
 31
0.0
  0
TEXT
  5
3D0
  8
DATA
 62
     7
 10
163.23365488549089
 20
-948.57344558593718
 30
0.0
 40
2.8504720052083332
  1
-10
 41
0.7
 72
     1
 11
165.3952628227739
 21
-947.14820958333326
 31
0.0
 73
     2
  0
TEXT
  5
3D1
  8
DATA
 62
     7
 10
162.73482228457951
 20
-952.27761225260406
 30
0.0
 40
2.8504720052083332
  1
dBv
 41
0.7
 72
     1
 11
165.3952628227739
 21
-950.85237625000013
 31
0.0
 73
     2
  0
LINE
  5
3D2
  8
DATA
  6
CONTINUOUS
 62
     7
 10
148.6012795982333
 20
-918.50058583333328
 30
0.0
 11
148.6012795982333
 21
-898.20416666666654
 31
0.0
  0
LINE
  5
3D3
  8
DATA
  6
CONTINUOUS
 62
     7
 10
148.6012795982333
 20
-890.79583333333335
 30
0.0
 11
148.6012795982333
 21
-857.50000000000011
 31
0.0
  0
TEXT
  5
3D4
  8
DATA
 62
     7
 10
227.27413465591749
 20
-907.88963226682472
 30
0.0
 40
4.072102864583333
  1
THRU
 41
0.7
 72
     1
 11
232.4999999987995
 21
-905.85358083453309
 31
0.0
 73
     2
  0
TEXT
  5
3D5
  8
DATA
 62
     7
 10
248.62800244117
 20
-922.5737385026041
 30
0.0
 40
2.8504720052083332
  1
+4
 41
0.7
 72
     1
 11
250.29077777754159
 21
-921.14850249999995
 31
0.0
 73
     2
  0
TEXT
  5
3D6
  8
DATA
 62
     7
 10
247.63033723934711
 20
-926.27790516927098
 30
0.0
 40
2.8504720052083332
  1
dBu
 41
0.7
 72
     1
 11
250.29077777754159
 21
-924.85266916666683
 31
0.0
 73
     2
  0
TEXT
  5
3D7
  8
DATA
 62
     7
 10
217.86757703872999
 20
-886.98388910332335
 30
0.0
 40
4.072102864583333
  1
THRU SELECT
 41
0.7
 72
     1
 11
232.4999999987995
 21
-884.94783767103195
 31
0.0
 73
     2
  0
TEXT
  5
3D8
  8
DATA
 62
     7
 10
219.2928130413342
 20
-869.6936946799201
 30
0.0
 40
4.072102864583333
  1
SPK SELECT
 41
0.7
 72
     1
 11
232.4999999987995
 21
-867.65764324762836
 31
0.0
 73
     2
  0
TEXT
  5
3D9
  8
DATA
 62
     7
 10
162.62588624566001
 20
-834.39021809895814
 30
0.0
 40
4.072102864583333
  1
EQ
 41
0.7
 72
     1
 11
165.0012795833336
 21
-832.35416666666652
 31
0.0
 73
     2
  0
TEXT
  5
3DA
  8
DATA
 62
     7
 10
232.71804904513891
 20
-834.39021809895814
 30
0.0
 40
4.072102864583333
  1
FRONT LED
 41
0.7
 72
     1
 11
244.5
 21
-832.35416666666652
 31
0.0
 73
     2
  0
TEXT
  5
3DB
  8
DATA
 62
     7
 10
233.0981119791667
 20
-823.3896322656251
 30
0.0
 40
4.072102864583333
  1
PWR/STBY
 41
0.7
 72
     1
 11
244.5
 21
-821.35358083333335
 31
0.0
 73
     2
  0
TEXT
  5
3DC
  8
DATA
 62
     7
 10
164.52248485338191
 20
-852.1073167509694
 30
0.0
 40
2.9319140625000002
  1
CH1
 41
0.7
 72
     1
 11
166.91688133775691
 21
-850.6413597197195
 31
0.0
 73
     2
  0
LINE
  5
3DD
  8
DATA
  6
CONTINUOUS
 62
     7
 10
171.554811176653
 20
-852.59271943943895
 30
0.0
 11
170.3548111766529
 21
-848.78271943943935
 31
0.0
  0
LINE
  5
3DE
  8
DATA
  6
CONTINUOUS
 62
     7
 10
162.27895149886061
 20
-852.59271943943895
 30
0.0
 11
163.4789514988606
 21
-848.78271943943935
 31
0.0
  0
LINE
  5
3DF
  8
DATA
  6
CONTINUOUS
 62
     7
 10
163.4789514988606
 20
-848.78271943943935
 30
0.0
 11
170.3548111766529
 21
-848.78271943943935
 31
0.0
  0
TEXT
  5
3E0
  8
DATA
 62
     7
 10
195.40147672819651
 20
-852.01459731153034
 30
0.0
 40
2.9319140625000002
  1
CH2
 41
0.7
 72
     1
 11
198.13792985319651
 21
-850.54864028028032
 31
0.0
 73
     2
  0
LINE
  5
3E1
  8
DATA
  6
CONTINUOUS
 62
     7
 10
202.77585969209241
 20
-852.5
 30
0.0
 11
201.57585969209231
 21
-848.69000000000005
 31
0.0
  0
LINE
  5
3E2
  8
DATA
  6
CONTINUOUS
 62
     7
 10
193.50000001430001
 20
-852.5
 30
0.0
 11
194.7000000143
 21
-848.69000000000005
 31
0.0
  0
LINE
  5
3E3
  8
DATA
  6
CONTINUOUS
 62
     7
 10
194.700000014301
 20
-848.69000000000005
 30
0.0
 11
201.57585969209231
 21
-848.69000000000005
 31
0.0
  0
TEXT
  5
3E4
  8
DATA
 62
     7
 10
176.32461712086501
 20
-907.88963226682472
 30
0.0
 40
4.072102864583333
  1
INPUT
 41
0.7
 72
     1
 11
182.50063979881631
 21
-905.85358083453309
 31
0.0
 73
     2
  0
TEXT
  5
3E5
  8
DATA
 62
     7
 10
177.74985312346911
 20
-880.03605143229163
 30
0.0
 40
4.072102864583333
  1
GAIN
 41
0.7
 72
     1
 11
182.50063979881631
 21
-878.0
 31
0.0
 73
     2
  0
LINE
  5
3E6
  8
DATA
  6
CONTINUOUS
 62
     7
 10
800.0
 20
1000.0
 30
0.0
 11
1700.0
 21
1000.0
 31
0.0
  0
CIRCLE
  5
3E7
  8
DATA
  6
CONTINUOUS
 62
     7
 10
-1380.0
 20
229.5
 30
0.0
 40
10.000000000000229
  0
LINE
  5
3E8
  8
DATA
  6
CONTINUOUS
 62
     7
 10
-1382.0
 20
226.03589838486229
 30
0.0
 11
-1384.0
 21
229.5
 31
0.0
  0
LINE
  5
3E9
  8
DATA
  6
CONTINUOUS
 62
     7
 10
-1378.0
 20
226.03589838486229
 30
0.0
 11
-1382.0
 21
226.03589838486229
 31
0.0
  0
LINE
  5
3EA
  8
DATA
  6
CONTINUOUS
 62
     7
 10
-1376.0
 20
229.5
 30
0.0
 11
-1378.0
 21
226.03589838486229
 31
0.0
  0
LINE
  5
3EB
  8
DATA
  6
CONTINUOUS
 62
     7
 10
-1378.0
 20
232.96410161513771
 30
0.0
 11
-1376.0
 21
229.5
 31
0.0
  0
LINE
  5
3EC
  8
DATA
  6
CONTINUOUS
 62
     7
 10
-1382.0
 20
232.96410161513771
 30
0.0
 11
-1378.0
 21
232.96410161513771
 31
0.0
  0
LINE
  5
3ED
  8
DATA
  6
CONTINUOUS
 62
     7
 10
-1384.0
 20
229.5
 30
0.0
 11
-1382.0
 21
232.96410161513771
 31
0.0
  0
ARC
  5
3EE
  8
DATA
  6
CONTINUOUS
 62
     7
 10
-1199.9999999999991
 20
1617.408089403187
 30
0.0
 40
1447.408089403187
 50
266.0001165763274
 51
273.9998834236726
  0
ARC
  5
3EF
  8
DATA
  6
CONTINUOUS
 62
     7
 10
-1200.000000000002
 20
1615.7006673090759
 30
0.0
 40
1515.7006673090759
 50
265.45578590537002
 51
274.54421409463032
  0
ARC
  5
3F0
  8
DATA
  6
CONTINUOUS
 62
     7
 10
-1200.0
 20
1616.02168212126
 30
0.0
 40
1501.0216821212589
 50
265.5691113354107
 51
274.43088866458919
  0
LINE
  5
3F1
  8
DATA
  6
CONTINUOUS
 62
     7
 10
-1322.997622626362
 20
-129.0
 30
0.0
 11
-1322.997622626362
 21
-1200.0
 31
0.0
  0
LINE
  5
3F2
  8
DATA
  6
CONTINUOUS
 62
     7
 10
-1077.002377373638
 20
-129.0
 30
0.0
 11
-1077.002377373638
 21
-1200.0
 31
0.0
  0
LINE
  5
3F3
  8
DATA
  6
CONTINUOUS
 62
     7
 10
-489.56441244808229
 20
-585.0
 30
0.0
 11
-623.42763655766271
 21
-585.0
 31
0.0
  0
LINE
  5
3F4
  8
DATA
  6
CONTINUOUS
 62
     7
 10
-500.5715955444831
 20
-570.0
 30
0.0
 11
-612.42045346126201
 21
-570.0
 31
0.0
  0
LINE
  5
3F5
  8
DATA
  6
CONTINUOUS
 62
     7
 10
-500.5715955444831
 20
-562.0
 30
0.0
 11
-612.42045346126201
 21
-562.0
 31
0.0
  0
LINE
  5
3F6
  8
DATA
  6
CONTINUOUS
 62
     7
 10
-623.42763655766271
 20
-379.0
 30
0.0
 11
-489.56441244808229
 21
-379.0
 31
0.0
  0
LINE
  5
3F7
  8
DATA
  6
CONTINUOUS
 62
     7
 10
-612.42045346126201
 20
-394.0
 30
0.0
 11
-500.5715955444831
 21
-394.0
 31
0.0
  0
LINE
  5
3F8
  8
DATA
  6
CONTINUOUS
 62
     7
 10
-612.42045346126201
 20
-402.0
 30
0.0
 11
-500.5715955444831
 21
-402.0
 31
0.0
  0
LINE
  5
3F9
  8
DATA
  6
CONTINUOUS
 62
     7
 10
-616.50155177762122
 20
-485.0
 30
0.0
 11
-496.49049722812379
 21
-485.0
 31
0.0
  0
LINE
  5
3FA
  8
DATA
  6
CONTINUOUS
 62
     7
 10
-616.50155177762122
 20
-477.0
 30
0.0
 11
-496.49049722812379
 21
-477.0
 31
0.0
  0
LINE
  5
3FB
  8
DATA
  6
CONTINUOUS
 62
     7
 10
-643.99602450287261
 20
-499.0
 30
0.0
 11
-643.86184546971185
 21
-499.0
 31
0.0
  0
LINE
  5
3FC
  8
DATA
  6
CONTINUOUS
 62
     7
 10
-615.9355736281816
 20
-499.0
 30
0.0
 11
-497.0564753775634
 21
-499.0
 31
0.0
  0
LINE
  5
3FD
  8
DATA
  6
CONTINUOUS
 62
     7
 10
-615.9355736281816
 20
-507.0
 30
0.0
 11
-497.0564753775634
 21
-507.0
 31
0.0
  0
LINE
  5
3FE
  8
DATA
  6
CONTINUOUS
 62
     7
 10
-469.13020353603321
 20
-499.0
 30
0.0
 11
-468.99602450287239
 21
-499.0
 31
0.0
  0
ARC
  5
3FF
  8
DATA
  6
CONTINUOUS
 62
     7
 10
-1173.346024502873
 20
-482.0
 30
0.0
 40
704.42098385837448
 50
352.66656866709002
 51
7.3334313329099787
  0
ARC
  5
400
  8
DATA
  6
CONTINUOUS
 62
     7
 10
-1173.346024502873
 20
-482.0
 30
0.0
 40
689.42098385837426
 50
353.48109737401433
 51
357.54759612915598
  0
ARC
  5
401
  8
DATA
  6
CONTINUOUS
 62
     7
 10
-1173.346024502873
 20
-482.0
 30
0.0
 40
681.42098385837357
 50
353.48109737401433
 51
357.54759612915598
  0
ARC
  5
402
  8
DATA
  6
CONTINUOUS
 62
     7
 10
-1173.346024502873
 20
-482.0
 30
0.0
 40
689.42098385837483
 50
0.7895566874362964
 51
6.51890262598892
  0
ARC
  5
403
  8
DATA
  6
CONTINUOUS
 62
     7
 10
-1173.346024502873
 20
-482.0
 30
0.0
 40
681.42098385837403
 50
0.7895566874363046
 51
6.51890262598892
  0
ARC
  5
404
  8
DATA
  6
CONTINUOUS
 62
     7
 10
60.353975497127863
 20
-482.0
 30
0.0
 40
704.42098385837448
 50
172.66656866708999
 51
187.33343133291001
  0
ARC
  5
405
  8
DATA
  6
CONTINUOUS
 62
     7
 10
60.353975497127863
 20
-482.0
 30
0.0
 40
689.42098385837346
 50
173.4810973740108
 51
179.2104866720847
  0
ARC
  5
406
  8
DATA
  6
CONTINUOUS
 62
     7
 10
60.353975497127863
 20
-482.0
 30
0.0
 40
681.4209838583746
 50
173.4810973740108
 51
179.21048667208481
  0
ARC
  5
407
  8
DATA
  6
CONTINUOUS
 62
     7
 10
60.353975497127863
 20
-482.0
 30
0.0
 40
689.4209838583746
 50
182.4523973684436
 51
186.51890262597729
  0
ARC
  5
408
  8
DATA
  6
CONTINUOUS
 62
     7
 10
60.353975497127863
 20
-482.0
 30
0.0
 40
681.42098385837426
 50
182.4523973684436
 51
186.51890262597709
  0
ARC
  5
409
  8
DATA
  6
CONTINUOUS
 62
     7
 10
-489.56441244808229
 20
-569.99999999999852
 30
0.0
 40
15.000000000001361
 50
270.0
 51
352.66656866708468
  0
ARC
  5
40A
  8
DATA
  6
CONTINUOUS
 62
     7
 10
-623.42763655766271
 20
-569.99999999999852
 30
0.0
 40
15.000000000000959
 50
187.3334313329153
 51
270.0
  0
ARC
  5
40B
  8
DATA
  6
CONTINUOUS
 62
     7
 10
-623.42763655766271
 20
-394.00000000000142
 30
0.0
 40
15.000000000001361
 50
90.0
 51
172.66656866708459
  0
ARC
  5
40C
  8
DATA
  6
CONTINUOUS
 62
     7
 10
-489.56441244808229
 20
-394.00000000000142
 30
0.0
 40
15.000000000000959
 50
7.3334313329153584
 51
90.0
  0
ARC
  5
40D
  8
DATA
  6
CONTINUOUS
 62
     7
 10
-612.42045346126201
 20
-406.49999999999972
 30
0.0
 40
12.499999999999771
 50
90.0
 51
180.00000002149341
  0
ARC
  5
40E
  8
DATA
  6
CONTINUOUS
 62
     7
 10
-612.42045346126201
 20
-406.49999999999972
 30
0.0
 40
4.5
 50
90.0
 51
180.0000000214954
  0
ARC
  5
40F
  8
DATA
  6
CONTINUOUS
 62
     7
 10
-500.5715955444831
 20
-406.49999999999972
 30
0.0
 40
12.5
 50
0.0000000090890625
 51
90.0
  0
ARC
  5
410
  8
DATA
  6
CONTINUOUS
 62
     7
 10
-500.5715955444831
 20
-406.49999999999972
 30
0.0
 40
4.5
 50
0.0000000090874413
 51
90.0
  0
ARC
  5
411
  8
DATA
  6
CONTINUOUS
 62
     7
 10
-612.42045346126201
 20
-557.49999999999875
 30
0.0
 40
12.5
 50
180.00000000909219
 51
270.0
  0
ARC
  5
412
  8
DATA
  6
CONTINUOUS
 62
     7
 10
-500.5715955444831
 20
-557.49999999999875
 30
0.0
 40
12.499999999999771
 50
270.0
 51
0.0000000112995622
  0
ARC
  5
413
  8
DATA
  6
CONTINUOUS
 62
     7
 10
-500.5715955444831
 20
-557.49999999999875
 30
0.0
 40
4.5
 50
270.0
 51
0.0000000112992211
  0
ARC
  5
414
  8
DATA
  6
CONTINUOUS
 62
     7
 10
-615.9355736281816
 20
-511.49999999999972
 30
0.0
 40
12.499999999999771
 50
90.0
 51
184.99535975900201
  0
ARC
  5
415
  8
DATA
  6
CONTINUOUS
 62
     7
 10
-615.9355736281816
 20
-511.49999999999972
 30
0.0
 40
4.5
 50
90.0
 51
184.99535975900031
  0
ARC
  5
416
  8
DATA
  6
CONTINUOUS
 62
     7
 10
-497.0564753775634
 20
-511.49999999999972
 30
0.0
 40
12.49999999999976
 50
355.00464040666532
 51
90.0
  0
ARC
  5
417
  8
DATA
  6
CONTINUOUS
 62
     7
 10
-616.50155177762122
 20
-472.50000000000011
 30
0.0
 40
12.49999999999973
 50
178.39175985443919
 51
270.0
  0
ARC
  5
418
  8
DATA
  6
CONTINUOUS
 62
     7
 10
-616.50155177762122
 20
-472.50000000000011
 30
0.0
 40
4.4999999999997566
 50
178.39175985444029
 51
270.0
  0
ARC
  5
419
  8
DATA
  6
CONTINUOUS
 62
     7
 10
-496.49049722812379
 20
-472.50000000000011
 30
0.0
 40
12.499999999999771
 50
270.0
 51
1.6082451096108339
  0
ARC
  5
41A
  8
DATA
  6
CONTINUOUS
 62
     7
 10
-496.49049722812379
 20
-472.50000000000011
 30
0.0
 40
4.5
 50
270.0
 51
1.6082401455597051
  0
ARC
  5
41B
  8
DATA
  6
CONTINUOUS
 62
     7
 10
-497.0564753775634
 20
-511.5
 30
0.0
 40
4.5000000000005969
 50
355.00464024099961
 51
90.0
  0
ARC
  5
41C
  8
DATA
  6
CONTINUOUS
 62
     7
 10
-612.42045346126201
 20
-557.49999999999875
 30
0.0
 40
4.5
 50
179.99999998870069
 51
270.0
  0
LINE
  5
41D
  8
DATA
  6
CONTINUOUS
 62
     7
 10
-652.00000000000045
 20
-129.0
 30
0.0
 11
-652.00000000000045
 21
-1200.0
 31
0.0
  0
CIRCLE
  5
41E
  8
DATA
  6
CONTINUOUS
 62
     7
 10
-700.50000000000045
 20
-179.5
 30
0.0
 40
10.000000000000229
  0
LINE
  5
41F
  8
DATA
  6
CONTINUOUS
 62
     7
 10
-703.96410161513847
 20
-181.5
 30
0.0
 11
-700.50000000000045
 21
-183.5
 31
0.0
  0
LINE
  5
420
  8
DATA
  6
CONTINUOUS
 62
     7
 10
-703.96410161513847
 20
-177.5
 30
0.0
 11
-703.96410161513847
 21
-181.5
 31
0.0
  0
LINE
  5
421
  8
DATA
  6
CONTINUOUS
 62
     7
 10
-700.50000000000045
 20
-175.5
 30
0.0
 11
-703.96410161513847
 21
-177.5
 31
0.0
  0
LINE
  5
422
  8
DATA
  6
CONTINUOUS
 62
     7
 10
-697.03589838486323
 20
-177.5
 30
0.0
 11
-700.50000000000045
 21
-175.5
 31
0.0
  0
LINE
  5
423
  8
DATA
  6
CONTINUOUS
 62
     7
 10
-697.03589838486323
 20
-181.5
 30
0.0
 11
-697.03589838486323
 21
-177.5
 31
0.0
  0
LINE
  5
424
  8
DATA
  6
CONTINUOUS
 62
     7
 10
-700.50000000000045
 20
-183.5
 30
0.0
 11
-697.03589838486323
 21
-181.5
 31
0.0
  0
CIRCLE
  5
425
  8
DATA
  6
CONTINUOUS
 62
     7
 10
-700.50000000000045
 20
-1149.5
 30
0.0
 40
10.000000000000229
  0
LINE
  5
426
  8
DATA
  6
CONTINUOUS
 62
     7
 10
-703.96410161513847
 20
-1147.5
 30
0.0
 11
-700.50000000000045
 21
-1145.5
 31
0.0
  0
LINE
  5
427
  8
DATA
  6
CONTINUOUS
 62
     7
 10
-703.96410161513847
 20
-1151.5
 30
0.0
 11
-703.96410161513847
 21
-1147.5
 31
0.0
  0
LINE
  5
428
  8
DATA
  6
CONTINUOUS
 62
     7
 10
-700.50000000000045
 20
-1153.5
 30
0.0
 11
-703.96410161513847
 21
-1151.5
 31
0.0
  0
LINE
  5
429
  8
DATA
  6
CONTINUOUS
 62
     7
 10
-697.03589838486323
 20
-1151.5
 30
0.0
 11
-700.50000000000045
 21
-1153.5
 31
0.0
  0
LINE
  5
42A
  8
DATA
  6
CONTINUOUS
 62
     7
 10
-697.03589838486323
 20
-1147.5
 30
0.0
 11
-697.03589838486323
 21
-1151.5
 31
0.0
  0
LINE
  5
42B
  8
DATA
  6
CONTINUOUS
 62
     7
 10
-700.50000000000045
 20
-1145.5
 30
0.0
 11
-697.03589838486323
 21
-1147.5
 31
0.0
  0
CIRCLE
  5
42C
  8
DATA
  6
CONTINUOUS
 62
     7
 10
200.0
 20
-179.5
 30
0.0
 40
10.000000000000229
  0
LINE
  5
42D
  8
DATA
  6
CONTINUOUS
 62
     7
 10
202.0
 20
-176.03589838486229
 30
0.0
 11
204.0
 21
-179.5
 31
0.0
  0
LINE
  5
42E
  8
DATA
  6
CONTINUOUS
 62
     7
 10
198.0
 20
-176.03589838486229
 30
0.0
 11
202.0
 21
-176.03589838486229
 31
0.0
  0
LINE
  5
42F
  8
DATA
  6
CONTINUOUS
 62
     7
 10
196.0
 20
-179.5
 30
0.0
 11
198.0
 21
-176.03589838486229
 31
0.0
  0
LINE
  5
430
  8
DATA
  6
CONTINUOUS
 62
     7
 10
198.0
 20
-182.96410161513759
 30
0.0
 11
196.0
 21
-179.5
 31
0.0
  0
LINE
  5
431
  8
DATA
  6
CONTINUOUS
 62
     7
 10
202.0
 20
-182.96410161513759
 30
0.0
 11
198.0
 21
-182.96410161513759
 31
0.0
  0
LINE
  5
432
  8
DATA
  6
CONTINUOUS
 62
     7
 10
204.0
 20
-179.5
 30
0.0
 11
202.0
 21
-182.96410161513759
 31
0.0
  0
CIRCLE
  5
433
  8
DATA
  6
CONTINUOUS
 62
     7
 10
-1380.0
 20
-1629.5
 30
0.0
 40
10.000000000000229
  0
LINE
  5
434
  8
DATA
  6
CONTINUOUS
 62
     7
 10
-1382.0
 20
-1626.0358983848621
 30
0.0
 11
-1384.0
 21
-1629.5
 31
0.0
  0
LINE
  5
435
  8
DATA
  6
CONTINUOUS
 62
     7
 10
-1378.0
 20
-1626.0358983848621
 30
0.0
 11
-1382.0
 21
-1626.0358983848621
 31
0.0
  0
LINE
  5
436
  8
DATA
  6
CONTINUOUS
 62
     7
 10
-1376.0
 20
-1629.5
 30
0.0
 11
-1378.0
 21
-1626.0358983848621
 31
0.0
  0
LINE
  5
437
  8
DATA
  6
CONTINUOUS
 62
     7
 10
-1378.0
 20
-1632.9641016151379
 30
0.0
 11
-1376.0
 21
-1629.5
 31
0.0
  0
LINE
  5
438
  8
DATA
  6
CONTINUOUS
 62
     7
 10
-1382.0
 20
-1632.9641016151379
 30
0.0
 11
-1378.0
 21
-1632.9641016151379
 31
0.0
  0
LINE
  5
439
  8
DATA
  6
CONTINUOUS
 62
     7
 10
-1384.0
 20
-1629.5
 30
0.0
 11
-1382.0
 21
-1632.9641016151379
 31
0.0
  0
CIRCLE
  5
43A
  8
DATA
  6
CONTINUOUS
 62
     7
 10
-1020.0
 20
-1629.5
 30
0.0
 40
10.000000000000229
  0
LINE
  5
43B
  8
DATA
  6
CONTINUOUS
 62
     7
 10
-1018.0
 20
-1626.0358983848621
 30
0.0
 11
-1016.0
 21
-1629.5
 31
0.0
  0
LINE
  5
43C
  8
DATA
  6
CONTINUOUS
 62
     7
 10
-1022.0
 20
-1626.0358983848621
 30
0.0
 11
-1018.0
 21
-1626.0358983848621
 31
0.0
  0
LINE
  5
43D
  8
DATA
  6
CONTINUOUS
 62
     7
 10
-1024.0
 20
-1629.5
 30
0.0
 11
-1022.0
 21
-1626.0358983848621
 31
0.0
  0
LINE
  5
43E
  8
DATA
  6
CONTINUOUS
 62
     7
 10
-1022.0
 20
-1632.9641016151379
 30
0.0
 11
-1024.0
 21
-1629.5
 31
0.0
  0
LINE
  5
43F
  8
DATA
  6
CONTINUOUS
 62
     7
 10
-1018.0
 20
-1632.9641016151379
 30
0.0
 11
-1022.0
 21
-1632.9641016151379
 31
0.0
  0
LINE
  5
440
  8
DATA
  6
CONTINUOUS
 62
     7
 10
-1016.0
 20
-1629.5
 30
0.0
 11
-1018.0
 21
-1632.9641016151379
 31
0.0
  0
ARC
  5
441
  8
DATA
  6
CONTINUOUS
 62
     7
 10
45.709118137449067
 20
-393.41336230647079
 30
0.0
 40
38.213621296927762
 50
164.00775139784619
 51
180.87961263961441
  0
ARC
  5
442
  8
DATA
  6
CONTINUOUS
 62
     7
 10
19.156809856796819
 20
-386.04964272844961
 30
0.0
 40
10.66278169013893
 50
145.68233682307809
 51
162.73619072526699
  0
ARC
  5
443
  8
DATA
  6
CONTINUOUS
 62
     7
 10
12.255615527705899
 20
-381.23625456149489
 30
0.0
 40
2.250816243457149
 50
96.520903875134508
 51
147.83982953875361
  0
ARC
  5
444
  8
DATA
  6
CONTINUOUS
 62
     7
 10
21.790881862550918
 20
-393.41336230647079
 30
0.0
 40
38.213621296927741
 50
359.12038736038562
 51
15.992248602153779
  0
ARC
  5
445
  8
DATA
  6
CONTINUOUS
 62
     7
 10
48.343190143203152
 20
-386.04964272844961
 30
0.0
 40
10.66278169013893
 50
17.263809274733031
 51
34.317663176921911
  0
ARC
  5
446
  8
DATA
  6
CONTINUOUS
 62
     7
 10
55.244384472294101
 20
-381.23625456149489
 30
0.0
 40
2.2508162434571362
 50
32.160170461246523
 51
83.479096124865549
  0
ARC
  5
447
  8
DATA
  6
CONTINUOUS
 62
     7
 10
45.709118137449067
 20
-570.58663769352927
 30
0.0
 40
38.213621296927741
 50
179.12038736038559
 51
195.99224860215361
  0
ARC
  5
448
  8
DATA
  6
CONTINUOUS
 62
     7
 10
19.156809856796819
 20
-577.95035727155039
 30
0.0
 40
10.66278169013891
 50
197.26380927473269
 51
214.31766317692191
  0
ARC
  5
449
  8
DATA
  6
CONTINUOUS
 62
     7
 10
12.255615527705899
 20
-582.76374543850523
 30
0.0
 40
2.2508162434571402
 50
212.16017046124639
 51
263.47909612486552
  0
ARC
  5
44A
  8
DATA
  6
CONTINUOUS
 62
     7
 10
21.790881862550918
 20
-570.58663769352927
 30
0.0
 40
38.213621296927741
 50
344.00775139784622
 51
0.8796126396143792
  0
ARC
  5
44B
  8
DATA
  6
CONTINUOUS
 62
     7
 10
48.343190143203152
 20
-577.95035727155039
 30
0.0
 40
10.66278169013893
 50
325.68233682307812
 51
342.73619072526742
  0
ARC
  5
44C
  8
DATA
  6
CONTINUOUS
 62
     7
 10
55.244384472294101
 20
-582.76374543850523
 30
0.0
 40
2.250816243457149
 50
276.52090387513431
 51
327.83982953875341
  0
LINE
  5
44D
  8
DATA
  6
CONTINUOUS
 62
     7
 10
312.99999999999989
 20
-129.0
 30
0.0
 11
312.99999999999989
 21
-1200.0
 31
0.0
  0
LINE
  5
44E
  8
DATA
  6
CONTINUOUS
 62
     7
 10
340.0
 20
-570.0
 30
0.0
 11
340.0
 21
-394.0
 31
0.0
  0
LINE
  5
44F
  8
DATA
  6
CONTINUOUS
 62
     7
 10
347.5
 20
-570.0
 30
0.0
 11
347.5
 21
-499.0
 31
0.0
  0
LINE
  5
450
  8
DATA
  6
CONTINUOUS
 62
     7
 10
347.5
 20
-485.0
 30
0.0
 11
347.5
 21
-394.0
 31
0.0
  0
LINE
  5
451
  8
DATA
  6
CONTINUOUS
 62
     7
 10
388.0
 20
-585.0
 30
0.0
 11
344.5
 21
-585.0
 31
0.0
  0
LINE
  5
452
  8
DATA
  6
CONTINUOUS
 62
     7
 10
385.0
 20
-570.0
 30
0.0
 11
347.5
 21
-570.0
 31
0.0
  0
LINE
  5
453
  8
DATA
  6
CONTINUOUS
 62
     7
 10
392.5
 20
-394.0
 30
0.0
 11
392.5
 21
-570.0
 31
0.0
  0
LINE
  5
454
  8
DATA
  6
CONTINUOUS
 62
     7
 10
385.0
 20
-394.0
 30
0.0
 11
385.0
 21
-485.0
 31
0.0
  0
LINE
  5
455
  8
DATA
  6
CONTINUOUS
 62
     7
 10
385.0
 20
-499.0
 30
0.0
 11
385.0
 21
-570.0
 31
0.0
  0
LINE
  5
456
  8
DATA
  6
CONTINUOUS
 62
     7
 10
344.5
 20
-379.0
 30
0.0
 11
388.0
 21
-379.0
 31
0.0
  0
LINE
  5
457
  8
DATA
  6
CONTINUOUS
 62
     7
 10
347.5
 20
-394.0
 30
0.0
 11
385.0
 21
-394.0
 31
0.0
  0
LINE
  5
458
  8
DATA
  6
CONTINUOUS
 62
     7
 10
347.5
 20
-499.0
 30
0.0
 11
385.0
 21
-499.0
 31
0.0
  0
LINE
  5
459
  8
DATA
  6
CONTINUOUS
 62
     7
 10
347.5
 20
-485.0
 30
0.0
 11
385.0
 21
-485.0
 31
0.0
  0
ARC
  5
45A
  8
DATA
  6
CONTINUOUS
 62
     7
 10
354.29088186255092
 20
-393.41336230647079
 30
0.0
 40
38.213621296927741
 50
359.12038736038562
 51
15.992248602153779
  0
ARC
  5
45B
  8
DATA
  6
CONTINUOUS
 62
     7
 10
380.84319014320317
 20
-386.04964272844961
 30
0.0
 40
10.6627816901389
 50
17.26380927473307
 51
34.317663176921862
  0
ARC
  5
45C
  8
DATA
  6
CONTINUOUS
 62
     7
 10
387.74438447229409
 20
-381.23625456149489
 30
0.0
 40
2.250816243457165
 50
32.16017046124604
 51
83.479096124865194
  0
ARC
  5
45D
  8
DATA
  6
CONTINUOUS
 62
     7
 10
378.20911813744902
 20
-393.41336230647079
 30
0.0
 40
38.213621296927741
 50
164.00775139784619
 51
180.87961263961441
  0
ARC
  5
45E
  8
DATA
  6
CONTINUOUS
 62
     7
 10
351.65680985679683
 20
-386.04964272844961
 30
0.0
 40
10.662781690138941
 50
145.68233682307809
 51
162.73619072526691
  0
ARC
  5
45F
  8
DATA
  6
CONTINUOUS
 62
     7
 10
344.75561552770591
 20
-381.23625456149489
 30
0.0
 40
2.2508162434571499
 50
96.52090387513482
 51
147.839829538754
  0
ARC
  5
460
  8
DATA
  6
CONTINUOUS
 62
     7
 10
354.29088186255092
 20
-570.58663769352927
 30
0.0
 40
38.213621296927727
 50
344.00775139784622
 51
0.8796126396143792
  0
ARC
  5
461
  8
DATA
  6
CONTINUOUS
 62
     7
 10
380.84319014320317
 20
-577.95035727155039
 30
0.0
 40
10.662781690138941
 50
325.68233682307817
 51
342.73619072526719
  0
ARC
  5
462
  8
DATA
  6
CONTINUOUS
 62
     7
 10
387.74438447229409
 20
-582.76374543850523
 30
0.0
 40
2.2508162434571499
 50
276.52090387513482
 51
327.83982953875397
  0
ARC
  5
463
  8
DATA
  6
CONTINUOUS
 62
     7
 10
378.20911813744902
 20
-570.58663769352927
 30
0.0
 40
38.213621296927741
 50
179.12038736038559
 51
195.99224860215361
  0
ARC
  5
464
  8
DATA
  6
CONTINUOUS
 62
     7
 10
351.65680985679683
 20
-577.95035727155039
 30
0.0
 40
10.66278169013888
 50
197.26380927473281
 51
214.31766317692191
  0
ARC
  5
465
  8
DATA
  6
CONTINUOUS
 62
     7
 10
344.75561552770591
 20
-582.76374543850523
 30
0.0
 40
2.250816243457165
 50
212.160170461246
 51
263.47909612486518
  0
CIRCLE
  5
466
  8
DATA
  6
CONTINUOUS
 62
     7
 10
-1117.0
 20
-1996.5
 30
0.0
 40
20.00000000000016
  0
CIRCLE
  5
467
  8
DATA
  6
CONTINUOUS
 62
     7
 10
-1117.0
 20
-1996.5
 30
0.0
 40
9.9999999999996678
  0
CIRCLE
  5
468
  8
DATA
  6
CONTINUOUS
 62
     7
 10
-1117.0
 20
-1996.5
 30
0.0
 40
5.5
  0
CIRCLE
  5
469
  8
DATA
  6
CONTINUOUS
 62
     7
 10
-1020.0
 20
-1577.0
 30
0.0
 40
20.00000000000016
  0
CIRCLE
  5
46A
  8
DATA
  6
CONTINUOUS
 62
     7
 10
-1020.0
 20
-1577.0
 30
0.0
 40
9.9999999999996678
  0
CIRCLE
  5
46B
  8
DATA
  6
CONTINUOUS
 62
     7
 10
-1020.0
 20
-1577.0
 30
0.0
 40
5.5
  0
LINE
  5
46C
  8
DATA
  6
CONTINUOUS
 62
     7
 10
-1303.0
 20
-1203.5
 30
0.0
 11
-1303.0
 21
-1200.0
 31
0.0
  0
LINE
  5
46D
  8
DATA
  6
CONTINUOUS
 62
     7
 10
-1263.0
 20
-1203.5
 30
0.0
 11
-1303.0
 21
-1203.5
 31
0.0
  0
LINE
  5
46E
  8
DATA
  6
CONTINUOUS
 62
     7
 10
-1263.0
 20
-1200.0
 30
0.0
 11
-1263.0
 21
-1203.5
 31
0.0
  0
LINE
  5
46F
  8
DATA
  6
CONTINUOUS
 62
     7
 10
-1000.0
 20
-1203.5
 30
0.0
 11
-1000.0
 21
-1200.0
 31
0.0
  0
LINE
  5
470
  8
DATA
  6
CONTINUOUS
 62
     7
 10
-1040.0
 20
-1203.5
 30
0.0
 11
-1000.0
 21
-1203.5
 31
0.0
  0
LINE
  5
471
  8
DATA
  6
CONTINUOUS
 62
     7
 10
-1040.0
 20
-1200.0
 30
0.0
 11
-1040.0
 21
-1203.5
 31
0.0
  0
LINE
  5
472
  8
DATA
  6
CONTINUOUS
 62
     7
 10
-1097.0
 20
-1203.5
 30
0.0
 11
-1097.0
 21
-1200.0
 31
0.0
  0
LINE
  5
473
  8
DATA
  6
CONTINUOUS
 62
     7
 10
-1137.0
 20
-1203.5
 30
0.0
 11
-1097.0
 21
-1203.5
 31
0.0
  0
LINE
  5
474
  8
DATA
  6
CONTINUOUS
 62
     7
 10
-1137.0
 20
-1200.0
 30
0.0
 11
-1137.0
 21
-1203.5
 31
0.0
  0
LINE
  5
475
  8
DATA
  6
CONTINUOUS
 62
     7
 10
408.0
 20
-1200.0
 30
0.0
 11
-8.0
 21
-1200.0
 31
0.0
  0
LINE
  5
476
  8
DATA
  6
CONTINUOUS
 62
     7
 10
0.0
 20
-1203.5
 30
0.0
 11
0.0
 21
-1200.0
 31
0.0
  0
LINE
  5
477
  8
DATA
  6
CONTINUOUS
 62
     7
 10
40.0
 20
-1203.5
 30
0.0
 11
0.0
 21
-1203.5
 31
0.0
  0
LINE
  5
478
  8
DATA
  6
CONTINUOUS
 62
     7
 10
40.0
 20
-1200.0
 30
0.0
 11
40.0
 21
-1203.5
 31
0.0
  0
LINE
  5
479
  8
DATA
  6
CONTINUOUS
 62
     7
 10
97.0
 20
-1203.5
 30
0.0
 11
97.0
 21
-1200.0
 31
0.0
  0
LINE
  5
47A
  8
DATA
  6
CONTINUOUS
 62
     7
 10
137.0
 20
-1203.5
 30
0.0
 11
97.0
 21
-1203.5
 31
0.0
  0
LINE
  5
47B
  8
DATA
  6
CONTINUOUS
 62
     7
 10
137.0
 20
-1200.0
 30
0.0
 11
137.0
 21
-1203.5
 31
0.0
  0
LINE
  5
47C
  8
DATA
  6
CONTINUOUS
 62
     7
 10
400.0
 20
-1203.5
 30
0.0
 11
400.0
 21
-1200.0
 31
0.0
  0
LINE
  5
47D
  8
DATA
  6
CONTINUOUS
 62
     7
 10
360.0
 20
-1203.5
 30
0.0
 11
400.0
 21
-1203.5
 31
0.0
  0
LINE
  5
47E
  8
DATA
  6
CONTINUOUS
 62
     7
 10
360.0
 20
-1200.0
 30
0.0
 11
360.0
 21
-1203.5
 31
0.0
  0
LINE
  5
47F
  8
DATA
  6
CONTINUOUS
 62
     7
 10
303.0
 20
-1203.5
 30
0.0
 11
303.0
 21
-1200.0
 31
0.0
  0
LINE
  5
480
  8
DATA
  6
CONTINUOUS
 62
     7
 10
263.0
 20
-1203.5
 30
0.0
 11
303.0
 21
-1203.5
 31
0.0
  0
LINE
  5
481
  8
DATA
  6
CONTINUOUS
 62
     7
 10
263.0
 20
-1200.0
 30
0.0
 11
263.0
 21
-1203.5
 31
0.0
  0
ARC
  5
482
  8
DATA
  6
CONTINUOUS
 62
     7
 10
950.0
 20
1813.5608133134131
 30
0.0
 40
954.05364609222363
 50
253.24715896710291
 51
286.75284103289709
  0
ARC
  5
483
  8
DATA
  6
CONTINUOUS
 62
     7
 10
1500.0
 20
-13.560813313413631
 30
0.0
 40
954.05364609222363
 50
73.247158967103005
 51
106.752841032897
  0
ARC
  5
484
  8
DATA
  6
CONTINUOUS
 62
     7
 10
925.0
 20
413.56081331341369
 30
0.0
 40
954.05364609222363
 50
253.24715896710291
 51
286.75284103289709
  0
ARC
  5
485
  8
DATA
  6
CONTINUOUS
 62
     7
 10
1475.0
 20
-1413.5608133134131
 30
0.0
 40
954.05364609222363
 50
73.247158967103005
 51
106.752841032897
  0
TEXT
  5
486
  8
DATA
 62
     7
 10
835.30209635416543
 20
452.32645651476639
 30
0.0
 40
20.46953125000001
  1
NORMAL
 41
0.7
 72
     1
 11
875.89999999999873
 21
462.56122213976653
 31
0.0
 73
     2
  0
TEXT
  5
487
  8
DATA
 62
     7
 10
1000.684346458338
 20
452.32645651476639
 30
0.0
 40
20.46953125000001
  1
BOOST
 41
0.7
 72
     1
 11
1034.117914166671
 21
462.56122213976653
 31
0.0
 73
     2
  0
TEXT
  5
488
  8
DATA
 62
     7
 10
1420.45048302083
 20
452.32645651476639
 30
0.0
 40
20.46953125000001
  1
ON
 41
0.7
 72
     1
 11
1432.3910429166631
 21
462.56122213976653
 31
0.0
 73
     2
  0
TEXT
  5
489
  8
DATA
 62
     7
 10
1571.5040612500029
 20
456.81106770833389
 30
0.0
 40
20.46953125000001
  1
OFF
 41
0.7
 72
     1
 11
1590.608957083336
 21
467.04583333333392
 31
0.0
 73
     2
  0
LINE
  5
48A
  8
DATA
  6
CONTINUOUS
 62
     7
 10
1279.799999995802
 20
404.6583333333337
 30
0.0
 11
1154.5000001000999
 21
404.6583333333337
 31
0.0
  0
CIRCLE
  5
48B
  8
DATA
  6
CONTINUOUS
 62
     7
 10
1199.999999999656
 20
226.1583333327894
 30
0.0
 40
45.499999999996199
  0
LINE
  5
48C
  8
DATA
  6
CONTINUOUS
 62
     7
 10
1226.7442289789681
 20
189.3480600887226
 30
0.0
 11
1241.144967660128
 21
169.52714372653961
 31
0.0
  0
LINE
  5
48D
  8
DATA
  6
CONTINUOUS
 62
     7
 10
1243.2730714910899
 20
240.21860657684991
 30
0.0
 11
1266.5739561403129
 21
247.789522939036
 31
0.0
  0
LINE
  5
48E
  8
DATA
  6
CONTINUOUS
 62
     7
 10
1199.999999999656
 20
271.65833333278943
 30
0.0
 11
1199.999999999656
 21
296.15833333278943
 31
0.0
  0
LINE
  5
48F
  8
DATA
  6
CONTINUOUS
 62
     7
 10
1156.726928508222
 20
240.21860657684991
 30
0.0
 11
1133.426043858999
 21
247.789522939036
 31
0.0
  0
LINE
  5
490
  8
DATA
  6
CONTINUOUS
 62
     7
 10
1173.2557710241069
 20
189.34806009392241
 30
0.0
 11
1158.8550323391839
 21
169.527143726546
 31
0.0
  0
LINE
  5
491
  8
DATA
  6
CONTINUOUS
 62
     7
 10
1182.466899939687
 20
196.0715357420037
 30
0.0
 11
1178.2304469024291
 21
190.2405583746006
 31
0.0
  0
LINE
  5
492
  8
DATA
  6
CONTINUOUS
 62
     7
 10
1197.1684405196861
 20
228.21558171635479
 30
0.0
 11
1196.9606162294019
 21
227.9295361205775
 31
0.0
  0
LINE
  5
493
  8
DATA
  6
CONTINUOUS
 62
     7
 10
1176.8037809790601
 20
200.18603250804739
 30
0.0
 11
1172.5673279418079
 21
194.355055140649
 31
0.0
  0
LINE
  5
494
  8
DATA
  6
CONTINUOUS
 62
     7
 10
1155.191247237598
 20
234.05932541663401
 30
0.0
 11
1144.8507658309729
 21
235.88263128213609
 31
0.0
  0
LINE
  5
495
  8
DATA
  6
CONTINUOUS
 62
     7
 10
1154.527717370288
 20
227.7462604327529
 30
0.0
 11
1144.0341136865891
 21
228.1127051481283
 31
0.0
  0
LINE
  5
496
  8
DATA
  6
CONTINUOUS
 62
     7
 10
1154.7492537603939
 20
221.402288254111
 30
0.0
 11
1144.3067738590321
 21
220.30473938980069
 31
0.0
  0
LINE
  5
497
  8
DATA
  6
CONTINUOUS
 62
     7
 10
1155.8515444540969
 20
215.15088708300391
 30
0.0
 11
1145.663439328204
 21
212.61070717920839
 31
0.0
  0
LINE
  5
498
  8
DATA
  6
CONTINUOUS
 62
     7
 10
1157.813134616863
 20
209.1137333323625
 30
0.0
 11
1148.077704143921
 21
205.1803641014987
 31
0.0
  0
LINE
  5
499
  8
DATA
  6
CONTINUOUS
 62
     7
 10
1160.5958441274679
 20
203.40833333279099
 30
0.0
 11
1151.502577387728
 21
198.1583333327894
 31
0.0
  0
LINE
  5
49A
  8
DATA
  6
CONTINUOUS
 62
     7
 10
1164.1455107105519
 20
198.14573620547429
 30
0.0
 11
1155.8713977976861
 21
191.68129071455289
 31
0.0
  0
LINE
  5
49B
  8
DATA
  6
CONTINUOUS
 62
     7
 10
1168.3930441437669
 20
193.42837241738039
 30
0.0
 11
1161.099131253957
 21
185.8753045138252
 31
0.0
  0
LINE
  5
49C
  8
DATA
  6
CONTINUOUS
 62
     7
 10
1231.606955855538
 20
193.4283724173836
 30
0.0
 11
1238.9008687453611
 21
185.87530451382369
 31
0.0
  0
LINE
  5
49D
  8
DATA
  6
CONTINUOUS
 62
     7
 10
1235.8544892887601
 20
198.14573620547429
 30
0.0
 11
1244.1286022016329
 21
191.68129071455439
 31
0.0
  0
LINE
  5
49E
  8
DATA
  6
CONTINUOUS
 62
     7
 10
1239.4041558718509
 20
203.40833333278621
 30
0.0
 11
1248.4974226115901
 21
198.1583333327894
 31
0.0
  0
LINE
  5
49F
  8
DATA
  6
CONTINUOUS
 62
     7
 10
1242.186865382449
 20
209.11373333236409
 30
0.0
 11
1251.922295855403
 21
205.18036410149719
 31
0.0
  0
LINE
  5
4A0
  8
DATA
  6
CONTINUOUS
 62
     7
 10
1244.148455545215
 20
215.1508870830007
 30
0.0
 11
1254.3365606711079
 21
212.61070717920839
 31
0.0
  0
LINE
  5
4A1
  8
DATA
  6
CONTINUOUS
 62
     7
 10
1245.2507462389119
 20
221.40228825410941
 30
0.0
 11
1255.6932261402801
 21
220.30473938980231
 31
0.0
  0
LINE
  5
4A2
  8
DATA
  6
CONTINUOUS
 62
     7
 10
1245.472282629024
 20
227.74626043275609
 30
0.0
 11
1255.965886312729
 21
228.11270514812981
 31
0.0
  0
LINE
  5
4A3
  8
DATA
  6
CONTINUOUS
 62
     7
 10
1244.8087527617131
 20
234.0593254166356
 30
0.0
 11
1255.1492341683329
 21
235.88263128213609
 31
0.0
  0
LINE
  5
4A4
  8
DATA
  6
CONTINUOUS
 62
     7
 10
1240.895129106271
 20
246.10422051169181
 30
0.0
 11
1250.3324665924081
 21
250.7071175529764
 31
0.0
  0
LINE
  5
4A5
  8
DATA
  6
CONTINUOUS
 62
     7
 10
1237.721209550914
 20
251.6016104407106
 30
0.0
 11
1246.4261040627341
 21
257.47313592714949
 31
0.0
  0
LINE
  5
4A6
  8
DATA
  6
CONTINUOUS
 62
     7
 10
1233.8130895588849
 20
256.60377592211807
 30
0.0
 11
1241.616110226392
 21
263.62964728888579
 31
0.0
  0
LINE
  5
4A7
  8
DATA
  6
CONTINUOUS
 62
     7
 10
1229.246836240397
 20
261.01335549470099
 30
0.0
 11
1235.9961061421061
 21
269.05682214745502
 31
0.0
  0
LINE
  5
4A8
  8
DATA
  6
CONTINUOUS
 62
     7
 10
1224.1113265222741
 20
264.7445217079075
 30
0.0
 11
1229.6754787967129
 21
273.64902671754732
 31
0.0
  0
LINE
  5
4A9
  8
DATA
  6
CONTINUOUS
 62
     7
 10
1218.5065172596071
 20
267.72465165552188
 30
0.0
 11
1222.777252011899
 21
277.31687896077568
 31
0.0
  0
LINE
  5
4AA
  8
DATA
  6
CONTINUOUS
 62
     7
 10
1212.5414996893271
 20
269.89574049798239
 30
0.0
 11
1215.4356919254089
 21
279.9889883053329
 31
0.0
  0
LINE
  5
4AB
  8
DATA
  6
CONTINUOUS
 62
     7
 10
1206.332376093339
 20
271.21553046052992
 30
0.0
 11
1207.79369365342
 21
281.61334518231018
 31
0.0
  0
LINE
  5
4AC
  8
DATA
  6
CONTINUOUS
 62
     7
 10
1193.66762390598
 20
271.21553046049161
 30
0.0
 11
1192.206306345892
 21
281.61334518231661
 31
0.0
  0
LINE
  5
4AD
  8
DATA
  6
CONTINUOUS
 62
     7
 10
1187.4585003099789
 20
269.8957404979887
 30
0.0
 11
1184.564308073903
 21
279.98898830532971
 31
0.0
  0
LINE
  5
4AE
  8
DATA
  6
CONTINUOUS
 62
     7
 10
1181.4934827397051
 20
267.72465165553149
 30
0.0
 11
1177.222747987407
 21
277.3168789607725
 31
0.0
  0
LINE
  5
4AF
  8
DATA
  6
CONTINUOUS
 62
     7
 10
1175.888673477051
 20
264.7445217079075
 30
0.0
 11
1170.324521202592
 21
273.64902671755362
 31
0.0
  0
LINE
  5
4B0
  8
DATA
  6
CONTINUOUS
 62
     7
 10
1170.753163758922
 20
261.01335549470417
 30
0.0
 11
1164.003893857207
 21
269.0568221474519
 31
0.0
  0
LINE
  5
4B1
  8
DATA
  6
CONTINUOUS
 62
     7
 10
1166.1869104404391
 20
256.60377592211807
 30
0.0
 11
1158.3838897729199
 21
263.62964728888579
 31
0.0
  0
LINE
  5
4B2
  8
DATA
  6
CONTINUOUS
 62
     7
 10
1162.278790448398
 20
251.6016104407058
 30
0.0
 11
1153.573895936571
 21
257.47313592714949
 31
0.0
  0
LINE
  5
4B3
  8
DATA
  6
CONTINUOUS
 62
     7
 10
1159.1048708930409
 20
246.10422051169181
 30
0.0
 11
1149.66753340691
 21
250.70711755297319
 31
0.0
  0
ARC
  5
4B4
  8
DATA
  6
CONTINUOUS
 62
     7
 10
1204.3901954568969
 20
267.92825293825399
 30
0.0
 40
3.499999999993078
 50
351.61198453549321
 51
176.38801546444591
  0
ARC
  5
4B5
  8
DATA
  6
CONTINUOUS
 62
     7
 10
1199.9999999996301
 20
226.15833333275441
 30
0.0
 40
41.999999999957772
 50
238.78019184717519
 51
229.2198081527709
  0
ARC
  5
4B6
  8
DATA
  6
CONTINUOUS
 62
     7
 10
1200.0
 20
226.1583333333337
 30
0.0
 40
35.000000000645358
 50
239.73026269141241
 51
228.2608295228726
  0
ARC
  5
4B7
  8
DATA
  6
CONTINUOUS
 62
     7
 10
1189.713758084557
 20
212.00053593128899
 30
0.0
 40
17.500000000063249
 50
245.53695903276059
 51
222.46304096722531
  0
ARC
  5
4B8
  8
DATA
  6
CONTINUOUS
 62
     7
 10
1182.91706099045
 20
264.5272425537824
 30
0.0
 40
3.5000000000033138
 50
21.61198453550028
 51
206.3880154644375
  0
ARC
  5
4B9
  8
DATA
  6
CONTINUOUS
 62
     7
 10
1166.021286235869
 20
250.8453139290705
 30
0.0
 40
3.4999999999985461
 50
51.61198453558476
 51
236.3880154644371
  0
ARC
  5
4BA
  8
DATA
  6
CONTINUOUS
 62
     7
 10
1158.2300803941339
 20
230.54852879001459
 30
0.0
 40
3.4999999999971059
 50
81.611984535581826
 51
266.3880154644167
  0
ARC
  5
4BB
  8
DATA
  6
CONTINUOUS
 62
     7
 10
1161.631090778609
 20
209.0753943235708
 30
0.0
 40
3.5000000000015268
 50
111.6119845355679
 51
296.38801546446069
  0
ARC
  5
4BC
  8
DATA
  6
CONTINUOUS
 62
     7
 10
1175.3130194033149
 20
192.17961956898981
 30
0.0
 40
3.4999999999975002
 50
144.00000000008771
 51
324.00000000002382
  0
ARC
  5
4BD
  8
DATA
  6
CONTINUOUS
 62
     7
 10
1195.609804542376
 20
184.3884137272548
 30
0.0
 40
3.4999999999996092
 50
171.61198453548249
 51
356.3880154644641
  0
ARC
  5
4BE
  8
DATA
  6
CONTINUOUS
 62
     7
 10
1217.0829390088111
 20
187.78942411173119
 30
0.0
 40
3.5000000000044862
 50
201.6119845355488
 51
26.388015464390971
  0
ARC
  5
4BF
  8
DATA
  6
CONTINUOUS
 62
     7
 10
1233.978713763398
 20
201.4713527364384
 30
0.0
 40
3.4999999999987561
 50
231.6119845354545
 51
56.38801546443819
  0
ARC
  5
4C0
  8
DATA
  6
CONTINUOUS
 62
     7
 10
1241.7699196051269
 20
221.7681378754958
 30
0.0
 40
3.5000000000002549
 50
261.61198453558939
 51
86.388015464419979
  0
ARC
  5
4C1
  8
DATA
  6
CONTINUOUS
 62
     7
 10
1238.3689092206589
 20
243.24127234193799
 30
0.0
 40
3.4999999999977018
 50
291.61198453548059
 51
116.3880154644505
  0
ARC
  5
4C2
  8
DATA
  6
CONTINUOUS
 62
     7
 10
1224.686980595947
 20
260.13704709652211
 30
0.0
 40
3.500000000006501
 50
321.61198453558831
 51
146.3880154644462
  0
LINE
  5
4C3
  8
DATA
  6
CONTINUOUS
 62
     7
 10
1200.0089571834351
 20
-375.84166666666619
 30
0.0
 11
1095.0001433509201
 21
-375.84166666666619
 31
0.0
  0
LINE
  5
4C4
  8
DATA
  6
CONTINUOUS
 62
     7
 10
1235.0089571834351
 20
-305.8437170833331
 30
0.0
 11
1235.0089571834351
 21
-340.8416666666663
 31
0.0
  0
LINE
  5
4C5
  8
DATA
  6
CONTINUOUS
 62
     7
 10
1270.0089571834351
 20
-270.8437170833331
 30
0.0
 11
1279.799999995802
 21
-270.8437170833331
 31
0.0
  0
ARC
  5
4C6
  8
DATA
  6
CONTINUOUS
 62
     7
 10
1279.799999995802
 20
369.65833333333381
 30
0.0
 40
35.0
 50
0.0
 51
90.0
  0
ARC
  5
4C7
  8
DATA
  6
CONTINUOUS
 62
     7
 10
1279.799999995802
 20
-235.8437170833331
 30
0.0
 40
35.0
 50
270.0
 51
0.0
  0
ARC
  5
4C8
  8
DATA
  6
CONTINUOUS
 62
     7
 10
1270.0089571834351
 20
-305.8437170833331
 30
0.0
 40
35.0
 50
90.0
 51
180.0
  0
ARC
  5
4C9
  8
DATA
  6
CONTINUOUS
 62
     7
 10
1200.0089571834351
 20
-340.8416666666663
 30
0.0
 40
35.0
 50
270.0
 51
0.0
  0
LINE
  5
4CA
  8
DATA
  6
CONTINUOUS
 62
     7
 10
727.5
 20
-519.82662479675605
 30
0.0
 11
727.5
 21
885.81509943386891
 31
0.0
  0
LINE
  5
4CB
  8
DATA
  6
CONTINUOUS
 62
     7
 10
1672.5
 20
924.76861158056579
 30
0.0
 11
1672.5
 21
-480.17337520324372
 31
0.0
  0
CIRCLE
  5
4CC
  8
DATA
  6
CONTINUOUS
 62
     7
 10
1395.9999999947411
 20
-88.841666666666242
 30
0.0
 40
11.54999999885149
  0
CIRCLE
  5
4CD
  8
DATA
  6
CONTINUOUS
 62
     7
 10
1458.999999988451
 20
-88.841666666666242
 30
0.0
 40
11.54999999883875
  0
CIRCLE
  5
4CE
  8
DATA
  6
CONTINUOUS
 62
     7
 10
1427.499999991596
 20
-88.841666666666242
 30
0.0
 40
83.999999991600006
  0
CIRCLE
  5
4CF
  8
DATA
  6
CONTINUOUS
 62
     7
 10
1493.9820858182791
 20
-172.84166665826569
 30
0.0
 40
17.5
  0
LINE
  5
4D0
  8
DATA
  6
CONTINUOUS
 62
     7
 10
1483.4641716516089
 20
-172.84166665826569
 30
0.0
 11
1504.4641716516089
 21
-172.84166665826569
 31
0.0
  0
LINE
  5
4D1
  8
DATA
  6
CONTINUOUS
 62
     7
 10
1493.9820858182791
 20
-162.3334649916014
 30
0.0
 11
1493.9820858182791
 21
-183.3334649916014
 31
0.0
  0
CIRCLE
  5
4D2
  8
DATA
  6
CONTINUOUS
 62
     7
 10
1361.017914164913
 20
-4.84166667506679
 30
0.0
 40
17.5
  0
LINE
  5
4D3
  8
DATA
  6
CONTINUOUS
 62
     7
 10
1350.4999999982431
 20
-4.84166667506679
 30
0.0
 11
1371.4999999982431
 21
-4.84166667506679
 31
0.0
  0
LINE
  5
4D4
  8
DATA
  6
CONTINUOUS
 62
     7
 10
1361.017914164913
 20
5.6665349916006562
 30
0.0
 11
1361.017914164913
 21
-15.33346500839934
 31
0.0
  0
CIRCLE
  5
4D5
  8
DATA
  6
CONTINUOUS
 62
     7
 10
1427.499999991596
 20
-88.841666666666242
 30
0.0
 40
68.250000109771037
  0
CIRCLE
  5
4D6
  8
DATA
  6
CONTINUOUS
 62
     7
 10
1427.499999991596
 20
-61.19166666943056
 30
0.0
 40
11.54999999883875
  0
CIRCLE
  5
4D7
  8
DATA
  6
CONTINUOUS
 62
     7
 10
1200.0
 20
-88.841666666666242
 30
0.0
 40
55.299998966631897
  0
CIRCLE
  5
4D8
  8
DATA
  6
CONTINUOUS
 62
     7
 10
1200.0
 20
-88.841666666666242
 30
0.0
 40
68.249999993176274
  0
CIRCLE
  5
4D9
  8
DATA
  6
CONTINUOUS
 62
     7
 10
1200.0
 20
-88.841666666666242
 30
0.0
 40
83.999999991601456
  0
LINE
  5
4DA
  8
DATA
  6
CONTINUOUS
 62
     7
 10
1216.7999999983169
 20
-36.155330682420299
 30
0.0
 11
1216.7999999983169
 21
-36.155331761246103
 31
0.0
  0
LINE
  5
4DB
  8
DATA
  6
CONTINUOUS
 62
     7
 10
1180.0500000019899
 20
-37.265631671824401
 30
0.0
 11
1180.0500000019899
 21
-37.265632773875041
 31
0.0
  0
ARC
  5
4DC
  8
DATA
  6
CONTINUOUS
 62
     7
 10
1168.500000003145
 20
-88.841666666666242
 30
0.0
 40
13.999999998600661
 50
32.089183874050867
 51
327.91081612594922
  0
ARC
  5
4DD
  8
DATA
  6
CONTINUOUS
 62
     7
 10
1231.4999999968479
 20
-88.841666666666242
 30
0.0
 40
13.999999998600661
 50
212.0891838740508
 51
147.91081612594911
  0
ARC
  5
4DE
  8
DATA
  6
CONTINUOUS
 62
     7
 10
1200.0
 20
-116.49166666390509
 30
0.0
 40
13.999999998605389
 50
137.8522840898888
 51
42.147715910128291
  0
ARC
  5
4DF
  8
DATA
  6
CONTINUOUS
 62
     7
 10
1161.8869436704711
 20
-50.728612670478469
 30
0.0
 40
5.5999999994449752
 50
56.612913999968789
 51
213.38708600002229
  0
ARC
  5
4E0
  8
DATA
  6
CONTINUOUS
 62
     7
 10
1200.0
 20
-88.841666666666242
 30
0.0
 40
20.999999999998209
 50
20.741916485081301
 51
159.258083514925
  0
ARC
  5
4E1
  8
DATA
  6
CONTINUOUS
 62
     7
 10
1200.0
 20
-88.841666666666242
 30
0.0
 40
21.00000000000416
 50
200.74191648507511
 51
240.3778367991915
  0
ARC
  5
4E2
  8
DATA
  6
CONTINUOUS
 62
     7
 10
1200.0
 20
-88.841666666666242
 30
0.0
 40
20.999999999997499
 50
299.6221632007933
 51
339.25808351491889
  0
CIRCLE
  5
4E3
  8
DATA
  6
CONTINUOUS
 62
     7
 10
1266.499999993347
 20
-172.84166665826569
 30
0.0
 40
17.5
  0
LINE
  5
4E4
  8
DATA
  6
CONTINUOUS
 62
     7
 10
1255.982085826683
 20
-172.84166665826569
 30
0.0
 11
1276.982085826683
 21
-172.84166665826569
 31
0.0
  0
LINE
  5
4E5
  8
DATA
  6
CONTINUOUS
 62
     7
 10
1266.499999993347
 20
-162.3334649916014
 30
0.0
 11
1266.499999993347
 21
-183.3334649916014
 31
0.0
  0
CIRCLE
  5
4E6
  8
DATA
  6
CONTINUOUS
 62
     7
 10
1133.4820858399819
 20
-4.8334650083993429
 30
0.0
 40
17.5
  0
LINE
  5
4E7
  8
DATA
  6
CONTINUOUS
 62
     7
 10
1122.9641716733181
 20
-4.8334650083993429
 30
0.0
 11
1143.9641716733181
 21
-4.8334650083993429
 31
0.0
  0
LINE
  5
4E8
  8
DATA
  6
CONTINUOUS
 62
     7
 10
1133.4820858399819
 20
5.6747366582649192
 30
0.0
 11
1133.4820858399819
 21
-15.325263341735081
 31
0.0
  0
LINE
  5
4E9
  8
DATA
  6
CONTINUOUS
 62
     7
 10
1183.2000000016769
 20
-22.69166667328227
 30
0.0
 11
1183.2000000016769
 21
-6.9154956430595567
 31
0.0
  0
LINE
  5
4EA
  8
DATA
  6
CONTINUOUS
 62
     7
 10
1216.7999999983169
 20
-22.691666673280679
 30
0.0
 11
1216.7999999983169
 21
-6.9154956430595567
 31
0.0
  0
CIRCLE
  5
4EB
  8
DATA
  6
CONTINUOUS
 62
     7
 10
955.0089570833353
 20
-88.845767499999965
 30
0.0
 40
55.299998966631897
  0
CIRCLE
  5
4EC
  8
DATA
  6
CONTINUOUS
 62
     7
 10
955.0089570833353
 20
-88.845767499999965
 30
0.0
 40
68.249999993176274
  0
CIRCLE
  5
4ED
  8
DATA
  6
CONTINUOUS
 62
     7
 10
955.0089570833353
 20
-88.845767499999965
 30
0.0
 40
83.999999991601456
  0
LINE
  5
4EE
  8
DATA
  6
CONTINUOUS
 62
     7
 10
971.80895708165224
 20
-36.159431515754022
 30
0.0
 11
971.80895708165224
 21
-36.159432594579812
 31
0.0
  0
LINE
  5
4EF
  8
DATA
  6
CONTINUOUS
 62
     7
 10
935.05895708532523
 20
-37.269732505158117
 30
0.0
 11
935.05895708532523
 21
-37.269733607208771
 31
0.0
  0
ARC
  5
4F0
  8
DATA
  6
CONTINUOUS
 62
     7
 10
923.50895708648011
 20
-88.845767499999965
 30
0.0
 40
13.999999998600661
 50
32.089183874050867
 51
327.91081612594922
  0
ARC
  5
4F1
  8
DATA
  6
CONTINUOUS
 62
     7
 10
986.50895708018379
 20
-88.845767499999965
 30
0.0
 40
13.999999998600661
 50
212.0891838740508
 51
147.91081612594911
  0
ARC
  5
4F2
  8
DATA
  6
CONTINUOUS
 62
     7
 10
955.0089570833353
 20
-116.4957674972388
 30
0.0
 40
13.999999998605389
 50
137.8522840898888
 51
42.147715910128291
  0
ARC
  5
4F3
  8
DATA
  6
CONTINUOUS
 62
     7
 10
916.89590075380681
 20
-50.732713503812192
 30
0.0
 40
5.5999999994449752
 50
56.612913999968789
 51
213.38708600002229
  0
ARC
  5
4F4
  8
DATA
  6
CONTINUOUS
 62
     7
 10
955.0089570833353
 20
-88.845767499999965
 30
0.0
 40
20.999999999998209
 50
20.741916485081301
 51
159.258083514925
  0
ARC
  5
4F5
  8
DATA
  6
CONTINUOUS
 62
     7
 10
955.0089570833353
 20
-88.845767499999965
 30
0.0
 40
21.00000000000416
 50
200.74191648507511
 51
240.3778367991915
  0
ARC
  5
4F6
  8
DATA
  6
CONTINUOUS
 62
     7
 10
955.0089570833353
 20
-88.845767499999965
 30
0.0
 40
20.999999999997499
 50
299.6221632007933
 51
339.25808351491889
  0
CIRCLE
  5
4F7
  8
DATA
  6
CONTINUOUS
 62
     7
 10
1021.508957076682
 20
-172.84576749159939
 30
0.0
 40
17.5
  0
LINE
  5
4F8
  8
DATA
  6
CONTINUOUS
 62
     7
 10
1010.991042910018
 20
-172.84576749159939
 30
0.0
 11
1031.991042910018
 21
-172.84576749159939
 31
0.0
  0
LINE
  5
4F9
  8
DATA
  6
CONTINUOUS
 62
     7
 10
1021.508957076682
 20
-162.3375658249351
 30
0.0
 11
1021.508957076682
 21
-183.3375658249351
 31
0.0
  0
CIRCLE
  5
4FA
  8
DATA
  6
CONTINUOUS
 62
     7
 10
888.49104292331776
 20
-4.837565841733066
 30
0.0
 40
17.5
  0
LINE
  5
4FB
  8
DATA
  6
CONTINUOUS
 62
     7
 10
877.97312875665375
 20
-4.837565841733066
 30
0.0
 11
898.97312875665375
 21
-4.837565841733066
 31
0.0
  0
LINE
  5
4FC
  8
DATA
  6
CONTINUOUS
 62
     7
 10
888.49104292331776
 20
5.6706358249311961
 30
0.0
 11
888.49104292331776
 21
-15.3293641750688
 31
0.0
  0
LINE
  5
4FD
  8
DATA
  6
CONTINUOUS
 62
     7
 10
938.20895708501189
 20
-22.695767506616001
 30
0.0
 11
938.20895708501189
 21
-6.9195964763932798
 31
0.0
  0
LINE
  5
4FE
  8
DATA
  6
CONTINUOUS
 62
     7
 10
971.80895708165224
 20
-22.695767506614398
 30
0.0
 11
971.80895708165224
 21
-6.9195964763932798
 31
0.0
  0
CIRCLE
  5
4FF
  8
DATA
  6
CONTINUOUS
 62
     7
 10
1130.0088138325079
 20
-270.8437170833331
 30
0.0
 40
12.25
  0
CIRCLE
  5
500
  8
DATA
  6
CONTINUOUS
 62
     7
 10
1130.0088138325079
 20
-270.8437170833331
 30
0.0
 40
21.0
  0
CIRCLE
  5
501
  8
DATA
  6
CONTINUOUS
 62
     7
 10
1130.0088138325079
 20
-270.8437170833331
 30
0.0
 40
27.99999999999882
  0
CIRCLE
  5
502
  8
DATA
  6
CONTINUOUS
 62
     7
 10
1130.0088138325079
 20
-270.8437170833331
 30
0.0
 40
35.000000000003517
  0
CIRCLE
  5
503
  8
DATA
  6
CONTINUOUS
 62
     7
 10
1025.0088138325079
 20
-270.8437170833331
 30
0.0
 40
12.25
  0
CIRCLE
  5
504
  8
DATA
  6
CONTINUOUS
 62
     7
 10
1025.0088138325079
 20
-270.8437170833331
 30
0.0
 40
21.0
  0
CIRCLE
  5
505
  8
DATA
  6
CONTINUOUS
 62
     7
 10
1025.0088138325079
 20
-270.8437170833331
 30
0.0
 40
27.99999999999882
  0
CIRCLE
  5
506
  8
DATA
  6
CONTINUOUS
 62
     7
 10
1025.0088138325079
 20
-270.8437170833331
 30
0.0
 40
34.999999999997513
  0
CIRCLE
  5
507
  8
DATA
  6
CONTINUOUS
 62
     7
 10
955.0089570833353
 20
114.1583333333337
 30
0.0
 40
17.50000000000005
  0
CIRCLE
  5
508
  8
DATA
  6
CONTINUOUS
 62
     7
 10
1200.0
 20
114.1583333333337
 30
0.0
 40
17.50000000000005
  0
CIRCLE
  5
509
  8
DATA
  6
CONTINUOUS
 62
     7
 10
955.0089570833353
 20
324.15833333333381
 30
0.0
 40
10.5
  0
CIRCLE
  5
50A
  8
DATA
  6
CONTINUOUS
 62
     7
 10
1077.5044785416669
 20
324.15833333333381
 30
0.0
 40
10.5
  0
CIRCLE
  5
50B
  8
DATA
  6
CONTINUOUS
 62
     7
 10
1200.0
 20
324.15833333333381
 30
0.0
 40
10.49999999999897
  0
CIRCLE
  5
50C
  8
DATA
  6
CONTINUOUS
 62
     7
 10
1049.5
 20
114.1583333333337
 30
0.0
 40
10.50000000000224
  0
CIRCLE
  5
50D
  8
DATA
  6
CONTINUOUS
 62
     7
 10
955.0089570833353
 20
499.1583333333337
 30
0.0
 40
27.999999999999989
  0
CIRCLE
  5
50E
  8
DATA
  6
CONTINUOUS
 62
     7
 10
955.0089570833353
 20
590.15833333333364
 30
0.0
 40
14.00410083333111
  0
LINE
  5
50F
  8
DATA
  6
CONTINUOUS
 62
     7
 10
1388.999999991596
 20
240.1583333333337
 30
0.0
 11
1388.999999991596
 21
275.1583333333337
 31
0.0
  0
LINE
  5
510
  8
DATA
  6
CONTINUOUS
 62
     7
 10
1465.999999991596
 20
240.1583333333337
 30
0.0
 11
1388.999999991596
 21
240.1583333333337
 31
0.0
  0
LINE
  5
511
  8
DATA
  6
CONTINUOUS
 62
     7
 10
1465.999999991596
 20
275.1583333333337
 30
0.0
 11
1465.999999991596
 21
240.1583333333337
 31
0.0
  0
LINE
  5
512
  8
DATA
  6
CONTINUOUS
 62
     7
 10
1388.999999991596
 20
275.1583333333337
 30
0.0
 11
1465.999999991596
 21
275.1583333333337
 31
0.0
  0
LINE
  5
513
  8
DATA
  6
CONTINUOUS
 62
     7
 10
1409.999999991596
 20
243.6583333333337
 30
0.0
 11
1409.999999991596
 21
271.65833333333381
 31
0.0
  0
LINE
  5
514
  8
DATA
  6
CONTINUOUS
 62
     7
 10
1444.999999991596
 20
243.6583333333337
 30
0.0
 11
1409.999999991596
 21
243.6583333333337
 31
0.0
  0
LINE
  5
515
  8
DATA
  6
CONTINUOUS
 62
     7
 10
1444.999999991596
 20
271.65833333333381
 30
0.0
 11
1444.999999991596
 21
243.6583333333337
 31
0.0
  0
LINE
  5
516
  8
DATA
  6
CONTINUOUS
 62
     7
 10
1409.999999991596
 20
271.65833333333381
 30
0.0
 11
1444.999999991596
 21
271.65833333333381
 31
0.0
  0
LINE
  5
517
  8
DATA
  6
CONTINUOUS
 62
     7
 10
1388.999999991596
 20
121.1583333333337
 30
0.0
 11
1388.999999991596
 21
156.1583333333337
 31
0.0
  0
LINE
  5
518
  8
DATA
  6
CONTINUOUS
 62
     7
 10
1465.999999991596
 20
121.1583333333337
 30
0.0
 11
1388.999999991596
 21
121.1583333333337
 31
0.0
  0
LINE
  5
519
  8
DATA
  6
CONTINUOUS
 62
     7
 10
1465.999999991596
 20
156.1583333333337
 30
0.0
 11
1465.999999991596
 21
121.1583333333337
 31
0.0
  0
LINE
  5
51A
  8
DATA
  6
CONTINUOUS
 62
     7
 10
1388.999999991596
 20
156.1583333333337
 30
0.0
 11
1465.999999991596
 21
156.1583333333337
 31
0.0
  0
LINE
  5
51B
  8
DATA
  6
CONTINUOUS
 62
     7
 10
1409.999999991596
 20
124.6583333333337
 30
0.0
 11
1409.999999991596
 21
152.6583333333337
 31
0.0
  0
LINE
  5
51C
  8
DATA
  6
CONTINUOUS
 62
     7
 10
1444.999999991596
 20
124.6583333333337
 30
0.0
 11
1409.999999991596
 21
124.6583333333337
 31
0.0
  0
LINE
  5
51D
  8
DATA
  6
CONTINUOUS
 62
     7
 10
1444.999999991596
 20
152.6583333333337
 30
0.0
 11
1444.999999991596
 21
124.6583333333337
 31
0.0
  0
LINE
  5
51E
  8
DATA
  6
CONTINUOUS
 62
     7
 10
1409.999999991596
 20
152.6583333333337
 30
0.0
 11
1444.999999991596
 21
152.6583333333337
 31
0.0
  0
CIRCLE
  5
51F
  8
DATA
  6
CONTINUOUS
 62
     7
 10
1511.5
 20
499.1583333333337
 30
0.0
 40
27.999999999999989
  0
CIRCLE
  5
520
  8
DATA
  6
CONTINUOUS
 62
     7
 10
1511.5
 20
590.15833333333364
 30
0.0
 40
14.00410083333111
  0
LINE
  5
521
  8
DATA
  6
CONTINUOUS
 62
     7
 10
840.2089571876329
 20
-235.8437170833331
 30
0.0
 11
840.2089571876329
 21
-120.34576749999989
 31
0.0
  0
LINE
  5
522
  8
DATA
  6
CONTINUOUS
 62
     7
 10
955.0
 20
-375.84166666666619
 30
0.0
 11
1060.0088138325079
 21
-375.84166666666619
 31
0.0
  0
LINE
  5
523
  8
DATA
  6
CONTINUOUS
 62
     7
 10
920.0
 20
-305.8437170833331
 30
0.0
 11
920.0
 21
-340.8416666666663
 31
0.0
  0
LINE
  5
524
  8
DATA
  6
CONTINUOUS
 62
     7
 10
885.0
 20
-270.8437170833331
 30
0.0
 11
875.20895718763302
 21
-270.8437170833331
 31
0.0
  0
CIRCLE
  5
525
  8
DATA
  6
CONTINUOUS
 62
     7
 10
1077.522392758385
 20
-219.04166666666561
 30
0.0
 40
17.5
  0
LINE
  5
526
  8
DATA
  6
CONTINUOUS
 62
     7
 10
1067.0044785917139
 20
-219.04166666666561
 30
0.0
 11
1088.0044785917139
 21
-219.04166666666561
 31
0.0
  0
LINE
  5
527
  8
DATA
  6
CONTINUOUS
 62
     7
 10
1077.522392758385
 20
-208.53346500000131
 30
0.0
 11
1077.522392758385
 21
-229.53346500000131
 31
0.0
  0
LINE
  5
528
  8
DATA
  6
CONTINUOUS
 62
     7
 10
875.20895718763302
 20
404.6583333333337
 30
0.0
 11
1000.508957083335
 21
404.6583333333337
 31
0.0
  0
ARC
  5
529
  8
DATA
  6
CONTINUOUS
 62
     7
 10
875.20895718763302
 20
369.65833333333381
 30
0.0
 40
35.0
 50
90.0
 51
180.0
  0
ARC
  5
52A
  8
DATA
  6
CONTINUOUS
 62
     7
 10
875.20895718763302
 20
-235.8437170833331
 30
0.0
 40
35.0
 50
180.0
 51
270.0
  0
ARC
  5
52B
  8
DATA
  6
CONTINUOUS
 62
     7
 10
885.0
 20
-305.8437170833331
 30
0.0
 40
35.0
 50
0.0
 51
90.0
  0
ARC
  5
52C
  8
DATA
  6
CONTINUOUS
 62
     7
 10
955.0
 20
-340.8416666666663
 30
0.0
 40
35.0
 50
180.0
 51
270.0
  0
CIRCLE
  5
52D
  8
DATA
  6
CONTINUOUS
 62
     7
 10
955.0089570833353
 20
226.1583333333337
 30
0.0
 40
45.499999999995673
  0
LINE
  5
52E
  8
DATA
  6
CONTINUOUS
 62
     7
 10
981.75318606264682
 20
189.34806008926691
 30
0.0
 11
996.15392474380678
 21
169.52714372708391
 31
0.0
  0
LINE
  5
52F
  8
DATA
  6
CONTINUOUS
 62
     7
 10
998.28202857476924
 20
240.21860657739421
 30
0.0
 11
1021.582913223992
 21
247.78952293958039
 31
0.0
  0
LINE
  5
530
  8
DATA
  6
CONTINUOUS
 62
     7
 10
955.0089570833353
 20
271.65833333333381
 30
0.0
 11
955.0089570833353
 21
296.1583333333337
 31
0.0
  0
LINE
  5
531
  8
DATA
  6
CONTINUOUS
 62
     7
 10
911.73588559190091
 20
240.21860657739421
 30
0.0
 11
888.43500094267802
 21
247.78952293958039
 31
0.0
  0
LINE
  5
532
  8
DATA
  6
CONTINUOUS
 62
     7
 10
928.2647281077858
 20
189.34806009446839
 30
0.0
 11
913.86398942286348
 21
169.5271437270903
 31
0.0
  0
LINE
  5
533
  8
DATA
  6
CONTINUOUS
 62
     7
 10
937.47585702336619
 20
196.07153574254971
 30
0.0
 11
933.23940398610841
 21
190.24055837514649
 31
0.0
  0
LINE
  5
534
  8
DATA
  6
CONTINUOUS
 62
     7
 10
952.17739760336565
 20
228.21558171690069
 30
0.0
 11
951.96957331308136
 21
227.92953612112339
 31
0.0
  0
LINE
  5
535
  8
DATA
  6
CONTINUOUS
 62
     7
 10
931.8127380627393
 20
200.18603250859181
 30
0.0
 11
927.57628502548755
 21
194.3550551411949
 31
0.0
  0
LINE
  5
536
  8
DATA
  6
CONTINUOUS
 62
     7
 10
910.20020432127774
 20
234.05932541717999
 30
0.0
 11
899.85972291465146
 21
235.88263128268201
 31
0.0
  0
LINE
  5
537
  8
DATA
  6
CONTINUOUS
 62
     7
 10
909.53667445396673
 20
227.74626043329729
 30
0.0
 11
899.04307077026795
 21
228.11270514867419
 31
0.0
  0
LINE
  5
538
  8
DATA
  6
CONTINUOUS
 62
     7
 10
909.75821084407312
 20
221.4022882546553
 30
0.0
 11
899.31573094271153
 21
220.30473939034661
 31
0.0
  0
LINE
  5
539
  8
DATA
  6
CONTINUOUS
 62
     7
 10
910.86050153777603
 20
215.1508870835483
 30
0.0
 11
900.6723964118828
 21
212.61070717975281
 31
0.0
  0
LINE
  5
53A
  8
DATA
  6
CONTINUOUS
 62
     7
 10
912.82209170054205
 20
209.1137333329084
 30
0.0
 11
903.0866612276003
 21
205.18036410204309
 31
0.0
  0
LINE
  5
53B
  8
DATA
  6
CONTINUOUS
 62
     7
 10
915.60480121114688
 20
203.40833333333691
 30
0.0
 11
906.51153447140791
 21
198.1583333333337
 31
0.0
  0
LINE
  5
53C
  8
DATA
  6
CONTINUOUS
 62
     7
 10
919.15446779423121
 20
198.14573620601871
 30
0.0
 11
910.88035488136461
 21
191.68129071509719
 31
0.0
  0
LINE
  5
53D
  8
DATA
  6
CONTINUOUS
 62
     7
 10
923.40200122744659
 20
193.42837241792469
 30
0.0
 11
916.10808833763599
 21
185.87530451437121
 31
0.0
  0
LINE
  5
53E
  8
DATA
  6
CONTINUOUS
 62
     7
 10
986.61591293921708
 20
193.42837241792941
 30
0.0
 11
993.9098258290403
 21
185.875304514368
 31
0.0
  0
LINE
  5
53F
  8
DATA
  6
CONTINUOUS
 62
     7
 10
990.86344637243951
 20
198.14573620601871
 30
0.0
 11
999.13755928531202
 21
191.68129071509881
 31
0.0
  0
LINE
  5
540
  8
DATA
  6
CONTINUOUS
 62
     7
 10
994.41311295552975
 20
203.4083333333306
 30
0.0
 11
1003.5063796952689
 21
198.1583333333337
 31
0.0
  0
LINE
  5
541
  8
DATA
  6
CONTINUOUS
 62
     7
 10
997.19582246612845
 20
209.1137333329084
 30
0.0
 11
1006.931252939083
 21
205.18036410204149
 31
0.0
  0
LINE
  5
542
  8
DATA
  6
CONTINUOUS
 62
     7
 10
999.15741262889412
 20
215.150887083545
 30
0.0
 11
1009.345517754787
 21
212.61070717975281
 31
0.0
  0
LINE
  5
543
  8
DATA
  6
CONTINUOUS
 62
     7
 10
1000.259703322591
 20
221.40228825465371
 30
0.0
 11
1010.7021832239579
 21
220.30473939034661
 31
0.0
  0
LINE
  5
544
  8
DATA
  6
CONTINUOUS
 62
     7
 10
1000.481239712703
 20
227.74626043330039
 30
0.0
 11
1010.974843396408
 21
228.11270514867419
 31
0.0
  0
LINE
  5
545
  8
DATA
  6
CONTINUOUS
 62
     7
 10
999.81770984539219
 20
234.05932541717999
 30
0.0
 11
1010.158191252012
 21
235.88263128268039
 31
0.0
  0
LINE
  5
546
  8
DATA
  6
CONTINUOUS
 62
     7
 10
995.90408618995025
 20
246.10422051223631
 30
0.0
 11
1005.3414236760869
 21
250.7071175535207
 31
0.0
  0
LINE
  5
547
  8
DATA
  6
CONTINUOUS
 62
     7
 10
992.73016663459271
 20
251.6016104412565
 30
0.0
 11
1001.435061146413
 21
257.47313592769387
 31
0.0
  0
LINE
  5
548
  8
DATA
  6
CONTINUOUS
 62
     7
 10
988.82204664256471
 20
256.60377592266241
 30
0.0
 11
996.62506731007124
 21
263.62964728943012
 31
0.0
  0
LINE
  5
549
  8
DATA
  6
CONTINUOUS
 62
     7
 10
984.25579332407597
 20
261.01335549524538
 30
0.0
 11
991.00506322578417
 21
269.05682214799941
 31
0.0
  0
LINE
  5
54A
  8
DATA
  6
CONTINUOUS
 62
     7
 10
979.12028360595275
 20
264.74452170845188
 30
0.0
 11
984.6844358803927
 21
273.64902671809159
 31
0.0
  0
LINE
  5
54B
  8
DATA
  6
CONTINUOUS
 62
     7
 10
973.51547434328563
 20
267.72465165606633
 30
0.0
 11
977.78620909557765
 21
277.31687896132013
 31
0.0
  0
LINE
  5
54C
  8
DATA
  6
CONTINUOUS
 62
     7
 10
967.55045677300564
 20
269.89574049852672
 30
0.0
 11
970.44464900908861
 21
279.98898830587729
 31
0.0
  0
LINE
  5
54D
  8
DATA
  6
CONTINUOUS
 62
     7
 10
961.34133317701799
 20
271.2155304610742
 30
0.0
 11
962.8026507370995
 21
281.61334518285457
 31
0.0
  0
LINE
  5
54E
  8
DATA
  6
CONTINUOUS
 62
     7
 10
948.67658098965865
 20
271.215530461036
 30
0.0
 11
947.21526342957077
 21
281.61334518286088
 31
0.0
  0
LINE
  5
54F
  8
DATA
  6
CONTINUOUS
 62
     7
 10
942.4674573936577
 20
269.89574049853309
 30
0.0
 11
939.57326515758155
 21
279.9889883058741
 31
0.0
  0
LINE
  5
550
  8
DATA
  6
CONTINUOUS
 62
     7
 10
936.50243982338441
 20
267.72465165607588
 30
0.0
 11
932.23170507108625
 21
277.31687896131689
 31
0.0
  0
LINE
  5
551
  8
DATA
  6
CONTINUOUS
 62
     7
 10
930.89763056073025
 20
264.74452170845188
 30
0.0
 11
925.3334782862712
 21
273.64902671809801
 31
0.0
  0
LINE
  5
552
  8
DATA
  6
CONTINUOUS
 62
     7
 10
925.76212084260101
 20
261.01335549524862
 30
0.0
 11
919.0128509408861
 21
269.05682214799612
 31
0.0
  0
LINE
  5
553
  8
DATA
  6
CONTINUOUS
 62
     7
 10
921.1958675241184
 20
256.60377592266241
 30
0.0
 11
913.39284685659925
 21
263.62964728943012
 31
0.0
  0
LINE
  5
554
  8
DATA
  6
CONTINUOUS
 62
     7
 10
917.28774753207745
 20
251.60161044125019
 30
0.0
 11
908.5828530202507
 21
257.47313592769387
 31
0.0
  0
LINE
  5
555
  8
DATA
  6
CONTINUOUS
 62
     7
 10
914.11382797672013
 20
246.10422051223631
 30
0.0
 11
904.67649049058946
 21
250.70711755351749
 31
0.0
  0
ARC
  5
556
  8
DATA
  6
CONTINUOUS
 62
     7
 10
959.39915254057644
 20
267.92825293879991
 30
0.0
 40
3.499999999993078
 50
351.61198453549321
 51
176.38801546444591
  0
ARC
  5
557
  8
DATA
  6
CONTINUOUS
 62
     7
 10
955.00895708330961
 20
226.15833333330039
 30
0.0
 40
41.999999999957772
 50
238.78019184717519
 51
229.2198081527709
  0
ARC
  5
558
  8
DATA
  6
CONTINUOUS
 62
     7
 10
955.00895708367875
 20
226.15833333387809
 30
0.0
 40
35.000000000645358
 50
239.73026269141241
 51
228.26082952287069
  0
ARC
  5
559
  8
DATA
  6
CONTINUOUS
 62
     7
 10
944.72271516823673
 20
212.00053593183341
 30
0.0
 40
17.50000000006181
 50
245.53695903275849
 51
222.46304096722491
  0
ARC
  5
55A
  8
DATA
  6
CONTINUOUS
 62
     7
 10
937.92601807412962
 20
264.52724255432679
 30
0.0
 40
3.5000000000033138
 50
21.61198453550028
 51
206.3880154644375
  0
ARC
  5
55B
  8
DATA
  6
CONTINUOUS
 62
     7
 10
921.03024331954873
 20
250.8453139296164
 30
0.0
 40
3.4999999999972982
 50
51.611984535568602
 51
236.38801546444961
  0
ARC
  5
55C
  8
DATA
  6
CONTINUOUS
 62
     7
 10
913.2390374778131
 20
230.5485287905606
 30
0.0
 40
3.4999999999971059
 50
81.611984535581826
 51
266.3880154644167
  0
ARC
  5
55D
  8
DATA
  6
CONTINUOUS
 62
     7
 10
916.64004786228816
 20
209.07539432411679
 30
0.0
 40
3.5000000000015268
 50
111.6119845355679
 51
296.38801546444569
  0
ARC
  5
55E
  8
DATA
  6
CONTINUOUS
 62
     7
 10
930.32197648699344
 20
192.1796195695342
 30
0.0
 40
3.4999999999975002
 50
144.00000000008771
 51
324.00000000004752
  0
ARC
  5
55F
  8
DATA
  6
CONTINUOUS
 62
     7
 10
950.61876162605586
 20
184.3884137278007
 30
0.0
 40
3.4999999999993769
 50
171.6119845355083
 51
356.3880154644375
  0
ARC
  5
560
  8
DATA
  6
CONTINUOUS
 62
     7
 10
972.09189609248995
 20
187.78942411227561
 30
0.0
 40
3.5000000000039
 50
201.6119845355245
 51
26.388015464390921
  0
ARC
  5
561
  8
DATA
  6
CONTINUOUS
 62
     7
 10
988.98767084707765
 20
201.4713527369843
 30
0.0
 40
3.4999999999987561
 50
231.6119845354545
 51
56.388015464431987
  0
ARC
  5
562
  8
DATA
  6
CONTINUOUS
 62
     7
 10
996.77887668880612
 20
221.7681378760401
 30
0.0
 40
3.4999999999986802
 50
261.61198453558558
 51
86.388015464418331
  0
ARC
  5
563
  8
DATA
  6
CONTINUOUS
 62
     7
 10
993.37786630433754
 20
243.2412723424838
 30
0.0
 40
3.499999999999182
 50
291.61198453547092
 51
116.38801546444731
  0
ARC
  5
564
  8
DATA
  6
CONTINUOUS
 62
     7
 10
979.69593767962567
 20
260.13704709706639
 30
0.0
 40
3.500000000005512
 50
321.6119845356086
 51
146.3880154644514
  0
LINE
  5
565
  8
DATA
  6
CONTINUOUS
 62
     7
 10
903.89999999999873
 20
485.1583333333337
 30
0.0
 11
847.89999999999861
 21
485.1583333333337
 31
0.0
  0
LINE
  5
566
  8
DATA
  6
CONTINUOUS
 62
     7
 10
858.39999999999873
 20
485.1583333333337
 30
0.0
 11
858.39999999999873
 21
499.1583333333337
 31
0.0
  0
LINE
  5
567
  8
DATA
  6
CONTINUOUS
 62
     7
 10
893.39999999999861
 20
499.1583333333337
 30
0.0
 11
893.39999999999861
 21
485.1583333333337
 31
0.0
  0
LINE
  5
568
  8
DATA
  6
CONTINUOUS
 62
     7
 10
858.39999999999873
 20
499.1583333333337
 30
0.0
 11
893.39999999999861
 21
499.1583333333337
 31
0.0
  0
LINE
  5
569
  8
DATA
  6
CONTINUOUS
 62
     7
 10
1062.117914166671
 20
485.1583333333337
 30
0.0
 11
1006.117914166671
 21
485.1583333333337
 31
0.0
  0
LINE
  5
56A
  8
DATA
  6
CONTINUOUS
 62
     7
 10
1016.617914166672
 20
485.1583333333337
 30
0.0
 11
1016.617914166672
 21
520.15833333333376
 31
0.0
  0
LINE
  5
56B
  8
DATA
  6
CONTINUOUS
 62
     7
 10
1051.617914166671
 20
520.15833333333376
 30
0.0
 11
1051.617914166671
 21
485.1583333333337
 31
0.0
  0
LINE
  5
56C
  8
DATA
  6
CONTINUOUS
 62
     7
 10
1016.617914166672
 20
506.1583333333337
 30
0.0
 11
1051.617914166671
 21
506.1583333333337
 31
0.0
  0
LINE
  5
56D
  8
DATA
  6
CONTINUOUS
 62
     7
 10
1016.617914166672
 20
520.15833333333376
 30
0.0
 11
1051.617914166671
 21
520.15833333333376
 31
0.0
  0
LINE
  5
56E
  8
DATA
  6
CONTINUOUS
 62
     7
 10
1460.3910429166631
 20
485.1583333333337
 30
0.0
 11
1404.3910429166631
 21
485.1583333333337
 31
0.0
  0
LINE
  5
56F
  8
DATA
  6
CONTINUOUS
 62
     7
 10
1414.8910429166631
 20
485.1583333333337
 30
0.0
 11
1414.8910429166631
 21
499.1583333333337
 31
0.0
  0
LINE
  5
570
  8
DATA
  6
CONTINUOUS
 62
     7
 10
1449.8910429166631
 20
499.1583333333337
 30
0.0
 11
1449.8910429166631
 21
485.1583333333337
 31
0.0
  0
LINE
  5
571
  8
DATA
  6
CONTINUOUS
 62
     7
 10
1414.8910429166631
 20
499.1583333333337
 30
0.0
 11
1449.8910429166631
 21
499.1583333333337
 31
0.0
  0
LINE
  5
572
  8
DATA
  6
CONTINUOUS
 62
     7
 10
1618.608957083336
 20
485.1583333333337
 30
0.0
 11
1562.608957083336
 21
485.1583333333337
 31
0.0
  0
LINE
  5
573
  8
DATA
  6
CONTINUOUS
 62
     7
 10
1573.108957083336
 20
485.1583333333337
 30
0.0
 11
1573.108957083336
 21
520.15833333333376
 31
0.0
  0
LINE
  5
574
  8
DATA
  6
CONTINUOUS
 62
     7
 10
1608.108957083336
 20
520.15833333333376
 30
0.0
 11
1608.108957083336
 21
485.1583333333337
 31
0.0
  0
LINE
  5
575
  8
DATA
  6
CONTINUOUS
 62
     7
 10
1573.108957083336
 20
506.1583333333337
 30
0.0
 11
1608.108957083336
 21
506.1583333333337
 31
0.0
  0
LINE
  5
576
  8
DATA
  6
CONTINUOUS
 62
     7
 10
1573.108957083336
 20
520.15833333333376
 30
0.0
 11
1608.108957083336
 21
520.15833333333376
 31
0.0
  0
CIRCLE
  5
577
  8
DATA
  6
CONTINUOUS
 62
     7
 10
1643.9400000000001
 20
674.15833333333376
 30
0.0
 40
17.500000000001549
  0
LINE
  5
578
  8
DATA
  6
CONTINUOUS
 62
     7
 10
1654.440000000001
 20
674.15833333333376
 30
0.0
 11
1633.4400000000001
 21
674.15833333333376
 31
0.0
  0
LINE
  5
579
  8
DATA
  6
CONTINUOUS
 62
     7
 10
1644.5
 20
684.65833333333364
 30
0.0
 11
1644.5
 21
663.65833333333364
 31
0.0
  0
CIRCLE
  5
57A
  8
DATA
  6
CONTINUOUS
 62
     7
 10
1643.9400000000001
 20
-81.841666666664651
 30
0.0
 40
17.50000000000297
  0
LINE
  5
57B
  8
DATA
  6
CONTINUOUS
 62
     7
 10
1654.440000000001
 20
-81.841666666664651
 30
0.0
 11
1633.4400000000001
 21
-81.841666666664651
 31
0.0
  0
LINE
  5
57C
  8
DATA
  6
CONTINUOUS
 62
     7
 10
1644.5
 20
-71.341666666664651
 30
0.0
 11
1644.5
 21
-92.341666666664636
 31
0.0
  0
CIRCLE
  5
57D
  8
DATA
  6
CONTINUOUS
 62
     7
 10
756.05999999999938
 20
674.15833333333376
 30
0.0
 40
17.500000000001549
  0
LINE
  5
57E
  8
DATA
  6
CONTINUOUS
 62
     7
 10
745.55999999999949
 20
674.15833333333376
 30
0.0
 11
766.55999999999949
 21
674.15833333333376
 31
0.0
  0
LINE
  5
57F
  8
DATA
  6
CONTINUOUS
 62
     7
 10
755.49999999999989
 20
684.65833333333364
 30
0.0
 11
755.49999999999989
 21
663.65833333333364
 31
0.0
  0
CIRCLE
  5
580
  8
DATA
  6
CONTINUOUS
 62
     7
 10
756.05999999999938
 20
-81.841666666664651
 30
0.0
 40
17.50000000000297
  0
LINE
  5
581
  8
DATA
  6
CONTINUOUS
 62
     7
 10
745.55999999999949
 20
-81.841666666664651
 30
0.0
 11
766.55999999999949
 21
-81.841666666664651
 31
0.0
  0
LINE
  5
582
  8
DATA
  6
CONTINUOUS
 62
     7
 10
755.49999999999989
 20
-71.341666666664651
 30
0.0
 11
755.49999999999989
 21
-92.341666666664636
 31
0.0
  0
TEXT
  5
583
  8
DATA
 62
     7
 10
1019.196915690101
 20
657.242919921875
 30
0.0
 40
85.514160156249986
  1
PRX725
 41
0.7
 72
     1
 11
1188.799999999997
 21
700.0
 31
0.0
 73
     2
  0
TEXT
  5
584
  8
DATA
 62
     7
 10
1054.225623832466
 20
355.84626464843802
 30
0.0
 40
19.953304036458331
  1
Limit
 41
0.7
 72
     1
 11
1077.5044785416669
 21
365.8229166666672
 31
0.0
 73
     2
  0
TEXT
  5
585
  8
DATA
 62
     7
 10
923.58250322591346
 20
356.6337646484385
 30
0.0
 40
19.953304036458331
  1
Signal
 41
0.7
 72
     1
 11
955.0089570833353
 21
366.61041666666779
 31
0.0
 73
     2
  0
TEXT
  5
586
  8
DATA
 62
     7
 10
1168.5735461425779
 20
356.6337646484377
 30
0.0
 40
19.953304036458331
  1
Signal
 41
0.7
 72
     1
 11
1200.0
 21
366.61041666666688
 31
0.0
 73
     2
  0
TEXT
  5
587
  8
DATA
 62
     7
 10
1357.6634358639919
 20
210.6357783311847
 30
0.0
 40
19.953304036458331
  1
CH1/MIX/CH2
 41
0.7
 72
     1
 11
1427.499999991596
 21
220.6124303494139
 31
0.0
 73
     2
  0
TEXT
  5
588
  8
DATA
 62
     7
 10
1357.6634358639919
 20
91.635778331184753
 30
0.0
 40
19.953304036458331
  1
CH1/MIX/CH2
 41
0.7
 72
     1
 11
1427.499999991596
 21
101.6124303494139
 31
0.0
 73
     2
  0
TEXT
  5
589
  8
DATA
 62
     7
 10
828.67081667065816
 20
-85.857836184895802
 30
0.0
 40
19.953304036458331
  1
+4
 41
0.7
 72
     1
 11
840.31024402525884
 21
-75.881184166666628
 31
0.0
 73
     2
  0
TEXT
  5
58A
  8
DATA
 62
     7
 10
821.68716025789774
 20
-111.78700285156251
 30
0.0
 40
19.953304036458331
  1
dBu
 41
0.7
 72
     1
 11
840.31024402525884
 21
-101.8103508333333
 31
0.0
 73
     2
  0
TEXT
  5
58B
  8
DATA
 62
     7
 10
1230.03653930972
 20
113.64626464843791
 30
0.0
 40
19.953304036458331
  1
Ground
 41
0.7
 72
     1
 11
1269.610592315363
 21
123.62291666666709
 31
0.0
 73
     2
  0
TEXT
  5
58C
  8
DATA
 62
     7
 10
1248.6596230770811
 20
87.717097981771246
 30
0.0
 40
19.953304036458331
  1
Lift
 41
0.7
 72
     1
 11
1269.610592315363
 21
97.693750000000421
 31
0.0
 73
     2
  0
TEXT
  5
58D
  8
DATA
 62
     7
 10
838.02892573660756
 20
104.1816813151046
 30
0.0
 40
19.953304036458331
  1
Mic/Line
 41
0.7
 72
     1
 11
882.25874968409005
 21
114.1583333333337
 31
0.0
 73
     2
  0
LINE
  5
58E
  8
DATA
  6
CONTINUOUS
 62
     7
 10
1314.799999995802
 20
-235.8437170833331
 30
0.0
 11
1314.799999995802
 21
84.729166666667169
 31
0.0
  0
LINE
  5
58F
  8
DATA
  6
CONTINUOUS
 62
     7
 10
1314.799999995802
 20
136.58750000000029
 30
0.0
 11
1314.799999995802
 21
369.65833333333381
 31
0.0
  0
TEXT
  5
590
  8
DATA
 62
     7
 10
942.63558419843673
 20
-267.85578576822888
 30
0.0
 40
19.953304036458331
  1
-10
 41
0.7
 72
     1
 11
957.76683975941773
 21
-257.87913374999971
 31
0.0
 73
     2
  0
TEXT
  5
591
  8
DATA
 62
     7
 10
939.14375599205641
 20
-293.78495243489562
 30
0.0
 40
19.953304036458331
  1
dBv
 41
0.7
 72
     1
 11
957.76683975941773
 21
-283.80830041666638
 31
0.0
 73
     2
  0
LINE
  5
592
  8
DATA
  6
CONTINUOUS
 62
     7
 10
840.2089571876329
 20
-57.345767499999972
 30
0.0
 11
840.2089571876329
 21
84.729166666667169
 31
0.0
  0
LINE
  5
593
  8
DATA
  6
CONTINUOUS
 62
     7
 10
840.2089571876329
 20
136.58750000000029
 30
0.0
 11
840.2089571876329
 21
369.65833333333381
 31
0.0
  0
TEXT
  5
594
  8
DATA
 62
     7
 10
1390.918942591423
 20
16.930907465558871
 30
0.0
 40
28.504720052083329
  1
THRU
 41
0.7
 72
     1
 11
1427.499999991596
 21
31.183267491600532
 31
0.0
 73
     2
  0
TEXT
  5
595
  8
DATA
 62
     7
 10
1540.396017088191
 20
-85.857836184895802
 30
0.0
 40
19.953304036458331
  1
+4
 41
0.7
 72
     1
 11
1552.0354444427919
 21
-75.881184166666628
 31
0.0
 73
     2
  0
TEXT
  5
596
  8
DATA
 62
     7
 10
1533.412360675431
 20
-111.78700285156251
 30
0.0
 40
19.953304036458331
  1
dBu
 41
0.7
 72
     1
 11
1552.0354444427919
 21
-101.8103508333333
 31
0.0
 73
     2
  0
TEXT
  5
597
  8
DATA
 62
     7
 10
1325.07303927111
 20
163.27110961006849
 30
0.0
 40
28.504720052083329
  1
THRU SELECT
 41
0.7
 72
     1
 11
1427.499999991596
 21
177.52346963611009
 31
0.0
 73
     2
  0
TEXT
  5
598
  8
DATA
 62
     7
 10
1335.0496912893391
 20
284.30247057389198
 30
0.0
 40
28.504720052083329
  1
SPK SELECT
 41
0.7
 72
     1
 11
1427.499999991596
 21
298.55483059993372
 31
0.0
 73
     2
  0
TEXT
  5
599
  8
DATA
 62
     7
 10
938.38120371961998
 20
531.42680664062573
 30
0.0
 40
28.504720052083329
  1
EQ
 41
0.7
 72
     1
 11
955.0089570833353
 21
545.67916666666736
 31
0.0
 73
     2
  0
TEXT
  5
59A
  8
DATA
 62
     7
 10
1429.0263433159721
 20
531.42680664062573
 30
0.0
 40
28.504720052083329
  1
FRONT LED
 41
0.7
 72
     1
 11
1511.5
 21
545.67916666666736
 31
0.0
 73
     2
  0
TEXT
  5
59B
  8
DATA
 62
     7
 10
1431.6867838541659
 20
608.43090747395786
 30
0.0
 40
28.504720052083329
  1
PWR/STBY
 41
0.7
 72
     1
 11
1511.5
 21
622.68326749999949
 31
0.0
 73
     2
  0
TEXT
  5
59C
  8
DATA
 62
     7
 10
951.65739397367281
 20
407.4071160765472
 30
0.0
 40
20.523398437499999
  1
CH1
 41
0.7
 72
     1
 11
968.41816936429802
 21
417.66881529529718
 31
0.0
 73
     2
  0
LINE
  5
59D
  8
DATA
  6
CONTINUOUS
 62
     7
 10
1000.8836782365699
 20
404.0092972572595
 30
0.0
 11
992.4836782365719
 21
430.67929725725912
 31
0.0
  0
LINE
  5
59E
  8
DATA
  6
CONTINUOUS
 62
     7
 10
935.95266049202564
 20
404.0092972572595
 30
0.0
 11
944.35266049202426
 21
430.67929725725912
 31
0.0
  0
LINE
  5
59F
  8
DATA
  6
CONTINUOUS
 62
     7
 10
944.35266049202426
 20
430.67929725725912
 30
0.0
 11
992.4836782365719
 21
430.67929725725912
 31
0.0
  0
TEXT
  5
5A0
  8
DATA
 62
     7
 10
1167.8103370973761
 20
408.05615215262139
 30
0.0
 40
20.523398437499999
  1
CH2
 41
0.7
 72
     1
 11
1186.9655089723749
 21
418.31785137137138
 31
0.0
 73
     2
  0
LINE
  5
5A1
  8
DATA
  6
CONTINUOUS
 62
     7
 10
1219.4310178446451
 20
404.6583333333337
 30
0.0
 11
1211.0310178446459
 21
431.32833333333332
 31
0.0
  0
LINE
  5
5A2
  8
DATA
  6
CONTINUOUS
 62
     7
 10
1154.5000001000999
 20
404.6583333333337
 30
0.0
 11
1162.9000001000991
 21
431.32833333333332
 31
0.0
  0
LINE
  5
5A3
  8
DATA
  6
CONTINUOUS
 62
     7
 10
1162.9000001001079
 20
431.32833333333332
 30
0.0
 11
1211.0310178446459
 21
431.32833333333332
 31
0.0
  0
TEXT
  5
5A4
  8
DATA
 62
     7
 10
1034.2723198460551
 20
16.930907465558871
 30
0.0
 40
28.504720052083329
  1
INPUT
 41
0.7
 72
     1
 11
1077.5044785917139
 21
31.183267491600532
 31
0.0
 73
     2
  0
TEXT
  5
5A5
  8
DATA
 62
     7
 10
1044.2489718642839
 20
211.9059733072921
 30
0.0
 40
28.504720052083329
  1
GAIN
 41
0.7
 72
     1
 11
1077.5044785917139
 21
226.1583333333337
 31
0.0
 73
     2
  0
ENDSEC
  0
EOF
