  0
SECTION
  2
HEADER
  9
$ACADVER
  1
AC1009
  9
$DWGCODEPAGE
  3
ansi_932
  9
$INSBASE
 10
0.0
 20
0.0
 30
0.0
  9
$EXTMIN
 10
-2249.994374999999
 20
-3355.369230483168
 30
0.0
  9
$EXTMAX
 10
2249.994374999999
 20
3334.755214261562
 30
0.0
  9
$LIMMIN
 10
0.0
 20
0.0
  9
$LIMMAX
 10
12.0
 20
9.0
  9
$ORTHOMODE
 70
     0
  9
$REGENMODE
 70
     1
  9
$FILLMODE
 70
     1
  9
$QTEXTMODE
 70
     0
  9
$MIRRTEXT
 70
     1
  9
$DRAGMODE
 70
     2
  9
$LTSCALE
 40
127.0
  9
$OSMODE
 70
  8423
  9
$ATTMODE
 70
     1
  9
$TEXTSIZE
 40
0.2
  9
$TRACEWID
 40
1.0
  9
$TEXTSTYLE
  7
STANDARD
  9
$CLAYER
  8
__
  9
$CELTYPE
  6
BYLAYER
  9
$CECOLOR
 62
   256
  9
$DIMSCALE
 40
1.0
  9
$DIMASZ
 40
0.18
  9
$DIMEXO
 40
0.0625
  9
$DIMDLI
 40
0.38
  9
$DIMRND
 40
0.0
  9
$DIMDLE
 40
0.0
  9
$DIMEXE
 40
0.18
  9
$DIMTP
 40
0.0
  9
$DIMTM
 40
0.0
  9
$DIMTXT
 40
0.18
  9
$DIMCEN
 40
0.09
  9
$DIMTSZ
 40
0.0
  9
$DIMTOL
 70
     0
  9
$DIMLIM
 70
     0
  9
$DIMTIH
 70
     1
  9
$DIMTOH
 70
     1
  9
$DIMSE1
 70
     0
  9
$DIMSE2
 70
     0
  9
$DIMTAD
 70
     0
  9
$DIMZIN
 70
     0
  9
$DIMBLK
  1

  9
$DIMASO
 70
     1
  9
$DIMSHO
 70
     1
  9
$DIMPOST
  1

  9
$DIMAPOST
  1

  9
$DIMALT
 70
     0
  9
$DIMALTD
 70
     2
  9
$DIMALTF
 40
25.4
  9
$DIMLFAC
 40
1.0
  9
$DIMTOFL
 70
     0
  9
$DIMTVP
 40
0.0
  9
$DIMTIX
 70
     0
  9
$DIMSOXD
 70
     0
  9
$DIMSAH
 70
     0
  9
$DIMBLK1
  1

  9
$DIMBLK2
  1

  9
$DIMSTYLE
  2
STANDARD
  9
$DIMCLRD
 70
     0
  9
$DIMCLRE
 70
     0
  9
$DIMCLRT
 70
     0
  9
$DIMTFAC
 40
1.0
  9
$DIMGAP
 40
0.09
  9
$LUNITS
 70
     2
  9
$LUPREC
 70
     2
  9
$SKETCHINC
 40
0.1
  9
$FILLETRAD
 40
0.5
  9
$AUNITS
 70
     0
  9
$AUPREC
 70
     1
  9
$MENU
  1
.
  9
$ELEVATION
 40
0.0
  9
$PELEVATION
 40
0.0
  9
$THICKNESS
 40
0.0
  9
$LIMCHECK
 70
     0
  9
$CHAMFERA
 40
0.0
  9
$CHAMFERB
 40
0.0
  9
$SKPOLY
 70
     0
  9
$TDCREATE
 40
2460804.697399086
  9
$TDUPDATE
 40
2460804.697959155
  9
$TDINDWG
 40
2460804.322959225
  9
$TDUSRTIMER
 40
0.0005601273
  9
$USRTIMER
 70
     1
  9
$ANGBASE
 50
0.0
  9
$ANGDIR
 70
     0
  9
$PDMODE
 70
     1
  9
$PDSIZE
 40
-2.0
  9
$PLINEWID
 40
0.0
  9
$COORDS
 70
     2
  9
$SPLFRAME
 70
     0
  9
$SPLINETYPE
 70
     6
  9
$SPLINESEGS
 70
     8
  9
$ATTDIA
 70
     1
  9
$ATTREQ
 70
     1
  9
$HANDLING
 70
     1
  9
$HANDSEED
  5
7B6
  9
$SURFTAB1
 70
     6
  9
$SURFTAB2
 70
     6
  9
$SURFTYPE
 70
     6
  9
$SURFU
 70
     6
  9
$SURFV
 70
     6
  9
$UCSNAME
  2

  9
$UCSORG
 10
0.0
 20
0.0
 30
0.0
  9
$UCSXDIR
 10
1.0
 20
0.0
 30
0.0
  9
$UCSYDIR
 10
0.0
 20
1.0
 30
0.0
  9
$PUCSNAME
  2

  9
$PUCSORG
 10
0.0
 20
0.0
 30
0.0
  9
$PUCSXDIR
 10
1.0
 20
0.0
 30
0.0
  9
$PUCSYDIR
 10
0.0
 20
1.0
 30
0.0
  9
$USERI1
 70
     0
  9
$USERI2
 70
     0
  9
$USERI3
 70
     0
  9
$USERI4
 70
     0
  9
$USERI5
 70
     0
  9
$USERR1
 40
0.0
  9
$USERR2
 40
0.0
  9
$USERR3
 40
0.0
  9
$USERR4
 40
0.0
  9
$USERR5
 40
0.0
  9
$WORLDVIEW
 70
     1
  9
$SHADEDGE
 70
     3
  9
$SHADEDIF
 70
    70
  9
$TILEMODE
 70
     1
  9
$MAXACTVP
 70
    64
  9
$PLIMCHECK
 70
     0
  9
$PEXTMIN
 10
1.000000000000000E+20
 20
1.000000000000000E+20
 30
1.000000000000000E+20
  9
$PEXTMAX
 10
-1.000000000000000E+20
 20
-1.000000000000000E+20
 30
-1.000000000000000E+20
  9
$PLIMMIN
 10
-20.0
 20
-7.5
  9
$PLIMMAX
 10
277.0
 20
202.5
  9
$UNITMODE
 70
     0
  9
$VISRETAIN
 70
     1
  9
$PLINEGEN
 70
     0
  9
$PSLTSCALE
 70
     1
  0
ENDSEC
  0
SECTION
  2
TABLES
  0
TABLE
  2
VPORT
 70
     1
  0
VPORT
  2
*ACTIVE
 70
     0
 10
0.0
 20
0.0
 11
1.0
 21
1.0
 12
0.0
 22
-3.531814999999824
 13
0.0
 23
0.0
 14
0.5
 24
0.5
 15
0.5
 25
0.5
 16
0.0
 26
0.0
 36
1.0
 17
0.0
 27
0.0
 37
0.0
 40
6676.574058523124
 41
2.942508710801394
 42
2000.0
 43
0.0
 44
0.0
 50
0.0
 51
0.0
 71
     0
 72
   100
 73
     1
 74
     3
 75
     0
 76
     0
 77
     0
 78
     0
  0
ENDTAB
  0
TABLE
  2
LTYPE
 70
    11
  0
LTYPE
  2
CONTINUOUS
 70
     0
  3
Solid line
 72
    65
 73
     0
 40
0.0
  0
LTYPE
  2
______-6
 70
     0
  3

 72
    65
 73
     4
 40
1.041641235351562
 49
0.625
 49
-0.208282470703125
 49
0.069427490234375
 49
-0.1389312744140625
  0
ENDTAB
  0
TABLE
  2
LAYER
 70
     4
  0
LAYER
  2
0
 70
     0
 62
     7
  6
CONTINUOUS
  0
LAYER
  2
__
 70
     0
 62
     7
  6
CONTINUOUS
  0
LAYER
  2
__-1
 70
     0
 62
     7
  6
CONTINUOUS
  0
LAYER
  2
PRX908
 70
     0
 62
     7
  6
CONTINUOUS
  0
ENDTAB
  0
TABLE
  2
STYLE
 70
     2
  0
STYLE
  2
STANDARD
 70
     0
 40
0.0
 41
1.0
 50
0.0
 71
     0
 42
0.2
  3
txt
  4
BIGFONT.SHX
  0
ENDTAB
  0
TABLE
  2
VIEW
 70
     0
  0
ENDTAB
  0
TABLE
  2
UCS
 70
     0
  0
ENDTAB
  0
TABLE
  2
APPID
 70
     5
  0
APPID
  2
ACAD
 70
     0
  0
APPID
  2
ACCMTRANSPARENCY
 70
     0
  0
APPID
  2
ACAECLAYERSTANDARD
 70
     0
  0
APPID
  2
ACAD_MLEADERVER
 70
     0
  0
APPID
  2
ACADANNOPO
 70
     0
  0
ENDTAB
  0
TABLE
  2
DIMSTYLE
 70
     1
  0
DIMSTYLE
  2
STANDARD
 70
     0
  3

  4

  5

  6

  7

 40
1.0
 41
0.18
 42
0.0625
 43
0.38
 44
0.18
 45
0.0
 46
0.0
 47
0.0
 48
0.0
140
0.18
141
0.09
142
0.0
143
25.4
144
1.0
145
0.0
146
1.0
147
0.09
 71
     0
 72
     0
 73
     1
 74
     1
 75
     0
 76
     0
 77
     0
 78
     0
170
     0
171
     2
172
     0
173
     0
174
     0
175
     0
176
     0
177
     0
178
     0
  0
ENDTAB
  0
ENDSEC
  0
SECTION
  2
BLOCKS
  0
BLOCK
  8
__
  2
$MODEL_SPACE
 70
     0
 10
0.0
 20
0.0
 30
0.0
  3
$MODEL_SPACE
  1

  0
ENDBLK
  5
6F5
  8
__
  0
BLOCK
 67
     1
  8
__
  2
$PAPER_SPACE
 70
     0
 10
0.0
 20
0.0
 30
0.0
  3
$PAPER_SPACE
  1

  0
ENDBLK
  5
6F3
 67
     1
  8
__
  0
BLOCK
  8
0
  2
____-1
 70
     0
 10
0.0
 20
0.0
 30
0.0
  3
____-1
  1
Acad:XRef
  0
ARC
  5
8B
  8
__
  6
CONTINUOUS
 62
     7
 10
565.0905181746339
 20
65.46498493812362
 30
0.0
 40
2.22235619821771
 50
356.8251528744042
 51
183.1748471255959
  0
ARC
  5
8C
  8
__
  6
CONTINUOUS
 62
     7
 10
554.7386790158475
 20
66.4172525121445
 30
0.0
 40
8.203678318443083
 50
247.5320803524656
 51
352.4679196225456
  0
ARC
  5
8D
  8
__
  6
CONTINUOUS
 62
     7
 10
550.387447345887
 20
56.97616303723191
 30
0.0
 40
2.222356198218802
 50
56.8251528744028
 51
243.1748471255764
  0
ARC
  5
8E
  8
__
  6
CONTINUOUS
 62
     7
 10
544.3868398561915
 20
48.48734113684384
 30
0.0
 40
8.203678318443314
 50
307.532080352468
 51
52.46791962254481
  0
ARC
  5
8F
  8
__
  6
CONTINUOUS
 62
     7
 10
565.0905181746339
 20
31.50969733455906
 30
0.0
 40
2.22235619821771
 50
176.8251528744042
 51
3.174847125595846
  0
ARC
  5
90
  8
__
  6
CONTINUOUS
 62
     7
 10
554.7386790158475
 20
30.55742976053818
 30
0.0
 40
8.203678318442956
 50
7.532080377454527
 51
112.4679196475346
  0
ARC
  5
91
  8
__
  6
CONTINUOUS
 62
     7
 10
550.387447345887
 20
39.99851923545077
 30
0.0
 40
2.222356198217709
 50
116.8251528744185
 51
303.1748471255978
  0
ARC
  5
92
  8
__
  6
CONTINUOUS
 62
     7
 10
575.4423573334191
 20
66.4172525121445
 30
0.0
 40
8.203678318441828
 50
187.5320803774555
 51
292.4679196475294
  0
ARC
  5
93
  8
__
  6
CONTINUOUS
 62
     7
 10
579.7935890033796
 20
56.97616303723191
 30
0.0
 40
2.222356198217709
 50
296.8251528744185
 51
123.1748471255953
  0
ARC
  5
94
  8
__
  6
CONTINUOUS
 62
     7
 10
585.7941964930751
 20
48.48734113684384
 30
0.0
 40
8.203678318442142
 50
127.5320803774555
 51
232.4679196475368
  0
ARC
  5
95
  8
__
  6
CONTINUOUS
 62
     7
 10
575.4423573334191
 20
30.55742976053818
 30
0.0
 40
8.20367831844265
 50
67.532080352473
 51
172.4679196225432
  0
ARC
  5
96
  8
__
  6
CONTINUOUS
 62
     7
 10
579.7935890033796
 20
39.99851923545077
 30
0.0
 40
2.222356198218802
 50
236.8251528744028
 51
63.17484712558229
  0
ENDBLK
  5
71
  8
0
  0
BLOCK
  8
0
  2
____-2-1
 70
     0
 10
0.0
 20
0.0
 30
0.0
  3
____-2-1
  1
Acad:XRef
  0
ARC
  5
97
  8
__
  6
CONTINUOUS
 62
     7
 10
2023.25791817565
 20
65.46498493812362
 30
0.0
 40
2.22235619821771
 50
356.8251528744042
 51
183.1748471255959
  0
ARC
  5
98
  8
__
  6
CONTINUOUS
 62
     7
 10
2012.906079016864
 20
66.4172525121445
 30
0.0
 40
8.203678318443083
 50
247.5320803524656
 51
352.4679196225455
  0
ARC
  5
99
  8
__
  6
CONTINUOUS
 62
     7
 10
2008.554847346903
 20
56.97616303723191
 30
0.0
 40
2.222356198218802
 50
56.8251528744028
 51
243.1748471255764
  0
ARC
  5
9A
  8
__
  6
CONTINUOUS
 62
     7
 10
2002.554239857208
 20
48.48734113684384
 30
0.0
 40
8.203678318443314
 50
307.532080352468
 51
52.46791962254481
  0
ARC
  5
9B
  8
__
  6
CONTINUOUS
 62
     7
 10
2023.25791817565
 20
31.50969733455906
 30
0.0
 40
2.22235619821771
 50
176.8251528744042
 51
3.174847125595846
  0
ARC
  5
9C
  8
__
  6
CONTINUOUS
 62
     7
 10
2012.906079016864
 20
30.55742976053818
 30
0.0
 40
8.203678318442956
 50
7.532080377454527
 51
112.4679196475346
  0
ARC
  5
9D
  8
__
  6
CONTINUOUS
 62
     7
 10
2008.554847346903
 20
39.99851923545077
 30
0.0
 40
2.222356198217709
 50
116.8251528744185
 51
303.1748471256003
  0
ARC
  5
9E
  8
__
  6
CONTINUOUS
 62
     7
 10
2033.609757334435
 20
66.4172525121445
 30
0.0
 40
8.203678318441828
 50
187.5320803774555
 51
292.4679196475294
  0
ARC
  5
9F
  8
__
  6
CONTINUOUS
 62
     7
 10
2037.960989004396
 20
56.97616303723191
 30
0.0
 40
2.222356198217709
 50
296.8251528744185
 51
123.1748471255953
  0
ARC
  5
A0
  8
__
  6
CONTINUOUS
 62
     7
 10
2043.961596494091
 20
48.48734113684384
 30
0.0
 40
8.203678318442142
 50
127.5320803774555
 51
232.4679196475362
  0
ARC
  5
A1
  8
__
  6
CONTINUOUS
 62
     7
 10
2033.609757334435
 20
30.55742976053818
 30
0.0
 40
8.20367831844265
 50
67.532080352473
 51
172.4679196225433
  0
ARC
  5
A2
  8
__
  6
CONTINUOUS
 62
     7
 10
2037.960989004396
 20
39.99851923545077
 30
0.0
 40
2.222356198218802
 50
236.8251528744028
 51
63.17484712558229
  0
ENDBLK
  5
74
  8
0
  0
BLOCK
  8
0
  2
____-3-1
 70
     0
 10
0.0
 20
0.0
 30
0.0
  3
____-3-1
  1
Acad:XRef
  0
ARC
  5
A3
  8
__
  6
CONTINUOUS
 62
     7
 10
2023.25791817565
 20
-834.5350150618764
 30
0.0
 40
2.22235619821771
 50
356.8251528744042
 51
183.1748471255959
  0
ARC
  5
A4
  8
__
  6
CONTINUOUS
 62
     7
 10
2012.906079016864
 20
-833.5827474878555
 30
0.0
 40
8.203678318443083
 50
247.5320803524656
 51
352.4679196225455
  0
ARC
  5
A5
  8
__
  6
CONTINUOUS
 62
     7
 10
2008.554847346903
 20
-843.0238369627681
 30
0.0
 40
2.222356198218802
 50
56.8251528744028
 51
243.1748471255777
  0
ARC
  5
A6
  8
__
  6
CONTINUOUS
 62
     7
 10
2002.554239857208
 20
-851.5126588631562
 30
0.0
 40
8.203678318443314
 50
307.532080352468
 51
52.46791962254505
  0
ARC
  5
A7
  8
__
  6
CONTINUOUS
 62
     7
 10
2023.25791817565
 20
-868.4903026654409
 30
0.0
 40
2.22235619821771
 50
176.8251528744042
 51
3.174847125595846
  0
ARC
  5
A8
  8
__
  6
CONTINUOUS
 62
     7
 10
2012.906079016864
 20
-869.4425702394618
 30
0.0
 40
8.203678318442956
 50
7.532080377454527
 51
112.4679196475346
  0
ARC
  5
A9
  8
__
  6
CONTINUOUS
 62
     7
 10
2008.554847346903
 20
-860.0014807645492
 30
0.0
 40
2.222356198217709
 50
116.8251528744185
 51
303.1748471256003
  0
ARC
  5
AA
  8
__
  6
CONTINUOUS
 62
     7
 10
2033.609757334435
 20
-833.5827474878555
 30
0.0
 40
8.203678318441828
 50
187.5320803774555
 51
292.4679196475294
  0
ARC
  5
AB
  8
__
  6
CONTINUOUS
 62
     7
 10
2037.960989004396
 20
-843.0238369627681
 30
0.0
 40
2.222356198217709
 50
296.8251528744185
 51
123.1748471255953
  0
ARC
  5
AC
  8
__
  6
CONTINUOUS
 62
     7
 10
2043.961596494091
 20
-851.5126588631562
 30
0.0
 40
8.203678318442142
 50
127.5320803774555
 51
232.4679196475359
  0
ARC
  5
AD
  8
__
  6
CONTINUOUS
 62
     7
 10
2033.609757334435
 20
-869.4425702394618
 30
0.0
 40
8.20367831844265
 50
67.532080352473
 51
172.4679196225445
  0
ARC
  5
AE
  8
__
  6
CONTINUOUS
 62
     7
 10
2037.960989004396
 20
-860.0014807645492
 30
0.0
 40
2.222356198218802
 50
236.8251528744028
 51
63.17484712558164
  0
ENDBLK
  5
77
  8
0
  0
BLOCK
  8
0
  2
____-4-1
 70
     0
 10
0.0
 20
0.0
 30
0.0
  3
____-4-1
  1
Acad:XRef
  0
ARC
  5
AF
  8
__
  6
CONTINUOUS
 62
     7
 10
565.090518175648
 20
-834.5350150618764
 30
0.0
 40
2.22235619821771
 50
356.8251528744042
 51
183.1748471255959
  0
ARC
  5
B0
  8
__
  6
CONTINUOUS
 62
     7
 10
554.7386790168616
 20
-833.5827474878555
 30
0.0
 40
8.203678318443083
 50
247.5320803524656
 51
352.4679196225456
  0
ARC
  5
B1
  8
__
  6
CONTINUOUS
 62
     7
 10
550.3874473469011
 20
-843.0238369627681
 30
0.0
 40
2.222356198218802
 50
56.8251528744028
 51
243.1748471255804
  0
ARC
  5
B2
  8
__
  6
CONTINUOUS
 62
     7
 10
544.3868398572056
 20
-851.5126588631562
 30
0.0
 40
8.203678318443314
 50
307.532080352468
 51
52.46791962254565
  0
ARC
  5
B3
  8
__
  6
CONTINUOUS
 62
     7
 10
565.090518175648
 20
-868.4903026654409
 30
0.0
 40
2.22235619821771
 50
176.8251528744042
 51
3.174847125595846
  0
ARC
  5
B4
  8
__
  6
CONTINUOUS
 62
     7
 10
554.7386790168616
 20
-869.4425702394618
 30
0.0
 40
8.203678318442956
 50
7.532080377454527
 51
112.4679196475346
  0
ARC
  5
B5
  8
__
  6
CONTINUOUS
 62
     7
 10
550.3874473469011
 20
-860.0014807645492
 30
0.0
 40
2.222356198217709
 50
116.8251528744185
 51
303.1748471255978
  0
ARC
  5
B6
  8
__
  6
CONTINUOUS
 62
     7
 10
575.4423573344332
 20
-833.5827474878555
 30
0.0
 40
8.203678318441828
 50
187.5320803774555
 51
292.4679196475294
  0
ARC
  5
B7
  8
__
  6
CONTINUOUS
 62
     7
 10
579.7935890043937
 20
-843.0238369627681
 30
0.0
 40
2.222356198217709
 50
296.8251528744185
 51
123.1748471255953
  0
ARC
  5
B8
  8
__
  6
CONTINUOUS
 62
     7
 10
585.7941964940892
 20
-851.5126588631562
 30
0.0
 40
8.203678318442142
 50
127.5320803774555
 51
232.4679196475366
  0
ARC
  5
B9
  8
__
  6
CONTINUOUS
 62
     7
 10
575.4423573344332
 20
-869.4425702394618
 30
0.0
 40
8.20367831844265
 50
67.532080352473
 51
172.4679196225444
  0
ARC
  5
BA
  8
__
  6
CONTINUOUS
 62
     7
 10
579.7935890043937
 20
-860.0014807645492
 30
0.0
 40
2.222356198218802
 50
236.8251528744028
 51
63.17484712557902
  0
ENDBLK
  5
7A
  8
0
  0
ENDSEC
  0
SECTION
  2
ENTITIES
  0
LINE
  5
BB
  8
__
  6
CONTINUOUS
 62
     7
 10
-2249.994374999999
 20
3334.755214261562
 30
0.0
 11
2249.994374999999
 21
3334.755214261562
 31
0.0
  0
LINE
  5
BC
  8
__
  6
CONTINUOUS
 62
     7
 10
2249.994374999999
 20
-3165.228535738437
 30
0.0
 11
-2249.994374999999
 21
-3165.228535738437
 31
0.0
  0
LINE
  5
BD
  8
__
  6
CONTINUOUS
 62
     7
 10
-2249.994374999999
 20
-3165.228535738437
 30
0.0
 11
-2249.994374999999
 21
3334.755214261562
 31
0.0
  0
LINE
  5
BE
  8
__
  6
CONTINUOUS
 62
     7
 10
2249.994374999999
 20
3334.755214261562
 30
0.0
 11
2249.994374999999
 21
-3165.228535738437
 31
0.0
  0
LINE
  5
BF
  8
__
  6
CONTINUOUS
 62
     7
 10
0.0000000000003553
 20
-2602.729941988438
 30
0.0
 11
2249.994374999999
 21
-2602.729941988438
 31
0.0
  0
LINE
  5
C0
  8
__
  6
CONTINUOUS
 62
     7
 10
0.0000000000003553
 20
-3165.228535738437
 30
0.0
 11
0.0000000000003553
 21
-2602.729941988438
 31
0.0
  0
TEXT
  5
C1
  8
__
 62
     7
 10
22.4999437500005
 20
-2665.447118528437
 30
0.0
 40
40.61757423706053
  1
NOTE
 41
0.7
 11
22.4999437500005
 21
-2624.829544291376
 31
0.0
 73
     3
  0
LINE
  5
C2
  8
__
  6
CONTINUOUS
 62
     7
 10
874.9978125000002
 20
-3165.228535738437
 30
0.0
 11
874.9978125000002
 21
-2602.729941988438
 31
0.0
  0
TEXT
  5
C3
  8
__
 62
     7
 10
897.4977562499997
 20
-2665.447118528437
 30
0.0
 40
40.61757423706053
  1
TITLE
 41
0.7
 11
897.4977562499997
 21
-2624.829544291376
 31
0.0
 73
     3
  0
LINE
  5
C4
  8
__
  6
CONTINUOUS
 62
     7
 10
0.0000000000003553
 20
-2915.229160738437
 30
0.0
 11
2249.994374999999
 21
-2915.229160738437
 31
0.0
  0
TEXT
  5
C5
  8
__
 62
     7
 10
1209.996975
 20
-2976.538340798438
 30
0.0
 40
40.61757423706053
  1
DRAWN
 41
0.7
 11
1209.996975
 21
-2935.920766561378
 31
0.0
 73
     3
  0
TEXT
  5
C6
  8
__
 62
     7
 10
584.9985374999998
 20
-2976.538340798438
 30
0.0
 40
40.61757423706053
  1
DATE
 41
0.7
 11
584.9985374999998
 21
-2935.920766561378
 31
0.0
 73
     3
  0
TEXT
  5
C7
  8
__
 62
     7
 10
334.9991624999998
 20
-2976.538340798438
 30
0.0
 40
40.61757423706053
  1
SCALE
 41
0.7
 11
334.9991624999998
 21
-2935.920766561378
 31
0.0
 73
     3
  0
TEXT
  5
C8
  8
__
 62
     7
 10
897.4977562499997
 20
-2976.538340798438
 30
0.0
 40
40.61757423706053
  1
DESIGN
 41
0.7
 11
897.4977562499997
 21
-2935.920766561378
 31
0.0
 73
     3
  0
TEXT
  5
C9
  8
__
 62
     7
 10
1834.995412499999
 20
-2976.538340798438
 30
0.0
 40
40.61757423706053
  1
DRAWING NO.
 41
0.7
 11
1834.995412499999
 21
-2935.920766561378
 31
0.0
 73
     3
  0
TEXT
  5
CA
  8
__
 62
     7
 10
1522.49619375
 20
-2976.538340798438
 30
0.0
 40
40.61757423706053
  1
CHECK
 41
0.7
 11
1522.49619375
 21
-2935.920766561378
 31
0.0
 73
     3
  0
LINE
  5
CB
  8
__
  6
CONTINUOUS
 62
     7
 10
359.3741015625004
 20
-3133.978613863438
 30
0.0
 11
453.1238671875003
 21
-3040.228848238437
 31
0.0
  0
TEXT
  5
CC
  8
__
 62
     7
 10
343.7491406250003
 20
-3067.952362262813
 30
0.0
 40
40.61757423706053
  1
1
 41
0.7
 11
343.7491406250003
 21
-3027.334788025752
 31
0.0
 73
     3
  0
LINE
  5
CD
  8
__
  6
CONTINUOUS
 62
     7
 10
312.4992187500004
 20
-3165.228535738437
 30
0.0
 11
312.4992187500004
 21
-2915.229160738437
 31
0.0
  0
LINE
  5
CE
  8
__
  6
CONTINUOUS
 62
     7
 10
562.4985937499996
 20
-3165.228535738437
 30
0.0
 11
562.4985937499996
 21
-2915.229160738437
 31
0.0
  0
LINE
  5
CF
  8
__
  6
CONTINUOUS
 62
     7
 10
1187.49703125
 20
-2915.229160738437
 30
0.0
 11
1187.49703125
 21
-3165.228535738437
 31
0.0
  0
LINE
  5
D0
  8
__
  6
CONTINUOUS
 62
     7
 10
1812.49546875
 20
-2915.229160738437
 30
0.0
 11
1812.49546875
 21
-3165.228535738437
 31
0.0
  0
LINE
  5
D1
  8
__
  6
CONTINUOUS
 62
     7
 10
1499.996249999999
 20
-3165.228535738437
 30
0.0
 11
1499.996249999999
 21
-2915.229160738437
 31
0.0
  0
TEXT
  5
D2
  8
__
 62
     7
 10
583.9120402162503
 20
-3093.637548049687
 30
0.0
 40
40.61757423706053
  1
'25.04.
 41
0.7
 11
583.9120402162503
 21
-3053.019973812626
 31
0.0
 73
     3
  0
TEXT
  5
D3
  8
__
 62
     7
 10
437.4989062500003
 20
-3114.827245075312
 30
0.0
 40
40.61757423706053
  1
25
 41
0.7
 11
437.4989062500003
 21
-3074.209670838252
 31
0.0
 73
     3
  0
TEXT
  5
D4
  8
__
 62
     7
 10
1225.14218741274
 20
-3093.637548049687
 30
0.0
 40
40.61757423706053
  1
N.Sasaki
 41
0.7
 11
1225.14218741274
 21
-3053.019973812626
 31
0.0
 73
     3
  0
TEXT
  5
D5
  8
__
 62
     7
 10
97.08309062500086
 20
-3115.828659238437
 30
0.0
 40
81.23514847412106
  1
A4
 41
0.7
 11
97.08309062500086
 21
-3034.593510764315
 31
0.0
 73
     3
  0
TEXT
  5
D6
  8
__
 62
     7
 10
23.95827343749988
 20
-2980.7153720225
 30
0.0
 40
40.61757423706053
  1
PAPER SIZE
 41
0.7
 11
23.95827343749988
 21
-2940.09779778544
 31
0.0
 73
     3
  0
TEXT
  5
D7
  8
__
 62
     7
 10
-2070.394823999999
 20
-3325.445080196075
 30
0.0
 40
89.77245086128049
  1
Hibino Corporation
 41
0.7
 11
-2070.394823999999
 21
-3235.672629334794
 31
0.0
 73
     3
  0
TEXT
  5
D8
  8
__
 62
     7
 10
1251.706620725625
 20
-3325.445080196075
 30
0.0
 40
89.77245086128049
  1
ヒビノ株式会社
 41
0.7
 11
1251.706620725625
 21
-3235.672629334794
 31
0.0
 73
     3
  0
LINE
  5
D9
  8
__
  6
CONTINUOUS
 62
     7
 10
-2062.494843749999
 20
3084.755839261562
 30
0.0
 11
1624.9959375
 21
3084.755839261562
 31
0.0
  0
LINE
  5
DA
  8
__
  6
CONTINUOUS
 62
     7
 10
-2062.494843749999
 20
2991.006073636562
 30
0.0
 11
1624.9959375
 21
2991.006073636562
 31
0.0
  0
LINE
  5
DB
  8
__
  6
CONTINUOUS
 62
     7
 10
-2062.494843749999
 20
3084.755839261563
 30
0.0
 11
-2062.494843749999
 21
1397.260058011563
 31
0.0
  0
TEXT
  5
DC
  8
__
 62
     7
 10
-2031.244921874999
 20
3119.587502182187
 30
0.0
 40
60.92636135559081
  1
仕様
 41
0.7
 11
-2031.244921874999
 21
3180.513863537778
 31
0.0
 73
     3
  0
LINE
  5
DD
  8
__
  6
CONTINUOUS
 62
     7
 10
-989.5846875000001
 20
3084.755839261562
 30
0.0
 11
-989.5846875000001
 21
1397.260058011563
 31
0.0
  0
LINE
  5
DE
  8
__
  6
CONTINUOUS
 62
     7
 10
1624.9959375
 20
3084.755839261562
 30
0.0
 11
1624.9959375
 21
1397.260058011563
 31
0.0
  0
LINE
  5
DF
  8
__
  6
CONTINUOUS
 62
     7
 10
-2062.494843749999
 20
2897.256308011562
 30
0.0
 11
1624.9959375
 21
2897.256308011562
 31
0.0
  0
LINE
  5
E0
  8
__
  6
CONTINUOUS
 62
     7
 10
-2062.494843749999
 20
2803.506542386562
 30
0.0
 11
1624.9959375
 21
2803.506542386562
 31
0.0
  0
LINE
  5
E1
  8
__
  6
CONTINUOUS
 62
     7
 10
-2062.494843749999
 20
2709.756776761562
 30
0.0
 11
1624.9959375
 21
2709.756776761562
 31
0.0
  0
LINE
  5
E2
  8
__
  6
CONTINUOUS
 62
     7
 10
-1531.25
 20
2616.007011136562
 30
0.0
 11
1624.9959375
 21
2616.007011136562
 31
0.0
  0
LINE
  5
E3
  8
__
  6
CONTINUOUS
 62
     7
 10
-2062.494843749999
 20
2522.257245511562
 30
0.0
 11
1624.9959375
 21
2522.257245511562
 31
0.0
  0
LINE
  5
E4
  8
__
  6
CONTINUOUS
 62
     7
 10
-2062.494843749999
 20
2428.507479886563
 30
0.0
 11
1624.9959375
 21
2428.507479886563
 31
0.0
  0
LINE
  5
E5
  8
__
  6
CONTINUOUS
 62
     7
 10
-2062.494843749999
 20
2334.757714261562
 30
0.0
 11
1624.9959375
 21
2334.757714261562
 31
0.0
  0
LINE
  5
E6
  8
__
  6
CONTINUOUS
 62
     7
 10
-1531.25
 20
2241.007948636562
 30
0.0
 11
1624.9959375
 21
2241.007948636562
 31
0.0
  0
LINE
  5
E7
  8
__
  6
CONTINUOUS
 62
     7
 10
-1531.25
 20
2147.258183011562
 30
0.0
 11
1624.9959375
 21
2147.258183011562
 31
0.0
  0
LINE
  5
E8
  8
__
  6
CONTINUOUS
 62
     7
 10
-2062.494843749999
 20
2053.508417386562
 30
0.0
 11
1624.9959375
 21
2053.508417386562
 31
0.0
  0
LINE
  5
E9
  8
__
  6
CONTINUOUS
 62
     7
 10
-2062.494843749999
 20
1959.758651761562
 30
0.0
 11
1624.9959375
 21
1959.758651761562
 31
0.0
  0
LINE
  5
EA
  8
__
  6
CONTINUOUS
 62
     7
 10
-2062.494843749999
 20
1866.008886136562
 30
0.0
 11
1624.9959375
 21
1866.008886136562
 31
0.0
  0
LINE
  5
EB
  8
__
  6
CONTINUOUS
 62
     7
 10
-2062.494843749999
 20
1772.259120511563
 30
0.0
 11
1624.9959375
 21
1772.259120511563
 31
0.0
  0
LINE
  5
EC
  8
__
  6
CONTINUOUS
 62
     7
 10
-2062.494843749999
 20
1678.509354886562
 30
0.0
 11
1624.9959375
 21
1678.509354886562
 31
0.0
  0
LINE
  5
ED
  8
__
  6
CONTINUOUS
 62
     7
 10
-2062.494843749999
 20
1584.759589261562
 30
0.0
 11
1624.9959375
 21
1584.759589261562
 31
0.0
  0
LINE
  5
EE
  8
__
  6
CONTINUOUS
 62
     7
 10
-2062.494843749999
 20
1491.009823636562
 30
0.0
 11
1624.9959375
 21
1491.009823636562
 31
0.0
  0
LINE
  5
EF
  8
__
  6
CONTINUOUS
 62
     7
 10
-2062.494843749999
 20
1397.260058011562
 30
0.0
 11
1624.9959375
 21
1397.260058011562
 31
0.0
  0
TEXT
  5
F0
  8
__
 62
     7
 10
-2039.9949
 20
3010.703968836145
 30
0.0
 40
47.3871699432373
  1
形式
 41
0.7
 11
-2039.9949
 21
3058.091138779382
 31
0.0
 73
     3
  0
TEXT
  5
F1
  8
__
 62
     7
 10
-2039.9949
 20
2916.954203211145
 30
0.0
 40
47.3871699432373
  1
周波数レンジ(-10dB)
 41
0.7
 11
-2039.9949
 21
2964.341373154382
 31
0.0
 73
     3
  0
TEXT
  5
F2
  8
__
 62
     7
 10
-2039.9949
 20
2823.204437586145
 30
0.0
 40
47.3871699432373
  1
指向角度(水平×垂直)
 41
0.7
 11
-2039.9949
 21
2870.591607529382
 31
0.0
 73
     3
  0
TEXT
  5
F3
  8
__
 62
     7
 10
-2039.9949
 20
2729.454671961144
 30
0.0
 40
47.3871699432373
  1
最大音圧レベル
 41
0.7
 11
-2039.9949
 21
2776.841841904382
 31
0.0
 73
     3
  0
TEXT
  5
F4
  8
__
 62
     7
 10
-2039.9949
 20
2635.704906336145
 30
0.0
 40
47.3871699432373
  1
ドライバー構成
 41
0.7
 11
-2039.9949
 21
2683.092076279383
 31
0.0
 73
     3
  0
TEXT
  5
F5
  8
__
 62
     7
 10
-2039.9949
 20
2448.205375086145
 30
0.0
 40
47.3871699432373
  1
クロスオーバー周波数
 41
0.7
 11
-2039.9949
 21
2495.592545029383
 31
0.0
 73
     3
  0
TEXT
  5
F6
  8
__
 62
     7
 10
-2039.9949
 20
2354.455609461145
 30
0.0
 40
47.3871699432373
  1
パワーアンプ
 41
0.7
 11
-2039.9949
 21
2401.842779404382
 31
0.0
 73
     3
  0
TEXT
  5
F7
  8
__
 62
     7
 10
-2039.9949
 20
2260.705843836145
 30
0.0
 40
47.3871699432373
  1
入力
 41
0.7
 11
-2039.9949
 21
2308.093013779383
 31
0.0
 73
     3
  0
TEXT
  5
F8
  8
__
 62
     7
 10
-2039.9949
 20
1979.456546961145
 30
0.0
 40
47.3871699432373
  1
出力
 41
0.7
 11
-2039.9949
 21
2026.843716904383
 31
0.0
 73
     3
  0
TEXT
  5
F9
  8
__
 62
     7
 10
-2039.9949
 20
1885.706781336146
 30
0.0
 40
47.3871699432373
  1
電源
 41
0.7
 11
-2039.9949
 21
1933.093951279383
 31
0.0
 73
     3
  0
TEXT
  5
FA
  8
__
 62
     7
 10
-2039.9949
 20
1791.957015711145
 30
0.0
 40
47.3871699432373
  1
消費電力
 41
0.7
 11
-2039.9949
 21
1839.344185654383
 31
0.0
 73
     3
  0
TEXT
  5
FB
  8
__
 62
     7
 10
-2039.9949
 20
1698.207250086145
 30
0.0
 40
47.3871699432373
  1
エンクロージャー
 41
0.7
 11
-2039.9949
 21
1745.594420029382
 31
0.0
 73
     3
  0
TEXT
  5
FC
  8
__
 62
     7
 10
-967.0847437499997
 20
3010.703968836145
 30
0.0
 40
47.3871699432373
  1
2-Wayパワード・フルレンジ
 41
0.7
 11
-967.0847437499997
 21
3058.091138779382
 31
0.0
 73
     3
  0
TEXT
  5
FD
  8
__
 62
     7
 10
-967.0847437499997
 20
2916.954203211145
 30
0.0
 40
47.3871699432373
  1
55Hz～20kHz
 41
0.7
 11
-967.0847437499997
 21
2964.341373154382
 31
0.0
 73
     3
  0
TEXT
  5
FE
  8
__
 62
     7
 10
-967.0847437499997
 20
2823.204437586145
 30
0.0
 40
47.3871699432373
  1
105°×60°
 41
0.7
 11
-967.0847437499997
 21
2870.591607529382
 31
0.0
 73
     3
  0
TEXT
  5
FF
  8
__
 62
     7
 10
-967.0847437499997
 20
2729.454671961144
 30
0.0
 40
47.3871699432373
  1
126dB SPL
 41
0.7
 11
-967.0847437499997
 21
2776.841841904382
 31
0.0
 73
     3
  0
TEXT
  5
100
  8
__
 62
     7
 10
-967.0847437500001
 20
2635.704906336145
 30
0.0
 40
47.3871699432373
  1
8インチ(203mm)
 41
0.7
 11
-967.0847437500001
 21
2683.092076279383
 31
0.0
 73
     3
  0
TEXT
  5
101
  8
__
 62
     7
 10
-967.0847437500001
 20
2448.205375086145
 30
0.0
 40
47.3871699432373
  1
1.93kHz
 41
0.7
 11
-967.0847437500001
 21
2495.592545029383
 31
0.0
 73
     3
  0
TEXT
  5
102
  8
__
 62
     7
 10
-967.0847437500001
 20
2354.455609461145
 30
0.0
 40
47.3871699432373
  1
2,000W(ピーク)
 41
0.7
 11
-967.0847437500001
 21
2401.842779404382
 31
0.0
 73
     3
  0
TEXT
  5
103
  8
__
 62
     7
 10
-967.0847437500001
 20
2260.705843836145
 30
0.0
 40
47.3871699432373
  1
2(モノラル)+1(Aux)
 41
0.7
 11
-967.0847437500001
 21
2308.093013779383
 31
0.0
 73
     3
  0
TEXT
  5
104
  8
__
 62
     7
 10
-967.0847437500001
 20
1979.456546961145
 30
0.0
 40
47.3871699432373
  1
XLR(スルー×2、ミックス×1)
 41
0.7
 11
-967.0847437500001
 21
2026.843716904383
 31
0.0
 73
     3
  0
TEXT
  5
105
  8
__
 62
     7
 10
-967.0847437500001
 20
1885.706781336146
 30
0.0
 40
47.3871699432373
  1
AC100V、50/60Hz
 41
0.7
 11
-967.0847437500001
 21
1933.093951279383
 31
0.0
 73
     3
  0
TEXT
  5
106
  8
__
 62
     7
 10
-967.0847437500001
 20
1791.957015711145
 30
0.0
 40
47.3871699432373
  1
最大750W
 41
0.7
 11
-967.0847437500001
 21
1839.344185654383
 31
0.0
 73
     3
  0
TEXT
  5
107
  8
__
 62
     7
 10
-967.0847437500001
 20
1698.207250086145
 30
0.0
 40
47.3871699432373
  1
ポリプロピレン+10％Talc、黒
 41
0.7
 11
-967.0847437500001
 21
1745.594420029382
 31
0.0
 73
     3
  0
TEXT
  5
108
  8
__
 62
     7
 10
-967.0847437500001
 20
1416.957953211146
 30
0.0
 40
47.3871699432373
  1
電源コード、和文取扱説明書
 41
0.7
 11
-967.0847437500001
 21
1464.345123154383
 31
0.0
 73
     3
  0
TEXT
  5
109
  8
__
 62
     7
 10
-1508.75005625
 20
2635.704906336145
 30
0.0
 40
47.3871699432373
  1
LF
 41
0.7
 11
-1508.75005625
 21
2683.092076279383
 31
0.0
 73
     3
  0
TEXT
  5
10A
  8
__
 62
     7
 10
-1508.75005625
 20
2260.705843836145
 30
0.0
 40
47.3871699432373
  1
チャンネル数
 41
0.7
 11
-1508.75005625
 21
2308.093013779383
 31
0.0
 73
     3
  0
TEXT
  5
10B
  8
__
 62
     7
 10
-967.0847437500001
 20
2541.955140711144
 30
0.0
 40
47.3871699432373
  1
1.5インチ(38mm)
 41
0.7
 11
-967.0847437500001
 21
2589.342310654382
 31
0.0
 73
     3
  0
TEXT
  5
10C
  8
__
 62
     7
 10
-1508.75005625
 20
2541.955140711144
 30
0.0
 40
47.3871699432373
  1
HF
 41
0.7
 11
-1508.75005625
 21
2589.342310654382
 31
0.0
 73
     3
  0
LINE
  5
10D
  8
__
  6
CONTINUOUS
 62
     7
 10
-1531.25
 20
2709.756776761562
 30
0.0
 11
-1531.25
 21
2522.257245511562
 31
0.0
  0
LINE
  5
10E
  8
__
  6
CONTINUOUS
 62
     7
 10
-1531.25
 20
2334.757714261562
 30
0.0
 11
-1531.25
 21
1959.758651761562
 31
0.0
  0
TEXT
  5
10F
  8
__
 62
     7
 10
-967.0847437500001
 20
2166.956078211145
 30
0.0
 40
47.3871699432373
  1
XLRと標準フォーンジャック(3P)対応の複合型端子×2、ミニフォーン×1
 41
0.7
 11
-967.0847437500001
 21
2214.343248154382
 31
0.0
 73
     3
  0
TEXT
  5
110
  8
__
 62
     7
 10
-1508.75005625
 20
2166.956078211145
 30
0.0
 40
47.3871699432373
  1
端子・形式
 41
0.7
 11
-1508.75005625
 21
2214.343248154382
 31
0.0
 73
     3
  0
TEXT
  5
111
  8
__
 62
     7
 10
-967.0847437500001
 20
2073.206312586145
 30
0.0
 40
47.3871699432373
  1
100kΩ(バランス)
 41
0.7
 11
-967.0847437500001
 21
2120.593482529383
 31
0.0
 73
     3
  0
TEXT
  5
112
  8
__
 62
     7
 10
-1508.75005625
 20
2073.206312586145
 30
0.0
 40
47.3871699432373
  1
インピーダンス
 41
0.7
 11
-1508.75005625
 21
2120.593482529383
 31
0.0
 73
     3
  0
TEXT
  5
113
  8
__
 62
     7
 10
-1508.75005625
 20
1979.456546961145
 30
0.0
 40
47.3871699432373
  1
端子・形式
 41
0.7
 11
-1508.75005625
 21
2026.843716904383
 31
0.0
 73
     3
  0
TEXT
  5
114
  8
__
 62
     7
 10
-2039.9949
 20
1416.957953211146
 30
0.0
 40
47.3871699432373
  1
付属品
 41
0.7
 11
-2039.9949
 21
1464.345123154383
 31
0.0
 73
     3
  0
TEXT
  5
115
  8
__
 62
     7
 10
-2039.9949
 20
1604.457484461146
 30
0.0
 40
47.3871699432373
  1
寸法(W×H×D)
 41
0.7
 11
-2039.9949
 21
1651.844654404383
 31
0.0
 73
     3
  0
TEXT
  5
116
  8
__
 62
     7
 10
-2039.9949
 20
1510.707718836146
 30
0.0
 40
47.3871699432373
  1
質量
 41
0.7
 11
-2039.9949
 21
1558.094888779383
 31
0.0
 73
     3
  0
TEXT
  5
117
  8
__
 62
     7
 10
-967.0847437500001
 20
1604.457484461146
 30
0.0
 40
47.3871699432373
  1
300×470×278mm(除突起部)
 41
0.7
 11
-967.0847437500001
 21
1651.844654404383
 31
0.0
 73
     3
  0
TEXT
  5
118
  8
__
 62
     7
 10
-967.0847437500001
 20
1510.707718836146
 30
0.0
 40
47.3871699432373
  1
14kg
 41
0.7
 11
-967.0847437500001
 21
1558.094888779383
 31
0.0
 73
     3
  0
TEXT
  5
119
  8
__
 62
     7
 10
-499.9987499999997
 20
-2858.492052581561
 30
0.0
 40
60.92636135559081
  1
(単位：mm)
 41
0.7
 11
-499.9987499999997
 21
-2797.565691225971
 31
0.0
 73
     3
  0
LINE
  5
11A
  8
__-1
  6
CONTINUOUS
 62
     7
 10
-1304.0
 20
-1336.0
 30
0.0
 11
-1304.0
 21
-1225.0
 31
0.0
  0
LINE
  5
11B
  8
__-1
  6
CONTINUOUS
 62
     7
 10
-1096.0
 20
-1336.0
 30
0.0
 11
-1096.0
 21
-1225.0
 31
0.0
  0
LINE
  5
11C
  8
__-1
  6
CONTINUOUS
 62
     7
 10
-1304.0
 20
-1250.0
 30
0.0
 11
-1096.0
 21
-1250.0
 31
0.0
  0
POLYLINE
  5
11D
  8
__-1
  6
CONTINUOUS
 62
     7
 66
     1
 10
0.0
 20
0.0
 30
0.0
 70
   128
  0
VERTEX
  5
73C
  8
__-1
  6
CONTINUOUS
 62
     7
 10
-1254.003051757812
 20
-1263.396641905515
 30
0.0
  0
VERTEX
  5
73D
  8
__-1
  6
CONTINUOUS
 62
     7
 10
-1304.0
 20
-1250.0
 30
0.0
  0
VERTEX
  5
73E
  8
__-1
  6
CONTINUOUS
 62
     7
 10
-1254.003051757812
 20
-1236.603358094485
 30
0.0
  0
SEQEND
  5
798
  8
__-1
  6
CONTINUOUS
 62
     7
  0
POLYLINE
  5
122
  8
__-1
  6
CONTINUOUS
 62
     7
 66
     1
 10
0.0
 20
0.0
 30
0.0
 70
   128
  0
VERTEX
  5
73F
  8
__-1
  6
CONTINUOUS
 62
     7
 10
-1145.996948242188
 20
-1236.603358094485
 30
0.0
  0
VERTEX
  5
740
  8
__-1
  6
CONTINUOUS
 62
     7
 10
-1096.0
 20
-1250.0
 30
0.0
  0
VERTEX
  5
741
  8
__-1
  6
CONTINUOUS
 62
     7
 10
-1145.996948242188
 20
-1263.396641905515
 30
0.0
  0
SEQEND
  5
799
  8
__-1
  6
CONTINUOUS
 62
     7
  0
TEXT
  5
127
  8
__-1
 62
     7
 10
-1266.145833333333
 20
-1225.152777777778
 30
0.0
 40
67.69612630208333
  1
208
 41
0.7
 11
-1266.145833333333
 21
-1157.456651475695
 31
0.0
 73
     3
  0
TEXT
  5
128
  8
__
 62
     7
 10
-1133.854166666667
 20
-1171.530555555556
 30
0.0
 40
47.38728841145834
  1
※
 41
0.7
 11
-1133.854166666667
 21
-1124.143267144097
 31
0.0
 73
     3
  0
LINE
  5
129
  8
__-1
  6
CONTINUOUS
 62
     7
 10
-1350.1469885
 20
-552.5000000000001
 30
0.0
 11
-1350.1469885
 21
-425.0
 31
0.0
  0
LINE
  5
12A
  8
__-1
  6
CONTINUOUS
 62
     7
 10
-1050.1469885
 20
-552.5000000000001
 30
0.0
 11
-1050.1469885
 21
-425.0
 31
0.0
  0
LINE
  5
12B
  8
__-1
  6
CONTINUOUS
 62
     7
 10
-1350.1469885
 20
-450.0
 30
0.0
 11
-1050.1469885
 21
-450.0
 31
0.0
  0
POLYLINE
  5
12C
  8
__-1
  6
CONTINUOUS
 62
     7
 66
     1
 10
0.0
 20
0.0
 30
0.0
 70
   128
  0
VERTEX
  5
742
  8
__-1
  6
CONTINUOUS
 62
     7
 10
-1300.150040257812
 20
-463.3966419055148
 30
0.0
  0
VERTEX
  5
743
  8
__-1
  6
CONTINUOUS
 62
     7
 10
-1350.1469885
 20
-450.0
 30
0.0
  0
VERTEX
  5
744
  8
__-1
  6
CONTINUOUS
 62
     7
 10
-1300.150040257812
 20
-436.6033580944852
 30
0.0
  0
SEQEND
  5
79A
  8
__-1
  6
CONTINUOUS
 62
     7
  0
POLYLINE
  5
131
  8
__-1
  6
CONTINUOUS
 62
     7
 66
     1
 10
0.0
 20
0.0
 30
0.0
 70
   128
  0
VERTEX
  5
745
  8
__-1
  6
CONTINUOUS
 62
     7
 10
-1100.143936742187
 20
-436.6033580944852
 30
0.0
  0
VERTEX
  5
746
  8
__-1
  6
CONTINUOUS
 62
     7
 10
-1050.1469885
 20
-450.0
 30
0.0
  0
VERTEX
  5
747
  8
__-1
  6
CONTINUOUS
 62
     7
 10
-1100.143936742187
 20
-463.3966419055148
 30
0.0
  0
SEQEND
  5
79B
  8
__-1
  6
CONTINUOUS
 62
     7
  0
TEXT
  5
136
  8
__-1
 62
     7
 10
-1266.292821833333
 20
-425.1527777777778
 30
0.0
 40
67.69612630208333
  1
300
 41
0.7
 11
-1266.292821833333
 21
-357.4566514756945
 31
0.0
 73
     3
  0
LINE
  5
137
  8
__-1
  6
CONTINUOUS
 62
     7
 10
-1375.1469885
 20
-565.0000000000001
 30
0.0
 11
-1450.0
 21
-565.0000000000001
 31
0.0
  0
LINE
  5
138
  8
__-1
  6
CONTINUOUS
 62
     7
 10
-1375.14698854741
 20
-1035.000000322643
 30
0.0
 11
-1450.0
 21
-1035.000000322643
 31
0.0
  0
LINE
  5
139
  8
__-1
  6
CONTINUOUS
 62
     7
 10
-1425.0
 20
-565.0000000000001
 30
0.0
 11
-1425.0
 21
-1035.000000322643
 31
0.0
  0
POLYLINE
  5
13A
  8
__-1
  6
CONTINUOUS
 62
     7
 66
     1
 10
0.0
 20
0.0
 30
0.0
 70
   128
  0
VERTEX
  5
748
  8
__-1
  6
CONTINUOUS
 62
     7
 10
-1438.396641905515
 20
-614.9969482421876
 30
0.0
  0
VERTEX
  5
749
  8
__-1
  6
CONTINUOUS
 62
     7
 10
-1425.0
 20
-565.0000000000001
 30
0.0
  0
VERTEX
  5
74A
  8
__-1
  6
CONTINUOUS
 62
     7
 10
-1411.603358094485
 20
-614.9969482421876
 30
0.0
  0
SEQEND
  5
79C
  8
__-1
  6
CONTINUOUS
 62
     7
  0
POLYLINE
  5
13F
  8
__-1
  6
CONTINUOUS
 62
     7
 66
     1
 10
0.0
 20
0.0
 30
0.0
 70
   128
  0
VERTEX
  5
74B
  8
__-1
  6
CONTINUOUS
 62
     7
 10
-1411.603358094485
 20
-985.0030520804557
 30
0.0
  0
VERTEX
  5
74C
  8
__-1
  6
CONTINUOUS
 62
     7
 10
-1425.0
 20
-1035.000000322643
 30
0.0
  0
VERTEX
  5
74D
  8
__-1
  6
CONTINUOUS
 62
     7
 10
-1438.396641905515
 20
-985.0030520804557
 30
0.0
  0
SEQEND
  5
79D
  8
__-1
  6
CONTINUOUS
 62
     7
  0
TEXT
  5
144
  8
__-1
 62
     7
 10
-1449.847222222222
 20
-866.1458334946549
 30
0.0
 40
67.69612630208333
  1
470
 50
90.0
 41
0.7
 11
-1517.543348524305
 21
-866.1458334946549
 31
0.0
 73
     3
  0
LINE
  5
145
  8
__-1
  6
CONTINUOUS
 62
     7
 10
-1358.4526165
 20
-566.9385073521212
 30
0.0
 11
-1358.4526165
 21
-425.0
 31
0.0
  0
LINE
  5
146
  8
__-1
  6
CONTINUOUS
 62
     7
 10
-1350.1469885
 20
-552.5000000000001
 30
0.0
 11
-1350.1469885
 21
-425.0
 31
0.0
  0
LINE
  5
147
  8
__-1
  6
CONTINUOUS
 62
     7
 10
-1350.1469885
 20
-450.0
 30
0.0
 11
-1358.4526165
 21
-450.0
 31
0.0
  0
LINE
  5
148
  8
__-1
  6
CONTINUOUS
 62
     7
 10
-1358.4526165
 20
-450.0
 30
0.0
 11
-1541.145833333333
 21
-450.0
 31
0.0
  0
POLYLINE
  5
149
  8
__-1
  6
CONTINUOUS
 62
     7
 66
     1
 10
0.0
 20
0.0
 30
0.0
 70
   128
  0
VERTEX
  5
74E
  8
__-1
  6
CONTINUOUS
 62
     7
 10
-1408.449564742187
 20
-436.6033580944852
 30
0.0
  0
VERTEX
  5
74F
  8
__-1
  6
CONTINUOUS
 62
     7
 10
-1358.4526165
 20
-450.0
 30
0.0
  0
VERTEX
  5
750
  8
__-1
  6
CONTINUOUS
 62
     7
 10
-1408.449564742187
 20
-463.3966419055148
 30
0.0
  0
SEQEND
  5
79E
  8
__-1
  6
CONTINUOUS
 62
     7
  0
LINE
  5
14E
  8
__-1
  6
CONTINUOUS
 62
     7
 10
-1350.1469885
 20
-450.0
 30
0.0
 11
-1262.6469885
 21
-450.0
 31
0.0
  0
POLYLINE
  5
14F
  8
__-1
  6
CONTINUOUS
 62
     7
 66
     1
 10
0.0
 20
0.0
 30
0.0
 70
   128
  0
VERTEX
  5
751
  8
__-1
  6
CONTINUOUS
 62
     7
 10
-1300.150040257812
 20
-463.3966419055148
 30
0.0
  0
VERTEX
  5
752
  8
__-1
  6
CONTINUOUS
 62
     7
 10
-1350.1469885
 20
-450.0
 30
0.0
  0
VERTEX
  5
753
  8
__-1
  6
CONTINUOUS
 62
     7
 10
-1300.150040257812
 20
-436.6033580944852
 30
0.0
  0
SEQEND
  5
79F
  8
__-1
  6
CONTINUOUS
 62
     7
  0
TEXT
  5
154
  8
__-1
 62
     7
 10
-1541.145833333333
 20
-425.1527777777778
 30
0.0
 40
67.69612630208333
  1
8.3
 41
0.7
 11
-1541.145833333333
 21
-357.4566514756945
 31
0.0
 73
     3
  0
LINE
  5
155
  8
__-1
  6
CONTINUOUS
 62
     7
 10
-1050.1469885
 20
-552.5000000000001
 30
0.0
 11
-1050.1469885
 21
-425.0
 31
0.0
  0
LINE
  5
156
  8
__-1
  6
CONTINUOUS
 62
     7
 10
-1041.8473835
 20
-566.9385073521212
 30
0.0
 11
-1041.8473835
 21
-425.0
 31
0.0
  0
LINE
  5
157
  8
__-1
  6
CONTINUOUS
 62
     7
 10
-1041.8473835
 20
-450.0
 30
0.0
 11
-1050.1469885
 21
-450.0
 31
0.0
  0
LINE
  5
158
  8
__-1
  6
CONTINUOUS
 62
     7
 10
-1050.1469885
 20
-450.0
 30
0.0
 11
-1137.6469885
 21
-450.0
 31
0.0
  0
POLYLINE
  5
159
  8
__-1
  6
CONTINUOUS
 62
     7
 66
     1
 10
0.0
 20
0.0
 30
0.0
 70
   128
  0
VERTEX
  5
754
  8
__-1
  6
CONTINUOUS
 62
     7
 10
-1100.143936742187
 20
-436.6033580944852
 30
0.0
  0
VERTEX
  5
755
  8
__-1
  6
CONTINUOUS
 62
     7
 10
-1050.1469885
 20
-450.0
 30
0.0
  0
VERTEX
  5
756
  8
__-1
  6
CONTINUOUS
 62
     7
 10
-1100.143936742187
 20
-463.3966419055148
 30
0.0
  0
SEQEND
  5
7A0
  8
__-1
  6
CONTINUOUS
 62
     7
  0
LINE
  5
15E
  8
__-1
  6
CONTINUOUS
 62
     7
 10
-1041.8473835
 20
-450.0
 30
0.0
 11
-883.8541666666666
 21
-450.0
 31
0.0
  0
POLYLINE
  5
15F
  8
__-1
  6
CONTINUOUS
 62
     7
 66
     1
 10
0.0
 20
0.0
 30
0.0
 70
   128
  0
VERTEX
  5
757
  8
__-1
  6
CONTINUOUS
 62
     7
 10
-991.8504352578123
 20
-463.3966419055148
 30
0.0
  0
VERTEX
  5
758
  8
__-1
  6
CONTINUOUS
 62
     7
 10
-1041.8473835
 20
-450.0
 30
0.0
  0
VERTEX
  5
759
  8
__-1
  6
CONTINUOUS
 62
     7
 10
-991.8504352578123
 20
-436.6033580944852
 30
0.0
  0
SEQEND
  5
7A1
  8
__-1
  6
CONTINUOUS
 62
     7
  0
TEXT
  5
164
  8
__-1
 62
     7
 10
-1016.145833333333
 20
-425.1527777777778
 30
0.0
 40
67.69612630208333
  1
8.3
 41
0.7
 11
-1016.145833333333
 21
-357.4566514756945
 31
0.0
 73
     3
  0
LINE
  5
165
  8
__-1
  6
CONTINUOUS
 62
     7
 10
-1375.1469885
 20
-565.0000000000001
 30
0.0
 11
-1450.0
 21
-565.0000000000001
 31
0.0
  0
LINE
  5
166
  8
__-1
  6
CONTINUOUS
 62
     7
 10
-1280.1469885
 20
-562.0000000000001
 30
0.0
 11
-1450.0
 21
-562.0000000000001
 31
0.0
  0
LINE
  5
167
  8
__-1
  6
CONTINUOUS
 62
     7
 10
-1425.0
 20
-562.0000000000001
 30
0.0
 11
-1425.0
 21
-565.0000000000001
 31
0.0
  0
LINE
  5
168
  8
__-1
  6
CONTINUOUS
 62
     7
 10
-1425.0
 20
-565.0000000000001
 30
0.0
 11
-1425.0
 21
-652.5000000000001
 31
0.0
  0
POLYLINE
  5
169
  8
__-1
  6
CONTINUOUS
 62
     7
 66
     1
 10
0.0
 20
0.0
 30
0.0
 70
   128
  0
VERTEX
  5
75A
  8
__-1
  6
CONTINUOUS
 62
     7
 10
-1438.396641905515
 20
-614.9969482421876
 30
0.0
  0
VERTEX
  5
75B
  8
__-1
  6
CONTINUOUS
 62
     7
 10
-1425.0
 20
-565.0000000000001
 30
0.0
  0
VERTEX
  5
75C
  8
__-1
  6
CONTINUOUS
 62
     7
 10
-1411.603358094485
 20
-614.9969482421876
 30
0.0
  0
SEQEND
  5
7A2
  8
__-1
  6
CONTINUOUS
 62
     7
  0
LINE
  5
16E
  8
__-1
  6
CONTINUOUS
 62
     7
 10
-1425.0
 20
-562.0000000000001
 30
0.0
 11
-1425.0
 21
-474.5000000000001
 31
0.0
  0
POLYLINE
  5
16F
  8
__-1
  6
CONTINUOUS
 62
     7
 66
     1
 10
0.0
 20
0.0
 30
0.0
 70
   128
  0
VERTEX
  5
75D
  8
__-1
  6
CONTINUOUS
 62
     7
 10
-1411.603358094485
 20
-512.0030517578126
 30
0.0
  0
VERTEX
  5
75E
  8
__-1
  6
CONTINUOUS
 62
     7
 10
-1425.0
 20
-562.0000000000001
 30
0.0
  0
VERTEX
  5
75F
  8
__-1
  6
CONTINUOUS
 62
     7
 10
-1438.396641905515
 20
-512.0030517578126
 30
0.0
  0
SEQEND
  5
7A3
  8
__-1
  6
CONTINUOUS
 62
     7
  0
TEXT
  5
174
  8
__-1
 62
     7
 10
-1462.347222222222
 20
-629.6458333333334
 30
0.0
 40
67.69612630208333
  1
3.0
 50
90.0
 41
0.7
 11
-1530.043348524305
 21
-629.6458333333334
 31
0.0
 73
     3
  0
LINE
  5
175
  8
__-1
  6
CONTINUOUS
 62
     7
 10
-1375.14698854741
 20
-1035.000000322643
 30
0.0
 11
-1450.0
 21
-1035.000000322643
 31
0.0
  0
LINE
  5
176
  8
__-1
  6
CONTINUOUS
 62
     7
 10
-1359.7939765
 20
-1040.0
 30
0.0
 11
-1450.0
 21
-1040.0
 31
0.0
  0
LINE
  5
177
  8
__-1
  6
CONTINUOUS
 62
     7
 10
-1425.0
 20
-1040.0
 30
0.0
 11
-1425.0
 21
-1035.000000322643
 31
0.0
  0
LINE
  5
178
  8
__-1
  6
CONTINUOUS
 62
     7
 10
-1425.0
 20
-1035.000000322643
 30
0.0
 11
-1425.0
 21
-947.5000003226432
 31
0.0
  0
POLYLINE
  5
179
  8
__-1
  6
CONTINUOUS
 62
     7
 66
     1
 10
0.0
 20
0.0
 30
0.0
 70
   128
  0
VERTEX
  5
760
  8
__-1
  6
CONTINUOUS
 62
     7
 10
-1411.603358094485
 20
-985.0030520804557
 30
0.0
  0
VERTEX
  5
761
  8
__-1
  6
CONTINUOUS
 62
     7
 10
-1425.0
 20
-1035.000000322643
 30
0.0
  0
VERTEX
  5
762
  8
__-1
  6
CONTINUOUS
 62
     7
 10
-1438.396641905515
 20
-985.0030520804557
 30
0.0
  0
SEQEND
  5
7A4
  8
__-1
  6
CONTINUOUS
 62
     7
  0
LINE
  5
17E
  8
__-1
  6
CONTINUOUS
 62
     7
 10
-1425.0
 20
-1040.0
 30
0.0
 11
-1425.0
 21
-1127.5
 31
0.0
  0
POLYLINE
  5
17F
  8
__-1
  6
CONTINUOUS
 62
     7
 66
     1
 10
0.0
 20
0.0
 30
0.0
 70
   128
  0
VERTEX
  5
763
  8
__-1
  6
CONTINUOUS
 62
     7
 10
-1438.396641905515
 20
-1089.996948242188
 30
0.0
  0
VERTEX
  5
764
  8
__-1
  6
CONTINUOUS
 62
     7
 10
-1425.0
 20
-1040.0
 30
0.0
  0
VERTEX
  5
765
  8
__-1
  6
CONTINUOUS
 62
     7
 10
-1411.603358094485
 20
-1089.996948242188
 30
0.0
  0
SEQEND
  5
7A5
  8
__-1
  6
CONTINUOUS
 62
     7
  0
TEXT
  5
184
  8
__-1
 62
     7
 10
-1462.347222222222
 20
-1103.645833494655
 30
0.0
 40
67.69612630208333
  1
5.0
 50
90.0
 41
0.7
 11
-1530.043348524305
 21
-1103.645833494655
 31
0.0
 73
     3
  0
LINE
  5
185
  8
__-1
  6
CONTINUOUS
 62
     7
 10
-1304.0
 20
-107.9999999999999
 30
0.0
 11
-1304.0
 21
-325.0
 31
0.0
  0
LINE
  5
186
  8
__-1
  6
CONTINUOUS
 62
     7
 10
-1096.0
 20
-107.9999999999999
 30
0.0
 11
-1096.0
 21
-325.0
 31
0.0
  0
LINE
  5
187
  8
__-1
  6
CONTINUOUS
 62
     7
 10
-1304.0
 20
-300.0
 30
0.0
 11
-1516.145833333333
 21
-300.0
 31
0.0
  0
LINE
  5
188
  8
__-1
  6
CONTINUOUS
 62
     7
 10
-1304.0
 20
-300.0
 30
0.0
 11
-1096.0
 21
-300.0
 31
0.0
  0
POLYLINE
  5
189
  8
__-1
  6
CONTINUOUS
 62
     7
 66
     1
 10
0.0
 20
0.0
 30
0.0
 70
   128
  0
VERTEX
  5
766
  8
__-1
  6
CONTINUOUS
 62
     7
 10
-1254.003051757812
 20
-313.3966419055148
 30
0.0
  0
VERTEX
  5
767
  8
__-1
  6
CONTINUOUS
 62
     7
 10
-1304.0
 20
-300.0
 30
0.0
  0
VERTEX
  5
768
  8
__-1
  6
CONTINUOUS
 62
     7
 10
-1254.003051757812
 20
-286.6033580944852
 30
0.0
  0
SEQEND
  5
7A6
  8
__-1
  6
CONTINUOUS
 62
     7
  0
POLYLINE
  5
18E
  8
__-1
  6
CONTINUOUS
 62
     7
 66
     1
 10
0.0
 20
0.0
 30
0.0
 70
   128
  0
VERTEX
  5
769
  8
__-1
  6
CONTINUOUS
 62
     7
 10
-1145.996948242187
 20
-286.6033580944852
 30
0.0
  0
VERTEX
  5
76A
  8
__-1
  6
CONTINUOUS
 62
     7
 10
-1096.0
 20
-300.0
 30
0.0
  0
VERTEX
  5
76B
  8
__-1
  6
CONTINUOUS
 62
     7
 10
-1145.996948242187
 20
-313.3966419055148
 30
0.0
  0
SEQEND
  5
7A7
  8
__-1
  6
CONTINUOUS
 62
     7
  0
TEXT
  5
193
  8
__-1
 62
     7
 10
-1516.145833333333
 20
-275.1527777777778
 30
0.0
 40
67.69612630208333
  1
208
 41
0.7
 11
-1516.145833333333
 21
-207.4566514756944
 31
0.0
 73
     3
  0
LINE
  5
194
  8
__-1
  6
CONTINUOUS
 62
     7
 10
-1176.0
 20
-139.0
 30
0.0
 11
-900.0
 21
-139.0
 31
0.0
  0
LINE
  5
195
  8
__-1
  6
CONTINUOUS
 62
     7
 10
-1072.0
 20
-83.99999999999989
 30
0.0
 11
-900.0
 21
-83.99999999999989
 31
0.0
  0
LINE
  5
196
  8
__-1
  6
CONTINUOUS
 62
     7
 10
-925.0
 20
-83.99999999999989
 30
0.0
 11
-925.0
 21
-139.0
 31
0.0
  0
LINE
  5
197
  8
__-1
  6
CONTINUOUS
 62
     7
 10
-925.0
 20
-139.0
 30
0.0
 11
-925.0
 21
-226.5
 31
0.0
  0
POLYLINE
  5
198
  8
__-1
  6
CONTINUOUS
 62
     7
 66
     1
 10
0.0
 20
0.0
 30
0.0
 70
   128
  0
VERTEX
  5
76C
  8
__-1
  6
CONTINUOUS
 62
     7
 10
-938.3966419055148
 20
-188.9969482421875
 30
0.0
  0
VERTEX
  5
76D
  8
__-1
  6
CONTINUOUS
 62
     7
 10
-925.0
 20
-139.0
 30
0.0
  0
VERTEX
  5
76E
  8
__-1
  6
CONTINUOUS
 62
     7
 10
-911.6033580944852
 20
-188.9969482421875
 30
0.0
  0
SEQEND
  5
7A8
  8
__-1
  6
CONTINUOUS
 62
     7
  0
LINE
  5
19D
  8
__-1
  6
CONTINUOUS
 62
     7
 10
-925.0
 20
-83.99999999999989
 30
0.0
 11
-925.0
 21
113.2222222222222
 31
0.0
  0
POLYLINE
  5
19E
  8
__-1
  6
CONTINUOUS
 62
     7
 66
     1
 10
0.0
 20
0.0
 30
0.0
 70
   128
  0
VERTEX
  5
76F
  8
__-1
  6
CONTINUOUS
 62
     7
 10
-911.6033580944852
 20
-34.00305175781239
 30
0.0
  0
VERTEX
  5
770
  8
__-1
  6
CONTINUOUS
 62
     7
 10
-925.0
 20
-83.99999999999989
 30
0.0
  0
VERTEX
  5
771
  8
__-1
  6
CONTINUOUS
 62
     7
 10
-938.3966419055148
 20
-34.00305175781239
 30
0.0
  0
SEQEND
  5
7A9
  8
__-1
  6
CONTINUOUS
 62
     7
  0
TEXT
  5
1A3
  8
__-1
 62
     7
 10
-949.8472222222221
 20
-63.16666666666666
 30
0.0
 40
67.69612630208333
  1
55.0
 50
90.0
 41
0.7
 11
-1017.543348524305
 21
-63.16666666666666
 31
0.0
 73
     3
  0
LINE
  5
1A4
  8
__-1
  6
CONTINUOUS
 62
     7
 10
-1224.0
 20
-139.0
 30
0.0
 11
-1450.0
 21
-139.0
 31
0.0
  0
LINE
  5
1A5
  8
__-1
  6
CONTINUOUS
 62
     7
 10
-1299.7537875
 20
139.0
 30
0.0
 11
-1450.0
 21
139.0
 31
0.0
  0
LINE
  5
1A6
  8
__-1
  6
CONTINUOUS
 62
     7
 10
-1425.0
 20
-139.0
 30
0.0
 11
-1425.0
 21
139.0
 31
0.0
  0
POLYLINE
  5
1A7
  8
__-1
  6
CONTINUOUS
 62
     7
 66
     1
 10
0.0
 20
0.0
 30
0.0
 70
   128
  0
VERTEX
  5
772
  8
__-1
  6
CONTINUOUS
 62
     7
 10
-1411.603358094485
 20
-89.0030517578125
 30
0.0
  0
VERTEX
  5
773
  8
__-1
  6
CONTINUOUS
 62
     7
 10
-1425.0
 20
-139.0
 30
0.0
  0
VERTEX
  5
774
  8
__-1
  6
CONTINUOUS
 62
     7
 10
-1438.396641905515
 20
-89.0030517578125
 30
0.0
  0
SEQEND
  5
7AA
  8
__-1
  6
CONTINUOUS
 62
     7
  0
POLYLINE
  5
1AC
  8
__-1
  6
CONTINUOUS
 62
     7
 66
     1
 10
0.0
 20
0.0
 30
0.0
 70
   128
  0
VERTEX
  5
775
  8
__-1
  6
CONTINUOUS
 62
     7
 10
-1438.396641905515
 20
89.0030517578125
 30
0.0
  0
VERTEX
  5
776
  8
__-1
  6
CONTINUOUS
 62
     7
 10
-1425.0
 20
139.0
 30
0.0
  0
VERTEX
  5
777
  8
__-1
  6
CONTINUOUS
 62
     7
 10
-1411.603358094485
 20
89.0030517578125
 30
0.0
  0
SEQEND
  5
7AB
  8
__-1
  6
CONTINUOUS
 62
     7
  0
TEXT
  5
1B1
  8
__-1
 62
     7
 10
-1449.847222222222
 20
-66.14583333333333
 30
0.0
 40
67.69612630208333
  1
278
 50
90.0
 41
0.7
 11
-1517.543348524305
 21
-66.14583333333333
 31
0.0
 73
     3
  0
LINE
  5
1B2
  8
__-1
  6
CONTINUOUS
 62
     7
 10
-1300.7157285
 20
139.0
 30
0.0
 11
-1450.0
 21
139.0
 31
0.0
  0
LINE
  5
1B3
  8
__-1
  6
CONTINUOUS
 62
     7
 10
-1307.617161838434
 20
145.9014333384335
 30
0.0
 11
-1450.0
 21
145.9014333384335
 31
0.0
  0
LINE
  5
1B4
  8
__-1
  6
CONTINUOUS
 62
     7
 10
-1425.0
 20
145.9014333384335
 30
0.0
 11
-1425.0
 21
139.0
 31
0.0
  0
LINE
  5
1B5
  8
__-1
  6
CONTINUOUS
 62
     7
 10
-1425.0
 20
139.0
 30
0.0
 11
-1425.0
 21
51.5
 31
0.0
  0
POLYLINE
  5
1B6
  8
__-1
  6
CONTINUOUS
 62
     7
 66
     1
 10
0.0
 20
0.0
 30
0.0
 70
   128
  0
VERTEX
  5
778
  8
__-1
  6
CONTINUOUS
 62
     7
 10
-1438.396641905515
 20
89.0030517578125
 30
0.0
  0
VERTEX
  5
779
  8
__-1
  6
CONTINUOUS
 62
     7
 10
-1425.0
 20
139.0
 30
0.0
  0
VERTEX
  5
77A
  8
__-1
  6
CONTINUOUS
 62
     7
 10
-1411.603358094485
 20
89.0030517578125
 30
0.0
  0
SEQEND
  5
7AC
  8
__-1
  6
CONTINUOUS
 62
     7
  0
LINE
  5
1BB
  8
__-1
  6
CONTINUOUS
 62
     7
 10
-1425.0
 20
145.9014333384335
 30
0.0
 11
-1425.0
 21
316.1458333333333
 31
0.0
  0
POLYLINE
  5
1BC
  8
__-1
  6
CONTINUOUS
 62
     7
 66
     1
 10
0.0
 20
0.0
 30
0.0
 70
   128
  0
VERTEX
  5
77B
  8
__-1
  6
CONTINUOUS
 62
     7
 10
-1411.603358094485
 20
195.898381580621
 30
0.0
  0
VERTEX
  5
77C
  8
__-1
  6
CONTINUOUS
 62
     7
 10
-1425.0
 20
145.9014333384335
 30
0.0
  0
VERTEX
  5
77D
  8
__-1
  6
CONTINUOUS
 62
     7
 10
-1438.396641905515
 20
195.898381580621
 30
0.0
  0
SEQEND
  5
7AD
  8
__-1
  6
CONTINUOUS
 62
     7
  0
TEXT
  5
1C1
  8
__-1
 62
     7
 10
-1449.847222222222
 20
183.8541666666667
 30
0.0
 40
67.69612630208333
  1
6.9
 50
90.0
 41
0.7
 11
-1517.543348524305
 21
183.8541666666667
 31
0.0
 73
     3
  0
TEXT
  5
1C2
  8
__
 62
     7
 10
-1383.854166666667
 20
-221.5305555555555
 30
0.0
 40
47.38728841145834
  1
※
 41
0.7
 11
-1383.854166666667
 21
-174.1432671440972
 31
0.0
 73
     3
  0
LINE
  5
1C3
  8
__-1
  6
CONTINUOUS
 62
     7
 10
-225.271459
 20
-565.0000000000001
 30
0.0
 11
-100.0
 21
-565.0000000000001
 31
0.0
  0
LINE
  5
1C4
  8
__-1
  6
CONTINUOUS
 62
     7
 10
-370.0
 20
-609.0000003149821
 30
0.0
 11
-100.0
 21
-609.0000003149821
 31
0.0
  0
LINE
  5
1C5
  8
__-1
  6
CONTINUOUS
 62
     7
 10
-125.0
 20
-609.0000003149821
 30
0.0
 11
-125.0
 21
-565.0000000000001
 31
0.0
  0
LINE
  5
1C6
  8
__-1
  6
CONTINUOUS
 62
     7
 10
-125.0
 20
-565.0000000000001
 30
0.0
 11
-125.0
 21
-351.5277777777777
 31
0.0
  0
POLYLINE
  5
1C7
  8
__-1
  6
CONTINUOUS
 62
     7
 66
     1
 10
0.0
 20
0.0
 30
0.0
 70
   128
  0
VERTEX
  5
77E
  8
__-1
  6
CONTINUOUS
 62
     7
 10
-111.6033580944852
 20
-515.0030517578126
 30
0.0
  0
VERTEX
  5
77F
  8
__-1
  6
CONTINUOUS
 62
     7
 10
-125.0
 20
-565.0000000000001
 30
0.0
  0
VERTEX
  5
780
  8
__-1
  6
CONTINUOUS
 62
     7
 10
-138.3966419055148
 20
-515.0030517578126
 30
0.0
  0
SEQEND
  5
7AE
  8
__-1
  6
CONTINUOUS
 62
     7
  0
LINE
  5
1CC
  8
__-1
  6
CONTINUOUS
 62
     7
 10
-125.0
 20
-609.0000003149821
 30
0.0
 11
-125.0
 21
-696.5000003149821
 31
0.0
  0
POLYLINE
  5
1CD
  8
__-1
  6
CONTINUOUS
 62
     7
 66
     1
 10
0.0
 20
0.0
 30
0.0
 70
   128
  0
VERTEX
  5
781
  8
__-1
  6
CONTINUOUS
 62
     7
 10
-138.3966419055148
 20
-658.9969485571696
 30
0.0
  0
VERTEX
  5
782
  8
__-1
  6
CONTINUOUS
 62
     7
 10
-125.0
 20
-609.0000003149821
 30
0.0
  0
VERTEX
  5
783
  8
__-1
  6
CONTINUOUS
 62
     7
 10
-111.6033580944852
 20
-658.9969485571696
 30
0.0
  0
SEQEND
  5
7AF
  8
__-1
  6
CONTINUOUS
 62
     7
  0
TEXT
  5
1D2
  8
__-1
 62
     7
 10
-149.8472222222222
 20
-527.9166666666666
 30
0.0
 40
67.69612630208333
  1
44.0
 50
90.0
 41
0.7
 11
-217.5433485243056
 21
-527.9166666666666
 31
0.0
 73
     3
  0
LINE
  5
1D3
  8
__-1
  6
CONTINUOUS
 62
     7
 10
-370.0
 20
-609.0000003149821
 30
0.0
 11
-100.0
 21
-609.0000003149821
 31
0.0
  0
LINE
  5
1D4
  8
__-1
  6
CONTINUOUS
 62
     7
 10
-369.9774830000001
 20
-986.0000003617091
 30
0.0
 11
-100.0
 21
-986.0000003617091
 31
0.0
  0
LINE
  5
1D5
  8
__-1
  6
CONTINUOUS
 62
     7
 10
-125.0
 20
-609.0000003149821
 30
0.0
 11
-125.0
 21
-986.0000003617091
 31
0.0
  0
POLYLINE
  5
1D6
  8
__-1
  6
CONTINUOUS
 62
     7
 66
     1
 10
0.0
 20
0.0
 30
0.0
 70
   128
  0
VERTEX
  5
784
  8
__-1
  6
CONTINUOUS
 62
     7
 10
-138.3966419055148
 20
-658.9969485571696
 30
0.0
  0
VERTEX
  5
785
  8
__-1
  6
CONTINUOUS
 62
     7
 10
-125.0
 20
-609.0000003149821
 30
0.0
  0
VERTEX
  5
786
  8
__-1
  6
CONTINUOUS
 62
     7
 10
-111.6033580944852
 20
-658.9969485571696
 30
0.0
  0
SEQEND
  5
7B0
  8
__-1
  6
CONTINUOUS
 62
     7
  0
POLYLINE
  5
1DB
  8
__-1
  6
CONTINUOUS
 62
     7
 66
     1
 10
0.0
 20
0.0
 30
0.0
 70
   128
  0
VERTEX
  5
787
  8
__-1
  6
CONTINUOUS
 62
     7
 10
-111.6033580944852
 20
-936.0030521195216
 30
0.0
  0
VERTEX
  5
788
  8
__-1
  6
CONTINUOUS
 62
     7
 10
-125.0
 20
-986.0000003617091
 30
0.0
  0
VERTEX
  5
789
  8
__-1
  6
CONTINUOUS
 62
     7
 10
-138.3966419055148
 20
-936.0030521195216
 30
0.0
  0
SEQEND
  5
7B1
  8
__-1
  6
CONTINUOUS
 62
     7
  0
TEXT
  5
1E0
  8
__-1
 62
     7
 10
-149.8472222222222
 20
-863.6458336716789
 30
0.0
 40
67.69612630208333
  1
377
 50
90.0
 41
0.7
 11
-217.5433485243056
 21
-863.6458336716789
 31
0.0
 73
     3
  0
TEXT
  5
1E1
  8
__
 62
     7
 10
166.66625
 20
-2487.722579507562
 30
0.0
 40
67.69595706176757
  1
※ センター振り分け
 41
0.7
 11
166.66625
 21
-2420.026622445795
 31
0.0
 73
     3
  0
LINE
  5
1E2
  8
__-1
  6
CONTINUOUS
 62
     7
 10
-1091.509162006536
 20
-92.93489642449572
 30
0.0
 11
-1000.0
 21
-275.0
 31
0.0
  0
POLYLINE
  5
1E3
  8
__-1
  6
CONTINUOUS
 62
     7
 66
     1
 10
0.0
 20
0.0
 30
0.0
 70
   128
  0
VERTEX
  5
78A
  8
__-1
  6
CONTINUOUS
 62
     7
 10
-1080.747517828642
 20
-143.5644516513093
 30
0.0
  0
VERTEX
  5
78B
  8
__-1
  6
CONTINUOUS
 62
     7
 10
-1091.509162006536
 20
-92.93489642449572
 30
0.0
  0
VERTEX
  5
78C
  8
__-1
  6
CONTINUOUS
 62
     7
 10
-1056.874527148584
 20
-131.4005553442765
 30
0.0
  0
SEQEND
  5
7B2
  8
__-1
  6
CONTINUOUS
 62
     7
  0
LINE
  5
1E8
  8
__-1
  6
CONTINUOUS
 62
     7
 10
-1000.0
 20
-275.0
 30
0.0
 11
-950.0
 21
-275.0
 31
0.0
  0
TEXT
  5
1E9
  8
__-1
 62
     7
 10
-950.0
 20
-306.75
 30
0.0
 40
67.69612630208333
  1
M10(4ヵ所)
 41
0.7
 11
-950.0
 21
-239.0538736979167
 31
0.0
 73
     3
  0
LINE
  5
1EA
  8
__-1
  6
CONTINUOUS
 62
     7
 10
-392.9064151881346
 20
-993.0710681735746
 30
0.0
 11
-285.9774833617092
 21
-1100.0
 31
0.0
  0
POLYLINE
  5
1EB
  8
__-1
  6
CONTINUOUS
 62
     7
 66
     1
 10
0.0
 20
0.0
 30
0.0
 70
   128
  0
VERTEX
  5
78D
  8
__-1
  6
CONTINUOUS
 62
     7
 10
-367.0260903839683
 20
-1037.897105650776
 30
0.0
  0
VERTEX
  5
78E
  8
__-1
  6
CONTINUOUS
 62
     7
 10
-392.9064151881346
 20
-993.0710681735746
 30
0.0
  0
VERTEX
  5
78F
  8
__-1
  6
CONTINUOUS
 62
     7
 10
-348.0803777109336
 20
-1018.951392977741
 30
0.0
  0
SEQEND
  5
7B3
  8
__-1
  6
CONTINUOUS
 62
     7
  0
LINE
  5
1F0
  8
__-1
  6
CONTINUOUS
 62
     7
 10
-285.9774833617092
 20
-1100.0
 30
0.0
 11
-235.9774833617092
 21
-1100.0
 31
0.0
  0
TEXT
  5
1F1
  8
__-1
 62
     7
 10
-235.9774833617092
 20
-1131.75
 30
0.0
 40
67.69612630208333
  1
M10(2ヵ所)
 41
0.7
 11
-235.9774833617092
 21
-1064.053873697917
 31
0.0
 73
     3
  0
LINE
  5
1F2
  8
__-1
  6
CONTINUOUS
 62
     7
 10
-1170.0
 20
-1311.0
 30
0.0
 11
-908.1125046262034
 21
-1311.0
 31
0.0
  0
LINE
  5
1F3
  8
__-1
  6
CONTINUOUS
 62
     7
 10
-1066.0
 20
-1366.0
 30
0.0
 11
-908.1125046262034
 21
-1366.0
 31
0.0
  0
LINE
  5
1F4
  8
__-1
  6
CONTINUOUS
 62
     7
 10
-933.1125046262034
 20
-1366.0
 30
0.0
 11
-933.1125046262034
 21
-1311.0
 31
0.0
  0
LINE
  5
1F5
  8
__-1
  6
CONTINUOUS
 62
     7
 10
-933.1125046262034
 20
-1311.0
 30
0.0
 11
-933.1125046262034
 21
-1119.166666666667
 31
0.0
  0
POLYLINE
  5
1F6
  8
__-1
  6
CONTINUOUS
 62
     7
 66
     1
 10
0.0
 20
0.0
 30
0.0
 70
   128
  0
VERTEX
  5
790
  8
__-1
  6
CONTINUOUS
 62
     7
 10
-919.7158627206886
 20
-1261.003051757812
 30
0.0
  0
VERTEX
  5
791
  8
__-1
  6
CONTINUOUS
 62
     7
 10
-933.1125046262034
 20
-1311.0
 30
0.0
  0
VERTEX
  5
792
  8
__-1
  6
CONTINUOUS
 62
     7
 10
-946.5091465317182
 20
-1261.003051757812
 30
0.0
  0
SEQEND
  5
7B4
  8
__-1
  6
CONTINUOUS
 62
     7
  0
LINE
  5
1FB
  8
__-1
  6
CONTINUOUS
 62
     7
 10
-933.1125046262034
 20
-1366.0
 30
0.0
 11
-933.1125046262034
 21
-1453.5
 31
0.0
  0
POLYLINE
  5
1FC
  8
__-1
  6
CONTINUOUS
 62
     7
 66
     1
 10
0.0
 20
0.0
 30
0.0
 70
   128
  0
VERTEX
  5
793
  8
__-1
  6
CONTINUOUS
 62
     7
 10
-946.5091465317182
 20
-1415.996948242188
 30
0.0
  0
VERTEX
  5
794
  8
__-1
  6
CONTINUOUS
 62
     7
 10
-933.1125046262034
 20
-1366.0
 30
0.0
  0
VERTEX
  5
795
  8
__-1
  6
CONTINUOUS
 62
     7
 10
-919.7158627206886
 20
-1415.996948242188
 30
0.0
  0
SEQEND
  5
7B5
  8
__-1
  6
CONTINUOUS
 62
     7
  0
TEXT
  5
201
  8
__-1
 62
     7
 10
-957.9597268484255
 20
-1295.555555555556
 30
0.0
 40
67.69612630208333
  1
55.0
 50
90.0
 41
0.7
 11
-1025.655853150509
 21
-1295.555555555556
 31
0.0
 73
     3
  0
ARC
  5
202
  8
__
  6
CONTINUOUS
 62
     7
 10
-1304.0
 20
-1366.0
 30
0.0
 40
19.99999999999996
 50
267.7075571727652
 51
17.28009720613142
  0
LINE
  5
203
  8
__
  6
CONTINUOUS
 62
     7
 10
928.4607593954667
 20
-1491.512471363656
 30
0.0
 11
1695.107900479187
 21
-1491.512471363656
 31
0.0
  0
TEXT
  5
204
  8
__
 62
     7
 10
-2199.994499999999
 20
-2968.322083561354
 30
0.0
 40
47.3871699432373
  1
※仕様及び外観は予告なく変更されることがあります。 
 41
0.7
 11
-2199.994499999999
 21
-2920.934913618117
 31
0.0
 73
     3
  0
TEXT
  5
205
  8
__
 62
     7
 10
-2199.994499999999
 20
-3030.058040332187
 30
0.0
 40
47.3871699432373
  1
　また、同一商品でも若干の個体差があることがあります。ご了承ください。
 41
0.7
 11
-2199.994499999999
 21
-2982.67087038895
 31
0.0
 73
     3
  0
TEXT
  5
206
  8
__
 62
     7
 10
1249.996875
 20
-2705.707434544062
 30
0.0
 40
60.92636135559081
  1
JBL PROFESSIONAL
 41
0.7
 11
1249.996875
 21
-2644.781073188471
 31
0.0
 73
     3
  0
TEXT
  5
207
  8
__
 62
     7
 10
1080.439445929667
 20
-1450.36063739454
 30
0.0
 40
67.69595706176757
  1
背面パネル拡大図
 41
0.7
 72
     1
 11
1300.0
 21
-1416.512658863656
 31
0.0
 73
     2
  0
TEXT
  5
208
  8
__
 62
     7
 10
1249.996875
 20
-2890.131973481562
 30
0.0
 40
67.69595706176757
  1
PRX908
 41
0.7
 11
1249.996875
 21
-2822.436016419794
 31
0.0
 73
     3
  0
TEXT
  5
209
  8
__
 62
     7
 10
1041.6640625
 20
-2795.806084296875
 30
0.0
 40
47.3871699432373
  1
パワード2-Wayフルレンジ・スピーカー
 41
0.7
 11
1041.6640625
 21
-2748.418914353638
 31
0.0
 73
     3
  0
ARC
  5
20A
  8
__
  6
CONTINUOUS
 62
     7
 10
-1146.6469885
 20
-1036.0
 30
0.0
 40
1.0
 50
90.0
 51
180.0
  0
ARC
  5
20B
  8
__
  6
CONTINUOUS
 62
     7
 10
-1253.6469885
 20
-1036.0
 30
0.0
 40
1.0
 50
0.0
 51
90.0
  0
LINE
  5
20C
  8
__
  6
CONTINUOUS
 62
     7
 10
-1215.1469885
 20
-925.9999999999999
 30
0.0
 11
-1215.1469885
 21
-955.9999999999999
 31
0.0
  0
LINE
  5
20D
  8
__
  6
CONTINUOUS
 62
     7
 10
-1225.1469885
 20
-916.9999999999999
 30
0.0
 11
-1225.1469885
 21
-964.9999999999999
 31
0.0
  0
LINE
  5
20E
  8
__
  6
CONTINUOUS
 62
     7
 10
-1225.1469885
 20
-964.9999999999999
 30
0.0
 11
-1175.1469885
 21
-964.9999999999999
 31
0.0
  0
LINE
  5
20F
  8
__
  6
CONTINUOUS
 62
     7
 10
-1215.1469885
 20
-955.9999999999999
 30
0.0
 11
-1185.1469885
 21
-955.9999999999999
 31
0.0
  0
LINE
  5
210
  8
__
  6
CONTINUOUS
 62
     7
 10
-1185.1469885
 20
-925.9999999999999
 30
0.0
 11
-1185.1469885
 21
-955.9999999999999
 31
0.0
  0
LINE
  5
211
  8
__
  6
CONTINUOUS
 62
     7
 10
-1215.1469885
 20
-925.9999999999999
 30
0.0
 11
-1185.1469885
 21
-925.9999999999999
 31
0.0
  0
LINE
  5
212
  8
__
  6
CONTINUOUS
 62
     7
 10
-1225.1469885
 20
-916.9999999999999
 30
0.0
 11
-1175.1469885
 21
-916.9999999999999
 31
0.0
  0
LINE
  5
213
  8
__
  6
CONTINUOUS
 62
     7
 10
-1175.1469885
 20
-916.9999999999999
 30
0.0
 11
-1175.1469885
 21
-964.9999999999999
 31
0.0
  0
LINE
  5
214
  8
__
  6
CONTINUOUS
 62
     7
 10
-1209.1469885
 20
-1027.5
 30
0.0
 11
-1191.1469885
 21
-1027.5
 31
0.0
  0
LINE
  5
215
  8
__
  6
CONTINUOUS
 62
     7
 10
-1209.1469885
 20
-1022.5
 30
0.0
 11
-1191.1469885
 21
-1022.5
 31
0.0
  0
ARC
  5
216
  8
__
  6
CONTINUOUS
 62
     7
 10
-1191.1469885
 20
-1025.0
 30
0.0
 40
2.5
 50
270.0
 51
90.0
  0
ARC
  5
217
  8
__
  6
CONTINUOUS
 62
     7
 10
-1209.1469885
 20
-1025.0
 30
0.0
 40
2.500000000000114
 50
90.0
 51
270.0
  0
LINE
  5
218
  8
__
  6
CONTINUOUS
 62
     7
 10
-1350.1469885
 20
-582.5000000000001
 30
0.0
 11
-1050.1469885
 21
-582.5000000000001
 31
0.0
  0
LINE
  5
219
  8
__
  6
CONTINUOUS
 62
     7
 10
-1347.6469885
 20
-585.0000000000001
 30
0.0
 11
-1052.6469885
 21
-585.0000000000001
 31
0.0
  0
LINE
  5
21A
  8
__
  6
CONTINUOUS
 62
     7
 10
-1052.6469885
 20
-585.0000000000001
 30
0.0
 11
-1052.6469885
 21
-1015.0
 31
0.0
  0
LINE
  5
21B
  8
__
  6
CONTINUOUS
 62
     7
 10
-1347.6469885
 20
-1015.0
 30
0.0
 11
-1052.6469885
 21
-1015.0
 31
0.0
  0
LINE
  5
21C
  8
__
  6
CONTINUOUS
 62
     7
 10
-1347.6469885
 20
-585.0000000000001
 30
0.0
 11
-1347.6469885
 21
-1015.0
 31
0.0
  0
LINE
  5
21D
  8
__
  6
CONTINUOUS
 62
     7
 10
-1347.6469885
 20
-585.0000000000001
 30
0.0
 11
-1350.1469885
 21
-582.5000000000001
 31
0.0
  0
LINE
  5
21E
  8
__
  6
CONTINUOUS
 62
     7
 10
-1052.6469885
 20
-585.0000000000001
 30
0.0
 11
-1050.1469885
 21
-582.5000000000001
 31
0.0
  0
ARC
  5
21F
  8
__
  6
CONTINUOUS
 62
     7
 10
-1302.0176905
 20
-1013.592676
 30
0.0
 40
48.14986899999991
 50
184.6413159999998
 51
206.3976069999999
  0
ARC
  5
220
  8
__
  6
CONTINUOUS
 62
     7
 10
-1098.2762855
 20
-1013.592676
 30
0.0
 40
48.1498689999999
 50
333.6023930000001
 51
355.3586840000002
  0
LINE
  5
221
  8
__
  6
CONTINUOUS
 62
     7
 10
-1350.1469885
 20
-582.5000000000001
 30
0.0
 11
-1350.1469885
 21
-1017.5
 31
0.0
  0
LINE
  5
222
  8
__
  6
CONTINUOUS
 62
     7
 10
-1350.1469885
 20
-1017.5
 30
0.0
 11
-1050.1469885
 21
-1017.5
 31
0.0
  0
LINE
  5
223
  8
__
  6
CONTINUOUS
 62
     7
 10
-1050.1469885
 20
-582.5000000000001
 30
0.0
 11
-1050.1469885
 21
-1017.5
 31
0.0
  0
LINE
  5
224
  8
__
  6
CONTINUOUS
 62
     7
 10
-1052.6469885
 20
-1015.0
 30
0.0
 11
-1050.2843105
 21
-1017.488852
 31
0.0
  0
LINE
  5
225
  8
__
  6
CONTINUOUS
 62
     7
 10
-1347.6469885
 20
-1015.0
 30
0.0
 11
-1350.1469885
 21
-1017.5
 31
0.0
  0
LINE
  5
226
  8
__
  6
CONTINUOUS
 62
     7
 10
-1345.1469885
 20
-1035.0
 30
0.0
 11
-1055.1469885
 21
-1035.0
 31
0.0
  0
ARC
  5
227
  8
__
  6
CONTINUOUS
 62
     7
 10
-1355.4526165
 20
-596.9385073521212
 30
0.0
 40
3.0
 50
90.0
 51
180.0
  0
LINE
  5
228
  8
__
  6
CONTINUOUS
 62
     7
 10
-1358.4526165
 20
-596.9385073521212
 30
0.0
 11
-1358.4526165
 21
-613.2951309801394
 31
0.0
  0
LINE
  5
229
  8
__
  6
CONTINUOUS
 62
     7
 10
-1355.4526165
 20
-593.9385073521212
 30
0.0
 11
-1350.1469885
 21
-593.9385073521212
 31
0.0
  0
ARC
  5
22A
  8
__
  6
CONTINUOUS
 62
     7
 10
-1355.4526165
 20
-1002.995975558452
 30
0.0
 40
3.0
 50
180.0
 51
270.0
  0
ARC
  5
22B
  8
__
  6
CONTINUOUS
 62
     7
 10
-1355.4526165
 20
-990.7350315584522
 30
0.0
 40
3.0
 50
90.0
 51
180.0
  0
LINE
  5
22C
  8
__
  6
CONTINUOUS
 62
     7
 10
-1358.4526165
 20
-1002.995975558452
 30
0.0
 11
-1358.4526165
 21
-986.6706375584522
 31
0.0
  0
ARC
  5
22D
  8
__
  6
CONTINUOUS
 62
     7
 10
-1355.4526165
 20
-986.6706375584522
 30
0.0
 40
3.0
 50
90.0
 51
180.0
  0
LINE
  5
22E
  8
__
  6
CONTINUOUS
 62
     7
 10
-1355.4526165
 20
-1005.995975558452
 30
0.0
 11
-1350.1469885
 21
-1005.995975558452
 31
0.0
  0
LINE
  5
22F
  8
__
  6
CONTINUOUS
 62
     7
 10
-1355.4526165
 20
-987.7350315584522
 30
0.0
 11
-1350.1469885
 21
-987.7350315584522
 31
0.0
  0
LINE
  5
230
  8
__
  6
CONTINUOUS
 62
     7
 10
-1355.4526165
 20
-983.6706375584522
 30
0.0
 11
-1350.1469885
 21
-983.6706375584522
 31
0.0
  0
LINE
  5
231
  8
__
  6
CONTINUOUS
 62
     7
 10
-1332.4999995
 20
-1037.0
 30
0.0
 11
-1332.4999995
 21
-1035.0
 31
0.0
  0
ARC
  5
232
  8
__
  6
CONTINUOUS
 62
     7
 10
-1329.4999995
 20
-1037.0
 30
0.0
 40
3.0
 50
180.0
 51
270.0
  0
ARC
  5
233
  8
__
  6
CONTINUOUS
 62
     7
 10
-1320.4999995
 20
-1037.0
 30
0.0
 40
3.0
 50
270.0
 51
0.0
  0
LINE
  5
234
  8
__
  6
CONTINUOUS
 62
     7
 10
-1317.4999995
 20
-1035.0
 30
0.0
 11
-1317.4999995
 21
-1037.0
 31
0.0
  0
ARC
  5
235
  8
__
  6
CONTINUOUS
 62
     7
 10
-1273.0732445
 20
-1037.0
 30
0.0
 40
3.0
 50
270.0
 51
0.0
  0
LINE
  5
236
  8
__
  6
CONTINUOUS
 62
     7
 10
-1270.0732445
 20
-1037.0
 30
0.0
 11
-1270.0732445
 21
-1035.0
 31
0.0
  0
LINE
  5
237
  8
__
  6
CONTINUOUS
 62
     7
 10
-1252.6469885
 20
-1036.0
 30
0.0
 11
-1252.6469885
 21
-1037.0
 31
0.0
  0
ARC
  5
238
  8
__
  6
CONTINUOUS
 62
     7
 10
-1249.6469885
 20
-1037.0
 30
0.0
 40
3.0
 50
180.0
 51
270.0
  0
LINE
  5
239
  8
__
  6
CONTINUOUS
 62
     7
 10
-1147.6469885
 20
-1036.0
 30
0.0
 11
-1147.6469885
 21
-1037.0
 31
0.0
  0
ARC
  5
23A
  8
__
  6
CONTINUOUS
 62
     7
 10
-1150.6469885
 20
-1037.0
 30
0.0
 40
3.0
 50
270.0
 51
0.0
  0
LINE
  5
23B
  8
__
  6
CONTINUOUS
 62
     7
 10
-1082.4999995
 20
-1035.0
 30
0.0
 11
-1082.4999995
 21
-1037.0
 31
0.0
  0
ARC
  5
23C
  8
__
  6
CONTINUOUS
 62
     7
 10
-1079.4999995
 20
-1037.0
 30
0.0
 40
3.0
 50
180.0
 51
270.0
  0
ARC
  5
23D
  8
__
  6
CONTINUOUS
 62
     7
 10
-1070.4999995
 20
-1037.0
 30
0.0
 40
3.0
 50
270.0
 51
0.0
  0
LINE
  5
23E
  8
__
  6
CONTINUOUS
 62
     7
 10
-1067.4999995
 20
-1037.0
 30
0.0
 11
-1067.4999995
 21
-1035.0
 31
0.0
  0
ARC
  5
23F
  8
__
  6
CONTINUOUS
 62
     7
 10
-1127.2207315
 20
-1037.0
 30
0.0
 40
3.0
 50
180.0
 51
270.0
  0
LINE
  5
240
  8
__
  6
CONTINUOUS
 62
     7
 10
-1130.2207315
 20
-1037.0
 30
0.0
 11
-1130.2207315
 21
-1035.0
 31
0.0
  0
LINE
  5
241
  8
__
  6
CONTINUOUS
 62
     7
 10
-1307.6469885
 20
-585.0000000000001
 30
0.0
 11
-1307.6469885
 21
-1015.0
 31
0.0
  0
LINE
  5
242
  8
__
  6
CONTINUOUS
 62
     7
 10
-1092.6469885
 20
-585.0000000000001
 30
0.0
 11
-1092.6469885
 21
-1015.0
 31
0.0
  0
LINE
  5
243
  8
__
  6
CONTINUOUS
 62
     7
 10
-1247.6469885
 20
-598.0000000000001
 30
0.0
 11
-1152.6469885
 21
-598.0000000000001
 31
0.0
  0
LINE
  5
244
  8
__
  6
CONTINUOUS
 62
     7
 10
-1247.6469885
 20
-1002.0
 30
0.0
 11
-1152.6469885
 21
-1002.0
 31
0.0
  0
LINE
  5
245
  8
__
  6
CONTINUOUS
 62
     7
 10
-1152.6469885
 20
-598.0000000000001
 30
0.0
 11
-1132.6469885
 21
-591.0000000000001
 31
0.0
  0
LINE
  5
246
  8
__
  6
CONTINUOUS
 62
     7
 10
-1152.6469885
 20
-1002.0
 30
0.0
 11
-1132.6469885
 21
-1009.0
 31
0.0
  0
LINE
  5
247
  8
__
  6
CONTINUOUS
 62
     7
 10
-1132.6469885
 20
-591.0000000000001
 30
0.0
 11
-1052.6469885
 21
-591.0000000000001
 31
0.0
  0
LINE
  5
248
  8
__
  6
CONTINUOUS
 62
     7
 10
-1132.6469885
 20
-1009.0
 30
0.0
 11
-1052.6469885
 21
-1009.0
 31
0.0
  0
LINE
  5
249
  8
__
  6
CONTINUOUS
 62
     7
 10
-1347.6469885
 20
-591.0000000000001
 30
0.0
 11
-1267.6469885
 21
-591.0000000000001
 31
0.0
  0
LINE
  5
24A
  8
__
  6
CONTINUOUS
 62
     7
 10
-1347.6469885
 20
-1009.0
 30
0.0
 11
-1267.6469885
 21
-1009.0
 31
0.0
  0
LINE
  5
24B
  8
__
  6
CONTINUOUS
 62
     7
 10
-1247.6469885
 20
-598.0000000000001
 30
0.0
 11
-1267.6469885
 21
-591.0000000000001
 31
0.0
  0
LINE
  5
24C
  8
__
  6
CONTINUOUS
 62
     7
 10
-1247.6469885
 20
-1002.0
 30
0.0
 11
-1267.6469885
 21
-1009.0
 31
0.0
  0
LINE
  5
24D
  8
__
  6
CONTINUOUS
 62
     7
 10
-1329.4999995
 20
-1040.0
 30
0.0
 11
-1070.4999995
 21
-1040.0
 31
0.0
  0
ARC
  5
24E
  8
__
  6
CONTINUOUS
 62
     7
 10
-1044.8473835
 20
-596.9385073521212
 30
0.0
 40
3.0
 50
0.0
 51
90.0
  0
LINE
  5
24F
  8
__
  6
CONTINUOUS
 62
     7
 10
-1041.8473835
 20
-596.9385073521212
 30
0.0
 11
-1041.8473835
 21
-613.2951309801394
 31
0.0
  0
LINE
  5
250
  8
__
  6
CONTINUOUS
 62
     7
 10
-1044.8473835
 20
-593.9385073521212
 30
0.0
 11
-1050.1530115
 21
-593.9385073521212
 31
0.0
  0
ARC
  5
251
  8
__
  6
CONTINUOUS
 62
     7
 10
-1044.8473835
 20
-1002.995975558452
 30
0.0
 40
3.0
 50
270.0
 51
0.0
  0
ARC
  5
252
  8
__
  6
CONTINUOUS
 62
     7
 10
-1044.8473835
 20
-990.7350315584522
 30
0.0
 40
3.0
 50
0.0
 51
90.0
  0
LINE
  5
253
  8
__
  6
CONTINUOUS
 62
     7
 10
-1041.8473835
 20
-1002.995975558452
 30
0.0
 11
-1041.8473835
 21
-986.6706375584522
 31
0.0
  0
ARC
  5
254
  8
__
  6
CONTINUOUS
 62
     7
 10
-1044.8473835
 20
-986.6706375584522
 30
0.0
 40
3.0
 50
0.0
 51
90.0
  0
LINE
  5
255
  8
__
  6
CONTINUOUS
 62
     7
 10
-1044.8473835
 20
-1005.995975558452
 30
0.0
 11
-1050.1530115
 21
-1005.995975558452
 31
0.0
  0
LINE
  5
256
  8
__
  6
CONTINUOUS
 62
     7
 10
-1044.8473835
 20
-987.7350315584522
 30
0.0
 11
-1050.1530115
 21
-987.7350315584522
 31
0.0
  0
LINE
  5
257
  8
__
  6
CONTINUOUS
 62
     7
 10
-1044.8473835
 20
-983.6706375584522
 30
0.0
 11
-1050.1530115
 21
-983.6706375584522
 31
0.0
  0
LINE
  5
258
  8
__
  6
CONTINUOUS
 62
     7
 10
-1350.0
 20
-1354.779673
 30
0.0
 11
-1349.9999995
 21
-1515.715728
 31
0.0
  0
LINE
  5
259
  8
__
  6
CONTINUOUS
 62
     7
 10
-1345.0
 20
-1354.779673
 30
0.0
 11
-1344.9999995
 21
-1515.715728
 31
0.0
  0
LINE
  5
25A
  8
__
  6
CONTINUOUS
 62
     7
 10
-1317.4999995
 20
-1512.002525
 30
0.0
 11
-1317.4999995
 21
-1430.110076
 31
0.0
  0
LINE
  5
25B
  8
__
  6
CONTINUOUS
 62
     7
 10
-1332.4999995
 20
-1513.659379
 30
0.0
 11
-1332.4999995
 21
-1430.110076
 31
0.0
  0
ARC
  5
25C
  8
__
  6
CONTINUOUS
 62
     7
 10
-1324.9999995
 20
-1430.110076
 30
0.0
 40
7.5
 50
0.0
 51
180.0
  0
ARC
  5
25D
  8
__
  6
CONTINUOUS
 62
     7
 10
-1074.9999995
 20
-1430.110076
 30
0.0
 40
7.5
 50
0.0
 51
180.0
  0
ARC
  5
25E
  8
__
  6
CONTINUOUS
 62
     7
 10
-1199.9999995
 20
-1422.5
 30
0.0
 40
42.5
 50
0.0
 51
180.0
  0
ARC
  5
25F
  8
__
  6
CONTINUOUS
 62
     7
 10
-1199.9999995
 20
-1477.5
 30
0.0
 40
42.5
 50
180.0
 51
0.0
  0
LINE
  5
260
  8
__
  6
CONTINUOUS
 62
     7
 10
-1157.4999995
 20
-1422.5
 30
0.0
 11
-1157.4999995
 21
-1477.5
 31
0.0
  0
LINE
  5
261
  8
__
  6
CONTINUOUS
 62
     7
 10
-1242.4999995
 20
-1422.5
 30
0.0
 11
-1242.4999995
 21
-1477.5
 31
0.0
  0
CIRCLE
  5
262
  8
__
  6
CONTINUOUS
 62
     7
 10
-1199.9999995
 20
-1422.75
 30
0.0
 40
21.25
  0
CIRCLE
  5
263
  8
__
  6
CONTINUOUS
 62
     7
 10
-1199.9999995
 20
-1477.25
 30
0.0
 40
21.25
  0
LINE
  5
264
  8
__
  6
CONTINUOUS
 62
     7
 10
-1309.999999997784
 20
-1390.979992013519
 30
0.0
 11
-1309.9999995
 21
-1510.524656000001
 31
0.0
  0
LINE
  5
265
  8
__
  6
CONTINUOUS
 62
     7
 10
-1350.0
 20
-95.220326
 30
0.0
 11
-1349.9999995
 21
65.71572900000001
 31
0.0
  0
LINE
  5
266
  8
__
  6
CONTINUOUS
 62
     7
 10
-1345.0
 20
-95.220326
 30
0.0
 11
-1344.9999995
 21
65.71572900000001
 31
0.0
  0
LINE
  5
267
  8
__
  6
CONTINUOUS
 62
     7
 10
-1337.5
 20
-95.220326
 30
0.0
 11
-1337.4999995
 21
65.71572900000001
 31
0.0
  0
ARC
  5
268
  8
__
  6
CONTINUOUS
 62
     7
 10
-1302.0176905
 20
-586.4073239999999
 30
0.0
 40
48.14986899999985
 50
153.6023930000003
 51
175.3586840000002
  0
ARC
  5
269
  8
__
  6
CONTINUOUS
 62
     7
 10
-1098.2762855
 20
-586.4073239999999
 30
0.0
 40
48.14986900000036
 50
4.641315999999814
 51
26.39760699999974
  0
LINE
  5
26A
  8
__
  6
CONTINUOUS
 62
     7
 10
-1345.1469885
 20
-565.0000000000001
 30
0.0
 11
-1055.1469885
 21
-565.0000000000001
 31
0.0
  0
ARC
  5
26B
  8
__
  6
CONTINUOUS
 62
     7
 10
-1329.9999995
 20
65.71572900000001
 30
0.0
 40
20.00000000000016
 50
135.0
 51
180.0
  0
LINE
  5
26C
  8
__
  6
CONTINUOUS
 62
     7
 10
-1344.1421355
 20
79.85786400000006
 30
0.0
 11
-1290.8578645
 21
133.1421359999999
 31
0.0
  0
LINE
  5
26D
  8
__
  6
CONTINUOUS
 62
     7
 10
-1055.8578645
 20
79.85786400000006
 30
0.0
 11
-1109.1421355
 21
133.1421359999999
 31
0.0
  0
ARC
  5
26E
  8
__
  6
CONTINUOUS
 62
     7
 10
-1069.9999995
 20
65.71572900000001
 30
0.0
 40
20.0
 50
0.0
 51
45.0
  0
ARC
  5
26F
  8
__
  6
CONTINUOUS
 62
     7
 10
-1329.9999995
 20
65.71572900000001
 30
0.0
 40
14.99999999999996
 50
135.0
 51
180.0
  0
LINE
  5
270
  8
__
  6
CONTINUOUS
 62
     7
 10
-1340.6066015
 20
76.32232999999997
 30
0.0
 11
-1287.3223305
 21
129.6066019999998
 31
0.0
  0
ARC
  5
271
  8
__
  6
CONTINUOUS
 62
     7
 10
-1276.7157285
 20
119.0
 30
0.0
 40
15.0
 50
90.0
 51
135.0
  0
LINE
  5
272
  8
__
  6
CONTINUOUS
 62
     7
 10
-1276.7157285
 20
134.0
 30
0.0
 11
-1123.2842715
 21
134.0
 31
0.0
  0
ARC
  5
273
  8
__
  6
CONTINUOUS
 62
     7
 10
-1123.2842715
 20
119.0
 30
0.0
 40
14.99999999999996
 50
45.0
 51
90.0
  0
LINE
  5
274
  8
__
  6
CONTINUOUS
 62
     7
 10
-1059.3933985
 20
76.32232999999997
 30
0.0
 11
-1112.6776695
 21
129.6066019999998
 31
0.0
  0
ARC
  5
275
  8
__
  6
CONTINUOUS
 62
     7
 10
-1069.9999995
 20
65.71572900000001
 30
0.0
 40
15.0
 50
0.0
 51
45.0
  0
ARC
  5
276
  8
__
  6
CONTINUOUS
 62
     7
 10
-1329.9999995
 20
65.71572900000001
 30
0.0
 40
7.49999999999998
 50
135.0
 51
180.0
  0
LINE
  5
277
  8
__
  6
CONTINUOUS
 62
     7
 10
-1335.3033005
 20
71.01902900000005
 30
0.0
 11
-1282.0190295
 21
124.3033009999999
 31
0.0
  0
ARC
  5
278
  8
__
  6
CONTINUOUS
 62
     7
 10
-1276.7157285
 20
119.0
 30
0.0
 40
7.5
 50
90.0
 51
135.0
  0
LINE
  5
279
  8
__
  6
CONTINUOUS
 62
     7
 10
-1276.7157285
 20
126.5
 30
0.0
 11
-1123.2842715
 21
126.5
 31
0.0
  0
ARC
  5
27A
  8
__
  6
CONTINUOUS
 62
     7
 10
-1123.2842715
 20
119.0
 30
0.0
 40
7.49999999999998
 50
45.0
 51
90.0
  0
LINE
  5
27B
  8
__
  6
CONTINUOUS
 62
     7
 10
-1064.6966985
 20
71.01902900000005
 30
0.0
 11
-1117.9809705
 21
124.3033009999999
 31
0.0
  0
ARC
  5
27C
  8
__
  6
CONTINUOUS
 62
     7
 10
-1069.9999995
 20
65.71572900000001
 30
0.0
 40
7.5
 50
0.0
 51
45.0
  0
LINE
  5
27D
  8
__
  6
CONTINUOUS
 62
     7
 10
-1276.7157285
 20
139.0
 30
0.0
 11
-1123.2842715
 21
139.0
 31
0.0
  0
ARC
  5
27E
  8
__
  6
CONTINUOUS
 62
     7
 10
-1276.7157285
 20
119.0
 30
0.0
 40
20.0
 50
90.0
 51
135.0
  0
ARC
  5
27F
  8
__
  6
CONTINUOUS
 62
     7
 10
-1123.2842715
 20
119.0
 30
0.0
 40
19.99999999999984
 50
45.00000000000092
 51
90.0
  0
ARC
  5
280
  8
__
  6
CONTINUOUS
 62
     7
 10
-1283.9124275
 20
142.9159989999998
 30
0.0
 40
2.999999999999864
 50
45.0
 51
135.0
  0
LINE
  5
281
  8
__
  6
CONTINUOUS
 62
     7
 10
-1281.7911075
 20
145.037319
 30
0.0
 11
-1275.7537875
 21
139.0
 31
0.0
  0
LINE
  5
282
  8
__
  6
CONTINUOUS
 62
     7
 10
-1356.0373195
 20
75.03374799999983
 30
0.0
 11
-1286.0337485
 21
145.037319
 31
0.0
  0
ARC
  5
283
  8
__
  6
CONTINUOUS
 62
     7
 10
-1353.9159985
 20
72.91242799999964
 30
0.0
 40
3.000000000000185
 50
135.0000000000062
 51
224.9999999999939
  0
LINE
  5
284
  8
__
  6
CONTINUOUS
 62
     7
 10
-1356.0373195
 20
70.79110700000001
 30
0.0
 11
-1349.9999995
 21
64.75378799999999
 31
0.0
  0
LINE
  5
285
  8
__
  6
CONTINUOUS
 62
     7
 10
-1118.2088925
 20
145.037319
 30
0.0
 11
-1124.2462115
 21
139.0
 31
0.0
  0
ARC
  5
286
  8
__
  6
CONTINUOUS
 62
     7
 10
-1046.0840005
 20
72.91242799999964
 30
0.0
 40
3.000000000000185
 50
315.0000000000061
 51
44.9999999999938
  0
LINE
  5
287
  8
__
  6
CONTINUOUS
 62
     7
 10
-1043.9626805
 20
70.79110700000001
 30
0.0
 11
-1049.9999995
 21
64.75378799999999
 31
0.0
  0
ARC
  5
288
  8
__
  6
CONTINUOUS
 62
     7
 10
-1116.0875715
 20
142.9159989999998
 30
0.0
 40
2.999999999999864
 50
45.0
 51
135.0
  0
LINE
  5
289
  8
__
  6
CONTINUOUS
 62
     7
 10
-1113.9662515
 20
145.037319
 30
0.0
 11
-1043.9626805
 21
75.03374799999983
 31
0.0
  0
ARC
  5
28A
  8
__
  6
CONTINUOUS
 62
     7
 10
-1330.0
 20
-95.220326
 30
0.0
 40
20.0
 50
180.0
 51
222.5104469999997
  0
LINE
  5
28B
  8
__
  6
CONTINUOUS
 62
     7
 10
-1327.76777
 20
-127.2533420000001
 30
0.0
 11
-1344.743083
 21
-108.7348190000001
 31
0.0
  0
ARC
  5
28C
  8
__
  6
CONTINUOUS
 62
     7
 10
-1313.024688
 20
-113.738849
 30
0.0
 40
19.99999999999983
 50
222.5104470000006
 51
265.1008029999995
  0
ARC
  5
28D
  8
__
  6
CONTINUOUS
 62
     7
 10
-1070.0
 20
-95.220326
 30
0.0
 40
20.00000000000017
 50
317.4895530000003
 51
0.0
  0
LINE
  5
28E
  8
__
  6
CONTINUOUS
 62
     7
 10
-1072.23223
 20
-127.2533420000001
 30
0.0
 11
-1055.256916999999
 21
-108.7348190000001
 31
0.0
  0
ARC
  5
28F
  8
__
  6
CONTINUOUS
 62
     7
 10
-1086.975313
 20
-113.738849
 30
0.0
 40
19.99999999999986
 50
274.8991969999993
 51
317.4895529999994
  0
ARC
  5
290
  8
__
  6
CONTINUOUS
 62
     7
 10
-1330.0
 20
-95.220326
 30
0.0
 40
15.0
 50
180.0
 51
222.5104469999996
  0
ARC
  5
291
  8
__
  6
CONTINUOUS
 62
     7
 10
-1070.0
 20
-95.220326
 30
0.0
 40
15.00000000000009
 50
317.4895530000005
 51
0.0
  0
LINE
  5
292
  8
__
  6
CONTINUOUS
 62
     7
 10
-1075.918001
 20
-123.874719
 30
0.0
 11
-1058.942688
 21
-105.3561960000001
 31
0.0
  0
LINE
  5
293
  8
__
  6
CONTINUOUS
 62
     7
 10
-1323.993626
 20
-123.9711270000001
 30
0.0
 11
-1341.057312
 21
-105.3561960000001
 31
0.0
  0
ARC
  5
294
  8
__
  6
CONTINUOUS
 62
     7
 10
-1087.063687
 20
-113.8352570000001
 30
0.0
 40
15.00000000000008
 50
274.6932769999985
 51
317.4895530000005
  0
ARC
  5
295
  8
__
  6
CONTINUOUS
 62
     7
 10
-1200.0
 20
1119.520833
 30
0.0
 40
1253.520833
 50
264.748156
 51
275.251844
  0
ARC
  5
296
  8
__
  6
CONTINUOUS
 62
     7
 10
-1200.0
 20
1127.020833
 30
0.0
 40
1253.520833
 50
264.748156
 51
275.251844
  0
ARC
  5
297
  8
__
  6
CONTINUOUS
 62
     7
 10
-1070.0
 20
-95.220326
 30
0.0
 40
7.500000000000197
 50
317.4895529999992
 51
0.0
  0
LINE
  5
298
  8
__
  6
CONTINUOUS
 62
     7
 10
-1081.446657
 20
-118.806784
 30
0.0
 11
-1064.471344
 21
-100.288261
 31
0.0
  0
ARC
  5
299
  8
__
  6
CONTINUOUS
 62
     7
 10
-1330.0
 20
-95.220326
 30
0.0
 40
7.5
 50
180.0
 51
222.5104470000008
  0
LINE
  5
29A
  8
__
  6
CONTINUOUS
 62
     7
 10
-1318.438631
 20
-118.931925
 30
0.0
 11
-1335.528656
 21
-100.288261
 31
0.0
  0
ARC
  5
29B
  8
__
  6
CONTINUOUS
 62
     7
 10
-1312.936313
 20
-113.8352570000001
 30
0.0
 40
14.99999999999975
 50
222.5104470000007
 51
265.3067230000015
  0
ARC
  5
29C
  8
__
  6
CONTINUOUS
 62
     7
 10
-1312.909975
 20
-113.8639910000001
 30
0.0
 40
7.500000000000044
 50
222.5104469999995
 51
265.2438410000003
  0
ARC
  5
29D
  8
__
  6
CONTINUOUS
 62
     7
 10
-1087.090026
 20
-113.8639910000001
 30
0.0
 40
7.500000000000046
 50
274.7561589999997
 51
317.489552999998
  0
ARC
  5
29E
  8
__
  6
CONTINUOUS
 62
     7
 10
-1200.0
 20
1114.520833
 30
0.0
 40
1253.520833
 50
264.748156
 51
275.251844
  0
CIRCLE
  5
29F
  8
__
  6
CONTINUOUS
 62
     7
 10
-1304.0
 20
-83.99999999999989
 30
0.0
 40
10.0
  0
ARC
  5
2A0
  8
__
  6
CONTINUOUS
 62
     7
 10
-1330.0
 20
-1354.779673
 30
0.0
 40
20.00000000000001
 50
137.4895530000008
 51
180.0
  0
LINE
  5
2A1
  8
__
  6
CONTINUOUS
 62
     7
 10
-1327.76777
 20
-1322.746658
 30
0.0
 11
-1344.743083
 21
-1341.265181
 31
0.0
  0
ARC
  5
2A2
  8
__
  6
CONTINUOUS
 62
     7
 10
-1313.024688
 20
-1336.26115
 30
0.0
 40
20.00000000000013
 50
94.89919700000053
 51
137.489552999999
  0
ARC
  5
2A3
  8
__
  6
CONTINUOUS
 62
     7
 10
-1070.0
 20
-1354.779673
 30
0.0
 40
20.0
 50
0.0
 51
42.5104469999992
  0
LINE
  5
2A4
  8
__
  6
CONTINUOUS
 62
     7
 10
-1072.23223
 20
-1322.746658
 30
0.0
 11
-1055.256917
 21
-1341.265181
 31
0.0
  0
ARC
  5
2A5
  8
__
  6
CONTINUOUS
 62
     7
 10
-1086.975313
 20
-1336.26115
 30
0.0
 40
19.99999999999999
 50
42.51044700000105
 51
85.10080300000077
  0
ARC
  5
2A6
  8
__
  6
CONTINUOUS
 62
     7
 10
-1330.0
 20
-1354.779673
 30
0.0
 40
15.00000000000009
 50
137.4895530000005
 51
180.0
  0
ARC
  5
2A7
  8
__
  6
CONTINUOUS
 62
     7
 10
-1070.0
 20
-1354.779673
 30
0.0
 40
15.0
 50
0.0
 51
42.51044699999949
  0
LINE
  5
2A8
  8
__
  6
CONTINUOUS
 62
     7
 10
-1075.918001
 20
-1326.125281
 30
0.0
 11
-1058.942688
 21
-1344.643804
 31
0.0
  0
LINE
  5
2A9
  8
__
  6
CONTINUOUS
 62
     7
 10
-1323.993626
 20
-1326.028873
 30
0.0
 11
-1341.057312
 21
-1344.643804
 31
0.0
  0
ARC
  5
2AA
  8
__
  6
CONTINUOUS
 62
     7
 10
-1087.063687
 20
-1336.164742
 30
0.0
 40
14.99999999999978
 50
42.51044699999825
 51
85.30672300000136
  0
ARC
  5
2AB
  8
__
  6
CONTINUOUS
 62
     7
 10
-1312.936313
 20
-1336.164742
 30
0.0
 40
14.99999999999962
 50
94.69327699999863
 51
137.4895530000006
  0
ARC
  5
2AC
  8
__
  6
CONTINUOUS
 62
     7
 10
-1200.0
 20
-2564.520833
 30
0.0
 40
1253.520833
 50
84.748156
 51
95.25184399999999
  0
ARC
  5
2AD
  8
__
  6
CONTINUOUS
 62
     7
 10
-1200.0
 20
-2569.520833
 30
0.0
 40
1253.520833
 50
84.748156
 51
95.25184399999999
  0
ARC
  5
2AE
  8
__
  6
CONTINUOUS
 62
     7
 10
-1244.696047
 20
-1331.797103
 30
0.0
 40
7.499999999999712
 50
94.11138300000317
 51
274.0624880000003
  0
ARC
  5
2AF
  8
__
  6
CONTINUOUS
 62
     7
 10
-1155.303954
 20
-1331.797103
 30
0.0
 40
7.500000000000471
 50
265.9375119999997
 51
85.88861700000032
  0
ARC
  5
2B0
  8
__
  6
CONTINUOUS
 62
     7
 10
-1200.0
 20
-2592.020833
 30
0.0
 40
1253.520833
 50
87.98090700000002
 51
92.019093
  0
ARC
  5
2B1
  8
__
  6
CONTINUOUS
 62
     7
 10
-1200.0
 20
-2577.020833
 30
0.0
 40
1253.520833
 50
87.932012
 51
92.067988
  0
ARC
  5
2B2
  8
__
  6
CONTINUOUS
 62
     7
 10
-1329.9999995
 20
-1515.715728
 30
0.0
 40
20.0
 50
180.0
 51
225.0
  0
LINE
  5
2B3
  8
__
  6
CONTINUOUS
 62
     7
 10
-1344.1421355
 20
-1529.857864
 30
0.0
 11
-1290.8578645
 21
-1583.142135
 31
0.0
  0
LINE
  5
2B4
  8
__
  6
CONTINUOUS
 62
     7
 10
-1055.8578645
 20
-1529.857864
 30
0.0
 11
-1109.1421355
 21
-1583.142135
 31
0.0
  0
ARC
  5
2B5
  8
__
  6
CONTINUOUS
 62
     7
 10
-1069.9999995
 20
-1515.715728
 30
0.0
 40
20.00000000000016
 50
315.0
 51
0.0
  0
ARC
  5
2B6
  8
__
  6
CONTINUOUS
 62
     7
 10
-1329.9999995
 20
-1515.715728
 30
0.0
 40
15.0
 50
180.0
 51
225.0
  0
LINE
  5
2B7
  8
__
  6
CONTINUOUS
 62
     7
 10
-1340.6066015
 20
-1526.32233
 30
0.0
 11
-1287.3223305
 21
-1579.606601
 31
0.0
  0
ARC
  5
2B8
  8
__
  6
CONTINUOUS
 62
     7
 10
-1276.7157285
 20
-1569.0
 30
0.0
 40
14.99999999999996
 50
225.0
 51
270.0
  0
ARC
  5
2B9
  8
__
  6
CONTINUOUS
 62
     7
 10
-1123.2842715
 20
-1569.0
 30
0.0
 40
15.0
 50
270.0
 51
315.0
  0
LINE
  5
2BA
  8
__
  6
CONTINUOUS
 62
     7
 10
-1059.3933985
 20
-1526.32233
 30
0.0
 11
-1112.6776695
 21
-1579.606601
 31
0.0
  0
ARC
  5
2BB
  8
__
  6
CONTINUOUS
 62
     7
 10
-1069.9999995
 20
-1515.715728
 30
0.0
 40
14.99999999999996
 50
315.0
 51
0.0
  0
LINE
  5
2BC
  8
__
  6
CONTINUOUS
 62
     7
 10
-1276.7157285
 20
-1589.0
 30
0.0
 11
-1123.2842715
 21
-1589.0
 31
0.0
  0
ARC
  5
2BD
  8
__
  6
CONTINUOUS
 62
     7
 10
-1276.7157285
 20
-1569.0
 30
0.0
 40
20.00000000000016
 50
225.0
 51
270.0
  0
ARC
  5
2BE
  8
__
  6
CONTINUOUS
 62
     7
 10
-1123.2842715
 20
-1569.0
 30
0.0
 40
20.0
 50
270.0
 51
314.9999999999991
  0
LINE
  5
2BF
  8
__
  6
CONTINUOUS
 62
     7
 10
-1265.1177485
 20
-1584.0
 30
0.0
 11
-1134.8822505
 21
-1584.0
 31
0.0
  0
ARC
  5
2C0
  8
__
  6
CONTINUOUS
 62
     7
 10
-1272.3603895
 20
-1544.0
 30
0.0
 40
5.000000000000201
 50
225.0
 51
270.0
  0
ARC
  5
2C1
  8
__
  6
CONTINUOUS
 62
     7
 10
-1277.5997695
 20
-1564.580425
 30
0.0
 40
7.499999999999926
 50
224.8726969999989
 51
44.99998400000064
  0
ARC
  5
2C2
  8
__
  6
CONTINUOUS
 62
     7
 10
-1122.4002305
 20
-1564.580425
 30
0.0
 40
7.499999999999951
 50
135.0000159999994
 51
315.1273030000011
  0
LINE
  5
2C3
  8
__
  6
CONTINUOUS
 62
     7
 10
-1316.0355335
 20
-1515.538059
 30
0.0
 11
-1272.2964665
 21
-1559.277126
 31
0.0
  0
LINE
  5
2C4
  8
__
  6
CONTINUOUS
 62
     7
 10
-1083.9644655
 20
-1515.538059
 30
0.0
 11
-1127.7035325
 21
-1559.277126
 31
0.0
  0
LINE
  5
2C5
  8
__
  6
CONTINUOUS
 62
     7
 10
-1327.8137085
 20
-1524.973088
 30
0.0
 11
-1282.9148535
 21
-1569.871943
 31
0.0
  0
LINE
  5
2C6
  8
__
  6
CONTINUOUS
 62
     7
 10
-1072.1862915
 20
-1524.973088
 30
0.0
 11
-1117.0851465
 21
-1569.871943
 31
0.0
  0
ARC
  5
2C7
  8
__
  6
CONTINUOUS
 62
     7
 10
-1316.4999995
 20
-1513.659379
 30
0.0
 40
16.0
 50
180.0
 51
224.9999999999989
  0
ARC
  5
2C8
  8
__
  6
CONTINUOUS
 62
     7
 10
-1083.4999995
 20
-1513.659379
 30
0.0
 40
15.99999999999981
 50
315.0000000000013
 51
0.0
  0
ARC
  5
2C9
  8
__
  6
CONTINUOUS
 62
     7
 10
-1312.4999995
 20
-1512.002525
 30
0.0
 40
5.0
 50
180.0
 51
225.0
  0
ARC
  5
2CA
  8
__
  6
CONTINUOUS
 62
     7
 10
-1087.4999995
 20
-1512.002525
 30
0.0
 40
5.000000000000201
 50
315.0
 51
0.0
  0
LINE
  5
2CB
  8
__
  6
CONTINUOUS
 62
     7
 10
-1309.535533500001
 20
-1513.895923
 30
0.0
 11
-1275.8959235
 21
-1547.535533
 31
0.0
  0
ARC
  5
2CC
  8
__
  6
CONTINUOUS
 62
     7
 10
-1304.9999995
 20
-1510.524656000001
 30
0.0
 40
5.0
 50
180.0
 51
224.9999999999963
  0
LINE
  5
2CD
  8
__
  6
CONTINUOUS
 62
     7
 10
-1272.3603895
 20
-1549.0
 30
0.0
 11
-1127.6396105
 21
-1549.0
 31
0.0
  0
LINE
  5
2CE
  8
__
  6
CONTINUOUS
 62
     7
 10
-1276.7157285
 20
-1584.0
 30
0.0
 11
-1123.2842715
 21
-1584.0
 31
0.0
  0
LINE
  5
2CF
  8
__
  6
CONTINUOUS
 62
     7
 10
-1043.9626805
 20
-1520.791107
 30
0.0
 11
-1049.9999995
 21
-1514.753788
 31
0.0
  0
ARC
  5
2D0
  8
__
  6
CONTINUOUS
 62
     7
 10
-1046.0840005
 20
-1522.912427
 30
0.0
 40
3.000000000000185
 50
315.0000000000061
 51
45.0
  0
LINE
  5
2D1
  8
__
  6
CONTINUOUS
 62
     7
 10
-1118.2088925
 20
-1595.037319
 30
0.0
 11
-1124.2462115
 21
-1589.0
 31
0.0
  0
ARC
  5
2D2
  8
__
  6
CONTINUOUS
 62
     7
 10
-1116.0875715
 20
-1592.915999
 30
0.0
 40
2.999999999999864
 50
225.0
 51
315.0
  0
LINE
  5
2D3
  8
__
  6
CONTINUOUS
 62
     7
 10
-1043.9626805
 20
-1525.033748
 30
0.0
 11
-1113.9662515
 21
-1595.037319
 31
0.0
  0
ARC
  5
2D4
  8
__
  6
CONTINUOUS
 62
     7
 10
-1283.9124275
 20
-1592.915999
 30
0.0
 40
2.999999999999864
 50
225.0
 51
315.0
  0
LINE
  5
2D5
  8
__
  6
CONTINUOUS
 62
     7
 10
-1281.7911075
 20
-1595.037319
 30
0.0
 11
-1275.7537875
 21
-1589.0
 31
0.0
  0
LINE
  5
2D6
  8
__
  6
CONTINUOUS
 62
     7
 10
-1356.0373195
 20
-1520.791107
 30
0.0
 11
-1349.9999995
 21
-1514.753788
 31
0.0
  0
ARC
  5
2D7
  8
__
  6
CONTINUOUS
 62
     7
 10
-1353.9159985
 20
-1522.912427
 30
0.0
 40
3.000000000000507
 50
135.0
 51
224.9999999999939
  0
LINE
  5
2D8
  8
__
  6
CONTINUOUS
 62
     7
 10
-1356.0373195
 20
-1525.033748
 30
0.0
 11
-1286.0337485
 21
-1595.037319
 31
0.0
  0
LINE
  5
2D9
  8
__
  6
CONTINUOUS
 62
     7
 10
-1147.5
 20
18.5
 30
0.0
 11
-1252.5
 21
18.5
 31
0.0
  0
LINE
  5
2DA
  8
__
  6
CONTINUOUS
 62
     7
 10
-1160.0
 20
62.5
 30
0.0
 11
-1240.0
 21
62.5
 31
0.0
  0
ARC
  5
2DB
  8
__
  6
CONTINUOUS
 62
     7
 10
-1240.0
 20
50.0
 30
0.0
 40
12.5
 50
90.0
 51
146.6592926535233
  0
ARC
  5
2DC
  8
__
  6
CONTINUOUS
 62
     7
 10
-1252.5
 20
31.0
 30
0.0
 40
12.50000000000005
 50
146.6592926535235
 51
270.0
  0
LINE
  5
2DD
  8
__
  6
CONTINUOUS
 62
     7
 10
-1262.942713528049
 20
37.87020626845344
 30
0.0
 11
-1250.442713528049
 21
56.87020626845344
 31
0.0
  0
ARC
  5
2DE
  8
__
  6
CONTINUOUS
 62
     7
 10
-1160.0
 20
50.0
 30
0.0
 40
12.50000000000008
 50
33.34070734647671
 51
90.0
  0
ARC
  5
2DF
  8
__
  6
CONTINUOUS
 62
     7
 10
-1147.5
 20
31.0
 30
0.0
 40
12.49999999999994
 50
270.0
 51
33.34070734647648
  0
LINE
  5
2E0
  8
__
  6
CONTINUOUS
 62
     7
 10
-1137.057286471951
 20
37.87020626845344
 30
0.0
 11
-1149.557286471951
 21
56.87020626845344
 31
0.0
  0
LINE
  5
2E1
  8
__
  6
CONTINUOUS
 62
     7
 10
-1147.5
 20
-16.5
 30
0.0
 11
-1252.5
 21
-16.5
 31
0.0
  0
LINE
  5
2E2
  8
__
  6
CONTINUOUS
 62
     7
 10
-1160.0
 20
-60.5
 30
0.0
 11
-1240.0
 21
-60.5
 31
0.0
  0
ARC
  5
2E3
  8
__
  6
CONTINUOUS
 62
     7
 10
-1240.0
 20
-48.0
 30
0.0
 40
12.50000000000008
 50
213.3407073464767
 51
270.0
  0
ARC
  5
2E4
  8
__
  6
CONTINUOUS
 62
     7
 10
-1252.5
 20
-29.0
 30
0.0
 40
12.49999999999994
 50
90.0
 51
213.3407073464764
  0
LINE
  5
2E5
  8
__
  6
CONTINUOUS
 62
     7
 10
-1262.942713528049
 20
-35.87020626845344
 30
0.0
 11
-1250.442713528049
 21
-54.87020626845344
 31
0.0
  0
ARC
  5
2E6
  8
__
  6
CONTINUOUS
 62
     7
 10
-1160.0
 20
-48.0
 30
0.0
 40
12.5
 50
270.0
 51
326.6592926535233
  0
ARC
  5
2E7
  8
__
  6
CONTINUOUS
 62
     7
 10
-1147.5
 20
-29.0
 30
0.0
 40
12.50000000000005
 50
326.6592926535236
 51
89.99999999999997
  0
LINE
  5
2E8
  8
__
  6
CONTINUOUS
 62
     7
 10
-1137.057286471951
 20
-35.87020626845344
 30
0.0
 11
-1149.557286471951
 21
-54.87020626845344
 31
0.0
  0
LINE
  5
2E9
  8
__
  6
CONTINUOUS
 62
     7
 10
-1302.26795
 20
-81.00000139875021
 30
0.0
 11
-1305.73205
 21
-81.00000139875021
 31
0.0
  0
LINE
  5
2EA
  8
__
  6
CONTINUOUS
 62
     7
 10
-1305.73205
 20
-86.99999860124959
 30
0.0
 11
-1302.26795
 21
-86.99999860124959
 31
0.0
  0
LINE
  5
2EB
  8
__
  6
CONTINUOUS
 62
     7
 10
-1305.73205
 20
-81.00000139875021
 30
0.0
 11
-1307.4641
 21
-83.99999999999989
 31
0.0
  0
LINE
  5
2EC
  8
__
  6
CONTINUOUS
 62
     7
 10
-1307.4641
 20
-83.99999999999989
 30
0.0
 11
-1305.73205
 21
-86.99999860124959
 31
0.0
  0
LINE
  5
2ED
  8
__
  6
CONTINUOUS
 62
     7
 10
-1300.5359
 20
-83.99999999999989
 30
0.0
 11
-1302.26795
 21
-81.00000139875021
 31
0.0
  0
LINE
  5
2EE
  8
__
  6
CONTINUOUS
 62
     7
 10
-1302.26795
 20
-86.99999860124959
 30
0.0
 11
-1300.5359
 21
-83.99999999999989
 31
0.0
  0
CIRCLE
  5
2EF
  8
__
  6
CONTINUOUS
 62
     7
 10
-1096.0
 20
-83.99999999999989
 30
0.0
 40
10.0
  0
LINE
  5
2F0
  8
__
  6
CONTINUOUS
 62
     7
 10
-1094.26795
 20
-81.00000139875021
 30
0.0
 11
-1097.73205
 21
-81.00000139875021
 31
0.0
  0
LINE
  5
2F1
  8
__
  6
CONTINUOUS
 62
     7
 10
-1097.73205
 20
-86.99999860124959
 30
0.0
 11
-1094.26795
 21
-86.99999860124959
 31
0.0
  0
LINE
  5
2F2
  8
__
  6
CONTINUOUS
 62
     7
 10
-1097.73205
 20
-81.00000139875021
 30
0.0
 11
-1099.4641
 21
-83.99999999999989
 31
0.0
  0
LINE
  5
2F3
  8
__
  6
CONTINUOUS
 62
     7
 10
-1099.4641
 20
-83.99999999999989
 30
0.0
 11
-1097.73205
 21
-86.99999860124959
 31
0.0
  0
LINE
  5
2F4
  8
__
  6
CONTINUOUS
 62
     7
 10
-1092.5359
 20
-83.99999999999989
 30
0.0
 11
-1094.26795
 21
-81.00000139875021
 31
0.0
  0
LINE
  5
2F5
  8
__
  6
CONTINUOUS
 62
     7
 10
-1094.26795
 20
-86.99999860124959
 30
0.0
 11
-1092.5359
 21
-83.99999999999989
 31
0.0
  0
ARC
  5
2F6
  8
__
  6
CONTINUOUS
 62
     7
 10
-1270.0
 20
0.9999999999999147
 30
0.0
 40
25.00000000000014
 50
90.0
 51
270.0
  0
ARC
  5
2F7
  8
__
  6
CONTINUOUS
 62
     7
 10
-1130.0
 20
1.000000000000256
 30
0.0
 40
24.99999999999969
 50
270.0
 51
89.99999999999949
  0
LINE
  5
2F8
  8
__
  6
CONTINUOUS
 62
     7
 10
-1270.0
 20
26.0
 30
0.0
 11
-1263.95643923739
 21
26.0
 31
0.0
  0
LINE
  5
2F9
  8
__
  6
CONTINUOUS
 62
     7
 10
-1136.04356076261
 20
26.0
 30
0.0
 11
-1130.0
 21
26.0
 31
0.0
  0
LINE
  5
2FA
  8
__
  6
CONTINUOUS
 62
     7
 10
-1130.0
 20
-24.0
 30
0.0
 11
-1136.04356076261
 21
-24.0
 31
0.0
  0
LINE
  5
2FB
  8
__
  6
CONTINUOUS
 62
     7
 10
-1263.95643923739
 20
-24.0
 30
0.0
 11
-1270.0
 21
-24.0
 31
0.0
  0
LINE
  5
2FC
  8
__
  6
CONTINUOUS
 62
     7
 10
-1050.0
 20
-95.220326
 30
0.0
 11
-1050.0000005
 21
65.71572900000001
 31
0.0
  0
LINE
  5
2FD
  8
__
  6
CONTINUOUS
 62
     7
 10
-1055.0
 20
-95.220326
 30
0.0
 11
-1055.0000005
 21
65.71572900000001
 31
0.0
  0
LINE
  5
2FE
  8
__
  6
CONTINUOUS
 62
     7
 10
-1062.5
 20
-95.220326
 30
0.0
 11
-1062.5000005
 21
65.71572900000001
 31
0.0
  0
CIRCLE
  5
2FF
  8
__
  6
CONTINUOUS
 62
     7
 10
-1304.0
 20
-1366.0
 30
0.0
 40
10.0
  0
LINE
  5
300
  8
__
  6
CONTINUOUS
 62
     7
 10
-1302.267949999999
 20
-1368.99999860125
 30
0.0
 11
-1305.73205
 21
-1368.99999860125
 31
0.0
  0
LINE
  5
301
  8
__
  6
CONTINUOUS
 62
     7
 10
-1305.73205
 20
-1363.00000139875
 30
0.0
 11
-1302.267949999999
 21
-1363.00000139875
 31
0.0
  0
LINE
  5
302
  8
__
  6
CONTINUOUS
 62
     7
 10
-1305.73205
 20
-1368.99999860125
 30
0.0
 11
-1307.4641
 21
-1366.0
 31
0.0
  0
LINE
  5
303
  8
__
  6
CONTINUOUS
 62
     7
 10
-1307.4641
 20
-1366.0
 30
0.0
 11
-1305.73205
 21
-1363.00000139875
 31
0.0
  0
LINE
  5
304
  8
__
  6
CONTINUOUS
 62
     7
 10
-1300.535899999999
 20
-1366.0
 30
0.0
 11
-1302.267949999999
 21
-1368.99999860125
 31
0.0
  0
LINE
  5
305
  8
__
  6
CONTINUOUS
 62
     7
 10
-1302.267949999999
 20
-1363.00000139875
 30
0.0
 11
-1300.535899999999
 21
-1366.0
 31
0.0
  0
ARC
  5
306
  8
__
  6
CONTINUOUS
 62
     7
 10
-1200.0
 20
-2604.520833
 30
0.0
 40
1253.520832999999
 50
86.3203044162122
 51
93.67969558378778
  0
ARC
  5
307
  8
__
  6
CONTINUOUS
 62
     7
 10
-1280.128398980142
 20
-1358.573919960792
 30
0.0
 40
5.000000000000049
 50
93.67969558378616
 51
197.2800972061324
  0
ARC
  5
308
  8
__
  6
CONTINUOUS
 62
     7
 10
-1305.000000022356
 20
-1390.979991992699
 30
0.0
 40
5.000000000000047
 50
87.7075571727652
 51
180.0
  0
ARC
  5
309
  8
__
  6
CONTINUOUS
 62
     7
 10
-1096.0
 20
-1366.0
 30
0.0
 40
20.00000000000008
 50
162.7199027938686
 51
272.2924428272348
  0
LINE
  5
30A
  8
__
  6
CONTINUOUS
 62
     7
 10
-1090.000000002216
 20
-1390.979992013519
 30
0.0
 11
-1090.0000005
 21
-1510.524656000001
 31
0.0
  0
ARC
  5
30B
  8
__
  6
CONTINUOUS
 62
     7
 10
-1127.6396105
 20
-1544.0
 30
0.0
 40
5.0
 50
270.0
 51
315.0
  0
LINE
  5
30C
  8
__
  6
CONTINUOUS
 62
     7
 10
-1090.464466499999
 20
-1513.895923
 30
0.0
 11
-1124.1040765
 21
-1547.535533
 31
0.0
  0
ARC
  5
30D
  8
__
  6
CONTINUOUS
 62
     7
 10
-1095.0000005
 20
-1510.524656000001
 30
0.0
 40
4.999999999999879
 50
315.0000000000037
 51
0.0
  0
CIRCLE
  5
30E
  8
__
  6
CONTINUOUS
 62
     7
 10
-1096.0
 20
-1366.0
 30
0.0
 40
10.0
  0
LINE
  5
30F
  8
__
  6
CONTINUOUS
 62
     7
 10
-1097.732050000001
 20
-1368.99999860125
 30
0.0
 11
-1094.26795
 21
-1368.99999860125
 31
0.0
  0
LINE
  5
310
  8
__
  6
CONTINUOUS
 62
     7
 10
-1094.26795
 20
-1363.00000139875
 30
0.0
 11
-1097.732050000001
 21
-1363.00000139875
 31
0.0
  0
LINE
  5
311
  8
__
  6
CONTINUOUS
 62
     7
 10
-1094.26795
 20
-1368.99999860125
 30
0.0
 11
-1092.5359
 21
-1366.0
 31
0.0
  0
LINE
  5
312
  8
__
  6
CONTINUOUS
 62
     7
 10
-1092.5359
 20
-1366.0
 30
0.0
 11
-1094.26795
 21
-1363.00000139875
 31
0.0
  0
LINE
  5
313
  8
__
  6
CONTINUOUS
 62
     7
 10
-1099.464100000001
 20
-1366.0
 30
0.0
 11
-1097.732050000001
 21
-1368.99999860125
 31
0.0
  0
LINE
  5
314
  8
__
  6
CONTINUOUS
 62
     7
 10
-1097.732050000001
 20
-1363.00000139875
 30
0.0
 11
-1099.464100000001
 21
-1366.0
 31
0.0
  0
ARC
  5
315
  8
__
  6
CONTINUOUS
 62
     7
 10
-1119.871601019858
 20
-1358.573919960792
 30
0.0
 40
4.999999999999928
 50
342.7199027938676
 51
86.32030441621392
  0
ARC
  5
316
  8
__
  6
CONTINUOUS
 62
     7
 10
-1094.999999977644
 20
-1390.979991992699
 30
0.0
 40
5.0
 50
0.0
 51
92.29244282723477
  0
ARC
  5
317
  8
__
  6
CONTINUOUS
 62
     7
 10
-1199.9999995
 20
-1510.054644981046
 30
0.0
 40
0.2546449810458838
 50
356.8251528744232
 51
183.174847125577
  0
ARC
  5
318
  8
__
  6
CONTINUOUS
 62
     7
 10
-1201.186147736944
 20
-1509.945530988189
 30
0.0
 40
0.9400048073215088
 50
247.5320803524773
 51
352.4679196225416
  0
ARC
  5
319
  8
__
  6
CONTINUOUS
 62
     7
 10
-1201.684726365794
 20
-1511.027322490523
 30
0.0
 40
0.2546449810459773
 50
56.82515287438743
 51
243.1748471255673
  0
ARC
  5
31A
  8
__
  6
CONTINUOUS
 62
     7
 10
-1202.372295973988
 20
-1511.999999999942
 30
0.0
 40
0.9400048073214778
 50
307.5320803524742
 51
52.46791962255023
  0
ARC
  5
31B
  8
__
  6
CONTINUOUS
 62
     7
 10
-1199.9999995
 20
-1513.945355018954
 30
0.0
 40
0.2546449810458838
 50
176.8251528744231
 51
3.17484712557976
  0
ARC
  5
31C
  8
__
  6
CONTINUOUS
 62
     7
 10
-1201.186147736944
 20
-1514.054469011811
 30
0.0
 40
0.9400048073215113
 50
7.532080377458499
 51
112.4679196475227
  0
ARC
  5
31D
  8
__
  6
CONTINUOUS
 62
     7
 10
-1201.684726365794
 20
-1512.972677509477
 30
0.0
 40
0.2546449810458959
 50
116.8251528744327
 51
303.1748471255697
  0
ARC
  5
31E
  8
__
  6
CONTINUOUS
 62
     7
 10
-1198.813851263056
 20
-1509.945530988189
 30
0.0
 40
0.9400048073215113
 50
187.5320803774585
 51
292.4679196475355
  0
ARC
  5
31F
  8
__
  6
CONTINUOUS
 62
     7
 10
-1198.315272634206
 20
-1511.027322490523
 30
0.0
 40
0.2546449810458959
 50
296.8251528744327
 51
123.1748471255697
  0
ARC
  5
320
  8
__
  6
CONTINUOUS
 62
     7
 10
-1197.627703026012
 20
-1511.999999999942
 30
0.0
 40
0.9400048073214385
 50
127.5320803774498
 51
232.4679196475368
  0
ARC
  5
321
  8
__
  6
CONTINUOUS
 62
     7
 10
-1198.813851263056
 20
-1514.054469011811
 30
0.0
 40
0.9400048073215956
 50
67.53208035246453
 51
172.4679196225415
  0
ARC
  5
322
  8
__
  6
CONTINUOUS
 62
     7
 10
-1198.315272634206
 20
-1512.972677509477
 30
0.0
 40
0.2546449810458529
 50
236.8251528744302
 51
63.17484712556731
  0
CIRCLE
  5
323
  8
__
  6
CONTINUOUS
 62
     7
 10
-1199.9999995
 20
-1512.0
 30
0.0
 40
6.0
  0
CIRCLE
  5
324
  8
__
  6
CONTINUOUS
 62
     7
 10
-1199.9999995
 20
-1512.0
 30
0.0
 40
4.5
  0
CIRCLE
  5
325
  8
__
  6
CONTINUOUS
 62
     7
 10
-1199.9999995
 20
-1512.0
 30
0.0
 40
3.0
  0
ARC
  5
326
  8
__
  6
CONTINUOUS
 62
     7
 10
-1234.4999995
 20
-1475.554644981046
 30
0.0
 40
0.2546449810458838
 50
356.8251528744232
 51
183.174847125577
  0
ARC
  5
327
  8
__
  6
CONTINUOUS
 62
     7
 10
-1235.686147736944
 20
-1475.445530988189
 30
0.0
 40
0.9400048073215088
 50
247.5320803524773
 51
352.4679196225416
  0
ARC
  5
328
  8
__
  6
CONTINUOUS
 62
     7
 10
-1236.184726365794
 20
-1476.527322490523
 30
0.0
 40
0.2546449810459773
 50
56.82515287438743
 51
243.1748471255673
  0
ARC
  5
329
  8
__
  6
CONTINUOUS
 62
     7
 10
-1236.872295973988
 20
-1477.499999999942
 30
0.0
 40
0.9400048073214778
 50
307.5320803524742
 51
52.46791962255023
  0
ARC
  5
32A
  8
__
  6
CONTINUOUS
 62
     7
 10
-1234.4999995
 20
-1479.445355018954
 30
0.0
 40
0.2546449810458838
 50
176.8251528744231
 51
3.17484712557976
  0
ARC
  5
32B
  8
__
  6
CONTINUOUS
 62
     7
 10
-1235.686147736944
 20
-1479.554469011811
 30
0.0
 40
0.9400048073215113
 50
7.532080377458499
 51
112.4679196475227
  0
ARC
  5
32C
  8
__
  6
CONTINUOUS
 62
     7
 10
-1236.184726365794
 20
-1478.472677509477
 30
0.0
 40
0.2546449810458959
 50
116.8251528744327
 51
303.1748471255697
  0
ARC
  5
32D
  8
__
  6
CONTINUOUS
 62
     7
 10
-1233.313851263056
 20
-1475.445530988189
 30
0.0
 40
0.9400048073215113
 50
187.5320803774585
 51
292.4679196475355
  0
ARC
  5
32E
  8
__
  6
CONTINUOUS
 62
     7
 10
-1232.815272634206
 20
-1476.527322490523
 30
0.0
 40
0.2546449810458959
 50
296.8251528744327
 51
123.1748471255697
  0
ARC
  5
32F
  8
__
  6
CONTINUOUS
 62
     7
 10
-1232.127703026012
 20
-1477.499999999942
 30
0.0
 40
0.9400048073214385
 50
127.5320803774498
 51
232.4679196475368
  0
ARC
  5
330
  8
__
  6
CONTINUOUS
 62
     7
 10
-1233.313851263056
 20
-1479.554469011811
 30
0.0
 40
0.9400048073215956
 50
67.53208035246453
 51
172.4679196225415
  0
ARC
  5
331
  8
__
  6
CONTINUOUS
 62
     7
 10
-1232.815272634206
 20
-1478.472677509477
 30
0.0
 40
0.2546449810458529
 50
236.8251528744302
 51
63.17484712556731
  0
CIRCLE
  5
332
  8
__
  6
CONTINUOUS
 62
     7
 10
-1234.4999995
 20
-1477.5
 30
0.0
 40
6.0
  0
CIRCLE
  5
333
  8
__
  6
CONTINUOUS
 62
     7
 10
-1234.4999995
 20
-1477.5
 30
0.0
 40
4.5
  0
CIRCLE
  5
334
  8
__
  6
CONTINUOUS
 62
     7
 10
-1234.4999995
 20
-1477.5
 30
0.0
 40
3.0
  0
ARC
  5
335
  8
__
  6
CONTINUOUS
 62
     7
 10
-1234.4999995
 20
-1420.554644981046
 30
0.0
 40
0.2546449810458838
 50
356.8251528744232
 51
183.174847125577
  0
ARC
  5
336
  8
__
  6
CONTINUOUS
 62
     7
 10
-1235.686147736944
 20
-1420.445530988189
 30
0.0
 40
0.9400048073215088
 50
247.5320803524773
 51
352.4679196225416
  0
ARC
  5
337
  8
__
  6
CONTINUOUS
 62
     7
 10
-1236.184726365794
 20
-1421.527322490523
 30
0.0
 40
0.2546449810459773
 50
56.82515287438743
 51
243.1748471255673
  0
ARC
  5
338
  8
__
  6
CONTINUOUS
 62
     7
 10
-1236.872295973988
 20
-1422.499999999942
 30
0.0
 40
0.9400048073214778
 50
307.5320803524742
 51
52.46791962255023
  0
ARC
  5
339
  8
__
  6
CONTINUOUS
 62
     7
 10
-1234.4999995
 20
-1424.445355018954
 30
0.0
 40
0.2546449810458838
 50
176.8251528744231
 51
3.17484712557976
  0
ARC
  5
33A
  8
__
  6
CONTINUOUS
 62
     7
 10
-1235.686147736944
 20
-1424.554469011811
 30
0.0
 40
0.9400048073215113
 50
7.532080377458499
 51
112.4679196475227
  0
ARC
  5
33B
  8
__
  6
CONTINUOUS
 62
     7
 10
-1236.184726365794
 20
-1423.472677509477
 30
0.0
 40
0.2546449810458959
 50
116.8251528744327
 51
303.1748471255697
  0
ARC
  5
33C
  8
__
  6
CONTINUOUS
 62
     7
 10
-1233.313851263056
 20
-1420.445530988189
 30
0.0
 40
0.9400048073215113
 50
187.5320803774585
 51
292.4679196475355
  0
ARC
  5
33D
  8
__
  6
CONTINUOUS
 62
     7
 10
-1232.815272634206
 20
-1421.527322490523
 30
0.0
 40
0.2546449810458959
 50
296.8251528744327
 51
123.1748471255697
  0
ARC
  5
33E
  8
__
  6
CONTINUOUS
 62
     7
 10
-1232.127703026012
 20
-1422.499999999942
 30
0.0
 40
0.9400048073214385
 50
127.5320803774498
 51
232.4679196475368
  0
ARC
  5
33F
  8
__
  6
CONTINUOUS
 62
     7
 10
-1233.313851263056
 20
-1424.554469011811
 30
0.0
 40
0.9400048073215956
 50
67.53208035246453
 51
172.4679196225415
  0
ARC
  5
340
  8
__
  6
CONTINUOUS
 62
     7
 10
-1232.815272634206
 20
-1423.472677509477
 30
0.0
 40
0.2546449810458529
 50
236.8251528744302
 51
63.17484712556731
  0
CIRCLE
  5
341
  8
__
  6
CONTINUOUS
 62
     7
 10
-1234.4999995
 20
-1422.5
 30
0.0
 40
6.0
  0
CIRCLE
  5
342
  8
__
  6
CONTINUOUS
 62
     7
 10
-1234.4999995
 20
-1422.5
 30
0.0
 40
4.5
  0
CIRCLE
  5
343
  8
__
  6
CONTINUOUS
 62
     7
 10
-1234.4999995
 20
-1422.5
 30
0.0
 40
3.0
  0
ARC
  5
344
  8
__
  6
CONTINUOUS
 62
     7
 10
-1199.9999995
 20
-1386.054644981046
 30
0.0
 40
0.2546449810458838
 50
356.8251528744232
 51
183.174847125577
  0
ARC
  5
345
  8
__
  6
CONTINUOUS
 62
     7
 10
-1201.186147736944
 20
-1385.945530988189
 30
0.0
 40
0.9400048073215088
 50
247.5320803524773
 51
352.4679196225416
  0
ARC
  5
346
  8
__
  6
CONTINUOUS
 62
     7
 10
-1201.684726365794
 20
-1387.027322490523
 30
0.0
 40
0.2546449810459773
 50
56.82515287438743
 51
243.1748471255673
  0
ARC
  5
347
  8
__
  6
CONTINUOUS
 62
     7
 10
-1202.372295973988
 20
-1387.999999999942
 30
0.0
 40
0.9400048073214778
 50
307.5320803524742
 51
52.46791962255023
  0
ARC
  5
348
  8
__
  6
CONTINUOUS
 62
     7
 10
-1199.9999995
 20
-1389.945355018954
 30
0.0
 40
0.2546449810458838
 50
176.8251528744231
 51
3.17484712557976
  0
ARC
  5
349
  8
__
  6
CONTINUOUS
 62
     7
 10
-1201.186147736944
 20
-1390.054469011811
 30
0.0
 40
0.9400048073215113
 50
7.532080377458499
 51
112.4679196475227
  0
ARC
  5
34A
  8
__
  6
CONTINUOUS
 62
     7
 10
-1201.684726365794
 20
-1388.972677509477
 30
0.0
 40
0.2546449810458959
 50
116.8251528744327
 51
303.1748471255697
  0
ARC
  5
34B
  8
__
  6
CONTINUOUS
 62
     7
 10
-1198.813851263056
 20
-1385.945530988189
 30
0.0
 40
0.9400048073215113
 50
187.5320803774585
 51
292.4679196475355
  0
ARC
  5
34C
  8
__
  6
CONTINUOUS
 62
     7
 10
-1198.315272634206
 20
-1387.027322490523
 30
0.0
 40
0.2546449810458959
 50
296.8251528744327
 51
123.1748471255697
  0
ARC
  5
34D
  8
__
  6
CONTINUOUS
 62
     7
 10
-1197.627703026012
 20
-1387.999999999942
 30
0.0
 40
0.9400048073214385
 50
127.5320803774498
 51
232.4679196475368
  0
ARC
  5
34E
  8
__
  6
CONTINUOUS
 62
     7
 10
-1198.813851263056
 20
-1390.054469011811
 30
0.0
 40
0.9400048073215956
 50
67.53208035246453
 51
172.4679196225415
  0
ARC
  5
34F
  8
__
  6
CONTINUOUS
 62
     7
 10
-1198.315272634206
 20
-1388.972677509477
 30
0.0
 40
0.2546449810458529
 50
236.8251528744302
 51
63.17484712556731
  0
CIRCLE
  5
350
  8
__
  6
CONTINUOUS
 62
     7
 10
-1199.9999995
 20
-1388.0
 30
0.0
 40
6.0
  0
CIRCLE
  5
351
  8
__
  6
CONTINUOUS
 62
     7
 10
-1199.9999995
 20
-1388.0
 30
0.0
 40
4.5
  0
CIRCLE
  5
352
  8
__
  6
CONTINUOUS
 62
     7
 10
-1199.9999995
 20
-1388.0
 30
0.0
 40
3.0
  0
ARC
  5
353
  8
__
  6
CONTINUOUS
 62
     7
 10
-1165.4999995
 20
-1475.554644981046
 30
0.0
 40
0.2546449810458838
 50
356.8251528744232
 51
183.174847125577
  0
ARC
  5
354
  8
__
  6
CONTINUOUS
 62
     7
 10
-1166.686147736944
 20
-1475.445530988189
 30
0.0
 40
0.9400048073215088
 50
247.5320803524773
 51
352.4679196225416
  0
ARC
  5
355
  8
__
  6
CONTINUOUS
 62
     7
 10
-1167.184726365794
 20
-1476.527322490523
 30
0.0
 40
0.2546449810459773
 50
56.82515287438743
 51
243.1748471255673
  0
ARC
  5
356
  8
__
  6
CONTINUOUS
 62
     7
 10
-1167.872295973988
 20
-1477.499999999942
 30
0.0
 40
0.9400048073214778
 50
307.5320803524742
 51
52.46791962255023
  0
ARC
  5
357
  8
__
  6
CONTINUOUS
 62
     7
 10
-1165.4999995
 20
-1479.445355018954
 30
0.0
 40
0.2546449810458838
 50
176.8251528744231
 51
3.17484712557976
  0
ARC
  5
358
  8
__
  6
CONTINUOUS
 62
     7
 10
-1166.686147736944
 20
-1479.554469011811
 30
0.0
 40
0.9400048073215113
 50
7.532080377458499
 51
112.4679196475227
  0
ARC
  5
359
  8
__
  6
CONTINUOUS
 62
     7
 10
-1167.184726365794
 20
-1478.472677509477
 30
0.0
 40
0.2546449810458959
 50
116.8251528744327
 51
303.1748471255697
  0
ARC
  5
35A
  8
__
  6
CONTINUOUS
 62
     7
 10
-1164.313851263056
 20
-1475.445530988189
 30
0.0
 40
0.9400048073215113
 50
187.5320803774585
 51
292.4679196475355
  0
ARC
  5
35B
  8
__
  6
CONTINUOUS
 62
     7
 10
-1163.815272634206
 20
-1476.527322490523
 30
0.0
 40
0.2546449810458959
 50
296.8251528744327
 51
123.1748471255697
  0
ARC
  5
35C
  8
__
  6
CONTINUOUS
 62
     7
 10
-1163.127703026012
 20
-1477.499999999942
 30
0.0
 40
0.9400048073214385
 50
127.5320803774498
 51
232.4679196475368
  0
ARC
  5
35D
  8
__
  6
CONTINUOUS
 62
     7
 10
-1164.313851263056
 20
-1479.554469011811
 30
0.0
 40
0.9400048073215956
 50
67.53208035246453
 51
172.4679196225415
  0
ARC
  5
35E
  8
__
  6
CONTINUOUS
 62
     7
 10
-1163.815272634206
 20
-1478.472677509477
 30
0.0
 40
0.2546449810458529
 50
236.8251528744302
 51
63.17484712556731
  0
CIRCLE
  5
35F
  8
__
  6
CONTINUOUS
 62
     7
 10
-1165.4999995
 20
-1477.5
 30
0.0
 40
6.0
  0
CIRCLE
  5
360
  8
__
  6
CONTINUOUS
 62
     7
 10
-1165.4999995
 20
-1477.5
 30
0.0
 40
4.5
  0
CIRCLE
  5
361
  8
__
  6
CONTINUOUS
 62
     7
 10
-1165.4999995
 20
-1477.5
 30
0.0
 40
3.0
  0
ARC
  5
362
  8
__
  6
CONTINUOUS
 62
     7
 10
-1165.4999995
 20
-1420.554644981046
 30
0.0
 40
0.2546449810458838
 50
356.8251528744232
 51
183.174847125577
  0
ARC
  5
363
  8
__
  6
CONTINUOUS
 62
     7
 10
-1166.686147736944
 20
-1420.445530988189
 30
0.0
 40
0.9400048073215088
 50
247.5320803524773
 51
352.4679196225416
  0
ARC
  5
364
  8
__
  6
CONTINUOUS
 62
     7
 10
-1167.184726365794
 20
-1421.527322490523
 30
0.0
 40
0.2546449810459773
 50
56.82515287438743
 51
243.1748471255673
  0
ARC
  5
365
  8
__
  6
CONTINUOUS
 62
     7
 10
-1167.872295973988
 20
-1422.499999999942
 30
0.0
 40
0.9400048073214778
 50
307.5320803524742
 51
52.46791962255023
  0
ARC
  5
366
  8
__
  6
CONTINUOUS
 62
     7
 10
-1165.4999995
 20
-1424.445355018954
 30
0.0
 40
0.2546449810458838
 50
176.8251528744231
 51
3.17484712557976
  0
ARC
  5
367
  8
__
  6
CONTINUOUS
 62
     7
 10
-1166.686147736944
 20
-1424.554469011811
 30
0.0
 40
0.9400048073215113
 50
7.532080377458499
 51
112.4679196475227
  0
ARC
  5
368
  8
__
  6
CONTINUOUS
 62
     7
 10
-1167.184726365794
 20
-1423.472677509477
 30
0.0
 40
0.2546449810458959
 50
116.8251528744327
 51
303.1748471255697
  0
ARC
  5
369
  8
__
  6
CONTINUOUS
 62
     7
 10
-1164.313851263056
 20
-1420.445530988189
 30
0.0
 40
0.9400048073215113
 50
187.5320803774585
 51
292.4679196475355
  0
ARC
  5
36A
  8
__
  6
CONTINUOUS
 62
     7
 10
-1163.815272634206
 20
-1421.527322490523
 30
0.0
 40
0.2546449810458959
 50
296.8251528744327
 51
123.1748471255697
  0
ARC
  5
36B
  8
__
  6
CONTINUOUS
 62
     7
 10
-1163.127703026012
 20
-1422.499999999942
 30
0.0
 40
0.9400048073214385
 50
127.5320803774498
 51
232.4679196475368
  0
ARC
  5
36C
  8
__
  6
CONTINUOUS
 62
     7
 10
-1164.313851263056
 20
-1424.554469011811
 30
0.0
 40
0.9400048073215956
 50
67.53208035246453
 51
172.4679196225415
  0
ARC
  5
36D
  8
__
  6
CONTINUOUS
 62
     7
 10
-1163.815272634206
 20
-1423.472677509477
 30
0.0
 40
0.2546449810458529
 50
236.8251528744302
 51
63.17484712556731
  0
CIRCLE
  5
36E
  8
__
  6
CONTINUOUS
 62
     7
 10
-1165.4999995
 20
-1422.5
 30
0.0
 40
6.0
  0
CIRCLE
  5
36F
  8
__
  6
CONTINUOUS
 62
     7
 10
-1165.4999995
 20
-1422.5
 30
0.0
 40
4.5
  0
CIRCLE
  5
370
  8
__
  6
CONTINUOUS
 62
     7
 10
-1165.4999995
 20
-1422.5
 30
0.0
 40
3.0
  0
LINE
  5
371
  8
__
  6
CONTINUOUS
 62
     7
 10
-1049.999999999999
 20
-1354.779673
 30
0.0
 11
-1050.000000499999
 21
-1515.715728
 31
0.0
  0
LINE
  5
372
  8
__
  6
CONTINUOUS
 62
     7
 10
-1054.999999999999
 20
-1354.779673
 30
0.0
 11
-1055.000000499999
 21
-1515.715728
 31
0.0
  0
LINE
  5
373
  8
__
  6
CONTINUOUS
 62
     7
 10
-1082.500000499999
 20
-1512.002525
 30
0.0
 11
-1082.500000499999
 21
-1430.110076
 31
0.0
  0
LINE
  5
374
  8
__
  6
CONTINUOUS
 62
     7
 10
-1067.500000499999
 20
-1513.659379
 30
0.0
 11
-1067.500000499999
 21
-1430.110076
 31
0.0
  0
ARC
  5
375
  8
__
  6
CONTINUOUS
 62
     7
 10
-298.1292979567952
 20
-586.4079834363137
 30
0.0
 40
48.14986900000041
 50
1.67487999999994
 51
26.39760699999998
  0
LINE
  5
376
  8
__
  6
CONTINUOUS
 62
     7
 10
-255.271459
 20
-565.0000000000001
 30
0.0
 11
-545.0000000474101
 21
-565.0000006773568
 31
0.0
  0
ARC
  5
377
  8
__
  6
CONTINUOUS
 62
     7
 10
-348.4774830000001
 20
-1039.0
 30
0.0
 40
1.0
 50
270.0
 51
0.0
  0
ARC
  5
378
  8
__
  6
CONTINUOUS
 62
     7
 10
-451.4774830000001
 20
-1039.0
 30
0.0
 40
1.0
 50
180.0
 51
270.0
  0
LINE
  5
379
  8
__
  6
CONTINUOUS
 62
     7
 10
-452.4774830000001
 20
-1036.0
 30
0.0
 11
-452.4774830000001
 21
-1039.0
 31
0.0
  0
ARC
  5
37A
  8
__
  6
CONTINUOUS
 62
     7
 10
-453.4774830000001
 20
-1036.0
 30
0.0
 40
1.0
 50
0.0
 51
90.0
  0
ARC
  5
37B
  8
__
  6
CONTINUOUS
 62
     7
 10
-346.4774830000001
 20
-1036.0
 30
0.0
 40
1.0
 50
90.0
 51
180.0
  0
LINE
  5
37C
  8
__
  6
CONTINUOUS
 62
     7
 10
-347.4774830000001
 20
-1036.0
 30
0.0
 11
-347.4774830000001
 21
-1039.0
 31
0.0
  0
ARC
  5
37D
  8
__
  6
CONTINUOUS
 62
     7
 10
-298.1292979567952
 20
-1013.593334436314
 30
0.0
 40
48.1498689999999
 50
333.6023930000001
 51
355.3586840000002
  0
ARC
  5
37E
  8
__
  6
CONTINUOUS
 62
     7
 10
-501.8707020000002
 20
-1013.592676
 30
0.0
 40
48.14986899999991
 50
184.6413159999998
 51
206.3976069999999
  0
ARC
  5
37F
  8
__
  6
CONTINUOUS
 62
     7
 10
-501.8707020000002
 20
-586.407325
 30
0.0
 40
48.14986899999995
 50
153.602393
 51
178.3251200000001
  0
LINE
  5
380
  8
__
  6
CONTINUOUS
 62
     7
 10
-469.9037390000003
 20
-1040.0
 30
0.0
 11
-469.9037390000003
 21
-1035.0
 31
0.0
  0
LINE
  5
381
  8
__
  6
CONTINUOUS
 62
     7
 10
-532.6244710000005
 20
-1040.0
 30
0.0
 11
-532.6244710000005
 21
-1035.0
 31
0.0
  0
LINE
  5
382
  8
__
  6
CONTINUOUS
 62
     7
 10
-532.6244710000005
 20
-1040.0
 30
0.0
 11
-469.9037390000003
 21
-1040.0
 31
0.0
  0
LINE
  5
383
  8
__
  6
CONTINUOUS
 62
     7
 10
-330.051226
 20
-1040.0
 30
0.0
 11
-330.051226
 21
-1035.0
 31
0.0
  0
LINE
  5
384
  8
__
  6
CONTINUOUS
 62
     7
 10
-267.3304940000003
 20
-1040.0
 30
0.0
 11
-267.3304940000003
 21
-1035.0
 31
0.0
  0
LINE
  5
385
  8
__
  6
CONTINUOUS
 62
     7
 10
-267.3304940000003
 20
-1040.0
 30
0.0
 11
-330.051226
 21
-1040.0
 31
0.0
  0
LINE
  5
386
  8
__
  6
CONTINUOUS
 62
     7
 10
-348.4774830000001
 20
-1040.0
 30
0.0
 11
-451.4774830000001
 21
-1040.0
 31
0.0
  0
LINE
  5
387
  8
__
  6
CONTINUOUS
 62
     7
 10
-254.9999999093852
 20
-1035.000658758957
 30
0.0
 11
-545.0000000474101
 21
-1035.000000322643
 31
0.0
  0
LINE
  5
388
  8
__
  6
CONTINUOUS
 62
     7
 10
-481.6606139999999
 20
-590.0000000000001
 30
0.0
 11
-318.3393860000001
 21
-590.0000000000001
 31
0.0
  0
LINE
  5
389
  8
__
  6
CONTINUOUS
 62
     7
 10
-250.0000009567948
 20
-594.4544014363136
 30
0.0
 11
-250.0000009567948
 21
-585.0006584363138
 31
0.0
  0
LINE
  5
38A
  8
__
  6
CONTINUOUS
 62
     7
 10
-481.6606139999999
 20
-590.0000000000001
 30
0.0
 11
-549.9774830000001
 21
-587.302192
 31
0.0
  0
ARC
  5
38B
  8
__
  6
CONTINUOUS
 62
     7
 10
-487.1100340000003
 20
-606.814115
 30
0.0
 40
15.02295799999998
 50
270.024839000001
 51
89.97516099999905
  0
LINE
  5
38C
  8
__
  6
CONTINUOUS
 62
     7
 10
-550.0565440000005
 20
-589.3006280000001
 30
0.0
 11
-487.1035210000005
 21
-591.7911580000001
 31
0.0
  0
LINE
  5
38D
  8
__
  6
CONTINUOUS
 62
     7
 10
-549.9774830000001
 20
-614.0000000000001
 30
0.0
 11
-487.1035210000005
 21
-621.837071
 31
0.0
  0
ARC
  5
38E
  8
__
  6
CONTINUOUS
 62
     7
 10
-493.5221080000006
 20
-606.367775
 30
0.0
 40
11.84409900000019
 50
302.8146290000008
 51
57.18537099999918
  0
ARC
  5
38F
  8
__
  6
CONTINUOUS
 62
     7
 10
-555.3056280000001
 20
-597.2996899999999
 30
0.0
 40
3.000000000000022
 50
88.2228490000004
 51
180.0
  0
LINE
  5
390
  8
__
  6
CONTINUOUS
 62
     7
 10
-555.1900740000005
 20
-594.301133
 30
0.0
 11
-487.1035210000005
 21
-596.41366
 31
0.0
  0
LINE
  5
391
  8
__
  6
CONTINUOUS
 62
     7
 10
-558.3056280000001
 20
-597.2996899999999
 30
0.0
 11
-558.3056280000001
 21
-609.6952299999999
 31
0.0
  0
ARC
  5
392
  8
__
  6
CONTINUOUS
 62
     7
 10
-555.3056280000001
 20
-609.6952299999999
 30
0.0
 40
3.0
 50
180.0
 51
266.958695
  0
LINE
  5
393
  8
__
  6
CONTINUOUS
 62
     7
 10
-555.442278
 20
-612.6910040000001
 30
0.0
 11
-487.1035210000005
 21
-616.3218909999999
 31
0.0
  0
LINE
  5
394
  8
__
  6
CONTINUOUS
 62
     7
 10
-550.0
 20
-585.0000000000001
 30
0.0
 11
-550.0
 21
-594.462864
 31
0.0
  0
ARC
  5
395
  8
__
  6
CONTINUOUS
 62
     7
 10
-487.1100340000003
 20
-988.19214
 30
0.0
 40
15.02295799999998
 50
270.024839000001
 51
89.97516099999905
  0
LINE
  5
396
  8
__
  6
CONTINUOUS
 62
     7
 10
-550.0565440000005
 20
-1005.705627
 30
0.0
 11
-487.1035210000005
 21
-1003.215097
 31
0.0
  0
LINE
  5
397
  8
__
  6
CONTINUOUS
 62
     7
 10
-549.9774830000001
 20
-981.0062550000001
 30
0.0
 11
-487.1035210000005
 21
-973.1691840000002
 31
0.0
  0
ARC
  5
398
  8
__
  6
CONTINUOUS
 62
     7
 10
-493.5221080000006
 20
-988.63848
 30
0.0
 40
11.84409900000038
 50
302.8146290000003
 51
57.18537099999975
  0
ARC
  5
399
  8
__
  6
CONTINUOUS
 62
     7
 10
-555.3056280000001
 20
-997.7065650000003
 30
0.0
 40
3.0
 50
180.0
 51
271.7771509999998
  0
LINE
  5
39A
  8
__
  6
CONTINUOUS
 62
     7
 10
-555.1900740000005
 20
-1000.705122
 30
0.0
 11
-487.1035210000005
 21
-998.592595
 31
0.0
  0
LINE
  5
39B
  8
__
  6
CONTINUOUS
 62
     7
 10
-558.3056280000001
 20
-997.7065650000003
 30
0.0
 11
-558.3056280000001
 21
-985.3110249999999
 31
0.0
  0
ARC
  5
39C
  8
__
  6
CONTINUOUS
 62
     7
 10
-555.3056280000001
 20
-985.3110249999999
 30
0.0
 40
2.999999999999827
 50
93.04130500000024
 51
180.0
  0
LINE
  5
39D
  8
__
  6
CONTINUOUS
 62
     7
 10
-555.442278
 20
-982.3152509999999
 30
0.0
 11
-487.1035210000005
 21
-978.6843640000001
 31
0.0
  0
LINE
  5
39E
  8
__
  6
CONTINUOUS
 62
     7
 10
-550.0
 20
-1010.006255
 30
0.0
 11
-550.0
 21
-1000.543391
 31
0.0
  0
LINE
  5
39F
  8
__
  6
CONTINUOUS
 62
     7
 10
-550.0
 20
-612.9801561196471
 30
0.0
 11
-550.0
 21
-982.024902
 31
0.0
  0
LINE
  5
3A0
  8
__
  6
CONTINUOUS
 62
     7
 10
-550.0
 20
-1000.543391
 30
0.0
 11
-550.0
 21
-1017.5
 31
0.0
  0
ARC
  5
3A1
  8
__
  6
CONTINUOUS
 62
     7
 10
-313.1389080000004
 20
-606.814115
 30
0.0
 40
15.02295799999998
 50
90.02483899999923
 51
269.9751610000008
  0
ARC
  5
3A2
  8
__
  6
CONTINUOUS
 62
     7
 10
-306.7268340000005
 20
-606.367775
 30
0.0
 40
11.84409899999994
 50
122.814628999999
 51
237.185371000001
  0
ARC
  5
3A3
  8
__
  6
CONTINUOUS
 62
     7
 10
-244.9883489567947
 20
-597.3003484363136
 30
0.0
 40
3.0
 50
0.0
 51
91.77715099999968
  0
LINE
  5
3A4
  8
__
  6
CONTINUOUS
 62
     7
 10
-245.0588670000002
 20
-594.301133
 30
0.0
 11
-313.1454210000002
 21
-596.41366
 31
0.0
  0
LINE
  5
3A5
  8
__
  6
CONTINUOUS
 62
     7
 10
-241.9883489567947
 20
-597.3003484363136
 30
0.0
 11
-241.9883489567947
 21
-609.6958884363136
 31
0.0
  0
ARC
  5
3A6
  8
__
  6
CONTINUOUS
 62
     7
 10
-244.9883489567947
 20
-609.6958884363136
 30
0.0
 40
3.00000000000003
 50
273.0413049999913
 51
0.0
  0
LINE
  5
3A7
  8
__
  6
CONTINUOUS
 62
     7
 10
-244.8066630000003
 20
-612.6910040000001
 30
0.0
 11
-313.1454210000002
 21
-616.3218909999999
 31
0.0
  0
LINE
  5
3A8
  8
__
  6
CONTINUOUS
 62
     7
 10
-249.9774830000001
 20
-613.963357
 30
0.0
 11
-313.1454210000002
 21
-621.837071
 31
0.0
  0
LINE
  5
3A9
  8
__
  6
CONTINUOUS
 62
     7
 10
-249.9774830000001
 20
-589.2921259999999
 30
0.0
 11
-313.1454210000002
 21
-591.7911580000001
 31
0.0
  0
LINE
  5
3AA
  8
__
  6
CONTINUOUS
 62
     7
 10
-318.3393860000001
 20
-590.0000000000001
 30
0.0
 11
-249.9774830000001
 21
-587.2905610000001
 31
0.0
  0
ARC
  5
3AB
  8
__
  6
CONTINUOUS
 62
     7
 10
-313.1389080000004
 20
-988.1796309999999
 30
0.0
 40
15.02295799999952
 50
90.02483899999923
 51
269.9751610000008
  0
ARC
  5
3AC
  8
__
  6
CONTINUOUS
 62
     7
 10
-306.7268340000005
 20
-988.6259699999999
 30
0.0
 40
11.84409899999975
 50
122.8146289999996
 51
237.1853710000004
  0
ARC
  5
3AD
  8
__
  6
CONTINUOUS
 62
     7
 10
-244.9883489567947
 20
-997.6947144363138
 30
0.0
 40
2.999999999999794
 50
268.2228490000003
 51
0.0
  0
LINE
  5
3AE
  8
__
  6
CONTINUOUS
 62
     7
 10
-245.0588670000002
 20
-1000.692613
 30
0.0
 11
-313.1454210000002
 21
-998.5800859999998
 31
0.0
  0
LINE
  5
3AF
  8
__
  6
CONTINUOUS
 62
     7
 10
-241.9883489567947
 20
-997.6947144363138
 30
0.0
 11
-241.9883489567947
 21
-985.2991744363134
 31
0.0
  0
ARC
  5
3B0
  8
__
  6
CONTINUOUS
 62
     7
 10
-244.9883489567947
 20
-985.2991744363134
 30
0.0
 40
3.0
 50
0.0
 51
86.95869500000845
  0
LINE
  5
3B1
  8
__
  6
CONTINUOUS
 62
     7
 10
-244.8066630000003
 20
-982.3027410000003
 30
0.0
 11
-313.1454210000002
 21
-978.6718549999999
 31
0.0
  0
LINE
  5
3B2
  8
__
  6
CONTINUOUS
 62
     7
 10
-249.9774830000001
 20
-981.0303890000004
 30
0.0
 11
-313.1454210000002
 21
-973.1566739999997
 31
0.0
  0
LINE
  5
3B3
  8
__
  6
CONTINUOUS
 62
     7
 10
-249.9774830000001
 20
-1005.70162
 30
0.0
 11
-313.1454210000002
 21
-1003.202587
 31
0.0
  0
LINE
  5
3B4
  8
__
  6
CONTINUOUS
 62
     7
 10
-250.0000009567948
 20
-1017.500658436314
 30
0.0
 11
-250.0000009567948
 21
-1000.540660436314
 31
0.0
  0
LINE
  5
3B5
  8
__
  6
CONTINUOUS
 62
     7
 10
-250.0
 20
-982.0286704363137
 30
0.0
 11
-250.0
 21
-612.9663924363136
 31
0.0
  0
LINE
  5
3B6
  8
__
  6
CONTINUOUS
 62
     7
 10
-481.6606139999999
 20
-592.8143618331274
 30
0.0
 11
-481.6606139999999
 21
-565.0000000000001
 31
0.0
  0
LINE
  5
3B7
  8
__
  6
CONTINUOUS
 62
     7
 10
-318.3393860000001
 20
-592.719992265992
 30
0.0
 11
-318.3393860000001
 21
-565.0000000000001
 31
0.0
  0
CIRCLE
  5
3B8
  8
__
  6
CONTINUOUS
 62
     7
 10
-399.9774830000001
 20
-986.0000003617091
 30
0.0
 40
10.0
  0
LINE
  5
3B9
  8
__
  6
CONTINUOUS
 62
     7
 10
-399.9774830000001
 20
-983.5000003617091
 30
0.0
 11
-397.8124190000003
 21
-984.7500003617091
 31
0.0
  0
LINE
  5
3BA
  8
__
  6
CONTINUOUS
 62
     7
 10
-397.8124190000003
 20
-984.7500003617091
 30
0.0
 11
-397.8124190000003
 21
-987.2500003617091
 31
0.0
  0
LINE
  5
3BB
  8
__
  6
CONTINUOUS
 62
     7
 10
-397.8124190000003
 20
-987.2500003617091
 30
0.0
 11
-399.9774830000001
 21
-988.5000003617091
 31
0.0
  0
LINE
  5
3BC
  8
__
  6
CONTINUOUS
 62
     7
 10
-399.9774830000001
 20
-988.5000003617091
 30
0.0
 11
-402.1425460000005
 21
-987.2500003617091
 31
0.0
  0
LINE
  5
3BD
  8
__
  6
CONTINUOUS
 62
     7
 10
-402.1425460000005
 20
-987.2500003617091
 30
0.0
 11
-402.1425460000005
 21
-984.7500003617091
 31
0.0
  0
LINE
  5
3BE
  8
__
  6
CONTINUOUS
 62
     7
 10
-402.1425460000005
 20
-984.7500003617091
 30
0.0
 11
-399.9774830000001
 21
-983.5000003617091
 31
0.0
  0
CIRCLE
  5
3BF
  8
__
  6
CONTINUOUS
 62
     7
 10
-400.0
 20
-609.0000003149821
 30
0.0
 40
10.0
  0
LINE
  5
3C0
  8
PRX908
  6
CONTINUOUS
 62
     7
 10
-933.3587069999999
 20
-579.9672413737651
 30
0.0
 11
-933.3587069999999
 21
-1019.967241303708
 31
0.0
  0
LINE
  5
3C1
  8
PRX908
  6
CONTINUOUS
 62
     7
 10
-905.8837749999999
 20
-571.2281963737651
 30
0.0
 11
-906.0587879999999
 21
-571.4032093737651
 31
0.0
  0
ARC
  5
3C2
  8
PRX908
  6
CONTINUOUS
 62
     7
 10
-887.7294089999999
 20
-586.374566373765
 30
0.0
 40
48.14986899999995
 50
153.602393
 51
172.1631039999999
  0
LINE
  5
3C3
  8
PRX908
  6
CONTINUOUS
 62
     7
 10
-877.0975619999999
 20
-584.2619853737649
 30
0.0
 11
-935.4295689999999
 21
-579.809160373765
 31
0.0
  0
ARC
  5
3C4
  8
PRX908
  6
CONTINUOUS
 62
     7
 10
-877.8587069999999
 20
-594.232976373765
 30
0.0
 40
10.0
 50
0.0
 51
85.63474199999962
  0
LINE
  5
3C5
  8
PRX908
  6
CONTINUOUS
 62
     7
 10
-867.8587069999999
 20
-594.232976373765
 30
0.0
 11
-867.8587069999999
 21
-1005.701506373765
 31
0.0
  0
LINE
  5
3C6
  8
PRX908
  6
CONTINUOUS
 62
     7
 10
-869.7785349999999
 20
-588.3413863737651
 30
0.0
 11
-865.5999459999999
 21
-582.9672413737651
 31
0.0
  0
LINE
  5
3C7
  8
PRX908
  6
CONTINUOUS
 62
     7
 10
-894.0268089999998
 20
-1034.967241303708
 30
0.0
 11
-894.0268089999998
 21
-564.9672413737651
 31
0.0
  0
LINE
  5
3C8
  8
PRX908
  6
CONTINUOUS
 62
     7
 10
-923.1758239999999
 20
-1034.967241303708
 30
0.0
 11
-923.1758239999999
 21
-564.9672413737651
 31
0.0
  0
LINE
  5
3C9
  8
PRX908
  6
CONTINUOUS
 62
     7
 10
-906.0587879999999
 20
-571.4032093737651
 30
0.0
 11
-905.8837749999999
 21
-571.2281963737651
 31
0.0
  0
LINE
  5
3CA
  8
PRX908
  6
CONTINUOUS
 62
     7
 10
-922.9295690000001
 20
-1036.967241373765
 30
0.0
 11
-922.9295690000001
 21
-1034.967241303708
 31
0.0
  0
ARC
  5
3CB
  8
PRX908
  6
CONTINUOUS
 62
     7
 10
-919.9295690000001
 20
-1036.967241373765
 30
0.0
 40
3.0
 50
180.0
 51
270.0
  0
LINE
  5
3CC
  8
PRX908
  6
CONTINUOUS
 62
     7
 10
-910.151310656771
 20
-1039.967241373765
 30
0.0
 11
-919.9295690000001
 21
-1039.967241373765
 31
0.0
  0
ARC
  5
3CD
  8
PRX908
  6
CONTINUOUS
 62
     7
 10
-910.151310656771
 20
-1036.967241373765
 30
0.0
 40
3.0
 50
270.0
 51
0.0
  0
LINE
  5
3CE
  8
PRX908
  6
CONTINUOUS
 62
     7
 10
-907.151310656771
 20
-1036.967241373765
 30
0.0
 11
-907.151310656771
 21
-1034.967241303708
 31
0.0
  0
LINE
  5
3CF
  8
PRX908
  6
CONTINUOUS
 62
     7
 10
-823.819493
 20
-1036.967241373765
 30
0.0
 11
-823.819493
 21
-1034.967241303708
 31
0.0
  0
ARC
  5
3D0
  8
PRX908
  6
CONTINUOUS
 62
     7
 10
-820.819493
 20
-1036.967241373765
 30
0.0
 40
3.0
 50
180.0
 51
270.0
  0
LINE
  5
3D1
  8
PRX908
  6
CONTINUOUS
 62
     7
 10
-873.8587069999999
 20
-594.232976373765
 30
0.0
 11
-873.8587069999999
 21
-1005.701506373765
 31
0.0
  0
LINE
  5
3D2
  8
PRX908
  6
CONTINUOUS
 62
     7
 10
-877.5542489999999
 20
-590.244579373765
 30
0.0
 11
-873.8587069999999
 21
-594.232976373765
 31
0.0
  0
LINE
  5
3D3
  8
PRX908
  6
CONTINUOUS
 62
     7
 10
-877.5542489999999
 20
-590.244579373765
 30
0.0
 11
-933.3587069999999
 21
-585.9846973737649
 31
0.0
  0
LINE
  5
3D4
  8
PRX908
  6
CONTINUOUS
 62
     7
 10
-930.8587069999999
 20
-564.9672413737651
 30
0.0
 11
-662.3142614408349
 21
-564.9672413737651
 31
0.0
  0
LINE
  5
3D5
  8
PRX908
  6
CONTINUOUS
 62
     7
 10
-865.5999459999999
 20
-582.9672413737651
 30
0.0
 11
-657.4295699567947
 21
-590.246971666599
 31
0.0
  0
LINE
  5
3D6
  8
PRX908
  6
CONTINUOUS
 62
     7
 10
-867.8587069999999
 20
-626.9672413737651
 30
0.0
 11
-760.945302
 21
-643.689752373765
 31
0.0
  0
ARC
  5
3D7
  8
PRX908
  6
CONTINUOUS
 62
     7
 10
-762.4287069999999
 20
-653.579115373765
 30
0.0
 40
10.0
 50
0.0
 51
81.46923400000037
  0
LINE
  5
3D8
  8
PRX908
  6
CONTINUOUS
 62
     7
 10
-867.8587069999999
 20
-967.9672413737651
 30
0.0
 11
-760.945302
 21
-951.2447303737649
 31
0.0
  0
ARC
  5
3D9
  8
PRX908
  6
CONTINUOUS
 62
     7
 10
-762.4287069999999
 20
-941.3553673737649
 30
0.0
 40
9.999999999999904
 50
278.5307659999996
 51
0.0
  0
LINE
  5
3DA
  8
PRX908
  6
CONTINUOUS
 62
     7
 10
-752.4287069999999
 20
-653.579115373765
 30
0.0
 11
-752.4287069999999
 21
-941.3553673737649
 31
0.0
  0
ARC
  5
3DB
  8
PRX908
  6
CONTINUOUS
 62
     7
 10
-677.3491439999998
 20
-1036.967241373765
 30
0.0
 40
3.0
 50
270.0
 51
0.0
  0
LINE
  5
3DC
  8
PRX908
  6
CONTINUOUS
 62
     7
 10
-677.3491439999998
 20
-1039.967241373765
 30
0.0
 11
-820.819493
 21
-1039.967241373765
 31
0.0
  0
LINE
  5
3DD
  8
PRX908
  6
CONTINUOUS
 62
     7
 10
-911.2710420000002
 20
-1028.706286373765
 30
0.0
 11
-911.4460550000002
 21
-1028.531273373765
 31
0.0
  0
ARC
  5
3DE
  8
PRX908
  6
CONTINUOUS
 62
     7
 10
-887.7294089999999
 20
-1013.559916373765
 30
0.0
 40
48.14986900000004
 50
187.8368960000001
 51
206.397607
  0
LINE
  5
3DF
  8
PRX908
  6
CONTINUOUS
 62
     7
 10
-877.0975619999999
 20
-1015.672497373765
 30
0.0
 11
-935.4295697846206
 21
-1020.125321604099
 31
0.0
  0
ARC
  5
3E0
  8
PRX908
  6
CONTINUOUS
 62
     7
 10
-877.8587069999999
 20
-1005.701506373765
 30
0.0
 40
9.999999999999904
 50
274.3652580000004
 51
0.0
  0
LINE
  5
3E1
  8
PRX908
  6
CONTINUOUS
 62
     7
 10
-869.7785349999999
 20
-1011.593096373765
 30
0.0
 11
-865.5999459999999
 21
-1016.967241373765
 31
0.0
  0
LINE
  5
3E2
  8
PRX908
  6
CONTINUOUS
 62
     7
 10
-911.4460550000002
 20
-1028.531273373765
 30
0.0
 11
-911.2710420000002
 21
-1028.706286373765
 31
0.0
  0
LINE
  5
3E3
  8
PRX908
  6
CONTINUOUS
 62
     7
 10
-877.5542489999999
 20
-1009.689903373765
 30
0.0
 11
-873.8587069999999
 21
-1005.701506373765
 31
0.0
  0
LINE
  5
3E4
  8
PRX908
  6
CONTINUOUS
 62
     7
 10
-877.5542489999999
 20
-1009.689903373765
 30
0.0
 11
-933.3587069999999
 21
-1013.949785373765
 31
0.0
  0
LINE
  5
3E5
  8
PRX908
  6
CONTINUOUS
 62
     7
 10
-865.5999459999999
 20
-1016.967241373765
 30
0.0
 11
-657.4295699567947
 21
-1009.687511080931
 31
0.0
  0
LINE
  5
3E6
  8
PRX908
  6
CONTINUOUS
 62
     7
 10
-674.3491439999998
 20
-1036.967241373765
 30
0.0
 11
-674.3491439999998
 21
-1034.967241303708
 31
0.0
  0
LINE
  5
3E7
  8
PRX908
  6
CONTINUOUS
 62
     7
 10
-922.1131651909246
 20
-1036.967241373765
 30
0.0
 11
-922.1131651909246
 21
-1034.967241303708
 31
0.0
  0
ARC
  5
3E8
  8
PRX908
  6
CONTINUOUS
 62
     7
 10
-919.1131651909246
 20
-1036.967241373765
 30
0.0
 40
3.0
 50
180.0
 51
270.0
  0
ARC
  5
3E9
  8
PRX908
  6
CONTINUOUS
 62
     7
 10
-705.5588669567946
 20
-586.1406676077543
 30
0.0
 40
48.14986899999996
 50
1.674879999999956
 51
26.08729705670908
  0
ARC
  5
3EA
  8
PRX908
  6
CONTINUOUS
 62
     7
 10
-708.1507009567947
 20
-603.8939016077543
 30
0.0
 40
22.49999999999995
 50
165.9378080000002
 51
188.7369220000003
  0
LINE
  5
3EB
  8
PRX908
  6
CONTINUOUS
 62
     7
 10
-729.9764329567947
 20
-598.4269656077543
 30
0.0
 11
-729.5208839567947
 21
-597.1978886077543
 31
0.0
  0
ARC
  5
3EC
  8
PRX908
  6
CONTINUOUS
 62
     7
 10
-724.8325579567947
 20
-598.9355876077543
 30
0.0
 40
4.999999999999934
 50
88.04184899999991
 51
159.6630910000005
  0
LINE
  5
3ED
  8
PRX908
  6
CONTINUOUS
 62
     7
 10
-730.3896149567947
 20
-607.3116016077543
 30
0.0
 11
-730.0502489567946
 21
-608.5770796077543
 31
0.0
  0
ARC
  5
3EE
  8
PRX908
  6
CONTINUOUS
 62
     7
 10
-725.2208899567947
 20
-607.2819776077542
 30
0.0
 40
4.999999999999966
 50
195.0119450000006
 51
266.6456990000008
  0
LINE
  5
3EF
  8
PRX908
  6
CONTINUOUS
 62
     7
 10
-724.6617099567948
 20
-593.9385076077542
 30
0.0
 11
-656.4876558028496
 21
-596.2693437951204
 31
0.0
  0
LINE
  5
3F0
  8
PRX908
  6
CONTINUOUS
 62
     7
 10
-725.5134399567946
 20
-612.2734116077543
 30
0.0
 11
-657.4158429443631
 21
-616.2951309801394
 31
0.0
  0
ARC
  5
3F1
  8
PRX908
  6
CONTINUOUS
 62
     7
 10
-704.7241279567947
 20
-604.0506876077543
 30
0.0
 40
29.9999999999999
 50
167.445036
 51
187.2408879999999
  0
LINE
  5
3F2
  8
PRX908
  6
CONTINUOUS
 62
     7
 10
-734.0067649567948
 20
-597.5294046077543
 30
0.0
 11
-733.8778599567947
 21
-597.0970946077543
 31
0.0
  0
ARC
  5
3F3
  8
PRX908
  6
CONTINUOUS
 62
     7
 10
-724.2948069567947
 20
-599.9545576077544
 30
0.0
 40
10.00000000000009
 50
88.04184899999998
 51
163.3965379999998
  0
LINE
  5
3F4
  8
PRX908
  6
CONTINUOUS
 62
     7
 10
-734.4848779567947
 20
-607.8319236077543
 30
0.0
 11
-734.3094729567947
 21
-608.5851736077543
 31
0.0
  0
ARC
  5
3F5
  8
PRX908
  6
CONTINUOUS
 62
     7
 10
-724.5700489567946
 20
-606.3172176077542
 30
0.0
 40
9.99999999999995
 50
193.1084879999994
 51
266.6456989999996
  0
LINE
  5
3F6
  8
PRX908
  6
CONTINUOUS
 62
     7
 10
-723.9531109567947
 20
-589.9603966077543
 30
0.0
 11
-660.7732179567947
 21
-592.1204856077543
 31
0.0
  0
ARC
  5
3F7
  8
PRX908
  6
CONTINUOUS
 62
     7
 10
-660.8757259567947
 20
-595.1187336077544
 30
0.0
 40
2.999999999999953
 50
16.1238370000006
 51
88.04184899999913
  0
LINE
  5
3F8
  8
PRX908
  6
CONTINUOUS
 62
     7
 10
-657.9937349567947
 20
-594.2855906077543
 30
0.0
 11
-657.4295699567947
 21
-596.2371406077543
 31
0.0
  0
LINE
  5
3F9
  8
PRX908
  6
CONTINUOUS
 62
     7
 10
-725.1551509567946
 20
-616.3000856077542
 30
0.0
 11
-661.025266240164
 21
-620.0587797544333
 31
0.0
  0
ARC
  5
3FA
  8
PRX908
  6
CONTINUOUS
 62
     7
 10
-659.4295699567947
 20
-619.0923626077542
 30
0.0
 40
2.000000000000102
 50
314.1490389999992
 51
0.0
  0
LINE
  5
3FB
  8
PRX908
  6
CONTINUOUS
 62
     7
 10
-658.0365149567947
 20
-620.5274226077543
 30
0.0
 11
-663.8226239567946
 21
-626.1441636077543
 31
0.0
  0
ARC
  5
3FC
  8
PRX908
  6
CONTINUOUS
 62
     7
 10
-662.4295699567947
 20
-627.5792246077542
 30
0.0
 40
2.000000000000102
 50
134.1490389999992
 51
180.0
  0
LINE
  5
3FD
  8
PRX908
  6
CONTINUOUS
 62
     7
 10
-657.4295699567947
 20
-584.7333426077544
 30
0.0
 11
-657.4295699567947
 21
-596.2371406077543
 31
0.0
  0
LINE
  5
3FE
  8
PRX908
  6
CONTINUOUS
 62
     7
 10
-657.4295699567947
 20
-616.2638456077543
 30
0.0
 11
-657.4295699567947
 21
-619.0923626077542
 31
0.0
  0
LINE
  5
3FF
  8
PRX908
  6
CONTINUOUS
 62
     7
 10
-664.4295699567947
 20
-627.5792246077542
 30
0.0
 11
-664.4295699567947
 21
-972.3552580697187
 31
0.0
  0
LINE
  5
400
  8
PRX908
  6
CONTINUOUS
 62
     7
 10
-725.2824309567948
 20
-587.8741531269686
 30
0.0
 11
-725.2824309567948
 21
-564.9672413737651
 31
0.0
  0
LINE
  5
401
  8
PRX908
  6
CONTINUOUS
 62
     7
 10
-725.2824317414155
 20
-616.2918108710494
 30
0.0
 11
-725.2824317414155
 21
-983.6426718064234
 31
0.0
  0
ARC
  5
402
  8
PRX908
  6
CONTINUOUS
 62
     7
 10
-680.5121109802168
 20
-605.1915731018803
 30
0.0
 40
29.99999999999995
 50
347.176235
 51
7.521189000000106
  0
ARC
  5
403
  8
PRX908
  6
CONTINUOUS
 62
     7
 10
-656.6926729802168
 20
-602.2658401018803
 30
0.0
 40
6.000000000000054
 50
12.25211399999889
 51
88.04184899999906
  0
LINE
  5
404
  8
PRX908
  6
CONTINUOUS
 62
     7
 10
-650.7702159802169
 20
-601.2647881018804
 30
0.0
 11
-650.8293329802169
 21
-600.9925571018803
 31
0.0
  0
LINE
  5
405
  8
PRX908
  6
CONTINUOUS
 62
     7
 10
-651.2603899802169
 20
-611.8501621018804
 30
0.0
 11
-651.3442099802168
 21
-612.1151201018804
 31
0.0
  0
ARC
  5
406
  8
PRX908
  6
CONTINUOUS
 62
     7
 10
-657.0647819802169
 20
-610.3054101018804
 30
0.0
 40
5.999999999999968
 50
266.6456989999991
 51
342.445173
  0
ARC
  5
407
  8
PRX908
  6
CONTINUOUS
 62
     7
 10
-660.8497357580909
 20
-617.0639193153038
 30
0.0
 40
2.999999999999984
 50
266.6456989999991
 51
341.5244089999989
  0
LINE
  5
408
  8
PRX908
  6
CONTINUOUS
 62
     7
 10
-657.4295699567947
 20
-616.2943202879235
 30
0.0
 11
-658.0043587580908
 21
-618.0146213153039
 31
0.0
  0
ARC
  5
409
  8
PRX908
  6
CONTINUOUS
 62
     7
 10
-708.1507009567947
 20
-996.0405810697187
 30
0.0
 40
22.49999999999996
 50
171.2630779999997
 51
194.0621919999997
  0
LINE
  5
40A
  8
PRX908
  6
CONTINUOUS
 62
     7
 10
-729.9764329567947
 20
-1001.507517069719
 30
0.0
 11
-729.5208839567947
 21
-1002.736594069719
 31
0.0
  0
ARC
  5
40B
  8
PRX908
  6
CONTINUOUS
 62
     7
 10
-724.8325579567947
 20
-1000.998895069719
 30
0.0
 40
4.999999999999925
 50
200.3369089999995
 51
271.958151
  0
LINE
  5
40C
  8
PRX908
  6
CONTINUOUS
 62
     7
 10
-730.3896149567947
 20
-992.6228810697187
 30
0.0
 11
-730.0502489567946
 21
-991.3574030697187
 31
0.0
  0
ARC
  5
40D
  8
PRX908
  6
CONTINUOUS
 62
     7
 10
-725.2208899567947
 20
-992.6525050697187
 30
0.0
 40
4.999999999999889
 50
93.35430099999924
 51
164.9880549999994
  0
LINE
  5
40E
  8
PRX908
  6
CONTINUOUS
 62
     7
 10
-724.6617099567948
 20
-1005.995975069719
 30
0.0
 11
-656.4876558028496
 21
-1003.665138882352
 31
0.0
  0
LINE
  5
40F
  8
PRX908
  6
CONTINUOUS
 62
     7
 10
-725.5134399567946
 20
-987.6610710697187
 30
0.0
 11
-657.4158429443631
 21
-983.6393516973335
 31
0.0
  0
ARC
  5
410
  8
PRX908
  6
CONTINUOUS
 62
     7
 10
-704.7241279567947
 20
-995.8837950697186
 30
0.0
 40
29.99999999999998
 50
172.7591120000002
 51
192.554964
  0
LINE
  5
411
  8
PRX908
  6
CONTINUOUS
 62
     7
 10
-734.0067649567948
 20
-1002.405078069719
 30
0.0
 11
-733.8778599567947
 21
-1002.837388069719
 31
0.0
  0
ARC
  5
412
  8
PRX908
  6
CONTINUOUS
 62
     7
 10
-724.2948069567947
 20
-999.9799250697185
 30
0.0
 40
10.00000000000007
 50
196.6034620000002
 51
271.958151
  0
LINE
  5
413
  8
PRX908
  6
CONTINUOUS
 62
     7
 10
-734.4848779567947
 20
-992.1025590697186
 30
0.0
 11
-734.3094729567947
 21
-991.3493090697186
 31
0.0
  0
ARC
  5
414
  8
PRX908
  6
CONTINUOUS
 62
     7
 10
-724.5700489567946
 20
-993.6172650697188
 30
0.0
 40
10.00000000000002
 50
93.35430100000046
 51
166.8915120000006
  0
LINE
  5
415
  8
PRX908
  6
CONTINUOUS
 62
     7
 10
-723.9531109567947
 20
-1009.974086069719
 30
0.0
 11
-660.7732179567947
 21
-1007.813997069719
 31
0.0
  0
ARC
  5
416
  8
PRX908
  6
CONTINUOUS
 62
     7
 10
-660.8757259567947
 20
-1004.815749069719
 30
0.0
 40
3.000000000000098
 50
271.9581510000008
 51
343.8761629999994
  0
LINE
  5
417
  8
PRX908
  6
CONTINUOUS
 62
     7
 10
-657.9937349567947
 20
-1005.648892069719
 30
0.0
 11
-657.4295699567947
 21
-1003.697342069719
 31
0.0
  0
LINE
  5
418
  8
PRX908
  6
CONTINUOUS
 62
     7
 10
-725.1551509567946
 20
-983.6343970697187
 30
0.0
 11
-661.025266240164
 21
-979.8757029230396
 31
0.0
  0
ARC
  5
419
  8
PRX908
  6
CONTINUOUS
 62
     7
 10
-659.4295699567947
 20
-980.8421200697187
 30
0.0
 40
2.0
 50
0.0
 51
45.85096100000084
  0
LINE
  5
41A
  8
PRX908
  6
CONTINUOUS
 62
     7
 10
-658.0365149567947
 20
-979.4070600697187
 30
0.0
 11
-663.8226239567946
 21
-973.7903190697186
 31
0.0
  0
ARC
  5
41B
  8
PRX908
  6
CONTINUOUS
 62
     7
 10
-662.4295699567947
 20
-972.3552580697187
 30
0.0
 40
2.0
 50
180.0
 51
225.8509610000008
  0
LINE
  5
41C
  8
PRX908
  6
CONTINUOUS
 62
     7
 10
-657.4295699567947
 20
-1015.201140069719
 30
0.0
 11
-657.4295699567947
 21
-1003.697342069719
 31
0.0
  0
LINE
  5
41D
  8
PRX908
  6
CONTINUOUS
 62
     7
 10
-657.4295699567947
 20
-983.6706370697186
 30
0.0
 11
-657.4295699567947
 21
-980.8421200697187
 31
0.0
  0
LINE
  5
41E
  8
PRX908
  6
CONTINUOUS
 62
     7
 10
-725.2824309567948
 20
-1012.060329550504
 30
0.0
 11
-725.2824309567948
 21
-1034.967241303708
 31
0.0
  0
ARC
  5
41F
  8
PRX908
  6
CONTINUOUS
 62
     7
 10
-680.5121109802168
 20
-994.7429095755926
 30
0.0
 40
29.99999999999994
 50
352.4788109999999
 51
12.82376500000004
  0
ARC
  5
420
  8
PRX908
  6
CONTINUOUS
 62
     7
 10
-656.6926729802168
 20
-997.6686425755927
 30
0.0
 40
5.999999999999969
 50
271.958151000001
 51
347.7478860000011
  0
LINE
  5
421
  8
PRX908
  6
CONTINUOUS
 62
     7
 10
-650.7702159802169
 20
-998.6696945755925
 30
0.0
 11
-650.8293329802169
 21
-998.9419255755927
 31
0.0
  0
LINE
  5
422
  8
PRX908
  6
CONTINUOUS
 62
     7
 10
-651.2603899802169
 20
-988.0843205755925
 30
0.0
 11
-651.3442099802168
 21
-987.8193625755925
 31
0.0
  0
ARC
  5
423
  8
PRX908
  6
CONTINUOUS
 62
     7
 10
-657.0647819802169
 20
-989.6290725755925
 30
0.0
 40
5.999999999999978
 50
17.55482700000001
 51
93.35430100000093
  0
ARC
  5
424
  8
PRX908
  6
CONTINUOUS
 62
     7
 10
-660.8497357580909
 20
-982.8705633621692
 30
0.0
 40
3.000000000000048
 50
18.47559100000118
 51
93.35430100000092
  0
LINE
  5
425
  8
PRX908
  6
CONTINUOUS
 62
     7
 10
-657.4295699567947
 20
-983.6401623895495
 30
0.0
 11
-658.0043587580908
 21
-981.9198613621691
 31
0.0
  0
LINE
  5
426
  8
PRX908
  6
CONTINUOUS
 62
     7
 10
-930.8587069999999
 20
-1034.967241303708
 30
0.0
 11
-662.3142614408349
 21
-1034.967241303708
 31
0.0
  0
ARC
  5
427
  8
PRX908
  6
CONTINUOUS
 62
     7
 10
-705.5588669567946
 20
-1013.793815069719
 30
0.0
 40
48.14986899999995
 50
333.9127029432909
 51
358.32512
  0
ARC
  5
428
  8
__
  6
CONTINUOUS
 62
     7
 10
-1355.4526165
 20
-609.2307369801395
 30
0.0
 40
3.0
 50
180.0
 51
270.0
  0
ARC
  5
429
  8
__
  6
CONTINUOUS
 62
     7
 10
-1355.4526165
 20
-613.2951309801394
 30
0.0
 40
3.0
 50
180.0
 51
270.0
  0
LINE
  5
42A
  8
__
  6
CONTINUOUS
 62
     7
 10
-1355.4526165
 20
-612.2307369801395
 30
0.0
 11
-1350.1469885
 21
-612.2307369801395
 31
0.0
  0
LINE
  5
42B
  8
__
  6
CONTINUOUS
 62
     7
 10
-1355.4526165
 20
-616.2951309801394
 30
0.0
 11
-1350.1469885
 21
-616.2951309801394
 31
0.0
  0
ARC
  5
42C
  8
__
  6
CONTINUOUS
 62
     7
 10
-1044.8473835
 20
-609.2307369801395
 30
0.0
 40
3.0
 50
270.0
 51
0.0
  0
ARC
  5
42D
  8
__
  6
CONTINUOUS
 62
     7
 10
-1044.8473835
 20
-613.2951309801394
 30
0.0
 40
3.0
 50
270.0
 51
0.0
  0
LINE
  5
42E
  8
__
  6
CONTINUOUS
 62
     7
 10
-1044.8473835
 20
-612.2307369801395
 30
0.0
 11
-1050.1530115
 21
-612.2307369801395
 31
0.0
  0
LINE
  5
42F
  8
__
  6
CONTINUOUS
 62
     7
 10
-1044.8473835
 20
-616.2951309801394
 30
0.0
 11
-1050.1530115
 21
-616.2951309801394
 31
0.0
  0
LINE
  5
430
  8
PRX908
  6
CONTINUOUS
 62
     7
 10
-481.6606139999999
 20
-1005.0
 30
0.0
 11
-549.9774830000001
 21
-1007.704064
 31
0.0
  0
LINE
  5
431
  8
PRX908
  6
CONTINUOUS
 62
     7
 10
-318.3393860000001
 20
-1005.0
 30
0.0
 11
-249.9774830000001
 21
-1007.703184
 31
0.0
  0
LINE
  5
432
  8
PRX908
  6
CONTINUOUS
 62
     7
 10
-481.6606139999999
 20
-1002.191893166873
 30
0.0
 11
-481.6606139999999
 21
-1035.0
 31
0.0
  0
LINE
  5
433
  8
PRX908
  6
CONTINUOUS
 62
     7
 10
-318.3393860000001
 20
-1002.273753734007
 30
0.0
 11
-318.3393860000001
 21
-1035.0
 31
0.0
  0
LINE
  5
434
  8
PRX908
  6
CONTINUOUS
 62
     7
 10
-318.3393860000001
 20
-1005.0
 30
0.0
 11
-481.6606139999999
 21
-1005.0
 31
0.0
  0
ARC
  5
435
  8
__
  6
CONTINUOUS
 62
     7
 10
-480.0001600000001
 20
-632.0000000000001
 30
0.0
 40
7.0
 50
90.0
 51
180.0179189999996
  0
LINE
  5
436
  8
__
  6
CONTINUOUS
 62
     7
 10
-320.0001520000001
 20
-625.0000000000001
 30
0.0
 11
-480.0001600000001
 21
-625.0000000000001
 31
0.0
  0
ARC
  5
437
  8
__
  6
CONTINUOUS
 62
     7
 10
-320.0001520000001
 20
-632.0000000000001
 30
0.0
 40
7.000000000000415
 50
0.0179189999995803
 51
90.0
  0
ARC
  5
438
  8
__
  6
CONTINUOUS
 62
     7
 10
-319.8966349999996
 20
-962.9999999999999
 30
0.0
 40
7.0
 50
270.0
 51
0.0179189999976757
  0
LINE
  5
439
  8
__
  6
CONTINUOUS
 62
     7
 10
-313.000153
 20
-631.9978110000001
 30
0.0
 11
-312.8966349999996
 21
-962.9978110000001
 31
0.0
  0
LINE
  5
43A
  8
__
  6
CONTINUOUS
 62
     7
 10
-487.0001600000001
 20
-632.0021889999999
 30
0.0
 11
-486.8966429999996
 21
-963.0021889999997
 31
0.0
  0
ARC
  5
43B
  8
__
  6
CONTINUOUS
 62
     7
 10
-479.8966429999996
 20
-962.9999999999999
 30
0.0
 40
7.000000000000415
 50
180.0179190000015
 51
270.0
  0
LINE
  5
43C
  8
__
  6
CONTINUOUS
 62
     7
 10
-319.8966349999996
 20
-969.9999999999999
 30
0.0
 11
-479.8966429999996
 21
-969.9999999999999
 31
0.0
  0
ARC
  5
43D
  8
__
  6
CONTINUOUS
 62
     7
 10
-479.8967989999996
 20
-962.4999999999999
 30
0.0
 40
9.999999999999943
 50
180.0179190000007
 51
270.0
  0
LINE
  5
43E
  8
__
  6
CONTINUOUS
 62
     7
 10
-319.8967909999997
 20
-972.4999999999999
 30
0.0
 11
-479.8967989999996
 21
-972.4999999999999
 31
0.0
  0
ARC
  5
43F
  8
__
  6
CONTINUOUS
 62
     7
 10
-319.8967909999997
 20
-962.4999999999999
 30
0.0
 40
10.0
 50
270.0
 51
0.0179189999981304
  0
ARC
  5
440
  8
__
  6
CONTINUOUS
 62
     7
 10
-319.999996
 20
-632.5000000000001
 30
0.0
 40
9.999999999999943
 50
0.0179189999993954
 51
90.0
  0
LINE
  5
441
  8
__
  6
CONTINUOUS
 62
     7
 10
-309.999996
 20
-632.4968729999999
 30
0.0
 11
-309.896792
 21
-962.4968729999999
 31
0.0
  0
LINE
  5
442
  8
__
  6
CONTINUOUS
 62
     7
 10
-490.0000029999997
 20
-632.503128
 30
0.0
 11
-489.8967989999996
 21
-962.5031280000002
 31
0.0
  0
ARC
  5
443
  8
__
  6
CONTINUOUS
 62
     7
 10
-480.000004
 20
-632.5000000000001
 30
0.0
 40
10.0
 50
90.0
 51
180.0179189999994
  0
LINE
  5
444
  8
__
  6
CONTINUOUS
 62
     7
 10
-319.999996
 20
-622.5000000000001
 30
0.0
 11
-480.000004
 21
-622.5000000000001
 31
0.0
  0
LINE
  5
445
  8
__
  6
CONTINUOUS
 62
     7
 10
-481.6817239999996
 20
-622.5000000000001
 30
0.0
 11
-481.6817239999996
 21
-620.861683
 31
0.0
  0
LINE
  5
446
  8
__
  6
CONTINUOUS
 62
     7
 10
-481.6817239999996
 20
-972.5062550000001
 30
0.0
 11
-481.6817239999996
 21
-974.144572
 31
0.0
  0
LINE
  5
447
  8
__
  6
CONTINUOUS
 62
     7
 10
-481.6817239999996
 20
-972.4999999999999
 30
0.0
 11
-481.6817239999996
 21
-974.144572
 31
0.0
  0
LINE
  5
448
  8
__
  6
CONTINUOUS
 62
     7
 10
-318.3604959999998
 20
-622.5000000000001
 30
0.0
 11
-318.3604959999998
 21
-620.861683
 31
0.0
  0
LINE
  5
449
  8
__
  6
CONTINUOUS
 62
     7
 10
-318.3604959999998
 20
-972.4937450000001
 30
0.0
 11
-318.3604959999998
 21
-974.132062
 31
0.0
  0
LINE
  5
44A
  8
__
  6
CONTINUOUS
 62
     7
 10
-318.3604959999998
 20
-972.4999999999999
 30
0.0
 11
-318.3604959999998
 21
-974.132062
 31
0.0
  0
ARC
  5
44B
  8
__
  6
CONTINUOUS
 62
     7
 10
-323.999996
 20
-639.0000000000001
 30
0.0
 40
4.999999999999972
 50
0.0179190000006982
 51
90.0
  0
LINE
  5
44C
  8
__
  6
CONTINUOUS
 62
     7
 10
-318.9999969999999
 20
-638.998436
 30
0.0
 11
-318.900858
 21
-955.9984359999997
 31
0.0
  0
LINE
  5
44D
  8
__
  6
CONTINUOUS
 62
     7
 10
-323.999996
 20
-634.0000000000001
 30
0.0
 11
-476.000004
 21
-634.0000000000001
 31
0.0
  0
ARC
  5
44E
  8
__
  6
CONTINUOUS
 62
     7
 10
-476.000004
 20
-639.0000000000001
 30
0.0
 40
5.0
 50
90.0
 51
180.0179190000007
  0
LINE
  5
44F
  8
__
  6
CONTINUOUS
 62
     7
 10
-481.000004
 20
-639.001564
 30
0.0
 11
-480.9008650000001
 21
-956.001564
 31
0.0
  0
LINE
  5
450
  8
__
  6
CONTINUOUS
 62
     7
 10
-374.9999989999999
 20
-693.0000000000001
 30
0.0
 11
-425.0000010000001
 21
-693.0000000000001
 31
0.0
  0
LINE
  5
451
  8
__
  6
CONTINUOUS
 62
     7
 10
-374.9999989999999
 20
-693.0000000000001
 30
0.0
 11
-374.9884279999999
 21
-730.0000000000001
 31
0.0
  0
LINE
  5
452
  8
__
  6
CONTINUOUS
 62
     7
 10
-374.9884279999999
 20
-730.0000000000001
 30
0.0
 11
-424.9884300000001
 21
-730.0000000000001
 31
0.0
  0
LINE
  5
453
  8
__
  6
CONTINUOUS
 62
     7
 10
-425.0000010000001
 20
-693.0000000000001
 30
0.0
 11
-424.9884300000001
 21
-730.0000000000001
 31
0.0
  0
CIRCLE
  5
454
  8
__
  6
CONTINUOUS
 62
     7
 10
-446.4971880000001
 20
-702.0000000000001
 30
0.0
 40
7.5
  0
CIRCLE
  5
455
  8
__
  6
CONTINUOUS
 62
     7
 10
-357.4971830000002
 20
-702.0000000000001
 30
0.0
 40
9.0
  0
CIRCLE
  5
456
  8
__
  6
CONTINUOUS
 62
     7
 10
-357.4971830000002
 20
-726.5000000000001
 30
0.0
 40
3.5
  0
ARC
  5
457
  8
__
  6
CONTINUOUS
 62
     7
 10
-448.4971880000001
 20
-727.0000000000001
 30
0.0
 40
2.000000000000084
 50
94.84558399999177
 51
270.0
  0
ARC
  5
458
  8
__
  6
CONTINUOUS
 62
     7
 10
-444.4971880000001
 20
-727.0000000000001
 30
0.0
 40
2.0
 50
270.0
 51
90.0
  0
LINE
  5
459
  8
__
  6
CONTINUOUS
 62
     7
 10
-448.4971880000001
 20
-725.0000000000001
 30
0.0
 11
-444.4971880000001
 21
-725.0000000000001
 31
0.0
  0
LINE
  5
45A
  8
__
  6
CONTINUOUS
 62
     7
 10
-448.4971880000001
 20
-729.0000000000001
 30
0.0
 11
-444.4971880000001
 21
-729.0000000000001
 31
0.0
  0
ARC
  5
45B
  8
__
  6
CONTINUOUS
 62
     7
 10
-428.4999989999997
 20
-746.9940540000001
 30
0.0
 40
2.0
 50
90.0
 51
270.0
  0
ARC
  5
45C
  8
__
  6
CONTINUOUS
 62
     7
 10
-424.4999989999997
 20
-746.9940540000001
 30
0.0
 40
2.0
 50
270.0
 51
90.0
  0
LINE
  5
45D
  8
__
  6
CONTINUOUS
 62
     7
 10
-428.4999989999997
 20
-744.9940540000001
 30
0.0
 11
-424.4999989999997
 21
-744.9940540000001
 31
0.0
  0
LINE
  5
45E
  8
__
  6
CONTINUOUS
 62
     7
 10
-428.4999989999997
 20
-748.9940540000001
 30
0.0
 11
-424.4999989999997
 21
-748.9940540000001
 31
0.0
  0
CIRCLE
  5
45F
  8
__
  6
CONTINUOUS
 62
     7
 10
-426.4953059999998
 20
-760.0000000000001
 30
0.0
 40
3.25
  0
CIRCLE
  5
460
  8
__
  6
CONTINUOUS
 62
     7
 10
-426.4999989999997
 20
-790.0000000000001
 30
0.0
 40
11.25
  0
CIRCLE
  5
461
  8
__
  6
CONTINUOUS
 62
     7
 10
-426.495577180527
 20
-828.0000029171297
 30
0.0
 40
11.25
  0
ARC
  5
462
  8
__
  6
CONTINUOUS
 62
     7
 10
-426.4999989999997
 20
-790.0000000000001
 30
0.0
 40
10.50000000000009
 50
118.4548090000017
 51
61.58102900000164
  0
LINE
  5
463
  8
__
  6
CONTINUOUS
 62
     7
 10
-431.8602350000001
 20
-780.109077
 30
0.0
 11
-431.5028859999998
 21
-780.7684720000001
 31
0.0
  0
LINE
  5
464
  8
__
  6
CONTINUOUS
 62
     7
 10
-421.1397619999998
 20
-780.109077
 30
0.0
 11
-421.4971109999997
 21
-780.7684720000001
 31
0.0
  0
LINE
  5
465
  8
__
  6
CONTINUOUS
 62
     7
 10
-423.4076690000002
 20
-789.0000000000001
 30
0.0
 11
-422.0003109999998
 21
-789.0000000000001
 31
0.0
  0
LINE
  5
466
  8
__
  6
CONTINUOUS
 62
     7
 10
-423.4076690000002
 20
-791.0000000000001
 30
0.0
 11
-421.9996860000001
 21
-791.0000000000001
 31
0.0
  0
LINE
  5
467
  8
__
  6
CONTINUOUS
 62
     7
 10
-427.4990319999997
 20
-793.092642
 30
0.0
 11
-427.4985909999996
 21
-794.5000000000001
 31
0.0
  0
LINE
  5
468
  8
__
  6
CONTINUOUS
 62
     7
 10
-425.4990319999997
 20
-793.092016
 30
0.0
 11
-425.4985909999996
 21
-794.5000000000001
 31
0.0
  0
CIRCLE
  5
469
  8
__
  6
CONTINUOUS
 62
     7
 10
-426.4999989999997
 20
-790.0000000000001
 30
0.0
 40
8.0
  0
LINE
  5
46A
  8
__
  6
CONTINUOUS
 62
     7
 10
-429.5923279999997
 20
-789.0000000000001
 30
0.0
 11
-431.0003120000001
 21
-789.0000000000001
 31
0.0
  0
LINE
  5
46B
  8
__
  6
CONTINUOUS
 62
     7
 10
-429.5923279999997
 20
-791.0000000000001
 30
0.0
 11
-430.9996860000001
 21
-791.0000000000001
 31
0.0
  0
ARC
  5
46C
  8
__
  6
CONTINUOUS
 62
     7
 10
-430.9999989999997
 20
-790.0000000000001
 30
0.0
 40
0.9999999999999944
 50
90.01791900001633
 51
270.0179189999903
  0
ARC
  5
46D
  8
__
  6
CONTINUOUS
 62
     7
 10
-426.4985909999996
 20
-794.5000000000001
 30
0.0
 40
1.0
 50
180.0
 51
0.0
  0
ARC
  5
46E
  8
__
  6
CONTINUOUS
 62
     7
 10
-421.9999979999998
 20
-790.0000000000001
 30
0.0
 40
0.9999999999999943
 50
270.0179189999903
 51
90.01791899999027
  0
ARC
  5
46F
  8
__
  6
CONTINUOUS
 62
     7
 10
-426.4999989999997
 20
-790.0000000000001
 30
0.0
 40
3.250000000000547
 50
197.9202129999983
 51
252.097705999996
  0
ARC
  5
470
  8
__
  6
CONTINUOUS
 62
     7
 10
-426.4999989999997
 20
-790.0000000000001
 30
0.0
 40
3.249999999999936
 50
287.9381319999904
 51
342.0797869999968
  0
ARC
  5
471
  8
__
  6
CONTINUOUS
 62
     7
 10
-426.4999989999997
 20
-790.0000000000001
 30
0.0
 40
3.249999999999682
 50
17.92021300000318
 51
162.0797870000017
  0
CIRCLE
  5
472
  8
__
  6
CONTINUOUS
 62
     7
 10
-430.9955781805273
 20
-828.0000029171297
 30
0.0
 40
0.75
  0
CIRCLE
  5
473
  8
__
  6
CONTINUOUS
 62
     7
 10
-426.4941701805272
 20
-832.5000029171297
 30
0.0
 40
0.75
  0
CIRCLE
  5
474
  8
__
  6
CONTINUOUS
 62
     7
 10
-421.995577180527
 20
-828.0000029171297
 30
0.0
 40
0.75
  0
CIRCLE
  5
475
  8
__
  6
CONTINUOUS
 62
     7
 10
-426.495577180527
 20
-828.0000029171297
 30
0.0
 40
8.0
  0
CIRCLE
  5
476
  8
__
  6
CONTINUOUS
 62
     7
 10
-436.4025889999998
 20
-780.103602
 30
0.0
 40
1.5
  0
LINE
  5
477
  8
__
  6
CONTINUOUS
 62
     7
 10
-437.1099169999998
 20
-779.3967160000001
 30
0.0
 11
-435.6952609999998
 21
-780.8104870000001
 31
0.0
  0
LINE
  5
478
  8
__
  6
CONTINUOUS
 62
     7
 10
-435.6957029999999
 20
-779.3962740000001
 30
0.0
 11
-437.1094750000002
 21
-780.81093
 31
0.0
  0
CIRCLE
  5
479
  8
__
  6
CONTINUOUS
 62
     7
 10
-436.398168180527
 20
-818.1036049171296
 30
0.0
 40
1.5
  0
LINE
  5
47A
  8
__
  6
CONTINUOUS
 62
     7
 10
-437.105496180527
 20
-817.3967189171296
 30
0.0
 11
-435.6908401805271
 21
-818.8104899171296
 31
0.0
  0
LINE
  5
47B
  8
__
  6
CONTINUOUS
 62
     7
 10
-435.6912821805271
 20
-817.3962769171296
 30
0.0
 11
-437.105054180527
 21
-818.8109329171295
 31
0.0
  0
LINE
  5
47C
  8
__
  6
CONTINUOUS
 62
     7
 10
-417.304736
 20
-799.1895129999999
 30
0.0
 11
-415.8900800000001
 21
-800.6032839999999
 31
0.0
  0
LINE
  5
47D
  8
__
  6
CONTINUOUS
 62
     7
 10
-415.890523
 20
-799.1890710000001
 30
0.0
 11
-417.3042939999996
 21
-800.6037259999999
 31
0.0
  0
LINE
  5
47E
  8
__
  6
CONTINUOUS
 62
     7
 10
-417.304736
 20
-799.1895129999999
 30
0.0
 11
-415.8900800000001
 21
-800.6032839999999
 31
0.0
  0
LINE
  5
47F
  8
__
  6
CONTINUOUS
 62
     7
 10
-415.890523
 20
-799.1890710000001
 30
0.0
 11
-417.3042939999996
 21
-800.6037259999999
 31
0.0
  0
CIRCLE
  5
480
  8
__
  6
CONTINUOUS
 62
     7
 10
-416.5929871805273
 20
-837.8964019171297
 30
0.0
 40
1.5
  0
LINE
  5
481
  8
__
  6
CONTINUOUS
 62
     7
 10
-417.3003151805268
 20
-837.1895159171295
 30
0.0
 11
-415.8856591805269
 21
-838.6032869171295
 31
0.0
  0
LINE
  5
482
  8
__
  6
CONTINUOUS
 62
     7
 10
-415.8861011805274
 20
-837.1890739171297
 30
0.0
 11
-417.2998731805272
 21
-838.6037289171295
 31
0.0
  0
CIRCLE
  5
483
  8
__
  6
CONTINUOUS
 62
     7
 10
-416.5929871805273
 20
-837.8964019171297
 30
0.0
 40
1.5
  0
LINE
  5
484
  8
__
  6
CONTINUOUS
 62
     7
 10
-417.3003151805268
 20
-837.1895159171295
 30
0.0
 11
-415.8856591805269
 21
-838.6032869171295
 31
0.0
  0
LINE
  5
485
  8
__
  6
CONTINUOUS
 62
     7
 10
-415.8861011805274
 20
-837.1890739171297
 30
0.0
 11
-417.2998731805272
 21
-838.6037289171295
 31
0.0
  0
ARC
  5
486
  8
__
  6
CONTINUOUS
 62
     7
 10
-402.0
 20
-746.9857660000001
 30
0.0
 40
2.0
 50
90.0
 51
270.0
  0
ARC
  5
487
  8
__
  6
CONTINUOUS
 62
     7
 10
-398.0
 20
-746.9857660000001
 30
0.0
 40
2.0
 50
270.0
 51
90.0
  0
LINE
  5
488
  8
__
  6
CONTINUOUS
 62
     7
 10
-402.0
 20
-744.9857660000001
 30
0.0
 11
-398.0
 21
-744.9857660000001
 31
0.0
  0
LINE
  5
489
  8
__
  6
CONTINUOUS
 62
     7
 10
-402.0
 20
-748.9857660000001
 30
0.0
 11
-398.0
 21
-748.9857660000001
 31
0.0
  0
CIRCLE
  5
48A
  8
__
  6
CONTINUOUS
 62
     7
 10
-399.9953070000001
 20
-759.9917120000001
 30
0.0
 40
3.25
  0
CIRCLE
  5
48B
  8
__
  6
CONTINUOUS
 62
     7
 10
-400.0
 20
-789.9917120000001
 30
0.0
 40
11.25
  0
CIRCLE
  5
48C
  8
__
  6
CONTINUOUS
 62
     7
 10
-399.9955791805268
 20
-827.9917149171297
 30
0.0
 40
11.25
  0
ARC
  5
48D
  8
__
  6
CONTINUOUS
 62
     7
 10
-400.0
 20
-789.9917120000001
 30
0.0
 40
10.49999999999987
 50
118.4548089999995
 51
61.58102899999945
  0
LINE
  5
48E
  8
__
  6
CONTINUOUS
 62
     7
 10
-405.3602359999995
 20
-780.100789
 30
0.0
 11
-405.0028869999996
 21
-780.7601840000001
 31
0.0
  0
LINE
  5
48F
  8
__
  6
CONTINUOUS
 62
     7
 10
-394.6397639999996
 20
-780.100789
 30
0.0
 11
-394.9971129999999
 21
-780.7601840000001
 31
0.0
  0
LINE
  5
490
  8
__
  6
CONTINUOUS
 62
     7
 10
-396.9076709999999
 20
-788.9917120000001
 30
0.0
 11
-395.5003120000001
 21
-788.9917120000001
 31
0.0
  0
LINE
  5
491
  8
__
  6
CONTINUOUS
 62
     7
 10
-396.9076709999999
 20
-790.9917120000001
 30
0.0
 11
-395.4996869999995
 21
-790.9917120000001
 31
0.0
  0
LINE
  5
492
  8
__
  6
CONTINUOUS
 62
     7
 10
-400.9990330000001
 20
-793.084354
 30
0.0
 11
-400.9985929999998
 21
-794.4917120000001
 31
0.0
  0
LINE
  5
493
  8
__
  6
CONTINUOUS
 62
     7
 10
-398.9990330000001
 20
-793.0837290000001
 30
0.0
 11
-398.9985929999998
 21
-794.4917120000001
 31
0.0
  0
CIRCLE
  5
494
  8
__
  6
CONTINUOUS
 62
     7
 10
-400.0
 20
-789.9917120000001
 30
0.0
 40
8.0
  0
LINE
  5
495
  8
__
  6
CONTINUOUS
 62
     7
 10
-403.0923290000001
 20
-788.9917120000001
 30
0.0
 11
-404.5003129999996
 21
-788.9917120000001
 31
0.0
  0
LINE
  5
496
  8
__
  6
CONTINUOUS
 62
     7
 10
-403.0923290000001
 20
-790.9917120000001
 30
0.0
 11
-404.4996869999995
 21
-790.9917120000001
 31
0.0
  0
ARC
  5
497
  8
__
  6
CONTINUOUS
 62
     7
 10
-404.5
 20
-789.9917120000001
 30
0.0
 40
0.9999999999999943
 50
90.01791899999027
 51
270.0179190000164
  0
ARC
  5
498
  8
__
  6
CONTINUOUS
 62
     7
 10
-399.9985929999998
 20
-794.4917120000001
 30
0.0
 40
1.0
 50
180.0
 51
0.0
  0
ARC
  5
499
  8
__
  6
CONTINUOUS
 62
     7
 10
-395.5
 20
-789.9917120000001
 30
0.0
 40
0.9999999999999944
 50
270.0179190000163
 51
90.01791899999026
  0
ARC
  5
49A
  8
__
  6
CONTINUOUS
 62
     7
 10
-400.0
 20
-789.9917120000001
 30
0.0
 40
3.249999999999682
 50
197.9202130000032
 51
252.0977060000036
  0
ARC
  5
49B
  8
__
  6
CONTINUOUS
 62
     7
 10
-400.0
 20
-789.9917120000001
 30
0.0
 40
3.250000000000216
 50
287.9381320000057
 51
342.0797870000018
  0
ARC
  5
49C
  8
__
  6
CONTINUOUS
 62
     7
 10
-400.0
 20
-789.9917120000001
 30
0.0
 40
3.250000000000547
 50
17.92021299999825
 51
162.0797869999968
  0
CIRCLE
  5
49D
  8
__
  6
CONTINUOUS
 62
     7
 10
-404.4955791805268
 20
-827.9917149171297
 30
0.0
 40
0.75
  0
CIRCLE
  5
49E
  8
__
  6
CONTINUOUS
 62
     7
 10
-399.9941711805271
 20
-832.4917149171297
 30
0.0
 40
0.75
  0
CIRCLE
  5
49F
  8
__
  6
CONTINUOUS
 62
     7
 10
-395.4955791805268
 20
-827.9917149171297
 30
0.0
 40
0.75
  0
LINE
  5
4A0
  8
__
  6
CONTINUOUS
 62
     7
 10
-410.6099180000001
 20
-779.3884280000001
 30
0.0
 11
-409.1952620000002
 21
-780.8022
 31
0.0
  0
LINE
  5
4A1
  8
__
  6
CONTINUOUS
 62
     7
 10
-409.1957050000001
 20
-779.3879860000001
 30
0.0
 11
-410.6094759999996
 21
-780.802642
 31
0.0
  0
CIRCLE
  5
4A2
  8
__
  6
CONTINUOUS
 62
     7
 10
-409.8981691805274
 20
-818.0953169171296
 30
0.0
 40
1.5
  0
LINE
  5
4A3
  8
__
  6
CONTINUOUS
 62
     7
 10
-410.6054971805269
 20
-817.3884309171297
 30
0.0
 11
-409.1908411805269
 21
-818.8022029171295
 31
0.0
  0
LINE
  5
4A4
  8
__
  6
CONTINUOUS
 62
     7
 10
-409.1912841805268
 20
-817.3879889171296
 30
0.0
 11
-410.6050551805273
 21
-818.8026449171296
 31
0.0
  0
LINE
  5
4A5
  8
__
  6
CONTINUOUS
 62
     7
 10
-390.8047369999999
 20
-799.1812249999999
 30
0.0
 11
-389.3900819999999
 21
-800.594997
 31
0.0
  0
LINE
  5
4A6
  8
__
  6
CONTINUOUS
 62
     7
 10
-389.3905239999999
 20
-799.1807830000001
 30
0.0
 11
-390.8042949999999
 21
-800.595439
 31
0.0
  0
LINE
  5
4A7
  8
__
  6
CONTINUOUS
 62
     7
 10
-390.8047369999999
 20
-799.1812249999999
 30
0.0
 11
-389.3900819999999
 21
-800.594997
 31
0.0
  0
LINE
  5
4A8
  8
__
  6
CONTINUOUS
 62
     7
 10
-389.3905239999999
 20
-799.1807830000001
 30
0.0
 11
-390.8042949999999
 21
-800.595439
 31
0.0
  0
CIRCLE
  5
4A9
  8
__
  6
CONTINUOUS
 62
     7
 10
-390.0929881805272
 20
-837.8881139171297
 30
0.0
 40
1.5
  0
LINE
  5
4AA
  8
__
  6
CONTINUOUS
 62
     7
 10
-390.8003161805271
 20
-837.1812279171295
 30
0.0
 11
-389.3856601805272
 21
-838.5949999171296
 31
0.0
  0
LINE
  5
4AB
  8
__
  6
CONTINUOUS
 62
     7
 10
-389.3861031805271
 20
-837.1807859171297
 30
0.0
 11
-390.7998741805271
 21
-838.5954419171296
 31
0.0
  0
CIRCLE
  5
4AC
  8
__
  6
CONTINUOUS
 62
     7
 10
-390.0929881805272
 20
-837.8881139171297
 30
0.0
 40
1.5
  0
LINE
  5
4AD
  8
__
  6
CONTINUOUS
 62
     7
 10
-390.8003161805271
 20
-837.1812279171295
 30
0.0
 11
-389.3856601805272
 21
-838.5949999171296
 31
0.0
  0
LINE
  5
4AE
  8
__
  6
CONTINUOUS
 62
     7
 10
-389.3861031805271
 20
-837.1807859171297
 30
0.0
 11
-390.7998741805271
 21
-838.5954419171296
 31
0.0
  0
ARC
  5
4AF
  8
__
  6
CONTINUOUS
 62
     7
 10
-375.5000009999999
 20
-746.977479
 30
0.0
 40
2.0
 50
90.0
 51
270.0
  0
ARC
  5
4B0
  8
__
  6
CONTINUOUS
 62
     7
 10
-371.5000009999999
 20
-746.977479
 30
0.0
 40
2.0
 50
270.0
 51
90.0
  0
LINE
  5
4B1
  8
__
  6
CONTINUOUS
 62
     7
 10
-375.5000009999999
 20
-744.977479
 30
0.0
 11
-371.5000009999999
 21
-744.977479
 31
0.0
  0
LINE
  5
4B2
  8
__
  6
CONTINUOUS
 62
     7
 10
-375.5000009999999
 20
-748.977479
 30
0.0
 11
-371.5000009999999
 21
-748.977479
 31
0.0
  0
CIRCLE
  5
4B3
  8
__
  6
CONTINUOUS
 62
     7
 10
-373.4953079999996
 20
-759.983425
 30
0.0
 40
3.25
  0
CIRCLE
  5
4B4
  8
__
  6
CONTINUOUS
 62
     7
 10
-373.4955801805271
 20
-827.9834279171296
 30
0.0
 40
11.25
  0
CIRCLE
  5
4B5
  8
__
  6
CONTINUOUS
 62
     7
 10
-377.9955801805271
 20
-827.9834279171296
 30
0.0
 40
0.75
  0
CIRCLE
  5
4B6
  8
__
  6
CONTINUOUS
 62
     7
 10
-373.4941731805274
 20
-832.4834279171296
 30
0.0
 40
0.75
  0
CIRCLE
  5
4B7
  8
__
  6
CONTINUOUS
 62
     7
 10
-368.9955801805271
 20
-827.9834279171296
 30
0.0
 40
0.75
  0
CIRCLE
  5
4B8
  8
__
  6
CONTINUOUS
 62
     7
 10
-373.4955801805271
 20
-827.9834279171296
 30
0.0
 40
8.0
  0
CIRCLE
  5
4B9
  8
__
  6
CONTINUOUS
 62
     7
 10
-383.3981711805271
 20
-818.0870289171296
 30
0.0
 40
1.5
  0
LINE
  5
4BA
  8
__
  6
CONTINUOUS
 62
     7
 10
-384.1054981805272
 20
-817.3801439171295
 30
0.0
 11
-382.6908431805272
 21
-818.7939149171295
 31
0.0
  0
LINE
  5
4BB
  8
__
  6
CONTINUOUS
 62
     7
 10
-382.6912851805272
 20
-817.3797009171296
 30
0.0
 11
-384.1050561805272
 21
-818.7943569171296
 31
0.0
  0
CIRCLE
  5
4BC
  8
__
  6
CONTINUOUS
 62
     7
 10
-363.5929901805274
 20
-837.8798259171297
 30
0.0
 40
1.5
  0
LINE
  5
4BD
  8
__
  6
CONTINUOUS
 62
     7
 10
-364.3003181805269
 20
-837.1729409171296
 30
0.0
 11
-362.885662180527
 21
-838.5867119171296
 31
0.0
  0
LINE
  5
4BE
  8
__
  6
CONTINUOUS
 62
     7
 10
-362.886104180527
 20
-837.1724979171297
 30
0.0
 11
-364.299875180527
 21
-838.5871539171296
 31
0.0
  0
CIRCLE
  5
4BF
  8
__
  6
CONTINUOUS
 62
     7
 10
-363.5929901805274
 20
-837.8798259171297
 30
0.0
 40
1.5
  0
LINE
  5
4C0
  8
__
  6
CONTINUOUS
 62
     7
 10
-364.3003181805269
 20
-837.1729409171296
 30
0.0
 11
-362.885662180527
 21
-838.5867119171296
 31
0.0
  0
LINE
  5
4C1
  8
__
  6
CONTINUOUS
 62
     7
 10
-362.886104180527
 20
-837.1724979171297
 30
0.0
 11
-364.299875180527
 21
-838.5871539171296
 31
0.0
  0
CIRCLE
  5
4C2
  8
__
  6
CONTINUOUS
 62
     7
 10
-390.0974099999999
 20
-799.8881110000001
 30
0.0
 40
1.5
  0
CIRCLE
  5
4C3
  8
__
  6
CONTINUOUS
 62
     7
 10
-416.5974079999996
 20
-799.8963990000001
 30
0.0
 40
1.5
  0
CIRCLE
  5
4C4
  8
__
  6
CONTINUOUS
 62
     7
 10
-409.9025899999997
 20
-780.095314
 30
0.0
 40
1.5
  0
CIRCLE
  5
4C5
  8
__
  6
CONTINUOUS
 62
     7
 10
-373.5000009999999
 20
-789.983425
 30
0.0
 40
2.0
  0
CIRCLE
  5
4C6
  8
__
  6
CONTINUOUS
 62
     7
 10
-373.5000009999999
 20
-789.983425
 30
0.0
 40
3.5
  0
ARC
  5
4C7
  8
__
  6
CONTINUOUS
 62
     7
 10
-449.9182209999999
 20
-900.4999999999999
 30
0.0
 40
4.0
 50
90.0
 51
180.0179190000033
  0
LINE
  5
4C8
  8
__
  6
CONTINUOUS
 62
     7
 10
-427.91822
 20
-896.4999999999999
 30
0.0
 11
-449.9182209999999
 21
-896.4999999999999
 31
0.0
  0
ARC
  5
4C9
  8
__
  6
CONTINUOUS
 62
     7
 10
-427.91822
 20
-900.4999999999999
 30
0.0
 40
3.999999999999977
 50
0.0179189999967899
 51
90.0
  0
LINE
  5
4CA
  8
__
  6
CONTINUOUS
 62
     7
 10
-423.91822
 20
-900.4987490000002
 30
0.0
 11
-423.9141540000001
 21
-913.4987490000002
 31
0.0
  0
ARC
  5
4CB
  8
__
  6
CONTINUOUS
 62
     7
 10
-427.9141540000001
 20
-913.4999999999999
 30
0.0
 40
4.0
 50
270.0
 51
0.0179189999967662
  0
LINE
  5
4CC
  8
__
  6
CONTINUOUS
 62
     7
 10
-427.9141540000001
 20
-917.4999999999999
 30
0.0
 11
-449.9141550000004
 21
-917.4999999999999
 31
0.0
  0
ARC
  5
4CD
  8
__
  6
CONTINUOUS
 62
     7
 10
-449.9141550000004
 20
-913.4999999999999
 30
0.0
 40
3.999999999999977
 50
180.0179190000033
 51
270.0
  0
LINE
  5
4CE
  8
__
  6
CONTINUOUS
 62
     7
 10
-453.91822
 20
-900.501251
 30
0.0
 11
-453.9141550000004
 21
-913.501251
 31
0.0
  0
ARC
  5
4CF
  8
__
  6
CONTINUOUS
 62
     7
 10
-448.9180329999999
 20
-901.1000000000003
 30
0.0
 40
2.0
 50
90.0
 51
180.0179189999903
  0
LINE
  5
4D0
  8
__
  6
CONTINUOUS
 62
     7
 10
-428.918032
 20
-899.1000000000003
 30
0.0
 11
-448.9180329999999
 21
-899.1000000000003
 31
0.0
  0
ARC
  5
4D1
  8
__
  6
CONTINUOUS
 62
     7
 10
-428.918032
 20
-901.1000000000003
 30
0.0
 40
1.999999999999989
 50
0.0179190000033037
 51
90.0
  0
LINE
  5
4D2
  8
__
  6
CONTINUOUS
 62
     7
 10
-450.9180329999999
 20
-901.1006260000003
 30
0.0
 11
-450.9151240000001
 21
-910.4032759999999
 31
0.0
  0
LINE
  5
4D3
  8
__
  6
CONTINUOUS
 62
     7
 10
-450.9151240000001
 20
-910.4032759999999
 30
0.0
 11
-446.4160849999998
 21
-914.9
 31
0.0
  0
LINE
  5
4D4
  8
__
  6
CONTINUOUS
 62
     7
 10
-431.4122240000002
 20
-914.9
 30
0.0
 11
-446.4160849999998
 21
-914.9
 31
0.0
  0
LINE
  5
4D5
  8
__
  6
CONTINUOUS
 62
     7
 10
-426.9151220000003
 20
-910.405212
 30
0.0
 11
-431.4122240000002
 21
-914.9
 31
0.0
  0
LINE
  5
4D6
  8
__
  6
CONTINUOUS
 62
     7
 10
-426.918032
 20
-901.0993750000001
 30
0.0
 11
-426.9151220000003
 21
-910.405212
 31
0.0
  0
LINE
  5
4D7
  8
__
  6
CONTINUOUS
 62
     7
 10
-445.9169339999999
 20
-904.1000000000003
 30
0.0
 11
-445.9162900000001
 21
-906.6000000000003
 31
0.0
  0
LINE
  5
4D8
  8
__
  6
CONTINUOUS
 62
     7
 10
-431.916933
 20
-904.1000000000003
 30
0.0
 11
-431.9162900000001
 21
-906.6000000000003
 31
0.0
  0
LINE
  5
4D9
  8
__
  6
CONTINUOUS
 62
     7
 10
-438.9162900000001
 20
-906.6000000000003
 30
0.0
 11
-438.9154410000001
 21
-909.9
 31
0.0
  0
CIRCLE
  5
4DA
  8
__
  6
CONTINUOUS
 62
     7
 10
-458.9162900000001
 20
-906.6051459999998
 30
0.0
 40
3.0
  0
CIRCLE
  5
4DB
  8
__
  6
CONTINUOUS
 62
     7
 10
-418.916291
 20
-906.5948539999998
 30
0.0
 40
3.0
  0
LINE
  5
4DC
  8
__
  6
CONTINUOUS
 62
     7
 10
-418.916291
 20
-905.0948539999998
 30
0.0
 11
-418.915442
 21
-908.394854
 31
0.0
  0
LINE
  5
4DD
  8
__
  6
CONTINUOUS
 62
     7
 10
-420.5658659999999
 20
-906.7452780000002
 30
0.0
 11
-417.2658659999997
 21
-906.7444290000002
 31
0.0
  0
LINE
  5
4DE
  8
__
  6
CONTINUOUS
 62
     7
 10
-458.9162900000001
 20
-905.1051459999998
 30
0.0
 11
-458.9154399999998
 21
-908.405146
 31
0.0
  0
LINE
  5
4DF
  8
__
  6
CONTINUOUS
 62
     7
 10
-460.565865
 20
-906.755571
 30
0.0
 11
-457.2658650000003
 21
-906.754722
 31
0.0
  0
LINE
  5
4E0
  8
__
  6
CONTINUOUS
 62
     7
 10
-323.9008570000001
 20
-960.9999999999999
 30
0.0
 11
-475.9008650000001
 21
-960.9999999999999
 31
0.0
  0
CIRCLE
  5
4E1
  8
__
  6
CONTINUOUS
 62
     7
 10
-472.9083700000001
 20
-931.9999999999999
 30
0.0
 40
4.0
  0
CIRCLE
  5
4E2
  8
__
  6
CONTINUOUS
 62
     7
 10
-472.9083700000001
 20
-842.0000000000001
 30
0.0
 40
4.0
  0
CIRCLE
  5
4E3
  8
__
  6
CONTINUOUS
 62
     7
 10
-472.9083700000001
 20
-752.0000000000001
 30
0.0
 40
4.0
  0
CIRCLE
  5
4E4
  8
__
  6
CONTINUOUS
 62
     7
 10
-472.9083700000001
 20
-662.0000000000001
 30
0.0
 40
4.0
  0
CIRCLE
  5
4E5
  8
__
  6
CONTINUOUS
 62
     7
 10
-327.0916299999999
 20
-931.9999999999999
 30
0.0
 40
4.0
  0
CIRCLE
  5
4E6
  8
__
  6
CONTINUOUS
 62
     7
 10
-327.0916299999999
 20
-842.0000000000001
 30
0.0
 40
4.0
  0
CIRCLE
  5
4E7
  8
__
  6
CONTINUOUS
 62
     7
 10
-327.0916299999999
 20
-752.0000000000001
 30
0.0
 40
4.0
  0
CIRCLE
  5
4E8
  8
__
  6
CONTINUOUS
 62
     7
 10
-327.0916299999999
 20
-662.0000000000001
 30
0.0
 40
4.0
  0
CIRCLE
  5
4E9
  8
__
  6
CONTINUOUS
 62
     7
 10
-349.9008610000001
 20
-953.9999999999999
 30
0.0
 40
4.0
  0
CIRCLE
  5
4EA
  8
__
  6
CONTINUOUS
 62
     7
 10
-449.9008610000001
 20
-953.9999999999999
 30
0.0
 40
4.0
  0
CIRCLE
  5
4EB
  8
__
  6
CONTINUOUS
 62
     7
 10
-449.9008610000001
 20
-953.9999999999999
 30
0.0
 40
4.0
  0
CIRCLE
  5
4EC
  8
__
  6
CONTINUOUS
 62
     7
 10
-349.9008610000001
 20
-640.9968729999999
 30
0.0
 40
4.0
  0
CIRCLE
  5
4ED
  8
__
  6
CONTINUOUS
 62
     7
 10
-449.9008610000001
 20
-640.9968729999999
 30
0.0
 40
4.0
  0
CIRCLE
  5
4EE
  8
__
  6
CONTINUOUS
 62
     7
 10
-449.9008610000001
 20
-640.9968729999999
 30
0.0
 40
4.0
  0
CIRCLE
  5
4EF
  8
__
  6
CONTINUOUS
 62
     7
 10
-449.4964060000002
 20
-650.5000000000001
 30
0.0
 40
1.0
  0
CIRCLE
  5
4F0
  8
__
  6
CONTINUOUS
 62
     7
 10
-440.4964049999999
 20
-650.5000000000001
 30
0.0
 40
1.0
  0
CIRCLE
  5
4F1
  8
__
  6
CONTINUOUS
 62
     7
 10
-431.4964049999999
 20
-650.5000000000001
 30
0.0
 40
1.0
  0
CIRCLE
  5
4F2
  8
__
  6
CONTINUOUS
 62
     7
 10
-422.4964049999999
 20
-650.5000000000001
 30
0.0
 40
1.0
  0
CIRCLE
  5
4F3
  8
__
  6
CONTINUOUS
 62
     7
 10
-413.496404
 20
-650.5000000000001
 30
0.0
 40
1.0
  0
CIRCLE
  5
4F4
  8
__
  6
CONTINUOUS
 62
     7
 10
-404.496404
 20
-650.5000000000001
 30
0.0
 40
1.0
  0
CIRCLE
  5
4F5
  8
__
  6
CONTINUOUS
 62
     7
 10
-395.4964030000001
 20
-650.5000000000001
 30
0.0
 40
1.0
  0
CIRCLE
  5
4F6
  8
__
  6
CONTINUOUS
 62
     7
 10
-386.4964030000001
 20
-650.5000000000001
 30
0.0
 40
1.0
  0
CIRCLE
  5
4F7
  8
__
  6
CONTINUOUS
 62
     7
 10
-377.4964019999998
 20
-650.5000000000001
 30
0.0
 40
1.0
  0
CIRCLE
  5
4F8
  8
__
  6
CONTINUOUS
 62
     7
 10
-368.4964019999998
 20
-650.5000000000001
 30
0.0
 40
1.0
  0
CIRCLE
  5
4F9
  8
__
  6
CONTINUOUS
 62
     7
 10
-359.4964019999998
 20
-650.5000000000001
 30
0.0
 40
1.0
  0
CIRCLE
  5
4FA
  8
__
  6
CONTINUOUS
 62
     7
 10
-350.4964010000003
 20
-650.5000000000001
 30
0.0
 40
1.0
  0
CIRCLE
  5
4FB
  8
__
  6
CONTINUOUS
 62
     7
 10
-444.9956240000001
 20
-653.0000000000001
 30
0.0
 40
1.0
  0
CIRCLE
  5
4FC
  8
__
  6
CONTINUOUS
 62
     7
 10
-435.9956229999998
 20
-653.0000000000001
 30
0.0
 40
1.0
  0
CIRCLE
  5
4FD
  8
__
  6
CONTINUOUS
 62
     7
 10
-426.9956229999998
 20
-653.0000000000001
 30
0.0
 40
1.0
  0
CIRCLE
  5
4FE
  8
__
  6
CONTINUOUS
 62
     7
 10
-417.9956229999998
 20
-653.0000000000001
 30
0.0
 40
1.0
  0
CIRCLE
  5
4FF
  8
__
  6
CONTINUOUS
 62
     7
 10
-408.9956220000004
 20
-653.0000000000001
 30
0.0
 40
1.0
  0
CIRCLE
  5
500
  8
__
  6
CONTINUOUS
 62
     7
 10
-399.9956220000004
 20
-653.0000000000001
 30
0.0
 40
1.0
  0
CIRCLE
  5
501
  8
__
  6
CONTINUOUS
 62
     7
 10
-390.995621
 20
-653.0000000000001
 30
0.0
 40
1.0
  0
CIRCLE
  5
502
  8
__
  6
CONTINUOUS
 62
     7
 10
-381.995621
 20
-653.0000000000001
 30
0.0
 40
1.0
  0
CIRCLE
  5
503
  8
__
  6
CONTINUOUS
 62
     7
 10
-372.9956200000001
 20
-653.0000000000001
 30
0.0
 40
1.0
  0
CIRCLE
  5
504
  8
__
  6
CONTINUOUS
 62
     7
 10
-363.9956200000001
 20
-653.0000000000001
 30
0.0
 40
1.0
  0
CIRCLE
  5
505
  8
__
  6
CONTINUOUS
 62
     7
 10
-354.9956190000003
 20
-653.0000000000001
 30
0.0
 40
1.0
  0
CIRCLE
  5
506
  8
__
  6
CONTINUOUS
 62
     7
 10
-449.4964060000002
 20
-655.5000000000001
 30
0.0
 40
1.0
  0
CIRCLE
  5
507
  8
__
  6
CONTINUOUS
 62
     7
 10
-440.4964049999999
 20
-655.5000000000001
 30
0.0
 40
1.0
  0
CIRCLE
  5
508
  8
__
  6
CONTINUOUS
 62
     7
 10
-431.4964049999999
 20
-655.5000000000001
 30
0.0
 40
1.0
  0
CIRCLE
  5
509
  8
__
  6
CONTINUOUS
 62
     7
 10
-422.4964049999999
 20
-655.5000000000001
 30
0.0
 40
1.0
  0
CIRCLE
  5
50A
  8
__
  6
CONTINUOUS
 62
     7
 10
-413.496404
 20
-655.5000000000001
 30
0.0
 40
1.0
  0
CIRCLE
  5
50B
  8
__
  6
CONTINUOUS
 62
     7
 10
-404.496404
 20
-655.5000000000001
 30
0.0
 40
1.0
  0
CIRCLE
  5
50C
  8
__
  6
CONTINUOUS
 62
     7
 10
-395.4964030000001
 20
-655.5000000000001
 30
0.0
 40
1.0
  0
CIRCLE
  5
50D
  8
__
  6
CONTINUOUS
 62
     7
 10
-386.4964030000001
 20
-655.5000000000001
 30
0.0
 40
1.0
  0
CIRCLE
  5
50E
  8
__
  6
CONTINUOUS
 62
     7
 10
-377.4964019999998
 20
-655.5000000000001
 30
0.0
 40
1.0
  0
CIRCLE
  5
50F
  8
__
  6
CONTINUOUS
 62
     7
 10
-368.4964019999998
 20
-655.5000000000001
 30
0.0
 40
1.0
  0
CIRCLE
  5
510
  8
__
  6
CONTINUOUS
 62
     7
 10
-359.4964019999998
 20
-655.5000000000001
 30
0.0
 40
1.0
  0
CIRCLE
  5
511
  8
__
  6
CONTINUOUS
 62
     7
 10
-350.4964010000003
 20
-655.5000000000001
 30
0.0
 40
1.0
  0
CIRCLE
  5
512
  8
__
  6
CONTINUOUS
 62
     7
 10
-444.9956240000001
 20
-658.0000000000001
 30
0.0
 40
1.0
  0
CIRCLE
  5
513
  8
__
  6
CONTINUOUS
 62
     7
 10
-435.9956229999998
 20
-658.0000000000001
 30
0.0
 40
1.0
  0
CIRCLE
  5
514
  8
__
  6
CONTINUOUS
 62
     7
 10
-426.9956229999998
 20
-658.0000000000001
 30
0.0
 40
1.0
  0
CIRCLE
  5
515
  8
__
  6
CONTINUOUS
 62
     7
 10
-417.9956229999998
 20
-658.0000000000001
 30
0.0
 40
1.0
  0
CIRCLE
  5
516
  8
__
  6
CONTINUOUS
 62
     7
 10
-408.9956220000004
 20
-658.0000000000001
 30
0.0
 40
1.0
  0
CIRCLE
  5
517
  8
__
  6
CONTINUOUS
 62
     7
 10
-399.9956220000004
 20
-658.0000000000001
 30
0.0
 40
1.0
  0
CIRCLE
  5
518
  8
__
  6
CONTINUOUS
 62
     7
 10
-390.995621
 20
-658.0000000000001
 30
0.0
 40
1.0
  0
CIRCLE
  5
519
  8
__
  6
CONTINUOUS
 62
     7
 10
-381.995621
 20
-658.0000000000001
 30
0.0
 40
1.0
  0
CIRCLE
  5
51A
  8
__
  6
CONTINUOUS
 62
     7
 10
-372.9956200000001
 20
-658.0000000000001
 30
0.0
 40
1.0
  0
CIRCLE
  5
51B
  8
__
  6
CONTINUOUS
 62
     7
 10
-363.9956200000001
 20
-658.0000000000001
 30
0.0
 40
1.0
  0
CIRCLE
  5
51C
  8
__
  6
CONTINUOUS
 62
     7
 10
-354.9956190000003
 20
-658.0000000000001
 30
0.0
 40
1.0
  0
CIRCLE
  5
51D
  8
__
  6
CONTINUOUS
 62
     7
 10
-449.4964060000002
 20
-944.5031280000002
 30
0.0
 40
1.0
  0
CIRCLE
  5
51E
  8
__
  6
CONTINUOUS
 62
     7
 10
-440.4964049999999
 20
-944.5031280000002
 30
0.0
 40
1.0
  0
CIRCLE
  5
51F
  8
__
  6
CONTINUOUS
 62
     7
 10
-431.4964049999999
 20
-944.5031280000002
 30
0.0
 40
1.0
  0
CIRCLE
  5
520
  8
__
  6
CONTINUOUS
 62
     7
 10
-422.4964049999999
 20
-944.5031280000002
 30
0.0
 40
1.0
  0
CIRCLE
  5
521
  8
__
  6
CONTINUOUS
 62
     7
 10
-413.496404
 20
-944.5031280000002
 30
0.0
 40
1.0
  0
CIRCLE
  5
522
  8
__
  6
CONTINUOUS
 62
     7
 10
-404.496404
 20
-944.5031280000002
 30
0.0
 40
1.0
  0
CIRCLE
  5
523
  8
__
  6
CONTINUOUS
 62
     7
 10
-395.4964030000001
 20
-944.5031280000002
 30
0.0
 40
1.0
  0
CIRCLE
  5
524
  8
__
  6
CONTINUOUS
 62
     7
 10
-386.4964030000001
 20
-944.5031280000002
 30
0.0
 40
1.0
  0
CIRCLE
  5
525
  8
__
  6
CONTINUOUS
 62
     7
 10
-377.4964019999998
 20
-944.5031280000002
 30
0.0
 40
1.0
  0
CIRCLE
  5
526
  8
__
  6
CONTINUOUS
 62
     7
 10
-368.4964019999998
 20
-944.5031280000002
 30
0.0
 40
1.0
  0
CIRCLE
  5
527
  8
__
  6
CONTINUOUS
 62
     7
 10
-359.4964019999998
 20
-944.5031280000002
 30
0.0
 40
1.0
  0
CIRCLE
  5
528
  8
__
  6
CONTINUOUS
 62
     7
 10
-350.4964010000003
 20
-944.5031280000002
 30
0.0
 40
1.0
  0
CIRCLE
  5
529
  8
__
  6
CONTINUOUS
 62
     7
 10
-444.9956240000001
 20
-942.0031280000002
 30
0.0
 40
1.0
  0
CIRCLE
  5
52A
  8
__
  6
CONTINUOUS
 62
     7
 10
-435.9956229999998
 20
-942.0031280000002
 30
0.0
 40
1.0
  0
CIRCLE
  5
52B
  8
__
  6
CONTINUOUS
 62
     7
 10
-426.9956229999998
 20
-942.0031280000002
 30
0.0
 40
1.0
  0
CIRCLE
  5
52C
  8
__
  6
CONTINUOUS
 62
     7
 10
-417.9956229999998
 20
-942.0031280000002
 30
0.0
 40
1.0
  0
CIRCLE
  5
52D
  8
__
  6
CONTINUOUS
 62
     7
 10
-408.9956220000004
 20
-942.0031280000002
 30
0.0
 40
1.0
  0
CIRCLE
  5
52E
  8
__
  6
CONTINUOUS
 62
     7
 10
-399.9956220000004
 20
-942.0031280000002
 30
0.0
 40
1.0
  0
CIRCLE
  5
52F
  8
__
  6
CONTINUOUS
 62
     7
 10
-390.995621
 20
-942.0031280000002
 30
0.0
 40
1.0
  0
CIRCLE
  5
530
  8
__
  6
CONTINUOUS
 62
     7
 10
-381.995621
 20
-942.0031280000002
 30
0.0
 40
1.0
  0
CIRCLE
  5
531
  8
__
  6
CONTINUOUS
 62
     7
 10
-372.9956200000001
 20
-942.0031280000002
 30
0.0
 40
1.0
  0
CIRCLE
  5
532
  8
__
  6
CONTINUOUS
 62
     7
 10
-363.9956200000001
 20
-942.0031280000002
 30
0.0
 40
1.0
  0
CIRCLE
  5
533
  8
__
  6
CONTINUOUS
 62
     7
 10
-354.9956190000003
 20
-942.0031280000002
 30
0.0
 40
1.0
  0
CIRCLE
  5
534
  8
__
  6
CONTINUOUS
 62
     7
 10
-449.4964060000002
 20
-939.5031280000002
 30
0.0
 40
1.0
  0
CIRCLE
  5
535
  8
__
  6
CONTINUOUS
 62
     7
 10
-440.4964049999999
 20
-939.5031280000002
 30
0.0
 40
1.0
  0
CIRCLE
  5
536
  8
__
  6
CONTINUOUS
 62
     7
 10
-431.4964049999999
 20
-939.5031280000002
 30
0.0
 40
1.0
  0
CIRCLE
  5
537
  8
__
  6
CONTINUOUS
 62
     7
 10
-422.4964049999999
 20
-939.5031280000002
 30
0.0
 40
1.0
  0
CIRCLE
  5
538
  8
__
  6
CONTINUOUS
 62
     7
 10
-413.496404
 20
-939.5031280000002
 30
0.0
 40
1.0
  0
CIRCLE
  5
539
  8
__
  6
CONTINUOUS
 62
     7
 10
-404.496404
 20
-939.5031280000002
 30
0.0
 40
1.0
  0
CIRCLE
  5
53A
  8
__
  6
CONTINUOUS
 62
     7
 10
-395.4964030000001
 20
-939.5031280000002
 30
0.0
 40
1.0
  0
CIRCLE
  5
53B
  8
__
  6
CONTINUOUS
 62
     7
 10
-386.4964030000001
 20
-939.5031280000002
 30
0.0
 40
1.0
  0
CIRCLE
  5
53C
  8
__
  6
CONTINUOUS
 62
     7
 10
-377.4964019999998
 20
-939.5031280000002
 30
0.0
 40
1.0
  0
CIRCLE
  5
53D
  8
__
  6
CONTINUOUS
 62
     7
 10
-368.4964019999998
 20
-939.5031280000002
 30
0.0
 40
1.0
  0
CIRCLE
  5
53E
  8
__
  6
CONTINUOUS
 62
     7
 10
-359.4964019999998
 20
-939.5031280000002
 30
0.0
 40
1.0
  0
CIRCLE
  5
53F
  8
__
  6
CONTINUOUS
 62
     7
 10
-350.4964010000003
 20
-939.5031280000002
 30
0.0
 40
1.0
  0
CIRCLE
  5
540
  8
__
  6
CONTINUOUS
 62
     7
 10
-444.9956240000001
 20
-937.0031280000002
 30
0.0
 40
1.0
  0
CIRCLE
  5
541
  8
__
  6
CONTINUOUS
 62
     7
 10
-435.9956229999998
 20
-937.0031280000002
 30
0.0
 40
1.0
  0
CIRCLE
  5
542
  8
__
  6
CONTINUOUS
 62
     7
 10
-426.9956229999998
 20
-937.0031280000002
 30
0.0
 40
1.0
  0
CIRCLE
  5
543
  8
__
  6
CONTINUOUS
 62
     7
 10
-417.9956229999998
 20
-937.0031280000002
 30
0.0
 40
1.0
  0
CIRCLE
  5
544
  8
__
  6
CONTINUOUS
 62
     7
 10
-408.9956220000004
 20
-937.0031280000002
 30
0.0
 40
1.0
  0
CIRCLE
  5
545
  8
__
  6
CONTINUOUS
 62
     7
 10
-399.9956220000004
 20
-937.0031280000002
 30
0.0
 40
1.0
  0
CIRCLE
  5
546
  8
__
  6
CONTINUOUS
 62
     7
 10
-390.995621
 20
-937.0031280000002
 30
0.0
 40
1.0
  0
CIRCLE
  5
547
  8
__
  6
CONTINUOUS
 62
     7
 10
-381.995621
 20
-937.0031280000002
 30
0.0
 40
1.0
  0
CIRCLE
  5
548
  8
__
  6
CONTINUOUS
 62
     7
 10
-372.9956200000001
 20
-937.0031280000002
 30
0.0
 40
1.0
  0
CIRCLE
  5
549
  8
__
  6
CONTINUOUS
 62
     7
 10
-363.9956200000001
 20
-937.0031280000002
 30
0.0
 40
1.0
  0
CIRCLE
  5
54A
  8
__
  6
CONTINUOUS
 62
     7
 10
-354.9956190000003
 20
-937.0031280000002
 30
0.0
 40
1.0
  0
CIRCLE
  5
54B
  8
__
  6
CONTINUOUS
 62
     7
 10
-399.9955791805268
 20
-827.9917149171297
 30
0.0
 40
8.0
  0
LINE
  5
54C
  8
__
  6
CONTINUOUS
 62
     7
 10
-373.5000009999999
 20
-793.833425
 30
0.0
 11
-373.4951071506201
 21
-805.8138112440546
 31
0.0
  0
LINE
  5
54D
  8
__
  6
CONTINUOUS
 62
     7
 10
-426.4964799999998
 20
-801.8241712000001
 30
0.0
 11
-426.4949165218582
 21
-805.8241708944421
 31
0.0
  0
TEXT
  5
54E
  8
__
 62
     7
 10
-370.1337932430557
 20
-716.6662760416667
 30
0.0
 40
4.332552083333333
  1
MAIN/MENU
 41
0.7
 72
     1
 11
-357.4971830000002
 21
-714.5
 31
0.0
 73
     2
  0
TEXT
  5
54F
  8
__
 62
     7
 10
-454.0791541458334
 20
-715.1662760416667
 30
0.0
 40
4.332552083333333
  1
POWER
 41
0.7
 72
     1
 11
-446.4971880000001
 21
-713.0
 31
0.0
 73
     2
  0
TEXT
  5
550
  8
__
 62
     7
 10
-431.549950097222
 20
-769.4162760416667
 30
0.0
 40
4.332552083333333
  1
GAIN
 41
0.7
 72
     1
 11
-426.4953059999998
 21
-767.25
 31
0.0
 73
     2
  0
TEXT
  5
551
  8
__
 62
     7
 10
-433.9808712638891
 20
-846.2591490033881
 30
0.0
 40
4.332552083333333
  1
THRU 1
 41
0.7
 72
     1
 11
-426.4999980000002
 21
-844.0928729617214
 31
0.0
 73
     2
  0
TEXT
  5
552
  8
__
 62
     7
 10
-407.9863376736111
 20
-846.2508610033881
 30
0.0
 40
4.332552083333333
  1
THRU 2
 41
0.7
 72
     1
 11
-400.0
 21
-844.0845849617214
 31
0.0
 73
     2
  0
TEXT
  5
553
  8
__
 62
     7
 10
-382.4972651816961
 20
-846.242681058033
 30
0.0
 40
4.332552083333333
  1
MIX OUT
 41
0.7
 72
     1
 11
-373.4999986886405
 21
-844.0764050163663
 31
0.0
 73
     2
  0
TEXT
  5
554
  8
__
 62
     7
 10
-363.0572915069446
 20
-736.1662760416667
 30
0.0
 40
4.332552083333333
  1
BACK
 41
0.7
 72
     1
 11
-357.4971830000002
 21
-734.0
 31
0.0
 73
     2
  0
TEXT
  5
555
  8
__
 62
     7
 10
-452.5627609166667
 20
-736.1662760416667
 30
0.0
 40
4.332552083333333
  1
LIMIT
 41
0.7
 72
     1
 11
-446.4971880000001
 21
-734.0
 31
0.0
 73
     2
  0
TEXT
  5
556
  8
__
 62
     7
 10
-437.1147516041663
 20
-755.1603300416667
 30
0.0
 40
4.332552083333333
  1
SIG/CLIP
 41
0.7
 72
     1
 11
-426.4999989999997
 21
-752.994054
 31
0.0
 73
     2
  0
TEXT
  5
557
  8
__
 62
     7
 10
-430.0424634775225
 20
-811.2592531409035
 30
0.0
 40
4.332552083333333
  1
CH1
 41
0.7
 72
     1
 11
-426.5042126094669
 21
-809.0929770992368
 31
0.0
 73
     2
  0
TEXT
  5
558
  8
__
 62
     7
 10
-404.0479298872444
 20
-811.2509651409035
 30
0.0
 40
4.332552083333333
  1
CH2
 41
0.7
 72
     1
 11
-400.0042146094667
 21
-809.0846890992368
 31
0.0
 73
     2
  0
TEXT
  5
559
  8
__
 62
     7
 10
-380.9850865675103
 20
-811.242624358103
 30
0.0
 40
4.332552083333333
  1
AUX IN
 41
0.7
 72
     1
 11
-373.5042133036214
 21
-809.0763483164362
 31
0.0
 73
     2
  0
LINE
  5
55A
  8
__
  6
CONTINUOUS
 62
     7
 10
-426.4999989999997
 20
-777.6788815735599
 30
0.0
 11
-426.4999989999997
 21
-770.1788815735599
 31
0.0
  0
LINE
  5
55B
  8
__
  6
CONTINUOUS
 62
     7
 10
-373.5000009999999
 20
-786.133425
 30
0.0
 11
-373.5000009999999
 21
-770.1788815735599
 31
0.0
  0
ARC
  5
55C
  8
__
  6
CONTINUOUS
 62
     7
 10
-475.9008652446096
 20
-955.9999999999999
 30
0.0
 40
5.000000000000059
 50
180.0179187574133
 51
269.9999999999993
  0
ARC
  5
55D
  8
__
  6
CONTINUOUS
 62
     7
 10
-323.9008577553902
 20
-955.9999999999998
 30
0.0
 40
5.000000000000114
 50
270.0
 51
0.017918757412076
  0
ARC
  5
55E
  8
__
  6
CONTINUOUS
 62
     7
 10
-472.9083700001016
 20
-750.3022356198219
 30
0.0
 40
0.2222356198218846
 50
356.8251528744058
 51
183.1748471255958
  0
ARC
  5
55F
  8
__
  6
CONTINUOUS
 62
     7
 10
-473.9435539159801
 20
-750.2070088624198
 30
0.0
 40
0.8203678318442867
 50
247.5320803524693
 51
352.467919622545
  0
ARC
  5
560
  8
__
  6
CONTINUOUS
 62
     7
 10
-474.3786770829762
 20
-751.151117809911
 30
0.0
 40
0.2222356198218802
 50
56.8251528744028
 51
243.1748471255815
  0
ARC
  5
561
  8
__
  6
CONTINUOUS
 62
     7
 10
-474.9787378319458
 20
-751.9999999999499
 30
0.0
 40
0.8203678318442967
 50
307.5320803524648
 51
52.46791962254451
  0
ARC
  5
562
  8
__
  6
CONTINUOUS
 62
     7
 10
-472.9083700001016
 20
-753.6977643801783
 30
0.0
 40
0.222235619821771
 50
176.8251528744042
 51
3.174847125594227
  0
ARC
  5
563
  8
__
  6
CONTINUOUS
 62
     7
 10
-473.9435539159801
 20
-753.7929911375804
 30
0.0
 40
0.8203678318442392
 50
7.532080377455046
 51
112.4679196475307
  0
ARC
  5
564
  8
__
  6
CONTINUOUS
 62
     7
 10
-474.3786770829762
 20
-752.8488821900892
 30
0.0
 40
0.2222356198217709
 50
116.8251528744185
 51
303.1748471255972
  0
ARC
  5
565
  8
__
  6
CONTINUOUS
 62
     7
 10
-471.873186084223
 20
-750.2070088624198
 30
0.0
 40
0.8203678318442392
 50
187.532080377455
 51
292.4679196475307
  0
ARC
  5
566
  8
__
  6
CONTINUOUS
 62
     7
 10
-471.4380629172269
 20
-751.151117809911
 30
0.0
 40
0.2222356198217709
 50
296.8251528744185
 51
123.1748471255972
  0
ARC
  5
567
  8
__
  6
CONTINUOUS
 62
     7
 10
-470.8380021682574
 20
-751.9999999999499
 30
0.0
 40
0.8203678318442142
 50
127.5320803774555
 51
232.4679196475352
  0
ARC
  5
568
  8
__
  6
CONTINUOUS
 62
     7
 10
-471.873186084223
 20
-753.7929911375804
 30
0.0
 40
0.8203678318442867
 50
67.53208035246934
 51
172.467919622545
  0
ARC
  5
569
  8
__
  6
CONTINUOUS
 62
     7
 10
-471.4380629172269
 20
-752.8488821900892
 30
0.0
 40
0.2222356198218802
 50
236.8251528744028
 51
63.17484712558153
  0
ARC
  5
56A
  8
__
  6
CONTINUOUS
 62
     7
 10
-472.9083700001016
 20
-660.3022356198219
 30
0.0
 40
0.2222356198218846
 50
356.8251528744058
 51
183.1748471255958
  0
ARC
  5
56B
  8
__
  6
CONTINUOUS
 62
     7
 10
-473.9435539159801
 20
-660.2070088624198
 30
0.0
 40
0.8203678318442867
 50
247.5320803524693
 51
352.467919622545
  0
ARC
  5
56C
  8
__
  6
CONTINUOUS
 62
     7
 10
-474.3786770829762
 20
-661.151117809911
 30
0.0
 40
0.2222356198218802
 50
56.8251528744028
 51
243.1748471255815
  0
ARC
  5
56D
  8
__
  6
CONTINUOUS
 62
     7
 10
-474.9787378319458
 20
-661.9999999999499
 30
0.0
 40
0.8203678318442967
 50
307.5320803524648
 51
52.46791962254451
  0
ARC
  5
56E
  8
__
  6
CONTINUOUS
 62
     7
 10
-472.9083700001016
 20
-663.6977643801783
 30
0.0
 40
0.222235619821771
 50
176.8251528744042
 51
3.174847125594227
  0
ARC
  5
56F
  8
__
  6
CONTINUOUS
 62
     7
 10
-473.9435539159801
 20
-663.7929911375804
 30
0.0
 40
0.8203678318442392
 50
7.532080377455046
 51
112.4679196475307
  0
ARC
  5
570
  8
__
  6
CONTINUOUS
 62
     7
 10
-474.3786770829762
 20
-662.8488821900892
 30
0.0
 40
0.2222356198217709
 50
116.8251528744185
 51
303.1748471255972
  0
ARC
  5
571
  8
__
  6
CONTINUOUS
 62
     7
 10
-471.873186084223
 20
-660.2070088624198
 30
0.0
 40
0.8203678318442392
 50
187.532080377455
 51
292.4679196475307
  0
ARC
  5
572
  8
__
  6
CONTINUOUS
 62
     7
 10
-471.4380629172269
 20
-661.151117809911
 30
0.0
 40
0.2222356198217709
 50
296.8251528744185
 51
123.1748471255972
  0
ARC
  5
573
  8
__
  6
CONTINUOUS
 62
     7
 10
-470.8380021682574
 20
-661.9999999999499
 30
0.0
 40
0.8203678318442142
 50
127.5320803774555
 51
232.4679196475352
  0
ARC
  5
574
  8
__
  6
CONTINUOUS
 62
     7
 10
-471.873186084223
 20
-663.7929911375804
 30
0.0
 40
0.8203678318442867
 50
67.53208035246934
 51
172.467919622545
  0
ARC
  5
575
  8
__
  6
CONTINUOUS
 62
     7
 10
-471.4380629172269
 20
-662.8488821900892
 30
0.0
 40
0.2222356198218802
 50
236.8251528744028
 51
63.17484712558153
  0
ARC
  5
576
  8
__
  6
CONTINUOUS
 62
     7
 10
-449.9008610001015
 20
-639.2991086198217
 30
0.0
 40
0.2222356198218846
 50
356.8251528744058
 51
183.1748471255958
  0
ARC
  5
577
  8
__
  6
CONTINUOUS
 62
     7
 10
-450.9360449159801
 20
-639.2038818624196
 30
0.0
 40
0.8203678318442867
 50
247.5320803524693
 51
352.467919622545
  0
ARC
  5
578
  8
__
  6
CONTINUOUS
 62
     7
 10
-451.3711680829762
 20
-640.1479908099109
 30
0.0
 40
0.2222356198218802
 50
56.8251528744028
 51
243.1748471255815
  0
ARC
  5
579
  8
__
  6
CONTINUOUS
 62
     7
 10
-451.9712288319457
 20
-640.9968729999497
 30
0.0
 40
0.8203678318442967
 50
307.5320803524648
 51
52.46791962254451
  0
ARC
  5
57A
  8
__
  6
CONTINUOUS
 62
     7
 10
-449.9008610001015
 20
-642.6946373801782
 30
0.0
 40
0.222235619821771
 50
176.8251528744042
 51
3.174847125594227
  0
ARC
  5
57B
  8
__
  6
CONTINUOUS
 62
     7
 10
-450.9360449159801
 20
-642.7898641375803
 30
0.0
 40
0.8203678318442392
 50
7.532080377455046
 51
112.4679196475307
  0
ARC
  5
57C
  8
__
  6
CONTINUOUS
 62
     7
 10
-451.3711680829762
 20
-641.845755190089
 30
0.0
 40
0.2222356198217709
 50
116.8251528744185
 51
303.1748471255972
  0
ARC
  5
57D
  8
__
  6
CONTINUOUS
 62
     7
 10
-448.865677084223
 20
-639.2038818624196
 30
0.0
 40
0.8203678318442392
 50
187.532080377455
 51
292.4679196475307
  0
ARC
  5
57E
  8
__
  6
CONTINUOUS
 62
     7
 10
-448.4305539172269
 20
-640.1479908099109
 30
0.0
 40
0.2222356198217709
 50
296.8251528744185
 51
123.1748471255972
  0
ARC
  5
57F
  8
__
  6
CONTINUOUS
 62
     7
 10
-447.8304931682574
 20
-640.9968729999497
 30
0.0
 40
0.8203678318442142
 50
127.5320803774555
 51
232.4679196475352
  0
ARC
  5
580
  8
__
  6
CONTINUOUS
 62
     7
 10
-448.865677084223
 20
-642.7898641375803
 30
0.0
 40
0.8203678318442867
 50
67.53208035246934
 51
172.467919622545
  0
ARC
  5
581
  8
__
  6
CONTINUOUS
 62
     7
 10
-448.4305539172269
 20
-641.845755190089
 30
0.0
 40
0.2222356198218802
 50
236.8251528744028
 51
63.17484712558153
  0
ARC
  5
582
  8
__
  6
CONTINUOUS
 62
     7
 10
-349.9008610001015
 20
-639.2991086198217
 30
0.0
 40
0.222235619821771
 50
356.8251528744042
 51
183.1748471255959
  0
ARC
  5
583
  8
__
  6
CONTINUOUS
 62
     7
 10
-350.9360449159801
 20
-639.2038818624196
 30
0.0
 40
0.8203678318443084
 50
247.5320803524656
 51
352.4679196225455
  0
ARC
  5
584
  8
__
  6
CONTINUOUS
 62
     7
 10
-351.3711680829762
 20
-640.1479908099109
 30
0.0
 40
0.2222356198218802
 50
56.8251528744028
 51
243.1748471255815
  0
ARC
  5
585
  8
__
  6
CONTINUOUS
 62
     7
 10
-351.9712288319457
 20
-640.9968729999497
 30
0.0
 40
0.8203678318443314
 50
307.532080352468
 51
52.46791962254449
  0
ARC
  5
586
  8
__
  6
CONTINUOUS
 62
     7
 10
-349.9008610001015
 20
-642.6946373801782
 30
0.0
 40
0.222235619821771
 50
176.8251528744042
 51
3.174847125595846
  0
ARC
  5
587
  8
__
  6
CONTINUOUS
 62
     7
 10
-350.9360449159801
 20
-642.7898641375803
 30
0.0
 40
0.8203678318442955
 50
7.532080377454527
 51
112.4679196475343
  0
ARC
  5
588
  8
__
  6
CONTINUOUS
 62
     7
 10
-351.3711680829762
 20
-641.845755190089
 30
0.0
 40
0.2222356198217709
 50
116.8251528744185
 51
303.1748471255972
  0
ARC
  5
589
  8
__
  6
CONTINUOUS
 62
     7
 10
-348.865677084223
 20
-639.2038818624196
 30
0.0
 40
0.8203678318441828
 50
187.5320803774555
 51
292.467919647527
  0
ARC
  5
58A
  8
__
  6
CONTINUOUS
 62
     7
 10
-348.4305539172269
 20
-640.1479908099109
 30
0.0
 40
0.2222356198217709
 50
296.8251528744185
 51
123.1748471255972
  0
ARC
  5
58B
  8
__
  6
CONTINUOUS
 62
     7
 10
-347.8304931682574
 20
-640.9968729999497
 30
0.0
 40
0.8203678318442142
 50
127.5320803774555
 51
232.4679196475383
  0
ARC
  5
58C
  8
__
  6
CONTINUOUS
 62
     7
 10
-348.865677084223
 20
-642.7898641375803
 30
0.0
 40
0.820367831844265
 50
67.532080352473
 51
172.4679196225445
  0
ARC
  5
58D
  8
__
  6
CONTINUOUS
 62
     7
 10
-348.4305539172269
 20
-641.845755190089
 30
0.0
 40
0.2222356198218802
 50
236.8251528744028
 51
63.17484712558153
  0
ARC
  5
58E
  8
__
  6
CONTINUOUS
 62
     7
 10
-327.0916300001013
 20
-660.3022356198219
 30
0.0
 40
0.222235619821771
 50
356.8251528744042
 51
183.1748471255959
  0
ARC
  5
58F
  8
__
  6
CONTINUOUS
 62
     7
 10
-328.1268139159799
 20
-660.2070088624198
 30
0.0
 40
0.8203678318443084
 50
247.5320803524656
 51
352.4679196225455
  0
ARC
  5
590
  8
__
  6
CONTINUOUS
 62
     7
 10
-328.561937082976
 20
-661.151117809911
 30
0.0
 40
0.2222356198218802
 50
56.8251528744028
 51
243.1748471255815
  0
ARC
  5
591
  8
__
  6
CONTINUOUS
 62
     7
 10
-329.1619978319455
 20
-661.9999999999499
 30
0.0
 40
0.8203678318443314
 50
307.532080352468
 51
52.46791962254449
  0
ARC
  5
592
  8
__
  6
CONTINUOUS
 62
     7
 10
-327.0916300001013
 20
-663.6977643801783
 30
0.0
 40
0.222235619821771
 50
176.8251528744042
 51
3.174847125595846
  0
ARC
  5
593
  8
__
  6
CONTINUOUS
 62
     7
 10
-328.1268139159799
 20
-663.7929911375804
 30
0.0
 40
0.8203678318442955
 50
7.532080377454527
 51
112.4679196475343
  0
ARC
  5
594
  8
__
  6
CONTINUOUS
 62
     7
 10
-328.561937082976
 20
-662.8488821900892
 30
0.0
 40
0.2222356198217709
 50
116.8251528744185
 51
303.1748471255972
  0
ARC
  5
595
  8
__
  6
CONTINUOUS
 62
     7
 10
-326.0564460842228
 20
-660.2070088624198
 30
0.0
 40
0.8203678318441828
 50
187.5320803774555
 51
292.467919647527
  0
ARC
  5
596
  8
__
  6
CONTINUOUS
 62
     7
 10
-325.6213229172267
 20
-661.151117809911
 30
0.0
 40
0.2222356198217709
 50
296.8251528744185
 51
123.1748471255972
  0
ARC
  5
597
  8
__
  6
CONTINUOUS
 62
     7
 10
-325.0212621682572
 20
-661.9999999999499
 30
0.0
 40
0.8203678318442142
 50
127.5320803774555
 51
232.4679196475383
  0
ARC
  5
598
  8
__
  6
CONTINUOUS
 62
     7
 10
-326.0564460842228
 20
-663.7929911375804
 30
0.0
 40
0.820367831844265
 50
67.532080352473
 51
172.4679196225445
  0
ARC
  5
599
  8
__
  6
CONTINUOUS
 62
     7
 10
-325.6213229172267
 20
-662.8488821900892
 30
0.0
 40
0.2222356198218802
 50
236.8251528744028
 51
63.17484712558153
  0
ARC
  5
59A
  8
__
  6
CONTINUOUS
 62
     7
 10
-327.0916299999999
 20
-750.3022356198219
 30
0.0
 40
0.222235619821771
 50
356.8251528744042
 51
183.1748471255959
  0
ARC
  5
59B
  8
__
  6
CONTINUOUS
 62
     7
 10
-328.1268139158785
 20
-750.2070088624198
 30
0.0
 40
0.8203678318443084
 50
247.5320803524656
 51
352.4679196225455
  0
ARC
  5
59C
  8
__
  6
CONTINUOUS
 62
     7
 10
-328.5619370828746
 20
-751.151117809911
 30
0.0
 40
0.2222356198218802
 50
56.8251528744028
 51
243.1748471255815
  0
ARC
  5
59D
  8
__
  6
CONTINUOUS
 62
     7
 10
-329.1619978318441
 20
-751.9999999999499
 30
0.0
 40
0.8203678318443314
 50
307.532080352468
 51
52.46791962254449
  0
ARC
  5
59E
  8
__
  6
CONTINUOUS
 62
     7
 10
-327.0916299999999
 20
-753.6977643801783
 30
0.0
 40
0.222235619821771
 50
176.8251528744042
 51
3.174847125595846
  0
ARC
  5
59F
  8
__
  6
CONTINUOUS
 62
     7
 10
-328.1268139158785
 20
-753.7929911375804
 30
0.0
 40
0.8203678318442955
 50
7.532080377454527
 51
112.4679196475343
  0
ARC
  5
5A0
  8
__
  6
CONTINUOUS
 62
     7
 10
-328.5619370828746
 20
-752.8488821900892
 30
0.0
 40
0.2222356198217709
 50
116.8251528744185
 51
303.1748471255972
  0
ARC
  5
5A1
  8
__
  6
CONTINUOUS
 62
     7
 10
-326.0564460841214
 20
-750.2070088624198
 30
0.0
 40
0.8203678318441828
 50
187.5320803774555
 51
292.467919647527
  0
ARC
  5
5A2
  8
__
  6
CONTINUOUS
 62
     7
 10
-325.6213229171253
 20
-751.151117809911
 30
0.0
 40
0.2222356198217709
 50
296.8251528744185
 51
123.1748471255972
  0
ARC
  5
5A3
  8
__
  6
CONTINUOUS
 62
     7
 10
-325.0212621681558
 20
-751.9999999999499
 30
0.0
 40
0.8203678318442142
 50
127.5320803774555
 51
232.4679196475383
  0
ARC
  5
5A4
  8
__
  6
CONTINUOUS
 62
     7
 10
-326.0564460841214
 20
-753.7929911375804
 30
0.0
 40
0.820367831844265
 50
67.532080352473
 51
172.4679196225445
  0
ARC
  5
5A5
  8
__
  6
CONTINUOUS
 62
     7
 10
-325.6213229171253
 20
-752.8488821900892
 30
0.0
 40
0.2222356198218802
 50
236.8251528744028
 51
63.17484712558153
  0
ARC
  5
5A6
  8
__
  6
CONTINUOUS
 62
     7
 10
-327.0916299999999
 20
-840.3022356198219
 30
0.0
 40
0.222235619821771
 50
356.8251528744042
 51
183.1748471255959
  0
ARC
  5
5A7
  8
__
  6
CONTINUOUS
 62
     7
 10
-328.1268139158785
 20
-840.2070088624198
 30
0.0
 40
0.8203678318443084
 50
247.5320803524656
 51
352.4679196225455
  0
ARC
  5
5A8
  8
__
  6
CONTINUOUS
 62
     7
 10
-328.5619370828746
 20
-841.151117809911
 30
0.0
 40
0.2222356198218802
 50
56.8251528744028
 51
243.1748471255815
  0
ARC
  5
5A9
  8
__
  6
CONTINUOUS
 62
     7
 10
-329.1619978318441
 20
-841.9999999999499
 30
0.0
 40
0.8203678318443314
 50
307.532080352468
 51
52.46791962254449
  0
ARC
  5
5AA
  8
__
  6
CONTINUOUS
 62
     7
 10
-327.0916299999999
 20
-843.6977643801783
 30
0.0
 40
0.222235619821771
 50
176.8251528744042
 51
3.174847125595846
  0
ARC
  5
5AB
  8
__
  6
CONTINUOUS
 62
     7
 10
-328.1268139158785
 20
-843.7929911375804
 30
0.0
 40
0.8203678318442955
 50
7.532080377454527
 51
112.4679196475343
  0
ARC
  5
5AC
  8
__
  6
CONTINUOUS
 62
     7
 10
-328.5619370828746
 20
-842.8488821900892
 30
0.0
 40
0.2222356198217709
 50
116.8251528744185
 51
303.1748471255972
  0
ARC
  5
5AD
  8
__
  6
CONTINUOUS
 62
     7
 10
-326.0564460841214
 20
-840.2070088624198
 30
0.0
 40
0.8203678318441828
 50
187.5320803774555
 51
292.467919647527
  0
ARC
  5
5AE
  8
__
  6
CONTINUOUS
 62
     7
 10
-325.6213229171253
 20
-841.151117809911
 30
0.0
 40
0.2222356198217709
 50
296.8251528744185
 51
123.1748471255972
  0
ARC
  5
5AF
  8
__
  6
CONTINUOUS
 62
     7
 10
-325.0212621681558
 20
-841.9999999999499
 30
0.0
 40
0.8203678318442142
 50
127.5320803774555
 51
232.4679196475383
  0
ARC
  5
5B0
  8
__
  6
CONTINUOUS
 62
     7
 10
-326.0564460841214
 20
-843.7929911375804
 30
0.0
 40
0.820367831844265
 50
67.532080352473
 51
172.4679196225445
  0
ARC
  5
5B1
  8
__
  6
CONTINUOUS
 62
     7
 10
-325.6213229171253
 20
-842.8488821900892
 30
0.0
 40
0.2222356198218802
 50
236.8251528744028
 51
63.17484712558153
  0
ARC
  5
5B2
  8
__
  6
CONTINUOUS
 62
     7
 10
-327.0916299999999
 20
-930.3022356198217
 30
0.0
 40
0.222235619821771
 50
356.8251528744042
 51
183.1748471255959
  0
ARC
  5
5B3
  8
__
  6
CONTINUOUS
 62
     7
 10
-328.1268139158785
 20
-930.2070088624196
 30
0.0
 40
0.8203678318443084
 50
247.5320803524656
 51
352.4679196225455
  0
ARC
  5
5B4
  8
__
  6
CONTINUOUS
 62
     7
 10
-328.5619370828746
 20
-931.1511178099108
 30
0.0
 40
0.2222356198218802
 50
56.8251528744028
 51
243.1748471255815
  0
ARC
  5
5B5
  8
__
  6
CONTINUOUS
 62
     7
 10
-329.1619978318441
 20
-931.9999999999496
 30
0.0
 40
0.8203678318443314
 50
307.532080352468
 51
52.46791962254449
  0
ARC
  5
5B6
  8
__
  6
CONTINUOUS
 62
     7
 10
-327.0916299999999
 20
-933.6977643801781
 30
0.0
 40
0.222235619821771
 50
176.8251528744042
 51
3.174847125595846
  0
ARC
  5
5B7
  8
__
  6
CONTINUOUS
 62
     7
 10
-328.1268139158785
 20
-933.7929911375802
 30
0.0
 40
0.8203678318442955
 50
7.532080377454527
 51
112.4679196475343
  0
ARC
  5
5B8
  8
__
  6
CONTINUOUS
 62
     7
 10
-328.5619370828746
 20
-932.848882190089
 30
0.0
 40
0.2222356198217709
 50
116.8251528744185
 51
303.1748471255972
  0
ARC
  5
5B9
  8
__
  6
CONTINUOUS
 62
     7
 10
-326.0564460841214
 20
-930.2070088624196
 30
0.0
 40
0.8203678318441828
 50
187.5320803774555
 51
292.467919647527
  0
ARC
  5
5BA
  8
__
  6
CONTINUOUS
 62
     7
 10
-325.6213229171253
 20
-931.1511178099108
 30
0.0
 40
0.2222356198217709
 50
296.8251528744185
 51
123.1748471255972
  0
ARC
  5
5BB
  8
__
  6
CONTINUOUS
 62
     7
 10
-325.0212621681558
 20
-931.9999999999496
 30
0.0
 40
0.8203678318442142
 50
127.5320803774555
 51
232.4679196475383
  0
ARC
  5
5BC
  8
__
  6
CONTINUOUS
 62
     7
 10
-326.0564460841214
 20
-933.7929911375802
 30
0.0
 40
0.820367831844265
 50
67.532080352473
 51
172.4679196225445
  0
ARC
  5
5BD
  8
__
  6
CONTINUOUS
 62
     7
 10
-325.6213229171253
 20
-932.848882190089
 30
0.0
 40
0.2222356198218802
 50
236.8251528744028
 51
63.17484712558153
  0
ARC
  5
5BE
  8
__
  6
CONTINUOUS
 62
     7
 10
-349.9008610000001
 20
-952.3022356198217
 30
0.0
 40
0.222235619821771
 50
356.8251528744042
 51
183.1748471255959
  0
ARC
  5
5BF
  8
__
  6
CONTINUOUS
 62
     7
 10
-350.9360449158787
 20
-952.2070088624196
 30
0.0
 40
0.8203678318443084
 50
247.5320803524656
 51
352.4679196225455
  0
ARC
  5
5C0
  8
__
  6
CONTINUOUS
 62
     7
 10
-351.3711680828748
 20
-953.1511178099108
 30
0.0
 40
0.2222356198218802
 50
56.8251528744028
 51
243.1748471255815
  0
ARC
  5
5C1
  8
__
  6
CONTINUOUS
 62
     7
 10
-351.9712288318443
 20
-953.9999999999496
 30
0.0
 40
0.8203678318443314
 50
307.532080352468
 51
52.46791962254449
  0
ARC
  5
5C2
  8
__
  6
CONTINUOUS
 62
     7
 10
-349.9008610000001
 20
-955.6977643801781
 30
0.0
 40
0.222235619821771
 50
176.8251528744042
 51
3.174847125595846
  0
ARC
  5
5C3
  8
__
  6
CONTINUOUS
 62
     7
 10
-350.9360449158787
 20
-955.7929911375802
 30
0.0
 40
0.8203678318442955
 50
7.532080377454527
 51
112.4679196475343
  0
ARC
  5
5C4
  8
__
  6
CONTINUOUS
 62
     7
 10
-351.3711680828748
 20
-954.848882190089
 30
0.0
 40
0.2222356198217709
 50
116.8251528744185
 51
303.1748471255972
  0
ARC
  5
5C5
  8
__
  6
CONTINUOUS
 62
     7
 10
-348.8656770841216
 20
-952.2070088624196
 30
0.0
 40
0.8203678318441828
 50
187.5320803774555
 51
292.467919647527
  0
ARC
  5
5C6
  8
__
  6
CONTINUOUS
 62
     7
 10
-348.4305539171255
 20
-953.1511178099108
 30
0.0
 40
0.2222356198217709
 50
296.8251528744185
 51
123.1748471255972
  0
ARC
  5
5C7
  8
__
  6
CONTINUOUS
 62
     7
 10
-347.830493168156
 20
-953.9999999999496
 30
0.0
 40
0.8203678318442142
 50
127.5320803774555
 51
232.4679196475383
  0
ARC
  5
5C8
  8
__
  6
CONTINUOUS
 62
     7
 10
-348.8656770841216
 20
-955.7929911375802
 30
0.0
 40
0.820367831844265
 50
67.532080352473
 51
172.4679196225445
  0
ARC
  5
5C9
  8
__
  6
CONTINUOUS
 62
     7
 10
-348.4305539171255
 20
-954.848882190089
 30
0.0
 40
0.2222356198218802
 50
236.8251528744028
 51
63.17484712558153
  0
ARC
  5
5CA
  8
__
  6
CONTINUOUS
 62
     7
 10
-449.9008610000001
 20
-952.3022356198217
 30
0.0
 40
0.222235619821771
 50
356.8251528744042
 51
183.1748471255959
  0
ARC
  5
5CB
  8
__
  6
CONTINUOUS
 62
     7
 10
-450.9360449158787
 20
-952.2070088624196
 30
0.0
 40
0.8203678318443084
 50
247.5320803524656
 51
352.4679196225455
  0
ARC
  5
5CC
  8
__
  6
CONTINUOUS
 62
     7
 10
-451.3711680828748
 20
-953.1511178099108
 30
0.0
 40
0.2222356198218802
 50
56.8251528744028
 51
243.1748471255815
  0
ARC
  5
5CD
  8
__
  6
CONTINUOUS
 62
     7
 10
-451.9712288318443
 20
-953.9999999999496
 30
0.0
 40
0.8203678318443314
 50
307.532080352468
 51
52.46791962254449
  0
ARC
  5
5CE
  8
__
  6
CONTINUOUS
 62
     7
 10
-449.9008610000001
 20
-955.6977643801781
 30
0.0
 40
0.222235619821771
 50
176.8251528744042
 51
3.174847125595846
  0
ARC
  5
5CF
  8
__
  6
CONTINUOUS
 62
     7
 10
-450.9360449158787
 20
-955.7929911375802
 30
0.0
 40
0.8203678318442955
 50
7.532080377454527
 51
112.4679196475343
  0
ARC
  5
5D0
  8
__
  6
CONTINUOUS
 62
     7
 10
-451.3711680828748
 20
-954.848882190089
 30
0.0
 40
0.2222356198217709
 50
116.8251528744185
 51
303.1748471255972
  0
ARC
  5
5D1
  8
__
  6
CONTINUOUS
 62
     7
 10
-448.8656770841216
 20
-952.2070088624196
 30
0.0
 40
0.8203678318441828
 50
187.5320803774555
 51
292.467919647527
  0
ARC
  5
5D2
  8
__
  6
CONTINUOUS
 62
     7
 10
-448.4305539171255
 20
-953.1511178099108
 30
0.0
 40
0.2222356198217709
 50
296.8251528744185
 51
123.1748471255972
  0
ARC
  5
5D3
  8
__
  6
CONTINUOUS
 62
     7
 10
-447.830493168156
 20
-953.9999999999496
 30
0.0
 40
0.8203678318442142
 50
127.5320803774555
 51
232.4679196475383
  0
ARC
  5
5D4
  8
__
  6
CONTINUOUS
 62
     7
 10
-448.8656770841216
 20
-955.7929911375802
 30
0.0
 40
0.820367831844265
 50
67.532080352473
 51
172.4679196225445
  0
ARC
  5
5D5
  8
__
  6
CONTINUOUS
 62
     7
 10
-448.4305539171255
 20
-954.848882190089
 30
0.0
 40
0.2222356198218802
 50
236.8251528744028
 51
63.17484712558153
  0
ARC
  5
5D6
  8
__
  6
CONTINUOUS
 62
     7
 10
-472.9083700000001
 20
-930.3022356198217
 30
0.0
 40
0.222235619821771
 50
356.8251528744042
 51
183.1748471255959
  0
ARC
  5
5D7
  8
__
  6
CONTINUOUS
 62
     7
 10
-473.9435539158787
 20
-930.2070088624196
 30
0.0
 40
0.8203678318443084
 50
247.5320803524656
 51
352.4679196225455
  0
ARC
  5
5D8
  8
__
  6
CONTINUOUS
 62
     7
 10
-474.3786770828748
 20
-931.1511178099108
 30
0.0
 40
0.2222356198218802
 50
56.8251528744028
 51
243.1748471255815
  0
ARC
  5
5D9
  8
__
  6
CONTINUOUS
 62
     7
 10
-474.9787378318443
 20
-931.9999999999496
 30
0.0
 40
0.8203678318443314
 50
307.532080352468
 51
52.46791962254449
  0
ARC
  5
5DA
  8
__
  6
CONTINUOUS
 62
     7
 10
-472.9083700000001
 20
-933.6977643801781
 30
0.0
 40
0.222235619821771
 50
176.8251528744042
 51
3.174847125595846
  0
ARC
  5
5DB
  8
__
  6
CONTINUOUS
 62
     7
 10
-473.9435539158787
 20
-933.7929911375802
 30
0.0
 40
0.8203678318442955
 50
7.532080377454527
 51
112.4679196475343
  0
ARC
  5
5DC
  8
__
  6
CONTINUOUS
 62
     7
 10
-474.3786770828748
 20
-932.848882190089
 30
0.0
 40
0.2222356198217709
 50
116.8251528744185
 51
303.1748471255972
  0
ARC
  5
5DD
  8
__
  6
CONTINUOUS
 62
     7
 10
-471.8731860841216
 20
-930.2070088624196
 30
0.0
 40
0.8203678318441828
 50
187.5320803774555
 51
292.467919647527
  0
ARC
  5
5DE
  8
__
  6
CONTINUOUS
 62
     7
 10
-471.4380629171255
 20
-931.1511178099108
 30
0.0
 40
0.2222356198217709
 50
296.8251528744185
 51
123.1748471255972
  0
ARC
  5
5DF
  8
__
  6
CONTINUOUS
 62
     7
 10
-470.838002168156
 20
-931.9999999999496
 30
0.0
 40
0.8203678318442142
 50
127.5320803774555
 51
232.4679196475383
  0
ARC
  5
5E0
  8
__
  6
CONTINUOUS
 62
     7
 10
-471.8731860841216
 20
-933.7929911375802
 30
0.0
 40
0.820367831844265
 50
67.532080352473
 51
172.4679196225445
  0
ARC
  5
5E1
  8
__
  6
CONTINUOUS
 62
     7
 10
-471.4380629171255
 20
-932.848882190089
 30
0.0
 40
0.2222356198218802
 50
236.8251528744028
 51
63.17484712558153
  0
ARC
  5
5E2
  8
__
  6
CONTINUOUS
 62
     7
 10
-472.9083700000001
 20
-840.3022356198219
 30
0.0
 40
0.222235619821771
 50
356.8251528744042
 51
183.1748471255959
  0
ARC
  5
5E3
  8
__
  6
CONTINUOUS
 62
     7
 10
-473.9435539158787
 20
-840.2070088624198
 30
0.0
 40
0.8203678318443084
 50
247.5320803524656
 51
352.4679196225455
  0
ARC
  5
5E4
  8
__
  6
CONTINUOUS
 62
     7
 10
-474.3786770828748
 20
-841.151117809911
 30
0.0
 40
0.2222356198218802
 50
56.8251528744028
 51
243.1748471255815
  0
ARC
  5
5E5
  8
__
  6
CONTINUOUS
 62
     7
 10
-474.9787378318443
 20
-841.9999999999499
 30
0.0
 40
0.8203678318443314
 50
307.532080352468
 51
52.46791962254449
  0
ARC
  5
5E6
  8
__
  6
CONTINUOUS
 62
     7
 10
-472.9083700000001
 20
-843.6977643801783
 30
0.0
 40
0.222235619821771
 50
176.8251528744042
 51
3.174847125595846
  0
ARC
  5
5E7
  8
__
  6
CONTINUOUS
 62
     7
 10
-473.9435539158787
 20
-843.7929911375804
 30
0.0
 40
0.8203678318442955
 50
7.532080377454527
 51
112.4679196475343
  0
ARC
  5
5E8
  8
__
  6
CONTINUOUS
 62
     7
 10
-474.3786770828748
 20
-842.8488821900892
 30
0.0
 40
0.2222356198217709
 50
116.8251528744185
 51
303.1748471255972
  0
ARC
  5
5E9
  8
__
  6
CONTINUOUS
 62
     7
 10
-471.8731860841216
 20
-840.2070088624198
 30
0.0
 40
0.8203678318441828
 50
187.5320803774555
 51
292.467919647527
  0
ARC
  5
5EA
  8
__
  6
CONTINUOUS
 62
     7
 10
-471.4380629171255
 20
-841.151117809911
 30
0.0
 40
0.2222356198217709
 50
296.8251528744185
 51
123.1748471255972
  0
ARC
  5
5EB
  8
__
  6
CONTINUOUS
 62
     7
 10
-470.838002168156
 20
-841.9999999999499
 30
0.0
 40
0.8203678318442142
 50
127.5320803774555
 51
232.4679196475383
  0
ARC
  5
5EC
  8
__
  6
CONTINUOUS
 62
     7
 10
-471.8731860841216
 20
-843.7929911375804
 30
0.0
 40
0.820367831844265
 50
67.532080352473
 51
172.4679196225445
  0
ARC
  5
5ED
  8
__
  6
CONTINUOUS
 62
     7
 10
-471.4380629171255
 20
-842.8488821900892
 30
0.0
 40
0.2222356198218802
 50
236.8251528744028
 51
63.17484712558153
  0
LINE
  5
5EE
  8
__
  6
CONTINUOUS
 62
     7
 10
-401.7320500000001
 20
-611.9999989162318
 30
0.0
 11
-398.26795
 21
-611.9999989162318
 31
0.0
  0
LINE
  5
5EF
  8
__
  6
CONTINUOUS
 62
     7
 10
-398.26795
 20
-606.0000017137324
 30
0.0
 11
-401.7320500000001
 21
-606.0000017137324
 31
0.0
  0
LINE
  5
5F0
  8
__
  6
CONTINUOUS
 62
     7
 10
-398.26795
 20
-611.9999989162318
 30
0.0
 11
-396.5358999999999
 21
-609.0000003149821
 31
0.0
  0
LINE
  5
5F1
  8
__
  6
CONTINUOUS
 62
     7
 10
-396.5358999999999
 20
-609.0000003149821
 30
0.0
 11
-398.26795
 21
-606.0000017137324
 31
0.0
  0
LINE
  5
5F2
  8
__
  6
CONTINUOUS
 62
     7
 10
-403.4641000000002
 20
-609.0000003149821
 30
0.0
 11
-401.7320500000001
 21
-611.9999989162318
 31
0.0
  0
LINE
  5
5F3
  8
__
  6
CONTINUOUS
 62
     7
 10
-401.7320500000001
 20
-606.0000017137324
 30
0.0
 11
-403.4641000000002
 21
-609.0000003149821
 31
0.0
  0
LINE
  5
5F4
  8
__
  6
CONTINUOUS
 62
     7
 10
-1250.1469885
 20
-562.0000000000001
 30
0.0
 11
-1150.1469885
 21
-562.0000000000001
 31
0.0
  0
ARC
  5
5F5
  8
__
  6
CONTINUOUS
 62
     7
 10
-1243.053806681823
 20
-754.5624999999566
 30
0.0
 40
192.6930970080115
 50
92.10957853106228
 51
100.3420795977893
  0
ARC
  5
5F6
  8
__
  6
CONTINUOUS
 62
     7
 10
-1156.946193318177
 20
-754.5624999999566
 30
0.0
 40
192.6930970080115
 50
79.65792040221075
 51
87.89042146893773
  0
ARC
  5
5F7
  8
__
  6
CONTINUOUS
 62
     7
 10
-795.4295697846208
 20
-615.0887921952963
 30
0.0
 40
53.0887921952961
 50
70.75329015742645
 51
109.2467098425736
  0
LINE
  5
5F8
  8
__
  6
CONTINUOUS
 62
     7
 10
-450.0
 20
-562.0000000000001
 30
0.0
 11
-350.0
 21
-562.0000000000001
 31
0.0
  0
ARC
  5
5F9
  8
__
  6
CONTINUOUS
 62
     7
 10
-442.9068181818229
 20
-754.5624999999566
 30
0.0
 40
192.6930970080115
 50
92.10957853106228
 51
100.3420795977893
  0
ARC
  5
5FA
  8
__
  6
CONTINUOUS
 62
     7
 10
-356.7992048181773
 20
-754.5624999999566
 30
0.0
 40
192.6930970080115
 50
79.65792040221075
 51
87.89042146893773
  0
LINE
  5
5FB
  8
__
  6
______-6
 62
     7
 10
-400.0
 20
-525.0
 30
0.0
 11
-400.0
 21
-1075.0
 31
0.0
  0
LINE
  5
5FC
  8
__
  6
______-6
 62
     7
 10
-1200.0
 20
175.0
 30
0.0
 11
-1200.0
 21
-175.0
 31
0.0
  0
LINE
  5
5FD
  8
__
  6
______-6
 62
     7
 10
-1200.0
 20
-1275.0
 30
0.0
 11
-1200.0
 21
-1625.0
 31
0.0
  0
TEXT
  5
5FE
  8
__
 62
     7
 10
-410.6147526041667
 20
-755.1603300416667
 30
0.0
 40
4.332552083333333
  1
SIG/CLIP
 41
0.7
 72
     1
 11
-400.0
 21
-752.994054
 31
0.0
 73
     2
  0
TEXT
  5
5FF
  8
__
 62
     7
 10
-384.114753604167
 20
-755.1603300416667
 30
0.0
 40
4.332552083333333
  1
SIG/CLIP
 41
0.7
 72
     1
 11
-373.5000010000003
 21
-752.994054
 31
0.0
 73
     2
  0
TEXT
  5
600
  8
__
 62
     7
 10
-405.0546440972222
 20
-769.4162760416667
 30
0.0
 40
4.332552083333333
  1
GAIN
 41
0.7
 72
     1
 11
-400.0
 21
-767.25
 31
0.0
 73
     2
  0
TEXT
  5
601
  8
__
 62
     7
 10
-378.5593380972224
 20
-769.4162760416667
 30
0.0
 40
4.332552083333333
  1
GAIN
 41
0.7
 72
     1
 11
-373.5046940000002
 21
-767.25
 31
0.0
 73
     2
  0
LINE
  5
602
  8
__
  6
CONTINUOUS
 62
     7
 10
-400.0
 20
-777.6788815735599
 30
0.0
 11
-400.0
 21
-770.1788815735599
 31
0.0
  0
LINE
  5
603
  8
__
  6
CONTINUOUS
 62
     7
 10
-426.5006596586685
 20
-812.1741753226877
 30
0.0
 11
-426.4990961805269
 21
-816.1741750171296
 31
0.0
  0
LINE
  5
604
  8
__
  6
CONTINUOUS
 62
     7
 10
-400.0007817390708
 20
-801.8241712000001
 30
0.0
 11
-399.9992182609292
 21
-805.8241708944421
 31
0.0
  0
LINE
  5
605
  8
__
  6
CONTINUOUS
 62
     7
 10
-400.0049613977395
 20
-812.1741753226877
 30
0.0
 11
-400.0033979195979
 21
-816.1741750171296
 31
0.0
  0
LINE
  5
606
  8
__
  6
CONTINUOUS
 62
     7
 10
2104.31067315379
 20
742.2799198747928
 30
0.0
 11
2104.9134760194
 21
-1185.200772874876
 31
0.0
  0
LINE
  5
607
  8
__
  6
CONTINUOUS
 62
     7
 10
484.2996875570742
 20
777.1515959124761
 30
0.0
 11
484.9024890019143
 21
-1150.324553881938
 31
0.0
  0
LINE
  5
608
  8
__
  6
CONTINUOUS
 62
     7
 10
1544.17422817565
 20
638.4873411363415
 30
0.0
 11
1044.174208175648
 21
638.4873411363415
 31
0.0
  0
LINE
  5
609
  8
__
  6
CONTINUOUS
 62
     7
 10
1544.17422817565
 20
638.4873411363415
 30
0.0
 11
1544.28993817565
 21
268.4873411363413
 31
0.0
  0
LINE
  5
60A
  8
__
  6
CONTINUOUS
 62
     7
 10
1544.28993817565
 20
268.4873411363413
 30
0.0
 11
1044.289918175648
 21
268.4873411363413
 31
0.0
  0
LINE
  5
60B
  8
__
  6
CONTINUOUS
 62
     7
 10
1044.174208175648
 20
638.4873411363415
 30
0.0
 11
1044.289918175648
 21
268.4873411363413
 31
0.0
  0
CIRCLE
  5
60C
  8
__
  6
CONTINUOUS
 62
     7
 10
829.2023381756485
 20
548.4873411363415
 30
0.0
 40
75.0
  0
CIRCLE
  5
60D
  8
__
  6
CONTINUOUS
 62
     7
 10
1719.202388175647
 20
548.4873411363415
 30
0.0
 40
90.0
  0
CIRCLE
  5
60E
  8
__
  6
CONTINUOUS
 62
     7
 10
1719.202388175647
 20
303.4873411363415
 30
0.0
 40
35.0
  0
ARC
  5
60F
  8
__
  6
CONTINUOUS
 62
     7
 10
809.2023381756485
 20
298.4873411363413
 30
0.0
 40
20.00000000000095
 50
94.84558399999173
 51
270.0
  0
ARC
  5
610
  8
__
  6
CONTINUOUS
 62
     7
 10
849.2023381756485
 20
298.4873411363413
 30
0.0
 40
20.0
 50
270.0
 51
90.0
  0
LINE
  5
611
  8
__
  6
CONTINUOUS
 62
     7
 10
809.2023381756485
 20
318.4873411363415
 30
0.0
 11
849.2023381756485
 21
318.4873411363415
 31
0.0
  0
LINE
  5
612
  8
__
  6
CONTINUOUS
 62
     7
 10
809.2023381756485
 20
278.4873411363413
 30
0.0
 11
849.2023381756485
 21
278.4873411363413
 31
0.0
  0
ARC
  5
613
  8
__
  6
CONTINUOUS
 62
     7
 10
1009.174228175652
 20
98.54680113634129
 30
0.0
 40
20.00000000000125
 50
90.0
 51
270.0
  0
ARC
  5
614
  8
__
  6
CONTINUOUS
 62
     7
 10
1049.174228175652
 20
98.54680113634129
 30
0.0
 40
20.0
 50
270.0
 51
90.0
  0
LINE
  5
615
  8
__
  6
CONTINUOUS
 62
     7
 10
1009.174228175652
 20
118.5468011363413
 30
0.0
 11
1049.174228175652
 21
118.5468011363413
 31
0.0
  0
LINE
  5
616
  8
__
  6
CONTINUOUS
 62
     7
 10
1009.174228175652
 20
78.54680113634129
 30
0.0
 11
1049.174228175652
 21
78.54680113634129
 31
0.0
  0
CIRCLE
  5
617
  8
__
  6
CONTINUOUS
 62
     7
 10
1029.221158175651
 20
-31.51265886365866
 30
0.0
 40
32.5
  0
CIRCLE
  5
618
  8
__
  6
CONTINUOUS
 62
     7
 10
1029.174228175652
 20
-331.5126588636587
 30
0.0
 40
112.5
  0
CIRCLE
  5
619
  8
__
  6
CONTINUOUS
 62
     7
 10
1029.218446370379
 20
-711.5126880349543
 30
0.0
 40
112.5
  0
ARC
  5
61A
  8
__
  6
CONTINUOUS
 62
     7
 10
1029.174228175652
 20
-331.5126588636587
 30
0.0
 40
105.0000000000009
 50
118.4548090000017
 51
61.58102900000155
  0
LINE
  5
61B
  8
__
  6
CONTINUOUS
 62
     7
 10
975.571868175648
 20
-232.6034288636571
 30
0.0
 11
979.1453581756514
 21
-239.1973788636584
 31
0.0
  0
LINE
  5
61C
  8
__
  6
CONTINUOUS
 62
     7
 10
1082.776598175651
 20
-232.6034288636571
 30
0.0
 11
1079.203108175652
 21
-239.1973788636584
 31
0.0
  0
LINE
  5
61D
  8
__
  6
CONTINUOUS
 62
     7
 10
1060.097528175647
 20
-321.5126588636587
 30
0.0
 11
1074.171108175651
 21
-321.5126588636587
 31
0.0
  0
LINE
  5
61E
  8
__
  6
CONTINUOUS
 62
     7
 10
1060.097528175647
 20
-341.5126588636587
 30
0.0
 11
1074.177358175648
 21
-341.5126588636587
 31
0.0
  0
LINE
  5
61F
  8
__
  6
CONTINUOUS
 62
     7
 10
1019.183898175652
 20
-362.4390788636571
 30
0.0
 11
1019.188308175653
 21
-376.5126588636587
 31
0.0
  0
LINE
  5
620
  8
__
  6
CONTINUOUS
 62
     7
 10
1039.183898175652
 20
-362.432818863657
 30
0.0
 11
1039.188308175653
 21
-376.5126588636587
 31
0.0
  0
CIRCLE
  5
621
  8
__
  6
CONTINUOUS
 62
     7
 10
1029.174228175652
 20
-331.5126588636587
 30
0.0
 40
80.0
  0
LINE
  5
622
  8
__
  6
CONTINUOUS
 62
     7
 10
998.2509381756518
 20
-321.5126588636587
 30
0.0
 11
984.1710981756478
 21
-321.5126588636587
 31
0.0
  0
LINE
  5
623
  8
__
  6
CONTINUOUS
 62
     7
 10
998.2509381756518
 20
-341.5126588636587
 30
0.0
 11
984.1773581756479
 21
-341.5126588636587
 31
0.0
  0
ARC
  5
624
  8
__
  6
CONTINUOUS
 62
     7
 10
984.1742281756524
 20
-331.5126588636587
 30
0.0
 40
9.999999999999945
 50
90.01791900001633
 51
270.0179189999903
  0
ARC
  5
625
  8
__
  6
CONTINUOUS
 62
     7
 10
1029.188308175653
 20
-376.5126588636587
 30
0.0
 40
10.0
 50
180.0
 51
0.0
  0
ARC
  5
626
  8
__
  6
CONTINUOUS
 62
     7
 10
1074.174238175651
 20
-331.5126588636587
 30
0.0
 40
9.999999999999943
 50
270.0179189999903
 51
90.01791899999027
  0
ARC
  5
627
  8
__
  6
CONTINUOUS
 62
     7
 10
1029.174228175652
 20
-331.5126588636587
 30
0.0
 40
32.50000000000547
 50
197.9202129999983
 51
252.0977059999958
  0
ARC
  5
628
  8
__
  6
CONTINUOUS
 62
     7
 10
1029.174228175652
 20
-331.5126588636587
 30
0.0
 40
32.49999999999936
 50
287.9381319999904
 51
342.0797869999968
  0
ARC
  5
629
  8
__
  6
CONTINUOUS
 62
     7
 10
1029.174228175652
 20
-331.5126588636587
 30
0.0
 40
32.49999999999682
 50
17.92021300000318
 51
162.0797870000017
  0
CIRCLE
  5
62A
  8
__
  6
CONTINUOUS
 62
     7
 10
984.2184363703757
 20
-711.5126880349543
 30
0.0
 40
7.5
  0
CIRCLE
  5
62B
  8
__
  6
CONTINUOUS
 62
     7
 10
1029.232516370377
 20
-756.5126880349543
 30
0.0
 40
7.5
  0
CIRCLE
  5
62C
  8
__
  6
CONTINUOUS
 62
     7
 10
1074.218446370379
 20
-711.5126880349543
 30
0.0
 40
7.5
  0
CIRCLE
  5
62D
  8
__
  6
CONTINUOUS
 62
     7
 10
1029.218446370379
 20
-711.5126880349543
 30
0.0
 40
80.0
  0
CIRCLE
  5
62E
  8
__
  6
CONTINUOUS
 62
     7
 10
930.1483281756509
 20
-232.5486788636577
 30
0.0
 40
15.0
  0
LINE
  5
62F
  8
__
  6
CONTINUOUS
 62
     7
 10
923.0750481756513
 20
-225.4798188636583
 30
0.0
 11
937.2216081756505
 21
-239.6175288636583
 31
0.0
  0
LINE
  5
630
  8
__
  6
CONTINUOUS
 62
     7
 10
937.2171881756503
 20
-225.4753988636581
 30
0.0
 11
923.079468175647
 21
-239.6219588636573
 31
0.0
  0
CIRCLE
  5
631
  8
__
  6
CONTINUOUS
 62
     7
 10
930.1925363703788
 20
-612.5487080349534
 30
0.0
 40
15.0
  0
LINE
  5
632
  8
__
  6
CONTINUOUS
 62
     7
 10
923.1192563703792
 20
-605.479848034954
 30
0.0
 11
937.2658163703784
 21
-619.617558034954
 31
0.0
  0
LINE
  5
633
  8
__
  6
CONTINUOUS
 62
     7
 10
937.2613963703782
 20
-605.4754280349538
 30
0.0
 11
923.1236763703794
 21
-619.621988034953
 31
0.0
  0
LINE
  5
634
  8
__
  6
CONTINUOUS
 62
     7
 10
1121.126858175649
 20
-423.4077888636567
 30
0.0
 11
1135.273418175648
 21
-437.5454988636567
 31
0.0
  0
LINE
  5
635
  8
__
  6
CONTINUOUS
 62
     7
 10
1135.268988175649
 20
-423.4033688636588
 30
0.0
 11
1121.131278175653
 21
-437.5499188636569
 31
0.0
  0
LINE
  5
636
  8
__
  6
CONTINUOUS
 62
     7
 10
1121.126858175649
 20
-423.4077888636567
 30
0.0
 11
1135.273418175648
 21
-437.5454988636567
 31
0.0
  0
LINE
  5
637
  8
__
  6
CONTINUOUS
 62
     7
 10
1135.268988175649
 20
-423.4033688636588
 30
0.0
 11
1121.131278175653
 21
-437.5499188636569
 31
0.0
  0
CIRCLE
  5
638
  8
__
  6
CONTINUOUS
 62
     7
 10
1128.244346370376
 20
-810.476678034954
 30
0.0
 40
15.0
  0
LINE
  5
639
  8
__
  6
CONTINUOUS
 62
     7
 10
1121.171066370381
 20
-803.4078180349524
 30
0.0
 11
1135.31762637038
 21
-817.5455280349523
 31
0.0
  0
LINE
  5
63A
  8
__
  6
CONTINUOUS
 62
     7
 10
1135.313206370375
 20
-803.4033980349544
 30
0.0
 11
1121.175486370377
 21
-817.5499480349525
 31
0.0
  0
CIRCLE
  5
63B
  8
__
  6
CONTINUOUS
 62
     7
 10
1128.244346370376
 20
-810.476678034954
 30
0.0
 40
15.0
  0
LINE
  5
63C
  8
__
  6
CONTINUOUS
 62
     7
 10
1121.171066370381
 20
-803.4078180349524
 30
0.0
 11
1135.31762637038
 21
-817.5455280349523
 31
0.0
  0
LINE
  5
63D
  8
__
  6
CONTINUOUS
 62
     7
 10
1135.313206370375
 20
-803.4033980349544
 30
0.0
 11
1121.175486370377
 21
-817.5499480349525
 31
0.0
  0
ARC
  5
63E
  8
__
  6
CONTINUOUS
 62
     7
 10
1274.174218175649
 20
98.62968113634122
 30
0.0
 40
20.00000000000085
 50
90.0
 51
270.0
  0
ARC
  5
63F
  8
__
  6
CONTINUOUS
 62
     7
 10
1314.174218175649
 20
98.62968113634122
 30
0.0
 40
20.0
 50
270.0
 51
90.0
  0
LINE
  5
640
  8
__
  6
CONTINUOUS
 62
     7
 10
1274.174218175649
 20
118.6296811363412
 30
0.0
 11
1314.174218175649
 21
118.6296811363412
 31
0.0
  0
LINE
  5
641
  8
__
  6
CONTINUOUS
 62
     7
 10
1274.174218175649
 20
78.62968113634122
 30
0.0
 11
1314.174218175649
 21
78.62968113634122
 31
0.0
  0
CIRCLE
  5
642
  8
__
  6
CONTINUOUS
 62
     7
 10
1294.221148175648
 20
-31.42977886365873
 30
0.0
 40
32.5
  0
CIRCLE
  5
643
  8
__
  6
CONTINUOUS
 62
     7
 10
1294.174218175649
 20
-331.4297788636587
 30
0.0
 40
112.5
  0
CIRCLE
  5
644
  8
__
  6
CONTINUOUS
 62
     7
 10
1294.218426370381
 20
-711.4298080349544
 30
0.0
 40
112.5
  0
ARC
  5
645
  8
__
  6
CONTINUOUS
 62
     7
 10
1294.174218175649
 20
-331.4297788636587
 30
0.0
 40
104.9999999999987
 50
118.4548089999995
 51
61.5810289999995
  0
LINE
  5
646
  8
__
  6
CONTINUOUS
 62
     7
 10
1240.571858175654
 20
-232.5205488636571
 30
0.0
 11
1244.145348175653
 21
-239.1144988636584
 31
0.0
  0
LINE
  5
647
  8
__
  6
CONTINUOUS
 62
     7
 10
1347.776578175653
 20
-232.5205488636571
 30
0.0
 11
1344.20308817565
 21
-239.1144988636584
 31
0.0
  0
LINE
  5
648
  8
__
  6
CONTINUOUS
 62
     7
 10
1325.09750817565
 20
-321.4297788636587
 30
0.0
 11
1339.171098175648
 21
-321.4297788636587
 31
0.0
  0
LINE
  5
649
  8
__
  6
CONTINUOUS
 62
     7
 10
1325.09750817565
 20
-341.4297788636587
 30
0.0
 11
1339.177348175654
 21
-341.4297788636587
 31
0.0
  0
LINE
  5
64A
  8
__
  6
CONTINUOUS
 62
     7
 10
1284.183888175648
 20
-362.3561988636571
 30
0.0
 11
1284.188288175651
 21
-376.4297788636587
 31
0.0
  0
LINE
  5
64B
  8
__
  6
CONTINUOUS
 62
     7
 10
1304.183888175648
 20
-362.3499488636581
 30
0.0
 11
1304.188288175651
 21
-376.4297788636587
 31
0.0
  0
CIRCLE
  5
64C
  8
__
  6
CONTINUOUS
 62
     7
 10
1294.174218175649
 20
-331.4297788636587
 30
0.0
 40
80.0
  0
LINE
  5
64D
  8
__
  6
CONTINUOUS
 62
     7
 10
1263.250928175648
 20
-321.4297788636587
 30
0.0
 11
1249.171088175653
 21
-321.4297788636587
 31
0.0
  0
LINE
  5
64E
  8
__
  6
CONTINUOUS
 62
     7
 10
1263.250928175648
 20
-341.4297788636587
 30
0.0
 11
1249.177348175654
 21
-341.4297788636587
 31
0.0
  0
ARC
  5
64F
  8
__
  6
CONTINUOUS
 62
     7
 10
1249.174218175649
 20
-331.4297788636587
 30
0.0
 40
9.999999999999943
 50
90.01791899999027
 51
270.0179190000164
  0
ARC
  5
650
  8
__
  6
CONTINUOUS
 62
     7
 10
1294.188288175651
 20
-376.4297788636587
 30
0.0
 40
10.0
 50
180.0
 51
0.0
  0
ARC
  5
651
  8
__
  6
CONTINUOUS
 62
     7
 10
1339.174218175649
 20
-331.4297788636587
 30
0.0
 40
9.999999999999945
 50
270.0179190000163
 51
90.01791899999026
  0
ARC
  5
652
  8
__
  6
CONTINUOUS
 62
     7
 10
1294.174218175649
 20
-331.4297788636587
 30
0.0
 40
32.49999999999682
 50
197.9202130000032
 51
252.0977060000034
  0
ARC
  5
653
  8
__
  6
CONTINUOUS
 62
     7
 10
1294.174218175649
 20
-331.4297788636587
 30
0.0
 40
32.50000000000216
 50
287.9381320000057
 51
342.0797870000018
  0
ARC
  5
654
  8
__
  6
CONTINUOUS
 62
     7
 10
1294.174218175649
 20
-331.4297788636587
 30
0.0
 40
32.50000000000547
 50
17.92021299999825
 51
162.0797869999966
  0
CIRCLE
  5
655
  8
__
  6
CONTINUOUS
 62
     7
 10
1249.218426370381
 20
-711.4298080349544
 30
0.0
 40
7.5
  0
CIRCLE
  5
656
  8
__
  6
CONTINUOUS
 62
     7
 10
1294.232506370378
 20
-756.4298080349544
 30
0.0
 40
7.5
  0
CIRCLE
  5
657
  8
__
  6
CONTINUOUS
 62
     7
 10
1339.218426370381
 20
-711.4298080349544
 30
0.0
 40
7.5
  0
LINE
  5
658
  8
__
  6
CONTINUOUS
 62
     7
 10
1188.075038175648
 20
-225.3969388636584
 30
0.0
 11
1202.221598175647
 21
-239.5346588636572
 31
0.0
  0
LINE
  5
659
  8
__
  6
CONTINUOUS
 62
     7
 10
1202.217168175648
 20
-225.3925188636582
 30
0.0
 11
1188.079458175653
 21
-239.5390788636574
 31
0.0
  0
CIRCLE
  5
65A
  8
__
  6
CONTINUOUS
 62
     7
 10
1195.192526370375
 20
-612.4658280349535
 30
0.0
 40
15.0
  0
LINE
  5
65B
  8
__
  6
CONTINUOUS
 62
     7
 10
1188.11924637038
 20
-605.396968034954
 30
0.0
 11
1202.26580637038
 21
-619.5346880349529
 31
0.0
  0
LINE
  5
65C
  8
__
  6
CONTINUOUS
 62
     7
 10
1202.261376370381
 20
-605.3925480349538
 30
0.0
 11
1188.123666370376
 21
-619.5391080349531
 31
0.0
  0
LINE
  5
65D
  8
__
  6
CONTINUOUS
 62
     7
 10
1386.12684817565
 20
-423.3249088636568
 30
0.0
 11
1400.27339817565
 21
-437.4626288636579
 31
0.0
  0
LINE
  5
65E
  8
__
  6
CONTINUOUS
 62
     7
 10
1400.26897817565
 20
-423.3204888636589
 30
0.0
 11
1386.13126817565
 21
-437.4670488636581
 31
0.0
  0
LINE
  5
65F
  8
__
  6
CONTINUOUS
 62
     7
 10
1386.12684817565
 20
-423.3249088636568
 30
0.0
 11
1400.27339817565
 21
-437.4626288636579
 31
0.0
  0
LINE
  5
660
  8
__
  6
CONTINUOUS
 62
     7
 10
1400.26897817565
 20
-423.3204888636589
 30
0.0
 11
1386.13126817565
 21
-437.4670488636581
 31
0.0
  0
CIRCLE
  5
661
  8
__
  6
CONTINUOUS
 62
     7
 10
1393.244336370377
 20
-810.3937980349541
 30
0.0
 40
15.0
  0
LINE
  5
662
  8
__
  6
CONTINUOUS
 62
     7
 10
1386.171056370378
 20
-803.3249380349524
 30
0.0
 11
1400.317616370377
 21
-817.4626580349535
 31
0.0
  0
LINE
  5
663
  8
__
  6
CONTINUOUS
 62
     7
 10
1400.313186370378
 20
-803.3205180349545
 30
0.0
 11
1386.175476370378
 21
-817.4670780349537
 31
0.0
  0
CIRCLE
  5
664
  8
__
  6
CONTINUOUS
 62
     7
 10
1393.244336370377
 20
-810.3937980349541
 30
0.0
 40
15.0
  0
LINE
  5
665
  8
__
  6
CONTINUOUS
 62
     7
 10
1386.171056370378
 20
-803.3249380349524
 30
0.0
 11
1400.317616370377
 21
-817.4626580349535
 31
0.0
  0
LINE
  5
666
  8
__
  6
CONTINUOUS
 62
     7
 10
1400.313186370378
 20
-803.3205180349545
 30
0.0
 11
1386.175476370378
 21
-817.4670780349537
 31
0.0
  0
ARC
  5
667
  8
__
  6
CONTINUOUS
 62
     7
 10
1539.17420817565
 20
98.71255113634231
 30
0.0
 40
20.00000000000125
 50
90.0
 51
270.0
  0
ARC
  5
668
  8
__
  6
CONTINUOUS
 62
     7
 10
1579.17420817565
 20
98.71255113634231
 30
0.0
 40
20.0
 50
270.0
 51
90.0
  0
LINE
  5
669
  8
__
  6
CONTINUOUS
 62
     7
 10
1539.17420817565
 20
118.7125511363423
 30
0.0
 11
1579.17420817565
 21
118.7125511363423
 31
0.0
  0
LINE
  5
66A
  8
__
  6
CONTINUOUS
 62
     7
 10
1539.17420817565
 20
78.71255113634231
 30
0.0
 11
1579.17420817565
 21
78.71255113634231
 31
0.0
  0
CIRCLE
  5
66B
  8
__
  6
CONTINUOUS
 62
     7
 10
1559.221138175653
 20
-31.34690886365763
 30
0.0
 40
32.5
  0
CIRCLE
  5
66C
  8
__
  6
CONTINUOUS
 62
     7
 10
1559.218416370378
 20
-711.3469380349533
 30
0.0
 40
112.5
  0
CIRCLE
  5
66D
  8
__
  6
CONTINUOUS
 62
     7
 10
1514.218416370378
 20
-711.3469380349533
 30
0.0
 40
7.5
  0
CIRCLE
  5
66E
  8
__
  6
CONTINUOUS
 62
     7
 10
1559.232486370375
 20
-756.3469380349533
 30
0.0
 40
7.5
  0
CIRCLE
  5
66F
  8
__
  6
CONTINUOUS
 62
     7
 10
1604.218416370378
 20
-711.3469380349533
 30
0.0
 40
7.5
  0
CIRCLE
  5
670
  8
__
  6
CONTINUOUS
 62
     7
 10
1559.218416370378
 20
-711.3469380349533
 30
0.0
 40
80.0
  0
CIRCLE
  5
671
  8
__
  6
CONTINUOUS
 62
     7
 10
1460.192506370378
 20
-612.3829480349535
 30
0.0
 40
15.0
  0
LINE
  5
672
  8
__
  6
CONTINUOUS
 62
     7
 10
1453.119236370377
 20
-605.314098034953
 30
0.0
 11
1467.265786370377
 21
-619.4518080349529
 31
0.0
  0
LINE
  5
673
  8
__
  6
CONTINUOUS
 62
     7
 10
1467.261366370377
 20
-605.3096680349539
 30
0.0
 11
1453.123656370377
 21
-619.4562280349531
 31
0.0
  0
CIRCLE
  5
674
  8
__
  6
CONTINUOUS
 62
     7
 10
1658.244316370375
 20
-810.3109180349542
 30
0.0
 40
15.0
  0
LINE
  5
675
  8
__
  6
CONTINUOUS
 62
     7
 10
1651.17103637038
 20
-803.2420680349536
 30
0.0
 11
1665.317596370379
 21
-817.3797780349536
 31
0.0
  0
LINE
  5
676
  8
__
  6
CONTINUOUS
 62
     7
 10
1665.313176370379
 20
-803.2376380349546
 30
0.0
 11
1651.175466370379
 21
-817.3841980349538
 31
0.0
  0
CIRCLE
  5
677
  8
__
  6
CONTINUOUS
 62
     7
 10
1658.244316370375
 20
-810.3109180349542
 30
0.0
 40
15.0
  0
LINE
  5
678
  8
__
  6
CONTINUOUS
 62
     7
 10
1651.17103637038
 20
-803.2420680349536
 30
0.0
 11
1665.317596370379
 21
-817.3797780349536
 31
0.0
  0
LINE
  5
679
  8
__
  6
CONTINUOUS
 62
     7
 10
1665.313176370379
 20
-803.2376380349546
 30
0.0
 11
1651.175466370379
 21
-817.3841980349538
 31
0.0
  0
CIRCLE
  5
67A
  8
__
  6
CONTINUOUS
 62
     7
 10
1393.20011817565
 20
-430.3937688636585
 30
0.0
 40
15.0
  0
CIRCLE
  5
67B
  8
__
  6
CONTINUOUS
 62
     7
 10
1128.200138175653
 20
-430.4766488636584
 30
0.0
 40
15.0
  0
CIRCLE
  5
67C
  8
__
  6
CONTINUOUS
 62
     7
 10
1195.148318175652
 20
-232.4657988636578
 30
0.0
 40
15.0
  0
CIRCLE
  5
67D
  8
__
  6
CONTINUOUS
 62
     7
 10
1559.17420817565
 20
-331.3469088636576
 30
0.0
 40
20.0
  0
CIRCLE
  5
67E
  8
__
  6
CONTINUOUS
 62
     7
 10
1559.17420817565
 20
-331.3469088636576
 30
0.0
 40
35.0
  0
CIRCLE
  5
67F
  8
__
  6
CONTINUOUS
 62
     7
 10
565.090518175648
 20
-851.5126588636587
 30
0.0
 40
40.0
  0
CIRCLE
  5
680
  8
__
  6
CONTINUOUS
 62
     7
 10
565.090518175648
 20
48.48734113634134
 30
0.0
 40
40.0
  0
CIRCLE
  5
681
  8
__
  6
CONTINUOUS
 62
     7
 10
2023.25791817565
 20
-851.5126588636587
 30
0.0
 40
40.0
  0
CIRCLE
  5
682
  8
__
  6
CONTINUOUS
 62
     7
 10
2023.25791817565
 20
48.48734113634134
 30
0.0
 40
40.0
  0
CIRCLE
  5
683
  8
__
  6
CONTINUOUS
 62
     7
 10
1294.218426370381
 20
-711.4298080349544
 30
0.0
 40
80.0
  0
LINE
  5
684
  8
__
  6
CONTINUOUS
 62
     7
 10
1559.17420817565
 20
-369.8469088636579
 30
0.0
 11
1559.223146669448
 21
-489.6507713042034
 31
0.0
  0
LINE
  5
685
  8
__
  6
CONTINUOUS
 62
     7
 10
1029.209418175651
 20
-449.7543708636589
 30
0.0
 11
1029.225052957067
 21
-489.7543678080784
 31
0.0
  0
TEXT
  5
686
  8
__
 62
     7
 10
1592.836285745092
 20
401.8245807196759
 30
0.0
 40
43.32552083333334
  1
MAIN/MENU
 41
0.7
 72
     1
 11
1719.202388175647
 21
423.4873411363426
 31
0.0
 73
     2
  0
TEXT
  5
687
  8
__
 62
     7
 10
753.3826767173151
 20
416.8245807196759
 30
0.0
 40
43.32552083333334
  1
POWER
 41
0.7
 72
     1
 11
829.2023381756485
 21
438.4873411363426
 31
0.0
 73
     2
  0
TEXT
  5
688
  8
__
 62
     7
 10
978.6747172034288
 20
-125.6754192803242
 30
0.0
 40
43.32552083333334
  1
GAIN
 41
0.7
 72
     1
 11
1029.221158175651
 21
-104.0126588636575
 31
0.0
 73
     2
  0
TEXT
  5
689
  8
__
 62
     7
 10
954.3655055367578
 20
-894.1041488975377
 30
0.0
 40
43.32552083333334
  1
THRU 1
 41
0.7
 72
     1
 11
1029.174238175647
 21
-872.4413884808711
 31
0.0
 73
     2
  0
TEXT
  5
68A
  8
__
 62
     7
 10
1214.310841439538
 20
-894.0212688975378
 30
0.0
 40
43.32552083333334
  1
THRU 2
 41
0.7
 72
     1
 11
1294.174218175649
 21
-872.3585084808711
 31
0.0
 73
     2
  0
TEXT
  5
68B
  8
__
 62
     7
 10
1469.201566358688
 20
-893.9394694439868
 30
0.0
 40
43.32552083333334
  1
MIX OUT
 41
0.7
 72
     1
 11
1559.174231289244
 21
-872.2767090273202
 31
0.0
 73
     2
  0
TEXT
  5
68C
  8
__
 62
     7
 10
1663.601303106203
 20
206.8245807196758
 30
0.0
 40
43.32552083333334
  1
BACK
 41
0.7
 72
     1
 11
1719.202388175647
 21
228.4873411363425
 31
0.0
 73
     2
  0
TEXT
  5
68D
  8
__
 62
     7
 10
768.5466090089818
 20
206.8245807196758
 30
0.0
 40
43.32552083333334
  1
LIMIT
 41
0.7
 72
     1
 11
829.2023381756485
 21
228.4873411363425
 31
0.0
 73
     2
  0
TEXT
  5
68E
  8
__
 62
     7
 10
923.0267021339857
 20
16.88404071967576
 30
0.0
 40
43.32552083333334
  1
SIG/CLIP
 41
0.7
 72
     1
 11
1029.174228175652
 21
38.54680113634242
 31
0.0
 73
     2
  0
TEXT
  5
68F
  8
__
 62
     7
 10
993.7495834004245
 20
-544.1051902726922
 30
0.0
 40
43.32552083333334
  1
CH1
 41
0.7
 72
     1
 11
1029.13209208098
 21
-522.4424298560256
 31
0.0
 73
     2
  0
TEXT
  5
690
  8
__
 62
     7
 10
1253.694919303205
 20
-544.0223102726923
 30
0.0
 40
43.32552083333334
  1
CH2
 41
0.7
 72
     1
 11
1294.132072080982
 21
-522.3595498560256
 31
0.0
 73
     2
  0
TEXT
  5
691
  8
__
 62
     7
 10
1484.323352500546
 20
-543.9389024446864
 30
0.0
 40
43.32552083333334
  1
AUX IN
 41
0.7
 72
     1
 11
1559.132085139435
 21
-522.2761420280198
 31
0.0
 73
     2
  0
LINE
  5
692
  8
__
  6
CONTINUOUS
 62
     7
 10
1029.174228175652
 20
-208.3014745992567
 30
0.0
 11
1029.174228175652
 21
-133.3014745992567
 31
0.0
  0
LINE
  5
693
  8
__
  6
CONTINUOUS
 62
     7
 10
1559.17420817565
 20
-292.8469088636574
 30
0.0
 11
1559.17420817565
 21
-133.3014745992567
 31
0.0
  0
INSERT
  5
694
  8
__
 62
     7
  2
____-1
 10
0.0
 20
0.0
 30
0.0
  0
INSERT
  5
695
  8
__
 62
     7
  2
____-2-1
 10
0.0
 20
0.0
 30
0.0
  0
INSERT
  5
696
  8
__
 62
     7
  2
____-3-1
 10
0.0
 20
0.0
 30
0.0
  0
INSERT
  5
697
  8
__
 62
     7
  2
____-4-1
 10
0.0
 20
0.0
 30
0.0
  0
TEXT
  5
698
  8
__
 62
     7
 10
1188.026692133982
 20
16.88404071967576
 30
0.0
 40
43.32552083333334
  1
SIG/CLIP
 41
0.7
 72
     1
 11
1294.174218175649
 21
38.54680113634242
 31
0.0
 73
     2
  0
TEXT
  5
699
  8
__
 62
     7
 10
1453.026682133979
 20
16.88404071967576
 30
0.0
 40
43.32552083333334
  1
SIG/CLIP
 41
0.7
 72
     1
 11
1559.174208175646
 21
38.54680113634242
 31
0.0
 73
     2
  0
TEXT
  5
69A
  8
__
 62
     7
 10
1243.627777203427
 20
-125.6754192803242
 30
0.0
 40
43.32552083333334
  1
GAIN
 41
0.7
 72
     1
 11
1294.174218175649
 21
-104.0126588636575
 31
0.0
 73
     2
  0
TEXT
  5
69B
  8
__
 62
     7
 10
1508.580837203425
 20
-125.6754192803242
 30
0.0
 40
43.32552083333334
  1
GAIN
 41
0.7
 72
     1
 11
1559.127278175647
 21
-104.0126588636575
 31
0.0
 73
     2
  0
LINE
  5
69C
  8
__
  6
CONTINUOUS
 62
     7
 10
1294.174218175649
 20
-208.3014745992567
 30
0.0
 11
1294.174218175649
 21
-133.3014745992567
 31
0.0
  0
LINE
  5
69D
  8
__
  6
CONTINUOUS
 62
     7
 10
1029.167621588964
 20
-553.2544120905344
 30
0.0
 11
1029.18325637038
 21
-593.2544090349539
 31
0.0
  0
LINE
  5
69E
  8
__
  6
CONTINUOUS
 62
     7
 10
1294.166400784941
 20
-449.7543708636589
 30
0.0
 11
1294.182035566357
 21
-489.7543678080784
 31
0.0
  0
LINE
  5
69F
  8
__
  6
CONTINUOUS
 62
     7
 10
1294.124604198254
 20
-553.2544120905344
 30
0.0
 11
1294.14023897967
 21
-593.2544090349539
 31
0.0
  0
ARC
  5
6A0
  8
__
  6
CONTINUOUS
 62
     7
 10
862.5
 20
-2666.512658863656
 30
0.0
 40
1562.5
 50
73.73979529168804
 51
106.2602047083119
  0
ARC
  5
6A1
  8
__
  6
CONTINUOUS
 62
     7
 10
1737.5
 20
333.4873411363437
 30
0.0
 40
1562.5
 50
253.739795291688
 51
286.260204708312
  0
ARC
  5
6A2
  8
__
  6
CONTINUOUS
 62
     7
 10
862.5
 20
-738.8862577270938
 30
0.0
 40
1562.5
 50
73.73979529168804
 51
106.2602047083119
  0
ARC
  5
6A3
  8
__
  6
CONTINUOUS
 62
     7
 10
1737.5
 20
2261.113742272906
 30
0.0
 40
1562.5
 50
253.739795291688
 51
286.260204708312
  0
LINE
  5
6A4
  8
__
  6
______-6
 62
     7
 10
-1200.0
 20
-525.0
 30
0.0
 11
-1200.0
 21
-1075.0
 31
0.0
  0
VIEWPORT
  5
6A5
 67
     1
  8
0
 10
128.5
 20
97.5
 30
0.0
 40
314.226
 41
222.18
 68
     1
 69
     1
1001
ACAD
1000
MVIEW
1002
{
1070
    16
1010
0.0
1020
0.0
1030
0.0
1020
0.0
1030
0.0
1010
0.0
1020
0.0
1030
1.0
1020
0.0
1030
1.0
1040
0.0
1040
222.18
1040
128.5
1040
97.5
1040
50.0
1040
0.0
1040
0.0
1070
     0
1070
   100
1070
     0
1070
     3
1070
     0
1070
     0
1070
     0
1070
     0
1040
0.0
1040
0.0
1040
0.0
1040
10.0
1040
10.0
1040
10.0
1040
10.0
1070
     0
1002
{
1002
}
1002
}
  0
ENDSEC
  0
EOF
