  0
SECTION
  2
HEADER
  9
$ACADVER
  1
AC1009
  9
$DWGCODEPAGE
  3
ansi_932
  9
$INSBASE
 10
0.0
 20
0.0
 30
0.0
  9
$EXTMIN
 10
-2249.994374999999
 20
-3355.369230483168
 30
0.0
  9
$EXTMAX
 10
2249.994374999999
 20
3334.755214261562
 30
0.0
  9
$LIMMIN
 10
0.0
 20
0.0
  9
$LIMMAX
 10
12.0
 20
9.0
  9
$ORTHOMODE
 70
     0
  9
$REGENMODE
 70
     1
  9
$FILLMODE
 70
     1
  9
$QTEXTMODE
 70
     0
  9
$MIRRTEXT
 70
     1
  9
$DRAGMODE
 70
     2
  9
$LTSCALE
 40
127.0
  9
$OSMODE
 70
  8423
  9
$ATTMODE
 70
     1
  9
$TEXTSIZE
 40
0.2
  9
$TRACEWID
 40
1.0
  9
$TEXTSTYLE
  7
STANDARD
  9
$CLAYER
  8
__
  9
$CELTYPE
  6
BYLAYER
  9
$CECOLOR
 62
   256
  9
$DIMSCALE
 40
1.0
  9
$DIMASZ
 40
0.18
  9
$DIMEXO
 40
0.0625
  9
$DIMDLI
 40
0.38
  9
$DIMRND
 40
0.0
  9
$DIMDLE
 40
0.0
  9
$DIMEXE
 40
0.18
  9
$DIMTP
 40
0.0
  9
$DIMTM
 40
0.0
  9
$DIMTXT
 40
0.18
  9
$DIMCEN
 40
0.09
  9
$DIMTSZ
 40
0.0
  9
$DIMTOL
 70
     0
  9
$DIMLIM
 70
     0
  9
$DIMTIH
 70
     1
  9
$DIMTOH
 70
     1
  9
$DIMSE1
 70
     0
  9
$DIMSE2
 70
     0
  9
$DIMTAD
 70
     0
  9
$DIMZIN
 70
     0
  9
$DIMBLK
  1

  9
$DIMASO
 70
     1
  9
$DIMSHO
 70
     1
  9
$DIMPOST
  1

  9
$DIMAPOST
  1

  9
$DIMALT
 70
     0
  9
$DIMALTD
 70
     2
  9
$DIMALTF
 40
25.4
  9
$DIMLFAC
 40
1.0
  9
$DIMTOFL
 70
     0
  9
$DIMTVP
 40
0.0
  9
$DIMTIX
 70
     0
  9
$DIMSOXD
 70
     0
  9
$DIMSAH
 70
     0
  9
$DIMBLK1
  1

  9
$DIMBLK2
  1

  9
$DIMSTYLE
  2
STANDARD
  9
$DIMCLRD
 70
     0
  9
$DIMCLRE
 70
     0
  9
$DIMCLRT
 70
     0
  9
$DIMTFAC
 40
1.0
  9
$DIMGAP
 40
0.09
  9
$LUNITS
 70
     2
  9
$LUPREC
 70
     2
  9
$SKETCHINC
 40
0.1
  9
$FILLETRAD
 40
0.5
  9
$AUNITS
 70
     0
  9
$AUPREC
 70
     1
  9
$MENU
  1
.
  9
$ELEVATION
 40
0.0
  9
$PELEVATION
 40
0.0
  9
$THICKNESS
 40
0.0
  9
$LIMCHECK
 70
     0
  9
$CHAMFERA
 40
0.0
  9
$CHAMFERB
 40
0.0
  9
$SKPOLY
 70
     0
  9
$TDCREATE
 40
2460804.69807647
  9
$TDUPDATE
 40
2460804.698657176
  9
$TDINDWG
 40
2460804.323657188
  9
$TDUSRTIMER
 40
0.0005807176
  9
$USRTIMER
 70
     1
  9
$ANGBASE
 50
0.0
  9
$ANGDIR
 70
     0
  9
$PDMODE
 70
     1
  9
$PDSIZE
 40
-2.0
  9
$PLINEWID
 40
0.0
  9
$COORDS
 70
     2
  9
$SPLFRAME
 70
     0
  9
$SPLINETYPE
 70
     6
  9
$SPLINESEGS
 70
     8
  9
$ATTDIA
 70
     1
  9
$ATTREQ
 70
     1
  9
$HANDLING
 70
     1
  9
$HANDSEED
  5
80F
  9
$SURFTAB1
 70
     6
  9
$SURFTAB2
 70
     6
  9
$SURFTYPE
 70
     6
  9
$SURFU
 70
     6
  9
$SURFV
 70
     6
  9
$UCSNAME
  2

  9
$UCSORG
 10
0.0
 20
0.0
 30
0.0
  9
$UCSXDIR
 10
1.0
 20
0.0
 30
0.0
  9
$UCSYDIR
 10
0.0
 20
1.0
 30
0.0
  9
$PUCSNAME
  2

  9
$PUCSORG
 10
0.0
 20
0.0
 30
0.0
  9
$PUCSXDIR
 10
1.0
 20
0.0
 30
0.0
  9
$PUCSYDIR
 10
0.0
 20
1.0
 30
0.0
  9
$USERI1
 70
     0
  9
$USERI2
 70
     0
  9
$USERI3
 70
     0
  9
$USERI4
 70
     0
  9
$USERI5
 70
     0
  9
$USERR1
 40
0.0
  9
$USERR2
 40
0.0
  9
$USERR3
 40
0.0
  9
$USERR4
 40
0.0
  9
$USERR5
 40
0.0
  9
$WORLDVIEW
 70
     1
  9
$SHADEDGE
 70
     3
  9
$SHADEDIF
 70
    70
  9
$TILEMODE
 70
     1
  9
$MAXACTVP
 70
    64
  9
$PLIMCHECK
 70
     0
  9
$PEXTMIN
 10
1.000000000000000E+20
 20
1.000000000000000E+20
 30
1.000000000000000E+20
  9
$PEXTMAX
 10
-1.000000000000000E+20
 20
-1.000000000000000E+20
 30
-1.000000000000000E+20
  9
$PLIMMIN
 10
-20.0
 20
-7.5
  9
$PLIMMAX
 10
277.0
 20
202.5
  9
$UNITMODE
 70
     0
  9
$VISRETAIN
 70
     1
  9
$PLINEGEN
 70
     0
  9
$PSLTSCALE
 70
     1
  0
ENDSEC
  0
SECTION
  2
TABLES
  0
TABLE
  2
VPORT
 70
     1
  0
VPORT
  2
*ACTIVE
 70
     0
 10
0.0
 20
0.0
 11
1.0
 21
1.0
 12
0.0
 22
-3.531814999999824
 13
0.0
 23
0.0
 14
0.5
 24
0.5
 15
0.5
 25
0.5
 16
0.0
 26
0.0
 36
1.0
 17
0.0
 27
0.0
 37
0.0
 40
6676.574058523124
 41
2.942508710801394
 42
2000.0
 43
0.0
 44
0.0
 50
0.0
 51
0.0
 71
     0
 72
   100
 73
     1
 74
     3
 75
     0
 76
     0
 77
     0
 78
     0
  0
ENDTAB
  0
TABLE
  2
LTYPE
 70
    11
  0
LTYPE
  2
CONTINUOUS
 70
     0
  3
Solid line
 72
    65
 73
     0
 40
0.0
  0
LTYPE
  2
______-7
 70
     0
  3

 72
    65
 73
     6
 40
1.875
 49
0.625
 49
-0.208282470703125
 49
0.625
 49
-0.2083587646484375
 49
0.069427490234375
 49
-0.1389312744140625
  0
ENDTAB
  0
TABLE
  2
LAYER
 70
     3
  0
LAYER
  2
0
 70
     0
 62
     7
  6
CONTINUOUS
  0
LAYER
  2
__
 70
     0
 62
     7
  6
CONTINUOUS
  0
LAYER
  2
__-1
 70
     0
 62
     7
  6
CONTINUOUS
  0
ENDTAB
  0
TABLE
  2
STYLE
 70
     2
  0
STYLE
  2
STANDARD
 70
     0
 40
0.0
 41
1.0
 50
0.0
 71
     0
 42
0.2
  3
txt
  4
BIGFONT.SHX
  0
ENDTAB
  0
TABLE
  2
VIEW
 70
     0
  0
ENDTAB
  0
TABLE
  2
UCS
 70
     0
  0
ENDTAB
  0
TABLE
  2
APPID
 70
     5
  0
APPID
  2
ACAD
 70
     0
  0
APPID
  2
ACCMTRANSPARENCY
 70
     0
  0
APPID
  2
ACAECLAYERSTANDARD
 70
     0
  0
APPID
  2
ACAD_MLEADERVER
 70
     0
  0
APPID
  2
ACADANNOPO
 70
     0
  0
ENDTAB
  0
TABLE
  2
DIMSTYLE
 70
     1
  0
DIMSTYLE
  2
STANDARD
 70
     0
  3

  4

  5

  6

  7

 40
1.0
 41
0.18
 42
0.0625
 43
0.38
 44
0.18
 45
0.0
 46
0.0
 47
0.0
 48
0.0
140
0.18
141
0.09
142
0.0
143
25.4
144
1.0
145
0.0
146
1.0
147
0.09
 71
     0
 72
     0
 73
     1
 74
     1
 75
     0
 76
     0
 77
     0
 78
     0
170
     0
171
     2
172
     0
173
     0
174
     0
175
     0
176
     0
177
     0
178
     0
  0
ENDTAB
  0
ENDSEC
  0
SECTION
  2
BLOCKS
  0
BLOCK
  8
__
  2
$MODEL_SPACE
 70
     0
 10
0.0
 20
0.0
 30
0.0
  3
$MODEL_SPACE
  1

  0
ENDBLK
  5
74E
  8
__
  0
BLOCK
 67
     1
  8
__
  2
$PAPER_SPACE
 70
     0
 10
0.0
 20
0.0
 30
0.0
  3
$PAPER_SPACE
  1

  0
ENDBLK
  5
74C
 67
     1
  8
__
  0
ENDSEC
  0
SECTION
  2
ENTITIES
  0
LINE
  5
7F
  8
__
  6
CONTINUOUS
 62
     7
 10
-2249.994374999999
 20
3334.755214261562
 30
0.0
 11
2249.994374999999
 21
3334.755214261562
 31
0.0
  0
LINE
  5
80
  8
__
  6
CONTINUOUS
 62
     7
 10
2249.994374999999
 20
-3165.228535738437
 30
0.0
 11
-2249.994374999999
 21
-3165.228535738437
 31
0.0
  0
LINE
  5
81
  8
__
  6
CONTINUOUS
 62
     7
 10
-2249.994374999999
 20
-3165.228535738437
 30
0.0
 11
-2249.994374999999
 21
3334.755214261562
 31
0.0
  0
LINE
  5
82
  8
__
  6
CONTINUOUS
 62
     7
 10
2249.994374999999
 20
3334.755214261562
 30
0.0
 11
2249.994374999999
 21
-3165.228535738437
 31
0.0
  0
LINE
  5
83
  8
__
  6
CONTINUOUS
 62
     7
 10
0.0000000000003553
 20
-2602.729941988438
 30
0.0
 11
2249.994374999999
 21
-2602.729941988438
 31
0.0
  0
LINE
  5
84
  8
__
  6
CONTINUOUS
 62
     7
 10
0.0000000000003553
 20
-3165.228535738437
 30
0.0
 11
0.0000000000003553
 21
-2602.729941988438
 31
0.0
  0
TEXT
  5
85
  8
__
 62
     7
 10
22.4999437500005
 20
-2665.447118528437
 30
0.0
 40
40.61757423706053
  1
NOTE
 41
0.7
 11
22.4999437500005
 21
-2624.829544291376
 31
0.0
 73
     3
  0
LINE
  5
86
  8
__
  6
CONTINUOUS
 62
     7
 10
874.9978125000002
 20
-3165.228535738437
 30
0.0
 11
874.9978125000002
 21
-2602.729941988438
 31
0.0
  0
TEXT
  5
87
  8
__
 62
     7
 10
897.4977562499997
 20
-2665.447118528437
 30
0.0
 40
40.61757423706053
  1
TITLE
 41
0.7
 11
897.4977562499997
 21
-2624.829544291376
 31
0.0
 73
     3
  0
LINE
  5
88
  8
__
  6
CONTINUOUS
 62
     7
 10
0.0000000000003553
 20
-2915.229160738437
 30
0.0
 11
2249.994374999999
 21
-2915.229160738437
 31
0.0
  0
TEXT
  5
89
  8
__
 62
     7
 10
1209.996975
 20
-2976.538340798438
 30
0.0
 40
40.61757423706053
  1
DRAWN
 41
0.7
 11
1209.996975
 21
-2935.920766561378
 31
0.0
 73
     3
  0
TEXT
  5
8A
  8
__
 62
     7
 10
584.9985374999998
 20
-2976.538340798438
 30
0.0
 40
40.61757423706053
  1
DATE
 41
0.7
 11
584.9985374999998
 21
-2935.920766561378
 31
0.0
 73
     3
  0
TEXT
  5
8B
  8
__
 62
     7
 10
334.9991624999998
 20
-2976.538340798438
 30
0.0
 40
40.61757423706053
  1
SCALE
 41
0.7
 11
334.9991624999998
 21
-2935.920766561378
 31
0.0
 73
     3
  0
TEXT
  5
8C
  8
__
 62
     7
 10
897.4977562499997
 20
-2976.538340798438
 30
0.0
 40
40.61757423706053
  1
DESIGN
 41
0.7
 11
897.4977562499997
 21
-2935.920766561378
 31
0.0
 73
     3
  0
TEXT
  5
8D
  8
__
 62
     7
 10
1834.995412499999
 20
-2976.538340798438
 30
0.0
 40
40.61757423706053
  1
DRAWING NO.
 41
0.7
 11
1834.995412499999
 21
-2935.920766561378
 31
0.0
 73
     3
  0
TEXT
  5
8E
  8
__
 62
     7
 10
1522.49619375
 20
-2976.538340798438
 30
0.0
 40
40.61757423706053
  1
CHECK
 41
0.7
 11
1522.49619375
 21
-2935.920766561378
 31
0.0
 73
     3
  0
LINE
  5
8F
  8
__
  6
CONTINUOUS
 62
     7
 10
359.3741015625004
 20
-3133.978613863438
 30
0.0
 11
453.1238671875003
 21
-3040.228848238437
 31
0.0
  0
TEXT
  5
90
  8
__
 62
     7
 10
343.7491406250003
 20
-3067.952362262813
 30
0.0
 40
40.61757423706053
  1
1
 41
0.7
 11
343.7491406250003
 21
-3027.334788025752
 31
0.0
 73
     3
  0
LINE
  5
91
  8
__
  6
CONTINUOUS
 62
     7
 10
312.4992187500004
 20
-3165.228535738437
 30
0.0
 11
312.4992187500004
 21
-2915.229160738437
 31
0.0
  0
LINE
  5
92
  8
__
  6
CONTINUOUS
 62
     7
 10
562.4985937499996
 20
-3165.228535738437
 30
0.0
 11
562.4985937499996
 21
-2915.229160738437
 31
0.0
  0
LINE
  5
93
  8
__
  6
CONTINUOUS
 62
     7
 10
1187.49703125
 20
-2915.229160738437
 30
0.0
 11
1187.49703125
 21
-3165.228535738437
 31
0.0
  0
LINE
  5
94
  8
__
  6
CONTINUOUS
 62
     7
 10
1812.49546875
 20
-2915.229160738437
 30
0.0
 11
1812.49546875
 21
-3165.228535738437
 31
0.0
  0
LINE
  5
95
  8
__
  6
CONTINUOUS
 62
     7
 10
1499.996249999999
 20
-3165.228535738437
 30
0.0
 11
1499.996249999999
 21
-2915.229160738437
 31
0.0
  0
TEXT
  5
96
  8
__
 62
     7
 10
583.9120402162503
 20
-3093.637548049687
 30
0.0
 40
40.61757423706053
  1
'25.04.
 41
0.7
 11
583.9120402162503
 21
-3053.019973812626
 31
0.0
 73
     3
  0
TEXT
  5
97
  8
__
 62
     7
 10
437.4989062500003
 20
-3114.827245075312
 30
0.0
 40
40.61757423706053
  1
25
 41
0.7
 11
437.4989062500003
 21
-3074.209670838252
 31
0.0
 73
     3
  0
TEXT
  5
98
  8
__
 62
     7
 10
1225.14218741274
 20
-3093.637548049687
 30
0.0
 40
40.61757423706053
  1
N.Sasaki
 41
0.7
 11
1225.14218741274
 21
-3053.019973812626
 31
0.0
 73
     3
  0
TEXT
  5
99
  8
__
 62
     7
 10
97.08309062500086
 20
-3115.828659238437
 30
0.0
 40
81.23514847412106
  1
A4
 41
0.7
 11
97.08309062500086
 21
-3034.593510764315
 31
0.0
 73
     3
  0
TEXT
  5
9A
  8
__
 62
     7
 10
23.95827343749988
 20
-2980.7153720225
 30
0.0
 40
40.61757423706053
  1
PAPER SIZE
 41
0.7
 11
23.95827343749988
 21
-2940.09779778544
 31
0.0
 73
     3
  0
TEXT
  5
9B
  8
__
 62
     7
 10
-2070.394823999999
 20
-3325.445080196075
 30
0.0
 40
89.77245086128049
  1
Hibino Corporation
 41
0.7
 11
-2070.394823999999
 21
-3235.672629334794
 31
0.0
 73
     3
  0
TEXT
  5
9C
  8
__
 62
     7
 10
1251.706620725625
 20
-3325.445080196075
 30
0.0
 40
89.77245086128049
  1
ヒビノ株式会社
 41
0.7
 11
1251.706620725625
 21
-3235.672629334794
 31
0.0
 73
     3
  0
LINE
  5
9D
  8
__
  6
CONTINUOUS
 62
     7
 10
-2062.494843749999
 20
3084.755839261562
 30
0.0
 11
1624.9959375
 21
3084.755839261562
 31
0.0
  0
LINE
  5
9E
  8
__
  6
CONTINUOUS
 62
     7
 10
-2062.494843749999
 20
2991.006073636562
 30
0.0
 11
1624.9959375
 21
2991.006073636562
 31
0.0
  0
LINE
  5
9F
  8
__
  6
CONTINUOUS
 62
     7
 10
-2062.494843749999
 20
3084.755839261562
 30
0.0
 11
-2062.494843749999
 21
1397.260058011563
 31
0.0
  0
TEXT
  5
A0
  8
__
 62
     7
 10
-2031.244921874999
 20
3119.587502182187
 30
0.0
 40
60.92636135559081
  1
仕様
 41
0.7
 11
-2031.244921874999
 21
3180.513863537778
 31
0.0
 73
     3
  0
LINE
  5
A1
  8
__
  6
CONTINUOUS
 62
     7
 10
1624.9959375
 20
3084.755839261562
 30
0.0
 11
1624.9959375
 21
1397.260058011563
 31
0.0
  0
LINE
  5
A2
  8
__
  6
CONTINUOUS
 62
     7
 10
-2062.494843749999
 20
2897.256308011562
 30
0.0
 11
1624.9959375
 21
2897.256308011562
 31
0.0
  0
LINE
  5
A3
  8
__
  6
CONTINUOUS
 62
     7
 10
-2062.494843749999
 20
2803.506542386562
 30
0.0
 11
1624.9959375
 21
2803.506542386562
 31
0.0
  0
LINE
  5
A4
  8
__
  6
CONTINUOUS
 62
     7
 10
-2062.494843749999
 20
2709.756776761562
 30
0.0
 11
1624.9959375
 21
2709.756776761562
 31
0.0
  0
LINE
  5
A5
  8
__
  6
CONTINUOUS
 62
     7
 10
-1531.25
 20
2616.007011136562
 30
0.0
 11
1624.9959375
 21
2616.007011136562
 31
0.0
  0
LINE
  5
A6
  8
__
  6
CONTINUOUS
 62
     7
 10
-2062.494843749999
 20
2522.257245511562
 30
0.0
 11
1624.9959375
 21
2522.257245511562
 31
0.0
  0
LINE
  5
A7
  8
__
  6
CONTINUOUS
 62
     7
 10
-2062.494843749999
 20
2428.507479886563
 30
0.0
 11
1624.9959375
 21
2428.507479886563
 31
0.0
  0
LINE
  5
A8
  8
__
  6
CONTINUOUS
 62
     7
 10
-2062.494843749999
 20
2334.757714261562
 30
0.0
 11
1624.9959375
 21
2334.757714261562
 31
0.0
  0
LINE
  5
A9
  8
__
  6
CONTINUOUS
 62
     7
 10
-1531.25
 20
2241.007948636562
 30
0.0
 11
1624.9959375
 21
2241.007948636562
 31
0.0
  0
LINE
  5
AA
  8
__
  6
CONTINUOUS
 62
     7
 10
-1531.25
 20
2147.258183011562
 30
0.0
 11
1624.9959375
 21
2147.258183011562
 31
0.0
  0
LINE
  5
AB
  8
__
  6
CONTINUOUS
 62
     7
 10
-2062.494843749999
 20
2053.508417386562
 30
0.0
 11
1624.9959375
 21
2053.508417386562
 31
0.0
  0
LINE
  5
AC
  8
__
  6
CONTINUOUS
 62
     7
 10
-2062.494843749999
 20
1959.758651761562
 30
0.0
 11
1624.9959375
 21
1959.758651761562
 31
0.0
  0
LINE
  5
AD
  8
__
  6
CONTINUOUS
 62
     7
 10
-2062.494843749999
 20
1866.008886136562
 30
0.0
 11
1624.9959375
 21
1866.008886136562
 31
0.0
  0
LINE
  5
AE
  8
__
  6
CONTINUOUS
 62
     7
 10
-2062.494843749999
 20
1772.259120511563
 30
0.0
 11
1624.9959375
 21
1772.259120511563
 31
0.0
  0
LINE
  5
AF
  8
__
  6
CONTINUOUS
 62
     7
 10
-2062.494843749999
 20
1678.509354886562
 30
0.0
 11
1624.9959375
 21
1678.509354886562
 31
0.0
  0
LINE
  5
B0
  8
__
  6
CONTINUOUS
 62
     7
 10
-2062.494843749999
 20
1584.759589261562
 30
0.0
 11
1624.9959375
 21
1584.759589261562
 31
0.0
  0
LINE
  5
B1
  8
__
  6
CONTINUOUS
 62
     7
 10
-2062.494843749999
 20
1491.009823636562
 30
0.0
 11
1624.9959375
 21
1491.009823636562
 31
0.0
  0
LINE
  5
B2
  8
__
  6
CONTINUOUS
 62
     7
 10
-2062.494843749999
 20
1397.260058011562
 30
0.0
 11
1624.9959375
 21
1397.260058011562
 31
0.0
  0
TEXT
  5
B3
  8
__
 62
     7
 10
-2039.9949
 20
2635.704906336145
 30
0.0
 40
47.3871699432373
  1
ドライバー構成
 41
0.7
 11
-2039.9949
 21
2683.092076279383
 31
0.0
 73
     3
  0
TEXT
  5
B4
  8
__
 62
     7
 10
-2039.9949
 20
2260.705843836145
 30
0.0
 40
47.3871699432373
  1
入力
 41
0.7
 11
-2039.9949
 21
2308.093013779383
 31
0.0
 73
     3
  0
TEXT
  5
B5
  8
__
 62
     7
 10
-2039.9949
 20
1979.456546961145
 30
0.0
 40
47.3871699432373
  1
出力
 41
0.7
 11
-2039.9949
 21
2026.843716904383
 31
0.0
 73
     3
  0
TEXT
  5
B6
  8
__
 62
     7
 10
-2039.9949
 20
3010.703968836145
 30
0.0
 40
47.3871699432373
  1
形式
 41
0.7
 11
-2039.9949
 21
3058.091138779382
 31
0.0
 73
     3
  0
TEXT
  5
B7
  8
__
 62
     7
 10
-2039.9949
 20
2916.954203211145
 30
0.0
 40
47.3871699432373
  1
周波数レンジ(-10dB)
 41
0.7
 11
-2039.9949
 21
2964.341373154382
 31
0.0
 73
     3
  0
TEXT
  5
B8
  8
__
 62
     7
 10
-2039.9949
 20
2823.204437586145
 30
0.0
 40
47.3871699432373
  1
指向角度(水平×垂直)
 41
0.7
 11
-2039.9949
 21
2870.591607529382
 31
0.0
 73
     3
  0
TEXT
  5
B9
  8
__
 62
     7
 10
-2039.9949
 20
2729.454671961144
 30
0.0
 40
47.3871699432373
  1
最大音圧レベル
 41
0.7
 11
-2039.9949
 21
2776.841841904382
 31
0.0
 73
     3
  0
TEXT
  5
BA
  8
__
 62
     7
 10
-2039.9949
 20
2448.205375086145
 30
0.0
 40
47.3871699432373
  1
クロスオーバー周波数
 41
0.7
 11
-2039.9949
 21
2495.592545029383
 31
0.0
 73
     3
  0
TEXT
  5
BB
  8
__
 62
     7
 10
-2039.9949
 20
2354.455609461145
 30
0.0
 40
47.3871699432373
  1
パワーアンプ
 41
0.7
 11
-2039.9949
 21
2401.842779404382
 31
0.0
 73
     3
  0
TEXT
  5
BC
  8
__
 62
     7
 10
-2039.9949
 20
1885.706781336146
 30
0.0
 40
47.3871699432373
  1
電源
 41
0.7
 11
-2039.9949
 21
1933.093951279383
 31
0.0
 73
     3
  0
TEXT
  5
BD
  8
__
 62
     7
 10
-2039.9949
 20
1791.957015711145
 30
0.0
 40
47.3871699432373
  1
消費電力
 41
0.7
 11
-2039.9949
 21
1839.344185654383
 31
0.0
 73
     3
  0
TEXT
  5
BE
  8
__
 62
     7
 10
-2039.9949
 20
1698.207250086145
 30
0.0
 40
47.3871699432373
  1
エンクロージャー
 41
0.7
 11
-2039.9949
 21
1745.594420029382
 31
0.0
 73
     3
  0
TEXT
  5
BF
  8
__
 62
     7
 10
-2039.9949
 20
1416.957953211146
 30
0.0
 40
47.3871699432373
  1
付属品
 41
0.7
 11
-2039.9949
 21
1464.345123154383
 31
0.0
 73
     3
  0
TEXT
  5
C0
  8
__
 62
     7
 10
-2039.9949
 20
1604.457484461146
 30
0.0
 40
47.3871699432373
  1
寸法(W×H×D)
 41
0.7
 11
-2039.9949
 21
1651.844654404383
 31
0.0
 73
     3
  0
TEXT
  5
C1
  8
__
 62
     7
 10
-2039.9949
 20
1510.707718836146
 30
0.0
 40
47.3871699432373
  1
質量
 41
0.7
 11
-2039.9949
 21
1558.094888779383
 31
0.0
 73
     3
  0
LINE
  5
C2
  8
__
  6
CONTINUOUS
 62
     7
 10
-1531.25
 20
2709.756776761562
 30
0.0
 11
-1531.25
 21
2522.257245511562
 31
0.0
  0
LINE
  5
C3
  8
__
  6
CONTINUOUS
 62
     7
 10
-1531.25
 20
2334.757714261562
 30
0.0
 11
-1531.25
 21
1959.758651761562
 31
0.0
  0
LINE
  5
C4
  8
__
  6
CONTINUOUS
 62
     7
 10
-989.5846875000001
 20
3084.755839261562
 30
0.0
 11
-989.5846875000001
 21
1397.260058011563
 31
0.0
  0
TEXT
  5
C5
  8
__
 62
     7
 10
-967.0847437499997
 20
3010.703968836145
 30
0.0
 40
47.3871699432373
  1
2-Wayパワード・フルレンジ
 41
0.7
 11
-967.0847437499997
 21
3058.091138779382
 31
0.0
 73
     3
  0
TEXT
  5
C6
  8
__
 62
     7
 10
-967.0847437499997
 20
2916.954203211145
 30
0.0
 40
47.3871699432373
  1
50Hz～20kHz
 41
0.7
 11
-967.0847437499997
 21
2964.341373154382
 31
0.0
 73
     3
  0
TEXT
  5
C7
  8
__
 62
     7
 10
-967.0847437499997
 20
2823.204437586145
 30
0.0
 40
47.3871699432373
  1
90°×50°
 41
0.7
 11
-967.0847437499997
 21
2870.591607529382
 31
0.0
 73
     3
  0
TEXT
  5
C8
  8
__
 62
     7
 10
-967.0847437499997
 20
2729.454671961144
 30
0.0
 40
47.3871699432373
  1
132dB SPL
 41
0.7
 11
-967.0847437499997
 21
2776.841841904382
 31
0.0
 73
     3
  0
TEXT
  5
C9
  8
__
 62
     7
 10
-967.0847437500001
 20
1604.457484461146
 30
0.0
 40
47.3871699432373
  1
386×620×326m(除突起部)
 41
0.7
 11
-967.0847437500001
 21
1651.844654404383
 31
0.0
 73
     3
  0
TEXT
  5
CA
  8
__
 62
     7
 10
-967.0847437500001
 20
1510.707718836146
 30
0.0
 40
47.3871699432373
  1
20.0kg
 41
0.7
 11
-967.0847437500001
 21
1558.094888779383
 31
0.0
 73
     3
  0
TEXT
  5
CB
  8
__
 62
     7
 10
-1508.75005625
 20
2635.704906336145
 30
0.0
 40
47.3871699432373
  1
LF
 41
0.7
 11
-1508.75005625
 21
2683.092076279383
 31
0.0
 73
     3
  0
TEXT
  5
CC
  8
__
 62
     7
 10
-967.0847437499999
 20
2635.704906336145
 30
0.0
 40
47.3871699432373
  1
12インチ(305mm)
 41
0.7
 11
-967.0847437499999
 21
2683.092076279383
 31
0.0
 73
     3
  0
TEXT
  5
CD
  8
__
 62
     7
 10
-1508.75005625
 20
2260.705843836145
 30
0.0
 40
47.3871699432373
  1
チャンネル数
 41
0.7
 11
-1508.75005625
 21
2308.093013779383
 31
0.0
 73
     3
  0
TEXT
  5
CE
  8
__
 62
     7
 10
-967.0847437499999
 20
2260.705843836145
 30
0.0
 40
47.3871699432373
  1
2(モノラル)+1(Aux)
 41
0.7
 11
-967.0847437499999
 21
2308.093013779383
 31
0.0
 73
     3
  0
TEXT
  5
CF
  8
__
 62
     7
 10
-967.0847437499999
 20
1979.456546961145
 30
0.0
 40
47.3871699432373
  1
XLR(スルー×2、ミックス×1)
 41
0.7
 11
-967.0847437499999
 21
2026.843716904383
 31
0.0
 73
     3
  0
TEXT
  5
D0
  8
__
 62
     7
 10
-967.0847437499999
 20
2448.205375086145
 30
0.0
 40
47.3871699432373
  1
2.05kHz
 41
0.7
 11
-967.0847437499999
 21
2495.592545029383
 31
0.0
 73
     3
  0
TEXT
  5
D1
  8
__
 62
     7
 10
-967.0847437499999
 20
2354.455609461145
 30
0.0
 40
47.3871699432373
  1
2,000W(ピーク)
 41
0.7
 11
-967.0847437499999
 21
2401.842779404382
 31
0.0
 73
     3
  0
TEXT
  5
D2
  8
__
 62
     7
 10
-961.2514249999988
 20
1885.706781336146
 30
0.0
 40
47.3871699432373
  1
AC100V、50/60Hz
 41
0.7
 11
-961.2514249999988
 21
1933.093951279383
 31
0.0
 73
     3
  0
TEXT
  5
D3
  8
__
 62
     7
 10
-961.2514249999988
 20
1791.957015711145
 30
0.0
 40
47.3871699432373
  1
最大750W
 41
0.7
 11
-961.2514249999988
 21
1839.344185654383
 31
0.0
 73
     3
  0
TEXT
  5
D4
  8
__
 62
     7
 10
-961.2514249999988
 20
1698.207250086145
 30
0.0
 40
47.3871699432373
  1
ポリプロピレン+10％Talc、黒
 41
0.7
 11
-961.2514249999988
 21
1745.594420029382
 31
0.0
 73
     3
  0
TEXT
  5
D5
  8
__
 62
     7
 10
-967.0847437499999
 20
1416.957953211146
 30
0.0
 40
47.3871699432373
  1
電源コード、和文取扱説明書
 41
0.7
 11
-967.0847437499999
 21
1464.345123154383
 31
0.0
 73
     3
  0
TEXT
  5
D6
  8
__
 62
     7
 10
-1508.75005625
 20
2541.955140711144
 30
0.0
 40
47.3871699432373
  1
HF
 41
0.7
 11
-1508.75005625
 21
2589.342310654382
 31
0.0
 73
     3
  0
TEXT
  5
D7
  8
__
 62
     7
 10
-967.0847437500001
 20
2541.955140711144
 30
0.0
 40
47.3871699432373
  1
1.5インチ(38mm)
 41
0.7
 11
-967.0847437500001
 21
2589.342310654382
 31
0.0
 73
     3
  0
TEXT
  5
D8
  8
__
 62
     7
 10
-1508.75005625
 20
2166.956078211145
 30
0.0
 40
47.3871699432373
  1
端子・形式
 41
0.7
 11
-1508.75005625
 21
2214.343248154382
 31
0.0
 73
     3
  0
TEXT
  5
D9
  8
__
 62
     7
 10
-967.0847437500001
 20
2166.956078211145
 30
0.0
 40
47.3871699432373
  1
XLRと標準フォーンジャック(3P)対応の複合型端子×2、ミニフォーン×1
 41
0.7
 11
-967.0847437500001
 21
2214.343248154382
 31
0.0
 73
     3
  0
TEXT
  5
DA
  8
__
 62
     7
 10
-1508.75005625
 20
2073.206312586145
 30
0.0
 40
47.3871699432373
  1
インピーダンス
 41
0.7
 11
-1508.75005625
 21
2120.593482529383
 31
0.0
 73
     3
  0
TEXT
  5
DB
  8
__
 62
     7
 10
-967.0847437500001
 20
2073.206312586145
 30
0.0
 40
47.3871699432373
  1
100kΩ(バランス)
 41
0.7
 11
-967.0847437500001
 21
2120.593482529383
 31
0.0
 73
     3
  0
TEXT
  5
DC
  8
__
 62
     7
 10
-1508.75005625
 20
1979.456546961145
 30
0.0
 40
47.3871699432373
  1
端子・形式
 41
0.7
 11
-1508.75005625
 21
2026.843716904383
 31
0.0
 73
     3
  0
TEXT
  5
DD
  8
__
 62
     7
 10
-499.9987499999997
 20
-2858.492052581561
 30
0.0
 40
60.92636135559081
  1
(単位：mm)
 41
0.7
 11
-499.9987499999997
 21
-2797.565691225971
 31
0.0
 73
     3
  0
LINE
  5
DE
  8
__-1
  6
CONTINUOUS
 62
     7
 10
-1412.999999813124
 20
-490.0000000703037
 30
0.0
 11
-1475.0
 21
-490.0000000703037
 31
0.0
  0
LINE
  5
DF
  8
__-1
  6
CONTINUOUS
 62
     7
 10
-1412.913352944071
 20
-1109.999999929696
 30
0.0
 11
-1475.0
 21
-1109.999999929696
 31
0.0
  0
LINE
  5
E0
  8
__-1
  6
CONTINUOUS
 62
     7
 10
-1450.0
 20
-490.0000000703037
 30
0.0
 11
-1450.0
 21
-1109.999999929696
 31
0.0
  0
POLYLINE
  5
E1
  8
__-1
  6
CONTINUOUS
 62
     7
 66
     1
 10
0.0
 20
0.0
 30
0.0
 70
   128
  0
VERTEX
  5
78B
  8
__-1
  6
CONTINUOUS
 62
     7
 10
-1463.396641905515
 20
-539.9969483124912
 30
0.0
  0
VERTEX
  5
78C
  8
__-1
  6
CONTINUOUS
 62
     7
 10
-1450.0
 20
-490.0000000703037
 30
0.0
  0
VERTEX
  5
78D
  8
__-1
  6
CONTINUOUS
 62
     7
 10
-1436.603358094485
 20
-539.9969483124912
 30
0.0
  0
SEQEND
  5
7EF
  8
__-1
  6
CONTINUOUS
 62
     7
  0
POLYLINE
  5
E6
  8
__-1
  6
CONTINUOUS
 62
     7
 66
     1
 10
0.0
 20
0.0
 30
0.0
 70
   128
  0
VERTEX
  5
78E
  8
__-1
  6
CONTINUOUS
 62
     7
 10
-1436.603358094485
 20
-1060.003051687509
 30
0.0
  0
VERTEX
  5
78F
  8
__-1
  6
CONTINUOUS
 62
     7
 10
-1450.0
 20
-1109.999999929696
 30
0.0
  0
VERTEX
  5
790
  8
__-1
  6
CONTINUOUS
 62
     7
 10
-1463.396641905515
 20
-1060.003051687509
 30
0.0
  0
SEQEND
  5
7F0
  8
__-1
  6
CONTINUOUS
 62
     7
  0
TEXT
  5
EB
  8
__-1
 62
     7
 10
-1474.847222222222
 20
-866.1458333333331
 30
0.0
 40
67.69612630208333
  1
620
 50
90.0
 41
0.7
 11
-1542.543348524305
 21
-866.1458333333331
 31
0.0
 73
     3
  0
LINE
  5
EC
  8
__-1
  6
CONTINUOUS
 62
     7
 10
-1412.913352944071
 20
-1109.999999929696
 30
0.0
 11
-1475.0
 21
-1109.999999929696
 31
0.0
  0
LINE
  5
ED
  8
__-1
  6
CONTINUOUS
 62
     7
 10
-1403.929727
 20
-1120.000000070304
 30
0.0
 11
-1475.0
 21
-1120.000000070304
 31
0.0
  0
LINE
  5
EE
  8
__-1
  6
CONTINUOUS
 62
     7
 10
-1450.0
 20
-1120.000000070304
 30
0.0
 11
-1450.0
 21
-1109.999999929696
 31
0.0
  0
LINE
  5
EF
  8
__-1
  6
CONTINUOUS
 62
     7
 10
-1450.0
 20
-1109.999999929696
 30
0.0
 11
-1450.0
 21
-1022.499999929696
 31
0.0
  0
POLYLINE
  5
F0
  8
__-1
  6
CONTINUOUS
 62
     7
 66
     1
 10
0.0
 20
0.0
 30
0.0
 70
   128
  0
VERTEX
  5
791
  8
__-1
  6
CONTINUOUS
 62
     7
 10
-1436.603358094485
 20
-1060.003051687508
 30
0.0
  0
VERTEX
  5
792
  8
__-1
  6
CONTINUOUS
 62
     7
 10
-1450.0
 20
-1109.999999929696
 30
0.0
  0
VERTEX
  5
793
  8
__-1
  6
CONTINUOUS
 62
     7
 10
-1463.396641905515
 20
-1060.003051687508
 30
0.0
  0
SEQEND
  5
7F1
  8
__-1
  6
CONTINUOUS
 62
     7
  0
LINE
  5
F5
  8
__-1
  6
CONTINUOUS
 62
     7
 10
-1450.0
 20
-1120.000000070304
 30
0.0
 11
-1450.0
 21
-1207.500000070304
 31
0.0
  0
POLYLINE
  5
F6
  8
__-1
  6
CONTINUOUS
 62
     7
 66
     1
 10
0.0
 20
0.0
 30
0.0
 70
   128
  0
VERTEX
  5
794
  8
__-1
  6
CONTINUOUS
 62
     7
 10
-1463.396641905515
 20
-1169.996948312491
 30
0.0
  0
VERTEX
  5
795
  8
__-1
  6
CONTINUOUS
 62
     7
 10
-1450.0
 20
-1120.000000070304
 30
0.0
  0
VERTEX
  5
796
  8
__-1
  6
CONTINUOUS
 62
     7
 10
-1436.603358094485
 20
-1169.996948312491
 30
0.0
  0
SEQEND
  5
7F2
  8
__-1
  6
CONTINUOUS
 62
     7
  0
TEXT
  5
FB
  8
__-1
 62
     7
 10
-1487.347222222222
 20
-1203.194444444444
 30
0.0
 40
67.69612630208333
  1
10.0
 50
90.0
 41
0.7
 11
-1555.043348524305
 21
-1203.194444444444
 31
0.0
 73
     3
  0
LINE
  5
FC
  8
__-1
  6
CONTINUOUS
 62
     7
 10
-1393.0
 20
-477.5000007079614
 30
0.0
 11
-1393.0
 21
-325.0
 31
0.0
  0
LINE
  5
FD
  8
__-1
  6
CONTINUOUS
 62
     7
 10
-1007.0
 20
-477.4776534327223
 30
0.0
 11
-1007.0
 21
-325.0
 31
0.0
  0
LINE
  5
FE
  8
__-1
  6
CONTINUOUS
 62
     7
 10
-1393.0
 20
-350.0
 30
0.0
 11
-1007.0
 21
-350.0
 31
0.0
  0
POLYLINE
  5
FF
  8
__-1
  6
CONTINUOUS
 62
     7
 66
     1
 10
0.0
 20
0.0
 30
0.0
 70
   128
  0
VERTEX
  5
797
  8
__-1
  6
CONTINUOUS
 62
     7
 10
-1343.003051757812
 20
-363.3966419055148
 30
0.0
  0
VERTEX
  5
798
  8
__-1
  6
CONTINUOUS
 62
     7
 10
-1393.0
 20
-350.0
 30
0.0
  0
VERTEX
  5
799
  8
__-1
  6
CONTINUOUS
 62
     7
 10
-1343.003051757812
 20
-336.6033580944852
 30
0.0
  0
SEQEND
  5
7F3
  8
__-1
  6
CONTINUOUS
 62
     7
  0
POLYLINE
  5
104
  8
__-1
  6
CONTINUOUS
 62
     7
 66
     1
 10
0.0
 20
0.0
 30
0.0
 70
   128
  0
VERTEX
  5
79A
  8
__-1
  6
CONTINUOUS
 62
     7
 10
-1056.996948242188
 20
-336.6033580944852
 30
0.0
  0
VERTEX
  5
79B
  8
__-1
  6
CONTINUOUS
 62
     7
 10
-1007.0
 20
-350.0
 30
0.0
  0
VERTEX
  5
79C
  8
__-1
  6
CONTINUOUS
 62
     7
 10
-1056.996948242188
 20
-363.3966419055148
 30
0.0
  0
SEQEND
  5
7F4
  8
__-1
  6
CONTINUOUS
 62
     7
  0
TEXT
  5
109
  8
__-1
 62
     7
 10
-1266.145833333333
 20
-325.1527777777778
 30
0.0
 40
67.69612630208333
  1
386
 41
0.7
 11
-1266.145833333333
 21
-257.4566514756945
 31
0.0
 73
     3
  0
LINE
  5
10A
  8
__-1
  6
CONTINUOUS
 62
     7
 10
-1342.5
 20
-1412.000001
 30
0.0
 11
-1342.5
 21
-1318.500199
 31
0.0
  0
LINE
  5
10B
  8
__-1
  6
CONTINUOUS
 62
     7
 10
-1057.5
 20
-1412.000001
 30
0.0
 11
-1057.5
 21
-1318.500199
 31
0.0
  0
LINE
  5
10C
  8
__-1
  6
CONTINUOUS
 62
     7
 10
-1342.5
 20
-1343.500199
 30
0.0
 11
-1057.5
 21
-1343.500199
 31
0.0
  0
POLYLINE
  5
10D
  8
__-1
  6
CONTINUOUS
 62
     7
 66
     1
 10
0.0
 20
0.0
 30
0.0
 70
   128
  0
VERTEX
  5
79D
  8
__-1
  6
CONTINUOUS
 62
     7
 10
-1292.503051757813
 20
-1356.896840905515
 30
0.0
  0
VERTEX
  5
79E
  8
__-1
  6
CONTINUOUS
 62
     7
 10
-1342.5
 20
-1343.500199
 30
0.0
  0
VERTEX
  5
79F
  8
__-1
  6
CONTINUOUS
 62
     7
 10
-1292.503051757813
 20
-1330.103557094485
 30
0.0
  0
SEQEND
  5
7F5
  8
__-1
  6
CONTINUOUS
 62
     7
  0
POLYLINE
  5
112
  8
__-1
  6
CONTINUOUS
 62
     7
 66
     1
 10
0.0
 20
0.0
 30
0.0
 70
   128
  0
VERTEX
  5
7A0
  8
__-1
  6
CONTINUOUS
 62
     7
 10
-1107.496948242188
 20
-1330.103557094485
 30
0.0
  0
VERTEX
  5
7A1
  8
__-1
  6
CONTINUOUS
 62
     7
 10
-1057.5
 20
-1343.500199
 30
0.0
  0
VERTEX
  5
7A2
  8
__-1
  6
CONTINUOUS
 62
     7
 10
-1107.496948242188
 20
-1356.896840905515
 30
0.0
  0
SEQEND
  5
7F6
  8
__-1
  6
CONTINUOUS
 62
     7
  0
TEXT
  5
117
  8
__-1
 62
     7
 10
-1266.145833333334
 20
-1318.652976777778
 30
0.0
 40
67.69612630208333
  1
285
 41
0.7
 11
-1266.145833333334
 21
-1250.956850475695
 31
0.0
 73
     3
  0
LINE
  5
118
  8
__-1
  6
CONTINUOUS
 62
     7
 10
-1170.0
 20
-1387.0
 30
0.0
 11
-850.0
 21
-1387.0
 31
0.0
  0
LINE
  5
119
  8
__-1
  6
CONTINUOUS
 62
     7
 10
-1027.5
 20
-1442.000001
 30
0.0
 11
-850.0
 21
-1442.000001
 31
0.0
  0
LINE
  5
11A
  8
__-1
  6
CONTINUOUS
 62
     7
 10
-875.0
 20
-1442.000001
 30
0.0
 11
-875.0
 21
-1387.0
 31
0.0
  0
LINE
  5
11B
  8
__-1
  6
CONTINUOUS
 62
     7
 10
-875.0
 20
-1387.0
 30
0.0
 11
-875.0
 21
-1185.611111111011
 31
0.0
  0
POLYLINE
  5
11C
  8
__-1
  6
CONTINUOUS
 62
     7
 66
     1
 10
0.0
 20
0.0
 30
0.0
 70
   128
  0
VERTEX
  5
7A3
  8
__-1
  6
CONTINUOUS
 62
     7
 10
-861.6033580944852
 20
-1337.003051757812
 30
0.0
  0
VERTEX
  5
7A4
  8
__-1
  6
CONTINUOUS
 62
     7
 10
-875.0
 20
-1387.0
 30
0.0
  0
VERTEX
  5
7A5
  8
__-1
  6
CONTINUOUS
 62
     7
 10
-888.3966419055148
 20
-1337.003051757812
 30
0.0
  0
SEQEND
  5
7F7
  8
__-1
  6
CONTINUOUS
 62
     7
  0
LINE
  5
121
  8
__-1
  6
CONTINUOUS
 62
     7
 10
-875.0
 20
-1442.000001
 30
0.0
 11
-875.0
 21
-1529.500001
 31
0.0
  0
POLYLINE
  5
122
  8
__-1
  6
CONTINUOUS
 62
     7
 66
     1
 10
0.0
 20
0.0
 30
0.0
 70
   128
  0
VERTEX
  5
7A6
  8
__-1
  6
CONTINUOUS
 62
     7
 10
-888.3966419055148
 20
-1491.996949242187
 30
0.0
  0
VERTEX
  5
7A7
  8
__-1
  6
CONTINUOUS
 62
     7
 10
-875.0
 20
-1442.000001
 30
0.0
  0
VERTEX
  5
7A8
  8
__-1
  6
CONTINUOUS
 62
     7
 10
-861.6033580944852
 20
-1491.996949242187
 30
0.0
  0
SEQEND
  5
7F8
  8
__-1
  6
CONTINUOUS
 62
     7
  0
TEXT
  5
127
  8
__-1
 62
     7
 10
-899.8472222222222
 20
-1361.9999999999
 30
0.0
 40
67.69612630208333
  1
55.0
 50
90.0
 41
0.7
 11
-967.5433485243055
 21
-1361.9999999999
 31
0.0
 73
     3
  0
LINE
  5
128
  8
__-1
  6
CONTINUOUS
 62
     7
 10
-137.0000001868768
 20
-490.0000000703037
 30
0.0
 11
-25.0
 21
-490.0000000703037
 31
0.0
  0
LINE
  5
129
  8
__-1
  6
CONTINUOUS
 62
     7
 10
-320.0000000000005
 20
-570.0000000703037
 30
0.0
 11
-25.0
 21
-570.0000000703037
 31
0.0
  0
LINE
  5
12A
  8
__-1
  6
CONTINUOUS
 62
     7
 10
-50.0
 20
-570.0000000703037
 30
0.0
 11
-50.0
 21
-490.0000000703037
 31
0.0
  0
LINE
  5
12B
  8
__-1
  6
CONTINUOUS
 62
     7
 10
-50.0
 20
-490.0000000703037
 30
0.0
 11
-50.0
 21
-296.666666627595
 31
0.0
  0
POLYLINE
  5
12C
  8
__-1
  6
CONTINUOUS
 62
     7
 66
     1
 10
0.0
 20
0.0
 30
0.0
 70
   128
  0
VERTEX
  5
7A9
  8
__-1
  6
CONTINUOUS
 62
     7
 10
-36.60335809448522
 20
-440.0030518281162
 30
0.0
  0
VERTEX
  5
7AA
  8
__-1
  6
CONTINUOUS
 62
     7
 10
-50.0
 20
-490.0000000703037
 30
0.0
  0
VERTEX
  5
7AB
  8
__-1
  6
CONTINUOUS
 62
     7
 10
-63.39664190551477
 20
-440.0030518281162
 30
0.0
  0
SEQEND
  5
7F9
  8
__-1
  6
CONTINUOUS
 62
     7
  0
LINE
  5
131
  8
__-1
  6
CONTINUOUS
 62
     7
 10
-50.0
 20
-570.0000000703037
 30
0.0
 11
-50.0
 21
-657.5000000703037
 31
0.0
  0
POLYLINE
  5
132
  8
__-1
  6
CONTINUOUS
 62
     7
 66
     1
 10
0.0
 20
0.0
 30
0.0
 70
   128
  0
VERTEX
  5
7AC
  8
__-1
  6
CONTINUOUS
 62
     7
 10
-63.39664190551477
 20
-619.9969483124912
 30
0.0
  0
VERTEX
  5
7AD
  8
__-1
  6
CONTINUOUS
 62
     7
 10
-50.0
 20
-570.0000000703037
 30
0.0
  0
VERTEX
  5
7AE
  8
__-1
  6
CONTINUOUS
 62
     7
 10
-36.60335809448522
 20
-619.9969483124912
 30
0.0
  0
SEQEND
  5
7FA
  8
__-1
  6
CONTINUOUS
 62
     7
  0
TEXT
  5
137
  8
__-1
 62
     7
 10
-74.84722222222224
 20
-473.0555555164839
 30
0.0
 40
67.69612630208333
  1
80.0
 50
90.0
 41
0.7
 11
-142.5433485243056
 21
-473.0555555164839
 31
0.0
 73
     3
  0
LINE
  5
138
  8
__-1
  6
CONTINUOUS
 62
     7
 10
-320.0000000000005
 20
-570.0000000703037
 30
0.0
 11
-25.0
 21
-570.0000000703037
 31
0.0
  0
LINE
  5
139
  8
__-1
  6
CONTINUOUS
 62
     7
 10
-320.0000000000005
 20
-1024.000000070304
 30
0.0
 11
-25.0
 21
-1024.000000070304
 31
0.0
  0
LINE
  5
13A
  8
__-1
  6
CONTINUOUS
 62
     7
 10
-50.0
 20
-570.0000000703037
 30
0.0
 11
-50.0
 21
-1024.000000070304
 31
0.0
  0
POLYLINE
  5
13B
  8
__-1
  6
CONTINUOUS
 62
     7
 66
     1
 10
0.0
 20
0.0
 30
0.0
 70
   128
  0
VERTEX
  5
7AF
  8
__-1
  6
CONTINUOUS
 62
     7
 10
-63.39664190551477
 20
-619.9969483124912
 30
0.0
  0
VERTEX
  5
7B0
  8
__-1
  6
CONTINUOUS
 62
     7
 10
-50.0
 20
-570.0000000703037
 30
0.0
  0
VERTEX
  5
7B1
  8
__-1
  6
CONTINUOUS
 62
     7
 10
-36.60335809448522
 20
-619.9969483124912
 30
0.0
  0
SEQEND
  5
7FB
  8
__-1
  6
CONTINUOUS
 62
     7
  0
POLYLINE
  5
140
  8
__-1
  6
CONTINUOUS
 62
     7
 66
     1
 10
0.0
 20
0.0
 30
0.0
 70
   128
  0
VERTEX
  5
7B2
  8
__-1
  6
CONTINUOUS
 62
     7
 10
-36.60335809448522
 20
-974.0030518281162
 30
0.0
  0
VERTEX
  5
7B3
  8
__-1
  6
CONTINUOUS
 62
     7
 10
-50.0
 20
-1024.000000070304
 30
0.0
  0
VERTEX
  5
7B4
  8
__-1
  6
CONTINUOUS
 62
     7
 10
-63.39664190551477
 20
-974.0030518281162
 30
0.0
  0
SEQEND
  5
7FC
  8
__-1
  6
CONTINUOUS
 62
     7
  0
TEXT
  5
145
  8
__-1
 62
     7
 10
-74.84722222222224
 20
-863.145833403637
 30
0.0
 40
67.69612630208333
  1
454
 50
90.0
 41
0.7
 11
-142.5433485243056
 21
-863.145833403637
 31
0.0
 73
     3
  0
LINE
  5
146
  8
__-1
  6
CONTINUOUS
 62
     7
 10
-1342.5
 20
20.99990149999962
 30
0.0
 11
-1342.5
 21
-200.0
 31
0.0
  0
LINE
  5
147
  8
__-1
  6
CONTINUOUS
 62
     7
 10
-1057.5
 20
20.99990149999962
 30
0.0
 11
-1057.5
 21
-200.0
 31
0.0
  0
LINE
  5
148
  8
__-1
  6
CONTINUOUS
 62
     7
 10
-1342.5
 20
-175.0
 30
0.0
 11
-1057.5
 21
-175.0
 31
0.0
  0
POLYLINE
  5
149
  8
__-1
  6
CONTINUOUS
 62
     7
 66
     1
 10
0.0
 20
0.0
 30
0.0
 70
   128
  0
VERTEX
  5
7B5
  8
__-1
  6
CONTINUOUS
 62
     7
 10
-1292.503051757812
 20
-188.3966419055148
 30
0.0
  0
VERTEX
  5
7B6
  8
__-1
  6
CONTINUOUS
 62
     7
 10
-1342.5
 20
-175.0
 30
0.0
  0
VERTEX
  5
7B7
  8
__-1
  6
CONTINUOUS
 62
     7
 10
-1292.503051757812
 20
-161.6033580944852
 30
0.0
  0
SEQEND
  5
7FD
  8
__-1
  6
CONTINUOUS
 62
     7
  0
POLYLINE
  5
14E
  8
__-1
  6
CONTINUOUS
 62
     7
 66
     1
 10
0.0
 20
0.0
 30
0.0
 70
   128
  0
VERTEX
  5
7B8
  8
__-1
  6
CONTINUOUS
 62
     7
 10
-1107.496948242188
 20
-161.6033580944852
 30
0.0
  0
VERTEX
  5
7B9
  8
__-1
  6
CONTINUOUS
 62
     7
 10
-1057.5
 20
-175.0
 30
0.0
  0
VERTEX
  5
7BA
  8
__-1
  6
CONTINUOUS
 62
     7
 10
-1107.496948242188
 20
-188.3966419055148
 30
0.0
  0
SEQEND
  5
7FE
  8
__-1
  6
CONTINUOUS
 62
     7
  0
TEXT
  5
153
  8
__-1
 62
     7
 10
-1266.145833333333
 20
-150.1527777777778
 30
0.0
 40
67.69612630208333
  1
285
 41
0.7
 11
-1266.145833333333
 21
-82.45665147569444
 31
0.0
 73
     3
  0
LINE
  5
154
  8
__-1
  6
CONTINUOUS
 62
     7
 10
-1299.645455
 20
313.0
 30
0.0
 11
-1475.0
 21
313.0
 31
0.0
  0
LINE
  5
155
  8
__-1
  6
CONTINUOUS
 62
     7
 10
-1224.0
 20
-13.0
 30
0.0
 11
-1475.0
 21
-13.0
 31
0.0
  0
LINE
  5
156
  8
__-1
  6
CONTINUOUS
 62
     7
 10
-1450.0
 20
313.0
 30
0.0
 11
-1450.0
 21
-13.0
 31
0.0
  0
POLYLINE
  5
157
  8
__-1
  6
CONTINUOUS
 62
     7
 66
     1
 10
0.0
 20
0.0
 30
0.0
 70
   128
  0
VERTEX
  5
7BB
  8
__-1
  6
CONTINUOUS
 62
     7
 10
-1463.396641905515
 20
263.0030517578125
 30
0.0
  0
VERTEX
  5
7BC
  8
__-1
  6
CONTINUOUS
 62
     7
 10
-1450.0
 20
313.0
 30
0.0
  0
VERTEX
  5
7BD
  8
__-1
  6
CONTINUOUS
 62
     7
 10
-1436.603358094485
 20
263.0030517578125
 30
0.0
  0
SEQEND
  5
7FF
  8
__-1
  6
CONTINUOUS
 62
     7
  0
POLYLINE
  5
15C
  8
__-1
  6
CONTINUOUS
 62
     7
 66
     1
 10
0.0
 20
0.0
 30
0.0
 70
   128
  0
VERTEX
  5
7BE
  8
__-1
  6
CONTINUOUS
 62
     7
 10
-1436.603358094485
 20
36.9969482421875
 30
0.0
  0
VERTEX
  5
7BF
  8
__-1
  6
CONTINUOUS
 62
     7
 10
-1450.0
 20
-13.0
 30
0.0
  0
VERTEX
  5
7C0
  8
__-1
  6
CONTINUOUS
 62
     7
 10
-1463.396641905515
 20
36.9969482421875
 30
0.0
  0
SEQEND
  5
800
  8
__-1
  6
CONTINUOUS
 62
     7
  0
TEXT
  5
161
  8
__-1
 62
     7
 10
-1474.847222222222
 20
83.85416666666666
 30
0.0
 40
67.69612630208333
  1
326
 50
90.0
 41
0.7
 11
-1542.543348524305
 21
83.85416666666666
 31
0.0
 73
     3
  0
LINE
  5
162
  8
__-1
  6
CONTINUOUS
 62
     7
 10
-1033.5
 20
42.00000099999943
 30
0.0
 11
-850.0
 21
42.00000099999943
 31
0.0
  0
LINE
  5
163
  8
__-1
  6
CONTINUOUS
 62
     7
 10
-1176.0
 20
-13.0
 30
0.0
 11
-850.0
 21
-13.0
 31
0.0
  0
LINE
  5
164
  8
__-1
  6
CONTINUOUS
 62
     7
 10
-875.0
 20
-13.0
 30
0.0
 11
-875.0
 21
42.00000099999943
 31
0.0
  0
LINE
  5
165
  8
__-1
  6
CONTINUOUS
 62
     7
 10
-875.0
 20
42.00000099999943
 30
0.0
 11
-875.0
 21
244.4722232222217
 31
0.0
  0
POLYLINE
  5
166
  8
__-1
  6
CONTINUOUS
 62
     7
 66
     1
 10
0.0
 20
0.0
 30
0.0
 70
   128
  0
VERTEX
  5
7C1
  8
__-1
  6
CONTINUOUS
 62
     7
 10
-861.6033580944852
 20
91.99694924218693
 30
0.0
  0
VERTEX
  5
7C2
  8
__-1
  6
CONTINUOUS
 62
     7
 10
-875.0
 20
42.00000099999943
 30
0.0
  0
VERTEX
  5
7C3
  8
__-1
  6
CONTINUOUS
 62
     7
 10
-888.3966419055148
 20
91.99694924218693
 30
0.0
  0
SEQEND
  5
801
  8
__-1
  6
CONTINUOUS
 62
     7
  0
LINE
  5
16B
  8
__-1
  6
CONTINUOUS
 62
     7
 10
-875.0
 20
-13.0
 30
0.0
 11
-875.0
 21
-100.5
 31
0.0
  0
POLYLINE
  5
16C
  8
__-1
  6
CONTINUOUS
 62
     7
 66
     1
 10
0.0
 20
0.0
 30
0.0
 70
   128
  0
VERTEX
  5
7C4
  8
__-1
  6
CONTINUOUS
 62
     7
 10
-888.3966419055148
 20
-62.9969482421875
 30
0.0
  0
VERTEX
  5
7C5
  8
__-1
  6
CONTINUOUS
 62
     7
 10
-875.0
 20
-13.0
 30
0.0
  0
VERTEX
  5
7C6
  8
__-1
  6
CONTINUOUS
 62
     7
 10
-861.6033580944852
 20
-62.9969482421875
 30
0.0
  0
SEQEND
  5
802
  8
__-1
  6
CONTINUOUS
 62
     7
  0
TEXT
  5
171
  8
__-1
 62
     7
 10
-899.8472222222222
 20
68.0833343333328
 30
0.0
 40
67.69612630208333
  1
55.0
 50
90.0
 41
0.7
 11
-967.5433485243055
 21
68.0833343333328
 31
0.0
 73
     3
  0
LINE
  5
172
  8
__-1
  6
CONTINUOUS
 62
     7
 10
-1412.999999813124
 20
-490.0000000703037
 30
0.0
 11
-1475.0
 21
-490.0000000703037
 31
0.0
  0
LINE
  5
173
  8
__-1
  6
CONTINUOUS
 62
     7
 10
-1320.0
 20
-485.9999999609283
 30
0.0
 11
-1475.0
 21
-485.9999999609283
 31
0.0
  0
LINE
  5
174
  8
__-1
  6
CONTINUOUS
 62
     7
 10
-1450.0
 20
-485.9999999609283
 30
0.0
 11
-1450.0
 21
-490.0000000703037
 31
0.0
  0
LINE
  5
175
  8
__-1
  6
CONTINUOUS
 62
     7
 10
-1450.0
 20
-490.0000000703037
 30
0.0
 11
-1450.0
 21
-577.5000000703037
 31
0.0
  0
POLYLINE
  5
176
  8
__-1
  6
CONTINUOUS
 62
     7
 66
     1
 10
0.0
 20
0.0
 30
0.0
 70
   128
  0
VERTEX
  5
7C7
  8
__-1
  6
CONTINUOUS
 62
     7
 10
-1463.396641905515
 20
-539.9969483124912
 30
0.0
  0
VERTEX
  5
7C8
  8
__-1
  6
CONTINUOUS
 62
     7
 10
-1450.0
 20
-490.0000000703037
 30
0.0
  0
VERTEX
  5
7C9
  8
__-1
  6
CONTINUOUS
 62
     7
 10
-1436.603358094485
 20
-539.9969483124912
 30
0.0
  0
SEQEND
  5
803
  8
__-1
  6
CONTINUOUS
 62
     7
  0
LINE
  5
17B
  8
__-1
  6
CONTINUOUS
 62
     7
 10
-1450.0
 20
-485.9999999609283
 30
0.0
 11
-1450.0
 21
-398.4999999609283
 31
0.0
  0
POLYLINE
  5
17C
  8
__-1
  6
CONTINUOUS
 62
     7
 66
     1
 10
0.0
 20
0.0
 30
0.0
 70
   128
  0
VERTEX
  5
7CA
  8
__-1
  6
CONTINUOUS
 62
     7
 10
-1436.603358094485
 20
-436.0030517187408
 30
0.0
  0
VERTEX
  5
7CB
  8
__-1
  6
CONTINUOUS
 62
     7
 10
-1450.0
 20
-485.9999999609283
 30
0.0
  0
VERTEX
  5
7CC
  8
__-1
  6
CONTINUOUS
 62
     7
 10
-1463.396641905515
 20
-436.0030517187408
 30
0.0
  0
SEQEND
  5
804
  8
__-1
  6
CONTINUOUS
 62
     7
  0
TEXT
  5
181
  8
__-1
 62
     7
 10
-1487.347222222222
 20
-554.1458333489493
 30
0.0
 40
67.69612630208333
  1
4.0
 50
90.0
 41
0.7
 11
-1555.043348524305
 21
-554.1458333489493
 31
0.0
 73
     3
  0
LINE
  5
182
  8
__-1
  6
CONTINUOUS
 62
     7
 10
-1398.612996069896
 20
-521.7207860703036
 30
0.0
 11
-1398.612996069896
 21
-325.0
 31
0.0
  0
LINE
  5
183
  8
__-1
  6
CONTINUOUS
 62
     7
 10
-1393.0
 20
-477.5000007079614
 30
0.0
 11
-1393.0
 21
-325.0
 31
0.0
  0
LINE
  5
184
  8
__-1
  6
CONTINUOUS
 62
     7
 10
-1393.0
 20
-350.0
 30
0.0
 11
-1398.612996069896
 21
-350.0
 31
0.0
  0
LINE
  5
185
  8
__-1
  6
CONTINUOUS
 62
     7
 10
-1398.612996069896
 20
-350.0
 30
0.0
 11
-1566.145833333333
 21
-350.0
 31
0.0
  0
POLYLINE
  5
186
  8
__-1
  6
CONTINUOUS
 62
     7
 66
     1
 10
0.0
 20
0.0
 30
0.0
 70
   128
  0
VERTEX
  5
7CD
  8
__-1
  6
CONTINUOUS
 62
     7
 10
-1448.609944312083
 20
-336.6033580944852
 30
0.0
  0
VERTEX
  5
7CE
  8
__-1
  6
CONTINUOUS
 62
     7
 10
-1398.612996069896
 20
-350.0
 30
0.0
  0
VERTEX
  5
7CF
  8
__-1
  6
CONTINUOUS
 62
     7
 10
-1448.609944312083
 20
-363.3966419055148
 30
0.0
  0
SEQEND
  5
805
  8
__-1
  6
CONTINUOUS
 62
     7
  0
LINE
  5
18B
  8
__-1
  6
CONTINUOUS
 62
     7
 10
-1393.0
 20
-350.0
 30
0.0
 11
-1305.5
 21
-350.0
 31
0.0
  0
POLYLINE
  5
18C
  8
__-1
  6
CONTINUOUS
 62
     7
 66
     1
 10
0.0
 20
0.0
 30
0.0
 70
   128
  0
VERTEX
  5
7D0
  8
__-1
  6
CONTINUOUS
 62
     7
 10
-1343.003051757812
 20
-363.3966419055148
 30
0.0
  0
VERTEX
  5
7D1
  8
__-1
  6
CONTINUOUS
 62
     7
 10
-1393.0
 20
-350.0
 30
0.0
  0
VERTEX
  5
7D2
  8
__-1
  6
CONTINUOUS
 62
     7
 10
-1343.003051757812
 20
-336.6033580944852
 30
0.0
  0
SEQEND
  5
806
  8
__-1
  6
CONTINUOUS
 62
     7
  0
TEXT
  5
191
  8
__-1
 62
     7
 10
-1566.145833333333
 20
-325.1527777777778
 30
0.0
 40
67.69612630208333
  1
5.6
 41
0.7
 11
-1566.145833333333
 21
-257.4566514756945
 31
0.0
 73
     3
  0
LINE
  5
192
  8
__-1
  6
CONTINUOUS
 62
     7
 10
-1007.0
 20
-477.4776534327223
 30
0.0
 11
-1007.0
 21
-325.0
 31
0.0
  0
LINE
  5
193
  8
__-1
  6
CONTINUOUS
 62
     7
 10
-1001.387003930104
 20
-521.7207860703036
 30
0.0
 11
-1001.387003930104
 21
-325.0
 31
0.0
  0
LINE
  5
194
  8
__-1
  6
CONTINUOUS
 62
     7
 10
-1001.387003930104
 20
-350.0
 30
0.0
 11
-1007.0
 21
-350.0
 31
0.0
  0
LINE
  5
195
  8
__-1
  6
CONTINUOUS
 62
     7
 10
-1007.0
 20
-350.0
 30
0.0
 11
-1094.5
 21
-350.0
 31
0.0
  0
POLYLINE
  5
196
  8
__-1
  6
CONTINUOUS
 62
     7
 66
     1
 10
0.0
 20
0.0
 30
0.0
 70
   128
  0
VERTEX
  5
7D3
  8
__-1
  6
CONTINUOUS
 62
     7
 10
-1056.996948242188
 20
-336.6033580944852
 30
0.0
  0
VERTEX
  5
7D4
  8
__-1
  6
CONTINUOUS
 62
     7
 10
-1007.0
 20
-350.0
 30
0.0
  0
VERTEX
  5
7D5
  8
__-1
  6
CONTINUOUS
 62
     7
 10
-1056.996948242188
 20
-363.3966419055148
 30
0.0
  0
SEQEND
  5
807
  8
__-1
  6
CONTINUOUS
 62
     7
  0
LINE
  5
19B
  8
__-1
  6
CONTINUOUS
 62
     7
 10
-1001.387003930104
 20
-350.0
 30
0.0
 11
-833.8541666666666
 21
-350.0
 31
0.0
  0
POLYLINE
  5
19C
  8
__-1
  6
CONTINUOUS
 62
     7
 66
     1
 10
0.0
 20
0.0
 30
0.0
 70
   128
  0
VERTEX
  5
7D6
  8
__-1
  6
CONTINUOUS
 62
     7
 10
-951.3900556879166
 20
-363.3966419055148
 30
0.0
  0
VERTEX
  5
7D7
  8
__-1
  6
CONTINUOUS
 62
     7
 10
-1001.387003930104
 20
-350.0
 30
0.0
  0
VERTEX
  5
7D8
  8
__-1
  6
CONTINUOUS
 62
     7
 10
-951.3900556879166
 20
-336.6033580944852
 30
0.0
  0
SEQEND
  5
808
  8
__-1
  6
CONTINUOUS
 62
     7
  0
TEXT
  5
1A1
  8
__-1
 62
     7
 10
-966.1458333333333
 20
-325.1527777777778
 30
0.0
 40
67.69612630208333
  1
5.6
 41
0.7
 11
-966.1458333333333
 21
-257.4566514756945
 31
0.0
 73
     3
  0
TEXT
  5
1A2
  8
__
 62
     7
 10
-1133.854166666667
 20
-1265.030754555556
 30
0.0
 40
47.38728841145834
  1
※
 41
0.7
 11
-1133.854166666667
 21
-1217.643466144097
 31
0.0
 73
     3
  0
TEXT
  5
1A3
  8
__
 62
     7
 10
166.66625
 20
-2487.722579507562
 30
0.0
 40
67.69595706176757
  1
※ センター振り分け
 41
0.7
 11
166.66625
 21
-2420.026622445795
 31
0.0
 73
     3
  0
TEXT
  5
1A4
  8
__
 62
     7
 10
-1133.854166666667
 20
-96.53055555555557
 30
0.0
 40
47.38728841145834
  1
※
 41
0.7
 11
-1133.854166666667
 21
-49.14326714409723
 31
0.0
 73
     3
  0
LINE
  5
1A5
  8
__-1
  6
CONTINUOUS
 62
     7
 10
-1305.645455
 20
313.0
 30
0.0
 11
-1475.0
 21
313.0
 31
0.0
  0
LINE
  5
1A6
  8
__-1
  6
CONTINUOUS
 62
     7
 10
-1326.082513069896
 20
317.6832690698965
 30
0.0
 11
-1475.0
 21
317.6832690698965
 31
0.0
  0
LINE
  5
1A7
  8
__-1
  6
CONTINUOUS
 62
     7
 10
-1450.0
 20
317.6832690698965
 30
0.0
 11
-1450.0
 21
313.0
 31
0.0
  0
LINE
  5
1A8
  8
__-1
  6
CONTINUOUS
 62
     7
 10
-1450.0
 20
313.0
 30
0.0
 11
-1450.0
 21
225.5
 31
0.0
  0
POLYLINE
  5
1A9
  8
__-1
  6
CONTINUOUS
 62
     7
 66
     1
 10
0.0
 20
0.0
 30
0.0
 70
   128
  0
VERTEX
  5
7D9
  8
__-1
  6
CONTINUOUS
 62
     7
 10
-1463.396641905515
 20
263.0030517578125
 30
0.0
  0
VERTEX
  5
7DA
  8
__-1
  6
CONTINUOUS
 62
     7
 10
-1450.0
 20
313.0
 30
0.0
  0
VERTEX
  5
7DB
  8
__-1
  6
CONTINUOUS
 62
     7
 10
-1436.603358094485
 20
263.0030517578125
 30
0.0
  0
SEQEND
  5
809
  8
__-1
  6
CONTINUOUS
 62
     7
  0
LINE
  5
1AE
  8
__-1
  6
CONTINUOUS
 62
     7
 10
-1450.0
 20
317.6832690698965
 30
0.0
 11
-1450.0
 21
491.1458333333333
 31
0.0
  0
POLYLINE
  5
1AF
  8
__-1
  6
CONTINUOUS
 62
     7
 66
     1
 10
0.0
 20
0.0
 30
0.0
 70
   128
  0
VERTEX
  5
7DC
  8
__-1
  6
CONTINUOUS
 62
     7
 10
-1436.603358094485
 20
367.680217312084
 30
0.0
  0
VERTEX
  5
7DD
  8
__-1
  6
CONTINUOUS
 62
     7
 10
-1450.0
 20
317.6832690698965
 30
0.0
  0
VERTEX
  5
7DE
  8
__-1
  6
CONTINUOUS
 62
     7
 10
-1463.396641905515
 20
367.680217312084
 30
0.0
  0
SEQEND
  5
80A
  8
__-1
  6
CONTINUOUS
 62
     7
  0
TEXT
  5
1B4
  8
__-1
 62
     7
 10
-1474.847222222222
 20
358.8541666666666
 30
0.0
 40
67.69612630208333
  1
4.7
 50
90.0
 41
0.7
 11
-1542.543348524305
 21
358.8541666666666
 31
0.0
 73
     3
  0
LINE
  5
1B5
  8
__-1
  6
CONTINUOUS
 62
     7
 10
-1051.157759563092
 20
34.26850785569286
 30
0.0
 11
-900.0000000000001
 21
-150.0
 31
0.0
  0
POLYLINE
  5
1B6
  8
__-1
  6
CONTINUOUS
 62
     7
 66
     1
 10
0.0
 20
0.0
 30
0.0
 70
   128
  0
VERTEX
  5
7DF
  8
__-1
  6
CONTINUOUS
 62
     7
 10
-1029.282763799049
 20
-12.6425719464144
 30
0.0
  0
VERTEX
  5
7E0
  8
__-1
  6
CONTINUOUS
 62
     7
 10
-1051.157759563092
 20
34.26850785569286
 30
0.0
  0
VERTEX
  5
7E1
  8
__-1
  6
CONTINUOUS
 62
     7
 10
-1008.757917622701
 20
4.579818910130342
 30
0.0
  0
SEQEND
  5
80B
  8
__-1
  6
CONTINUOUS
 62
     7
  0
LINE
  5
1BB
  8
__-1
  6
CONTINUOUS
 62
     7
 10
-900.0000000000001
 20
-150.0
 30
0.0
 11
-850.0000000000001
 21
-150.0
 31
0.0
  0
TEXT
  5
1BC
  8
__-1
 62
     7
 10
-850.0000000000001
 20
-181.75
 30
0.0
 40
67.69612630208333
  1
M10(4ヵ所)
 41
0.7
 11
-850.0000000000001
 21
-114.0538736979167
 31
0.0
 73
     3
  0
LINE
  5
1BD
  8
__-1
  6
CONTINUOUS
 62
     7
 10
-345.0000000000005
 20
-1032.660254108148
 30
0.0
 11
-241.1694742577554
 21
-1212.500000070304
 31
0.0
  0
POLYLINE
  5
1BE
  8
__-1
  6
CONTINUOUS
 62
     7
 66
     1
 10
0.0
 20
0.0
 30
0.0
 70
   128
  0
VERTEX
  5
7E2
  8
__-1
  6
CONTINUOUS
 62
     7
 10
-330.7328314065895
 20
-1082.415783933523
 30
0.0
  0
VERTEX
  5
7E3
  8
__-1
  6
CONTINUOUS
 62
     7
 10
-345.0000000000005
 20
-1032.660254108148
 30
0.0
  0
VERTEX
  5
7E4
  8
__-1
  6
CONTINUOUS
 62
     7
 10
-307.7665046453437
 20
-1068.616222618972
 30
0.0
  0
SEQEND
  5
80C
  8
__-1
  6
CONTINUOUS
 62
     7
  0
LINE
  5
1C3
  8
__-1
  6
CONTINUOUS
 62
     7
 10
-241.1694742577554
 20
-1212.500000070304
 30
0.0
 11
-191.1694742577554
 21
-1212.500000070304
 31
0.0
  0
TEXT
  5
1C4
  8
__-1
 62
     7
 10
-191.1694742577554
 20
-1244.250000070304
 30
0.0
 40
67.69612630208333
  1
M10(2ヵ所)
 41
0.7
 11
-191.1694742577554
 21
-1176.55387376822
 31
0.0
 73
     3
  0
TEXT
  5
1C5
  8
__
 62
     7
 10
-2199.994499999999
 20
-2968.322083561354
 30
0.0
 40
47.3871699432373
  1
※仕様及び外観は予告なく変更されることがあります。 
 41
0.7
 11
-2199.994499999999
 21
-2920.934913618117
 31
0.0
 73
     3
  0
TEXT
  5
1C6
  8
__
 62
     7
 10
-2199.994499999999
 20
-3030.058040332187
 30
0.0
 40
47.3871699432373
  1
　また、同一商品でも若干の個体差があることがあります。ご了承ください。
 41
0.7
 11
-2199.994499999999
 21
-2982.67087038895
 31
0.0
 73
     3
  0
TEXT
  5
1C7
  8
__
 62
     7
 10
1249.996875
 20
-2705.707434544062
 30
0.0
 40
60.92636135559081
  1
JBL PROFESSIONAL
 41
0.7
 11
1249.996875
 21
-2644.781073188471
 31
0.0
 73
     3
  0
ARC
  5
1C8
  8
__
  6
CONTINUOUS
 62
     7
 10
-1888.022346749619
 20
-509.9888270703038
 30
0.0
 40
24.97765599999994
 50
126.8442670000003
 51
180.025631
  0
ARC
  5
1C9
  8
__
  6
CONTINUOUS
 62
     7
 10
-1611.977652749619
 20
-509.9888270703038
 30
0.0
 40
24.97765599999966
 50
359.974369
 51
53.15573300000011
  0
ARC
  5
1CA
  8
__
  6
CONTINUOUS
 62
     7
 10
-1873.894213605133
 20
-1083.884244368287
 30
0.0
 40
39.1059629999999
 50
180.1723160000003
 51
221.9027059999999
  0
ARC
  5
1CB
  8
__
  6
CONTINUOUS
 62
     7
 10
-1626.105785891933
 20
-1083.882390070304
 30
0.0
 40
39.10596299999999
 50
318.0972940000001
 51
359.8276839999997
  0
LINE
  5
1CC
  8
__
  6
CONTINUOUS
 62
     7
 10
-1596.999999570482
 20
-1109.999999929696
 30
0.0
 11
-1902.999999926584
 21
-1110.001854227679
 31
0.0
  0
LINE
  5
1CD
  8
__
  6
CONTINUOUS
 62
     7
 10
-1586.999999747447
 20
-1084.000000355376
 30
0.0
 11
-1586.999999248856
 21
-510.0000007079614
 31
0.0
  0
ARC
  5
1CE
  8
__
  6
CONTINUOUS
 62
     7
 10
-1750.0
 20
-536.0000000703037
 30
0.0
 40
49.99999999999982
 50
73.73979500000003
 51
106.260205
  0
LINE
  5
1CF
  8
__
  6
CONTINUOUS
 62
     7
 10
-1764.0
 20
-490.0000000703037
 30
0.0
 11
-1764.0
 21
-488.0000000703037
 31
0.0
  0
LINE
  5
1D0
  8
__
  6
CONTINUOUS
 62
     7
 10
-1736.0
 20
-490.0000000703037
 30
0.0
 11
-1736.0
 21
-488.0000000703037
 31
0.0
  0
LINE
  5
1D1
  8
__
  6
CONTINUOUS
 62
     7
 10
-1606.153425749618
 20
-1120.000000070304
 30
0.0
 11
-1606.153425749618
 21
-1110.000000070304
 31
0.0
  0
LINE
  5
1D2
  8
__
  6
CONTINUOUS
 62
     7
 10
-1859.007604749619
 20
-1120.000000070304
 30
0.0
 11
-1859.007604749619
 21
-1110.000000070304
 31
0.0
  0
LINE
  5
1D3
  8
__
  6
CONTINUOUS
 62
     7
 10
-1609.697608749618
 20
-1110.000000070304
 30
0.0
 11
-1609.697608749618
 21
-1120.000000070304
 31
0.0
  0
LINE
  5
1D4
  8
__
  6
CONTINUOUS
 62
     7
 10
-1629.673912749619
 20
-1110.000000070304
 30
0.0
 11
-1629.673912749619
 21
-1120.000000070304
 31
0.0
  0
LINE
  5
1D5
  8
__
  6
CONTINUOUS
 62
     7
 10
-1694.399999749619
 20
-1110.000000070304
 30
0.0
 11
-1694.399999749619
 21
-1120.000000070304
 31
0.0
  0
LINE
  5
1D6
  8
__
  6
CONTINUOUS
 62
     7
 10
-1606.153425749618
 20
-1120.000000070304
 30
0.0
 11
-1629.673912749619
 21
-1120.000000070304
 31
0.0
  0
LINE
  5
1D7
  8
__
  6
CONTINUOUS
 62
     7
 10
-1694.399999749619
 20
-1120.000000070304
 30
0.0
 11
-1859.007604749619
 21
-1120.000000070304
 31
0.0
  0
LINE
  5
1D8
  8
__
  6
CONTINUOUS
 62
     7
 10
-1598.950103749619
 20
-1110.000000070304
 30
0.0
 11
-1598.950103749619
 21
-490.0000000710007
 31
0.0
  0
LINE
  5
1D9
  8
__
  6
CONTINUOUS
 62
     7
 10
-1638.697727749619
 20
-1110.000000070304
 30
0.0
 11
-1638.697727749619
 21
-490.0000000852079
 31
0.0
  0
LINE
  5
1DA
  8
__
  6
CONTINUOUS
 62
     7
 10
-1799.383530749619
 20
-1110.000000070304
 30
0.0
 11
-1799.383530749619
 21
-490.0000001426429
 31
0.0
  0
ARC
  5
1DB
  8
__
  6
CONTINUOUS
 62
     7
 10
-1659.999999749619
 20
-541.9434600703037
 30
0.0
 40
20.00000000000011
 50
95.09247800000091
 51
180.0
  0
LINE
  5
1DC
  8
__
  6
CONTINUOUS
 62
     7
 10
-1903.000000063505
 20
-490.0000001796791
 30
0.0
 11
-1596.999999749619
 21
-490.0000000703037
 31
0.0
  0
ARC
  5
1DD
  8
__
  6
CONTINUOUS
 62
     7
 10
-1662.999999749619
 20
-539.1989170703039
 30
0.0
 40
20.00000000000011
 50
95.09247800000091
 51
180.0
  0
ARC
  5
1DE
  8
__
  6
CONTINUOUS
 62
     7
 10
-1662.999999749619
 20
-539.1989170703039
 30
0.0
 40
20.00000000000011
 50
95.09247800000091
 51
180.0
  0
LINE
  5
1DF
  8
__
  6
CONTINUOUS
 62
     7
 10
-1661.775270749619
 20
-522.0224050703039
 30
0.0
 11
-1586.999999253511
 21
-515.3587846273449
 31
0.0
  0
LINE
  5
1E0
  8
__
  6
CONTINUOUS
 62
     7
 10
-1664.775270749619
 20
-519.2778620703036
 30
0.0
 11
-1586.999999749619
 21
-512.3468960703037
 31
0.0
  0
ARC
  5
1E1
  8
__
  6
CONTINUOUS
 62
     7
 10
-1662.999999749619
 20
-539.1989170703039
 30
0.0
 40
20.00000000000011
 50
95.09247800000091
 51
180.0
  0
LINE
  5
1E2
  8
__
  6
CONTINUOUS
 62
     7
 10
-1681.235446749619
 20
-514.5000000703037
 30
0.0
 11
-1674.683993749619
 21
-522.9667180703038
 31
0.0
  0
LINE
  5
1E3
  8
__
  6
CONTINUOUS
 62
     7
 10
-1681.235446749619
 20
-514.5000000703037
 30
0.0
 11
-1912.999999749619
 21
-522.7126109490359
 31
0.0
  0
ARC
  5
1E4
  8
__
  6
CONTINUOUS
 62
     7
 10
-1662.999999749619
 20
-1055.801083070304
 30
0.0
 40
20.0
 50
180.0
 51
264.9075219999991
  0
ARC
  5
1E5
  8
__
  6
CONTINUOUS
 62
     7
 10
-1662.999999749619
 20
-1055.801083070304
 30
0.0
 40
20.0
 50
180.0
 51
264.9075219999991
  0
LINE
  5
1E6
  8
__
  6
CONTINUOUS
 62
     7
 10
-1664.775270749619
 20
-1075.722138070304
 30
0.0
 11
-1586.999999749619
 21
-1082.653104070304
 31
0.0
  0
ARC
  5
1E7
  8
__
  6
CONTINUOUS
 62
     7
 10
-1662.999999749619
 20
-1055.801083070304
 30
0.0
 40
20.0
 50
180.0
 51
264.9075219999991
  0
LINE
  5
1E8
  8
__
  6
CONTINUOUS
 62
     7
 10
-1681.235446749619
 20
-1080.500000070304
 30
0.0
 11
-1674.683993749619
 21
-1072.033282070304
 31
0.0
  0
LINE
  5
1E9
  8
__
  6
CONTINUOUS
 62
     7
 10
-1681.235446749619
 20
-1080.500000070304
 30
0.0
 11
-1912.999999749619
 21
-1072.287389191571
 31
0.0
  0
LINE
  5
1EA
  8
__
  6
CONTINUOUS
 62
     7
 10
-1661.775270749619
 20
-1072.977595070304
 30
0.0
 11
-1586.999999743661
 21
-1079.641215469583
 31
0.0
  0
ARC
  5
1EB
  8
__
  6
CONTINUOUS
 62
     7
 10
-1659.999999749619
 20
-1053.056540070304
 30
0.0
 40
20.0
 50
180.0
 51
264.9075219999991
  0
LINE
  5
1EC
  8
__
  6
CONTINUOUS
 62
     7
 10
-1679.999999749619
 20
-1053.056540070304
 30
0.0
 11
-1679.999999749619
 21
-541.9434600703037
 31
0.0
  0
LINE
  5
1ED
  8
__
  6
CONTINUOUS
 62
     7
 10
-1682.999999749619
 20
-539.1989170703039
 30
0.0
 11
-1682.999999749619
 21
-1055.801083070304
 31
0.0
  0
LINE
  5
1EE
  8
__
  6
CONTINUOUS
 62
     7
 10
-1682.999999749619
 20
-1022.500000070304
 30
0.0
 11
-1787.561715749619
 21
-1006.413582070304
 31
0.0
  0
ARC
  5
1EF
  8
__
  6
CONTINUOUS
 62
     7
 10
-1782.999999749619
 20
-976.7624310703038
 30
0.0
 40
30.0
 50
180.0
 51
261.253838
  0
LINE
  5
1F0
  8
__
  6
CONTINUOUS
 62
     7
 10
-1682.999999749619
 20
-572.5000000703037
 30
0.0
 11
-1787.561715749619
 21
-588.5864180703036
 31
0.0
  0
ARC
  5
1F1
  8
__
  6
CONTINUOUS
 62
     7
 10
-1782.999999749619
 20
-618.2375690703036
 30
0.0
 40
30.00000000000021
 50
98.74616200000006
 51
180.0
  0
LINE
  5
1F2
  8
__
  6
CONTINUOUS
 62
     7
 10
-1812.999999749619
 20
-618.2375690703036
 30
0.0
 11
-1812.999999749619
 21
-976.7624310703038
 31
0.0
  0
LINE
  5
1F3
  8
__
  6
CONTINUOUS
 62
     7
 10
-1661.242688749619
 20
-527.9987220703035
 30
0.0
 11
-1586.999999258743
 21
-521.382562742148
 31
0.0
  0
LINE
  5
1F4
  8
__
  6
CONTINUOUS
 62
     7
 10
-1673.999999749619
 20
-1053.056540070304
 30
0.0
 11
-1673.999999749619
 21
-541.9434600703037
 31
0.0
  0
LINE
  5
1F5
  8
__
  6
CONTINUOUS
 62
     7
 10
-1661.242688749619
 20
-527.9987220703035
 30
0.0
 11
-1673.999999749619
 21
-541.9434600703037
 31
0.0
  0
LINE
  5
1F6
  8
__
  6
CONTINUOUS
 62
     7
 10
-1661.242688749619
 20
-1067.001278070304
 30
0.0
 11
-1586.999999738428
 21
-1073.617437355712
 31
0.0
  0
LINE
  5
1F7
  8
__
  6
CONTINUOUS
 62
     7
 10
-1661.242688749619
 20
-1067.001278070304
 30
0.0
 11
-1673.999999749619
 21
-1053.056540070304
 31
0.0
  0
LINE
  5
1F8
  8
__
  6
CONTINUOUS
 62
     7
 10
-1912.999999749619
 20
-556.9336180703037
 30
0.0
 11
-1913.000000250381
 21
-510.0000007079614
 31
0.0
  0
LINE
  5
1F9
  8
__
  6
CONTINUOUS
 62
     7
 10
-1819.883065749619
 20
-551.7207860703036
 30
0.0
 11
-1908.678605749619
 21
-554.8672690703036
 31
0.0
  0
LINE
  5
1FA
  8
__
  6
CONTINUOUS
 62
     7
 10
-1908.775149749619
 20
-579.1188430703039
 30
0.0
 11
-1819.823864749619
 21
-567.2858020703036
 31
0.0
  0
ARC
  5
1FB
  8
__
  6
CONTINUOUS
 62
     7
 10
-1814.787868749618
 20
-559.0985090703036
 30
0.0
 40
12.50000000000014
 50
282.6149949999984
 51
86.14367900000047
  0
LINE
  5
1FC
  8
__
  6
CONTINUOUS
 62
     7
 10
-1912.999999749619
 20
-550.0172600703038
 30
0.0
 11
-1813.951414749619
 21
-546.5074590703036
 31
0.0
  0
LINE
  5
1FD
  8
__
  6
CONTINUOUS
 62
     7
 10
-1912.999999710006
 20
-584.7249145426424
 30
0.0
 11
-1812.057885710007
 21
-571.2967545426425
 31
0.0
  0
ARC
  5
1FE
  8
__
  6
CONTINUOUS
 62
     7
 10
-1825.222041749619
 20
-1038.521402070304
 30
0.0
 40
10.99999999999993
 50
336.2875089999998
 51
25.14640499999825
  0
LINE
  5
1FF
  8
__
  6
CONTINUOUS
 62
     7
 10
-1815.150717749618
 20
-1042.945023070304
 30
0.0
 11
-1815.505484749619
 21
-1043.494482070304
 31
0.0
  0
ARC
  5
200
  8
__
  6
CONTINUOUS
 62
     7
 10
-1819.706001749619
 20
-1040.782350070304
 30
0.0
 40
4.999999999999901
 50
267.9705649999962
 51
327.1510340000004
  0
LINE
  5
201
  8
__
  6
CONTINUOUS
 62
     7
 10
-1815.264567749619
 20
-1033.847142070304
 30
0.0
 11
-1816.437865749619
 21
-1032.231949070304
 31
0.0
  0
ARC
  5
202
  8
__
  6
CONTINUOUS
 62
     7
 10
-1820.483197749619
 20
-1035.170535070304
 30
0.0
 40
5.000000000000019
 50
35.99517199999856
 51
82.42252700000574
  0
LINE
  5
203
  8
__
  6
CONTINUOUS
 62
     7
 10
-1913.913504749619
 20
-1039.445349070304
 30
0.0
 11
-1913.125746749619
 21
-1040.416436070304
 31
0.0
  0
ARC
  5
204
  8
__
  6
CONTINUOUS
 62
     7
 10
-1908.466128749619
 20
-1036.636495070304
 30
0.0
 40
5.999999999999906
 50
219.0493989999987
 51
267.970565000001
  0
LINE
  5
205
  8
__
  6
CONTINUOUS
 62
     7
 10
-1819.883065749619
 20
-1045.779214070304
 30
0.0
 11
-1908.678605749619
 21
-1042.632731070304
 31
0.0
  0
LINE
  5
206
  8
__
  6
CONTINUOUS
 62
     7
 10
-1914.444628749619
 20
-1020.835569070304
 30
0.0
 11
-1914.325516749619
 21
-1020.669229070304
 31
0.0
  0
ARC
  5
207
  8
__
  6
CONTINUOUS
 62
     7
 10
-1909.566349749619
 20
-1024.328761070304
 30
0.0
 40
6.00000000000017
 50
82.4225270000006
 51
144.3946649999991
  0
LINE
  5
208
  8
__
  6
CONTINUOUS
 62
     7
 10
-1908.775149749619
 20
-1018.381157070304
 30
0.0
 11
-1819.823864749619
 21
-1030.214198070304
 31
0.0
  0
ARC
  5
209
  8
__
  6
CONTINUOUS
 62
     7
 10
-1898.766713749619
 20
-1029.720396070304
 30
0.0
 40
18.00000000000001
 50
150.4593519999998
 51
212.7023730000003
  0
ARC
  5
20A
  8
__
  6
CONTINUOUS
 62
     7
 10
-1814.787868749618
 20
-1038.401491070304
 30
0.0
 40
12.49999999999992
 50
273.8563209999995
 51
77.38500500000163
  0
LINE
  5
20B
  8
__
  6
CONTINUOUS
 62
     7
 10
-1912.999999749619
 20
-1047.482740070304
 30
0.0
 11
-1813.951414749619
 21
-1050.992541070304
 31
0.0
  0
LINE
  5
20C
  8
__
  6
CONTINUOUS
 62
     7
 10
-1912.999999749619
 20
-1012.775085070304
 30
0.0
 11
-1812.057885749619
 21
-1026.203245070304
 31
0.0
  0
LINE
  5
20D
  8
__
  6
CONTINUOUS
 62
     7
 10
-1912.999999749619
 20
-1084.001854653359
 30
0.0
 11
-1912.999999749619
 21
-1040.566382070304
 31
0.0
  0
LINE
  5
20E
  8
__
  6
CONTINUOUS
 62
     7
 10
-1913.913504749619
 20
-558.0546510703036
 30
0.0
 11
-1913.125746749619
 21
-557.0835640703037
 31
0.0
  0
ARC
  5
20F
  8
__
  6
CONTINUOUS
 62
     7
 10
-1908.466128749619
 20
-560.8635050703035
 30
0.0
 40
5.999999999999955
 50
92.02943499999903
 51
140.9506010000013
  0
LINE
  5
210
  8
__
  6
CONTINUOUS
 62
     7
 10
-1914.444628749619
 20
-576.6644310703039
 30
0.0
 11
-1914.325516749619
 21
-576.8307710703036
 31
0.0
  0
ARC
  5
211
  8
__
  6
CONTINUOUS
 62
     7
 10
-1909.566349749619
 20
-573.1712390703035
 30
0.0
 40
6.000000000000059
 50
215.6053350000009
 51
277.5774729999994
  0
ARC
  5
212
  8
__
  6
CONTINUOUS
 62
     7
 10
-1898.766713749619
 20
-567.7796040703035
 30
0.0
 40
18.00000000000018
 50
147.2976269999997
 51
209.5406480000002
  0
ARC
  5
213
  8
__
  6
CONTINUOUS
 62
     7
 10
-1825.222041749619
 20
-558.9785980703039
 30
0.0
 40
11.00000000000037
 50
334.8535950000017
 51
23.71249100000017
  0
LINE
  5
214
  8
__
  6
CONTINUOUS
 62
     7
 10
-1815.150717749618
 20
-554.5549770703035
 30
0.0
 11
-1815.505484749619
 21
-554.0055180703037
 31
0.0
  0
ARC
  5
215
  8
__
  6
CONTINUOUS
 62
     7
 10
-1819.706001749619
 20
-556.7176500703038
 30
0.0
 40
4.999999999999797
 50
32.84896599999954
 51
92.02943500000382
  0
LINE
  5
216
  8
__
  6
CONTINUOUS
 62
     7
 10
-1815.264567749619
 20
-563.6528580703036
 30
0.0
 11
-1816.437865749619
 21
-565.2680510703037
 31
0.0
  0
ARC
  5
217
  8
__
  6
CONTINUOUS
 62
     7
 10
-1820.483197749619
 20
-562.3294650703035
 30
0.0
 40
4.999999999999775
 50
277.5774729999943
 51
324.0048280000015
  0
LINE
  5
218
  8
__
  6
CONTINUOUS
 62
     7
 10
-1912.999999749619
 20
-1019.408391070304
 30
0.0
 11
-1912.999999749619
 21
-973.0000000703037
 31
0.0
  0
LINE
  5
219
  8
__
  6
CONTINUOUS
 62
     7
 10
-1912.999999749619
 20
-622.0000000703037
 30
0.0
 11
-1912.999999749619
 21
-578.0916090703038
 31
0.0
  0
LINE
  5
21A
  8
__
  6
CONTINUOUS
 62
     7
 10
-1912.999999749619
 20
-622.0000000703037
 30
0.0
 11
-1905.999999749619
 21
-634.0000000703037
 31
0.0
  0
LINE
  5
21B
  8
__
  6
CONTINUOUS
 62
     7
 10
-1905.999999749619
 20
-961.0000000703037
 30
0.0
 11
-1905.999999749619
 21
-634.0000000703037
 31
0.0
  0
LINE
  5
21C
  8
__
  6
CONTINUOUS
 62
     7
 10
-1912.999999749619
 20
-973.0000000703037
 30
0.0
 11
-1905.999999749619
 21
-961.0000000703037
 31
0.0
  0
LINE
  5
21D
  8
__
  6
CONTINUOUS
 62
     7
 10
-1812.999999749619
 20
-651.1823760703039
 30
0.0
 11
-1783.999999749619
 21
-646.7208380703039
 31
0.0
  0
LINE
  5
21E
  8
__
  6
CONTINUOUS
 62
     7
 10
-1812.999999749619
 20
-943.8176240703035
 30
0.0
 11
-1783.999999749619
 21
-948.2791620703035
 31
0.0
  0
LINE
  5
21F
  8
__
  6
CONTINUOUS
 62
     7
 10
-1783.999999749619
 20
-1006.961538070304
 30
0.0
 11
-1783.999999749619
 21
-588.0384620703037
 31
0.0
  0
LINE
  5
220
  8
__
  6
CONTINUOUS
 62
     7
 10
-1739.846982749619
 20
-727.2111680703035
 30
0.0
 11
-1783.999999749619
 21
-707.5000000703037
 31
0.0
  0
ARC
  5
221
  8
__
  6
CONTINUOUS
 62
     7
 10
-1747.999999749619
 20
-745.4739260703038
 30
0.0
 40
20.0
 50
0.0
 51
65.94265100000003
  0
LINE
  5
222
  8
__
  6
CONTINUOUS
 62
     7
 10
-1739.846982749619
 20
-867.7888320703039
 30
0.0
 11
-1783.999999749619
 21
-887.5000000703037
 31
0.0
  0
ARC
  5
223
  8
__
  6
CONTINUOUS
 62
     7
 10
-1747.999999749619
 20
-849.5260740703036
 30
0.0
 40
19.99999999999997
 50
294.057349
 51
0.0
  0
LINE
  5
224
  8
__
  6
CONTINUOUS
 62
     7
 10
-1727.999999749619
 20
-745.4739260703038
 30
0.0
 11
-1727.999999749619
 21
-849.5260740703036
 31
0.0
  0
LINE
  5
225
  8
__
  6
CONTINUOUS
 62
     7
 10
-1846.153016749619
 20
-727.2111680703035
 30
0.0
 11
-1814.767061749619
 21
-707.5000000703037
 31
0.0
  0
ARC
  5
226
  8
__
  6
CONTINUOUS
 62
     7
 10
-1837.999999749619
 20
-745.4739260703038
 30
0.0
 40
19.99999999999997
 50
114.057349
 51
180.0
  0
LINE
  5
227
  8
__
  6
CONTINUOUS
 62
     7
 10
-1846.153016749619
 20
-867.7888320703039
 30
0.0
 11
-1814.767061749619
 21
-887.5000000703037
 31
0.0
  0
ARC
  5
228
  8
__
  6
CONTINUOUS
 62
     7
 10
-1837.999999749619
 20
-849.5260740703036
 30
0.0
 40
20.0
 50
180.0
 51
245.942651
  0
LINE
  5
229
  8
__
  6
CONTINUOUS
 62
     7
 10
-1857.999999749619
 20
-745.4739260703038
 30
0.0
 11
-1857.999999749619
 21
-849.5260740703036
 31
0.0
  0
ARC
  5
22A
  8
__
  6
CONTINUOUS
 62
     7
 10
-1837.999999749619
 20
-745.7079440703039
 30
0.0
 40
15.00000000000018
 50
122.1298539999996
 51
180.0
  0
LINE
  5
22B
  8
__
  6
CONTINUOUS
 62
     7
 10
-1845.977597749619
 20
-733.0052700703038
 30
0.0
 11
-1812.107862749619
 21
-711.7342250703039
 31
0.0
  0
LINE
  5
22C
  8
__
  6
CONTINUOUS
 62
     7
 10
-1741.885236749619
 20
-731.7768580703039
 30
0.0
 11
-1786.038253749619
 21
-712.0656890703037
 31
0.0
  0
ARC
  5
22D
  8
__
  6
CONTINUOUS
 62
     7
 10
-1747.999999749619
 20
-745.4739260703038
 30
0.0
 40
15.0
 50
0.0
 51
65.94265099999984
  0
LINE
  5
22E
  8
__
  6
CONTINUOUS
 62
     7
 10
-1732.999999749619
 20
-745.4739260703038
 30
0.0
 11
-1732.999999749619
 21
-849.5260740703036
 31
0.0
  0
ARC
  5
22F
  8
__
  6
CONTINUOUS
 62
     7
 10
-1747.999999749619
 20
-849.5260740703036
 30
0.0
 40
14.99999999999988
 50
294.0573490000002
 51
0.0
  0
LINE
  5
230
  8
__
  6
CONTINUOUS
 62
     7
 10
-1741.885236749619
 20
-863.2231420703035
 30
0.0
 11
-1786.038253749619
 21
-882.9343110703037
 31
0.0
  0
LINE
  5
231
  8
__
  6
CONTINUOUS
 62
     7
 10
-1845.977597749619
 20
-861.9947300703036
 30
0.0
 11
-1812.107862749619
 21
-883.2657750703036
 31
0.0
  0
ARC
  5
232
  8
__
  6
CONTINUOUS
 62
     7
 10
-1837.999999749619
 20
-849.2920560703035
 30
0.0
 40
15.0
 50
180.0
 51
237.8701460000003
  0
LINE
  5
233
  8
__
  6
CONTINUOUS
 62
     7
 10
-1852.999999749619
 20
-745.7079440703039
 30
0.0
 11
-1852.999999749619
 21
-849.2920560703035
 31
0.0
  0
ARC
  5
234
  8
__
  6
CONTINUOUS
 62
     7
 10
-1280.346686
 20
-978.5000000703037
 30
0.0
 40
100.0000000000001
 50
265.0564989999999
 51
270.0
  0
ARC
  5
235
  8
__
  6
CONTINUOUS
 62
     7
 10
-1280.510084
 20
-981.5000000703037
 30
0.0
 40
100.0000000000001
 50
264.8583879999999
 51
270.0
  0
ARC
  5
236
  8
__
  6
CONTINUOUS
 62
     7
 10
-1281.226281
 20
-987.5000000703037
 30
0.0
 40
100.0
 50
264.9075219999999
 51
270.0
  0
ARC
  5
237
  8
__
  6
CONTINUOUS
 62
     7
 10
-1118.773719
 20
-987.5000000703037
 30
0.0
 40
100.0
 50
270.0
 51
275.0924779999999
  0
LINE
  5
238
  8
__
  6
CONTINUOUS
 62
     7
 10
-1280.510084
 20
-1081.500000070304
 30
0.0
 11
-1119.489916
 21
-1081.500000070304
 31
0.0
  0
ARC
  5
239
  8
__
  6
CONTINUOUS
 62
     7
 10
-1119.489916
 20
-981.5000000703037
 30
0.0
 40
100.0
 50
270.0
 51
275.1416120000001
  0
LINE
  5
23A
  8
__
  6
CONTINUOUS
 62
     7
 10
-1280.346686
 20
-1078.500000070304
 30
0.0
 11
-1119.653314
 21
-1078.500000070304
 31
0.0
  0
ARC
  5
23B
  8
__
  6
CONTINUOUS
 62
     7
 10
-1119.653314
 20
-978.5000000703037
 30
0.0
 40
100.0
 50
270.0
 51
274.943501
  0
ARC
  5
23C
  8
__
  6
CONTINUOUS
 62
     7
 10
-1119.653314
 20
-616.5000000703037
 30
0.0
 40
100.0000000000001
 50
85.05649899999996
 51
90.0
  0
ARC
  5
23D
  8
__
  6
CONTINUOUS
 62
     7
 10
-1119.489916
 20
-613.5000000703037
 30
0.0
 40
100.0000000000001
 50
84.85838799999996
 51
90.0
  0
ARC
  5
23E
  8
__
  6
CONTINUOUS
 62
     7
 10
-1118.773719
 20
-609.9999999609283
 30
0.0
 40
99.99999999999996
 50
84.90752200000011
 51
90.0
  0
ARC
  5
23F
  8
__
  6
CONTINUOUS
 62
     7
 10
-1281.141942
 20
-609.9999999609283
 30
0.0
 40
100.0
 50
90.0
 51
95.18892899999996
  0
ARC
  5
240
  8
__
  6
CONTINUOUS
 62
     7
 10
-1280.510084
 20
-613.5000000703037
 30
0.0
 40
100.0
 50
90.0
 51
95.14161200000004
  0
LINE
  5
241
  8
__
  6
CONTINUOUS
 62
     7
 10
-1280.510084
 20
-513.5000000703037
 30
0.0
 11
-1119.489916
 21
-513.5000000703037
 31
0.0
  0
ARC
  5
242
  8
__
  6
CONTINUOUS
 62
     7
 10
-1280.346686
 20
-616.5000000703037
 30
0.0
 40
100.0
 50
90.0
 51
94.94350100000005
  0
LINE
  5
243
  8
__
  6
CONTINUOUS
 62
     7
 10
-1280.346686
 20
-516.5000000703037
 30
0.0
 11
-1119.653314
 21
-516.5000000703037
 31
0.0
  0
LINE
  5
244
  8
__
  6
CONTINUOUS
 62
     7
 10
-1277.6
 20
-532.5000000703037
 30
0.0
 11
-1122.4
 21
-532.5000000703037
 31
0.0
  0
LINE
  5
245
  8
__
  6
CONTINUOUS
 62
     7
 10
-1277.6
 20
-1062.500000070304
 30
0.0
 11
-1122.4
 21
-1062.500000070304
 31
0.0
  0
LINE
  5
246
  8
__
  6
CONTINUOUS
 62
     7
 10
-1277.6
 20
-532.5000000703037
 30
0.0
 11
-1287.6
 21
-522.7764050703038
 31
0.0
  0
LINE
  5
247
  8
__
  6
CONTINUOUS
 62
     7
 10
-1277.6
 20
-1062.500000070304
 30
0.0
 11
-1287.6
 21
-1072.223595070304
 31
0.0
  0
LINE
  5
248
  8
__
  6
CONTINUOUS
 62
     7
 10
-1122.4
 20
-532.5000000703037
 30
0.0
 11
-1112.4
 21
-522.7764050703038
 31
0.0
  0
LINE
  5
249
  8
__
  6
CONTINUOUS
 62
     7
 10
-1122.4
 20
-1062.500000070304
 30
0.0
 11
-1112.4
 21
-1072.223595070304
 31
0.0
  0
LINE
  5
24A
  8
__
  6
CONTINUOUS
 62
     7
 10
-1290.0
 20
-485.9999999609283
 30
0.0
 11
-1110.0
 21
-485.9999999609283
 31
0.0
  0
LINE
  5
24B
  8
__
  6
CONTINUOUS
 62
     7
 10
-1352.012386
 20
-1109.999999929696
 30
0.0
 11
-1352.012386
 21
-490.0000000703037
 31
0.0
  0
LINE
  5
24C
  8
__
  6
CONTINUOUS
 62
     7
 10
-1047.987614
 20
-1109.999999929696
 30
0.0
 11
-1047.987614
 21
-490.0000000703037
 31
0.0
  0
LINE
  5
24D
  8
__
  6
CONTINUOUS
 62
     7
 10
-1373.929727
 20
-1120.000000070304
 30
0.0
 11
-1373.929727
 21
-1110.000000070304
 31
0.0
  0
LINE
  5
24E
  8
__
  6
CONTINUOUS
 62
     7
 10
-1295.00632
 20
-1110.000000070304
 30
0.0
 11
-1295.00632
 21
-1120.000000070304
 31
0.0
  0
LINE
  5
24F
  8
__
  6
CONTINUOUS
 62
     7
 10
-1104.99368
 20
-1110.000000070304
 30
0.0
 11
-1104.99368
 21
-1120.000000070304
 31
0.0
  0
LINE
  5
250
  8
__
  6
CONTINUOUS
 62
     7
 10
-1353.929727
 20
-1110.000000070304
 30
0.0
 11
-1353.929727
 21
-1120.000000070304
 31
0.0
  0
LINE
  5
251
  8
__
  6
CONTINUOUS
 62
     7
 10
-1046.070273
 20
-1110.000000070304
 30
0.0
 11
-1046.070273
 21
-1120.000000070304
 31
0.0
  0
LINE
  5
252
  8
__
  6
CONTINUOUS
 62
     7
 10
-1281.226281
 20
-1087.500000070304
 30
0.0
 11
-1118.773719
 21
-1087.500000070304
 31
0.0
  0
LINE
  5
253
  8
__
  6
CONTINUOUS
 62
     7
 10
-1281.141942
 20
-509.9999999609283
 30
0.0
 11
-1118.773719
 21
-509.9999999609283
 31
0.0
  0
LINE
  5
254
  8
__
  6
CONTINUOUS
 62
     7
 10
-1026.170273
 20
-1120.000000070304
 30
0.0
 11
-1026.170273
 21
-1110.000000070304
 31
0.0
  0
LINE
  5
255
  8
__
  6
CONTINUOUS
 62
     7
 10
-1373.929727
 20
-1120.000000070304
 30
0.0
 11
-1026.170273
 21
-1120.000000070304
 31
0.0
  0
LINE
  5
256
  8
__
  6
CONTINUOUS
 62
     7
 10
-1390.0
 20
-1069.388898026252
 30
0.0
 11
-1288.964022
 21
-1078.128016070304
 31
0.0
  0
LINE
  5
257
  8
__
  6
CONTINUOUS
 62
     7
 10
-1289.47185
 20
-1081.097624070304
 30
0.0
 11
-1393.0
 21
-1071.782190182541
 31
0.0
  0
LINE
  5
258
  8
__
  6
CONTINUOUS
 62
     7
 10
-1289.47185
 20
-513.9023760703037
 30
0.0
 11
-1393.0
 21
-523.2178099580667
 31
0.0
  0
LINE
  5
259
  8
__
  6
CONTINUOUS
 62
     7
 10
-1390.0
 20
-525.6111021143553
 30
0.0
 11
-1288.964022
 21
-516.8719840703036
 31
0.0
  0
LINE
  5
25A
  8
__
  6
CONTINUOUS
 62
     7
 10
-1390.0
 20
-531.6335045478909
 30
0.0
 11
-1287.6
 21
-522.7764050703038
 31
0.0
  0
LINE
  5
25B
  8
__
  6
CONTINUOUS
 62
     7
 10
-1390.0
 20
-1063.366495592717
 30
0.0
 11
-1287.6
 21
-1072.223595070304
 31
0.0
  0
LINE
  5
25C
  8
__
  6
CONTINUOUS
 62
     7
 10
-1393.0
 20
-1077.935543952334
 30
0.0
 11
-1290.102634
 21
-1087.105273070304
 31
0.0
  0
LINE
  5
25D
  8
__
  6
CONTINUOUS
 62
     7
 10
-1393.000000834429
 20
-519.7465900636295
 30
0.0
 11
-1290.185956834428
 21
-510.4098107067923
 31
0.0
  0
LINE
  5
25E
  8
__
  6
CONTINUOUS
 62
     7
 10
-1382.913352944071
 20
-1109.999999929696
 30
0.0
 11
-1017.086647055929
 21
-1109.999999929696
 31
0.0
  0
LINE
  5
25F
  8
__
  6
CONTINUOUS
 62
     7
 10
-1110.52815
 20
-1081.097624070304
 30
0.0
 11
-1007.0
 21
-1071.773148543059
 31
0.0
  0
LINE
  5
260
  8
__
  6
CONTINUOUS
 62
     7
 10
-1010.0
 20
-1069.380205498246
 30
0.0
 11
-1111.035978
 21
-1078.128016070304
 31
0.0
  0
LINE
  5
261
  8
__
  6
CONTINUOUS
 62
     7
 10
-1010.0
 20
-525.6197946423615
 30
0.0
 11
-1111.035978
 21
-516.8719840703036
 31
0.0
  0
LINE
  5
262
  8
__
  6
CONTINUOUS
 62
     7
 10
-1110.52815
 20
-513.9023760703037
 30
0.0
 11
-1007.0
 21
-523.2268515975485
 31
0.0
  0
LINE
  5
263
  8
__
  6
CONTINUOUS
 62
     7
 10
-1010.0
 20
-531.6422408281076
 30
0.0
 11
-1112.4
 21
-522.7764050703038
 31
0.0
  0
LINE
  5
264
  8
__
  6
CONTINUOUS
 62
     7
 10
-1010.0
 20
-1063.3577593125
 30
0.0
 11
-1112.4
 21
-1072.223595070304
 31
0.0
  0
LINE
  5
265
  8
__
  6
CONTINUOUS
 62
     7
 10
-1382.999999813124
 20
-490.0000000703037
 30
0.0
 11
-1017.000000186876
 21
-490.0000000703037
 31
0.0
  0
LINE
  5
266
  8
__
  6
CONTINUOUS
 62
     7
 10
-1007.0
 20
-1077.926588908395
 30
0.0
 11
-1109.897366
 21
-1087.105273070304
 31
0.0
  0
LINE
  5
267
  8
__
  6
CONTINUOUS
 62
     7
 10
-1006.999999782213
 20
-519.5734114032009
 30
0.0
 11
-1109.897365782213
 21
-510.3947272412922
 31
0.0
  0
LINE
  5
268
  8
__
  6
CONTINUOUS
 62
     7
 10
-1209.0
 20
-1097.500000070304
 30
0.0
 11
-1191.0
 21
-1097.500000070304
 31
0.0
  0
LINE
  5
269
  8
__
  6
CONTINUOUS
 62
     7
 10
-1209.0
 20
-1092.500000070304
 30
0.0
 11
-1191.0
 21
-1092.500000070304
 31
0.0
  0
ARC
  5
26A
  8
__
  6
CONTINUOUS
 62
     7
 10
-1191.0
 20
-1095.000000070304
 30
0.0
 40
2.5
 50
270.0
 51
90.0
  0
ARC
  5
26B
  8
__
  6
CONTINUOUS
 62
     7
 10
-1209.0
 20
-1095.000000070304
 30
0.0
 40
2.5
 50
90.0
 51
270.0
  0
ARC
  5
26C
  8
__
  6
CONTINUOUS
 62
     7
 10
-611.9776533976753
 20
-509.9888270703038
 30
0.0
 40
24.97765600000011
 50
359.974369
 51
53.15573300000011
  0
ARC
  5
26D
  8
__
  6
CONTINUOUS
 62
     7
 10
-888.0223469162108
 20
-509.9888270703038
 30
0.0
 40
24.9776559999998
 50
126.8442669999999
 51
180.025631
  0
ARC
  5
26E
  8
__
  6
CONTINUOUS
 62
     7
 10
-626.1057873976754
 20
-1083.882390070304
 30
0.0
 40
39.10596299999999
 50
318.0972940000001
 51
359.8276839999997
  0
ARC
  5
26F
  8
__
  6
CONTINUOUS
 62
     7
 10
-873.8942137738967
 20
-1083.882897701135
 30
0.0
 40
39.1059629999999
 50
180.1723160000003
 51
221.9027059999999
  0
LINE
  5
270
  8
__
  6
CONTINUOUS
 62
     7
 10
-903.0000000953477
 20
-1110.000507560527
 30
0.0
 11
-597.0000010762244
 21
-1109.999999929696
 31
0.0
  0
LINE
  5
271
  8
__
  6
CONTINUOUS
 62
     7
 10
-912.9999999183818
 20
-1084.000504248
 30
0.0
 11
-913.0000004169735
 21
-510.0000007079614
 31
0.0
  0
ARC
  5
272
  8
__
  6
CONTINUOUS
 62
     7
 10
-750.0
 20
-536.0000000703037
 30
0.0
 40
49.99999999999982
 50
73.73979500000003
 51
106.260205
  0
LINE
  5
273
  8
__
  6
CONTINUOUS
 62
     7
 10
-736.0
 20
-490.0000000703037
 30
0.0
 11
-736.0
 21
-488.0000000703037
 31
0.0
  0
LINE
  5
274
  8
__
  6
CONTINUOUS
 62
     7
 10
-764.0
 20
-490.0000000703037
 30
0.0
 11
-764.0
 21
-488.0000000703037
 31
0.0
  0
LINE
  5
275
  8
__
  6
CONTINUOUS
 62
     7
 10
-893.2300149162108
 20
-1120.000000070304
 30
0.0
 11
-893.2300149162108
 21
-1110.000000070304
 31
0.0
  0
LINE
  5
276
  8
__
  6
CONTINUOUS
 62
     7
 10
-640.3758359162105
 20
-1120.000000070304
 30
0.0
 11
-640.3758359162105
 21
-1110.000000070304
 31
0.0
  0
LINE
  5
277
  8
__
  6
CONTINUOUS
 62
     7
 10
-889.6858319162109
 20
-1110.000000070304
 30
0.0
 11
-889.6858319162109
 21
-1120.000000070304
 31
0.0
  0
LINE
  5
278
  8
__
  6
CONTINUOUS
 62
     7
 10
-869.7095279162106
 20
-1110.000000070304
 30
0.0
 11
-869.7095279162106
 21
-1120.000000070304
 31
0.0
  0
LINE
  5
279
  8
__
  6
CONTINUOUS
 62
     7
 10
-804.9834409162106
 20
-1110.000000070304
 30
0.0
 11
-804.9834409162106
 21
-1120.000000070304
 31
0.0
  0
LINE
  5
27A
  8
__
  6
CONTINUOUS
 62
     7
 10
-893.2300149162108
 20
-1120.000000070304
 30
0.0
 11
-869.7095279162106
 21
-1120.000000070304
 31
0.0
  0
LINE
  5
27B
  8
__
  6
CONTINUOUS
 62
     7
 10
-804.9834409162106
 20
-1120.000000070304
 30
0.0
 11
-640.3758359162105
 21
-1120.000000070304
 31
0.0
  0
LINE
  5
27C
  8
__
  6
CONTINUOUS
 62
     7
 10
-901.0498959162107
 20
-1110.000000070304
 30
0.0
 11
-901.0498959162107
 21
-490.0000000703037
 31
0.0
  0
LINE
  5
27D
  8
__
  6
CONTINUOUS
 62
     7
 10
-861.3022719162107
 20
-1110.000000070304
 30
0.0
 11
-861.3022719162107
 21
-490.0000000703037
 31
0.0
  0
LINE
  5
27E
  8
__
  6
CONTINUOUS
 62
     7
 10
-700.6164689162108
 20
-1110.000165201649
 30
0.0
 11
-700.6164689162108
 21
-490.0000000703037
 31
0.0
  0
ARC
  5
27F
  8
__
  6
CONTINUOUS
 62
     7
 10
-839.9999999162108
 20
-541.9434600703037
 30
0.0
 40
20.0
 50
0.0
 51
84.90752200000037
  0
LINE
  5
280
  8
__
  6
CONTINUOUS
 62
     7
 10
-597.0000000837892
 20
-490.0000001796791
 30
0.0
 11
-902.9999999162108
 21
-490.0000000703037
 31
0.0
  0
ARC
  5
281
  8
__
  6
CONTINUOUS
 62
     7
 10
-836.9999999162108
 20
-539.1989170703039
 30
0.0
 40
20.0
 50
0.0
 51
84.90752200000037
  0
ARC
  5
282
  8
__
  6
CONTINUOUS
 62
     7
 10
-836.9999999162108
 20
-539.1989170703039
 30
0.0
 40
20.0
 50
0.0
 51
84.90752200000037
  0
LINE
  5
283
  8
__
  6
CONTINUOUS
 62
     7
 10
-838.2247289162108
 20
-522.0224050703039
 30
0.0
 11
-913.0000004123187
 21
-515.3587846273449
 31
0.0
  0
LINE
  5
284
  8
__
  6
CONTINUOUS
 62
     7
 10
-835.2247289162108
 20
-519.2778620703036
 30
0.0
 11
-912.9999999162108
 21
-512.3468960703037
 31
0.0
  0
ARC
  5
285
  8
__
  6
CONTINUOUS
 62
     7
 10
-836.9999999162108
 20
-539.1989170703039
 30
0.0
 40
20.0
 50
0.0
 51
84.90752200000037
  0
LINE
  5
286
  8
__
  6
CONTINUOUS
 62
     7
 10
-818.7645529162107
 20
-514.5000000703037
 30
0.0
 11
-825.3160059162108
 21
-522.9667180703038
 31
0.0
  0
LINE
  5
287
  8
__
  6
CONTINUOUS
 62
     7
 10
-818.7645529162107
 20
-514.5000000703037
 30
0.0
 11
-587.0000003976754
 21
-522.7126109319752
 31
0.0
  0
ARC
  5
288
  8
__
  6
CONTINUOUS
 62
     7
 10
-836.9999999162108
 20
-1055.801083070304
 30
0.0
 40
20.00000000000007
 50
275.0924779999996
 51
0.0
  0
ARC
  5
289
  8
__
  6
CONTINUOUS
 62
     7
 10
-836.9999999162108
 20
-1055.801083070304
 30
0.0
 40
20.00000000000007
 50
275.0924779999996
 51
0.0
  0
LINE
  5
28A
  8
__
  6
CONTINUOUS
 62
     7
 10
-835.2247289162108
 20
-1075.722138070304
 30
0.0
 11
-912.9999999162108
 21
-1082.653104070304
 31
0.0
  0
ARC
  5
28B
  8
__
  6
CONTINUOUS
 62
     7
 10
-836.9999999162108
 20
-1055.801083070304
 30
0.0
 40
20.00000000000007
 50
275.0924779999996
 51
0.0
  0
LINE
  5
28C
  8
__
  6
CONTINUOUS
 62
     7
 10
-818.7645529162107
 20
-1080.500000070304
 30
0.0
 11
-825.3160059162108
 21
-1072.033282070304
 31
0.0
  0
LINE
  5
28D
  8
__
  6
CONTINUOUS
 62
     7
 10
-818.7645529162107
 20
-1080.500000070304
 30
0.0
 11
-587.0000003976754
 21
-1072.287389208632
 31
0.0
  0
LINE
  5
28E
  8
__
  6
CONTINUOUS
 62
     7
 10
-838.2247289162108
 20
-1072.977595070304
 30
0.0
 11
-912.9999999221685
 21
-1079.641215469583
 31
0.0
  0
ARC
  5
28F
  8
__
  6
CONTINUOUS
 62
     7
 10
-839.9999999162108
 20
-1053.056540070304
 30
0.0
 40
20.00000000000007
 50
275.0924779999996
 51
0.0
  0
LINE
  5
290
  8
__
  6
CONTINUOUS
 62
     7
 10
-819.9999999162108
 20
-1053.056540070304
 30
0.0
 11
-819.9999999162108
 21
-541.9434600703037
 31
0.0
  0
LINE
  5
291
  8
__
  6
CONTINUOUS
 62
     7
 10
-816.9999999162108
 20
-539.1989170703039
 30
0.0
 11
-816.9999999162108
 21
-1055.801083070304
 31
0.0
  0
LINE
  5
292
  8
__
  6
CONTINUOUS
 62
     7
 10
-816.9999999162108
 20
-1022.500000070304
 30
0.0
 11
-712.4382839162106
 21
-1006.413582070304
 31
0.0
  0
ARC
  5
293
  8
__
  6
CONTINUOUS
 62
     7
 10
-716.9999999162108
 20
-976.7624310703038
 30
0.0
 40
30.00000000000021
 50
278.746162
 51
0.0
  0
LINE
  5
294
  8
__
  6
CONTINUOUS
 62
     7
 10
-816.9999999162108
 20
-572.5000000703037
 30
0.0
 11
-712.4382839162106
 21
-588.5864180703036
 31
0.0
  0
ARC
  5
295
  8
__
  6
CONTINUOUS
 62
     7
 10
-716.9999999162108
 20
-618.2375690703036
 30
0.0
 40
30.0
 50
0.0
 51
81.25383799999997
  0
LINE
  5
296
  8
__
  6
CONTINUOUS
 62
     7
 10
-686.9999999162108
 20
-618.2375690703036
 30
0.0
 11
-686.9999999162108
 21
-976.7624310703038
 31
0.0
  0
LINE
  5
297
  8
__
  6
CONTINUOUS
 62
     7
 10
-838.7573109162106
 20
-527.9987220703035
 30
0.0
 11
-913.0000004070862
 21
-521.382562742148
 31
0.0
  0
LINE
  5
298
  8
__
  6
CONTINUOUS
 62
     7
 10
-825.9999999162108
 20
-1053.056540070304
 30
0.0
 11
-825.9999999162108
 21
-541.9434600703037
 31
0.0
  0
LINE
  5
299
  8
__
  6
CONTINUOUS
 62
     7
 10
-838.7573109162106
 20
-527.9987220703035
 30
0.0
 11
-825.9999999162108
 21
-541.9434600703037
 31
0.0
  0
LINE
  5
29A
  8
__
  6
CONTINUOUS
 62
     7
 10
-838.7573109162106
 20
-1067.001278070304
 30
0.0
 11
-912.9999999274008
 21
-1073.617437355712
 31
0.0
  0
LINE
  5
29B
  8
__
  6
CONTINUOUS
 62
     7
 10
-838.7573109162106
 20
-1067.001278070304
 30
0.0
 11
-825.9999999162108
 21
-1053.056540070304
 31
0.0
  0
LINE
  5
29C
  8
__
  6
CONTINUOUS
 62
     7
 10
-587.0000003976754
 20
-556.9336180703037
 30
0.0
 11
-587.0000003976754
 21
-507.5000000703037
 31
0.0
  0
LINE
  5
29D
  8
__
  6
CONTINUOUS
 62
     7
 10
-680.1169343976755
 20
-551.7207860703036
 30
0.0
 11
-591.3213943976755
 21
-554.8672690703036
 31
0.0
  0
LINE
  5
29E
  8
__
  6
CONTINUOUS
 62
     7
 10
-591.2248503976755
 20
-579.1188430703039
 30
0.0
 11
-680.1761353976751
 21
-567.2858020703036
 31
0.0
  0
ARC
  5
29F
  8
__
  6
CONTINUOUS
 62
     7
 10
-685.2121313976752
 20
-559.0985090703036
 30
0.0
 40
12.49999999999992
 50
93.8563209999995
 51
257.3850049999996
  0
LINE
  5
2A0
  8
__
  6
CONTINUOUS
 62
     7
 10
-587.0000003976754
 20
-550.0172600703038
 30
0.0
 11
-686.0485853976754
 21
-546.5074590703036
 31
0.0
  0
LINE
  5
2A1
  8
__
  6
CONTINUOUS
 62
     7
 10
-587.0000003976754
 20
-584.7249150703035
 30
0.0
 11
-687.9421143976754
 21
-571.2967550703036
 31
0.0
  0
ARC
  5
2A2
  8
__
  6
CONTINUOUS
 62
     7
 10
-674.7779583976755
 20
-1038.521402070304
 30
0.0
 40
10.99999999999996
 50
154.8535950000007
 51
203.7124910000002
  0
LINE
  5
2A3
  8
__
  6
CONTINUOUS
 62
     7
 10
-684.8492823976756
 20
-1042.945023070304
 30
0.0
 11
-684.4945153976753
 21
-1043.494482070304
 31
0.0
  0
ARC
  5
2A4
  8
__
  6
CONTINUOUS
 62
     7
 10
-680.2939983976755
 20
-1040.782350070304
 30
0.0
 40
4.999999999999797
 50
212.8489659999996
 51
272.0294349999987
  0
LINE
  5
2A5
  8
__
  6
CONTINUOUS
 62
     7
 10
-684.7354323976754
 20
-1033.847142070304
 30
0.0
 11
-683.5621343976752
 21
-1032.231949070304
 31
0.0
  0
ARC
  5
2A6
  8
__
  6
CONTINUOUS
 62
     7
 10
-679.5168023976755
 20
-1035.170535070304
 30
0.0
 40
4.999999999999836
 50
97.57747299999943
 51
144.0048280000015
  0
LINE
  5
2A7
  8
__
  6
CONTINUOUS
 62
     7
 10
-586.0864953976754
 20
-1039.445349070304
 30
0.0
 11
-586.8742533976754
 21
-1040.416436070304
 31
0.0
  0
ARC
  5
2A8
  8
__
  6
CONTINUOUS
 62
     7
 10
-591.5338713976755
 20
-1036.636495070304
 30
0.0
 40
5.999999999999963
 50
272.0294350000012
 51
320.9506010000013
  0
LINE
  5
2A9
  8
__
  6
CONTINUOUS
 62
     7
 10
-680.1169343976755
 20
-1045.779214070304
 30
0.0
 11
-591.3213943976755
 21
-1042.632731070304
 31
0.0
  0
LINE
  5
2AA
  8
__
  6
CONTINUOUS
 62
     7
 10
-585.5553713976753
 20
-1020.835569070304
 30
0.0
 11
-585.6744833976752
 21
-1020.669229070304
 31
0.0
  0
ARC
  5
2AB
  8
__
  6
CONTINUOUS
 62
     7
 10
-590.4336503976754
 20
-1024.328761070304
 30
0.0
 40
6.000000000000059
 50
35.60533500000093
 51
97.57747300000152
  0
LINE
  5
2AC
  8
__
  6
CONTINUOUS
 62
     7
 10
-591.2248503976755
 20
-1018.381157070304
 30
0.0
 11
-680.1761353976751
 21
-1030.214198070304
 31
0.0
  0
ARC
  5
2AD
  8
__
  6
CONTINUOUS
 62
     7
 10
-601.2332863976756
 20
-1029.720396070304
 30
0.0
 40
17.99999999999999
 50
327.2976269999994
 51
29.54064799999987
  0
ARC
  5
2AE
  8
__
  6
CONTINUOUS
 62
     7
 10
-685.2121313976752
 20
-1038.401491070304
 30
0.0
 40
12.50000000000023
 50
102.6149950000004
 51
266.1436790000005
  0
LINE
  5
2AF
  8
__
  6
CONTINUOUS
 62
     7
 10
-587.0000003976754
 20
-1047.482740070304
 30
0.0
 11
-686.0485853976754
 21
-1050.992541070304
 31
0.0
  0
LINE
  5
2B0
  8
__
  6
CONTINUOUS
 62
     7
 10
-587.0000003976754
 20
-1012.775085070304
 30
0.0
 11
-687.9421143976754
 21
-1026.203245070304
 31
0.0
  0
LINE
  5
2B1
  8
__
  6
CONTINUOUS
 62
     7
 10
-587.0000003976754
 20
-1086.500000070304
 30
0.0
 11
-587.0000003976754
 21
-1040.566382070304
 31
0.0
  0
LINE
  5
2B2
  8
__
  6
CONTINUOUS
 62
     7
 10
-586.0864953976754
 20
-558.0546510703036
 30
0.0
 11
-586.8742533976754
 21
-557.0835640703037
 31
0.0
  0
ARC
  5
2B3
  8
__
  6
CONTINUOUS
 62
     7
 10
-591.5338713976755
 20
-560.8635050703035
 30
0.0
 40
5.999999999999906
 50
39.04939899999869
 51
87.9705649999988
  0
LINE
  5
2B4
  8
__
  6
CONTINUOUS
 62
     7
 10
-585.5553713976753
 20
-576.6644310703039
 30
0.0
 11
-585.6744833976752
 21
-576.8307710703036
 31
0.0
  0
ARC
  5
2B5
  8
__
  6
CONTINUOUS
 62
     7
 10
-590.4336503976754
 20
-573.1712390703035
 30
0.0
 40
6.000000000000199
 50
262.4225269999985
 51
324.3946649999991
  0
ARC
  5
2B6
  8
__
  6
CONTINUOUS
 62
     7
 10
-601.2332863976756
 20
-567.7796040703035
 30
0.0
 40
18.00000000000021
 50
330.4593520000001
 51
32.70237300000065
  0
ARC
  5
2B7
  8
__
  6
CONTINUOUS
 62
     7
 10
-674.7779583976755
 20
-558.9785980703039
 30
0.0
 40
10.99999999999993
 50
156.2875089999998
 51
205.1464049999993
  0
LINE
  5
2B8
  8
__
  6
CONTINUOUS
 62
     7
 10
-684.8492823976756
 20
-554.5549770703035
 30
0.0
 11
-684.4945153976753
 21
-554.0055180703037
 31
0.0
  0
ARC
  5
2B9
  8
__
  6
CONTINUOUS
 62
     7
 10
-680.2939983976755
 20
-556.7176500703038
 30
0.0
 40
4.999999999999885
 50
87.9705650000014
 51
147.1510340000005
  0
LINE
  5
2BA
  8
__
  6
CONTINUOUS
 62
     7
 10
-684.7354323976754
 20
-563.6528580703036
 30
0.0
 11
-683.5621343976752
 21
-565.2680510703037
 31
0.0
  0
ARC
  5
2BB
  8
__
  6
CONTINUOUS
 62
     7
 10
-679.5168023976755
 20
-562.3294650703035
 30
0.0
 40
5.000000000000019
 50
215.9951719999985
 51
262.4225270000006
  0
LINE
  5
2BC
  8
__
  6
CONTINUOUS
 62
     7
 10
-587.0000003976754
 20
-1019.408391070304
 30
0.0
 11
-587.0000003976754
 21
-973.0000000703037
 31
0.0
  0
LINE
  5
2BD
  8
__
  6
CONTINUOUS
 62
     7
 10
-587.0000003976754
 20
-622.0000000703037
 30
0.0
 11
-587.0000003976754
 21
-578.0916090703038
 31
0.0
  0
LINE
  5
2BE
  8
__
  6
CONTINUOUS
 62
     7
 10
-587.0000003976754
 20
-622.0000000703037
 30
0.0
 11
-594.0000003976754
 21
-634.0000000703037
 31
0.0
  0
LINE
  5
2BF
  8
__
  6
CONTINUOUS
 62
     7
 10
-594.0000003976754
 20
-961.0000000703037
 30
0.0
 11
-594.0000003976754
 21
-634.0000000703037
 31
0.0
  0
LINE
  5
2C0
  8
__
  6
CONTINUOUS
 62
     7
 10
-587.0000003976754
 20
-973.0000000703037
 30
0.0
 11
-594.0000003976754
 21
-961.0000000703037
 31
0.0
  0
LINE
  5
2C1
  8
__
  6
CONTINUOUS
 62
     7
 10
-1374.213203435596
 20
-1432.283675435596
 30
0.0
 11
-1356.14743440256
 21
-1414.217906402559
 31
0.0
  0
LINE
  5
2C2
  8
__
  6
CONTINUOUS
 62
     7
 10
-1384.213203435597
 20
-1428.141540435596
 30
0.0
 11
-1360.800354009027
 21
-1404.728691009026
 31
0.0
  0
ARC
  5
2C3
  8
__
  6
CONTINUOUS
 62
     7
 10
-1200.0
 20
-2510.98127
 30
0.0
 40
1113.981270000001
 50
82.84925964465741
 51
97.15074035534249
  0
CIRCLE
  5
2C4
  8
__
  6
CONTINUOUS
 62
     7
 10
-1342.5
 20
-1442.000001
 30
0.0
 40
10.0
  0
ARC
  5
2C5
  8
__
  6
CONTINUOUS
 62
     7
 10
-1342.5
 20
-1442.000001
 30
0.0
 40
19.99999999999994
 50
278.2105348910954
 51
344.7518838597215
  0
ARC
  5
2C6
  8
__
  6
CONTINUOUS
 62
     7
 10
-1200.0
 20
-2510.98127
 30
0.0
 40
1073.98127
 50
83.64196480240615
 51
96.35803519759381
  0
LINE
  5
2C7
  8
__
  6
CONTINUOUS
 62
     7
 10
-1343.929727
 20
-1582.289322348966
 30
0.0
 11
-1343.929727
 21
-1466.743750730093
 31
0.0
  0
ARC
  5
2C8
  8
__
  6
CONTINUOUS
 62
     7
 10
-1285.0
 20
-1420.307158
 30
0.0
 40
9.999999999999975
 50
94.45625099999955
 51
270.0
  0
ARC
  5
2C9
  8
__
  6
CONTINUOUS
 62
     7
 10
-1115.0
 20
-1420.307158
 30
0.0
 40
10.0
 50
270.0
 51
85.54374900000042
  0
ARC
  5
2CA
  8
__
  6
CONTINUOUS
 62
     7
 10
-1200.0
 20
-2510.98127
 30
0.0
 40
1103.98127
 50
85.543749
 51
94.45625100000002
  0
ARC
  5
2CB
  8
__
  6
CONTINUOUS
 62
     7
 10
-1200.0
 20
-2510.98127
 30
0.0
 40
1083.98127
 50
85.502682
 51
94.49731799999999
  0
ARC
  5
2CC
  8
__
  6
CONTINUOUS
 62
     7
 10
-1363.929727
 20
-1508.0000995
 30
0.0
 40
10.0
 50
0.0
 51
180.0
  0
LINE
  5
2CD
  8
__
  6
CONTINUOUS
 62
     7
 10
-1353.929727
 20
-1582.28932080569
 30
0.0
 11
-1353.929727
 21
-1508.0000995
 31
0.0
  0
CIRCLE
  5
2CE
  8
__
  6
CONTINUOUS
 62
     7
 10
-1363.929727
 20
-1508.0000995
 30
0.0
 40
1.5
  0
CIRCLE
  5
2CF
  8
__
  6
CONTINUOUS
 62
     7
 10
-1115.0
 20
-1420.307158
 30
0.0
 40
1.5
  0
CIRCLE
  5
2D0
  8
__
  6
CONTINUOUS
 62
     7
 10
-1285.0
 20
-1420.307158
 30
0.0
 40
1.5
  0
TEXT
  5
2D1
  8
__
 62
     7
 10
1249.996875
 20
-2886.956981419062
 30
0.0
 40
60.92636135559081
  1
PRX912
 41
0.7
 11
1249.996875
 21
-2826.030620063471
 31
0.0
 73
     3
  0
TEXT
  5
2D2
  8
__
 62
     7
 10
1041.6640625
 20
-2795.806084296875
 30
0.0
 40
47.3871699432373
  1
パワード2-Wayフルレンジ・スピーカー
 41
0.7
 11
1041.6640625
 21
-2748.418914353638
 31
0.0
 73
     3
  0
ARC
  5
2D3
  8
__
  6
CONTINUOUS
 62
     7
 10
-1368.022346499237
 20
-509.9888269609285
 30
0.0
 40
24.97765600000008
 50
126.8442670000007
 51
180.025631
  0
LINE
  5
2D4
  8
__
  6
CONTINUOUS
 62
     7
 10
-1390.0
 20
-525.6111021143553
 30
0.0
 11
-1390.0
 21
-1069.388898026252
 31
0.0
  0
LINE
  5
2D5
  8
__
  6
CONTINUOUS
 62
     7
 10
-1393.0
 20
-507.5000007079614
 30
0.0
 11
-1393.0
 21
-1083.903760655492
 31
0.0
  0
LINE
  5
2D6
  8
__
  6
CONTINUOUS
 62
     7
 10
-1398.612996069896
 20
-551.7207860703036
 30
0.0
 11
-1398.612996069896
 21
-579.1188430703039
 31
0.0
  0
LINE
  5
2D7
  8
__
  6
CONTINUOUS
 62
     7
 10
-1398.612996069896
 20
-551.7207860703036
 30
0.0
 11
-1393.0
 21
-551.7207860703036
 31
0.0
  0
LINE
  5
2D8
  8
__
  6
CONTINUOUS
 62
     7
 10
-1398.612996069896
 20
-567.2858020703036
 30
0.0
 11
-1393.0
 21
-567.2858020703036
 31
0.0
  0
LINE
  5
2D9
  8
__
  6
CONTINUOUS
 62
     7
 10
-1398.612996069896
 20
-579.1188430703039
 30
0.0
 11
-1393.0
 21
-579.1188430703039
 31
0.0
  0
LINE
  5
2DA
  8
__
  6
CONTINUOUS
 62
     7
 10
-1398.612996069896
 20
-1058.279214070304
 30
0.0
 11
-1398.612996069896
 21
-1030.881157070304
 31
0.0
  0
LINE
  5
2DB
  8
__
  6
CONTINUOUS
 62
     7
 10
-1398.612996069896
 20
-1058.279214070304
 30
0.0
 11
-1393.0
 21
-1058.279214070304
 31
0.0
  0
LINE
  5
2DC
  8
__
  6
CONTINUOUS
 62
     7
 10
-1398.612996069896
 20
-1042.714198070304
 30
0.0
 11
-1393.0
 21
-1042.714198070304
 31
0.0
  0
LINE
  5
2DD
  8
__
  6
CONTINUOUS
 62
     7
 10
-1398.612996069896
 20
-1030.881157070304
 30
0.0
 11
-1393.0
 21
-1030.881157070304
 31
0.0
  0
LINE
  5
2DE
  8
__
  6
CONTINUOUS
 62
     7
 10
-1010.0
 20
-525.6197946423615
 30
0.0
 11
-1010.0
 21
-1069.380205498246
 31
0.0
  0
ARC
  5
2DF
  8
__
  6
CONTINUOUS
 62
     7
 10
-1353.894213855515
 20
-1083.78615037042
 30
0.0
 40
39.1059629999999
 50
180.1723160000003
 51
222.0924395281607
  0
ARC
  5
2E0
  8
__
  6
CONTINUOUS
 62
     7
 10
-1031.977653500763
 20
-509.9888269609285
 30
0.0
 40
24.97765600000011
 50
359.974369
 51
53.15573299999932
  0
LINE
  5
2E1
  8
__
  6
CONTINUOUS
 62
     7
 10
-1007.0
 20
-507.4776534327223
 30
0.0
 11
-1007.0
 21
-1086.403760655492
 31
0.0
  0
ARC
  5
2E2
  8
__
  6
CONTINUOUS
 62
     7
 10
-1046.105786144485
 20
-1083.78615037042
 30
0.0
 40
39.10596299999987
 50
317.9075604718393
 51
359.8276839999997
  0
LINE
  5
2E3
  8
__
  6
CONTINUOUS
 62
     7
 10
-167.0000001868768
 20
-490.0000000703037
 30
0.0
 11
-532.9999998131232
 21
-490.0000000703037
 31
0.0
  0
LINE
  5
2E4
  8
__
  6
CONTINUOUS
 62
     7
 10
-523.929727
 20
-1120.000000210912
 30
0.0
 11
-523.929727
 21
-1110.000000210912
 31
0.0
  0
LINE
  5
2E5
  8
__
  6
CONTINUOUS
 62
     7
 10
-176.070273
 20
-1120.000000210912
 30
0.0
 11
-176.070273
 21
-1110.000000210912
 31
0.0
  0
LINE
  5
2E6
  8
__
  6
CONTINUOUS
 62
     7
 10
-176.070273
 20
-1120.000000210912
 30
0.0
 11
-523.929727
 21
-1120.000000210912
 31
0.0
  0
LINE
  5
2E7
  8
__
  6
CONTINUOUS
 62
     7
 10
-254.9936800000003
 20
-1110.000000210912
 30
0.0
 11
-254.9936800000003
 21
-1120.000000210912
 31
0.0
  0
LINE
  5
2E8
  8
__
  6
CONTINUOUS
 62
     7
 10
-445.0063200000002
 20
-1110.000000210912
 30
0.0
 11
-445.0063200000002
 21
-1120.000000210912
 31
0.0
  0
LINE
  5
2E9
  8
__
  6
CONTINUOUS
 62
     7
 10
-166.9999998230344
 20
-1110.000000070304
 30
0.0
 11
-533.0000001769656
 21
-1110.000000070304
 31
0.0
  0
ARC
  5
2EA
  8
__
  6
CONTINUOUS
 62
     7
 10
-425.9716560000002
 20
-956.0000000703037
 30
0.0
 40
4.999999999999972
 50
180.0179190000007
 51
270.0
  0
ARC
  5
2EB
  8
__
  6
CONTINUOUS
 62
     7
 10
-273.9716480000002
 20
-956.0000000703037
 30
0.0
 40
5.0
 50
270.0
 51
0.0179190000006884
  0
ARC
  5
2EC
  8
__
  6
CONTINUOUS
 62
     7
 10
-274.0707870000001
 20
-639.0000000703037
 30
0.0
 40
4.999999999999972
 50
0.0179190000006982
 51
90.0
  0
LINE
  5
2ED
  8
__
  6
CONTINUOUS
 62
     7
 10
-269.0707880000004
 20
-638.9984360703036
 30
0.0
 11
-268.9716490000001
 21
-955.9984360703036
 31
0.0
  0
ARC
  5
2EE
  8
__
  6
CONTINUOUS
 62
     7
 10
-426.0707950000001
 20
-639.0000000703037
 30
0.0
 40
5.0
 50
90.0
 51
180.0179190000007
  0
LINE
  5
2EF
  8
__
  6
CONTINUOUS
 62
     7
 10
-431.0707950000001
 20
-639.0015640703039
 30
0.0
 11
-430.9716560000002
 21
-956.0015640703039
 31
0.0
  0
ARC
  5
2F0
  8
__
  6
CONTINUOUS
 62
     7
 10
-399.9890120000005
 20
-900.5000000703037
 30
0.0
 40
4.0
 50
90.0
 51
180.0179189999968
  0
LINE
  5
2F1
  8
__
  6
CONTINUOUS
 62
     7
 10
-377.9890110000001
 20
-896.5000000703037
 30
0.0
 11
-399.9890120000005
 21
-896.5000000703037
 31
0.0
  0
ARC
  5
2F2
  8
__
  6
CONTINUOUS
 62
     7
 10
-377.9890110000001
 20
-900.5000000703037
 30
0.0
 40
3.999999999999977
 50
0.0179189999967899
 51
90.0
  0
LINE
  5
2F3
  8
__
  6
CONTINUOUS
 62
     7
 10
-373.9890110000001
 20
-900.4987490703036
 30
0.0
 11
-373.9849450000002
 21
-913.4987490703036
 31
0.0
  0
ARC
  5
2F4
  8
__
  6
CONTINUOUS
 62
     7
 10
-377.9849450000002
 20
-913.5000000703037
 30
0.0
 40
4.0
 50
270.0
 51
0.0179189999967662
  0
LINE
  5
2F5
  8
__
  6
CONTINUOUS
 62
     7
 10
-377.9849450000002
 20
-917.5000000703037
 30
0.0
 11
-399.9849460000005
 21
-917.5000000703037
 31
0.0
  0
ARC
  5
2F6
  8
__
  6
CONTINUOUS
 62
     7
 10
-399.9849460000005
 20
-913.5000000703037
 30
0.0
 40
3.999999999999977
 50
180.0179189999968
 51
270.0
  0
LINE
  5
2F7
  8
__
  6
CONTINUOUS
 62
     7
 10
-403.9890120000005
 20
-900.5012510703039
 30
0.0
 11
-403.9849460000005
 21
-913.5012510703039
 31
0.0
  0
ARC
  5
2F8
  8
__
  6
CONTINUOUS
 62
     7
 10
-398.9888240000005
 20
-901.1000000703036
 30
0.0
 40
2.0
 50
90.0
 51
180.0179190000033
  0
LINE
  5
2F9
  8
__
  6
CONTINUOUS
 62
     7
 10
-378.9888230000001
 20
-899.1000000703036
 30
0.0
 11
-398.9888240000005
 21
-899.1000000703036
 31
0.0
  0
ARC
  5
2FA
  8
__
  6
CONTINUOUS
 62
     7
 10
-378.9888230000001
 20
-901.1000000703036
 30
0.0
 40
1.999999999999989
 50
0.0179190000033037
 51
90.0
  0
LINE
  5
2FB
  8
__
  6
CONTINUOUS
 62
     7
 10
-400.9888240000005
 20
-901.1006250703037
 30
0.0
 11
-400.9859150000002
 21
-910.4032760703037
 31
0.0
  0
LINE
  5
2FC
  8
__
  6
CONTINUOUS
 62
     7
 10
-400.9859150000002
 20
-910.4032760703037
 30
0.0
 11
-396.4868760000004
 21
-914.9000000703038
 31
0.0
  0
LINE
  5
2FD
  8
__
  6
CONTINUOUS
 62
     7
 10
-381.4830150000003
 20
-914.9000000703038
 30
0.0
 11
-396.4868760000004
 21
-914.9000000703038
 31
0.0
  0
LINE
  5
2FE
  8
__
  6
CONTINUOUS
 62
     7
 10
-376.9859130000004
 20
-910.4052120703038
 30
0.0
 11
-381.4830150000003
 21
-914.9000000703038
 31
0.0
  0
LINE
  5
2FF
  8
__
  6
CONTINUOUS
 62
     7
 10
-376.9888230000001
 20
-901.0993750703035
 30
0.0
 11
-376.9859130000004
 21
-910.4052120703038
 31
0.0
  0
LINE
  5
300
  8
__
  6
CONTINUOUS
 62
     7
 10
-395.9877250000004
 20
-904.1000000703036
 30
0.0
 11
-395.9870820000001
 21
-906.6000000703036
 31
0.0
  0
LINE
  5
301
  8
__
  6
CONTINUOUS
 62
     7
 10
-381.9877240000001
 20
-904.1000000703036
 30
0.0
 11
-381.9870810000002
 21
-906.6000000703036
 31
0.0
  0
LINE
  5
302
  8
__
  6
CONTINUOUS
 62
     7
 10
-388.9870810000002
 20
-906.6000000703036
 30
0.0
 11
-388.9862320000002
 21
-909.9000000703038
 31
0.0
  0
CIRCLE
  5
303
  8
__
  6
CONTINUOUS
 62
     7
 10
-408.9870810000002
 20
-906.6051460703036
 30
0.0
 40
3.0
  0
CIRCLE
  5
304
  8
__
  6
CONTINUOUS
 62
     7
 10
-368.9870820000001
 20
-906.5948540703037
 30
0.0
 40
3.0
  0
LINE
  5
305
  8
__
  6
CONTINUOUS
 62
     7
 10
-368.9870820000001
 20
-905.0948540703037
 30
0.0
 11
-368.9862330000001
 21
-908.3948540703038
 31
0.0
  0
LINE
  5
306
  8
__
  6
CONTINUOUS
 62
     7
 10
-370.6366570000005
 20
-906.7452780703036
 30
0.0
 11
-367.3366570000003
 21
-906.7444290703036
 31
0.0
  0
LINE
  5
307
  8
__
  6
CONTINUOUS
 62
     7
 10
-408.9870810000002
 20
-905.1051460703036
 30
0.0
 11
-408.9862310000003
 21
-908.4051460703038
 31
0.0
  0
LINE
  5
308
  8
__
  6
CONTINUOUS
 62
     7
 10
-410.6366560000001
 20
-906.7555710703039
 30
0.0
 11
-407.3366560000004
 21
-906.7547220703038
 31
0.0
  0
LINE
  5
309
  8
__
  6
CONTINUOUS
 62
     7
 10
-273.9716480000002
 20
-961.0000000703037
 30
0.0
 11
-425.9716560000002
 21
-961.0000000703037
 31
0.0
  0
CIRCLE
  5
30A
  8
__
  6
CONTINUOUS
 62
     7
 10
-422.9791620000001
 20
-932.0000000703037
 30
0.0
 40
4.0
  0
CIRCLE
  5
30B
  8
__
  6
CONTINUOUS
 62
     7
 10
-422.9791620000001
 20
-842.0000000703037
 30
0.0
 40
4.0
  0
CIRCLE
  5
30C
  8
__
  6
CONTINUOUS
 62
     7
 10
-422.9791620000001
 20
-752.0000000703037
 30
0.0
 40
4.0
  0
CIRCLE
  5
30D
  8
__
  6
CONTINUOUS
 62
     7
 10
-422.9791620000001
 20
-662.0000000703037
 30
0.0
 40
4.0
  0
CIRCLE
  5
30E
  8
__
  6
CONTINUOUS
 62
     7
 10
-277.1624210000004
 20
-932.0000000703037
 30
0.0
 40
4.0
  0
CIRCLE
  5
30F
  8
__
  6
CONTINUOUS
 62
     7
 10
-277.1624210000004
 20
-842.0000000703037
 30
0.0
 40
4.0
  0
CIRCLE
  5
310
  8
__
  6
CONTINUOUS
 62
     7
 10
-277.1624210000004
 20
-752.0000000703037
 30
0.0
 40
4.0
  0
CIRCLE
  5
311
  8
__
  6
CONTINUOUS
 62
     7
 10
-277.1624210000004
 20
-662.0000000703037
 30
0.0
 40
4.0
  0
CIRCLE
  5
312
  8
__
  6
CONTINUOUS
 62
     7
 10
-299.9716520000002
 20
-954.0000000703037
 30
0.0
 40
4.0
  0
CIRCLE
  5
313
  8
__
  6
CONTINUOUS
 62
     7
 10
-399.9716520000002
 20
-954.0000000703037
 30
0.0
 40
4.0
  0
CIRCLE
  5
314
  8
__
  6
CONTINUOUS
 62
     7
 10
-399.9716520000002
 20
-954.0000000703037
 30
0.0
 40
4.0
  0
CIRCLE
  5
315
  8
__
  6
CONTINUOUS
 62
     7
 10
-299.9716520000002
 20
-640.9968730703038
 30
0.0
 40
4.0
  0
CIRCLE
  5
316
  8
__
  6
CONTINUOUS
 62
     7
 10
-399.9716520000002
 20
-640.9968730703038
 30
0.0
 40
4.0
  0
CIRCLE
  5
317
  8
__
  6
CONTINUOUS
 62
     7
 10
-399.9716520000002
 20
-640.9968730703038
 30
0.0
 40
4.0
  0
CIRCLE
  5
318
  8
__
  6
CONTINUOUS
 62
     7
 10
-399.5671970000003
 20
-650.5000000703037
 30
0.0
 40
1.0
  0
CIRCLE
  5
319
  8
__
  6
CONTINUOUS
 62
     7
 10
-390.5671970000003
 20
-650.5000000703037
 30
0.0
 40
1.0
  0
CIRCLE
  5
31A
  8
__
  6
CONTINUOUS
 62
     7
 10
-381.5671960000004
 20
-650.5000000703037
 30
0.0
 40
1.0
  0
CIRCLE
  5
31B
  8
__
  6
CONTINUOUS
 62
     7
 10
-372.5671960000004
 20
-650.5000000703037
 30
0.0
 40
1.0
  0
CIRCLE
  5
31C
  8
__
  6
CONTINUOUS
 62
     7
 10
-363.5671950000001
 20
-650.5000000703037
 30
0.0
 40
1.0
  0
CIRCLE
  5
31D
  8
__
  6
CONTINUOUS
 62
     7
 10
-354.5671950000001
 20
-650.5000000703037
 30
0.0
 40
1.0
  0
CIRCLE
  5
31E
  8
__
  6
CONTINUOUS
 62
     7
 10
-345.5671940000002
 20
-650.5000000703037
 30
0.0
 40
1.0
  0
CIRCLE
  5
31F
  8
__
  6
CONTINUOUS
 62
     7
 10
-336.5671940000002
 20
-650.5000000703037
 30
0.0
 40
1.0
  0
CIRCLE
  5
320
  8
__
  6
CONTINUOUS
 62
     7
 10
-327.5671930000003
 20
-650.5000000703037
 30
0.0
 40
1.0
  0
CIRCLE
  5
321
  8
__
  6
CONTINUOUS
 62
     7
 10
-318.5671930000003
 20
-650.5000000703037
 30
0.0
 40
1.0
  0
CIRCLE
  5
322
  8
__
  6
CONTINUOUS
 62
     7
 10
-309.5671930000003
 20
-650.5000000703037
 30
0.0
 40
1.0
  0
CIRCLE
  5
323
  8
__
  6
CONTINUOUS
 62
     7
 10
-300.5671920000004
 20
-650.5000000703037
 30
0.0
 40
1.0
  0
CIRCLE
  5
324
  8
__
  6
CONTINUOUS
 62
     7
 10
-395.0664150000002
 20
-653.0000000703037
 30
0.0
 40
1.0
  0
CIRCLE
  5
325
  8
__
  6
CONTINUOUS
 62
     7
 10
-386.0664140000003
 20
-653.0000000703037
 30
0.0
 40
1.0
  0
CIRCLE
  5
326
  8
__
  6
CONTINUOUS
 62
     7
 10
-377.0664140000003
 20
-653.0000000703037
 30
0.0
 40
1.0
  0
CIRCLE
  5
327
  8
__
  6
CONTINUOUS
 62
     7
 10
-368.0664140000003
 20
-653.0000000703037
 30
0.0
 40
1.0
  0
CIRCLE
  5
328
  8
__
  6
CONTINUOUS
 62
     7
 10
-359.0664130000005
 20
-653.0000000703037
 30
0.0
 40
1.0
  0
CIRCLE
  5
329
  8
__
  6
CONTINUOUS
 62
     7
 10
-350.0664130000005
 20
-653.0000000703037
 30
0.0
 40
1.0
  0
CIRCLE
  5
32A
  8
__
  6
CONTINUOUS
 62
     7
 10
-341.0664120000001
 20
-653.0000000703037
 30
0.0
 40
1.0
  0
CIRCLE
  5
32B
  8
__
  6
CONTINUOUS
 62
     7
 10
-332.0664120000001
 20
-653.0000000703037
 30
0.0
 40
1.0
  0
CIRCLE
  5
32C
  8
__
  6
CONTINUOUS
 62
     7
 10
-323.0664110000002
 20
-653.0000000703037
 30
0.0
 40
1.0
  0
CIRCLE
  5
32D
  8
__
  6
CONTINUOUS
 62
     7
 10
-314.0664110000002
 20
-653.0000000703037
 30
0.0
 40
1.0
  0
CIRCLE
  5
32E
  8
__
  6
CONTINUOUS
 62
     7
 10
-305.0664100000004
 20
-653.0000000703037
 30
0.0
 40
1.0
  0
CIRCLE
  5
32F
  8
__
  6
CONTINUOUS
 62
     7
 10
-399.5671970000003
 20
-655.5000000703037
 30
0.0
 40
1.0
  0
CIRCLE
  5
330
  8
__
  6
CONTINUOUS
 62
     7
 10
-390.5671970000003
 20
-655.5000000703037
 30
0.0
 40
1.0
  0
CIRCLE
  5
331
  8
__
  6
CONTINUOUS
 62
     7
 10
-381.5671960000004
 20
-655.5000000703037
 30
0.0
 40
1.0
  0
CIRCLE
  5
332
  8
__
  6
CONTINUOUS
 62
     7
 10
-372.5671960000004
 20
-655.5000000703037
 30
0.0
 40
1.0
  0
CIRCLE
  5
333
  8
__
  6
CONTINUOUS
 62
     7
 10
-363.5671950000001
 20
-655.5000000703037
 30
0.0
 40
1.0
  0
CIRCLE
  5
334
  8
__
  6
CONTINUOUS
 62
     7
 10
-354.5671950000001
 20
-655.5000000703037
 30
0.0
 40
1.0
  0
CIRCLE
  5
335
  8
__
  6
CONTINUOUS
 62
     7
 10
-345.5671940000002
 20
-655.5000000703037
 30
0.0
 40
1.0
  0
CIRCLE
  5
336
  8
__
  6
CONTINUOUS
 62
     7
 10
-336.5671940000002
 20
-655.5000000703037
 30
0.0
 40
1.0
  0
CIRCLE
  5
337
  8
__
  6
CONTINUOUS
 62
     7
 10
-327.5671930000003
 20
-655.5000000703037
 30
0.0
 40
1.0
  0
CIRCLE
  5
338
  8
__
  6
CONTINUOUS
 62
     7
 10
-318.5671930000003
 20
-655.5000000703037
 30
0.0
 40
1.0
  0
CIRCLE
  5
339
  8
__
  6
CONTINUOUS
 62
     7
 10
-309.5671930000003
 20
-655.5000000703037
 30
0.0
 40
1.0
  0
CIRCLE
  5
33A
  8
__
  6
CONTINUOUS
 62
     7
 10
-300.5671920000004
 20
-655.5000000703037
 30
0.0
 40
1.0
  0
CIRCLE
  5
33B
  8
__
  6
CONTINUOUS
 62
     7
 10
-395.0664150000002
 20
-658.0000000703037
 30
0.0
 40
1.0
  0
CIRCLE
  5
33C
  8
__
  6
CONTINUOUS
 62
     7
 10
-386.0664140000003
 20
-658.0000000703037
 30
0.0
 40
1.0
  0
CIRCLE
  5
33D
  8
__
  6
CONTINUOUS
 62
     7
 10
-377.0664140000003
 20
-658.0000000703037
 30
0.0
 40
1.0
  0
CIRCLE
  5
33E
  8
__
  6
CONTINUOUS
 62
     7
 10
-368.0664140000003
 20
-658.0000000703037
 30
0.0
 40
1.0
  0
CIRCLE
  5
33F
  8
__
  6
CONTINUOUS
 62
     7
 10
-359.0664130000005
 20
-658.0000000703037
 30
0.0
 40
1.0
  0
CIRCLE
  5
340
  8
__
  6
CONTINUOUS
 62
     7
 10
-350.0664130000005
 20
-658.0000000703037
 30
0.0
 40
1.0
  0
CIRCLE
  5
341
  8
__
  6
CONTINUOUS
 62
     7
 10
-341.0664120000001
 20
-658.0000000703037
 30
0.0
 40
1.0
  0
CIRCLE
  5
342
  8
__
  6
CONTINUOUS
 62
     7
 10
-332.0664120000001
 20
-658.0000000703037
 30
0.0
 40
1.0
  0
CIRCLE
  5
343
  8
__
  6
CONTINUOUS
 62
     7
 10
-323.0664110000002
 20
-658.0000000703037
 30
0.0
 40
1.0
  0
CIRCLE
  5
344
  8
__
  6
CONTINUOUS
 62
     7
 10
-314.0664110000002
 20
-658.0000000703037
 30
0.0
 40
1.0
  0
CIRCLE
  5
345
  8
__
  6
CONTINUOUS
 62
     7
 10
-305.0664100000004
 20
-658.0000000703037
 30
0.0
 40
1.0
  0
CIRCLE
  5
346
  8
__
  6
CONTINUOUS
 62
     7
 10
-399.5671970000003
 20
-944.5031270703037
 30
0.0
 40
1.0
  0
CIRCLE
  5
347
  8
__
  6
CONTINUOUS
 62
     7
 10
-390.5671970000003
 20
-944.5031270703037
 30
0.0
 40
1.0
  0
CIRCLE
  5
348
  8
__
  6
CONTINUOUS
 62
     7
 10
-381.5671960000004
 20
-944.5031270703037
 30
0.0
 40
1.0
  0
CIRCLE
  5
349
  8
__
  6
CONTINUOUS
 62
     7
 10
-372.5671960000004
 20
-944.5031270703037
 30
0.0
 40
1.0
  0
CIRCLE
  5
34A
  8
__
  6
CONTINUOUS
 62
     7
 10
-363.5671950000001
 20
-944.5031270703037
 30
0.0
 40
1.0
  0
CIRCLE
  5
34B
  8
__
  6
CONTINUOUS
 62
     7
 10
-354.5671950000001
 20
-944.5031270703037
 30
0.0
 40
1.0
  0
CIRCLE
  5
34C
  8
__
  6
CONTINUOUS
 62
     7
 10
-345.5671940000002
 20
-944.5031270703037
 30
0.0
 40
1.0
  0
CIRCLE
  5
34D
  8
__
  6
CONTINUOUS
 62
     7
 10
-336.5671940000002
 20
-944.5031270703037
 30
0.0
 40
1.0
  0
CIRCLE
  5
34E
  8
__
  6
CONTINUOUS
 62
     7
 10
-327.5671930000003
 20
-944.5031270703037
 30
0.0
 40
1.0
  0
CIRCLE
  5
34F
  8
__
  6
CONTINUOUS
 62
     7
 10
-318.5671930000003
 20
-944.5031270703037
 30
0.0
 40
1.0
  0
CIRCLE
  5
350
  8
__
  6
CONTINUOUS
 62
     7
 10
-309.5671930000003
 20
-944.5031270703037
 30
0.0
 40
1.0
  0
CIRCLE
  5
351
  8
__
  6
CONTINUOUS
 62
     7
 10
-300.5671920000004
 20
-944.5031270703037
 30
0.0
 40
1.0
  0
CIRCLE
  5
352
  8
__
  6
CONTINUOUS
 62
     7
 10
-395.0664150000002
 20
-942.0031270703037
 30
0.0
 40
1.0
  0
CIRCLE
  5
353
  8
__
  6
CONTINUOUS
 62
     7
 10
-386.0664140000003
 20
-942.0031270703037
 30
0.0
 40
1.0
  0
CIRCLE
  5
354
  8
__
  6
CONTINUOUS
 62
     7
 10
-377.0664140000003
 20
-942.0031270703037
 30
0.0
 40
1.0
  0
CIRCLE
  5
355
  8
__
  6
CONTINUOUS
 62
     7
 10
-368.0664140000003
 20
-942.0031270703037
 30
0.0
 40
1.0
  0
CIRCLE
  5
356
  8
__
  6
CONTINUOUS
 62
     7
 10
-359.0664130000005
 20
-942.0031270703037
 30
0.0
 40
1.0
  0
CIRCLE
  5
357
  8
__
  6
CONTINUOUS
 62
     7
 10
-350.0664130000005
 20
-942.0031270703037
 30
0.0
 40
1.0
  0
CIRCLE
  5
358
  8
__
  6
CONTINUOUS
 62
     7
 10
-341.0664120000001
 20
-942.0031270703037
 30
0.0
 40
1.0
  0
CIRCLE
  5
359
  8
__
  6
CONTINUOUS
 62
     7
 10
-332.0664120000001
 20
-942.0031270703037
 30
0.0
 40
1.0
  0
CIRCLE
  5
35A
  8
__
  6
CONTINUOUS
 62
     7
 10
-323.0664110000002
 20
-942.0031270703037
 30
0.0
 40
1.0
  0
CIRCLE
  5
35B
  8
__
  6
CONTINUOUS
 62
     7
 10
-314.0664110000002
 20
-942.0031270703037
 30
0.0
 40
1.0
  0
CIRCLE
  5
35C
  8
__
  6
CONTINUOUS
 62
     7
 10
-305.0664100000004
 20
-942.0031270703037
 30
0.0
 40
1.0
  0
CIRCLE
  5
35D
  8
__
  6
CONTINUOUS
 62
     7
 10
-399.5671970000003
 20
-939.5031270703037
 30
0.0
 40
1.0
  0
CIRCLE
  5
35E
  8
__
  6
CONTINUOUS
 62
     7
 10
-390.5671970000003
 20
-939.5031270703037
 30
0.0
 40
1.0
  0
CIRCLE
  5
35F
  8
__
  6
CONTINUOUS
 62
     7
 10
-381.5671960000004
 20
-939.5031270703037
 30
0.0
 40
1.0
  0
CIRCLE
  5
360
  8
__
  6
CONTINUOUS
 62
     7
 10
-372.5671960000004
 20
-939.5031270703037
 30
0.0
 40
1.0
  0
CIRCLE
  5
361
  8
__
  6
CONTINUOUS
 62
     7
 10
-363.5671950000001
 20
-939.5031270703037
 30
0.0
 40
1.0
  0
CIRCLE
  5
362
  8
__
  6
CONTINUOUS
 62
     7
 10
-354.5671950000001
 20
-939.5031270703037
 30
0.0
 40
1.0
  0
CIRCLE
  5
363
  8
__
  6
CONTINUOUS
 62
     7
 10
-345.5671940000002
 20
-939.5031270703037
 30
0.0
 40
1.0
  0
CIRCLE
  5
364
  8
__
  6
CONTINUOUS
 62
     7
 10
-336.5671940000002
 20
-939.5031270703037
 30
0.0
 40
1.0
  0
CIRCLE
  5
365
  8
__
  6
CONTINUOUS
 62
     7
 10
-327.5671930000003
 20
-939.5031270703037
 30
0.0
 40
1.0
  0
CIRCLE
  5
366
  8
__
  6
CONTINUOUS
 62
     7
 10
-318.5671930000003
 20
-939.5031270703037
 30
0.0
 40
1.0
  0
CIRCLE
  5
367
  8
__
  6
CONTINUOUS
 62
     7
 10
-309.5671930000003
 20
-939.5031270703037
 30
0.0
 40
1.0
  0
CIRCLE
  5
368
  8
__
  6
CONTINUOUS
 62
     7
 10
-300.5671920000004
 20
-939.5031270703037
 30
0.0
 40
1.0
  0
CIRCLE
  5
369
  8
__
  6
CONTINUOUS
 62
     7
 10
-395.0664150000002
 20
-937.0031270703037
 30
0.0
 40
1.0
  0
CIRCLE
  5
36A
  8
__
  6
CONTINUOUS
 62
     7
 10
-386.0664140000003
 20
-937.0031270703037
 30
0.0
 40
1.0
  0
CIRCLE
  5
36B
  8
__
  6
CONTINUOUS
 62
     7
 10
-377.0664140000003
 20
-937.0031270703037
 30
0.0
 40
1.0
  0
CIRCLE
  5
36C
  8
__
  6
CONTINUOUS
 62
     7
 10
-368.0664140000003
 20
-937.0031270703037
 30
0.0
 40
1.0
  0
CIRCLE
  5
36D
  8
__
  6
CONTINUOUS
 62
     7
 10
-359.0664130000005
 20
-937.0031270703037
 30
0.0
 40
1.0
  0
CIRCLE
  5
36E
  8
__
  6
CONTINUOUS
 62
     7
 10
-350.0664130000005
 20
-937.0031270703037
 30
0.0
 40
1.0
  0
CIRCLE
  5
36F
  8
__
  6
CONTINUOUS
 62
     7
 10
-341.0664120000001
 20
-937.0031270703037
 30
0.0
 40
1.0
  0
CIRCLE
  5
370
  8
__
  6
CONTINUOUS
 62
     7
 10
-332.0664120000001
 20
-937.0031270703037
 30
0.0
 40
1.0
  0
CIRCLE
  5
371
  8
__
  6
CONTINUOUS
 62
     7
 10
-323.0664110000002
 20
-937.0031270703037
 30
0.0
 40
1.0
  0
CIRCLE
  5
372
  8
__
  6
CONTINUOUS
 62
     7
 10
-314.0664110000002
 20
-937.0031270703037
 30
0.0
 40
1.0
  0
CIRCLE
  5
373
  8
__
  6
CONTINUOUS
 62
     7
 10
-305.0664100000004
 20
-937.0031270703037
 30
0.0
 40
1.0
  0
LINE
  5
374
  8
__
  6
CONTINUOUS
 62
     7
 10
-157.0000000000005
 20
-522.5000000703037
 30
0.0
 11
-543.0
 21
-522.5000000703037
 31
0.0
  0
LINE
  5
375
  8
__
  6
CONTINUOUS
 62
     7
 10
-157.0000000000005
 20
-1072.500000070304
 30
0.0
 11
-543.0
 21
-1072.500000070304
 31
0.0
  0
LINE
  5
376
  8
__
  6
CONTINUOUS
 62
     7
 10
-274.0707870000001
 20
-634.0000000703037
 30
0.0
 11
-426.0707950000001
 21
-634.0000000703037
 31
0.0
  0
ARC
  5
377
  8
__
  6
CONTINUOUS
 62
     7
 10
-431.0723590000002
 20
-634.0000000703037
 30
0.0
 40
6.0
 50
90.0
 51
180.0179189999989
  0
LINE
  5
378
  8
__
  6
CONTINUOUS
 62
     7
 10
-269.0723510000003
 20
-628.0000000703037
 30
0.0
 11
-431.0723590000002
 21
-628.0000000703037
 31
0.0
  0
ARC
  5
379
  8
__
  6
CONTINUOUS
 62
     7
 10
-269.0723510000003
 20
-634.0000000703037
 30
0.0
 40
5.999999999999966
 50
0.0179189999989611
 51
90.0
  0
LINE
  5
37A
  8
__
  6
CONTINUOUS
 62
     7
 10
-437.0723580000003
 20
-634.0018760703035
 30
0.0
 11
-436.9700920000005
 21
-961.0018760703035
 31
0.0
  0
ARC
  5
37B
  8
__
  6
CONTINUOUS
 62
     7
 10
-430.9700920000005
 20
-961.0000000703037
 30
0.0
 40
5.999999999999966
 50
180.017918999999
 51
270.0
  0
LINE
  5
37C
  8
__
  6
CONTINUOUS
 62
     7
 10
-268.9700840000005
 20
-967.0000000703037
 30
0.0
 11
-430.9700920000005
 21
-967.0000000703037
 31
0.0
  0
ARC
  5
37D
  8
__
  6
CONTINUOUS
 62
     7
 10
-268.9700840000005
 20
-961.0000000703037
 30
0.0
 40
6.0
 50
270.0
 51
0.0179189999989831
  0
LINE
  5
37E
  8
__
  6
CONTINUOUS
 62
     7
 10
-263.0723510000003
 20
-633.9981240703039
 30
0.0
 11
-262.9700850000004
 21
-960.9981240703039
 31
0.0
  0
ARC
  5
37F
  8
__
  6
CONTINUOUS
 62
     7
 10
-268.9700840000005
 20
-961.0000000703037
 30
0.0
 40
12.0
 50
270.0
 51
0.0179189999989831
  0
LINE
  5
380
  8
__
  6
CONTINUOUS
 62
     7
 10
-268.9700840000005
 20
-973.0000000703037
 30
0.0
 11
-430.9700920000005
 21
-973.0000000703037
 31
0.0
  0
ARC
  5
381
  8
__
  6
CONTINUOUS
 62
     7
 10
-430.9700920000005
 20
-961.0000000703037
 30
0.0
 40
11.99999999999993
 50
180.017918999999
 51
270.0
  0
LINE
  5
382
  8
__
  6
CONTINUOUS
 62
     7
 10
-443.0723580000003
 20
-634.0037530703037
 30
0.0
 11
-442.9700920000005
 21
-961.0037530703037
 31
0.0
  0
ARC
  5
383
  8
__
  6
CONTINUOUS
 62
     7
 10
-431.0723590000002
 20
-634.0000000703037
 30
0.0
 40
12.0
 50
90.0
 51
180.0179189999989
  0
LINE
  5
384
  8
__
  6
CONTINUOUS
 62
     7
 10
-269.0723510000003
 20
-622.0000000703037
 30
0.0
 11
-431.0723590000002
 21
-622.0000000703037
 31
0.0
  0
ARC
  5
385
  8
__
  6
CONTINUOUS
 62
     7
 10
-269.0723510000003
 20
-634.0000000703037
 30
0.0
 40
11.99999999999993
 50
0.0179189999989611
 51
90.0
  0
LINE
  5
386
  8
__
  6
CONTINUOUS
 62
     7
 10
-257.0723510000003
 20
-633.9962470703038
 30
0.0
 11
-256.9700850000004
 21
-960.9962470703038
 31
0.0
  0
LINE
  5
387
  8
__
  6
CONTINUOUS
 62
     7
 10
-436.0868790000004
 20
-1110.000000070304
 30
0.0
 11
-436.0868790000004
 21
-971.8544230703039
 31
0.0
  0
LINE
  5
388
  8
__
  6
CONTINUOUS
 62
     7
 10
-436.0868790000004
 20
-623.0979550703039
 30
0.0
 11
-436.0868790000004
 21
-490.0000000703037
 31
0.0
  0
LINE
  5
389
  8
__
  6
CONTINUOUS
 62
     7
 10
-263.913121
 20
-1110.000000070304
 30
0.0
 11
-263.913121
 21
-971.8824220703038
 31
0.0
  0
LINE
  5
38A
  8
__
  6
CONTINUOUS
 62
     7
 10
-263.913121
 20
-623.1656870703039
 30
0.0
 11
-263.913121
 21
-490.0000000703037
 31
0.0
  0
ARC
  5
38B
  8
__
  6
CONTINUOUS
 62
     7
 10
-181.9776535007629
 20
-509.9888269609285
 30
0.0
 40
24.97765600000011
 50
359.974369
 51
53.15573300000011
  0
ARC
  5
38C
  8
__
  6
CONTINUOUS
 62
     7
 10
-196.1057861444854
 20
-1083.882390210912
 30
0.0
 40
39.10596299999999
 50
318.0972940000001
 51
359.8276839999997
  0
LINE
  5
38D
  8
__
  6
CONTINUOUS
 62
     7
 10
-252.1147120000001
 20
-558.0546510703036
 30
0.0
 11
-251.3269540000001
 21
-557.0835640703037
 31
0.0
  0
ARC
  5
38E
  8
__
  6
CONTINUOUS
 62
     7
 10
-246.667336
 20
-560.8635050703035
 30
0.0
 40
5.999999999999963
 50
92.02943500000119
 51
140.9506010000013
  0
LINE
  5
38F
  8
__
  6
CONTINUOUS
 62
     7
 10
-252.6458360000001
 20
-576.6644310703039
 30
0.0
 11
-252.5267250000002
 21
-576.8307710703036
 31
0.0
  0
ARC
  5
390
  8
__
  6
CONTINUOUS
 62
     7
 10
-247.7675570000001
 20
-573.1712390703035
 30
0.0
 40
6.000000000000059
 50
215.6053350000009
 51
277.5774730000015
  0
ARC
  5
391
  8
__
  6
CONTINUOUS
 62
     7
 10
-236.9679210000004
 20
-567.7796040703035
 30
0.0
 40
17.99999999999999
 50
147.2976269999994
 51
209.5406479999998
  0
ARC
  5
392
  8
__
  6
CONTINUOUS
 62
     7
 10
-163.418142
 20
-558.9785980703039
 30
0.0
 40
10.99999999999996
 50
334.8535950000007
 51
23.71249100000017
  0
LINE
  5
393
  8
__
  6
CONTINUOUS
 62
     7
 10
-153.346818
 20
-554.5549770703035
 30
0.0
 11
-153.7015850000003
 21
-554.0055180703037
 31
0.0
  0
ARC
  5
394
  8
__
  6
CONTINUOUS
 62
     7
 10
-157.902102
 20
-556.7176500703038
 30
0.0
 40
4.999999999999797
 50
32.84896599999954
 51
92.02943499999863
  0
LINE
  5
395
  8
__
  6
CONTINUOUS
 62
     7
 10
-153.4606680000002
 20
-563.6528580703036
 30
0.0
 11
-154.6339660000003
 21
-565.2680510703037
 31
0.0
  0
ARC
  5
396
  8
__
  6
CONTINUOUS
 62
     7
 10
-158.679298
 20
-562.3294650703035
 30
0.0
 40
4.999999999999836
 50
277.5774729999994
 51
324.0048280000015
  0
LINE
  5
397
  8
__
  6
CONTINUOUS
 62
     7
 10
-158.079166
 20
-551.7207860703036
 30
0.0
 11
-246.879813
 21
-554.8672690703036
 31
0.0
  0
LINE
  5
398
  8
__
  6
CONTINUOUS
 62
     7
 10
-158.019965
 20
-567.2858020703036
 30
0.0
 11
-246.976357
 21
-579.1188430703039
 31
0.0
  0
LINE
  5
399
  8
__
  6
CONTINUOUS
 62
     7
 10
-158.079166
 20
-551.7207860703036
 30
0.0
 11
-246.879813
 21
-554.8672690703036
 31
0.0
  0
LINE
  5
39A
  8
__
  6
CONTINUOUS
 62
     7
 10
-157.0000000000005
 20
-572.1941686316707
 30
0.0
 11
-255.913121
 21
-585.3516600703035
 31
0.0
  0
LINE
  5
39B
  8
__
  6
CONTINUOUS
 62
     7
 10
-157.0000000000005
 20
-546.6794102621733
 30
0.0
 11
-255.913121
 21
-550.1842090703037
 31
0.0
  0
ARC
  5
39C
  8
__
  6
CONTINUOUS
 62
     7
 10
-253.1068740000001
 20
-567.7679350703036
 30
0.0
 40
17.80624699999984
 50
99.06756099999969
 51
260.9324390000003
  0
LINE
  5
39D
  8
__
  6
CONTINUOUS
 62
     7
 10
-252.1147120000001
 20
-1041.945349070304
 30
0.0
 11
-251.3269540000001
 21
-1042.916436070304
 31
0.0
  0
ARC
  5
39E
  8
__
  6
CONTINUOUS
 62
     7
 10
-246.667336
 20
-1039.136495070304
 30
0.0
 40
5.999999999999906
 50
219.0493989999987
 51
267.9705649999988
  0
LINE
  5
39F
  8
__
  6
CONTINUOUS
 62
     7
 10
-252.6458360000001
 20
-1023.335569070304
 30
0.0
 11
-252.5267250000002
 21
-1023.169229070304
 31
0.0
  0
ARC
  5
3A0
  8
__
  6
CONTINUOUS
 62
     7
 10
-247.7675570000001
 20
-1026.828761070304
 30
0.0
 40
6.000000000000199
 50
82.42252699999845
 51
144.3946649999991
  0
ARC
  5
3A1
  8
__
  6
CONTINUOUS
 62
     7
 10
-236.9679210000004
 20
-1032.220396070304
 30
0.0
 40
18.00000000000021
 50
150.4593520000002
 51
212.7023730000006
  0
ARC
  5
3A2
  8
__
  6
CONTINUOUS
 62
     7
 10
-163.418142
 20
-1041.021402070304
 30
0.0
 40
10.99999999999993
 50
336.2875089999998
 51
25.14640499999928
  0
LINE
  5
3A3
  8
__
  6
CONTINUOUS
 62
     7
 10
-153.346818
 20
-1045.445023070304
 30
0.0
 11
-153.7015850000003
 21
-1045.994482070304
 31
0.0
  0
ARC
  5
3A4
  8
__
  6
CONTINUOUS
 62
     7
 10
-157.902102
 20
-1043.282350070304
 30
0.0
 40
4.999999999999885
 50
267.9705650000013
 51
327.1510340000004
  0
LINE
  5
3A5
  8
__
  6
CONTINUOUS
 62
     7
 10
-153.4606680000002
 20
-1036.347142070304
 30
0.0
 11
-154.6339660000003
 21
-1034.731949070304
 31
0.0
  0
ARC
  5
3A6
  8
__
  6
CONTINUOUS
 62
     7
 10
-158.679298
 20
-1037.670535070304
 30
0.0
 40
5.000000000000019
 50
35.99517199999856
 51
82.42252700000057
  0
LINE
  5
3A7
  8
__
  6
CONTINUOUS
 62
     7
 10
-158.079166
 20
-1048.279214070304
 30
0.0
 11
-246.879813
 21
-1045.132731070304
 31
0.0
  0
LINE
  5
3A8
  8
__
  6
CONTINUOUS
 62
     7
 10
-158.019965
 20
-1032.714198070304
 30
0.0
 11
-246.976357
 21
-1020.881157070304
 31
0.0
  0
LINE
  5
3A9
  8
__
  6
CONTINUOUS
 62
     7
 10
-158.079166
 20
-1048.279214070304
 30
0.0
 11
-246.879813
 21
-1045.132731070304
 31
0.0
  0
LINE
  5
3AA
  8
__
  6
CONTINUOUS
 62
     7
 10
-157.0000000000005
 20
-1027.805831508937
 30
0.0
 11
-255.913121
 21
-1014.648340070304
 31
0.0
  0
LINE
  5
3AB
  8
__
  6
CONTINUOUS
 62
     7
 10
-157.0000000000005
 20
-1053.320589878434
 30
0.0
 11
-255.913121
 21
-1049.815791070304
 31
0.0
  0
ARC
  5
3AC
  8
__
  6
CONTINUOUS
 62
     7
 10
-253.1068740000001
 20
-1032.232065070304
 30
0.0
 40
17.80624699999984
 50
99.06756099999969
 51
260.9324390000003
  0
LINE
  5
3AD
  8
__
  6
CONTINUOUS
 62
     7
 10
-157.0000000000005
 20
-1084.000000496093
 30
0.0
 11
-157.0000000000005
 21
-1048.200298014477
 31
0.0
  0
LINE
  5
3AE
  8
__
  6
CONTINUOUS
 62
     7
 10
-157.0000000000005
 20
-1032.960974769469
 30
0.0
 11
-157.0000000000005
 21
-567.0390253711381
 31
0.0
  0
LINE
  5
3AF
  8
__
  6
CONTINUOUS
 62
     7
 10
-157.0000000000005
 20
-551.7997021261308
 30
0.0
 11
-157.0000000000005
 21
-509.9776533227619
 31
0.0
  0
ARC
  5
3B0
  8
__
  6
CONTINUOUS
 62
     7
 10
-1200.0
 20
-1522.5
 30
0.0
 40
42.5
 50
0.0
 51
180.0
  0
ARC
  5
3B1
  8
__
  6
CONTINUOUS
 62
     7
 10
-1200.0
 20
-1577.5
 30
0.0
 40
42.5
 50
180.0
 51
0.0
  0
LINE
  5
3B2
  8
__
  6
CONTINUOUS
 62
     7
 10
-1157.5
 20
-1522.5
 30
0.0
 11
-1157.5
 21
-1577.5
 31
0.0
  0
LINE
  5
3B3
  8
__
  6
CONTINUOUS
 62
     7
 10
-1242.5
 20
-1522.5
 30
0.0
 11
-1242.5
 21
-1577.5
 31
0.0
  0
CIRCLE
  5
3B4
  8
__
  6
CONTINUOUS
 62
     7
 10
-1200.0
 20
-1522.75
 30
0.0
 40
21.25
  0
CIRCLE
  5
3B5
  8
__
  6
CONTINUOUS
 62
     7
 10
-1200.0
 20
-1577.25
 30
0.0
 40
21.25
  0
ARC
  5
3B6
  8
__
  6
CONTINUOUS
 62
     7
 10
-1200.0
 20
-1610.054644981046
 30
0.0
 40
0.2546449810461108
 50
356.8251528744259
 51
183.1748471255798
  0
ARC
  5
3B7
  8
__
  6
CONTINUOUS
 62
     7
 10
-1201.186148236944
 20
-1609.945530988189
 30
0.0
 40
0.9400048073215088
 50
247.5320803524773
 51
352.4679196225416
  0
ARC
  5
3B8
  8
__
  6
CONTINUOUS
 62
     7
 10
-1201.684726865794
 20
-1611.027322490523
 30
0.0
 40
0.2546449810462921
 50
56.8251528743726
 51
243.1748471255899
  0
ARC
  5
3B9
  8
__
  6
CONTINUOUS
 62
     7
 10
-1202.372296473988
 20
-1611.999999999943
 30
0.0
 40
0.9400048073212975
 50
307.5320803524826
 51
52.46791962254764
  0
ARC
  5
3BA
  8
__
  6
CONTINUOUS
 62
     7
 10
-1200.0
 20
-1613.945355018954
 30
0.0
 40
0.2546449810456567
 50
176.8251528744202
 51
3.17484712557976
  0
ARC
  5
3BB
  8
__
  6
CONTINUOUS
 62
     7
 10
-1201.186148236944
 20
-1614.054469011811
 30
0.0
 40
0.9400048073215113
 50
7.532080377458499
 51
112.4679196475227
  0
ARC
  5
3BC
  8
__
  6
CONTINUOUS
 62
     7
 10
-1201.684726865794
 20
-1612.972677509478
 30
0.0
 40
0.2546449810459963
 50
116.8251528743639
 51
303.1748471256834
  0
ARC
  5
3BD
  8
__
  6
CONTINUOUS
 62
     7
 10
-1198.813851763056
 20
-1609.945530988189
 30
0.0
 40
0.9400048073215113
 50
187.5320803774585
 51
292.4679196475483
  0
ARC
  5
3BE
  8
__
  6
CONTINUOUS
 62
     7
 10
-1198.315273134206
 20
-1611.027322490523
 30
0.0
 40
0.2546449810457956
 50
296.8251528745014
 51
123.1748471255418
  0
ARC
  5
3BF
  8
__
  6
CONTINUOUS
 62
     7
 10
-1197.627703526012
 20
-1611.999999999943
 30
0.0
 40
0.9400048073214804
 50
127.5320803774304
 51
232.4679196475174
  0
ARC
  5
3C0
  8
__
  6
CONTINUOUS
 62
     7
 10
-1198.813851763056
 20
-1614.054469011811
 30
0.0
 40
0.9400048073216826
 50
67.53208035245173
 51
172.4679196225415
  0
ARC
  5
3C1
  8
__
  6
CONTINUOUS
 62
     7
 10
-1198.315273134206
 20
-1612.972677509478
 30
0.0
 40
0.2546449810456626
 50
236.8251528744022
 51
63.17484712554481
  0
CIRCLE
  5
3C2
  8
__
  6
CONTINUOUS
 62
     7
 10
-1200.0
 20
-1612.0
 30
0.0
 40
6.0
  0
CIRCLE
  5
3C3
  8
__
  6
CONTINUOUS
 62
     7
 10
-1200.0
 20
-1612.0
 30
0.0
 40
4.5
  0
CIRCLE
  5
3C4
  8
__
  6
CONTINUOUS
 62
     7
 10
-1200.0
 20
-1612.0
 30
0.0
 40
3.0
  0
ARC
  5
3C5
  8
__
  6
CONTINUOUS
 62
     7
 10
-1234.5
 20
-1575.554644981046
 30
0.0
 40
0.2546449810461108
 50
356.8251528744259
 51
183.1748471255798
  0
ARC
  5
3C6
  8
__
  6
CONTINUOUS
 62
     7
 10
-1235.686148236944
 20
-1575.445530988189
 30
0.0
 40
0.9400048073215088
 50
247.5320803524773
 51
352.4679196225416
  0
ARC
  5
3C7
  8
__
  6
CONTINUOUS
 62
     7
 10
-1236.184726865794
 20
-1576.527322490523
 30
0.0
 40
0.2546449810462921
 50
56.8251528743726
 51
243.1748471255899
  0
ARC
  5
3C8
  8
__
  6
CONTINUOUS
 62
     7
 10
-1236.872296473988
 20
-1577.499999999943
 30
0.0
 40
0.9400048073212975
 50
307.5320803524826
 51
52.46791962254764
  0
ARC
  5
3C9
  8
__
  6
CONTINUOUS
 62
     7
 10
-1234.5
 20
-1579.445355018954
 30
0.0
 40
0.2546449810456567
 50
176.8251528744202
 51
3.17484712557976
  0
ARC
  5
3CA
  8
__
  6
CONTINUOUS
 62
     7
 10
-1235.686148236944
 20
-1579.554469011811
 30
0.0
 40
0.9400048073215113
 50
7.532080377458499
 51
112.4679196475227
  0
ARC
  5
3CB
  8
__
  6
CONTINUOUS
 62
     7
 10
-1236.184726865794
 20
-1578.472677509478
 30
0.0
 40
0.2546449810459963
 50
116.8251528743639
 51
303.1748471256834
  0
ARC
  5
3CC
  8
__
  6
CONTINUOUS
 62
     7
 10
-1233.313851763056
 20
-1575.445530988189
 30
0.0
 40
0.9400048073215113
 50
187.5320803774585
 51
292.4679196475483
  0
ARC
  5
3CD
  8
__
  6
CONTINUOUS
 62
     7
 10
-1232.815273134206
 20
-1576.527322490523
 30
0.0
 40
0.2546449810457956
 50
296.8251528745014
 51
123.1748471255418
  0
ARC
  5
3CE
  8
__
  6
CONTINUOUS
 62
     7
 10
-1232.127703526012
 20
-1577.499999999943
 30
0.0
 40
0.9400048073214804
 50
127.5320803774304
 51
232.4679196475174
  0
ARC
  5
3CF
  8
__
  6
CONTINUOUS
 62
     7
 10
-1233.313851763056
 20
-1579.554469011811
 30
0.0
 40
0.9400048073216826
 50
67.53208035245173
 51
172.4679196225415
  0
ARC
  5
3D0
  8
__
  6
CONTINUOUS
 62
     7
 10
-1232.815273134206
 20
-1578.472677509478
 30
0.0
 40
0.2546449810456626
 50
236.8251528744022
 51
63.17484712554481
  0
CIRCLE
  5
3D1
  8
__
  6
CONTINUOUS
 62
     7
 10
-1234.5
 20
-1577.5
 30
0.0
 40
6.0
  0
CIRCLE
  5
3D2
  8
__
  6
CONTINUOUS
 62
     7
 10
-1234.5
 20
-1577.5
 30
0.0
 40
4.5
  0
CIRCLE
  5
3D3
  8
__
  6
CONTINUOUS
 62
     7
 10
-1234.5
 20
-1577.5
 30
0.0
 40
3.0
  0
ARC
  5
3D4
  8
__
  6
CONTINUOUS
 62
     7
 10
-1234.5
 20
-1520.554644981046
 30
0.0
 40
0.2546449810461108
 50
356.8251528744259
 51
183.1748471255798
  0
ARC
  5
3D5
  8
__
  6
CONTINUOUS
 62
     7
 10
-1235.686148236944
 20
-1520.445530988189
 30
0.0
 40
0.9400048073215088
 50
247.5320803524773
 51
352.4679196225416
  0
ARC
  5
3D6
  8
__
  6
CONTINUOUS
 62
     7
 10
-1236.184726865794
 20
-1521.527322490523
 30
0.0
 40
0.2546449810462921
 50
56.8251528743726
 51
243.1748471255899
  0
ARC
  5
3D7
  8
__
  6
CONTINUOUS
 62
     7
 10
-1236.872296473988
 20
-1522.499999999943
 30
0.0
 40
0.9400048073212975
 50
307.5320803524826
 51
52.46791962254764
  0
ARC
  5
3D8
  8
__
  6
CONTINUOUS
 62
     7
 10
-1234.5
 20
-1524.445355018954
 30
0.0
 40
0.2546449810456567
 50
176.8251528744202
 51
3.17484712557976
  0
ARC
  5
3D9
  8
__
  6
CONTINUOUS
 62
     7
 10
-1235.686148236944
 20
-1524.554469011811
 30
0.0
 40
0.9400048073215113
 50
7.532080377458499
 51
112.4679196475227
  0
ARC
  5
3DA
  8
__
  6
CONTINUOUS
 62
     7
 10
-1236.184726865794
 20
-1523.472677509478
 30
0.0
 40
0.2546449810459963
 50
116.8251528743639
 51
303.1748471256834
  0
ARC
  5
3DB
  8
__
  6
CONTINUOUS
 62
     7
 10
-1233.313851763056
 20
-1520.445530988189
 30
0.0
 40
0.9400048073215113
 50
187.5320803774585
 51
292.4679196475483
  0
ARC
  5
3DC
  8
__
  6
CONTINUOUS
 62
     7
 10
-1232.815273134206
 20
-1521.527322490523
 30
0.0
 40
0.2546449810457956
 50
296.8251528745014
 51
123.1748471255418
  0
ARC
  5
3DD
  8
__
  6
CONTINUOUS
 62
     7
 10
-1232.127703526012
 20
-1522.499999999943
 30
0.0
 40
0.9400048073214804
 50
127.5320803774304
 51
232.4679196475174
  0
ARC
  5
3DE
  8
__
  6
CONTINUOUS
 62
     7
 10
-1233.313851763056
 20
-1524.554469011811
 30
0.0
 40
0.9400048073216826
 50
67.53208035245173
 51
172.4679196225415
  0
ARC
  5
3DF
  8
__
  6
CONTINUOUS
 62
     7
 10
-1232.815273134206
 20
-1523.472677509478
 30
0.0
 40
0.2546449810456626
 50
236.8251528744022
 51
63.17484712554481
  0
CIRCLE
  5
3E0
  8
__
  6
CONTINUOUS
 62
     7
 10
-1234.5
 20
-1522.5
 30
0.0
 40
6.0
  0
CIRCLE
  5
3E1
  8
__
  6
CONTINUOUS
 62
     7
 10
-1234.5
 20
-1522.5
 30
0.0
 40
4.5
  0
CIRCLE
  5
3E2
  8
__
  6
CONTINUOUS
 62
     7
 10
-1234.5
 20
-1522.5
 30
0.0
 40
3.0
  0
ARC
  5
3E3
  8
__
  6
CONTINUOUS
 62
     7
 10
-1200.0
 20
-1486.054644981046
 30
0.0
 40
0.2546449810461108
 50
356.8251528744259
 51
183.1748471255798
  0
ARC
  5
3E4
  8
__
  6
CONTINUOUS
 62
     7
 10
-1201.186148236944
 20
-1485.945530988189
 30
0.0
 40
0.9400048073215088
 50
247.5320803524773
 51
352.4679196225416
  0
ARC
  5
3E5
  8
__
  6
CONTINUOUS
 62
     7
 10
-1201.684726865794
 20
-1487.027322490523
 30
0.0
 40
0.2546449810462921
 50
56.8251528743726
 51
243.1748471255899
  0
ARC
  5
3E6
  8
__
  6
CONTINUOUS
 62
     7
 10
-1202.372296473988
 20
-1487.999999999943
 30
0.0
 40
0.9400048073212975
 50
307.5320803524826
 51
52.46791962254764
  0
ARC
  5
3E7
  8
__
  6
CONTINUOUS
 62
     7
 10
-1200.0
 20
-1489.945355018954
 30
0.0
 40
0.2546449810456567
 50
176.8251528744202
 51
3.17484712557976
  0
ARC
  5
3E8
  8
__
  6
CONTINUOUS
 62
     7
 10
-1201.186148236944
 20
-1490.054469011811
 30
0.0
 40
0.9400048073215113
 50
7.532080377458499
 51
112.4679196475227
  0
ARC
  5
3E9
  8
__
  6
CONTINUOUS
 62
     7
 10
-1201.684726865794
 20
-1488.972677509478
 30
0.0
 40
0.2546449810459963
 50
116.8251528743639
 51
303.1748471256834
  0
ARC
  5
3EA
  8
__
  6
CONTINUOUS
 62
     7
 10
-1198.813851763056
 20
-1485.945530988189
 30
0.0
 40
0.9400048073215113
 50
187.5320803774585
 51
292.4679196475483
  0
ARC
  5
3EB
  8
__
  6
CONTINUOUS
 62
     7
 10
-1198.315273134206
 20
-1487.027322490523
 30
0.0
 40
0.2546449810457956
 50
296.8251528745014
 51
123.1748471255418
  0
ARC
  5
3EC
  8
__
  6
CONTINUOUS
 62
     7
 10
-1197.627703526012
 20
-1487.999999999943
 30
0.0
 40
0.9400048073214804
 50
127.5320803774304
 51
232.4679196475174
  0
ARC
  5
3ED
  8
__
  6
CONTINUOUS
 62
     7
 10
-1198.813851763056
 20
-1490.054469011811
 30
0.0
 40
0.9400048073216826
 50
67.53208035245173
 51
172.4679196225415
  0
ARC
  5
3EE
  8
__
  6
CONTINUOUS
 62
     7
 10
-1198.315273134206
 20
-1488.972677509478
 30
0.0
 40
0.2546449810456626
 50
236.8251528744022
 51
63.17484712554481
  0
CIRCLE
  5
3EF
  8
__
  6
CONTINUOUS
 62
     7
 10
-1200.0
 20
-1488.0
 30
0.0
 40
6.0
  0
CIRCLE
  5
3F0
  8
__
  6
CONTINUOUS
 62
     7
 10
-1200.0
 20
-1488.0
 30
0.0
 40
4.5
  0
CIRCLE
  5
3F1
  8
__
  6
CONTINUOUS
 62
     7
 10
-1200.0
 20
-1488.0
 30
0.0
 40
3.0
  0
ARC
  5
3F2
  8
__
  6
CONTINUOUS
 62
     7
 10
-1165.5
 20
-1575.554644981046
 30
0.0
 40
0.2546449810461108
 50
356.8251528744259
 51
183.1748471255798
  0
ARC
  5
3F3
  8
__
  6
CONTINUOUS
 62
     7
 10
-1166.686148236944
 20
-1575.445530988189
 30
0.0
 40
0.9400048073215088
 50
247.5320803524773
 51
352.4679196225416
  0
ARC
  5
3F4
  8
__
  6
CONTINUOUS
 62
     7
 10
-1167.184726865794
 20
-1576.527322490523
 30
0.0
 40
0.2546449810462921
 50
56.8251528743726
 51
243.1748471255899
  0
ARC
  5
3F5
  8
__
  6
CONTINUOUS
 62
     7
 10
-1167.872296473988
 20
-1577.499999999943
 30
0.0
 40
0.9400048073212975
 50
307.5320803524826
 51
52.46791962254764
  0
ARC
  5
3F6
  8
__
  6
CONTINUOUS
 62
     7
 10
-1165.5
 20
-1579.445355018954
 30
0.0
 40
0.2546449810456567
 50
176.8251528744202
 51
3.17484712557976
  0
ARC
  5
3F7
  8
__
  6
CONTINUOUS
 62
     7
 10
-1166.686148236944
 20
-1579.554469011811
 30
0.0
 40
0.9400048073215113
 50
7.532080377458499
 51
112.4679196475227
  0
ARC
  5
3F8
  8
__
  6
CONTINUOUS
 62
     7
 10
-1167.184726865794
 20
-1578.472677509478
 30
0.0
 40
0.2546449810459963
 50
116.8251528743639
 51
303.1748471256834
  0
ARC
  5
3F9
  8
__
  6
CONTINUOUS
 62
     7
 10
-1164.313851763056
 20
-1575.445530988189
 30
0.0
 40
0.9400048073215113
 50
187.5320803774585
 51
292.4679196475483
  0
ARC
  5
3FA
  8
__
  6
CONTINUOUS
 62
     7
 10
-1163.815273134206
 20
-1576.527322490523
 30
0.0
 40
0.2546449810457956
 50
296.8251528745014
 51
123.1748471255418
  0
ARC
  5
3FB
  8
__
  6
CONTINUOUS
 62
     7
 10
-1163.127703526012
 20
-1577.499999999943
 30
0.0
 40
0.9400048073214804
 50
127.5320803774304
 51
232.4679196475174
  0
ARC
  5
3FC
  8
__
  6
CONTINUOUS
 62
     7
 10
-1164.313851763056
 20
-1579.554469011811
 30
0.0
 40
0.9400048073216826
 50
67.53208035245173
 51
172.4679196225415
  0
ARC
  5
3FD
  8
__
  6
CONTINUOUS
 62
     7
 10
-1163.815273134206
 20
-1578.472677509478
 30
0.0
 40
0.2546449810456626
 50
236.8251528744022
 51
63.17484712554481
  0
CIRCLE
  5
3FE
  8
__
  6
CONTINUOUS
 62
     7
 10
-1165.5
 20
-1577.5
 30
0.0
 40
6.0
  0
CIRCLE
  5
3FF
  8
__
  6
CONTINUOUS
 62
     7
 10
-1165.5
 20
-1577.5
 30
0.0
 40
4.5
  0
CIRCLE
  5
400
  8
__
  6
CONTINUOUS
 62
     7
 10
-1165.5
 20
-1577.5
 30
0.0
 40
3.0
  0
ARC
  5
401
  8
__
  6
CONTINUOUS
 62
     7
 10
-1165.5
 20
-1520.554644981046
 30
0.0
 40
0.2546449810461108
 50
356.8251528744259
 51
183.1748471255798
  0
ARC
  5
402
  8
__
  6
CONTINUOUS
 62
     7
 10
-1166.686148236944
 20
-1520.445530988189
 30
0.0
 40
0.9400048073215088
 50
247.5320803524773
 51
352.4679196225416
  0
ARC
  5
403
  8
__
  6
CONTINUOUS
 62
     7
 10
-1167.184726865794
 20
-1521.527322490523
 30
0.0
 40
0.2546449810462921
 50
56.8251528743726
 51
243.1748471255899
  0
ARC
  5
404
  8
__
  6
CONTINUOUS
 62
     7
 10
-1167.872296473988
 20
-1522.499999999943
 30
0.0
 40
0.9400048073212975
 50
307.5320803524826
 51
52.46791962254764
  0
ARC
  5
405
  8
__
  6
CONTINUOUS
 62
     7
 10
-1165.5
 20
-1524.445355018954
 30
0.0
 40
0.2546449810456567
 50
176.8251528744202
 51
3.17484712557976
  0
ARC
  5
406
  8
__
  6
CONTINUOUS
 62
     7
 10
-1166.686148236944
 20
-1524.554469011811
 30
0.0
 40
0.9400048073215113
 50
7.532080377458499
 51
112.4679196475227
  0
ARC
  5
407
  8
__
  6
CONTINUOUS
 62
     7
 10
-1167.184726865794
 20
-1523.472677509478
 30
0.0
 40
0.2546449810459963
 50
116.8251528743639
 51
303.1748471256834
  0
ARC
  5
408
  8
__
  6
CONTINUOUS
 62
     7
 10
-1164.313851763056
 20
-1520.445530988189
 30
0.0
 40
0.9400048073215113
 50
187.5320803774585
 51
292.4679196475483
  0
ARC
  5
409
  8
__
  6
CONTINUOUS
 62
     7
 10
-1163.815273134206
 20
-1521.527322490523
 30
0.0
 40
0.2546449810457956
 50
296.8251528745014
 51
123.1748471255418
  0
ARC
  5
40A
  8
__
  6
CONTINUOUS
 62
     7
 10
-1163.127703526012
 20
-1522.499999999943
 30
0.0
 40
0.9400048073214804
 50
127.5320803774304
 51
232.4679196475174
  0
ARC
  5
40B
  8
__
  6
CONTINUOUS
 62
     7
 10
-1164.313851763056
 20
-1524.554469011811
 30
0.0
 40
0.9400048073216826
 50
67.53208035245173
 51
172.4679196225415
  0
ARC
  5
40C
  8
__
  6
CONTINUOUS
 62
     7
 10
-1163.815273134206
 20
-1523.472677509478
 30
0.0
 40
0.2546449810456626
 50
236.8251528744022
 51
63.17484712554481
  0
CIRCLE
  5
40D
  8
__
  6
CONTINUOUS
 62
     7
 10
-1165.5
 20
-1522.5
 30
0.0
 40
6.0
  0
CIRCLE
  5
40E
  8
__
  6
CONTINUOUS
 62
     7
 10
-1165.5
 20
-1522.5
 30
0.0
 40
4.5
  0
CIRCLE
  5
40F
  8
__
  6
CONTINUOUS
 62
     7
 10
-1165.5
 20
-1522.5
 30
0.0
 40
3.0
  0
LINE
  5
410
  8
__
  6
CONTINUOUS
 62
     7
 10
-1340.767950000001
 20
-1439.00000239875
 30
0.0
 11
-1344.232050000001
 21
-1439.00000239875
 31
0.0
  0
LINE
  5
411
  8
__
  6
CONTINUOUS
 62
     7
 10
-1344.232050000001
 20
-1444.99999960125
 30
0.0
 11
-1340.767950000001
 21
-1444.99999960125
 31
0.0
  0
LINE
  5
412
  8
__
  6
CONTINUOUS
 62
     7
 10
-1344.232050000001
 20
-1439.00000239875
 30
0.0
 11
-1345.964100000001
 21
-1442.000001
 31
0.0
  0
LINE
  5
413
  8
__
  6
CONTINUOUS
 62
     7
 10
-1345.964100000001
 20
-1442.000001
 30
0.0
 11
-1344.232050000001
 21
-1444.99999960125
 31
0.0
  0
LINE
  5
414
  8
__
  6
CONTINUOUS
 62
     7
 10
-1339.0359
 20
-1442.000001
 30
0.0
 11
-1340.767950000001
 21
-1439.00000239875
 31
0.0
  0
LINE
  5
415
  8
__
  6
CONTINUOUS
 62
     7
 10
-1340.767950000001
 20
-1444.99999960125
 30
0.0
 11
-1339.0359
 21
-1442.000001
 31
0.0
  0
ARC
  5
416
  8
__
  6
CONTINUOUS
 62
     7
 10
-422.9791620000001
 20
-660.3022356901255
 30
0.0
 40
0.222235619821771
 50
356.8251528744042
 51
183.1748471255959
  0
ARC
  5
417
  8
__
  6
CONTINUOUS
 62
     7
 10
-424.0143459158787
 20
-660.2070089327234
 30
0.0
 40
0.8203678318443084
 50
247.5320803524656
 51
352.4679196225455
  0
ARC
  5
418
  8
__
  6
CONTINUOUS
 62
     7
 10
-424.4494690828747
 20
-661.1511178802147
 30
0.0
 40
0.222235619821818
 50
56.82515287442732
 51
243.1748471255292
  0
ARC
  5
419
  8
__
  6
CONTINUOUS
 62
     7
 10
-425.0495298318442
 20
-662.0000000702535
 30
0.0
 40
0.8203678318442621
 50
307.5320803524617
 51
52.46791962255705
  0
ARC
  5
41A
  8
__
  6
CONTINUOUS
 62
     7
 10
-422.9791620000001
 20
-663.6977644504819
 30
0.0
 40
0.222235619821771
 50
176.8251528744042
 51
3.174847125595846
  0
ARC
  5
41B
  8
__
  6
CONTINUOUS
 62
     7
 10
-424.0143459158787
 20
-663.792991207884
 30
0.0
 40
0.8203678318442955
 50
7.532080377454527
 51
112.4679196475343
  0
ARC
  5
41C
  8
__
  6
CONTINUOUS
 62
     7
 10
-424.4494690828747
 20
-662.8488822603928
 30
0.0
 40
0.2222356198218735
 50
116.8251528744708
 51
303.1748471255727
  0
ARC
  5
41D
  8
__
  6
CONTINUOUS
 62
     7
 10
-421.9439780841217
 20
-660.2070089327234
 30
0.0
 40
0.8203678318440701
 50
187.5320803774566
 51
292.4679196475344
  0
ARC
  5
41E
  8
__
  6
CONTINUOUS
 62
     7
 10
-421.5088549171255
 20
-661.1511178802147
 30
0.0
 40
0.2222356198217709
 50
296.8251528744185
 51
123.1748471255727
  0
ARC
  5
41F
  8
__
  6
CONTINUOUS
 62
     7
 10
-420.908794168156
 20
-662.0000000702535
 30
0.0
 40
0.8203678318442142
 50
127.5320803774555
 51
232.4679196475383
  0
ARC
  5
420
  8
__
  6
CONTINUOUS
 62
     7
 10
-421.9439780841217
 20
-663.792991207884
 30
0.0
 40
0.8203678318443084
 50
67.53208035246568
 51
172.4679196225434
  0
ARC
  5
421
  8
__
  6
CONTINUOUS
 62
     7
 10
-421.5088549171255
 20
-662.8488822603928
 30
0.0
 40
0.222235619821818
 50
236.8251528744273
 51
63.17484712558153
  0
ARC
  5
422
  8
__
  6
CONTINUOUS
 62
     7
 10
-399.9716520000002
 20
-639.2991086901255
 30
0.0
 40
0.222235619821771
 50
356.8251528744042
 51
183.1748471255959
  0
ARC
  5
423
  8
__
  6
CONTINUOUS
 62
     7
 10
-401.0068359158788
 20
-639.2038819327234
 30
0.0
 40
0.8203678318443084
 50
247.5320803524656
 51
352.4679196225455
  0
ARC
  5
424
  8
__
  6
CONTINUOUS
 62
     7
 10
-401.4419590828747
 20
-640.1479908802147
 30
0.0
 40
0.222235619821818
 50
56.82515287442732
 51
243.1748471255292
  0
ARC
  5
425
  8
__
  6
CONTINUOUS
 62
     7
 10
-402.0420198318443
 20
-640.9968730702535
 30
0.0
 40
0.8203678318442621
 50
307.5320803524617
 51
52.46791962255705
  0
ARC
  5
426
  8
__
  6
CONTINUOUS
 62
     7
 10
-399.9716520000002
 20
-642.694637450482
 30
0.0
 40
0.222235619821771
 50
176.8251528744042
 51
3.174847125595846
  0
ARC
  5
427
  8
__
  6
CONTINUOUS
 62
     7
 10
-401.0068359158788
 20
-642.7898642078841
 30
0.0
 40
0.8203678318442955
 50
7.532080377454527
 51
112.4679196475343
  0
ARC
  5
428
  8
__
  6
CONTINUOUS
 62
     7
 10
-401.4419590828747
 20
-641.8457552603928
 30
0.0
 40
0.2222356198218735
 50
116.8251528744708
 51
303.1748471255727
  0
ARC
  5
429
  8
__
  6
CONTINUOUS
 62
     7
 10
-398.9364680841218
 20
-639.2038819327234
 30
0.0
 40
0.8203678318440701
 50
187.5320803774566
 51
292.4679196475344
  0
ARC
  5
42A
  8
__
  6
CONTINUOUS
 62
     7
 10
-398.5013449171256
 20
-640.1479908802147
 30
0.0
 40
0.2222356198217709
 50
296.8251528744185
 51
123.1748471255727
  0
ARC
  5
42B
  8
__
  6
CONTINUOUS
 62
     7
 10
-397.9012841681561
 20
-640.9968730702535
 30
0.0
 40
0.8203678318442142
 50
127.5320803774555
 51
232.4679196475383
  0
ARC
  5
42C
  8
__
  6
CONTINUOUS
 62
     7
 10
-398.9364680841218
 20
-642.7898642078841
 30
0.0
 40
0.8203678318443084
 50
67.53208035246568
 51
172.4679196225434
  0
ARC
  5
42D
  8
__
  6
CONTINUOUS
 62
     7
 10
-398.5013449171256
 20
-641.8457552603928
 30
0.0
 40
0.222235619821818
 50
236.8251528744273
 51
63.17484712558153
  0
ARC
  5
42E
  8
__
  6
CONTINUOUS
 62
     7
 10
-299.9716520000002
 20
-639.2991086901255
 30
0.0
 40
0.222235619821771
 50
356.8251528744042
 51
183.1748471255959
  0
ARC
  5
42F
  8
__
  6
CONTINUOUS
 62
     7
 10
-301.0068359158788
 20
-639.2038819327234
 30
0.0
 40
0.8203678318443084
 50
247.5320803524656
 51
352.4679196225455
  0
ARC
  5
430
  8
__
  6
CONTINUOUS
 62
     7
 10
-301.4419590828747
 20
-640.1479908802147
 30
0.0
 40
0.222235619821818
 50
56.82515287442732
 51
243.1748471255292
  0
ARC
  5
431
  8
__
  6
CONTINUOUS
 62
     7
 10
-302.0420198318443
 20
-640.9968730702535
 30
0.0
 40
0.8203678318442621
 50
307.5320803524617
 51
52.46791962255705
  0
ARC
  5
432
  8
__
  6
CONTINUOUS
 62
     7
 10
-299.9716520000002
 20
-642.694637450482
 30
0.0
 40
0.222235619821771
 50
176.8251528744042
 51
3.174847125595846
  0
ARC
  5
433
  8
__
  6
CONTINUOUS
 62
     7
 10
-301.0068359158788
 20
-642.7898642078841
 30
0.0
 40
0.8203678318442955
 50
7.532080377454527
 51
112.4679196475343
  0
ARC
  5
434
  8
__
  6
CONTINUOUS
 62
     7
 10
-301.4419590828747
 20
-641.8457552603928
 30
0.0
 40
0.2222356198218735
 50
116.8251528744708
 51
303.1748471255727
  0
ARC
  5
435
  8
__
  6
CONTINUOUS
 62
     7
 10
-298.9364680841218
 20
-639.2038819327234
 30
0.0
 40
0.8203678318440701
 50
187.5320803774566
 51
292.4679196475344
  0
ARC
  5
436
  8
__
  6
CONTINUOUS
 62
     7
 10
-298.5013449171256
 20
-640.1479908802147
 30
0.0
 40
0.2222356198217709
 50
296.8251528744185
 51
123.1748471255727
  0
ARC
  5
437
  8
__
  6
CONTINUOUS
 62
     7
 10
-297.9012841681561
 20
-640.9968730702535
 30
0.0
 40
0.8203678318442142
 50
127.5320803774555
 51
232.4679196475383
  0
ARC
  5
438
  8
__
  6
CONTINUOUS
 62
     7
 10
-298.9364680841218
 20
-642.7898642078841
 30
0.0
 40
0.8203678318443084
 50
67.53208035246568
 51
172.4679196225434
  0
ARC
  5
439
  8
__
  6
CONTINUOUS
 62
     7
 10
-298.5013449171256
 20
-641.8457552603928
 30
0.0
 40
0.222235619821818
 50
236.8251528744273
 51
63.17484712558153
  0
ARC
  5
43A
  8
__
  6
CONTINUOUS
 62
     7
 10
-277.1624210000004
 20
-660.3022356901255
 30
0.0
 40
0.222235619821771
 50
356.8251528744042
 51
183.1748471255959
  0
ARC
  5
43B
  8
__
  6
CONTINUOUS
 62
     7
 10
-278.1976049158791
 20
-660.2070089327234
 30
0.0
 40
0.8203678318443084
 50
247.5320803524656
 51
352.4679196225455
  0
ARC
  5
43C
  8
__
  6
CONTINUOUS
 62
     7
 10
-278.632728082875
 20
-661.1511178802147
 30
0.0
 40
0.222235619821818
 50
56.82515287442732
 51
243.1748471255292
  0
ARC
  5
43D
  8
__
  6
CONTINUOUS
 62
     7
 10
-279.2327888318446
 20
-662.0000000702535
 30
0.0
 40
0.8203678318442621
 50
307.5320803524617
 51
52.46791962255705
  0
ARC
  5
43E
  8
__
  6
CONTINUOUS
 62
     7
 10
-277.1624210000004
 20
-663.6977644504819
 30
0.0
 40
0.222235619821771
 50
176.8251528744042
 51
3.174847125595846
  0
ARC
  5
43F
  8
__
  6
CONTINUOUS
 62
     7
 10
-278.1976049158791
 20
-663.792991207884
 30
0.0
 40
0.8203678318442955
 50
7.532080377454527
 51
112.4679196475343
  0
ARC
  5
440
  8
__
  6
CONTINUOUS
 62
     7
 10
-278.632728082875
 20
-662.8488822603928
 30
0.0
 40
0.2222356198218735
 50
116.8251528744708
 51
303.1748471255727
  0
ARC
  5
441
  8
__
  6
CONTINUOUS
 62
     7
 10
-276.127237084122
 20
-660.2070089327234
 30
0.0
 40
0.8203678318440701
 50
187.5320803774566
 51
292.4679196475344
  0
ARC
  5
442
  8
__
  6
CONTINUOUS
 62
     7
 10
-275.6921139171259
 20
-661.1511178802147
 30
0.0
 40
0.2222356198217709
 50
296.8251528744185
 51
123.1748471255727
  0
ARC
  5
443
  8
__
  6
CONTINUOUS
 62
     7
 10
-275.0920531681563
 20
-662.0000000702535
 30
0.0
 40
0.8203678318442142
 50
127.5320803774555
 51
232.4679196475383
  0
ARC
  5
444
  8
__
  6
CONTINUOUS
 62
     7
 10
-276.127237084122
 20
-663.792991207884
 30
0.0
 40
0.8203678318443084
 50
67.53208035246568
 51
172.4679196225434
  0
ARC
  5
445
  8
__
  6
CONTINUOUS
 62
     7
 10
-275.6921139171259
 20
-662.8488822603928
 30
0.0
 40
0.222235619821818
 50
236.8251528744273
 51
63.17484712558153
  0
ARC
  5
446
  8
__
  6
CONTINUOUS
 62
     7
 10
-277.1624210000004
 20
-750.3022356901255
 30
0.0
 40
0.222235619821771
 50
356.8251528744042
 51
183.1748471255959
  0
ARC
  5
447
  8
__
  6
CONTINUOUS
 62
     7
 10
-278.1976049158791
 20
-750.2070089327234
 30
0.0
 40
0.8203678318443084
 50
247.5320803524656
 51
352.4679196225455
  0
ARC
  5
448
  8
__
  6
CONTINUOUS
 62
     7
 10
-278.632728082875
 20
-751.1511178802147
 30
0.0
 40
0.222235619821818
 50
56.82515287442732
 51
243.1748471255292
  0
ARC
  5
449
  8
__
  6
CONTINUOUS
 62
     7
 10
-279.2327888318446
 20
-752.0000000702535
 30
0.0
 40
0.8203678318442621
 50
307.5320803524617
 51
52.46791962255705
  0
ARC
  5
44A
  8
__
  6
CONTINUOUS
 62
     7
 10
-277.1624210000004
 20
-753.6977644504819
 30
0.0
 40
0.222235619821771
 50
176.8251528744042
 51
3.174847125595846
  0
ARC
  5
44B
  8
__
  6
CONTINUOUS
 62
     7
 10
-278.1976049158791
 20
-753.792991207884
 30
0.0
 40
0.8203678318442955
 50
7.532080377454527
 51
112.4679196475343
  0
ARC
  5
44C
  8
__
  6
CONTINUOUS
 62
     7
 10
-278.632728082875
 20
-752.8488822603928
 30
0.0
 40
0.2222356198218735
 50
116.8251528744708
 51
303.1748471255727
  0
ARC
  5
44D
  8
__
  6
CONTINUOUS
 62
     7
 10
-276.127237084122
 20
-750.2070089327234
 30
0.0
 40
0.8203678318440701
 50
187.5320803774566
 51
292.4679196475344
  0
ARC
  5
44E
  8
__
  6
CONTINUOUS
 62
     7
 10
-275.6921139171259
 20
-751.1511178802147
 30
0.0
 40
0.2222356198217709
 50
296.8251528744185
 51
123.1748471255727
  0
ARC
  5
44F
  8
__
  6
CONTINUOUS
 62
     7
 10
-275.0920531681563
 20
-752.0000000702535
 30
0.0
 40
0.8203678318442142
 50
127.5320803774555
 51
232.4679196475383
  0
ARC
  5
450
  8
__
  6
CONTINUOUS
 62
     7
 10
-276.127237084122
 20
-753.792991207884
 30
0.0
 40
0.8203678318443084
 50
67.53208035246568
 51
172.4679196225434
  0
ARC
  5
451
  8
__
  6
CONTINUOUS
 62
     7
 10
-275.6921139171259
 20
-752.8488822603928
 30
0.0
 40
0.222235619821818
 50
236.8251528744273
 51
63.17484712558153
  0
ARC
  5
452
  8
__
  6
CONTINUOUS
 62
     7
 10
-277.1624210000004
 20
-840.3022356901255
 30
0.0
 40
0.222235619821771
 50
356.8251528744042
 51
183.1748471255959
  0
ARC
  5
453
  8
__
  6
CONTINUOUS
 62
     7
 10
-278.1976049158791
 20
-840.2070089327234
 30
0.0
 40
0.8203678318443084
 50
247.5320803524656
 51
352.4679196225455
  0
ARC
  5
454
  8
__
  6
CONTINUOUS
 62
     7
 10
-278.632728082875
 20
-841.1511178802147
 30
0.0
 40
0.222235619821818
 50
56.82515287442732
 51
243.1748471255292
  0
ARC
  5
455
  8
__
  6
CONTINUOUS
 62
     7
 10
-279.2327888318446
 20
-842.0000000702535
 30
0.0
 40
0.8203678318442621
 50
307.5320803524617
 51
52.46791962255705
  0
ARC
  5
456
  8
__
  6
CONTINUOUS
 62
     7
 10
-277.1624210000004
 20
-843.6977644504819
 30
0.0
 40
0.222235619821771
 50
176.8251528744042
 51
3.174847125595846
  0
ARC
  5
457
  8
__
  6
CONTINUOUS
 62
     7
 10
-278.1976049158791
 20
-843.792991207884
 30
0.0
 40
0.8203678318442955
 50
7.532080377454527
 51
112.4679196475343
  0
ARC
  5
458
  8
__
  6
CONTINUOUS
 62
     7
 10
-278.632728082875
 20
-842.8488822603928
 30
0.0
 40
0.2222356198218735
 50
116.8251528744708
 51
303.1748471255727
  0
ARC
  5
459
  8
__
  6
CONTINUOUS
 62
     7
 10
-276.127237084122
 20
-840.2070089327234
 30
0.0
 40
0.8203678318440701
 50
187.5320803774566
 51
292.4679196475344
  0
ARC
  5
45A
  8
__
  6
CONTINUOUS
 62
     7
 10
-275.6921139171259
 20
-841.1511178802147
 30
0.0
 40
0.2222356198217709
 50
296.8251528744185
 51
123.1748471255727
  0
ARC
  5
45B
  8
__
  6
CONTINUOUS
 62
     7
 10
-275.0920531681563
 20
-842.0000000702535
 30
0.0
 40
0.8203678318442142
 50
127.5320803774555
 51
232.4679196475383
  0
ARC
  5
45C
  8
__
  6
CONTINUOUS
 62
     7
 10
-276.127237084122
 20
-843.792991207884
 30
0.0
 40
0.8203678318443084
 50
67.53208035246568
 51
172.4679196225434
  0
ARC
  5
45D
  8
__
  6
CONTINUOUS
 62
     7
 10
-275.6921139171259
 20
-842.8488822603928
 30
0.0
 40
0.222235619821818
 50
236.8251528744273
 51
63.17484712558153
  0
ARC
  5
45E
  8
__
  6
CONTINUOUS
 62
     7
 10
-277.1624210000004
 20
-930.3022356901256
 30
0.0
 40
0.2222356198217647
 50
356.8251528744334
 51
183.1748471255666
  0
ARC
  5
45F
  8
__
  6
CONTINUOUS
 62
     7
 10
-278.1976049158791
 20
-930.2070089327235
 30
0.0
 40
0.8203678318440982
 50
247.5320803524596
 51
352.4679196225533
  0
ARC
  5
460
  8
__
  6
CONTINUOUS
 62
     7
 10
-278.632728082875
 20
-931.1511178802148
 30
0.0
 40
0.2222356198220083
 50
56.8251528744594
 51
243.1748471255292
  0
ARC
  5
461
  8
__
  6
CONTINUOUS
 62
     7
 10
-279.2327888318446
 20
-932.0000000702535
 30
0.0
 40
0.8203678318443522
 50
307.5320803524568
 51
52.46791962255222
  0
ARC
  5
462
  8
__
  6
CONTINUOUS
 62
     7
 10
-277.1624210000004
 20
-933.6977644504818
 30
0.0
 40
0.2222356198217647
 50
176.8251528744334
 51
3.174847125566601
  0
ARC
  5
463
  8
__
  6
CONTINUOUS
 62
     7
 10
-278.1976049158791
 20
-933.7929912078839
 30
0.0
 40
0.8203678318442806
 50
7.532080377446654
 51
112.4679196475404
  0
ARC
  5
464
  8
__
  6
CONTINUOUS
 62
     7
 10
-278.632728082875
 20
-932.8488822603927
 30
0.0
 40
0.2222356198218735
 50
116.8251528744708
 51
303.1748471255407
  0
ARC
  5
465
  8
__
  6
CONTINUOUS
 62
     7
 10
-276.127237084122
 20
-930.2070089327235
 30
0.0
 40
0.8203678318440553
 50
187.5320803774487
 51
292.4679196475404
  0
ARC
  5
466
  8
__
  6
CONTINUOUS
 62
     7
 10
-275.6921139171259
 20
-931.1511178802148
 30
0.0
 40
0.2222356198217709
 50
296.8251528744185
 51
123.1748471255406
  0
ARC
  5
467
  8
__
  6
CONTINUOUS
 62
     7
 10
-275.0920531681563
 20
-932.0000000702535
 30
0.0
 40
0.8203678318441241
 50
127.5320803774604
 51
232.4679196475432
  0
ARC
  5
468
  8
__
  6
CONTINUOUS
 62
     7
 10
-276.127237084122
 20
-933.7929912078839
 30
0.0
 40
0.8203678318440982
 50
67.5320803524596
 51
172.4679196225513
  0
ARC
  5
469
  8
__
  6
CONTINUOUS
 62
     7
 10
-275.6921139171259
 20
-932.8488822603927
 30
0.0
 40
0.2222356198220083
 50
236.8251528744594
 51
63.17484712558153
  0
ARC
  5
46A
  8
__
  6
CONTINUOUS
 62
     7
 10
-299.9716520000002
 20
-952.3022356901256
 30
0.0
 40
0.2222356198217647
 50
356.8251528744334
 51
183.1748471255666
  0
ARC
  5
46B
  8
__
  6
CONTINUOUS
 62
     7
 10
-301.0068359158788
 20
-952.2070089327235
 30
0.0
 40
0.8203678318440982
 50
247.5320803524596
 51
352.4679196225533
  0
ARC
  5
46C
  8
__
  6
CONTINUOUS
 62
     7
 10
-301.4419590828747
 20
-953.1511178802148
 30
0.0
 40
0.2222356198220083
 50
56.8251528744594
 51
243.1748471255292
  0
ARC
  5
46D
  8
__
  6
CONTINUOUS
 62
     7
 10
-302.0420198318443
 20
-954.0000000702535
 30
0.0
 40
0.8203678318443522
 50
307.5320803524568
 51
52.46791962255222
  0
ARC
  5
46E
  8
__
  6
CONTINUOUS
 62
     7
 10
-299.9716520000002
 20
-955.6977644504818
 30
0.0
 40
0.2222356198217647
 50
176.8251528744334
 51
3.174847125566601
  0
ARC
  5
46F
  8
__
  6
CONTINUOUS
 62
     7
 10
-301.0068359158788
 20
-955.7929912078839
 30
0.0
 40
0.8203678318442806
 50
7.532080377446654
 51
112.4679196475404
  0
ARC
  5
470
  8
__
  6
CONTINUOUS
 62
     7
 10
-301.4419590828747
 20
-954.8488822603927
 30
0.0
 40
0.2222356198218735
 50
116.8251528744708
 51
303.1748471255407
  0
ARC
  5
471
  8
__
  6
CONTINUOUS
 62
     7
 10
-298.9364680841218
 20
-952.2070089327235
 30
0.0
 40
0.8203678318440553
 50
187.5320803774487
 51
292.4679196475404
  0
ARC
  5
472
  8
__
  6
CONTINUOUS
 62
     7
 10
-298.5013449171256
 20
-953.1511178802148
 30
0.0
 40
0.2222356198217709
 50
296.8251528744185
 51
123.1748471255406
  0
ARC
  5
473
  8
__
  6
CONTINUOUS
 62
     7
 10
-297.9012841681561
 20
-954.0000000702535
 30
0.0
 40
0.8203678318441241
 50
127.5320803774604
 51
232.4679196475432
  0
ARC
  5
474
  8
__
  6
CONTINUOUS
 62
     7
 10
-298.9364680841218
 20
-955.7929912078839
 30
0.0
 40
0.8203678318440982
 50
67.5320803524596
 51
172.4679196225513
  0
ARC
  5
475
  8
__
  6
CONTINUOUS
 62
     7
 10
-298.5013449171256
 20
-954.8488822603927
 30
0.0
 40
0.2222356198220083
 50
236.8251528744594
 51
63.17484712558153
  0
ARC
  5
476
  8
__
  6
CONTINUOUS
 62
     7
 10
-399.9716520000002
 20
-952.3022356901256
 30
0.0
 40
0.2222356198217647
 50
356.8251528744334
 51
183.1748471255666
  0
ARC
  5
477
  8
__
  6
CONTINUOUS
 62
     7
 10
-401.0068359158788
 20
-952.2070089327235
 30
0.0
 40
0.8203678318440982
 50
247.5320803524596
 51
352.4679196225533
  0
ARC
  5
478
  8
__
  6
CONTINUOUS
 62
     7
 10
-401.4419590828747
 20
-953.1511178802148
 30
0.0
 40
0.2222356198220083
 50
56.8251528744594
 51
243.1748471255292
  0
ARC
  5
479
  8
__
  6
CONTINUOUS
 62
     7
 10
-402.0420198318443
 20
-954.0000000702535
 30
0.0
 40
0.8203678318443522
 50
307.5320803524568
 51
52.46791962255222
  0
ARC
  5
47A
  8
__
  6
CONTINUOUS
 62
     7
 10
-399.9716520000002
 20
-955.6977644504818
 30
0.0
 40
0.2222356198217647
 50
176.8251528744334
 51
3.174847125566601
  0
ARC
  5
47B
  8
__
  6
CONTINUOUS
 62
     7
 10
-401.0068359158788
 20
-955.7929912078839
 30
0.0
 40
0.8203678318442806
 50
7.532080377446654
 51
112.4679196475404
  0
ARC
  5
47C
  8
__
  6
CONTINUOUS
 62
     7
 10
-401.4419590828747
 20
-954.8488822603927
 30
0.0
 40
0.2222356198218735
 50
116.8251528744708
 51
303.1748471255407
  0
ARC
  5
47D
  8
__
  6
CONTINUOUS
 62
     7
 10
-398.9364680841218
 20
-952.2070089327235
 30
0.0
 40
0.8203678318440553
 50
187.5320803774487
 51
292.4679196475404
  0
ARC
  5
47E
  8
__
  6
CONTINUOUS
 62
     7
 10
-398.5013449171256
 20
-953.1511178802148
 30
0.0
 40
0.2222356198217709
 50
296.8251528744185
 51
123.1748471255406
  0
ARC
  5
47F
  8
__
  6
CONTINUOUS
 62
     7
 10
-397.9012841681561
 20
-954.0000000702535
 30
0.0
 40
0.8203678318441241
 50
127.5320803774604
 51
232.4679196475432
  0
ARC
  5
480
  8
__
  6
CONTINUOUS
 62
     7
 10
-398.9364680841218
 20
-955.7929912078839
 30
0.0
 40
0.8203678318440982
 50
67.5320803524596
 51
172.4679196225513
  0
ARC
  5
481
  8
__
  6
CONTINUOUS
 62
     7
 10
-398.5013449171256
 20
-954.8488822603927
 30
0.0
 40
0.2222356198220083
 50
236.8251528744594
 51
63.17484712558153
  0
ARC
  5
482
  8
__
  6
CONTINUOUS
 62
     7
 10
-422.9791620000001
 20
-930.3022356901256
 30
0.0
 40
0.2222356198217647
 50
356.8251528744334
 51
183.1748471255666
  0
ARC
  5
483
  8
__
  6
CONTINUOUS
 62
     7
 10
-424.0143459158787
 20
-930.2070089327235
 30
0.0
 40
0.8203678318440982
 50
247.5320803524596
 51
352.4679196225533
  0
ARC
  5
484
  8
__
  6
CONTINUOUS
 62
     7
 10
-424.4494690828747
 20
-931.1511178802148
 30
0.0
 40
0.2222356198220083
 50
56.8251528744594
 51
243.1748471255292
  0
ARC
  5
485
  8
__
  6
CONTINUOUS
 62
     7
 10
-425.0495298318442
 20
-932.0000000702535
 30
0.0
 40
0.8203678318443522
 50
307.5320803524568
 51
52.46791962255222
  0
ARC
  5
486
  8
__
  6
CONTINUOUS
 62
     7
 10
-422.9791620000001
 20
-933.6977644504818
 30
0.0
 40
0.2222356198217647
 50
176.8251528744334
 51
3.174847125566601
  0
ARC
  5
487
  8
__
  6
CONTINUOUS
 62
     7
 10
-424.0143459158787
 20
-933.7929912078839
 30
0.0
 40
0.8203678318442806
 50
7.532080377446654
 51
112.4679196475404
  0
ARC
  5
488
  8
__
  6
CONTINUOUS
 62
     7
 10
-424.4494690828747
 20
-932.8488822603927
 30
0.0
 40
0.2222356198218735
 50
116.8251528744708
 51
303.1748471255407
  0
ARC
  5
489
  8
__
  6
CONTINUOUS
 62
     7
 10
-421.9439780841217
 20
-930.2070089327235
 30
0.0
 40
0.8203678318440553
 50
187.5320803774487
 51
292.4679196475404
  0
ARC
  5
48A
  8
__
  6
CONTINUOUS
 62
     7
 10
-421.5088549171255
 20
-931.1511178802148
 30
0.0
 40
0.2222356198217709
 50
296.8251528744185
 51
123.1748471255406
  0
ARC
  5
48B
  8
__
  6
CONTINUOUS
 62
     7
 10
-420.908794168156
 20
-932.0000000702535
 30
0.0
 40
0.8203678318441241
 50
127.5320803774604
 51
232.4679196475432
  0
ARC
  5
48C
  8
__
  6
CONTINUOUS
 62
     7
 10
-421.9439780841217
 20
-933.7929912078839
 30
0.0
 40
0.8203678318440982
 50
67.5320803524596
 51
172.4679196225513
  0
ARC
  5
48D
  8
__
  6
CONTINUOUS
 62
     7
 10
-421.5088549171255
 20
-932.8488822603927
 30
0.0
 40
0.2222356198220083
 50
236.8251528744594
 51
63.17484712558153
  0
ARC
  5
48E
  8
__
  6
CONTINUOUS
 62
     7
 10
-422.9791620000001
 20
-840.3022356901255
 30
0.0
 40
0.222235619821771
 50
356.8251528744042
 51
183.1748471255959
  0
ARC
  5
48F
  8
__
  6
CONTINUOUS
 62
     7
 10
-424.0143459158787
 20
-840.2070089327234
 30
0.0
 40
0.8203678318443084
 50
247.5320803524656
 51
352.4679196225455
  0
ARC
  5
490
  8
__
  6
CONTINUOUS
 62
     7
 10
-424.4494690828747
 20
-841.1511178802147
 30
0.0
 40
0.222235619821818
 50
56.82515287442732
 51
243.1748471255292
  0
ARC
  5
491
  8
__
  6
CONTINUOUS
 62
     7
 10
-425.0495298318442
 20
-842.0000000702535
 30
0.0
 40
0.8203678318442621
 50
307.5320803524617
 51
52.46791962255705
  0
ARC
  5
492
  8
__
  6
CONTINUOUS
 62
     7
 10
-422.9791620000001
 20
-843.6977644504819
 30
0.0
 40
0.222235619821771
 50
176.8251528744042
 51
3.174847125595846
  0
ARC
  5
493
  8
__
  6
CONTINUOUS
 62
     7
 10
-424.0143459158787
 20
-843.792991207884
 30
0.0
 40
0.8203678318442955
 50
7.532080377454527
 51
112.4679196475343
  0
ARC
  5
494
  8
__
  6
CONTINUOUS
 62
     7
 10
-424.4494690828747
 20
-842.8488822603928
 30
0.0
 40
0.2222356198218735
 50
116.8251528744708
 51
303.1748471255727
  0
ARC
  5
495
  8
__
  6
CONTINUOUS
 62
     7
 10
-421.9439780841217
 20
-840.2070089327234
 30
0.0
 40
0.8203678318440701
 50
187.5320803774566
 51
292.4679196475344
  0
ARC
  5
496
  8
__
  6
CONTINUOUS
 62
     7
 10
-421.5088549171255
 20
-841.1511178802147
 30
0.0
 40
0.2222356198217709
 50
296.8251528744185
 51
123.1748471255727
  0
ARC
  5
497
  8
__
  6
CONTINUOUS
 62
     7
 10
-420.908794168156
 20
-842.0000000702535
 30
0.0
 40
0.8203678318442142
 50
127.5320803774555
 51
232.4679196475383
  0
ARC
  5
498
  8
__
  6
CONTINUOUS
 62
     7
 10
-421.9439780841217
 20
-843.792991207884
 30
0.0
 40
0.8203678318443084
 50
67.53208035246568
 51
172.4679196225434
  0
ARC
  5
499
  8
__
  6
CONTINUOUS
 62
     7
 10
-421.5088549171255
 20
-842.8488822603928
 30
0.0
 40
0.222235619821818
 50
236.8251528744273
 51
63.17484712558153
  0
ARC
  5
49A
  8
__
  6
CONTINUOUS
 62
     7
 10
-422.9791620000001
 20
-750.3022356901255
 30
0.0
 40
0.222235619821771
 50
356.8251528744042
 51
183.1748471255959
  0
ARC
  5
49B
  8
__
  6
CONTINUOUS
 62
     7
 10
-424.0143459158787
 20
-750.2070089327234
 30
0.0
 40
0.8203678318443084
 50
247.5320803524656
 51
352.4679196225455
  0
ARC
  5
49C
  8
__
  6
CONTINUOUS
 62
     7
 10
-424.4494690828747
 20
-751.1511178802147
 30
0.0
 40
0.222235619821818
 50
56.82515287442732
 51
243.1748471255292
  0
ARC
  5
49D
  8
__
  6
CONTINUOUS
 62
     7
 10
-425.0495298318442
 20
-752.0000000702535
 30
0.0
 40
0.8203678318442621
 50
307.5320803524617
 51
52.46791962255705
  0
ARC
  5
49E
  8
__
  6
CONTINUOUS
 62
     7
 10
-422.9791620000001
 20
-753.6977644504819
 30
0.0
 40
0.222235619821771
 50
176.8251528744042
 51
3.174847125595846
  0
ARC
  5
49F
  8
__
  6
CONTINUOUS
 62
     7
 10
-424.0143459158787
 20
-753.792991207884
 30
0.0
 40
0.8203678318442955
 50
7.532080377454527
 51
112.4679196475343
  0
ARC
  5
4A0
  8
__
  6
CONTINUOUS
 62
     7
 10
-424.4494690828747
 20
-752.8488822603928
 30
0.0
 40
0.2222356198218735
 50
116.8251528744708
 51
303.1748471255727
  0
ARC
  5
4A1
  8
__
  6
CONTINUOUS
 62
     7
 10
-421.9439780841217
 20
-750.2070089327234
 30
0.0
 40
0.8203678318440701
 50
187.5320803774566
 51
292.4679196475344
  0
ARC
  5
4A2
  8
__
  6
CONTINUOUS
 62
     7
 10
-421.5088549171255
 20
-751.1511178802147
 30
0.0
 40
0.2222356198217709
 50
296.8251528744185
 51
123.1748471255727
  0
ARC
  5
4A3
  8
__
  6
CONTINUOUS
 62
     7
 10
-420.908794168156
 20
-752.0000000702535
 30
0.0
 40
0.8203678318442142
 50
127.5320803774555
 51
232.4679196475383
  0
ARC
  5
4A4
  8
__
  6
CONTINUOUS
 62
     7
 10
-421.9439780841217
 20
-753.792991207884
 30
0.0
 40
0.8203678318443084
 50
67.53208035246568
 51
172.4679196225434
  0
ARC
  5
4A5
  8
__
  6
CONTINUOUS
 62
     7
 10
-421.5088549171255
 20
-752.8488822603928
 30
0.0
 40
0.222235619821818
 50
236.8251528744273
 51
63.17484712558153
  0
LINE
  5
4A6
  8
__
  6
CONTINUOUS
 62
     7
 10
-328.5539020000001
 20
-693.0000000703037
 30
0.0
 11
-378.5539040000003
 21
-693.0000000703037
 31
0.0
  0
LINE
  5
4A7
  8
__
  6
CONTINUOUS
 62
     7
 10
-328.5539020000001
 20
-693.0000000703037
 30
0.0
 11
-328.5423310000001
 21
-730.0000000703037
 31
0.0
  0
LINE
  5
4A8
  8
__
  6
CONTINUOUS
 62
     7
 10
-328.5423310000001
 20
-730.0000000703037
 30
0.0
 11
-378.5423330000003
 21
-730.0000000703037
 31
0.0
  0
LINE
  5
4A9
  8
__
  6
CONTINUOUS
 62
     7
 10
-378.5539040000003
 20
-693.0000000703037
 30
0.0
 11
-378.5423330000003
 21
-730.0000000703037
 31
0.0
  0
CIRCLE
  5
4AA
  8
__
  6
CONTINUOUS
 62
     7
 10
-400.0510910000003
 20
-702.0000000703037
 30
0.0
 40
7.5
  0
CIRCLE
  5
4AB
  8
__
  6
CONTINUOUS
 62
     7
 10
-311.0510860000004
 20
-702.0000000703037
 30
0.0
 40
9.0
  0
CIRCLE
  5
4AC
  8
__
  6
CONTINUOUS
 62
     7
 10
-311.0510860000004
 20
-726.5000000703037
 30
0.0
 40
3.5
  0
ARC
  5
4AD
  8
__
  6
CONTINUOUS
 62
     7
 10
-402.0510910000003
 20
-727.0000000703037
 30
0.0
 40
2.000000000000084
 50
94.84558399999177
 51
270.0
  0
ARC
  5
4AE
  8
__
  6
CONTINUOUS
 62
     7
 10
-398.0510910000003
 20
-727.0000000703037
 30
0.0
 40
2.0
 50
270.0
 51
90.0
  0
LINE
  5
4AF
  8
__
  6
CONTINUOUS
 62
     7
 10
-402.0510910000003
 20
-725.0000000703037
 30
0.0
 11
-398.0510910000003
 21
-725.0000000703037
 31
0.0
  0
LINE
  5
4B0
  8
__
  6
CONTINUOUS
 62
     7
 10
-402.0510910000003
 20
-729.0000000703037
 30
0.0
 11
-398.0510910000003
 21
-729.0000000703037
 31
0.0
  0
ARC
  5
4B1
  8
__
  6
CONTINUOUS
 62
     7
 10
-382.0539019999999
 20
-746.9940540703037
 30
0.0
 40
2.0
 50
90.0
 51
270.0
  0
ARC
  5
4B2
  8
__
  6
CONTINUOUS
 62
     7
 10
-378.0539019999999
 20
-746.9940540703037
 30
0.0
 40
2.0
 50
270.0
 51
90.0
  0
LINE
  5
4B3
  8
__
  6
CONTINUOUS
 62
     7
 10
-382.0539019999999
 20
-744.9940540703037
 30
0.0
 11
-378.0539019999999
 21
-744.9940540703037
 31
0.0
  0
LINE
  5
4B4
  8
__
  6
CONTINUOUS
 62
     7
 10
-382.0539019999999
 20
-748.9940540703037
 30
0.0
 11
-378.0539019999999
 21
-748.9940540703037
 31
0.0
  0
CIRCLE
  5
4B5
  8
__
  6
CONTINUOUS
 62
     7
 10
-380.049209
 20
-760.0000000703037
 30
0.0
 40
3.25
  0
CIRCLE
  5
4B6
  8
__
  6
CONTINUOUS
 62
     7
 10
-380.0539019999999
 20
-790.0000000703037
 30
0.0
 40
11.25
  0
CIRCLE
  5
4B7
  8
__
  6
CONTINUOUS
 62
     7
 10
-380.0494801805273
 20
-828.0000029874333
 30
0.0
 40
11.25
  0
ARC
  5
4B8
  8
__
  6
CONTINUOUS
 62
     7
 10
-380.0539019999999
 20
-790.0000000703037
 30
0.0
 40
10.50000000000009
 50
118.4548090000017
 51
61.58102900000164
  0
LINE
  5
4B9
  8
__
  6
CONTINUOUS
 62
     7
 10
-385.4141380000003
 20
-780.1090770703036
 30
0.0
 11
-385.056789
 21
-780.7684720703037
 31
0.0
  0
LINE
  5
4BA
  8
__
  6
CONTINUOUS
 62
     7
 10
-374.693665
 20
-780.1090770703036
 30
0.0
 11
-375.0510139999999
 21
-780.7684720703037
 31
0.0
  0
LINE
  5
4BB
  8
__
  6
CONTINUOUS
 62
     7
 10
-376.9615720000004
 20
-789.0000000703037
 30
0.0
 11
-375.554214
 21
-789.0000000703037
 31
0.0
  0
LINE
  5
4BC
  8
__
  6
CONTINUOUS
 62
     7
 10
-376.9615720000004
 20
-791.0000000703037
 30
0.0
 11
-375.5535890000003
 21
-791.0000000703037
 31
0.0
  0
LINE
  5
4BD
  8
__
  6
CONTINUOUS
 62
     7
 10
-381.0529349999999
 20
-793.0926420703036
 30
0.0
 11
-381.0524939999998
 21
-794.5000000703037
 31
0.0
  0
LINE
  5
4BE
  8
__
  6
CONTINUOUS
 62
     7
 10
-379.0529349999999
 20
-793.0920160703035
 30
0.0
 11
-379.0524939999998
 21
-794.5000000703037
 31
0.0
  0
CIRCLE
  5
4BF
  8
__
  6
CONTINUOUS
 62
     7
 10
-380.0539019999999
 20
-790.0000000703037
 30
0.0
 40
8.0
  0
LINE
  5
4C0
  8
__
  6
CONTINUOUS
 62
     7
 10
-383.1462309999999
 20
-789.0000000703037
 30
0.0
 11
-384.5542150000003
 21
-789.0000000703037
 31
0.0
  0
LINE
  5
4C1
  8
__
  6
CONTINUOUS
 62
     7
 10
-383.1462309999999
 20
-791.0000000703037
 30
0.0
 11
-384.5535890000003
 21
-791.0000000703037
 31
0.0
  0
ARC
  5
4C2
  8
__
  6
CONTINUOUS
 62
     7
 10
-384.5539019999999
 20
-790.0000000703037
 30
0.0
 40
0.9999999999999944
 50
90.01791900001633
 51
270.0179189999903
  0
ARC
  5
4C3
  8
__
  6
CONTINUOUS
 62
     7
 10
-380.0524939999998
 20
-794.5000000703037
 30
0.0
 40
1.0
 50
180.0
 51
0.0
  0
ARC
  5
4C4
  8
__
  6
CONTINUOUS
 62
     7
 10
-375.553901
 20
-790.0000000703037
 30
0.0
 40
0.9999999999999943
 50
270.0179189999903
 51
90.01791899999027
  0
ARC
  5
4C5
  8
__
  6
CONTINUOUS
 62
     7
 10
-380.0539019999999
 20
-790.0000000703037
 30
0.0
 40
3.250000000000547
 50
197.9202129999983
 51
252.097705999996
  0
ARC
  5
4C6
  8
__
  6
CONTINUOUS
 62
     7
 10
-380.0539019999999
 20
-790.0000000703037
 30
0.0
 40
3.249999999999936
 50
287.9381319999904
 51
342.0797869999968
  0
ARC
  5
4C7
  8
__
  6
CONTINUOUS
 62
     7
 10
-380.0539019999999
 20
-790.0000000703037
 30
0.0
 40
3.249999999999682
 50
17.92021300000318
 51
162.0797870000017
  0
CIRCLE
  5
4C8
  8
__
  6
CONTINUOUS
 62
     7
 10
-384.5494811805277
 20
-828.0000029874333
 30
0.0
 40
0.75
  0
CIRCLE
  5
4C9
  8
__
  6
CONTINUOUS
 62
     7
 10
-380.0480731805276
 20
-832.5000029874333
 30
0.0
 40
0.75
  0
CIRCLE
  5
4CA
  8
__
  6
CONTINUOUS
 62
     7
 10
-375.5494801805273
 20
-828.0000029874333
 30
0.0
 40
0.75
  0
CIRCLE
  5
4CB
  8
__
  6
CONTINUOUS
 62
     7
 10
-380.0494801805273
 20
-828.0000029874333
 30
0.0
 40
8.0
  0
CIRCLE
  5
4CC
  8
__
  6
CONTINUOUS
 62
     7
 10
-389.956492
 20
-780.1036020703036
 30
0.0
 40
1.5
  0
LINE
  5
4CD
  8
__
  6
CONTINUOUS
 62
     7
 10
-390.66382
 20
-779.3967160703037
 30
0.0
 11
-389.2491640000001
 21
-780.8104870703037
 31
0.0
  0
LINE
  5
4CE
  8
__
  6
CONTINUOUS
 62
     7
 10
-389.2496060000001
 20
-779.3962740703037
 30
0.0
 11
-390.6633780000004
 21
-780.8109300703036
 31
0.0
  0
CIRCLE
  5
4CF
  8
__
  6
CONTINUOUS
 62
     7
 10
-389.9520711805274
 20
-818.1036049874332
 30
0.0
 40
1.5
  0
LINE
  5
4D0
  8
__
  6
CONTINUOUS
 62
     7
 10
-390.6593991805273
 20
-817.3967189874332
 30
0.0
 11
-389.2447431805274
 21
-818.8104899874332
 31
0.0
  0
LINE
  5
4D1
  8
__
  6
CONTINUOUS
 62
     7
 10
-389.2451851805274
 20
-817.3962769874332
 30
0.0
 11
-390.6589571805273
 21
-818.8109329874331
 31
0.0
  0
LINE
  5
4D2
  8
__
  6
CONTINUOUS
 62
     7
 10
-370.8586390000003
 20
-799.1895130703035
 30
0.0
 11
-369.4439830000003
 21
-800.6032840703035
 31
0.0
  0
LINE
  5
4D3
  8
__
  6
CONTINUOUS
 62
     7
 10
-369.4444260000002
 20
-799.1890710703037
 30
0.0
 11
-370.8581969999998
 21
-800.6037260703035
 31
0.0
  0
LINE
  5
4D4
  8
__
  6
CONTINUOUS
 62
     7
 10
-370.8586390000003
 20
-799.1895130703035
 30
0.0
 11
-369.4439830000003
 21
-800.6032840703035
 31
0.0
  0
LINE
  5
4D5
  8
__
  6
CONTINUOUS
 62
     7
 10
-369.4444260000002
 20
-799.1890710703037
 30
0.0
 11
-370.8581969999998
 21
-800.6037260703035
 31
0.0
  0
CIRCLE
  5
4D6
  8
__
  6
CONTINUOUS
 62
     7
 10
-370.1468901805276
 20
-837.8964019874333
 30
0.0
 40
1.5
  0
LINE
  5
4D7
  8
__
  6
CONTINUOUS
 62
     7
 10
-370.8542181805271
 20
-837.1895159874331
 30
0.0
 11
-369.4395621805272
 21
-838.6032869874331
 31
0.0
  0
LINE
  5
4D8
  8
__
  6
CONTINUOUS
 62
     7
 10
-369.4400041805277
 20
-837.1890739874333
 30
0.0
 11
-370.8537761805276
 21
-838.6037289874331
 31
0.0
  0
CIRCLE
  5
4D9
  8
__
  6
CONTINUOUS
 62
     7
 10
-370.1468901805276
 20
-837.8964019874333
 30
0.0
 40
1.5
  0
LINE
  5
4DA
  8
__
  6
CONTINUOUS
 62
     7
 10
-370.8542181805271
 20
-837.1895159874331
 30
0.0
 11
-369.4395621805272
 21
-838.6032869874331
 31
0.0
  0
LINE
  5
4DB
  8
__
  6
CONTINUOUS
 62
     7
 10
-369.4400041805277
 20
-837.1890739874333
 30
0.0
 11
-370.8537761805276
 21
-838.6037289874331
 31
0.0
  0
ARC
  5
4DC
  8
__
  6
CONTINUOUS
 62
     7
 10
-355.5539030000002
 20
-746.9857660703037
 30
0.0
 40
2.0
 50
90.0
 51
270.0
  0
ARC
  5
4DD
  8
__
  6
CONTINUOUS
 62
     7
 10
-351.5539030000002
 20
-746.9857660703037
 30
0.0
 40
2.0
 50
270.0
 51
90.0
  0
LINE
  5
4DE
  8
__
  6
CONTINUOUS
 62
     7
 10
-355.5539030000002
 20
-744.9857660703037
 30
0.0
 11
-351.5539030000002
 21
-744.9857660703037
 31
0.0
  0
LINE
  5
4DF
  8
__
  6
CONTINUOUS
 62
     7
 10
-355.5539030000002
 20
-748.9857660703037
 30
0.0
 11
-351.5539030000002
 21
-748.9857660703037
 31
0.0
  0
CIRCLE
  5
4E0
  8
__
  6
CONTINUOUS
 62
     7
 10
-353.5492100000004
 20
-759.9917120703037
 30
0.0
 40
3.25
  0
CIRCLE
  5
4E1
  8
__
  6
CONTINUOUS
 62
     7
 10
-353.5539030000002
 20
-789.9917120703037
 30
0.0
 40
11.25
  0
CIRCLE
  5
4E2
  8
__
  6
CONTINUOUS
 62
     7
 10
-353.5494821805271
 20
-827.9917149874333
 30
0.0
 40
11.25
  0
ARC
  5
4E3
  8
__
  6
CONTINUOUS
 62
     7
 10
-353.5539030000002
 20
-789.9917120703037
 30
0.0
 40
10.49999999999987
 50
118.4548089999995
 51
61.58102899999945
  0
LINE
  5
4E4
  8
__
  6
CONTINUOUS
 62
     7
 10
-358.9141389999998
 20
-780.1007890703036
 30
0.0
 11
-358.5567899999999
 21
-780.7601840703037
 31
0.0
  0
LINE
  5
4E5
  8
__
  6
CONTINUOUS
 62
     7
 10
-348.1936669999998
 20
-780.1007890703036
 30
0.0
 11
-348.5510160000001
 21
-780.7601840703037
 31
0.0
  0
LINE
  5
4E6
  8
__
  6
CONTINUOUS
 62
     7
 10
-350.4615740000002
 20
-788.9917120703037
 30
0.0
 11
-349.0542150000003
 21
-788.9917120703037
 31
0.0
  0
LINE
  5
4E7
  8
__
  6
CONTINUOUS
 62
     7
 10
-350.4615740000002
 20
-790.9917120703037
 30
0.0
 11
-349.0535899999998
 21
-790.9917120703037
 31
0.0
  0
LINE
  5
4E8
  8
__
  6
CONTINUOUS
 62
     7
 10
-354.5529360000003
 20
-793.0843540703036
 30
0.0
 11
-354.552496
 21
-794.4917120703037
 31
0.0
  0
LINE
  5
4E9
  8
__
  6
CONTINUOUS
 62
     7
 10
-352.5529360000003
 20
-793.0837290703037
 30
0.0
 11
-352.552496
 21
-794.4917120703037
 31
0.0
  0
CIRCLE
  5
4EA
  8
__
  6
CONTINUOUS
 62
     7
 10
-353.5539030000002
 20
-789.9917120703037
 30
0.0
 40
8.0
  0
LINE
  5
4EB
  8
__
  6
CONTINUOUS
 62
     7
 10
-356.6462320000003
 20
-788.9917120703037
 30
0.0
 11
-358.0542159999998
 21
-788.9917120703037
 31
0.0
  0
LINE
  5
4EC
  8
__
  6
CONTINUOUS
 62
     7
 10
-356.6462320000003
 20
-790.9917120703037
 30
0.0
 11
-358.0535899999998
 21
-790.9917120703037
 31
0.0
  0
ARC
  5
4ED
  8
__
  6
CONTINUOUS
 62
     7
 10
-358.0539030000002
 20
-789.9917120703037
 30
0.0
 40
0.9999999999999943
 50
90.01791899999027
 51
270.0179190000164
  0
ARC
  5
4EE
  8
__
  6
CONTINUOUS
 62
     7
 10
-353.552496
 20
-794.4917120703037
 30
0.0
 40
1.0
 50
180.0
 51
0.0
  0
ARC
  5
4EF
  8
__
  6
CONTINUOUS
 62
     7
 10
-349.0539030000002
 20
-789.9917120703037
 30
0.0
 40
0.9999999999999944
 50
270.0179190000163
 51
90.01791899999026
  0
ARC
  5
4F0
  8
__
  6
CONTINUOUS
 62
     7
 10
-353.5539030000002
 20
-789.9917120703037
 30
0.0
 40
3.249999999999682
 50
197.9202130000032
 51
252.0977060000036
  0
ARC
  5
4F1
  8
__
  6
CONTINUOUS
 62
     7
 10
-353.5539030000002
 20
-789.9917120703037
 30
0.0
 40
3.250000000000216
 50
287.9381320000057
 51
342.0797870000018
  0
ARC
  5
4F2
  8
__
  6
CONTINUOUS
 62
     7
 10
-353.5539030000002
 20
-789.9917120703037
 30
0.0
 40
3.250000000000547
 50
17.92021299999825
 51
162.0797869999968
  0
CIRCLE
  5
4F3
  8
__
  6
CONTINUOUS
 62
     7
 10
-358.0494821805271
 20
-827.9917149874333
 30
0.0
 40
0.75
  0
CIRCLE
  5
4F4
  8
__
  6
CONTINUOUS
 62
     7
 10
-353.5480741805275
 20
-832.4917149874333
 30
0.0
 40
0.75
  0
CIRCLE
  5
4F5
  8
__
  6
CONTINUOUS
 62
     7
 10
-349.0494821805271
 20
-827.9917149874333
 30
0.0
 40
0.75
  0
LINE
  5
4F6
  8
__
  6
CONTINUOUS
 62
     7
 10
-364.1638210000003
 20
-779.3884280703037
 30
0.0
 11
-362.7491650000004
 21
-780.8022000703036
 31
0.0
  0
LINE
  5
4F7
  8
__
  6
CONTINUOUS
 62
     7
 10
-362.7496080000003
 20
-779.3879860703037
 30
0.0
 11
-364.1633789999998
 21
-780.8026420703036
 31
0.0
  0
CIRCLE
  5
4F8
  8
__
  6
CONTINUOUS
 62
     7
 10
-363.4520721805277
 20
-818.0953169874332
 30
0.0
 40
1.5
  0
LINE
  5
4F9
  8
__
  6
CONTINUOUS
 62
     7
 10
-364.1594001805272
 20
-817.3884309874333
 30
0.0
 11
-362.7447441805273
 21
-818.8022029874331
 31
0.0
  0
LINE
  5
4FA
  8
__
  6
CONTINUOUS
 62
     7
 10
-362.7451871805272
 20
-817.3879889874332
 30
0.0
 11
-364.1589581805276
 21
-818.8026449874332
 31
0.0
  0
LINE
  5
4FB
  8
__
  6
CONTINUOUS
 62
     7
 10
-344.3586400000002
 20
-799.1812250703035
 30
0.0
 11
-342.9439850000001
 21
-800.5949970703036
 31
0.0
  0
LINE
  5
4FC
  8
__
  6
CONTINUOUS
 62
     7
 10
-342.9444270000001
 20
-799.1807830703037
 30
0.0
 11
-344.3581980000001
 21
-800.5954390703037
 31
0.0
  0
LINE
  5
4FD
  8
__
  6
CONTINUOUS
 62
     7
 10
-344.3586400000002
 20
-799.1812250703035
 30
0.0
 11
-342.9439850000001
 21
-800.5949970703036
 31
0.0
  0
LINE
  5
4FE
  8
__
  6
CONTINUOUS
 62
     7
 10
-342.9444270000001
 20
-799.1807830703037
 30
0.0
 11
-344.3581980000001
 21
-800.5954390703037
 31
0.0
  0
CIRCLE
  5
4FF
  8
__
  6
CONTINUOUS
 62
     7
 10
-343.6468911805275
 20
-837.8881139874333
 30
0.0
 40
1.5
  0
LINE
  5
500
  8
__
  6
CONTINUOUS
 62
     7
 10
-344.3542191805275
 20
-837.1812279874331
 30
0.0
 11
-342.9395631805276
 21
-838.5949999874332
 31
0.0
  0
LINE
  5
501
  8
__
  6
CONTINUOUS
 62
     7
 10
-342.9400061805275
 20
-837.1807859874333
 30
0.0
 11
-344.3537771805275
 21
-838.5954419874332
 31
0.0
  0
CIRCLE
  5
502
  8
__
  6
CONTINUOUS
 62
     7
 10
-343.6468911805275
 20
-837.8881139874333
 30
0.0
 40
1.5
  0
LINE
  5
503
  8
__
  6
CONTINUOUS
 62
     7
 10
-344.3542191805275
 20
-837.1812279874331
 30
0.0
 11
-342.9395631805276
 21
-838.5949999874332
 31
0.0
  0
LINE
  5
504
  8
__
  6
CONTINUOUS
 62
     7
 10
-342.9400061805275
 20
-837.1807859874333
 30
0.0
 11
-344.3537771805275
 21
-838.5954419874332
 31
0.0
  0
ARC
  5
505
  8
__
  6
CONTINUOUS
 62
     7
 10
-329.0539040000001
 20
-746.9774790703036
 30
0.0
 40
2.0
 50
90.0
 51
270.0
  0
ARC
  5
506
  8
__
  6
CONTINUOUS
 62
     7
 10
-325.0539040000001
 20
-746.9774790703036
 30
0.0
 40
2.0
 50
270.0
 51
90.0
  0
LINE
  5
507
  8
__
  6
CONTINUOUS
 62
     7
 10
-329.0539040000001
 20
-744.9774790703036
 30
0.0
 11
-325.0539040000001
 21
-744.9774790703036
 31
0.0
  0
LINE
  5
508
  8
__
  6
CONTINUOUS
 62
     7
 10
-329.0539040000001
 20
-748.9774790703036
 30
0.0
 11
-325.0539040000001
 21
-748.9774790703036
 31
0.0
  0
CIRCLE
  5
509
  8
__
  6
CONTINUOUS
 62
     7
 10
-327.0492109999998
 20
-759.9834250703036
 30
0.0
 40
3.25
  0
CIRCLE
  5
50A
  8
__
  6
CONTINUOUS
 62
     7
 10
-327.0494831805274
 20
-827.9834279874332
 30
0.0
 40
11.25
  0
CIRCLE
  5
50B
  8
__
  6
CONTINUOUS
 62
     7
 10
-331.5494831805274
 20
-827.9834279874332
 30
0.0
 40
0.75
  0
CIRCLE
  5
50C
  8
__
  6
CONTINUOUS
 62
     7
 10
-327.0480761805277
 20
-832.4834279874332
 30
0.0
 40
0.75
  0
CIRCLE
  5
50D
  8
__
  6
CONTINUOUS
 62
     7
 10
-322.5494831805274
 20
-827.9834279874332
 30
0.0
 40
0.75
  0
CIRCLE
  5
50E
  8
__
  6
CONTINUOUS
 62
     7
 10
-327.0494831805274
 20
-827.9834279874332
 30
0.0
 40
8.0
  0
CIRCLE
  5
50F
  8
__
  6
CONTINUOUS
 62
     7
 10
-336.9520741805275
 20
-818.0870289874332
 30
0.0
 40
1.5
  0
LINE
  5
510
  8
__
  6
CONTINUOUS
 62
     7
 10
-337.6594011805275
 20
-817.3801439874331
 30
0.0
 11
-336.2447461805275
 21
-818.7939149874331
 31
0.0
  0
LINE
  5
511
  8
__
  6
CONTINUOUS
 62
     7
 10
-336.2451881805275
 20
-817.3797009874332
 30
0.0
 11
-337.6589591805275
 21
-818.7943569874332
 31
0.0
  0
CIRCLE
  5
512
  8
__
  6
CONTINUOUS
 62
     7
 10
-317.1468931805277
 20
-837.8798259874333
 30
0.0
 40
1.5
  0
LINE
  5
513
  8
__
  6
CONTINUOUS
 62
     7
 10
-317.8542211805272
 20
-837.1729409874332
 30
0.0
 11
-316.4395651805273
 21
-838.5867119874332
 31
0.0
  0
LINE
  5
514
  8
__
  6
CONTINUOUS
 62
     7
 10
-316.4400071805273
 20
-837.1724979874333
 30
0.0
 11
-317.8537781805273
 21
-838.5871539874332
 31
0.0
  0
CIRCLE
  5
515
  8
__
  6
CONTINUOUS
 62
     7
 10
-317.1468931805277
 20
-837.8798259874333
 30
0.0
 40
1.5
  0
LINE
  5
516
  8
__
  6
CONTINUOUS
 62
     7
 10
-317.8542211805272
 20
-837.1729409874332
 30
0.0
 11
-316.4395651805273
 21
-838.5867119874332
 31
0.0
  0
LINE
  5
517
  8
__
  6
CONTINUOUS
 62
     7
 10
-316.4400071805273
 20
-837.1724979874333
 30
0.0
 11
-317.8537781805273
 21
-838.5871539874332
 31
0.0
  0
CIRCLE
  5
518
  8
__
  6
CONTINUOUS
 62
     7
 10
-343.6513130000001
 20
-799.8881110703037
 30
0.0
 40
1.5
  0
CIRCLE
  5
519
  8
__
  6
CONTINUOUS
 62
     7
 10
-370.1513109999999
 20
-799.8963990703037
 30
0.0
 40
1.5
  0
CIRCLE
  5
51A
  8
__
  6
CONTINUOUS
 62
     7
 10
-363.4564929999999
 20
-780.0953140703036
 30
0.0
 40
1.5
  0
CIRCLE
  5
51B
  8
__
  6
CONTINUOUS
 62
     7
 10
-327.0539040000001
 20
-789.9834250703036
 30
0.0
 40
2.0
  0
CIRCLE
  5
51C
  8
__
  6
CONTINUOUS
 62
     7
 10
-327.0539040000001
 20
-789.9834250703036
 30
0.0
 40
3.5
  0
CIRCLE
  5
51D
  8
__
  6
CONTINUOUS
 62
     7
 10
-353.5494821805271
 20
-827.9917149874333
 30
0.0
 40
8.0
  0
LINE
  5
51E
  8
__
  6
CONTINUOUS
 62
     7
 10
-327.0539040000001
 20
-793.8334250703036
 30
0.0
 11
-327.0490101506205
 21
-805.8138113143582
 31
0.0
  0
LINE
  5
51F
  8
__
  6
CONTINUOUS
 62
     7
 10
-380.050383
 20
-801.8241712703037
 30
0.0
 11
-380.0488195218584
 21
-805.8241709647457
 31
0.0
  0
TEXT
  5
520
  8
__
 62
     7
 10
-323.6876962430559
 20
-716.6662761119703
 30
0.0
 40
4.332552083333333
  1
MAIN/MENU
 41
0.7
 72
     1
 11
-311.0510860000004
 21
-714.5000000703036
 31
0.0
 73
     2
  0
TEXT
  5
521
  8
__
 62
     7
 10
-407.6330571458336
 20
-715.1662761119703
 30
0.0
 40
4.332552083333333
  1
POWER
 41
0.7
 72
     1
 11
-400.0510910000003
 21
-713.0000000703036
 31
0.0
 73
     2
  0
TEXT
  5
522
  8
__
 62
     7
 10
-385.1038530972222
 20
-769.4162761119703
 30
0.0
 40
4.332552083333333
  1
GAIN
 41
0.7
 72
     1
 11
-380.049209
 21
-767.2500000703036
 31
0.0
 73
     2
  0
TEXT
  5
523
  8
__
 62
     7
 10
-387.5347742638893
 20
-846.2591490736917
 30
0.0
 40
4.332552083333333
  1
THRU 1
 41
0.7
 72
     1
 11
-380.0539010000005
 21
-844.092873032025
 31
0.0
 73
     2
  0
TEXT
  5
524
  8
__
 62
     7
 10
-361.5402406736113
 20
-846.2508610736917
 30
0.0
 40
4.332552083333333
  1
THRU 2
 41
0.7
 72
     1
 11
-353.5539030000002
 21
-844.084585032025
 31
0.0
 73
     2
  0
TEXT
  5
525
  8
__
 62
     7
 10
-336.0511681816963
 20
-846.2426811283366
 30
0.0
 40
4.332552083333333
  1
MIX OUT
 41
0.7
 72
     1
 11
-327.0539016886407
 21
-844.0764050866699
 31
0.0
 73
     2
  0
TEXT
  5
526
  8
__
 62
     7
 10
-316.6111945069449
 20
-736.1662761119703
 30
0.0
 40
4.332552083333333
  1
BACK
 41
0.7
 72
     1
 11
-311.0510860000004
 21
-734.0000000703036
 31
0.0
 73
     2
  0
TEXT
  5
527
  8
__
 62
     7
 10
-406.1166639166669
 20
-736.1662761119703
 30
0.0
 40
4.332552083333333
  1
LIMIT
 41
0.7
 72
     1
 11
-400.0510910000003
 21
-734.0000000703036
 31
0.0
 73
     2
  0
TEXT
  5
528
  8
__
 62
     7
 10
-390.6686546041665
 20
-755.1603301119703
 30
0.0
 40
4.332552083333333
  1
SIG/CLIP
 41
0.7
 72
     1
 11
-380.0539019999999
 21
-752.9940540703036
 31
0.0
 73
     2
  0
TEXT
  5
529
  8
__
 62
     7
 10
-383.5963664775226
 20
-811.2592532112071
 30
0.0
 40
4.332552083333333
  1
CH1
 41
0.7
 72
     1
 11
-380.058115609467
 21
-809.0929771695404
 31
0.0
 73
     2
  0
TEXT
  5
52A
  8
__
 62
     7
 10
-357.6018328872445
 20
-811.2509652112071
 30
0.0
 40
4.332552083333333
  1
CH2
 41
0.7
 72
     1
 11
-353.5581176094668
 21
-809.0846891695404
 31
0.0
 73
     2
  0
TEXT
  5
52B
  8
__
 62
     7
 10
-334.5389895675104
 20
-811.2426244284065
 30
0.0
 40
4.332552083333333
  1
AUX IN
 41
0.7
 72
     1
 11
-327.0581163036215
 21
-809.0763483867398
 31
0.0
 73
     2
  0
LINE
  5
52C
  8
__
  6
CONTINUOUS
 62
     7
 10
-380.0539019999999
 20
-777.6788816438635
 30
0.0
 11
-380.0539019999999
 21
-770.1788816438635
 31
0.0
  0
LINE
  5
52D
  8
__
  6
CONTINUOUS
 62
     7
 10
-327.0539040000001
 20
-786.1334250703036
 30
0.0
 11
-327.0539040000001
 21
-770.1788816438635
 31
0.0
  0
TEXT
  5
52E
  8
__
 62
     7
 10
-364.1686556041669
 20
-755.1603301119703
 30
0.0
 40
4.332552083333333
  1
SIG/CLIP
 41
0.7
 72
     1
 11
-353.5539030000002
 21
-752.9940540703036
 31
0.0
 73
     2
  0
TEXT
  5
52F
  8
__
 62
     7
 10
-337.6686566041672
 20
-755.1603301119703
 30
0.0
 40
4.332552083333333
  1
SIG/CLIP
 41
0.7
 72
     1
 11
-327.0539040000006
 21
-752.9940540703036
 31
0.0
 73
     2
  0
TEXT
  5
530
  8
__
 62
     7
 10
-358.6085470972224
 20
-769.4162761119703
 30
0.0
 40
4.332552083333333
  1
GAIN
 41
0.7
 72
     1
 11
-353.5539030000002
 21
-767.2500000703036
 31
0.0
 73
     2
  0
TEXT
  5
531
  8
__
 62
     7
 10
-332.1132410972226
 20
-769.4162761119703
 30
0.0
 40
4.332552083333333
  1
GAIN
 41
0.7
 72
     1
 11
-327.0585970000004
 21
-767.2500000703036
 31
0.0
 73
     2
  0
LINE
  5
532
  8
__
  6
CONTINUOUS
 62
     7
 10
-353.5539030000002
 20
-777.6788816438635
 30
0.0
 11
-353.5539030000002
 21
-770.1788816438635
 31
0.0
  0
LINE
  5
533
  8
__
  6
CONTINUOUS
 62
     7
 10
-380.0545626586688
 20
-812.1741753929913
 30
0.0
 11
-380.0529991805272
 21
-816.1741750874332
 31
0.0
  0
LINE
  5
534
  8
__
  6
CONTINUOUS
 62
     7
 10
-353.554684739071
 20
-801.8241712703037
 30
0.0
 11
-353.5531212609294
 21
-805.8241709647457
 31
0.0
  0
LINE
  5
535
  8
__
  6
CONTINUOUS
 62
     7
 10
-353.5588643977396
 20
-812.1741753929913
 30
0.0
 11
-353.557300919598
 21
-816.1741750874332
 31
0.0
  0
LINE
  5
536
  8
__
  6
CONTINUOUS
 62
     7
 10
928.4607593954665
 20
-1491.512471363656
 30
0.0
 11
1695.107900479187
 21
-1491.512471363656
 31
0.0
  0
TEXT
  5
537
  8
__
 62
     7
 10
1080.439445929667
 20
-1450.36063739454
 30
0.0
 40
67.69595706176757
  1
背面パネル拡大図
 41
0.7
 72
     1
 11
1300.0
 21
-1416.512658863656
 31
0.0
 73
     2
  0
LINE
  5
538
  8
__
  6
CONTINUOUS
 62
     7
 10
2104.31067315379
 20
742.2799198747928
 30
0.0
 11
2104.9134760194
 21
-1185.200772874876
 31
0.0
  0
LINE
  5
539
  8
__
  6
CONTINUOUS
 62
     7
 10
484.2996875570742
 20
777.1515959124761
 30
0.0
 11
484.9024890019143
 21
-1150.324553881938
 31
0.0
  0
LINE
  5
53A
  8
__
  6
CONTINUOUS
 62
     7
 10
1544.17422817565
 20
638.4873411363415
 30
0.0
 11
1044.174208175648
 21
638.4873411363415
 31
0.0
  0
LINE
  5
53B
  8
__
  6
CONTINUOUS
 62
     7
 10
1544.17422817565
 20
638.4873411363415
 30
0.0
 11
1544.28993817565
 21
268.4873411363413
 31
0.0
  0
LINE
  5
53C
  8
__
  6
CONTINUOUS
 62
     7
 10
1544.28993817565
 20
268.4873411363413
 30
0.0
 11
1044.289918175648
 21
268.4873411363413
 31
0.0
  0
LINE
  5
53D
  8
__
  6
CONTINUOUS
 62
     7
 10
1044.174208175648
 20
638.4873411363415
 30
0.0
 11
1044.289918175648
 21
268.4873411363413
 31
0.0
  0
CIRCLE
  5
53E
  8
__
  6
CONTINUOUS
 62
     7
 10
829.2023381756485
 20
548.4873411363415
 30
0.0
 40
75.0
  0
CIRCLE
  5
53F
  8
__
  6
CONTINUOUS
 62
     7
 10
1719.202388175647
 20
548.4873411363415
 30
0.0
 40
90.0
  0
CIRCLE
  5
540
  8
__
  6
CONTINUOUS
 62
     7
 10
1719.202388175647
 20
303.4873411363414
 30
0.0
 40
35.0
  0
ARC
  5
541
  8
__
  6
CONTINUOUS
 62
     7
 10
809.2023381756485
 20
298.4873411363413
 30
0.0
 40
20.00000000000095
 50
94.84558399999173
 51
270.0
  0
ARC
  5
542
  8
__
  6
CONTINUOUS
 62
     7
 10
849.2023381756485
 20
298.4873411363413
 30
0.0
 40
20.0
 50
270.0
 51
90.0
  0
LINE
  5
543
  8
__
  6
CONTINUOUS
 62
     7
 10
809.2023381756485
 20
318.4873411363414
 30
0.0
 11
849.2023381756485
 21
318.4873411363414
 31
0.0
  0
LINE
  5
544
  8
__
  6
CONTINUOUS
 62
     7
 10
809.2023381756485
 20
278.4873411363413
 30
0.0
 11
849.2023381756485
 21
278.4873411363413
 31
0.0
  0
ARC
  5
545
  8
__
  6
CONTINUOUS
 62
     7
 10
1009.174228175652
 20
98.54680113634117
 30
0.0
 40
20.00000000000119
 50
90.0
 51
270.0
  0
ARC
  5
546
  8
__
  6
CONTINUOUS
 62
     7
 10
1049.174228175652
 20
98.54680113634117
 30
0.0
 40
20.0
 50
270.0
 51
90.0
  0
LINE
  5
547
  8
__
  6
CONTINUOUS
 62
     7
 10
1009.174228175652
 20
118.5468011363412
 30
0.0
 11
1049.174228175652
 21
118.5468011363412
 31
0.0
  0
LINE
  5
548
  8
__
  6
CONTINUOUS
 62
     7
 10
1009.174228175652
 20
78.54680113634117
 30
0.0
 11
1049.174228175652
 21
78.54680113634117
 31
0.0
  0
CIRCLE
  5
549
  8
__
  6
CONTINUOUS
 62
     7
 10
1029.221158175651
 20
-31.51265886365877
 30
0.0
 40
32.5
  0
CIRCLE
  5
54A
  8
__
  6
CONTINUOUS
 62
     7
 10
1029.174228175652
 20
-331.5126588636588
 30
0.0
 40
112.5
  0
CIRCLE
  5
54B
  8
__
  6
CONTINUOUS
 62
     7
 10
1029.218446370379
 20
-711.5126880349544
 30
0.0
 40
112.5
  0
ARC
  5
54C
  8
__
  6
CONTINUOUS
 62
     7
 10
1029.174228175652
 20
-331.5126588636588
 30
0.0
 40
105.0000000000009
 50
118.4548090000017
 51
61.58102900000154
  0
LINE
  5
54D
  8
__
  6
CONTINUOUS
 62
     7
 10
975.571868175648
 20
-232.6034288636572
 30
0.0
 11
979.1453581756514
 21
-239.1973788636585
 31
0.0
  0
LINE
  5
54E
  8
__
  6
CONTINUOUS
 62
     7
 10
1082.776598175651
 20
-232.6034288636572
 30
0.0
 11
1079.203108175652
 21
-239.1973788636585
 31
0.0
  0
LINE
  5
54F
  8
__
  6
CONTINUOUS
 62
     7
 10
1060.097528175647
 20
-321.5126588636588
 30
0.0
 11
1074.171108175651
 21
-321.5126588636588
 31
0.0
  0
LINE
  5
550
  8
__
  6
CONTINUOUS
 62
     7
 10
1060.097528175647
 20
-341.5126588636588
 30
0.0
 11
1074.177358175648
 21
-341.5126588636588
 31
0.0
  0
LINE
  5
551
  8
__
  6
CONTINUOUS
 62
     7
 10
1019.183898175652
 20
-362.4390788636572
 30
0.0
 11
1019.188308175653
 21
-376.5126588636588
 31
0.0
  0
LINE
  5
552
  8
__
  6
CONTINUOUS
 62
     7
 10
1039.183898175652
 20
-362.4328188636571
 30
0.0
 11
1039.188308175653
 21
-376.5126588636588
 31
0.0
  0
CIRCLE
  5
553
  8
__
  6
CONTINUOUS
 62
     7
 10
1029.174228175652
 20
-331.5126588636588
 30
0.0
 40
80.0
  0
LINE
  5
554
  8
__
  6
CONTINUOUS
 62
     7
 10
998.2509381756518
 20
-321.5126588636588
 30
0.0
 11
984.1710981756478
 21
-321.5126588636588
 31
0.0
  0
LINE
  5
555
  8
__
  6
CONTINUOUS
 62
     7
 10
998.2509381756518
 20
-341.5126588636588
 30
0.0
 11
984.1773581756479
 21
-341.5126588636588
 31
0.0
  0
ARC
  5
556
  8
__
  6
CONTINUOUS
 62
     7
 10
984.1742281756524
 20
-331.5126588636588
 30
0.0
 40
9.999999999999945
 50
90.01791900001633
 51
270.0179189999903
  0
ARC
  5
557
  8
__
  6
CONTINUOUS
 62
     7
 10
1029.188308175653
 20
-376.5126588636588
 30
0.0
 40
10.0
 50
180.0
 51
0.0
  0
ARC
  5
558
  8
__
  6
CONTINUOUS
 62
     7
 10
1074.174238175651
 20
-331.5126588636588
 30
0.0
 40
9.999999999999943
 50
270.0179189999903
 51
90.01791899999027
  0
ARC
  5
559
  8
__
  6
CONTINUOUS
 62
     7
 10
1029.174228175652
 20
-331.5126588636588
 30
0.0
 40
32.50000000000547
 50
197.9202129999983
 51
252.0977059999958
  0
ARC
  5
55A
  8
__
  6
CONTINUOUS
 62
     7
 10
1029.174228175652
 20
-331.5126588636588
 30
0.0
 40
32.49999999999936
 50
287.9381319999904
 51
342.0797869999968
  0
ARC
  5
55B
  8
__
  6
CONTINUOUS
 62
     7
 10
1029.174228175652
 20
-331.5126588636588
 30
0.0
 40
32.49999999999682
 50
17.92021300000318
 51
162.0797870000017
  0
CIRCLE
  5
55C
  8
__
  6
CONTINUOUS
 62
     7
 10
984.2184363703757
 20
-711.5126880349544
 30
0.0
 40
7.5
  0
CIRCLE
  5
55D
  8
__
  6
CONTINUOUS
 62
     7
 10
1029.232516370377
 20
-756.5126880349544
 30
0.0
 40
7.5
  0
CIRCLE
  5
55E
  8
__
  6
CONTINUOUS
 62
     7
 10
1074.218446370379
 20
-711.5126880349544
 30
0.0
 40
7.5
  0
CIRCLE
  5
55F
  8
__
  6
CONTINUOUS
 62
     7
 10
1029.218446370379
 20
-711.5126880349544
 30
0.0
 40
80.0
  0
CIRCLE
  5
560
  8
__
  6
CONTINUOUS
 62
     7
 10
930.1483281756509
 20
-232.5486788636579
 30
0.0
 40
15.0
  0
LINE
  5
561
  8
__
  6
CONTINUOUS
 62
     7
 10
923.0750481756513
 20
-225.4798188636585
 30
0.0
 11
937.2216081756505
 21
-239.6175288636584
 31
0.0
  0
LINE
  5
562
  8
__
  6
CONTINUOUS
 62
     7
 10
937.2171881756503
 20
-225.4753988636583
 30
0.0
 11
923.079468175647
 21
-239.6219588636575
 31
0.0
  0
CIRCLE
  5
563
  8
__
  6
CONTINUOUS
 62
     7
 10
930.1925363703788
 20
-612.5487080349535
 30
0.0
 40
15.0
  0
LINE
  5
564
  8
__
  6
CONTINUOUS
 62
     7
 10
923.1192563703792
 20
-605.4798480349541
 30
0.0
 11
937.2658163703784
 21
-619.6175580349541
 31
0.0
  0
LINE
  5
565
  8
__
  6
CONTINUOUS
 62
     7
 10
937.2613963703782
 20
-605.4754280349539
 30
0.0
 11
923.1236763703794
 21
-619.6219880349531
 31
0.0
  0
LINE
  5
566
  8
__
  6
CONTINUOUS
 62
     7
 10
1121.126858175649
 20
-423.4077888636568
 30
0.0
 11
1135.273418175648
 21
-437.5454988636568
 31
0.0
  0
LINE
  5
567
  8
__
  6
CONTINUOUS
 62
     7
 10
1135.268988175649
 20
-423.4033688636589
 30
0.0
 11
1121.131278175653
 21
-437.549918863657
 31
0.0
  0
LINE
  5
568
  8
__
  6
CONTINUOUS
 62
     7
 10
1121.126858175649
 20
-423.4077888636568
 30
0.0
 11
1135.273418175648
 21
-437.5454988636568
 31
0.0
  0
LINE
  5
569
  8
__
  6
CONTINUOUS
 62
     7
 10
1135.268988175649
 20
-423.4033688636589
 30
0.0
 11
1121.131278175653
 21
-437.549918863657
 31
0.0
  0
CIRCLE
  5
56A
  8
__
  6
CONTINUOUS
 62
     7
 10
1128.244346370376
 20
-810.4766780349541
 30
0.0
 40
15.0
  0
LINE
  5
56B
  8
__
  6
CONTINUOUS
 62
     7
 10
1121.171066370381
 20
-803.4078180349525
 30
0.0
 11
1135.31762637038
 21
-817.5455280349524
 31
0.0
  0
LINE
  5
56C
  8
__
  6
CONTINUOUS
 62
     7
 10
1135.313206370375
 20
-803.4033980349545
 30
0.0
 11
1121.175486370377
 21
-817.5499480349526
 31
0.0
  0
CIRCLE
  5
56D
  8
__
  6
CONTINUOUS
 62
     7
 10
1128.244346370376
 20
-810.4766780349541
 30
0.0
 40
15.0
  0
LINE
  5
56E
  8
__
  6
CONTINUOUS
 62
     7
 10
1121.171066370381
 20
-803.4078180349525
 30
0.0
 11
1135.31762637038
 21
-817.5455280349524
 31
0.0
  0
LINE
  5
56F
  8
__
  6
CONTINUOUS
 62
     7
 10
1135.313206370375
 20
-803.4033980349545
 30
0.0
 11
1121.175486370377
 21
-817.5499480349526
 31
0.0
  0
ARC
  5
570
  8
__
  6
CONTINUOUS
 62
     7
 10
1274.174218175649
 20
98.6296811363411
 30
0.0
 40
20.00000000000085
 50
90.0
 51
270.0
  0
ARC
  5
571
  8
__
  6
CONTINUOUS
 62
     7
 10
1314.174218175649
 20
98.6296811363411
 30
0.0
 40
20.0
 50
270.0
 51
90.0
  0
LINE
  5
572
  8
__
  6
CONTINUOUS
 62
     7
 10
1274.174218175649
 20
118.6296811363411
 30
0.0
 11
1314.174218175649
 21
118.6296811363411
 31
0.0
  0
LINE
  5
573
  8
__
  6
CONTINUOUS
 62
     7
 10
1274.174218175649
 20
78.6296811363411
 30
0.0
 11
1314.174218175649
 21
78.6296811363411
 31
0.0
  0
CIRCLE
  5
574
  8
__
  6
CONTINUOUS
 62
     7
 10
1294.221148175648
 20
-31.42977886365884
 30
0.0
 40
32.5
  0
CIRCLE
  5
575
  8
__
  6
CONTINUOUS
 62
     7
 10
1294.174218175649
 20
-331.4297788636588
 30
0.0
 40
112.5
  0
CIRCLE
  5
576
  8
__
  6
CONTINUOUS
 62
     7
 10
1294.218426370381
 20
-711.4298080349545
 30
0.0
 40
112.5
  0
ARC
  5
577
  8
__
  6
CONTINUOUS
 62
     7
 10
1294.174218175649
 20
-331.4297788636588
 30
0.0
 40
104.9999999999987
 50
118.4548089999995
 51
61.5810289999995
  0
LINE
  5
578
  8
__
  6
CONTINUOUS
 62
     7
 10
1240.571858175654
 20
-232.5205488636573
 30
0.0
 11
1244.145348175653
 21
-239.1144988636586
 31
0.0
  0
LINE
  5
579
  8
__
  6
CONTINUOUS
 62
     7
 10
1347.776578175653
 20
-232.5205488636573
 30
0.0
 11
1344.20308817565
 21
-239.1144988636586
 31
0.0
  0
LINE
  5
57A
  8
__
  6
CONTINUOUS
 62
     7
 10
1325.09750817565
 20
-321.4297788636588
 30
0.0
 11
1339.171098175648
 21
-321.4297788636588
 31
0.0
  0
LINE
  5
57B
  8
__
  6
CONTINUOUS
 62
     7
 10
1325.09750817565
 20
-341.4297788636588
 30
0.0
 11
1339.177348175654
 21
-341.4297788636588
 31
0.0
  0
LINE
  5
57C
  8
__
  6
CONTINUOUS
 62
     7
 10
1284.183888175648
 20
-362.3561988636573
 30
0.0
 11
1284.188288175651
 21
-376.4297788636588
 31
0.0
  0
LINE
  5
57D
  8
__
  6
CONTINUOUS
 62
     7
 10
1304.183888175648
 20
-362.3499488636583
 30
0.0
 11
1304.188288175651
 21
-376.4297788636588
 31
0.0
  0
CIRCLE
  5
57E
  8
__
  6
CONTINUOUS
 62
     7
 10
1294.174218175649
 20
-331.4297788636588
 30
0.0
 40
80.0
  0
LINE
  5
57F
  8
__
  6
CONTINUOUS
 62
     7
 10
1263.250928175648
 20
-321.4297788636588
 30
0.0
 11
1249.171088175653
 21
-321.4297788636588
 31
0.0
  0
LINE
  5
580
  8
__
  6
CONTINUOUS
 62
     7
 10
1263.250928175648
 20
-341.4297788636588
 30
0.0
 11
1249.177348175654
 21
-341.4297788636588
 31
0.0
  0
ARC
  5
581
  8
__
  6
CONTINUOUS
 62
     7
 10
1249.174218175649
 20
-331.4297788636588
 30
0.0
 40
9.999999999999943
 50
90.01791899999027
 51
270.0179190000164
  0
ARC
  5
582
  8
__
  6
CONTINUOUS
 62
     7
 10
1294.188288175651
 20
-376.4297788636588
 30
0.0
 40
10.0
 50
180.0
 51
0.0
  0
ARC
  5
583
  8
__
  6
CONTINUOUS
 62
     7
 10
1339.174218175649
 20
-331.4297788636588
 30
0.0
 40
9.999999999999945
 50
270.0179190000163
 51
90.01791899999026
  0
ARC
  5
584
  8
__
  6
CONTINUOUS
 62
     7
 10
1294.174218175649
 20
-331.4297788636588
 30
0.0
 40
32.49999999999682
 50
197.9202130000032
 51
252.0977060000034
  0
ARC
  5
585
  8
__
  6
CONTINUOUS
 62
     7
 10
1294.174218175649
 20
-331.4297788636588
 30
0.0
 40
32.50000000000216
 50
287.9381320000057
 51
342.0797870000018
  0
ARC
  5
586
  8
__
  6
CONTINUOUS
 62
     7
 10
1294.174218175649
 20
-331.4297788636588
 30
0.0
 40
32.50000000000547
 50
17.92021299999825
 51
162.0797869999966
  0
CIRCLE
  5
587
  8
__
  6
CONTINUOUS
 62
     7
 10
1249.218426370381
 20
-711.4298080349545
 30
0.0
 40
7.5
  0
CIRCLE
  5
588
  8
__
  6
CONTINUOUS
 62
     7
 10
1294.232506370378
 20
-756.4298080349545
 30
0.0
 40
7.5
  0
CIRCLE
  5
589
  8
__
  6
CONTINUOUS
 62
     7
 10
1339.218426370381
 20
-711.4298080349545
 30
0.0
 40
7.5
  0
LINE
  5
58A
  8
__
  6
CONTINUOUS
 62
     7
 10
1188.075038175648
 20
-225.3969388636585
 30
0.0
 11
1202.221598175647
 21
-239.5346588636573
 31
0.0
  0
LINE
  5
58B
  8
__
  6
CONTINUOUS
 62
     7
 10
1202.217168175648
 20
-225.3925188636583
 30
0.0
 11
1188.079458175653
 21
-239.5390788636576
 31
0.0
  0
CIRCLE
  5
58C
  8
__
  6
CONTINUOUS
 62
     7
 10
1195.192526370375
 20
-612.4658280349536
 30
0.0
 40
15.0
  0
LINE
  5
58D
  8
__
  6
CONTINUOUS
 62
     7
 10
1188.11924637038
 20
-605.3969680349542
 30
0.0
 11
1202.26580637038
 21
-619.534688034953
 31
0.0
  0
LINE
  5
58E
  8
__
  6
CONTINUOUS
 62
     7
 10
1202.261376370381
 20
-605.392548034954
 30
0.0
 11
1188.123666370376
 21
-619.5391080349532
 31
0.0
  0
LINE
  5
58F
  8
__
  6
CONTINUOUS
 62
     7
 10
1386.12684817565
 20
-423.3249088636569
 30
0.0
 11
1400.27339817565
 21
-437.462628863658
 31
0.0
  0
LINE
  5
590
  8
__
  6
CONTINUOUS
 62
     7
 10
1400.26897817565
 20
-423.320488863659
 30
0.0
 11
1386.13126817565
 21
-437.4670488636582
 31
0.0
  0
LINE
  5
591
  8
__
  6
CONTINUOUS
 62
     7
 10
1386.12684817565
 20
-423.3249088636569
 30
0.0
 11
1400.27339817565
 21
-437.462628863658
 31
0.0
  0
LINE
  5
592
  8
__
  6
CONTINUOUS
 62
     7
 10
1400.26897817565
 20
-423.320488863659
 30
0.0
 11
1386.13126817565
 21
-437.4670488636582
 31
0.0
  0
CIRCLE
  5
593
  8
__
  6
CONTINUOUS
 62
     7
 10
1393.244336370377
 20
-810.3937980349542
 30
0.0
 40
15.0
  0
LINE
  5
594
  8
__
  6
CONTINUOUS
 62
     7
 10
1386.171056370378
 20
-803.3249380349525
 30
0.0
 11
1400.317616370377
 21
-817.4626580349536
 31
0.0
  0
LINE
  5
595
  8
__
  6
CONTINUOUS
 62
     7
 10
1400.313186370378
 20
-803.3205180349546
 30
0.0
 11
1386.175476370378
 21
-817.4670780349538
 31
0.0
  0
CIRCLE
  5
596
  8
__
  6
CONTINUOUS
 62
     7
 10
1393.244336370377
 20
-810.3937980349542
 30
0.0
 40
15.0
  0
LINE
  5
597
  8
__
  6
CONTINUOUS
 62
     7
 10
1386.171056370378
 20
-803.3249380349525
 30
0.0
 11
1400.317616370377
 21
-817.4626580349536
 31
0.0
  0
LINE
  5
598
  8
__
  6
CONTINUOUS
 62
     7
 10
1400.313186370378
 20
-803.3205180349546
 30
0.0
 11
1386.175476370378
 21
-817.4670780349538
 31
0.0
  0
ARC
  5
599
  8
__
  6
CONTINUOUS
 62
     7
 10
1539.17420817565
 20
98.7125511363422
 30
0.0
 40
20.00000000000119
 50
90.0
 51
270.0
  0
ARC
  5
59A
  8
__
  6
CONTINUOUS
 62
     7
 10
1579.17420817565
 20
98.7125511363422
 30
0.0
 40
20.0
 50
270.0
 51
90.0
  0
LINE
  5
59B
  8
__
  6
CONTINUOUS
 62
     7
 10
1539.17420817565
 20
118.7125511363422
 30
0.0
 11
1579.17420817565
 21
118.7125511363422
 31
0.0
  0
LINE
  5
59C
  8
__
  6
CONTINUOUS
 62
     7
 10
1539.17420817565
 20
78.7125511363422
 30
0.0
 11
1579.17420817565
 21
78.7125511363422
 31
0.0
  0
CIRCLE
  5
59D
  8
__
  6
CONTINUOUS
 62
     7
 10
1559.221138175653
 20
-31.34690886365775
 30
0.0
 40
32.5
  0
CIRCLE
  5
59E
  8
__
  6
CONTINUOUS
 62
     7
 10
1559.218416370378
 20
-711.3469380349534
 30
0.0
 40
112.5
  0
CIRCLE
  5
59F
  8
__
  6
CONTINUOUS
 62
     7
 10
1514.218416370378
 20
-711.3469380349534
 30
0.0
 40
7.5
  0
CIRCLE
  5
5A0
  8
__
  6
CONTINUOUS
 62
     7
 10
1559.232486370375
 20
-756.3469380349534
 30
0.0
 40
7.5
  0
CIRCLE
  5
5A1
  8
__
  6
CONTINUOUS
 62
     7
 10
1604.218416370378
 20
-711.3469380349534
 30
0.0
 40
7.5
  0
CIRCLE
  5
5A2
  8
__
  6
CONTINUOUS
 62
     7
 10
1559.218416370378
 20
-711.3469380349534
 30
0.0
 40
80.0
  0
CIRCLE
  5
5A3
  8
__
  6
CONTINUOUS
 62
     7
 10
1460.192506370378
 20
-612.3829480349536
 30
0.0
 40
15.0
  0
LINE
  5
5A4
  8
__
  6
CONTINUOUS
 62
     7
 10
1453.119236370377
 20
-605.3140980349531
 30
0.0
 11
1467.265786370377
 21
-619.451808034953
 31
0.0
  0
LINE
  5
5A5
  8
__
  6
CONTINUOUS
 62
     7
 10
1467.261366370377
 20
-605.309668034954
 30
0.0
 11
1453.123656370377
 21
-619.4562280349533
 31
0.0
  0
CIRCLE
  5
5A6
  8
__
  6
CONTINUOUS
 62
     7
 10
1658.244316370375
 20
-810.3109180349543
 30
0.0
 40
15.0
  0
LINE
  5
5A7
  8
__
  6
CONTINUOUS
 62
     7
 10
1651.17103637038
 20
-803.2420680349537
 30
0.0
 11
1665.317596370379
 21
-817.3797780349537
 31
0.0
  0
LINE
  5
5A8
  8
__
  6
CONTINUOUS
 62
     7
 10
1665.313176370379
 20
-803.2376380349547
 30
0.0
 11
1651.175466370379
 21
-817.3841980349539
 31
0.0
  0
CIRCLE
  5
5A9
  8
__
  6
CONTINUOUS
 62
     7
 10
1658.244316370375
 20
-810.3109180349543
 30
0.0
 40
15.0
  0
LINE
  5
5AA
  8
__
  6
CONTINUOUS
 62
     7
 10
1651.17103637038
 20
-803.2420680349537
 30
0.0
 11
1665.317596370379
 21
-817.3797780349537
 31
0.0
  0
LINE
  5
5AB
  8
__
  6
CONTINUOUS
 62
     7
 10
1665.313176370379
 20
-803.2376380349547
 30
0.0
 11
1651.175466370379
 21
-817.3841980349539
 31
0.0
  0
CIRCLE
  5
5AC
  8
__
  6
CONTINUOUS
 62
     7
 10
1393.20011817565
 20
-430.3937688636586
 30
0.0
 40
15.0
  0
CIRCLE
  5
5AD
  8
__
  6
CONTINUOUS
 62
     7
 10
1128.200138175653
 20
-430.4766488636585
 30
0.0
 40
15.0
  0
CIRCLE
  5
5AE
  8
__
  6
CONTINUOUS
 62
     7
 10
1195.148318175652
 20
-232.4657988636579
 30
0.0
 40
15.0
  0
CIRCLE
  5
5AF
  8
__
  6
CONTINUOUS
 62
     7
 10
1559.17420817565
 20
-331.3469088636577
 30
0.0
 40
20.0
  0
CIRCLE
  5
5B0
  8
__
  6
CONTINUOUS
 62
     7
 10
1559.17420817565
 20
-331.3469088636577
 30
0.0
 40
35.0
  0
CIRCLE
  5
5B1
  8
__
  6
CONTINUOUS
 62
     7
 10
565.090518175648
 20
-851.5126588636588
 30
0.0
 40
40.0
  0
CIRCLE
  5
5B2
  8
__
  6
CONTINUOUS
 62
     7
 10
565.090518175648
 20
48.48734113634123
 30
0.0
 40
40.0
  0
CIRCLE
  5
5B3
  8
__
  6
CONTINUOUS
 62
     7
 10
2023.25791817565
 20
-851.5126588636588
 30
0.0
 40
40.0
  0
CIRCLE
  5
5B4
  8
__
  6
CONTINUOUS
 62
     7
 10
2023.25791817565
 20
48.48734113634123
 30
0.0
 40
40.0
  0
CIRCLE
  5
5B5
  8
__
  6
CONTINUOUS
 62
     7
 10
1294.218426370381
 20
-711.4298080349545
 30
0.0
 40
80.0
  0
LINE
  5
5B6
  8
__
  6
CONTINUOUS
 62
     7
 10
1559.17420817565
 20
-369.846908863658
 30
0.0
 11
1559.223146669448
 21
-489.6507713042035
 31
0.0
  0
LINE
  5
5B7
  8
__
  6
CONTINUOUS
 62
     7
 10
1029.209418175651
 20
-449.754370863659
 30
0.0
 11
1029.225052957067
 21
-489.7543678080785
 31
0.0
  0
TEXT
  5
5B8
  8
__
 62
     7
 10
1592.836285745092
 20
401.8245807196759
 30
0.0
 40
43.32552083333334
  1
MAIN/MENU
 41
0.7
 72
     1
 11
1719.202388175647
 21
423.4873411363425
 31
0.0
 73
     2
  0
TEXT
  5
5B9
  8
__
 62
     7
 10
753.3826767173151
 20
416.8245807196759
 30
0.0
 40
43.32552083333334
  1
POWER
 41
0.7
 72
     1
 11
829.2023381756485
 21
438.4873411363425
 31
0.0
 73
     2
  0
TEXT
  5
5BA
  8
__
 62
     7
 10
978.6747172034288
 20
-125.6754192803243
 30
0.0
 40
43.32552083333334
  1
GAIN
 41
0.7
 72
     1
 11
1029.221158175651
 21
-104.0126588636576
 31
0.0
 73
     2
  0
TEXT
  5
5BB
  8
__
 62
     7
 10
954.3655055367578
 20
-894.1041488975378
 30
0.0
 40
43.32552083333334
  1
THRU 1
 41
0.7
 72
     1
 11
1029.174238175647
 21
-872.4413884808712
 31
0.0
 73
     2
  0
TEXT
  5
5BC
  8
__
 62
     7
 10
1214.310841439538
 20
-894.0212688975379
 30
0.0
 40
43.32552083333334
  1
THRU 2
 41
0.7
 72
     1
 11
1294.174218175649
 21
-872.3585084808713
 31
0.0
 73
     2
  0
TEXT
  5
5BD
  8
__
 62
     7
 10
1469.201566358688
 20
-893.9394694439869
 30
0.0
 40
43.32552083333334
  1
MIX OUT
 41
0.7
 72
     1
 11
1559.174231289244
 21
-872.2767090273203
 31
0.0
 73
     2
  0
TEXT
  5
5BE
  8
__
 62
     7
 10
1663.601303106203
 20
206.8245807196758
 30
0.0
 40
43.32552083333334
  1
BACK
 41
0.7
 72
     1
 11
1719.202388175647
 21
228.4873411363424
 31
0.0
 73
     2
  0
TEXT
  5
5BF
  8
__
 62
     7
 10
768.5466090089818
 20
206.8245807196758
 30
0.0
 40
43.32552083333334
  1
LIMIT
 41
0.7
 72
     1
 11
829.2023381756485
 21
228.4873411363424
 31
0.0
 73
     2
  0
TEXT
  5
5C0
  8
__
 62
     7
 10
923.0267021339857
 20
16.88404071967564
 30
0.0
 40
43.32552083333334
  1
SIG/CLIP
 41
0.7
 72
     1
 11
1029.174228175652
 21
38.54680113634231
 31
0.0
 73
     2
  0
TEXT
  5
5C1
  8
__
 62
     7
 10
993.7495834004245
 20
-544.1051902726923
 30
0.0
 40
43.32552083333334
  1
CH1
 41
0.7
 72
     1
 11
1029.13209208098
 21
-522.4424298560257
 31
0.0
 73
     2
  0
TEXT
  5
5C2
  8
__
 62
     7
 10
1253.694919303205
 20
-544.0223102726924
 30
0.0
 40
43.32552083333334
  1
CH2
 41
0.7
 72
     1
 11
1294.132072080982
 21
-522.3595498560258
 31
0.0
 73
     2
  0
TEXT
  5
5C3
  8
__
 62
     7
 10
1484.323352500546
 20
-543.9389024446865
 30
0.0
 40
43.32552083333334
  1
AUX IN
 41
0.7
 72
     1
 11
1559.132085139435
 21
-522.2761420280199
 31
0.0
 73
     2
  0
LINE
  5
5C4
  8
__
  6
CONTINUOUS
 62
     7
 10
1029.174228175652
 20
-208.3014745992568
 30
0.0
 11
1029.174228175652
 21
-133.3014745992568
 31
0.0
  0
LINE
  5
5C5
  8
__
  6
CONTINUOUS
 62
     7
 10
1559.17420817565
 20
-292.8469088636575
 30
0.0
 11
1559.17420817565
 21
-133.3014745992568
 31
0.0
  0
ARC
  5
5C6
  8
__
  6
CONTINUOUS
 62
     7
 10
565.0905181746339
 20
65.46498493812351
 30
0.0
 40
2.22235619821771
 50
356.8251528744042
 51
183.1748471255959
  0
ARC
  5
5C7
  8
__
  6
CONTINUOUS
 62
     7
 10
554.7386790158475
 20
66.41725251214439
 30
0.0
 40
8.203678318443083
 50
247.5320803524656
 51
352.4679196225456
  0
ARC
  5
5C8
  8
__
  6
CONTINUOUS
 62
     7
 10
550.387447345887
 20
56.9761630372318
 30
0.0
 40
2.222356198218802
 50
56.8251528744028
 51
243.174847125579
  0
ARC
  5
5C9
  8
__
  6
CONTINUOUS
 62
     7
 10
544.3868398561915
 20
48.48734113684372
 30
0.0
 40
8.203678318443314
 50
307.532080352468
 51
52.46791962254481
  0
ARC
  5
5CA
  8
__
  6
CONTINUOUS
 62
     7
 10
565.0905181746339
 20
31.50969733455895
 30
0.0
 40
2.22235619821771
 50
176.8251528744042
 51
3.174847125595846
  0
ARC
  5
5CB
  8
__
  6
CONTINUOUS
 62
     7
 10
554.7386790158475
 20
30.55742976053807
 30
0.0
 40
8.203678318442956
 50
7.532080377454527
 51
112.4679196475346
  0
ARC
  5
5CC
  8
__
  6
CONTINUOUS
 62
     7
 10
550.387447345887
 20
39.99851923545066
 30
0.0
 40
2.222356198217709
 50
116.8251528744185
 51
303.1748471255978
  0
ARC
  5
5CD
  8
__
  6
CONTINUOUS
 62
     7
 10
575.4423573334191
 20
66.41725251214439
 30
0.0
 40
8.203678318441828
 50
187.5320803774555
 51
292.4679196475294
  0
ARC
  5
5CE
  8
__
  6
CONTINUOUS
 62
     7
 10
579.7935890033796
 20
56.9761630372318
 30
0.0
 40
2.222356198217709
 50
296.8251528744185
 51
123.1748471255977
  0
ARC
  5
5CF
  8
__
  6
CONTINUOUS
 62
     7
 10
585.7941964930751
 20
48.48734113684372
 30
0.0
 40
8.203678318442142
 50
127.5320803774555
 51
232.4679196475368
  0
ARC
  5
5D0
  8
__
  6
CONTINUOUS
 62
     7
 10
575.4423573334191
 20
30.55742976053807
 30
0.0
 40
8.20367831844265
 50
67.532080352473
 51
172.4679196225436
  0
ARC
  5
5D1
  8
__
  6
CONTINUOUS
 62
     7
 10
579.7935890033796
 20
39.99851923545066
 30
0.0
 40
2.222356198218802
 50
236.8251528744028
 51
63.17484712558229
  0
ARC
  5
5D2
  8
__
  6
CONTINUOUS
 62
     7
 10
2023.25791817565
 20
65.46498493812351
 30
0.0
 40
2.22235619821771
 50
356.8251528744042
 51
183.1748471255959
  0
ARC
  5
5D3
  8
__
  6
CONTINUOUS
 62
     7
 10
2012.906079016864
 20
66.41725251214439
 30
0.0
 40
8.203678318443083
 50
247.5320803524656
 51
352.4679196225455
  0
ARC
  5
5D4
  8
__
  6
CONTINUOUS
 62
     7
 10
2008.554847346903
 20
56.9761630372318
 30
0.0
 40
2.222356198218677
 50
56.82515287440769
 51
243.1748471255712
  0
ARC
  5
5D5
  8
__
  6
CONTINUOUS
 62
     7
 10
2002.554239857208
 20
48.48734113684372
 30
0.0
 40
8.203678318443176
 50
307.5320803524667
 51
52.46791962254608
  0
ARC
  5
5D6
  8
__
  6
CONTINUOUS
 62
     7
 10
2023.25791817565
 20
31.50969733455895
 30
0.0
 40
2.22235619821771
 50
176.8251528744042
 51
3.174847125595846
  0
ARC
  5
5D7
  8
__
  6
CONTINUOUS
 62
     7
 10
2012.906079016864
 20
30.55742976053807
 30
0.0
 40
8.203678318442956
 50
7.532080377454527
 51
112.4679196475346
  0
ARC
  5
5D8
  8
__
  6
CONTINUOUS
 62
     7
 10
2008.554847346903
 20
39.99851923545066
 30
0.0
 40
2.222356198217914
 50
116.825152874429
 51
303.1748471255953
  0
ARC
  5
5D9
  8
__
  6
CONTINUOUS
 62
     7
 10
2033.609757334435
 20
66.41725251214439
 30
0.0
 40
8.203678318441604
 50
187.5320803774558
 51
292.4679196475309
  0
ARC
  5
5DA
  8
__
  6
CONTINUOUS
 62
     7
 10
2037.960989004396
 20
56.9761630372318
 30
0.0
 40
2.222356198217709
 50
296.8251528744185
 51
123.1748471255953
  0
ARC
  5
5DB
  8
__
  6
CONTINUOUS
 62
     7
 10
2043.961596494091
 20
48.48734113684372
 30
0.0
 40
8.203678318442142
 50
127.5320803774555
 51
232.4679196475362
  0
ARC
  5
5DC
  8
__
  6
CONTINUOUS
 62
     7
 10
2033.609757334435
 20
30.55742976053807
 30
0.0
 40
8.203678318442735
 50
67.53208035247155
 51
172.4679196225435
  0
ARC
  5
5DD
  8
__
  6
CONTINUOUS
 62
     7
 10
2037.960989004396
 20
39.99851923545066
 30
0.0
 40
2.222356198218677
 50
236.8251528744077
 51
63.17484712558229
  0
ARC
  5
5DE
  8
__
  6
CONTINUOUS
 62
     7
 10
2023.25791817565
 20
-834.5350150618765
 30
0.0
 40
2.22235619821771
 50
356.8251528744042
 51
183.1748471255959
  0
ARC
  5
5DF
  8
__
  6
CONTINUOUS
 62
     7
 10
2012.906079016864
 20
-833.5827474878556
 30
0.0
 40
8.203678318443083
 50
247.5320803524656
 51
352.4679196225455
  0
ARC
  5
5E0
  8
__
  6
CONTINUOUS
 62
     7
 10
2008.554847346903
 20
-843.0238369627682
 30
0.0
 40
2.222356198218677
 50
56.82515287440769
 51
243.1748471255712
  0
ARC
  5
5E1
  8
__
  6
CONTINUOUS
 62
     7
 10
2002.554239857208
 20
-851.5126588631563
 30
0.0
 40
8.203678318443176
 50
307.5320803524667
 51
52.46791962254679
  0
ARC
  5
5E2
  8
__
  6
CONTINUOUS
 62
     7
 10
2023.25791817565
 20
-868.490302665441
 30
0.0
 40
2.22235619821771
 50
176.8251528744042
 51
3.174847125595846
  0
ARC
  5
5E3
  8
__
  6
CONTINUOUS
 62
     7
 10
2012.906079016864
 20
-869.4425702394619
 30
0.0
 40
8.203678318442956
 50
7.532080377454527
 51
112.4679196475343
  0
ARC
  5
5E4
  8
__
  6
CONTINUOUS
 62
     7
 10
2008.554847346903
 20
-860.0014807645493
 30
0.0
 40
2.222356198217914
 50
116.825152874429
 51
303.1748471255953
  0
ARC
  5
5E5
  8
__
  6
CONTINUOUS
 62
     7
 10
2033.609757334435
 20
-833.5827474878556
 30
0.0
 40
8.203678318441604
 50
187.5320803774558
 51
292.4679196475309
  0
ARC
  5
5E6
  8
__
  6
CONTINUOUS
 62
     7
 10
2037.960989004396
 20
-843.0238369627682
 30
0.0
 40
2.222356198217709
 50
296.8251528744185
 51
123.1748471255953
  0
ARC
  5
5E7
  8
__
  6
CONTINUOUS
 62
     7
 10
2043.961596494091
 20
-851.5126588631563
 30
0.0
 40
8.203678318442142
 50
127.5320803774555
 51
232.4679196475355
  0
ARC
  5
5E8
  8
__
  6
CONTINUOUS
 62
     7
 10
2033.609757334435
 20
-869.4425702394619
 30
0.0
 40
8.203678318442735
 50
67.53208035247155
 51
172.4679196225435
  0
ARC
  5
5E9
  8
__
  6
CONTINUOUS
 62
     7
 10
2037.960989004396
 20
-860.0014807645493
 30
0.0
 40
2.222356198218677
 50
236.8251528744077
 51
63.17484712558164
  0
ARC
  5
5EA
  8
__
  6
CONTINUOUS
 62
     7
 10
565.090518175648
 20
-834.5350150618765
 30
0.0
 40
2.22235619821771
 50
356.8251528744042
 51
183.1748471255959
  0
ARC
  5
5EB
  8
__
  6
CONTINUOUS
 62
     7
 10
554.7386790168616
 20
-833.5827474878556
 30
0.0
 40
8.203678318443083
 50
247.5320803524656
 51
352.4679196225456
  0
ARC
  5
5EC
  8
__
  6
CONTINUOUS
 62
     7
 10
550.3874473469011
 20
-843.0238369627682
 30
0.0
 40
2.222356198218802
 50
56.8251528744028
 51
243.174847125579
  0
ARC
  5
5ED
  8
__
  6
CONTINUOUS
 62
     7
 10
544.3868398572056
 20
-851.5126588631563
 30
0.0
 40
8.203678318443314
 50
307.532080352468
 51
52.46791962254617
  0
ARC
  5
5EE
  8
__
  6
CONTINUOUS
 62
     7
 10
565.090518175648
 20
-868.490302665441
 30
0.0
 40
2.22235619821771
 50
176.8251528744042
 51
3.174847125595846
  0
ARC
  5
5EF
  8
__
  6
CONTINUOUS
 62
     7
 10
554.7386790168616
 20
-869.4425702394619
 30
0.0
 40
8.203678318442956
 50
7.532080377454527
 51
112.4679196475343
  0
ARC
  5
5F0
  8
__
  6
CONTINUOUS
 62
     7
 10
550.3874473469011
 20
-860.0014807645493
 30
0.0
 40
2.222356198217709
 50
116.8251528744185
 51
303.1748471255978
  0
ARC
  5
5F1
  8
__
  6
CONTINUOUS
 62
     7
 10
575.4423573344332
 20
-833.5827474878556
 30
0.0
 40
8.203678318441828
 50
187.5320803774555
 51
292.4679196475294
  0
ARC
  5
5F2
  8
__
  6
CONTINUOUS
 62
     7
 10
579.7935890043937
 20
-843.0238369627682
 30
0.0
 40
2.222356198217709
 50
296.8251528744185
 51
123.1748471255977
  0
ARC
  5
5F3
  8
__
  6
CONTINUOUS
 62
     7
 10
585.7941964940892
 20
-851.5126588631563
 30
0.0
 40
8.203678318442142
 50
127.5320803774555
 51
232.4679196475361
  0
ARC
  5
5F4
  8
__
  6
CONTINUOUS
 62
     7
 10
575.4423573344332
 20
-869.4425702394619
 30
0.0
 40
8.20367831844265
 50
67.532080352473
 51
172.4679196225436
  0
ARC
  5
5F5
  8
__
  6
CONTINUOUS
 62
     7
 10
579.7935890043937
 20
-860.0014807645493
 30
0.0
 40
2.222356198218802
 50
236.8251528744028
 51
63.17484712557902
  0
TEXT
  5
5F6
  8
__
 62
     7
 10
1188.026692133982
 20
16.88404071967564
 30
0.0
 40
43.32552083333334
  1
SIG/CLIP
 41
0.7
 72
     1
 11
1294.174218175649
 21
38.54680113634231
 31
0.0
 73
     2
  0
TEXT
  5
5F7
  8
__
 62
     7
 10
1453.026682133979
 20
16.88404071967564
 30
0.0
 40
43.32552083333334
  1
SIG/CLIP
 41
0.7
 72
     1
 11
1559.174208175646
 21
38.54680113634231
 31
0.0
 73
     2
  0
TEXT
  5
5F8
  8
__
 62
     7
 10
1243.627777203427
 20
-125.6754192803243
 30
0.0
 40
43.32552083333334
  1
GAIN
 41
0.7
 72
     1
 11
1294.174218175649
 21
-104.0126588636576
 31
0.0
 73
     2
  0
TEXT
  5
5F9
  8
__
 62
     7
 10
1508.580837203425
 20
-125.6754192803243
 30
0.0
 40
43.32552083333334
  1
GAIN
 41
0.7
 72
     1
 11
1559.127278175647
 21
-104.0126588636576
 31
0.0
 73
     2
  0
LINE
  5
5FA
  8
__
  6
CONTINUOUS
 62
     7
 10
1294.174218175649
 20
-208.3014745992568
 30
0.0
 11
1294.174218175649
 21
-133.3014745992568
 31
0.0
  0
LINE
  5
5FB
  8
__
  6
CONTINUOUS
 62
     7
 10
1029.167621588964
 20
-553.2544120905345
 30
0.0
 11
1029.18325637038
 21
-593.254409034954
 31
0.0
  0
LINE
  5
5FC
  8
__
  6
CONTINUOUS
 62
     7
 10
1294.166400784941
 20
-449.754370863659
 30
0.0
 11
1294.182035566357
 21
-489.7543678080785
 31
0.0
  0
LINE
  5
5FD
  8
__
  6
CONTINUOUS
 62
     7
 10
1294.124604198254
 20
-553.2544120905345
 30
0.0
 11
1294.14023897967
 21
-593.254409034954
 31
0.0
  0
ARC
  5
5FE
  8
__
  6
CONTINUOUS
 62
     7
 10
862.5
 20
-2666.512658863656
 30
0.0
 40
1562.5
 50
73.73979529168804
 51
106.2602047083119
  0
ARC
  5
5FF
  8
__
  6
CONTINUOUS
 62
     7
 10
1737.5
 20
333.4873411363437
 30
0.0
 40
1562.5
 50
253.739795291688
 51
286.260204708312
  0
ARC
  5
600
  8
__
  6
CONTINUOUS
 62
     7
 10
862.5
 20
-738.8862577270941
 30
0.0
 40
1562.5
 50
73.73979529168804
 51
106.2602047083119
  0
ARC
  5
601
  8
__
  6
CONTINUOUS
 62
     7
 10
1737.5
 20
2261.113742272906
 30
0.0
 40
1562.5
 50
253.739795291688
 51
286.260204708312
  0
LINE
  5
602
  8
__
  6
CONTINUOUS
 62
     7
 10
-1374.213203306917
 20
-1612.716523681804
 30
0.0
 11
-1292.716523
 21
-1694.213203
 31
0.0
  0
LINE
  5
603
  8
__
  6
CONTINUOUS
 62
     7
 10
-1384.213203435596
 20
-1616.858658564403
 30
0.0
 11
-1296.858659
 21
-1704.213203
 31
0.0
  0
ARC
  5
604
  8
__
  6
CONTINUOUS
 62
     7
 10
-1275.645455
 20
-1683.0
 30
0.0
 40
29.99999999999992
 50
225.0
 51
270.0
  0
LINE
  5
605
  8
__
  6
CONTINUOUS
 62
     7
 10
-1275.645455
 20
-1713.0
 30
0.0
 11
-1124.354545
 21
-1713.0
 31
0.0
  0
ARC
  5
606
  8
__
  6
CONTINUOUS
 62
     7
 10
-1124.354545
 20
-1683.0
 30
0.0
 40
30.0
 50
270.0
 51
315.0
  0
LINE
  5
607
  8
__
  6
CONTINUOUS
 62
     7
 10
-1025.786796564404
 20
-1612.716522564404
 30
0.0
 11
-1107.283477
 21
-1694.213203
 31
0.0
  0
LINE
  5
608
  8
__
  6
CONTINUOUS
 62
     7
 10
-1015.786796564404
 20
-1616.858658564404
 30
0.0
 11
-1103.141341
 21
-1704.213203
 31
0.0
  0
LINE
  5
609
  8
__
  6
CONTINUOUS
 62
     7
 10
-1341.000794745953
 20
-1589.360390226745
 30
0.0
 11
-1288.82565
 21
-1641.535534
 31
0.0
  0
ARC
  5
60A
  8
__
  6
CONTINUOUS
 62
     7
 10
-1285.290115999999
 20
-1638.0
 30
0.0
 40
5.000000000000201
 50
225.0
 51
270.0
  0
LINE
  5
60B
  8
__
  6
CONTINUOUS
 62
     7
 10
-1285.290115999999
 20
-1643.0
 30
0.0
 11
-1114.709884
 21
-1643.0
 31
0.0
  0
ARC
  5
60C
  8
__
  6
CONTINUOUS
 62
     7
 10
-1114.709884
 20
-1638.0
 30
0.0
 40
5.0
 50
270.0
 51
315.0
  0
LINE
  5
60D
  8
__
  6
CONTINUOUS
 62
     7
 10
-1058.999205188134
 20
-1589.360389188134
 30
0.0
 11
-1111.17435
 21
-1641.535534
 31
0.0
  0
ARC
  5
60E
  8
__
  6
CONTINUOUS
 62
     7
 10
-1240.731946
 20
-1678.0
 30
0.0
 40
10.0
 50
90.0
 51
145.5610110000009
  0
LINE
  5
60F
  8
__
  6
CONTINUOUS
 62
     7
 10
-1240.731946
 20
-1668.0
 30
0.0
 11
-1159.268053999999
 21
-1668.0
 31
0.0
  0
ARC
  5
610
  8
__
  6
CONTINUOUS
 62
     7
 10
-1159.268053999999
 20
-1678.0
 30
0.0
 40
9.999999999999815
 50
34.43898899999915
 51
90.0
  0
ARC
  5
611
  8
__
  6
CONTINUOUS
 62
     7
 10
-1128.49668
 20
-1673.0
 30
0.0
 40
30.00000000000004
 50
274.5658350000003
 51
315.0
  0
ARC
  5
612
  8
__
  6
CONTINUOUS
 62
     7
 10
-1124.731946
 20
-1693.0
 30
0.0
 40
9.999999999999815
 50
214.4389889999992
 51
262.0875469999992
  0
ARC
  5
613
  8
__
  6
CONTINUOUS
 62
     7
 10
-1275.268053999999
 20
-1693.0
 30
0.0
 40
9.999999999999932
 50
277.9124529999982
 51
325.5610110000009
  0
ARC
  5
614
  8
__
  6
CONTINUOUS
 62
     7
 10
-1271.50332
 20
-1673.0
 30
0.0
 40
29.99999999999992
 50
225.0
 51
265.4341650000005
  0
ARC
  5
615
  8
__
  6
CONTINUOUS
 62
     7
 10
-1257.080259
 20
-1693.0
 30
0.0
 40
5.000000000000282
 50
145.5610110000038
 51
270.0
  0
ARC
  5
616
  8
__
  6
CONTINUOUS
 62
     7
 10
-1142.919741
 20
-1693.0
 30
0.0
 40
5.0
 50
270.0
 51
34.43898899999918
  0
LINE
  5
617
  8
__
  6
CONTINUOUS
 62
     7
 10
-1257.080259
 20
-1698.0
 30
0.0
 11
-1142.919741
 21
-1698.0
 31
0.0
  0
LINE
  5
618
  8
__
  6
CONTINUOUS
 62
     7
 10
-1151.020766
 20
-1672.344716
 30
0.0
 11
-1132.979234
 21
-1698.655284
 31
0.0
  0
LINE
  5
619
  8
__
  6
CONTINUOUS
 62
     7
 10
-1248.979234
 20
-1672.344716
 30
0.0
 11
-1267.020766
 21
-1698.655284
 31
0.0
  0
LINE
  5
61A
  8
__
  6
CONTINUOUS
 62
     7
 10
-1348.071862752053
 20
-1596.431456301099
 30
0.0
 11
-1295.896718
 21
-1648.606602
 31
0.0
  0
LINE
  5
61B
  8
__
  6
CONTINUOUS
 62
     7
 10
-1362.213998247462
 20
-1610.573592752538
 30
0.0
 11
-1310.038854
 21
-1662.748737
 31
0.0
  0
ARC
  5
61C
  8
__
  6
CONTINUOUS
 62
     7
 10
-1302.967785999999
 20
-1655.67767
 30
0.0
 40
10.0000000000002
 50
225.0000089999992
 51
45.0
  0
ARC
  5
61D
  8
__
  6
CONTINUOUS
 62
     7
 10
-1097.032214
 20
-1655.67767
 30
0.0
 40
9.999999999999758
 50
135.0
 51
314.999990999999
  0
LINE
  5
61E
  8
__
  6
CONTINUOUS
 62
     7
 10
-1089.961147
 20
-1662.748738
 30
0.0
 11
-1037.786001752538
 21
-1610.573592752538
 31
0.0
  0
LINE
  5
61F
  8
__
  6
CONTINUOUS
 62
     7
 10
-1104.103282
 20
-1648.606602
 30
0.0
 11
-1051.928137247947
 21
-1596.4314563011
 31
0.0
  0
CIRCLE
  5
620
  8
__
  6
CONTINUOUS
 62
     7
 10
-1302.967785999999
 20
-1655.67767
 30
0.0
 40
1.5
  0
CIRCLE
  5
621
  8
__
  6
CONTINUOUS
 62
     7
 10
-1097.032214
 20
-1655.67767
 30
0.0
 40
1.5
  0
LINE
  5
622
  8
__
  6
CONTINUOUS
 62
     7
 10
-1383.0
 20
-1453.496878871192
 30
0.0
 11
-1383.0
 21
-1591.503320117527
 31
0.0
  0
LINE
  5
623
  8
__
  6
CONTINUOUS
 62
     7
 10
-1393.0
 20
-1449.354743871193
 30
0.0
 11
-1393.0
 21
-1595.645455128807
 31
0.0
  0
LINE
  5
624
  8
__
  6
CONTINUOUS
 62
     7
 10
-1373.929727
 20
-1582.289321505076
 30
0.0
 11
-1373.929727
 21
-1508.0000995
 31
0.0
  0
ARC
  5
625
  8
__
  6
CONTINUOUS
 62
     7
 10
-1353.0
 20
-1453.496878871192
 30
0.0
 40
29.99999999999992
 50
135.0
 51
180.0
  0
ARC
  5
626
  8
__
  6
CONTINUOUS
 62
     7
 10
-1363.0
 20
-1449.354743871193
 30
0.0
 40
29.99999999999992
 50
135.0000000000006
 51
180.0
  0
ARC
  5
627
  8
__
  6
CONTINUOUS
 62
     7
 10
-1339.587150573431
 20
-1425.941894444622
 30
0.0
 40
29.99999999999896
 50
97.33067080749058
 51
135.0000000000006
  0
ARC
  5
628
  8
__
  6
CONTINUOUS
 62
     7
 10
-1334.934230966966
 20
-1435.431109838154
 30
0.0
 40
29.99999999999698
 50
97.15074035533914
 51
135.0
  0
LINE
  5
629
  8
__
  6
CONTINUOUS
 62
     7
 10
-1025.786796564404
 20
-1432.283675435596
 30
0.0
 11
-1043.852565597439
 21
-1414.21790640256
 31
0.0
  0
LINE
  5
62A
  8
__
  6
CONTINUOUS
 62
     7
 10
-1015.786796564403
 20
-1428.141540435596
 30
0.0
 11
-1039.199645990974
 21
-1404.728691009025
 31
0.0
  0
CIRCLE
  5
62B
  8
__
  6
CONTINUOUS
 62
     7
 10
-1057.5
 20
-1442.000001
 30
0.0
 40
10.0
  0
LINE
  5
62C
  8
__
  6
CONTINUOUS
 62
     7
 10
-1076.577898999999
 20
-1447.437677
 30
0.0
 11
-1076.148623
 21
-1449.226955
 31
0.0
  0
ARC
  5
62D
  8
__
  6
CONTINUOUS
 62
     7
 10
-1057.5
 20
-1442.000001
 30
0.0
 40
19.9999999999999
 50
195.2481161402792
 51
261.7894651089046
  0
LINE
  5
62E
  8
__
  6
CONTINUOUS
 62
     7
 10
-1056.070273
 20
-1582.289321376269
 30
0.0
 11
-1056.070273
 21
-1466.743750730093
 31
0.0
  0
ARC
  5
62F
  8
__
  6
CONTINUOUS
 62
     7
 10
-1036.070273
 20
-1508.0000995
 30
0.0
 40
10.0
 50
0.0
 51
180.0
  0
LINE
  5
630
  8
__
  6
CONTINUOUS
 62
     7
 10
-1046.070273
 20
-1582.289320805691
 30
0.0
 11
-1046.070273
 21
-1508.0000995
 31
0.0
  0
CIRCLE
  5
631
  8
__
  6
CONTINUOUS
 62
     7
 10
-1036.070273
 20
-1508.0000995
 30
0.0
 40
1.5
  0
LINE
  5
632
  8
__
  6
CONTINUOUS
 62
     7
 10
-1059.232049999999
 20
-1439.00000239875
 30
0.0
 11
-1055.767949999999
 21
-1439.00000239875
 31
0.0
  0
LINE
  5
633
  8
__
  6
CONTINUOUS
 62
     7
 10
-1055.767949999999
 20
-1444.99999960125
 30
0.0
 11
-1059.232049999999
 21
-1444.99999960125
 31
0.0
  0
LINE
  5
634
  8
__
  6
CONTINUOUS
 62
     7
 10
-1055.767949999999
 20
-1439.00000239875
 30
0.0
 11
-1054.035899999999
 21
-1442.000001
 31
0.0
  0
LINE
  5
635
  8
__
  6
CONTINUOUS
 62
     7
 10
-1054.035899999999
 20
-1442.000001
 30
0.0
 11
-1055.767949999999
 21
-1444.99999960125
 31
0.0
  0
LINE
  5
636
  8
__
  6
CONTINUOUS
 62
     7
 10
-1060.9641
 20
-1442.000001
 30
0.0
 11
-1059.232049999999
 21
-1439.00000239875
 31
0.0
  0
LINE
  5
637
  8
__
  6
CONTINUOUS
 62
     7
 10
-1059.232049999999
 20
-1444.99999960125
 30
0.0
 11
-1060.9641
 21
-1442.000001
 31
0.0
  0
LINE
  5
638
  8
__
  6
CONTINUOUS
 62
     7
 10
-1017.0
 20
-1453.496878871192
 30
0.0
 11
-1017.0
 21
-1591.503319128808
 31
0.0
  0
LINE
  5
639
  8
__
  6
CONTINUOUS
 62
     7
 10
-1007.0
 20
-1449.354743871193
 30
0.0
 11
-1007.0
 21
-1595.645455128808
 31
0.0
  0
LINE
  5
63A
  8
__
  6
CONTINUOUS
 62
     7
 10
-1026.070273
 20
-1582.289321505076
 30
0.0
 11
-1026.070273
 21
-1508.0000995
 31
0.0
  0
ARC
  5
63B
  8
__
  6
CONTINUOUS
 62
     7
 10
-1047.0
 20
-1453.496878871192
 30
0.0
 40
30.0
 50
0.0
 51
45.0
  0
ARC
  5
63C
  8
__
  6
CONTINUOUS
 62
     7
 10
-1037.0
 20
-1449.354743871193
 30
0.0
 40
30.0
 50
0.0
 51
44.99999999999937
  0
ARC
  5
63D
  8
__
  6
CONTINUOUS
 62
     7
 10
-1065.065769033036
 20
-1435.431109838157
 30
0.0
 40
30.00000000000024
 50
45.0
 51
82.8492596446573
  0
ARC
  5
63E
  8
__
  6
CONTINUOUS
 62
     7
 10
-1060.412849426567
 20
-1425.941894444617
 30
0.0
 40
29.99999999999478
 50
44.99999999999939
 51
82.66932919251408
  0
ARC
  5
63F
  8
__
  6
CONTINUOUS
 62
     7
 10
-1200.0
 20
-2510.98127
 30
0.0
 40
1123.98127
 50
82.66932919250821
 51
97.33067080749181
  0
ARC
  5
640
  8
__
  6
CONTINUOUS
 62
     7
 10
-1318.380100708587
 20
-1448.574988313453
 30
0.0
 40
4.99999999999995
 50
96.35803519759037
 51
164.7518838597214
  0
ARC
  5
641
  8
__
  6
CONTINUOUS
 62
     7
 10
-1338.929727
 20
-1466.743750730093
 30
0.0
 40
4.999999999999986
 50
98.21053489109538
 51
180.0
  0
ARC
  5
642
  8
__
  6
CONTINUOUS
 62
     7
 10
-1081.619899291413
 20
-1448.574988313453
 30
0.0
 40
5.000000000000165
 50
15.2481161402772
 51
83.64196480240187
  0
ARC
  5
643
  8
__
  6
CONTINUOUS
 62
     7
 10
-1061.070273
 20
-1466.743750730093
 30
0.0
 40
5.0
 50
0.0
 51
81.78946510890461
  0
ARC
  5
644
  8
__
  6
CONTINUOUS
 62
     7
 10
-1363.0
 20
-1595.645455128807
 30
0.0
 40
30.0
 50
180.0
 51
225.0
  0
ARC
  5
645
  8
__
  6
CONTINUOUS
 62
     7
 10
-1353.0
 20
-1591.503320117528
 30
0.0
 40
30.00000000000023
 50
179.9999999999991
 51
225.0000003475565
  0
ARC
  5
646
  8
__
  6
CONTINUOUS
 62
     7
 10
-1047.0
 20
-1591.503319128808
 30
0.0
 40
29.99999999999992
 50
315.0
 51
0.0
  0
ARC
  5
647
  8
__
  6
CONTINUOUS
 62
     7
 10
-1037.0
 20
-1595.645455128808
 30
0.0
 40
29.99999999999992
 50
315.0
 51
0.0
  0
ARC
  5
648
  8
__
  6
CONTINUOUS
 62
     7
 10
-1333.929727
 20
-1582.289321505076
 30
0.0
 40
39.99999999999977
 50
180.0000000000004
 51
225.0000000000004
  0
ARC
  5
649
  8
__
  6
CONTINUOUS
 62
     7
 10
-1066.070273
 20
-1582.289321505076
 30
0.0
 40
40.00000000000016
 50
314.9999999999998
 51
359.9999999999998
  0
ARC
  5
64A
  8
__
  6
CONTINUOUS
 62
     7
 10
-1333.929727
 20
-1582.28932080569
 30
0.0
 40
20.0
 50
180.0
 51
224.9999994801129
  0
ARC
  5
64B
  8
__
  6
CONTINUOUS
 62
     7
 10
-1066.070273
 20
-1582.289320805691
 30
0.0
 40
20.00000000000016
 50
315.0000005198867
 51
359.9999999999994
  0
ARC
  5
64C
  8
__
  6
CONTINUOUS
 62
     7
 10
-1066.070273
 20
-1582.289321376269
 30
0.0
 40
10.00000000000008
 50
315.0
 51
0.0
  0
ARC
  5
64D
  8
__
  6
CONTINUOUS
 62
     7
 10
-1333.929727
 20
-1582.289322348967
 30
0.0
 40
10.0
 50
179.9999999999987
 51
225.0000005340793
  0
ARC
  5
64E
  8
__
  6
CONTINUOUS
 62
     7
 10
-518.0223464992371
 20
-509.9888269609285
 30
0.0
 40
24.9776559999998
 50
126.8442669999999
 51
180.025631
  0
ARC
  5
64F
  8
__
  6
CONTINUOUS
 62
     7
 10
-503.8942138555146
 20
-1083.882390210912
 30
0.0
 40
39.1059629999999
 50
180.1723160000003
 51
221.9027059999999
  0
LINE
  5
650
  8
__
  6
CONTINUOUS
 62
     7
 10
-447.8852879999999
 20
-558.0546510703036
 30
0.0
 11
-448.6730459999999
 21
-557.0835640703037
 31
0.0
  0
ARC
  5
651
  8
__
  6
CONTINUOUS
 62
     7
 10
-453.332664
 20
-560.8635050703035
 30
0.0
 40
5.999999999999906
 50
39.04939899999869
 51
87.9705649999988
  0
LINE
  5
652
  8
__
  6
CONTINUOUS
 62
     7
 10
-447.3541639999999
 20
-576.6644310703039
 30
0.0
 11
-447.4732749999998
 21
-576.8307710703036
 31
0.0
  0
ARC
  5
653
  8
__
  6
CONTINUOUS
 62
     7
 10
-452.2324429999999
 20
-573.1712390703035
 30
0.0
 40
6.000000000000199
 50
262.4225269999985
 51
324.3946649999991
  0
ARC
  5
654
  8
__
  6
CONTINUOUS
 62
     7
 10
-463.0320789999996
 20
-567.7796040703035
 30
0.0
 40
18.00000000000021
 50
330.4593520000001
 51
32.70237300000065
  0
ARC
  5
655
  8
__
  6
CONTINUOUS
 62
     7
 10
-536.5818583260088
 20
-558.978597523919
 30
0.0
 40
10.99999999999993
 50
156.2875089999998
 51
205.1464049999993
  0
LINE
  5
656
  8
__
  6
CONTINUOUS
 62
     7
 10
-496.653182
 20
-554.5549770703035
 30
0.0
 11
-496.2984149999997
 21
-554.0055180703037
 31
0.0
  0
ARC
  5
657
  8
__
  6
CONTINUOUS
 62
     7
 10
-542.097898
 20
-556.7176500703038
 30
0.0
 40
4.999999999999885
 50
87.9705650000014
 51
147.1510340000005
  0
LINE
  5
658
  8
__
  6
CONTINUOUS
 62
     7
 10
-546.5393326046546
 20
-563.6528574642846
 30
0.0
 11
-545.3660346046545
 21
-565.2680504642847
 31
0.0
  0
ARC
  5
659
  8
__
  6
CONTINUOUS
 62
     7
 10
-541.320702
 20
-562.3294650703035
 30
0.0
 40
5.000000000000019
 50
215.9951719999985
 51
262.4225270000006
  0
LINE
  5
65A
  8
__
  6
CONTINUOUS
 62
     7
 10
-541.920834
 20
-551.7207860703036
 30
0.0
 11
-453.120187
 21
-554.8672690703036
 31
0.0
  0
LINE
  5
65B
  8
__
  6
CONTINUOUS
 62
     7
 10
-541.980035
 20
-567.2858020703036
 30
0.0
 11
-453.023643
 21
-579.1188430703039
 31
0.0
  0
LINE
  5
65C
  8
__
  6
CONTINUOUS
 62
     7
 10
-541.920834
 20
-551.7207860703036
 30
0.0
 11
-453.120187
 21
-554.8672690703036
 31
0.0
  0
LINE
  5
65D
  8
__
  6
CONTINUOUS
 62
     7
 10
-542.9999999999995
 20
-572.1941686316707
 30
0.0
 11
-444.086879
 21
-585.3516600703035
 31
0.0
  0
LINE
  5
65E
  8
__
  6
CONTINUOUS
 62
     7
 10
-542.9999999999995
 20
-546.6794102621733
 30
0.0
 11
-444.086879
 21
-550.1842090703037
 31
0.0
  0
ARC
  5
65F
  8
__
  6
CONTINUOUS
 62
     7
 10
-446.8931259999999
 20
-567.7679350703036
 30
0.0
 40
17.80624699999984
 50
279.0675609999997
 51
80.93243900000034
  0
LINE
  5
660
  8
__
  6
CONTINUOUS
 62
     7
 10
-447.8852879999999
 20
-1041.945349070304
 30
0.0
 11
-448.6730459999999
 21
-1042.916436070304
 31
0.0
  0
ARC
  5
661
  8
__
  6
CONTINUOUS
 62
     7
 10
-453.332664
 20
-1039.136495070304
 30
0.0
 40
5.999999999999963
 50
272.0294350000012
 51
320.9506010000013
  0
LINE
  5
662
  8
__
  6
CONTINUOUS
 62
     7
 10
-447.3541639999999
 20
-1023.335569070304
 30
0.0
 11
-447.4732749999998
 21
-1023.169229070304
 31
0.0
  0
ARC
  5
663
  8
__
  6
CONTINUOUS
 62
     7
 10
-452.2324429999999
 20
-1026.828761070304
 30
0.0
 40
6.000000000000059
 50
35.60533500000093
 51
97.57747300000152
  0
ARC
  5
664
  8
__
  6
CONTINUOUS
 62
     7
 10
-463.0320789999996
 20
-1032.220396070304
 30
0.0
 40
17.99999999999999
 50
327.2976269999994
 51
29.54064799999987
  0
ARC
  5
665
  8
__
  6
CONTINUOUS
 62
     7
 10
-536.5818586046548
 20
-1041.021402676323
 30
0.0
 40
10.99999999999996
 50
154.8535950000007
 51
203.7124910000002
  0
LINE
  5
666
  8
__
  6
CONTINUOUS
 62
     7
 10
-546.6531826046548
 20
-1045.445023676323
 30
0.0
 11
-546.2984156046546
 21
-1045.994482676323
 31
0.0
  0
ARC
  5
667
  8
__
  6
CONTINUOUS
 62
     7
 10
-542.097898
 20
-1043.282350070304
 30
0.0
 40
4.999999999999797
 50
212.8489659999996
 51
272.0294349999987
  0
LINE
  5
668
  8
__
  6
CONTINUOUS
 62
     7
 10
-546.5393326046546
 20
-1036.347142676323
 30
0.0
 11
-545.3660346046545
 21
-1034.731949676323
 31
0.0
  0
ARC
  5
669
  8
__
  6
CONTINUOUS
 62
     7
 10
-541.320702
 20
-1037.670535070304
 30
0.0
 40
4.999999999999836
 50
97.57747299999943
 51
144.0048280000015
  0
LINE
  5
66A
  8
__
  6
CONTINUOUS
 62
     7
 10
-541.920834
 20
-1048.279214070304
 30
0.0
 11
-453.120187
 21
-1045.132731070304
 31
0.0
  0
LINE
  5
66B
  8
__
  6
CONTINUOUS
 62
     7
 10
-541.980035
 20
-1032.714198070304
 30
0.0
 11
-453.023643
 21
-1020.881157070304
 31
0.0
  0
LINE
  5
66C
  8
__
  6
CONTINUOUS
 62
     7
 10
-541.920834
 20
-1048.279214070304
 30
0.0
 11
-453.120187
 21
-1045.132731070304
 31
0.0
  0
LINE
  5
66D
  8
__
  6
CONTINUOUS
 62
     7
 10
-542.9999999999995
 20
-1027.805831508937
 30
0.0
 11
-444.086879
 21
-1014.648340070304
 31
0.0
  0
LINE
  5
66E
  8
__
  6
CONTINUOUS
 62
     7
 10
-542.9999999999995
 20
-1053.320589878434
 30
0.0
 11
-444.086879
 21
-1049.815791070304
 31
0.0
  0
ARC
  5
66F
  8
__
  6
CONTINUOUS
 62
     7
 10
-446.8931259999999
 20
-1032.232065070304
 30
0.0
 40
17.80624699999984
 50
279.0675609999997
 51
80.93243900000034
  0
LINE
  5
670
  8
__
  6
CONTINUOUS
 62
     7
 10
-542.9999999999995
 20
-1084.000000496062
 30
0.0
 11
-542.9999999999995
 21
-1048.200298014477
 31
0.0
  0
LINE
  5
671
  8
__
  6
CONTINUOUS
 62
     7
 10
-542.9999999999995
 20
-1032.960974769469
 30
0.0
 11
-542.9999999999995
 21
-567.0390253711381
 31
0.0
  0
LINE
  5
672
  8
__
  6
CONTINUOUS
 62
     7
 10
-542.9999999999995
 20
-551.7997021261308
 30
0.0
 11
-542.9999999999995
 21
-509.9776533234538
 31
0.0
  0
ARC
  5
673
  8
__
  6
CONTINUOUS
 62
     7
 10
-1289.88760109764
 20
-506.8071815836732
 30
0.0
 40
20.80748520593359
 50
90.30950467985849
 51
126.1236222658684
  0
ARC
  5
674
  8
__
  6
CONTINUOUS
 62
     7
 10
-1110.11239890236
 20
-506.8071815836732
 30
0.0
 40
20.80748520593357
 50
53.87637773413156
 51
89.69049532014152
  0
POLYLINE
  5
675
  8
__
  6
CONTINUOUS
 62
     7
 66
     1
 10
0.0
 20
0.0
 30
0.0
 70
   129
  0
VERTEX
  5
7E5
  8
__
  6
CONTINUOUS
 62
     7
 10
-1220.0
 20
-948.5000000703037
 30
0.0
  0
VERTEX
  5
7E6
  8
__
  6
CONTINUOUS
 62
     7
 10
-1180.0
 20
-948.5000000703037
 30
0.0
  0
VERTEX
  5
7E7
  8
__
  6
CONTINUOUS
 62
     7
 10
-1180.0
 20
-988.5000000703037
 30
0.0
  0
VERTEX
  5
7E8
  8
__
  6
CONTINUOUS
 62
     7
 10
-1220.0
 20
-988.5000000703037
 30
0.0
  0
SEQEND
  5
80D
  8
__
  6
CONTINUOUS
 62
     7
  0
POLYLINE
  5
67B
  8
__
  6
CONTINUOUS
 62
     7
 66
     1
 10
0.0
 20
0.0
 30
0.0
 70
   129
  0
VERTEX
  5
7E9
  8
__
  6
CONTINUOUS
 62
     7
 10
-1231.0
 20
-938.5000000703037
 30
0.0
  0
VERTEX
  5
7EA
  8
__
  6
CONTINUOUS
 62
     7
 10
-1169.0
 20
-938.5000000703037
 30
0.0
  0
VERTEX
  5
7EB
  8
__
  6
CONTINUOUS
 62
     7
 10
-1169.0
 20
-998.5000000703037
 30
0.0
  0
VERTEX
  5
7EC
  8
__
  6
CONTINUOUS
 62
     7
 10
-1231.0
 20
-998.5000000703037
 30
0.0
  0
SEQEND
  5
80E
  8
__
  6
CONTINUOUS
 62
     7
  0
LINE
  5
681
  8
__
  6
CONTINUOUS
 62
     7
 10
-1374.5
 20
57.9474218711926
 30
0.0
 11
-1374.5
 21
187.9825041288071
 31
0.0
  0
LINE
  5
682
  8
__
  6
CONTINUOUS
 62
     7
 10
-1365.713203435596
 20
209.1957075644036
 30
0.0
 11
-1289.195707564403
 21
285.7132034355965
 31
0.0
  0
LINE
  5
683
  8
__
  6
CONTINUOUS
 62
     7
 10
-1267.982504128807
 20
294.5
 30
0.0
 11
-1132.017495871193
 21
294.5
 31
0.0
  0
LINE
  5
684
  8
__
  6
CONTINUOUS
 62
     7
 10
-1034.286796564404
 20
209.1957075644041
 30
0.0
 11
-1110.804292435596
 21
285.7132034355964
 31
0.0
  0
LINE
  5
685
  8
__
  6
CONTINUOUS
 62
     7
 10
-1365.713203435596
 20
36.73421843559618
 30
0.0
 11
-1351.143112420617
 21
22.16412742061675
 31
0.0
  0
CIRCLE
  5
686
  8
__
  6
CONTINUOUS
 62
     7
 10
-1057.5
 20
42.00000099999943
 30
0.0
 40
10.0
  0
LINE
  5
687
  8
__
  6
CONTINUOUS
 62
     7
 10
-1055.76795
 20
44.9999996012491
 30
0.0
 11
-1059.23205
 21
44.9999996012491
 31
0.0
  0
LINE
  5
688
  8
__
  6
CONTINUOUS
 62
     7
 10
-1059.23205
 20
39.00000239874976
 30
0.0
 11
-1055.76795
 21
39.00000239874976
 31
0.0
  0
LINE
  5
689
  8
__
  6
CONTINUOUS
 62
     7
 10
-1059.23205
 20
44.9999996012491
 30
0.0
 11
-1060.9641
 21
42.00000099999943
 31
0.0
  0
LINE
  5
68A
  8
__
  6
CONTINUOUS
 62
     7
 10
-1060.9641
 20
42.00000099999943
 30
0.0
 11
-1059.23205
 21
39.00000239874976
 31
0.0
  0
LINE
  5
68B
  8
__
  6
CONTINUOUS
 62
     7
 10
-1054.0359
 20
42.00000099999943
 30
0.0
 11
-1055.76795
 21
44.9999996012491
 31
0.0
  0
LINE
  5
68C
  8
__
  6
CONTINUOUS
 62
     7
 10
-1055.76795
 20
39.00000239874976
 30
0.0
 11
-1054.0359
 21
42.00000099999943
 31
0.0
  0
LINE
  5
68D
  8
__
  6
CONTINUOUS
 62
     7
 10
-1374.213203435596
 20
32.2836754355958
 30
0.0
 11
-1356.147434402559
 21
14.21790640255927
 31
0.0
  0
LINE
  5
68E
  8
__
  6
CONTINUOUS
 62
     7
 10
-1384.213203435596
 20
28.14154043559643
 30
0.0
 11
-1360.800354009026
 21
4.728691009026079
 31
0.0
  0
ARC
  5
68F
  8
__
  6
CONTINUOUS
 62
     7
 10
-1200.0
 20
1110.98127
 30
0.0
 40
1113.98127
 50
262.8492596446575
 51
277.1507403553426
  0
CIRCLE
  5
690
  8
__
  6
CONTINUOUS
 62
     7
 10
-1342.5
 20
42.00000099999988
 30
0.0
 40
10.0
  0
LINE
  5
691
  8
__
  6
CONTINUOUS
 62
     7
 10
-1340.76795
 20
39.00000239875021
 30
0.0
 11
-1344.232050000001
 21
39.00000239875021
 31
0.0
  0
LINE
  5
692
  8
__
  6
CONTINUOUS
 62
     7
 10
-1344.232050000001
 20
44.99999960124956
 30
0.0
 11
-1340.76795
 21
44.99999960124956
 31
0.0
  0
LINE
  5
693
  8
__
  6
CONTINUOUS
 62
     7
 10
-1344.232050000001
 20
39.00000239875021
 30
0.0
 11
-1345.9641
 21
42.00000099999988
 31
0.0
  0
LINE
  5
694
  8
__
  6
CONTINUOUS
 62
     7
 10
-1345.9641
 20
42.00000099999988
 30
0.0
 11
-1344.232050000001
 21
44.99999960124956
 31
0.0
  0
LINE
  5
695
  8
__
  6
CONTINUOUS
 62
     7
 10
-1339.0359
 20
42.00000099999988
 30
0.0
 11
-1340.76795
 21
39.00000239875021
 31
0.0
  0
LINE
  5
696
  8
__
  6
CONTINUOUS
 62
     7
 10
-1340.76795
 20
44.99999960124956
 30
0.0
 11
-1339.0359
 21
42.00000099999988
 31
0.0
  0
LINE
  5
697
  8
__
  6
CONTINUOUS
 62
     7
 10
-1374.213203306916
 20
212.7165236818037
 30
0.0
 11
-1292.716522999999
 21
294.2132029999998
 31
0.0
  0
LINE
  5
698
  8
__
  6
CONTINUOUS
 62
     7
 10
-1384.213203435596
 20
216.8586585644032
 30
0.0
 11
-1296.858658999999
 21
304.2132029999998
 31
0.0
  0
ARC
  5
699
  8
__
  6
CONTINUOUS
 62
     7
 10
-1275.645455
 20
283.0
 30
0.0
 40
30.0
 50
90.0
 51
135.0
  0
LINE
  5
69A
  8
__
  6
CONTINUOUS
 62
     7
 10
-1275.645455
 20
313.0
 30
0.0
 11
-1124.354544999999
 21
313.0
 31
0.0
  0
ARC
  5
69B
  8
__
  6
CONTINUOUS
 62
     7
 10
-1124.354544999999
 20
283.0
 30
0.0
 40
29.99999999999992
 50
45.0
 51
90.0
  0
LINE
  5
69C
  8
__
  6
CONTINUOUS
 62
     7
 10
-1025.786796564403
 20
212.7165225644042
 30
0.0
 11
-1107.283476999999
 21
294.2132029999998
 31
0.0
  0
LINE
  5
69D
  8
__
  6
CONTINUOUS
 62
     7
 10
-1015.786796564403
 20
216.8586585644041
 30
0.0
 11
-1103.141340999999
 21
304.2132029999998
 31
0.0
  0
LINE
  5
69E
  8
__
  6
CONTINUOUS
 62
     7
 10
-1296.082513069896
 20
317.6832690698965
 30
0.0
 11
-1288.503875168373
 21
310.1046311683735
 31
0.0
  0
LINE
  5
69F
  8
__
  6
CONTINUOUS
 62
     7
 10
-1398.612996069896
 20
215.1527860698965
 30
0.0
 11
-1390.678119509813
 21
207.2179095098131
 31
0.0
  0
ARC
  5
6A0
  8
__
  6
CONTINUOUS
 62
     7
 10
-1128.49668
 20
273.0
 30
0.0
 40
29.99999999999992
 50
45.0
 51
85.43416499999964
  0
ARC
  5
6A1
  8
__
  6
CONTINUOUS
 62
     7
 10
-1271.50332
 20
273.0
 30
0.0
 40
30.0
 50
94.5658349999995
 51
135.0
  0
LINE
  5
6A2
  8
__
  6
CONTINUOUS
 62
     7
 10
-1383.0
 20
53.49687887119217
 30
0.0
 11
-1383.0
 21
191.5033201175274
 31
0.0
  0
LINE
  5
6A3
  8
__
  6
CONTINUOUS
 62
     7
 10
-1393.0
 20
49.35474387119257
 30
0.0
 11
-1393.0
 21
195.6454551288068
 31
0.0
  0
ARC
  5
6A4
  8
__
  6
CONTINUOUS
 62
     7
 10
-1353.0
 20
53.49687887119217
 30
0.0
 40
30.0
 50
180.0
 51
225.0
  0
ARC
  5
6A5
  8
__
  6
CONTINUOUS
 62
     7
 10
-1363.0
 20
49.35474387119257
 30
0.0
 40
30.0
 50
180.0
 51
224.9999999999994
  0
ARC
  5
6A6
  8
__
  6
CONTINUOUS
 62
     7
 10
-1339.58715057343
 20
25.94189444462154
 30
0.0
 40
29.99999999999896
 50
224.9999999999994
 51
262.6693291925095
  0
ARC
  5
6A7
  8
__
  6
CONTINUOUS
 62
     7
 10
-1334.934230966965
 20
35.43110983815359
 30
0.0
 40
29.99999999999703
 50
225.0
 51
262.8492596446608
  0
LINE
  5
6A8
  8
__
  6
CONTINUOUS
 62
     7
 10
-1025.786796564403
 20
32.2836754355958
 30
0.0
 11
-1043.852565597439
 21
14.21790640256017
 31
0.0
  0
LINE
  5
6A9
  8
__
  6
CONTINUOUS
 62
     7
 10
-1015.786796564403
 20
28.14154043559643
 30
0.0
 11
-1039.199645990974
 21
4.728691009024942
 31
0.0
  0
CIRCLE
  5
6AA
  8
__
  6
CONTINUOUS
 62
     7
 10
-1057.499999999999
 20
42.00000099999988
 30
0.0
 40
10.0
  0
LINE
  5
6AB
  8
__
  6
CONTINUOUS
 62
     7
 10
-1059.232049999999
 20
39.00000239875021
 30
0.0
 11
-1055.767949999999
 21
39.00000239875021
 31
0.0
  0
LINE
  5
6AC
  8
__
  6
CONTINUOUS
 62
     7
 10
-1055.767949999999
 20
44.99999960124956
 30
0.0
 11
-1059.232049999999
 21
44.99999960124956
 31
0.0
  0
LINE
  5
6AD
  8
__
  6
CONTINUOUS
 62
     7
 10
-1055.767949999999
 20
39.00000239875021
 30
0.0
 11
-1054.035899999999
 21
42.00000099999988
 31
0.0
  0
LINE
  5
6AE
  8
__
  6
CONTINUOUS
 62
     7
 10
-1054.035899999999
 20
42.00000099999988
 30
0.0
 11
-1055.767949999999
 21
44.99999960124956
 31
0.0
  0
LINE
  5
6AF
  8
__
  6
CONTINUOUS
 62
     7
 10
-1060.964099999999
 20
42.00000099999988
 30
0.0
 11
-1059.232049999999
 21
39.00000239875021
 31
0.0
  0
LINE
  5
6B0
  8
__
  6
CONTINUOUS
 62
     7
 10
-1059.232049999999
 20
44.99999960124956
 30
0.0
 11
-1060.964099999999
 21
42.00000099999988
 31
0.0
  0
LINE
  5
6B1
  8
__
  6
CONTINUOUS
 62
     7
 10
-1017.0
 20
53.49687887119217
 30
0.0
 11
-1017.0
 21
191.5033191288078
 31
0.0
  0
LINE
  5
6B2
  8
__
  6
CONTINUOUS
 62
     7
 10
-1007.0
 20
49.35474387119257
 30
0.0
 11
-1007.0
 21
195.6454551288077
 31
0.0
  0
ARC
  5
6B3
  8
__
  6
CONTINUOUS
 62
     7
 10
-1047.0
 20
53.49687887119217
 30
0.0
 40
29.99999999999992
 50
315.0
 51
0.0
  0
ARC
  5
6B4
  8
__
  6
CONTINUOUS
 62
     7
 10
-1037.0
 20
49.35474387119257
 30
0.0
 40
29.99999999999992
 50
315.0000000000006
 51
0.0
  0
ARC
  5
6B5
  8
__
  6
CONTINUOUS
 62
     7
 10
-1065.065769033035
 20
35.43110983815677
 30
0.0
 40
30.00000000000022
 50
277.1507403553431
 51
315.0
  0
ARC
  5
6B6
  8
__
  6
CONTINUOUS
 62
     7
 10
-1060.412849426567
 20
25.94189444461745
 30
0.0
 40
29.99999999999478
 50
277.3306708074863
 51
315.0000000000009
  0
ARC
  5
6B7
  8
__
  6
CONTINUOUS
 62
     7
 10
-1200.0
 20
1110.98127
 30
0.0
 40
1123.98127
 50
262.6693291925082
 51
277.3306708074918
  0
ARC
  5
6B8
  8
__
  6
CONTINUOUS
 62
     7
 10
-1363.0
 20
195.6454551288068
 30
0.0
 40
29.99999999999992
 50
135.0
 51
180.0
  0
ARC
  5
6B9
  8
__
  6
CONTINUOUS
 62
     7
 10
-1352.999999999999
 20
191.5033201175279
 30
0.0
 40
29.99999999999992
 50
134.9999996524435
 51
180.0000000000009
  0
ARC
  5
6BA
  8
__
  6
CONTINUOUS
 62
     7
 10
-1047.0
 20
191.5033191288078
 30
0.0
 40
30.0
 50
0.0
 51
45.0
  0
ARC
  5
6BB
  8
__
  6
CONTINUOUS
 62
     7
 10
-1037.0
 20
195.6454551288077
 30
0.0
 40
30.0
 50
0.0
 51
45.0
  0
LINE
  5
6BC
  8
__
  6
CONTINUOUS
 62
     7
 10
-1273.891456172861
 20
302.9047956960062
 30
0.0
 11
-1126.108543827138
 21
302.9047956960062
 31
0.0
  0
ARC
  5
6BD
  8
__
  6
CONTINUOUS
 62
     7
 10
-1200.0
 20
1110.98127
 30
0.0
 40
1105.481265352486
 50
263.0610931300254
 51
276.9389068699746
  0
ARC
  5
6BE
  8
__
  6
CONTINUOUS
 62
     7
 10
-1329.929908985022
 20
43.37733085621096
 30
0.0
 40
29.99999999999694
 50
224.9999999999999
 51
263.061093130029
  0
LINE
  5
6BF
  8
__
  6
CONTINUOUS
 62
     7
 10
-1034.286796564404
 20
36.73421843559618
 30
0.0
 11
-1048.856887579383
 21
22.16412742061721
 31
0.0
  0
ARC
  5
6C0
  8
__
  6
CONTINUOUS
 62
     7
 10
-1070.070091014979
 20
43.37733085621309
 30
0.0
 40
29.99999999999922
 50
276.938906869974
 51
315.0000000000001
  0
LINE
  5
6C1
  8
__
  6
CONTINUOUS
 62
     7
 10
-1025.5
 20
57.9474218711926
 30
0.0
 11
-1025.5
 21
187.9825041288076
 31
0.0
  0
ARC
  5
6C2
  8
__
  6
CONTINUOUS
 62
     7
 10
-1267.982504128807
 20
264.5
 30
0.0
 40
30.0
 50
90.0
 51
134.9999999999998
  0
ARC
  5
6C3
  8
__
  6
CONTINUOUS
 62
     7
 10
-1344.5
 20
187.9825041288071
 30
0.0
 40
30.0
 50
134.9999999999999
 51
180.0
  0
ARC
  5
6C4
  8
__
  6
CONTINUOUS
 62
     7
 10
-1344.5
 20
57.94742187119266
 30
0.0
 40
30.0
 50
180.0000000000001
 51
225.0000000000002
  0
ARC
  5
6C5
  8
__
  6
CONTINUOUS
 62
     7
 10
-1055.5
 20
57.94742187119266
 30
0.0
 40
30.0
 50
314.9999999999998
 51
359.9999999999999
  0
ARC
  5
6C6
  8
__
  6
CONTINUOUS
 62
     7
 10
-1055.5
 20
187.9825041288076
 30
0.0
 40
30.0
 50
0.0000000000001137
 51
45.00000000000017
  0
ARC
  5
6C7
  8
__
  6
CONTINUOUS
 62
     7
 10
-1132.017495871193
 20
264.5
 30
0.0
 40
29.99999999999996
 50
45.00000000000008
 51
90.0
  0
LINE
  5
6C8
  8
__
  6
CONTINUOUS
 62
     7
 10
-1132.5
 20
167.5000000000001
 30
0.0
 11
-1267.5
 21
167.5000000000001
 31
0.0
  0
LINE
  5
6C9
  8
__
  6
CONTINUOUS
 62
     7
 10
-1148.947368421052
 20
217.5
 30
0.0
 11
-1251.052631578948
 21
217.5
 31
0.0
  0
ARC
  5
6CA
  8
__
  6
CONTINUOUS
 62
     7
 10
-1267.5
 20
180.0000000000001
 30
0.0
 40
12.50000000000002
 50
146.6592926535237
 51
270.0
  0
LINE
  5
6CB
  8
__
  6
CONTINUOUS
 62
     7
 10
-1277.942713528049
 20
186.8702062684536
 30
0.0
 11
-1261.495345106997
 21
211.8702062684534
 31
0.0
  0
LINE
  5
6CC
  8
__
  6
CONTINUOUS
 62
     7
 10
-1132.5
 20
132.5000000000001
 30
0.0
 11
-1267.5
 21
132.5000000000001
 31
0.0
  0
LINE
  5
6CD
  8
__
  6
CONTINUOUS
 62
     7
 10
-1148.947368421052
 20
82.5
 30
0.0
 11
-1251.052631578948
 21
82.5
 31
0.0
  0
ARC
  5
6CE
  8
__
  6
CONTINUOUS
 62
     7
 10
-1267.5
 20
120.0000000000001
 30
0.0
 40
12.5
 50
90.0
 51
213.3407073464763
  0
LINE
  5
6CF
  8
__
  6
CONTINUOUS
 62
     7
 10
-1277.942713528049
 20
113.1297937315467
 30
0.0
 11
-1261.495345106997
 21
88.12979373154653
 31
0.0
  0
ARC
  5
6D0
  8
__
  6
CONTINUOUS
 62
     7
 10
-1132.5
 20
180.0000000000001
 30
0.0
 40
12.5
 50
270.0
 51
33.34070734647628
  0
LINE
  5
6D1
  8
__
  6
CONTINUOUS
 62
     7
 10
-1122.057286471951
 20
186.8702062684536
 30
0.0
 11
-1138.504654893003
 21
211.8702062684534
 31
0.0
  0
ARC
  5
6D2
  8
__
  6
CONTINUOUS
 62
     7
 10
-1132.5
 20
120.0000000000001
 30
0.0
 40
12.50000000000002
 50
326.6592926535237
 51
90.0
  0
LINE
  5
6D3
  8
__
  6
CONTINUOUS
 62
     7
 10
-1122.057286471951
 20
113.1297937315467
 30
0.0
 11
-1138.504654893003
 21
88.12979373154656
 31
0.0
  0
ARC
  5
6D4
  8
__
  6
CONTINUOUS
 62
     7
 10
-1251.052631578948
 20
205.0
 30
0.0
 40
12.5
 50
90.0
 51
146.6592926535233
  0
ARC
  5
6D5
  8
__
  6
CONTINUOUS
 62
     7
 10
-1148.947368421052
 20
205.0
 30
0.0
 40
12.50000000000008
 50
33.34070734647671
 51
90.0
  0
ARC
  5
6D6
  8
__
  6
CONTINUOUS
 62
     7
 10
-1148.947368421052
 20
95.0
 30
0.0
 40
12.5
 50
270.0
 51
326.6592926535227
  0
ARC
  5
6D7
  8
__
  6
CONTINUOUS
 62
     7
 10
-1251.052631578948
 20
95.0
 30
0.0
 40
12.50000000000009
 50
213.3407073464768
 51
270.0
  0
LINE
  5
6D8
  8
__
  6
CONTINUOUS
 62
     7
 10
-1278.95643923739
 20
115.0000000000001
 30
0.0
 11
-1282.5
 21
115.0
 31
0.0
  0
LINE
  5
6D9
  8
__
  6
CONTINUOUS
 62
     7
 10
-1282.5
 20
185.0
 30
0.0
 11
-1278.95643923739
 21
185.0
 31
0.0
  0
ARC
  5
6DA
  8
__
  6
CONTINUOUS
 62
     7
 10
-1282.5
 20
150.0
 30
0.0
 40
35.0
 50
90.0
 51
270.0
  0
LINE
  5
6DB
  8
__
  6
CONTINUOUS
 62
     7
 10
-1121.04356076261
 20
115.0000000000001
 30
0.0
 11
-1117.5
 21
115.0
 31
0.0
  0
LINE
  5
6DC
  8
__
  6
CONTINUOUS
 62
     7
 10
-1117.5
 20
185.0
 30
0.0
 11
-1121.04356076261
 21
185.0
 31
0.0
  0
ARC
  5
6DD
  8
__
  6
CONTINUOUS
 62
     7
 10
-1117.5
 20
150.0
 30
0.0
 40
35.0
 50
270.0
 51
90.0
  0
LINE
  5
6DE
  8
__
  6
CONTINUOUS
 62
     7
 10
-1398.612996069896
 20
215.1527860698965
 30
0.0
 11
-1296.082513069896
 21
317.6832690698965
 31
0.0
  0
LINE
  5
6DF
  8
__
  6
CONTINUOUS
 62
     7
 10
-1103.917486930104
 20
317.6832690698965
 30
0.0
 11
-1111.496124831627
 21
310.1046311683735
 31
0.0
  0
LINE
  5
6E0
  8
__
  6
CONTINUOUS
 62
     7
 10
-1001.387003930104
 20
215.1527860698965
 30
0.0
 11
-1009.321880490187
 21
207.2179095098131
 31
0.0
  0
LINE
  5
6E1
  8
__
  6
CONTINUOUS
 62
     7
 10
-1001.387003930104
 20
215.1527860698965
 30
0.0
 11
-1103.917486930104
 21
317.6832690698965
 31
0.0
  0
LINE
  5
6E2
  8
__
  6
CONTINUOUS
 62
     7
 10
-1103.917486930105
 20
-1717.683269069897
 30
0.0
 11
-1111.496124831627
 21
-1710.104631168374
 31
0.0
  0
LINE
  5
6E3
  8
__
  6
CONTINUOUS
 62
     7
 10
-1001.387003930105
 20
-1615.152786069897
 30
0.0
 11
-1009.321880490187
 21
-1607.217909509813
 31
0.0
  0
LINE
  5
6E4
  8
__
  6
CONTINUOUS
 62
     7
 10
-1001.387003930105
 20
-1615.152786069897
 30
0.0
 11
-1103.917486930105
 21
-1717.683269069897
 31
0.0
  0
LINE
  5
6E5
  8
__
  6
CONTINUOUS
 62
     7
 10
-1296.082513069896
 20
-1717.683269069897
 30
0.0
 11
-1288.503875168373
 21
-1710.104631168374
 31
0.0
  0
LINE
  5
6E6
  8
__
  6
CONTINUOUS
 62
     7
 10
-1398.612996069896
 20
-1615.152786069897
 30
0.0
 11
-1390.678119509813
 21
-1607.217909509813
 31
0.0
  0
LINE
  5
6E7
  8
__
  6
CONTINUOUS
 62
     7
 10
-1398.612996069896
 20
-1615.152786069897
 30
0.0
 11
-1296.082513069896
 21
-1717.683269069897
 31
0.0
  0
LINE
  5
6E8
  8
__
  6
CONTINUOUS
 62
     7
 10
-1001.387003930104
 20
-551.7207860703036
 30
0.0
 11
-1001.387003930104
 21
-579.1188430703039
 31
0.0
  0
LINE
  5
6E9
  8
__
  6
CONTINUOUS
 62
     7
 10
-1001.387003930104
 20
-551.7207860703036
 30
0.0
 11
-1007.0
 21
-551.7207860703036
 31
0.0
  0
LINE
  5
6EA
  8
__
  6
CONTINUOUS
 62
     7
 10
-1001.387003930104
 20
-567.2858020703036
 30
0.0
 11
-1007.0
 21
-567.2858020703036
 31
0.0
  0
LINE
  5
6EB
  8
__
  6
CONTINUOUS
 62
     7
 10
-1001.387003930104
 20
-579.1188430703039
 30
0.0
 11
-1007.0
 21
-579.1188430703039
 31
0.0
  0
LINE
  5
6EC
  8
__
  6
CONTINUOUS
 62
     7
 10
-1001.387003930104
 20
-1058.279214070304
 30
0.0
 11
-1001.387003930104
 21
-1030.881157070304
 31
0.0
  0
LINE
  5
6ED
  8
__
  6
CONTINUOUS
 62
     7
 10
-1001.387003930104
 20
-1058.279214070304
 30
0.0
 11
-1007.0
 21
-1058.279214070304
 31
0.0
  0
LINE
  5
6EE
  8
__
  6
CONTINUOUS
 62
     7
 10
-1001.387003930104
 20
-1042.714198070304
 30
0.0
 11
-1007.0
 21
-1042.714198070304
 31
0.0
  0
LINE
  5
6EF
  8
__
  6
CONTINUOUS
 62
     7
 10
-1001.387003930104
 20
-1030.881157070304
 30
0.0
 11
-1007.0
 21
-1030.881157070304
 31
0.0
  0
LINE
  5
6F0
  8
__
  6
CONTINUOUS
 62
     7
 10
-440.0
 20
-485.9999999609283
 30
0.0
 11
-260.0
 21
-485.9999999609283
 31
0.0
  0
ARC
  5
6F1
  8
__
  6
CONTINUOUS
 62
     7
 10
-439.8876010976396
 20
-506.8071815836732
 30
0.0
 40
20.80748520593359
 50
90.30950467985849
 51
126.1236222658684
  0
ARC
  5
6F2
  8
__
  6
CONTINUOUS
 62
     7
 10
-260.1123989023604
 20
-506.8071815836732
 30
0.0
 40
20.80748520593357
 50
53.87637773413156
 51
89.69049532014152
  0
CIRCLE
  5
6F3
  8
__
  6
CONTINUOUS
 62
     7
 10
-350.0000000000005
 20
-570.0000000703037
 30
0.0
 40
10.0
  0
CIRCLE
  5
6F4
  8
__
  6
CONTINUOUS
 62
     7
 10
-350.0000000000005
 20
-1024.000000070304
 30
0.0
 40
10.0
  0
LINE
  5
6F5
  8
__
  6
CONTINUOUS
 62
     7
 10
-348.2679500000008
 20
-1021.000001469054
 30
0.0
 11
-351.732050000001
 21
-1021.000001469054
 31
0.0
  0
LINE
  5
6F6
  8
__
  6
CONTINUOUS
 62
     7
 10
-351.732050000001
 20
-1026.999998671553
 30
0.0
 11
-348.2679500000008
 21
-1026.999998671553
 31
0.0
  0
LINE
  5
6F7
  8
__
  6
CONTINUOUS
 62
     7
 10
-351.732050000001
 20
-1021.000001469054
 30
0.0
 11
-353.4641000000006
 21
-1024.000000070304
 31
0.0
  0
LINE
  5
6F8
  8
__
  6
CONTINUOUS
 62
     7
 10
-353.4641000000006
 20
-1024.000000070304
 30
0.0
 11
-351.732050000001
 21
-1026.999998671553
 31
0.0
  0
LINE
  5
6F9
  8
__
  6
CONTINUOUS
 62
     7
 10
-346.5359000000003
 20
-1024.000000070304
 30
0.0
 11
-348.2679500000008
 21
-1021.000001469054
 31
0.0
  0
LINE
  5
6FA
  8
__
  6
CONTINUOUS
 62
     7
 10
-348.2679500000008
 20
-1026.999998671553
 30
0.0
 11
-346.5359000000003
 21
-1024.000000070304
 31
0.0
  0
LINE
  5
6FB
  8
__
  6
CONTINUOUS
 62
     7
 10
-348.2679500000008
 20
-567.000001469054
 30
0.0
 11
-351.732050000001
 21
-567.000001469054
 31
0.0
  0
LINE
  5
6FC
  8
__
  6
CONTINUOUS
 62
     7
 10
-351.732050000001
 20
-572.9999986715534
 30
0.0
 11
-348.2679500000008
 21
-572.9999986715534
 31
0.0
  0
LINE
  5
6FD
  8
__
  6
CONTINUOUS
 62
     7
 10
-351.732050000001
 20
-567.000001469054
 30
0.0
 11
-353.4641000000006
 21
-570.0000000703037
 31
0.0
  0
LINE
  5
6FE
  8
__
  6
CONTINUOUS
 62
     7
 10
-353.4641000000006
 20
-570.0000000703037
 30
0.0
 11
-351.732050000001
 21
-572.9999986715534
 31
0.0
  0
LINE
  5
6FF
  8
__
  6
CONTINUOUS
 62
     7
 10
-346.5359000000003
 20
-570.0000000703037
 30
0.0
 11
-348.2679500000008
 21
-567.000001469054
 31
0.0
  0
LINE
  5
700
  8
__
  6
CONTINUOUS
 62
     7
 10
-348.2679500000008
 20
-572.9999986715534
 30
0.0
 11
-346.5359000000003
 21
-570.0000000703037
 31
0.0
  0
LINE
  5
701
  8
__
  6
______-7
 62
     7
 10
-1200.0
 20
-50.0
 30
0.0
 11
-1200.0
 21
350.0
 31
0.0
  0
LINE
  5
702
  8
__
  6
______-7
 62
     7
 10
-1200.0
 20
-1752.5000995
 30
0.0
 11
-1200.0
 21
-1352.5000995
 31
0.0
  0
LINE
  5
703
  8
__
  6
______-7
 62
     7
 10
-1200.0
 20
-1162.500000070304
 30
0.0
 11
-1200.0
 21
-437.5000000703037
 31
0.0
  0
LINE
  5
704
  8
__
  6
______-7
 62
     7
 10
-350.0
 20
-1162.500000070304
 30
0.0
 11
-350.0
 21
-437.5000000703037
 31
0.0
  0
VIEWPORT
  5
705
 67
     1
  8
0
 10
128.5
 20
97.5
 30
0.0
 40
314.226
 41
222.18
 68
     1
 69
     1
1001
ACAD
1000
MVIEW
1002
{
1070
    16
1010
0.0
1020
0.0
1030
0.0
1020
0.0
1030
0.0
1010
0.0
1020
0.0
1030
1.0
1020
0.0
1030
1.0
1040
0.0
1040
222.18
1040
128.5
1040
97.5
1040
50.0
1040
0.0
1040
0.0
1070
     0
1070
   100
1070
     0
1070
     3
1070
     0
1070
     0
1070
     0
1070
     0
1040
0.0
1040
0.0
1040
0.0
1040
10.0
1040
10.0
1040
10.0
1040
10.0
1070
     0
1002
{
1002
}
1002
}
  0
ENDSEC
  0
EOF
