  0
SECTION
  2
HEADER
  9
$ACADVER
  1
AC1009
  9
$DWGCODEPAGE
  3
ansi_932
  9
$INSBASE
 10
0.0
 20
0.0
 30
0.0
  9
$EXTMIN
 10
-2249.994374999999
 20
-3355.369230483168
 30
0.0
  9
$EXTMAX
 10
2249.994374999999
 20
3334.755214261562
 30
0.0
  9
$LIMMIN
 10
0.0
 20
0.0
  9
$LIMMAX
 10
12.0
 20
9.0
  9
$ORTHOMODE
 70
     0
  9
$REGENMODE
 70
     1
  9
$FILLMODE
 70
     1
  9
$QTEXTMODE
 70
     0
  9
$MIRRTEXT
 70
     1
  9
$DRAGMODE
 70
     2
  9
$LTSCALE
 40
127.0
  9
$OSMODE
 70
  8423
  9
$ATTMODE
 70
     1
  9
$TEXTSIZE
 40
0.2
  9
$TRACEWID
 40
1.0
  9
$TEXTSTYLE
  7
STANDARD
  9
$CLAYER
  8
__-1
  9
$CELTYPE
  6
BYLAYER
  9
$CECOLOR
 62
   256
  9
$DIMSCALE
 40
1.0
  9
$DIMASZ
 40
0.18
  9
$DIMEXO
 40
0.0625
  9
$DIMDLI
 40
0.38
  9
$DIMRND
 40
0.0
  9
$DIMDLE
 40
0.0
  9
$DIMEXE
 40
0.18
  9
$DIMTP
 40
0.0
  9
$DIMTM
 40
0.0
  9
$DIMTXT
 40
0.18
  9
$DIMCEN
 40
0.09
  9
$DIMTSZ
 40
0.0
  9
$DIMTOL
 70
     0
  9
$DIMLIM
 70
     0
  9
$DIMTIH
 70
     1
  9
$DIMTOH
 70
     1
  9
$DIMSE1
 70
     0
  9
$DIMSE2
 70
     0
  9
$DIMTAD
 70
     0
  9
$DIMZIN
 70
     0
  9
$DIMBLK
  1

  9
$DIMASO
 70
     1
  9
$DIMSHO
 70
     1
  9
$DIMPOST
  1

  9
$DIMAPOST
  1

  9
$DIMALT
 70
     0
  9
$DIMALTD
 70
     2
  9
$DIMALTF
 40
25.4
  9
$DIMLFAC
 40
1.0
  9
$DIMTOFL
 70
     0
  9
$DIMTVP
 40
0.0
  9
$DIMTIX
 70
     0
  9
$DIMSOXD
 70
     0
  9
$DIMSAH
 70
     0
  9
$DIMBLK1
  1

  9
$DIMBLK2
  1

  9
$DIMSTYLE
  2
STANDARD
  9
$DIMCLRD
 70
     0
  9
$DIMCLRE
 70
     0
  9
$DIMCLRT
 70
     0
  9
$DIMTFAC
 40
1.0
  9
$DIMGAP
 40
0.09
  9
$LUNITS
 70
     2
  9
$LUPREC
 70
     2
  9
$SKETCHINC
 40
0.1
  9
$FILLETRAD
 40
0.5
  9
$AUNITS
 70
     0
  9
$AUPREC
 70
     1
  9
$MENU
  1
.
  9
$ELEVATION
 40
0.0
  9
$PELEVATION
 40
0.0
  9
$THICKNESS
 40
0.0
  9
$LIMCHECK
 70
     0
  9
$CHAMFERA
 40
0.0
  9
$CHAMFERB
 40
0.0
  9
$SKPOLY
 70
     0
  9
$TDCREATE
 40
2460804.69879132
  9
$TDUPDATE
 40
2460804.699171458
  9
$TDINDWG
 40
2460804.324171632
  9
$TDUSRTIMER
 40
0.0003803125
  9
$USRTIMER
 70
     1
  9
$ANGBASE
 50
0.0
  9
$ANGDIR
 70
     0
  9
$PDMODE
 70
     1
  9
$PDSIZE
 40
-2.0
  9
$PLINEWID
 40
0.0
  9
$COORDS
 70
     2
  9
$SPLFRAME
 70
     0
  9
$SPLINETYPE
 70
     6
  9
$SPLINESEGS
 70
     8
  9
$ATTDIA
 70
     1
  9
$ATTREQ
 70
     1
  9
$HANDLING
 70
     1
  9
$HANDSEED
  5
7BE
  9
$SURFTAB1
 70
     6
  9
$SURFTAB2
 70
     6
  9
$SURFTYPE
 70
     6
  9
$SURFU
 70
     6
  9
$SURFV
 70
     6
  9
$UCSNAME
  2

  9
$UCSORG
 10
0.0
 20
0.0
 30
0.0
  9
$UCSXDIR
 10
1.0
 20
0.0
 30
0.0
  9
$UCSYDIR
 10
0.0
 20
1.0
 30
0.0
  9
$PUCSNAME
  2

  9
$PUCSORG
 10
0.0
 20
0.0
 30
0.0
  9
$PUCSXDIR
 10
1.0
 20
0.0
 30
0.0
  9
$PUCSYDIR
 10
0.0
 20
1.0
 30
0.0
  9
$USERI1
 70
     0
  9
$USERI2
 70
     0
  9
$USERI3
 70
     0
  9
$USERI4
 70
     0
  9
$USERI5
 70
     0
  9
$USERR1
 40
0.0
  9
$USERR2
 40
0.0
  9
$USERR3
 40
0.0
  9
$USERR4
 40
0.0
  9
$USERR5
 40
0.0
  9
$WORLDVIEW
 70
     1
  9
$SHADEDGE
 70
     3
  9
$SHADEDIF
 70
    70
  9
$TILEMODE
 70
     1
  9
$MAXACTVP
 70
    64
  9
$PLIMCHECK
 70
     0
  9
$PEXTMIN
 10
1.000000000000000E+20
 20
1.000000000000000E+20
 30
1.000000000000000E+20
  9
$PEXTMAX
 10
-1.000000000000000E+20
 20
-1.000000000000000E+20
 30
-1.000000000000000E+20
  9
$PLIMMIN
 10
-20.0
 20
-7.5
  9
$PLIMMAX
 10
277.0
 20
202.5
  9
$UNITMODE
 70
     0
  9
$VISRETAIN
 70
     1
  9
$PLINEGEN
 70
     0
  9
$PSLTSCALE
 70
     1
  0
ENDSEC
  0
SECTION
  2
TABLES
  0
TABLE
  2
VPORT
 70
     1
  0
VPORT
  2
*ACTIVE
 70
     0
 10
0.0
 20
0.0
 11
1.0
 21
1.0
 12
0.0
 22
-3.531814999999824
 13
0.0
 23
0.0
 14
0.5
 24
0.5
 15
0.5
 25
0.5
 16
0.0
 26
0.0
 36
1.0
 17
0.0
 27
0.0
 37
0.0
 40
6676.574058523124
 41
2.942508710801394
 42
2000.0
 43
0.0
 44
0.0
 50
0.0
 51
0.0
 71
     0
 72
   100
 73
     1
 74
     3
 75
     0
 76
     0
 77
     0
 78
     0
  0
ENDTAB
  0
TABLE
  2
LTYPE
 70
    11
  0
LTYPE
  2
CONTINUOUS
 70
     0
  3
Solid line
 72
    65
 73
     0
 40
0.0
  0
LTYPE
  2
______-7
 70
     0
  3

 72
    65
 73
     6
 40
1.875
 49
0.625
 49
-0.208282470703125
 49
0.625
 49
-0.2083587646484375
 49
0.069427490234375
 49
-0.1389312744140625
  0
ENDTAB
  0
TABLE
  2
LAYER
 70
     3
  0
LAYER
  2
0
 70
     0
 62
     7
  6
CONTINUOUS
  0
LAYER
  2
__
 70
     0
 62
     7
  6
CONTINUOUS
  0
LAYER
  2
__-1
 70
     0
 62
     7
  6
CONTINUOUS
  0
ENDTAB
  0
TABLE
  2
STYLE
 70
     2
  0
STYLE
  2
STANDARD
 70
     0
 40
0.0
 41
1.0
 50
0.0
 71
     0
 42
0.2
  3
txt
  4
BIGFONT.SHX
  0
ENDTAB
  0
TABLE
  2
VIEW
 70
     0
  0
ENDTAB
  0
TABLE
  2
UCS
 70
     0
  0
ENDTAB
  0
TABLE
  2
APPID
 70
     5
  0
APPID
  2
ACAD
 70
     0
  0
APPID
  2
ACCMTRANSPARENCY
 70
     0
  0
APPID
  2
ACAECLAYERSTANDARD
 70
     0
  0
APPID
  2
ACAD_MLEADERVER
 70
     0
  0
APPID
  2
ACADANNOPO
 70
     0
  0
ENDTAB
  0
TABLE
  2
DIMSTYLE
 70
     1
  0
DIMSTYLE
  2
STANDARD
 70
     0
  3

  4

  5

  6

  7

 40
1.0
 41
0.18
 42
0.0625
 43
0.38
 44
0.18
 45
0.0
 46
0.0
 47
0.0
 48
0.0
140
0.18
141
0.09
142
0.0
143
25.4
144
1.0
145
0.0
146
1.0
147
0.09
 71
     0
 72
     0
 73
     1
 74
     1
 75
     0
 76
     0
 77
     0
 78
     0
170
     0
171
     2
172
     0
173
     0
174
     0
175
     0
176
     0
177
     0
178
     0
  0
ENDTAB
  0
ENDSEC
  0
SECTION
  2
BLOCKS
  0
BLOCK
  8
__-1
  2
$MODEL_SPACE
 70
     0
 10
0.0
 20
0.0
 30
0.0
  3
$MODEL_SPACE
  1

  0
ENDBLK
  5
6FD
  8
__-1
  0
BLOCK
 67
     1
  8
__-1
  2
$PAPER_SPACE
 70
     0
 10
0.0
 20
0.0
 30
0.0
  3
$PAPER_SPACE
  1

  0
ENDBLK
  5
6FB
 67
     1
  8
__-1
  0
ENDSEC
  0
SECTION
  2
ENTITIES
  0
LINE
  5
7F
  8
__
  6
CONTINUOUS
 62
     7
 10
-2249.994374999999
 20
3334.755214261562
 30
0.0
 11
2249.994374999999
 21
3334.755214261562
 31
0.0
  0
LINE
  5
80
  8
__
  6
CONTINUOUS
 62
     7
 10
2249.994374999999
 20
-3165.228535738437
 30
0.0
 11
-2249.994374999999
 21
-3165.228535738437
 31
0.0
  0
LINE
  5
81
  8
__
  6
CONTINUOUS
 62
     7
 10
-2249.994374999999
 20
-3165.228535738437
 30
0.0
 11
-2249.994374999999
 21
3334.755214261562
 31
0.0
  0
LINE
  5
82
  8
__
  6
CONTINUOUS
 62
     7
 10
2249.994374999999
 20
3334.755214261562
 30
0.0
 11
2249.994374999999
 21
-3165.228535738437
 31
0.0
  0
LINE
  5
83
  8
__
  6
CONTINUOUS
 62
     7
 10
0.0000000000003553
 20
-2602.729941988438
 30
0.0
 11
2249.994374999999
 21
-2602.729941988438
 31
0.0
  0
LINE
  5
84
  8
__
  6
CONTINUOUS
 62
     7
 10
0.0000000000003553
 20
-3165.228535738437
 30
0.0
 11
0.0000000000003553
 21
-2602.729941988438
 31
0.0
  0
TEXT
  5
85
  8
__
 62
     7
 10
22.4999437500005
 20
-2665.447118528437
 30
0.0
 40
40.61757423706053
  1
NOTE
 41
0.7
 11
22.4999437500005
 21
-2624.829544291376
 31
0.0
 73
     3
  0
LINE
  5
86
  8
__
  6
CONTINUOUS
 62
     7
 10
874.9978125000002
 20
-3165.228535738437
 30
0.0
 11
874.9978125000002
 21
-2602.729941988438
 31
0.0
  0
TEXT
  5
87
  8
__
 62
     7
 10
897.4977562499997
 20
-2665.447118528437
 30
0.0
 40
40.61757423706053
  1
TITLE
 41
0.7
 11
897.4977562499997
 21
-2624.829544291376
 31
0.0
 73
     3
  0
LINE
  5
88
  8
__
  6
CONTINUOUS
 62
     7
 10
0.0000000000003553
 20
-2915.229160738437
 30
0.0
 11
2249.994374999999
 21
-2915.229160738437
 31
0.0
  0
TEXT
  5
89
  8
__
 62
     7
 10
1209.996975
 20
-2976.538340798438
 30
0.0
 40
40.61757423706053
  1
DRAWN
 41
0.7
 11
1209.996975
 21
-2935.920766561378
 31
0.0
 73
     3
  0
TEXT
  5
8A
  8
__
 62
     7
 10
584.9985374999998
 20
-2976.538340798438
 30
0.0
 40
40.61757423706053
  1
DATE
 41
0.7
 11
584.9985374999998
 21
-2935.920766561378
 31
0.0
 73
     3
  0
TEXT
  5
8B
  8
__
 62
     7
 10
334.9991624999998
 20
-2976.538340798438
 30
0.0
 40
40.61757423706053
  1
SCALE
 41
0.7
 11
334.9991624999998
 21
-2935.920766561378
 31
0.0
 73
     3
  0
TEXT
  5
8C
  8
__
 62
     7
 10
897.4977562499997
 20
-2976.538340798438
 30
0.0
 40
40.61757423706053
  1
DESIGN
 41
0.7
 11
897.4977562499997
 21
-2935.920766561378
 31
0.0
 73
     3
  0
TEXT
  5
8D
  8
__
 62
     7
 10
1834.995412499999
 20
-2976.538340798438
 30
0.0
 40
40.61757423706053
  1
DRAWING NO.
 41
0.7
 11
1834.995412499999
 21
-2935.920766561378
 31
0.0
 73
     3
  0
TEXT
  5
8E
  8
__
 62
     7
 10
1522.49619375
 20
-2976.538340798438
 30
0.0
 40
40.61757423706053
  1
CHECK
 41
0.7
 11
1522.49619375
 21
-2935.920766561378
 31
0.0
 73
     3
  0
LINE
  5
8F
  8
__
  6
CONTINUOUS
 62
     7
 10
359.3741015625004
 20
-3133.978613863438
 30
0.0
 11
453.1238671875003
 21
-3040.228848238437
 31
0.0
  0
TEXT
  5
90
  8
__
 62
     7
 10
343.7491406250003
 20
-3067.952362262813
 30
0.0
 40
40.61757423706053
  1
1
 41
0.7
 11
343.7491406250003
 21
-3027.334788025752
 31
0.0
 73
     3
  0
LINE
  5
91
  8
__
  6
CONTINUOUS
 62
     7
 10
312.4992187500004
 20
-3165.228535738437
 30
0.0
 11
312.4992187500004
 21
-2915.229160738437
 31
0.0
  0
LINE
  5
92
  8
__
  6
CONTINUOUS
 62
     7
 10
562.4985937499996
 20
-3165.228535738437
 30
0.0
 11
562.4985937499996
 21
-2915.229160738437
 31
0.0
  0
LINE
  5
93
  8
__
  6
CONTINUOUS
 62
     7
 10
1187.49703125
 20
-2915.229160738437
 30
0.0
 11
1187.49703125
 21
-3165.228535738437
 31
0.0
  0
LINE
  5
94
  8
__
  6
CONTINUOUS
 62
     7
 10
1812.49546875
 20
-2915.229160738437
 30
0.0
 11
1812.49546875
 21
-3165.228535738437
 31
0.0
  0
LINE
  5
95
  8
__
  6
CONTINUOUS
 62
     7
 10
1499.996249999999
 20
-3165.228535738437
 30
0.0
 11
1499.996249999999
 21
-2915.229160738437
 31
0.0
  0
TEXT
  5
96
  8
__
 62
     7
 10
583.9120402162503
 20
-3093.637548049687
 30
0.0
 40
40.61757423706053
  1
'25.04.
 41
0.7
 11
583.9120402162503
 21
-3053.019973812626
 31
0.0
 73
     3
  0
TEXT
  5
97
  8
__
 62
     7
 10
437.4989062500003
 20
-3114.827245075312
 30
0.0
 40
40.61757423706053
  1
25
 41
0.7
 11
437.4989062500003
 21
-3074.209670838252
 31
0.0
 73
     3
  0
TEXT
  5
98
  8
__
 62
     7
 10
1225.14218741274
 20
-3093.637548049687
 30
0.0
 40
40.61757423706053
  1
N.Sasaki
 41
0.7
 11
1225.14218741274
 21
-3053.019973812626
 31
0.0
 73
     3
  0
TEXT
  5
99
  8
__
 62
     7
 10
97.08309062500086
 20
-3115.828659238437
 30
0.0
 40
81.23514847412106
  1
A4
 41
0.7
 11
97.08309062500086
 21
-3034.593510764315
 31
0.0
 73
     3
  0
TEXT
  5
9A
  8
__
 62
     7
 10
23.95827343749988
 20
-2980.7153720225
 30
0.0
 40
40.61757423706053
  1
PAPER SIZE
 41
0.7
 11
23.95827343749988
 21
-2940.09779778544
 31
0.0
 73
     3
  0
TEXT
  5
9B
  8
__
 62
     7
 10
-2070.394823999999
 20
-3325.445080196075
 30
0.0
 40
89.77245086128049
  1
Hibino Corporation
 41
0.7
 11
-2070.394823999999
 21
-3235.672629334794
 31
0.0
 73
     3
  0
TEXT
  5
9C
  8
__
 62
     7
 10
1251.706620725625
 20
-3325.445080196075
 30
0.0
 40
89.77245086128049
  1
ヒビノ株式会社
 41
0.7
 11
1251.706620725625
 21
-3235.672629334794
 31
0.0
 73
     3
  0
LINE
  5
9D
  8
__
  6
CONTINUOUS
 62
     7
 10
-2062.494843749999
 20
3084.755839261562
 30
0.0
 11
1624.9959375
 21
3084.755839261562
 31
0.0
  0
LINE
  5
9E
  8
__
  6
CONTINUOUS
 62
     7
 10
-2062.494843749999
 20
2991.006073636562
 30
0.0
 11
1624.9959375
 21
2991.006073636562
 31
0.0
  0
LINE
  5
9F
  8
__
  6
CONTINUOUS
 62
     7
 10
-2062.494843749999
 20
3084.755839261562
 30
0.0
 11
-2062.494843749999
 21
1397.260058011563
 31
0.0
  0
TEXT
  5
A0
  8
__
 62
     7
 10
-2031.244921874999
 20
3119.587502182187
 30
0.0
 40
60.92636135559081
  1
仕様
 41
0.7
 11
-2031.244921874999
 21
3180.513863537778
 31
0.0
 73
     3
  0
LINE
  5
A1
  8
__
  6
CONTINUOUS
 62
     7
 10
1624.9959375
 20
3084.755839261562
 30
0.0
 11
1624.9959375
 21
1397.260058011563
 31
0.0
  0
LINE
  5
A2
  8
__
  6
CONTINUOUS
 62
     7
 10
-2062.494843749999
 20
2897.256308011562
 30
0.0
 11
1624.9959375
 21
2897.256308011562
 31
0.0
  0
LINE
  5
A3
  8
__
  6
CONTINUOUS
 62
     7
 10
-2062.494843749999
 20
2803.506542386562
 30
0.0
 11
1624.9959375
 21
2803.506542386562
 31
0.0
  0
LINE
  5
A4
  8
__
  6
CONTINUOUS
 62
     7
 10
-2062.494843749999
 20
2709.756776761562
 30
0.0
 11
1624.9959375
 21
2709.756776761562
 31
0.0
  0
LINE
  5
A5
  8
__
  6
CONTINUOUS
 62
     7
 10
-1531.25
 20
2616.007011136562
 30
0.0
 11
1624.9959375
 21
2616.007011136562
 31
0.0
  0
LINE
  5
A6
  8
__
  6
CONTINUOUS
 62
     7
 10
-2062.494843749999
 20
2522.257245511562
 30
0.0
 11
1624.9959375
 21
2522.257245511562
 31
0.0
  0
LINE
  5
A7
  8
__
  6
CONTINUOUS
 62
     7
 10
-2062.494843749999
 20
2428.507479886563
 30
0.0
 11
1624.9959375
 21
2428.507479886563
 31
0.0
  0
LINE
  5
A8
  8
__
  6
CONTINUOUS
 62
     7
 10
-2062.494843749999
 20
2334.757714261562
 30
0.0
 11
1624.9959375
 21
2334.757714261562
 31
0.0
  0
LINE
  5
A9
  8
__
  6
CONTINUOUS
 62
     7
 10
-1531.25
 20
2241.007948636562
 30
0.0
 11
1624.9959375
 21
2241.007948636562
 31
0.0
  0
LINE
  5
AA
  8
__
  6
CONTINUOUS
 62
     7
 10
-1531.25
 20
2147.258183011562
 30
0.0
 11
1624.9959375
 21
2147.258183011562
 31
0.0
  0
LINE
  5
AB
  8
__
  6
CONTINUOUS
 62
     7
 10
-2062.494843749999
 20
2053.508417386562
 30
0.0
 11
1624.9959375
 21
2053.508417386562
 31
0.0
  0
LINE
  5
AC
  8
__
  6
CONTINUOUS
 62
     7
 10
-2062.494843749999
 20
1959.758651761562
 30
0.0
 11
1624.9959375
 21
1959.758651761562
 31
0.0
  0
LINE
  5
AD
  8
__
  6
CONTINUOUS
 62
     7
 10
-2062.494843749999
 20
1866.008886136562
 30
0.0
 11
1624.9959375
 21
1866.008886136562
 31
0.0
  0
LINE
  5
AE
  8
__
  6
CONTINUOUS
 62
     7
 10
-2062.494843749999
 20
1772.259120511563
 30
0.0
 11
1624.9959375
 21
1772.259120511563
 31
0.0
  0
LINE
  5
AF
  8
__
  6
CONTINUOUS
 62
     7
 10
-2062.494843749999
 20
1678.509354886562
 30
0.0
 11
1624.9959375
 21
1678.509354886562
 31
0.0
  0
LINE
  5
B0
  8
__
  6
CONTINUOUS
 62
     7
 10
-2062.494843749999
 20
1584.759589261562
 30
0.0
 11
1624.9959375
 21
1584.759589261562
 31
0.0
  0
LINE
  5
B1
  8
__
  6
CONTINUOUS
 62
     7
 10
-2062.494843749999
 20
1491.009823636562
 30
0.0
 11
1624.9959375
 21
1491.009823636562
 31
0.0
  0
LINE
  5
B2
  8
__
  6
CONTINUOUS
 62
     7
 10
-2062.494843749999
 20
1397.260058011562
 30
0.0
 11
1624.9959375
 21
1397.260058011562
 31
0.0
  0
TEXT
  5
B3
  8
__
 62
     7
 10
-2039.9949
 20
2635.704906336145
 30
0.0
 40
47.3871699432373
  1
ドライバー構成
 41
0.7
 11
-2039.9949
 21
2683.092076279383
 31
0.0
 73
     3
  0
TEXT
  5
B4
  8
__
 62
     7
 10
-2039.9949
 20
2260.705843836145
 30
0.0
 40
47.3871699432373
  1
入力
 41
0.7
 11
-2039.9949
 21
2308.093013779383
 31
0.0
 73
     3
  0
TEXT
  5
B5
  8
__
 62
     7
 10
-2039.9949
 20
1979.456546961145
 30
0.0
 40
47.3871699432373
  1
出力
 41
0.7
 11
-2039.9949
 21
2026.843716904383
 31
0.0
 73
     3
  0
TEXT
  5
B6
  8
__
 62
     7
 10
-2039.9949
 20
3010.703968836145
 30
0.0
 40
47.3871699432373
  1
形式
 41
0.7
 11
-2039.9949
 21
3058.091138779382
 31
0.0
 73
     3
  0
TEXT
  5
B7
  8
__
 62
     7
 10
-2039.9949
 20
2916.954203211145
 30
0.0
 40
47.3871699432373
  1
周波数レンジ(-10dB)
 41
0.7
 11
-2039.9949
 21
2964.341373154382
 31
0.0
 73
     3
  0
TEXT
  5
B8
  8
__
 62
     7
 10
-2039.9949
 20
2823.204437586145
 30
0.0
 40
47.3871699432373
  1
指向角度(水平×垂直)
 41
0.7
 11
-2039.9949
 21
2870.591607529382
 31
0.0
 73
     3
  0
TEXT
  5
B9
  8
__
 62
     7
 10
-2039.9949
 20
2729.454671961144
 30
0.0
 40
47.3871699432373
  1
最大音圧レベル
 41
0.7
 11
-2039.9949
 21
2776.841841904382
 31
0.0
 73
     3
  0
TEXT
  5
BA
  8
__
 62
     7
 10
-2039.9949
 20
2448.205375086145
 30
0.0
 40
47.3871699432373
  1
クロスオーバー周波数
 41
0.7
 11
-2039.9949
 21
2495.592545029383
 31
0.0
 73
     3
  0
TEXT
  5
BB
  8
__
 62
     7
 10
-2039.9949
 20
2354.455609461145
 30
0.0
 40
47.3871699432373
  1
パワーアンプ
 41
0.7
 11
-2039.9949
 21
2401.842779404382
 31
0.0
 73
     3
  0
TEXT
  5
BC
  8
__
 62
     7
 10
-2039.9949
 20
1885.706781336146
 30
0.0
 40
47.3871699432373
  1
電源
 41
0.7
 11
-2039.9949
 21
1933.093951279383
 31
0.0
 73
     3
  0
TEXT
  5
BD
  8
__
 62
     7
 10
-2039.9949
 20
1791.957015711145
 30
0.0
 40
47.3871699432373
  1
消費電力
 41
0.7
 11
-2039.9949
 21
1839.344185654383
 31
0.0
 73
     3
  0
TEXT
  5
BE
  8
__
 62
     7
 10
-2039.9949
 20
1698.207250086145
 30
0.0
 40
47.3871699432373
  1
エンクロージャー
 41
0.7
 11
-2039.9949
 21
1745.594420029382
 31
0.0
 73
     3
  0
TEXT
  5
BF
  8
__
 62
     7
 10
-2039.9949
 20
1416.957953211146
 30
0.0
 40
47.3871699432373
  1
付属品
 41
0.7
 11
-2039.9949
 21
1464.345123154383
 31
0.0
 73
     3
  0
TEXT
  5
C0
  8
__
 62
     7
 10
-2039.9949
 20
1604.457484461146
 30
0.0
 40
47.3871699432373
  1
寸法(W×H×D)
 41
0.7
 11
-2039.9949
 21
1651.844654404383
 31
0.0
 73
     3
  0
TEXT
  5
C1
  8
__
 62
     7
 10
-2039.9949
 20
1510.707718836146
 30
0.0
 40
47.3871699432373
  1
質量
 41
0.7
 11
-2039.9949
 21
1558.094888779383
 31
0.0
 73
     3
  0
LINE
  5
C2
  8
__
  6
CONTINUOUS
 62
     7
 10
-1531.25
 20
2709.756776761562
 30
0.0
 11
-1531.25
 21
2522.257245511562
 31
0.0
  0
LINE
  5
C3
  8
__
  6
CONTINUOUS
 62
     7
 10
-1531.25
 20
2334.757714261562
 30
0.0
 11
-1531.25
 21
1959.758651761562
 31
0.0
  0
LINE
  5
C4
  8
__
  6
CONTINUOUS
 62
     7
 10
-989.5846875000001
 20
3084.755839261562
 30
0.0
 11
-989.5846875000001
 21
1397.260058011563
 31
0.0
  0
TEXT
  5
C5
  8
__
 62
     7
 10
-967.0847437499997
 20
3010.703968836145
 30
0.0
 40
47.3871699432373
  1
2-Wayパワード・フルレンジ
 41
0.7
 11
-967.0847437499997
 21
3058.091138779382
 31
0.0
 73
     3
  0
TEXT
  5
C6
  8
__
 62
     7
 10
-967.0847437499997
 20
2916.954203211145
 30
0.0
 40
47.3871699432373
  1
48Hz～19kHz
 41
0.7
 11
-967.0847437499997
 21
2964.341373154382
 31
0.0
 73
     3
  0
TEXT
  5
C7
  8
__
 62
     7
 10
-967.0847437499997
 20
2823.204437586145
 30
0.0
 40
47.3871699432373
  1
90°×50°
 41
0.7
 11
-967.0847437499997
 21
2870.591607529382
 31
0.0
 73
     3
  0
TEXT
  5
C8
  8
__
 62
     7
 10
-967.0847437499997
 20
2729.454671961144
 30
0.0
 40
47.3871699432373
  1
133dB SPL
 41
0.7
 11
-967.0847437499997
 21
2776.841841904382
 31
0.0
 73
     3
  0
TEXT
  5
C9
  8
__
 62
     7
 10
-967.0847437500001
 20
1604.457484461146
 30
0.0
 40
47.3871699432373
  1
461×711×383m(除突起部)
 41
0.7
 11
-967.0847437500001
 21
1651.844654404383
 31
0.0
 73
     3
  0
TEXT
  5
CA
  8
__
 62
     7
 10
-967.0847437500001
 20
1510.707718836146
 30
0.0
 40
47.3871699432373
  1
24.0kg
 41
0.7
 11
-967.0847437500001
 21
1558.094888779383
 31
0.0
 73
     3
  0
TEXT
  5
CB
  8
__
 62
     7
 10
-1508.75005625
 20
2635.704906336145
 30
0.0
 40
47.3871699432373
  1
LF
 41
0.7
 11
-1508.75005625
 21
2683.092076279383
 31
0.0
 73
     3
  0
TEXT
  5
CC
  8
__
 62
     7
 10
-967.0847437499999
 20
2635.704773603507
 30
0.0
 40
47.38728841145834
  1
15インチ(381mm)
 41
0.7
 11
-967.0847437499999
 21
2683.092062014965
 31
0.0
 73
     3
  0
TEXT
  5
CD
  8
__
 62
     7
 10
-1508.75005625
 20
2260.705843836145
 30
0.0
 40
47.3871699432373
  1
チャンネル数
 41
0.7
 11
-1508.75005625
 21
2308.093013779383
 31
0.0
 73
     3
  0
TEXT
  5
CE
  8
__
 62
     7
 10
-967.0847437499999
 20
2260.705843836145
 30
0.0
 40
47.3871699432373
  1
2(モノラル)+1(Aux)
 41
0.7
 11
-967.0847437499999
 21
2308.093013779383
 31
0.0
 73
     3
  0
TEXT
  5
CF
  8
__
 62
     7
 10
-967.0847437499999
 20
1979.456546961145
 30
0.0
 40
47.3871699432373
  1
XLR(スルー×2、ミックス×1)
 41
0.7
 11
-967.0847437499999
 21
2026.843716904383
 31
0.0
 73
     3
  0
TEXT
  5
D0
  8
__
 62
     7
 10
-967.0847437499999
 20
2448.205242353506
 30
0.0
 40
47.38728841145834
  1
1.92kHz
 41
0.7
 11
-967.0847437499999
 21
2495.592530764965
 31
0.0
 73
     3
  0
TEXT
  5
D1
  8
__
 62
     7
 10
-967.0847437499999
 20
2354.455609461145
 30
0.0
 40
47.3871699432373
  1
2,000W(ピーク)
 41
0.7
 11
-967.0847437499999
 21
2401.842779404382
 31
0.0
 73
     3
  0
TEXT
  5
D2
  8
__
 62
     7
 10
-961.2514249999988
 20
1885.706781336146
 30
0.0
 40
47.3871699432373
  1
AC100V、50/60Hz
 41
0.7
 11
-961.2514249999988
 21
1933.093951279383
 31
0.0
 73
     3
  0
TEXT
  5
D3
  8
__
 62
     7
 10
-961.2514249999988
 20
1791.957015711145
 30
0.0
 40
47.3871699432373
  1
最大750W
 41
0.7
 11
-961.2514249999988
 21
1839.344185654383
 31
0.0
 73
     3
  0
TEXT
  5
D4
  8
__
 62
     7
 10
-961.2514249999988
 20
1698.207250086145
 30
0.0
 40
47.3871699432373
  1
ポリプロピレン+10％Talc、黒
 41
0.7
 11
-961.2514249999988
 21
1745.594420029382
 31
0.0
 73
     3
  0
TEXT
  5
D5
  8
__
 62
     7
 10
-967.0847437499999
 20
1416.957953211146
 30
0.0
 40
47.3871699432373
  1
電源コード、和文取扱説明書
 41
0.7
 11
-967.0847437499999
 21
1464.345123154383
 31
0.0
 73
     3
  0
TEXT
  5
D6
  8
__
 62
     7
 10
-1508.75005625
 20
2541.955140711144
 30
0.0
 40
47.3871699432373
  1
HF
 41
0.7
 11
-1508.75005625
 21
2589.342310654382
 31
0.0
 73
     3
  0
TEXT
  5
D7
  8
__
 62
     7
 10
-967.0847437500001
 20
2541.955140711144
 30
0.0
 40
47.3871699432373
  1
1.5インチ(38mm)
 41
0.7
 11
-967.0847437500001
 21
2589.342310654382
 31
0.0
 73
     3
  0
TEXT
  5
D8
  8
__
 62
     7
 10
-1508.75005625
 20
2166.956078211145
 30
0.0
 40
47.3871699432373
  1
端子・形式
 41
0.7
 11
-1508.75005625
 21
2214.343248154382
 31
0.0
 73
     3
  0
TEXT
  5
D9
  8
__
 62
     7
 10
-967.0847437500001
 20
2166.956078211145
 30
0.0
 40
47.3871699432373
  1
XLRと標準フォーンジャック(3P)対応の複合型端子×2、ミニフォーン×1
 41
0.7
 11
-967.0847437500001
 21
2214.343248154382
 31
0.0
 73
     3
  0
TEXT
  5
DA
  8
__
 62
     7
 10
-1508.75005625
 20
2073.206312586145
 30
0.0
 40
47.3871699432373
  1
インピーダンス
 41
0.7
 11
-1508.75005625
 21
2120.593482529383
 31
0.0
 73
     3
  0
TEXT
  5
DB
  8
__
 62
     7
 10
-967.0847437500001
 20
2073.206312586145
 30
0.0
 40
47.3871699432373
  1
100kΩ(バランス)
 41
0.7
 11
-967.0847437500001
 21
2120.593482529383
 31
0.0
 73
     3
  0
TEXT
  5
DC
  8
__
 62
     7
 10
-1508.75005625
 20
1979.456546961145
 30
0.0
 40
47.3871699432373
  1
端子・形式
 41
0.7
 11
-1508.75005625
 21
2026.843716904383
 31
0.0
 73
     3
  0
TEXT
  5
DD
  8
__
 62
     7
 10
-499.9987499999997
 20
-2858.492052581561
 30
0.0
 40
60.92636135559081
  1
(単位：mm)
 41
0.7
 11
-499.9987499999997
 21
-2797.565691225971
 31
0.0
 73
     3
  0
TEXT
  5
DE
  8
__
 62
     7
 10
-1133.854166666667
 20
-65.66249999999997
 30
0.0
 40
47.38728841145834
  1
※
 41
0.7
 11
-1133.854166666667
 21
-18.27521158854163
 31
0.0
 73
     3
  0
TEXT
  5
DF
  8
__
 62
     7
 10
166.66625
 20
-2487.722579507562
 30
0.0
 40
67.69595706176757
  1
※ センター振り分け
 41
0.7
 11
166.66625
 21
-2420.026622445795
 31
0.0
 73
     3
  0
TEXT
  5
E0
  8
__
 62
     7
 10
-1133.854166666672
 20
-1290.6625
 30
0.0
 40
47.38728841145834
  1
※
 41
0.7
 11
-1133.854166666672
 21
-1243.275211588542
 31
0.0
 73
     3
  0
LINE
  5
E1
  8
__-1
  6
CONTINUOUS
 62
     7
 10
-1170.0
 20
8.5
 30
0.0
 11
-800.0
 21
8.5
 31
0.0
  0
LINE
  5
E2
  8
__-1
  6
CONTINUOUS
 62
     7
 10
-1011.0
 20
83.50000000000045
 30
0.0
 11
-800.0
 21
83.50000000000045
 31
0.0
  0
LINE
  5
E3
  8
__-1
  6
CONTINUOUS
 62
     7
 10
-825.0
 20
83.50000000000045
 30
0.0
 11
-825.0
 21
8.5
 31
0.0
  0
LINE
  5
E4
  8
__-1
  6
CONTINUOUS
 62
     7
 10
-825.0
 20
8.5
 30
0.0
 11
-825.0
 21
-79.0
 31
0.0
  0
POLYLINE
  5
E5
  8
__-1
  6
CONTINUOUS
 62
     7
 66
     1
 10
0.0
 20
0.0
 30
0.0
 70
   128
  0
VERTEX
  5
73A
  8
__-1
  6
CONTINUOUS
 62
     7
 10
-838.3966419055148
 20
-41.4969482421875
 30
0.0
  0
VERTEX
  5
73B
  8
__-1
  6
CONTINUOUS
 62
     7
 10
-825.0
 20
8.5
 30
0.0
  0
VERTEX
  5
73C
  8
__-1
  6
CONTINUOUS
 62
     7
 10
-811.6033580944852
 20
-41.4969482421875
 30
0.0
  0
SEQEND
  5
79E
  8
__-1
  6
CONTINUOUS
 62
     7
  0
LINE
  5
EA
  8
__-1
  6
CONTINUOUS
 62
     7
 10
-825.0
 20
83.50000000000045
 30
0.0
 11
-825.0
 21
288.1944444444445
 31
0.0
  0
POLYLINE
  5
EB
  8
__-1
  6
CONTINUOUS
 62
     7
 66
     1
 10
0.0
 20
0.0
 30
0.0
 70
   128
  0
VERTEX
  5
73D
  8
__-1
  6
CONTINUOUS
 62
     7
 10
-811.6033580944852
 20
133.496948242188
 30
0.0
  0
VERTEX
  5
73E
  8
__-1
  6
CONTINUOUS
 62
     7
 10
-825.0
 20
83.50000000000045
 30
0.0
  0
VERTEX
  5
73F
  8
__-1
  6
CONTINUOUS
 62
     7
 10
-838.3966419055148
 20
133.496948242188
 30
0.0
  0
SEQEND
  5
79F
  8
__-1
  6
CONTINUOUS
 62
     7
  0
TEXT
  5
F0
  8
__-1
 62
     7
 10
-849.8472222222222
 20
111.8055555555555
 30
0.0
 40
67.69612630208333
  1
75.0
 50
90.0
 41
0.7
 11
-917.5433485243055
 21
111.8055555555555
 31
0.0
 73
     3
  0
LINE
  5
F1
  8
__-1
  6
CONTINUOUS
 62
     7
 10
-1359.0
 20
53.5
 30
0.0
 11
-1359.0
 21
-200.0
 31
0.0
  0
LINE
  5
F2
  8
__-1
  6
CONTINUOUS
 62
     7
 10
-1041.000000000001
 20
53.5
 30
0.0
 11
-1041.000000000001
 21
-200.0
 31
0.0
  0
LINE
  5
F3
  8
__-1
  6
CONTINUOUS
 62
     7
 10
-1359.0
 20
-175.0
 30
0.0
 11
-1041.000000000001
 21
-175.0
 31
0.0
  0
POLYLINE
  5
F4
  8
__-1
  6
CONTINUOUS
 62
     7
 66
     1
 10
0.0
 20
0.0
 30
0.0
 70
   128
  0
VERTEX
  5
740
  8
__-1
  6
CONTINUOUS
 62
     7
 10
-1309.003051757812
 20
-188.3966419055148
 30
0.0
  0
VERTEX
  5
741
  8
__-1
  6
CONTINUOUS
 62
     7
 10
-1359.0
 20
-175.0
 30
0.0
  0
VERTEX
  5
742
  8
__-1
  6
CONTINUOUS
 62
     7
 10
-1309.003051757812
 20
-161.6033580944852
 30
0.0
  0
SEQEND
  5
7A0
  8
__-1
  6
CONTINUOUS
 62
     7
  0
POLYLINE
  5
F9
  8
__-1
  6
CONTINUOUS
 62
     7
 66
     1
 10
0.0
 20
0.0
 30
0.0
 70
   128
  0
VERTEX
  5
743
  8
__-1
  6
CONTINUOUS
 62
     7
 10
-1090.996948242188
 20
-161.6033580944852
 30
0.0
  0
VERTEX
  5
744
  8
__-1
  6
CONTINUOUS
 62
     7
 10
-1041.000000000001
 20
-175.0
 30
0.0
  0
VERTEX
  5
745
  8
__-1
  6
CONTINUOUS
 62
     7
 10
-1090.996948242188
 20
-188.3966419055148
 30
0.0
  0
SEQEND
  5
7A1
  8
__-1
  6
CONTINUOUS
 62
     7
  0
TEXT
  5
FE
  8
__-1
 62
     7
 10
-1266.145833333334
 20
-150.1527777777778
 30
0.0
 40
67.69612630208333
  1
318
 41
0.7
 11
-1266.145833333334
 21
-82.45665147569444
 31
0.0
 73
     3
  0
LINE
  5
FF
  8
__-1
  6
CONTINUOUS
 62
     7
 10
-1230.0
 20
8.5
 30
0.0
 11
-1525.0
 21
8.5
 31
0.0
  0
LINE
  5
100
  8
__-1
  6
CONTINUOUS
 62
     7
 10
-1329.573593128807
 20
391.5
 30
0.0
 11
-1525.0
 21
391.5
 31
0.0
  0
LINE
  5
101
  8
__-1
  6
CONTINUOUS
 62
     7
 10
-1500.0
 20
8.5
 30
0.0
 11
-1500.0
 21
391.5
 31
0.0
  0
POLYLINE
  5
102
  8
__-1
  6
CONTINUOUS
 62
     7
 66
     1
 10
0.0
 20
0.0
 30
0.0
 70
   128
  0
VERTEX
  5
746
  8
__-1
  6
CONTINUOUS
 62
     7
 10
-1486.603358094485
 20
58.4969482421875
 30
0.0
  0
VERTEX
  5
747
  8
__-1
  6
CONTINUOUS
 62
     7
 10
-1500.0
 20
8.5
 30
0.0
  0
VERTEX
  5
748
  8
__-1
  6
CONTINUOUS
 62
     7
 10
-1513.396641905515
 20
58.4969482421875
 30
0.0
  0
SEQEND
  5
7A2
  8
__-1
  6
CONTINUOUS
 62
     7
  0
POLYLINE
  5
107
  8
__-1
  6
CONTINUOUS
 62
     7
 66
     1
 10
0.0
 20
0.0
 30
0.0
 70
   128
  0
VERTEX
  5
749
  8
__-1
  6
CONTINUOUS
 62
     7
 10
-1513.396641905515
 20
341.5030517578125
 30
0.0
  0
VERTEX
  5
74A
  8
__-1
  6
CONTINUOUS
 62
     7
 10
-1500.0
 20
391.5
 30
0.0
  0
VERTEX
  5
74B
  8
__-1
  6
CONTINUOUS
 62
     7
 10
-1486.603358094485
 20
341.5030517578125
 30
0.0
  0
SEQEND
  5
7A3
  8
__-1
  6
CONTINUOUS
 62
     7
  0
TEXT
  5
10C
  8
__-1
 62
     7
 10
-1524.847222222222
 20
133.8541666666667
 30
0.0
 40
67.69612630208339
  1
383
 50
90.0
 41
0.7
 11
-1592.543348524305
 21
133.8541666666667
 31
0.0
 73
     3
  0
LINE
  5
10D
  8
__-1
  6
CONTINUOUS
 62
     7
 10
-1329.573593128807
 20
391.5
 30
0.0
 11
-1525.0
 21
391.5
 31
0.0
  0
LINE
  5
10E
  8
__-1
  6
CONTINUOUS
 62
     7
 10
-1349.152651582787
 20
395.6610569161978
 30
0.0
 11
-1525.0
 21
395.6610569161978
 31
0.0
  0
LINE
  5
10F
  8
__-1
  6
CONTINUOUS
 62
     7
 10
-1500.0
 20
395.6610569161978
 30
0.0
 11
-1500.0
 21
391.5
 31
0.0
  0
LINE
  5
110
  8
__-1
  6
CONTINUOUS
 62
     7
 10
-1500.0
 20
391.5
 30
0.0
 11
-1500.0
 21
304.0
 31
0.0
  0
POLYLINE
  5
111
  8
__-1
  6
CONTINUOUS
 62
     7
 66
     1
 10
0.0
 20
0.0
 30
0.0
 70
   128
  0
VERTEX
  5
74C
  8
__-1
  6
CONTINUOUS
 62
     7
 10
-1513.396641905515
 20
341.5030517578125
 30
0.0
  0
VERTEX
  5
74D
  8
__-1
  6
CONTINUOUS
 62
     7
 10
-1500.0
 20
391.5
 30
0.0
  0
VERTEX
  5
74E
  8
__-1
  6
CONTINUOUS
 62
     7
 10
-1486.603358094485
 20
341.5030517578125
 30
0.0
  0
SEQEND
  5
7A4
  8
__-1
  6
CONTINUOUS
 62
     7
  0
LINE
  5
116
  8
__-1
  6
CONTINUOUS
 62
     7
 10
-1500.0
 20
395.6610569161978
 30
0.0
 11
-1500.0
 21
483.1610569161978
 31
0.0
  0
POLYLINE
  5
117
  8
__-1
  6
CONTINUOUS
 62
     7
 66
     1
 10
0.0
 20
0.0
 30
0.0
 70
   128
  0
VERTEX
  5
74F
  8
__-1
  6
CONTINUOUS
 62
     7
 10
-1486.603358094485
 20
445.6580051583853
 30
0.0
  0
VERTEX
  5
750
  8
__-1
  6
CONTINUOUS
 62
     7
 10
-1500.0
 20
395.6610569161978
 30
0.0
  0
VERTEX
  5
751
  8
__-1
  6
CONTINUOUS
 62
     7
 10
-1513.396641905515
 20
445.6580051583853
 30
0.0
  0
SEQEND
  5
7A5
  8
__-1
  6
CONTINUOUS
 62
     7
  0
TEXT
  5
11C
  8
__-1
 62
     7
 10
-1537.347222222222
 20
327.4346951247655
 30
0.0
 40
67.69612630208339
  1
4.2
 50
90.0
 41
0.7
 11
-1605.043348524305
 21
327.4346951247655
 31
0.0
 73
     3
  0
LINE
  5
11D
  8
__-1
  6
CONTINUOUS
 62
     7
 10
-1430.25
 20
-434.5000005282823
 30
0.0
 11
-1430.25
 21
-350.0
 31
0.0
  0
LINE
  5
11E
  8
__-1
  6
CONTINUOUS
 62
     7
 10
-969.75
 20
-434.5000005282823
 30
0.0
 11
-969.75
 21
-350.0
 31
0.0
  0
LINE
  5
11F
  8
__-1
  6
CONTINUOUS
 62
     7
 10
-1430.25
 20
-375.0
 30
0.0
 11
-969.75
 21
-375.0
 31
0.0
  0
POLYLINE
  5
120
  8
__-1
  6
CONTINUOUS
 62
     7
 66
     1
 10
0.0
 20
0.0
 30
0.0
 70
   128
  0
VERTEX
  5
752
  8
__-1
  6
CONTINUOUS
 62
     7
 10
-1380.253051757812
 20
-388.3966419055148
 30
0.0
  0
VERTEX
  5
753
  8
__-1
  6
CONTINUOUS
 62
     7
 10
-1430.25
 20
-375.0
 30
0.0
  0
VERTEX
  5
754
  8
__-1
  6
CONTINUOUS
 62
     7
 10
-1380.253051757812
 20
-361.6033580944852
 30
0.0
  0
SEQEND
  5
7A6
  8
__-1
  6
CONTINUOUS
 62
     7
  0
POLYLINE
  5
125
  8
__-1
  6
CONTINUOUS
 62
     7
 66
     1
 10
0.0
 20
0.0
 30
0.0
 70
   128
  0
VERTEX
  5
755
  8
__-1
  6
CONTINUOUS
 62
     7
 10
-1019.746948242188
 20
-361.6033580944852
 30
0.0
  0
VERTEX
  5
756
  8
__-1
  6
CONTINUOUS
 62
     7
 10
-969.75
 20
-375.0
 30
0.0
  0
VERTEX
  5
757
  8
__-1
  6
CONTINUOUS
 62
     7
 10
-1019.746948242188
 20
-388.3966419055148
 30
0.0
  0
SEQEND
  5
7A7
  8
__-1
  6
CONTINUOUS
 62
     7
  0
TEXT
  5
12A
  8
__-1
 62
     7
 10
-1266.145833333333
 20
-350.1527777777778
 30
0.0
 40
67.69612630208339
  1
461
 41
0.7
 11
-1266.145833333333
 21
-282.4566514756944
 31
0.0
 73
     3
  0
LINE
  5
12B
  8
__-1
  6
CONTINUOUS
 62
     7
 10
-1430.25
 20
-434.5000005282823
 30
0.0
 11
-1430.25
 21
-350.0
 31
0.0
  0
LINE
  5
12C
  8
__-1
  6
CONTINUOUS
 62
     7
 10
-1434.411056916194
 20
-499.1309444583367
 30
0.0
 11
-1434.411056916194
 21
-350.0
 31
0.0
  0
LINE
  5
12D
  8
__-1
  6
CONTINUOUS
 62
     7
 10
-1434.411056916194
 20
-375.0
 30
0.0
 11
-1430.25
 21
-375.0
 31
0.0
  0
LINE
  5
12E
  8
__-1
  6
CONTINUOUS
 62
     7
 10
-1430.25
 20
-375.0
 30
0.0
 11
-1342.75
 21
-375.0
 31
0.0
  0
POLYLINE
  5
12F
  8
__-1
  6
CONTINUOUS
 62
     7
 66
     1
 10
0.0
 20
0.0
 30
0.0
 70
   128
  0
VERTEX
  5
758
  8
__-1
  6
CONTINUOUS
 62
     7
 10
-1380.253051757812
 20
-388.3966419055148
 30
0.0
  0
VERTEX
  5
759
  8
__-1
  6
CONTINUOUS
 62
     7
 10
-1430.25
 20
-375.0
 30
0.0
  0
VERTEX
  5
75A
  8
__-1
  6
CONTINUOUS
 62
     7
 10
-1380.253051757812
 20
-361.6033580944852
 30
0.0
  0
SEQEND
  5
7A8
  8
__-1
  6
CONTINUOUS
 62
     7
  0
LINE
  5
134
  8
__-1
  6
CONTINUOUS
 62
     7
 10
-1434.411056916194
 20
-375.0
 30
0.0
 11
-1521.911056916194
 21
-375.0
 31
0.0
  0
POLYLINE
  5
135
  8
__-1
  6
CONTINUOUS
 62
     7
 66
     1
 10
0.0
 20
0.0
 30
0.0
 70
   128
  0
VERTEX
  5
75B
  8
__-1
  6
CONTINUOUS
 62
     7
 10
-1484.408005158382
 20
-361.6033580944852
 30
0.0
  0
VERTEX
  5
75C
  8
__-1
  6
CONTINUOUS
 62
     7
 10
-1434.411056916194
 20
-375.0
 30
0.0
  0
VERTEX
  5
75D
  8
__-1
  6
CONTINUOUS
 62
     7
 10
-1484.408005158382
 20
-388.3966419055148
 30
0.0
  0
SEQEND
  5
7A9
  8
__-1
  6
CONTINUOUS
 62
     7
  0
TEXT
  5
13A
  8
__-1
 62
     7
 10
-1498.47636179143
 20
-337.6527777777778
 30
0.0
 40
67.69612630208339
  1
4.2
 41
0.7
 11
-1498.47636179143
 21
-269.9566514756944
 31
0.0
 73
     3
  0
LINE
  5
13B
  8
__-1
  6
CONTINUOUS
 62
     7
 10
-969.75
 20
-434.5000005282823
 30
0.0
 11
-969.75
 21
-350.0
 31
0.0
  0
LINE
  5
13C
  8
__-1
  6
CONTINUOUS
 62
     7
 10
-965.5889430838056
 20
-499.1309444583367
 30
0.0
 11
-965.5889430838056
 21
-350.0
 31
0.0
  0
LINE
  5
13D
  8
__-1
  6
CONTINUOUS
 62
     7
 10
-965.5889430838056
 20
-375.0
 30
0.0
 11
-969.75
 21
-375.0
 31
0.0
  0
LINE
  5
13E
  8
__-1
  6
CONTINUOUS
 62
     7
 10
-969.75
 20
-375.0
 30
0.0
 11
-1057.25
 21
-375.0
 31
0.0
  0
POLYLINE
  5
13F
  8
__-1
  6
CONTINUOUS
 62
     7
 66
     1
 10
0.0
 20
0.0
 30
0.0
 70
   128
  0
VERTEX
  5
75E
  8
__-1
  6
CONTINUOUS
 62
     7
 10
-1019.746948242188
 20
-361.6033580944852
 30
0.0
  0
VERTEX
  5
75F
  8
__-1
  6
CONTINUOUS
 62
     7
 10
-969.75
 20
-375.0
 30
0.0
  0
VERTEX
  5
760
  8
__-1
  6
CONTINUOUS
 62
     7
 10
-1019.746948242188
 20
-388.3966419055148
 30
0.0
  0
SEQEND
  5
7AA
  8
__-1
  6
CONTINUOUS
 62
     7
  0
LINE
  5
144
  8
__-1
  6
CONTINUOUS
 62
     7
 10
-965.5889430838056
 20
-375.0
 30
0.0
 11
-878.0889430838056
 21
-375.0
 31
0.0
  0
POLYLINE
  5
145
  8
__-1
  6
CONTINUOUS
 62
     7
 66
     1
 10
0.0
 20
0.0
 30
0.0
 70
   128
  0
VERTEX
  5
761
  8
__-1
  6
CONTINUOUS
 62
     7
 10
-915.5919948416181
 20
-388.3966419055148
 30
0.0
  0
VERTEX
  5
762
  8
__-1
  6
CONTINUOUS
 62
     7
 10
-965.5889430838056
 20
-375.0
 30
0.0
  0
VERTEX
  5
763
  8
__-1
  6
CONTINUOUS
 62
     7
 10
-915.5919948416181
 20
-361.6033580944852
 30
0.0
  0
SEQEND
  5
7AB
  8
__-1
  6
CONTINUOUS
 62
     7
  0
TEXT
  5
14A
  8
__-1
 62
     7
 10
-1033.815304875236
 20
-337.6527777777778
 30
0.0
 40
67.69612630208339
  1
4.2
 41
0.7
 11
-1033.815304875236
 21
-269.9566514756944
 31
0.0
 73
     3
  0
LINE
  5
14B
  8
__-1
  6
CONTINUOUS
 62
     7
 10
-1450.249999813124
 20
-444.5
 30
0.0
 11
-1525.0
 21
-444.5
 31
0.0
  0
LINE
  5
14C
  8
__-1
  6
CONTINUOUS
 62
     7
 10
-1450.163352944071
 20
-1155.499999859392
 30
0.0
 11
-1525.0
 21
-1155.499999859392
 31
0.0
  0
LINE
  5
14D
  8
__-1
  6
CONTINUOUS
 62
     7
 10
-1500.0
 20
-444.5
 30
0.0
 11
-1500.0
 21
-1155.499999859392
 31
0.0
  0
POLYLINE
  5
14E
  8
__-1
  6
CONTINUOUS
 62
     7
 66
     1
 10
0.0
 20
0.0
 30
0.0
 70
   128
  0
VERTEX
  5
764
  8
__-1
  6
CONTINUOUS
 62
     7
 10
-1513.396641905515
 20
-494.4969482421875
 30
0.0
  0
VERTEX
  5
765
  8
__-1
  6
CONTINUOUS
 62
     7
 10
-1500.0
 20
-444.5
 30
0.0
  0
VERTEX
  5
766
  8
__-1
  6
CONTINUOUS
 62
     7
 10
-1486.603358094485
 20
-494.4969482421875
 30
0.0
  0
SEQEND
  5
7AC
  8
__-1
  6
CONTINUOUS
 62
     7
  0
POLYLINE
  5
153
  8
__-1
  6
CONTINUOUS
 62
     7
 66
     1
 10
0.0
 20
0.0
 30
0.0
 70
   128
  0
VERTEX
  5
767
  8
__-1
  6
CONTINUOUS
 62
     7
 10
-1486.603358094485
 20
-1105.503051617205
 30
0.0
  0
VERTEX
  5
768
  8
__-1
  6
CONTINUOUS
 62
     7
 10
-1500.0
 20
-1155.499999859392
 30
0.0
  0
VERTEX
  5
769
  8
__-1
  6
CONTINUOUS
 62
     7
 10
-1513.396641905515
 20
-1105.503051617205
 30
0.0
  0
SEQEND
  5
7AD
  8
__-1
  6
CONTINUOUS
 62
     7
  0
TEXT
  5
158
  8
__-1
 62
     7
 10
-1524.847222222222
 20
-866.1458332630295
 30
0.0
 40
67.69612630208339
  1
711
 50
90.0
 41
0.7
 11
-1592.543348524305
 21
-866.1458332630295
 31
0.0
 73
     3
  0
LINE
  5
159
  8
__-1
  6
CONTINUOUS
 62
     7
 10
-1450.249999813124
 20
-444.5
 30
0.0
 11
-1525.0
 21
-444.5
 31
0.0
  0
LINE
  5
15A
  8
__-1
  6
CONTINUOUS
 62
     7
 10
-1320.0
 20
-440.4999998906246
 30
0.0
 11
-1525.0
 21
-440.4999998906246
 31
0.0
  0
LINE
  5
15B
  8
__-1
  6
CONTINUOUS
 62
     7
 10
-1500.0
 20
-440.4999998906246
 30
0.0
 11
-1500.0
 21
-444.5
 31
0.0
  0
LINE
  5
15C
  8
__-1
  6
CONTINUOUS
 62
     7
 10
-1500.0
 20
-444.5
 30
0.0
 11
-1500.0
 21
-532.0
 31
0.0
  0
POLYLINE
  5
15D
  8
__-1
  6
CONTINUOUS
 62
     7
 66
     1
 10
0.0
 20
0.0
 30
0.0
 70
   128
  0
VERTEX
  5
76A
  8
__-1
  6
CONTINUOUS
 62
     7
 10
-1513.396641905515
 20
-494.4969482421875
 30
0.0
  0
VERTEX
  5
76B
  8
__-1
  6
CONTINUOUS
 62
     7
 10
-1500.0
 20
-444.5
 30
0.0
  0
VERTEX
  5
76C
  8
__-1
  6
CONTINUOUS
 62
     7
 10
-1486.603358094485
 20
-494.4969482421875
 30
0.0
  0
SEQEND
  5
7AE
  8
__-1
  6
CONTINUOUS
 62
     7
  0
LINE
  5
162
  8
__-1
  6
CONTINUOUS
 62
     7
 10
-1500.0
 20
-440.4999998906246
 30
0.0
 11
-1500.0
 21
-352.9999998906246
 31
0.0
  0
POLYLINE
  5
163
  8
__-1
  6
CONTINUOUS
 62
     7
 66
     1
 10
0.0
 20
0.0
 30
0.0
 70
   128
  0
VERTEX
  5
76D
  8
__-1
  6
CONTINUOUS
 62
     7
 10
-1486.603358094485
 20
-390.5030516484371
 30
0.0
  0
VERTEX
  5
76E
  8
__-1
  6
CONTINUOUS
 62
     7
 10
-1500.0
 20
-440.4999998906246
 30
0.0
  0
VERTEX
  5
76F
  8
__-1
  6
CONTINUOUS
 62
     7
 10
-1513.396641905515
 20
-390.5030516484371
 30
0.0
  0
SEQEND
  5
7AF
  8
__-1
  6
CONTINUOUS
 62
     7
  0
TEXT
  5
168
  8
__-1
 62
     7
 10
-1537.347222222222
 20
-508.6458332786457
 30
0.0
 40
67.69612630208339
  1
4.0
 50
90.0
 41
0.7
 11
-1605.043348524305
 21
-508.6458332786457
 31
0.0
 73
     3
  0
LINE
  5
169
  8
__-1
  6
CONTINUOUS
 62
     7
 10
-1450.163352944071
 20
-1155.499999859392
 30
0.0
 11
-1525.0
 21
-1155.499999859392
 31
0.0
  0
LINE
  5
16A
  8
__-1
  6
CONTINUOUS
 62
     7
 10
-1434.0
 20
-1165.5
 30
0.0
 11
-1525.0
 21
-1165.5
 31
0.0
  0
LINE
  5
16B
  8
__-1
  6
CONTINUOUS
 62
     7
 10
-1500.0
 20
-1165.5
 30
0.0
 11
-1500.0
 21
-1155.499999859392
 31
0.0
  0
LINE
  5
16C
  8
__-1
  6
CONTINUOUS
 62
     7
 10
-1500.0
 20
-1155.499999859392
 30
0.0
 11
-1500.0
 21
-1067.999999859392
 31
0.0
  0
POLYLINE
  5
16D
  8
__-1
  6
CONTINUOUS
 62
     7
 66
     1
 10
0.0
 20
0.0
 30
0.0
 70
   128
  0
VERTEX
  5
770
  8
__-1
  6
CONTINUOUS
 62
     7
 10
-1486.603358094485
 20
-1105.503051617205
 30
0.0
  0
VERTEX
  5
771
  8
__-1
  6
CONTINUOUS
 62
     7
 10
-1500.0
 20
-1155.499999859392
 30
0.0
  0
VERTEX
  5
772
  8
__-1
  6
CONTINUOUS
 62
     7
 10
-1513.396641905515
 20
-1105.503051617205
 30
0.0
  0
SEQEND
  5
7B0
  8
__-1
  6
CONTINUOUS
 62
     7
  0
LINE
  5
172
  8
__-1
  6
CONTINUOUS
 62
     7
 10
-1500.0
 20
-1165.5
 30
0.0
 11
-1500.0
 21
-1253.0
 31
0.0
  0
POLYLINE
  5
173
  8
__-1
  6
CONTINUOUS
 62
     7
 66
     1
 10
0.0
 20
0.0
 30
0.0
 70
   128
  0
VERTEX
  5
773
  8
__-1
  6
CONTINUOUS
 62
     7
 10
-1513.396641905515
 20
-1215.496948242188
 30
0.0
  0
VERTEX
  5
774
  8
__-1
  6
CONTINUOUS
 62
     7
 10
-1500.0
 20
-1165.5
 30
0.0
  0
VERTEX
  5
775
  8
__-1
  6
CONTINUOUS
 62
     7
 10
-1486.603358094485
 20
-1215.496948242188
 30
0.0
  0
SEQEND
  5
7B1
  8
__-1
  6
CONTINUOUS
 62
     7
  0
TEXT
  5
178
  8
__-1
 62
     7
 10
-1537.347222222222
 20
-1248.69444437414
 30
0.0
 40
67.69612630208339
  1
10.0
 50
90.0
 41
0.7
 11
-1605.043348524305
 21
-1248.69444437414
 31
0.0
 73
     3
  0
LINE
  5
179
  8
__-1
  6
CONTINUOUS
 62
     7
 10
-1359.000000000005
 20
-1553.5
 30
0.0
 11
-1359.000000000005
 21
-1375.0
 31
0.0
  0
LINE
  5
17A
  8
__-1
  6
CONTINUOUS
 62
     7
 10
-1041.000000000005
 20
-1553.5
 30
0.0
 11
-1041.000000000005
 21
-1375.0
 31
0.0
  0
LINE
  5
17B
  8
__-1
  6
CONTINUOUS
 62
     7
 10
-1359.000000000005
 20
-1400.0
 30
0.0
 11
-1041.000000000005
 21
-1400.0
 31
0.0
  0
POLYLINE
  5
17C
  8
__-1
  6
CONTINUOUS
 62
     7
 66
     1
 10
0.0
 20
0.0
 30
0.0
 70
   128
  0
VERTEX
  5
776
  8
__-1
  6
CONTINUOUS
 62
     7
 10
-1309.003051757818
 20
-1413.396641905515
 30
0.0
  0
VERTEX
  5
777
  8
__-1
  6
CONTINUOUS
 62
     7
 10
-1359.000000000005
 20
-1400.0
 30
0.0
  0
VERTEX
  5
778
  8
__-1
  6
CONTINUOUS
 62
     7
 10
-1309.003051757818
 20
-1386.603358094485
 30
0.0
  0
SEQEND
  5
7B2
  8
__-1
  6
CONTINUOUS
 62
     7
  0
POLYLINE
  5
181
  8
__-1
  6
CONTINUOUS
 62
     7
 66
     1
 10
0.0
 20
0.0
 30
0.0
 70
   128
  0
VERTEX
  5
779
  8
__-1
  6
CONTINUOUS
 62
     7
 10
-1090.75552982538
 20
-1385.732831406589
 30
0.0
  0
VERTEX
  5
77A
  8
__-1
  6
CONTINUOUS
 62
     7
 10
-1041.000000000005
 20
-1400.0
 30
0.0
  0
VERTEX
  5
77B
  8
__-1
  6
CONTINUOUS
 62
     7
 10
-1091.22313710424
 20
-1412.522034470718
 30
0.0
  0
SEQEND
  5
7B3
  8
__-1
  6
CONTINUOUS
 62
     7
  0
TEXT
  5
186
  8
__-1
 62
     7
 10
-1266.145833333338
 20
-1375.152777777778
 30
0.0
 40
67.69612630208339
  1
318
 41
0.7
 11
-1266.145833333338
 21
-1307.456651475694
 31
0.0
 73
     3
  0
LINE
  5
187
  8
__-1
  6
CONTINUOUS
 62
     7
 10
-1170.0
 20
-1508.5
 30
0.0
 11
-800.0
 21
-1508.5
 31
0.0
  0
LINE
  5
188
  8
__-1
  6
CONTINUOUS
 62
     7
 10
-1011.000000000006
 20
-1583.5
 30
0.0
 11
-800.0
 21
-1583.5
 31
0.0
  0
LINE
  5
189
  8
__-1
  6
CONTINUOUS
 62
     7
 10
-825.0
 20
-1583.5
 30
0.0
 11
-825.0
 21
-1508.5
 31
0.0
  0
LINE
  5
18A
  8
__-1
  6
CONTINUOUS
 62
     7
 10
-825.0
 20
-1508.5
 30
0.0
 11
-825.0
 21
-1307.805555555555
 31
0.0
  0
POLYLINE
  5
18B
  8
__-1
  6
CONTINUOUS
 62
     7
 66
     1
 10
0.0
 20
0.0
 30
0.0
 70
   128
  0
VERTEX
  5
77C
  8
__-1
  6
CONTINUOUS
 62
     7
 10
-811.6033580944852
 20
-1458.503051757812
 30
0.0
  0
VERTEX
  5
77D
  8
__-1
  6
CONTINUOUS
 62
     7
 10
-825.0
 20
-1508.5
 30
0.0
  0
VERTEX
  5
77E
  8
__-1
  6
CONTINUOUS
 62
     7
 10
-838.3966419055148
 20
-1458.503051757812
 30
0.0
  0
SEQEND
  5
7B4
  8
__-1
  6
CONTINUOUS
 62
     7
  0
LINE
  5
190
  8
__-1
  6
CONTINUOUS
 62
     7
 10
-825.0
 20
-1583.5
 30
0.0
 11
-825.0
 21
-1671.0
 31
0.0
  0
POLYLINE
  5
191
  8
__-1
  6
CONTINUOUS
 62
     7
 66
     1
 10
0.0
 20
0.0
 30
0.0
 70
   128
  0
VERTEX
  5
77F
  8
__-1
  6
CONTINUOUS
 62
     7
 10
-838.3966419055148
 20
-1633.496948242188
 30
0.0
  0
VERTEX
  5
780
  8
__-1
  6
CONTINUOUS
 62
     7
 10
-825.0
 20
-1583.5
 30
0.0
  0
VERTEX
  5
781
  8
__-1
  6
CONTINUOUS
 62
     7
 10
-811.6033580944852
 20
-1633.496948242188
 30
0.0
  0
SEQEND
  5
7B5
  8
__-1
  6
CONTINUOUS
 62
     7
  0
TEXT
  5
196
  8
__-1
 62
     7
 10
-849.8472222222223
 20
-1484.194444444444
 30
0.0
 40
67.69612630208339
  1
75.0
 50
90.0
 41
0.7
 11
-917.5433485243057
 21
-1484.194444444444
 31
0.0
 73
     3
  0
LINE
  5
197
  8
__-1
  6
CONTINUOUS
 62
     7
 10
150.2499998131238
 20
-444.5
 30
0.0
 11
275.0
 21
-444.5
 31
0.0
  0
LINE
  5
198
  8
__-1
  6
CONTINUOUS
 62
     7
 10
-70.00000000000045
 20
-519.5
 30
0.0
 11
275.0
 21
-519.5
 31
0.0
  0
LINE
  5
199
  8
__-1
  6
CONTINUOUS
 62
     7
 10
250.0
 20
-519.5
 30
0.0
 11
250.0
 21
-444.5
 31
0.0
  0
LINE
  5
19A
  8
__-1
  6
CONTINUOUS
 62
     7
 10
250.0
 20
-444.5
 30
0.0
 11
250.0
 21
-211.8055555555556
 31
0.0
  0
POLYLINE
  5
19B
  8
__-1
  6
CONTINUOUS
 62
     7
 66
     1
 10
0.0
 20
0.0
 30
0.0
 70
   128
  0
VERTEX
  5
782
  8
__-1
  6
CONTINUOUS
 62
     7
 10
263.3966419055148
 20
-394.5030517578125
 30
0.0
  0
VERTEX
  5
783
  8
__-1
  6
CONTINUOUS
 62
     7
 10
250.0
 20
-444.5
 30
0.0
  0
VERTEX
  5
784
  8
__-1
  6
CONTINUOUS
 62
     7
 10
236.6033580944852
 20
-394.5030517578125
 30
0.0
  0
SEQEND
  5
7B6
  8
__-1
  6
CONTINUOUS
 62
     7
  0
LINE
  5
1A0
  8
__-1
  6
CONTINUOUS
 62
     7
 10
250.0
 20
-519.5
 30
0.0
 11
250.0
 21
-607.0
 31
0.0
  0
POLYLINE
  5
1A1
  8
__-1
  6
CONTINUOUS
 62
     7
 66
     1
 10
0.0
 20
0.0
 30
0.0
 70
   128
  0
VERTEX
  5
785
  8
__-1
  6
CONTINUOUS
 62
     7
 10
236.6033580944852
 20
-569.4969482421875
 30
0.0
  0
VERTEX
  5
786
  8
__-1
  6
CONTINUOUS
 62
     7
 10
250.0
 20
-519.5
 30
0.0
  0
VERTEX
  5
787
  8
__-1
  6
CONTINUOUS
 62
     7
 10
263.3966419055148
 20
-569.4969482421875
 30
0.0
  0
SEQEND
  5
7B7
  8
__-1
  6
CONTINUOUS
 62
     7
  0
TEXT
  5
1A6
  8
__-1
 62
     7
 10
225.1527777777778
 20
-388.1944444444445
 30
0.0
 40
67.69612630208339
  1
75.0
 50
90.0
 41
0.7
 11
157.4566514756944
 21
-388.1944444444445
 31
0.0
 73
     3
  0
LINE
  5
1A7
  8
__-1
  6
CONTINUOUS
 62
     7
 10
-70.00000000000045
 20
-519.5
 30
0.0
 11
275.0
 21
-519.5
 31
0.0
  0
LINE
  5
1A8
  8
__-1
  6
CONTINUOUS
 62
     7
 10
-70.00000000000045
 20
-1068.5
 30
0.0
 11
275.0
 21
-1068.5
 31
0.0
  0
LINE
  5
1A9
  8
__-1
  6
CONTINUOUS
 62
     7
 10
250.0
 20
-519.5
 30
0.0
 11
250.0
 21
-1068.5
 31
0.0
  0
POLYLINE
  5
1AA
  8
__-1
  6
CONTINUOUS
 62
     7
 66
     1
 10
0.0
 20
0.0
 30
0.0
 70
   128
  0
VERTEX
  5
788
  8
__-1
  6
CONTINUOUS
 62
     7
 10
236.6033580944852
 20
-569.4969482421875
 30
0.0
  0
VERTEX
  5
789
  8
__-1
  6
CONTINUOUS
 62
     7
 10
250.0
 20
-519.5
 30
0.0
  0
VERTEX
  5
78A
  8
__-1
  6
CONTINUOUS
 62
     7
 10
263.3966419055148
 20
-569.4969482421875
 30
0.0
  0
SEQEND
  5
7B8
  8
__-1
  6
CONTINUOUS
 62
     7
  0
POLYLINE
  5
1AF
  8
__-1
  6
CONTINUOUS
 62
     7
 66
     1
 10
0.0
 20
0.0
 30
0.0
 70
   128
  0
VERTEX
  5
78B
  8
__-1
  6
CONTINUOUS
 62
     7
 10
263.3966419055148
 20
-1018.503051757812
 30
0.0
  0
VERTEX
  5
78C
  8
__-1
  6
CONTINUOUS
 62
     7
 10
250.0
 20
-1068.5
 30
0.0
  0
VERTEX
  5
78D
  8
__-1
  6
CONTINUOUS
 62
     7
 10
236.6033580944852
 20
-1018.503051757812
 30
0.0
  0
SEQEND
  5
7B9
  8
__-1
  6
CONTINUOUS
 62
     7
  0
TEXT
  5
1B4
  8
__-1
 62
     7
 10
225.1527777777777
 20
-860.1458333333334
 30
0.0
 40
67.69612630208339
  1
549
 50
90.0
 41
0.7
 11
157.4566514756943
 21
-860.1458333333334
 31
0.0
 73
     3
  0
LINE
  5
1B5
  8
__-1
  6
CONTINUOUS
 62
     7
 10
-1037.368798634683
 20
74.18257671646779
 30
0.0
 11
-949.9999999999999
 21
-150.0
 31
0.0
  0
POLYLINE
  5
1B6
  8
__-1
  6
CONTINUOUS
 62
     7
 66
     1
 10
0.0
 20
0.0
 30
0.0
 70
   128
  0
VERTEX
  5
78E
  8
__-1
  6
CONTINUOUS
 62
     7
 10
-1031.060762252692
 20
22.80774314126248
 30
0.0
  0
VERTEX
  5
78F
  8
__-1
  6
CONTINUOUS
 62
     7
 10
-1037.368798634683
 20
74.18257671646779
 30
0.0
  0
VERTEX
  5
790
  8
__-1
  6
CONTINUOUS
 62
     7
 10
-1006.218462092279
 20
32.84468391613797
 30
0.0
  0
SEQEND
  5
7BA
  8
__-1
  6
CONTINUOUS
 62
     7
  0
LINE
  5
1BB
  8
__-1
  6
CONTINUOUS
 62
     7
 10
-949.9999999999999
 20
-150.0
 30
0.0
 11
-899.9999999999999
 21
-150.0
 31
0.0
  0
TEXT
  5
1BC
  8
__-1
 62
     7
 10
-899.9999999999999
 20
-181.75
 30
0.0
 40
67.69612630208339
  1
M10(4ヵ所)
 41
0.7
 11
-899.9999999999999
 21
-114.0538736979166
 31
0.0
 73
     3
  0
LINE
  5
1BD
  8
__-1
  6
CONTINUOUS
 62
     7
 10
-95.17433019616482
 20
-1077.258590693962
 30
0.0
 11
0.0
 21
-1250.0
 31
0.0
  0
POLYLINE
  5
1BE
  8
__-1
  6
CONTINUOUS
 62
     7
 66
     1
 10
0.0
 20
0.0
 30
0.0
 70
   128
  0
VERTEX
  5
791
  8
__-1
  6
CONTINUOUS
 62
     7
 10
-82.65229572544682
 20
-1127.481727798196
 30
0.0
  0
VERTEX
  5
792
  8
__-1
  6
CONTINUOUS
 62
     7
 10
-95.17433019616482
 20
-1077.258590693962
 30
0.0
  0
VERTEX
  5
793
  8
__-1
  6
CONTINUOUS
 62
     7
 10
-59.21836168534143
 20
-1114.492086048618
 30
0.0
  0
SEQEND
  5
7BB
  8
__-1
  6
CONTINUOUS
 62
     7
  0
LINE
  5
1C3
  8
__-1
  6
CONTINUOUS
 62
     7
 10
0.0
 20
-1250.0
 30
0.0
 11
50.0
 21
-1250.0
 31
0.0
  0
TEXT
  5
1C4
  8
__-1
 62
     7
 10
49.99999999999997
 20
-1281.75
 30
0.0
 40
67.69612630208339
  1
M10(2ヵ所)
 41
0.7
 11
49.99999999999997
 21
-1214.053873697917
 31
0.0
 73
     3
  0
LINE
  5
1C5
  8
__
  6
______-7
 62
     7
 10
-1200.0
 20
-1950.0
 30
0.0
 11
-1200.0
 21
-1450.0
 31
0.0
  0
TEXT
  5
1C6
  8
__
 62
     7
 10
-2199.994499999999
 20
-2968.322083561354
 30
0.0
 40
47.3871699432373
  1
※仕様及び外観は予告なく変更されることがあります。 
 41
0.7
 11
-2199.994499999999
 21
-2920.934913618117
 31
0.0
 73
     3
  0
TEXT
  5
1C7
  8
__
 62
     7
 10
-2199.994499999999
 20
-3030.058040332187
 30
0.0
 40
47.3871699432373
  1
　また、同一商品でも若干の個体差があることがあります。ご了承ください。
 41
0.7
 11
-2199.994499999999
 21
-2982.67087038895
 31
0.0
 73
     3
  0
TEXT
  5
1C8
  8
__
 62
     7
 10
1249.996875
 20
-2705.707434544062
 30
0.0
 40
60.92636135559081
  1
JBL PROFESSIONAL
 41
0.7
 11
1249.996875
 21
-2644.781073188471
 31
0.0
 73
     3
  0
TEXT
  5
1C9
  8
__
 62
     7
 10
1249.996875
 20
-2886.956981419062
 30
0.0
 40
60.92636135559081
  1
PRX915
 41
0.7
 11
1249.996875
 21
-2826.030620063471
 31
0.0
 73
     3
  0
TEXT
  5
1CA
  8
__
 62
     7
 10
1041.6640625
 20
-2795.806084296875
 30
0.0
 40
47.3871699432373
  1
パワード2-Wayフルレンジ・スピーカー
 41
0.7
 11
1041.6640625
 21
-2748.418914353638
 31
0.0
 73
     3
  0
LINE
  5
1CB
  8
__
  6
CONTINUOUS
 62
     7
 10
928.4607593954665
 20
-1474.9998125
 30
0.0
 11
1695.107900479187
 21
-1474.9998125
 31
0.0
  0
TEXT
  5
1CC
  8
__
 62
     7
 10
1080.439445929667
 20
-1433.847978530884
 30
0.0
 40
67.69595706176757
  1
背面パネル拡大図
 41
0.7
 72
     1
 11
1300.0
 21
-1400.0
 31
0.0
 73
     2
  0
LINE
  5
1CD
  8
__
  6
CONTINUOUS
 62
     7
 10
2104.31067315379
 20
758.7925787384488
 30
0.0
 11
2104.9134760194
 21
-1168.68811401122
 31
0.0
  0
LINE
  5
1CE
  8
__
  6
CONTINUOUS
 62
     7
 10
484.2996875570742
 20
793.6642547761321
 30
0.0
 11
484.9024890019143
 21
-1133.811895018282
 31
0.0
  0
LINE
  5
1CF
  8
__
  6
CONTINUOUS
 62
     7
 10
1544.17422817565
 20
654.9999999999977
 30
0.0
 11
1044.174208175648
 21
654.9999999999977
 31
0.0
  0
LINE
  5
1D0
  8
__
  6
CONTINUOUS
 62
     7
 10
1544.17422817565
 20
654.9999999999977
 30
0.0
 11
1544.28993817565
 21
284.9999999999975
 31
0.0
  0
LINE
  5
1D1
  8
__
  6
CONTINUOUS
 62
     7
 10
1544.28993817565
 20
284.9999999999975
 30
0.0
 11
1044.289918175648
 21
284.9999999999975
 31
0.0
  0
LINE
  5
1D2
  8
__
  6
CONTINUOUS
 62
     7
 10
1044.174208175648
 20
654.9999999999977
 30
0.0
 11
1044.289918175648
 21
284.9999999999975
 31
0.0
  0
CIRCLE
  5
1D3
  8
__
  6
CONTINUOUS
 62
     7
 10
829.2023381756485
 20
564.9999999999976
 30
0.0
 40
75.0
  0
CIRCLE
  5
1D4
  8
__
  6
CONTINUOUS
 62
     7
 10
1719.202388175647
 20
564.9999999999976
 30
0.0
 40
90.0
  0
CIRCLE
  5
1D5
  8
__
  6
CONTINUOUS
 62
     7
 10
1719.202388175647
 20
319.9999999999976
 30
0.0
 40
35.0
  0
ARC
  5
1D6
  8
__
  6
CONTINUOUS
 62
     7
 10
809.2023381756485
 20
314.9999999999975
 30
0.0
 40
20.00000000000095
 50
94.84558399999173
 51
270.0
  0
ARC
  5
1D7
  8
__
  6
CONTINUOUS
 62
     7
 10
849.2023381756485
 20
314.9999999999975
 30
0.0
 40
20.0
 50
270.0
 51
90.0
  0
LINE
  5
1D8
  8
__
  6
CONTINUOUS
 62
     7
 10
809.2023381756485
 20
334.9999999999976
 30
0.0
 11
849.2023381756485
 21
334.9999999999976
 31
0.0
  0
LINE
  5
1D9
  8
__
  6
CONTINUOUS
 62
     7
 10
809.2023381756485
 20
294.9999999999975
 30
0.0
 11
849.2023381756485
 21
294.9999999999975
 31
0.0
  0
ARC
  5
1DA
  8
__
  6
CONTINUOUS
 62
     7
 10
1009.174228175652
 20
115.0594599999974
 30
0.0
 40
20.00000000000119
 50
90.0
 51
270.0
  0
ARC
  5
1DB
  8
__
  6
CONTINUOUS
 62
     7
 10
1049.174228175652
 20
115.0594599999974
 30
0.0
 40
20.0
 50
270.0
 51
90.0
  0
LINE
  5
1DC
  8
__
  6
CONTINUOUS
 62
     7
 10
1009.174228175652
 20
135.0594599999974
 30
0.0
 11
1049.174228175652
 21
135.0594599999974
 31
0.0
  0
LINE
  5
1DD
  8
__
  6
CONTINUOUS
 62
     7
 10
1009.174228175652
 20
95.05945999999739
 30
0.0
 11
1049.174228175652
 21
95.05945999999739
 31
0.0
  0
CIRCLE
  5
1DE
  8
__
  6
CONTINUOUS
 62
     7
 10
1029.221158175651
 20
-15.00000000000256
 30
0.0
 40
32.5
  0
CIRCLE
  5
1DF
  8
__
  6
CONTINUOUS
 62
     7
 10
1029.174228175652
 20
-315.0000000000026
 30
0.0
 40
112.5
  0
CIRCLE
  5
1E0
  8
__
  6
CONTINUOUS
 62
     7
 10
1029.218446370379
 20
-695.0000291712981
 30
0.0
 40
112.5
  0
ARC
  5
1E1
  8
__
  6
CONTINUOUS
 62
     7
 10
1029.174228175652
 20
-315.0000000000026
 30
0.0
 40
105.0000000000009
 50
118.4548090000017
 51
61.58102900000154
  0
LINE
  5
1E2
  8
__
  6
CONTINUOUS
 62
     7
 10
975.571868175648
 20
-216.090770000001
 30
0.0
 11
979.1453581756514
 21
-222.6847200000023
 31
0.0
  0
LINE
  5
1E3
  8
__
  6
CONTINUOUS
 62
     7
 10
1082.776598175651
 20
-216.090770000001
 30
0.0
 11
1079.203108175652
 21
-222.6847200000023
 31
0.0
  0
LINE
  5
1E4
  8
__
  6
CONTINUOUS
 62
     7
 10
1060.097528175647
 20
-305.0000000000026
 30
0.0
 11
1074.171108175651
 21
-305.0000000000026
 31
0.0
  0
LINE
  5
1E5
  8
__
  6
CONTINUOUS
 62
     7
 10
1060.097528175647
 20
-325.0000000000026
 30
0.0
 11
1074.177358175648
 21
-325.0000000000026
 31
0.0
  0
LINE
  5
1E6
  8
__
  6
CONTINUOUS
 62
     7
 10
1019.183898175652
 20
-345.926420000001
 30
0.0
 11
1019.188308175653
 21
-360.0000000000026
 31
0.0
  0
LINE
  5
1E7
  8
__
  6
CONTINUOUS
 62
     7
 10
1039.183898175652
 20
-345.9201600000009
 30
0.0
 11
1039.188308175653
 21
-360.0000000000026
 31
0.0
  0
CIRCLE
  5
1E8
  8
__
  6
CONTINUOUS
 62
     7
 10
1029.174228175652
 20
-315.0000000000026
 30
0.0
 40
80.0
  0
LINE
  5
1E9
  8
__
  6
CONTINUOUS
 62
     7
 10
998.2509381756518
 20
-305.0000000000026
 30
0.0
 11
984.1710981756478
 21
-305.0000000000026
 31
0.0
  0
LINE
  5
1EA
  8
__
  6
CONTINUOUS
 62
     7
 10
998.2509381756518
 20
-325.0000000000026
 30
0.0
 11
984.1773581756479
 21
-325.0000000000026
 31
0.0
  0
ARC
  5
1EB
  8
__
  6
CONTINUOUS
 62
     7
 10
984.1742281756524
 20
-315.0000000000026
 30
0.0
 40
9.999999999999945
 50
90.01791900001633
 51
270.0179189999903
  0
ARC
  5
1EC
  8
__
  6
CONTINUOUS
 62
     7
 10
1029.188308175653
 20
-360.0000000000026
 30
0.0
 40
10.0
 50
180.0
 51
0.0
  0
ARC
  5
1ED
  8
__
  6
CONTINUOUS
 62
     7
 10
1074.174238175651
 20
-315.0000000000026
 30
0.0
 40
9.999999999999943
 50
270.0179189999903
 51
90.01791899999027
  0
ARC
  5
1EE
  8
__
  6
CONTINUOUS
 62
     7
 10
1029.174228175652
 20
-315.0000000000026
 30
0.0
 40
32.50000000000547
 50
197.9202129999983
 51
252.0977059999958
  0
ARC
  5
1EF
  8
__
  6
CONTINUOUS
 62
     7
 10
1029.174228175652
 20
-315.0000000000026
 30
0.0
 40
32.49999999999936
 50
287.9381319999904
 51
342.0797869999969
  0
ARC
  5
1F0
  8
__
  6
CONTINUOUS
 62
     7
 10
1029.174228175652
 20
-315.0000000000026
 30
0.0
 40
32.49999999999682
 50
17.92021300000318
 51
162.0797870000018
  0
CIRCLE
  5
1F1
  8
__
  6
CONTINUOUS
 62
     7
 10
984.2184363703757
 20
-695.0000291712981
 30
0.0
 40
7.5
  0
CIRCLE
  5
1F2
  8
__
  6
CONTINUOUS
 62
     7
 10
1029.232516370377
 20
-740.0000291712981
 30
0.0
 40
7.5
  0
CIRCLE
  5
1F3
  8
__
  6
CONTINUOUS
 62
     7
 10
1074.218446370379
 20
-695.0000291712981
 30
0.0
 40
7.5
  0
CIRCLE
  5
1F4
  8
__
  6
CONTINUOUS
 62
     7
 10
1029.218446370379
 20
-695.0000291712981
 30
0.0
 40
80.0
  0
CIRCLE
  5
1F5
  8
__
  6
CONTINUOUS
 62
     7
 10
930.1483281756509
 20
-216.0360200000017
 30
0.0
 40
15.0
  0
LINE
  5
1F6
  8
__
  6
CONTINUOUS
 62
     7
 10
923.0750481756513
 20
-208.9671600000023
 30
0.0
 11
937.2216081756505
 21
-223.1048700000022
 31
0.0
  0
LINE
  5
1F7
  8
__
  6
CONTINUOUS
 62
     7
 10
937.2171881756503
 20
-208.962740000002
 30
0.0
 11
923.079468175647
 21
-223.1093000000013
 31
0.0
  0
CIRCLE
  5
1F8
  8
__
  6
CONTINUOUS
 62
     7
 10
930.1925363703788
 20
-596.0360491712972
 30
0.0
 40
15.0
  0
LINE
  5
1F9
  8
__
  6
CONTINUOUS
 62
     7
 10
923.1192563703792
 20
-588.9671891712978
 30
0.0
 11
937.2658163703784
 21
-603.1048991712978
 31
0.0
  0
LINE
  5
1FA
  8
__
  6
CONTINUOUS
 62
     7
 10
937.2613963703782
 20
-588.9627691712976
 30
0.0
 11
923.1236763703794
 21
-603.1093291712968
 31
0.0
  0
LINE
  5
1FB
  8
__
  6
CONTINUOUS
 62
     7
 10
1121.126858175649
 20
-406.8951300000006
 30
0.0
 11
1135.273418175648
 21
-421.0328400000006
 31
0.0
  0
LINE
  5
1FC
  8
__
  6
CONTINUOUS
 62
     7
 10
1135.268988175649
 20
-406.8907100000027
 30
0.0
 11
1121.131278175653
 21
-421.0372600000008
 31
0.0
  0
LINE
  5
1FD
  8
__
  6
CONTINUOUS
 62
     7
 10
1121.126858175649
 20
-406.8951300000006
 30
0.0
 11
1135.273418175648
 21
-421.0328400000006
 31
0.0
  0
LINE
  5
1FE
  8
__
  6
CONTINUOUS
 62
     7
 10
1135.268988175649
 20
-406.8907100000027
 30
0.0
 11
1121.131278175653
 21
-421.0372600000008
 31
0.0
  0
CIRCLE
  5
1FF
  8
__
  6
CONTINUOUS
 62
     7
 10
1128.244346370376
 20
-793.9640191712979
 30
0.0
 40
15.0
  0
LINE
  5
200
  8
__
  6
CONTINUOUS
 62
     7
 10
1121.171066370381
 20
-786.8951591712962
 30
0.0
 11
1135.31762637038
 21
-801.0328691712962
 31
0.0
  0
LINE
  5
201
  8
__
  6
CONTINUOUS
 62
     7
 10
1135.313206370375
 20
-786.8907391712983
 30
0.0
 11
1121.175486370377
 21
-801.0372891712964
 31
0.0
  0
CIRCLE
  5
202
  8
__
  6
CONTINUOUS
 62
     7
 10
1128.244346370376
 20
-793.9640191712979
 30
0.0
 40
15.0
  0
LINE
  5
203
  8
__
  6
CONTINUOUS
 62
     7
 10
1121.171066370381
 20
-786.8951591712962
 30
0.0
 11
1135.31762637038
 21
-801.0328691712962
 31
0.0
  0
LINE
  5
204
  8
__
  6
CONTINUOUS
 62
     7
 10
1135.313206370375
 20
-786.8907391712983
 30
0.0
 11
1121.175486370377
 21
-801.0372891712964
 31
0.0
  0
ARC
  5
205
  8
__
  6
CONTINUOUS
 62
     7
 10
1274.174218175649
 20
115.1423399999973
 30
0.0
 40
20.00000000000085
 50
90.0
 51
270.0
  0
ARC
  5
206
  8
__
  6
CONTINUOUS
 62
     7
 10
1314.174218175649
 20
115.1423399999973
 30
0.0
 40
20.0
 50
270.0
 51
90.0
  0
LINE
  5
207
  8
__
  6
CONTINUOUS
 62
     7
 10
1274.174218175649
 20
135.1423399999974
 30
0.0
 11
1314.174218175649
 21
135.1423399999974
 31
0.0
  0
LINE
  5
208
  8
__
  6
CONTINUOUS
 62
     7
 10
1274.174218175649
 20
95.14233999999732
 30
0.0
 11
1314.174218175649
 21
95.14233999999732
 31
0.0
  0
CIRCLE
  5
209
  8
__
  6
CONTINUOUS
 62
     7
 10
1294.221148175648
 20
-14.91712000000263
 30
0.0
 40
32.5
  0
CIRCLE
  5
20A
  8
__
  6
CONTINUOUS
 62
     7
 10
1294.174218175649
 20
-314.9171200000026
 30
0.0
 40
112.5
  0
CIRCLE
  5
20B
  8
__
  6
CONTINUOUS
 62
     7
 10
1294.218426370381
 20
-694.9171491712982
 30
0.0
 40
112.5
  0
ARC
  5
20C
  8
__
  6
CONTINUOUS
 62
     7
 10
1294.174218175649
 20
-314.9171200000026
 30
0.0
 40
104.9999999999987
 50
118.4548089999995
 51
61.58102899999948
  0
LINE
  5
20D
  8
__
  6
CONTINUOUS
 62
     7
 10
1240.571858175654
 20
-216.0078900000011
 30
0.0
 11
1244.145348175653
 21
-222.6018400000024
 31
0.0
  0
LINE
  5
20E
  8
__
  6
CONTINUOUS
 62
     7
 10
1347.776578175653
 20
-216.0078900000011
 30
0.0
 11
1344.20308817565
 21
-222.6018400000024
 31
0.0
  0
LINE
  5
20F
  8
__
  6
CONTINUOUS
 62
     7
 10
1325.09750817565
 20
-304.9171200000026
 30
0.0
 11
1339.171098175648
 21
-304.9171200000026
 31
0.0
  0
LINE
  5
210
  8
__
  6
CONTINUOUS
 62
     7
 10
1325.09750817565
 20
-324.9171200000026
 30
0.0
 11
1339.177348175654
 21
-324.9171200000026
 31
0.0
  0
LINE
  5
211
  8
__
  6
CONTINUOUS
 62
     7
 10
1284.183888175648
 20
-345.843540000001
 30
0.0
 11
1284.188288175651
 21
-359.9171200000026
 31
0.0
  0
LINE
  5
212
  8
__
  6
CONTINUOUS
 62
     7
 10
1304.183888175648
 20
-345.837290000002
 30
0.0
 11
1304.188288175651
 21
-359.9171200000026
 31
0.0
  0
CIRCLE
  5
213
  8
__
  6
CONTINUOUS
 62
     7
 10
1294.174218175649
 20
-314.9171200000026
 30
0.0
 40
80.0
  0
LINE
  5
214
  8
__
  6
CONTINUOUS
 62
     7
 10
1263.250928175648
 20
-304.9171200000026
 30
0.0
 11
1249.171088175653
 21
-304.9171200000026
 31
0.0
  0
LINE
  5
215
  8
__
  6
CONTINUOUS
 62
     7
 10
1263.250928175648
 20
-324.9171200000026
 30
0.0
 11
1249.177348175654
 21
-324.9171200000026
 31
0.0
  0
ARC
  5
216
  8
__
  6
CONTINUOUS
 62
     7
 10
1249.174218175649
 20
-314.9171200000026
 30
0.0
 40
9.999999999999943
 50
90.01791899999027
 51
270.0179190000164
  0
ARC
  5
217
  8
__
  6
CONTINUOUS
 62
     7
 10
1294.188288175651
 20
-359.9171200000026
 30
0.0
 40
10.0
 50
180.0
 51
0.0
  0
ARC
  5
218
  8
__
  6
CONTINUOUS
 62
     7
 10
1339.174218175649
 20
-314.9171200000026
 30
0.0
 40
9.999999999999945
 50
270.0179190000163
 51
90.01791899999026
  0
ARC
  5
219
  8
__
  6
CONTINUOUS
 62
     7
 10
1294.174218175649
 20
-314.9171200000026
 30
0.0
 40
32.49999999999682
 50
197.9202130000032
 51
252.0977060000034
  0
ARC
  5
21A
  8
__
  6
CONTINUOUS
 62
     7
 10
1294.174218175649
 20
-314.9171200000026
 30
0.0
 40
32.50000000000216
 50
287.9381320000057
 51
342.0797870000018
  0
ARC
  5
21B
  8
__
  6
CONTINUOUS
 62
     7
 10
1294.174218175649
 20
-314.9171200000026
 30
0.0
 40
32.50000000000547
 50
17.92021299999825
 51
162.0797869999966
  0
CIRCLE
  5
21C
  8
__
  6
CONTINUOUS
 62
     7
 10
1249.218426370381
 20
-694.9171491712982
 30
0.0
 40
7.5
  0
CIRCLE
  5
21D
  8
__
  6
CONTINUOUS
 62
     7
 10
1294.232506370378
 20
-739.9171491712982
 30
0.0
 40
7.5
  0
CIRCLE
  5
21E
  8
__
  6
CONTINUOUS
 62
     7
 10
1339.218426370381
 20
-694.9171491712982
 30
0.0
 40
7.5
  0
LINE
  5
21F
  8
__
  6
CONTINUOUS
 62
     7
 10
1188.075038175648
 20
-208.8842800000023
 30
0.0
 11
1202.221598175647
 21
-223.0220000000011
 31
0.0
  0
LINE
  5
220
  8
__
  6
CONTINUOUS
 62
     7
 10
1202.217168175648
 20
-208.8798600000021
 30
0.0
 11
1188.079458175653
 21
-223.0264200000013
 31
0.0
  0
CIRCLE
  5
221
  8
__
  6
CONTINUOUS
 62
     7
 10
1195.192526370375
 20
-595.9531691712973
 30
0.0
 40
15.0
  0
LINE
  5
222
  8
__
  6
CONTINUOUS
 62
     7
 10
1188.11924637038
 20
-588.8843091712979
 30
0.0
 11
1202.26580637038
 21
-603.0220291712967
 31
0.0
  0
LINE
  5
223
  8
__
  6
CONTINUOUS
 62
     7
 10
1202.261376370381
 20
-588.8798891712977
 30
0.0
 11
1188.123666370376
 21
-603.0264491712969
 31
0.0
  0
LINE
  5
224
  8
__
  6
CONTINUOUS
 62
     7
 10
1386.12684817565
 20
-406.8122500000007
 30
0.0
 11
1400.27339817565
 21
-420.9499700000018
 31
0.0
  0
LINE
  5
225
  8
__
  6
CONTINUOUS
 62
     7
 10
1400.26897817565
 20
-406.8078300000028
 30
0.0
 11
1386.13126817565
 21
-420.954390000002
 31
0.0
  0
LINE
  5
226
  8
__
  6
CONTINUOUS
 62
     7
 10
1386.12684817565
 20
-406.8122500000007
 30
0.0
 11
1400.27339817565
 21
-420.9499700000018
 31
0.0
  0
LINE
  5
227
  8
__
  6
CONTINUOUS
 62
     7
 10
1400.26897817565
 20
-406.8078300000028
 30
0.0
 11
1386.13126817565
 21
-420.954390000002
 31
0.0
  0
CIRCLE
  5
228
  8
__
  6
CONTINUOUS
 62
     7
 10
1393.244336370377
 20
-793.881139171298
 30
0.0
 40
15.0
  0
LINE
  5
229
  8
__
  6
CONTINUOUS
 62
     7
 10
1386.171056370378
 20
-786.8122791712963
 30
0.0
 11
1400.317616370377
 21
-800.9499991712973
 31
0.0
  0
LINE
  5
22A
  8
__
  6
CONTINUOUS
 62
     7
 10
1400.313186370378
 20
-786.8078591712983
 30
0.0
 11
1386.175476370378
 21
-800.9544191712976
 31
0.0
  0
CIRCLE
  5
22B
  8
__
  6
CONTINUOUS
 62
     7
 10
1393.244336370377
 20
-793.881139171298
 30
0.0
 40
15.0
  0
LINE
  5
22C
  8
__
  6
CONTINUOUS
 62
     7
 10
1386.171056370378
 20
-786.8122791712963
 30
0.0
 11
1400.317616370377
 21
-800.9499991712973
 31
0.0
  0
LINE
  5
22D
  8
__
  6
CONTINUOUS
 62
     7
 10
1400.313186370378
 20
-786.8078591712983
 30
0.0
 11
1386.175476370378
 21
-800.9544191712976
 31
0.0
  0
ARC
  5
22E
  8
__
  6
CONTINUOUS
 62
     7
 10
1539.17420817565
 20
115.2252099999984
 30
0.0
 40
20.00000000000119
 50
90.0
 51
270.0
  0
ARC
  5
22F
  8
__
  6
CONTINUOUS
 62
     7
 10
1579.17420817565
 20
115.2252099999984
 30
0.0
 40
20.0
 50
270.0
 51
90.0
  0
LINE
  5
230
  8
__
  6
CONTINUOUS
 62
     7
 10
1539.17420817565
 20
135.2252099999985
 30
0.0
 11
1579.17420817565
 21
135.2252099999985
 31
0.0
  0
LINE
  5
231
  8
__
  6
CONTINUOUS
 62
     7
 10
1539.17420817565
 20
95.22520999999841
 30
0.0
 11
1579.17420817565
 21
95.22520999999841
 31
0.0
  0
CIRCLE
  5
232
  8
__
  6
CONTINUOUS
 62
     7
 10
1559.221138175653
 20
-14.83425000000153
 30
0.0
 40
32.5
  0
CIRCLE
  5
233
  8
__
  6
CONTINUOUS
 62
     7
 10
1559.218416370378
 20
-694.8342791712971
 30
0.0
 40
112.5
  0
CIRCLE
  5
234
  8
__
  6
CONTINUOUS
 62
     7
 10
1514.218416370378
 20
-694.8342791712971
 30
0.0
 40
7.5
  0
CIRCLE
  5
235
  8
__
  6
CONTINUOUS
 62
     7
 10
1559.232486370375
 20
-739.8342791712971
 30
0.0
 40
7.5
  0
CIRCLE
  5
236
  8
__
  6
CONTINUOUS
 62
     7
 10
1604.218416370378
 20
-694.8342791712971
 30
0.0
 40
7.5
  0
CIRCLE
  5
237
  8
__
  6
CONTINUOUS
 62
     7
 10
1559.218416370378
 20
-694.8342791712971
 30
0.0
 40
80.0
  0
CIRCLE
  5
238
  8
__
  6
CONTINUOUS
 62
     7
 10
1460.192506370378
 20
-595.8702891712974
 30
0.0
 40
15.0
  0
LINE
  5
239
  8
__
  6
CONTINUOUS
 62
     7
 10
1453.119236370377
 20
-588.8014391712968
 30
0.0
 11
1467.265786370377
 21
-602.9391491712968
 31
0.0
  0
LINE
  5
23A
  8
__
  6
CONTINUOUS
 62
     7
 10
1467.261366370377
 20
-588.7970091712978
 30
0.0
 11
1453.123656370377
 21
-602.943569171297
 31
0.0
  0
CIRCLE
  5
23B
  8
__
  6
CONTINUOUS
 62
     7
 10
1658.244316370375
 20
-793.798259171298
 30
0.0
 40
15.0
  0
LINE
  5
23C
  8
__
  6
CONTINUOUS
 62
     7
 10
1651.17103637038
 20
-786.7294091712974
 30
0.0
 11
1665.317596370379
 21
-800.8671191712974
 31
0.0
  0
LINE
  5
23D
  8
__
  6
CONTINUOUS
 62
     7
 10
1665.313176370379
 20
-786.7249791712984
 30
0.0
 11
1651.175466370379
 21
-800.8715391712976
 31
0.0
  0
CIRCLE
  5
23E
  8
__
  6
CONTINUOUS
 62
     7
 10
1658.244316370375
 20
-793.798259171298
 30
0.0
 40
15.0
  0
LINE
  5
23F
  8
__
  6
CONTINUOUS
 62
     7
 10
1651.17103637038
 20
-786.7294091712974
 30
0.0
 11
1665.317596370379
 21
-800.8671191712974
 31
0.0
  0
LINE
  5
240
  8
__
  6
CONTINUOUS
 62
     7
 10
1665.313176370379
 20
-786.7249791712984
 30
0.0
 11
1651.175466370379
 21
-800.8715391712976
 31
0.0
  0
CIRCLE
  5
241
  8
__
  6
CONTINUOUS
 62
     7
 10
1393.20011817565
 20
-413.8811100000024
 30
0.0
 40
15.0
  0
CIRCLE
  5
242
  8
__
  6
CONTINUOUS
 62
     7
 10
1128.200138175653
 20
-413.9639900000023
 30
0.0
 40
15.0
  0
CIRCLE
  5
243
  8
__
  6
CONTINUOUS
 62
     7
 10
1195.148318175652
 20
-215.9531400000017
 30
0.0
 40
15.0
  0
CIRCLE
  5
244
  8
__
  6
CONTINUOUS
 62
     7
 10
1559.17420817565
 20
-314.8342500000015
 30
0.0
 40
20.0
  0
CIRCLE
  5
245
  8
__
  6
CONTINUOUS
 62
     7
 10
1559.17420817565
 20
-314.8342500000015
 30
0.0
 40
35.0
  0
CIRCLE
  5
246
  8
__
  6
CONTINUOUS
 62
     7
 10
565.090518175648
 20
-835.0000000000025
 30
0.0
 40
40.0
  0
CIRCLE
  5
247
  8
__
  6
CONTINUOUS
 62
     7
 10
565.090518175648
 20
64.99999999999744
 30
0.0
 40
40.0
  0
CIRCLE
  5
248
  8
__
  6
CONTINUOUS
 62
     7
 10
2023.25791817565
 20
-835.0000000000025
 30
0.0
 40
40.0
  0
CIRCLE
  5
249
  8
__
  6
CONTINUOUS
 62
     7
 10
2023.25791817565
 20
64.99999999999744
 30
0.0
 40
40.0
  0
CIRCLE
  5
24A
  8
__
  6
CONTINUOUS
 62
     7
 10
1294.218426370381
 20
-694.9171491712982
 30
0.0
 40
80.0
  0
LINE
  5
24B
  8
__
  6
CONTINUOUS
 62
     7
 10
1559.17420817565
 20
-353.3342500000018
 30
0.0
 11
1559.223146669448
 21
-473.1381124405473
 31
0.0
  0
LINE
  5
24C
  8
__
  6
CONTINUOUS
 62
     7
 10
1029.209418175651
 20
-433.2417120000028
 30
0.0
 11
1029.225052957067
 21
-473.2417089444223
 31
0.0
  0
TEXT
  5
24D
  8
__
 62
     7
 10
1592.836285745092
 20
418.3372395833321
 30
0.0
 40
43.32552083333334
  1
MAIN/MENU
 41
0.7
 72
     1
 11
1719.202388175647
 21
439.9999999999987
 31
0.0
 73
     2
  0
TEXT
  5
24E
  8
__
 62
     7
 10
753.3826767173151
 20
433.3372395833321
 30
0.0
 40
43.32552083333334
  1
POWER
 41
0.7
 72
     1
 11
829.2023381756485
 21
454.9999999999987
 31
0.0
 73
     2
  0
TEXT
  5
24F
  8
__
 62
     7
 10
978.6747172034288
 20
-109.1627604166681
 30
0.0
 40
43.32552083333334
  1
GAIN
 41
0.7
 72
     1
 11
1029.221158175651
 21
-87.50000000000142
 31
0.0
 73
     2
  0
TEXT
  5
250
  8
__
 62
     7
 10
954.3655055367578
 20
-877.5914900338815
 30
0.0
 40
43.32552083333334
  1
THRU 1
 41
0.7
 72
     1
 11
1029.174238175647
 21
-855.9287296172149
 31
0.0
 73
     2
  0
TEXT
  5
251
  8
__
 62
     7
 10
1214.310841439538
 20
-877.5086100338816
 30
0.0
 40
43.32552083333334
  1
THRU 2
 41
0.7
 72
     1
 11
1294.174218175649
 21
-855.845849617215
 31
0.0
 73
     2
  0
TEXT
  5
252
  8
__
 62
     7
 10
1469.201566358688
 20
-877.4268105803307
 30
0.0
 40
43.32552083333334
  1
MIX OUT
 41
0.7
 72
     1
 11
1559.174231289244
 21
-855.764050163664
 31
0.0
 73
     2
  0
TEXT
  5
253
  8
__
 62
     7
 10
1663.601303106203
 20
223.337239583332
 30
0.0
 40
43.32552083333334
  1
BACK
 41
0.7
 72
     1
 11
1719.202388175647
 21
244.9999999999986
 31
0.0
 73
     2
  0
TEXT
  5
254
  8
__
 62
     7
 10
768.5466090089818
 20
223.337239583332
 30
0.0
 40
43.32552083333334
  1
LIMIT
 41
0.7
 72
     1
 11
829.2023381756485
 21
244.9999999999986
 31
0.0
 73
     2
  0
TEXT
  5
255
  8
__
 62
     7
 10
923.0267021339857
 20
33.39669958333185
 30
0.0
 40
43.32552083333334
  1
SIG/CLIP
 41
0.7
 72
     1
 11
1029.174228175652
 21
55.05945999999852
 31
0.0
 73
     2
  0
TEXT
  5
256
  8
__
 62
     7
 10
993.7495834004245
 20
-527.5925314090362
 30
0.0
 40
43.32552083333334
  1
CH1
 41
0.7
 72
     1
 11
1029.13209208098
 21
-505.9297709923695
 31
0.0
 73
     2
  0
TEXT
  5
257
  8
__
 62
     7
 10
1253.694919303205
 20
-527.5096514090362
 30
0.0
 40
43.32552083333334
  1
CH2
 41
0.7
 72
     1
 11
1294.132072080982
 21
-505.8468909923695
 31
0.0
 73
     2
  0
TEXT
  5
258
  8
__
 62
     7
 10
1484.323352500546
 20
-527.4262435810303
 30
0.0
 40
43.32552083333334
  1
AUX IN
 41
0.7
 72
     1
 11
1559.132085139435
 21
-505.7634831643637
 31
0.0
 73
     2
  0
LINE
  5
259
  8
__
  6
CONTINUOUS
 62
     7
 10
1029.174228175652
 20
-191.7888157356006
 30
0.0
 11
1029.174228175652
 21
-116.7888157356006
 31
0.0
  0
LINE
  5
25A
  8
__
  6
CONTINUOUS
 62
     7
 10
1559.17420817565
 20
-276.3342500000013
 30
0.0
 11
1559.17420817565
 21
-116.7888157356006
 31
0.0
  0
ARC
  5
25B
  8
__
  6
CONTINUOUS
 62
     7
 10
565.0905181746339
 20
81.97764380177972
 30
0.0
 40
2.22235619821771
 50
356.8251528744042
 51
183.1748471255959
  0
ARC
  5
25C
  8
__
  6
CONTINUOUS
 62
     7
 10
554.7386790158475
 20
82.9299113758006
 30
0.0
 40
8.203678318443083
 50
247.5320803524656
 51
352.4679196225456
  0
ARC
  5
25D
  8
__
  6
CONTINUOUS
 62
     7
 10
550.387447345887
 20
73.48882190088801
 30
0.0
 40
2.222356198218802
 50
56.8251528744028
 51
243.174847125579
  0
ARC
  5
25E
  8
__
  6
CONTINUOUS
 62
     7
 10
544.3868398561915
 20
65.00000000049994
 30
0.0
 40
8.203678318443314
 50
307.532080352468
 51
52.46791962254481
  0
ARC
  5
25F
  8
__
  6
CONTINUOUS
 62
     7
 10
565.0905181746339
 20
48.02235619821516
 30
0.0
 40
2.22235619821771
 50
176.8251528744042
 51
3.174847125595846
  0
ARC
  5
260
  8
__
  6
CONTINUOUS
 62
     7
 10
554.7386790158475
 20
47.07008862419428
 30
0.0
 40
8.203678318442956
 50
7.532080377454527
 51
112.4679196475346
  0
ARC
  5
261
  8
__
  6
CONTINUOUS
 62
     7
 10
550.387447345887
 20
56.51117809910687
 30
0.0
 40
2.222356198217709
 50
116.8251528744185
 51
303.1748471255978
  0
ARC
  5
262
  8
__
  6
CONTINUOUS
 62
     7
 10
575.4423573334191
 20
82.9299113758006
 30
0.0
 40
8.203678318441828
 50
187.5320803774555
 51
292.4679196475294
  0
ARC
  5
263
  8
__
  6
CONTINUOUS
 62
     7
 10
579.7935890033796
 20
73.48882190088801
 30
0.0
 40
2.222356198217709
 50
296.8251528744185
 51
123.1748471255977
  0
ARC
  5
264
  8
__
  6
CONTINUOUS
 62
     7
 10
585.7941964930751
 20
65.00000000049994
 30
0.0
 40
8.203678318442142
 50
127.5320803774555
 51
232.4679196475368
  0
ARC
  5
265
  8
__
  6
CONTINUOUS
 62
     7
 10
575.4423573334191
 20
47.07008862419428
 30
0.0
 40
8.20367831844265
 50
67.532080352473
 51
172.4679196225436
  0
ARC
  5
266
  8
__
  6
CONTINUOUS
 62
     7
 10
579.7935890033796
 20
56.51117809910687
 30
0.0
 40
2.222356198218802
 50
236.8251528744028
 51
63.17484712558229
  0
ARC
  5
267
  8
__
  6
CONTINUOUS
 62
     7
 10
2023.25791817565
 20
81.97764380177972
 30
0.0
 40
2.22235619821771
 50
356.8251528744042
 51
183.1748471255959
  0
ARC
  5
268
  8
__
  6
CONTINUOUS
 62
     7
 10
2012.906079016864
 20
82.9299113758006
 30
0.0
 40
8.203678318443083
 50
247.5320803524656
 51
352.4679196225455
  0
ARC
  5
269
  8
__
  6
CONTINUOUS
 62
     7
 10
2008.554847346903
 20
73.48882190088801
 30
0.0
 40
2.222356198218677
 50
56.82515287440769
 51
243.1748471255712
  0
ARC
  5
26A
  8
__
  6
CONTINUOUS
 62
     7
 10
2002.554239857208
 20
65.00000000049994
 30
0.0
 40
8.203678318443176
 50
307.5320803524667
 51
52.46791962254608
  0
ARC
  5
26B
  8
__
  6
CONTINUOUS
 62
     7
 10
2023.25791817565
 20
48.02235619821516
 30
0.0
 40
2.22235619821771
 50
176.8251528744042
 51
3.174847125595846
  0
ARC
  5
26C
  8
__
  6
CONTINUOUS
 62
     7
 10
2012.906079016864
 20
47.07008862419428
 30
0.0
 40
8.203678318442956
 50
7.532080377454527
 51
112.4679196475346
  0
ARC
  5
26D
  8
__
  6
CONTINUOUS
 62
     7
 10
2008.554847346903
 20
56.51117809910687
 30
0.0
 40
2.222356198217914
 50
116.825152874429
 51
303.1748471255953
  0
ARC
  5
26E
  8
__
  6
CONTINUOUS
 62
     7
 10
2033.609757334435
 20
82.9299113758006
 30
0.0
 40
8.203678318441604
 50
187.5320803774558
 51
292.4679196475309
  0
ARC
  5
26F
  8
__
  6
CONTINUOUS
 62
     7
 10
2037.960989004396
 20
73.48882190088801
 30
0.0
 40
2.222356198217709
 50
296.8251528744185
 51
123.1748471255953
  0
ARC
  5
270
  8
__
  6
CONTINUOUS
 62
     7
 10
2043.961596494091
 20
65.00000000049994
 30
0.0
 40
8.203678318442142
 50
127.5320803774555
 51
232.4679196475362
  0
ARC
  5
271
  8
__
  6
CONTINUOUS
 62
     7
 10
2033.609757334435
 20
47.07008862419428
 30
0.0
 40
8.203678318442735
 50
67.53208035247155
 51
172.4679196225435
  0
ARC
  5
272
  8
__
  6
CONTINUOUS
 62
     7
 10
2037.960989004396
 20
56.51117809910687
 30
0.0
 40
2.222356198218677
 50
236.8251528744077
 51
63.17484712558229
  0
ARC
  5
273
  8
__
  6
CONTINUOUS
 62
     7
 10
2023.25791817565
 20
-818.0223561982202
 30
0.0
 40
2.22235619821771
 50
356.8251528744042
 51
183.1748471255959
  0
ARC
  5
274
  8
__
  6
CONTINUOUS
 62
     7
 10
2012.906079016864
 20
-817.0700886241993
 30
0.0
 40
8.203678318443083
 50
247.5320803524656
 51
352.4679196225455
  0
ARC
  5
275
  8
__
  6
CONTINUOUS
 62
     7
 10
2008.554847346903
 20
-826.5111780991119
 30
0.0
 40
2.222356198218677
 50
56.82515287440769
 51
243.1748471255712
  0
ARC
  5
276
  8
__
  6
CONTINUOUS
 62
     7
 10
2002.554239857208
 20
-834.9999999995
 30
0.0
 40
8.203678318443176
 50
307.5320803524667
 51
52.46791962254633
  0
ARC
  5
277
  8
__
  6
CONTINUOUS
 62
     7
 10
2023.25791817565
 20
-851.9776438017848
 30
0.0
 40
2.22235619821771
 50
176.8251528744042
 51
3.174847125595846
  0
ARC
  5
278
  8
__
  6
CONTINUOUS
 62
     7
 10
2012.906079016864
 20
-852.9299113758057
 30
0.0
 40
8.203678318442956
 50
7.532080377454527
 51
112.4679196475346
  0
ARC
  5
279
  8
__
  6
CONTINUOUS
 62
     7
 10
2008.554847346903
 20
-843.4888219008931
 30
0.0
 40
2.222356198217914
 50
116.825152874429
 51
303.1748471255953
  0
ARC
  5
27A
  8
__
  6
CONTINUOUS
 62
     7
 10
2033.609757334435
 20
-817.0700886241993
 30
0.0
 40
8.203678318441604
 50
187.5320803774558
 51
292.4679196475306
  0
ARC
  5
27B
  8
__
  6
CONTINUOUS
 62
     7
 10
2037.960989004396
 20
-826.5111780991119
 30
0.0
 40
2.222356198217709
 50
296.8251528744185
 51
123.1748471255953
  0
ARC
  5
27C
  8
__
  6
CONTINUOUS
 62
     7
 10
2043.961596494091
 20
-834.9999999995
 30
0.0
 40
8.203678318442142
 50
127.5320803774555
 51
232.4679196475364
  0
ARC
  5
27D
  8
__
  6
CONTINUOUS
 62
     7
 10
2033.609757334435
 20
-852.9299113758057
 30
0.0
 40
8.203678318442735
 50
67.53208035247155
 51
172.4679196225443
  0
ARC
  5
27E
  8
__
  6
CONTINUOUS
 62
     7
 10
2037.960989004396
 20
-843.4888219008931
 30
0.0
 40
2.222356198218677
 50
236.8251528744077
 51
63.17484712558164
  0
ARC
  5
27F
  8
__
  6
CONTINUOUS
 62
     7
 10
565.090518175648
 20
-818.0223561982202
 30
0.0
 40
2.22235619821771
 50
356.8251528744042
 51
183.1748471255959
  0
ARC
  5
280
  8
__
  6
CONTINUOUS
 62
     7
 10
554.7386790168616
 20
-817.0700886241993
 30
0.0
 40
8.203678318443083
 50
247.5320803524656
 51
352.4679196225456
  0
ARC
  5
281
  8
__
  6
CONTINUOUS
 62
     7
 10
550.3874473469011
 20
-826.5111780991119
 30
0.0
 40
2.222356198218802
 50
56.8251528744028
 51
243.174847125579
  0
ARC
  5
282
  8
__
  6
CONTINUOUS
 62
     7
 10
544.3868398572056
 20
-834.9999999995
 30
0.0
 40
8.203678318443314
 50
307.532080352468
 51
52.46791962254505
  0
ARC
  5
283
  8
__
  6
CONTINUOUS
 62
     7
 10
565.090518175648
 20
-851.9776438017848
 30
0.0
 40
2.22235619821771
 50
176.8251528744042
 51
3.174847125595846
  0
ARC
  5
284
  8
__
  6
CONTINUOUS
 62
     7
 10
554.7386790168616
 20
-852.9299113758057
 30
0.0
 40
8.203678318442956
 50
7.532080377454527
 51
112.4679196475346
  0
ARC
  5
285
  8
__
  6
CONTINUOUS
 62
     7
 10
550.3874473469011
 20
-843.4888219008931
 30
0.0
 40
2.222356198217709
 50
116.8251528744185
 51
303.1748471255978
  0
ARC
  5
286
  8
__
  6
CONTINUOUS
 62
     7
 10
575.4423573344332
 20
-817.0700886241993
 30
0.0
 40
8.203678318441828
 50
187.5320803774555
 51
292.4679196475291
  0
ARC
  5
287
  8
__
  6
CONTINUOUS
 62
     7
 10
579.7935890043937
 20
-826.5111780991119
 30
0.0
 40
2.222356198217709
 50
296.8251528744185
 51
123.1748471255977
  0
ARC
  5
288
  8
__
  6
CONTINUOUS
 62
     7
 10
585.7941964940892
 20
-834.9999999995
 30
0.0
 40
8.203678318442142
 50
127.5320803774555
 51
232.467919647537
  0
ARC
  5
289
  8
__
  6
CONTINUOUS
 62
     7
 10
575.4423573344332
 20
-852.9299113758057
 30
0.0
 40
8.20367831844265
 50
67.532080352473
 51
172.4679196225444
  0
ARC
  5
28A
  8
__
  6
CONTINUOUS
 62
     7
 10
579.7935890043937
 20
-843.4888219008931
 30
0.0
 40
2.222356198218802
 50
236.8251528744028
 51
63.17484712557902
  0
TEXT
  5
28B
  8
__
 62
     7
 10
1188.026692133982
 20
33.39669958333185
 30
0.0
 40
43.32552083333334
  1
SIG/CLIP
 41
0.7
 72
     1
 11
1294.174218175649
 21
55.05945999999852
 31
0.0
 73
     2
  0
TEXT
  5
28C
  8
__
 62
     7
 10
1453.026682133979
 20
33.39669958333185
 30
0.0
 40
43.32552083333334
  1
SIG/CLIP
 41
0.7
 72
     1
 11
1559.174208175646
 21
55.05945999999852
 31
0.0
 73
     2
  0
TEXT
  5
28D
  8
__
 62
     7
 10
1243.627777203427
 20
-109.1627604166681
 30
0.0
 40
43.32552083333334
  1
GAIN
 41
0.7
 72
     1
 11
1294.174218175649
 21
-87.50000000000142
 31
0.0
 73
     2
  0
TEXT
  5
28E
  8
__
 62
     7
 10
1508.580837203425
 20
-109.1627604166681
 30
0.0
 40
43.32552083333334
  1
GAIN
 41
0.7
 72
     1
 11
1559.127278175647
 21
-87.50000000000142
 31
0.0
 73
     2
  0
LINE
  5
28F
  8
__
  6
CONTINUOUS
 62
     7
 10
1294.174218175649
 20
-191.7888157356006
 30
0.0
 11
1294.174218175649
 21
-116.7888157356006
 31
0.0
  0
LINE
  5
290
  8
__
  6
CONTINUOUS
 62
     7
 10
1029.167621588964
 20
-536.7417532268782
 30
0.0
 11
1029.18325637038
 21
-576.7417501712978
 31
0.0
  0
LINE
  5
291
  8
__
  6
CONTINUOUS
 62
     7
 10
1294.166400784941
 20
-433.2417120000028
 30
0.0
 11
1294.182035566357
 21
-473.2417089444223
 31
0.0
  0
LINE
  5
292
  8
__
  6
CONTINUOUS
 62
     7
 10
1294.124604198254
 20
-536.7417532268782
 30
0.0
 11
1294.14023897967
 21
-576.7417501712978
 31
0.0
  0
ARC
  5
293
  8
__
  6
CONTINUOUS
 62
     7
 10
862.5
 20
-2650.0
 30
0.0
 40
1562.5
 50
73.73979529168804
 51
106.2602047083119
  0
ARC
  5
294
  8
__
  6
CONTINUOUS
 62
     7
 10
1737.5
 20
349.9999999999999
 30
0.0
 40
1562.5
 50
253.739795291688
 51
286.260204708312
  0
ARC
  5
295
  8
__
  6
CONTINUOUS
 62
     7
 10
862.5
 20
-722.3735988634378
 30
0.0
 40
1562.5
 50
73.73979529168804
 51
106.2602047083119
  0
ARC
  5
296
  8
__
  6
CONTINUOUS
 62
     7
 10
1737.5
 20
2277.626401136562
 30
0.0
 40
1562.5
 50
253.739795291688
 51
286.260204708312
  0
LINE
  5
297
  8
__
  6
CONTINUOUS
 62
     7
 10
-1132.5
 20
217.5000000000001
 30
0.0
 11
-1267.5
 21
217.5000000000001
 31
0.0
  0
LINE
  5
298
  8
__
  6
CONTINUOUS
 62
     7
 10
-1148.947368421052
 20
267.5
 30
0.0
 11
-1251.052631578948
 21
267.5
 31
0.0
  0
ARC
  5
299
  8
__
  6
CONTINUOUS
 62
     7
 10
-1267.5
 20
230.0000000000001
 30
0.0
 40
12.50000000000002
 50
146.6592926535237
 51
270.0
  0
LINE
  5
29A
  8
__
  6
CONTINUOUS
 62
     7
 10
-1277.942713528049
 20
236.8702062684536
 30
0.0
 11
-1261.495345106997
 21
261.8702062684534
 31
0.0
  0
LINE
  5
29B
  8
__
  6
CONTINUOUS
 62
     7
 10
-1132.5
 20
182.5000000000001
 30
0.0
 11
-1267.5
 21
182.5000000000001
 31
0.0
  0
LINE
  5
29C
  8
__
  6
CONTINUOUS
 62
     7
 10
-1148.947368421052
 20
132.5
 30
0.0
 11
-1251.052631578948
 21
132.5
 31
0.0
  0
ARC
  5
29D
  8
__
  6
CONTINUOUS
 62
     7
 10
-1267.5
 20
170.0000000000001
 30
0.0
 40
12.5
 50
90.0
 51
213.3407073464763
  0
LINE
  5
29E
  8
__
  6
CONTINUOUS
 62
     7
 10
-1277.942713528049
 20
163.1297937315467
 30
0.0
 11
-1261.495345106997
 21
138.1297937315466
 31
0.0
  0
ARC
  5
29F
  8
__
  6
CONTINUOUS
 62
     7
 10
-1132.5
 20
230.0000000000001
 30
0.0
 40
12.5
 50
270.0
 51
33.34070734647628
  0
LINE
  5
2A0
  8
__
  6
CONTINUOUS
 62
     7
 10
-1122.057286471951
 20
236.8702062684536
 30
0.0
 11
-1138.504654893003
 21
261.8702062684534
 31
0.0
  0
ARC
  5
2A1
  8
__
  6
CONTINUOUS
 62
     7
 10
-1132.5
 20
170.0000000000001
 30
0.0
 40
12.50000000000002
 50
326.6592926535237
 51
90.0
  0
LINE
  5
2A2
  8
__
  6
CONTINUOUS
 62
     7
 10
-1122.057286471951
 20
163.1297937315467
 30
0.0
 11
-1138.504654893003
 21
138.1297937315466
 31
0.0
  0
ARC
  5
2A3
  8
__
  6
CONTINUOUS
 62
     7
 10
-1251.052631578948
 20
255.0
 30
0.0
 40
12.5
 50
90.0
 51
146.6592926535233
  0
ARC
  5
2A4
  8
__
  6
CONTINUOUS
 62
     7
 10
-1148.947368421052
 20
255.0
 30
0.0
 40
12.50000000000008
 50
33.34070734647671
 51
90.0
  0
ARC
  5
2A5
  8
__
  6
CONTINUOUS
 62
     7
 10
-1148.947368421052
 20
145.0
 30
0.0
 40
12.5
 50
270.0
 51
326.6592926535227
  0
ARC
  5
2A6
  8
__
  6
CONTINUOUS
 62
     7
 10
-1251.052631578948
 20
145.0
 30
0.0
 40
12.50000000000008
 50
213.3407073464767
 51
270.0
  0
LINE
  5
2A7
  8
__
  6
CONTINUOUS
 62
     7
 10
-1278.95643923739
 20
165.0000000000001
 30
0.0
 11
-1282.5
 21
165.0
 31
0.0
  0
LINE
  5
2A8
  8
__
  6
CONTINUOUS
 62
     7
 10
-1282.5
 20
235.0
 30
0.0
 11
-1278.95643923739
 21
235.0
 31
0.0
  0
ARC
  5
2A9
  8
__
  6
CONTINUOUS
 62
     7
 10
-1282.5
 20
200.0
 30
0.0
 40
35.0
 50
90.0
 51
270.0
  0
LINE
  5
2AA
  8
__
  6
CONTINUOUS
 62
     7
 10
-1121.04356076261
 20
165.0000000000001
 30
0.0
 11
-1117.5
 21
165.0
 31
0.0
  0
LINE
  5
2AB
  8
__
  6
CONTINUOUS
 62
     7
 10
-1117.5
 20
235.0
 30
0.0
 11
-1121.04356076261
 21
235.0
 31
0.0
  0
ARC
  5
2AC
  8
__
  6
CONTINUOUS
 62
     7
 10
-1117.5
 20
200.0
 30
0.0
 40
35.0
 50
270.0
 51
90.0
  0
LINE
  5
2AD
  8
__
  6
______-7
 62
     7
 10
-1200.0
 20
-50.0
 30
0.0
 11
-1200.0
 21
450.0
 31
0.0
  0
LINE
  5
2AE
  8
__
  6
CONTINUOUS
 62
     7
 10
-1658.500000290121
 20
-1129.500000285072
 30
0.0
 11
-1658.499999806525
 21
-1115.49999989049
 31
0.0
  0
LINE
  5
2AF
  8
__
  6
CONTINUOUS
 62
     7
 10
-1658.499999806525
 20
-484.5000001095102
 30
0.0
 11
-1658.49999979153
 21
-464.5000006376576
 31
0.0
  0
LINE
  5
2B0
  8
__
  6
CONTINUOUS
 62
     7
 10
-1708.749999999989
 20
-1155.500205466813
 30
0.0
 11
-1708.749999999989
 21
-444.5000001093754
 31
0.0
  0
LINE
  5
2B1
  8
__
  6
CONTINUOUS
 62
     7
 10
-1938.250000000004
 20
-600.2152083475336
 30
0.0
 11
-1938.250000000004
 21
-999.7847916524665
 31
0.0
  0
LINE
  5
2B2
  8
__
  6
CONTINUOUS
 62
     7
 10
-1938.250000000004
 20
-650.4799344569432
 30
0.0
 11
-1908.250000000004
 21
-647.5
 31
0.0
  0
LINE
  5
2B3
  8
__
  6
CONTINUOUS
 62
     7
 10
-1938.250000000004
 20
-949.5200655430568
 30
0.0
 11
-1908.250000000004
 21
-952.5
 31
0.0
  0
LINE
  5
2B4
  8
__
  6
CONTINUOUS
 62
     7
 10
-1908.250000000004
 20
-1030.0
 30
0.0
 11
-1908.250000000004
 21
-570.0
 31
0.0
  0
LINE
  5
2B5
  8
__
  6
______-7
 62
     7
 10
-1200.0
 20
-1200.0
 30
0.0
 11
-1200.0
 21
-400.0
 31
0.0
  0
ARC
  5
2B6
  8
__
  6
CONTINUOUS
 62
     7
 10
-175.9708729761559
 20
-958.503753
 30
0.0
 40
4.999999999999972
 50
180.0179190000007
 51
270.0
  0
ARC
  5
2B7
  8
__
  6
CONTINUOUS
 62
     7
 10
-23.97086497615589
 20
-958.503753
 30
0.0
 40
5.0
 50
270.0
 51
0.0179190000006884
  0
ARC
  5
2B8
  8
__
  6
CONTINUOUS
 62
     7
 10
-24.07000397615582
 20
-641.503753
 30
0.0
 40
4.999999999999972
 50
0.0179190000006982
 51
90.0
  0
LINE
  5
2B9
  8
__
  6
CONTINUOUS
 62
     7
 10
-19.07000497615616
 20
-641.5021889999998
 30
0.0
 11
-18.97086597615578
 21
-958.5021889999998
 31
0.0
  0
ARC
  5
2BA
  8
__
  6
CONTINUOUS
 62
     7
 10
-176.0700119761558
 20
-641.503753
 30
0.0
 40
5.0
 50
90.0
 51
180.0179190000007
  0
LINE
  5
2BB
  8
__
  6
CONTINUOUS
 62
     7
 10
-181.0700119761558
 20
-641.5053170000001
 30
0.0
 11
-180.9708729761559
 21
-958.5053170000001
 31
0.0
  0
ARC
  5
2BC
  8
__
  6
CONTINUOUS
 62
     7
 10
-149.9882289761562
 20
-903.003753
 30
0.0
 40
4.0
 50
90.0
 51
180.0179189999968
  0
LINE
  5
2BD
  8
__
  6
CONTINUOUS
 62
     7
 10
-127.9882279761558
 20
-899.003753
 30
0.0
 11
-149.9882289761562
 21
-899.003753
 31
0.0
  0
ARC
  5
2BE
  8
__
  6
CONTINUOUS
 62
     7
 10
-127.9882279761558
 20
-903.003753
 30
0.0
 40
3.999999999999977
 50
0.0179189999967899
 51
90.0
  0
LINE
  5
2BF
  8
__
  6
CONTINUOUS
 62
     7
 10
-123.9882279761558
 20
-903.0025019999998
 30
0.0
 11
-123.9841619761559
 21
-916.0025019999998
 31
0.0
  0
ARC
  5
2C0
  8
__
  6
CONTINUOUS
 62
     7
 10
-127.9841619761559
 20
-916.003753
 30
0.0
 40
4.0
 50
270.0
 51
0.0179189999967662
  0
LINE
  5
2C1
  8
__
  6
CONTINUOUS
 62
     7
 10
-127.9841619761559
 20
-920.003753
 30
0.0
 11
-149.9841629761562
 21
-920.003753
 31
0.0
  0
ARC
  5
2C2
  8
__
  6
CONTINUOUS
 62
     7
 10
-149.9841629761562
 20
-916.003753
 30
0.0
 40
3.999999999999977
 50
180.0179189999968
 51
270.0
  0
LINE
  5
2C3
  8
__
  6
CONTINUOUS
 62
     7
 10
-153.9882289761562
 20
-903.0050040000001
 30
0.0
 11
-153.9841629761562
 21
-916.0050040000001
 31
0.0
  0
ARC
  5
2C4
  8
__
  6
CONTINUOUS
 62
     7
 10
-148.9880409761562
 20
-903.6037529999999
 30
0.0
 40
2.0
 50
90.0
 51
180.0179190000033
  0
LINE
  5
2C5
  8
__
  6
CONTINUOUS
 62
     7
 10
-128.9880399761558
 20
-901.6037529999999
 30
0.0
 11
-148.9880409761562
 21
-901.6037529999999
 31
0.0
  0
ARC
  5
2C6
  8
__
  6
CONTINUOUS
 62
     7
 10
-128.9880399761558
 20
-903.6037529999999
 30
0.0
 40
1.999999999999989
 50
0.0179190000033037
 51
90.0
  0
LINE
  5
2C7
  8
__
  6
CONTINUOUS
 62
     7
 10
-150.9880409761562
 20
-903.604378
 30
0.0
 11
-150.9851319761559
 21
-912.907029
 31
0.0
  0
LINE
  5
2C8
  8
__
  6
CONTINUOUS
 62
     7
 10
-150.9851319761559
 20
-912.907029
 30
0.0
 11
-146.4860929761561
 21
-917.403753
 31
0.0
  0
LINE
  5
2C9
  8
__
  6
CONTINUOUS
 62
     7
 10
-131.482231976156
 20
-917.403753
 30
0.0
 11
-146.4860929761561
 21
-917.403753
 31
0.0
  0
LINE
  5
2CA
  8
__
  6
CONTINUOUS
 62
     7
 10
-126.9851299761561
 20
-912.9089650000001
 30
0.0
 11
-131.482231976156
 21
-917.403753
 31
0.0
  0
LINE
  5
2CB
  8
__
  6
CONTINUOUS
 62
     7
 10
-126.9880399761558
 20
-903.6031279999997
 30
0.0
 11
-126.9851299761561
 21
-912.9089650000001
 31
0.0
  0
LINE
  5
2CC
  8
__
  6
CONTINUOUS
 62
     7
 10
-145.9869419761561
 20
-906.6037529999999
 30
0.0
 11
-145.9862989761558
 21
-909.1037529999999
 31
0.0
  0
LINE
  5
2CD
  8
__
  6
CONTINUOUS
 62
     7
 10
-131.9869409761558
 20
-906.6037529999999
 30
0.0
 11
-131.9862979761559
 21
-909.1037529999999
 31
0.0
  0
LINE
  5
2CE
  8
__
  6
CONTINUOUS
 62
     7
 10
-138.9862979761559
 20
-909.1037529999999
 30
0.0
 11
-138.9854489761559
 21
-912.403753
 31
0.0
  0
CIRCLE
  5
2CF
  8
__
  6
CONTINUOUS
 62
     7
 10
-158.9862979761559
 20
-909.1088989999998
 30
0.0
 40
3.0
  0
CIRCLE
  5
2D0
  8
__
  6
CONTINUOUS
 62
     7
 10
-118.9862989761558
 20
-909.0986069999999
 30
0.0
 40
3.0
  0
LINE
  5
2D1
  8
__
  6
CONTINUOUS
 62
     7
 10
-118.9862989761558
 20
-907.5986069999999
 30
0.0
 11
-118.9854499761558
 21
-910.8986070000001
 31
0.0
  0
LINE
  5
2D2
  8
__
  6
CONTINUOUS
 62
     7
 10
-120.6358739761562
 20
-909.2490309999998
 30
0.0
 11
-117.335873976156
 21
-909.2481819999998
 31
0.0
  0
LINE
  5
2D3
  8
__
  6
CONTINUOUS
 62
     7
 10
-158.9862979761559
 20
-907.6088989999998
 30
0.0
 11
-158.985447976156
 21
-910.908899
 31
0.0
  0
LINE
  5
2D4
  8
__
  6
CONTINUOUS
 62
     7
 10
-160.6358729761558
 20
-909.2593240000001
 30
0.0
 11
-157.3358729761561
 21
-909.2584750000001
 31
0.0
  0
LINE
  5
2D5
  8
__
  6
CONTINUOUS
 62
     7
 10
-23.97086497615589
 20
-963.503753
 30
0.0
 11
-175.9708729761559
 21
-963.503753
 31
0.0
  0
CIRCLE
  5
2D6
  8
__
  6
CONTINUOUS
 62
     7
 10
-172.9783789761558
 20
-934.503753
 30
0.0
 40
4.0
  0
CIRCLE
  5
2D7
  8
__
  6
CONTINUOUS
 62
     7
 10
-172.9783789761558
 20
-844.503753
 30
0.0
 40
4.0
  0
CIRCLE
  5
2D8
  8
__
  6
CONTINUOUS
 62
     7
 10
-172.9783789761558
 20
-754.503753
 30
0.0
 40
4.0
  0
CIRCLE
  5
2D9
  8
__
  6
CONTINUOUS
 62
     7
 10
-172.9783789761558
 20
-664.503753
 30
0.0
 40
4.0
  0
CIRCLE
  5
2DA
  8
__
  6
CONTINUOUS
 62
     7
 10
-27.16163797615616
 20
-934.503753
 30
0.0
 40
4.0
  0
CIRCLE
  5
2DB
  8
__
  6
CONTINUOUS
 62
     7
 10
-27.16163797615616
 20
-844.503753
 30
0.0
 40
4.0
  0
CIRCLE
  5
2DC
  8
__
  6
CONTINUOUS
 62
     7
 10
-27.16163797615616
 20
-754.503753
 30
0.0
 40
4.0
  0
CIRCLE
  5
2DD
  8
__
  6
CONTINUOUS
 62
     7
 10
-27.16163797615616
 20
-664.503753
 30
0.0
 40
4.0
  0
CIRCLE
  5
2DE
  8
__
  6
CONTINUOUS
 62
     7
 10
-49.97086897615588
 20
-956.503753
 30
0.0
 40
4.0
  0
CIRCLE
  5
2DF
  8
__
  6
CONTINUOUS
 62
     7
 10
-149.9708689761559
 20
-956.503753
 30
0.0
 40
4.0
  0
CIRCLE
  5
2E0
  8
__
  6
CONTINUOUS
 62
     7
 10
-149.9708689761559
 20
-956.503753
 30
0.0
 40
4.0
  0
CIRCLE
  5
2E1
  8
__
  6
CONTINUOUS
 62
     7
 10
-49.97086897615588
 20
-643.500626
 30
0.0
 40
4.0
  0
CIRCLE
  5
2E2
  8
__
  6
CONTINUOUS
 62
     7
 10
-149.9708689761559
 20
-643.500626
 30
0.0
 40
4.0
  0
CIRCLE
  5
2E3
  8
__
  6
CONTINUOUS
 62
     7
 10
-149.9708689761559
 20
-643.500626
 30
0.0
 40
4.0
  0
CIRCLE
  5
2E4
  8
__
  6
CONTINUOUS
 62
     7
 10
-149.566413976156
 20
-653.003753
 30
0.0
 40
1.0
  0
CIRCLE
  5
2E5
  8
__
  6
CONTINUOUS
 62
     7
 10
-140.566413976156
 20
-653.003753
 30
0.0
 40
1.0
  0
CIRCLE
  5
2E6
  8
__
  6
CONTINUOUS
 62
     7
 10
-131.5664129761561
 20
-653.003753
 30
0.0
 40
1.0
  0
CIRCLE
  5
2E7
  8
__
  6
CONTINUOUS
 62
     7
 10
-122.5664129761561
 20
-653.003753
 30
0.0
 40
1.0
  0
CIRCLE
  5
2E8
  8
__
  6
CONTINUOUS
 62
     7
 10
-113.5664119761558
 20
-653.003753
 30
0.0
 40
1.0
  0
CIRCLE
  5
2E9
  8
__
  6
CONTINUOUS
 62
     7
 10
-104.5664119761558
 20
-653.003753
 30
0.0
 40
1.0
  0
CIRCLE
  5
2EA
  8
__
  6
CONTINUOUS
 62
     7
 10
-95.56641097615591
 20
-653.003753
 30
0.0
 40
1.0
  0
CIRCLE
  5
2EB
  8
__
  6
CONTINUOUS
 62
     7
 10
-86.56641097615591
 20
-653.003753
 30
0.0
 40
1.0
  0
CIRCLE
  5
2EC
  8
__
  6
CONTINUOUS
 62
     7
 10
-77.56640997615602
 20
-653.003753
 30
0.0
 40
1.0
  0
CIRCLE
  5
2ED
  8
__
  6
CONTINUOUS
 62
     7
 10
-68.56640997615602
 20
-653.003753
 30
0.0
 40
1.0
  0
CIRCLE
  5
2EE
  8
__
  6
CONTINUOUS
 62
     7
 10
-59.56640997615602
 20
-653.003753
 30
0.0
 40
1.0
  0
CIRCLE
  5
2EF
  8
__
  6
CONTINUOUS
 62
     7
 10
-50.56640897615614
 20
-653.003753
 30
0.0
 40
1.0
  0
CIRCLE
  5
2F0
  8
__
  6
CONTINUOUS
 62
     7
 10
-145.0656319761559
 20
-655.503753
 30
0.0
 40
1.0
  0
CIRCLE
  5
2F1
  8
__
  6
CONTINUOUS
 62
     7
 10
-136.0656309761561
 20
-655.503753
 30
0.0
 40
1.0
  0
CIRCLE
  5
2F2
  8
__
  6
CONTINUOUS
 62
     7
 10
-127.0656309761561
 20
-655.503753
 30
0.0
 40
1.0
  0
CIRCLE
  5
2F3
  8
__
  6
CONTINUOUS
 62
     7
 10
-118.0656309761561
 20
-655.503753
 30
0.0
 40
1.0
  0
CIRCLE
  5
2F4
  8
__
  6
CONTINUOUS
 62
     7
 10
-109.0656299761562
 20
-655.503753
 30
0.0
 40
1.0
  0
CIRCLE
  5
2F5
  8
__
  6
CONTINUOUS
 62
     7
 10
-100.0656299761562
 20
-655.503753
 30
0.0
 40
1.0
  0
CIRCLE
  5
2F6
  8
__
  6
CONTINUOUS
 62
     7
 10
-91.06562897615584
 20
-655.503753
 30
0.0
 40
1.0
  0
CIRCLE
  5
2F7
  8
__
  6
CONTINUOUS
 62
     7
 10
-82.06562897615584
 20
-655.503753
 30
0.0
 40
1.0
  0
CIRCLE
  5
2F8
  8
__
  6
CONTINUOUS
 62
     7
 10
-73.06562797615595
 20
-655.503753
 30
0.0
 40
1.0
  0
CIRCLE
  5
2F9
  8
__
  6
CONTINUOUS
 62
     7
 10
-64.06562797615595
 20
-655.503753
 30
0.0
 40
1.0
  0
CIRCLE
  5
2FA
  8
__
  6
CONTINUOUS
 62
     7
 10
-55.06562697615607
 20
-655.503753
 30
0.0
 40
1.0
  0
CIRCLE
  5
2FB
  8
__
  6
CONTINUOUS
 62
     7
 10
-149.566413976156
 20
-658.003753
 30
0.0
 40
1.0
  0
CIRCLE
  5
2FC
  8
__
  6
CONTINUOUS
 62
     7
 10
-140.566413976156
 20
-658.003753
 30
0.0
 40
1.0
  0
CIRCLE
  5
2FD
  8
__
  6
CONTINUOUS
 62
     7
 10
-131.5664129761561
 20
-658.003753
 30
0.0
 40
1.0
  0
CIRCLE
  5
2FE
  8
__
  6
CONTINUOUS
 62
     7
 10
-122.5664129761561
 20
-658.003753
 30
0.0
 40
1.0
  0
CIRCLE
  5
2FF
  8
__
  6
CONTINUOUS
 62
     7
 10
-113.5664119761558
 20
-658.003753
 30
0.0
 40
1.0
  0
CIRCLE
  5
300
  8
__
  6
CONTINUOUS
 62
     7
 10
-104.5664119761558
 20
-658.003753
 30
0.0
 40
1.0
  0
CIRCLE
  5
301
  8
__
  6
CONTINUOUS
 62
     7
 10
-95.56641097615591
 20
-658.003753
 30
0.0
 40
1.0
  0
CIRCLE
  5
302
  8
__
  6
CONTINUOUS
 62
     7
 10
-86.56641097615591
 20
-658.003753
 30
0.0
 40
1.0
  0
CIRCLE
  5
303
  8
__
  6
CONTINUOUS
 62
     7
 10
-77.56640997615602
 20
-658.003753
 30
0.0
 40
1.0
  0
CIRCLE
  5
304
  8
__
  6
CONTINUOUS
 62
     7
 10
-68.56640997615602
 20
-658.003753
 30
0.0
 40
1.0
  0
CIRCLE
  5
305
  8
__
  6
CONTINUOUS
 62
     7
 10
-59.56640997615602
 20
-658.003753
 30
0.0
 40
1.0
  0
CIRCLE
  5
306
  8
__
  6
CONTINUOUS
 62
     7
 10
-50.56640897615614
 20
-658.003753
 30
0.0
 40
1.0
  0
CIRCLE
  5
307
  8
__
  6
CONTINUOUS
 62
     7
 10
-145.0656319761559
 20
-660.503753
 30
0.0
 40
1.0
  0
CIRCLE
  5
308
  8
__
  6
CONTINUOUS
 62
     7
 10
-136.0656309761561
 20
-660.503753
 30
0.0
 40
1.0
  0
CIRCLE
  5
309
  8
__
  6
CONTINUOUS
 62
     7
 10
-127.0656309761561
 20
-660.503753
 30
0.0
 40
1.0
  0
CIRCLE
  5
30A
  8
__
  6
CONTINUOUS
 62
     7
 10
-118.0656309761561
 20
-660.503753
 30
0.0
 40
1.0
  0
CIRCLE
  5
30B
  8
__
  6
CONTINUOUS
 62
     7
 10
-109.0656299761562
 20
-660.503753
 30
0.0
 40
1.0
  0
CIRCLE
  5
30C
  8
__
  6
CONTINUOUS
 62
     7
 10
-100.0656299761562
 20
-660.503753
 30
0.0
 40
1.0
  0
CIRCLE
  5
30D
  8
__
  6
CONTINUOUS
 62
     7
 10
-91.06562897615584
 20
-660.503753
 30
0.0
 40
1.0
  0
CIRCLE
  5
30E
  8
__
  6
CONTINUOUS
 62
     7
 10
-82.06562897615584
 20
-660.503753
 30
0.0
 40
1.0
  0
CIRCLE
  5
30F
  8
__
  6
CONTINUOUS
 62
     7
 10
-73.06562797615595
 20
-660.503753
 30
0.0
 40
1.0
  0
CIRCLE
  5
310
  8
__
  6
CONTINUOUS
 62
     7
 10
-64.06562797615595
 20
-660.503753
 30
0.0
 40
1.0
  0
CIRCLE
  5
311
  8
__
  6
CONTINUOUS
 62
     7
 10
-55.06562697615607
 20
-660.503753
 30
0.0
 40
1.0
  0
CIRCLE
  5
312
  8
__
  6
CONTINUOUS
 62
     7
 10
-149.566413976156
 20
-947.0068799999999
 30
0.0
 40
1.0
  0
CIRCLE
  5
313
  8
__
  6
CONTINUOUS
 62
     7
 10
-140.566413976156
 20
-947.0068799999999
 30
0.0
 40
1.0
  0
CIRCLE
  5
314
  8
__
  6
CONTINUOUS
 62
     7
 10
-131.5664129761561
 20
-947.0068799999999
 30
0.0
 40
1.0
  0
CIRCLE
  5
315
  8
__
  6
CONTINUOUS
 62
     7
 10
-122.5664129761561
 20
-947.0068799999999
 30
0.0
 40
1.0
  0
CIRCLE
  5
316
  8
__
  6
CONTINUOUS
 62
     7
 10
-113.5664119761558
 20
-947.0068799999999
 30
0.0
 40
1.0
  0
CIRCLE
  5
317
  8
__
  6
CONTINUOUS
 62
     7
 10
-104.5664119761558
 20
-947.0068799999999
 30
0.0
 40
1.0
  0
CIRCLE
  5
318
  8
__
  6
CONTINUOUS
 62
     7
 10
-95.56641097615591
 20
-947.0068799999999
 30
0.0
 40
1.0
  0
CIRCLE
  5
319
  8
__
  6
CONTINUOUS
 62
     7
 10
-86.56641097615591
 20
-947.0068799999999
 30
0.0
 40
1.0
  0
CIRCLE
  5
31A
  8
__
  6
CONTINUOUS
 62
     7
 10
-77.56640997615602
 20
-947.0068799999999
 30
0.0
 40
1.0
  0
CIRCLE
  5
31B
  8
__
  6
CONTINUOUS
 62
     7
 10
-68.56640997615602
 20
-947.0068799999999
 30
0.0
 40
1.0
  0
CIRCLE
  5
31C
  8
__
  6
CONTINUOUS
 62
     7
 10
-59.56640997615602
 20
-947.0068799999999
 30
0.0
 40
1.0
  0
CIRCLE
  5
31D
  8
__
  6
CONTINUOUS
 62
     7
 10
-50.56640897615614
 20
-947.0068799999999
 30
0.0
 40
1.0
  0
CIRCLE
  5
31E
  8
__
  6
CONTINUOUS
 62
     7
 10
-145.0656319761559
 20
-944.5068799999999
 30
0.0
 40
1.0
  0
CIRCLE
  5
31F
  8
__
  6
CONTINUOUS
 62
     7
 10
-136.0656309761561
 20
-944.5068799999999
 30
0.0
 40
1.0
  0
CIRCLE
  5
320
  8
__
  6
CONTINUOUS
 62
     7
 10
-127.0656309761561
 20
-944.5068799999999
 30
0.0
 40
1.0
  0
CIRCLE
  5
321
  8
__
  6
CONTINUOUS
 62
     7
 10
-118.0656309761561
 20
-944.5068799999999
 30
0.0
 40
1.0
  0
CIRCLE
  5
322
  8
__
  6
CONTINUOUS
 62
     7
 10
-109.0656299761562
 20
-944.5068799999999
 30
0.0
 40
1.0
  0
CIRCLE
  5
323
  8
__
  6
CONTINUOUS
 62
     7
 10
-100.0656299761562
 20
-944.5068799999999
 30
0.0
 40
1.0
  0
CIRCLE
  5
324
  8
__
  6
CONTINUOUS
 62
     7
 10
-91.06562897615584
 20
-944.5068799999999
 30
0.0
 40
1.0
  0
CIRCLE
  5
325
  8
__
  6
CONTINUOUS
 62
     7
 10
-82.06562897615584
 20
-944.5068799999999
 30
0.0
 40
1.0
  0
CIRCLE
  5
326
  8
__
  6
CONTINUOUS
 62
     7
 10
-73.06562797615595
 20
-944.5068799999999
 30
0.0
 40
1.0
  0
CIRCLE
  5
327
  8
__
  6
CONTINUOUS
 62
     7
 10
-64.06562797615595
 20
-944.5068799999999
 30
0.0
 40
1.0
  0
CIRCLE
  5
328
  8
__
  6
CONTINUOUS
 62
     7
 10
-55.06562697615607
 20
-944.5068799999999
 30
0.0
 40
1.0
  0
CIRCLE
  5
329
  8
__
  6
CONTINUOUS
 62
     7
 10
-149.566413976156
 20
-942.0068799999999
 30
0.0
 40
1.0
  0
CIRCLE
  5
32A
  8
__
  6
CONTINUOUS
 62
     7
 10
-140.566413976156
 20
-942.0068799999999
 30
0.0
 40
1.0
  0
CIRCLE
  5
32B
  8
__
  6
CONTINUOUS
 62
     7
 10
-131.5664129761561
 20
-942.0068799999999
 30
0.0
 40
1.0
  0
CIRCLE
  5
32C
  8
__
  6
CONTINUOUS
 62
     7
 10
-122.5664129761561
 20
-942.0068799999999
 30
0.0
 40
1.0
  0
CIRCLE
  5
32D
  8
__
  6
CONTINUOUS
 62
     7
 10
-113.5664119761558
 20
-942.0068799999999
 30
0.0
 40
1.0
  0
CIRCLE
  5
32E
  8
__
  6
CONTINUOUS
 62
     7
 10
-104.5664119761558
 20
-942.0068799999999
 30
0.0
 40
1.0
  0
CIRCLE
  5
32F
  8
__
  6
CONTINUOUS
 62
     7
 10
-95.56641097615591
 20
-942.0068799999999
 30
0.0
 40
1.0
  0
CIRCLE
  5
330
  8
__
  6
CONTINUOUS
 62
     7
 10
-86.56641097615591
 20
-942.0068799999999
 30
0.0
 40
1.0
  0
CIRCLE
  5
331
  8
__
  6
CONTINUOUS
 62
     7
 10
-77.56640997615602
 20
-942.0068799999999
 30
0.0
 40
1.0
  0
CIRCLE
  5
332
  8
__
  6
CONTINUOUS
 62
     7
 10
-68.56640997615602
 20
-942.0068799999999
 30
0.0
 40
1.0
  0
CIRCLE
  5
333
  8
__
  6
CONTINUOUS
 62
     7
 10
-59.56640997615602
 20
-942.0068799999999
 30
0.0
 40
1.0
  0
CIRCLE
  5
334
  8
__
  6
CONTINUOUS
 62
     7
 10
-50.56640897615614
 20
-942.0068799999999
 30
0.0
 40
1.0
  0
CIRCLE
  5
335
  8
__
  6
CONTINUOUS
 62
     7
 10
-145.0656319761559
 20
-939.5068799999999
 30
0.0
 40
1.0
  0
CIRCLE
  5
336
  8
__
  6
CONTINUOUS
 62
     7
 10
-136.0656309761561
 20
-939.5068799999999
 30
0.0
 40
1.0
  0
CIRCLE
  5
337
  8
__
  6
CONTINUOUS
 62
     7
 10
-127.0656309761561
 20
-939.5068799999999
 30
0.0
 40
1.0
  0
CIRCLE
  5
338
  8
__
  6
CONTINUOUS
 62
     7
 10
-118.0656309761561
 20
-939.5068799999999
 30
0.0
 40
1.0
  0
CIRCLE
  5
339
  8
__
  6
CONTINUOUS
 62
     7
 10
-109.0656299761562
 20
-939.5068799999999
 30
0.0
 40
1.0
  0
CIRCLE
  5
33A
  8
__
  6
CONTINUOUS
 62
     7
 10
-100.0656299761562
 20
-939.5068799999999
 30
0.0
 40
1.0
  0
CIRCLE
  5
33B
  8
__
  6
CONTINUOUS
 62
     7
 10
-91.06562897615584
 20
-939.5068799999999
 30
0.0
 40
1.0
  0
CIRCLE
  5
33C
  8
__
  6
CONTINUOUS
 62
     7
 10
-82.06562897615584
 20
-939.5068799999999
 30
0.0
 40
1.0
  0
CIRCLE
  5
33D
  8
__
  6
CONTINUOUS
 62
     7
 10
-73.06562797615595
 20
-939.5068799999999
 30
0.0
 40
1.0
  0
CIRCLE
  5
33E
  8
__
  6
CONTINUOUS
 62
     7
 10
-64.06562797615595
 20
-939.5068799999999
 30
0.0
 40
1.0
  0
CIRCLE
  5
33F
  8
__
  6
CONTINUOUS
 62
     7
 10
-55.06562697615607
 20
-939.5068799999999
 30
0.0
 40
1.0
  0
LINE
  5
340
  8
__
  6
CONTINUOUS
 62
     7
 10
-24.07000397615582
 20
-636.503753
 30
0.0
 11
-176.0700119761558
 21
-636.503753
 31
0.0
  0
ARC
  5
341
  8
__
  6
CONTINUOUS
 62
     7
 10
-181.0715759761559
 20
-636.503753
 30
0.0
 40
6.0
 50
90.0
 51
180.0179189999989
  0
LINE
  5
342
  8
__
  6
CONTINUOUS
 62
     7
 10
-19.07156797615596
 20
-630.503753
 30
0.0
 11
-181.0715759761559
 21
-630.503753
 31
0.0
  0
ARC
  5
343
  8
__
  6
CONTINUOUS
 62
     7
 10
-19.07156797615596
 20
-636.503753
 30
0.0
 40
5.999999999999966
 50
0.0179189999989611
 51
90.0
  0
LINE
  5
344
  8
__
  6
CONTINUOUS
 62
     7
 10
-187.0715749761561
 20
-636.5056289999998
 30
0.0
 11
-186.9693089761562
 21
-963.5056289999998
 31
0.0
  0
ARC
  5
345
  8
__
  6
CONTINUOUS
 62
     7
 10
-180.9693089761562
 20
-963.503753
 30
0.0
 40
5.999999999999966
 50
180.017918999999
 51
270.0
  0
LINE
  5
346
  8
__
  6
CONTINUOUS
 62
     7
 10
-18.96930097615621
 20
-969.503753
 30
0.0
 11
-180.9693089761562
 21
-969.503753
 31
0.0
  0
ARC
  5
347
  8
__
  6
CONTINUOUS
 62
     7
 10
-18.96930097615621
 20
-963.503753
 30
0.0
 40
6.0
 50
270.0
 51
0.0179189999989831
  0
LINE
  5
348
  8
__
  6
CONTINUOUS
 62
     7
 10
-13.07156797615596
 20
-636.5018770000001
 30
0.0
 11
-12.96930197615609
 21
-963.5018770000001
 31
0.0
  0
ARC
  5
349
  8
__
  6
CONTINUOUS
 62
     7
 10
-18.96930097615621
 20
-963.503753
 30
0.0
 40
12.0
 50
270.0
 51
0.0179189999989831
  0
LINE
  5
34A
  8
__
  6
CONTINUOUS
 62
     7
 10
-18.96930097615621
 20
-975.503753
 30
0.0
 11
-180.9693089761562
 21
-975.503753
 31
0.0
  0
ARC
  5
34B
  8
__
  6
CONTINUOUS
 62
     7
 10
-180.9693089761562
 20
-963.503753
 30
0.0
 40
11.99999999999993
 50
180.017918999999
 51
270.0
  0
LINE
  5
34C
  8
__
  6
CONTINUOUS
 62
     7
 10
-193.0715749761561
 20
-636.5075059999999
 30
0.0
 11
-192.9693089761562
 21
-963.5075059999999
 31
0.0
  0
ARC
  5
34D
  8
__
  6
CONTINUOUS
 62
     7
 10
-181.0715759761559
 20
-636.503753
 30
0.0
 40
12.0
 50
90.0
 51
180.0179189999989
  0
LINE
  5
34E
  8
__
  6
CONTINUOUS
 62
     7
 10
-19.07156797615596
 20
-624.503753
 30
0.0
 11
-181.0715759761559
 21
-624.503753
 31
0.0
  0
ARC
  5
34F
  8
__
  6
CONTINUOUS
 62
     7
 10
-19.07156797615596
 20
-636.503753
 30
0.0
 40
11.99999999999993
 50
0.0179189999989611
 51
90.0
  0
LINE
  5
350
  8
__
  6
CONTINUOUS
 62
     7
 10
-7.071567976155961
 20
-636.5
 30
0.0
 11
-6.969301976156089
 21
-963.5
 31
0.0
  0
ARC
  5
351
  8
__
  6
CONTINUOUS
 62
     7
 10
-172.9783789761558
 20
-662.8059886198217
 30
0.0
 40
0.222235619821771
 50
356.8251528744042
 51
183.1748471255959
  0
ARC
  5
352
  8
__
  6
CONTINUOUS
 62
     7
 10
-174.0135628920344
 20
-662.7107618624196
 30
0.0
 40
0.8203678318443084
 50
247.5320803524656
 51
352.4679196225455
  0
ARC
  5
353
  8
__
  6
CONTINUOUS
 62
     7
 10
-174.4486860590304
 20
-663.6548708099109
 30
0.0
 40
0.222235619821818
 50
56.82515287442732
 51
243.1748471255292
  0
ARC
  5
354
  8
__
  6
CONTINUOUS
 62
     7
 10
-175.0487468079999
 20
-664.5037529999497
 30
0.0
 40
0.8203678318442621
 50
307.5320803524617
 51
52.46791962255705
  0
ARC
  5
355
  8
__
  6
CONTINUOUS
 62
     7
 10
-172.9783789761558
 20
-666.2015173801782
 30
0.0
 40
0.222235619821771
 50
176.8251528744042
 51
3.174847125595846
  0
ARC
  5
356
  8
__
  6
CONTINUOUS
 62
     7
 10
-174.0135628920344
 20
-666.2967441375803
 30
0.0
 40
0.8203678318442955
 50
7.532080377454527
 51
112.4679196475343
  0
ARC
  5
357
  8
__
  6
CONTINUOUS
 62
     7
 10
-174.4486860590304
 20
-665.352635190089
 30
0.0
 40
0.2222356198218735
 50
116.8251528744708
 51
303.1748471255727
  0
ARC
  5
358
  8
__
  6
CONTINUOUS
 62
     7
 10
-171.9431950602774
 20
-662.7107618624196
 30
0.0
 40
0.8203678318440701
 50
187.5320803774566
 51
292.4679196475344
  0
ARC
  5
359
  8
__
  6
CONTINUOUS
 62
     7
 10
-171.5080718932812
 20
-663.6548708099109
 30
0.0
 40
0.2222356198217709
 50
296.8251528744185
 51
123.1748471255727
  0
ARC
  5
35A
  8
__
  6
CONTINUOUS
 62
     7
 10
-170.9080111443117
 20
-664.5037529999497
 30
0.0
 40
0.8203678318442142
 50
127.5320803774555
 51
232.4679196475383
  0
ARC
  5
35B
  8
__
  6
CONTINUOUS
 62
     7
 10
-171.9431950602774
 20
-666.2967441375803
 30
0.0
 40
0.8203678318443084
 50
67.53208035246568
 51
172.4679196225434
  0
ARC
  5
35C
  8
__
  6
CONTINUOUS
 62
     7
 10
-171.5080718932812
 20
-665.352635190089
 30
0.0
 40
0.222235619821818
 50
236.8251528744273
 51
63.17484712558153
  0
ARC
  5
35D
  8
__
  6
CONTINUOUS
 62
     7
 10
-149.9708689761559
 20
-641.8028616198218
 30
0.0
 40
0.222235619821771
 50
356.8251528744042
 51
183.1748471255959
  0
ARC
  5
35E
  8
__
  6
CONTINUOUS
 62
     7
 10
-151.0060528920345
 20
-641.7076348624197
 30
0.0
 40
0.8203678318443084
 50
247.5320803524656
 51
352.4679196225455
  0
ARC
  5
35F
  8
__
  6
CONTINUOUS
 62
     7
 10
-151.4411760590305
 20
-642.651743809911
 30
0.0
 40
0.222235619821818
 50
56.82515287442732
 51
243.1748471255292
  0
ARC
  5
360
  8
__
  6
CONTINUOUS
 62
     7
 10
-152.041236808
 20
-643.5006259999498
 30
0.0
 40
0.8203678318442621
 50
307.5320803524617
 51
52.46791962255705
  0
ARC
  5
361
  8
__
  6
CONTINUOUS
 62
     7
 10
-149.9708689761559
 20
-645.1983903801782
 30
0.0
 40
0.222235619821771
 50
176.8251528744042
 51
3.174847125595846
  0
ARC
  5
362
  8
__
  6
CONTINUOUS
 62
     7
 10
-151.0060528920345
 20
-645.2936171375803
 30
0.0
 40
0.8203678318442955
 50
7.532080377454527
 51
112.4679196475343
  0
ARC
  5
363
  8
__
  6
CONTINUOUS
 62
     7
 10
-151.4411760590305
 20
-644.3495081900891
 30
0.0
 40
0.2222356198218735
 50
116.8251528744708
 51
303.1748471255727
  0
ARC
  5
364
  8
__
  6
CONTINUOUS
 62
     7
 10
-148.9356850602775
 20
-641.7076348624197
 30
0.0
 40
0.8203678318440701
 50
187.5320803774566
 51
292.4679196475344
  0
ARC
  5
365
  8
__
  6
CONTINUOUS
 62
     7
 10
-148.5005618932813
 20
-642.651743809911
 30
0.0
 40
0.2222356198217709
 50
296.8251528744185
 51
123.1748471255727
  0
ARC
  5
366
  8
__
  6
CONTINUOUS
 62
     7
 10
-147.9005011443118
 20
-643.5006259999498
 30
0.0
 40
0.8203678318442142
 50
127.5320803774555
 51
232.4679196475383
  0
ARC
  5
367
  8
__
  6
CONTINUOUS
 62
     7
 10
-148.9356850602775
 20
-645.2936171375803
 30
0.0
 40
0.8203678318443084
 50
67.53208035246568
 51
172.4679196225434
  0
ARC
  5
368
  8
__
  6
CONTINUOUS
 62
     7
 10
-148.5005618932813
 20
-644.3495081900891
 30
0.0
 40
0.222235619821818
 50
236.8251528744273
 51
63.17484712558153
  0
ARC
  5
369
  8
__
  6
CONTINUOUS
 62
     7
 10
-49.97086897615588
 20
-641.8028616198218
 30
0.0
 40
0.222235619821771
 50
356.8251528744042
 51
183.1748471255959
  0
ARC
  5
36A
  8
__
  6
CONTINUOUS
 62
     7
 10
-51.00605289203452
 20
-641.7076348624197
 30
0.0
 40
0.8203678318443084
 50
247.5320803524656
 51
352.4679196225455
  0
ARC
  5
36B
  8
__
  6
CONTINUOUS
 62
     7
 10
-51.44117605903045
 20
-642.651743809911
 30
0.0
 40
0.222235619821818
 50
56.82515287442732
 51
243.1748471255292
  0
ARC
  5
36C
  8
__
  6
CONTINUOUS
 62
     7
 10
-52.04123680800001
 20
-643.5006259999498
 30
0.0
 40
0.8203678318442621
 50
307.5320803524617
 51
52.46791962255705
  0
ARC
  5
36D
  8
__
  6
CONTINUOUS
 62
     7
 10
-49.97086897615588
 20
-645.1983903801782
 30
0.0
 40
0.222235619821771
 50
176.8251528744042
 51
3.174847125595846
  0
ARC
  5
36E
  8
__
  6
CONTINUOUS
 62
     7
 10
-51.00605289203452
 20
-645.2936171375803
 30
0.0
 40
0.8203678318442955
 50
7.532080377454527
 51
112.4679196475343
  0
ARC
  5
36F
  8
__
  6
CONTINUOUS
 62
     7
 10
-51.44117605903045
 20
-644.3495081900891
 30
0.0
 40
0.2222356198218735
 50
116.8251528744708
 51
303.1748471255727
  0
ARC
  5
370
  8
__
  6
CONTINUOUS
 62
     7
 10
-48.93568506027748
 20
-641.7076348624197
 30
0.0
 40
0.8203678318440701
 50
187.5320803774566
 51
292.4679196475344
  0
ARC
  5
371
  8
__
  6
CONTINUOUS
 62
     7
 10
-48.50056189328131
 20
-642.651743809911
 30
0.0
 40
0.2222356198217709
 50
296.8251528744185
 51
123.1748471255727
  0
ARC
  5
372
  8
__
  6
CONTINUOUS
 62
     7
 10
-47.90050114431176
 20
-643.5006259999498
 30
0.0
 40
0.8203678318442142
 50
127.5320803774555
 51
232.4679196475383
  0
ARC
  5
373
  8
__
  6
CONTINUOUS
 62
     7
 10
-48.93568506027748
 20
-645.2936171375803
 30
0.0
 40
0.8203678318443084
 50
67.53208035246568
 51
172.4679196225434
  0
ARC
  5
374
  8
__
  6
CONTINUOUS
 62
     7
 10
-48.50056189328131
 20
-644.3495081900891
 30
0.0
 40
0.222235619821818
 50
236.8251528744273
 51
63.17484712558153
  0
ARC
  5
375
  8
__
  6
CONTINUOUS
 62
     7
 10
-27.16163797615616
 20
-662.8059886198217
 30
0.0
 40
0.222235619821771
 50
356.8251528744042
 51
183.1748471255959
  0
ARC
  5
376
  8
__
  6
CONTINUOUS
 62
     7
 10
-28.19682189203479
 20
-662.7107618624196
 30
0.0
 40
0.8203678318443084
 50
247.5320803524656
 51
352.4679196225455
  0
ARC
  5
377
  8
__
  6
CONTINUOUS
 62
     7
 10
-28.63194505903073
 20
-663.6548708099109
 30
0.0
 40
0.222235619821818
 50
56.82515287442732
 51
243.1748471255292
  0
ARC
  5
378
  8
__
  6
CONTINUOUS
 62
     7
 10
-29.23200580800028
 20
-664.5037529999497
 30
0.0
 40
0.8203678318442621
 50
307.5320803524617
 51
52.46791962255705
  0
ARC
  5
379
  8
__
  6
CONTINUOUS
 62
     7
 10
-27.16163797615616
 20
-666.2015173801782
 30
0.0
 40
0.222235619821771
 50
176.8251528744042
 51
3.174847125595846
  0
ARC
  5
37A
  8
__
  6
CONTINUOUS
 62
     7
 10
-28.19682189203479
 20
-666.2967441375803
 30
0.0
 40
0.8203678318442955
 50
7.532080377454527
 51
112.4679196475343
  0
ARC
  5
37B
  8
__
  6
CONTINUOUS
 62
     7
 10
-28.63194505903073
 20
-665.352635190089
 30
0.0
 40
0.2222356198218735
 50
116.8251528744708
 51
303.1748471255727
  0
ARC
  5
37C
  8
__
  6
CONTINUOUS
 62
     7
 10
-26.12645406027775
 20
-662.7107618624196
 30
0.0
 40
0.8203678318440701
 50
187.5320803774566
 51
292.4679196475344
  0
ARC
  5
37D
  8
__
  6
CONTINUOUS
 62
     7
 10
-25.69133089328159
 20
-663.6548708099109
 30
0.0
 40
0.2222356198217709
 50
296.8251528744185
 51
123.1748471255727
  0
ARC
  5
37E
  8
__
  6
CONTINUOUS
 62
     7
 10
-25.09127014431203
 20
-664.5037529999497
 30
0.0
 40
0.8203678318442142
 50
127.5320803774555
 51
232.4679196475383
  0
ARC
  5
37F
  8
__
  6
CONTINUOUS
 62
     7
 10
-26.12645406027775
 20
-666.2967441375803
 30
0.0
 40
0.8203678318443084
 50
67.53208035246568
 51
172.4679196225434
  0
ARC
  5
380
  8
__
  6
CONTINUOUS
 62
     7
 10
-25.69133089328159
 20
-665.352635190089
 30
0.0
 40
0.222235619821818
 50
236.8251528744273
 51
63.17484712558153
  0
ARC
  5
381
  8
__
  6
CONTINUOUS
 62
     7
 10
-27.16163797615616
 20
-752.8059886198217
 30
0.0
 40
0.222235619821771
 50
356.8251528744042
 51
183.1748471255959
  0
ARC
  5
382
  8
__
  6
CONTINUOUS
 62
     7
 10
-28.19682189203479
 20
-752.7107618624196
 30
0.0
 40
0.8203678318443084
 50
247.5320803524656
 51
352.4679196225455
  0
ARC
  5
383
  8
__
  6
CONTINUOUS
 62
     7
 10
-28.63194505903073
 20
-753.6548708099109
 30
0.0
 40
0.222235619821818
 50
56.82515287442732
 51
243.1748471255292
  0
ARC
  5
384
  8
__
  6
CONTINUOUS
 62
     7
 10
-29.23200580800028
 20
-754.5037529999497
 30
0.0
 40
0.8203678318442621
 50
307.5320803524617
 51
52.46791962255705
  0
ARC
  5
385
  8
__
  6
CONTINUOUS
 62
     7
 10
-27.16163797615616
 20
-756.2015173801782
 30
0.0
 40
0.222235619821771
 50
176.8251528744042
 51
3.174847125595846
  0
ARC
  5
386
  8
__
  6
CONTINUOUS
 62
     7
 10
-28.19682189203479
 20
-756.2967441375803
 30
0.0
 40
0.8203678318442955
 50
7.532080377454527
 51
112.4679196475343
  0
ARC
  5
387
  8
__
  6
CONTINUOUS
 62
     7
 10
-28.63194505903073
 20
-755.352635190089
 30
0.0
 40
0.2222356198218735
 50
116.8251528744708
 51
303.1748471255727
  0
ARC
  5
388
  8
__
  6
CONTINUOUS
 62
     7
 10
-26.12645406027775
 20
-752.7107618624196
 30
0.0
 40
0.8203678318440701
 50
187.5320803774566
 51
292.4679196475344
  0
ARC
  5
389
  8
__
  6
CONTINUOUS
 62
     7
 10
-25.69133089328159
 20
-753.6548708099109
 30
0.0
 40
0.2222356198217709
 50
296.8251528744185
 51
123.1748471255727
  0
ARC
  5
38A
  8
__
  6
CONTINUOUS
 62
     7
 10
-25.09127014431203
 20
-754.5037529999497
 30
0.0
 40
0.8203678318442142
 50
127.5320803774555
 51
232.4679196475383
  0
ARC
  5
38B
  8
__
  6
CONTINUOUS
 62
     7
 10
-26.12645406027775
 20
-756.2967441375803
 30
0.0
 40
0.8203678318443084
 50
67.53208035246568
 51
172.4679196225434
  0
ARC
  5
38C
  8
__
  6
CONTINUOUS
 62
     7
 10
-25.69133089328159
 20
-755.352635190089
 30
0.0
 40
0.222235619821818
 50
236.8251528744273
 51
63.17484712558153
  0
ARC
  5
38D
  8
__
  6
CONTINUOUS
 62
     7
 10
-27.16163797615616
 20
-842.8059886198217
 30
0.0
 40
0.222235619821771
 50
356.8251528744042
 51
183.1748471255959
  0
ARC
  5
38E
  8
__
  6
CONTINUOUS
 62
     7
 10
-28.19682189203479
 20
-842.7107618624196
 30
0.0
 40
0.8203678318443084
 50
247.5320803524656
 51
352.4679196225455
  0
ARC
  5
38F
  8
__
  6
CONTINUOUS
 62
     7
 10
-28.63194505903073
 20
-843.6548708099109
 30
0.0
 40
0.222235619821818
 50
56.82515287442732
 51
243.1748471255292
  0
ARC
  5
390
  8
__
  6
CONTINUOUS
 62
     7
 10
-29.23200580800028
 20
-844.5037529999497
 30
0.0
 40
0.8203678318442621
 50
307.5320803524617
 51
52.46791962255705
  0
ARC
  5
391
  8
__
  6
CONTINUOUS
 62
     7
 10
-27.16163797615616
 20
-846.2015173801782
 30
0.0
 40
0.222235619821771
 50
176.8251528744042
 51
3.174847125595846
  0
ARC
  5
392
  8
__
  6
CONTINUOUS
 62
     7
 10
-28.19682189203479
 20
-846.2967441375803
 30
0.0
 40
0.8203678318442955
 50
7.532080377454527
 51
112.4679196475343
  0
ARC
  5
393
  8
__
  6
CONTINUOUS
 62
     7
 10
-28.63194505903073
 20
-845.352635190089
 30
0.0
 40
0.2222356198218735
 50
116.8251528744708
 51
303.1748471255727
  0
ARC
  5
394
  8
__
  6
CONTINUOUS
 62
     7
 10
-26.12645406027775
 20
-842.7107618624196
 30
0.0
 40
0.8203678318440701
 50
187.5320803774566
 51
292.4679196475344
  0
ARC
  5
395
  8
__
  6
CONTINUOUS
 62
     7
 10
-25.69133089328159
 20
-843.6548708099109
 30
0.0
 40
0.2222356198217709
 50
296.8251528744185
 51
123.1748471255727
  0
ARC
  5
396
  8
__
  6
CONTINUOUS
 62
     7
 10
-25.09127014431203
 20
-844.5037529999497
 30
0.0
 40
0.8203678318442142
 50
127.5320803774555
 51
232.4679196475383
  0
ARC
  5
397
  8
__
  6
CONTINUOUS
 62
     7
 10
-26.12645406027775
 20
-846.2967441375803
 30
0.0
 40
0.8203678318443084
 50
67.53208035246568
 51
172.4679196225434
  0
ARC
  5
398
  8
__
  6
CONTINUOUS
 62
     7
 10
-25.69133089328159
 20
-845.352635190089
 30
0.0
 40
0.222235619821818
 50
236.8251528744273
 51
63.17484712558153
  0
ARC
  5
399
  8
__
  6
CONTINUOUS
 62
     7
 10
-27.16163797615616
 20
-932.8059886198218
 30
0.0
 40
0.2222356198217647
 50
356.8251528744334
 51
183.1748471255666
  0
ARC
  5
39A
  8
__
  6
CONTINUOUS
 62
     7
 10
-28.19682189203479
 20
-932.7107618624198
 30
0.0
 40
0.8203678318440982
 50
247.5320803524596
 51
352.4679196225533
  0
ARC
  5
39B
  8
__
  6
CONTINUOUS
 62
     7
 10
-28.63194505903073
 20
-933.654870809911
 30
0.0
 40
0.2222356198220083
 50
56.8251528744594
 51
243.1748471255292
  0
ARC
  5
39C
  8
__
  6
CONTINUOUS
 62
     7
 10
-29.23200580800028
 20
-934.5037529999497
 30
0.0
 40
0.8203678318443522
 50
307.5320803524568
 51
52.46791962255222
  0
ARC
  5
39D
  8
__
  6
CONTINUOUS
 62
     7
 10
-27.16163797615616
 20
-936.2015173801781
 30
0.0
 40
0.2222356198217647
 50
176.8251528744334
 51
3.174847125566601
  0
ARC
  5
39E
  8
__
  6
CONTINUOUS
 62
     7
 10
-28.19682189203479
 20
-936.2967441375802
 30
0.0
 40
0.8203678318442806
 50
7.532080377446654
 51
112.4679196475404
  0
ARC
  5
39F
  8
__
  6
CONTINUOUS
 62
     7
 10
-28.63194505903073
 20
-935.3526351900889
 30
0.0
 40
0.2222356198218735
 50
116.8251528744708
 51
303.1748471255407
  0
ARC
  5
3A0
  8
__
  6
CONTINUOUS
 62
     7
 10
-26.12645406027775
 20
-932.7107618624198
 30
0.0
 40
0.8203678318440553
 50
187.5320803774487
 51
292.4679196475404
  0
ARC
  5
3A1
  8
__
  6
CONTINUOUS
 62
     7
 10
-25.69133089328159
 20
-933.654870809911
 30
0.0
 40
0.2222356198217709
 50
296.8251528744185
 51
123.1748471255406
  0
ARC
  5
3A2
  8
__
  6
CONTINUOUS
 62
     7
 10
-25.09127014431203
 20
-934.5037529999497
 30
0.0
 40
0.8203678318441241
 50
127.5320803774604
 51
232.4679196475432
  0
ARC
  5
3A3
  8
__
  6
CONTINUOUS
 62
     7
 10
-26.12645406027775
 20
-936.2967441375802
 30
0.0
 40
0.8203678318440982
 50
67.5320803524596
 51
172.4679196225513
  0
ARC
  5
3A4
  8
__
  6
CONTINUOUS
 62
     7
 10
-25.69133089328159
 20
-935.3526351900889
 30
0.0
 40
0.2222356198220083
 50
236.8251528744594
 51
63.17484712558153
  0
ARC
  5
3A5
  8
__
  6
CONTINUOUS
 62
     7
 10
-49.97086897615588
 20
-954.8059886198218
 30
0.0
 40
0.2222356198217647
 50
356.8251528744334
 51
183.1748471255666
  0
ARC
  5
3A6
  8
__
  6
CONTINUOUS
 62
     7
 10
-51.00605289203452
 20
-954.7107618624198
 30
0.0
 40
0.8203678318440982
 50
247.5320803524596
 51
352.4679196225533
  0
ARC
  5
3A7
  8
__
  6
CONTINUOUS
 62
     7
 10
-51.44117605903045
 20
-955.654870809911
 30
0.0
 40
0.2222356198220083
 50
56.8251528744594
 51
243.1748471255292
  0
ARC
  5
3A8
  8
__
  6
CONTINUOUS
 62
     7
 10
-52.04123680800001
 20
-956.5037529999497
 30
0.0
 40
0.8203678318443522
 50
307.5320803524568
 51
52.46791962255222
  0
ARC
  5
3A9
  8
__
  6
CONTINUOUS
 62
     7
 10
-49.97086897615588
 20
-958.2015173801781
 30
0.0
 40
0.2222356198217647
 50
176.8251528744334
 51
3.174847125566601
  0
ARC
  5
3AA
  8
__
  6
CONTINUOUS
 62
     7
 10
-51.00605289203452
 20
-958.2967441375802
 30
0.0
 40
0.8203678318442806
 50
7.532080377446654
 51
112.4679196475404
  0
ARC
  5
3AB
  8
__
  6
CONTINUOUS
 62
     7
 10
-51.44117605903045
 20
-957.3526351900889
 30
0.0
 40
0.2222356198218735
 50
116.8251528744708
 51
303.1748471255407
  0
ARC
  5
3AC
  8
__
  6
CONTINUOUS
 62
     7
 10
-48.93568506027748
 20
-954.7107618624198
 30
0.0
 40
0.8203678318440553
 50
187.5320803774487
 51
292.4679196475404
  0
ARC
  5
3AD
  8
__
  6
CONTINUOUS
 62
     7
 10
-48.50056189328131
 20
-955.654870809911
 30
0.0
 40
0.2222356198217709
 50
296.8251528744185
 51
123.1748471255406
  0
ARC
  5
3AE
  8
__
  6
CONTINUOUS
 62
     7
 10
-47.90050114431176
 20
-956.5037529999497
 30
0.0
 40
0.8203678318441241
 50
127.5320803774604
 51
232.4679196475432
  0
ARC
  5
3AF
  8
__
  6
CONTINUOUS
 62
     7
 10
-48.93568506027748
 20
-958.2967441375802
 30
0.0
 40
0.8203678318440982
 50
67.5320803524596
 51
172.4679196225513
  0
ARC
  5
3B0
  8
__
  6
CONTINUOUS
 62
     7
 10
-48.50056189328131
 20
-957.3526351900889
 30
0.0
 40
0.2222356198220083
 50
236.8251528744594
 51
63.17484712558153
  0
ARC
  5
3B1
  8
__
  6
CONTINUOUS
 62
     7
 10
-149.9708689761559
 20
-954.8059886198218
 30
0.0
 40
0.2222356198217647
 50
356.8251528744334
 51
183.1748471255666
  0
ARC
  5
3B2
  8
__
  6
CONTINUOUS
 62
     7
 10
-151.0060528920345
 20
-954.7107618624198
 30
0.0
 40
0.8203678318440982
 50
247.5320803524596
 51
352.4679196225533
  0
ARC
  5
3B3
  8
__
  6
CONTINUOUS
 62
     7
 10
-151.4411760590305
 20
-955.654870809911
 30
0.0
 40
0.2222356198220083
 50
56.8251528744594
 51
243.1748471255292
  0
ARC
  5
3B4
  8
__
  6
CONTINUOUS
 62
     7
 10
-152.041236808
 20
-956.5037529999497
 30
0.0
 40
0.8203678318443522
 50
307.5320803524568
 51
52.46791962255222
  0
ARC
  5
3B5
  8
__
  6
CONTINUOUS
 62
     7
 10
-149.9708689761559
 20
-958.2015173801781
 30
0.0
 40
0.2222356198217647
 50
176.8251528744334
 51
3.174847125566601
  0
ARC
  5
3B6
  8
__
  6
CONTINUOUS
 62
     7
 10
-151.0060528920345
 20
-958.2967441375802
 30
0.0
 40
0.8203678318442806
 50
7.532080377446654
 51
112.4679196475404
  0
ARC
  5
3B7
  8
__
  6
CONTINUOUS
 62
     7
 10
-151.4411760590305
 20
-957.3526351900889
 30
0.0
 40
0.2222356198218735
 50
116.8251528744708
 51
303.1748471255407
  0
ARC
  5
3B8
  8
__
  6
CONTINUOUS
 62
     7
 10
-148.9356850602775
 20
-954.7107618624198
 30
0.0
 40
0.8203678318440553
 50
187.5320803774487
 51
292.4679196475404
  0
ARC
  5
3B9
  8
__
  6
CONTINUOUS
 62
     7
 10
-148.5005618932813
 20
-955.654870809911
 30
0.0
 40
0.2222356198217709
 50
296.8251528744185
 51
123.1748471255406
  0
ARC
  5
3BA
  8
__
  6
CONTINUOUS
 62
     7
 10
-147.9005011443118
 20
-956.5037529999497
 30
0.0
 40
0.8203678318441241
 50
127.5320803774604
 51
232.4679196475432
  0
ARC
  5
3BB
  8
__
  6
CONTINUOUS
 62
     7
 10
-148.9356850602775
 20
-958.2967441375802
 30
0.0
 40
0.8203678318440982
 50
67.5320803524596
 51
172.4679196225513
  0
ARC
  5
3BC
  8
__
  6
CONTINUOUS
 62
     7
 10
-148.5005618932813
 20
-957.3526351900889
 30
0.0
 40
0.2222356198220083
 50
236.8251528744594
 51
63.17484712558153
  0
ARC
  5
3BD
  8
__
  6
CONTINUOUS
 62
     7
 10
-172.9783789761558
 20
-932.8059886198218
 30
0.0
 40
0.2222356198217647
 50
356.8251528744334
 51
183.1748471255666
  0
ARC
  5
3BE
  8
__
  6
CONTINUOUS
 62
     7
 10
-174.0135628920344
 20
-932.7107618624198
 30
0.0
 40
0.8203678318440982
 50
247.5320803524596
 51
352.4679196225533
  0
ARC
  5
3BF
  8
__
  6
CONTINUOUS
 62
     7
 10
-174.4486860590304
 20
-933.654870809911
 30
0.0
 40
0.2222356198220083
 50
56.8251528744594
 51
243.1748471255292
  0
ARC
  5
3C0
  8
__
  6
CONTINUOUS
 62
     7
 10
-175.0487468079999
 20
-934.5037529999497
 30
0.0
 40
0.8203678318443522
 50
307.5320803524568
 51
52.46791962255222
  0
ARC
  5
3C1
  8
__
  6
CONTINUOUS
 62
     7
 10
-172.9783789761558
 20
-936.2015173801781
 30
0.0
 40
0.2222356198217647
 50
176.8251528744334
 51
3.174847125566601
  0
ARC
  5
3C2
  8
__
  6
CONTINUOUS
 62
     7
 10
-174.0135628920344
 20
-936.2967441375802
 30
0.0
 40
0.8203678318442806
 50
7.532080377446654
 51
112.4679196475404
  0
ARC
  5
3C3
  8
__
  6
CONTINUOUS
 62
     7
 10
-174.4486860590304
 20
-935.3526351900889
 30
0.0
 40
0.2222356198218735
 50
116.8251528744708
 51
303.1748471255407
  0
ARC
  5
3C4
  8
__
  6
CONTINUOUS
 62
     7
 10
-171.9431950602774
 20
-932.7107618624198
 30
0.0
 40
0.8203678318440553
 50
187.5320803774487
 51
292.4679196475404
  0
ARC
  5
3C5
  8
__
  6
CONTINUOUS
 62
     7
 10
-171.5080718932812
 20
-933.654870809911
 30
0.0
 40
0.2222356198217709
 50
296.8251528744185
 51
123.1748471255406
  0
ARC
  5
3C6
  8
__
  6
CONTINUOUS
 62
     7
 10
-170.9080111443117
 20
-934.5037529999497
 30
0.0
 40
0.8203678318441241
 50
127.5320803774604
 51
232.4679196475432
  0
ARC
  5
3C7
  8
__
  6
CONTINUOUS
 62
     7
 10
-171.9431950602774
 20
-936.2967441375802
 30
0.0
 40
0.8203678318440982
 50
67.5320803524596
 51
172.4679196225513
  0
ARC
  5
3C8
  8
__
  6
CONTINUOUS
 62
     7
 10
-171.5080718932812
 20
-935.3526351900889
 30
0.0
 40
0.2222356198220083
 50
236.8251528744594
 51
63.17484712558153
  0
ARC
  5
3C9
  8
__
  6
CONTINUOUS
 62
     7
 10
-172.9783789761558
 20
-842.8059886198217
 30
0.0
 40
0.222235619821771
 50
356.8251528744042
 51
183.1748471255959
  0
ARC
  5
3CA
  8
__
  6
CONTINUOUS
 62
     7
 10
-174.0135628920344
 20
-842.7107618624196
 30
0.0
 40
0.8203678318443084
 50
247.5320803524656
 51
352.4679196225455
  0
ARC
  5
3CB
  8
__
  6
CONTINUOUS
 62
     7
 10
-174.4486860590304
 20
-843.6548708099109
 30
0.0
 40
0.222235619821818
 50
56.82515287442732
 51
243.1748471255292
  0
ARC
  5
3CC
  8
__
  6
CONTINUOUS
 62
     7
 10
-175.0487468079999
 20
-844.5037529999497
 30
0.0
 40
0.8203678318442621
 50
307.5320803524617
 51
52.46791962255705
  0
ARC
  5
3CD
  8
__
  6
CONTINUOUS
 62
     7
 10
-172.9783789761558
 20
-846.2015173801782
 30
0.0
 40
0.222235619821771
 50
176.8251528744042
 51
3.174847125595846
  0
ARC
  5
3CE
  8
__
  6
CONTINUOUS
 62
     7
 10
-174.0135628920344
 20
-846.2967441375803
 30
0.0
 40
0.8203678318442955
 50
7.532080377454527
 51
112.4679196475343
  0
ARC
  5
3CF
  8
__
  6
CONTINUOUS
 62
     7
 10
-174.4486860590304
 20
-845.352635190089
 30
0.0
 40
0.2222356198218735
 50
116.8251528744708
 51
303.1748471255727
  0
ARC
  5
3D0
  8
__
  6
CONTINUOUS
 62
     7
 10
-171.9431950602774
 20
-842.7107618624196
 30
0.0
 40
0.8203678318440701
 50
187.5320803774566
 51
292.4679196475344
  0
ARC
  5
3D1
  8
__
  6
CONTINUOUS
 62
     7
 10
-171.5080718932812
 20
-843.6548708099109
 30
0.0
 40
0.2222356198217709
 50
296.8251528744185
 51
123.1748471255727
  0
ARC
  5
3D2
  8
__
  6
CONTINUOUS
 62
     7
 10
-170.9080111443117
 20
-844.5037529999497
 30
0.0
 40
0.8203678318442142
 50
127.5320803774555
 51
232.4679196475383
  0
ARC
  5
3D3
  8
__
  6
CONTINUOUS
 62
     7
 10
-171.9431950602774
 20
-846.2967441375803
 30
0.0
 40
0.8203678318443084
 50
67.53208035246568
 51
172.4679196225434
  0
ARC
  5
3D4
  8
__
  6
CONTINUOUS
 62
     7
 10
-171.5080718932812
 20
-845.352635190089
 30
0.0
 40
0.222235619821818
 50
236.8251528744273
 51
63.17484712558153
  0
ARC
  5
3D5
  8
__
  6
CONTINUOUS
 62
     7
 10
-172.9783789761558
 20
-752.8059886198217
 30
0.0
 40
0.222235619821771
 50
356.8251528744042
 51
183.1748471255959
  0
ARC
  5
3D6
  8
__
  6
CONTINUOUS
 62
     7
 10
-174.0135628920344
 20
-752.7107618624196
 30
0.0
 40
0.8203678318443084
 50
247.5320803524656
 51
352.4679196225455
  0
ARC
  5
3D7
  8
__
  6
CONTINUOUS
 62
     7
 10
-174.4486860590304
 20
-753.6548708099109
 30
0.0
 40
0.222235619821818
 50
56.82515287442732
 51
243.1748471255292
  0
ARC
  5
3D8
  8
__
  6
CONTINUOUS
 62
     7
 10
-175.0487468079999
 20
-754.5037529999497
 30
0.0
 40
0.8203678318442621
 50
307.5320803524617
 51
52.46791962255705
  0
ARC
  5
3D9
  8
__
  6
CONTINUOUS
 62
     7
 10
-172.9783789761558
 20
-756.2015173801782
 30
0.0
 40
0.222235619821771
 50
176.8251528744042
 51
3.174847125595846
  0
ARC
  5
3DA
  8
__
  6
CONTINUOUS
 62
     7
 10
-174.0135628920344
 20
-756.2967441375803
 30
0.0
 40
0.8203678318442955
 50
7.532080377454527
 51
112.4679196475343
  0
ARC
  5
3DB
  8
__
  6
CONTINUOUS
 62
     7
 10
-174.4486860590304
 20
-755.352635190089
 30
0.0
 40
0.2222356198218735
 50
116.8251528744708
 51
303.1748471255727
  0
ARC
  5
3DC
  8
__
  6
CONTINUOUS
 62
     7
 10
-171.9431950602774
 20
-752.7107618624196
 30
0.0
 40
0.8203678318440701
 50
187.5320803774566
 51
292.4679196475344
  0
ARC
  5
3DD
  8
__
  6
CONTINUOUS
 62
     7
 10
-171.5080718932812
 20
-753.6548708099109
 30
0.0
 40
0.2222356198217709
 50
296.8251528744185
 51
123.1748471255727
  0
ARC
  5
3DE
  8
__
  6
CONTINUOUS
 62
     7
 10
-170.9080111443117
 20
-754.5037529999497
 30
0.0
 40
0.8203678318442142
 50
127.5320803774555
 51
232.4679196475383
  0
ARC
  5
3DF
  8
__
  6
CONTINUOUS
 62
     7
 10
-171.9431950602774
 20
-756.2967441375803
 30
0.0
 40
0.8203678318443084
 50
67.53208035246568
 51
172.4679196225434
  0
ARC
  5
3E0
  8
__
  6
CONTINUOUS
 62
     7
 10
-171.5080718932812
 20
-755.352635190089
 30
0.0
 40
0.222235619821818
 50
236.8251528744273
 51
63.17484712558153
  0
LINE
  5
3E1
  8
__
  6
CONTINUOUS
 62
     7
 10
-78.55311897615582
 20
-695.503753
 30
0.0
 11
-128.553120976156
 21
-695.503753
 31
0.0
  0
LINE
  5
3E2
  8
__
  6
CONTINUOUS
 62
     7
 10
-78.55311897615582
 20
-695.503753
 30
0.0
 11
-78.54154797615581
 21
-732.503753
 31
0.0
  0
LINE
  5
3E3
  8
__
  6
CONTINUOUS
 62
     7
 10
-78.54154797615581
 20
-732.503753
 30
0.0
 11
-128.541549976156
 21
-732.503753
 31
0.0
  0
LINE
  5
3E4
  8
__
  6
CONTINUOUS
 62
     7
 10
-128.553120976156
 20
-695.503753
 30
0.0
 11
-128.541549976156
 21
-732.503753
 31
0.0
  0
CIRCLE
  5
3E5
  8
__
  6
CONTINUOUS
 62
     7
 10
-150.050307976156
 20
-704.503753
 30
0.0
 40
7.5
  0
CIRCLE
  5
3E6
  8
__
  6
CONTINUOUS
 62
     7
 10
-61.0503029761561
 20
-704.503753
 30
0.0
 40
9.0
  0
CIRCLE
  5
3E7
  8
__
  6
CONTINUOUS
 62
     7
 10
-61.0503029761561
 20
-729.003753
 30
0.0
 40
3.5
  0
ARC
  5
3E8
  8
__
  6
CONTINUOUS
 62
     7
 10
-152.050307976156
 20
-729.503753
 30
0.0
 40
2.000000000000084
 50
94.84558399999177
 51
270.0
  0
ARC
  5
3E9
  8
__
  6
CONTINUOUS
 62
     7
 10
-148.050307976156
 20
-729.503753
 30
0.0
 40
2.0
 50
270.0
 51
90.0
  0
LINE
  5
3EA
  8
__
  6
CONTINUOUS
 62
     7
 10
-152.050307976156
 20
-727.503753
 30
0.0
 11
-148.050307976156
 21
-727.503753
 31
0.0
  0
LINE
  5
3EB
  8
__
  6
CONTINUOUS
 62
     7
 10
-152.050307976156
 20
-731.503753
 30
0.0
 11
-148.050307976156
 21
-731.503753
 31
0.0
  0
ARC
  5
3EC
  8
__
  6
CONTINUOUS
 62
     7
 10
-132.0531189761556
 20
-749.497807
 30
0.0
 40
2.0
 50
90.0
 51
270.0
  0
ARC
  5
3ED
  8
__
  6
CONTINUOUS
 62
     7
 10
-128.0531189761556
 20
-749.497807
 30
0.0
 40
2.0
 50
270.0
 51
90.0
  0
LINE
  5
3EE
  8
__
  6
CONTINUOUS
 62
     7
 10
-132.0531189761556
 20
-747.497807
 30
0.0
 11
-128.0531189761556
 21
-747.497807
 31
0.0
  0
LINE
  5
3EF
  8
__
  6
CONTINUOUS
 62
     7
 10
-132.0531189761556
 20
-751.497807
 30
0.0
 11
-128.0531189761556
 21
-751.497807
 31
0.0
  0
CIRCLE
  5
3F0
  8
__
  6
CONTINUOUS
 62
     7
 10
-130.0484259761557
 20
-762.503753
 30
0.0
 40
3.25
  0
CIRCLE
  5
3F1
  8
__
  6
CONTINUOUS
 62
     7
 10
-130.0531189761556
 20
-792.503753
 30
0.0
 40
11.25
  0
CIRCLE
  5
3F2
  8
__
  6
CONTINUOUS
 62
     7
 10
-130.048697156683
 20
-830.5037559171295
 30
0.0
 40
11.25
  0
ARC
  5
3F3
  8
__
  6
CONTINUOUS
 62
     7
 10
-130.0531189761556
 20
-792.503753
 30
0.0
 40
10.50000000000009
 50
118.4548090000017
 51
61.58102900000164
  0
LINE
  5
3F4
  8
__
  6
CONTINUOUS
 62
     7
 10
-135.413354976156
 20
-782.6128299999998
 30
0.0
 11
-135.0560059761557
 21
-783.2722249999999
 31
0.0
  0
LINE
  5
3F5
  8
__
  6
CONTINUOUS
 62
     7
 10
-124.6928819761557
 20
-782.6128299999998
 30
0.0
 11
-125.0502309761556
 21
-783.2722249999999
 31
0.0
  0
LINE
  5
3F6
  8
__
  6
CONTINUOUS
 62
     7
 10
-126.9607889761561
 20
-791.503753
 30
0.0
 11
-125.5534309761557
 21
-791.503753
 31
0.0
  0
LINE
  5
3F7
  8
__
  6
CONTINUOUS
 62
     7
 10
-126.9607889761561
 20
-793.503753
 30
0.0
 11
-125.552805976156
 21
-793.503753
 31
0.0
  0
LINE
  5
3F8
  8
__
  6
CONTINUOUS
 62
     7
 10
-131.0521519761556
 20
-795.5963949999998
 30
0.0
 11
-131.0517109761555
 21
-797.003753
 31
0.0
  0
LINE
  5
3F9
  8
__
  6
CONTINUOUS
 62
     7
 10
-129.0521519761556
 20
-795.5957689999998
 30
0.0
 11
-129.0517109761555
 21
-797.003753
 31
0.0
  0
CIRCLE
  5
3FA
  8
__
  6
CONTINUOUS
 62
     7
 10
-130.0531189761556
 20
-792.503753
 30
0.0
 40
8.0
  0
LINE
  5
3FB
  8
__
  6
CONTINUOUS
 62
     7
 10
-133.1454479761557
 20
-791.503753
 30
0.0
 11
-134.553431976156
 21
-791.503753
 31
0.0
  0
LINE
  5
3FC
  8
__
  6
CONTINUOUS
 62
     7
 10
-133.1454479761557
 20
-793.503753
 30
0.0
 11
-134.552805976156
 21
-793.503753
 31
0.0
  0
ARC
  5
3FD
  8
__
  6
CONTINUOUS
 62
     7
 10
-134.5531189761556
 20
-792.503753
 30
0.0
 40
0.9999999999999944
 50
90.01791900001633
 51
270.0179189999903
  0
ARC
  5
3FE
  8
__
  6
CONTINUOUS
 62
     7
 10
-130.0517109761555
 20
-797.003753
 30
0.0
 40
1.0
 50
180.0
 51
0.0
  0
ARC
  5
3FF
  8
__
  6
CONTINUOUS
 62
     7
 10
-125.5531179761557
 20
-792.503753
 30
0.0
 40
0.9999999999999943
 50
270.0179189999903
 51
90.01791899999027
  0
ARC
  5
400
  8
__
  6
CONTINUOUS
 62
     7
 10
-130.0531189761556
 20
-792.503753
 30
0.0
 40
3.250000000000547
 50
197.9202129999983
 51
252.097705999996
  0
ARC
  5
401
  8
__
  6
CONTINUOUS
 62
     7
 10
-130.0531189761556
 20
-792.503753
 30
0.0
 40
3.249999999999936
 50
287.9381319999904
 51
342.0797869999968
  0
ARC
  5
402
  8
__
  6
CONTINUOUS
 62
     7
 10
-130.0531189761556
 20
-792.503753
 30
0.0
 40
3.249999999999682
 50
17.92021300000318
 51
162.0797870000017
  0
CIRCLE
  5
403
  8
__
  6
CONTINUOUS
 62
     7
 10
-134.5486981566834
 20
-830.5037559171295
 30
0.0
 40
0.75
  0
CIRCLE
  5
404
  8
__
  6
CONTINUOUS
 62
     7
 10
-130.0472901566833
 20
-835.0037559171295
 30
0.0
 40
0.75
  0
CIRCLE
  5
405
  8
__
  6
CONTINUOUS
 62
     7
 10
-125.548697156683
 20
-830.5037559171295
 30
0.0
 40
0.75
  0
CIRCLE
  5
406
  8
__
  6
CONTINUOUS
 62
     7
 10
-130.048697156683
 20
-830.5037559171295
 30
0.0
 40
8.0
  0
CIRCLE
  5
407
  8
__
  6
CONTINUOUS
 62
     7
 10
-139.9557089761557
 20
-782.6073549999999
 30
0.0
 40
1.5
  0
LINE
  5
408
  8
__
  6
CONTINUOUS
 62
     7
 10
-140.6630369761557
 20
-781.9004689999999
 30
0.0
 11
-139.2483809761558
 21
-783.3142399999999
 31
0.0
  0
LINE
  5
409
  8
__
  6
CONTINUOUS
 62
     7
 10
-139.2488229761558
 20
-781.9000269999999
 30
0.0
 11
-140.6625949761561
 21
-783.3146829999998
 31
0.0
  0
CIRCLE
  5
40A
  8
__
  6
CONTINUOUS
 62
     7
 10
-139.9512881566831
 20
-820.6073579171294
 30
0.0
 40
1.5
  0
LINE
  5
40B
  8
__
  6
CONTINUOUS
 62
     7
 10
-140.658616156683
 20
-819.9004719171295
 30
0.0
 11
-139.2439601566831
 21
-821.3142429171295
 31
0.0
  0
LINE
  5
40C
  8
__
  6
CONTINUOUS
 62
     7
 10
-139.2444021566831
 20
-819.9000299171295
 30
0.0
 11
-140.658174156683
 21
-821.3146859171294
 31
0.0
  0
LINE
  5
40D
  8
__
  6
CONTINUOUS
 62
     7
 10
-120.857855976156
 20
-801.6932659999998
 30
0.0
 11
-119.4431999761561
 21
-803.1070369999998
 31
0.0
  0
LINE
  5
40E
  8
__
  6
CONTINUOUS
 62
     7
 10
-119.443642976156
 20
-801.692824
 30
0.0
 11
-120.8574139761555
 21
-803.1074789999998
 31
0.0
  0
LINE
  5
40F
  8
__
  6
CONTINUOUS
 62
     7
 10
-120.857855976156
 20
-801.6932659999998
 30
0.0
 11
-119.4431999761561
 21
-803.1070369999998
 31
0.0
  0
LINE
  5
410
  8
__
  6
CONTINUOUS
 62
     7
 10
-119.443642976156
 20
-801.692824
 30
0.0
 11
-120.8574139761555
 21
-803.1074789999998
 31
0.0
  0
CIRCLE
  5
411
  8
__
  6
CONTINUOUS
 62
     7
 10
-120.1461071566833
 20
-840.4001549171295
 30
0.0
 40
1.5
  0
LINE
  5
412
  8
__
  6
CONTINUOUS
 62
     7
 10
-120.8534351566828
 20
-839.6932689171293
 30
0.0
 11
-119.4387791566829
 21
-841.1070399171293
 31
0.0
  0
LINE
  5
413
  8
__
  6
CONTINUOUS
 62
     7
 10
-119.4392211566834
 20
-839.6928269171295
 30
0.0
 11
-120.8529931566833
 21
-841.1074819171293
 31
0.0
  0
CIRCLE
  5
414
  8
__
  6
CONTINUOUS
 62
     7
 10
-120.1461071566833
 20
-840.4001549171295
 30
0.0
 40
1.5
  0
LINE
  5
415
  8
__
  6
CONTINUOUS
 62
     7
 10
-120.8534351566828
 20
-839.6932689171293
 30
0.0
 11
-119.4387791566829
 21
-841.1070399171293
 31
0.0
  0
LINE
  5
416
  8
__
  6
CONTINUOUS
 62
     7
 10
-119.4392211566834
 20
-839.6928269171295
 30
0.0
 11
-120.8529931566833
 21
-841.1074819171293
 31
0.0
  0
ARC
  5
417
  8
__
  6
CONTINUOUS
 62
     7
 10
-105.5531199761559
 20
-749.489519
 30
0.0
 40
2.0
 50
90.0
 51
270.0
  0
ARC
  5
418
  8
__
  6
CONTINUOUS
 62
     7
 10
-101.5531199761559
 20
-749.489519
 30
0.0
 40
2.0
 50
270.0
 51
90.0
  0
LINE
  5
419
  8
__
  6
CONTINUOUS
 62
     7
 10
-105.5531199761559
 20
-747.489519
 30
0.0
 11
-101.5531199761559
 21
-747.489519
 31
0.0
  0
LINE
  5
41A
  8
__
  6
CONTINUOUS
 62
     7
 10
-105.5531199761559
 20
-751.489519
 30
0.0
 11
-101.5531199761559
 21
-751.489519
 31
0.0
  0
CIRCLE
  5
41B
  8
__
  6
CONTINUOUS
 62
     7
 10
-103.5484269761561
 20
-762.495465
 30
0.0
 40
3.25
  0
CIRCLE
  5
41C
  8
__
  6
CONTINUOUS
 62
     7
 10
-103.5531199761559
 20
-792.495465
 30
0.0
 40
11.25
  0
CIRCLE
  5
41D
  8
__
  6
CONTINUOUS
 62
     7
 10
-103.5486991566828
 20
-830.4954679171295
 30
0.0
 40
11.25
  0
ARC
  5
41E
  8
__
  6
CONTINUOUS
 62
     7
 10
-103.5531199761559
 20
-792.495465
 30
0.0
 40
10.49999999999987
 50
118.4548089999995
 51
61.58102899999945
  0
LINE
  5
41F
  8
__
  6
CONTINUOUS
 62
     7
 10
-108.9133559761555
 20
-782.6045419999998
 30
0.0
 11
-108.5560069761556
 21
-783.2639369999999
 31
0.0
  0
LINE
  5
420
  8
__
  6
CONTINUOUS
 62
     7
 10
-98.19288397615549
 20
-782.6045419999998
 30
0.0
 11
-98.55023297615583
 21
-783.2639369999999
 31
0.0
  0
LINE
  5
421
  8
__
  6
CONTINUOUS
 62
     7
 10
-100.4607909761559
 20
-791.495465
 30
0.0
 11
-99.05343197615605
 21
-791.495465
 31
0.0
  0
LINE
  5
422
  8
__
  6
CONTINUOUS
 62
     7
 10
-100.4607909761559
 20
-793.495465
 30
0.0
 11
-99.05280697615547
 21
-793.495465
 31
0.0
  0
LINE
  5
423
  8
__
  6
CONTINUOUS
 62
     7
 10
-104.552152976156
 20
-795.5881069999998
 30
0.0
 11
-104.5517129761557
 21
-796.995465
 31
0.0
  0
LINE
  5
424
  8
__
  6
CONTINUOUS
 62
     7
 10
-102.552152976156
 20
-795.5874819999999
 30
0.0
 11
-102.5517129761557
 21
-796.995465
 31
0.0
  0
CIRCLE
  5
425
  8
__
  6
CONTINUOUS
 62
     7
 10
-103.5531199761559
 20
-792.495465
 30
0.0
 40
8.0
  0
LINE
  5
426
  8
__
  6
CONTINUOUS
 62
     7
 10
-106.645448976156
 20
-791.495465
 30
0.0
 11
-108.0534329761555
 21
-791.495465
 31
0.0
  0
LINE
  5
427
  8
__
  6
CONTINUOUS
 62
     7
 10
-106.645448976156
 20
-793.495465
 30
0.0
 11
-108.0528069761555
 21
-793.495465
 31
0.0
  0
ARC
  5
428
  8
__
  6
CONTINUOUS
 62
     7
 10
-108.0531199761559
 20
-792.495465
 30
0.0
 40
0.9999999999999943
 50
90.01791899999027
 51
270.0179190000164
  0
ARC
  5
429
  8
__
  6
CONTINUOUS
 62
     7
 10
-103.5517129761557
 20
-796.995465
 30
0.0
 40
1.0
 50
180.0
 51
0.0
  0
ARC
  5
42A
  8
__
  6
CONTINUOUS
 62
     7
 10
-99.05311997615593
 20
-792.495465
 30
0.0
 40
0.9999999999999944
 50
270.0179190000163
 51
90.01791899999026
  0
ARC
  5
42B
  8
__
  6
CONTINUOUS
 62
     7
 10
-103.5531199761559
 20
-792.495465
 30
0.0
 40
3.249999999999682
 50
197.9202130000032
 51
252.0977060000036
  0
ARC
  5
42C
  8
__
  6
CONTINUOUS
 62
     7
 10
-103.5531199761559
 20
-792.495465
 30
0.0
 40
3.250000000000216
 50
287.9381320000057
 51
342.0797870000018
  0
ARC
  5
42D
  8
__
  6
CONTINUOUS
 62
     7
 10
-103.5531199761559
 20
-792.495465
 30
0.0
 40
3.250000000000547
 50
17.92021299999825
 51
162.0797869999968
  0
CIRCLE
  5
42E
  8
__
  6
CONTINUOUS
 62
     7
 10
-108.0486991566828
 20
-830.4954679171295
 30
0.0
 40
0.75
  0
CIRCLE
  5
42F
  8
__
  6
CONTINUOUS
 62
     7
 10
-103.5472911566832
 20
-834.9954679171295
 30
0.0
 40
0.75
  0
CIRCLE
  5
430
  8
__
  6
CONTINUOUS
 62
     7
 10
-99.0486991566828
 20
-830.4954679171295
 30
0.0
 40
0.75
  0
LINE
  5
431
  8
__
  6
CONTINUOUS
 62
     7
 10
-114.163037976156
 20
-781.8921809999999
 30
0.0
 11
-112.7483819761561
 21
-783.3059529999998
 31
0.0
  0
LINE
  5
432
  8
__
  6
CONTINUOUS
 62
     7
 10
-112.748824976156
 20
-781.8917389999999
 30
0.0
 11
-114.1625959761556
 21
-783.3063949999998
 31
0.0
  0
CIRCLE
  5
433
  8
__
  6
CONTINUOUS
 62
     7
 10
-113.4512891566834
 20
-820.5990699171294
 30
0.0
 40
1.5
  0
LINE
  5
434
  8
__
  6
CONTINUOUS
 62
     7
 10
-114.1586171566829
 20
-819.8921839171295
 30
0.0
 11
-112.743961156683
 21
-821.3059559171294
 31
0.0
  0
LINE
  5
435
  8
__
  6
CONTINUOUS
 62
     7
 10
-112.7444041566829
 20
-819.8917419171295
 30
0.0
 11
-114.1581751566833
 21
-821.3063979171294
 31
0.0
  0
LINE
  5
436
  8
__
  6
CONTINUOUS
 62
     7
 10
-94.35785697615586
 20
-801.6849779999998
 30
0.0
 11
-92.94320197615582
 21
-803.0987499999999
 31
0.0
  0
LINE
  5
437
  8
__
  6
CONTINUOUS
 62
     7
 10
-92.94364397615584
 20
-801.684536
 30
0.0
 11
-94.35741497615584
 21
-803.0991919999999
 31
0.0
  0
LINE
  5
438
  8
__
  6
CONTINUOUS
 62
     7
 10
-94.35785697615586
 20
-801.6849779999998
 30
0.0
 11
-92.94320197615582
 21
-803.0987499999999
 31
0.0
  0
LINE
  5
439
  8
__
  6
CONTINUOUS
 62
     7
 10
-92.94364397615584
 20
-801.684536
 30
0.0
 11
-94.35741497615584
 21
-803.0991919999999
 31
0.0
  0
CIRCLE
  5
43A
  8
__
  6
CONTINUOUS
 62
     7
 10
-93.64610815668323
 20
-840.3918669171295
 30
0.0
 40
1.5
  0
LINE
  5
43B
  8
__
  6
CONTINUOUS
 62
     7
 10
-94.35343615668319
 20
-839.6849809171293
 30
0.0
 11
-92.93878015668326
 21
-841.0987529171294
 31
0.0
  0
LINE
  5
43C
  8
__
  6
CONTINUOUS
 62
     7
 10
-92.93922315668317
 20
-839.6845389171295
 30
0.0
 11
-94.35299415668317
 21
-841.0991949171295
 31
0.0
  0
CIRCLE
  5
43D
  8
__
  6
CONTINUOUS
 62
     7
 10
-93.64610815668323
 20
-840.3918669171295
 30
0.0
 40
1.5
  0
LINE
  5
43E
  8
__
  6
CONTINUOUS
 62
     7
 10
-94.35343615668319
 20
-839.6849809171293
 30
0.0
 11
-92.93878015668326
 21
-841.0987529171294
 31
0.0
  0
LINE
  5
43F
  8
__
  6
CONTINUOUS
 62
     7
 10
-92.93922315668317
 20
-839.6845389171295
 30
0.0
 11
-94.35299415668317
 21
-841.0991949171295
 31
0.0
  0
ARC
  5
440
  8
__
  6
CONTINUOUS
 62
     7
 10
-79.05312097615581
 20
-749.4812319999999
 30
0.0
 40
2.0
 50
90.0
 51
270.0
  0
ARC
  5
441
  8
__
  6
CONTINUOUS
 62
     7
 10
-75.05312097615581
 20
-749.4812319999999
 30
0.0
 40
2.0
 50
270.0
 51
90.0
  0
LINE
  5
442
  8
__
  6
CONTINUOUS
 62
     7
 10
-79.05312097615581
 20
-747.4812319999999
 30
0.0
 11
-75.05312097615581
 21
-747.4812319999999
 31
0.0
  0
LINE
  5
443
  8
__
  6
CONTINUOUS
 62
     7
 10
-79.05312097615581
 20
-751.4812319999999
 30
0.0
 11
-75.05312097615581
 21
-751.4812319999999
 31
0.0
  0
CIRCLE
  5
444
  8
__
  6
CONTINUOUS
 62
     7
 10
-77.0484279761555
 20
-762.4871779999999
 30
0.0
 40
3.25
  0
CIRCLE
  5
445
  8
__
  6
CONTINUOUS
 62
     7
 10
-77.04870015668314
 20
-830.4871809171294
 30
0.0
 40
11.25
  0
CIRCLE
  5
446
  8
__
  6
CONTINUOUS
 62
     7
 10
-81.54870015668314
 20
-830.4871809171294
 30
0.0
 40
0.75
  0
CIRCLE
  5
447
  8
__
  6
CONTINUOUS
 62
     7
 10
-77.0472931566834
 20
-834.9871809171294
 30
0.0
 40
0.75
  0
CIRCLE
  5
448
  8
__
  6
CONTINUOUS
 62
     7
 10
-72.54870015668314
 20
-830.4871809171294
 30
0.0
 40
0.75
  0
CIRCLE
  5
449
  8
__
  6
CONTINUOUS
 62
     7
 10
-77.04870015668314
 20
-830.4871809171294
 30
0.0
 40
8.0
  0
CIRCLE
  5
44A
  8
__
  6
CONTINUOUS
 62
     7
 10
-86.95129115668317
 20
-820.5907819171294
 30
0.0
 40
1.5
  0
LINE
  5
44B
  8
__
  6
CONTINUOUS
 62
     7
 10
-87.65861815668325
 20
-819.8838969171294
 30
0.0
 11
-86.24396315668321
 21
-821.2976679171294
 31
0.0
  0
LINE
  5
44C
  8
__
  6
CONTINUOUS
 62
     7
 10
-86.24440515668323
 20
-819.8834539171295
 30
0.0
 11
-87.65817615668323
 21
-821.2981099171294
 31
0.0
  0
CIRCLE
  5
44D
  8
__
  6
CONTINUOUS
 62
     7
 10
-67.14611015668345
 20
-840.3835789171295
 30
0.0
 40
1.5
  0
LINE
  5
44E
  8
__
  6
CONTINUOUS
 62
     7
 10
-67.85343815668296
 20
-839.6766939171295
 30
0.0
 11
-66.43878215668303
 21
-841.0904649171295
 31
0.0
  0
LINE
  5
44F
  8
__
  6
CONTINUOUS
 62
     7
 10
-66.43922415668305
 20
-839.6762509171296
 30
0.0
 11
-67.85299515668305
 21
-841.0909069171295
 31
0.0
  0
CIRCLE
  5
450
  8
__
  6
CONTINUOUS
 62
     7
 10
-67.14611015668345
 20
-840.3835789171295
 30
0.0
 40
1.5
  0
LINE
  5
451
  8
__
  6
CONTINUOUS
 62
     7
 10
-67.85343815668296
 20
-839.6766939171295
 30
0.0
 11
-66.43878215668303
 21
-841.0904649171295
 31
0.0
  0
LINE
  5
452
  8
__
  6
CONTINUOUS
 62
     7
 10
-66.43922415668305
 20
-839.6762509171296
 30
0.0
 11
-67.85299515668305
 21
-841.0909069171295
 31
0.0
  0
CIRCLE
  5
453
  8
__
  6
CONTINUOUS
 62
     7
 10
-93.65052997615578
 20
-802.3918639999999
 30
0.0
 40
1.5
  0
CIRCLE
  5
454
  8
__
  6
CONTINUOUS
 62
     7
 10
-120.1505279761556
 20
-802.4001519999999
 30
0.0
 40
1.5
  0
CIRCLE
  5
455
  8
__
  6
CONTINUOUS
 62
     7
 10
-113.4557099761556
 20
-782.5990669999999
 30
0.0
 40
1.5
  0
CIRCLE
  5
456
  8
__
  6
CONTINUOUS
 62
     7
 10
-77.05312097615581
 20
-792.4871779999999
 30
0.0
 40
2.0
  0
CIRCLE
  5
457
  8
__
  6
CONTINUOUS
 62
     7
 10
-77.05312097615581
 20
-792.4871779999999
 30
0.0
 40
3.5
  0
CIRCLE
  5
458
  8
__
  6
CONTINUOUS
 62
     7
 10
-103.5486991566828
 20
-830.4954679171295
 30
0.0
 40
8.0
  0
LINE
  5
459
  8
__
  6
CONTINUOUS
 62
     7
 10
-77.05312097615581
 20
-796.3371779999999
 30
0.0
 11
-77.04822712677617
 21
-808.3175642440544
 31
0.0
  0
LINE
  5
45A
  8
__
  6
CONTINUOUS
 62
     7
 10
-130.0495999761557
 20
-804.3279242
 30
0.0
 11
-130.0480364980141
 21
-808.3279238944419
 31
0.0
  0
TEXT
  5
45B
  8
__
 62
     7
 10
-73.68691321921166
 20
-719.1700290416666
 30
0.0
 40
4.332552083333333
  1
MAIN/MENU
 41
0.7
 72
     1
 11
-61.0503029761561
 21
-717.0037529999998
 31
0.0
 73
     2
  0
TEXT
  5
45C
  8
__
 62
     7
 10
-157.6322741219893
 20
-717.6700290416666
 30
0.0
 40
4.332552083333333
  1
POWER
 41
0.7
 72
     1
 11
-150.050307976156
 21
-715.5037529999998
 31
0.0
 73
     2
  0
TEXT
  5
45D
  8
__
 62
     7
 10
-135.1030700733779
 20
-771.9200290416666
 30
0.0
 40
4.332552083333333
  1
GAIN
 41
0.7
 72
     1
 11
-130.0484259761557
 21
-769.7537529999998
 31
0.0
 73
     2
  0
TEXT
  5
45E
  8
__
 62
     7
 10
-137.5339912400451
 20
-848.7629020033879
 30
0.0
 40
4.332552083333333
  1
THRU 1
 41
0.7
 72
     1
 11
-130.0531179761562
 21
-846.5966259617212
 31
0.0
 73
     2
  0
TEXT
  5
45F
  8
__
 62
     7
 10
-111.539457649767
 20
-848.7546140033879
 30
0.0
 40
4.332552083333333
  1
THRU 2
 41
0.7
 72
     1
 11
-103.5531199761559
 21
-846.5883379617212
 31
0.0
 73
     2
  0
TEXT
  5
460
  8
__
 62
     7
 10
-86.05038515785199
 20
-848.7464340580328
 30
0.0
 40
4.332552083333333
  1
MIX OUT
 41
0.7
 72
     1
 11
-77.05311866479644
 21
-846.5801580163661
 31
0.0
 73
     2
  0
TEXT
  5
461
  8
__
 62
     7
 10
-66.61041148310055
 20
-738.6700290416666
 30
0.0
 40
4.332552083333333
  1
BACK
 41
0.7
 72
     1
 11
-61.0503029761561
 21
-736.5037529999998
 31
0.0
 73
     2
  0
TEXT
  5
462
  8
__
 62
     7
 10
-156.1158808928226
 20
-738.6700290416666
 30
0.0
 40
4.332552083333333
  1
LIMIT
 41
0.7
 72
     1
 11
-150.050307976156
 21
-736.5037529999998
 31
0.0
 73
     2
  0
TEXT
  5
463
  8
__
 62
     7
 10
-140.6678715803222
 20
-757.6640830416666
 30
0.0
 40
4.332552083333333
  1
SIG/CLIP
 41
0.7
 72
     1
 11
-130.0531189761556
 21
-755.4978069999999
 31
0.0
 73
     2
  0
TEXT
  5
464
  8
__
 62
     7
 10
-133.5955834536782
 20
-813.7630061409034
 30
0.0
 40
4.332552083333333
  1
CH1
 41
0.7
 72
     1
 11
-130.0573325856227
 21
-811.5967300992367
 31
0.0
 73
     2
  0
TEXT
  5
465
  8
__
 62
     7
 10
-107.6010498634002
 20
-813.7547181409034
 30
0.0
 40
4.332552083333333
  1
CH2
 41
0.7
 72
     1
 11
-103.5573345856225
 21
-811.5884420992367
 31
0.0
 73
     2
  0
TEXT
  5
466
  8
__
 62
     7
 10
-84.53820654366613
 20
-813.7463773581028
 30
0.0
 40
4.332552083333333
  1
AUX IN
 41
0.7
 72
     1
 11
-77.05733327977725
 21
-811.5801013164361
 31
0.0
 73
     2
  0
LINE
  5
467
  8
__
  6
CONTINUOUS
 62
     7
 10
-130.0531189761556
 20
-780.1826345735598
 30
0.0
 11
-130.0531189761556
 21
-772.6826345735598
 31
0.0
  0
LINE
  5
468
  8
__
  6
CONTINUOUS
 62
     7
 10
-77.05312097615581
 20
-788.6371779999998
 30
0.0
 11
-77.05312097615581
 21
-772.6826345735598
 31
0.0
  0
TEXT
  5
469
  8
__
 62
     7
 10
-114.1678725803226
 20
-757.6640830416666
 30
0.0
 40
4.332552083333333
  1
SIG/CLIP
 41
0.7
 72
     1
 11
-103.5531199761559
 21
-755.4978069999999
 31
0.0
 73
     2
  0
TEXT
  5
46A
  8
__
 62
     7
 10
-87.66787358032293
 20
-757.6640830416666
 30
0.0
 40
4.332552083333333
  1
SIG/CLIP
 41
0.7
 72
     1
 11
-77.05312097615626
 21
-755.4978069999999
 31
0.0
 73
     2
  0
TEXT
  5
46B
  8
__
 62
     7
 10
-108.6077640733781
 20
-771.9200290416666
 30
0.0
 40
4.332552083333333
  1
GAIN
 41
0.7
 72
     1
 11
-103.5531199761559
 21
-769.7537529999998
 31
0.0
 73
     2
  0
TEXT
  5
46C
  8
__
 62
     7
 10
-82.11245807337835
 20
-771.9200290416666
 30
0.0
 40
4.332552083333333
  1
GAIN
 41
0.7
 72
     1
 11
-77.05781397615613
 21
-769.7537529999998
 31
0.0
 73
     2
  0
LINE
  5
46D
  8
__
  6
CONTINUOUS
 62
     7
 10
-103.5531199761559
 20
-780.1826345735598
 30
0.0
 11
-103.5531199761559
 21
-772.6826345735598
 31
0.0
  0
LINE
  5
46E
  8
__
  6
CONTINUOUS
 62
     7
 10
-130.0537796348245
 20
-814.6779283226875
 30
0.0
 11
-130.0522161566829
 21
-818.6779280171295
 31
0.0
  0
LINE
  5
46F
  8
__
  6
CONTINUOUS
 62
     7
 10
-103.5539017152267
 20
-804.3279242
 30
0.0
 11
-103.5523382370851
 21
-808.3279238944419
 31
0.0
  0
LINE
  5
470
  8
__
  6
CONTINUOUS
 62
     7
 10
-103.5580813738953
 20
-814.6779283226875
 30
0.0
 11
-103.5565178957537
 21
-818.6779280171295
 31
0.0
  0
ARC
  5
471
  8
__
  6
CONTINUOUS
 62
     7
 10
-1200.0
 20
-1672.5
 30
0.0
 40
42.5
 50
0.0
 51
180.0
  0
ARC
  5
472
  8
__
  6
CONTINUOUS
 62
     7
 10
-1200.0
 20
-1727.5
 30
0.0
 40
42.5
 50
180.0
 51
0.0
  0
LINE
  5
473
  8
__
  6
CONTINUOUS
 62
     7
 10
-1157.5
 20
-1672.5
 30
0.0
 11
-1157.5
 21
-1727.5
 31
0.0
  0
LINE
  5
474
  8
__
  6
CONTINUOUS
 62
     7
 10
-1242.5
 20
-1672.5
 30
0.0
 11
-1242.5
 21
-1727.5
 31
0.0
  0
CIRCLE
  5
475
  8
__
  6
CONTINUOUS
 62
     7
 10
-1200.0
 20
-1672.75
 30
0.0
 40
21.25
  0
CIRCLE
  5
476
  8
__
  6
CONTINUOUS
 62
     7
 10
-1200.0
 20
-1727.25
 30
0.0
 40
21.25
  0
ARC
  5
477
  8
__
  6
CONTINUOUS
 62
     7
 10
-1200.0
 20
-1760.054644981046
 30
0.0
 40
0.2546449810461108
 50
356.8251528744259
 51
183.1748471255798
  0
ARC
  5
478
  8
__
  6
CONTINUOUS
 62
     7
 10
-1201.186148236944
 20
-1759.945530988189
 30
0.0
 40
0.9400048073215088
 50
247.5320803524773
 51
352.4679196225416
  0
ARC
  5
479
  8
__
  6
CONTINUOUS
 62
     7
 10
-1201.684726865794
 20
-1761.027322490523
 30
0.0
 40
0.2546449810462921
 50
56.8251528743726
 51
243.1748471255899
  0
ARC
  5
47A
  8
__
  6
CONTINUOUS
 62
     7
 10
-1202.372296473988
 20
-1761.999999999943
 30
0.0
 40
0.9400048073212975
 50
307.5320803524826
 51
52.46791962254764
  0
ARC
  5
47B
  8
__
  6
CONTINUOUS
 62
     7
 10
-1200.0
 20
-1763.945355018954
 30
0.0
 40
0.2546449810456567
 50
176.8251528744202
 51
3.17484712557976
  0
ARC
  5
47C
  8
__
  6
CONTINUOUS
 62
     7
 10
-1201.186148236944
 20
-1764.054469011811
 30
0.0
 40
0.9400048073215113
 50
7.532080377458499
 51
112.4679196475227
  0
ARC
  5
47D
  8
__
  6
CONTINUOUS
 62
     7
 10
-1201.684726865794
 20
-1762.972677509477
 30
0.0
 40
0.2546449810459963
 50
116.8251528743639
 51
303.1748471256834
  0
ARC
  5
47E
  8
__
  6
CONTINUOUS
 62
     7
 10
-1198.813851763056
 20
-1759.945530988189
 30
0.0
 40
0.9400048073215113
 50
187.5320803774585
 51
292.4679196475483
  0
ARC
  5
47F
  8
__
  6
CONTINUOUS
 62
     7
 10
-1198.315273134206
 20
-1761.027322490523
 30
0.0
 40
0.2546449810457956
 50
296.8251528745014
 51
123.1748471255418
  0
ARC
  5
480
  8
__
  6
CONTINUOUS
 62
     7
 10
-1197.627703526012
 20
-1761.999999999943
 30
0.0
 40
0.9400048073214804
 50
127.5320803774304
 51
232.4679196475174
  0
ARC
  5
481
  8
__
  6
CONTINUOUS
 62
     7
 10
-1198.813851763056
 20
-1764.054469011811
 30
0.0
 40
0.9400048073216826
 50
67.53208035245173
 51
172.4679196225415
  0
ARC
  5
482
  8
__
  6
CONTINUOUS
 62
     7
 10
-1198.315273134206
 20
-1762.972677509477
 30
0.0
 40
0.2546449810456626
 50
236.8251528744022
 51
63.17484712554481
  0
CIRCLE
  5
483
  8
__
  6
CONTINUOUS
 62
     7
 10
-1200.0
 20
-1762.0
 30
0.0
 40
6.0
  0
CIRCLE
  5
484
  8
__
  6
CONTINUOUS
 62
     7
 10
-1200.0
 20
-1762.0
 30
0.0
 40
4.5
  0
CIRCLE
  5
485
  8
__
  6
CONTINUOUS
 62
     7
 10
-1200.0
 20
-1762.0
 30
0.0
 40
3.0
  0
ARC
  5
486
  8
__
  6
CONTINUOUS
 62
     7
 10
-1234.5
 20
-1725.554644981046
 30
0.0
 40
0.2546449810461108
 50
356.8251528744259
 51
183.1748471255798
  0
ARC
  5
487
  8
__
  6
CONTINUOUS
 62
     7
 10
-1235.686148236944
 20
-1725.445530988189
 30
0.0
 40
0.9400048073215088
 50
247.5320803524773
 51
352.4679196225416
  0
ARC
  5
488
  8
__
  6
CONTINUOUS
 62
     7
 10
-1236.184726865794
 20
-1726.527322490523
 30
0.0
 40
0.2546449810462921
 50
56.8251528743726
 51
243.1748471255899
  0
ARC
  5
489
  8
__
  6
CONTINUOUS
 62
     7
 10
-1236.872296473988
 20
-1727.499999999943
 30
0.0
 40
0.9400048073212975
 50
307.5320803524826
 51
52.46791962254764
  0
ARC
  5
48A
  8
__
  6
CONTINUOUS
 62
     7
 10
-1234.5
 20
-1729.445355018954
 30
0.0
 40
0.2546449810456567
 50
176.8251528744202
 51
3.17484712557976
  0
ARC
  5
48B
  8
__
  6
CONTINUOUS
 62
     7
 10
-1235.686148236944
 20
-1729.554469011811
 30
0.0
 40
0.9400048073215113
 50
7.532080377458499
 51
112.4679196475227
  0
ARC
  5
48C
  8
__
  6
CONTINUOUS
 62
     7
 10
-1236.184726865794
 20
-1728.472677509477
 30
0.0
 40
0.2546449810459963
 50
116.8251528743639
 51
303.1748471256834
  0
ARC
  5
48D
  8
__
  6
CONTINUOUS
 62
     7
 10
-1233.313851763056
 20
-1725.445530988189
 30
0.0
 40
0.9400048073215113
 50
187.5320803774585
 51
292.4679196475483
  0
ARC
  5
48E
  8
__
  6
CONTINUOUS
 62
     7
 10
-1232.815273134206
 20
-1726.527322490523
 30
0.0
 40
0.2546449810457956
 50
296.8251528745014
 51
123.1748471255418
  0
ARC
  5
48F
  8
__
  6
CONTINUOUS
 62
     7
 10
-1232.127703526012
 20
-1727.499999999943
 30
0.0
 40
0.9400048073214804
 50
127.5320803774304
 51
232.4679196475174
  0
ARC
  5
490
  8
__
  6
CONTINUOUS
 62
     7
 10
-1233.313851763056
 20
-1729.554469011811
 30
0.0
 40
0.9400048073216826
 50
67.53208035245173
 51
172.4679196225415
  0
ARC
  5
491
  8
__
  6
CONTINUOUS
 62
     7
 10
-1232.815273134206
 20
-1728.472677509477
 30
0.0
 40
0.2546449810456626
 50
236.8251528744022
 51
63.17484712554481
  0
CIRCLE
  5
492
  8
__
  6
CONTINUOUS
 62
     7
 10
-1234.5
 20
-1727.5
 30
0.0
 40
6.0
  0
CIRCLE
  5
493
  8
__
  6
CONTINUOUS
 62
     7
 10
-1234.5
 20
-1727.5
 30
0.0
 40
4.5
  0
CIRCLE
  5
494
  8
__
  6
CONTINUOUS
 62
     7
 10
-1234.5
 20
-1727.5
 30
0.0
 40
3.0
  0
ARC
  5
495
  8
__
  6
CONTINUOUS
 62
     7
 10
-1234.5
 20
-1670.554644981046
 30
0.0
 40
0.2546449810461108
 50
356.8251528744259
 51
183.1748471255798
  0
ARC
  5
496
  8
__
  6
CONTINUOUS
 62
     7
 10
-1235.686148236944
 20
-1670.445530988189
 30
0.0
 40
0.9400048073215088
 50
247.5320803524773
 51
352.4679196225416
  0
ARC
  5
497
  8
__
  6
CONTINUOUS
 62
     7
 10
-1236.184726865794
 20
-1671.527322490523
 30
0.0
 40
0.2546449810462921
 50
56.8251528743726
 51
243.1748471255899
  0
ARC
  5
498
  8
__
  6
CONTINUOUS
 62
     7
 10
-1236.872296473988
 20
-1672.499999999943
 30
0.0
 40
0.9400048073212975
 50
307.5320803524826
 51
52.46791962254764
  0
ARC
  5
499
  8
__
  6
CONTINUOUS
 62
     7
 10
-1234.5
 20
-1674.445355018954
 30
0.0
 40
0.2546449810456567
 50
176.8251528744202
 51
3.17484712557976
  0
ARC
  5
49A
  8
__
  6
CONTINUOUS
 62
     7
 10
-1235.686148236944
 20
-1674.554469011811
 30
0.0
 40
0.9400048073215113
 50
7.532080377458499
 51
112.4679196475227
  0
ARC
  5
49B
  8
__
  6
CONTINUOUS
 62
     7
 10
-1236.184726865794
 20
-1673.472677509477
 30
0.0
 40
0.2546449810459963
 50
116.8251528743639
 51
303.1748471256834
  0
ARC
  5
49C
  8
__
  6
CONTINUOUS
 62
     7
 10
-1233.313851763056
 20
-1670.445530988189
 30
0.0
 40
0.9400048073215113
 50
187.5320803774585
 51
292.4679196475483
  0
ARC
  5
49D
  8
__
  6
CONTINUOUS
 62
     7
 10
-1232.815273134206
 20
-1671.527322490523
 30
0.0
 40
0.2546449810457956
 50
296.8251528745014
 51
123.1748471255418
  0
ARC
  5
49E
  8
__
  6
CONTINUOUS
 62
     7
 10
-1232.127703526012
 20
-1672.499999999943
 30
0.0
 40
0.9400048073214804
 50
127.5320803774304
 51
232.4679196475174
  0
ARC
  5
49F
  8
__
  6
CONTINUOUS
 62
     7
 10
-1233.313851763056
 20
-1674.554469011811
 30
0.0
 40
0.9400048073216826
 50
67.53208035245173
 51
172.4679196225415
  0
ARC
  5
4A0
  8
__
  6
CONTINUOUS
 62
     7
 10
-1232.815273134206
 20
-1673.472677509477
 30
0.0
 40
0.2546449810456626
 50
236.8251528744022
 51
63.17484712554481
  0
CIRCLE
  5
4A1
  8
__
  6
CONTINUOUS
 62
     7
 10
-1234.5
 20
-1672.5
 30
0.0
 40
6.0
  0
CIRCLE
  5
4A2
  8
__
  6
CONTINUOUS
 62
     7
 10
-1234.5
 20
-1672.5
 30
0.0
 40
4.5
  0
CIRCLE
  5
4A3
  8
__
  6
CONTINUOUS
 62
     7
 10
-1234.5
 20
-1672.5
 30
0.0
 40
3.0
  0
CIRCLE
  5
4A4
  8
__
  6
CONTINUOUS
 62
     7
 10
-1200.0
 20
-1638.0
 30
0.0
 40
6.0
  0
ARC
  5
4A5
  8
__
  6
CONTINUOUS
 62
     7
 10
-1165.5
 20
-1725.554644981046
 30
0.0
 40
0.2546449810461108
 50
356.8251528744259
 51
183.1748471255798
  0
ARC
  5
4A6
  8
__
  6
CONTINUOUS
 62
     7
 10
-1166.686148236944
 20
-1725.445530988189
 30
0.0
 40
0.9400048073215088
 50
247.5320803524773
 51
352.4679196225416
  0
ARC
  5
4A7
  8
__
  6
CONTINUOUS
 62
     7
 10
-1167.184726865794
 20
-1726.527322490523
 30
0.0
 40
0.2546449810462921
 50
56.8251528743726
 51
243.1748471255899
  0
ARC
  5
4A8
  8
__
  6
CONTINUOUS
 62
     7
 10
-1167.872296473988
 20
-1727.499999999943
 30
0.0
 40
0.9400048073212975
 50
307.5320803524826
 51
52.46791962254764
  0
ARC
  5
4A9
  8
__
  6
CONTINUOUS
 62
     7
 10
-1165.5
 20
-1729.445355018954
 30
0.0
 40
0.2546449810456567
 50
176.8251528744202
 51
3.17484712557976
  0
ARC
  5
4AA
  8
__
  6
CONTINUOUS
 62
     7
 10
-1166.686148236944
 20
-1729.554469011811
 30
0.0
 40
0.9400048073215113
 50
7.532080377458499
 51
112.4679196475227
  0
ARC
  5
4AB
  8
__
  6
CONTINUOUS
 62
     7
 10
-1167.184726865794
 20
-1728.472677509477
 30
0.0
 40
0.2546449810459963
 50
116.8251528743639
 51
303.1748471256834
  0
ARC
  5
4AC
  8
__
  6
CONTINUOUS
 62
     7
 10
-1164.313851763056
 20
-1725.445530988189
 30
0.0
 40
0.9400048073215113
 50
187.5320803774585
 51
292.4679196475483
  0
ARC
  5
4AD
  8
__
  6
CONTINUOUS
 62
     7
 10
-1163.815273134206
 20
-1726.527322490523
 30
0.0
 40
0.2546449810457956
 50
296.8251528745014
 51
123.1748471255418
  0
ARC
  5
4AE
  8
__
  6
CONTINUOUS
 62
     7
 10
-1163.127703526012
 20
-1727.499999999943
 30
0.0
 40
0.9400048073214804
 50
127.5320803774304
 51
232.4679196475174
  0
ARC
  5
4AF
  8
__
  6
CONTINUOUS
 62
     7
 10
-1164.313851763056
 20
-1729.554469011811
 30
0.0
 40
0.9400048073216826
 50
67.53208035245173
 51
172.4679196225415
  0
ARC
  5
4B0
  8
__
  6
CONTINUOUS
 62
     7
 10
-1163.815273134206
 20
-1728.472677509477
 30
0.0
 40
0.2546449810456626
 50
236.8251528744022
 51
63.17484712554481
  0
CIRCLE
  5
4B1
  8
__
  6
CONTINUOUS
 62
     7
 10
-1165.5
 20
-1727.5
 30
0.0
 40
6.0
  0
CIRCLE
  5
4B2
  8
__
  6
CONTINUOUS
 62
     7
 10
-1165.5
 20
-1727.5
 30
0.0
 40
4.5
  0
CIRCLE
  5
4B3
  8
__
  6
CONTINUOUS
 62
     7
 10
-1165.5
 20
-1727.5
 30
0.0
 40
3.0
  0
ARC
  5
4B4
  8
__
  6
CONTINUOUS
 62
     7
 10
-1165.5
 20
-1670.554644981046
 30
0.0
 40
0.2546449810461108
 50
356.8251528744259
 51
183.1748471255798
  0
ARC
  5
4B5
  8
__
  6
CONTINUOUS
 62
     7
 10
-1166.686148236944
 20
-1670.445530988189
 30
0.0
 40
0.9400048073215088
 50
247.5320803524773
 51
352.4679196225416
  0
ARC
  5
4B6
  8
__
  6
CONTINUOUS
 62
     7
 10
-1167.184726865794
 20
-1671.527322490523
 30
0.0
 40
0.2546449810462921
 50
56.8251528743726
 51
243.1748471255899
  0
ARC
  5
4B7
  8
__
  6
CONTINUOUS
 62
     7
 10
-1167.872296473988
 20
-1672.499999999943
 30
0.0
 40
0.9400048073212975
 50
307.5320803524826
 51
52.46791962254764
  0
ARC
  5
4B8
  8
__
  6
CONTINUOUS
 62
     7
 10
-1165.5
 20
-1674.445355018954
 30
0.0
 40
0.2546449810456567
 50
176.8251528744202
 51
3.17484712557976
  0
ARC
  5
4B9
  8
__
  6
CONTINUOUS
 62
     7
 10
-1166.686148236944
 20
-1674.554469011811
 30
0.0
 40
0.9400048073215113
 50
7.532080377458499
 51
112.4679196475227
  0
ARC
  5
4BA
  8
__
  6
CONTINUOUS
 62
     7
 10
-1167.184726865794
 20
-1673.472677509477
 30
0.0
 40
0.2546449810459963
 50
116.8251528743639
 51
303.1748471256834
  0
ARC
  5
4BB
  8
__
  6
CONTINUOUS
 62
     7
 10
-1164.313851763056
 20
-1670.445530988189
 30
0.0
 40
0.9400048073215113
 50
187.5320803774585
 51
292.4679196475483
  0
ARC
  5
4BC
  8
__
  6
CONTINUOUS
 62
     7
 10
-1163.815273134206
 20
-1671.527322490523
 30
0.0
 40
0.2546449810457956
 50
296.8251528745014
 51
123.1748471255418
  0
ARC
  5
4BD
  8
__
  6
CONTINUOUS
 62
     7
 10
-1163.127703526012
 20
-1672.499999999943
 30
0.0
 40
0.9400048073214804
 50
127.5320803774304
 51
232.4679196475174
  0
ARC
  5
4BE
  8
__
  6
CONTINUOUS
 62
     7
 10
-1164.313851763056
 20
-1674.554469011811
 30
0.0
 40
0.9400048073216826
 50
67.53208035245173
 51
172.4679196225415
  0
ARC
  5
4BF
  8
__
  6
CONTINUOUS
 62
     7
 10
-1163.815273134206
 20
-1673.472677509477
 30
0.0
 40
0.2546449810456626
 50
236.8251528744022
 51
63.17484712554481
  0
CIRCLE
  5
4C0
  8
__
  6
CONTINUOUS
 62
     7
 10
-1165.5
 20
-1672.5
 30
0.0
 40
6.0
  0
CIRCLE
  5
4C1
  8
__
  6
CONTINUOUS
 62
     7
 10
-1165.5
 20
-1672.5
 30
0.0
 40
4.5
  0
CIRCLE
  5
4C2
  8
__
  6
CONTINUOUS
 62
     7
 10
-1165.5
 20
-1672.5
 30
0.0
 40
3.0
  0
LINE
  5
4C3
  8
__
  6
CONTINUOUS
 62
     3
 10
-969.75
 20
-1599.354743871193
 30
0.0
 11
-969.75
 21
-1745.645455128807
 31
0.0
  0
CIRCLE
  5
4C4
  8
__
  6
CONTINUOUS
 62
     7
 10
-1041.000000000001
 20
83.5
 30
0.0
 40
10.0
  0
LINE
  5
4C5
  8
__
  6
CONTINUOUS
 62
     7
 10
-1039.267950000001
 20
86.49999860124967
 30
0.0
 11
-1042.732050000001
 21
86.49999860124967
 31
0.0
  0
LINE
  5
4C6
  8
__
  6
CONTINUOUS
 62
     7
 10
-1042.732050000001
 20
80.50000139875033
 30
0.0
 11
-1039.267950000001
 21
80.50000139875033
 31
0.0
  0
LINE
  5
4C7
  8
__
  6
CONTINUOUS
 62
     7
 10
-1042.732050000001
 20
86.49999860124967
 30
0.0
 11
-1044.464100000001
 21
83.5
 31
0.0
  0
LINE
  5
4C8
  8
__
  6
CONTINUOUS
 62
     7
 10
-1044.464100000001
 20
83.5
 30
0.0
 11
-1042.732050000001
 21
80.50000139875033
 31
0.0
  0
LINE
  5
4C9
  8
__
  6
CONTINUOUS
 62
     7
 10
-1037.535900000001
 20
83.5
 30
0.0
 11
-1039.267950000001
 21
86.49999860124967
 31
0.0
  0
LINE
  5
4CA
  8
__
  6
CONTINUOUS
 62
     7
 10
-1039.267950000001
 20
80.50000139875033
 30
0.0
 11
-1037.535900000001
 21
83.5
 31
0.0
  0
CIRCLE
  5
4CB
  8
__
  6
CONTINUOUS
 62
     7
 10
-1359.0
 20
83.5
 30
0.0
 40
10.0
  0
LINE
  5
4CC
  8
__
  6
CONTINUOUS
 62
     7
 10
-1357.26795
 20
80.50000139875033
 30
0.0
 11
-1360.732050000001
 21
80.50000139875033
 31
0.0
  0
LINE
  5
4CD
  8
__
  6
CONTINUOUS
 62
     7
 10
-1360.732050000001
 20
86.49999860124967
 30
0.0
 11
-1357.26795
 21
86.49999860124967
 31
0.0
  0
LINE
  5
4CE
  8
__
  6
CONTINUOUS
 62
     7
 10
-1360.732050000001
 20
80.50000139875033
 30
0.0
 11
-1362.4641
 21
83.5
 31
0.0
  0
LINE
  5
4CF
  8
__
  6
CONTINUOUS
 62
     7
 10
-1362.4641
 20
83.5
 30
0.0
 11
-1360.732050000001
 21
86.49999860124967
 31
0.0
  0
LINE
  5
4D0
  8
__
  6
CONTINUOUS
 62
     7
 10
-1355.5359
 20
83.5
 30
0.0
 11
-1357.26795
 21
80.50000139875033
 31
0.0
  0
LINE
  5
4D1
  8
__
  6
CONTINUOUS
 62
     7
 10
-1357.26795
 20
86.49999860124967
 30
0.0
 11
-1355.5359
 21
83.5
 31
0.0
  0
CIRCLE
  5
4D2
  8
__
  6
CONTINUOUS
 62
     7
 10
-1041.0
 20
83.50000000000045
 30
0.0
 40
10.0
  0
LINE
  5
4D3
  8
__
  6
CONTINUOUS
 62
     7
 10
-1042.73205
 20
80.50000139875078
 30
0.0
 11
-1039.267949999999
 21
80.50000139875078
 31
0.0
  0
LINE
  5
4D4
  8
__
  6
CONTINUOUS
 62
     7
 10
-1039.267949999999
 20
86.49999860125013
 30
0.0
 11
-1042.73205
 21
86.49999860125013
 31
0.0
  0
LINE
  5
4D5
  8
__
  6
CONTINUOUS
 62
     7
 10
-1039.267949999999
 20
80.50000139875078
 30
0.0
 11
-1037.5359
 21
83.50000000000045
 31
0.0
  0
LINE
  5
4D6
  8
__
  6
CONTINUOUS
 62
     7
 10
-1037.5359
 20
83.50000000000045
 30
0.0
 11
-1039.267949999999
 21
86.49999860125013
 31
0.0
  0
LINE
  5
4D7
  8
__
  6
CONTINUOUS
 62
     7
 10
-1044.4641
 20
83.50000000000045
 30
0.0
 11
-1042.73205
 21
80.50000139875078
 31
0.0
  0
LINE
  5
4D8
  8
__
  6
CONTINUOUS
 62
     7
 10
-1042.73205
 20
86.49999860125013
 30
0.0
 11
-1044.4641
 21
83.50000000000045
 31
0.0
  0
ARC
  5
4D9
  8
__
  6
CONTINUOUS
 62
     7
 10
-1683.477653292292
 20
-464.4888270000001
 30
0.0
 40
24.97765599999966
 50
359.974369
 51
53.15573300000011
  0
LINE
  5
4DA
  8
__
  6
CONTINUOUS
 62
     7
 10
-1783.250000000004
 20
-555.0006854989572
 30
0.0
 11
-1911.824195589369
 21
-570.428883869865
 31
0.0
  0
LINE
  5
4DB
  8
__
  6
CONTINUOUS
 62
     7
 10
-2041.5
 20
-529.1309444583367
 30
0.0
 11
-2041.500000500763
 21
-464.5000006376576
 31
0.0
  0
LINE
  5
4DC
  8
__
  6
CONTINUOUS
 62
     7
 10
-2041.5
 20
-607.5
 30
0.0
 11
-2041.5
 21
-549.8690555416626
 31
0.0
  0
CIRCLE
  5
4DD
  8
__
  6
CONTINUOUS
 62
     7
 10
-100.0000000000005
 20
-519.5
 30
0.0
 40
10.0
  0
LINE
  5
4DE
  8
__
  6
CONTINUOUS
 62
     7
 10
-98.26795000000084
 20
-516.5000013987503
 30
0.0
 11
-101.732050000001
 21
-516.5000013987503
 31
0.0
  0
LINE
  5
4DF
  8
__
  6
CONTINUOUS
 62
     7
 10
-101.732050000001
 20
-522.4999986012497
 30
0.0
 11
-98.26795000000084
 21
-522.4999986012497
 31
0.0
  0
LINE
  5
4E0
  8
__
  6
CONTINUOUS
 62
     7
 10
-101.732050000001
 20
-516.5000013987503
 30
0.0
 11
-103.4641000000006
 21
-519.5
 31
0.0
  0
LINE
  5
4E1
  8
__
  6
CONTINUOUS
 62
     7
 10
-103.4641000000006
 20
-519.5
 30
0.0
 11
-101.732050000001
 21
-522.4999986012497
 31
0.0
  0
LINE
  5
4E2
  8
__
  6
CONTINUOUS
 62
     7
 10
-96.53590000000031
 20
-519.5
 30
0.0
 11
-98.26795000000084
 21
-516.5000013987503
 31
0.0
  0
LINE
  5
4E3
  8
__
  6
CONTINUOUS
 62
     7
 10
-98.26795000000084
 20
-522.4999986012497
 30
0.0
 11
-96.53590000000031
 21
-519.5
 31
0.0
  0
ARC
  5
4E4
  8
__
  6
CONTINUOUS
 62
     7
 10
-1697.605786434606
 20
-1129.38239
 30
0.0
 40
39.10596299999999
 50
318.0972940000001
 51
359.8276839999997
  0
LINE
  5
4E5
  8
__
  6
CONTINUOUS
 62
     7
 10
-1668.500000113155
 20
-1155.499999859392
 30
0.0
 11
-2031.500000176966
 21
-1155.501854157375
 31
0.0
  0
LINE
  5
4E6
  8
__
  6
CONTINUOUS
 62
     7
 10
-1686.5
 20
-1165.5
 30
0.0
 11
-1686.5
 21
-1155.5
 31
0.0
  0
LINE
  5
4E7
  8
__
  6
CONTINUOUS
 62
     7
 10
-2004.73475836397
 20
-1165.5
 30
0.0
 11
-2004.73475836397
 21
-1155.5
 31
0.0
  0
LINE
  5
4E8
  8
__
  6
CONTINUOUS
 62
     7
 10
-1688.764002524979
 20
-1155.5
 30
0.0
 11
-1688.764002524979
 21
-1165.5
 31
0.0
  0
LINE
  5
4E9
  8
__
  6
CONTINUOUS
 62
     7
 10
-1705.752720913717
 20
-1155.5
 30
0.0
 11
-1705.752720913717
 21
-1165.5
 31
0.0
  0
LINE
  5
4EA
  8
__
  6
CONTINUOUS
 62
     7
 10
-1750.5
 20
-1155.5
 30
0.0
 11
-1750.5
 21
-1165.5
 31
0.0
  0
LINE
  5
4EB
  8
__
  6
CONTINUOUS
 62
     7
 10
-1686.5
 20
-1165.5
 30
0.0
 11
-1705.752720913717
 21
-1165.5
 31
0.0
  0
LINE
  5
4EC
  8
__
  6
CONTINUOUS
 62
     7
 10
-1750.5
 20
-1165.5
 30
0.0
 11
-2004.73475836397
 21
-1165.5
 31
0.0
  0
ARC
  5
4ED
  8
__
  6
CONTINUOUS
 62
     7
 10
-1200.0
 20
-1636.054644981046
 30
0.0
 40
0.2546449810461108
 50
356.8251528744259
 51
183.1748471255798
  0
ARC
  5
4EE
  8
__
  6
CONTINUOUS
 62
     7
 10
-1201.186148236944
 20
-1635.945530988189
 30
0.0
 40
0.9400048073215088
 50
247.5320803524773
 51
352.4679196225416
  0
ARC
  5
4EF
  8
__
  6
CONTINUOUS
 62
     7
 10
-1201.684726865794
 20
-1637.027322490523
 30
0.0
 40
0.2546449810462921
 50
56.8251528743726
 51
243.1748471255899
  0
ARC
  5
4F0
  8
__
  6
CONTINUOUS
 62
     7
 10
-1202.372296473988
 20
-1637.999999999943
 30
0.0
 40
0.9400048073212975
 50
307.5320803524826
 51
52.46791962254764
  0
ARC
  5
4F1
  8
__
  6
CONTINUOUS
 62
     7
 10
-1200.0
 20
-1639.945355018954
 30
0.0
 40
0.2546449810456567
 50
176.8251528744202
 51
3.17484712557976
  0
ARC
  5
4F2
  8
__
  6
CONTINUOUS
 62
     7
 10
-1201.186148236944
 20
-1640.054469011811
 30
0.0
 40
0.9400048073215113
 50
7.532080377458499
 51
112.4679196475227
  0
ARC
  5
4F3
  8
__
  6
CONTINUOUS
 62
     7
 10
-1201.684726865794
 20
-1638.972677509477
 30
0.0
 40
0.2546449810459963
 50
116.8251528743639
 51
303.1748471256834
  0
ARC
  5
4F4
  8
__
  6
CONTINUOUS
 62
     7
 10
-1198.813851763056
 20
-1635.945530988189
 30
0.0
 40
0.9400048073215113
 50
187.5320803774585
 51
292.4679196475483
  0
ARC
  5
4F5
  8
__
  6
CONTINUOUS
 62
     7
 10
-1198.315273134206
 20
-1637.027322490523
 30
0.0
 40
0.2546449810457956
 50
296.8251528745014
 51
123.1748471255418
  0
ARC
  5
4F6
  8
__
  6
CONTINUOUS
 62
     7
 10
-1197.627703526012
 20
-1637.999999999943
 30
0.0
 40
0.9400048073214804
 50
127.5320803774304
 51
232.4679196475174
  0
ARC
  5
4F7
  8
__
  6
CONTINUOUS
 62
     7
 10
-1198.813851763056
 20
-1640.054469011811
 30
0.0
 40
0.9400048073216826
 50
67.53208035245173
 51
172.4679196225415
  0
ARC
  5
4F8
  8
__
  6
CONTINUOUS
 62
     7
 10
-1198.315273134206
 20
-1638.972677509477
 30
0.0
 40
0.2546449810456626
 50
236.8251528744022
 51
63.17484712554481
  0
CIRCLE
  5
4F9
  8
__
  6
CONTINUOUS
 62
     7
 10
-1200.0
 20
-1638.0
 30
0.0
 40
4.5
  0
CIRCLE
  5
4FA
  8
__
  6
CONTINUOUS
 62
     7
 10
-1200.0
 20
-1638.0
 30
0.0
 40
3.0
  0
ARC
  5
4FB
  8
__
  6
CONTINUOUS
 62
     7
 10
-1199.999999999997
 20
2980.967316466316
 30
0.0
 40
2972.467316466316
 50
266.6363668788759
 51
273.3636331211241
  0
LINE
  5
4FC
  8
__
  6
CONTINUOUS
 62
     7
 10
-1411.749999999997
 20
80.96067811864347
 30
0.0
 11
-1411.749999999997
 21
251.039321881349
 31
0.0
  0
LINE
  5
4FD
  8
__
  6
CONTINUOUS
 62
     7
 10
-1420.249999999997
 20
75.31854249491238
 30
0.0
 11
-1420.249999999997
 21
256.6814575050797
 31
0.0
  0
LINE
  5
4FE
  8
__
  6
CONTINUOUS
 62
     7
 10
-1430.249999999997
 20
71.17640687118137
 30
0.0
 11
-1430.249999999997
 21
260.8235931288107
 31
0.0
  0
LINE
  5
4FF
  8
__
  6
CONTINUOUS
 62
     7
 10
-979.7499999999968
 20
75.31854249491238
 30
0.0
 11
-979.7499999999968
 21
256.6814575050734
 31
0.0
  0
LINE
  5
500
  8
__
  6
CONTINUOUS
 62
     7
 10
-969.7499999999968
 20
71.17640687118137
 30
0.0
 11
-969.7499999999968
 21
260.8235931288043
 31
0.0
  0
LINE
  5
501
  8
__
  6
CONTINUOUS
 62
     7
 10
-988.2499999999975
 20
80.96067811864256
 30
0.0
 11
-988.2499999999975
 21
251.0393218813433
 31
0.0
  0
LINE
  5
502
  8
__
  6
CONTINUOUS
 62
     7
 10
-1421.463203435593
 20
49.96320343558511
 30
0.0
 11
-1393.855873618041
 21
22.35587361803243
 31
0.0
  0
ARC
  5
503
  8
__
  6
CONTINUOUS
 62
     7
 10
-1199.999999999997
 20
2980.967316466316
 30
0.0
 40
2962.4673164663
 50
266.7106032608793
 51
273.2893967391207
  0
ARC
  5
504
  8
__
  6
CONTINUOUS
 62
     7
 10
-1199.999999999997
 20
2980.967316466316
 30
0.0
 40
2952.4673164663
 50
266.7852388147292
 51
273.2147611852708
  0
LINE
  5
505
  8
__
  6
CONTINUOUS
 62
     7
 10
-1411.463203435593
 20
54.10533905931612
 30
0.0
 11
-1389.476040366493
 21
32.11817599021575
 31
0.0
  0
LINE
  5
506
  8
__
  6
CONTINUOUS
 62
     7
 10
-1402.963203435594
 20
59.74747468304727
 30
0.0
 11
-1385.10146694204
 21
41.88573818949362
 31
0.0
  0
ARC
  5
507
  8
__
  6
CONTINUOUS
 62
     7
 10
-1363.888263506446
 20
63.09894162508743
 30
0.0
 40
29.9999999999965
 50
224.9999999999996
 51
266.7852388147334
  0
ARC
  5
508
  8
__
  6
CONTINUOUS
 62
     7
 10
-1368.262836930898
 20
53.33137942581038
 30
0.0
 40
29.99999999999773
 50
224.9999999999995
 51
266.7106032608816
  0
ARC
  5
509
  8
__
  6
CONTINUOUS
 62
     7
 10
-1372.642670182444
 20
43.5690770536292
 30
0.0
 40
30.00000000000085
 50
224.9999999999993
 51
266.6363668788753
  0
LINE
  5
50A
  8
__
  6
CONTINUOUS
 62
     7
 10
-978.5367965644002
 20
49.96320343558511
 30
0.0
 11
-1006.144126381953
 21
22.35587361803198
 31
0.0
  0
LINE
  5
50B
  8
__
  6
CONTINUOUS
 62
     7
 10
-988.5367965644002
 20
54.10533905931612
 30
0.0
 11
-1010.5239596335
 21
32.11817599021637
 31
0.0
  0
LINE
  5
50C
  8
__
  6
CONTINUOUS
 62
     7
 10
-997.0367965644009
 20
59.74747468304636
 30
0.0
 11
-1014.898533057953
 21
41.88573818949362
 31
0.0
  0
ARC
  5
50D
  8
__
  6
CONTINUOUS
 62
     7
 10
-1036.111736493548
 20
63.09894162508743
 30
0.0
 40
29.99999999999653
 50
273.2147611852668
 51
315.0000000000007
  0
ARC
  5
50E
  8
__
  6
CONTINUOUS
 62
     7
 10
-1031.737163069098
 20
53.33137942581396
 30
0.0
 40
30.00000000000196
 50
273.2893967391236
 51
315.0000000000008
  0
ARC
  5
50F
  8
__
  6
CONTINUOUS
 62
     7
 10
-1027.357329817549
 20
43.56907705362755
 30
0.0
 40
29.99999999999903
 50
273.3636331211227
 51
315.0000000000005
  0
ARC
  5
510
  8
__
  6
CONTINUOUS
 62
     7
 10
-1400.249999999996
 20
71.17640687118114
 30
0.0
 40
30.00000000000045
 50
179.9999999999996
 51
224.9999999999989
  0
ARC
  5
511
  8
__
  6
CONTINUOUS
 62
     7
 10
-1390.249999999996
 20
75.31854249491215
 30
0.0
 40
30.00000000000045
 50
179.9999999999996
 51
224.9999999999989
  0
ARC
  5
512
  8
__
  6
CONTINUOUS
 62
     7
 10
-1381.749999999997
 20
80.96067811864376
 30
0.0
 40
29.99999999999955
 50
180.0000000000005
 51
225.0000000000002
  0
ARC
  5
513
  8
__
  6
CONTINUOUS
 62
     7
 10
-1018.249999999997
 20
80.96067811864262
 30
0.0
 40
30.0
 50
315.0000000000005
 51
359.9999999999999
  0
ARC
  5
514
  8
__
  6
CONTINUOUS
 62
     7
 10
-1009.749999999997
 20
75.31854249491238
 30
0.0
 40
30.0
 50
315.0000000000005
 51
0.0
  0
ARC
  5
515
  8
__
  6
CONTINUOUS
 62
     7
 10
-999.7499999999968
 20
71.17640687118137
 30
0.0
 40
30.0
 50
315.0000000000005
 51
0.0
  0
LINE
  5
516
  8
__
  6
CONTINUOUS
 62
     7
 10
-1299.573593128807
 20
391.5
 30
0.0
 11
-1100.426406871193
 21
391.5
 31
0.0
  0
LINE
  5
517
  8
__
  6
CONTINUOUS
 62
     7
 10
-1295.431457505076
 20
381.5
 30
0.0
 11
-1104.568542494924
 21
381.5
 31
0.0
  0
LINE
  5
518
  8
__
  6
CONTINUOUS
 62
     7
 10
-1291.289321881346
 20
371.5
 30
0.0
 11
-1108.710678118654
 21
371.5
 31
0.0
  0
LINE
  5
519
  8
__
  6
CONTINUOUS
 62
     7
 10
-1411.463203435593
 20
277.8946609406761
 30
0.0
 11
-1316.644660940673
 21
372.7132034355965
 31
0.0
  0
LINE
  5
51A
  8
__
  6
CONTINUOUS
 62
     7
 10
-1402.963203435593
 20
272.2525253169454
 30
0.0
 11
-1312.502525316942
 21
362.7132034355965
 31
0.0
  0
LINE
  5
51B
  8
__
  6
CONTINUOUS
 62
     7
 10
-1434.411056916194
 20
280.4026515827907
 30
0.0
 11
-1319.152651582787
 21
395.6610569161978
 31
0.0
  0
LINE
  5
51C
  8
__
  6
CONTINUOUS
 62
     7
 10
-1434.411056916194
 20
280.4026515827907
 30
0.0
 11
-1427.46187597416
 21
273.453470640756
 31
0.0
  0
LINE
  5
51D
  8
__
  6
CONTINUOUS
 62
     7
 10
-1319.152651582787
 20
395.6610569161978
 30
0.0
 11
-1312.203470640752
 21
388.7118759741637
 31
0.0
  0
LINE
  5
51E
  8
__
  6
CONTINUOUS
 62
     7
 10
-1421.463203435593
 20
282.0367965644071
 30
0.0
 11
-1320.786796564404
 21
382.7132034355965
 31
0.0
  0
ARC
  5
51F
  8
__
  6
CONTINUOUS
 62
     7
 10
-1299.573593128807
 20
361.5
 30
0.0
 40
30.0
 50
90.0
 51
134.9999999999998
  0
ARC
  5
520
  8
__
  6
CONTINUOUS
 62
     7
 10
-1295.431457505076
 20
351.5
 30
0.0
 40
30.0
 50
90.0
 51
134.9999999999998
  0
ARC
  5
521
  8
__
  6
CONTINUOUS
 62
     7
 10
-1291.289321881346
 20
341.5
 30
0.0
 40
30.0
 50
90.0
 51
134.9999999999998
  0
ARC
  5
522
  8
__
  6
CONTINUOUS
 62
     7
 10
-1381.749999999997
 20
251.0393218813489
 30
0.0
 40
30.0
 50
134.9999999999999
 51
179.9999999999999
  0
ARC
  5
523
  8
__
  6
CONTINUOUS
 62
     7
 10
-1390.249999999997
 20
256.6814575050797
 30
0.0
 40
30.0
 50
134.9999999999999
 51
179.9999999999999
  0
ARC
  5
524
  8
__
  6
CONTINUOUS
 62
     7
 10
-1400.249999999997
 20
260.8235931288106
 30
0.0
 40
30.0
 50
134.9999999999999
 51
179.9999999999999
  0
LINE
  5
525
  8
__
  6
CONTINUOUS
 62
     7
 10
-988.5367965644004
 20
277.8946609406698
 30
0.0
 11
-1083.355339059327
 21
372.7132034355965
 31
0.0
  0
LINE
  5
526
  8
__
  6
CONTINUOUS
 62
     7
 10
-997.0367965644011
 20
272.2525253169397
 30
0.0
 11
-1087.497474683058
 21
362.7132034355965
 31
0.0
  0
LINE
  5
527
  8
__
  6
CONTINUOUS
 62
     7
 10
-965.5889430838056
 20
280.4026515827907
 30
0.0
 11
-1080.847348417213
 21
395.6610569161978
 31
0.0
  0
LINE
  5
528
  8
__
  6
CONTINUOUS
 62
     7
 10
-965.5889430838056
 20
280.4026515827907
 30
0.0
 11
-972.5381240258396
 21
273.453470640756
 31
0.0
  0
LINE
  5
529
  8
__
  6
CONTINUOUS
 62
     7
 10
-1080.847348417213
 20
395.6610569161978
 30
0.0
 11
-1087.796529359248
 21
388.7118759741637
 31
0.0
  0
LINE
  5
52A
  8
__
  6
CONTINUOUS
 62
     7
 10
-978.5367965644004
 20
282.0367965644007
 30
0.0
 11
-1079.213203435596
 21
382.7132034355965
 31
0.0
  0
ARC
  5
52B
  8
__
  6
CONTINUOUS
 62
     7
 10
-1100.426406871193
 20
361.5
 30
0.0
 40
30.0
 50
45.00000000000015
 51
90.0
  0
ARC
  5
52C
  8
__
  6
CONTINUOUS
 62
     7
 10
-1104.568542494924
 20
351.5
 30
0.0
 40
30.0
 50
45.00000000000015
 51
90.0
  0
ARC
  5
52D
  8
__
  6
CONTINUOUS
 62
     7
 10
-1108.710678118654
 20
341.5
 30
0.0
 40
30.0
 50
45.00000000000015
 51
90.0
  0
ARC
  5
52E
  8
__
  6
CONTINUOUS
 62
     7
 10
-999.7499999999968
 20
260.8235931288042
 30
0.0
 40
30.0
 50
0.0000000000001137
 51
45.00000000000017
  0
ARC
  5
52F
  8
__
  6
CONTINUOUS
 62
     7
 10
-1009.749999999997
 20
256.6814575050733
 30
0.0
 40
30.0
 50
0.0000000000001137
 51
45.00000000000017
  0
ARC
  5
530
  8
__
  6
CONTINUOUS
 62
     7
 10
-1018.249999999997
 20
251.0393218813433
 30
0.0
 40
30.0
 50
0.0000000000000568
 51
45.00000000000017
  0
LINE
  5
531
  8
__
  6
CONTINUOUS
 62
     7
 10
-1015.068323558944
 20
-1109.296576861737
 30
0.0
 11
-1015.068323558944
 21
-485.7034231382628
 31
0.0
  0
LINE
  5
532
  8
__
  6
CONTINUOUS
 62
     7
 10
-1427.25
 20
-483.3330448963385
 30
0.0
 11
-1427.25
 21
-1111.666955103661
 31
0.0
  0
LINE
  5
533
  8
__
  6
CONTINUOUS
 62
     7
 10
-1430.25
 20
-464.5000005282823
 30
0.0
 11
-1430.25
 21
-1129.403760585188
 31
0.0
  0
LINE
  5
534
  8
__
  6
CONTINUOUS
 62
     7
 10
-972.75
 20
-483.3449421903563
 30
0.0
 11
-972.75
 21
-1111.655057809644
 31
0.0
  0
LINE
  5
535
  8
__
  6
CONTINUOUS
 62
     7
 10
-969.75
 20
-464.5000005282823
 30
0.0
 11
-969.75
 21
-1129.403760585188
 31
0.0
  0
ARC
  5
536
  8
__
  6
CONTINUOUS
 62
     7
 10
-1119.653314
 20
-571.0
 30
0.0
 40
100.0000000000001
 50
85.05649899999996
 51
90.0
  0
ARC
  5
537
  8
__
  6
CONTINUOUS
 62
     7
 10
-1119.489916
 20
-568.0
 30
0.0
 40
100.0000000000001
 50
84.85838799999996
 51
90.0
  0
ARC
  5
538
  8
__
  6
CONTINUOUS
 62
     7
 10
-1118.773719
 20
-564.4999998906246
 30
0.0
 40
99.99999999999996
 50
84.90752200000011
 51
90.0
  0
ARC
  5
539
  8
__
  6
CONTINUOUS
 62
     7
 10
-1281.141942
 20
-564.4999998906246
 30
0.0
 40
100.0
 50
90.0
 51
95.18892899999996
  0
ARC
  5
53A
  8
__
  6
CONTINUOUS
 62
     7
 10
-1280.510084
 20
-568.0
 30
0.0
 40
100.0
 50
90.0
 51
95.14161200000004
  0
LINE
  5
53B
  8
__
  6
CONTINUOUS
 62
     7
 10
-1280.510084
 20
-468.0
 30
0.0
 11
-1119.489916
 21
-468.0
 31
0.0
  0
ARC
  5
53C
  8
__
  6
CONTINUOUS
 62
     7
 10
-1280.346686
 20
-571.0
 30
0.0
 40
100.0
 50
90.0
 51
94.94350100000005
  0
LINE
  5
53D
  8
__
  6
CONTINUOUS
 62
     7
 10
-1280.346686
 20
-471.0
 30
0.0
 11
-1119.653314
 21
-471.0
 31
0.0
  0
LINE
  5
53E
  8
__
  6
CONTINUOUS
 62
     7
 10
-1277.6
 20
-487.0
 30
0.0
 11
-1122.4
 21
-487.0
 31
0.0
  0
LINE
  5
53F
  8
__
  6
CONTINUOUS
 62
     7
 10
-1277.6
 20
-487.0
 30
0.0
 11
-1287.6
 21
-477.2764050000001
 31
0.0
  0
LINE
  5
540
  8
__
  6
CONTINUOUS
 62
     7
 10
-1122.4
 20
-487.0
 30
0.0
 11
-1112.4
 21
-477.2764050000001
 31
0.0
  0
LINE
  5
541
  8
__
  6
CONTINUOUS
 62
     7
 10
-1290.0
 20
-440.4999998906246
 30
0.0
 11
-1110.0
 21
-440.4999998906246
 31
0.0
  0
LINE
  5
542
  8
__
  6
CONTINUOUS
 62
     7
 10
-1281.141942
 20
-464.4999998906246
 30
0.0
 11
-1118.773719
 21
-464.4999998906246
 31
0.0
  0
LINE
  5
543
  8
__
  6
CONTINUOUS
 62
     7
 10
-1289.47185
 20
-468.402376
 30
0.0
 11
-1430.25
 21
-481.0695544356871
 31
0.0
  0
LINE
  5
544
  8
__
  6
CONTINUOUS
 62
     7
 10
-1427.25
 20
-483.3330448963385
 30
0.0
 11
-1288.964022
 21
-471.3719839999999
 31
0.0
  0
LINE
  5
545
  8
__
  6
CONTINUOUS
 62
     7
 10
-1384.931676441051
 20
-485.6951192632687
 30
0.0
 11
-1287.6
 21
-477.2764050000001
 31
0.0
  0
LINE
  5
546
  8
__
  6
CONTINUOUS
 62
     7
 10
-1430.25
 20
-477.6293479291123
 30
0.0
 11
-1290.185956834428
 21
-464.9098106364886
 31
0.0
  0
LINE
  5
547
  8
__
  6
CONTINUOUS
 62
     7
 10
-972.75
 20
-483.3449421903563
 30
0.0
 11
-1111.035978
 21
-471.3719839999999
 31
0.0
  0
LINE
  5
548
  8
__
  6
CONTINUOUS
 62
     7
 10
-1110.52815
 20
-468.402376
 30
0.0
 11
-969.75
 21
-481.0818493069778
 31
0.0
  0
LINE
  5
549
  8
__
  6
CONTINUOUS
 62
     7
 10
-1015.068323558944
 20
-485.7034231382628
 30
0.0
 11
-1112.4
 21
-477.2764050000001
 31
0.0
  0
LINE
  5
54A
  8
__
  6
CONTINUOUS
 62
     7
 10
-1420.249999813124
 20
-444.5
 30
0.0
 11
-979.7500001868762
 21
-444.5
 31
0.0
  0
LINE
  5
54B
  8
__
  6
CONTINUOUS
 62
     7
 10
-969.75
 20
-477.3961978756752
 30
0.0
 11
-1109.897365782213
 21
-464.8947271709885
 31
0.0
  0
ARC
  5
54C
  8
__
  6
CONTINUOUS
 62
     7
 10
-1405.272346499237
 20
-464.4888268906248
 30
0.0
 40
24.97765600000008
 50
126.8442670000007
 51
180.025631
  0
ARC
  5
54D
  8
__
  6
CONTINUOUS
 62
     7
 10
-994.7276535007627
 20
-464.4888268906248
 30
0.0
 40
24.97765600000011
 50
359.974369
 51
53.15573299999932
  0
ARC
  5
54E
  8
__
  6
CONTINUOUS
 62
     7
 10
-1289.88760109764
 20
-461.3071815133695
 30
0.0
 40
20.80748520593359
 50
90.30950467985849
 51
126.1236222658684
  0
ARC
  5
54F
  8
__
  6
CONTINUOUS
 62
     7
 10
-1110.11239890236
 20
-461.3071815133695
 30
0.0
 40
20.80748520593357
 50
53.87637773413156
 51
89.69049532014152
  0
ARC
  5
550
  8
__
  6
CONTINUOUS
 62
     7
 10
-1280.346686
 20
-1024.0
 30
0.0
 40
100.0000000000001
 50
265.0564989999999
 51
270.0
  0
ARC
  5
551
  8
__
  6
CONTINUOUS
 62
     7
 10
-1280.510084
 20
-1027.0
 30
0.0
 40
100.0000000000001
 50
264.8583879999999
 51
270.0
  0
ARC
  5
552
  8
__
  6
CONTINUOUS
 62
     7
 10
-1281.226281
 20
-1033.0
 30
0.0
 40
100.0
 50
264.9075219999999
 51
270.0
  0
ARC
  5
553
  8
__
  6
CONTINUOUS
 62
     7
 10
-1118.773719
 20
-1033.0
 30
0.0
 40
100.0
 50
270.0
 51
275.0924779999999
  0
LINE
  5
554
  8
__
  6
CONTINUOUS
 62
     7
 10
-1280.510084
 20
-1127.0
 30
0.0
 11
-1119.489916
 21
-1127.0
 31
0.0
  0
ARC
  5
555
  8
__
  6
CONTINUOUS
 62
     7
 10
-1119.489916
 20
-1027.0
 30
0.0
 40
100.0
 50
270.0
 51
275.1416120000001
  0
LINE
  5
556
  8
__
  6
CONTINUOUS
 62
     7
 10
-1280.346686
 20
-1124.0
 30
0.0
 11
-1119.653314
 21
-1124.0
 31
0.0
  0
ARC
  5
557
  8
__
  6
CONTINUOUS
 62
     7
 10
-1119.653314
 20
-1024.0
 30
0.0
 40
100.0
 50
270.0
 51
274.943501
  0
LINE
  5
558
  8
__
  6
CONTINUOUS
 62
     7
 10
-1277.6
 20
-1108.0
 30
0.0
 11
-1122.4
 21
-1108.0
 31
0.0
  0
LINE
  5
559
  8
__
  6
CONTINUOUS
 62
     7
 10
-1277.6
 20
-1108.0
 30
0.0
 11
-1287.6
 21
-1117.723595
 31
0.0
  0
LINE
  5
55A
  8
__
  6
CONTINUOUS
 62
     7
 10
-1122.4
 20
-1108.0
 30
0.0
 11
-1112.4
 21
-1117.723595
 31
0.0
  0
LINE
  5
55B
  8
__
  6
CONTINUOUS
 62
     7
 10
-1281.226281
 20
-1133.0
 30
0.0
 11
-1118.773719
 21
-1133.0
 31
0.0
  0
LINE
  5
55C
  8
__
  6
CONTINUOUS
 62
     7
 10
-1427.25
 20
-1111.666955103661
 30
0.0
 11
-1288.964022
 21
-1123.628016
 31
0.0
  0
LINE
  5
55D
  8
__
  6
CONTINUOUS
 62
     7
 10
-1289.47185
 20
-1126.597624
 30
0.0
 11
-1430.25
 21
-1113.930445564313
 31
0.0
  0
LINE
  5
55E
  8
__
  6
CONTINUOUS
 62
     7
 10
-1384.931676441051
 20
-1109.304880736731
 30
0.0
 11
-1287.6
 21
-1117.723595
 31
0.0
  0
LINE
  5
55F
  8
__
  6
CONTINUOUS
 62
     7
 10
-1430.25
 20
-1120.11599914612
 30
0.0
 11
-1290.102634
 21
-1132.605273
 31
0.0
  0
LINE
  5
560
  8
__
  6
CONTINUOUS
 62
     7
 10
-1420.163352944071
 20
-1155.499999859392
 30
0.0
 11
-979.8366470559288
 21
-1155.499999859392
 31
0.0
  0
LINE
  5
561
  8
__
  6
CONTINUOUS
 62
     7
 10
-1110.52815
 20
-1126.597624
 30
0.0
 11
-969.75
 21
-1113.918150693022
 31
0.0
  0
LINE
  5
562
  8
__
  6
CONTINUOUS
 62
     7
 10
-972.75
 20
-1111.655057809644
 30
0.0
 11
-1111.035978
 21
-1123.628016
 31
0.0
  0
LINE
  5
563
  8
__
  6
CONTINUOUS
 62
     7
 10
-1015.068323558944
 20
-1109.296576861737
 30
0.0
 11
-1112.4
 21
-1117.723595
 31
0.0
  0
LINE
  5
564
  8
__
  6
CONTINUOUS
 62
     7
 10
-969.75
 20
-1120.103802275886
 30
0.0
 11
-1109.897366
 21
-1132.605273
 31
0.0
  0
LINE
  5
565
  8
__
  6
CONTINUOUS
 62
     7
 10
-1434.411056916194
 20
-1070.869055541663
 30
0.0
 11
-1434.411056916194
 21
-1050.130944458337
 31
0.0
  0
LINE
  5
566
  8
__
  6
CONTINUOUS
 62
     7
 10
-1434.411056916194
 20
-1070.869055541663
 30
0.0
 11
-1428.798060846299
 21
-1070.869055541663
 31
0.0
  0
LINE
  5
567
  8
__
  6
CONTINUOUS
 62
     7
 10
-1434.411056916194
 20
-1050.130944458337
 30
0.0
 11
-1430.25
 21
-1050.130944458337
 31
0.0
  0
ARC
  5
568
  8
__
  6
CONTINUOUS
 62
     7
 10
-1391.144213855515
 20
-1129.286150300116
 30
0.0
 40
39.1059629999999
 50
180.1723160000003
 51
222.0924395281607
  0
ARC
  5
569
  8
__
  6
CONTINUOUS
 62
     7
 10
-1008.855786144485
 20
-1129.286150300116
 30
0.0
 40
39.10596299999987
 50
317.9075604718393
 51
359.8276839999997
  0
POLYLINE
  5
56A
  8
__
  6
CONTINUOUS
 62
     7
 66
     1
 10
0.0
 20
0.0
 30
0.0
 70
   129
  0
VERTEX
  5
794
  8
__
  6
CONTINUOUS
 62
     7
 10
-1220.0
 20
-977.4999998593923
 30
0.0
  0
VERTEX
  5
795
  8
__
  6
CONTINUOUS
 62
     7
 10
-1180.0
 20
-977.4999998593923
 30
0.0
  0
VERTEX
  5
796
  8
__
  6
CONTINUOUS
 62
     7
 10
-1180.0
 20
-1017.499999859392
 30
0.0
  0
VERTEX
  5
797
  8
__
  6
CONTINUOUS
 62
     7
 10
-1220.0
 20
-1017.499999859392
 30
0.0
  0
SEQEND
  5
7BC
  8
__
  6
CONTINUOUS
 62
     7
  0
POLYLINE
  5
570
  8
__
  6
CONTINUOUS
 62
     7
 66
     1
 10
0.0
 20
0.0
 30
0.0
 70
   129
  0
VERTEX
  5
798
  8
__
  6
CONTINUOUS
 62
     7
 10
-1231.0
 20
-967.4999998593923
 30
0.0
  0
VERTEX
  5
799
  8
__
  6
CONTINUOUS
 62
     7
 10
-1169.0
 20
-967.4999998593923
 30
0.0
  0
VERTEX
  5
79A
  8
__
  6
CONTINUOUS
 62
     7
 10
-1169.0
 20
-1027.499999859392
 30
0.0
  0
VERTEX
  5
79B
  8
__
  6
CONTINUOUS
 62
     7
 10
-1231.0
 20
-1027.499999859392
 30
0.0
  0
SEQEND
  5
7BD
  8
__
  6
CONTINUOUS
 62
     7
  0
LINE
  5
576
  8
__
  6
CONTINUOUS
 62
     7
 10
-1384.931676441051
 20
-485.6951192632687
 30
0.0
 11
-1384.931676441051
 21
-1109.304880736731
 31
0.0
  0
ARC
  5
577
  8
__
  6
CONTINUOUS
 62
     7
 10
-1200.000000000002
 20
-4480.967316466316
 30
0.0
 40
2972.467316466316
 50
86.6363668788759
 51
93.3636331211241
  0
LINE
  5
578
  8
__
  6
CONTINUOUS
 62
     7
 10
-1420.250000000002
 20
-1575.318542494912
 30
0.0
 11
-1420.250000000002
 21
-1756.68145750508
 31
0.0
  0
LINE
  5
579
  8
__
  6
CONTINUOUS
 62
     7
 10
-1430.250000000002
 20
-1571.176406871181
 30
0.0
 11
-1430.250000000002
 21
-1760.823593128811
 31
0.0
  0
LINE
  5
57A
  8
__
  6
CONTINUOUS
 62
     7
 10
-979.7500000000023
 20
-1575.318542494912
 30
0.0
 11
-979.7500000000023
 21
-1756.681457505073
 31
0.0
  0
LINE
  5
57B
  8
__
  6
CONTINUOUS
 62
     7
 10
-969.7500000000023
 20
-1571.176406871181
 30
0.0
 11
-969.7500000000023
 21
-1760.823593128804
 31
0.0
  0
LINE
  5
57C
  8
__
  6
CONTINUOUS
 62
     7
 10
-1421.463203435599
 20
-1549.963203435585
 30
0.0
 11
-1393.855873618047
 21
-1522.355873618033
 31
0.0
  0
ARC
  5
57D
  8
__
  6
CONTINUOUS
 62
     7
 10
-1200.000000000002
 20
-4480.967316466316
 30
0.0
 40
2962.4673164663
 50
86.7106032608793
 51
93.2893967391207
  0
LINE
  5
57E
  8
__
  6
CONTINUOUS
 62
     7
 10
-1411.463203435599
 20
-1554.105339059316
 30
0.0
 11
-1389.476040366499
 21
-1532.118175990216
 31
0.0
  0
ARC
  5
57F
  8
__
  6
CONTINUOUS
 62
     7
 10
-1368.262836930904
 20
-1553.33137942581
 30
0.0
 40
29.99999999999776
 50
93.2893967391184
 51
135.0000000000006
  0
ARC
  5
580
  8
__
  6
CONTINUOUS
 62
     7
 10
-1372.642670182449
 20
-1543.569077053629
 30
0.0
 40
30.00000000000092
 50
93.36363312112474
 51
135.0000000000006
  0
LINE
  5
581
  8
__
  6
CONTINUOUS
 62
     7
 10
-978.5367965644057
 20
-1549.963203435585
 30
0.0
 11
-1006.144126381958
 21
-1522.355873618032
 31
0.0
  0
LINE
  5
582
  8
__
  6
CONTINUOUS
 62
     7
 10
-988.5367965644057
 20
-1554.105339059316
 30
0.0
 11
-1010.523959633505
 21
-1532.118175990217
 31
0.0
  0
ARC
  5
583
  8
__
  6
CONTINUOUS
 62
     7
 10
-1031.737163069103
 20
-1553.331379425814
 30
0.0
 40
30.00000000000201
 50
44.99999999999908
 51
86.71060326087643
  0
ARC
  5
584
  8
__
  6
CONTINUOUS
 62
     7
 10
-1027.357329817554
 20
-1543.569077053628
 30
0.0
 40
29.99999999999896
 50
44.99999999999939
 51
86.63636687887724
  0
ARC
  5
585
  8
__
  6
CONTINUOUS
 62
     7
 10
-1400.250000000002
 20
-1571.176406871181
 30
0.0
 40
29.99999999999992
 50
135.0000000000012
 51
180.0000000000004
  0
ARC
  5
586
  8
__
  6
CONTINUOUS
 62
     7
 10
-1390.250000000002
 20
-1575.318542494912
 30
0.0
 40
30.00000000000008
 50
135.0000000000009
 51
180.0000000000004
  0
ARC
  5
587
  8
__
  6
CONTINUOUS
 62
     7
 10
-1009.750000000002
 20
-1575.318542494912
 30
0.0
 40
30.0
 50
0.0
 51
44.99999999999972
  0
ARC
  5
588
  8
__
  6
CONTINUOUS
 62
     7
 10
-999.7500000000023
 20
-1571.176406871181
 30
0.0
 40
30.0
 50
0.0
 51
44.99999999999937
  0
LINE
  5
589
  8
__
  6
CONTINUOUS
 62
     7
 10
-1299.573593128813
 20
-1891.5
 30
0.0
 11
-1100.426406871198
 21
-1891.5
 31
0.0
  0
LINE
  5
58A
  8
__
  6
CONTINUOUS
 62
     7
 10
-1295.431457505082
 20
-1881.5
 30
0.0
 11
-1104.568542494929
 21
-1881.5
 31
0.0
  0
LINE
  5
58B
  8
__
  6
CONTINUOUS
 62
     7
 10
-1411.463203435599
 20
-1777.894660940676
 30
0.0
 11
-1316.644660940678
 21
-1872.713203435597
 31
0.0
  0
LINE
  5
58C
  8
__
  6
CONTINUOUS
 62
     7
 10
-1434.4110569162
 20
-1780.402651582791
 30
0.0
 11
-1319.152651582792
 21
-1895.661056916198
 31
0.0
  0
LINE
  5
58D
  8
__
  6
CONTINUOUS
 62
     7
 10
-1434.4110569162
 20
-1780.402651582791
 30
0.0
 11
-1427.461875974166
 21
-1773.453470640756
 31
0.0
  0
LINE
  5
58E
  8
__
  6
CONTINUOUS
 62
     7
 10
-1319.152651582792
 20
-1895.661056916198
 30
0.0
 11
-1312.203470640758
 21
-1888.711875974164
 31
0.0
  0
LINE
  5
58F
  8
__
  6
CONTINUOUS
 62
     7
 10
-1421.463203435599
 20
-1782.036796564407
 30
0.0
 11
-1320.786796564409
 21
-1882.713203435597
 31
0.0
  0
ARC
  5
590
  8
__
  6
CONTINUOUS
 62
     7
 10
-1299.573593128813
 20
-1861.5
 30
0.0
 40
30.00000000000008
 50
225.0000000000003
 51
270.0
  0
ARC
  5
591
  8
__
  6
CONTINUOUS
 62
     7
 10
-1295.431457505082
 20
-1851.5
 30
0.0
 40
30.00000000000008
 50
225.0000000000003
 51
270.0
  0
ARC
  5
592
  8
__
  6
CONTINUOUS
 62
     7
 10
-1390.250000000002
 20
-1756.68145750508
 30
0.0
 40
30.0
 50
180.0
 51
225.0
  0
ARC
  5
593
  8
__
  6
CONTINUOUS
 62
     7
 10
-1400.250000000002
 20
-1760.823593128811
 30
0.0
 40
30.0
 50
180.0
 51
225.0000000000003
  0
LINE
  5
594
  8
__
  6
CONTINUOUS
 62
     7
 10
-988.5367965644059
 20
-1777.89466094067
 30
0.0
 11
-1083.355339059333
 21
-1872.713203435597
 31
0.0
  0
LINE
  5
595
  8
__
  6
CONTINUOUS
 62
     7
 10
-965.588943083811
 20
-1780.402651582791
 30
0.0
 11
-1080.847348417219
 21
-1895.661056916198
 31
0.0
  0
LINE
  5
596
  8
__
  6
CONTINUOUS
 62
     7
 10
-965.588943083811
 20
-1780.402651582791
 30
0.0
 11
-972.538124025845
 21
-1773.453470640756
 31
0.0
  0
LINE
  5
597
  8
__
  6
CONTINUOUS
 62
     7
 10
-1080.847348417219
 20
-1895.661056916198
 30
0.0
 11
-1087.796529359253
 21
-1888.711875974164
 31
0.0
  0
LINE
  5
598
  8
__
  6
CONTINUOUS
 62
     7
 10
-978.5367965644059
 20
-1782.036796564401
 30
0.0
 11
-1079.213203435602
 21
-1882.713203435597
 31
0.0
  0
ARC
  5
599
  8
__
  6
CONTINUOUS
 62
     7
 10
-1100.426406871198
 20
-1861.5
 30
0.0
 40
30.0
 50
270.0
 51
314.9999999999998
  0
ARC
  5
59A
  8
__
  6
CONTINUOUS
 62
     7
 10
-1104.568542494929
 20
-1851.5
 30
0.0
 40
30.0
 50
270.0
 51
314.9999999999998
  0
ARC
  5
59B
  8
__
  6
CONTINUOUS
 62
     7
 10
-999.7500000000023
 20
-1760.823593128804
 30
0.0
 40
30.00000000000008
 50
314.9999999999998
 51
0.0
  0
ARC
  5
59C
  8
__
  6
CONTINUOUS
 62
     7
 10
-1009.750000000002
 20
-1756.681457505073
 30
0.0
 40
29.99999999999992
 50
315.0
 51
0.0
  0
ARC
  5
59D
  8
__
  6
CONTINUOUS
 62
     7
 10
-1200.000000000002
 20
-4480.967316466316
 30
0.0
 40
2944.467316466316
 50
87.73812669644904
 51
92.2618733035507
  0
ARC
  5
59E
  8
__
  6
CONTINUOUS
 62
     7
 10
-1200.000000000002
 20
-4480.967316466316
 30
0.0
 40
2914.467316466316
 50
87.66754301244842
 51
92.33245698755171
  0
ARC
  5
59F
  8
__
  6
CONTINUOUS
 62
     7
 10
-1200.000000000002
 20
-4480.967316466316
 30
0.0
 40
2927.467316466316
 50
87.73901991438647
 51
92.26098008561353
  0
ARC
  5
5A0
  8
__
  6
CONTINUOUS
 62
     7
 10
-1315.492408720042
 20
-1547.271459021846
 30
0.0
 40
8.507591279958687
 50
89.67748300758647
 51
274.5088602321622
  0
ARC
  5
5A1
  8
__
  6
CONTINUOUS
 62
     7
 10
-1084.507591279958
 20
-1547.271459021846
 30
0.0
 40
8.507591279958753
 50
265.4911397678378
 51
90.32251699241357
  0
CIRCLE
  5
5A2
  8
__
  6
CONTINUOUS
 62
     7
 10
-1084.507591279958
 20
-1547.271459021846
 30
0.0
 40
1.5
  0
CIRCLE
  5
5A3
  8
__
  6
CONTINUOUS
 62
     7
 10
-1315.492408720042
 20
-1547.271459021846
 30
0.0
 40
1.5
  0
ARC
  5
5A4
  8
__
  6
CONTINUOUS
 62
     7
 10
-1359.000000000005
 20
-1583.5
 30
0.0
 40
25.99999999999984
 50
274.1961241169878
 51
359.4379248276031
  0
ARC
  5
5A5
  8
__
  6
CONTINUOUS
 62
     7
 10
-1318.00197284933
 20
-1583.902206107206
 30
0.0
 40
15.00000000000039
 50
92.33245698755107
 51
179.4379248276005
  0
ARC
  5
5A6
  8
__
  6
CONTINUOUS
 62
     7
 10
-1356.0
 20
-1624.390096600521
 30
0.0
 40
14.99999999999987
 50
94.19612411698658
 51
180.0
  0
LINE
  5
5A7
  8
__
  6
CONTINUOUS
 62
     7
 10
-1371.0
 20
-1624.390096600521
 30
0.0
 11
-1371.0
 21
-1742.494642993793
 31
0.0
  0
ARC
  5
5A8
  8
__
  6
CONTINUOUS
 62
     7
 10
-1040.999999999995
 20
-1583.5
 30
0.0
 40
25.99999999999986
 50
180.5620751723969
 51
265.8038758830122
  0
ARC
  5
5A9
  8
__
  6
CONTINUOUS
 62
     7
 10
-1081.99802715067
 20
-1583.902206107206
 30
0.0
 40
14.99999999999996
 50
0.5620751723994847
 51
87.66754301244895
  0
ARC
  5
5AA
  8
__
  6
CONTINUOUS
 62
     7
 10
-1044.0
 20
-1624.390096600521
 30
0.0
 40
15.0
 50
0.0
 51
85.8038758830134
  0
LINE
  5
5AB
  8
__
  6
CONTINUOUS
 62
     7
 10
-1029.0
 20
-1624.390096600521
 30
0.0
 11
-1029.0
 21
-1742.494642993793
 31
0.0
  0
LINE
  5
5AC
  8
__
  6
CONTINUOUS
 62
     7
 10
-1016.0
 20
-1610.5
 30
0.0
 11
-1016.0
 21
-1747.879419304643
 31
0.0
  0
LINE
  5
5AD
  8
__
  6
CONTINUOUS
 62
     7
 10
-996.0
 20
-1610.5
 30
0.0
 11
-996.0
 21
-1756.163690552105
 31
0.0
  0
ARC
  5
5AE
  8
__
  6
CONTINUOUS
 62
     7
 10
-1006.0
 20
-1610.5
 30
0.0
 40
10.0
 50
0.0
 51
180.0
  0
CIRCLE
  5
5AF
  8
__
  6
CONTINUOUS
 62
     7
 10
-1006.0
 20
-1610.5
 30
0.0
 40
1.5
  0
LINE
  5
5B0
  8
__
  6
CONTINUOUS
 62
     7
 10
-1000.393398282202
 20
-1766.770292269903
 30
0.0
 11
-1085.428932188135
 21
-1851.805826175836
 31
0.0
  0
LINE
  5
5B1
  8
__
  6
CONTINUOUS
 62
     7
 10
-1020.393398282202
 20
-1758.486021022441
 30
0.0
 11
-1099.571067811865
 21
-1837.663690552105
 31
0.0
  0
LINE
  5
5B2
  8
__
  6
CONTINUOUS
 62
     7
 10
-1033.393398282202
 20
-1753.101244711591
 30
0.0
 11
-1087.398755288409
 21
-1807.106601717798
 31
0.0
  0
ARC
  5
5B3
  8
__
  6
CONTINUOUS
 62
     7
 10
-1044.0
 20
-1742.494642993793
 30
0.0
 40
14.99999999999996
 50
315.0
 51
0.0
  0
ARC
  5
5B4
  8
__
  6
CONTINUOUS
 62
     7
 10
-1044.0
 20
-1742.494642993793
 30
0.0
 40
14.99999999999996
 50
315.0
 51
0.0
  0
ARC
  5
5B5
  8
__
  6
CONTINUOUS
 62
     7
 10
-1031.0
 20
-1747.879419304643
 30
0.0
 40
14.99999999999996
 50
315.0
 51
0.0
  0
ARC
  5
5B6
  8
__
  6
CONTINUOUS
 62
     7
 10
-1011.0
 20
-1756.163690552105
 30
0.0
 40
14.99999999999996
 50
315.0
 51
0.0
  0
CIRCLE
  5
5B7
  8
__
  6
CONTINUOUS
 62
     7
 10
-1092.5
 20
-1844.73475836397
 30
0.0
 40
1.5
  0
ARC
  5
5B8
  8
__
  6
CONTINUOUS
 62
     7
 10
-1092.5
 20
-1844.73475836397
 30
0.0
 40
9.999999999999758
 50
135.0
 51
315.0000000000018
  0
LINE
  5
5B9
  8
__
  6
CONTINUOUS
 62
     7
 10
-1247.400126663924
 20
-1867.5
 30
0.0
 11
-1152.599873336088
 21
-1867.5
 31
0.0
  0
LINE
  5
5BA
  8
__
  6
CONTINUOUS
 62
     7
 10
-1102.5
 20
-1867.5
 30
0.0
 11
-1100.426406871198
 21
-1867.5
 31
0.0
  0
LINE
  5
5BB
  8
__
  6
CONTINUOUS
 62
     7
 10
-1232.631414474518
 20
-1838.5
 30
0.0
 11
-1167.368585525493
 21
-1838.5
 31
0.0
  0
LINE
  5
5BC
  8
__
  6
CONTINUOUS
 62
     7
 10
-1301.994642993793
 20
-1811.5
 30
0.0
 11
-1098.005357006207
 21
-1811.5
 31
0.0
  0
ARC
  5
5BD
  8
__
  6
CONTINUOUS
 62
     7
 10
-1098.005357006207
 20
-1796.5
 30
0.0
 40
15.0
 50
270.0
 51
315.0
  0
LINE
  5
5BE
  8
__
  6
CONTINUOUS
 62
     7
 10
-1384.0
 20
-1610.5
 30
0.0
 11
-1384.0
 21
-1747.879419304643
 31
0.0
  0
LINE
  5
5BF
  8
__
  6
CONTINUOUS
 62
     7
 10
-1404.0
 20
-1610.5
 30
0.0
 11
-1404.0
 21
-1756.163690552105
 31
0.0
  0
ARC
  5
5C0
  8
__
  6
CONTINUOUS
 62
     7
 10
-1394.0
 20
-1610.5
 30
0.0
 40
10.0
 50
0.0
 51
180.0
  0
CIRCLE
  5
5C1
  8
__
  6
CONTINUOUS
 62
     7
 10
-1394.0
 20
-1610.5
 30
0.0
 40
1.5
  0
LINE
  5
5C2
  8
__
  6
CONTINUOUS
 62
     7
 10
-1399.606601717798
 20
-1766.770292269903
 30
0.0
 11
-1314.571067811865
 21
-1851.805826175836
 31
0.0
  0
LINE
  5
5C3
  8
__
  6
CONTINUOUS
 62
     7
 10
-1379.606601717798
 20
-1758.486021022441
 30
0.0
 11
-1300.428932188135
 21
-1837.663690552105
 31
0.0
  0
LINE
  5
5C4
  8
__
  6
CONTINUOUS
 62
     7
 10
-1366.606601717798
 20
-1753.101244711591
 30
0.0
 11
-1312.601244711591
 21
-1807.106601717798
 31
0.0
  0
ARC
  5
5C5
  8
__
  6
CONTINUOUS
 62
     7
 10
-1369.0
 20
-1747.879419304643
 30
0.0
 40
15.0
 50
180.0
 51
225.0
  0
ARC
  5
5C6
  8
__
  6
CONTINUOUS
 62
     7
 10
-1389.0
 20
-1756.163690552105
 30
0.0
 40
15.0
 50
180.0
 51
225.0
  0
CIRCLE
  5
5C7
  8
__
  6
CONTINUOUS
 62
     7
 10
-1307.5
 20
-1844.73475836397
 30
0.0
 40
1.5
  0
ARC
  5
5C8
  8
__
  6
CONTINUOUS
 62
     7
 10
-1307.5
 20
-1844.73475836397
 30
0.0
 40
9.99999999999976
 50
224.9999999999982
 51
45.0
  0
ARC
  5
5C9
  8
__
  6
CONTINUOUS
 62
     7
 10
-1356.0
 20
-1742.494642993793
 30
0.0
 40
15.0
 50
180.0
 51
225.0
  0
ARC
  5
5CA
  8
__
  6
CONTINUOUS
 62
     7
 10
-1301.994642993793
 20
-1796.5
 30
0.0
 40
14.99999999999996
 50
225.0
 51
270.0
  0
LINE
  5
5CB
  8
__
  6
CONTINUOUS
 62
     7
 10
-1246.406275770016
 20
-1847.562559786423
 30
0.0
 11
-1257.128206988616
 21
-1872.437440213577
 31
0.0
  0
LINE
  5
5CC
  8
__
  6
CONTINUOUS
 62
     7
 10
-1153.593724229995
 20
-1847.562559786423
 30
0.0
 11
-1142.871793011395
 21
-1872.437440213577
 31
0.0
  0
ARC
  5
5CD
  8
__
  6
CONTINUOUS
 62
     7
 10
-1270.903068284114
 20
-1866.5
 30
0.0
 40
15.00000000000023
 50
269.9999999999991
 51
336.6822916132442
  0
ARC
  5
5CE
  8
__
  6
CONTINUOUS
 62
     7
 10
-1129.096931715897
 20
-1866.5
 30
0.0
 40
15.00000000000006
 50
203.3177083867547
 51
270.0
  0
ARC
  5
5CF
  8
__
  6
CONTINUOUS
 62
     7
 10
-1232.631414474518
 20
-1853.5
 30
0.0
 40
15.00000000000023
 50
89.99999999999913
 51
156.6822916132442
  0
ARC
  5
5D0
  8
__
  6
CONTINUOUS
 62
     7
 10
-1167.368585525493
 20
-1853.5
 30
0.0
 40
15.00000000000006
 50
23.31770838675469
 51
90.0
  0
ARC
  5
5D1
  8
__
  6
CONTINUOUS
 62
     7
 10
-1247.400126663924
 20
-1862.5
 30
0.0
 40
4.999999999999742
 50
156.682291613244
 51
270.0000000000026
  0
ARC
  5
5D2
  8
__
  6
CONTINUOUS
 62
     7
 10
-1152.599873336088
 20
-1862.5
 30
0.0
 40
5.000000000000227
 50
270.0000000000026
 51
23.31770838675163
  0
LINE
  5
5D3
  8
__
  6
CONTINUOUS
 62
     7
 10
-1404.0
 20
-1165.5
 30
0.0
 11
-1404.0
 21
-1155.5
 31
0.0
  0
LINE
  5
5D4
  8
__
  6
CONTINUOUS
 62
     7
 10
-1324.0
 20
-1155.5
 30
0.0
 11
-1324.0
 21
-1165.5
 31
0.0
  0
LINE
  5
5D5
  8
__
  6
CONTINUOUS
 62
     7
 10
-1076.0
 20
-1155.499999859392
 30
0.0
 11
-1076.0
 21
-1165.499999859392
 31
0.0
  0
LINE
  5
5D6
  8
__
  6
CONTINUOUS
 62
     7
 10
-1384.0
 20
-1155.5
 30
0.0
 11
-1384.0
 21
-1165.5
 31
0.0
  0
LINE
  5
5D7
  8
__
  6
CONTINUOUS
 62
     7
 10
-1016.0
 20
-1155.499999859392
 30
0.0
 11
-1016.0
 21
-1165.499999859392
 31
0.0
  0
LINE
  5
5D8
  8
__
  6
CONTINUOUS
 62
     7
 10
-996.0
 20
-1165.5
 30
0.0
 11
-996.0
 21
-1155.499999859392
 31
0.0
  0
LINE
  5
5D9
  8
__
  6
CONTINUOUS
 62
     7
 10
-1404.0
 20
-1165.5
 30
0.0
 11
-996.0
 21
-1165.5
 31
0.0
  0
LINE
  5
5DA
  8
__
  6
CONTINUOUS
 62
     7
 10
-1209.0
 20
-1141.499999859392
 30
0.0
 11
-1191.0
 21
-1141.499999859392
 31
0.0
  0
LINE
  5
5DB
  8
__
  6
CONTINUOUS
 62
     7
 10
-1209.0
 20
-1136.499999859392
 30
0.0
 11
-1191.0
 21
-1136.499999859392
 31
0.0
  0
ARC
  5
5DC
  8
__
  6
CONTINUOUS
 62
     7
 10
-1191.0
 20
-1138.999999859392
 30
0.0
 40
2.5
 50
270.0
 51
90.0
  0
ARC
  5
5DD
  8
__
  6
CONTINUOUS
 62
     7
 10
-1209.0
 20
-1138.999999859392
 30
0.0
 40
2.5
 50
90.0
 51
270.0
  0
LINE
  5
5DE
  8
__
  6
CONTINUOUS
 62
     7
 10
-2041.5
 20
-607.5
 30
0.0
 11
-2037.5
 21
-617.5
 31
0.0
  0
LINE
  5
5DF
  8
__
  6
CONTINUOUS
 62
     7
 10
-2041.5
 20
-992.5
 30
0.0
 11
-2037.5
 21
-982.5
 31
0.0
  0
ARC
  5
5E0
  8
__
  6
CONTINUOUS
 62
     7
 10
-2002.394213855515
 20
-1129.384244297983
 30
0.0
 40
39.1059629999999
 50
180.1723160000003
 51
221.9027059999999
  0
LINE
  5
5E1
  8
__
  6
CONTINUOUS
 62
     7
 10
-2041.5
 20
-1129.501854583056
 30
0.0
 11
-2041.5
 21
-1070.869055541663
 31
0.0
  0
LINE
  5
5E2
  8
__
  6
CONTINUOUS
 62
     7
 10
-2041.5
 20
-1050.130944458337
 30
0.0
 11
-2041.5
 21
-992.5
 31
0.0
  0
ARC
  5
5E3
  8
__
  6
CONTINUOUS
 62
     7
 10
-2016.522347
 20
-464.4888270000001
 30
0.0
 40
24.97765600000008
 50
126.8442670000007
 51
180.025631
  0
LINE
  5
5E4
  8
__
  6
CONTINUOUS
 62
     7
 10
-2031.500000313887
 20
-444.5000001093754
 30
0.0
 11
-1668.499999978406
 21
-444.5000001093754
 31
0.0
  0
ARC
  5
5E5
  8
__
  6
CONTINUOUS
 62
     7
 10
-1932.250000000002
 20
-1071.354160689286
 30
0.0
 40
9.00000000000015
 50
267.1803777406888
 51
80.23172588140844
  0
ARC
  5
5E6
  8
__
  6
CONTINUOUS
 62
     7
 10
-2030.661056916198
 20
-1060.5
 30
0.0
 40
15.00000000000042
 50
80.23172588140964
 51
267.1803777406891
  0
LINE
  5
5E7
  8
__
  6
CONTINUOUS
 62
     7
 10
-2028.11609943671
 20
-1045.717470059979
 30
0.0
 11
-1930.72302551231
 21
-1062.484642725274
 31
0.0
  0
LINE
  5
5E8
  8
__
  6
CONTINUOUS
 62
     7
 10
-1932.692726479813
 20
-1080.343264830639
 30
0.0
 11
-2031.398934382549
 21
-1075.481840235587
 31
0.0
  0
LINE
  5
5E9
  8
__
  6
CONTINUOUS
 62
     7
 10
-2027.098116444915
 20
-1039.804458083971
 30
0.0
 11
-1929.705042520515
 21
-1056.571630749266
 31
0.0
  0
LINE
  5
5EA
  8
__
  6
CONTINUOUS
 62
     7
 10
-1932.987877466353
 20
-1086.336000924873
 30
0.0
 11
-2031.694085369089
 21
-1081.474576329822
 31
0.0
  0
ARC
  5
5EB
  8
__
  6
CONTINUOUS
 62
     7
 10
-2023.566247949161
 20
-1064.123481554024
 30
0.0
 40
19.16043399935673
 50
200.6132111372864
 51
244.9000251694201
  0
ARC
  5
5EC
  8
__
  6
CONTINUOUS
 62
     7
 10
-2018.323343598003
 20
-1067.248307993477
 30
0.0
 40
28.81252395001836
 50
107.7309231049431
 51
143.5518882850559
  0
ARC
  5
5ED
  8
__
  6
CONTINUOUS
 62
     7
 10
-1941.525174382921
 20
-1070.081053471887
 30
0.0
 40
18.360521652202
 50
297.7090036820679
 51
352.9302399686081
  0
ARC
  5
5EE
  8
__
  6
CONTINUOUS
 62
     7
 10
-1942.651764963556
 20
-1071.025648648335
 30
0.0
 40
19.40454595866585
 50
359.0299565502278
 51
48.1486091432144
  0
ARC
  5
5EF
  8
__
  6
CONTINUOUS
 62
     7
 10
-1932.250000000002
 20
-528.6458393107137
 30
0.0
 40
8.99999999999996
 50
279.7682741185916
 51
92.81962225931116
  0
ARC
  5
5F0
  8
__
  6
CONTINUOUS
 62
     7
 10
-2030.661056916198
 20
-539.5
 30
0.0
 40
15.00000000000032
 50
92.81962225931086
 51
279.7682741185903
  0
LINE
  5
5F1
  8
__
  6
CONTINUOUS
 62
     7
 10
-2028.11609943671
 20
-554.2825299400206
 30
0.0
 11
-1930.72302551231
 21
-537.5153572747258
 31
0.0
  0
LINE
  5
5F2
  8
__
  6
CONTINUOUS
 62
     7
 10
-1932.692726479813
 20
-519.6567351693614
 30
0.0
 11
-2031.398934382549
 21
-524.5181597644128
 31
0.0
  0
LINE
  5
5F3
  8
__
  6
CONTINUOUS
 62
     7
 10
-2027.098116444915
 20
-560.1955419160286
 30
0.0
 11
-1929.705042520515
 21
-543.428369250734
 31
0.0
  0
LINE
  5
5F4
  8
__
  6
CONTINUOUS
 62
     7
 10
-1932.987877466353
 20
-513.6639990751269
 30
0.0
 11
-2031.694085369089
 21
-518.5254236701783
 31
0.0
  0
ARC
  5
5F5
  8
__
  6
CONTINUOUS
 62
     7
 10
-2023.566247949161
 20
-535.8765184459764
 30
0.0
 40
19.16043399935671
 50
115.0999748305799
 51
159.3867888627137
  0
ARC
  5
5F6
  8
__
  6
CONTINUOUS
 62
     7
 10
-2018.323343598003
 20
-532.7516920065232
 30
0.0
 40
28.8125239500184
 50
216.4481117149441
 51
252.2690768950569
  0
ARC
  5
5F7
  8
__
  6
CONTINUOUS
 62
     7
 10
-1941.525174382921
 20
-529.9189465281131
 30
0.0
 40
18.36052165220195
 50
7.069760031391867
 51
62.29099631793208
  0
ARC
  5
5F8
  8
__
  6
CONTINUOUS
 62
     7
 10
-1942.651764963556
 20
-528.9743513516646
 30
0.0
 40
19.40454595866592
 50
311.8513908567857
 51
0.9700434497722767
  0
LINE
  5
5F9
  8
__
  6
CONTINUOUS
 62
     7
 10
-1848.250000000004
 20
-757.5040620416916
 30
0.0
 11
-1848.250000000004
 21
-842.4959379583083
 31
0.0
  0
LINE
  5
5FA
  8
__
  6
CONTINUOUS
 62
     7
 10
-1853.250000000004
 20
-757.7380800416917
 30
0.0
 11
-1853.250000000004
 21
-842.2619199583083
 31
0.0
  0
LINE
  5
5FB
  8
__
  6
CONTINUOUS
 62
     7
 10
-1860.096983000004
 20
-739.2413040416914
 30
0.0
 11
-1908.250000000004
 21
-709.0
 31
0.0
  0
ARC
  5
5FC
  8
__
  6
CONTINUOUS
 62
     7
 10
-1868.250000000004
 20
-757.5040620416917
 30
0.0
 40
20.0
 50
0.0
 51
65.94265100000003
  0
ARC
  5
5FD
  8
__
  6
CONTINUOUS
 62
     7
 10
-1868.250000000004
 20
-757.7380800416918
 30
0.0
 40
15.0
 50
0.0
 51
57.87014600000037
  0
LINE
  5
5FE
  8
__
  6
CONTINUOUS
 62
     7
 10
-1860.272402000003
 20
-745.0354060416917
 30
0.0
 11
-1908.250000000004
 21
-714.9042684331479
 31
0.0
  0
LINE
  5
5FF
  8
__
  6
CONTINUOUS
 62
     7
 10
-1860.096983000004
 20
-860.7586959583086
 30
0.0
 11
-1908.250000000004
 21
-891.0
 31
0.0
  0
ARC
  5
600
  8
__
  6
CONTINUOUS
 62
     7
 10
-1868.250000000004
 20
-842.4959379583083
 30
0.0
 40
19.99999999999997
 50
294.057349
 51
0.0
  0
ARC
  5
601
  8
__
  6
CONTINUOUS
 62
     7
 10
-1868.250000000004
 20
-842.2619199583082
 30
0.0
 40
15.00000000000018
 50
302.1298539999996
 51
0.0
  0
LINE
  5
602
  8
__
  6
CONTINUOUS
 62
     7
 10
-1860.272402000003
 20
-854.9645939583083
 30
0.0
 11
-1908.250000000004
 21
-885.0957315668521
 31
0.0
  0
LINE
  5
603
  8
__
  6
CONTINUOUS
 62
     7
 10
-1983.250000000004
 20
-748.0836853158602
 30
0.0
 11
-1983.250000000004
 21
-851.9163146841399
 31
0.0
  0
LINE
  5
604
  8
__
  6
CONTINUOUS
 62
     7
 10
-1978.250000000004
 20
-748.3177033158603
 30
0.0
 11
-1978.250000000004
 21
-851.6822966841398
 31
0.0
  0
LINE
  5
605
  8
__
  6
CONTINUOUS
 62
     7
 10
-1971.403017000004
 20
-729.8209273158599
 30
0.0
 11
-1938.250000000003
 21
-709.0
 31
0.0
  0
ARC
  5
606
  8
__
  6
CONTINUOUS
 62
     7
 10
-1963.250000000004
 20
-748.0836853158602
 30
0.0
 40
19.99999999999997
 50
114.057349
 51
180.0
  0
ARC
  5
607
  8
__
  6
CONTINUOUS
 62
     7
 10
-1963.250000000004
 20
-748.3177033158603
 30
0.0
 40
15.00000000000018
 50
122.1298539999996
 51
180.0
  0
LINE
  5
608
  8
__
  6
CONTINUOUS
 62
     7
 10
-1971.227598000004
 20
-735.6150293158602
 30
0.0
 11
-1938.250000000004
 21
-714.9042687784686
 31
0.0
  0
LINE
  5
609
  8
__
  6
CONTINUOUS
 62
     7
 10
-1971.403017000004
 20
-870.1790726841402
 30
0.0
 11
-1938.250000000003
 21
-891.0000000000001
 31
0.0
  0
ARC
  5
60A
  8
__
  6
CONTINUOUS
 62
     7
 10
-1963.250000000004
 20
-851.9163146841399
 30
0.0
 40
20.0
 50
180.0
 51
245.942651
  0
ARC
  5
60B
  8
__
  6
CONTINUOUS
 62
     7
 10
-1963.250000000004
 20
-851.6822966841398
 30
0.0
 40
15.0
 50
180.0
 51
237.8701460000003
  0
LINE
  5
60C
  8
__
  6
CONTINUOUS
 62
     7
 10
-1971.227598000004
 20
-864.38497068414
 30
0.0
 11
-1938.250000000004
 21
-885.0957312215317
 31
0.0
  0
LINE
  5
60D
  8
__
  6
CONTINUOUS
 62
     7
 10
-1783.250000000004
 20
-520.6746535025746
 30
0.0
 11
-1783.250000000004
 21
-1079.325346497425
 31
0.0
  0
ARC
  5
60E
  8
__
  6
CONTINUOUS
 62
     7
 10
-1908.250000000004
 20
-600.2152083475336
 30
0.0
 40
29.99999999999994
 50
96.84246366324132
 51
180.0
  0
LINE
  5
60F
  8
__
  6
CONTINUOUS
 62
     7
 10
-1783.250000000004
 20
-1044.999314501043
 30
0.0
 11
-1911.824195589369
 21
-1029.571116130135
 31
0.0
  0
ARC
  5
610
  8
__
  6
CONTINUOUS
 62
     7
 10
-1908.250000000004
 20
-999.7847916524664
 30
0.0
 40
29.99999999999977
 50
180.0000000000002
 51
263.1575363367591
  0
LINE
  5
611
  8
__
  6
CONTINUOUS
 62
     7
 10
-1780.250000000004
 20
-520.6746535025746
 30
0.0
 11
-1780.250000000004
 21
-1079.325346497425
 31
0.0
  0
LINE
  5
612
  8
__
  6
CONTINUOUS
 62
     7
 10
-2041.500000345802
 20
-484.5000001093754
 30
0.0
 11
-1793.250000000004
 21
-481.2591384889882
 31
0.0
  0
LINE
  5
613
  8
__
  6
CONTINUOUS
 62
     7
 10
-2041.50000014258
 20
-476.5000001093754
 30
0.0
 11
-1658.499999796778
 21
-471.5000001093754
 31
0.0
  0
LINE
  5
614
  8
__
  6
CONTINUOUS
 62
     7
 10
-1786.593680927912
 20
-486.172241375901
 30
0.0
 11
-1658.499999806525
 21
-484.5000001095102
 31
0.0
  0
LINE
  5
615
  8
__
  6
CONTINUOUS
 62
     7
 10
-1793.250000000004
 20
-481.2591384889882
 30
0.0
 11
-1773.159745126161
 21
-496.0879782952622
 31
0.0
  0
ARC
  5
616
  8
__
  6
CONTINUOUS
 62
     7
 10
-1748.250000000004
 20
-520.6746535025746
 30
0.0
 40
34.99999999999998
 50
90.74794418861234
 51
180.0
  0
LINE
  5
617
  8
__
  6
CONTINUOUS
 62
     7
 10
-2041.500000345802
 20
-1115.499999890625
 30
0.0
 11
-1793.250000000004
 21
-1118.740861511012
 31
0.0
  0
LINE
  5
618
  8
__
  6
CONTINUOUS
 62
     7
 10
-2041.50000014258
 20
-1123.499999890625
 30
0.0
 11
-1658.499999796778
 21
-1128.499999890625
 31
0.0
  0
LINE
  5
619
  8
__
  6
CONTINUOUS
 62
     7
 10
-1786.593680927912
 20
-1113.827758624099
 30
0.0
 11
-1658.499999806525
 21
-1115.49999989049
 31
0.0
  0
LINE
  5
61A
  8
__
  6
CONTINUOUS
 62
     7
 10
-1793.250000000004
 20
-1118.740861511012
 30
0.0
 11
-1773.159745126161
 21
-1103.912021704738
 31
0.0
  0
ARC
  5
61B
  8
__
  6
CONTINUOUS
 62
     7
 10
-1748.250000000004
 20
-1079.325346497425
 30
0.0
 40
35.0
 50
180.0
 51
269.2520558113877
  0
ARC
  5
61C
  8
__
  6
CONTINUOUS
 62
     7
 10
-1748.250000000004
 20
-520.6746535025745
 30
0.0
 40
31.99999999999989
 50
89.99999999999919
 51
180.0000000000002
  0
LINE
  5
61D
  8
__
  6
CONTINUOUS
 62
     7
 10
-1748.250000000004
 20
-488.6746535025747
 30
0.0
 11
-1663.499999808826
 21
-487.5682566342388
 31
0.0
  0
ARC
  5
61E
  8
__
  6
CONTINUOUS
 62
     7
 10
-1748.250000000004
 20
-1079.325346497425
 30
0.0
 40
31.99999999999955
 50
180.0
 51
270.0000000000008
  0
LINE
  5
61F
  8
__
  6
CONTINUOUS
 62
     7
 10
-1748.250000000004
 20
-1111.325346497425
 30
0.0
 11
-1663.500000277322
 21
-1112.431743359645
 31
0.0
  0
LINE
  5
620
  8
__
  6
CONTINUOUS
 62
     7
 10
-1668.250000000004
 20
-487.6302670805427
 30
0.0
 11
-1668.250000000004
 21
-1112.369732919457
 31
0.0
  0
LINE
  5
621
  8
__
  6
CONTINUOUS
 62
     7
 10
-1663.500000277322
 20
-1112.431743359645
 30
0.0
 11
-1663.499999808826
 21
-487.5682566342387
 31
0.0
  0
LINE
  5
622
  8
__
  6
CONTINUOUS
 62
     7
 10
-1663.499999808826
 20
-487.5682566342388
 30
0.0
 11
-1658.499999806525
 21
-484.5000001095102
 31
0.0
  0
LINE
  5
623
  8
__
  6
CONTINUOUS
 62
     7
 10
-1658.499999806525
 20
-1115.49999989049
 30
0.0
 11
-1663.500000277322
 21
-1112.431743359645
 31
0.0
  0
ARC
  5
624
  8
__
  6
CONTINUOUS
 62
     7
 10
-1849.99999979153
 20
-480.7812490079335
 30
0.0
 40
40.28124900793334
 50
64.24999620013641
 51
115.750003799863
  0
LINE
  5
625
  8
__
  6
CONTINUOUS
 62
     7
 10
-1923.250000000004
 20
-1155.501301188348
 30
0.0
 11
-1923.250000000004
 21
-444.5000001093754
 31
0.0
  0
LINE
  5
626
  8
__
  6
CONTINUOUS
 62
     7
 10
-841.4999997098794
 20
-1129.500000285072
 30
0.0
 11
-841.500000193475
 21
-1115.49999989049
 31
0.0
  0
LINE
  5
627
  8
__
  6
CONTINUOUS
 62
     7
 10
-841.5000001934748
 20
-484.5000001095102
 30
0.0
 11
-841.50000020847
 21
-464.5000006376576
 31
0.0
  0
LINE
  5
628
  8
__
  6
CONTINUOUS
 62
     7
 10
-791.2500000000109
 20
-1155.500205466813
 30
0.0
 11
-791.2500000000109
 21
-444.5000001093754
 31
0.0
  0
ARC
  5
629
  8
__
  6
CONTINUOUS
 62
     7
 10
-816.5223467077078
 20
-464.4888270000001
 30
0.0
 40
24.9776559999998
 50
126.8442669999999
 51
180.025631
  0
LINE
  5
62A
  8
__
  6
CONTINUOUS
 62
     7
 10
-458.5
 20
-529.1309444583367
 30
0.0
 11
-458.4999994992372
 21
-464.5000006376576
 31
0.0
  0
ARC
  5
62B
  8
__
  6
CONTINUOUS
 62
     7
 10
-802.3942135653938
 20
-1129.38239
 30
0.0
 40
39.10596300000034
 50
180.1723160000003
 51
221.9027059999999
  0
LINE
  5
62C
  8
__
  6
CONTINUOUS
 62
     7
 10
-831.4999998868448
 20
-1155.499999859392
 30
0.0
 11
-468.4999998230342
 21
-1155.501854157375
 31
0.0
  0
LINE
  5
62D
  8
__
  6
CONTINUOUS
 62
     7
 10
-813.5
 20
-1165.5
 30
0.0
 11
-813.5
 21
-1155.5
 31
0.0
  0
LINE
  5
62E
  8
__
  6
CONTINUOUS
 62
     7
 10
-495.2652416360302
 20
-1165.5
 30
0.0
 11
-495.2652416360302
 21
-1155.5
 31
0.0
  0
LINE
  5
62F
  8
__
  6
CONTINUOUS
 62
     7
 10
-811.2359974750211
 20
-1155.5
 30
0.0
 11
-811.2359974750211
 21
-1165.5
 31
0.0
  0
LINE
  5
630
  8
__
  6
CONTINUOUS
 62
     7
 10
-794.247279086283
 20
-1155.5
 30
0.0
 11
-794.247279086283
 21
-1165.5
 31
0.0
  0
LINE
  5
631
  8
__
  6
CONTINUOUS
 62
     7
 10
-749.5
 20
-1155.5
 30
0.0
 11
-749.5
 21
-1165.5
 31
0.0
  0
LINE
  5
632
  8
__
  6
CONTINUOUS
 62
     7
 10
-813.5
 20
-1165.5
 30
0.0
 11
-794.247279086283
 21
-1165.5
 31
0.0
  0
LINE
  5
633
  8
__
  6
CONTINUOUS
 62
     7
 10
-749.5
 20
-1165.5
 30
0.0
 11
-495.2652416360302
 21
-1165.5
 31
0.0
  0
ARC
  5
634
  8
__
  6
CONTINUOUS
 62
     7
 10
-497.6057861444851
 20
-1129.384244297983
 30
0.0
 40
39.10596299999999
 50
318.0972940000001
 51
359.8276839999997
  0
LINE
  5
635
  8
__
  6
CONTINUOUS
 62
     7
 10
-458.5
 20
-1129.501854583056
 30
0.0
 11
-458.5
 21
-1070.869055541663
 31
0.0
  0
ARC
  5
636
  8
__
  6
CONTINUOUS
 62
     7
 10
-483.4776529999999
 20
-464.4888270000001
 30
0.0
 40
24.97765600000011
 50
359.974369
 51
53.15573299999932
  0
LINE
  5
637
  8
__
  6
CONTINUOUS
 62
     7
 10
-468.4999996861134
 20
-444.5000001093754
 30
0.0
 11
-831.5000000215939
 21
-444.5000001093754
 31
0.0
  0
ARC
  5
638
  8
__
  6
CONTINUOUS
 62
     7
 10
-567.7499999999977
 20
-1071.354160689286
 30
0.0
 40
8.99999999999996
 50
99.76827411859159
 51
272.8196222593112
  0
ARC
  5
639
  8
__
  6
CONTINUOUS
 62
     7
 10
-469.3389430838024
 20
-1060.5
 30
0.0
 40
15.00000000000032
 50
272.8196222593108
 51
99.76827411859041
  0
LINE
  5
63A
  8
__
  6
CONTINUOUS
 62
     7
 10
-471.8839005632904
 20
-1045.717470059979
 30
0.0
 11
-569.2769744876905
 21
-1062.484642725274
 31
0.0
  0
LINE
  5
63B
  8
__
  6
CONTINUOUS
 62
     7
 10
-567.307273520187
 20
-1080.343264830639
 30
0.0
 11
-468.6010656174512
 21
-1075.481840235587
 31
0.0
  0
LINE
  5
63C
  8
__
  6
CONTINUOUS
 62
     7
 10
-472.9018835550853
 20
-1039.804458083971
 30
0.0
 11
-570.2949574794854
 21
-1056.571630749266
 31
0.0
  0
LINE
  5
63D
  8
__
  6
CONTINUOUS
 62
     7
 10
-567.0121225336466
 20
-1086.336000924873
 30
0.0
 11
-468.3059146309106
 21
-1081.474576329822
 31
0.0
  0
ARC
  5
63E
  8
__
  6
CONTINUOUS
 62
     7
 10
-476.4337520508393
 20
-1064.123481554024
 30
0.0
 40
19.16043399935671
 50
295.0999748305799
 51
339.3867888627136
  0
ARC
  5
63F
  8
__
  6
CONTINUOUS
 62
     7
 10
-481.6766564019972
 20
-1067.248307993477
 30
0.0
 40
28.8125239500184
 50
36.44811171494406
 51
72.26907689505691
  0
ARC
  5
640
  8
__
  6
CONTINUOUS
 62
     7
 10
-558.474825617079
 20
-1070.081053471887
 30
0.0
 40
18.36052165220195
 50
187.0697600313919
 51
242.2909963179321
  0
ARC
  5
641
  8
__
  6
CONTINUOUS
 62
     7
 10
-557.3482350364441
 20
-1071.025648648335
 30
0.0
 40
19.40454595866592
 50
131.8513908567857
 51
180.9700434497722
  0
ARC
  5
642
  8
__
  6
CONTINUOUS
 62
     7
 10
-567.7499999999977
 20
-528.6458393107137
 30
0.0
 40
9.00000000000015
 50
87.18037774068885
 51
260.2317258814084
  0
ARC
  5
643
  8
__
  6
CONTINUOUS
 62
     7
 10
-469.3389430838024
 20
-539.5
 30
0.0
 40
15.00000000000042
 50
260.2317258814095
 51
87.1803777406892
  0
LINE
  5
644
  8
__
  6
CONTINUOUS
 62
     7
 10
-471.8839005632904
 20
-554.2825299400206
 30
0.0
 11
-569.2769744876905
 21
-537.5153572747258
 31
0.0
  0
LINE
  5
645
  8
__
  6
CONTINUOUS
 62
     7
 10
-567.307273520187
 20
-519.6567351693614
 30
0.0
 11
-468.6010656174512
 21
-524.5181597644128
 31
0.0
  0
LINE
  5
646
  8
__
  6
CONTINUOUS
 62
     7
 10
-472.9018835550853
 20
-560.1955419160286
 30
0.0
 11
-570.2949574794854
 21
-543.428369250734
 31
0.0
  0
LINE
  5
647
  8
__
  6
CONTINUOUS
 62
     7
 10
-567.0121225336466
 20
-513.6639990751269
 30
0.0
 11
-468.3059146309106
 21
-518.5254236701783
 31
0.0
  0
ARC
  5
648
  8
__
  6
CONTINUOUS
 62
     7
 10
-476.4337520508393
 20
-535.8765184459764
 30
0.0
 40
19.16043399935673
 50
20.61321113728636
 51
64.90002516942008
  0
ARC
  5
649
  8
__
  6
CONTINUOUS
 62
     7
 10
-481.6766564019972
 20
-532.7516920065232
 30
0.0
 40
28.81252395001836
 50
287.7309231049431
 51
323.5518882850559
  0
ARC
  5
64A
  8
__
  6
CONTINUOUS
 62
     7
 10
-558.474825617079
 20
-529.9189465281131
 30
0.0
 40
18.360521652202
 50
117.7090036820679
 51
172.9302399686082
  0
ARC
  5
64B
  8
__
  6
CONTINUOUS
 62
     7
 10
-557.3482350364441
 20
-528.9743513516646
 30
0.0
 40
19.40454595866585
 50
179.0299565502278
 51
228.1486091432143
  0
LINE
  5
64C
  8
__
  6
CONTINUOUS
 62
     7
 10
-716.7499999999964
 20
-520.6746535025746
 30
0.0
 11
-716.7499999999964
 21
-1079.325346497425
 31
0.0
  0
LINE
  5
64D
  8
__
  6
CONTINUOUS
 62
     7
 10
-719.7499999999964
 20
-520.6746535025746
 30
0.0
 11
-719.7499999999964
 21
-1079.325346497425
 31
0.0
  0
LINE
  5
64E
  8
__
  6
CONTINUOUS
 62
     7
 10
-458.4999996541978
 20
-484.5000001093754
 30
0.0
 11
-706.7499999999964
 21
-481.2591384889882
 31
0.0
  0
LINE
  5
64F
  8
__
  6
CONTINUOUS
 62
     7
 10
-458.4999998574197
 20
-476.5000001093754
 30
0.0
 11
-841.5000002032218
 21
-471.5000001093754
 31
0.0
  0
LINE
  5
650
  8
__
  6
CONTINUOUS
 62
     7
 10
-713.4063190720879
 20
-486.172241375901
 30
0.0
 11
-841.500000193475
 21
-484.5000001095102
 31
0.0
  0
LINE
  5
651
  8
__
  6
CONTINUOUS
 62
     7
 10
-706.7499999999964
 20
-481.2591384889882
 30
0.0
 11
-726.8402548738388
 21
-496.0879782952622
 31
0.0
  0
ARC
  5
652
  8
__
  6
CONTINUOUS
 62
     7
 10
-751.7499999999964
 20
-520.6746535025746
 30
0.0
 40
35.0
 50
0.0
 51
89.25205581138772
  0
LINE
  5
653
  8
__
  6
CONTINUOUS
 62
     7
 10
-458.4999996541978
 20
-1115.499999890625
 30
0.0
 11
-706.7499999999964
 21
-1118.740861511012
 31
0.0
  0
LINE
  5
654
  8
__
  6
CONTINUOUS
 62
     7
 10
-458.4999998574197
 20
-1123.499999890625
 30
0.0
 11
-841.5000002032218
 21
-1128.499999890625
 31
0.0
  0
LINE
  5
655
  8
__
  6
CONTINUOUS
 62
     7
 10
-713.4063190720879
 20
-1113.827758624099
 30
0.0
 11
-841.500000193475
 21
-1115.49999989049
 31
0.0
  0
LINE
  5
656
  8
__
  6
CONTINUOUS
 62
     7
 10
-706.7499999999964
 20
-1118.740861511012
 30
0.0
 11
-726.8402548738388
 21
-1103.912021704738
 31
0.0
  0
ARC
  5
657
  8
__
  6
CONTINUOUS
 62
     7
 10
-751.7499999999964
 20
-1079.325346497425
 30
0.0
 40
34.99999999999986
 50
270.7479441886123
 51
0.0
  0
ARC
  5
658
  8
__
  6
CONTINUOUS
 62
     7
 10
-751.7499999999959
 20
-520.6746535025745
 30
0.0
 40
31.99999999999955
 50
359.9999999999998
 51
90.0000000000008
  0
LINE
  5
659
  8
__
  6
CONTINUOUS
 62
     7
 10
-751.7499999999964
 20
-488.6746535025747
 30
0.0
 11
-836.5000001911744
 21
-487.5682566342388
 31
0.0
  0
ARC
  5
65A
  8
__
  6
CONTINUOUS
 62
     7
 10
-751.7499999999959
 20
-1079.325346497425
 30
0.0
 40
32.0
 50
269.9999999999992
 51
0.0
  0
LINE
  5
65B
  8
__
  6
CONTINUOUS
 62
     7
 10
-751.7499999999964
 20
-1111.325346497425
 30
0.0
 11
-836.4999997226782
 21
-1112.431743359645
 31
0.0
  0
LINE
  5
65C
  8
__
  6
CONTINUOUS
 62
     7
 10
-831.7499999999964
 20
-487.6302670805427
 30
0.0
 11
-831.7499999999964
 21
-1112.369732919457
 31
0.0
  0
LINE
  5
65D
  8
__
  6
CONTINUOUS
 62
     7
 10
-836.4999997226782
 20
-1112.431743359645
 30
0.0
 11
-836.5000001911744
 21
-487.5682566342387
 31
0.0
  0
LINE
  5
65E
  8
__
  6
CONTINUOUS
 62
     7
 10
-836.5000001911744
 20
-487.5682566342388
 30
0.0
 11
-841.500000193475
 21
-484.5000001095102
 31
0.0
  0
LINE
  5
65F
  8
__
  6
CONTINUOUS
 62
     7
 10
-841.500000193475
 20
-1115.49999989049
 30
0.0
 11
-836.4999997226782
 21
-1112.431743359645
 31
0.0
  0
ARC
  5
660
  8
__
  6
CONTINUOUS
 62
     7
 10
-650.0000002084698
 20
-480.7812490079335
 30
0.0
 40
40.28124900793314
 50
64.24999620013699
 51
115.7500037998636
  0
LINE
  5
661
  8
__
  6
CONTINUOUS
 62
     7
 10
-576.7499999999964
 20
-1155.501301188348
 30
0.0
 11
-576.7499999999964
 21
-444.5000001093754
 31
0.0
  0
LINE
  5
662
  8
__
  6
CONTINUOUS
 62
     7
 10
-211.9999999999948
 20
-1155.499999859392
 30
0.0
 11
-211.9999999999948
 21
-444.5
 31
0.0
  0
LINE
  5
663
  8
__
  6
CONTINUOUS
 62
     7
 10
130.25
 20
-464.5000005282823
 30
0.0
 11
130.25
 21
-1129.403760585188
 31
0.0
  0
LINE
  5
664
  8
__
  6
CONTINUOUS
 62
     7
 10
-330.25
 20
-464.5000005282823
 30
0.0
 11
-330.25
 21
-1129.403760585188
 31
0.0
  0
LINE
  5
665
  8
__
  6
CONTINUOUS
 62
     7
 10
-10.0
 20
-440.4999998906246
 30
0.0
 11
-190.0
 21
-440.4999998906246
 31
0.0
  0
LINE
  5
666
  8
__
  6
CONTINUOUS
 62
     7
 10
120.2499998131238
 20
-444.5
 30
0.0
 11
-320.2499998131238
 21
-444.5
 31
0.0
  0
ARC
  5
667
  8
__
  6
CONTINUOUS
 62
     7
 10
105.2723464992373
 20
-464.4888268906248
 30
0.0
 40
24.97765600000011
 50
359.974369
 51
53.15573299999932
  0
ARC
  5
668
  8
__
  6
CONTINUOUS
 62
     7
 10
-305.2723464992373
 20
-464.4888268906248
 30
0.0
 40
24.97765600000008
 50
126.8442670000007
 51
180.025631
  0
ARC
  5
669
  8
__
  6
CONTINUOUS
 62
     7
 10
-10.11239890236038
 20
-461.3071815133695
 30
0.0
 40
20.80748520593357
 50
53.87637773413156
 51
89.69049532014152
  0
ARC
  5
66A
  8
__
  6
CONTINUOUS
 62
     7
 10
-189.8876010976396
 20
-461.3071815133695
 30
0.0
 40
20.80748520593359
 50
90.30950467985849
 51
126.1236222658684
  0
LINE
  5
66B
  8
__
  6
CONTINUOUS
 62
     7
 10
120.1633529440712
 20
-1155.499999859392
 30
0.0
 11
-320.1633529440712
 21
-1155.499999859392
 31
0.0
  0
ARC
  5
66C
  8
__
  6
CONTINUOUS
 62
     7
 10
91.14421385551486
 20
-1129.286150300116
 30
0.0
 40
39.10596299999987
 50
317.9075604718393
 51
359.8276839999997
  0
ARC
  5
66D
  8
__
  6
CONTINUOUS
 62
     7
 10
-291.1442138555149
 20
-1129.286150300116
 30
0.0
 40
39.1059629999999
 50
180.1723160000003
 51
222.0924395281607
  0
LINE
  5
66E
  8
__
  6
CONTINUOUS
 62
     7
 10
104.0
 20
-1165.5
 30
0.0
 11
104.0
 21
-1155.5
 31
0.0
  0
LINE
  5
66F
  8
__
  6
CONTINUOUS
 62
     7
 10
24.00000000000023
 20
-1155.5
 30
0.0
 11
24.00000000000023
 21
-1165.5
 31
0.0
  0
LINE
  5
670
  8
__
  6
CONTINUOUS
 62
     7
 10
-224.0000000000002
 20
-1155.499999859392
 30
0.0
 11
-224.0000000000002
 21
-1165.499999859392
 31
0.0
  0
LINE
  5
671
  8
__
  6
CONTINUOUS
 62
     7
 10
84.0
 20
-1155.5
 30
0.0
 11
84.0
 21
-1165.5
 31
0.0
  0
LINE
  5
672
  8
__
  6
CONTINUOUS
 62
     7
 10
-284.0
 20
-1155.499999859392
 30
0.0
 11
-284.0
 21
-1165.499999859392
 31
0.0
  0
LINE
  5
673
  8
__
  6
CONTINUOUS
 62
     7
 10
-304.0
 20
-1165.5
 30
0.0
 11
-304.0
 21
-1155.499999859392
 31
0.0
  0
LINE
  5
674
  8
__
  6
CONTINUOUS
 62
     7
 10
104.0
 20
-1165.5
 30
0.0
 11
-304.0
 21
-1165.5
 31
0.0
  0
LINE
  5
675
  8
__
  6
CONTINUOUS
 62
     7
 10
-2037.5
 20
-982.5
 30
0.0
 11
-2037.5
 21
-617.5
 31
0.0
  0
LINE
  5
676
  8
__
  6
CONTINUOUS
 62
     7
 10
-458.5
 20
-607.5
 30
0.0
 11
-458.5
 21
-549.8690555416626
 31
0.0
  0
LINE
  5
677
  8
__
  6
CONTINUOUS
 62
     7
 10
-458.5
 20
-607.5
 30
0.0
 11
-462.5
 21
-617.5
 31
0.0
  0
LINE
  5
678
  8
__
  6
CONTINUOUS
 62
     7
 10
-458.5
 20
-992.5
 30
0.0
 11
-462.5
 21
-982.5
 31
0.0
  0
LINE
  5
679
  8
__
  6
CONTINUOUS
 62
     7
 10
-458.5
 20
-1050.130944458337
 30
0.0
 11
-458.5
 21
-992.5
 31
0.0
  0
LINE
  5
67A
  8
__
  6
CONTINUOUS
 62
     7
 10
-462.5
 20
-982.5
 30
0.0
 11
-462.5
 21
-617.5
 31
0.0
  0
LINE
  5
67B
  8
__
  6
CONTINUOUS
 62
     7
 10
11.99999999999477
 20
-1155.499999859392
 30
0.0
 11
11.99999999999477
 21
-444.5
 31
0.0
  0
LINE
  5
67C
  8
__
  6
CONTINUOUS
 62
     7
 10
-295.35640768599
 20
-1155.499999859392
 30
0.0
 11
-295.35640768599
 21
-444.5
 31
0.0
  0
LINE
  5
67D
  8
__
  6
CONTINUOUS
 62
     7
 10
127.9663859753408
 20
-1142.45444489491
 30
0.0
 11
127.9663859753408
 21
-454.0550417907009
 31
0.0
  0
LINE
  5
67E
  8
__
  6
CONTINUOUS
 62
     7
 10
75.25000000000222
 20
-851.9163146841399
 30
0.0
 11
75.25000000000222
 21
-748.0836853158601
 31
0.0
  0
LINE
  5
67F
  8
__
  6
CONTINUOUS
 62
     7
 10
75.25000000000222
 20
-748.0836853158601
 30
0.0
 11
127.9663859753408
 21
-709.0
 31
0.0
  0
LINE
  5
680
  8
__
  6
CONTINUOUS
 62
     7
 10
75.25000000000222
 20
-851.9163146841399
 30
0.0
 11
127.9663859753408
 21
-891.0
 31
0.0
  0
LINE
  5
681
  8
__
  6
CONTINUOUS
 62
     7
 10
117.9663859753408
 20
-883.5860461424379
 30
0.0
 11
117.9663859753408
 21
-716.4139538575623
 31
0.0
  0
CIRCLE
  5
682
  8
__
  6
CONTINUOUS
 62
     7
 10
-100.0000000000005
 20
-1068.5
 30
0.0
 40
10.0
  0
LINE
  5
683
  8
__
  6
CONTINUOUS
 62
     7
 10
-98.26795000000084
 20
-1065.50000139875
 30
0.0
 11
-101.732050000001
 21
-1065.50000139875
 31
0.0
  0
LINE
  5
684
  8
__
  6
CONTINUOUS
 62
     7
 10
-101.732050000001
 20
-1071.49999860125
 30
0.0
 11
-98.26795000000084
 21
-1071.49999860125
 31
0.0
  0
LINE
  5
685
  8
__
  6
CONTINUOUS
 62
     7
 10
-101.732050000001
 20
-1065.50000139875
 30
0.0
 11
-103.4641000000006
 21
-1068.5
 31
0.0
  0
LINE
  5
686
  8
__
  6
CONTINUOUS
 62
     7
 10
-103.4641000000006
 20
-1068.5
 30
0.0
 11
-101.732050000001
 21
-1071.49999860125
 31
0.0
  0
LINE
  5
687
  8
__
  6
CONTINUOUS
 62
     7
 10
-96.53590000000031
 20
-1068.5
 30
0.0
 11
-98.26795000000084
 21
-1065.50000139875
 31
0.0
  0
LINE
  5
688
  8
__
  6
CONTINUOUS
 62
     7
 10
-98.26795000000084
 20
-1071.49999860125
 30
0.0
 11
-96.53590000000031
 21
-1068.5
 31
0.0
  0
LINE
  5
689
  8
__
  6
CONTINUOUS
 62
     7
 10
-1434.411056916194
 20
-529.1309444583367
 30
0.0
 11
-1434.411056916194
 21
-549.8690555416626
 31
0.0
  0
LINE
  5
68A
  8
__
  6
CONTINUOUS
 62
     7
 10
-1434.411056916194
 20
-529.1309444583367
 30
0.0
 11
-1430.25
 21
-529.1309444583367
 31
0.0
  0
LINE
  5
68B
  8
__
  6
CONTINUOUS
 62
     7
 10
-1434.411056916194
 20
-549.8690555416626
 30
0.0
 11
-1430.25
 21
-549.8690555416626
 31
0.0
  0
LINE
  5
68C
  8
__
  6
CONTINUOUS
 62
     7
 10
-965.5889430838056
 20
-1070.869055541663
 30
0.0
 11
-965.5889430838056
 21
-1050.130944458337
 31
0.0
  0
LINE
  5
68D
  8
__
  6
CONTINUOUS
 62
     7
 10
-965.5889430838056
 20
-1070.869055541663
 30
0.0
 11
-971.2019391537015
 21
-1070.869055541663
 31
0.0
  0
LINE
  5
68E
  8
__
  6
CONTINUOUS
 62
     7
 10
-965.5889430838056
 20
-1050.130944458337
 30
0.0
 11
-969.75
 21
-1050.130944458337
 31
0.0
  0
LINE
  5
68F
  8
__
  6
CONTINUOUS
 62
     7
 10
-965.5889430838056
 20
-529.1309444583367
 30
0.0
 11
-965.5889430838056
 21
-549.8690555416626
 31
0.0
  0
LINE
  5
690
  8
__
  6
CONTINUOUS
 62
     7
 10
-965.5889430838056
 20
-529.1309444583367
 30
0.0
 11
-969.75
 21
-529.1309444583367
 31
0.0
  0
LINE
  5
691
  8
__
  6
CONTINUOUS
 62
     7
 10
-965.5889430838056
 20
-549.8690555416626
 30
0.0
 11
-969.75
 21
-549.8690555416626
 31
0.0
  0
LINE
  5
692
  8
__
  6
CONTINUOUS
 62
     7
 10
-334.4110569161944
 20
-1070.869055541663
 30
0.0
 11
-334.4110569161944
 21
-1050.130944458337
 31
0.0
  0
LINE
  5
693
  8
__
  6
CONTINUOUS
 62
     7
 10
-334.4110569161944
 20
-1070.869055541663
 30
0.0
 11
-328.7980608462985
 21
-1070.869055541663
 31
0.0
  0
LINE
  5
694
  8
__
  6
CONTINUOUS
 62
     7
 10
-334.4110569161944
 20
-1050.130944458337
 30
0.0
 11
-330.25
 21
-1050.130944458337
 31
0.0
  0
LINE
  5
695
  8
__
  6
CONTINUOUS
 62
     7
 10
-334.4110569161944
 20
-529.1309444583367
 30
0.0
 11
-334.4110569161944
 21
-549.8690555416626
 31
0.0
  0
LINE
  5
696
  8
__
  6
CONTINUOUS
 62
     7
 10
-334.4110569161944
 20
-529.1309444583367
 30
0.0
 11
-330.25
 21
-529.1309444583367
 31
0.0
  0
LINE
  5
697
  8
__
  6
CONTINUOUS
 62
     7
 10
-334.4110569161944
 20
-549.8690555416626
 30
0.0
 11
-330.25
 21
-549.8690555416626
 31
0.0
  0
LINE
  5
698
  8
__
  6
CONTINUOUS
 62
     7
 10
134.4110569161944
 20
-1070.869055541663
 30
0.0
 11
134.4110569161944
 21
-1050.130944458337
 31
0.0
  0
LINE
  5
699
  8
__
  6
CONTINUOUS
 62
     7
 10
134.4110569161944
 20
-1070.869055541663
 30
0.0
 11
128.7980608462985
 21
-1070.869055541663
 31
0.0
  0
LINE
  5
69A
  8
__
  6
CONTINUOUS
 62
     7
 10
134.4110569161944
 20
-1050.130944458337
 30
0.0
 11
130.25
 21
-1050.130944458337
 31
0.0
  0
LINE
  5
69B
  8
__
  6
CONTINUOUS
 62
     7
 10
134.4110569161944
 20
-529.1309444583367
 30
0.0
 11
134.4110569161944
 21
-549.8690555416626
 31
0.0
  0
LINE
  5
69C
  8
__
  6
CONTINUOUS
 62
     7
 10
134.4110569161944
 20
-529.1309444583367
 30
0.0
 11
130.25
 21
-529.1309444583367
 31
0.0
  0
LINE
  5
69D
  8
__
  6
CONTINUOUS
 62
     7
 10
134.4110569161944
 20
-549.8690555416626
 30
0.0
 11
130.25
 21
-549.8690555416626
 31
0.0
  0
LINE
  5
69E
  8
__
  6
______-7
 62
     7
 10
-100.0
 20
-1200.0
 30
0.0
 11
-100.0
 21
-400.0
 31
0.0
  0
CIRCLE
  5
69F
  8
__
  6
CONTINUOUS
 62
     7
 10
-1041.000000000006
 20
-1583.5
 30
0.0
 40
10.0
  0
LINE
  5
6A0
  8
__
  6
CONTINUOUS
 62
     7
 10
-1039.267950000007
 20
-1586.49999860125
 30
0.0
 11
-1042.732050000007
 21
-1586.49999860125
 31
0.0
  0
LINE
  5
6A1
  8
__
  6
CONTINUOUS
 62
     7
 10
-1042.732050000007
 20
-1580.50000139875
 30
0.0
 11
-1039.267950000007
 21
-1580.50000139875
 31
0.0
  0
LINE
  5
6A2
  8
__
  6
CONTINUOUS
 62
     7
 10
-1042.732050000007
 20
-1586.49999860125
 30
0.0
 11
-1044.464100000006
 21
-1583.5
 31
0.0
  0
LINE
  5
6A3
  8
__
  6
CONTINUOUS
 62
     7
 10
-1044.464100000006
 20
-1583.5
 30
0.0
 11
-1042.732050000007
 21
-1580.50000139875
 31
0.0
  0
LINE
  5
6A4
  8
__
  6
CONTINUOUS
 62
     7
 10
-1037.535900000006
 20
-1583.5
 30
0.0
 11
-1039.267950000007
 21
-1586.49999860125
 31
0.0
  0
LINE
  5
6A5
  8
__
  6
CONTINUOUS
 62
     7
 10
-1039.267950000007
 20
-1580.50000139875
 30
0.0
 11
-1037.535900000006
 21
-1583.5
 31
0.0
  0
CIRCLE
  5
6A6
  8
__
  6
CONTINUOUS
 62
     7
 10
-1359.000000000005
 20
-1583.5
 30
0.0
 40
10.0
  0
LINE
  5
6A7
  8
__
  6
CONTINUOUS
 62
     7
 10
-1357.267950000006
 20
-1580.50000139875
 30
0.0
 11
-1360.732050000006
 21
-1580.50000139875
 31
0.0
  0
LINE
  5
6A8
  8
__
  6
CONTINUOUS
 62
     7
 10
-1360.732050000006
 20
-1586.49999860125
 30
0.0
 11
-1357.267950000006
 21
-1586.49999860125
 31
0.0
  0
LINE
  5
6A9
  8
__
  6
CONTINUOUS
 62
     7
 10
-1360.732050000006
 20
-1580.50000139875
 30
0.0
 11
-1362.464100000006
 21
-1583.5
 31
0.0
  0
LINE
  5
6AA
  8
__
  6
CONTINUOUS
 62
     7
 10
-1362.464100000006
 20
-1583.5
 30
0.0
 11
-1360.732050000006
 21
-1586.49999860125
 31
0.0
  0
LINE
  5
6AB
  8
__
  6
CONTINUOUS
 62
     7
 10
-1355.535900000005
 20
-1583.5
 30
0.0
 11
-1357.267950000006
 21
-1580.50000139875
 31
0.0
  0
LINE
  5
6AC
  8
__
  6
CONTINUOUS
 62
     7
 10
-1357.267950000006
 20
-1586.49999860125
 30
0.0
 11
-1355.535900000005
 21
-1583.5
 31
0.0
  0
CIRCLE
  5
6AD
  8
__
  6
CONTINUOUS
 62
     7
 10
-1041.000000000005
 20
-1583.5
 30
0.0
 40
10.0
  0
LINE
  5
6AE
  8
__
  6
CONTINUOUS
 62
     7
 10
-1042.732050000005
 20
-1580.500001398751
 30
0.0
 11
-1039.267950000005
 21
-1580.500001398751
 31
0.0
  0
LINE
  5
6AF
  8
__
  6
CONTINUOUS
 62
     7
 10
-1039.267950000005
 20
-1586.49999860125
 30
0.0
 11
-1042.732050000005
 21
-1586.49999860125
 31
0.0
  0
LINE
  5
6B0
  8
__
  6
CONTINUOUS
 62
     7
 10
-1039.267950000005
 20
-1580.500001398751
 30
0.0
 11
-1037.535900000005
 21
-1583.5
 31
0.0
  0
LINE
  5
6B1
  8
__
  6
CONTINUOUS
 62
     7
 10
-1037.535900000005
 20
-1583.5
 30
0.0
 11
-1039.267950000005
 21
-1586.49999860125
 31
0.0
  0
LINE
  5
6B2
  8
__
  6
CONTINUOUS
 62
     7
 10
-1044.464100000006
 20
-1583.5
 30
0.0
 11
-1042.732050000005
 21
-1580.500001398751
 31
0.0
  0
LINE
  5
6B3
  8
__
  6
CONTINUOUS
 62
     7
 10
-1042.732050000005
 20
-1586.49999860125
 30
0.0
 11
-1044.464100000006
 21
-1583.5
 31
0.0
  0
VIEWPORT
  5
6B4
 67
     1
  8
0
 10
128.5
 20
97.5
 30
0.0
 40
314.226
 41
222.18
 68
     1
 69
     1
1001
ACAD
1000
MVIEW
1002
{
1070
    16
1010
0.0
1020
0.0
1030
0.0
1020
0.0
1030
0.0
1010
0.0
1020
0.0
1030
1.0
1020
0.0
1030
1.0
1040
0.0
1040
222.18
1040
128.5
1040
97.5
1040
50.0
1040
0.0
1040
0.0
1070
     0
1070
   100
1070
     0
1070
     3
1070
     0
1070
     0
1070
     0
1070
     0
1040
0.0
1040
0.0
1040
0.0
1040
10.0
1040
10.0
1040
10.0
1040
10.0
1070
     0
1002
{
1002
}
1002
}
  0
ENDSEC
  0
EOF
