  0
SECTION
  2
HEADER
  9
$ACADVER
  1
AC1009
  9
$DWGCODEPAGE
  3
ansi_932
  9
$INSBASE
 10
0.0
 20
0.0
 30
0.0
  9
$EXTMIN
 10
-2249.994374999999
 20
-3355.369230483168
 30
0.0
  9
$EXTMAX
 10
2249.994374999999
 20
3334.755214261562
 30
0.0
  9
$LIMMIN
 10
0.0
 20
0.0
  9
$LIMMAX
 10
12.0
 20
9.0
  9
$ORTHOMODE
 70
     0
  9
$REGENMODE
 70
     1
  9
$FILLMODE
 70
     1
  9
$QTEXTMODE
 70
     0
  9
$MIRRTEXT
 70
     1
  9
$DRAGMODE
 70
     2
  9
$LTSCALE
 40
127.0
  9
$OSMODE
 70
  8423
  9
$ATTMODE
 70
     1
  9
$TEXTSIZE
 40
0.2
  9
$TRACEWID
 40
1.0
  9
$TEXTSTYLE
  7
STANDARD
  9
$CLAYER
  8
__
  9
$CELTYPE
  6
BYLAYER
  9
$CECOLOR
 62
   256
  9
$DIMSCALE
 40
1.0
  9
$DIMASZ
 40
0.18
  9
$DIMEXO
 40
0.0625
  9
$DIMDLI
 40
0.38
  9
$DIMRND
 40
0.0
  9
$DIMDLE
 40
0.0
  9
$DIMEXE
 40
0.18
  9
$DIMTP
 40
0.0
  9
$DIMTM
 40
0.0
  9
$DIMTXT
 40
0.18
  9
$DIMCEN
 40
0.09
  9
$DIMTSZ
 40
0.0
  9
$DIMTOL
 70
     0
  9
$DIMLIM
 70
     0
  9
$DIMTIH
 70
     1
  9
$DIMTOH
 70
     1
  9
$DIMSE1
 70
     0
  9
$DIMSE2
 70
     0
  9
$DIMTAD
 70
     0
  9
$DIMZIN
 70
     0
  9
$DIMBLK
  1

  9
$DIMASO
 70
     1
  9
$DIMSHO
 70
     1
  9
$DIMPOST
  1

  9
$DIMAPOST
  1

  9
$DIMALT
 70
     0
  9
$DIMALTD
 70
     2
  9
$DIMALTF
 40
25.4
  9
$DIMLFAC
 40
1.0
  9
$DIMTOFL
 70
     0
  9
$DIMTVP
 40
0.0
  9
$DIMTIX
 70
     0
  9
$DIMSOXD
 70
     0
  9
$DIMSAH
 70
     0
  9
$DIMBLK1
  1

  9
$DIMBLK2
  1

  9
$DIMSTYLE
  2
STANDARD
  9
$DIMCLRD
 70
     0
  9
$DIMCLRE
 70
     0
  9
$DIMCLRT
 70
     0
  9
$DIMTFAC
 40
1.0
  9
$DIMGAP
 40
0.09
  9
$LUNITS
 70
     2
  9
$LUPREC
 70
     2
  9
$SKETCHINC
 40
0.1
  9
$FILLETRAD
 40
0.5
  9
$AUNITS
 70
     0
  9
$AUPREC
 70
     1
  9
$MENU
  1
.
  9
$ELEVATION
 40
0.0
  9
$PELEVATION
 40
0.0
  9
$THICKNESS
 40
0.0
  9
$LIMCHECK
 70
     0
  9
$CHAMFERA
 40
0.0
  9
$CHAMFERB
 40
0.0
  9
$SKPOLY
 70
     0
  9
$TDCREATE
 40
2460804.700223021
  9
$TDUPDATE
 40
2460804.700627928
  9
$TDINDWG
 40
2460804.325627963
  9
$TDUSRTIMER
 40
0.0004049421
  9
$USRTIMER
 70
     1
  9
$ANGBASE
 50
0.0
  9
$ANGDIR
 70
     0
  9
$PDMODE
 70
     1
  9
$PDSIZE
 40
-2.0
  9
$PLINEWID
 40
0.0
  9
$COORDS
 70
     2
  9
$SPLFRAME
 70
     0
  9
$SPLINETYPE
 70
     6
  9
$SPLINESEGS
 70
     8
  9
$ATTDIA
 70
     1
  9
$ATTREQ
 70
     1
  9
$HANDLING
 70
     1
  9
$HANDSEED
  5
65E
  9
$SURFTAB1
 70
     6
  9
$SURFTAB2
 70
     6
  9
$SURFTYPE
 70
     6
  9
$SURFU
 70
     6
  9
$SURFV
 70
     6
  9
$UCSNAME
  2

  9
$UCSORG
 10
0.0
 20
0.0
 30
0.0
  9
$UCSXDIR
 10
1.0
 20
0.0
 30
0.0
  9
$UCSYDIR
 10
0.0
 20
1.0
 30
0.0
  9
$PUCSNAME
  2

  9
$PUCSORG
 10
0.0
 20
0.0
 30
0.0
  9
$PUCSXDIR
 10
1.0
 20
0.0
 30
0.0
  9
$PUCSYDIR
 10
0.0
 20
1.0
 30
0.0
  9
$USERI1
 70
     0
  9
$USERI2
 70
     0
  9
$USERI3
 70
     0
  9
$USERI4
 70
     0
  9
$USERI5
 70
     0
  9
$USERR1
 40
0.0
  9
$USERR2
 40
0.0
  9
$USERR3
 40
0.0
  9
$USERR4
 40
0.0
  9
$USERR5
 40
0.0
  9
$WORLDVIEW
 70
     1
  9
$SHADEDGE
 70
     3
  9
$SHADEDIF
 70
    70
  9
$TILEMODE
 70
     1
  9
$MAXACTVP
 70
    64
  9
$PLIMCHECK
 70
     0
  9
$PEXTMIN
 10
1.000000000000000E+20
 20
1.000000000000000E+20
 30
1.000000000000000E+20
  9
$PEXTMAX
 10
-1.000000000000000E+20
 20
-1.000000000000000E+20
 30
-1.000000000000000E+20
  9
$PLIMMIN
 10
-20.0
 20
-7.5
  9
$PLIMMAX
 10
277.0
 20
202.5
  9
$UNITMODE
 70
     0
  9
$VISRETAIN
 70
     1
  9
$PLINEGEN
 70
     0
  9
$PSLTSCALE
 70
     1
  0
ENDSEC
  0
SECTION
  2
TABLES
  0
TABLE
  2
VPORT
 70
     1
  0
VPORT
  2
*ACTIVE
 70
     0
 10
0.0
 20
0.0
 11
1.0
 21
1.0
 12
0.0
 22
-3.531814999999824
 13
0.0
 23
0.0
 14
0.5
 24
0.5
 15
0.5
 25
0.5
 16
0.0
 26
0.0
 36
1.0
 17
0.0
 27
0.0
 37
0.0
 40
6676.574058523124
 41
2.942508710801394
 42
2000.0
 43
0.0
 44
0.0
 50
0.0
 51
0.0
 71
     0
 72
   100
 73
     1
 74
     3
 75
     0
 76
     0
 77
     0
 78
     0
  0
ENDTAB
  0
TABLE
  2
LTYPE
 70
    11
  0
LTYPE
  2
CONTINUOUS
 70
     0
  3
Solid line
 72
    65
 73
     0
 40
0.0
  0
LTYPE
  2
______-7
 70
     0
  3

 72
    65
 73
     6
 40
1.875
 49
0.625
 49
-0.208282470703125
 49
0.625
 49
-0.2083587646484375
 49
0.069427490234375
 49
-0.1389312744140625
  0
ENDTAB
  0
TABLE
  2
LAYER
 70
     3
  0
LAYER
  2
0
 70
     0
 62
     7
  6
CONTINUOUS
  0
LAYER
  2
__
 70
     0
 62
     7
  6
CONTINUOUS
  0
LAYER
  2
__-1
 70
     0
 62
     7
  6
CONTINUOUS
  0
ENDTAB
  0
TABLE
  2
STYLE
 70
     2
  0
STYLE
  2
STANDARD
 70
     0
 40
0.0
 41
1.0
 50
0.0
 71
     0
 42
0.2
  3
txt
  4
BIGFONT.SHX
  0
ENDTAB
  0
TABLE
  2
VIEW
 70
     0
  0
ENDTAB
  0
TABLE
  2
UCS
 70
     0
  0
ENDTAB
  0
TABLE
  2
APPID
 70
     5
  0
APPID
  2
ACAD
 70
     0
  0
APPID
  2
ACCMTRANSPARENCY
 70
     0
  0
APPID
  2
ACAECLAYERSTANDARD
 70
     0
  0
APPID
  2
ACAD_MLEADERVER
 70
     0
  0
APPID
  2
ACADANNOPO
 70
     0
  0
ENDTAB
  0
TABLE
  2
DIMSTYLE
 70
     1
  0
DIMSTYLE
  2
STANDARD
 70
     0
  3

  4

  5

  6

  7

 40
1.0
 41
0.18
 42
0.0625
 43
0.38
 44
0.18
 45
0.0
 46
0.0
 47
0.0
 48
0.0
140
0.18
141
0.09
142
0.0
143
25.4
144
1.0
145
0.0
146
1.0
147
0.09
 71
     0
 72
     0
 73
     1
 74
     1
 75
     0
 76
     0
 77
     0
 78
     0
170
     0
171
     2
172
     0
173
     0
174
     0
175
     0
176
     0
177
     0
178
     0
  0
ENDTAB
  0
ENDSEC
  0
SECTION
  2
BLOCKS
  0
BLOCK
  8
__
  2
$MODEL_SPACE
 70
     0
 10
0.0
 20
0.0
 30
0.0
  3
$MODEL_SPACE
  1

  0
ENDBLK
  5
5E9
  8
__
  0
BLOCK
 67
     1
  8
__
  2
$PAPER_SPACE
 70
     0
 10
0.0
 20
0.0
 30
0.0
  3
$PAPER_SPACE
  1

  0
ENDBLK
  5
5E7
 67
     1
  8
__
  0
ENDSEC
  0
SECTION
  2
ENTITIES
  0
LINE
  5
7F
  8
__
  6
CONTINUOUS
 62
     7
 10
-2249.994374999999
 20
3334.755214261562
 30
0.0
 11
2249.994374999999
 21
3334.755214261562
 31
0.0
  0
LINE
  5
80
  8
__
  6
CONTINUOUS
 62
     7
 10
2249.994374999999
 20
-3165.228535738437
 30
0.0
 11
-2249.994374999999
 21
-3165.228535738437
 31
0.0
  0
LINE
  5
81
  8
__
  6
CONTINUOUS
 62
     7
 10
-2249.994374999999
 20
-3165.228535738437
 30
0.0
 11
-2249.994374999999
 21
3334.755214261562
 31
0.0
  0
LINE
  5
82
  8
__
  6
CONTINUOUS
 62
     7
 10
2249.994374999999
 20
3334.755214261562
 30
0.0
 11
2249.994374999999
 21
-3165.228535738437
 31
0.0
  0
LINE
  5
83
  8
__
  6
CONTINUOUS
 62
     7
 10
0.0000000000003553
 20
-2602.729941988438
 30
0.0
 11
2249.994374999999
 21
-2602.729941988438
 31
0.0
  0
LINE
  5
84
  8
__
  6
CONTINUOUS
 62
     7
 10
0.0000000000003553
 20
-3165.228535738437
 30
0.0
 11
0.0000000000003553
 21
-2602.729941988438
 31
0.0
  0
TEXT
  5
85
  8
__
 62
     7
 10
22.4999437500005
 20
-2665.447118528437
 30
0.0
 40
40.61757423706053
  1
NOTE
 41
0.7
 11
22.4999437500005
 21
-2624.829544291376
 31
0.0
 73
     3
  0
LINE
  5
86
  8
__
  6
CONTINUOUS
 62
     7
 10
874.9978125000002
 20
-3165.228535738437
 30
0.0
 11
874.9978125000002
 21
-2602.729941988438
 31
0.0
  0
TEXT
  5
87
  8
__
 62
     7
 10
897.4977562499997
 20
-2665.447118528437
 30
0.0
 40
40.61757423706053
  1
TITLE
 41
0.7
 11
897.4977562499997
 21
-2624.829544291376
 31
0.0
 73
     3
  0
LINE
  5
88
  8
__
  6
CONTINUOUS
 62
     7
 10
0.0000000000003553
 20
-2915.229160738437
 30
0.0
 11
2249.994374999999
 21
-2915.229160738437
 31
0.0
  0
TEXT
  5
89
  8
__
 62
     7
 10
1209.996975
 20
-2976.538340798438
 30
0.0
 40
40.61757423706053
  1
DRAWN
 41
0.7
 11
1209.996975
 21
-2935.920766561378
 31
0.0
 73
     3
  0
TEXT
  5
8A
  8
__
 62
     7
 10
584.9985374999998
 20
-2976.538340798438
 30
0.0
 40
40.61757423706053
  1
DATE
 41
0.7
 11
584.9985374999998
 21
-2935.920766561378
 31
0.0
 73
     3
  0
TEXT
  5
8B
  8
__
 62
     7
 10
334.9991624999998
 20
-2976.538340798438
 30
0.0
 40
40.61757423706053
  1
SCALE
 41
0.7
 11
334.9991624999998
 21
-2935.920766561378
 31
0.0
 73
     3
  0
TEXT
  5
8C
  8
__
 62
     7
 10
897.4977562499997
 20
-2976.538340798438
 30
0.0
 40
40.61757423706053
  1
DESIGN
 41
0.7
 11
897.4977562499997
 21
-2935.920766561378
 31
0.0
 73
     3
  0
TEXT
  5
8D
  8
__
 62
     7
 10
1834.995412499999
 20
-2976.538340798438
 30
0.0
 40
40.61757423706053
  1
DRAWING NO.
 41
0.7
 11
1834.995412499999
 21
-2935.920766561378
 31
0.0
 73
     3
  0
TEXT
  5
8E
  8
__
 62
     7
 10
1522.49619375
 20
-2976.538340798438
 30
0.0
 40
40.61757423706053
  1
CHECK
 41
0.7
 11
1522.49619375
 21
-2935.920766561378
 31
0.0
 73
     3
  0
LINE
  5
8F
  8
__
  6
CONTINUOUS
 62
     7
 10
359.3741015625004
 20
-3133.978613863438
 30
0.0
 11
453.1238671875003
 21
-3040.228848238437
 31
0.0
  0
TEXT
  5
90
  8
__
 62
     7
 10
343.7491406250003
 20
-3067.952362262813
 30
0.0
 40
40.61757423706053
  1
1
 41
0.7
 11
343.7491406250003
 21
-3027.334788025752
 31
0.0
 73
     3
  0
LINE
  5
91
  8
__
  6
CONTINUOUS
 62
     7
 10
312.4992187500004
 20
-3165.228535738437
 30
0.0
 11
312.4992187500004
 21
-2915.229160738437
 31
0.0
  0
LINE
  5
92
  8
__
  6
CONTINUOUS
 62
     7
 10
562.4985937499996
 20
-3165.228535738437
 30
0.0
 11
562.4985937499996
 21
-2915.229160738437
 31
0.0
  0
LINE
  5
93
  8
__
  6
CONTINUOUS
 62
     7
 10
1187.49703125
 20
-2915.229160738437
 30
0.0
 11
1187.49703125
 21
-3165.228535738437
 31
0.0
  0
LINE
  5
94
  8
__
  6
CONTINUOUS
 62
     7
 10
1812.49546875
 20
-2915.229160738437
 30
0.0
 11
1812.49546875
 21
-3165.228535738437
 31
0.0
  0
LINE
  5
95
  8
__
  6
CONTINUOUS
 62
     7
 10
1499.996249999999
 20
-3165.228535738437
 30
0.0
 11
1499.996249999999
 21
-2915.229160738437
 31
0.0
  0
TEXT
  5
96
  8
__
 62
     7
 10
583.9120402162503
 20
-3093.637548049687
 30
0.0
 40
40.61757423706053
  1
'25.05.
 41
0.7
 11
583.9120402162503
 21
-3053.019973812626
 31
0.0
 73
     3
  0
TEXT
  5
97
  8
__
 62
     7
 10
437.4989062500003
 20
-3114.827245075312
 30
0.0
 40
40.61757423706053
  1
25
 41
0.7
 11
437.4989062500003
 21
-3074.209670838252
 31
0.0
 73
     3
  0
TEXT
  5
98
  8
__
 62
     7
 10
1225.14218741274
 20
-3093.637548049687
 30
0.0
 40
40.61757423706053
  1
N.Sasaki
 41
0.7
 11
1225.14218741274
 21
-3053.019973812626
 31
0.0
 73
     3
  0
TEXT
  5
99
  8
__
 62
     7
 10
97.08309062500086
 20
-3115.828659238437
 30
0.0
 40
81.23514847412106
  1
A4
 41
0.7
 11
97.08309062500086
 21
-3034.593510764315
 31
0.0
 73
     3
  0
TEXT
  5
9A
  8
__
 62
     7
 10
23.95827343749988
 20
-2980.7153720225
 30
0.0
 40
40.61757423706053
  1
PAPER SIZE
 41
0.7
 11
23.95827343749988
 21
-2940.09779778544
 31
0.0
 73
     3
  0
TEXT
  5
9B
  8
__
 62
     7
 10
-2070.394823999999
 20
-3325.445080196075
 30
0.0
 40
89.77245086128049
  1
Hibino Corporation
 41
0.7
 11
-2070.394823999999
 21
-3235.672629334794
 31
0.0
 73
     3
  0
TEXT
  5
9C
  8
__
 62
     7
 10
1251.706620725625
 20
-3325.445080196075
 30
0.0
 40
89.77245086128049
  1
ヒビノ株式会社
 41
0.7
 11
1251.706620725625
 21
-3235.672629334794
 31
0.0
 73
     3
  0
LINE
  5
9D
  8
__
  6
CONTINUOUS
 62
     7
 10
-2062.494843749999
 20
3084.755839261562
 30
0.0
 11
1624.9959375
 21
3084.755839261562
 31
0.0
  0
LINE
  5
9E
  8
__
  6
CONTINUOUS
 62
     7
 10
-2062.494843749999
 20
2991.006073636562
 30
0.0
 11
1624.9959375
 21
2991.006073636562
 31
0.0
  0
LINE
  5
9F
  8
__
  6
CONTINUOUS
 62
     7
 10
-2062.494843749999
 20
3084.755839261562
 30
0.0
 11
-2062.494843749999
 21
1584.759589261561
 31
0.0
  0
TEXT
  5
A0
  8
__
 62
     7
 10
-2031.244921874999
 20
3119.587502182187
 30
0.0
 40
60.92636135559081
  1
仕様
 41
0.7
 11
-2031.244921874999
 21
3180.513863537778
 31
0.0
 73
     3
  0
LINE
  5
A1
  8
__
  6
CONTINUOUS
 62
     7
 10
1624.9959375
 20
3084.755839261562
 30
0.0
 11
1624.9959375
 21
1584.759589261561
 31
0.0
  0
LINE
  5
A2
  8
__
  6
CONTINUOUS
 62
     7
 10
-2062.494843749999
 20
2897.256308011562
 30
0.0
 11
1624.9959375
 21
2897.256308011562
 31
0.0
  0
LINE
  5
A3
  8
__
  6
CONTINUOUS
 62
     7
 10
-2062.494843749999
 20
2803.506542386562
 30
0.0
 11
1624.9959375
 21
2803.506542386562
 31
0.0
  0
LINE
  5
A4
  8
__
  6
CONTINUOUS
 62
     7
 10
-2062.494843749999
 20
2709.756776761561
 30
0.0
 11
1624.9959375
 21
2709.756776761561
 31
0.0
  0
LINE
  5
A5
  8
__
  6
CONTINUOUS
 62
     7
 10
-2062.494843749999
 20
2616.007011136562
 30
0.0
 11
1624.9959375
 21
2616.007011136562
 31
0.0
  0
LINE
  5
A6
  8
__
  6
CONTINUOUS
 62
     7
 10
-2062.494843749999
 20
2522.257245511561
 30
0.0
 11
1624.9959375
 21
2522.257245511561
 31
0.0
  0
LINE
  5
A7
  8
__
  6
CONTINUOUS
 62
     7
 10
-1531.25
 20
2428.507479886561
 30
0.0
 11
1624.9959375
 21
2428.507479886561
 31
0.0
  0
LINE
  5
A8
  8
__
  6
CONTINUOUS
 62
     7
 10
-1531.25
 20
2334.757714261561
 30
0.0
 11
1624.9959375
 21
2334.757714261561
 31
0.0
  0
LINE
  5
A9
  8
__
  6
CONTINUOUS
 62
     7
 10
-2062.494843749999
 20
2241.007948636561
 30
0.0
 11
1624.9959375
 21
2241.007948636561
 31
0.0
  0
LINE
  5
AA
  8
__
  6
CONTINUOUS
 62
     7
 10
-2062.494843749999
 20
2147.258183011561
 30
0.0
 11
1624.9959375
 21
2147.258183011561
 31
0.0
  0
LINE
  5
AB
  8
__
  6
CONTINUOUS
 62
     7
 10
-2062.494843749999
 20
2053.508417386561
 30
0.0
 11
1624.9959375
 21
2053.508417386561
 31
0.0
  0
LINE
  5
AC
  8
__
  6
CONTINUOUS
 62
     7
 10
-2062.494843749999
 20
1959.758651761562
 30
0.0
 11
1624.9959375
 21
1959.758651761562
 31
0.0
  0
LINE
  5
AD
  8
__
  6
CONTINUOUS
 62
     7
 10
-2062.494843749999
 20
1866.008886136561
 30
0.0
 11
1624.9959375
 21
1866.008886136561
 31
0.0
  0
LINE
  5
AE
  8
__
  6
CONTINUOUS
 62
     7
 10
-2062.494843749999
 20
1772.259120511561
 30
0.0
 11
1624.9959375
 21
1772.259120511561
 31
0.0
  0
LINE
  5
AF
  8
__
  6
CONTINUOUS
 62
     7
 10
-2062.494843749999
 20
1678.509354886562
 30
0.0
 11
1624.9959375
 21
1678.509354886562
 31
0.0
  0
LINE
  5
B0
  8
__
  6
CONTINUOUS
 62
     7
 10
-2062.494843749999
 20
1584.759589261561
 30
0.0
 11
1624.9959375
 21
1584.759589261561
 31
0.0
  0
TEXT
  5
B1
  8
__
 62
     7
 10
-2039.9949
 20
2729.454671961145
 30
0.0
 40
47.3871699432373
  1
ドライバー構成
 41
0.7
 11
-2039.9949
 21
2776.841841904382
 31
0.0
 73
     3
  0
TEXT
  5
B2
  8
__
 62
     7
 10
-2039.9949
 20
2448.205375086144
 30
0.0
 40
47.3871699432373
  1
入力
 41
0.7
 11
-2039.9949
 21
2495.592545029382
 31
0.0
 73
     3
  0
TEXT
  5
B3
  8
__
 62
     7
 10
-2039.9949
 20
3010.703968836145
 30
0.0
 40
47.3871699432373
  1
形式
 41
0.7
 11
-2039.9949
 21
3058.091138779382
 31
0.0
 73
     3
  0
TEXT
  5
B4
  8
__
 62
     7
 10
-2039.9949
 20
2916.954203211145
 30
0.0
 40
47.3871699432373
  1
周波数レンジ(-10dB)
 41
0.7
 11
-2039.9949
 21
2964.341373154382
 31
0.0
 73
     3
  0
TEXT
  5
B5
  8
__
 62
     7
 10
-2039.9949
 20
2823.204437586144
 30
0.0
 40
47.3871699432373
  1
最大音圧レベル
 41
0.7
 11
-2039.9949
 21
2870.591607529382
 31
0.0
 73
     3
  0
TEXT
  5
B6
  8
__
 62
     7
 10
-2039.9949
 20
2541.955140711144
 30
0.0
 40
47.3871699432373
  1
パワーアンプ
 41
0.7
 11
-2039.9949
 21
2589.342310654381
 31
0.0
 73
     3
  0
TEXT
  5
B7
  8
__
 62
     7
 10
-2039.9949
 20
2073.206312586144
 30
0.0
 40
47.3871699432373
  1
電源
 41
0.7
 11
-2039.9949
 21
2120.593482529382
 31
0.0
 73
     3
  0
TEXT
  5
B8
  8
__
 62
     7
 10
-2039.9949
 20
1979.456546961145
 30
0.0
 40
47.3871699432373
  1
消費電力
 41
0.7
 11
-2039.9949
 21
2026.843716904382
 31
0.0
 73
     3
  0
TEXT
  5
B9
  8
__
 62
     7
 10
-2039.9949
 20
1885.706781336144
 30
0.0
 40
47.3871699432373
  1
エンクロージャー
 41
0.7
 11
-2039.9949
 21
1933.093951279382
 31
0.0
 73
     3
  0
TEXT
  5
BA
  8
__
 62
     7
 10
-2039.9949
 20
1604.457484461145
 30
0.0
 40
47.3871699432373
  1
付属品
 41
0.7
 11
-2039.9949
 21
1651.844654404382
 31
0.0
 73
     3
  0
TEXT
  5
BB
  8
__
 62
     7
 10
-2039.9949
 20
1791.957015711145
 30
0.0
 40
47.3871699432373
  1
寸法(W×H×D)
 41
0.7
 11
-2039.9949
 21
1839.344185654382
 31
0.0
 73
     3
  0
TEXT
  5
BC
  8
__
 62
     7
 10
-2039.9949
 20
1698.207250086145
 30
0.0
 40
47.3871699432373
  1
質量
 41
0.7
 11
-2039.9949
 21
1745.594420029382
 31
0.0
 73
     3
  0
LINE
  5
BD
  8
__
  6
CONTINUOUS
 62
     7
 10
-1531.25
 20
2522.257245511561
 30
0.0
 11
-1531.25
 21
2147.258183011561
 31
0.0
  0
LINE
  5
BE
  8
__
  6
CONTINUOUS
 62
     7
 10
-989.5846875000001
 20
3084.755839261562
 30
0.0
 11
-989.5846875000001
 21
1584.759589261561
 31
0.0
  0
TEXT
  5
BF
  8
__
 62
     7
 10
-967.0847437500001
 20
1791.957015711145
 30
0.0
 40
47.3871699432373
  1
590×683×655m(除突起部)
 41
0.7
 11
-967.0847437500001
 21
1839.344185654382
 31
0.0
 73
     3
  0
TEXT
  5
C0
  8
__
 62
     7
 10
-967.0847437500001
 20
1698.207250086145
 30
0.0
 40
47.3871699432373
  1
41kg
 41
0.7
 11
-967.0847437500001
 21
1745.594420029382
 31
0.0
 73
     3
  0
TEXT
  5
C1
  8
__
 62
     7
 10
-1508.75005625
 20
2448.205375086144
 30
0.0
 40
47.3871699432373
  1
チャンネル数
 41
0.7
 11
-1508.75005625
 21
2495.592545029382
 31
0.0
 73
     3
  0
TEXT
  5
C2
  8
__
 62
     7
 10
-961.2514249999988
 20
2073.206312586144
 30
0.0
 40
47.3871699432373
  1
AC100V、50/60Hz
 41
0.7
 11
-961.2514249999988
 21
2120.593482529382
 31
0.0
 73
     3
  0
TEXT
  5
C3
  8
__
 62
     7
 10
-961.2514249999988
 20
1979.456546961145
 30
0.0
 40
47.3871699432373
  1
最大750W
 41
0.7
 11
-961.2514249999988
 21
2026.843716904382
 31
0.0
 73
     3
  0
TEXT
  5
C4
  8
__
 62
     7
 10
-967.0847437499999
 20
1604.457484461145
 30
0.0
 40
47.3871699432373
  1
電源コード、和文取扱説明書
 41
0.7
 11
-967.0847437499999
 21
1651.844654404382
 31
0.0
 73
     3
  0
TEXT
  5
C5
  8
__
 62
     7
 10
-1508.75005625
 20
2354.455609461144
 30
0.0
 40
47.3871699432373
  1
端子・形式
 41
0.7
 11
-1508.75005625
 21
2401.842779404381
 31
0.0
 73
     3
  0
TEXT
  5
C6
  8
__
 62
     7
 10
-1508.75005625
 20
2260.705843836144
 30
0.0
 40
47.3871699432373
  1
インピーダンス
 41
0.7
 11
-1508.75005625
 21
2308.093013779382
 31
0.0
 73
     3
  0
TEXT
  5
C7
  8
__
 62
     7
 10
-1508.75005625
 20
2166.956078211144
 30
0.0
 40
47.3871699432373
  1
端子・形式
 41
0.7
 11
-1508.75005625
 21
2214.343248154381
 31
0.0
 73
     3
  0
TEXT
  5
C8
  8
__
 62
     7
 10
-967.0847437499997
 20
2916.954070478506
 30
0.0
 40
47.38728841145834
  1
30Hz～110Hz
 41
0.7
 11
-967.0847437499997
 21
2964.341358889965
 31
0.0
 73
     3
  0
TEXT
  5
C9
  8
__
 62
     7
 10
-967.0847437499997
 20
2823.204304853506
 30
0.0
 40
47.38728841145834
  1
134dB SPL
 41
0.7
 11
-967.0847437499997
 21
2870.591593264964
 31
0.0
 73
     3
  0
TEXT
  5
CA
  8
__
 62
     7
 10
-967.0847437499997
 20
2729.454539228506
 30
0.0
 40
47.38728841145834
  1
18インチ(457mm)
 41
0.7
 11
-967.0847437499997
 21
2776.841827639965
 31
0.0
 73
     3
  0
TEXT
  5
CB
  8
__
 62
     7
 10
-967.0847437500001
 20
2635.704773603506
 30
0.0
 40
47.38728841145834
  1
80Hz/100Hz/120Hz
 41
0.7
 11
-967.0847437500001
 21
2683.092062014964
 31
0.0
 73
     3
  0
TEXT
  5
CC
  8
__
 62
     7
 10
-967.0847437499997
 20
3010.703836103506
 30
0.0
 40
47.38728841145834
  1
パワード・サブウーファー
 41
0.7
 11
-967.0847437499997
 21
3058.091124514965
 31
0.0
 73
     3
  0
TEXT
  5
CD
  8
__
 62
     7
 10
-2039.9949
 20
2635.704906336145
 30
0.0
 40
47.3871699432373
  1
クロスオーバー周波数
 41
0.7
 11
-2039.9949
 21
2683.092076279382
 31
0.0
 73
     3
  0
TEXT
  5
CE
  8
__
 62
     7
 10
-2039.9949
 20
2166.955945478505
 30
0.0
 40
47.38728841145834
  1
スルー出力
 41
0.7
 11
-2039.9949
 21
2214.343233889964
 31
0.0
 73
     3
  0
TEXT
  5
CF
  8
__
 62
     7
 10
-961.2514249999986
 20
1885.706648603505
 30
0.0
 40
47.38728841145834
  1
合板、Duraflex仕上げ、黒
 41
0.7
 11
-961.2514249999986
 21
1933.093937014964
 31
0.0
 73
     3
  0
TEXT
  5
D0
  8
__
 62
     7
 10
-967.0847437499997
 20
2541.955007978505
 30
0.0
 40
47.38728841145834
  1
2,000W
 41
0.7
 11
-967.0847437499997
 21
2589.342296389964
 31
0.0
 73
     3
  0
TEXT
  5
D1
  8
__
 62
     7
 10
-967.0847437499997
 20
2448.205242353506
 30
0.0
 40
47.38728841145834
  1
2
 41
0.7
 11
-967.0847437499997
 21
2495.592530764964
 31
0.0
 73
     3
  0
TEXT
  5
D2
  8
__
 62
     7
 10
-967.0847437500001
 20
2354.455476728505
 30
0.0
 40
47.38728841145834
  1
XLRと標準フォーンジャック(3P)対応の複合型端子×2
 41
0.7
 11
-967.0847437500001
 21
2401.842765139964
 31
0.0
 73
     3
  0
TEXT
  5
D3
  8
__
 62
     7
 10
-967.0847437500001
 20
2260.705711103506
 30
0.0
 40
47.38728841145834
  1
100kΩ(バランス)
 41
0.7
 11
-967.0847437500001
 21
2308.092999514964
 31
0.0
 73
     3
  0
TEXT
  5
D4
  8
__
 62
     7
 10
-967.0847437499999
 20
2166.955945478505
 30
0.0
 40
47.38728841145834
  1
XLR×2
 41
0.7
 11
-967.0847437499999
 21
2214.343233889964
 31
0.0
 73
     3
  0
TEXT
  5
D5
  8
__
 62
     7
 10
-499.9987499999997
 20
-2858.492052581561
 30
0.0
 40
60.92636135559081
  1
(単位：mm)
 41
0.7
 11
-499.9987499999997
 21
-2797.565691225971
 31
0.0
 73
     3
  0
LINE
  5
D6
  8
__-1
  6
CONTINUOUS
 62
     7
 10
-1925.0
 20
-458.5
 30
0.0
 11
-2025.0
 21
-458.5
 31
0.0
  0
LINE
  5
D7
  8
__-1
  6
CONTINUOUS
 62
     7
 10
-1925.0
 20
-1141.5
 30
0.0
 11
-2025.0
 21
-1141.5
 31
0.0
  0
LINE
  5
D8
  8
__-1
  6
CONTINUOUS
 62
     7
 10
-2000.0
 20
-458.5
 30
0.0
 11
-2000.0
 21
-1141.5
 31
0.0
  0
POLYLINE
  5
D9
  8
__-1
  6
CONTINUOUS
 62
     7
 66
     1
 10
0.0
 20
0.0
 30
0.0
 70
   128
  0
VERTEX
  5
626
  8
__-1
  6
CONTINUOUS
 62
     7
 10
-2013.396641905515
 20
-508.4969482421875
 30
0.0
  0
VERTEX
  5
627
  8
__-1
  6
CONTINUOUS
 62
     7
 10
-2000.0
 20
-458.5
 30
0.0
  0
VERTEX
  5
628
  8
__-1
  6
CONTINUOUS
 62
     7
 10
-1986.603358094485
 20
-508.4969482421875
 30
0.0
  0
SEQEND
  5
651
  8
__-1
  6
CONTINUOUS
 62
     7
  0
POLYLINE
  5
DE
  8
__-1
  6
CONTINUOUS
 62
     7
 66
     1
 10
0.0
 20
0.0
 30
0.0
 70
   128
  0
VERTEX
  5
629
  8
__-1
  6
CONTINUOUS
 62
     7
 10
-1986.603358094485
 20
-1091.503051757812
 30
0.0
  0
VERTEX
  5
62A
  8
__-1
  6
CONTINUOUS
 62
     7
 10
-2000.0
 20
-1141.5
 30
0.0
  0
VERTEX
  5
62B
  8
__-1
  6
CONTINUOUS
 62
     7
 10
-2013.396641905515
 20
-1091.503051757812
 30
0.0
  0
SEQEND
  5
652
  8
__-1
  6
CONTINUOUS
 62
     7
  0
TEXT
  5
E3
  8
__-1
 62
     7
 10
-2024.847222222222
 20
-866.1458333333334
 30
0.0
 40
67.69612630208339
  1
683
 50
90.0
 41
0.7
 11
-2092.543348524306
 21
-866.1458333333334
 31
0.0
 73
     3
  0
LINE
  5
E4
  8
__-1
  6
CONTINUOUS
 62
     7
 10
-1895.0
 20
-428.5
 30
0.0
 11
-1895.0
 21
-325.0
 31
0.0
  0
LINE
  5
E5
  8
__-1
  6
CONTINUOUS
 62
     7
 10
-1305.0
 20
-428.5
 30
0.0
 11
-1305.0
 21
-325.0
 31
0.0
  0
LINE
  5
E6
  8
__-1
  6
CONTINUOUS
 62
     7
 10
-1895.0
 20
-350.0
 30
0.0
 11
-1305.0
 21
-350.0
 31
0.0
  0
POLYLINE
  5
E7
  8
__-1
  6
CONTINUOUS
 62
     7
 66
     1
 10
0.0
 20
0.0
 30
0.0
 70
   128
  0
VERTEX
  5
62C
  8
__-1
  6
CONTINUOUS
 62
     7
 10
-1845.003051757812
 20
-363.3966419055148
 30
0.0
  0
VERTEX
  5
62D
  8
__-1
  6
CONTINUOUS
 62
     7
 10
-1895.0
 20
-350.0
 30
0.0
  0
VERTEX
  5
62E
  8
__-1
  6
CONTINUOUS
 62
     7
 10
-1845.003051757812
 20
-336.6033580944852
 30
0.0
  0
SEQEND
  5
653
  8
__-1
  6
CONTINUOUS
 62
     7
  0
POLYLINE
  5
EC
  8
__-1
  6
CONTINUOUS
 62
     7
 66
     1
 10
0.0
 20
0.0
 30
0.0
 70
   128
  0
VERTEX
  5
62F
  8
__-1
  6
CONTINUOUS
 62
     7
 10
-1354.996948242188
 20
-336.6033580944852
 30
0.0
  0
VERTEX
  5
630
  8
__-1
  6
CONTINUOUS
 62
     7
 10
-1305.0
 20
-350.0
 30
0.0
  0
VERTEX
  5
631
  8
__-1
  6
CONTINUOUS
 62
     7
 10
-1354.996948242188
 20
-363.3966419055148
 30
0.0
  0
SEQEND
  5
654
  8
__-1
  6
CONTINUOUS
 62
     7
  0
TEXT
  5
F1
  8
__-1
 62
     7
 10
-1666.145833333333
 20
-325.1527777777778
 30
0.0
 40
67.69612630208339
  1
590
 41
0.7
 11
-1666.145833333333
 21
-257.4566514756944
 31
0.0
 73
     3
  0
LINE
  5
F2
  8
__-1
  6
CONTINUOUS
 62
     7
 10
-1630.0
 20
-77.5
 30
0.0
 11
-2025.0
 21
-77.5
 31
0.0
  0
LINE
  5
F3
  8
__-1
  6
CONTINUOUS
 62
     7
 10
-1915.0
 20
577.5
 30
0.0
 11
-2025.0
 21
577.5
 31
0.0
  0
LINE
  5
F4
  8
__-1
  6
CONTINUOUS
 62
     7
 10
-2000.0
 20
-77.5
 30
0.0
 11
-2000.0
 21
577.5
 31
0.0
  0
POLYLINE
  5
F5
  8
__-1
  6
CONTINUOUS
 62
     7
 66
     1
 10
0.0
 20
0.0
 30
0.0
 70
   128
  0
VERTEX
  5
632
  8
__-1
  6
CONTINUOUS
 62
     7
 10
-1986.603358094485
 20
-27.5030517578125
 30
0.0
  0
VERTEX
  5
633
  8
__-1
  6
CONTINUOUS
 62
     7
 10
-2000.0
 20
-77.5
 30
0.0
  0
VERTEX
  5
634
  8
__-1
  6
CONTINUOUS
 62
     7
 10
-2013.396641905515
 20
-27.5030517578125
 30
0.0
  0
SEQEND
  5
655
  8
__-1
  6
CONTINUOUS
 62
     7
  0
POLYLINE
  5
FA
  8
__-1
  6
CONTINUOUS
 62
     7
 66
     1
 10
0.0
 20
0.0
 30
0.0
 70
   128
  0
VERTEX
  5
635
  8
__-1
  6
CONTINUOUS
 62
     7
 10
-2013.396641905515
 20
527.5030517578125
 30
0.0
  0
VERTEX
  5
636
  8
__-1
  6
CONTINUOUS
 62
     7
 10
-2000.0
 20
577.5
 30
0.0
  0
VERTEX
  5
637
  8
__-1
  6
CONTINUOUS
 62
     7
 10
-1986.603358094485
 20
527.5030517578125
 30
0.0
  0
SEQEND
  5
656
  8
__-1
  6
CONTINUOUS
 62
     7
  0
TEXT
  5
FF
  8
__-1
 62
     7
 10
-2024.847222222222
 20
183.8541666666667
 30
0.0
 40
67.69612630208339
  1
655
 50
90.0
 41
0.7
 11
-2092.543348524306
 21
183.8541666666667
 31
0.0
 73
     3
  0
LINE
  5
100
  8
__-1
  6
CONTINUOUS
 62
     7
 10
-1570.0
 20
-77.5
 30
0.0
 11
-1125.0
 21
-77.5
 31
0.0
  0
LINE
  5
101
  8
__-1
  6
CONTINUOUS
 62
     7
 10
-1518.5
 20
139.5
 30
0.0
 11
-1125.0
 21
139.5
 31
0.0
  0
LINE
  5
102
  8
__-1
  6
CONTINUOUS
 62
     7
 10
-1150.0
 20
-77.5
 30
0.0
 11
-1150.0
 21
139.5
 31
0.0
  0
POLYLINE
  5
103
  8
__-1
  6
CONTINUOUS
 62
     7
 66
     1
 10
0.0
 20
0.0
 30
0.0
 70
   128
  0
VERTEX
  5
638
  8
__-1
  6
CONTINUOUS
 62
     7
 10
-1136.603358094485
 20
-27.5030517578125
 30
0.0
  0
VERTEX
  5
639
  8
__-1
  6
CONTINUOUS
 62
     7
 10
-1150.0
 20
-77.5
 30
0.0
  0
VERTEX
  5
63A
  8
__-1
  6
CONTINUOUS
 62
     7
 10
-1163.396641905515
 20
-27.5030517578125
 30
0.0
  0
SEQEND
  5
657
  8
__-1
  6
CONTINUOUS
 62
     7
  0
POLYLINE
  5
108
  8
__-1
  6
CONTINUOUS
 62
     7
 66
     1
 10
0.0
 20
0.0
 30
0.0
 70
   128
  0
VERTEX
  5
63B
  8
__-1
  6
CONTINUOUS
 62
     7
 10
-1163.396641905515
 20
89.5030517578125
 30
0.0
  0
VERTEX
  5
63C
  8
__-1
  6
CONTINUOUS
 62
     7
 10
-1150.0
 20
139.5
 30
0.0
  0
VERTEX
  5
63D
  8
__-1
  6
CONTINUOUS
 62
     7
 10
-1136.603358094485
 20
89.5030517578125
 30
0.0
  0
SEQEND
  5
658
  8
__-1
  6
CONTINUOUS
 62
     7
  0
TEXT
  5
10D
  8
__-1
 62
     7
 10
-1174.847222222222
 20
-35.14583333333334
 30
0.0
 40
67.69612630208339
  1
217
 50
90.0
 41
0.7
 11
-1242.543348524305
 21
-35.14583333333333
 31
0.0
 73
     3
  0
LINE
  5
10E
  8
__-1
  6
CONTINUOUS
 62
     7
 10
-1595.958623628833
 20
130.3530181465917
 30
0.0
 11
-1450.0
 21
-200.0
 31
0.0
  0
POLYLINE
  5
10F
  8
__-1
  6
CONTINUOUS
 62
     7
 66
     1
 10
0.0
 20
0.0
 30
0.0
 70
   128
  0
VERTEX
  5
63E
  8
__-1
  6
CONTINUOUS
 62
     7
 10
-1587.861474097219
 20
79.22962802681141
 30
0.0
  0
VERTEX
  5
63F
  8
__-1
  6
CONTINUOUS
 62
     7
 10
-1595.958623628833
 20
130.3530181465917
 30
0.0
  0
VERTEX
  5
640
  8
__-1
  6
CONTINUOUS
 62
     7
 10
-1563.384591376324
 20
90.12743834108676
 30
0.0
  0
SEQEND
  5
659
  8
__-1
  6
CONTINUOUS
 62
     7
  0
LINE
  5
114
  8
__-1
  6
CONTINUOUS
 62
     7
 10
-1450.0
 20
-200.0
 30
0.0
 11
-1400.0
 21
-200.0
 31
0.0
  0
TEXT
  5
115
  8
__-1
 62
     7
 10
-1400.0
 20
-231.75
 30
0.0
 40
67.69612630208339
  1
M20ねじ込み式ポールソケット
 41
0.7
 11
-1400.0
 21
-164.0538736979166
 31
0.0
 73
     3
  0
LINE
  5
116
  8
__-1
  6
CONTINUOUS
 62
     7
 10
-1925.0
 20
-1141.5
 30
0.0
 11
-2025.0
 21
-1141.5
 31
0.0
  0
LINE
  5
117
  8
__-1
  6
CONTINUOUS
 62
     7
 10
-1894.25
 20
-1146.5
 30
0.0
 11
-2025.0
 21
-1146.5
 31
0.0
  0
LINE
  5
118
  8
__-1
  6
CONTINUOUS
 62
     7
 10
-2000.0
 20
-1146.5
 30
0.0
 11
-2000.0
 21
-1141.5
 31
0.0
  0
LINE
  5
119
  8
__-1
  6
CONTINUOUS
 62
     7
 10
-2000.0
 20
-1141.5
 30
0.0
 11
-2000.0
 21
-1054.0
 31
0.0
  0
POLYLINE
  5
11A
  8
__-1
  6
CONTINUOUS
 62
     7
 66
     1
 10
0.0
 20
0.0
 30
0.0
 70
   128
  0
VERTEX
  5
641
  8
__-1
  6
CONTINUOUS
 62
     7
 10
-1986.603358094485
 20
-1091.503051757812
 30
0.0
  0
VERTEX
  5
642
  8
__-1
  6
CONTINUOUS
 62
     7
 10
-2000.0
 20
-1141.5
 30
0.0
  0
VERTEX
  5
643
  8
__-1
  6
CONTINUOUS
 62
     7
 10
-2013.396641905515
 20
-1091.503051757812
 30
0.0
  0
SEQEND
  5
65A
  8
__-1
  6
CONTINUOUS
 62
     7
  0
LINE
  5
11F
  8
__-1
  6
CONTINUOUS
 62
     7
 10
-2000.0
 20
-1146.5
 30
0.0
 11
-2000.0
 21
-1234.0
 31
0.0
  0
POLYLINE
  5
120
  8
__-1
  6
CONTINUOUS
 62
     7
 66
     1
 10
0.0
 20
0.0
 30
0.0
 70
   128
  0
VERTEX
  5
644
  8
__-1
  6
CONTINUOUS
 62
     7
 10
-2013.396641905515
 20
-1196.496948242188
 30
0.0
  0
VERTEX
  5
645
  8
__-1
  6
CONTINUOUS
 62
     7
 10
-2000.0
 20
-1146.5
 30
0.0
  0
VERTEX
  5
646
  8
__-1
  6
CONTINUOUS
 62
     7
 10
-1986.603358094485
 20
-1196.496948242188
 30
0.0
  0
SEQEND
  5
65B
  8
__-1
  6
CONTINUOUS
 62
     7
  0
TEXT
  5
125
  8
__-1
 62
     7
 10
-2037.347222222222
 20
-1210.145833333333
 30
0.0
 40
67.69612630208339
  1
5.0
 50
90.0
 41
0.7
 11
-2105.043348524306
 21
-1210.145833333333
 31
0.0
 73
     3
  0
TEXT
  5
126
  8
__
 62
     7
 10
-2199.994499999999
 20
-2968.322083561354
 30
0.0
 40
47.3871699432373
  1
※仕様及び外観は予告なく変更されることがあります。 
 41
0.7
 11
-2199.994499999999
 21
-2920.934913618117
 31
0.0
 73
     3
  0
TEXT
  5
127
  8
__
 62
     7
 10
-2199.994499999999
 20
-3030.058040332187
 30
0.0
 40
47.3871699432373
  1
　また、同一商品でも若干の個体差があることがあります。ご了承ください。
 41
0.7
 11
-2199.994499999999
 21
-2982.67087038895
 31
0.0
 73
     3
  0
TEXT
  5
128
  8
__
 62
     7
 10
1249.996875
 20
-2705.707434544062
 30
0.0
 40
60.92636135559081
  1
JBL PROFESSIONAL
 41
0.7
 11
1249.996875
 21
-2644.781073188471
 31
0.0
 73
     3
  0
LINE
  5
129
  8
__
  6
CONTINUOUS
 62
     7
 10
928.4607593954665
 20
-1474.9998125
 30
0.0
 11
1695.107900479187
 21
-1474.9998125
 31
0.0
  0
TEXT
  5
12A
  8
__
 62
     7
 10
1080.439445929667
 20
-1433.847978530884
 30
0.0
 40
67.69595706176757
  1
背面パネル拡大図
 41
0.7
 72
     1
 11
1300.0
 21
-1400.0
 31
0.0
 73
     2
  0
ARC
  5
12B
  8
__
  6
CONTINUOUS
 62
     7
 10
862.5
 20
-2650.0
 30
0.0
 40
1562.5
 50
73.73979529168804
 51
106.2602047083119
  0
ARC
  5
12C
  8
__
  6
CONTINUOUS
 62
     7
 10
1737.5
 20
349.9999999999999
 30
0.0
 40
1562.5
 50
253.739795291688
 51
286.260204708312
  0
ARC
  5
12D
  8
__
  6
CONTINUOUS
 62
     7
 10
862.5
 20
-722.3735988634378
 30
0.0
 40
1562.5
 50
73.73979529168804
 51
106.2602047083119
  0
ARC
  5
12E
  8
__
  6
CONTINUOUS
 62
     7
 10
1737.5
 20
2277.626401136562
 30
0.0
 40
1562.5
 50
253.739795291688
 51
286.260204708312
  0
TEXT
  5
12F
  8
__
 62
     7
 10
1249.996875
 20
-2886.957052856562
 30
0.0
 40
60.92651367187499
  1
PRX918XLF
 41
0.7
 11
1249.996875
 21
-2826.030539184687
 31
0.0
 73
     3
  0
TEXT
  5
130
  8
__
 62
     7
 10
1150.0
 20
-2795.806139859375
 30
0.0
 40
47.38728841145834
  1
パワード・サブウーファー
 41
0.7
 11
1150.0
 21
-2748.418851447916
 31
0.0
 73
     3
  0
LINE
  5
131
  8
__
  6
______-7
 62
     7
 10
-1600.0
 20
-1200.0
 30
0.0
 11
-1600.0
 21
-400.0
 31
0.0
  0
LINE
  5
132
  8
__
  6
______-7
 62
     7
 10
-100.0
 20
-1200.0
 30
0.0
 11
-100.0
 21
-400.0
 31
0.0
  0
ARC
  5
133
  8
__
  6
CONTINUOUS
 62
     7
 10
-1880.0
 20
-473.5000000000001
 30
0.0
 40
15.00000000000011
 50
90.0
 51
179.9999999999996
  0
LINE
  5
134
  8
__
  6
CONTINUOUS
 62
     7
 10
-1895.0
 20
-1126.5
 30
0.0
 11
-1895.0
 21
-473.5
 31
0.0
  0
ARC
  5
135
  8
__
  6
CONTINUOUS
 62
     7
 10
-1880.0
 20
-1126.5
 30
0.0
 40
15.0
 50
180.0
 51
270.0
  0
LINE
  5
136
  8
__
  6
CONTINUOUS
 62
     7
 10
-1320.0
 20
-1141.5
 30
0.0
 11
-1880.0
 21
-1141.5
 31
0.0
  0
ARC
  5
137
  8
__
  6
CONTINUOUS
 62
     7
 10
-1320.0
 20
-1126.5
 30
0.0
 40
15.0
 50
270.0
 51
0.0
  0
LINE
  5
138
  8
__
  6
CONTINUOUS
 62
     7
 10
-1305.0
 20
-473.4999999999999
 30
0.0
 11
-1305.0
 21
-1126.5
 31
0.0
  0
ARC
  5
139
  8
__
  6
CONTINUOUS
 62
     7
 10
-1320.0
 20
-473.5000000000005
 30
0.0
 40
15.00000000000045
 50
0.0000000000019327
 51
89.9999999999983
  0
LINE
  5
13A
  8
__
  6
CONTINUOUS
 62
     7
 10
-1880.0
 20
-458.5
 30
0.0
 11
-1320.0
 21
-458.5
 31
0.0
  0
LINE
  5
13B
  8
__
  6
CONTINUOUS
 62
     7
 10
-1895.0
 20
20.15564437074656
 30
0.0
 11
-1895.0
 21
567.5
 31
0.0
  0
LINE
  5
13C
  8
__
  6
CONTINUOUS
 62
     7
 10
-1305.0
 20
567.5
 30
0.0
 11
-1305.0
 21
20.15564437074656
 31
0.0
  0
LINE
  5
13D
  8
__
  6
CONTINUOUS
 62
     7
 10
-1885.0
 20
577.5
 30
0.0
 11
-1315.0
 21
577.5
 31
0.0
  0
LINE
  5
13E
  8
__
  6
CONTINUOUS
 62
     7
 10
-1177.5
 20
-1126.5
 30
0.0
 11
-1177.5
 21
-473.5
 31
0.0
  0
LINE
  5
13F
  8
__
  6
CONTINUOUS
 62
     7
 10
-537.5
 20
-1141.5
 30
0.0
 11
-1162.5
 21
-1141.5
 31
0.0
  0
LINE
  5
140
  8
__
  6
CONTINUOUS
 62
     7
 10
-522.5
 20
-473.5
 30
0.0
 11
-522.5
 21
-1126.5
 31
0.0
  0
LINE
  5
141
  8
__
  6
CONTINUOUS
 62
     7
 10
-1162.5
 20
-458.5
 30
0.0
 11
-537.5
 21
-458.5
 31
0.0
  0
ARC
  5
142
  8
__
  6
CONTINUOUS
 62
     7
 10
-380.0
 20
-473.5
 30
0.0
 40
15.0
 50
90.0
 51
180.0
  0
LINE
  5
143
  8
__
  6
CONTINUOUS
 62
     7
 10
-394.9999999999999
 20
-1126.5
 30
0.0
 11
-395.0
 21
-473.5
 31
0.0
  0
ARC
  5
144
  8
__
  6
CONTINUOUS
 62
     7
 10
-379.9999999999999
 20
-1126.5
 30
0.0
 40
15.00000000000006
 50
180.0
 51
269.9999999999998
  0
LINE
  5
145
  8
__
  6
CONTINUOUS
 62
     7
 10
180.0
 20
-1141.5
 30
0.0
 11
-379.9999999999999
 21
-1141.5
 31
0.0
  0
ARC
  5
146
  8
__
  6
CONTINUOUS
 62
     7
 10
179.9999999999999
 20
-1126.5
 30
0.0
 40
15.0
 50
270.0000000000003
 51
0.0
  0
LINE
  5
147
  8
__
  6
CONTINUOUS
 62
     7
 10
195.0
 20
-473.4999999999999
 30
0.0
 11
195.0
 21
-1126.5
 31
0.0
  0
ARC
  5
148
  8
__
  6
CONTINUOUS
 62
     7
 10
179.9999999999997
 20
-473.5000000000002
 30
0.0
 40
15.00000000000023
 50
0.00000000000108
 51
89.99999999999892
  0
LINE
  5
149
  8
__
  6
CONTINUOUS
 62
     7
 10
-380.0
 20
-458.5
 30
0.0
 11
180.0
 21
-458.5
 31
0.0
  0
ARC
  5
14A
  8
__
  6
CONTINUOUS
 62
     7
 10
-1600.0
 20
1235.5
 30
0.0
 40
1313.0
 50
259.0016723234154
 51
280.9983276765845
  0
LINE
  5
14B
  8
__
  6
CONTINUOUS
 62
     7
 10
-1342.73078034283
 20
-48.52886559995241
 30
0.0
 11
-1306.317568578755
 21
15.19425498717823
 31
0.0
  0
LINE
  5
14C
  8
__
  6
CONTINUOUS
 62
     7
 10
-1857.269219657171
 20
-48.52886559995153
 30
0.0
 11
-1893.682431421245
 21
15.19425498717823
 31
0.0
  0
ARC
  5
14D
  8
__
  6
CONTINUOUS
 62
     7
 10
-1885.0
 20
567.5
 30
0.0
 40
10.0
 50
90.0
 51
180.0
  0
ARC
  5
14E
  8
__
  6
CONTINUOUS
 62
     7
 10
-1315.0
 20
567.5
 30
0.0
 40
10.0
 50
0.0
 51
90.0
  0
ARC
  5
14F
  8
__
  6
CONTINUOUS
 62
     7
 10
-1315.0
 20
20.15564437074677
 30
0.0
 40
10.0000000000002
 50
330.2551187030571
 51
359.9999999999987
  0
ARC
  5
150
  8
__
  6
CONTINUOUS
 62
     7
 10
-1351.413211764071
 20
-43.56747621638597
 30
0.0
 40
9.999999999996176
 50
280.998327676568
 51
330.2551187030579
  0
ARC
  5
151
  8
__
  6
CONTINUOUS
 62
     7
 10
-1885.0
 20
20.15564437074597
 30
0.0
 40
10.00000000000023
 50
179.9999999999967
 51
209.7448812969383
  0
ARC
  5
152
  8
__
  6
CONTINUOUS
 62
     7
 10
-1848.586788235928
 20
-43.56747621638399
 30
0.0
 40
9.999999999998314
 50
209.7448812969424
 51
259.0016723234252
  0
CIRCLE
  5
153
  8
__
  6
CONTINUOUS
 62
     7
 10
-1600.0
 20
139.5
 30
0.0
 40
51.50000000000015
  0
CIRCLE
  5
154
  8
__
  6
CONTINUOUS
 62
     7
 10
-1600.0
 20
139.5
 30
0.0
 40
10.0
  0
CIRCLE
  5
155
  8
__
  6
CONTINUOUS
 62
     7
 10
-1571.715728752537
 20
111.2157287525372
 30
0.0
 40
6.5
  0
LINE
  5
156
  8
__
  6
______-7
 62
     7
 10
-1600.0
 20
-150.0
 30
0.0
 11
-1600.0
 21
650.0
 31
0.0
  0
LINE
  5
157
  8
__
  6
CONTINUOUS
 62
     7
 10
-1339.305003624381
 20
472.4750555070553
 30
0.0
 11
-1366.969940868564
 21
447.1590280288871
 31
0.0
  0
LINE
  5
158
  8
__
  6
CONTINUOUS
 62
     7
 10
-1384.859933619803
 20
466.7089170147771
 30
0.0
 11
-1357.194996375619
 21
492.0249444929453
 31
0.0
  0
ARC
  5
159
  8
__
  6
CONTINUOUS
 62
     7
 10
-1375.914937244184
 20
456.9339725218319
 30
0.0
 40
13.25000000000002
 50
132.4614554016011
 51
312.4614554016014
  0
ARC
  5
15A
  8
__
  6
CONTINUOUS
 62
     7
 10
-1348.25
 20
482.2500000000002
 30
0.0
 40
13.24999999999979
 50
312.4614554016007
 51
132.4614554016018
  0
LINE
  5
15B
  8
__
  6
CONTINUOUS
 62
     7
 10
-1860.694996375619
 20
33.52494449294466
 30
0.0
 11
-1833.030059131436
 21
58.84097197111294
 31
0.0
  0
LINE
  5
15C
  8
__
  6
CONTINUOUS
 62
     7
 10
-1815.140066380197
 20
39.29108298522294
 30
0.0
 11
-1842.805003624381
 21
13.97505550705466
 31
0.0
  0
ARC
  5
15D
  8
__
  6
CONTINUOUS
 62
     7
 10
-1824.085062755816
 20
49.06602747816805
 30
0.0
 40
13.25000000000002
 50
312.4614554016011
 51
132.4614554016014
  0
ARC
  5
15E
  8
__
  6
CONTINUOUS
 62
     7
 10
-1851.75
 20
23.74999999999977
 30
0.0
 40
13.24999999999979
 50
132.4614554016007
 51
312.4614554016019
  0
LINE
  5
15F
  8
__
  6
CONTINUOUS
 62
     7
 10
-1860.694996375619
 20
472.4750555070553
 30
0.0
 11
-1833.030059131436
 21
447.1590280288871
 31
0.0
  0
LINE
  5
160
  8
__
  6
CONTINUOUS
 62
     7
 10
-1815.140066380197
 20
466.7089170147771
 30
0.0
 11
-1842.805003624381
 21
492.0249444929453
 31
0.0
  0
ARC
  5
161
  8
__
  6
CONTINUOUS
 62
     7
 10
-1824.085062755816
 20
456.9339725218319
 30
0.0
 40
13.24999999999994
 50
227.5385445983986
 51
47.53854459839891
  0
ARC
  5
162
  8
__
  6
CONTINUOUS
 62
     7
 10
-1851.75
 20
482.2500000000002
 30
0.0
 40
13.25000000000018
 50
47.53854459839819
 51
227.5385445983993
  0
LINE
  5
163
  8
__
  6
CONTINUOUS
 62
     7
 10
-1339.305003624381
 20
33.52494449294466
 30
0.0
 11
-1366.969940868564
 21
58.84097197111294
 31
0.0
  0
LINE
  5
164
  8
__
  6
CONTINUOUS
 62
     7
 10
-1384.859933619803
 20
39.29108298522294
 30
0.0
 11
-1357.194996375619
 21
13.97505550705466
 31
0.0
  0
ARC
  5
165
  8
__
  6
CONTINUOUS
 62
     7
 10
-1375.914937244184
 20
49.06602747816805
 30
0.0
 40
13.24999999999994
 50
47.53854459839859
 51
227.5385445983989
  0
ARC
  5
166
  8
__
  6
CONTINUOUS
 62
     7
 10
-1348.25
 20
23.74999999999977
 30
0.0
 40
13.25000000000018
 50
227.5385445983982
 51
47.53854459839931
  0
LINE
  5
167
  8
__
  6
CONTINUOUS
 62
     7
 10
-1572.437416252537
 20
109.9657293353499
 30
0.0
 11
-1570.994041252537
 21
109.9657293353499
 31
0.0
  0
LINE
  5
168
  8
__
  6
CONTINUOUS
 62
     7
 10
-1570.994041252537
 20
112.4657281697246
 30
0.0
 11
-1572.437416252537
 21
112.4657281697246
 31
0.0
  0
LINE
  5
169
  8
__
  6
CONTINUOUS
 62
     7
 10
-1573.159103752538
 20
111.2157287525372
 30
0.0
 11
-1572.437416252537
 21
109.9657293353499
 31
0.0
  0
LINE
  5
16A
  8
__
  6
CONTINUOUS
 62
     7
 10
-1572.437416252537
 20
112.4657281697246
 30
0.0
 11
-1573.159103752538
 21
111.2157287525372
 31
0.0
  0
LINE
  5
16B
  8
__
  6
CONTINUOUS
 62
     7
 10
-1570.994041252537
 20
109.9657293353499
 30
0.0
 11
-1570.272353752538
 21
111.2157287525372
 31
0.0
  0
LINE
  5
16C
  8
__
  6
CONTINUOUS
 62
     7
 10
-1570.272353752538
 20
111.2157287525372
 30
0.0
 11
-1570.994041252537
 21
112.4657281697246
 31
0.0
  0
CIRCLE
  5
16D
  8
__
  6
CONTINUOUS
 62
     7
 10
-1571.715728752537
 20
111.2157287525372
 30
0.0
 40
4.5
  0
CIRCLE
  5
16E
  8
__
  6
CONTINUOUS
 62
     7
 10
-1628.284271247463
 20
111.2157287525392
 30
0.0
 40
6.5
  0
LINE
  5
16F
  8
__
  6
CONTINUOUS
 62
     7
 10
-1629.005958747463
 20
109.9657293353519
 30
0.0
 11
-1627.562583747463
 21
109.9657293353519
 31
0.0
  0
LINE
  5
170
  8
__
  6
CONTINUOUS
 62
     7
 10
-1627.562583747463
 20
112.4657281697266
 30
0.0
 11
-1629.005958747463
 21
112.4657281697266
 31
0.0
  0
LINE
  5
171
  8
__
  6
CONTINUOUS
 62
     7
 10
-1629.727646247463
 20
111.2157287525392
 30
0.0
 11
-1629.005958747463
 21
109.9657293353519
 31
0.0
  0
LINE
  5
172
  8
__
  6
CONTINUOUS
 62
     7
 10
-1629.005958747463
 20
112.4657281697266
 30
0.0
 11
-1629.727646247463
 21
111.2157287525392
 31
0.0
  0
LINE
  5
173
  8
__
  6
CONTINUOUS
 62
     7
 10
-1627.562583747463
 20
109.9657293353519
 30
0.0
 11
-1626.840896247463
 21
111.2157287525392
 31
0.0
  0
LINE
  5
174
  8
__
  6
CONTINUOUS
 62
     7
 10
-1626.840896247463
 20
111.2157287525392
 30
0.0
 11
-1627.562583747463
 21
112.4657281697266
 31
0.0
  0
CIRCLE
  5
175
  8
__
  6
CONTINUOUS
 62
     7
 10
-1628.284271247463
 20
111.2157287525392
 30
0.0
 40
4.5
  0
CIRCLE
  5
176
  8
__
  6
CONTINUOUS
 62
     7
 10
-1628.284271247463
 20
167.7842712474628
 30
0.0
 40
6.5
  0
LINE
  5
177
  8
__
  6
CONTINUOUS
 62
     7
 10
-1629.005958747463
 20
166.5342718302754
 30
0.0
 11
-1627.562583747463
 21
166.5342718302754
 31
0.0
  0
LINE
  5
178
  8
__
  6
CONTINUOUS
 62
     7
 10
-1627.562583747463
 20
169.0342706646501
 30
0.0
 11
-1629.005958747463
 21
169.0342706646501
 31
0.0
  0
LINE
  5
179
  8
__
  6
CONTINUOUS
 62
     7
 10
-1629.727646247463
 20
167.7842712474628
 30
0.0
 11
-1629.005958747463
 21
166.5342718302754
 31
0.0
  0
LINE
  5
17A
  8
__
  6
CONTINUOUS
 62
     7
 10
-1629.005958747463
 20
169.0342706646501
 30
0.0
 11
-1629.727646247463
 21
167.7842712474628
 31
0.0
  0
LINE
  5
17B
  8
__
  6
CONTINUOUS
 62
     7
 10
-1627.562583747463
 20
166.5342718302754
 30
0.0
 11
-1626.840896247463
 21
167.7842712474628
 31
0.0
  0
LINE
  5
17C
  8
__
  6
CONTINUOUS
 62
     7
 10
-1626.840896247463
 20
167.7842712474628
 30
0.0
 11
-1627.562583747463
 21
169.0342706646501
 31
0.0
  0
CIRCLE
  5
17D
  8
__
  6
CONTINUOUS
 62
     7
 10
-1628.284271247463
 20
167.7842712474628
 30
0.0
 40
4.5
  0
CIRCLE
  5
17E
  8
__
  6
CONTINUOUS
 62
     7
 10
-1571.715728752537
 20
167.7842712474608
 30
0.0
 40
6.5
  0
LINE
  5
17F
  8
__
  6
CONTINUOUS
 62
     7
 10
-1572.437416252537
 20
166.5342718302735
 30
0.0
 11
-1570.994041252537
 21
166.5342718302735
 31
0.0
  0
LINE
  5
180
  8
__
  6
CONTINUOUS
 62
     7
 10
-1570.994041252537
 20
169.0342706646482
 30
0.0
 11
-1572.437416252537
 21
169.0342706646482
 31
0.0
  0
LINE
  5
181
  8
__
  6
CONTINUOUS
 62
     7
 10
-1573.159103752538
 20
167.7842712474608
 30
0.0
 11
-1572.437416252537
 21
166.5342718302735
 31
0.0
  0
LINE
  5
182
  8
__
  6
CONTINUOUS
 62
     7
 10
-1572.437416252537
 20
169.0342706646482
 30
0.0
 11
-1573.159103752538
 21
167.7842712474608
 31
0.0
  0
LINE
  5
183
  8
__
  6
CONTINUOUS
 62
     7
 10
-1570.994041252537
 20
166.5342718302735
 30
0.0
 11
-1570.272353752538
 21
167.7842712474608
 31
0.0
  0
LINE
  5
184
  8
__
  6
CONTINUOUS
 62
     7
 10
-1570.272353752538
 20
167.7842712474608
 30
0.0
 11
-1570.994041252537
 21
169.0342706646482
 31
0.0
  0
CIRCLE
  5
185
  8
__
  6
CONTINUOUS
 62
     7
 10
-1571.715728752537
 20
167.7842712474608
 30
0.0
 40
4.5
  0
LINE
  5
186
  8
__
  6
CONTINUOUS
 62
     7
 10
-1895.0
 20
-1420.155644370747
 30
0.0
 11
-1895.0
 21
-1967.5
 31
0.0
  0
LINE
  5
187
  8
__
  6
CONTINUOUS
 62
     7
 10
-1305.0
 20
-1967.5
 30
0.0
 11
-1305.0
 21
-1420.155644370747
 31
0.0
  0
LINE
  5
188
  8
__
  6
CONTINUOUS
 62
     7
 10
-1885.0
 20
-1977.5
 30
0.0
 11
-1315.0
 21
-1977.5
 31
0.0
  0
ARC
  5
189
  8
__
  6
CONTINUOUS
 62
     7
 10
-1600.0
 20
-2635.5
 30
0.0
 40
1313.0
 50
79.00167232341543
 51
100.9983276765846
  0
LINE
  5
18A
  8
__
  6
CONTINUOUS
 62
     7
 10
-1342.73078034283
 20
-1351.471134400048
 30
0.0
 11
-1306.317568578755
 21
-1415.194254987178
 31
0.0
  0
LINE
  5
18B
  8
__
  6
CONTINUOUS
 62
     7
 10
-1857.269219657171
 20
-1351.471134400048
 30
0.0
 11
-1893.682431421245
 21
-1415.194254987178
 31
0.0
  0
ARC
  5
18C
  8
__
  6
CONTINUOUS
 62
     7
 10
-1885.0
 20
-1967.5
 30
0.0
 40
10.0
 50
180.0
 51
270.0
  0
ARC
  5
18D
  8
__
  6
CONTINUOUS
 62
     7
 10
-1315.0
 20
-1967.5
 30
0.0
 40
10.0
 50
270.0
 51
0.0
  0
ARC
  5
18E
  8
__
  6
CONTINUOUS
 62
     7
 10
-1315.0
 20
-1420.155644370747
 30
0.0
 40
10.0
 50
0.0000000000013074
 51
29.74488129694288
  0
ARC
  5
18F
  8
__
  6
CONTINUOUS
 62
     7
 10
-1351.413211764071
 20
-1356.432523783614
 30
0.0
 40
9.999999999996213
 50
29.74488129694239
 51
79.00167232343196
  0
ARC
  5
190
  8
__
  6
CONTINUOUS
 62
     7
 10
-1885.0
 20
-1420.155644370746
 30
0.0
 40
9.999999999999936
 50
150.2551187030623
 51
180.0000000000039
  0
ARC
  5
191
  8
__
  6
CONTINUOUS
 62
     7
 10
-1848.586788235928
 20
-1356.432523783616
 30
0.0
 40
9.999999999998447
 50
100.9983276765748
 51
150.2551187030571
  0
LINE
  5
192
  8
__
  6
CONTINUOUS
 62
     7
 10
-1031.5
 20
-519.0
 30
0.0
 11
-1031.5
 21
-1081.0
 31
0.0
  0
LINE
  5
193
  8
__
  6
CONTINUOUS
 62
     7
 10
-1066.5
 20
-484.0
 30
0.0
 11
-1177.5
 21
-484.0
 31
0.0
  0
LINE
  5
194
  8
__
  6
CONTINUOUS
 62
     7
 10
-1066.5
 20
-1116.0
 30
0.0
 11
-1177.5
 21
-1116.0
 31
0.0
  0
ARC
  5
195
  8
__
  6
CONTINUOUS
 62
     7
 10
-1066.5
 20
-519.0
 30
0.0
 40
35.0
 50
0.0
 51
90.0
  0
ARC
  5
196
  8
__
  6
CONTINUOUS
 62
     7
 10
-1066.5
 20
-1081.0
 30
0.0
 40
35.0
 50
270.0
 51
0.0
  0
LINE
  5
197
  8
__
  6
CONTINUOUS
 62
     7
 10
-1082.5
 20
-458.5
 30
0.0
 11
-1082.5
 21
-1141.5
 31
0.0
  0
LINE
  5
198
  8
__
  6
CONTINUOUS
 62
     7
 10
-1152.592558538097
 20
-458.5
 30
0.0
 11
-1152.592558538097
 21
-1141.5
 31
0.0
  0
LINE
  5
199
  8
__
  6
CONTINUOUS
 62
     7
 10
-1860.188675826056
 20
-1432.971645748061
 30
0.0
 11
-1832.523738581872
 21
-1458.287673226229
 31
0.0
  0
LINE
  5
19A
  8
__
  6
CONTINUOUS
 62
     7
 10
-1815.64638692976
 20
-1439.844381730107
 30
0.0
 11
-1843.311324173944
 21
-1414.528354251938
 31
0.0
  0
ARC
  5
19B
  8
__
  6
CONTINUOUS
 62
     7
 10
-1824.085062755816
 20
-1449.066027478168
 30
0.0
 40
12.50000000000007
 50
227.5385445983985
 51
47.53854459839928
  0
ARC
  5
19C
  8
__
  6
CONTINUOUS
 62
     7
 10
-1851.75
 20
-1423.75
 30
0.0
 40
12.49999999999991
 50
47.53854459839928
 51
227.5385445983985
  0
LINE
  5
19D
  8
__
  6
CONTINUOUS
 62
     7
 10
-1345.46795754016
 20
-458.5
 30
0.0
 11
-1345.46795754016
 21
-1141.5
 31
0.0
  0
LINE
  5
19E
  8
__
  6
CONTINUOUS
 62
     7
 10
-1854.53204245984
 20
-458.5
 30
0.0
 11
-1854.53204245984
 21
-1141.5
 31
0.0
  0
LINE
  5
19F
  8
__
  6
CONTINUOUS
 62
     7
 10
-1864.25
 20
-1144.0
 30
0.0
 11
-1864.25
 21
-1141.5
 31
0.0
  0
LINE
  5
1A0
  8
__
  6
CONTINUOUS
 62
     7
 10
-1811.585062755816
 20
-1144.0
 30
0.0
 11
-1811.585062755816
 21
-1141.5
 31
0.0
  0
LINE
  5
1A1
  8
__
  6
CONTINUOUS
 62
     7
 10
-1861.75
 20
-1146.5
 30
0.0
 11
-1814.085062755816
 21
-1146.5
 31
0.0
  0
ARC
  5
1A2
  8
__
  6
CONTINUOUS
 62
     7
 10
-881.0000000000005
 20
-740.9999999999998
 30
0.0
 40
49.99999999999966
 50
89.99999999999947
 51
180.0000000000002
  0
LINE
  5
1A3
  8
__
  6
CONTINUOUS
 62
     7
 10
-931.0
 20
-859.0
 30
0.0
 11
-931.0
 21
-741.0
 31
0.0
  0
ARC
  5
1A4
  8
__
  6
CONTINUOUS
 62
     7
 10
-881.0000000000003
 20
-859.0000000000002
 30
0.0
 40
49.99999999999966
 50
179.9999999999997
 51
270.0000000000004
  0
LINE
  5
1A5
  8
__
  6
CONTINUOUS
 62
     7
 10
-807.0
 20
-909.0
 30
0.0
 11
-881.0
 21
-909.0
 31
0.0
  0
ARC
  5
1A6
  8
__
  6
CONTINUOUS
 62
     7
 10
-806.9999999999998
 20
-859.0
 30
0.0
 40
50.0
 50
269.9999999999998
 51
0.0
  0
LINE
  5
1A7
  8
__
  6
CONTINUOUS
 62
     7
 10
-757.0
 20
-741.0
 30
0.0
 11
-757.0
 21
-859.0
 31
0.0
  0
ARC
  5
1A8
  8
__
  6
CONTINUOUS
 62
     7
 10
-807.0
 20
-741.0
 30
0.0
 40
50.0
 50
0.0
 51
90.0
  0
LINE
  5
1A9
  8
__
  6
CONTINUOUS
 62
     7
 10
-881.0
 20
-691.0000000000001
 30
0.0
 11
-807.0
 21
-691.0000000000001
 31
0.0
  0
LINE
  5
1AA
  8
__
  6
CONTINUOUS
 62
     7
 10
-757.0
 20
-851.0
 30
0.0
 11
-774.0
 21
-851.0
 31
0.0
  0
LINE
  5
1AB
  8
__
  6
CONTINUOUS
 62
     7
 10
-914.0
 20
-851.0
 30
0.0
 11
-931.0
 21
-851.0
 31
0.0
  0
LINE
  5
1AC
  8
__
  6
CONTINUOUS
 62
     7
 10
-757.0
 20
-767.5
 30
0.0
 11
-774.0
 21
-767.5
 31
0.0
  0
LINE
  5
1AD
  8
__
  6
CONTINUOUS
 62
     7
 10
-914.0
 20
-767.5
 30
0.0
 11
-931.0
 21
-767.5
 31
0.0
  0
ARC
  5
1AE
  8
__
  6
CONTINUOUS
 62
     7
 10
-844.000000000023
 20
-698.3092886329077
 30
0.0
 40
0.1892886329077032
 50
359.0566788815885
 51
180.9433209280187
  0
ARC
  5
1AF
  8
__
  6
CONTINUOUS
 62
     7
 10
-844.8631841931068
 20
-698.2549211212859
 30
0.0
 40
0.676368386187752
 50
244.8753886700262
 51
355.1246113518832
  0
ARC
  5
1B0
  8
__
  6
CONTINUOUS
 62
     7
 10
-845.2476926434277
 20
-699.0296443164852
 30
0.0
 40
0.1892886329076225
 50
59.05667888160091
 51
240.943320927989
  0
ARC
  5
1B1
  8
__
  6
CONTINUOUS
 62
     7
 10
-845.726368386175
 20
-699.75000000003
 30
0.0
 40
0.6763683861879403
 50
304.875388670037
 51
55.1246113518757
  0
ARC
  5
1B2
  8
__
  6
CONTINUOUS
 62
     7
 10
-844.000000000023
 20
-701.1907113670923
 30
0.0
 40
0.1892886329078069
 50
179.0566790719813
 51
0.9433211184115464
  0
ARC
  5
1B3
  8
__
  6
CONTINUOUS
 62
     7
 10
-844.8631841931068
 20
-701.2450788787141
 30
0.0
 40
0.6763683861878106
 50
4.875388648116833
 51
115.1246113299738
  0
ARC
  5
1B4
  8
__
  6
CONTINUOUS
 62
     7
 10
-845.2476926434277
 20
-700.4703556835148
 30
0.0
 40
0.1892886329075887
 50
119.056679072011
 51
300.9433211183991
  0
ARC
  5
1B5
  8
__
  6
CONTINUOUS
 62
     7
 10
-843.1368158069392
 20
-698.2549211212859
 30
0.0
 40
0.6763683861879238
 50
184.875388648116
 51
295.1246113299738
  0
ARC
  5
1B6
  8
__
  6
CONTINUOUS
 62
     7
 10
-842.7523073566183
 20
-699.0296443164852
 30
0.0
 40
0.1892886329075887
 50
299.056679072011
 51
120.9433211183991
  0
ARC
  5
1B7
  8
__
  6
CONTINUOUS
 62
     7
 10
-842.2736316138712
 20
-699.75000000003
 30
0.0
 40
0.6763683861880107
 50
124.8753886481164
 51
235.124611329971
  0
ARC
  5
1B8
  8
__
  6
CONTINUOUS
 62
     7
 10
-843.1368158069392
 20
-701.2450788787141
 30
0.0
 40
0.676368386187752
 50
64.87538867002621
 51
175.124611351884
  0
ARC
  5
1B9
  8
__
  6
CONTINUOUS
 62
     7
 10
-842.7523073566183
 20
-700.4703556835148
 30
0.0
 40
0.1892886329076225
 50
239.0566788816009
 51
60.94332092798902
  0
CIRCLE
  5
1BA
  8
__
  6
CONTINUOUS
 62
     7
 10
-844.0
 20
-699.75
 30
0.0
 40
4.0
  0
ARC
  5
1BB
  8
__
  6
CONTINUOUS
 62
     7
 10
-844.000000000023
 20
-898.8092886329077
 30
0.0
 40
0.1892886329077032
 50
359.0566788815885
 51
180.9433209280187
  0
ARC
  5
1BC
  8
__
  6
CONTINUOUS
 62
     7
 10
-844.8631841931068
 20
-898.7549211212859
 30
0.0
 40
0.676368386187752
 50
244.8753886700262
 51
355.1246113518832
  0
ARC
  5
1BD
  8
__
  6
CONTINUOUS
 62
     7
 10
-845.2476926434277
 20
-899.5296443164852
 30
0.0
 40
0.1892886329076225
 50
59.05667888160091
 51
240.943320927989
  0
ARC
  5
1BE
  8
__
  6
CONTINUOUS
 62
     7
 10
-845.726368386175
 20
-900.25000000003
 30
0.0
 40
0.6763683861877537
 50
304.875388670048
 51
55.12461135187576
  0
ARC
  5
1BF
  8
__
  6
CONTINUOUS
 62
     7
 10
-844.000000000023
 20
-901.6907113670923
 30
0.0
 40
0.1892886329078069
 50
179.0566790719813
 51
0.9433211184115464
  0
ARC
  5
1C0
  8
__
  6
CONTINUOUS
 62
     7
 10
-844.8631841931068
 20
-901.7450788787141
 30
0.0
 40
0.6763683861878106
 50
4.875388648116833
 51
115.1246113299738
  0
ARC
  5
1C1
  8
__
  6
CONTINUOUS
 62
     7
 10
-845.2476926434277
 20
-900.9703556835148
 30
0.0
 40
0.1892886329075887
 50
119.056679072011
 51
300.9433211183991
  0
ARC
  5
1C2
  8
__
  6
CONTINUOUS
 62
     7
 10
-843.1368158069392
 20
-898.7549211212859
 30
0.0
 40
0.6763683861879238
 50
184.875388648116
 51
295.1246113299738
  0
ARC
  5
1C3
  8
__
  6
CONTINUOUS
 62
     7
 10
-842.7523073566183
 20
-899.5296443164852
 30
0.0
 40
0.1892886329075887
 50
299.056679072011
 51
120.9433211183991
  0
ARC
  5
1C4
  8
__
  6
CONTINUOUS
 62
     7
 10
-842.2736316138712
 20
-900.25000000003
 30
0.0
 40
0.6763683861880107
 50
124.8753886481164
 51
235.1246113299599
  0
ARC
  5
1C5
  8
__
  6
CONTINUOUS
 62
     7
 10
-843.1368158069392
 20
-901.7450788787141
 30
0.0
 40
0.676368386187752
 50
64.87538867002621
 51
175.124611351884
  0
ARC
  5
1C6
  8
__
  6
CONTINUOUS
 62
     7
 10
-842.7523073566183
 20
-900.9703556835148
 30
0.0
 40
0.1892886329076225
 50
239.0566788816009
 51
60.94332092798902
  0
CIRCLE
  5
1C7
  8
__
  6
CONTINUOUS
 62
     7
 10
-844.0
 20
-900.25
 30
0.0
 40
4.0
  0
ARC
  5
1C8
  8
__
  6
CONTINUOUS
 62
     7
 10
-910.000000000023
 20
-885.8092886329077
 30
0.0
 40
0.1892886329077032
 50
359.0566788815885
 51
180.9433209280187
  0
ARC
  5
1C9
  8
__
  6
CONTINUOUS
 62
     7
 10
-910.8631841931068
 20
-885.7549211212859
 30
0.0
 40
0.676368386187752
 50
244.8753886700262
 51
355.1246113518832
  0
ARC
  5
1CA
  8
__
  6
CONTINUOUS
 62
     7
 10
-911.2476926434277
 20
-886.5296443164852
 30
0.0
 40
0.1892886329076225
 50
59.05667888160091
 51
240.943320927989
  0
ARC
  5
1CB
  8
__
  6
CONTINUOUS
 62
     7
 10
-911.726368386175
 20
-887.25000000003
 30
0.0
 40
0.6763683861879403
 50
304.875388670037
 51
55.1246113518757
  0
ARC
  5
1CC
  8
__
  6
CONTINUOUS
 62
     7
 10
-910.000000000023
 20
-888.6907113670923
 30
0.0
 40
0.1892886329078069
 50
179.0566790719813
 51
0.9433211184115464
  0
ARC
  5
1CD
  8
__
  6
CONTINUOUS
 62
     7
 10
-910.8631841931068
 20
-888.7450788787141
 30
0.0
 40
0.6763683861878106
 50
4.875388648116833
 51
115.1246113299738
  0
ARC
  5
1CE
  8
__
  6
CONTINUOUS
 62
     7
 10
-911.2476926434277
 20
-887.9703556835148
 30
0.0
 40
0.1892886329075887
 50
119.056679072011
 51
300.9433211183991
  0
ARC
  5
1CF
  8
__
  6
CONTINUOUS
 62
     7
 10
-909.1368158069392
 20
-885.7549211212859
 30
0.0
 40
0.6763683861879238
 50
184.875388648116
 51
295.1246113299738
  0
ARC
  5
1D0
  8
__
  6
CONTINUOUS
 62
     7
 10
-908.7523073566183
 20
-886.5296443164852
 30
0.0
 40
0.1892886329075887
 50
299.056679072011
 51
120.9433211183991
  0
ARC
  5
1D1
  8
__
  6
CONTINUOUS
 62
     7
 10
-908.2736316138712
 20
-887.25000000003
 30
0.0
 40
0.6763683861880107
 50
124.8753886481164
 51
235.124611329971
  0
ARC
  5
1D2
  8
__
  6
CONTINUOUS
 62
     7
 10
-909.1368158069392
 20
-888.7450788787141
 30
0.0
 40
0.676368386187752
 50
64.87538867002621
 51
175.124611351884
  0
ARC
  5
1D3
  8
__
  6
CONTINUOUS
 62
     7
 10
-908.7523073566183
 20
-887.9703556835148
 30
0.0
 40
0.1892886329076225
 50
239.0566788816009
 51
60.94332092798902
  0
CIRCLE
  5
1D4
  8
__
  6
CONTINUOUS
 62
     7
 10
-910.0
 20
-887.25
 30
0.0
 40
4.0
  0
ARC
  5
1D5
  8
__
  6
CONTINUOUS
 62
     7
 10
-778.000000000023
 20
-885.8092886329077
 30
0.0
 40
0.1892886329077032
 50
359.0566788815885
 51
180.9433209280187
  0
ARC
  5
1D6
  8
__
  6
CONTINUOUS
 62
     7
 10
-778.8631841931068
 20
-885.7549211212859
 30
0.0
 40
0.676368386187752
 50
244.8753886700262
 51
355.1246113518832
  0
ARC
  5
1D7
  8
__
  6
CONTINUOUS
 62
     7
 10
-779.2476926434277
 20
-886.5296443164852
 30
0.0
 40
0.1892886329076225
 50
59.05667888160091
 51
240.943320927989
  0
ARC
  5
1D8
  8
__
  6
CONTINUOUS
 62
     7
 10
-779.726368386175
 20
-887.25000000003
 30
0.0
 40
0.6763683861879403
 50
304.875388670037
 51
55.1246113518757
  0
ARC
  5
1D9
  8
__
  6
CONTINUOUS
 62
     7
 10
-778.000000000023
 20
-888.6907113670923
 30
0.0
 40
0.1892886329078069
 50
179.0566790719813
 51
0.9433211184115464
  0
ARC
  5
1DA
  8
__
  6
CONTINUOUS
 62
     7
 10
-778.8631841931068
 20
-888.7450788787141
 30
0.0
 40
0.6763683861878106
 50
4.875388648116833
 51
115.1246113299738
  0
ARC
  5
1DB
  8
__
  6
CONTINUOUS
 62
     7
 10
-779.2476926434277
 20
-887.9703556835148
 30
0.0
 40
0.1892886329075887
 50
119.056679072011
 51
300.9433211183991
  0
ARC
  5
1DC
  8
__
  6
CONTINUOUS
 62
     7
 10
-777.1368158069392
 20
-885.7549211212859
 30
0.0
 40
0.6763683861879238
 50
184.875388648116
 51
295.1246113299738
  0
ARC
  5
1DD
  8
__
  6
CONTINUOUS
 62
     7
 10
-776.7523073566183
 20
-886.5296443164852
 30
0.0
 40
0.1892886329075887
 50
299.056679072011
 51
120.9433211183991
  0
ARC
  5
1DE
  8
__
  6
CONTINUOUS
 62
     7
 10
-776.2736316138712
 20
-887.25000000003
 30
0.0
 40
0.6763683861880107
 50
124.8753886481164
 51
235.124611329971
  0
ARC
  5
1DF
  8
__
  6
CONTINUOUS
 62
     7
 10
-777.1368158069392
 20
-888.7450788787141
 30
0.0
 40
0.676368386187752
 50
64.87538867002621
 51
175.124611351884
  0
ARC
  5
1E0
  8
__
  6
CONTINUOUS
 62
     7
 10
-776.7523073566183
 20
-887.9703556835148
 30
0.0
 40
0.1892886329076225
 50
239.0566788816009
 51
60.94332092798902
  0
CIRCLE
  5
1E1
  8
__
  6
CONTINUOUS
 62
     7
 10
-778.0
 20
-887.25
 30
0.0
 40
4.0
  0
ARC
  5
1E2
  8
__
  6
CONTINUOUS
 62
     7
 10
-910.000000000023
 20
-711.3092886329077
 30
0.0
 40
0.1892886329077032
 50
359.0566788815885
 51
180.9433209280187
  0
ARC
  5
1E3
  8
__
  6
CONTINUOUS
 62
     7
 10
-910.8631841931068
 20
-711.2549211212859
 30
0.0
 40
0.676368386187752
 50
244.8753886700262
 51
355.1246113518832
  0
ARC
  5
1E4
  8
__
  6
CONTINUOUS
 62
     7
 10
-911.2476926434277
 20
-712.0296443164852
 30
0.0
 40
0.1892886329076225
 50
59.05667888160091
 51
240.943320927989
  0
ARC
  5
1E5
  8
__
  6
CONTINUOUS
 62
     7
 10
-911.726368386175
 20
-712.75000000003
 30
0.0
 40
0.6763683861879403
 50
304.875388670037
 51
55.1246113518757
  0
ARC
  5
1E6
  8
__
  6
CONTINUOUS
 62
     7
 10
-910.000000000023
 20
-714.1907113670923
 30
0.0
 40
0.1892886329078069
 50
179.0566790719813
 51
0.9433211184115464
  0
ARC
  5
1E7
  8
__
  6
CONTINUOUS
 62
     7
 10
-910.8631841931068
 20
-714.2450788787141
 30
0.0
 40
0.6763683861878106
 50
4.875388648116833
 51
115.1246113299738
  0
ARC
  5
1E8
  8
__
  6
CONTINUOUS
 62
     7
 10
-911.2476926434277
 20
-713.4703556835148
 30
0.0
 40
0.1892886329075887
 50
119.056679072011
 51
300.9433211183991
  0
ARC
  5
1E9
  8
__
  6
CONTINUOUS
 62
     7
 10
-909.1368158069392
 20
-711.2549211212859
 30
0.0
 40
0.6763683861879238
 50
184.875388648116
 51
295.1246113299738
  0
ARC
  5
1EA
  8
__
  6
CONTINUOUS
 62
     7
 10
-908.7523073566183
 20
-712.0296443164852
 30
0.0
 40
0.1892886329075887
 50
299.056679072011
 51
120.9433211183991
  0
ARC
  5
1EB
  8
__
  6
CONTINUOUS
 62
     7
 10
-908.2736316138712
 20
-712.75000000003
 30
0.0
 40
0.6763683861880107
 50
124.8753886481164
 51
235.124611329971
  0
ARC
  5
1EC
  8
__
  6
CONTINUOUS
 62
     7
 10
-909.1368158069392
 20
-714.2450788787141
 30
0.0
 40
0.676368386187752
 50
64.87538867002621
 51
175.124611351884
  0
ARC
  5
1ED
  8
__
  6
CONTINUOUS
 62
     7
 10
-908.7523073566183
 20
-713.4703556835148
 30
0.0
 40
0.1892886329076225
 50
239.0566788816009
 51
60.94332092798902
  0
CIRCLE
  5
1EE
  8
__
  6
CONTINUOUS
 62
     7
 10
-910.0
 20
-712.75
 30
0.0
 40
4.0
  0
ARC
  5
1EF
  8
__
  6
CONTINUOUS
 62
     7
 10
-778.000000000023
 20
-711.3092886329077
 30
0.0
 40
0.1892886329077032
 50
359.0566788815885
 51
180.9433209280187
  0
ARC
  5
1F0
  8
__
  6
CONTINUOUS
 62
     7
 10
-778.8631841931068
 20
-711.2549211212859
 30
0.0
 40
0.676368386187752
 50
244.8753886700262
 51
355.1246113518832
  0
ARC
  5
1F1
  8
__
  6
CONTINUOUS
 62
     7
 10
-779.2476926434277
 20
-712.0296443164852
 30
0.0
 40
0.1892886329076225
 50
59.05667888160091
 51
240.943320927989
  0
ARC
  5
1F2
  8
__
  6
CONTINUOUS
 62
     7
 10
-779.726368386175
 20
-712.75000000003
 30
0.0
 40
0.6763683861879403
 50
304.875388670037
 51
55.1246113518757
  0
ARC
  5
1F3
  8
__
  6
CONTINUOUS
 62
     7
 10
-778.000000000023
 20
-714.1907113670923
 30
0.0
 40
0.1892886329078069
 50
179.0566790719813
 51
0.9433211184115464
  0
ARC
  5
1F4
  8
__
  6
CONTINUOUS
 62
     7
 10
-778.8631841931068
 20
-714.2450788787141
 30
0.0
 40
0.6763683861878106
 50
4.875388648116833
 51
115.1246113299738
  0
ARC
  5
1F5
  8
__
  6
CONTINUOUS
 62
     7
 10
-779.2476926434277
 20
-713.4703556835148
 30
0.0
 40
0.1892886329075887
 50
119.056679072011
 51
300.9433211183991
  0
ARC
  5
1F6
  8
__
  6
CONTINUOUS
 62
     7
 10
-777.1368158069392
 20
-711.2549211212859
 30
0.0
 40
0.6763683861879238
 50
184.875388648116
 51
295.1246113299738
  0
ARC
  5
1F7
  8
__
  6
CONTINUOUS
 62
     7
 10
-776.7523073566183
 20
-712.0296443164852
 30
0.0
 40
0.1892886329075887
 50
299.056679072011
 51
120.9433211183991
  0
ARC
  5
1F8
  8
__
  6
CONTINUOUS
 62
     7
 10
-776.2736316138712
 20
-712.75000000003
 30
0.0
 40
0.6763683861880107
 50
124.8753886481164
 51
235.124611329971
  0
ARC
  5
1F9
  8
__
  6
CONTINUOUS
 62
     7
 10
-777.1368158069392
 20
-714.2450788787141
 30
0.0
 40
0.676368386187752
 50
64.87538867002621
 51
175.124611351884
  0
ARC
  5
1FA
  8
__
  6
CONTINUOUS
 62
     7
 10
-776.7523073566183
 20
-713.4703556835148
 30
0.0
 40
0.1892886329076225
 50
239.0566788816009
 51
60.94332092798902
  0
CIRCLE
  5
1FB
  8
__
  6
CONTINUOUS
 62
     7
 10
-778.0
 20
-712.75
 30
0.0
 40
4.0
  0
LINE
  5
1FC
  8
__
  6
CONTINUOUS
 62
     7
 10
-883.0000000000003
 20
-710.0
 30
0.0
 11
-804.9999999999999
 21
-710.0
 31
0.0
  0
LINE
  5
1FD
  8
__
  6
CONTINUOUS
 62
     7
 10
-774.0
 20
-741.0
 30
0.0
 11
-774.0
 21
-859.0000000000002
 31
0.0
  0
LINE
  5
1FE
  8
__
  6
CONTINUOUS
 62
     7
 10
-804.9999999999998
 20
-890.0
 30
0.0
 11
-883.0000000000001
 21
-890.0
 31
0.0
  0
LINE
  5
1FF
  8
__
  6
CONTINUOUS
 62
     7
 10
-914.0
 20
-859.0
 30
0.0
 11
-914.0
 21
-740.9999999999995
 31
0.0
  0
ARC
  5
200
  8
__
  6
CONTINUOUS
 62
     7
 10
-883.0
 20
-859.0000000000002
 30
0.0
 40
31.0
 50
179.9999999999996
 51
270.0
  0
ARC
  5
201
  8
__
  6
CONTINUOUS
 62
     7
 10
-804.9999999999998
 20
-859.0000000000005
 30
0.0
 40
31.0
 50
269.9999999999994
 51
0.0
  0
ARC
  5
202
  8
__
  6
CONTINUOUS
 62
     7
 10
-883.0000000000003
 20
-740.9999999999995
 30
0.0
 40
31.0
 50
89.99999999999898
 51
180.0
  0
ARC
  5
203
  8
__
  6
CONTINUOUS
 62
     7
 10
-804.9999999999999
 20
-741.0
 30
0.0
 40
30.99999999999989
 50
0.0
 51
89.99999999999977
  0
ARC
  5
204
  8
__
  6
CONTINUOUS
 62
     7
 10
-923.250000000023
 20
-778.8092886329077
 30
0.0
 40
0.1892886329077032
 50
359.0566788815885
 51
180.9433209280187
  0
ARC
  5
205
  8
__
  6
CONTINUOUS
 62
     7
 10
-924.1131841931068
 20
-778.7549211212859
 30
0.0
 40
0.676368386187752
 50
244.8753886700262
 51
355.1246113518832
  0
ARC
  5
206
  8
__
  6
CONTINUOUS
 62
     7
 10
-924.4976926434277
 20
-779.5296443164852
 30
0.0
 40
0.1892886329076225
 50
59.05667888160091
 51
240.943320927989
  0
ARC
  5
207
  8
__
  6
CONTINUOUS
 62
     7
 10
-924.976368386175
 20
-780.25000000003
 30
0.0
 40
0.6763683861877537
 50
304.875388670048
 51
55.12461135187576
  0
ARC
  5
208
  8
__
  6
CONTINUOUS
 62
     7
 10
-923.250000000023
 20
-781.6907113670923
 30
0.0
 40
0.1892886329078069
 50
179.0566790719813
 51
0.9433211184115464
  0
ARC
  5
209
  8
__
  6
CONTINUOUS
 62
     7
 10
-924.1131841931068
 20
-781.7450788787141
 30
0.0
 40
0.6763683861878106
 50
4.875388648116833
 51
115.1246113299738
  0
ARC
  5
20A
  8
__
  6
CONTINUOUS
 62
     7
 10
-924.4976926434277
 20
-780.9703556835148
 30
0.0
 40
0.1892886329075887
 50
119.056679072011
 51
300.9433211183991
  0
ARC
  5
20B
  8
__
  6
CONTINUOUS
 62
     7
 10
-922.3868158069392
 20
-778.7549211212859
 30
0.0
 40
0.6763683861879238
 50
184.875388648116
 51
295.1246113299738
  0
ARC
  5
20C
  8
__
  6
CONTINUOUS
 62
     7
 10
-922.0023073566183
 20
-779.5296443164852
 30
0.0
 40
0.1892886329075887
 50
299.056679072011
 51
120.9433211183991
  0
ARC
  5
20D
  8
__
  6
CONTINUOUS
 62
     7
 10
-921.5236316138712
 20
-780.25000000003
 30
0.0
 40
0.6763683861880107
 50
124.8753886481164
 51
235.1246113299599
  0
ARC
  5
20E
  8
__
  6
CONTINUOUS
 62
     7
 10
-922.3868158069392
 20
-781.7450788787141
 30
0.0
 40
0.676368386187752
 50
64.87538867002621
 51
175.124611351884
  0
ARC
  5
20F
  8
__
  6
CONTINUOUS
 62
     7
 10
-922.0023073566183
 20
-780.9703556835148
 30
0.0
 40
0.1892886329076225
 50
239.0566788816009
 51
60.94332092798902
  0
CIRCLE
  5
210
  8
__
  6
CONTINUOUS
 62
     7
 10
-923.25
 20
-780.25
 30
0.0
 40
4.0
  0
ARC
  5
211
  8
__
  6
CONTINUOUS
 62
     7
 10
-923.250000000023
 20
-836.8092886329077
 30
0.0
 40
0.1892886329077032
 50
359.0566788815885
 51
180.9433209280187
  0
ARC
  5
212
  8
__
  6
CONTINUOUS
 62
     7
 10
-924.1131841931068
 20
-836.7549211212859
 30
0.0
 40
0.676368386187752
 50
244.8753886700262
 51
355.1246113518832
  0
ARC
  5
213
  8
__
  6
CONTINUOUS
 62
     7
 10
-924.4976926434277
 20
-837.5296443164852
 30
0.0
 40
0.1892886329076225
 50
59.05667888160091
 51
240.943320927989
  0
ARC
  5
214
  8
__
  6
CONTINUOUS
 62
     7
 10
-924.976368386175
 20
-838.25000000003
 30
0.0
 40
0.6763683861877537
 50
304.875388670048
 51
55.12461135187576
  0
ARC
  5
215
  8
__
  6
CONTINUOUS
 62
     7
 10
-923.250000000023
 20
-839.6907113670923
 30
0.0
 40
0.1892886329078069
 50
179.0566790719813
 51
0.9433211184115464
  0
ARC
  5
216
  8
__
  6
CONTINUOUS
 62
     7
 10
-924.1131841931068
 20
-839.7450788787141
 30
0.0
 40
0.6763683861878106
 50
4.875388648116833
 51
115.1246113299738
  0
ARC
  5
217
  8
__
  6
CONTINUOUS
 62
     7
 10
-924.4976926434277
 20
-838.9703556835148
 30
0.0
 40
0.1892886329075887
 50
119.056679072011
 51
300.9433211183991
  0
ARC
  5
218
  8
__
  6
CONTINUOUS
 62
     7
 10
-922.3868158069392
 20
-836.7549211212859
 30
0.0
 40
0.6763683861879238
 50
184.875388648116
 51
295.1246113299738
  0
ARC
  5
219
  8
__
  6
CONTINUOUS
 62
     7
 10
-922.0023073566183
 20
-837.5296443164852
 30
0.0
 40
0.1892886329075887
 50
299.056679072011
 51
120.9433211183991
  0
ARC
  5
21A
  8
__
  6
CONTINUOUS
 62
     7
 10
-921.5236316138712
 20
-838.25000000003
 30
0.0
 40
0.6763683861880107
 50
124.8753886481164
 51
235.1246113299599
  0
ARC
  5
21B
  8
__
  6
CONTINUOUS
 62
     7
 10
-922.3868158069392
 20
-839.7450788787141
 30
0.0
 40
0.676368386187752
 50
64.87538867002621
 51
175.124611351884
  0
ARC
  5
21C
  8
__
  6
CONTINUOUS
 62
     7
 10
-922.0023073566183
 20
-838.9703556835148
 30
0.0
 40
0.1892886329076225
 50
239.0566788816009
 51
60.94332092798902
  0
CIRCLE
  5
21D
  8
__
  6
CONTINUOUS
 62
     7
 10
-923.25
 20
-838.25
 30
0.0
 40
4.0
  0
ARC
  5
21E
  8
__
  6
CONTINUOUS
 62
     7
 10
-764.750000000023
 20
-778.8092886329077
 30
0.0
 40
0.1892886329077032
 50
359.0566788815885
 51
180.9433209280187
  0
ARC
  5
21F
  8
__
  6
CONTINUOUS
 62
     7
 10
-765.6131841931068
 20
-778.7549211212859
 30
0.0
 40
0.676368386187752
 50
244.8753886700262
 51
355.1246113518832
  0
ARC
  5
220
  8
__
  6
CONTINUOUS
 62
     7
 10
-765.9976926434277
 20
-779.5296443164852
 30
0.0
 40
0.1892886329076225
 50
59.05667888160091
 51
240.943320927989
  0
ARC
  5
221
  8
__
  6
CONTINUOUS
 62
     7
 10
-766.476368386175
 20
-780.25000000003
 30
0.0
 40
0.6763683861877537
 50
304.875388670048
 51
55.12461135187576
  0
ARC
  5
222
  8
__
  6
CONTINUOUS
 62
     7
 10
-764.750000000023
 20
-781.6907113670923
 30
0.0
 40
0.1892886329078069
 50
179.0566790719813
 51
0.9433211184115464
  0
ARC
  5
223
  8
__
  6
CONTINUOUS
 62
     7
 10
-765.6131841931068
 20
-781.7450788787141
 30
0.0
 40
0.6763683861878106
 50
4.875388648116833
 51
115.1246113299738
  0
ARC
  5
224
  8
__
  6
CONTINUOUS
 62
     7
 10
-765.9976926434277
 20
-780.9703556835148
 30
0.0
 40
0.1892886329075887
 50
119.056679072011
 51
300.9433211183991
  0
ARC
  5
225
  8
__
  6
CONTINUOUS
 62
     7
 10
-763.8868158069392
 20
-778.7549211212859
 30
0.0
 40
0.6763683861879238
 50
184.875388648116
 51
295.1246113299738
  0
ARC
  5
226
  8
__
  6
CONTINUOUS
 62
     7
 10
-763.5023073566183
 20
-779.5296443164852
 30
0.0
 40
0.1892886329075887
 50
299.056679072011
 51
120.9433211183991
  0
ARC
  5
227
  8
__
  6
CONTINUOUS
 62
     7
 10
-763.0236316138712
 20
-780.25000000003
 30
0.0
 40
0.6763683861880107
 50
124.8753886481164
 51
235.1246113299599
  0
ARC
  5
228
  8
__
  6
CONTINUOUS
 62
     7
 10
-763.8868158069392
 20
-781.7450788787141
 30
0.0
 40
0.676368386187752
 50
64.87538867002621
 51
175.124611351884
  0
ARC
  5
229
  8
__
  6
CONTINUOUS
 62
     7
 10
-763.5023073566183
 20
-780.9703556835148
 30
0.0
 40
0.1892886329076225
 50
239.0566788816009
 51
60.94332092798902
  0
CIRCLE
  5
22A
  8
__
  6
CONTINUOUS
 62
     7
 10
-764.75
 20
-780.25
 30
0.0
 40
4.0
  0
ARC
  5
22B
  8
__
  6
CONTINUOUS
 62
     7
 10
-764.750000000023
 20
-836.8092886329077
 30
0.0
 40
0.1892886329077032
 50
359.0566788815885
 51
180.9433209280187
  0
ARC
  5
22C
  8
__
  6
CONTINUOUS
 62
     7
 10
-765.6131841931068
 20
-836.7549211212859
 30
0.0
 40
0.676368386187752
 50
244.8753886700262
 51
355.1246113518832
  0
ARC
  5
22D
  8
__
  6
CONTINUOUS
 62
     7
 10
-765.9976926434277
 20
-837.5296443164852
 30
0.0
 40
0.1892886329076225
 50
59.05667888160091
 51
240.943320927989
  0
ARC
  5
22E
  8
__
  6
CONTINUOUS
 62
     7
 10
-766.476368386175
 20
-838.25000000003
 30
0.0
 40
0.6763683861877537
 50
304.875388670048
 51
55.12461135187576
  0
ARC
  5
22F
  8
__
  6
CONTINUOUS
 62
     7
 10
-764.750000000023
 20
-839.6907113670923
 30
0.0
 40
0.1892886329078069
 50
179.0566790719813
 51
0.9433211184115464
  0
ARC
  5
230
  8
__
  6
CONTINUOUS
 62
     7
 10
-765.6131841931068
 20
-839.7450788787141
 30
0.0
 40
0.6763683861878106
 50
4.875388648116833
 51
115.1246113299738
  0
ARC
  5
231
  8
__
  6
CONTINUOUS
 62
     7
 10
-765.9976926434277
 20
-838.9703556835148
 30
0.0
 40
0.1892886329075887
 50
119.056679072011
 51
300.9433211183991
  0
ARC
  5
232
  8
__
  6
CONTINUOUS
 62
     7
 10
-763.8868158069392
 20
-836.7549211212859
 30
0.0
 40
0.6763683861879238
 50
184.875388648116
 51
295.1246113299738
  0
ARC
  5
233
  8
__
  6
CONTINUOUS
 62
     7
 10
-763.5023073566183
 20
-837.5296443164852
 30
0.0
 40
0.1892886329075887
 50
299.056679072011
 51
120.9433211183991
  0
ARC
  5
234
  8
__
  6
CONTINUOUS
 62
     7
 10
-763.0236316138712
 20
-838.25000000003
 30
0.0
 40
0.6763683861880107
 50
124.8753886481164
 51
235.1246113299599
  0
ARC
  5
235
  8
__
  6
CONTINUOUS
 62
     7
 10
-763.8868158069392
 20
-839.7450788787141
 30
0.0
 40
0.676368386187752
 50
64.87538867002621
 51
175.124611351884
  0
ARC
  5
236
  8
__
  6
CONTINUOUS
 62
     7
 10
-763.5023073566183
 20
-838.9703556835148
 30
0.0
 40
0.1892886329076225
 50
239.0566788816009
 51
60.94332092798902
  0
CIRCLE
  5
237
  8
__
  6
CONTINUOUS
 62
     7
 10
-764.75
 20
-838.25
 30
0.0
 40
4.0
  0
ARC
  5
238
  8
__
  6
CONTINUOUS
 62
     7
 10
-882.5000000000003
 20
-740.9999999999995
 30
0.0
 40
25.99999999999955
 50
90.0
 51
180.0
  0
ARC
  5
239
  8
__
  6
CONTINUOUS
 62
     7
 10
-805.4999999999997
 20
-740.9999999999995
 30
0.0
 40
25.99999999999966
 50
0.0
 51
90.0
  0
ARC
  5
23A
  8
__
  6
CONTINUOUS
 62
     7
 10
-882.5000000000003
 20
-859.0000000000005
 30
0.0
 40
25.99999999999966
 50
180.0
 51
270.0
  0
ARC
  5
23B
  8
__
  6
CONTINUOUS
 62
     7
 10
-805.4999999999997
 20
-859.0000000000005
 30
0.0
 40
25.99999999999955
 50
270.0
 51
0.0
  0
LINE
  5
23C
  8
__
  6
CONTINUOUS
 62
     7
 10
-882.5000000000003
 20
-715.0
 30
0.0
 11
-805.4999999999997
 21
-715.0
 31
0.0
  0
LINE
  5
23D
  8
__
  6
CONTINUOUS
 62
     7
 10
-805.4999999999997
 20
-885.0
 30
0.0
 11
-882.5000000000003
 21
-885.0
 31
0.0
  0
LINE
  5
23E
  8
__
  6
CONTINUOUS
 62
     7
 10
-908.5
 20
-859.0000000000002
 30
0.0
 11
-908.5
 21
-740.9999999999995
 31
0.0
  0
LINE
  5
23F
  8
__
  6
CONTINUOUS
 62
     7
 10
-779.5
 20
-740.9999999999995
 30
0.0
 11
-779.5
 21
-859.0000000000005
 31
0.0
  0
ARC
  5
240
  8
__
  6
CONTINUOUS
 62
     7
 10
-874.5
 20
-853.5
 30
0.0
 40
28.5
 50
90.0
 51
270.0
  0
ARC
  5
241
  8
__
  6
CONTINUOUS
 62
     7
 10
-813.5
 20
-853.5
 30
0.0
 40
28.5
 50
270.0
 51
90.0
  0
LINE
  5
242
  8
__
  6
CONTINUOUS
 62
     7
 10
-874.5
 20
-825.0
 30
0.0
 11
-813.5
 21
-825.0
 31
0.0
  0
LINE
  5
243
  8
__
  6
CONTINUOUS
 62
     7
 10
-874.5
 20
-882.0
 30
0.0
 11
-813.5
 21
-882.0
 31
0.0
  0
ARC
  5
244
  8
__
  6
CONTINUOUS
 62
     7
 10
-874.5
 20
-766.5
 30
0.0
 40
28.5
 50
180.0
 51
270.0
  0
ARC
  5
245
  8
__
  6
CONTINUOUS
 62
     7
 10
-874.5
 20
-747.5
 30
0.0
 40
28.50000000000011
 50
90.0
 51
180.0
  0
ARC
  5
246
  8
__
  6
CONTINUOUS
 62
     7
 10
-813.5
 20
-766.5
 30
0.0
 40
28.5
 50
270.0
 51
0.0
  0
ARC
  5
247
  8
__
  6
CONTINUOUS
 62
     7
 10
-813.5
 20
-747.5
 30
0.0
 40
28.5
 50
0.0
 51
90.0
  0
LINE
  5
248
  8
__
  6
CONTINUOUS
 62
     7
 10
-903.0
 20
-747.5
 30
0.0
 11
-903.0
 21
-766.5
 31
0.0
  0
LINE
  5
249
  8
__
  6
CONTINUOUS
 62
     7
 10
-874.5
 20
-795.0
 30
0.0
 11
-813.5
 21
-795.0
 31
0.0
  0
LINE
  5
24A
  8
__
  6
CONTINUOUS
 62
     7
 10
-785.0
 20
-766.5
 30
0.0
 11
-785.0
 21
-747.5
 31
0.0
  0
LINE
  5
24B
  8
__
  6
CONTINUOUS
 62
     7
 10
-813.5
 20
-718.9999999999999
 30
0.0
 11
-874.5
 21
-718.9999999999999
 31
0.0
  0
LINE
  5
24C
  8
__
  6
CONTINUOUS
 62
     7
 10
-908.5
 20
-849.5000000000002
 30
0.0
 11
-902.717902119045
 21
-849.5000000000002
 31
0.0
  0
LINE
  5
24D
  8
__
  6
CONTINUOUS
 62
     7
 10
-908.5
 20
-849.5000000000002
 30
0.0
 11
-914.0
 21
-851.0
 31
0.0
  0
LINE
  5
24E
  8
__
  6
CONTINUOUS
 62
     7
 10
-779.5
 20
-849.5000000000002
 30
0.0
 11
-785.282097880955
 21
-849.5000000000002
 31
0.0
  0
LINE
  5
24F
  8
__
  6
CONTINUOUS
 62
     7
 10
-779.5
 20
-849.5000000000002
 30
0.0
 11
-774.0
 21
-851.0
 31
0.0
  0
LINE
  5
250
  8
__
  6
CONTINUOUS
 62
     7
 10
-908.5
 20
-768.9999999999995
 30
0.0
 11
-902.8901391331568
 21
-768.9999999999995
 31
0.0
  0
LINE
  5
251
  8
__
  6
CONTINUOUS
 62
     7
 10
-908.5
 20
-768.9999999999995
 30
0.0
 11
-914.0
 21
-767.5
 31
0.0
  0
LINE
  5
252
  8
__
  6
CONTINUOUS
 62
     7
 10
-779.5
 20
-768.9999999999995
 30
0.0
 11
-785.1098608668432
 21
-768.9999999999995
 31
0.0
  0
LINE
  5
253
  8
__
  6
CONTINUOUS
 62
     7
 10
-779.5
 20
-768.9999999999995
 30
0.0
 11
-774.0
 21
-767.5
 31
0.0
  0
ARC
  5
254
  8
__
  6
CONTINUOUS
 62
     7
 10
-853.999774
 20
-814.13474
 30
0.0
 40
4.384050822785327
 50
264.690856221535
 51
323.9911991542437
  0
ARC
  5
255
  8
__
  6
CONTINUOUS
 62
     7
 10
-854.811065
 20
-814.13474
 30
0.0
 40
4.384043702809195
 50
216.0088008457572
 51
275.3091437784642
  0
ARC
  5
256
  8
__
  6
CONTINUOUS
 62
     7
 10
-842.859555
 20
-815.2727540000001
 30
0.0
 40
3.234439399920584
 50
273.8309816091167
 51
351.1351473098064
  0
ARC
  5
257
  8
__
  6
CONTINUOUS
 62
     7
 10
-842.827306
 20
-804.722282
 30
0.0
 40
3.229540885949502
 50
8.226923859014095
 51
86.15412669215195
  0
ARC
  5
258
  8
__
  6
CONTINUOUS
 62
     7
 10
-843.1826716819255
 20
-816.0934561231502
 30
0.0
 40
0.5419312951913328
 50
307.6419024975662
 51
354.2670192894097
  0
LINE
  5
259
  8
__
  6
CONTINUOUS
 62
     7
 10
-857.102835
 20
-807.553496
 30
0.0
 11
-854.562253
 21
-801.5
 31
0.0
  0
LINE
  5
25A
  8
__
  6
CONTINUOUS
 62
     7
 10
-857.102835
 20
-807.553496
 30
0.0
 11
-859.612069
 21
-801.5
 31
0.0
  0
LINE
  5
25B
  8
__
  6
CONTINUOUS
 62
     7
 10
-837.844555
 20
-818.5
 30
0.0
 11
-837.844555
 21
-801.5
 31
0.0
  0
LINE
  5
25C
  8
__
  6
CONTINUOUS
 62
     7
 10
-834.5825609999999
 20
-801.5
 30
0.0
 11
-834.5825609999999
 21
-815.8966879999998
 31
0.0
  0
LINE
  5
25D
  8
__
  6
CONTINUOUS
 62
     7
 10
-853.370366
 20
-801.5
 30
0.0
 11
-853.370366
 21
-815.8966879999998
 31
0.0
  0
LINE
  5
25E
  8
__
  6
CONTINUOUS
 62
     7
 10
-850.233832
 20
-801.5
 30
0.0
 11
-850.233832
 21
-815.8966879999998
 31
0.0
  0
LINE
  5
25F
  8
__
  6
CONTINUOUS
 62
     7
 10
-848.602835
 20
-801.5
 30
0.0
 11
-848.602835
 21
-818.5
 31
0.0
  0
LINE
  5
260
  8
__
  6
CONTINUOUS
 62
     7
 10
-845.7485859999999
 20
-803.0996150000001
 30
0.0
 11
-845.7485859999999
 21
-808.5571929999999
 31
0.0
  0
LINE
  5
261
  8
__
  6
CONTINUOUS
 62
     7
 10
-839.6310000000001
 20
-808.241401
 30
0.0
 11
-839.6310000000001
 21
-804.260154
 31
0.0
  0
LINE
  5
262
  8
__
  6
CONTINUOUS
 62
     7
 10
-842.6434509999999
 20
-803.852392
 30
0.0
 11
-842.6434509999999
 21
-807.8044329999998
 31
0.0
  0
LINE
  5
263
  8
__
  6
CONTINUOUS
 62
     7
 10
-855.7541229999999
 20
-813.167882
 30
0.0
 11
-855.7541229999999
 21
-815.8966539999999
 31
0.0
  0
LINE
  5
264
  8
__
  6
CONTINUOUS
 62
     7
 10
-855.7541229999999
 20
-813.167882
 30
0.0
 11
-858.577007
 21
-813.167882
 31
0.0
  0
LINE
  5
265
  8
__
  6
CONTINUOUS
 62
     7
 10
-858.577007
 20
-813.167882
 30
0.0
 11
-858.577007
 21
-815.8966539999999
 31
0.0
  0
ARC
  5
266
  8
__
  6
CONTINUOUS
 62
     7
 10
-854.5562689999999
 20
-815.933442
 30
0.0
 40
1.186479004611853
 50
269.7118487927481
 51
1.775987005703314
  0
ARC
  5
267
  8
__
  6
CONTINUOUS
 62
     7
 10
-854.56822
 20
-815.933442
 30
0.0
 40
1.186472937681201
 50
178.2240129943114
 51
270.2881512072513
  0
ARC
  5
268
  8
__
  6
CONTINUOUS
 62
     7
 10
-856.595759
 20
-815.800553
 30
0.0
 40
1.983560353899496
 50
182.7769954499898
 51
207.3596066671452
  0
CIRCLE
  5
269
  8
__
  6
CONTINUOUS
 62
     7
 10
-856.930319
 20
-809.9059050000001
 30
0.0
 40
1.615306000000032
  0
LINE
  5
26A
  8
__
  6
CONTINUOUS
 62
     7
 10
-829.344555
 20
-818.4999829999999
 30
0.0
 11
-837.844555
 21
-818.4999829999999
 31
0.0
  0
LINE
  5
26B
  8
__
  6
CONTINUOUS
 62
     7
 10
-829.344555
 20
-818.4999829999999
 30
0.0
 11
-829.344555
 21
-813.1678649999999
 31
0.0
  0
LINE
  5
26C
  8
__
  6
CONTINUOUS
 62
     7
 10
-829.344555
 20
-813.167882
 30
0.0
 11
-832.198787
 21
-813.167882
 31
0.0
  0
LINE
  5
26D
  8
__
  6
CONTINUOUS
 62
     7
 10
-832.198787
 20
-813.167882
 30
0.0
 11
-832.198787
 21
-815.8966539999999
 31
0.0
  0
LINE
  5
26E
  8
__
  6
CONTINUOUS
 62
     7
 10
-848.602835
 20
-818.4999829999999
 30
0.0
 11
-842.6434509999999
 21
-818.4999659999999
 31
0.0
  0
LINE
  5
26F
  8
__
  6
CONTINUOUS
 62
     7
 10
-845.748603
 20
-816.9003509999998
 30
0.0
 11
-844.211701
 21
-816.9003509999998
 31
0.0
  0
LINE
  5
270
  8
__
  6
CONTINUOUS
 62
     7
 10
-845.7485859999999
 20
-816.9003509999998
 30
0.0
 11
-845.7485859999999
 21
-810.188173
 31
0.0
  0
LINE
  5
271
  8
__
  6
CONTINUOUS
 62
     7
 10
-845.748603
 20
-810.188173
 30
0.0
 11
-844.211701
 21
-810.188173
 31
0.0
  0
LINE
  5
272
  8
__
  6
CONTINUOUS
 62
     7
 10
-842.6434509999999
 20
-816.1475909999999
 30
0.0
 11
-842.6434509999999
 21
-810.9409329999999
 31
0.0
  0
ARC
  5
273
  8
__
  6
CONTINUOUS
 62
     7
 10
-852.21508
 20
-815.800553
 30
0.0
 40
1.983557531370478
 50
332.6403933328552
 51
357.223004550004
  0
ARC
  5
274
  8
__
  6
CONTINUOUS
 62
     7
 10
-833.3847069999999
 20
-815.933442
 30
0.0
 40
1.186479004611853
 50
269.7118487927481
 51
1.775987005703314
  0
ARC
  5
275
  8
__
  6
CONTINUOUS
 62
     7
 10
-833.396641
 20
-815.933442
 30
0.0
 40
1.186472937681201
 50
178.2240129943114
 51
270.2881512072513
  0
LINE
  5
276
  8
__
  6
CONTINUOUS
 62
     7
 10
-839.632377
 20
-815.7711939999999
 30
0.0
 11
-839.632377
 21
-811.2546
 31
0.0
  0
LINE
  5
277
  8
__
  6
CONTINUOUS
 62
     7
 10
-845.748603
 20
-808.5571929999999
 30
0.0
 11
-844.211701
 21
-808.5571929999999
 31
0.0
  0
LINE
  5
278
  8
__
  6
CONTINUOUS
 62
     7
 10
-853.370366
 20
-801.5
 30
0.0
 11
-850.233832
 21
-801.5
 31
0.0
  0
LINE
  5
279
  8
__
  6
CONTINUOUS
 62
     7
 10
-859.612069
 20
-801.5
 30
0.0
 11
-854.562253
 21
-801.5
 31
0.0
  0
LINE
  5
27A
  8
__
  6
CONTINUOUS
 62
     7
 10
-837.844555
 20
-801.5
 30
0.0
 11
-834.5825609999999
 21
-801.5
 31
0.0
  0
LINE
  5
27B
  8
__
  6
CONTINUOUS
 62
     7
 10
-848.602835
 20
-801.5
 30
0.0
 11
-842.6106917821506
 21
-801.5000137593588
 31
0.0
  0
LINE
  5
27C
  8
__
  6
CONTINUOUS
 62
     7
 10
-845.748603
 20
-803.0996319999999
 30
0.0
 11
-844.211701
 21
-803.0996319999999
 31
0.0
  0
ARC
  5
27D
  8
__
  6
CONTINUOUS
 62
     7
 10
-844.1935527135745
 20
-813.9190814670021
 30
0.0
 40
2.981324770748778
 50
269.6512199376178
 51
282.8264828068724
  0
ARC
  5
27E
  8
__
  6
CONTINUOUS
 62
     7
 10
-843.8587027533066
 20
-815.1795265290862
 30
0.0
 40
1.678644436278404
 50
281.2331036226577
 51
306.8620088940635
  0
ARC
  5
27F
  8
__
  6
CONTINUOUS
 62
     7
 10
-843.1826716819255
 20
-810.9950678768498
 30
0.0
 40
0.5419312951914366
 50
5.732980710613018
 51
52.35809750242434
  0
ARC
  5
280
  8
__
  6
CONTINUOUS
 62
     7
 10
-844.1935527135745
 20
-813.1694425329979
 30
0.0
 40
2.981324770748992
 50
77.17351719312761
 51
90.34878006238218
  0
ARC
  5
281
  8
__
  6
CONTINUOUS
 62
     7
 10
-843.8587027533066
 20
-811.9089974709138
 30
0.0
 40
1.67864443627828
 50
53.13799110593644
 51
78.76689637734381
  0
ARC
  5
282
  8
__
  6
CONTINUOUS
 62
     7
 10
-841.277433
 20
-811.3657969999999
 30
0.0
 40
1.648809878653339
 50
3.867006359820255
 51
88.3616345678977
  0
ARC
  5
283
  8
__
  6
CONTINUOUS
 62
     7
 10
-841.278946
 20
-808.067933
 30
0.0
 40
1.650448297910653
 50
271.6892821046506
 51
356.0782829826558
  0
ARC
  5
284
  8
__
  6
CONTINUOUS
 62
     7
 10
-843.1826716819255
 20
-807.7502981231501
 30
0.0
 40
0.5419312951913328
 50
307.6419024975662
 51
354.2670192894109
  0
ARC
  5
285
  8
__
  6
CONTINUOUS
 62
     7
 10
-844.1935527135745
 20
-805.5759234670022
 30
0.0
 40
2.981324770748778
 50
269.6512199376178
 51
282.8264828068734
  0
ARC
  5
286
  8
__
  6
CONTINUOUS
 62
     7
 10
-843.8587027533066
 20
-806.836368529086
 30
0.0
 40
1.678644436278404
 50
281.2331036226577
 51
306.8620088940589
  0
ARC
  5
287
  8
__
  6
CONTINUOUS
 62
     7
 10
-843.1826716819255
 20
-803.90652687685
 30
0.0
 40
0.5419312951914366
 50
5.732980710613018
 51
52.35809750243385
  0
ARC
  5
288
  8
__
  6
CONTINUOUS
 62
     7
 10
-844.1935527135745
 20
-806.0809015329978
 30
0.0
 40
2.981324770749214
 50
77.17351719312859
 51
90.34878006238218
  0
ARC
  5
289
  8
__
  6
CONTINUOUS
 62
     7
 10
-843.8587027533066
 20
-804.8204564709138
 30
0.0
 40
1.678644436278462
 50
53.1379911059411
 51
78.76689637734381
  0
ARC
  5
28A
  8
__
  6
CONTINUOUS
 62
     7
 10
-1040.500000000023
 20
-511.0592886329077
 30
0.0
 40
0.1892886329077032
 50
359.0566788815885
 51
180.9433209280187
  0
ARC
  5
28B
  8
__
  6
CONTINUOUS
 62
     7
 10
-1041.363184193107
 20
-511.0049211212859
 30
0.0
 40
0.6763683861877037
 50
244.8753886700349
 51
355.124611351884
  0
ARC
  5
28C
  8
__
  6
CONTINUOUS
 62
     7
 10
-1041.747692643428
 20
-511.7796443164852
 30
0.0
 40
0.189288632907681
 50
59.05667888157139
 51
240.9433209280191
  0
ARC
  5
28D
  8
__
  6
CONTINUOUS
 62
     7
 10
-1042.226368386175
 20
-512.50000000003
 30
0.0
 40
0.6763683861879403
 50
304.875388670037
 51
55.1246113518757
  0
ARC
  5
28E
  8
__
  6
CONTINUOUS
 62
     7
 10
-1040.500000000023
 20
-513.9407113670923
 30
0.0
 40
0.1892886329078069
 50
179.0566790719813
 51
0.9433211184115464
  0
ARC
  5
28F
  8
__
  6
CONTINUOUS
 62
     7
 10
-1041.363184193107
 20
-513.9950788787141
 30
0.0
 40
0.6763683861879238
 50
4.875388648116016
 51
115.1246113299651
  0
ARC
  5
290
  8
__
  6
CONTINUOUS
 62
     7
 10
-1041.747692643428
 20
-513.2203556835148
 30
0.0
 40
0.1892886329075335
 50
119.0566790719809
 51
300.9433211184286
  0
ARC
  5
291
  8
__
  6
CONTINUOUS
 62
     7
 10
-1039.636815806939
 20
-511.0049211212859
 30
0.0
 40
0.6763683861879238
 50
184.875388648116
 51
295.1246113299825
  0
ARC
  5
292
  8
__
  6
CONTINUOUS
 62
     7
 10
-1039.252307356618
 20
-511.7796443164852
 30
0.0
 40
0.1892886329076439
 50
299.056679072041
 51
120.9433211183696
  0
ARC
  5
293
  8
__
  6
CONTINUOUS
 62
     7
 10
-1038.773631613871
 20
-512.50000000003
 30
0.0
 40
0.6763683861879456
 50
124.8753886481085
 51
235.124611329963
  0
ARC
  5
294
  8
__
  6
CONTINUOUS
 62
     7
 10
-1039.636815806939
 20
-513.9950788787141
 30
0.0
 40
0.6763683861878003
 50
64.8753886700175
 51
175.124611351884
  0
ARC
  5
295
  8
__
  6
CONTINUOUS
 62
     7
 10
-1039.252307356618
 20
-513.2203556835148
 30
0.0
 40
0.1892886329075641
 50
239.0566788816305
 51
60.94332092795898
  0
CIRCLE
  5
296
  8
__
  6
CONTINUOUS
 62
     7
 10
-1040.5
 20
-512.5
 30
0.0
 40
4.0
  0
ARC
  5
297
  8
__
  6
CONTINUOUS
 62
     7
 10
-1040.500000000023
 20
-1086.059288632908
 30
0.0
 40
0.1892886329077032
 50
359.0566788815885
 51
180.9433209280187
  0
ARC
  5
298
  8
__
  6
CONTINUOUS
 62
     7
 10
-1041.363184193107
 20
-1086.004921121286
 30
0.0
 40
0.6763683861877037
 50
244.8753886700349
 51
355.124611351884
  0
ARC
  5
299
  8
__
  6
CONTINUOUS
 62
     7
 10
-1041.747692643428
 20
-1086.779644316485
 30
0.0
 40
0.189288632907681
 50
59.05667888157139
 51
240.9433209280191
  0
ARC
  5
29A
  8
__
  6
CONTINUOUS
 62
     7
 10
-1042.226368386175
 20
-1087.50000000003
 30
0.0
 40
0.6763683861879403
 50
304.875388670037
 51
55.1246113518757
  0
ARC
  5
29B
  8
__
  6
CONTINUOUS
 62
     7
 10
-1040.500000000023
 20
-1088.940711367092
 30
0.0
 40
0.1892886329078069
 50
179.0566790719813
 51
0.9433211184115464
  0
ARC
  5
29C
  8
__
  6
CONTINUOUS
 62
     7
 10
-1041.363184193107
 20
-1088.995078878714
 30
0.0
 40
0.6763683861879238
 50
4.875388648116016
 51
115.1246113299651
  0
ARC
  5
29D
  8
__
  6
CONTINUOUS
 62
     7
 10
-1041.747692643428
 20
-1088.220355683515
 30
0.0
 40
0.1892886329075335
 50
119.0566790719809
 51
300.9433211184286
  0
ARC
  5
29E
  8
__
  6
CONTINUOUS
 62
     7
 10
-1039.636815806939
 20
-1086.004921121286
 30
0.0
 40
0.6763683861879238
 50
184.875388648116
 51
295.1246113299825
  0
ARC
  5
29F
  8
__
  6
CONTINUOUS
 62
     7
 10
-1039.252307356618
 20
-1086.779644316485
 30
0.0
 40
0.1892886329076439
 50
299.056679072041
 51
120.9433211183696
  0
ARC
  5
2A0
  8
__
  6
CONTINUOUS
 62
     7
 10
-1038.773631613871
 20
-1087.50000000003
 30
0.0
 40
0.6763683861879456
 50
124.8753886481085
 51
235.124611329963
  0
ARC
  5
2A1
  8
__
  6
CONTINUOUS
 62
     7
 10
-1039.636815806939
 20
-1088.995078878714
 30
0.0
 40
0.6763683861878003
 50
64.8753886700175
 51
175.124611351884
  0
ARC
  5
2A2
  8
__
  6
CONTINUOUS
 62
     7
 10
-1039.252307356618
 20
-1088.220355683515
 30
0.0
 40
0.1892886329075641
 50
239.0566788816305
 51
60.94332092795898
  0
CIRCLE
  5
2A3
  8
__
  6
CONTINUOUS
 62
     7
 10
-1040.5
 20
-1087.5
 30
0.0
 40
4.0
  0
ARC
  5
2A4
  8
__
  6
CONTINUOUS
 62
     7
 10
-1040.500000000023
 20
-942.3092886329077
 30
0.0
 40
0.1892886329077032
 50
359.0566788815885
 51
180.9433209280187
  0
ARC
  5
2A5
  8
__
  6
CONTINUOUS
 62
     7
 10
-1041.363184193107
 20
-942.2549211212859
 30
0.0
 40
0.6763683861877037
 50
244.8753886700349
 51
355.124611351884
  0
ARC
  5
2A6
  8
__
  6
CONTINUOUS
 62
     7
 10
-1041.747692643428
 20
-943.0296443164852
 30
0.0
 40
0.189288632907681
 50
59.05667888157139
 51
240.9433209280191
  0
ARC
  5
2A7
  8
__
  6
CONTINUOUS
 62
     7
 10
-1042.226368386175
 20
-943.75000000003
 30
0.0
 40
0.6763683861879403
 50
304.875388670037
 51
55.1246113518757
  0
ARC
  5
2A8
  8
__
  6
CONTINUOUS
 62
     7
 10
-1040.500000000023
 20
-945.1907113670923
 30
0.0
 40
0.1892886329078069
 50
179.0566790719813
 51
0.9433211184115464
  0
ARC
  5
2A9
  8
__
  6
CONTINUOUS
 62
     7
 10
-1041.363184193107
 20
-945.2450788787141
 30
0.0
 40
0.6763683861879238
 50
4.875388648116016
 51
115.1246113299651
  0
ARC
  5
2AA
  8
__
  6
CONTINUOUS
 62
     7
 10
-1041.747692643428
 20
-944.4703556835148
 30
0.0
 40
0.1892886329075335
 50
119.0566790719809
 51
300.9433211184286
  0
ARC
  5
2AB
  8
__
  6
CONTINUOUS
 62
     7
 10
-1039.636815806939
 20
-942.2549211212859
 30
0.0
 40
0.6763683861879238
 50
184.875388648116
 51
295.1246113299825
  0
ARC
  5
2AC
  8
__
  6
CONTINUOUS
 62
     7
 10
-1039.252307356618
 20
-943.0296443164852
 30
0.0
 40
0.1892886329076439
 50
299.056679072041
 51
120.9433211183696
  0
ARC
  5
2AD
  8
__
  6
CONTINUOUS
 62
     7
 10
-1038.773631613871
 20
-943.75000000003
 30
0.0
 40
0.6763683861879456
 50
124.8753886481085
 51
235.124611329963
  0
ARC
  5
2AE
  8
__
  6
CONTINUOUS
 62
     7
 10
-1039.636815806939
 20
-945.2450788787141
 30
0.0
 40
0.6763683861878003
 50
64.8753886700175
 51
175.124611351884
  0
ARC
  5
2AF
  8
__
  6
CONTINUOUS
 62
     7
 10
-1039.252307356618
 20
-944.4703556835148
 30
0.0
 40
0.1892886329075641
 50
239.0566788816305
 51
60.94332092795898
  0
CIRCLE
  5
2B0
  8
__
  6
CONTINUOUS
 62
     7
 10
-1040.5
 20
-943.75
 30
0.0
 40
4.0
  0
ARC
  5
2B1
  8
__
  6
CONTINUOUS
 62
     7
 10
-1040.500000000023
 20
-798.5592886329077
 30
0.0
 40
0.1892886329077032
 50
359.0566788815885
 51
180.9433209280187
  0
ARC
  5
2B2
  8
__
  6
CONTINUOUS
 62
     7
 10
-1041.363184193107
 20
-798.5049211212859
 30
0.0
 40
0.6763683861877037
 50
244.8753886700349
 51
355.124611351884
  0
ARC
  5
2B3
  8
__
  6
CONTINUOUS
 62
     7
 10
-1041.747692643428
 20
-799.2796443164852
 30
0.0
 40
0.189288632907681
 50
59.05667888157139
 51
240.9433209280191
  0
ARC
  5
2B4
  8
__
  6
CONTINUOUS
 62
     7
 10
-1042.226368386175
 20
-800.00000000003
 30
0.0
 40
0.6763683861879403
 50
304.875388670037
 51
55.1246113518757
  0
ARC
  5
2B5
  8
__
  6
CONTINUOUS
 62
     7
 10
-1040.500000000023
 20
-801.4407113670923
 30
0.0
 40
0.1892886329078069
 50
179.0566790719813
 51
0.9433211184115464
  0
ARC
  5
2B6
  8
__
  6
CONTINUOUS
 62
     7
 10
-1041.363184193107
 20
-801.4950788787141
 30
0.0
 40
0.6763683861879238
 50
4.875388648116016
 51
115.1246113299651
  0
ARC
  5
2B7
  8
__
  6
CONTINUOUS
 62
     7
 10
-1041.747692643428
 20
-800.7203556835148
 30
0.0
 40
0.1892886329075335
 50
119.0566790719809
 51
300.9433211184286
  0
ARC
  5
2B8
  8
__
  6
CONTINUOUS
 62
     7
 10
-1039.636815806939
 20
-798.5049211212859
 30
0.0
 40
0.6763683861879238
 50
184.875388648116
 51
295.1246113299825
  0
ARC
  5
2B9
  8
__
  6
CONTINUOUS
 62
     7
 10
-1039.252307356618
 20
-799.2796443164852
 30
0.0
 40
0.1892886329076439
 50
299.056679072041
 51
120.9433211183696
  0
ARC
  5
2BA
  8
__
  6
CONTINUOUS
 62
     7
 10
-1038.773631613871
 20
-800.00000000003
 30
0.0
 40
0.6763683861879456
 50
124.8753886481085
 51
235.124611329963
  0
ARC
  5
2BB
  8
__
  6
CONTINUOUS
 62
     7
 10
-1039.636815806939
 20
-801.4950788787141
 30
0.0
 40
0.6763683861878003
 50
64.8753886700175
 51
175.124611351884
  0
ARC
  5
2BC
  8
__
  6
CONTINUOUS
 62
     7
 10
-1039.252307356618
 20
-800.7203556835148
 30
0.0
 40
0.1892886329075641
 50
239.0566788816305
 51
60.94332092795898
  0
CIRCLE
  5
2BD
  8
__
  6
CONTINUOUS
 62
     7
 10
-1040.5
 20
-800.0
 30
0.0
 40
4.0
  0
ARC
  5
2BE
  8
__
  6
CONTINUOUS
 62
     7
 10
-1040.500000000023
 20
-654.8092886329077
 30
0.0
 40
0.1892886329077032
 50
359.0566788815885
 51
180.9433209280187
  0
ARC
  5
2BF
  8
__
  6
CONTINUOUS
 62
     7
 10
-1041.363184193107
 20
-654.7549211212859
 30
0.0
 40
0.6763683861877037
 50
244.8753886700349
 51
355.124611351884
  0
ARC
  5
2C0
  8
__
  6
CONTINUOUS
 62
     7
 10
-1041.747692643428
 20
-655.5296443164852
 30
0.0
 40
0.189288632907681
 50
59.05667888157139
 51
240.9433209280191
  0
ARC
  5
2C1
  8
__
  6
CONTINUOUS
 62
     7
 10
-1042.226368386175
 20
-656.25000000003
 30
0.0
 40
0.6763683861879403
 50
304.875388670037
 51
55.1246113518757
  0
ARC
  5
2C2
  8
__
  6
CONTINUOUS
 62
     7
 10
-1040.500000000023
 20
-657.6907113670923
 30
0.0
 40
0.1892886329078069
 50
179.0566790719813
 51
0.9433211184115464
  0
ARC
  5
2C3
  8
__
  6
CONTINUOUS
 62
     7
 10
-1041.363184193107
 20
-657.7450788787141
 30
0.0
 40
0.6763683861879238
 50
4.875388648116016
 51
115.1246113299651
  0
ARC
  5
2C4
  8
__
  6
CONTINUOUS
 62
     7
 10
-1041.747692643428
 20
-656.9703556835148
 30
0.0
 40
0.1892886329075335
 50
119.0566790719809
 51
300.9433211184286
  0
ARC
  5
2C5
  8
__
  6
CONTINUOUS
 62
     7
 10
-1039.636815806939
 20
-654.7549211212859
 30
0.0
 40
0.6763683861879238
 50
184.875388648116
 51
295.1246113299825
  0
ARC
  5
2C6
  8
__
  6
CONTINUOUS
 62
     7
 10
-1039.252307356618
 20
-655.5296443164852
 30
0.0
 40
0.1892886329076439
 50
299.056679072041
 51
120.9433211183696
  0
ARC
  5
2C7
  8
__
  6
CONTINUOUS
 62
     7
 10
-1038.773631613871
 20
-656.25000000003
 30
0.0
 40
0.6763683861879456
 50
124.8753886481085
 51
235.124611329963
  0
ARC
  5
2C8
  8
__
  6
CONTINUOUS
 62
     7
 10
-1039.636815806939
 20
-657.7450788787141
 30
0.0
 40
0.6763683861878003
 50
64.8753886700175
 51
175.124611351884
  0
ARC
  5
2C9
  8
__
  6
CONTINUOUS
 62
     7
 10
-1039.252307356618
 20
-656.9703556835148
 30
0.0
 40
0.1892886329075641
 50
239.0566788816305
 51
60.94332092795898
  0
CIRCLE
  5
2CA
  8
__
  6
CONTINUOUS
 62
     7
 10
-1040.5
 20
-656.25
 30
0.0
 40
4.0
  0
ARC
  5
2CB
  8
__
  6
CONTINUOUS
 62
     7
 10
-1162.5
 20
-473.5
 30
0.0
 40
15.0
 50
90.0
 51
180.0
  0
ARC
  5
2CC
  8
__
  6
CONTINUOUS
 62
     7
 10
-537.5
 20
-473.5
 30
0.0
 40
15.0
 50
0.0
 51
90.0
  0
ARC
  5
2CD
  8
__
  6
CONTINUOUS
 62
     7
 10
-537.5
 20
-1126.5
 30
0.0
 40
15.0
 50
270.0
 51
0.0
  0
ARC
  5
2CE
  8
__
  6
CONTINUOUS
 62
     7
 10
-1162.5
 20
-1126.5
 30
0.0
 40
15.0
 50
180.0
 51
270.0
  0
LINE
  5
2CF
  8
__
  6
CONTINUOUS
 62
     7
 10
-1040.933972521832
 20
-1146.5
 30
0.0
 11
-1086.250000000001
 21
-1146.5
 31
0.0
  0
CIRCLE
  5
2D0
  8
__
  6
CONTINUOUS
 62
     7
 10
-1851.934432914961
 20
-1423.581226483479
 30
0.0
 40
5.0
  0
ARC
  5
2D1
  8
__
  6
CONTINUOUS
 62
     7
 10
-1851.934432914961
 20
-1421.635871464524
 30
0.0
 40
0.2546449810458838
 50
356.8251528744232
 51
183.1748471255741
  0
ARC
  5
2D2
  8
__
  6
CONTINUOUS
 62
     7
 10
-1853.120581151906
 20
-1421.526757471668
 30
0.0
 40
0.9400048073215956
 50
247.5320803524645
 51
352.4679196225415
  0
ARC
  5
2D3
  8
__
  6
CONTINUOUS
 62
     7
 10
-1853.619159780755
 20
-1422.608548974001
 30
0.0
 40
0.2546449810458529
 50
56.82515287443024
 51
243.1748471255673
  0
ARC
  5
2D4
  8
__
  6
CONTINUOUS
 62
     7
 10
-1854.306729388949
 20
-1423.581226483421
 30
0.0
 40
0.9400048073214778
 50
307.5320803524742
 51
52.46791962253923
  0
ARC
  5
2D5
  8
__
  6
CONTINUOUS
 62
     7
 10
-1851.934432914961
 20
-1425.526581502433
 30
0.0
 40
0.2546449810458838
 50
176.8251528744231
 51
3.17484712557976
  0
ARC
  5
2D6
  8
__
  6
CONTINUOUS
 62
     7
 10
-1853.120581151906
 20
-1425.635695495289
 30
0.0
 40
0.9400048073215113
 50
7.532080377458499
 51
112.4679196475355
  0
ARC
  5
2D7
  8
__
  6
CONTINUOUS
 62
     7
 10
-1853.619159780755
 20
-1424.553903992956
 30
0.0
 40
0.2546449810457934
 50
116.825152874387
 51
303.1748471255698
  0
ARC
  5
2D8
  8
__
  6
CONTINUOUS
 62
     7
 10
-1850.748284678017
 20
-1421.526757471668
 30
0.0
 40
0.9400048073215113
 50
187.5320803774585
 51
292.4679196475355
  0
ARC
  5
2D9
  8
__
  6
CONTINUOUS
 62
     7
 10
-1850.249706049167
 20
-1422.608548974001
 30
0.0
 40
0.2546449810457934
 50
296.825152874387
 51
123.1748471256125
  0
ARC
  5
2DA
  8
__
  6
CONTINUOUS
 62
     7
 10
-1849.562136440973
 20
-1423.581226483421
 30
0.0
 40
0.9400048073215771
 50
127.5320803774608
 51
232.4679196475259
  0
ARC
  5
2DB
  8
__
  6
CONTINUOUS
 62
     7
 10
-1850.748284678017
 20
-1425.635695495289
 30
0.0
 40
0.9400048073215956
 50
67.53208035246453
 51
172.4679196225415
  0
ARC
  5
2DC
  8
__
  6
CONTINUOUS
 62
     7
 10
-1850.249706049167
 20
-1424.553903992956
 30
0.0
 40
0.2546449810459773
 50
236.8251528743874
 51
63.17484712561296
  0
CIRCLE
  5
2DD
  8
__
  6
CONTINUOUS
 62
     7
 10
-1851.934432914961
 20
-1423.581226483479
 30
0.0
 40
4.5
  0
CIRCLE
  5
2DE
  8
__
  6
CONTINUOUS
 62
     7
 10
-1823.900629840855
 20
-1449.234800994689
 30
0.0
 40
5.0
  0
ARC
  5
2DF
  8
__
  6
CONTINUOUS
 62
     7
 10
-1823.900629840855
 20
-1447.289445975735
 30
0.0
 40
0.2546449810458838
 50
356.8251528744232
 51
183.1748471255741
  0
ARC
  5
2E0
  8
__
  6
CONTINUOUS
 62
     7
 10
-1825.086778077799
 20
-1447.180331982878
 30
0.0
 40
0.9400048073215956
 50
247.5320803524645
 51
352.4679196225415
  0
ARC
  5
2E1
  8
__
  6
CONTINUOUS
 62
     7
 10
-1825.585356706649
 20
-1448.262123485212
 30
0.0
 40
0.2546449810458529
 50
56.82515287443024
 51
243.1748471255673
  0
ARC
  5
2E2
  8
__
  6
CONTINUOUS
 62
     7
 10
-1826.272926314843
 20
-1449.234800994632
 30
0.0
 40
0.9400048073214778
 50
307.5320803524742
 51
52.46791962253923
  0
ARC
  5
2E3
  8
__
  6
CONTINUOUS
 62
     7
 10
-1823.900629840855
 20
-1451.180156013643
 30
0.0
 40
0.2546449810458838
 50
176.8251528744231
 51
3.17484712557976
  0
ARC
  5
2E4
  8
__
  6
CONTINUOUS
 62
     7
 10
-1825.086778077799
 20
-1451.2892700065
 30
0.0
 40
0.9400048073215113
 50
7.532080377458499
 51
112.4679196475355
  0
ARC
  5
2E5
  8
__
  6
CONTINUOUS
 62
     7
 10
-1825.585356706649
 20
-1450.207478504166
 30
0.0
 40
0.2546449810457934
 50
116.825152874387
 51
303.1748471255698
  0
ARC
  5
2E6
  8
__
  6
CONTINUOUS
 62
     7
 10
-1822.714481603911
 20
-1447.180331982878
 30
0.0
 40
0.9400048073215113
 50
187.5320803774585
 51
292.4679196475355
  0
ARC
  5
2E7
  8
__
  6
CONTINUOUS
 62
     7
 10
-1822.215902975061
 20
-1448.262123485212
 30
0.0
 40
0.2546449810457934
 50
296.825152874387
 51
123.1748471256125
  0
ARC
  5
2E8
  8
__
  6
CONTINUOUS
 62
     7
 10
-1821.528333366867
 20
-1449.234800994632
 30
0.0
 40
0.9400048073215771
 50
127.5320803774608
 51
232.4679196475259
  0
ARC
  5
2E9
  8
__
  6
CONTINUOUS
 62
     7
 10
-1822.714481603911
 20
-1451.2892700065
 30
0.0
 40
0.9400048073215956
 50
67.53208035246453
 51
172.4679196225415
  0
ARC
  5
2EA
  8
__
  6
CONTINUOUS
 62
     7
 10
-1822.215902975061
 20
-1450.207478504166
 30
0.0
 40
0.2546449810459773
 50
236.8251528743874
 51
63.17484712561296
  0
CIRCLE
  5
2EB
  8
__
  6
CONTINUOUS
 62
     7
 10
-1823.900629840855
 20
-1449.234800994689
 30
0.0
 40
4.5
  0
ARC
  5
2EC
  8
__
  6
CONTINUOUS
 62
     7
 10
-1851.75
 20
-1423.75
 30
0.0
 40
10.00000000000012
 50
47.53854459839923
 51
227.5385445983993
  0
ARC
  5
2ED
  8
__
  6
CONTINUOUS
 62
     7
 10
-1824.085062755816
 20
-1449.066027478168
 30
0.0
 40
9.999999999999956
 50
227.5385445983983
 51
47.53854459839835
  0
LINE
  5
2EE
  8
__
  6
CONTINUOUS
 62
     7
 10
-1844.999059339155
 20
-1416.37268340155
 30
0.0
 11
-1817.334122094971
 21
-1441.688710879719
 31
0.0
  0
LINE
  5
2EF
  8
__
  6
CONTINUOUS
 62
     7
 10
-1830.836003416661
 20
-1456.443344076617
 30
0.0
 11
-1858.500940660845
 21
-1431.127316598449
 31
0.0
  0
LINE
  5
2F0
  8
__
  6
CONTINUOUS
 62
     7
 10
-1339.811324173944
 20
-1432.971645748061
 30
0.0
 11
-1367.476261418128
 21
-1458.287673226229
 31
0.0
  0
LINE
  5
2F1
  8
__
  6
CONTINUOUS
 62
     7
 10
-1384.35361307024
 20
-1439.844381730107
 30
0.0
 11
-1356.688675826056
 21
-1414.528354251938
 31
0.0
  0
ARC
  5
2F2
  8
__
  6
CONTINUOUS
 62
     7
 10
-1375.914937244184
 20
-1449.066027478168
 30
0.0
 40
12.49999999999991
 50
132.4614554016007
 51
312.4614554016015
  0
ARC
  5
2F3
  8
__
  6
CONTINUOUS
 62
     7
 10
-1348.25
 20
-1423.75
 30
0.0
 40
12.50000000000007
 50
312.4614554016015
 51
132.4614554016007
  0
CIRCLE
  5
2F4
  8
__
  6
CONTINUOUS
 62
     7
 10
-1348.065567085039
 20
-1423.581226483479
 30
0.0
 40
5.0
  0
ARC
  5
2F5
  8
__
  6
CONTINUOUS
 62
     7
 10
-1348.065567085039
 20
-1421.635871464524
 30
0.0
 40
0.2546449810461108
 50
356.8251528744259
 51
183.174847125577
  0
ARC
  5
2F6
  8
__
  6
CONTINUOUS
 62
     7
 10
-1346.879418848094
 20
-1421.526757471668
 30
0.0
 40
0.9400048073215113
 50
187.5320803774585
 51
292.4679196475355
  0
ARC
  5
2F7
  8
__
  6
CONTINUOUS
 62
     7
 10
-1346.380840219245
 20
-1422.608548974001
 30
0.0
 40
0.2546449810458959
 50
296.8251528744327
 51
123.1748471255697
  0
ARC
  5
2F8
  8
__
  6
CONTINUOUS
 62
     7
 10
-1345.693270611051
 20
-1423.581226483421
 30
0.0
 40
0.9400048073215771
 50
127.5320803774608
 51
232.4679196475259
  0
ARC
  5
2F9
  8
__
  6
CONTINUOUS
 62
     7
 10
-1348.065567085039
 20
-1425.526581502433
 30
0.0
 40
0.2546449810456567
 50
176.8251528744202
 51
3.174847125576945
  0
ARC
  5
2FA
  8
__
  6
CONTINUOUS
 62
     7
 10
-1346.879418848094
 20
-1425.635695495289
 30
0.0
 40
0.9400048073215956
 50
67.53208035246453
 51
172.4679196225415
  0
ARC
  5
2FB
  8
__
  6
CONTINUOUS
 62
     7
 10
-1346.380840219245
 20
-1424.553903992956
 30
0.0
 40
0.2546449810458529
 50
236.8251528744302
 51
63.17484712561298
  0
ARC
  5
2FC
  8
__
  6
CONTINUOUS
 62
     7
 10
-1349.251715321983
 20
-1421.526757471668
 30
0.0
 40
0.9400048073215956
 50
247.5320803524645
 51
352.4679196225415
  0
ARC
  5
2FD
  8
__
  6
CONTINUOUS
 62
     7
 10
-1349.750293950833
 20
-1422.608548974001
 30
0.0
 40
0.2546449810459773
 50
56.82515287438743
 51
243.174847125613
  0
ARC
  5
2FE
  8
__
  6
CONTINUOUS
 62
     7
 10
-1350.437863559027
 20
-1423.581226483421
 30
0.0
 40
0.9400048073214778
 50
307.5320803524742
 51
52.46791962253923
  0
ARC
  5
2FF
  8
__
  6
CONTINUOUS
 62
     7
 10
-1349.251715321983
 20
-1425.635695495289
 30
0.0
 40
0.9400048073215113
 50
7.532080377458499
 51
112.4679196475355
  0
ARC
  5
300
  8
__
  6
CONTINUOUS
 62
     7
 10
-1349.750293950833
 20
-1424.553903992956
 30
0.0
 40
0.2546449810457934
 50
116.825152874387
 51
303.1748471256126
  0
CIRCLE
  5
301
  8
__
  6
CONTINUOUS
 62
     7
 10
-1348.065567085039
 20
-1423.581226483479
 30
0.0
 40
4.5
  0
CIRCLE
  5
302
  8
__
  6
CONTINUOUS
 62
     7
 10
-1376.099370159145
 20
-1449.234800994689
 30
0.0
 40
5.0
  0
ARC
  5
303
  8
__
  6
CONTINUOUS
 62
     7
 10
-1376.099370159145
 20
-1447.289445975735
 30
0.0
 40
0.2546449810461108
 50
356.8251528744259
 51
183.174847125577
  0
ARC
  5
304
  8
__
  6
CONTINUOUS
 62
     7
 10
-1374.913221922201
 20
-1447.180331982878
 30
0.0
 40
0.9400048073215113
 50
187.5320803774585
 51
292.4679196475355
  0
ARC
  5
305
  8
__
  6
CONTINUOUS
 62
     7
 10
-1374.414643293351
 20
-1448.262123485212
 30
0.0
 40
0.2546449810458959
 50
296.8251528744327
 51
123.1748471255697
  0
ARC
  5
306
  8
__
  6
CONTINUOUS
 62
     7
 10
-1373.727073685157
 20
-1449.234800994632
 30
0.0
 40
0.9400048073215771
 50
127.5320803774608
 51
232.4679196475259
  0
ARC
  5
307
  8
__
  6
CONTINUOUS
 62
     7
 10
-1376.099370159145
 20
-1451.180156013643
 30
0.0
 40
0.2546449810456567
 50
176.8251528744202
 51
3.174847125576945
  0
ARC
  5
308
  8
__
  6
CONTINUOUS
 62
     7
 10
-1374.913221922201
 20
-1451.2892700065
 30
0.0
 40
0.9400048073215956
 50
67.53208035246453
 51
172.4679196225415
  0
ARC
  5
309
  8
__
  6
CONTINUOUS
 62
     7
 10
-1374.414643293351
 20
-1450.207478504166
 30
0.0
 40
0.2546449810458529
 50
236.8251528744302
 51
63.17484712561298
  0
ARC
  5
30A
  8
__
  6
CONTINUOUS
 62
     7
 10
-1377.285518396089
 20
-1447.180331982878
 30
0.0
 40
0.9400048073215956
 50
247.5320803524645
 51
352.4679196225415
  0
ARC
  5
30B
  8
__
  6
CONTINUOUS
 62
     7
 10
-1377.784097024939
 20
-1448.262123485212
 30
0.0
 40
0.2546449810459773
 50
56.82515287438743
 51
243.174847125613
  0
ARC
  5
30C
  8
__
  6
CONTINUOUS
 62
     7
 10
-1378.471666633133
 20
-1449.234800994632
 30
0.0
 40
0.9400048073214778
 50
307.5320803524742
 51
52.46791962253923
  0
ARC
  5
30D
  8
__
  6
CONTINUOUS
 62
     7
 10
-1377.285518396089
 20
-1451.2892700065
 30
0.0
 40
0.9400048073215113
 50
7.532080377458499
 51
112.4679196475355
  0
ARC
  5
30E
  8
__
  6
CONTINUOUS
 62
     7
 10
-1377.784097024939
 20
-1450.207478504166
 30
0.0
 40
0.2546449810457934
 50
116.825152874387
 51
303.1748471256126
  0
CIRCLE
  5
30F
  8
__
  6
CONTINUOUS
 62
     7
 10
-1376.099370159145
 20
-1449.234800994689
 30
0.0
 40
4.5
  0
ARC
  5
310
  8
__
  6
CONTINUOUS
 62
     7
 10
-1348.25
 20
-1423.75
 30
0.0
 40
10.00000000000012
 50
312.4614554016007
 51
132.4614554016008
  0
ARC
  5
311
  8
__
  6
CONTINUOUS
 62
     7
 10
-1375.914937244184
 20
-1449.066027478168
 30
0.0
 40
9.999999999999956
 50
132.4614554016017
 51
312.4614554016017
  0
LINE
  5
312
  8
__
  6
CONTINUOUS
 62
     7
 10
-1355.000940660845
 20
-1416.37268340155
 30
0.0
 11
-1382.665877905029
 21
-1441.688710879719
 31
0.0
  0
LINE
  5
313
  8
__
  6
CONTINUOUS
 62
     7
 10
-1369.163996583339
 20
-1456.443344076617
 30
0.0
 11
-1341.499059339155
 21
-1431.127316598449
 31
0.0
  0
LINE
  5
314
  8
__
  6
CONTINUOUS
 62
     7
 10
-1860.188675826057
 20
-1873.02835425194
 30
0.0
 11
-1832.523738581873
 21
-1847.712326773771
 31
0.0
  0
LINE
  5
315
  8
__
  6
CONTINUOUS
 62
     7
 10
-1815.646386929761
 20
-1866.155618269894
 30
0.0
 11
-1843.311324173944
 21
-1891.471645748062
 31
0.0
  0
ARC
  5
316
  8
__
  6
CONTINUOUS
 62
     7
 10
-1824.085062755817
 20
-1856.933972521832
 30
0.0
 40
12.49999999999991
 50
312.4614554016007
 51
132.4614554016015
  0
ARC
  5
317
  8
__
  6
CONTINUOUS
 62
     7
 10
-1851.75
 20
-1882.250000000001
 30
0.0
 40
12.50000000000007
 50
132.4614554016015
 51
312.4614554016007
  0
CIRCLE
  5
318
  8
__
  6
CONTINUOUS
 62
     7
 10
-1851.934432914962
 20
-1882.418773516522
 30
0.0
 40
5.0
  0
ARC
  5
319
  8
__
  6
CONTINUOUS
 62
     7
 10
-1851.934432914962
 20
-1884.364128535476
 30
0.0
 40
0.2546449810461108
 50
176.825152874426
 51
3.174847125576945
  0
ARC
  5
31A
  8
__
  6
CONTINUOUS
 62
     7
 10
-1853.120581151906
 20
-1884.473242528333
 30
0.0
 40
0.9400048073215113
 50
7.532080377458499
 51
112.4679196475355
  0
ARC
  5
31B
  8
__
  6
CONTINUOUS
 62
     7
 10
-1853.619159780756
 20
-1883.391451025999
 30
0.0
 40
0.2546449810458959
 50
116.8251528744327
 51
303.1748471255697
  0
ARC
  5
31C
  8
__
  6
CONTINUOUS
 62
     7
 10
-1854.30672938895
 20
-1882.418773516579
 30
0.0
 40
0.9400048073215771
 50
307.5320803774608
 51
52.46791964752584
  0
ARC
  5
31D
  8
__
  6
CONTINUOUS
 62
     7
 10
-1851.934432914962
 20
-1880.473418497568
 30
0.0
 40
0.2546449810456567
 50
356.8251528744202
 51
183.1748471255769
  0
ARC
  5
31E
  8
__
  6
CONTINUOUS
 62
     7
 10
-1853.120581151906
 20
-1880.364304504711
 30
0.0
 40
0.9400048073215956
 50
247.5320803524645
 51
352.4679196225415
  0
ARC
  5
31F
  8
__
  6
CONTINUOUS
 62
     7
 10
-1853.619159780756
 20
-1881.446096007045
 30
0.0
 40
0.2546449810458529
 50
56.82515287443024
 51
243.174847125613
  0
ARC
  5
320
  8
__
  6
CONTINUOUS
 62
     7
 10
-1850.748284678018
 20
-1884.473242528333
 30
0.0
 40
0.9400048073215956
 50
67.53208035246453
 51
172.4679196225415
  0
ARC
  5
321
  8
__
  6
CONTINUOUS
 62
     7
 10
-1850.249706049168
 20
-1883.391451025999
 30
0.0
 40
0.2546449810459773
 50
236.8251528743874
 51
63.17484712561296
  0
ARC
  5
322
  8
__
  6
CONTINUOUS
 62
     7
 10
-1849.562136440974
 20
-1882.418773516579
 30
0.0
 40
0.9400048073214778
 50
127.5320803524742
 51
232.4679196225392
  0
ARC
  5
323
  8
__
  6
CONTINUOUS
 62
     7
 10
-1850.748284678018
 20
-1880.364304504711
 30
0.0
 40
0.9400048073215113
 50
187.5320803774585
 51
292.4679196475355
  0
ARC
  5
324
  8
__
  6
CONTINUOUS
 62
     7
 10
-1850.249706049168
 20
-1881.446096007045
 30
0.0
 40
0.2546449810457934
 50
296.825152874387
 51
123.1748471256125
  0
CIRCLE
  5
325
  8
__
  6
CONTINUOUS
 62
     7
 10
-1851.934432914962
 20
-1882.418773516522
 30
0.0
 40
4.5
  0
CIRCLE
  5
326
  8
__
  6
CONTINUOUS
 62
     7
 10
-1823.900629840856
 20
-1856.765199005311
 30
0.0
 40
5.0
  0
ARC
  5
327
  8
__
  6
CONTINUOUS
 62
     7
 10
-1823.900629840856
 20
-1858.710554024265
 30
0.0
 40
0.2546449810461108
 50
176.825152874426
 51
3.174847125576945
  0
ARC
  5
328
  8
__
  6
CONTINUOUS
 62
     7
 10
-1825.0867780778
 20
-1858.819668017122
 30
0.0
 40
0.9400048073215113
 50
7.532080377458499
 51
112.4679196475355
  0
ARC
  5
329
  8
__
  6
CONTINUOUS
 62
     7
 10
-1825.585356706649
 20
-1857.737876514788
 30
0.0
 40
0.2546449810458959
 50
116.8251528744327
 51
303.1748471255697
  0
ARC
  5
32A
  8
__
  6
CONTINUOUS
 62
     7
 10
-1826.272926314844
 20
-1856.765199005369
 30
0.0
 40
0.9400048073215771
 50
307.5320803774608
 51
52.46791964752584
  0
ARC
  5
32B
  8
__
  6
CONTINUOUS
 62
     7
 10
-1823.900629840856
 20
-1854.819843986357
 30
0.0
 40
0.2546449810456567
 50
356.8251528744202
 51
183.1748471255769
  0
ARC
  5
32C
  8
__
  6
CONTINUOUS
 62
     7
 10
-1825.0867780778
 20
-1854.7107299935
 30
0.0
 40
0.9400048073215956
 50
247.5320803524645
 51
352.4679196225415
  0
ARC
  5
32D
  8
__
  6
CONTINUOUS
 62
     7
 10
-1825.585356706649
 20
-1855.792521495834
 30
0.0
 40
0.2546449810458529
 50
56.82515287443024
 51
243.174847125613
  0
ARC
  5
32E
  8
__
  6
CONTINUOUS
 62
     7
 10
-1822.714481603912
 20
-1858.819668017122
 30
0.0
 40
0.9400048073215956
 50
67.53208035246453
 51
172.4679196225415
  0
ARC
  5
32F
  8
__
  6
CONTINUOUS
 62
     7
 10
-1822.215902975062
 20
-1857.737876514788
 30
0.0
 40
0.2546449810459773
 50
236.8251528743874
 51
63.17484712561296
  0
ARC
  5
330
  8
__
  6
CONTINUOUS
 62
     7
 10
-1821.528333366867
 20
-1856.765199005369
 30
0.0
 40
0.9400048073214778
 50
127.5320803524742
 51
232.4679196225392
  0
ARC
  5
331
  8
__
  6
CONTINUOUS
 62
     7
 10
-1822.714481603912
 20
-1854.7107299935
 30
0.0
 40
0.9400048073215113
 50
187.5320803774585
 51
292.4679196475355
  0
ARC
  5
332
  8
__
  6
CONTINUOUS
 62
     7
 10
-1822.215902975062
 20
-1855.792521495834
 30
0.0
 40
0.2546449810457934
 50
296.825152874387
 51
123.1748471256125
  0
CIRCLE
  5
333
  8
__
  6
CONTINUOUS
 62
     7
 10
-1823.900629840856
 20
-1856.765199005311
 30
0.0
 40
4.5
  0
ARC
  5
334
  8
__
  6
CONTINUOUS
 62
     7
 10
-1851.75
 20
-1882.250000000001
 30
0.0
 40
10.00000000000012
 50
132.4614554016008
 51
312.4614554016007
  0
ARC
  5
335
  8
__
  6
CONTINUOUS
 62
     7
 10
-1824.085062755817
 20
-1856.933972521832
 30
0.0
 40
9.999999999999956
 50
312.4614554016017
 51
132.4614554016017
  0
LINE
  5
336
  8
__
  6
CONTINUOUS
 62
     7
 10
-1844.999059339156
 20
-1889.62731659845
 30
0.0
 11
-1817.334122094972
 21
-1864.311289120281
 31
0.0
  0
LINE
  5
337
  8
__
  6
CONTINUOUS
 62
     7
 10
-1830.836003416661
 20
-1849.556655923383
 30
0.0
 11
-1858.500940660845
 21
-1874.872683401552
 31
0.0
  0
LINE
  5
338
  8
__
  6
CONTINUOUS
 62
     7
 10
-1339.811324173943
 20
-1873.02835425194
 30
0.0
 11
-1367.476261418127
 21
-1847.712326773771
 31
0.0
  0
LINE
  5
339
  8
__
  6
CONTINUOUS
 62
     7
 10
-1384.353613070239
 20
-1866.155618269894
 30
0.0
 11
-1356.688675826056
 21
-1891.471645748062
 31
0.0
  0
ARC
  5
33A
  8
__
  6
CONTINUOUS
 62
     7
 10
-1375.914937244183
 20
-1856.933972521832
 30
0.0
 40
12.50000000000007
 50
47.53854459839853
 51
227.5385445983993
  0
ARC
  5
33B
  8
__
  6
CONTINUOUS
 62
     7
 10
-1348.25
 20
-1882.250000000001
 30
0.0
 40
12.49999999999991
 50
227.5385445983993
 51
47.53854459839852
  0
CIRCLE
  5
33C
  8
__
  6
CONTINUOUS
 62
     7
 10
-1348.065567085038
 20
-1882.418773516522
 30
0.0
 40
5.0
  0
ARC
  5
33D
  8
__
  6
CONTINUOUS
 62
     7
 10
-1348.065567085038
 20
-1884.364128535476
 30
0.0
 40
0.2546449810458838
 50
176.8251528744231
 51
3.174847125574104
  0
ARC
  5
33E
  8
__
  6
CONTINUOUS
 62
     7
 10
-1346.879418848094
 20
-1884.473242528333
 30
0.0
 40
0.9400048073215956
 50
67.53208035246453
 51
172.4679196225415
  0
ARC
  5
33F
  8
__
  6
CONTINUOUS
 62
     7
 10
-1346.380840219244
 20
-1883.391451025999
 30
0.0
 40
0.2546449810458529
 50
236.8251528744302
 51
63.17484712556731
  0
ARC
  5
340
  8
__
  6
CONTINUOUS
 62
     7
 10
-1345.69327061105
 20
-1882.418773516579
 30
0.0
 40
0.9400048073214778
 50
127.5320803524742
 51
232.4679196225392
  0
ARC
  5
341
  8
__
  6
CONTINUOUS
 62
     7
 10
-1348.065567085038
 20
-1880.473418497568
 30
0.0
 40
0.2546449810458838
 50
356.8251528744232
 51
183.1748471255798
  0
ARC
  5
342
  8
__
  6
CONTINUOUS
 62
     7
 10
-1346.879418848094
 20
-1880.364304504711
 30
0.0
 40
0.9400048073215113
 50
187.5320803774585
 51
292.4679196475355
  0
ARC
  5
343
  8
__
  6
CONTINUOUS
 62
     7
 10
-1346.380840219244
 20
-1881.446096007045
 30
0.0
 40
0.2546449810457934
 50
296.825152874387
 51
123.1748471255698
  0
ARC
  5
344
  8
__
  6
CONTINUOUS
 62
     7
 10
-1349.251715321982
 20
-1884.473242528333
 30
0.0
 40
0.9400048073215113
 50
7.532080377458499
 51
112.4679196475355
  0
ARC
  5
345
  8
__
  6
CONTINUOUS
 62
     7
 10
-1349.750293950832
 20
-1883.391451025999
 30
0.0
 40
0.2546449810457934
 50
116.825152874387
 51
303.1748471256126
  0
ARC
  5
346
  8
__
  6
CONTINUOUS
 62
     7
 10
-1350.437863559026
 20
-1882.418773516579
 30
0.0
 40
0.9400048073215771
 50
307.5320803774608
 51
52.46791964752584
  0
ARC
  5
347
  8
__
  6
CONTINUOUS
 62
     7
 10
-1349.251715321982
 20
-1880.364304504711
 30
0.0
 40
0.9400048073215956
 50
247.5320803524645
 51
352.4679196225415
  0
ARC
  5
348
  8
__
  6
CONTINUOUS
 62
     7
 10
-1349.750293950832
 20
-1881.446096007045
 30
0.0
 40
0.2546449810459773
 50
56.82515287438743
 51
243.174847125613
  0
CIRCLE
  5
349
  8
__
  6
CONTINUOUS
 62
     7
 10
-1348.065567085038
 20
-1882.418773516522
 30
0.0
 40
4.5
  0
CIRCLE
  5
34A
  8
__
  6
CONTINUOUS
 62
     7
 10
-1376.099370159144
 20
-1856.765199005311
 30
0.0
 40
5.0
  0
ARC
  5
34B
  8
__
  6
CONTINUOUS
 62
     7
 10
-1376.099370159144
 20
-1858.710554024265
 30
0.0
 40
0.2546449810458838
 50
176.8251528744231
 51
3.174847125574104
  0
ARC
  5
34C
  8
__
  6
CONTINUOUS
 62
     7
 10
-1374.9132219222
 20
-1858.819668017122
 30
0.0
 40
0.9400048073215956
 50
67.53208035246453
 51
172.4679196225415
  0
ARC
  5
34D
  8
__
  6
CONTINUOUS
 62
     7
 10
-1374.414643293351
 20
-1857.737876514788
 30
0.0
 40
0.2546449810458529
 50
236.8251528744302
 51
63.17484712556731
  0
ARC
  5
34E
  8
__
  6
CONTINUOUS
 62
     7
 10
-1373.727073685156
 20
-1856.765199005369
 30
0.0
 40
0.9400048073214778
 50
127.5320803524742
 51
232.4679196225392
  0
ARC
  5
34F
  8
__
  6
CONTINUOUS
 62
     7
 10
-1376.099370159144
 20
-1854.819843986357
 30
0.0
 40
0.2546449810458838
 50
356.8251528744232
 51
183.1748471255798
  0
ARC
  5
350
  8
__
  6
CONTINUOUS
 62
     7
 10
-1374.9132219222
 20
-1854.7107299935
 30
0.0
 40
0.9400048073215113
 50
187.5320803774585
 51
292.4679196475355
  0
ARC
  5
351
  8
__
  6
CONTINUOUS
 62
     7
 10
-1374.414643293351
 20
-1855.792521495834
 30
0.0
 40
0.2546449810457934
 50
296.825152874387
 51
123.1748471255698
  0
ARC
  5
352
  8
__
  6
CONTINUOUS
 62
     7
 10
-1377.285518396088
 20
-1858.819668017122
 30
0.0
 40
0.9400048073215113
 50
7.532080377458499
 51
112.4679196475355
  0
ARC
  5
353
  8
__
  6
CONTINUOUS
 62
     7
 10
-1377.784097024938
 20
-1857.737876514788
 30
0.0
 40
0.2546449810457934
 50
116.825152874387
 51
303.1748471256126
  0
ARC
  5
354
  8
__
  6
CONTINUOUS
 62
     7
 10
-1378.471666633133
 20
-1856.765199005369
 30
0.0
 40
0.9400048073215771
 50
307.5320803774608
 51
52.46791964752584
  0
ARC
  5
355
  8
__
  6
CONTINUOUS
 62
     7
 10
-1377.285518396088
 20
-1854.7107299935
 30
0.0
 40
0.9400048073215956
 50
247.5320803524645
 51
352.4679196225415
  0
ARC
  5
356
  8
__
  6
CONTINUOUS
 62
     7
 10
-1377.784097024938
 20
-1855.792521495834
 30
0.0
 40
0.2546449810459773
 50
56.82515287438743
 51
243.174847125613
  0
CIRCLE
  5
357
  8
__
  6
CONTINUOUS
 62
     7
 10
-1376.099370159144
 20
-1856.765199005311
 30
0.0
 40
4.5
  0
ARC
  5
358
  8
__
  6
CONTINUOUS
 62
     7
 10
-1348.25
 20
-1882.250000000001
 30
0.0
 40
10.00000000000012
 50
227.5385445983993
 51
47.53854459839923
  0
ARC
  5
359
  8
__
  6
CONTINUOUS
 62
     7
 10
-1375.914937244183
 20
-1856.933972521832
 30
0.0
 40
9.999999999999956
 50
47.53854459839836
 51
227.5385445983983
  0
LINE
  5
35A
  8
__
  6
CONTINUOUS
 62
     7
 10
-1355.000940660844
 20
-1889.62731659845
 30
0.0
 11
-1382.665877905028
 21
-1864.311289120281
 31
0.0
  0
LINE
  5
35B
  8
__
  6
CONTINUOUS
 62
     7
 10
-1369.163996583339
 20
-1849.556655923383
 30
0.0
 11
-1341.499059339155
 21
-1874.872683401552
 31
0.0
  0
LINE
  5
35C
  8
__
  6
CONTINUOUS
 62
     7
 10
-1864.25
 20
-1144.0
 30
0.0
 11
-1861.75
 21
-1146.5
 31
0.0
  0
LINE
  5
35D
  8
__
  6
CONTINUOUS
 62
     7
 10
-1811.585062755817
 20
-1144.0
 30
0.0
 11
-1814.085062755816
 21
-1146.5
 31
0.0
  0
LINE
  5
35E
  8
__
  6
CONTINUOUS
 62
     7
 10
-1864.25
 20
-1144.0
 30
0.0
 11
-1811.585062755817
 21
-1144.0
 31
0.0
  0
LINE
  5
35F
  8
__
  6
CONTINUOUS
 62
     7
 10
-1388.414937244184
 20
-1144.0
 30
0.0
 11
-1388.414937244184
 21
-1141.5
 31
0.0
  0
LINE
  5
360
  8
__
  6
CONTINUOUS
 62
     7
 10
-1335.75
 20
-1144.0
 30
0.0
 11
-1335.75
 21
-1141.5
 31
0.0
  0
LINE
  5
361
  8
__
  6
CONTINUOUS
 62
     7
 10
-1385.914937244184
 20
-1146.5
 30
0.0
 11
-1338.25
 21
-1146.5
 31
0.0
  0
LINE
  5
362
  8
__
  6
CONTINUOUS
 62
     7
 10
-1388.414937244184
 20
-1144.0
 30
0.0
 11
-1385.914937244184
 21
-1146.5
 31
0.0
  0
LINE
  5
363
  8
__
  6
CONTINUOUS
 62
     7
 10
-1335.75
 20
-1144.0
 30
0.0
 11
-1338.25
 21
-1146.5
 31
0.0
  0
LINE
  5
364
  8
__
  6
CONTINUOUS
 62
     7
 10
-1388.414937244184
 20
-1144.0
 30
0.0
 11
-1335.75
 21
-1144.0
 31
0.0
  0
LINE
  5
365
  8
__
  6
CONTINUOUS
 62
     7
 10
-1088.75
 20
-1144.0
 30
0.0
 11
-1088.75
 21
-1141.5
 31
0.0
  0
LINE
  5
366
  8
__
  6
CONTINUOUS
 62
     7
 10
-1088.75
 20
-1144.0
 30
0.0
 11
-1086.250000000001
 21
-1146.5
 31
0.0
  0
LINE
  5
367
  8
__
  6
CONTINUOUS
 62
     7
 10
-1038.433972521832
 20
-1144.0
 30
0.0
 11
-1038.433972521832
 21
-1141.5
 31
0.0
  0
LINE
  5
368
  8
__
  6
CONTINUOUS
 62
     7
 10
-1038.433972521832
 20
-1144.0
 30
0.0
 11
-1040.933972521832
 21
-1146.5
 31
0.0
  0
LINE
  5
369
  8
__
  6
CONTINUOUS
 62
     7
 10
-1088.75
 20
-1144.0
 30
0.0
 11
-1038.433972521832
 21
-1144.0
 31
0.0
  0
LINE
  5
36A
  8
__
  6
CONTINUOUS
 62
     7
 10
-607.7499999999994
 20
-1146.5
 30
0.0
 11
-653.0660274781684
 21
-1146.5
 31
0.0
  0
LINE
  5
36B
  8
__
  6
CONTINUOUS
 62
     7
 10
-655.5660274781682
 20
-1144.0
 30
0.0
 11
-655.5660274781682
 21
-1141.5
 31
0.0
  0
LINE
  5
36C
  8
__
  6
CONTINUOUS
 62
     7
 10
-655.5660274781682
 20
-1144.0
 30
0.0
 11
-653.0660274781684
 21
-1146.5
 31
0.0
  0
LINE
  5
36D
  8
__
  6
CONTINUOUS
 62
     7
 10
-605.2499999999997
 20
-1144.0
 30
0.0
 11
-605.2499999999997
 21
-1141.5
 31
0.0
  0
LINE
  5
36E
  8
__
  6
CONTINUOUS
 62
     7
 10
-605.2499999999997
 20
-1144.0
 30
0.0
 11
-607.7499999999994
 21
-1146.5
 31
0.0
  0
LINE
  5
36F
  8
__
  6
CONTINUOUS
 62
     7
 10
-655.5660274781682
 20
-1144.0
 30
0.0
 11
-605.2499999999997
 21
-1144.0
 31
0.0
  0
LINE
  5
370
  8
__
  6
CONTINUOUS
 62
     7
 10
-364.25
 20
-1144.0
 30
0.0
 11
-364.25
 21
-1141.5
 31
0.0
  0
LINE
  5
371
  8
__
  6
CONTINUOUS
 62
     7
 10
-311.5850627558161
 20
-1144.0
 30
0.0
 11
-311.5850627558161
 21
-1141.5
 31
0.0
  0
LINE
  5
372
  8
__
  6
CONTINUOUS
 62
     7
 10
-361.7500000000002
 20
-1146.5
 30
0.0
 11
-314.0850627558164
 21
-1146.5
 31
0.0
  0
LINE
  5
373
  8
__
  6
CONTINUOUS
 62
     7
 10
-364.25
 20
-1144.0
 30
0.0
 11
-361.7500000000002
 21
-1146.5
 31
0.0
  0
LINE
  5
374
  8
__
  6
CONTINUOUS
 62
     7
 10
-311.5850627558166
 20
-1144.0
 30
0.0
 11
-314.0850627558164
 21
-1146.5
 31
0.0
  0
LINE
  5
375
  8
__
  6
CONTINUOUS
 62
     7
 10
-364.25
 20
-1144.0
 30
0.0
 11
-311.5850627558166
 21
-1144.0
 31
0.0
  0
LINE
  5
376
  8
__
  6
CONTINUOUS
 62
     7
 10
111.5850627558164
 20
-1144.0
 30
0.0
 11
111.5850627558164
 21
-1141.5
 31
0.0
  0
LINE
  5
377
  8
__
  6
CONTINUOUS
 62
     7
 10
164.2500000000002
 20
-1144.0
 30
0.0
 11
164.2500000000002
 21
-1141.5
 31
0.0
  0
LINE
  5
378
  8
__
  6
CONTINUOUS
 62
     7
 10
114.0850627558161
 20
-1146.5
 30
0.0
 11
161.75
 21
-1146.5
 31
0.0
  0
LINE
  5
379
  8
__
  6
CONTINUOUS
 62
     7
 10
111.5850627558164
 20
-1144.0
 30
0.0
 11
114.0850627558161
 21
-1146.5
 31
0.0
  0
LINE
  5
37A
  8
__
  6
CONTINUOUS
 62
     7
 10
164.2499999999998
 20
-1144.0
 30
0.0
 11
161.75
 21
-1146.5
 31
0.0
  0
LINE
  5
37B
  8
__
  6
CONTINUOUS
 62
     7
 10
111.5850627558164
 20
-1144.0
 30
0.0
 11
164.2499999999998
 21
-1144.0
 31
0.0
  0
LINE
  5
37C
  8
__
  6
CONTINUOUS
 62
     7
 10
-1609.0
 20
-1104.5
 30
0.0
 11
-1591.0
 21
-1104.5
 31
0.0
  0
LINE
  5
37D
  8
__
  6
CONTINUOUS
 62
     7
 10
-1609.0
 20
-1099.5
 30
0.0
 11
-1591.0
 21
-1099.5
 31
0.0
  0
ARC
  5
37E
  8
__
  6
CONTINUOUS
 62
     7
 10
-1591.0
 20
-1102.0
 30
0.0
 40
2.5
 50
270.0
 51
90.0
  0
ARC
  5
37F
  8
__
  6
CONTINUOUS
 62
     7
 10
-1609.0
 20
-1102.0
 30
0.0
 40
2.5
 50
90.0
 51
270.0
  0
POLYLINE
  5
380
  8
__
  6
CONTINUOUS
 62
     7
 66
     1
 10
0.0
 20
0.0
 30
0.0
 70
   129
  0
VERTEX
  5
647
  8
__
  6
CONTINUOUS
 62
     7
 10
-1620.0
 20
-976.5
 30
0.0
  0
VERTEX
  5
648
  8
__
  6
CONTINUOUS
 62
     7
 10
-1580.0
 20
-976.5
 30
0.0
  0
VERTEX
  5
649
  8
__
  6
CONTINUOUS
 62
     7
 10
-1580.0
 20
-1016.5
 30
0.0
  0
VERTEX
  5
64A
  8
__
  6
CONTINUOUS
 62
     7
 10
-1620.0
 20
-1016.5
 30
0.0
  0
SEQEND
  5
65C
  8
__
  6
CONTINUOUS
 62
     7
  0
POLYLINE
  5
386
  8
__
  6
CONTINUOUS
 62
     7
 66
     1
 10
0.0
 20
0.0
 30
0.0
 70
   129
  0
VERTEX
  5
64B
  8
__
  6
CONTINUOUS
 62
     7
 10
-1631.0
 20
-966.5
 30
0.0
  0
VERTEX
  5
64C
  8
__
  6
CONTINUOUS
 62
     7
 10
-1569.0
 20
-966.5
 30
0.0
  0
VERTEX
  5
64D
  8
__
  6
CONTINUOUS
 62
     7
 10
-1569.0
 20
-1026.5
 30
0.0
  0
VERTEX
  5
64E
  8
__
  6
CONTINUOUS
 62
     7
 10
-1631.0
 20
-1026.5
 30
0.0
  0
SEQEND
  5
65D
  8
__
  6
CONTINUOUS
 62
     7
  0
LINE
  5
38C
  8
__
  6
CONTINUOUS
 62
     7
 10
-1467.5
 20
-1091.5
 30
0.0
 11
-1732.5
 21
-1091.5
 31
0.0
  0
LINE
  5
38D
  8
__
  6
CONTINUOUS
 62
     7
 10
-1895.0
 20
-1116.0
 30
0.0
 11
-1757.0
 21
-1116.0
 31
0.0
  0
LINE
  5
38E
  8
__
  6
CONTINUOUS
 62
     7
 10
-1443.0
 20
-1116.0
 30
0.0
 11
-1305.0
 21
-1116.0
 31
0.0
  0
LINE
  5
38F
  8
__
  6
CONTINUOUS
 62
     7
 10
-1732.5
 20
-1091.5
 30
0.0
 11
-1757.0
 21
-1116.0
 31
0.0
  0
LINE
  5
390
  8
__
  6
CONTINUOUS
 62
     7
 10
-1467.5
 20
-1091.5
 30
0.0
 11
-1443.0
 21
-1116.0
 31
0.0
  0
LINE
  5
391
  8
__
  6
CONTINUOUS
 62
     7
 10
-1467.5
 20
-508.5
 30
0.0
 11
-1732.5
 21
-508.5
 31
0.0
  0
LINE
  5
392
  8
__
  6
CONTINUOUS
 62
     7
 10
-1895.0
 20
-484.0
 30
0.0
 11
-1757.0
 21
-484.0
 31
0.0
  0
LINE
  5
393
  8
__
  6
CONTINUOUS
 62
     7
 10
-1443.0
 20
-484.0
 30
0.0
 11
-1305.0
 21
-484.0
 31
0.0
  0
LINE
  5
394
  8
__
  6
CONTINUOUS
 62
     7
 10
-1732.5
 20
-508.5
 30
0.0
 11
-1757.0
 21
-484.0
 31
0.0
  0
LINE
  5
395
  8
__
  6
CONTINUOUS
 62
     7
 10
-1467.5
 20
-508.5
 30
0.0
 11
-1443.0
 21
-484.0
 31
0.0
  0
LINE
  5
396
  8
__
  6
CONTINUOUS
 62
     7
 10
678.9896981756488
 20
-1098.313749779184
 30
0.0
 11
678.9896981756488
 21
829.3126513573775
 31
0.0
  0
LINE
  5
397
  8
__
  6
CONTINUOUS
 62
     7
 10
1978.989698175649
 20
733.900720947548
 30
0.0
 11
1978.989698175649
 21
-1193.725680189014
 31
0.0
  0
LINE
  5
398
  8
__
  6
______-7
 62
     7
 10
-1600.0
 20
-2050.0
 30
0.0
 11
-1600.0
 21
-1250.0
 31
0.0
  0
ARC
  5
399
  8
__
  6
CONTINUOUS
 62
     7
 10
-160.0000000000006
 20
-654.9999999999995
 30
0.0
 40
29.99999999999955
 50
89.99999999999888
 51
180.0000000000009
  0
LINE
  5
39A
  8
__
  6
CONTINUOUS
 62
     7
 10
-190.0
 20
-945.0
 30
0.0
 11
-190.0
 21
-655.0
 31
0.0
  0
ARC
  5
39B
  8
__
  6
CONTINUOUS
 62
     7
 10
-159.9999999999998
 20
-944.9999999999998
 30
0.0
 40
30.00000000000017
 50
180.0000000000004
 51
269.9999999999997
  0
LINE
  5
39C
  8
__
  6
CONTINUOUS
 62
     7
 10
-40.0
 20
-975.0
 30
0.0
 11
-160.0
 21
-975.0
 31
0.0
  0
ARC
  5
39D
  8
__
  6
CONTINUOUS
 62
     7
 10
-39.99999999999997
 20
-945.0
 30
0.0
 40
30.0
 50
269.9999999999999
 51
0.0
  0
LINE
  5
39E
  8
__
  6
CONTINUOUS
 62
     7
 10
-10.0
 20
-655.0
 30
0.0
 11
-10.0
 21
-945.0
 31
0.0
  0
ARC
  5
39F
  8
__
  6
CONTINUOUS
 62
     7
 10
-39.99999999999997
 20
-655.0
 30
0.0
 40
29.99999999999997
 50
0.0
 51
90.00000000000006
  0
LINE
  5
3A0
  8
__
  6
CONTINUOUS
 62
     7
 10
-160.0
 20
-625.0
 30
0.0
 11
-40.0
 21
-625.0
 31
0.0
  0
ARC
  5
3A1
  8
__
  6
CONTINUOUS
 62
     7
 10
-117.0000000000001
 20
-747.9154538061712
 30
0.0
 40
2.0
 50
90.0
 51
270.0
  0
ARC
  5
3A2
  8
__
  6
CONTINUOUS
 62
     7
 10
-113.0000000000001
 20
-747.9154538061712
 30
0.0
 40
2.0
 50
270.0
 51
90.0
  0
LINE
  5
3A3
  8
__
  6
CONTINUOUS
 62
     7
 10
-117.0000000000001
 20
-745.9154538061712
 30
0.0
 11
-113.0000000000001
 21
-745.9154538061712
 31
0.0
  0
LINE
  5
3A4
  8
__
  6
CONTINUOUS
 62
     7
 10
-117.0000000000001
 20
-749.9154538061712
 30
0.0
 11
-113.0000000000001
 21
-749.9154538061712
 31
0.0
  0
CIRCLE
  5
3A5
  8
__
  6
CONTINUOUS
 62
     7
 10
-115.0000000000001
 20
-775.0
 30
0.0
 40
11.25
  0
CIRCLE
  5
3A6
  8
__
  6
CONTINUOUS
 62
     7
 10
-114.9955781805275
 20
-813.0000029171297
 30
0.0
 40
11.25
  0
ARC
  5
3A7
  8
__
  6
CONTINUOUS
 62
     7
 10
-115.0000000000001
 20
-775.0
 30
0.0
 40
10.50000000000009
 50
118.4548090000017
 51
61.58102900000164
  0
LINE
  5
3A8
  8
__
  6
CONTINUOUS
 62
     7
 10
-120.3602360000005
 20
-765.1090769999998
 30
0.0
 11
-120.0028870000002
 21
-765.768472
 31
0.0
  0
LINE
  5
3A9
  8
__
  6
CONTINUOUS
 62
     7
 10
-109.6397630000002
 20
-765.1090769999998
 30
0.0
 11
-109.9971120000001
 21
-765.768472
 31
0.0
  0
LINE
  5
3AA
  8
__
  6
CONTINUOUS
 62
     7
 10
-111.9076700000006
 20
-774.0
 30
0.0
 11
-110.5003120000002
 21
-774.0
 31
0.0
  0
LINE
  5
3AB
  8
__
  6
CONTINUOUS
 62
     7
 10
-111.9076700000006
 20
-776.0
 30
0.0
 11
-110.4996870000005
 21
-776.0
 31
0.0
  0
LINE
  5
3AC
  8
__
  6
CONTINUOUS
 62
     7
 10
-115.9990330000001
 20
-778.0926419999998
 30
0.0
 11
-115.998592
 21
-779.5
 31
0.0
  0
LINE
  5
3AD
  8
__
  6
CONTINUOUS
 62
     7
 10
-113.9990330000001
 20
-778.0920159999998
 30
0.0
 11
-113.998592
 21
-779.5
 31
0.0
  0
CIRCLE
  5
3AE
  8
__
  6
CONTINUOUS
 62
     7
 10
-115.0000000000001
 20
-775.0
 30
0.0
 40
8.0
  0
LINE
  5
3AF
  8
__
  6
CONTINUOUS
 62
     7
 10
-118.0923290000001
 20
-774.0
 30
0.0
 11
-119.5003130000005
 21
-774.0
 31
0.0
  0
LINE
  5
3B0
  8
__
  6
CONTINUOUS
 62
     7
 10
-118.0923290000001
 20
-776.0
 30
0.0
 11
-119.4996870000005
 21
-776.0
 31
0.0
  0
ARC
  5
3B1
  8
__
  6
CONTINUOUS
 62
     7
 10
-119.5000000000001
 20
-775.0
 30
0.0
 40
0.9999999999999944
 50
90.01791900001633
 51
270.0179189999903
  0
ARC
  5
3B2
  8
__
  6
CONTINUOUS
 62
     7
 10
-114.998592
 20
-779.5
 30
0.0
 40
1.0
 50
180.0
 51
0.0
  0
ARC
  5
3B3
  8
__
  6
CONTINUOUS
 62
     7
 10
-110.4999990000002
 20
-775.0
 30
0.0
 40
0.9999999999999943
 50
270.0179189999903
 51
90.01791899999027
  0
ARC
  5
3B4
  8
__
  6
CONTINUOUS
 62
     7
 10
-115.0000000000001
 20
-775.0
 30
0.0
 40
3.250000000000547
 50
197.9202129999983
 51
252.097705999996
  0
ARC
  5
3B5
  8
__
  6
CONTINUOUS
 62
     7
 10
-115.0000000000001
 20
-775.0
 30
0.0
 40
3.249999999999936
 50
287.9381319999904
 51
342.0797869999968
  0
ARC
  5
3B6
  8
__
  6
CONTINUOUS
 62
     7
 10
-115.0000000000001
 20
-775.0
 30
0.0
 40
3.249999999999682
 50
17.92021300000318
 51
162.0797870000017
  0
CIRCLE
  5
3B7
  8
__
  6
CONTINUOUS
 62
     7
 10
-119.4955791805278
 20
-813.0000029171297
 30
0.0
 40
0.75
  0
CIRCLE
  5
3B8
  8
__
  6
CONTINUOUS
 62
     7
 10
-114.9941711805278
 20
-817.5000029171297
 30
0.0
 40
0.75
  0
CIRCLE
  5
3B9
  8
__
  6
CONTINUOUS
 62
     7
 10
-110.4955781805275
 20
-813.0000029171297
 30
0.0
 40
0.75
  0
CIRCLE
  5
3BA
  8
__
  6
CONTINUOUS
 62
     7
 10
-114.9955781805275
 20
-813.0000029171297
 30
0.0
 40
8.0
  0
CIRCLE
  5
3BB
  8
__
  6
CONTINUOUS
 62
     7
 10
-124.9025900000002
 20
-765.1036019999999
 30
0.0
 40
1.5
  0
LINE
  5
3BC
  8
__
  6
CONTINUOUS
 62
     7
 10
-125.6099180000002
 20
-764.396716
 30
0.0
 11
-124.1952620000002
 21
-765.810487
 31
0.0
  0
LINE
  5
3BD
  8
__
  6
CONTINUOUS
 62
     7
 10
-124.1957040000003
 20
-764.396274
 30
0.0
 11
-125.6094760000006
 21
-765.8109299999999
 31
0.0
  0
CIRCLE
  5
3BE
  8
__
  6
CONTINUOUS
 62
     7
 10
-124.8981691805275
 20
-803.1036049171294
 30
0.0
 40
1.5
  0
LINE
  5
3BF
  8
__
  6
CONTINUOUS
 62
     7
 10
-125.6054971805275
 20
-802.3967189171294
 30
0.0
 11
-124.1908411805276
 21
-803.8104899171294
 31
0.0
  0
LINE
  5
3C0
  8
__
  6
CONTINUOUS
 62
     7
 10
-124.1912831805276
 20
-802.3962769171294
 30
0.0
 11
-125.6050551805275
 21
-803.8109329171293
 31
0.0
  0
LINE
  5
3C1
  8
__
  6
CONTINUOUS
 62
     7
 10
-104.0548565804028
 20
-784.1895129999998
 30
0.0
 11
-102.6402005804028
 21
-785.6032839999998
 31
0.0
  0
LINE
  5
3C2
  8
__
  6
CONTINUOUS
 62
     7
 10
-102.6406435804028
 20
-784.189071
 30
0.0
 11
-104.0544145804023
 21
-785.6037259999998
 31
0.0
  0
LINE
  5
3C3
  8
__
  6
CONTINUOUS
 62
     7
 10
-104.0548565804028
 20
-784.1895129999998
 30
0.0
 11
-102.6402005804028
 21
-785.6032839999998
 31
0.0
  0
LINE
  5
3C4
  8
__
  6
CONTINUOUS
 62
     7
 10
-102.6406435804028
 20
-784.189071
 30
0.0
 11
-104.0544145804023
 21
-785.6037259999998
 31
0.0
  0
CIRCLE
  5
3C5
  8
__
  6
CONTINUOUS
 62
     7
 10
-103.3431077609301
 20
-822.8964019171294
 30
0.0
 40
1.5
  0
LINE
  5
3C6
  8
__
  6
CONTINUOUS
 62
     7
 10
-104.0504357609296
 20
-822.1895159171295
 30
0.0
 11
-102.6357797609297
 21
-823.6032869171295
 31
0.0
  0
LINE
  5
3C7
  8
__
  6
CONTINUOUS
 62
     7
 10
-102.6362217609302
 20
-822.1890739171295
 30
0.0
 11
-104.0499937609301
 21
-823.6037289171295
 31
0.0
  0
CIRCLE
  5
3C8
  8
__
  6
CONTINUOUS
 62
     7
 10
-103.3431077609301
 20
-822.8964019171294
 30
0.0
 40
1.5
  0
LINE
  5
3C9
  8
__
  6
CONTINUOUS
 62
     7
 10
-104.0504357609296
 20
-822.1895159171295
 30
0.0
 11
-102.6357797609297
 21
-823.6032869171295
 31
0.0
  0
LINE
  5
3CA
  8
__
  6
CONTINUOUS
 62
     7
 10
-102.6362217609302
 20
-822.1890739171295
 30
0.0
 11
-104.0499937609301
 21
-823.6037289171295
 31
0.0
  0
ARC
  5
3CB
  8
__
  6
CONTINUOUS
 62
     7
 10
-87.00442081947318
 20
-747.9071658061712
 30
0.0
 40
2.0
 50
90.0
 51
270.0
  0
ARC
  5
3CC
  8
__
  6
CONTINUOUS
 62
     7
 10
-83.00442081947318
 20
-747.9071658061712
 30
0.0
 40
2.0
 50
270.0
 51
90.0
  0
LINE
  5
3CD
  8
__
  6
CONTINUOUS
 62
     7
 10
-87.00442081947318
 20
-745.9071658061712
 30
0.0
 11
-83.00442081947318
 21
-745.9071658061712
 31
0.0
  0
LINE
  5
3CE
  8
__
  6
CONTINUOUS
 62
     7
 10
-87.00442081947318
 20
-749.9071658061712
 30
0.0
 11
-83.00442081947318
 21
-749.9071658061712
 31
0.0
  0
CIRCLE
  5
3CF
  8
__
  6
CONTINUOUS
 62
     7
 10
-85.00442081947318
 20
-774.991712
 30
0.0
 40
11.25
  0
CIRCLE
  5
3D0
  8
__
  6
CONTINUOUS
 62
     7
 10
-85.00000000000006
 20
-812.9917149171297
 30
0.0
 40
11.25
  0
ARC
  5
3D1
  8
__
  6
CONTINUOUS
 62
     7
 10
-85.00442081947318
 20
-774.991712
 30
0.0
 40
10.49999999999987
 50
118.4548089999995
 51
61.58102899999945
  0
LINE
  5
3D2
  8
__
  6
CONTINUOUS
 62
     7
 10
-90.36465681947271
 20
-765.1007889999998
 30
0.0
 11
-90.00730781947283
 21
-765.760184
 31
0.0
  0
LINE
  5
3D3
  8
__
  6
CONTINUOUS
 62
     7
 10
-79.64418481947274
 20
-765.1007889999998
 30
0.0
 11
-80.00153381947308
 21
-765.760184
 31
0.0
  0
LINE
  5
3D4
  8
__
  6
CONTINUOUS
 62
     7
 10
-81.91209181947312
 20
-773.991712
 30
0.0
 11
-80.5047328194733
 21
-773.991712
 31
0.0
  0
LINE
  5
3D5
  8
__
  6
CONTINUOUS
 62
     7
 10
-81.91209181947312
 20
-775.991712
 30
0.0
 11
-80.50410781947272
 21
-775.991712
 31
0.0
  0
LINE
  5
3D6
  8
__
  6
CONTINUOUS
 62
     7
 10
-86.00345381947324
 20
-778.0843539999998
 30
0.0
 11
-86.00301381947298
 21
-779.491712
 31
0.0
  0
LINE
  5
3D7
  8
__
  6
CONTINUOUS
 62
     7
 10
-84.00345381947324
 20
-778.083729
 30
0.0
 11
-84.00301381947298
 21
-779.491712
 31
0.0
  0
CIRCLE
  5
3D8
  8
__
  6
CONTINUOUS
 62
     7
 10
-85.00442081947318
 20
-774.991712
 30
0.0
 40
8.0
  0
LINE
  5
3D9
  8
__
  6
CONTINUOUS
 62
     7
 10
-88.09674981947325
 20
-773.991712
 30
0.0
 11
-89.50473381947273
 21
-773.991712
 31
0.0
  0
LINE
  5
3DA
  8
__
  6
CONTINUOUS
 62
     7
 10
-88.09674981947325
 20
-775.991712
 30
0.0
 11
-89.50410781947272
 21
-775.991712
 31
0.0
  0
ARC
  5
3DB
  8
__
  6
CONTINUOUS
 62
     7
 10
-89.50442081947318
 20
-774.991712
 30
0.0
 40
0.9999999999999943
 50
90.01791899999027
 51
270.0179190000164
  0
ARC
  5
3DC
  8
__
  6
CONTINUOUS
 62
     7
 10
-85.00301381947298
 20
-779.491712
 30
0.0
 40
1.0
 50
180.0
 51
0.0
  0
ARC
  5
3DD
  8
__
  6
CONTINUOUS
 62
     7
 10
-80.50442081947318
 20
-774.991712
 30
0.0
 40
0.9999999999999944
 50
270.0179190000163
 51
90.01791899999026
  0
ARC
  5
3DE
  8
__
  6
CONTINUOUS
 62
     7
 10
-85.00442081947318
 20
-774.991712
 30
0.0
 40
3.249999999999682
 50
197.9202130000032
 51
252.0977060000036
  0
ARC
  5
3DF
  8
__
  6
CONTINUOUS
 62
     7
 10
-85.00442081947318
 20
-774.991712
 30
0.0
 40
3.250000000000216
 50
287.9381320000057
 51
342.0797870000018
  0
ARC
  5
3E0
  8
__
  6
CONTINUOUS
 62
     7
 10
-85.00442081947318
 20
-774.991712
 30
0.0
 40
3.250000000000547
 50
17.92021299999825
 51
162.0797869999968
  0
CIRCLE
  5
3E1
  8
__
  6
CONTINUOUS
 62
     7
 10
-89.50000000000006
 20
-812.9917149171297
 30
0.0
 40
0.75
  0
CIRCLE
  5
3E2
  8
__
  6
CONTINUOUS
 62
     7
 10
-84.99859200000043
 20
-817.4917149171297
 30
0.0
 40
0.75
  0
CIRCLE
  5
3E3
  8
__
  6
CONTINUOUS
 62
     7
 10
-80.50000000000006
 20
-812.9917149171297
 30
0.0
 40
0.75
  0
LINE
  5
3E4
  8
__
  6
CONTINUOUS
 62
     7
 10
-95.61433881947329
 20
-764.388428
 30
0.0
 11
-94.19968281947337
 21
-765.8021999999999
 31
0.0
  0
LINE
  5
3E5
  8
__
  6
CONTINUOUS
 62
     7
 10
-94.20012581947327
 20
-764.387986
 30
0.0
 11
-95.61389681947281
 21
-765.8026419999999
 31
0.0
  0
CIRCLE
  5
3E6
  8
__
  6
CONTINUOUS
 62
     7
 10
-94.90259000000066
 20
-803.0953169171294
 30
0.0
 40
1.5
  0
LINE
  5
3E7
  8
__
  6
CONTINUOUS
 62
     7
 10
-95.60991800000016
 20
-802.3884309171294
 30
0.0
 11
-94.19526200000024
 21
-803.8022029171293
 31
0.0
  0
LINE
  5
3E8
  8
__
  6
CONTINUOUS
 62
     7
 10
-94.19570500000015
 20
-802.3879889171294
 30
0.0
 11
-95.6094760000006
 21
-803.8026449171293
 31
0.0
  0
LINE
  5
3E9
  8
__
  6
CONTINUOUS
 62
     7
 10
-75.80915781947311
 20
-784.1812249999998
 30
0.0
 11
-74.39450281947308
 21
-785.5949969999999
 31
0.0
  0
LINE
  5
3EA
  8
__
  6
CONTINUOUS
 62
     7
 10
-74.3949448194731
 20
-784.180783
 30
0.0
 11
-75.8087158194731
 21
-785.5954389999999
 31
0.0
  0
LINE
  5
3EB
  8
__
  6
CONTINUOUS
 62
     7
 10
-75.80915781947311
 20
-784.1812249999998
 30
0.0
 11
-74.39450281947308
 21
-785.5949969999999
 31
0.0
  0
LINE
  5
3EC
  8
__
  6
CONTINUOUS
 62
     7
 10
-74.3949448194731
 20
-784.180783
 30
0.0
 11
-75.8087158194731
 21
-785.5954389999999
 31
0.0
  0
CIRCLE
  5
3ED
  8
__
  6
CONTINUOUS
 62
     7
 10
-75.09740900000048
 20
-822.8881139171294
 30
0.0
 40
1.5
  0
LINE
  5
3EE
  8
__
  6
CONTINUOUS
 62
     7
 10
-75.80473700000044
 20
-822.1812279171295
 30
0.0
 11
-74.39008100000052
 21
-823.5949999171294
 31
0.0
  0
LINE
  5
3EF
  8
__
  6
CONTINUOUS
 62
     7
 10
-74.39052400000043
 20
-822.1807859171295
 30
0.0
 11
-75.80429500000042
 21
-823.5954419171294
 31
0.0
  0
CIRCLE
  5
3F0
  8
__
  6
CONTINUOUS
 62
     7
 10
-75.09740900000048
 20
-822.8881139171294
 30
0.0
 40
1.5
  0
LINE
  5
3F1
  8
__
  6
CONTINUOUS
 62
     7
 10
-75.80473700000044
 20
-822.1812279171295
 30
0.0
 11
-74.39008100000052
 21
-823.5949999171294
 31
0.0
  0
LINE
  5
3F2
  8
__
  6
CONTINUOUS
 62
     7
 10
-74.39052400000043
 20
-822.1807859171295
 30
0.0
 11
-75.80429500000042
 21
-823.5954419171294
 31
0.0
  0
CIRCLE
  5
3F3
  8
__
  6
CONTINUOUS
 62
     7
 10
-75.10183081947304
 20
-784.888111
 30
0.0
 40
1.5
  0
CIRCLE
  5
3F4
  8
__
  6
CONTINUOUS
 62
     7
 10
-103.3475285804024
 20
-784.896399
 30
0.0
 40
1.5
  0
CIRCLE
  5
3F5
  8
__
  6
CONTINUOUS
 62
     7
 10
-94.90701081947287
 20
-765.0953139999999
 30
0.0
 40
1.5
  0
CIRCLE
  5
3F6
  8
__
  6
CONTINUOUS
 62
     7
 10
-60.00442081947318
 20
-774.9834249999999
 30
0.0
 40
4.0
  0
CIRCLE
  5
3F7
  8
__
  6
CONTINUOUS
 62
     7
 10
-85.00000000000006
 20
-812.9917149171297
 30
0.0
 40
8.0
  0
LINE
  5
3F8
  8
__
  6
CONTINUOUS
 62
     7
 10
-114.9964810000002
 20
-786.8241711999999
 30
0.0
 11
-114.9949175218586
 21
-790.824170894442
 31
0.0
  0
TEXT
  5
3F9
  8
__
 62
     7
 10
-122.4808722638895
 20
-831.259149003388
 30
0.0
 40
4.332552083333333
  1
THRU 1
 41
0.7
 72
     1
 11
-114.9999990000006
 21
-829.0928729617212
 31
0.0
 73
     2
  0
TEXT
  5
3FA
  8
__
 62
     7
 10
-92.99075849308429
 20
-831.250861003388
 30
0.0
 40
4.332552083333333
  1
THRU 2
 41
0.7
 72
     1
 11
-85.00442081947318
 21
-829.0845849617212
 31
0.0
 73
     2
  0
TEXT
  5
3FB
  8
__
 62
     7
 10
-125.6147526041667
 20
-756.0817298478374
 30
0.0
 40
4.332552083333333
  1
SIG/CLIP
 41
0.7
 72
     1
 11
-115.0000000000001
 21
-753.9154538061707
 31
0.0
 73
     2
  0
TEXT
  5
3FC
  8
__
 62
     7
 10
-118.5424644775227
 20
-796.2592531409033
 30
0.0
 40
4.332552083333333
  1
CH1
 41
0.7
 72
     1
 11
-115.0042136094672
 21
-794.0929770992366
 31
0.0
 73
     2
  0
TEXT
  5
3FD
  8
__
 62
     7
 10
-89.0523507067175
 20
-796.2509651409033
 30
0.0
 40
4.332552083333333
  1
CH2
 41
0.7
 72
     1
 11
-85.00863542893973
 21
-794.0846890992366
 31
0.0
 73
     2
  0
LINE
  5
3FE
  8
__
  6
CONTINUOUS
 62
     7
 10
-115.0000000000001
 20
-762.6788815735599
 30
0.0
 11
-115.0000000000001
 21
-757.6788815735599
 31
0.0
  0
TEXT
  5
3FF
  8
__
 62
     7
 10
-95.61917342363985
 20
-756.0817298478374
 30
0.0
 40
4.332552083333333
  1
SIG/CLIP
 41
0.7
 72
     1
 11
-85.00442081947318
 21
-753.9154538061707
 31
0.0
 73
     2
  0
LINE
  5
400
  8
__
  6
CONTINUOUS
 62
     7
 10
-115.000660658669
 20
-797.1741753226875
 30
0.0
 11
-114.9990971805274
 21
-801.1741750171295
 31
0.0
  0
LINE
  5
401
  8
__
  6
CONTINUOUS
 62
     7
 10
-85.005202558544
 20
-786.8241711999999
 30
0.0
 11
-85.00363908040237
 21
-790.824170894442
 31
0.0
  0
LINE
  5
402
  8
__
  6
CONTINUOUS
 62
     7
 10
-85.00938221721259
 20
-797.1741753226875
 30
0.0
 11
-85.00781873907096
 21
-801.1741750171295
 31
0.0
  0
ARC
  5
403
  8
__
  6
CONTINUOUS
 62
     7
 10
-149.9166570000002
 20
-902.996247
 30
0.0
 40
4.0
 50
90.0
 51
180.0179189999968
  0
LINE
  5
404
  8
__
  6
CONTINUOUS
 62
     7
 10
-127.9166559999999
 20
-898.996247
 30
0.0
 11
-149.9166570000002
 21
-898.996247
 31
0.0
  0
ARC
  5
405
  8
__
  6
CONTINUOUS
 62
     7
 10
-127.9166559999999
 20
-902.996247
 30
0.0
 40
3.999999999999977
 50
0.0179189999967899
 51
90.0
  0
LINE
  5
406
  8
__
  6
CONTINUOUS
 62
     7
 10
-123.9166559999999
 20
-902.9949959999999
 30
0.0
 11
-123.9125899999999
 21
-915.9949959999999
 31
0.0
  0
ARC
  5
407
  8
__
  6
CONTINUOUS
 62
     7
 10
-127.9125899999999
 20
-915.996247
 30
0.0
 40
4.0
 50
270.0
 51
0.0179189999967662
  0
LINE
  5
408
  8
__
  6
CONTINUOUS
 62
     7
 10
-127.9125899999999
 20
-919.996247
 30
0.0
 11
-149.9125910000002
 21
-919.996247
 31
0.0
  0
ARC
  5
409
  8
__
  6
CONTINUOUS
 62
     7
 10
-149.9125910000002
 20
-915.996247
 30
0.0
 40
3.999999999999977
 50
180.0179189999968
 51
270.0
  0
LINE
  5
40A
  8
__
  6
CONTINUOUS
 62
     7
 10
-153.9166570000002
 20
-902.9974980000002
 30
0.0
 11
-153.9125910000002
 21
-915.9974980000002
 31
0.0
  0
ARC
  5
40B
  8
__
  6
CONTINUOUS
 62
     7
 10
-148.9164690000002
 20
-903.596247
 30
0.0
 40
2.0
 50
90.0
 51
180.0179190000033
  0
LINE
  5
40C
  8
__
  6
CONTINUOUS
 62
     7
 10
-128.9164679999999
 20
-901.596247
 30
0.0
 11
-148.9164690000002
 21
-901.596247
 31
0.0
  0
ARC
  5
40D
  8
__
  6
CONTINUOUS
 62
     7
 10
-128.9164679999999
 20
-903.596247
 30
0.0
 40
1.999999999999989
 50
0.0179190000033037
 51
90.0
  0
LINE
  5
40E
  8
__
  6
CONTINUOUS
 62
     7
 10
-150.9164690000002
 20
-903.5968720000001
 30
0.0
 11
-150.91356
 21
-912.899523
 31
0.0
  0
LINE
  5
40F
  8
__
  6
CONTINUOUS
 62
     7
 10
-150.91356
 20
-912.899523
 30
0.0
 11
-146.4145210000001
 21
-917.3962470000001
 31
0.0
  0
LINE
  5
410
  8
__
  6
CONTINUOUS
 62
     7
 10
-131.41066
 20
-917.3962470000001
 30
0.0
 11
-146.4145210000001
 21
-917.3962470000001
 31
0.0
  0
LINE
  5
411
  8
__
  6
CONTINUOUS
 62
     7
 10
-126.9135580000002
 20
-912.9014590000002
 30
0.0
 11
-131.41066
 21
-917.3962470000001
 31
0.0
  0
LINE
  5
412
  8
__
  6
CONTINUOUS
 62
     7
 10
-126.9164679999999
 20
-903.5956219999998
 30
0.0
 11
-126.9135580000002
 21
-912.9014590000002
 31
0.0
  0
LINE
  5
413
  8
__
  6
CONTINUOUS
 62
     7
 10
-145.9153700000002
 20
-906.596247
 30
0.0
 11
-145.9147269999999
 21
-909.096247
 31
0.0
  0
LINE
  5
414
  8
__
  6
CONTINUOUS
 62
     7
 10
-131.9153689999998
 20
-906.596247
 30
0.0
 11
-131.914726
 21
-909.096247
 31
0.0
  0
LINE
  5
415
  8
__
  6
CONTINUOUS
 62
     7
 10
-138.914726
 20
-909.096247
 30
0.0
 11
-138.913877
 21
-912.3962470000001
 31
0.0
  0
CIRCLE
  5
416
  8
__
  6
CONTINUOUS
 62
     7
 10
-158.914726
 20
-909.1013929999999
 30
0.0
 40
3.0
  0
CIRCLE
  5
417
  8
__
  6
CONTINUOUS
 62
     7
 10
-118.9147269999999
 20
-909.091101
 30
0.0
 40
3.0
  0
LINE
  5
418
  8
__
  6
CONTINUOUS
 62
     7
 10
-118.9147269999999
 20
-907.591101
 30
0.0
 11
-118.9138779999998
 21
-910.8911010000002
 31
0.0
  0
LINE
  5
419
  8
__
  6
CONTINUOUS
 62
     7
 10
-120.5643020000002
 20
-909.2415249999999
 30
0.0
 11
-117.264302
 21
-909.2406759999999
 31
0.0
  0
LINE
  5
41A
  8
__
  6
CONTINUOUS
 62
     7
 10
-158.914726
 20
-907.6013929999999
 30
0.0
 11
-158.9138760000001
 21
-910.9013930000001
 31
0.0
  0
LINE
  5
41B
  8
__
  6
CONTINUOUS
 62
     7
 10
-160.5643009999999
 20
-909.2518180000002
 30
0.0
 11
-157.2643010000002
 21
-909.2509690000002
 31
0.0
  0
CIRCLE
  5
41C
  8
__
  6
CONTINUOUS
 62
     7
 10
-150.0
 20
-632.5
 30
0.0
 40
4.0
  0
CIRCLE
  5
41D
  8
__
  6
CONTINUOUS
 62
     7
 10
-149.4948420000001
 20
-656.0
 30
0.0
 40
1.0
  0
CIRCLE
  5
41E
  8
__
  6
CONTINUOUS
 62
     7
 10
-140.4948420000001
 20
-656.0
 30
0.0
 40
1.0
  0
CIRCLE
  5
41F
  8
__
  6
CONTINUOUS
 62
     7
 10
-131.4948410000002
 20
-656.0
 30
0.0
 40
1.0
  0
CIRCLE
  5
420
  8
__
  6
CONTINUOUS
 62
     7
 10
-122.4948410000002
 20
-656.0
 30
0.0
 40
1.0
  0
CIRCLE
  5
421
  8
__
  6
CONTINUOUS
 62
     7
 10
-113.4948399999998
 20
-656.0
 30
0.0
 40
1.0
  0
CIRCLE
  5
422
  8
__
  6
CONTINUOUS
 62
     7
 10
-104.4948399999998
 20
-656.0
 30
0.0
 40
1.0
  0
CIRCLE
  5
423
  8
__
  6
CONTINUOUS
 62
     7
 10
-95.49483899999996
 20
-656.0
 30
0.0
 40
1.0
  0
CIRCLE
  5
424
  8
__
  6
CONTINUOUS
 62
     7
 10
-86.49483899999996
 20
-656.0
 30
0.0
 40
1.0
  0
CIRCLE
  5
425
  8
__
  6
CONTINUOUS
 62
     7
 10
-77.49483800000007
 20
-656.0
 30
0.0
 40
1.0
  0
CIRCLE
  5
426
  8
__
  6
CONTINUOUS
 62
     7
 10
-68.49483800000007
 20
-656.0
 30
0.0
 40
1.0
  0
CIRCLE
  5
427
  8
__
  6
CONTINUOUS
 62
     7
 10
-59.49483800000007
 20
-656.0
 30
0.0
 40
1.0
  0
CIRCLE
  5
428
  8
__
  6
CONTINUOUS
 62
     7
 10
-50.49483700000019
 20
-656.0
 30
0.0
 40
1.0
  0
CIRCLE
  5
429
  8
__
  6
CONTINUOUS
 62
     7
 10
-144.99406
 20
-658.5
 30
0.0
 40
1.0
  0
CIRCLE
  5
42A
  8
__
  6
CONTINUOUS
 62
     7
 10
-135.9940590000001
 20
-658.5
 30
0.0
 40
1.0
  0
CIRCLE
  5
42B
  8
__
  6
CONTINUOUS
 62
     7
 10
-126.9940590000001
 20
-658.5
 30
0.0
 40
1.0
  0
CIRCLE
  5
42C
  8
__
  6
CONTINUOUS
 62
     7
 10
-117.9940590000001
 20
-658.5
 30
0.0
 40
1.0
  0
CIRCLE
  5
42D
  8
__
  6
CONTINUOUS
 62
     7
 10
-108.9940580000002
 20
-658.5
 30
0.0
 40
1.0
  0
CIRCLE
  5
42E
  8
__
  6
CONTINUOUS
 62
     7
 10
-99.99405800000022
 20
-658.5
 30
0.0
 40
1.0
  0
CIRCLE
  5
42F
  8
__
  6
CONTINUOUS
 62
     7
 10
-90.99405699999988
 20
-658.5
 30
0.0
 40
1.0
  0
CIRCLE
  5
430
  8
__
  6
CONTINUOUS
 62
     7
 10
-81.99405699999988
 20
-658.5
 30
0.0
 40
1.0
  0
CIRCLE
  5
431
  8
__
  6
CONTINUOUS
 62
     7
 10
-72.994056
 20
-658.5
 30
0.0
 40
1.0
  0
CIRCLE
  5
432
  8
__
  6
CONTINUOUS
 62
     7
 10
-63.994056
 20
-658.5
 30
0.0
 40
1.0
  0
CIRCLE
  5
433
  8
__
  6
CONTINUOUS
 62
     7
 10
-54.99405500000012
 20
-658.5
 30
0.0
 40
1.0
  0
CIRCLE
  5
434
  8
__
  6
CONTINUOUS
 62
     7
 10
-149.4948420000001
 20
-661.0
 30
0.0
 40
1.0
  0
CIRCLE
  5
435
  8
__
  6
CONTINUOUS
 62
     7
 10
-140.4948420000001
 20
-661.0
 30
0.0
 40
1.0
  0
CIRCLE
  5
436
  8
__
  6
CONTINUOUS
 62
     7
 10
-131.4948410000002
 20
-661.0
 30
0.0
 40
1.0
  0
CIRCLE
  5
437
  8
__
  6
CONTINUOUS
 62
     7
 10
-122.4948410000002
 20
-661.0
 30
0.0
 40
1.0
  0
CIRCLE
  5
438
  8
__
  6
CONTINUOUS
 62
     7
 10
-113.4948399999998
 20
-661.0
 30
0.0
 40
1.0
  0
CIRCLE
  5
439
  8
__
  6
CONTINUOUS
 62
     7
 10
-104.4948399999998
 20
-661.0
 30
0.0
 40
1.0
  0
CIRCLE
  5
43A
  8
__
  6
CONTINUOUS
 62
     7
 10
-95.49483899999996
 20
-661.0
 30
0.0
 40
1.0
  0
CIRCLE
  5
43B
  8
__
  6
CONTINUOUS
 62
     7
 10
-86.49483899999996
 20
-661.0
 30
0.0
 40
1.0
  0
CIRCLE
  5
43C
  8
__
  6
CONTINUOUS
 62
     7
 10
-77.49483800000007
 20
-661.0
 30
0.0
 40
1.0
  0
CIRCLE
  5
43D
  8
__
  6
CONTINUOUS
 62
     7
 10
-68.49483800000007
 20
-661.0
 30
0.0
 40
1.0
  0
CIRCLE
  5
43E
  8
__
  6
CONTINUOUS
 62
     7
 10
-59.49483800000007
 20
-661.0
 30
0.0
 40
1.0
  0
CIRCLE
  5
43F
  8
__
  6
CONTINUOUS
 62
     7
 10
-50.49483700000019
 20
-661.0
 30
0.0
 40
1.0
  0
CIRCLE
  5
440
  8
__
  6
CONTINUOUS
 62
     7
 10
-144.99406
 20
-663.5
 30
0.0
 40
1.0
  0
CIRCLE
  5
441
  8
__
  6
CONTINUOUS
 62
     7
 10
-135.9940590000001
 20
-663.5
 30
0.0
 40
1.0
  0
CIRCLE
  5
442
  8
__
  6
CONTINUOUS
 62
     7
 10
-126.9940590000001
 20
-663.5
 30
0.0
 40
1.0
  0
CIRCLE
  5
443
  8
__
  6
CONTINUOUS
 62
     7
 10
-117.9940590000001
 20
-663.5
 30
0.0
 40
1.0
  0
CIRCLE
  5
444
  8
__
  6
CONTINUOUS
 62
     7
 10
-108.9940580000002
 20
-663.5
 30
0.0
 40
1.0
  0
CIRCLE
  5
445
  8
__
  6
CONTINUOUS
 62
     7
 10
-99.99405800000022
 20
-663.5
 30
0.0
 40
1.0
  0
CIRCLE
  5
446
  8
__
  6
CONTINUOUS
 62
     7
 10
-90.99405699999988
 20
-663.5
 30
0.0
 40
1.0
  0
CIRCLE
  5
447
  8
__
  6
CONTINUOUS
 62
     7
 10
-81.99405699999988
 20
-663.5
 30
0.0
 40
1.0
  0
CIRCLE
  5
448
  8
__
  6
CONTINUOUS
 62
     7
 10
-72.994056
 20
-663.5
 30
0.0
 40
1.0
  0
CIRCLE
  5
449
  8
__
  6
CONTINUOUS
 62
     7
 10
-63.994056
 20
-663.5
 30
0.0
 40
1.0
  0
CIRCLE
  5
44A
  8
__
  6
CONTINUOUS
 62
     7
 10
-54.99405500000012
 20
-663.5
 30
0.0
 40
1.0
  0
CIRCLE
  5
44B
  8
__
  6
CONTINUOUS
 62
     7
 10
-149.4948420000001
 20
-944.0
 30
0.0
 40
1.0
  0
CIRCLE
  5
44C
  8
__
  6
CONTINUOUS
 62
     7
 10
-140.4948420000001
 20
-944.0
 30
0.0
 40
1.0
  0
CIRCLE
  5
44D
  8
__
  6
CONTINUOUS
 62
     7
 10
-131.4948410000002
 20
-944.0
 30
0.0
 40
1.0
  0
CIRCLE
  5
44E
  8
__
  6
CONTINUOUS
 62
     7
 10
-122.4948410000002
 20
-944.0
 30
0.0
 40
1.0
  0
CIRCLE
  5
44F
  8
__
  6
CONTINUOUS
 62
     7
 10
-113.4948399999998
 20
-944.0
 30
0.0
 40
1.0
  0
CIRCLE
  5
450
  8
__
  6
CONTINUOUS
 62
     7
 10
-104.4948399999998
 20
-944.0
 30
0.0
 40
1.0
  0
CIRCLE
  5
451
  8
__
  6
CONTINUOUS
 62
     7
 10
-95.49483899999996
 20
-944.0
 30
0.0
 40
1.0
  0
CIRCLE
  5
452
  8
__
  6
CONTINUOUS
 62
     7
 10
-86.49483899999996
 20
-944.0
 30
0.0
 40
1.0
  0
CIRCLE
  5
453
  8
__
  6
CONTINUOUS
 62
     7
 10
-77.49483800000007
 20
-944.0
 30
0.0
 40
1.0
  0
CIRCLE
  5
454
  8
__
  6
CONTINUOUS
 62
     7
 10
-68.49483800000007
 20
-944.0
 30
0.0
 40
1.0
  0
CIRCLE
  5
455
  8
__
  6
CONTINUOUS
 62
     7
 10
-59.49483800000007
 20
-944.0
 30
0.0
 40
1.0
  0
CIRCLE
  5
456
  8
__
  6
CONTINUOUS
 62
     7
 10
-50.49483700000019
 20
-944.0
 30
0.0
 40
1.0
  0
CIRCLE
  5
457
  8
__
  6
CONTINUOUS
 62
     7
 10
-144.99406
 20
-941.5
 30
0.0
 40
1.0
  0
CIRCLE
  5
458
  8
__
  6
CONTINUOUS
 62
     7
 10
-135.9940590000001
 20
-941.5
 30
0.0
 40
1.0
  0
CIRCLE
  5
459
  8
__
  6
CONTINUOUS
 62
     7
 10
-126.9940590000001
 20
-941.5
 30
0.0
 40
1.0
  0
CIRCLE
  5
45A
  8
__
  6
CONTINUOUS
 62
     7
 10
-117.9940590000001
 20
-941.5
 30
0.0
 40
1.0
  0
CIRCLE
  5
45B
  8
__
  6
CONTINUOUS
 62
     7
 10
-108.9940580000002
 20
-941.5
 30
0.0
 40
1.0
  0
CIRCLE
  5
45C
  8
__
  6
CONTINUOUS
 62
     7
 10
-99.99405800000022
 20
-941.5
 30
0.0
 40
1.0
  0
CIRCLE
  5
45D
  8
__
  6
CONTINUOUS
 62
     7
 10
-90.99405699999988
 20
-941.5
 30
0.0
 40
1.0
  0
CIRCLE
  5
45E
  8
__
  6
CONTINUOUS
 62
     7
 10
-81.99405699999988
 20
-941.5
 30
0.0
 40
1.0
  0
CIRCLE
  5
45F
  8
__
  6
CONTINUOUS
 62
     7
 10
-72.994056
 20
-941.5
 30
0.0
 40
1.0
  0
CIRCLE
  5
460
  8
__
  6
CONTINUOUS
 62
     7
 10
-63.994056
 20
-941.5
 30
0.0
 40
1.0
  0
CIRCLE
  5
461
  8
__
  6
CONTINUOUS
 62
     7
 10
-54.99405500000012
 20
-941.5
 30
0.0
 40
1.0
  0
CIRCLE
  5
462
  8
__
  6
CONTINUOUS
 62
     7
 10
-149.4948420000001
 20
-939.0
 30
0.0
 40
1.0
  0
CIRCLE
  5
463
  8
__
  6
CONTINUOUS
 62
     7
 10
-140.4948420000001
 20
-939.0
 30
0.0
 40
1.0
  0
CIRCLE
  5
464
  8
__
  6
CONTINUOUS
 62
     7
 10
-131.4948410000002
 20
-939.0
 30
0.0
 40
1.0
  0
CIRCLE
  5
465
  8
__
  6
CONTINUOUS
 62
     7
 10
-122.4948410000002
 20
-939.0
 30
0.0
 40
1.0
  0
CIRCLE
  5
466
  8
__
  6
CONTINUOUS
 62
     7
 10
-113.4948399999998
 20
-939.0
 30
0.0
 40
1.0
  0
CIRCLE
  5
467
  8
__
  6
CONTINUOUS
 62
     7
 10
-104.4948399999998
 20
-939.0
 30
0.0
 40
1.0
  0
CIRCLE
  5
468
  8
__
  6
CONTINUOUS
 62
     7
 10
-95.49483899999996
 20
-939.0
 30
0.0
 40
1.0
  0
CIRCLE
  5
469
  8
__
  6
CONTINUOUS
 62
     7
 10
-86.49483899999996
 20
-939.0
 30
0.0
 40
1.0
  0
CIRCLE
  5
46A
  8
__
  6
CONTINUOUS
 62
     7
 10
-77.49483800000007
 20
-939.0
 30
0.0
 40
1.0
  0
CIRCLE
  5
46B
  8
__
  6
CONTINUOUS
 62
     7
 10
-68.49483800000007
 20
-939.0
 30
0.0
 40
1.0
  0
CIRCLE
  5
46C
  8
__
  6
CONTINUOUS
 62
     7
 10
-59.49483800000007
 20
-939.0
 30
0.0
 40
1.0
  0
CIRCLE
  5
46D
  8
__
  6
CONTINUOUS
 62
     7
 10
-50.49483700000019
 20
-939.0
 30
0.0
 40
1.0
  0
CIRCLE
  5
46E
  8
__
  6
CONTINUOUS
 62
     7
 10
-144.99406
 20
-936.5
 30
0.0
 40
1.0
  0
CIRCLE
  5
46F
  8
__
  6
CONTINUOUS
 62
     7
 10
-135.9940590000001
 20
-936.5
 30
0.0
 40
1.0
  0
CIRCLE
  5
470
  8
__
  6
CONTINUOUS
 62
     7
 10
-126.9940590000001
 20
-936.5
 30
0.0
 40
1.0
  0
CIRCLE
  5
471
  8
__
  6
CONTINUOUS
 62
     7
 10
-117.9940590000001
 20
-936.5
 30
0.0
 40
1.0
  0
CIRCLE
  5
472
  8
__
  6
CONTINUOUS
 62
     7
 10
-108.9940580000002
 20
-936.5
 30
0.0
 40
1.0
  0
CIRCLE
  5
473
  8
__
  6
CONTINUOUS
 62
     7
 10
-99.99405800000022
 20
-936.5
 30
0.0
 40
1.0
  0
CIRCLE
  5
474
  8
__
  6
CONTINUOUS
 62
     7
 10
-90.99405699999988
 20
-936.5
 30
0.0
 40
1.0
  0
CIRCLE
  5
475
  8
__
  6
CONTINUOUS
 62
     7
 10
-81.99405699999988
 20
-936.5
 30
0.0
 40
1.0
  0
CIRCLE
  5
476
  8
__
  6
CONTINUOUS
 62
     7
 10
-72.994056
 20
-936.5
 30
0.0
 40
1.0
  0
CIRCLE
  5
477
  8
__
  6
CONTINUOUS
 62
     7
 10
-63.994056
 20
-936.5
 30
0.0
 40
1.0
  0
CIRCLE
  5
478
  8
__
  6
CONTINUOUS
 62
     7
 10
-54.99405500000012
 20
-936.5
 30
0.0
 40
1.0
  0
ARC
  5
479
  8
__
  6
CONTINUOUS
 62
     7
 10
-150.0
 20
-630.8022356198217
 30
0.0
 40
0.2222356198217773
 50
356.8251528743749
 51
183.1748471256251
  0
ARC
  5
47A
  8
__
  6
CONTINUOUS
 62
     7
 10
-151.0351839158786
 20
-630.7070088624196
 30
0.0
 40
0.8203678318445186
 50
247.5320803524717
 51
352.4679196225376
  0
ARC
  5
47B
  8
__
  6
CONTINUOUS
 62
     7
 10
-151.4703070828746
 20
-631.6511178099108
 30
0.0
 40
0.2222356198216277
 50
56.82515287439525
 51
243.1748471255292
  0
ARC
  5
47C
  8
__
  6
CONTINUOUS
 62
     7
 10
-152.0703678318441
 20
-632.4999999999498
 30
0.0
 40
0.820367831844172
 50
307.5320803524665
 51
52.46791962256188
  0
ARC
  5
47D
  8
__
  6
CONTINUOUS
 62
     7
 10
-150.0
 20
-634.1977643801783
 30
0.0
 40
0.2222356198217773
 50
176.8251528743749
 51
3.174847125625149
  0
ARC
  5
47E
  8
__
  6
CONTINUOUS
 62
     7
 10
-151.0351839158786
 20
-634.2929911375804
 30
0.0
 40
0.8203678318443105
 50
7.532080377462396
 51
112.4679196475283
  0
ARC
  5
47F
  8
__
  6
CONTINUOUS
 62
     7
 10
-151.4703070828746
 20
-633.3488821900892
 30
0.0
 40
0.2222356198218735
 50
116.8251528744708
 51
303.1748471256047
  0
ARC
  5
480
  8
__
  6
CONTINUOUS
 62
     7
 10
-148.9648160841216
 20
-630.7070088624196
 30
0.0
 40
0.820367831844085
 50
187.5320803774645
 51
292.4679196475283
  0
ARC
  5
481
  8
__
  6
CONTINUOUS
 62
     7
 10
-148.5296929171254
 20
-631.6511178099108
 30
0.0
 40
0.2222356198217709
 50
296.8251528744185
 51
123.1748471256047
  0
ARC
  5
482
  8
__
  6
CONTINUOUS
 62
     7
 10
-147.9296321681559
 20
-632.4999999999498
 30
0.0
 40
0.8203678318443044
 50
127.5320803774507
 51
232.4679196475335
  0
ARC
  5
483
  8
__
  6
CONTINUOUS
 62
     7
 10
-148.9648160841216
 20
-634.2929911375804
 30
0.0
 40
0.8203678318445186
 50
67.53208035247175
 51
172.4679196225355
  0
ARC
  5
484
  8
__
  6
CONTINUOUS
 62
     7
 10
-148.5296929171254
 20
-633.3488821900892
 30
0.0
 40
0.2222356198216277
 50
236.8251528743952
 51
63.17484712558153
  0
LINE
  5
485
  8
__
  6
CONTINUOUS
 62
     7
 10
-78.48154699999986
 20
-696.0
 30
0.0
 11
-128.4815490000001
 21
-696.0
 31
0.0
  0
LINE
  5
486
  8
__
  6
CONTINUOUS
 62
     7
 10
-78.48154699999986
 20
-696.0
 30
0.0
 11
-78.46997599999986
 21
-733.0
 31
0.0
  0
LINE
  5
487
  8
__
  6
CONTINUOUS
 62
     7
 10
-78.46997599999986
 20
-733.0
 30
0.0
 11
-128.4699780000001
 21
-733.0
 31
0.0
  0
LINE
  5
488
  8
__
  6
CONTINUOUS
 62
     7
 10
-128.4815490000001
 20
-696.0
 30
0.0
 11
-128.4699780000001
 21
-733.0
 31
0.0
  0
CIRCLE
  5
489
  8
__
  6
CONTINUOUS
 62
     7
 10
-149.978736
 20
-705.0
 30
0.0
 40
7.5
  0
CIRCLE
  5
48A
  8
__
  6
CONTINUOUS
 62
     7
 10
-60.97873100000015
 20
-705.0
 30
0.0
 40
9.0
  0
CIRCLE
  5
48B
  8
__
  6
CONTINUOUS
 62
     7
 10
-60.97873100000015
 20
-729.5
 30
0.0
 40
3.5
  0
ARC
  5
48C
  8
__
  6
CONTINUOUS
 62
     7
 10
-151.978736
 20
-730.0
 30
0.0
 40
2.000000000000084
 50
94.84558399999177
 51
270.0
  0
ARC
  5
48D
  8
__
  6
CONTINUOUS
 62
     7
 10
-147.978736
 20
-730.0
 30
0.0
 40
2.0
 50
270.0
 51
90.0
  0
LINE
  5
48E
  8
__
  6
CONTINUOUS
 62
     7
 10
-151.978736
 20
-728.0
 30
0.0
 11
-147.978736
 21
-728.0
 31
0.0
  0
LINE
  5
48F
  8
__
  6
CONTINUOUS
 62
     7
 10
-151.978736
 20
-732.0
 30
0.0
 11
-147.978736
 21
-732.0
 31
0.0
  0
TEXT
  5
490
  8
__
 62
     7
 10
-73.61534124305571
 20
-719.6662760416667
 30
0.0
 40
4.332552083333333
  1
MAIN/MENU
 41
0.7
 72
     1
 11
-60.97873100000015
 21
-717.5
 31
0.0
 73
     2
  0
TEXT
  5
491
  8
__
 62
     7
 10
-157.5607021458333
 20
-718.1662760416667
 30
0.0
 40
4.332552083333333
  1
POWER
 41
0.7
 72
     1
 11
-149.978736
 21
-716.0
 31
0.0
 73
     2
  0
TEXT
  5
492
  8
__
 62
     7
 10
-66.5388395069446
 20
-739.1662760416667
 30
0.0
 40
4.332552083333333
  1
BACK
 41
0.7
 72
     1
 11
-60.97873100000015
 21
-737.0
 31
0.0
 73
     2
  0
TEXT
  5
493
  8
__
 62
     7
 10
-156.0443089166667
 20
-739.1662760416667
 30
0.0
 40
4.332552083333333
  1
LIMIT
 41
0.7
 72
     1
 11
-149.978736
 21
-737.0
 31
0.0
 73
     2
  0
ARC
  5
494
  8
__
  6
CONTINUOUS
 62
     7
 10
-150.0
 20
-665.0
 30
0.0
 40
15.0
 50
90.00000000000021
 51
180.0
  0
LINE
  5
495
  8
__
  6
CONTINUOUS
 62
     7
 10
-165.0
 20
-935.0
 30
0.0
 11
-165.0
 21
-665.0
 31
0.0
  0
ARC
  5
496
  8
__
  6
CONTINUOUS
 62
     7
 10
-149.9999999999999
 20
-935.0
 30
0.0
 40
15.00000000000009
 50
180.0
 51
269.9999999999996
  0
LINE
  5
497
  8
__
  6
CONTINUOUS
 62
     7
 10
-50.0
 20
-950.0
 30
0.0
 11
-150.0
 21
-950.0
 31
0.0
  0
ARC
  5
498
  8
__
  6
CONTINUOUS
 62
     7
 10
-50.00000000000009
 20
-935.0
 30
0.0
 40
15.0
 50
270.0000000000003
 51
0.0
  0
LINE
  5
499
  8
__
  6
CONTINUOUS
 62
     7
 10
-35.00000000000003
 20
-665.0
 30
0.0
 11
-35.0
 21
-935.0
 31
0.0
  0
ARC
  5
49A
  8
__
  6
CONTINUOUS
 62
     7
 10
-50.00000000000009
 20
-665.0
 30
0.0
 40
15.00000000000006
 50
0.0
 51
89.99999999999972
  0
LINE
  5
49B
  8
__
  6
CONTINUOUS
 62
     7
 10
-150.0
 20
-650.0
 30
0.0
 11
-50.0
 21
-650.0
 31
0.0
  0
CIRCLE
  5
49C
  8
__
  6
CONTINUOUS
 62
     7
 10
-50.0
 20
-632.5
 30
0.0
 40
4.0
  0
ARC
  5
49D
  8
__
  6
CONTINUOUS
 62
     7
 10
-50.0
 20
-630.8022356198217
 30
0.0
 40
0.2222356198217773
 50
356.8251528743749
 51
183.1748471256251
  0
ARC
  5
49E
  8
__
  6
CONTINUOUS
 62
     7
 10
-51.03518391587863
 20
-630.7070088624196
 30
0.0
 40
0.8203678318445186
 50
247.5320803524717
 51
352.4679196225376
  0
ARC
  5
49F
  8
__
  6
CONTINUOUS
 62
     7
 10
-51.47030708287457
 20
-631.6511178099108
 30
0.0
 40
0.2222356198216277
 50
56.82515287439525
 51
243.1748471255292
  0
ARC
  5
4A0
  8
__
  6
CONTINUOUS
 62
     7
 10
-52.07036783184412
 20
-632.4999999999498
 30
0.0
 40
0.820367831844172
 50
307.5320803524665
 51
52.46791962256188
  0
ARC
  5
4A1
  8
__
  6
CONTINUOUS
 62
     7
 10
-50.0
 20
-634.1977643801783
 30
0.0
 40
0.2222356198217773
 50
176.8251528743749
 51
3.174847125625149
  0
ARC
  5
4A2
  8
__
  6
CONTINUOUS
 62
     7
 10
-51.03518391587863
 20
-634.2929911375804
 30
0.0
 40
0.8203678318443105
 50
7.532080377462396
 51
112.4679196475283
  0
ARC
  5
4A3
  8
__
  6
CONTINUOUS
 62
     7
 10
-51.47030708287457
 20
-633.3488821900892
 30
0.0
 40
0.2222356198218735
 50
116.8251528744708
 51
303.1748471256047
  0
ARC
  5
4A4
  8
__
  6
CONTINUOUS
 62
     7
 10
-48.96481608412159
 20
-630.7070088624196
 30
0.0
 40
0.820367831844085
 50
187.5320803774645
 51
292.4679196475283
  0
ARC
  5
4A5
  8
__
  6
CONTINUOUS
 62
     7
 10
-48.52969291712543
 20
-631.6511178099108
 30
0.0
 40
0.2222356198217709
 50
296.8251528744185
 51
123.1748471256047
  0
ARC
  5
4A6
  8
__
  6
CONTINUOUS
 62
     7
 10
-47.92963216815588
 20
-632.4999999999498
 30
0.0
 40
0.8203678318443044
 50
127.5320803774507
 51
232.4679196475335
  0
ARC
  5
4A7
  8
__
  6
CONTINUOUS
 62
     7
 10
-48.96481608412159
 20
-634.2929911375804
 30
0.0
 40
0.8203678318445186
 50
67.53208035247175
 51
172.4679196225355
  0
ARC
  5
4A8
  8
__
  6
CONTINUOUS
 62
     7
 10
-48.52969291712543
 20
-633.3488821900892
 30
0.0
 40
0.2222356198216277
 50
236.8251528743952
 51
63.17484712558153
  0
CIRCLE
  5
4A9
  8
__
  6
CONTINUOUS
 62
     7
 10
-150.0
 20
-967.5
 30
0.0
 40
4.0
  0
ARC
  5
4AA
  8
__
  6
CONTINUOUS
 62
     7
 10
-150.0
 20
-965.8022356198217
 30
0.0
 40
0.2222356198217773
 50
356.8251528743749
 51
183.1748471256251
  0
ARC
  5
4AB
  8
__
  6
CONTINUOUS
 62
     7
 10
-151.0351839158786
 20
-965.7070088624196
 30
0.0
 40
0.8203678318445186
 50
247.5320803524717
 51
352.4679196225376
  0
ARC
  5
4AC
  8
__
  6
CONTINUOUS
 62
     7
 10
-151.4703070828746
 20
-966.6511178099108
 30
0.0
 40
0.2222356198216277
 50
56.82515287439525
 51
243.1748471255292
  0
ARC
  5
4AD
  8
__
  6
CONTINUOUS
 62
     7
 10
-152.0703678318441
 20
-967.4999999999498
 30
0.0
 40
0.820367831844172
 50
307.5320803524665
 51
52.46791962256188
  0
ARC
  5
4AE
  8
__
  6
CONTINUOUS
 62
     7
 10
-150.0
 20
-969.1977643801783
 30
0.0
 40
0.2222356198217773
 50
176.8251528743749
 51
3.174847125625149
  0
ARC
  5
4AF
  8
__
  6
CONTINUOUS
 62
     7
 10
-151.0351839158786
 20
-969.2929911375804
 30
0.0
 40
0.8203678318443105
 50
7.532080377462396
 51
112.4679196475283
  0
ARC
  5
4B0
  8
__
  6
CONTINUOUS
 62
     7
 10
-151.4703070828746
 20
-968.3488821900892
 30
0.0
 40
0.2222356198218735
 50
116.8251528744708
 51
303.1748471256047
  0
ARC
  5
4B1
  8
__
  6
CONTINUOUS
 62
     7
 10
-148.9648160841216
 20
-965.7070088624196
 30
0.0
 40
0.820367831844085
 50
187.5320803774645
 51
292.4679196475283
  0
ARC
  5
4B2
  8
__
  6
CONTINUOUS
 62
     7
 10
-148.5296929171254
 20
-966.6511178099108
 30
0.0
 40
0.2222356198217709
 50
296.8251528744185
 51
123.1748471256047
  0
ARC
  5
4B3
  8
__
  6
CONTINUOUS
 62
     7
 10
-147.9296321681559
 20
-967.4999999999498
 30
0.0
 40
0.8203678318443044
 50
127.5320803774507
 51
232.4679196475335
  0
ARC
  5
4B4
  8
__
  6
CONTINUOUS
 62
     7
 10
-148.9648160841216
 20
-969.2929911375804
 30
0.0
 40
0.8203678318445186
 50
67.53208035247175
 51
172.4679196225355
  0
ARC
  5
4B5
  8
__
  6
CONTINUOUS
 62
     7
 10
-148.5296929171254
 20
-968.3488821900892
 30
0.0
 40
0.2222356198216277
 50
236.8251528743952
 51
63.17484712558153
  0
CIRCLE
  5
4B6
  8
__
  6
CONTINUOUS
 62
     7
 10
-50.0
 20
-967.5
 30
0.0
 40
4.0
  0
ARC
  5
4B7
  8
__
  6
CONTINUOUS
 62
     7
 10
-50.0
 20
-965.8022356198217
 30
0.0
 40
0.2222356198217773
 50
356.8251528743749
 51
183.1748471256251
  0
ARC
  5
4B8
  8
__
  6
CONTINUOUS
 62
     7
 10
-51.03518391587863
 20
-965.7070088624196
 30
0.0
 40
0.8203678318445186
 50
247.5320803524717
 51
352.4679196225376
  0
ARC
  5
4B9
  8
__
  6
CONTINUOUS
 62
     7
 10
-51.47030708287457
 20
-966.6511178099108
 30
0.0
 40
0.2222356198216277
 50
56.82515287439525
 51
243.1748471255292
  0
ARC
  5
4BA
  8
__
  6
CONTINUOUS
 62
     7
 10
-52.07036783184412
 20
-967.4999999999498
 30
0.0
 40
0.820367831844172
 50
307.5320803524665
 51
52.46791962256188
  0
ARC
  5
4BB
  8
__
  6
CONTINUOUS
 62
     7
 10
-50.0
 20
-969.1977643801783
 30
0.0
 40
0.2222356198217773
 50
176.8251528743749
 51
3.174847125625149
  0
ARC
  5
4BC
  8
__
  6
CONTINUOUS
 62
     7
 10
-51.03518391587863
 20
-969.2929911375804
 30
0.0
 40
0.8203678318443105
 50
7.532080377462396
 51
112.4679196475283
  0
ARC
  5
4BD
  8
__
  6
CONTINUOUS
 62
     7
 10
-51.47030708287457
 20
-968.3488821900892
 30
0.0
 40
0.2222356198218735
 50
116.8251528744708
 51
303.1748471256047
  0
ARC
  5
4BE
  8
__
  6
CONTINUOUS
 62
     7
 10
-48.96481608412159
 20
-965.7070088624196
 30
0.0
 40
0.820367831844085
 50
187.5320803774645
 51
292.4679196475283
  0
ARC
  5
4BF
  8
__
  6
CONTINUOUS
 62
     7
 10
-48.52969291712543
 20
-966.6511178099108
 30
0.0
 40
0.2222356198217709
 50
296.8251528744185
 51
123.1748471256047
  0
ARC
  5
4C0
  8
__
  6
CONTINUOUS
 62
     7
 10
-47.92963216815588
 20
-967.4999999999498
 30
0.0
 40
0.8203678318443044
 50
127.5320803774507
 51
232.4679196475335
  0
ARC
  5
4C1
  8
__
  6
CONTINUOUS
 62
     7
 10
-48.96481608412159
 20
-969.2929911375804
 30
0.0
 40
0.8203678318445186
 50
67.53208035247175
 51
172.4679196225355
  0
ARC
  5
4C2
  8
__
  6
CONTINUOUS
 62
     7
 10
-48.52969291712543
 20
-968.3488821900892
 30
0.0
 40
0.2222356198216277
 50
236.8251528743952
 51
63.17484712558153
  0
CIRCLE
  5
4C3
  8
__
  6
CONTINUOUS
 62
     7
 10
-185.0
 20
-935.0
 30
0.0
 40
4.0
  0
ARC
  5
4C4
  8
__
  6
CONTINUOUS
 62
     7
 10
-185.0
 20
-933.3022356198217
 30
0.0
 40
0.2222356198217773
 50
356.8251528743749
 51
183.1748471256251
  0
ARC
  5
4C5
  8
__
  6
CONTINUOUS
 62
     7
 10
-186.0351839158786
 20
-933.2070088624196
 30
0.0
 40
0.8203678318445186
 50
247.5320803524717
 51
352.4679196225376
  0
ARC
  5
4C6
  8
__
  6
CONTINUOUS
 62
     7
 10
-186.4703070828746
 20
-934.1511178099108
 30
0.0
 40
0.2222356198216277
 50
56.82515287439525
 51
243.1748471255292
  0
ARC
  5
4C7
  8
__
  6
CONTINUOUS
 62
     7
 10
-187.0703678318441
 20
-934.9999999999498
 30
0.0
 40
0.820367831844172
 50
307.5320803524665
 51
52.46791962256188
  0
ARC
  5
4C8
  8
__
  6
CONTINUOUS
 62
     7
 10
-185.0
 20
-936.6977643801783
 30
0.0
 40
0.2222356198217773
 50
176.8251528743749
 51
3.174847125625149
  0
ARC
  5
4C9
  8
__
  6
CONTINUOUS
 62
     7
 10
-186.0351839158786
 20
-936.7929911375804
 30
0.0
 40
0.8203678318443105
 50
7.532080377462396
 51
112.4679196475283
  0
ARC
  5
4CA
  8
__
  6
CONTINUOUS
 62
     7
 10
-186.4703070828746
 20
-935.8488821900892
 30
0.0
 40
0.2222356198218735
 50
116.8251528744708
 51
303.1748471256047
  0
ARC
  5
4CB
  8
__
  6
CONTINUOUS
 62
     7
 10
-183.9648160841216
 20
-933.2070088624196
 30
0.0
 40
0.820367831844085
 50
187.5320803774645
 51
292.4679196475283
  0
ARC
  5
4CC
  8
__
  6
CONTINUOUS
 62
     7
 10
-183.5296929171254
 20
-934.1511178099108
 30
0.0
 40
0.2222356198217709
 50
296.8251528744185
 51
123.1748471256047
  0
ARC
  5
4CD
  8
__
  6
CONTINUOUS
 62
     7
 10
-182.9296321681559
 20
-934.9999999999498
 30
0.0
 40
0.8203678318443044
 50
127.5320803774507
 51
232.4679196475335
  0
ARC
  5
4CE
  8
__
  6
CONTINUOUS
 62
     7
 10
-183.9648160841216
 20
-936.7929911375804
 30
0.0
 40
0.8203678318445186
 50
67.53208035247175
 51
172.4679196225355
  0
ARC
  5
4CF
  8
__
  6
CONTINUOUS
 62
     7
 10
-183.5296929171254
 20
-935.8488821900892
 30
0.0
 40
0.2222356198216277
 50
236.8251528743952
 51
63.17484712558153
  0
CIRCLE
  5
4D0
  8
__
  6
CONTINUOUS
 62
     7
 10
-15.0
 20
-935.0
 30
0.0
 40
4.0
  0
ARC
  5
4D1
  8
__
  6
CONTINUOUS
 62
     7
 10
-15.0
 20
-933.3022356198217
 30
0.0
 40
0.2222356198217773
 50
356.8251528743749
 51
183.1748471256251
  0
ARC
  5
4D2
  8
__
  6
CONTINUOUS
 62
     7
 10
-16.03518391587863
 20
-933.2070088624196
 30
0.0
 40
0.8203678318445186
 50
247.5320803524717
 51
352.4679196225376
  0
ARC
  5
4D3
  8
__
  6
CONTINUOUS
 62
     7
 10
-16.47030708287457
 20
-934.1511178099108
 30
0.0
 40
0.2222356198216277
 50
56.82515287439525
 51
243.1748471255292
  0
ARC
  5
4D4
  8
__
  6
CONTINUOUS
 62
     7
 10
-17.07036783184412
 20
-934.9999999999498
 30
0.0
 40
0.820367831844172
 50
307.5320803524665
 51
52.46791962256188
  0
ARC
  5
4D5
  8
__
  6
CONTINUOUS
 62
     7
 10
-15.0
 20
-936.6977643801783
 30
0.0
 40
0.2222356198217773
 50
176.8251528743749
 51
3.174847125625149
  0
ARC
  5
4D6
  8
__
  6
CONTINUOUS
 62
     7
 10
-16.03518391587863
 20
-936.7929911375804
 30
0.0
 40
0.8203678318443105
 50
7.532080377462396
 51
112.4679196475283
  0
ARC
  5
4D7
  8
__
  6
CONTINUOUS
 62
     7
 10
-16.47030708287457
 20
-935.8488821900892
 30
0.0
 40
0.2222356198218735
 50
116.8251528744708
 51
303.1748471256047
  0
ARC
  5
4D8
  8
__
  6
CONTINUOUS
 62
     7
 10
-13.96481608412159
 20
-933.2070088624196
 30
0.0
 40
0.820367831844085
 50
187.5320803774645
 51
292.4679196475283
  0
ARC
  5
4D9
  8
__
  6
CONTINUOUS
 62
     7
 10
-13.52969291712543
 20
-934.1511178099108
 30
0.0
 40
0.2222356198217709
 50
296.8251528744185
 51
123.1748471256047
  0
ARC
  5
4DA
  8
__
  6
CONTINUOUS
 62
     7
 10
-12.92963216815588
 20
-934.9999999999498
 30
0.0
 40
0.8203678318443044
 50
127.5320803774507
 51
232.4679196475335
  0
ARC
  5
4DB
  8
__
  6
CONTINUOUS
 62
     7
 10
-13.96481608412159
 20
-936.7929911375804
 30
0.0
 40
0.8203678318445186
 50
67.53208035247175
 51
172.4679196225355
  0
ARC
  5
4DC
  8
__
  6
CONTINUOUS
 62
     7
 10
-13.52969291712543
 20
-935.8488821900892
 30
0.0
 40
0.2222356198216277
 50
236.8251528743952
 51
63.17484712558153
  0
CIRCLE
  5
4DD
  8
__
  6
CONTINUOUS
 62
     7
 10
-185.0
 20
-665.0
 30
0.0
 40
4.0
  0
ARC
  5
4DE
  8
__
  6
CONTINUOUS
 62
     7
 10
-185.0
 20
-663.3022356198217
 30
0.0
 40
0.2222356198217773
 50
356.8251528743749
 51
183.1748471256251
  0
ARC
  5
4DF
  8
__
  6
CONTINUOUS
 62
     7
 10
-186.0351839158786
 20
-663.2070088624196
 30
0.0
 40
0.8203678318445186
 50
247.5320803524717
 51
352.4679196225376
  0
ARC
  5
4E0
  8
__
  6
CONTINUOUS
 62
     7
 10
-186.4703070828746
 20
-664.1511178099108
 30
0.0
 40
0.2222356198216277
 50
56.82515287439525
 51
243.1748471255292
  0
ARC
  5
4E1
  8
__
  6
CONTINUOUS
 62
     7
 10
-187.0703678318441
 20
-664.9999999999498
 30
0.0
 40
0.820367831844172
 50
307.5320803524665
 51
52.46791962256188
  0
ARC
  5
4E2
  8
__
  6
CONTINUOUS
 62
     7
 10
-185.0
 20
-666.6977643801783
 30
0.0
 40
0.2222356198217773
 50
176.8251528743749
 51
3.174847125625149
  0
ARC
  5
4E3
  8
__
  6
CONTINUOUS
 62
     7
 10
-186.0351839158786
 20
-666.7929911375804
 30
0.0
 40
0.8203678318443105
 50
7.532080377462396
 51
112.4679196475283
  0
ARC
  5
4E4
  8
__
  6
CONTINUOUS
 62
     7
 10
-186.4703070828746
 20
-665.8488821900892
 30
0.0
 40
0.2222356198218735
 50
116.8251528744708
 51
303.1748471256047
  0
ARC
  5
4E5
  8
__
  6
CONTINUOUS
 62
     7
 10
-183.9648160841216
 20
-663.2070088624196
 30
0.0
 40
0.820367831844085
 50
187.5320803774645
 51
292.4679196475283
  0
ARC
  5
4E6
  8
__
  6
CONTINUOUS
 62
     7
 10
-183.5296929171254
 20
-664.1511178099108
 30
0.0
 40
0.2222356198217709
 50
296.8251528744185
 51
123.1748471256047
  0
ARC
  5
4E7
  8
__
  6
CONTINUOUS
 62
     7
 10
-182.9296321681559
 20
-664.9999999999498
 30
0.0
 40
0.8203678318443044
 50
127.5320803774507
 51
232.4679196475335
  0
ARC
  5
4E8
  8
__
  6
CONTINUOUS
 62
     7
 10
-183.9648160841216
 20
-666.7929911375804
 30
0.0
 40
0.8203678318445186
 50
67.53208035247175
 51
172.4679196225355
  0
ARC
  5
4E9
  8
__
  6
CONTINUOUS
 62
     7
 10
-183.5296929171254
 20
-665.8488821900892
 30
0.0
 40
0.2222356198216277
 50
236.8251528743952
 51
63.17484712558153
  0
CIRCLE
  5
4EA
  8
__
  6
CONTINUOUS
 62
     7
 10
-15.0
 20
-665.0
 30
0.0
 40
4.0
  0
ARC
  5
4EB
  8
__
  6
CONTINUOUS
 62
     7
 10
-15.0
 20
-663.3022356198217
 30
0.0
 40
0.2222356198217773
 50
356.8251528743749
 51
183.1748471256251
  0
ARC
  5
4EC
  8
__
  6
CONTINUOUS
 62
     7
 10
-16.03518391587863
 20
-663.2070088624196
 30
0.0
 40
0.8203678318445186
 50
247.5320803524717
 51
352.4679196225376
  0
ARC
  5
4ED
  8
__
  6
CONTINUOUS
 62
     7
 10
-16.47030708287457
 20
-664.1511178099108
 30
0.0
 40
0.2222356198216277
 50
56.82515287439525
 51
243.1748471255292
  0
ARC
  5
4EE
  8
__
  6
CONTINUOUS
 62
     7
 10
-17.07036783184412
 20
-664.9999999999498
 30
0.0
 40
0.820367831844172
 50
307.5320803524665
 51
52.46791962256188
  0
ARC
  5
4EF
  8
__
  6
CONTINUOUS
 62
     7
 10
-15.0
 20
-666.6977643801783
 30
0.0
 40
0.2222356198217773
 50
176.8251528743749
 51
3.174847125625149
  0
ARC
  5
4F0
  8
__
  6
CONTINUOUS
 62
     7
 10
-16.03518391587863
 20
-666.7929911375804
 30
0.0
 40
0.8203678318443105
 50
7.532080377462396
 51
112.4679196475283
  0
ARC
  5
4F1
  8
__
  6
CONTINUOUS
 62
     7
 10
-16.47030708287457
 20
-665.8488821900892
 30
0.0
 40
0.2222356198218735
 50
116.8251528744708
 51
303.1748471256047
  0
ARC
  5
4F2
  8
__
  6
CONTINUOUS
 62
     7
 10
-13.96481608412159
 20
-663.2070088624196
 30
0.0
 40
0.820367831844085
 50
187.5320803774645
 51
292.4679196475283
  0
ARC
  5
4F3
  8
__
  6
CONTINUOUS
 62
     7
 10
-13.52969291712543
 20
-664.1511178099108
 30
0.0
 40
0.2222356198217709
 50
296.8251528744185
 51
123.1748471256047
  0
ARC
  5
4F4
  8
__
  6
CONTINUOUS
 62
     7
 10
-12.92963216815588
 20
-664.9999999999498
 30
0.0
 40
0.8203678318443044
 50
127.5320803774507
 51
232.4679196475335
  0
ARC
  5
4F5
  8
__
  6
CONTINUOUS
 62
     7
 10
-13.96481608412159
 20
-666.7929911375804
 30
0.0
 40
0.8203678318445186
 50
67.53208035247175
 51
172.4679196225355
  0
ARC
  5
4F6
  8
__
  6
CONTINUOUS
 62
     7
 10
-13.52969291712543
 20
-665.8488821900892
 30
0.0
 40
0.2222356198216277
 50
236.8251528743952
 51
63.17484712558153
  0
CIRCLE
  5
4F7
  8
__
  6
CONTINUOUS
 62
     7
 10
-185.0
 20
-755.0
 30
0.0
 40
4.0
  0
ARC
  5
4F8
  8
__
  6
CONTINUOUS
 62
     7
 10
-185.0
 20
-753.3022356198217
 30
0.0
 40
0.2222356198217773
 50
356.8251528743749
 51
183.1748471256251
  0
ARC
  5
4F9
  8
__
  6
CONTINUOUS
 62
     7
 10
-186.0351839158786
 20
-753.2070088624196
 30
0.0
 40
0.8203678318445186
 50
247.5320803524717
 51
352.4679196225376
  0
ARC
  5
4FA
  8
__
  6
CONTINUOUS
 62
     7
 10
-186.4703070828746
 20
-754.1511178099108
 30
0.0
 40
0.2222356198216277
 50
56.82515287439525
 51
243.1748471255292
  0
ARC
  5
4FB
  8
__
  6
CONTINUOUS
 62
     7
 10
-187.0703678318441
 20
-754.9999999999498
 30
0.0
 40
0.820367831844172
 50
307.5320803524665
 51
52.46791962256188
  0
ARC
  5
4FC
  8
__
  6
CONTINUOUS
 62
     7
 10
-185.0
 20
-756.6977643801783
 30
0.0
 40
0.2222356198217773
 50
176.8251528743749
 51
3.174847125625149
  0
ARC
  5
4FD
  8
__
  6
CONTINUOUS
 62
     7
 10
-186.0351839158786
 20
-756.7929911375804
 30
0.0
 40
0.8203678318443105
 50
7.532080377462396
 51
112.4679196475283
  0
ARC
  5
4FE
  8
__
  6
CONTINUOUS
 62
     7
 10
-186.4703070828746
 20
-755.8488821900892
 30
0.0
 40
0.2222356198218735
 50
116.8251528744708
 51
303.1748471256047
  0
ARC
  5
4FF
  8
__
  6
CONTINUOUS
 62
     7
 10
-183.9648160841216
 20
-753.2070088624196
 30
0.0
 40
0.820367831844085
 50
187.5320803774645
 51
292.4679196475283
  0
ARC
  5
500
  8
__
  6
CONTINUOUS
 62
     7
 10
-183.5296929171254
 20
-754.1511178099108
 30
0.0
 40
0.2222356198217709
 50
296.8251528744185
 51
123.1748471256047
  0
ARC
  5
501
  8
__
  6
CONTINUOUS
 62
     7
 10
-182.9296321681559
 20
-754.9999999999498
 30
0.0
 40
0.8203678318443044
 50
127.5320803774507
 51
232.4679196475335
  0
ARC
  5
502
  8
__
  6
CONTINUOUS
 62
     7
 10
-183.9648160841216
 20
-756.7929911375804
 30
0.0
 40
0.8203678318445186
 50
67.53208035247175
 51
172.4679196225355
  0
ARC
  5
503
  8
__
  6
CONTINUOUS
 62
     7
 10
-183.5296929171254
 20
-755.8488821900892
 30
0.0
 40
0.2222356198216277
 50
236.8251528743952
 51
63.17484712558153
  0
CIRCLE
  5
504
  8
__
  6
CONTINUOUS
 62
     7
 10
-185.0
 20
-845.0
 30
0.0
 40
4.0
  0
ARC
  5
505
  8
__
  6
CONTINUOUS
 62
     7
 10
-185.0
 20
-843.3022356198217
 30
0.0
 40
0.2222356198217773
 50
356.8251528743749
 51
183.1748471256251
  0
ARC
  5
506
  8
__
  6
CONTINUOUS
 62
     7
 10
-186.0351839158786
 20
-843.2070088624196
 30
0.0
 40
0.8203678318445186
 50
247.5320803524717
 51
352.4679196225376
  0
ARC
  5
507
  8
__
  6
CONTINUOUS
 62
     7
 10
-186.4703070828746
 20
-844.1511178099108
 30
0.0
 40
0.2222356198216277
 50
56.82515287439525
 51
243.1748471255292
  0
ARC
  5
508
  8
__
  6
CONTINUOUS
 62
     7
 10
-187.0703678318441
 20
-844.9999999999498
 30
0.0
 40
0.820367831844172
 50
307.5320803524665
 51
52.46791962256188
  0
ARC
  5
509
  8
__
  6
CONTINUOUS
 62
     7
 10
-185.0
 20
-846.6977643801783
 30
0.0
 40
0.2222356198217773
 50
176.8251528743749
 51
3.174847125625149
  0
ARC
  5
50A
  8
__
  6
CONTINUOUS
 62
     7
 10
-186.0351839158786
 20
-846.7929911375804
 30
0.0
 40
0.8203678318443105
 50
7.532080377462396
 51
112.4679196475283
  0
ARC
  5
50B
  8
__
  6
CONTINUOUS
 62
     7
 10
-186.4703070828746
 20
-845.8488821900892
 30
0.0
 40
0.2222356198218735
 50
116.8251528744708
 51
303.1748471256047
  0
ARC
  5
50C
  8
__
  6
CONTINUOUS
 62
     7
 10
-183.9648160841216
 20
-843.2070088624196
 30
0.0
 40
0.820367831844085
 50
187.5320803774645
 51
292.4679196475283
  0
ARC
  5
50D
  8
__
  6
CONTINUOUS
 62
     7
 10
-183.5296929171254
 20
-844.1511178099108
 30
0.0
 40
0.2222356198217709
 50
296.8251528744185
 51
123.1748471256047
  0
ARC
  5
50E
  8
__
  6
CONTINUOUS
 62
     7
 10
-182.9296321681559
 20
-844.9999999999498
 30
0.0
 40
0.8203678318443044
 50
127.5320803774507
 51
232.4679196475335
  0
ARC
  5
50F
  8
__
  6
CONTINUOUS
 62
     7
 10
-183.9648160841216
 20
-846.7929911375804
 30
0.0
 40
0.8203678318445186
 50
67.53208035247175
 51
172.4679196225355
  0
ARC
  5
510
  8
__
  6
CONTINUOUS
 62
     7
 10
-183.5296929171254
 20
-845.8488821900892
 30
0.0
 40
0.2222356198216277
 50
236.8251528743952
 51
63.17484712558153
  0
CIRCLE
  5
511
  8
__
  6
CONTINUOUS
 62
     7
 10
-15.0
 20
-755.0
 30
0.0
 40
4.0
  0
ARC
  5
512
  8
__
  6
CONTINUOUS
 62
     7
 10
-15.0
 20
-753.3022356198217
 30
0.0
 40
0.2222356198217773
 50
356.8251528743749
 51
183.1748471256251
  0
ARC
  5
513
  8
__
  6
CONTINUOUS
 62
     7
 10
-13.96481608412137
 20
-753.2070088624196
 30
0.0
 40
0.8203678318443105
 50
187.5320803774624
 51
292.4679196475283
  0
ARC
  5
514
  8
__
  6
CONTINUOUS
 62
     7
 10
-13.52969291712543
 20
-754.1511178099108
 30
0.0
 40
0.2222356198218735
 50
296.8251528744708
 51
123.1748471256048
  0
ARC
  5
515
  8
__
  6
CONTINUOUS
 62
     7
 10
-12.92963216815588
 20
-754.9999999999498
 30
0.0
 40
0.820367831844166
 50
127.5320803774381
 51
232.4679196475335
  0
ARC
  5
516
  8
__
  6
CONTINUOUS
 62
     7
 10
-15.0
 20
-756.6977643801783
 30
0.0
 40
0.2222356198217773
 50
176.8251528743749
 51
3.174847125625149
  0
ARC
  5
517
  8
__
  6
CONTINUOUS
 62
     7
 10
-13.96481608412137
 20
-756.7929911375804
 30
0.0
 40
0.8203678318445186
 50
67.53208035247175
 51
172.4679196225376
  0
ARC
  5
518
  8
__
  6
CONTINUOUS
 62
     7
 10
-13.52969291712543
 20
-755.8488821900892
 30
0.0
 40
0.2222356198216277
 50
236.8251528743952
 51
63.1748471255292
  0
ARC
  5
519
  8
__
  6
CONTINUOUS
 62
     7
 10
-16.03518391587841
 20
-753.2070088624196
 30
0.0
 40
0.8203678318445186
 50
247.5320803524717
 51
352.4679196225355
  0
ARC
  5
51A
  8
__
  6
CONTINUOUS
 62
     7
 10
-16.47030708287457
 20
-754.1511178099108
 30
0.0
 40
0.2222356198216277
 50
56.82515287439525
 51
243.1748471255815
  0
ARC
  5
51B
  8
__
  6
CONTINUOUS
 62
     7
 10
-17.07036783184412
 20
-754.9999999999498
 30
0.0
 40
0.820367831844172
 50
307.5320803524665
 51
52.46791962254932
  0
ARC
  5
51C
  8
__
  6
CONTINUOUS
 62
     7
 10
-16.03518391587841
 20
-756.7929911375804
 30
0.0
 40
0.820367831844085
 50
7.532080377464479
 51
112.4679196475283
  0
ARC
  5
51D
  8
__
  6
CONTINUOUS
 62
     7
 10
-16.47030708287457
 20
-755.8488821900892
 30
0.0
 40
0.2222356198217709
 50
116.8251528744185
 51
303.1748471256047
  0
CIRCLE
  5
51E
  8
__
  6
CONTINUOUS
 62
     7
 10
-15.0
 20
-845.0
 30
0.0
 40
4.0
  0
ARC
  5
51F
  8
__
  6
CONTINUOUS
 62
     7
 10
-15.0
 20
-843.3022356198217
 30
0.0
 40
0.2222356198217773
 50
356.8251528743749
 51
183.1748471256251
  0
ARC
  5
520
  8
__
  6
CONTINUOUS
 62
     7
 10
-13.96481608412137
 20
-843.2070088624196
 30
0.0
 40
0.8203678318443105
 50
187.5320803774624
 51
292.4679196475283
  0
ARC
  5
521
  8
__
  6
CONTINUOUS
 62
     7
 10
-13.52969291712543
 20
-844.1511178099108
 30
0.0
 40
0.2222356198218735
 50
296.8251528744708
 51
123.1748471256048
  0
ARC
  5
522
  8
__
  6
CONTINUOUS
 62
     7
 10
-12.92963216815588
 20
-844.9999999999498
 30
0.0
 40
0.820367831844166
 50
127.5320803774381
 51
232.4679196475335
  0
ARC
  5
523
  8
__
  6
CONTINUOUS
 62
     7
 10
-15.0
 20
-846.6977643801783
 30
0.0
 40
0.2222356198217773
 50
176.8251528743749
 51
3.174847125625149
  0
ARC
  5
524
  8
__
  6
CONTINUOUS
 62
     7
 10
-13.96481608412137
 20
-846.7929911375804
 30
0.0
 40
0.8203678318445186
 50
67.53208035247175
 51
172.4679196225376
  0
ARC
  5
525
  8
__
  6
CONTINUOUS
 62
     7
 10
-13.52969291712543
 20
-845.8488821900892
 30
0.0
 40
0.2222356198216277
 50
236.8251528743952
 51
63.1748471255292
  0
ARC
  5
526
  8
__
  6
CONTINUOUS
 62
     7
 10
-16.03518391587841
 20
-843.2070088624196
 30
0.0
 40
0.8203678318445186
 50
247.5320803524717
 51
352.4679196225355
  0
ARC
  5
527
  8
__
  6
CONTINUOUS
 62
     7
 10
-16.47030708287457
 20
-844.1511178099108
 30
0.0
 40
0.2222356198216277
 50
56.82515287439525
 51
243.1748471255815
  0
ARC
  5
528
  8
__
  6
CONTINUOUS
 62
     7
 10
-17.07036783184412
 20
-844.9999999999498
 30
0.0
 40
0.820367831844172
 50
307.5320803524665
 51
52.46791962254932
  0
ARC
  5
529
  8
__
  6
CONTINUOUS
 62
     7
 10
-16.03518391587841
 20
-846.7929911375804
 30
0.0
 40
0.820367831844085
 50
7.532080377464479
 51
112.4679196475283
  0
ARC
  5
52A
  8
__
  6
CONTINUOUS
 62
     7
 10
-16.47030708287457
 20
-845.8488821900892
 30
0.0
 40
0.2222356198217709
 50
116.8251528744185
 51
303.1748471256047
  0
LINE
  5
52B
  8
__
  6
CONTINUOUS
 62
     7
 10
-85.00442081947318
 20
-762.6788815735599
 30
0.0
 11
-85.00442081947318
 21
-757.6788815735599
 31
0.0
  0
TEXT
  5
52C
  8
__
 62
     7
 10
-71.12463783336207
 20
-785.1497010416666
 30
0.0
 40
4.332552083333333
  1
POLARITY
 41
0.7
 72
     1
 11
-60.00442081947318
 21
-782.9834249999999
 31
0.0
 73
     2
  0
ARC
  5
52D
  8
__
  6
CONTINUOUS
 62
     7
 10
1158.989698175648
 20
135.8454619382861
 30
0.0
 40
19.99999999999989
 50
90.0
 51
270.0
  0
ARC
  5
52E
  8
__
  6
CONTINUOUS
 62
     7
 10
1198.989698175648
 20
135.8454619382861
 30
0.0
 40
20.0
 50
270.0
 51
90.0
  0
LINE
  5
52F
  8
__
  6
CONTINUOUS
 62
     7
 10
1158.989698175648
 20
155.845461938286
 30
0.0
 11
1198.989698175648
 21
155.845461938286
 31
0.0
  0
LINE
  5
530
  8
__
  6
CONTINUOUS
 62
     7
 10
1158.989698175648
 20
115.8454619382861
 30
0.0
 11
1198.989698175648
 21
115.8454619382861
 31
0.0
  0
CIRCLE
  5
531
  8
__
  6
CONTINUOUS
 62
     7
 10
1178.989698175648
 20
-135.0000000000022
 30
0.0
 40
112.5
  0
CIRCLE
  5
532
  8
__
  6
CONTINUOUS
 62
     7
 10
1179.033916370374
 20
-515.000029171299
 30
0.0
 40
112.5
  0
ARC
  5
533
  8
__
  6
CONTINUOUS
 62
     7
 10
1178.989698175648
 20
-135.0000000000022
 30
0.0
 40
105.0000000000009
 50
118.4548090000017
 51
61.58102900000166
  0
LINE
  5
534
  8
__
  6
CONTINUOUS
 62
     7
 10
1125.387338175644
 20
-36.09077000000059
 30
0.0
 11
1128.960828175647
 21
-42.6847200000019
 31
0.0
  0
LINE
  5
535
  8
__
  6
CONTINUOUS
 62
     7
 10
1232.592068175647
 20
-36.09077000000059
 30
0.0
 11
1229.018578175648
 21
-42.6847200000019
 31
0.0
  0
LINE
  5
536
  8
__
  6
CONTINUOUS
 62
     7
 10
1209.912998175643
 20
-125.0000000000022
 30
0.0
 11
1223.986578175647
 21
-125.0000000000022
 31
0.0
  0
LINE
  5
537
  8
__
  6
CONTINUOUS
 62
     7
 10
1209.912998175643
 20
-145.0000000000022
 30
0.0
 11
1223.992828175644
 21
-145.0000000000022
 31
0.0
  0
LINE
  5
538
  8
__
  6
CONTINUOUS
 62
     7
 10
1168.999368175648
 20
-165.9264200000006
 30
0.0
 11
1169.003778175649
 21
-180.0000000000022
 31
0.0
  0
LINE
  5
539
  8
__
  6
CONTINUOUS
 62
     7
 10
1188.999368175648
 20
-165.9201600000005
 30
0.0
 11
1189.003778175649
 21
-180.0000000000022
 31
0.0
  0
CIRCLE
  5
53A
  8
__
  6
CONTINUOUS
 62
     7
 10
1178.989698175648
 20
-135.0000000000022
 30
0.0
 40
80.0
  0
LINE
  5
53B
  8
__
  6
CONTINUOUS
 62
     7
 10
1148.066408175648
 20
-125.0000000000022
 30
0.0
 11
1133.986568175644
 21
-125.0000000000022
 31
0.0
  0
LINE
  5
53C
  8
__
  6
CONTINUOUS
 62
     7
 10
1148.066408175648
 20
-145.0000000000022
 30
0.0
 11
1133.992828175644
 21
-145.0000000000022
 31
0.0
  0
ARC
  5
53D
  8
__
  6
CONTINUOUS
 62
     7
 10
1133.989698175648
 20
-135.0000000000022
 30
0.0
 40
9.999999999999945
 50
90.01791900001633
 51
270.0179189999903
  0
ARC
  5
53E
  8
__
  6
CONTINUOUS
 62
     7
 10
1179.003778175649
 20
-180.0000000000022
 30
0.0
 40
10.0
 50
180.0
 51
0.0
  0
ARC
  5
53F
  8
__
  6
CONTINUOUS
 62
     7
 10
1223.989708175647
 20
-135.0000000000022
 30
0.0
 40
9.999999999999943
 50
270.0179189999903
 51
90.01791899999027
  0
ARC
  5
540
  8
__
  6
CONTINUOUS
 62
     7
 10
1178.989698175648
 20
-135.0000000000022
 30
0.0
 40
32.50000000000547
 50
197.9202129999983
 51
252.0977059999958
  0
ARC
  5
541
  8
__
  6
CONTINUOUS
 62
     7
 10
1178.989698175648
 20
-135.0000000000022
 30
0.0
 40
32.49999999999936
 50
287.9381319999904
 51
342.0797869999968
  0
ARC
  5
542
  8
__
  6
CONTINUOUS
 62
     7
 10
1178.989698175648
 20
-135.0000000000022
 30
0.0
 40
32.49999999999682
 50
17.92021300000318
 51
162.0797870000018
  0
CIRCLE
  5
543
  8
__
  6
CONTINUOUS
 62
     7
 10
1134.03390637037
 20
-515.000029171299
 30
0.0
 40
7.5
  0
CIRCLE
  5
544
  8
__
  6
CONTINUOUS
 62
     7
 10
1179.047986370371
 20
-560.000029171299
 30
0.0
 40
7.5
  0
CIRCLE
  5
545
  8
__
  6
CONTINUOUS
 62
     7
 10
1224.033916370374
 20
-515.000029171299
 30
0.0
 40
7.5
  0
CIRCLE
  5
546
  8
__
  6
CONTINUOUS
 62
     7
 10
1179.033916370374
 20
-515.000029171299
 30
0.0
 40
80.0
  0
CIRCLE
  5
547
  8
__
  6
CONTINUOUS
 62
     7
 10
1079.963798175647
 20
-36.03602000000126
 30
0.0
 40
15.0
  0
LINE
  5
548
  8
__
  6
CONTINUOUS
 62
     7
 10
1072.890518175647
 20
-28.96716000000185
 30
0.0
 11
1087.037078175646
 21
-43.10487000000182
 31
0.0
  0
LINE
  5
549
  8
__
  6
CONTINUOUS
 62
     7
 10
1087.032658175646
 20
-28.96274000000165
 30
0.0
 11
1072.894938175643
 21
-43.10930000000087
 31
0.0
  0
CIRCLE
  5
54A
  8
__
  6
CONTINUOUS
 62
     7
 10
1080.008006370374
 20
-416.0360491712958
 30
0.0
 40
15.0
  0
LINE
  5
54B
  8
__
  6
CONTINUOUS
 62
     7
 10
1072.934726370374
 20
-408.9671891712964
 30
0.0
 11
1087.081286370373
 21
-423.1048991712963
 31
0.0
  0
LINE
  5
54C
  8
__
  6
CONTINUOUS
 62
     7
 10
1087.076866370373
 20
-408.9627691712961
 30
0.0
 11
1072.939146370374
 21
-423.1093291712954
 31
0.0
  0
LINE
  5
54D
  8
__
  6
CONTINUOUS
 62
     7
 10
1288.441132371621
 20
-226.8951300000003
 30
0.0
 11
1302.58769237162
 21
-241.0328400000002
 31
0.0
  0
LINE
  5
54E
  8
__
  6
CONTINUOUS
 62
     7
 10
1302.583262371621
 20
-226.8907100000023
 30
0.0
 11
1288.445552371626
 21
-241.0372600000004
 31
0.0
  0
LINE
  5
54F
  8
__
  6
CONTINUOUS
 62
     7
 10
1288.441132371621
 20
-226.8951300000003
 30
0.0
 11
1302.58769237162
 21
-241.0328400000002
 31
0.0
  0
LINE
  5
550
  8
__
  6
CONTINUOUS
 62
     7
 10
1302.583262371621
 20
-226.8907100000023
 30
0.0
 11
1288.445552371626
 21
-241.0372600000004
 31
0.0
  0
CIRCLE
  5
551
  8
__
  6
CONTINUOUS
 62
     7
 10
1295.558620566347
 20
-613.9640191712965
 30
0.0
 40
15.0
  0
LINE
  5
552
  8
__
  6
CONTINUOUS
 62
     7
 10
1288.485340566352
 20
-606.8951591712971
 30
0.0
 11
1302.631900566352
 21
-621.0328691712971
 31
0.0
  0
LINE
  5
553
  8
__
  6
CONTINUOUS
 62
     7
 10
1302.627480566347
 20
-606.8907391712969
 30
0.0
 11
1288.489760566348
 21
-621.0372891712973
 31
0.0
  0
CIRCLE
  5
554
  8
__
  6
CONTINUOUS
 62
     7
 10
1295.558620566347
 20
-613.9640191712965
 30
0.0
 40
15.0
  0
LINE
  5
555
  8
__
  6
CONTINUOUS
 62
     7
 10
1288.485340566352
 20
-606.8951591712971
 30
0.0
 11
1302.631900566352
 21
-621.0328691712971
 31
0.0
  0
LINE
  5
556
  8
__
  6
CONTINUOUS
 62
     7
 10
1302.627480566347
 20
-606.8907391712969
 30
0.0
 11
1288.489760566348
 21
-621.0372891712973
 31
0.0
  0
ARC
  5
557
  8
__
  6
CONTINUOUS
 62
     7
 10
1458.945489980917
 20
135.9283419382861
 30
0.0
 40
19.99999999999989
 50
90.0
 51
270.0
  0
ARC
  5
558
  8
__
  6
CONTINUOUS
 62
     7
 10
1498.945489980917
 20
135.9283419382861
 30
0.0
 40
20.0
 50
270.0
 51
90.0
  0
LINE
  5
559
  8
__
  6
CONTINUOUS
 62
     7
 10
1458.945489980917
 20
155.9283419382859
 30
0.0
 11
1498.945489980917
 21
155.9283419382859
 31
0.0
  0
LINE
  5
55A
  8
__
  6
CONTINUOUS
 62
     7
 10
1458.945489980917
 20
115.9283419382861
 30
0.0
 11
1498.945489980917
 21
115.9283419382861
 31
0.0
  0
CIRCLE
  5
55B
  8
__
  6
CONTINUOUS
 62
     7
 10
1478.945489980917
 20
-134.9171200000023
 30
0.0
 40
112.5
  0
CIRCLE
  5
55C
  8
__
  6
CONTINUOUS
 62
     7
 10
1478.989698175648
 20
-514.9171491712991
 30
0.0
 40
112.5
  0
ARC
  5
55D
  8
__
  6
CONTINUOUS
 62
     7
 10
1478.945489980917
 20
-134.9171200000023
 30
0.0
 40
104.9999999999987
 50
118.4548089999995
 51
61.5810289999996
  0
LINE
  5
55E
  8
__
  6
CONTINUOUS
 62
     7
 10
1425.343129980922
 20
-36.00789000000066
 30
0.0
 11
1428.916619980921
 21
-42.60184000000197
 31
0.0
  0
LINE
  5
55F
  8
__
  6
CONTINUOUS
 62
     7
 10
1532.547849980921
 20
-36.00789000000066
 30
0.0
 11
1528.974359980918
 21
-42.60184000000197
 31
0.0
  0
LINE
  5
560
  8
__
  6
CONTINUOUS
 62
     7
 10
1509.868779980918
 20
-124.9171200000023
 30
0.0
 11
1523.942369980916
 21
-124.9171200000023
 31
0.0
  0
LINE
  5
561
  8
__
  6
CONTINUOUS
 62
     7
 10
1509.868779980918
 20
-144.9171200000023
 30
0.0
 11
1523.948619980922
 21
-144.9171200000023
 31
0.0
  0
LINE
  5
562
  8
__
  6
CONTINUOUS
 62
     7
 10
1468.955159980917
 20
-165.8435400000007
 30
0.0
 11
1468.959559980919
 21
-179.9171200000023
 31
0.0
  0
LINE
  5
563
  8
__
  6
CONTINUOUS
 62
     7
 10
1488.955159980917
 20
-165.8372900000017
 30
0.0
 11
1488.959559980919
 21
-179.9171200000023
 31
0.0
  0
CIRCLE
  5
564
  8
__
  6
CONTINUOUS
 62
     7
 10
1478.945489980917
 20
-134.9171200000023
 30
0.0
 40
80.0
  0
LINE
  5
565
  8
__
  6
CONTINUOUS
 62
     7
 10
1448.022199980916
 20
-124.9171200000023
 30
0.0
 11
1433.942359980922
 21
-124.9171200000023
 31
0.0
  0
LINE
  5
566
  8
__
  6
CONTINUOUS
 62
     7
 10
1448.022199980916
 20
-144.9171200000023
 30
0.0
 11
1433.948619980922
 21
-144.9171200000023
 31
0.0
  0
ARC
  5
567
  8
__
  6
CONTINUOUS
 62
     7
 10
1433.945489980917
 20
-134.9171200000023
 30
0.0
 40
9.999999999999943
 50
90.01791899999027
 51
270.0179190000164
  0
ARC
  5
568
  8
__
  6
CONTINUOUS
 62
     7
 10
1478.959559980919
 20
-179.9171200000023
 30
0.0
 40
10.0
 50
180.0
 51
0.0
  0
ARC
  5
569
  8
__
  6
CONTINUOUS
 62
     7
 10
1523.945489980917
 20
-134.9171200000023
 30
0.0
 40
9.999999999999945
 50
270.0179190000163
 51
90.01791899999026
  0
ARC
  5
56A
  8
__
  6
CONTINUOUS
 62
     7
 10
1478.945489980917
 20
-134.9171200000023
 30
0.0
 40
32.49999999999682
 50
197.9202130000032
 51
252.0977060000034
  0
ARC
  5
56B
  8
__
  6
CONTINUOUS
 62
     7
 10
1478.945489980917
 20
-134.9171200000023
 30
0.0
 40
32.50000000000216
 50
287.9381320000057
 51
342.0797870000017
  0
ARC
  5
56C
  8
__
  6
CONTINUOUS
 62
     7
 10
1478.945489980917
 20
-134.9171200000023
 30
0.0
 40
32.50000000000547
 50
17.92021299999825
 51
162.0797869999969
  0
CIRCLE
  5
56D
  8
__
  6
CONTINUOUS
 62
     7
 10
1433.989698175648
 20
-514.9171491712991
 30
0.0
 40
7.5
  0
CIRCLE
  5
56E
  8
__
  6
CONTINUOUS
 62
     7
 10
1479.003778175645
 20
-559.9171491712991
 30
0.0
 40
7.5
  0
CIRCLE
  5
56F
  8
__
  6
CONTINUOUS
 62
     7
 10
1523.989698175648
 20
-514.9171491712991
 30
0.0
 40
7.5
  0
LINE
  5
570
  8
__
  6
CONTINUOUS
 62
     7
 10
1372.846309980916
 20
-28.88428000000192
 30
0.0
 11
1386.992869980915
 21
-43.02200000000073
 31
0.0
  0
LINE
  5
571
  8
__
  6
CONTINUOUS
 62
     7
 10
1386.988439980916
 20
-28.87986000000171
 30
0.0
 11
1372.850729980921
 21
-43.02642000000094
 31
0.0
  0
CIRCLE
  5
572
  8
__
  6
CONTINUOUS
 62
     7
 10
1379.963798175642
 20
-415.9531691712958
 30
0.0
 40
15.0
  0
LINE
  5
573
  8
__
  6
CONTINUOUS
 62
     7
 10
1372.890518175647
 20
-408.8843091712964
 30
0.0
 11
1387.037078175646
 21
-423.0220291712952
 31
0.0
  0
LINE
  5
574
  8
__
  6
CONTINUOUS
 62
     7
 10
1387.032648175647
 20
-408.8798891712962
 30
0.0
 11
1372.894938175643
 21
-423.0264491712954
 31
0.0
  0
LINE
  5
575
  8
__
  6
CONTINUOUS
 62
     7
 10
1570.898119980918
 20
-226.8122500000003
 30
0.0
 11
1585.044669980918
 21
-240.9499700000014
 31
0.0
  0
LINE
  5
576
  8
__
  6
CONTINUOUS
 62
     7
 10
1585.040249980918
 20
-226.8078300000024
 30
0.0
 11
1570.902539980918
 21
-240.9543900000016
 31
0.0
  0
LINE
  5
577
  8
__
  6
CONTINUOUS
 62
     7
 10
1570.898119980918
 20
-226.8122500000003
 30
0.0
 11
1585.044669980918
 21
-240.9499700000014
 31
0.0
  0
LINE
  5
578
  8
__
  6
CONTINUOUS
 62
     7
 10
1585.040249980918
 20
-226.8078300000024
 30
0.0
 11
1570.902539980918
 21
-240.9543900000016
 31
0.0
  0
CIRCLE
  5
579
  8
__
  6
CONTINUOUS
 62
     7
 10
1578.015608175644
 20
-613.8811391712966
 30
0.0
 40
15.0
  0
LINE
  5
57A
  8
__
  6
CONTINUOUS
 62
     7
 10
1570.942328175644
 20
-606.8122791712972
 30
0.0
 11
1585.088888175644
 21
-620.949999171296
 31
0.0
  0
LINE
  5
57B
  8
__
  6
CONTINUOUS
 62
     7
 10
1585.084458175645
 20
-606.807859171297
 30
0.0
 11
1570.946748175645
 21
-620.9544191712962
 31
0.0
  0
CIRCLE
  5
57C
  8
__
  6
CONTINUOUS
 62
     7
 10
1578.015608175644
 20
-613.8811391712966
 30
0.0
 40
15.0
  0
LINE
  5
57D
  8
__
  6
CONTINUOUS
 62
     7
 10
1570.942328175644
 20
-606.8122791712972
 30
0.0
 11
1585.088888175644
 21
-620.949999171296
 31
0.0
  0
LINE
  5
57E
  8
__
  6
CONTINUOUS
 62
     7
 10
1585.084458175645
 20
-606.807859171297
 30
0.0
 11
1570.946748175645
 21
-620.9544191712962
 31
0.0
  0
CIRCLE
  5
57F
  8
__
  6
CONTINUOUS
 62
     7
 10
1577.971389980919
 20
-233.881110000002
 30
0.0
 40
15.0
  0
CIRCLE
  5
580
  8
__
  6
CONTINUOUS
 62
     7
 10
1295.514412371625
 20
-233.9639900000019
 30
0.0
 40
15.0
  0
CIRCLE
  5
581
  8
__
  6
CONTINUOUS
 62
     7
 10
1379.91958998092
 20
-35.95314000000133
 30
0.0
 40
15.0
  0
CIRCLE
  5
582
  8
__
  6
CONTINUOUS
 62
     7
 10
1728.945489980917
 20
-134.8342500000012
 30
0.0
 40
40.0
  0
CIRCLE
  5
583
  8
__
  6
CONTINUOUS
 62
     7
 10
1478.989698175648
 20
-514.9171491712991
 30
0.0
 40
80.0
  0
LINE
  5
584
  8
__
  6
CONTINUOUS
 62
     7
 10
1179.024888175647
 20
-253.2417120000013
 30
0.0
 11
1179.040522957063
 21
-293.2417089444219
 31
0.0
  0
TEXT
  5
585
  8
__
 62
     7
 10
1104.180975536754
 20
-697.5914900338813
 30
0.0
 40
43.32552083333334
  1
THRU 1
 41
0.7
 72
     1
 11
1178.989708175643
 21
-675.9287296172147
 31
0.0
 73
     2
  0
TEXT
  5
586
  8
__
 62
     7
 10
1399.082113244806
 20
-697.5086100338814
 30
0.0
 40
43.32552083333334
  1
THRU 2
 41
0.7
 72
     1
 11
1478.945489980917
 21
-675.8458496172148
 31
0.0
 73
     2
  0
TEXT
  5
587
  8
__
 62
     7
 10
1072.842172133982
 20
54.182701521624
 30
0.0
 40
43.32552083333334
  1
SIG/CLIP
 41
0.7
 72
     1
 11
1178.989698175648
 21
75.84546193829067
 31
0.0
 73
     2
  0
TEXT
  5
588
  8
__
 62
     7
 10
1143.565053400422
 20
-347.5925314090346
 30
0.0
 40
43.32552083333334
  1
CH1
 41
0.7
 72
     1
 11
1178.947562080977
 21
-325.9297709923679
 31
0.0
 73
     2
  0
TEXT
  5
589
  8
__
 62
     7
 10
1438.466191108474
 20
-347.5096514090347
 30
0.0
 40
43.32552083333334
  1
CH2
 41
0.7
 72
     1
 11
1478.903343886252
 21
-325.846890992368
 31
0.0
 73
     2
  0
LINE
  5
58A
  8
__
  6
CONTINUOUS
 62
     7
 10
1178.989698175648
 20
-11.78881573560136
 30
0.0
 11
1178.989698175648
 21
38.21118426439864
 31
0.0
  0
TEXT
  5
58B
  8
__
 62
     7
 10
1372.79796393925
 20
54.182701521624
 30
0.0
 40
43.32552083333334
  1
SIG/CLIP
 41
0.7
 72
     1
 11
1478.945489980917
 21
75.84546193829067
 31
0.0
 73
     2
  0
LINE
  5
58C
  8
__
  6
CONTINUOUS
 62
     7
 10
1178.983091588959
 20
-356.7417532268768
 30
0.0
 11
1178.998726370375
 21
-396.7417501712974
 31
0.0
  0
LINE
  5
58D
  8
__
  6
CONTINUOUS
 62
     7
 10
1478.937672590209
 20
-253.2417120000013
 30
0.0
 11
1478.953307371625
 21
-293.2417089444219
 31
0.0
  0
LINE
  5
58E
  8
__
  6
CONTINUOUS
 62
     7
 10
1478.895876003523
 20
-356.7417532268768
 30
0.0
 11
1478.911510784939
 21
-396.7417501712974
 31
0.0
  0
LINE
  5
58F
  8
__
  6
CONTINUOUS
 62
     7
 10
1544.17422817565
 20
654.9999999999977
 30
0.0
 11
1044.174208175648
 21
654.9999999999977
 31
0.0
  0
LINE
  5
590
  8
__
  6
CONTINUOUS
 62
     7
 10
1544.17422817565
 20
654.9999999999977
 30
0.0
 11
1544.28993817565
 21
284.9999999999977
 31
0.0
  0
LINE
  5
591
  8
__
  6
CONTINUOUS
 62
     7
 10
1544.28993817565
 20
284.9999999999977
 30
0.0
 11
1044.289918175648
 21
284.9999999999977
 31
0.0
  0
LINE
  5
592
  8
__
  6
CONTINUOUS
 62
     7
 10
1044.174208175648
 20
654.9999999999977
 30
0.0
 11
1044.289918175648
 21
284.9999999999977
 31
0.0
  0
CIRCLE
  5
593
  8
__
  6
CONTINUOUS
 62
     7
 10
829.2023381756485
 20
564.9999999999977
 30
0.0
 40
75.0
  0
CIRCLE
  5
594
  8
__
  6
CONTINUOUS
 62
     7
 10
1719.202388175647
 20
564.9999999999977
 30
0.0
 40
90.0
  0
CIRCLE
  5
595
  8
__
  6
CONTINUOUS
 62
     7
 10
1719.202388175647
 20
319.9999999999977
 30
0.0
 40
35.0
  0
ARC
  5
596
  8
__
  6
CONTINUOUS
 62
     7
 10
809.2023381756485
 20
314.9999999999977
 30
0.0
 40
20.00000000000084
 50
94.84558399999177
 51
270.0
  0
ARC
  5
597
  8
__
  6
CONTINUOUS
 62
     7
 10
849.2023381756485
 20
314.9999999999977
 30
0.0
 40
20.0
 50
270.0
 51
90.0
  0
LINE
  5
598
  8
__
  6
CONTINUOUS
 62
     7
 10
809.2023381756485
 20
334.9999999999977
 30
0.0
 11
849.2023381756485
 21
334.9999999999977
 31
0.0
  0
LINE
  5
599
  8
__
  6
CONTINUOUS
 62
     7
 10
809.2023381756485
 20
294.9999999999977
 30
0.0
 11
849.2023381756485
 21
294.9999999999977
 31
0.0
  0
TEXT
  5
59A
  8
__
 62
     7
 10
1592.836285745092
 20
418.337239583331
 30
0.0
 40
43.32552083333334
  1
MAIN/MENU
 41
0.7
 72
     1
 11
1719.202388175647
 21
439.9999999999977
 31
0.0
 73
     2
  0
TEXT
  5
59B
  8
__
 62
     7
 10
753.3826767173151
 20
433.337239583331
 30
0.0
 40
43.32552083333334
  1
POWER
 41
0.7
 72
     1
 11
829.2023381756485
 21
454.9999999999977
 31
0.0
 73
     2
  0
TEXT
  5
59C
  8
__
 62
     7
 10
1663.601303106203
 20
223.3372395833311
 30
0.0
 40
43.32552083333334
  1
BACK
 41
0.7
 72
     1
 11
1719.202388175647
 21
244.9999999999977
 31
0.0
 73
     2
  0
TEXT
  5
59D
  8
__
 62
     7
 10
768.5466090089818
 20
223.3372395833311
 30
0.0
 40
43.32552083333334
  1
LIMIT
 41
0.7
 72
     1
 11
829.2023381756485
 21
244.9999999999977
 31
0.0
 73
     2
  0
LINE
  5
59E
  8
__
  6
CONTINUOUS
 62
     7
 10
1478.945489980917
 20
-11.78881573560136
 30
0.0
 11
1478.945489980917
 21
38.21118426439864
 31
0.0
  0
TEXT
  5
59F
  8
__
 62
     7
 10
1617.743319842028
 20
-236.4970104166678
 30
0.0
 40
43.32552083333334
  1
POLARITY
 41
0.7
 72
     1
 11
1728.945489980917
 21
-214.8342500000012
 31
0.0
 73
     2
  0
VIEWPORT
  5
5A0
 67
     1
  8
0
 10
128.5
 20
97.5
 30
0.0
 40
314.226
 41
222.18
 68
     1
 69
     1
1001
ACAD
1000
MVIEW
1002
{
1070
    16
1010
0.0
1020
0.0
1030
0.0
1020
0.0
1030
0.0
1010
0.0
1020
0.0
1030
1.0
1020
0.0
1030
1.0
1040
0.0
1040
222.18
1040
128.5
1040
97.5
1040
50.0
1040
0.0
1040
0.0
1070
     0
1070
   100
1070
     0
1070
     3
1070
     0
1070
     0
1070
     0
1070
     0
1040
0.0
1040
0.0
1040
0.0
1040
10.0
1040
10.0
1040
10.0
1040
10.0
1070
     0
1002
{
1002
}
1002
}
  0
ENDSEC
  0
EOF
