  0
SECTION
  2
HEADER
  9
$ACADVER
  1
AC1009
  9
$INSBASE
 10
0.0
 20
0.0
 30
0.0
  9
$EXTMIN
 10
-575.04119558730315
 20
-869.2075547966673
 30
-0.0015258207003583
  9
$EXTMAX
 10
775.04120187373019
 20
1138.0179281775611
 30
0.0000000349246037
  9
$LIMMIN
 10
0.0
 20
0.0
  9
$LIMMAX
 10
0.0
 20
0.0
  9
$ORTHOMODE
 70
     0
  9
$REGENMODE
 70
     1
  9
$FILLMODE
 70
     1
  9
$QTEXTMODE
 70
     0
  9
$MIRRTEXT
 70
     1
  9
$DRAGMODE
 70
     2
  9
$LTSCALE
 40
38.100000000000001
  9
$OSMODE
 70
   231
  9
$ATTMODE
 70
     1
  9
$TEXTSIZE
 40
0.0
  9
$TRACEWID
 40
1.0
  9
$TEXTSTYLE
  7
STANDARD
  9
$CLAYER
  8
DATA
  9
$CELTYPE
  6
BYLAYER
  9
$CECOLOR
 62
   256
  9
$DIMSCALE
 40
1.0
  9
$DIMASZ
 40
0.18
  9
$DIMEXO
 40
0.0625
  9
$DIMDLI
 40
0.38
  9
$DIMRND
 40
0.0
  9
$DIMDLE
 40
0.0
  9
$DIMEXE
 40
0.18
  9
$DIMTP
 40
0.0
  9
$DIMTM
 40
0.0
  9
$DIMTXT
 40
0.18
  9
$DIMCEN
 40
0.09
  9
$DIMTSZ
 40
0.0
  9
$DIMTOL
 70
     0
  9
$DIMLIM
 70
     0
  9
$DIMTIH
 70
     1
  9
$DIMTOH
 70
     1
  9
$DIMSE1
 70
     0
  9
$DIMSE2
 70
     0
  9
$DIMTAD
 70
     0
  9
$DIMZIN
 70
     0
  9
$DIMBLK
  1

  9
$DIMASO
 70
     1
  9
$DIMSHO
 70
     1
  9
$DIMPOST
  1

  9
$DIMAPOST
  1

  9
$DIMALT
 70
     0
  9
$DIMALTD
 70
     2
  9
$DIMALTF
 40
25.399999999999999
  9
$DIMLFAC
 40
1.0
  9
$DIMTOFL
 70
     0
  9
$DIMTVP
 40
0.0
  9
$DIMTIX
 70
     0
  9
$DIMSOXD
 70
     0
  9
$DIMSAH
 70
     0
  9
$DIMBLK1
  1

  9
$DIMBLK2
  1

  9
$DIMSTYLE
  2
STANDARD
  9
$DIMCLRD
 70
     0
  9
$DIMCLRE
 70
     0
  9
$DIMCLRT
 70
     0
  9
$DIMTFAC
 40
1.0
  9
$DIMGAP
 40
0.09
  9
$LUNITS
 70
     2
  9
$LUPREC
 70
     4
  9
$SKETCHINC
 40
0.1
  9
$FILLETRAD
 40
0.0
  9
$AUNITS
 70
     0
  9
$AUPREC
 70
     0
  9
$MENU
  1
acad
  9
$ELEVATION
 40
0.0
  9
$PELEVATION
 40
0.0
  9
$THICKNESS
 40
0.0
  9
$LIMCHECK
 70
     0
  9
$BLIPMODE
 70
     0
  9
$CHAMFERA
 40
0.0
  9
$CHAMFERB
 40
0.0
  9
$SKPOLY
 70
     0
  9
$TDCREATE
 40
2454351.70912037
  9
$TDUPDATE
 40
2454351.7256075232
  9
$TDINDWG
 40
0.0003240856
  9
$TDUSRTIMER
 40
0.0003235417
  9
$USRTIMER
 70
     1
  9
$ANGBASE
 50
0.0
  9
$ANGDIR
 70
     0
  9
$PDMODE
 70
     1
  9
$PDSIZE
 40
-2.0
  9
$PLINEWID
 40
0.0
  9
$COORDS
 70
     1
  9
$SPLFRAME
 70
     0
  9
$SPLINETYPE
 70
     6
  9
$SPLINESEGS
 70
     8
  9
$ATTDIA
 70
     0
  9
$ATTREQ
 70
     1
  9
$HANDLING
 70
     1
  9
$HANDSEED
  5
272
  9
$SURFTAB1
 70
     6
  9
$SURFTAB2
 70
     6
  9
$SURFTYPE
 70
     6
  9
$SURFU
 70
     6
  9
$SURFV
 70
     6
  9
$UCSNAME
  2

  9
$UCSORG
 10
0.0
 20
0.0
 30
0.0
  9
$UCSXDIR
 10
1.0
 20
0.0
 30
0.0
  9
$UCSYDIR
 10
0.0
 20
1.0
 30
0.0
  9
$PUCSNAME
  2

  9
$PUCSORG
 10
0.0
 20
0.0
 30
0.0
  9
$PUCSXDIR
 10
1.0
 20
0.0
 30
0.0
  9
$PUCSYDIR
 10
0.0
 20
1.0
 30
0.0
  9
$USERI1
 70
     0
  9
$USERI2
 70
     0
  9
$USERI3
 70
     0
  9
$USERI4
 70
     0
  9
$USERI5
 70
     0
  9
$USERR1
 40
0.0
  9
$USERR2
 40
0.0
  9
$USERR3
 40
0.0
  9
$USERR4
 40
0.0
  9
$USERR5
 40
0.0
  9
$WORLDVIEW
 70
     1
  9
$SHADEDGE
 70
     3
  9
$SHADEDIF
 70
    70
  9
$TILEMODE
 70
     1
  9
$MAXACTVP
 70
    64
  9
$PLIMCHECK
 70
     0
  9
$PEXTMIN
 10
1.0000000000000000E+020
 20
1.0000000000000000E+020
 30
1.0000000000000000E+020
  9
$PEXTMAX
 10
-1.0000000000000000E+020
 20
-1.0000000000000000E+020
 30
-1.0000000000000000E+020
  9
$PLIMMIN
 10
0.0
 20
0.0
  9
$PLIMMAX
 10
12.0
 20
9.0
  9
$UNITMODE
 70
     0
  9
$VISRETAIN
 70
     0
  9
$PLINEGEN
 70
     1
  9
$PSLTSCALE
 70
     0
  0
ENDSEC
  0
SECTION
  2
TABLES
  0
TABLE
  2
VPORT
 70
     1
  0
VPORT
  2
*ACTIVE
 70
     0
 10
0.0
 20
0.0
 11
1.0
 21
1.0
 12
100.0000031432136
 22
134.40518669044729
 13
0.0
 23
0.0
 14
1.0
 24
1.0
 15
0.0
 25
0.0
 16
0.0
 26
0.0
 36
1.0
 17
0.0
 27
0.0
 37
0.0
 40
2023.8829558619821
 41
1.6703601108033239
 42
50.0
 43
0.0
 44
0.0
 50
0.0
 51
0.0
 71
     0
 72
  2000
 73
     1
 74
     1
 75
     0
 76
     0
 77
     0
 78
     0
  0
ENDTAB
  0
TABLE
  2
LTYPE
 70
    11
  0
LTYPE
  2
CONTINUOUS
 70
     0
  3
Solid line
 72
    65
 73
     0
 40
0.0
  0
LTYPE
  2
STYLE_01
 70
     0
  3

 72
    65
 73
     2
 40
0.4166412353515625
 49
0.208282470703125
 49
-0.2083587646484375
  0
ENDTAB
  0
TABLE
  2
LAYER
 70
     5
  0
LAYER
  2
0
 70
     0
 62
     7
  6
CONTINUOUS
  0
LAYER
  2
DATA
 70
     0
 62
     7
  6
CONTINUOUS
  0
LAYER
  2
HIBINO-BASE
 70
     0
 62
     7
  6
CONTINUOUS
  0
LAYER
  2
SPEC
 70
     0
 62
     7
  6
CONTINUOUS
  0
LAYER
  2
DIMNSIONS
 70
     0
 62
     7
  6
CONTINUOUS
  0
ENDTAB
  0
TABLE
  2
STYLE
 70
     2
  0
STYLE
  2
STANDARD
 70
     0
 40
0.0
 41
1.0
 50
0.0
 71
     0
 42
0.0
  3
txt
  4
BIGFONT.SHX
  0
ENDTAB
  0
TABLE
  2
VIEW
 70
     0
  0
ENDTAB
  0
TABLE
  2
UCS
 70
     0
  0
ENDTAB
  0
TABLE
  2
APPID
 70
     1
  0
APPID
  2
ACAD
 70
     0
  0
ENDTAB
  0
TABLE
  2
DIMSTYLE
 70
     1
  0
DIMSTYLE
  2
STANDARD
 70
     0
  3

  4

  5

  6

  7

 40
1.0
 41
0.18
 42
0.0625
 43
0.38
 44
0.18
 45
0.0
 46
0.0
 47
0.0
 48
0.0
140
0.18
141
0.09
142
0.0
143
25.399999999999999
144
1.0
145
0.0
146
1.0
147
0.09
 71
     0
 72
     0
 73
     1
 74
     1
 75
     0
 76
     0
 77
     0
 78
     0
170
     0
171
     2
172
     0
173
     0
174
     0
175
     0
176
     0
177
     0
178
     0
  0
ENDTAB
  0
ENDSEC
  0
SECTION
  2
BLOCKS
  0
BLOCK
  8
0
  2
$MODEL_SPACE
 70
     0
 10
0.0
 20
0.0
 30
0.0
  3
$MODEL_SPACE
  1

  0
ENDBLK
  5
21D
  8
0
  0
BLOCK
 67
     1
  8
0
  2
$PAPER_SPACE
 70
     0
 10
0.0
 20
0.0
 30
0.0
  3
$PAPER_SPACE
  1

  0
ENDBLK
  5
219
 67
     1
  8
0
  0
ENDSEC
  0
SECTION
  2
ENTITIES
  0
LINE
  5
2C
  8
HIBINO-BASE
  6
CONTINUOUS
 62
     7
 10
-574.99999999999989
 20
1137.9567975
 30
0.0
 11
775.0
 21
1137.9567975
 31
0.0
  0
LINE
  5
2D
  8
HIBINO-BASE
  6
CONTINUOUS
 62
     7
 10
775.0
 20
-812.04320249999989
 30
0.0
 11
-574.99999999999989
 21
-812.04320249999989
 31
0.0
  0
LINE
  5
2E
  8
HIBINO-BASE
  6
CONTINUOUS
 62
     7
 10
-574.99999999999989
 20
-812.04320249999989
 30
0.0
 11
-574.99999999999989
 21
1137.9567975
 31
0.0
  0
TEXT
  5
2F
  8
HIBINO-BASE
 62
     7
 10
-521.11999999999978
 20
-860.10828599999957
 30
0.0
 40
27.00033134765625
  1
Hibino Corporation
 41
0.7
 11
-521.11999999999978
 21
-833.10795465234355
 31
0.0
 73
     3
  0
LINE
  5
30
  8
HIBINO-BASE
  6
CONTINUOUS
 62
     7
 10
775.0
 20
1137.9567975
 30
0.0
 11
775.0
 21
-812.04320249999989
 31
0.0
  0
LINE
  5
31
  8
HIBINO-BASE
  6
CONTINUOUS
 62
     7
 10
100.0
 20
-643.29320249999989
 30
0.0
 11
775.0
 21
-643.29320249999989
 31
0.0
  0
LINE
  5
32
  8
HIBINO-BASE
  6
CONTINUOUS
 62
     7
 10
100.0
 20
-812.04320249999989
 30
0.0
 11
100.0
 21
-643.29320249999989
 31
0.0
  0
TEXT
  5
33
  8
HIBINO-BASE
 62
     7
 10
106.75
 20
-662.10840250000001
 30
0.0
 40
12.21630859375
  1
NOTE
 41
0.7
 11
106.75
 21
-649.89209390625001
 31
0.0
 73
     3
  0
LINE
  5
34
  8
HIBINO-BASE
  6
CONTINUOUS
 62
     7
 10
362.5
 20
-812.04320249999989
 30
0.0
 11
362.5
 21
-643.29320249999989
 31
0.0
  0
TEXT
  5
35
  8
HIBINO-BASE
 62
     7
 10
369.25
 20
-662.10840250000001
 30
0.0
 40
12.21630859375
  1
TITLE
 41
0.7
 11
369.25
 21
-649.89209390625001
 31
0.0
 73
     3
  0
TEXT
  5
36
  8
HIBINO-BASE
 62
     7
 10
475.512925
 20
-860.10828599999957
 30
0.0
 40
27.00033134765625
  1
ヒビノ株式会社
 41
0.7
 11
475.512925
 21
-833.10795465234355
 31
0.0
 73
     3
  0
LINE
  5
37
  8
HIBINO-BASE
  6
CONTINUOUS
 62
     7
 10
100.0
 20
-737.04320250000001
 30
0.0
 11
775.0
 21
-737.04320250000001
 31
0.0
  0
TEXT
  5
38
  8
HIBINO-BASE
 62
     7
 10
463.0
 20
-755.43600249999974
 30
0.0
 40
12.21630859375
  1
DRAWN
 41
0.7
 11
463.0
 21
-743.21969390624986
 31
0.0
 73
     3
  0
TEXT
  5
39
  8
HIBINO-BASE
 62
     7
 10
275.5
 20
-755.43600249999974
 30
0.0
 40
12.21630859375
  1
DATE
 41
0.7
 11
275.5
 21
-743.21969390624986
 31
0.0
 73
     3
  0
TEXT
  5
3A
  8
HIBINO-BASE
 62
     7
 10
200.5
 20
-755.43600249999974
 30
0.0
 40
12.21630859375
  1
SCALE
 41
0.7
 11
200.5
 21
-743.21969390624986
 31
0.0
 73
     3
  0
TEXT
  5
3B
  8
HIBINO-BASE
 62
     7
 10
369.25
 20
-755.43600249999974
 30
0.0
 40
12.21630859375
  1
DESIGN
 41
0.7
 11
369.25
 21
-743.21969390624986
 31
0.0
 73
     3
  0
TEXT
  5
3C
  8
HIBINO-BASE
 62
     7
 10
650.49999999999989
 20
-755.43600249999974
 30
0.0
 40
12.21630859375
  1
DRAWING NO.
 41
0.7
 11
650.49999999999989
 21
-743.21969390624986
 31
0.0
 73
     3
  0
TEXT
  5
3D
  8
HIBINO-BASE
 62
     7
 10
556.74999999999989
 20
-755.43600249999974
 30
0.0
 40
12.21630859375
  1
CHECK
 41
0.7
 11
556.74999999999989
 21
-743.21969390624986
 31
0.0
 73
     3
  0
LINE
  5
3E
  8
HIBINO-BASE
  6
CONTINUOUS
 62
     7
 10
207.8125
 20
-802.66820249999989
 30
0.0
 11
235.9375
 21
-774.54320250000001
 31
0.0
  0
TEXT
  5
3F
  8
HIBINO-BASE
 62
     7
 10
203.125
 20
-782.86027749999982
 30
0.0
 40
12.21630859375
  1
1
 41
0.7
 11
203.125
 21
-770.64396890624982
 31
0.0
 73
     3
  0
LINE
  5
40
  8
HIBINO-BASE
  6
CONTINUOUS
 62
     7
 10
193.75
 20
-812.04320249999989
 30
0.0
 11
193.75
 21
-737.04320250000001
 31
0.0
  0
LINE
  5
41
  8
HIBINO-BASE
  6
CONTINUOUS
 62
     7
 10
268.75
 20
-812.04320249999989
 30
0.0
 11
268.75
 21
-737.04320250000001
 31
0.0
  0
LINE
  5
42
  8
HIBINO-BASE
  6
CONTINUOUS
 62
     7
 10
456.25
 20
-737.04320250000001
 30
0.0
 11
456.25
 21
-812.04320249999989
 31
0.0
  0
LINE
  5
43
  8
HIBINO-BASE
  6
CONTINUOUS
 62
     7
 10
643.75
 20
-737.04320250000001
 30
0.0
 11
643.75
 21
-812.04320249999989
 31
0.0
  0
LINE
  5
44
  8
HIBINO-BASE
  6
CONTINUOUS
 62
     7
 10
549.99999999999989
 20
-812.04320249999989
 30
0.0
 11
549.99999999999989
 21
-737.04320250000001
 31
0.0
  0
TEXT
  5
45
  8
HIBINO-BASE
 62
     7
 10
275.17405000000002
 20
-790.56585250000012
 30
0.0
 40
12.21630859375
  1
'06.08.
 41
0.7
 11
275.17405000000002
 21
-778.34954390625012
 31
0.0
 73
     3
  0
TEXT
  5
46
  8
HIBINO-BASE
 62
     7
 10
231.25
 20
-796.92277749999982
 30
0.0
 40
12.21630859375
  1
7.5
 41
0.7
 11
231.25
 21
-784.70646890624982
 31
0.0
 73
     3
  0
TEXT
  5
47
  8
HIBINO-BASE
 62
     7
 10
467.54357508275967
 20
-790.56585250000012
 30
0.0
 40
12.21630859375
  1
N.Sasaki
 41
0.7
 11
467.54357508275967
 21
-778.34954390625012
 31
0.0
 73
     3
  0
TEXT
  5
48
  8
HIBINO-BASE
 62
     7
 10
129.12500000000011
 20
-797.22320249999984
 30
0.0
 40
24.4326171875
  1
A4
 41
0.7
 11
129.12500000000011
 21
-772.79058531249984
 31
0.0
 73
     3
  0
TEXT
  5
49
  8
HIBINO-BASE
 62
     7
 10
107.1874999999999
 20
-756.6891149999999
 30
0.0
 40
12.21630859375
  1
PAPER SIZE
 41
0.7
 11
107.1874999999999
 21
-744.47280640624979
 31
0.0
 73
     3
  0
TEXT
  5
4A
  8
HIBINO-BASE
 62
     7
 10
561.2935750827595
 20
-790.56585249999978
 30
0.0
 40
12.21630859375
  1
T.Taki
 41
0.7
 11
561.2935750827595
 21
-778.34954390624989
 31
0.0
 73
     3
  0
LINE
  5
4B
  8
SPEC
  6
CONTINUOUS
 62
     7
 10
-518.74999999999989
 20
1062.9567975
 30
0.0
 11
587.5
 21
1062.9567975
 31
0.0
  0
LINE
  5
4C
  8
SPEC
  6
CONTINUOUS
 62
     7
 10
-518.74999999999989
 20
1006.706797499999
 30
0.0
 11
587.5
 21
1006.706797499999
 31
0.0
  0
LINE
  5
4D
  8
SPEC
  6
CONTINUOUS
 62
     7
 10
-518.74999999999989
 20
1034.8317975
 30
0.0
 11
587.5
 21
1034.8317975
 31
0.0
  0
LINE
  5
4E
  8
SPEC
  6
CONTINUOUS
 62
     7
 10
-518.74999999999989
 20
1062.9567975
 30
0.0
 11
-518.74999999999989
 21
1006.706797499999
 31
0.0
  0
TEXT
  5
4F
  8
SPEC
 62
     7
 10
-509.37499999999989
 20
1073.4063225
 30
0.0
 40
18.324462890625
  1
仕様
 41
0.7
 11
-509.37499999999989
 21
1091.730785390625
 31
0.0
 73
     3
  0
LINE
  5
50
  8
SPEC
  6
CONTINUOUS
 62
     7
 10
-275.0
 20
1062.9567975
 30
0.0
 11
-275.0
 21
1006.706797499999
 31
0.0
  0
LINE
  5
51
  8
SPEC
  6
CONTINUOUS
 62
     7
 10
587.5
 20
1062.9567975
 30
0.0
 11
587.5
 21
1006.706797499999
 31
0.0
  0
TEXT
  5
52
  8
SPEC
 62
     7
 10
-512.0
 20
1040.7412095
 30
0.0
 40
14.25233437499999
  1
寸法
 41
0.7
 11
-512.0
 21
1054.9935438749999
 31
0.0
 73
     3
  0
TEXT
  5
53
  8
SPEC
 62
     7
 10
-512.0
 20
1012.6162094999989
 30
0.0
 40
14.25233437499999
  1
重量
 41
0.7
 11
-512.0
 21
1026.8685438749999
 31
0.0
 73
     3
  0
TEXT
  5
54
  8
SPEC
 62
     7
 10
-268.25
 20
1040.7412095
 30
0.0
 40
14.25233437499999
  1
610(W)×51(H)×635(D)mm(突起部含まず)
 41
0.7
 11
-268.25
 21
1054.9935438749999
 31
0.0
 73
     3
  0
TEXT
  5
55
  8
SPEC
 62
     7
 10
-268.25
 20
1012.6162094999989
 30
0.0
 40
14.25233437499999
  1
約4.9kg
 41
0.7
 11
-268.25
 21
1026.8685438749999
 31
0.0
 73
     3
  0
LINE
  5
56
  8
DIMNSIONS
  6
CONTINUOUS
 62
     7
 10
300.2968125737894
 20
-197.42923620316341
 30
0.0
 11
349.99999999999972
 21
-174.99999999999989
 31
0.0
  0
LINE
  5
57
  8
DIMNSIONS
  6
CONTINUOUS
 62
     7
 10
300.2968125737894
 20
-197.42923620316341
 30
0.0
 11
315.38608239385439
 21
-185.21018643030339
 31
0.0
  0
LINE
  5
58
  8
DIMNSIONS
  6
CONTINUOUS
 62
     7
 10
300.2968125737894
 20
-197.42923620316341
 30
0.0
 11
319.47402844895339
 21
-194.39186359979271
 31
0.0
  0
LINE
  5
59
  8
DIMNSIONS
  6
CONTINUOUS
 62
     7
 10
349.99999999999972
 20
-174.99999999999989
 30
0.0
 11
470.83333333333292
 21
-174.99999999999989
 31
0.0
  0
TEXT
  5
5A
  8
DIMNSIONS
 62
     7
 10
364.99999999999972
 20
-167.54583333333329
 30
0.0
 40
20.360514322916671
  1
6-φ12.5
 41
0.7
 11
364.99999999999972
 21
-147.18531901041661
 31
0.0
 73
     3
  0
TEXT
  5
5B
  8
DIMNSIONS
 62
     7
 10
-50.000000000000021
 20
-720.02202750000004
 30
0.0
 40
18.324462890625
  1
(単位：mm)
 41
0.7
 11
-50.000000000000021
 21
-701.69756460937504
 31
0.0
 73
     3
  0
LINE
  5
5C
  8
DIMNSIONS
  6
CONTINUOUS
 62
     7
 10
102.4349999999998
 20
604.79999999999995
 30
0.0
 11
-415.0
 21
604.79999999999995
 31
0.0
  0
LINE
  5
5D
  8
DIMNSIONS
  6
CONTINUOUS
 62
     7
 10
102.4349999999998
 20
-4.7999999999999536
 30
0.0
 11
-415.0
 21
-4.7999999999999536
 31
0.0
  0
LINE
  5
5E
  8
DIMNSIONS
  6
CONTINUOUS
 62
     7
 10
-400.0
 20
604.79999999999995
 30
0.0
 11
-400.0
 21
-4.7999999999999536
 31
0.0
  0
LINE
  5
5F
  8
DIMNSIONS
  6
CONTINUOUS
 62
     7
 10
-400.0
 20
604.79999999999995
 30
0.0
 11
-394.97470153637317
 21
586.04533081054672
 31
0.0
  0
LINE
  5
60
  8
DIMNSIONS
  6
CONTINUOUS
 62
     7
 10
-400.0
 20
604.79999999999995
 30
0.0
 11
-405.02529846362683
 21
586.04533081054672
 31
0.0
  0
LINE
  5
61
  8
DIMNSIONS
  6
CONTINUOUS
 62
     7
 10
-400.0
 20
-4.7999999999999536
 30
0.0
 11
-405.02529846362683
 21
13.95466918945317
 31
0.0
  0
LINE
  5
62
  8
DIMNSIONS
  6
CONTINUOUS
 62
     7
 10
-400.0
 20
-4.7999999999999536
 30
0.0
 11
-394.97470153637317
 21
13.95466918945317
 31
0.0
  0
TEXT
  5
63
  8
DIMNSIONS
 62
     7
 10
-407.45416666666648
 20
280.15625
 30
0.0
 40
20.360514322916671
  1
610
 50
90.0
 41
0.7
 11
-427.81468098958322
 21
280.15625
 31
0.0
 73
     3
  0
LINE
  5
64
  8
DIMNSIONS
  6
CONTINUOUS
 62
     7
 10
-330.0000000000004
 20
-225.39999999999989
 30
0.0
 11
-465.0
 21
-225.39999999999989
 31
0.0
  0
LINE
  5
65
  8
DIMNSIONS
  6
CONTINUOUS
 62
     7
 10
-330.0000000000004
 20
-174.59999999999991
 30
0.0
 11
-465.0
 21
-174.59999999999991
 31
0.0
  0
LINE
  5
66
  8
DIMNSIONS
  6
CONTINUOUS
 62
     7
 10
-450.0
 20
-225.39999999999989
 30
0.0
 11
-450.0
 21
-174.59999999999991
 31
0.0
  0
LINE
  5
67
  8
DIMNSIONS
  6
CONTINUOUS
 62
     7
 10
-450.0
 20
-225.39999999999989
 30
0.0
 11
-455.02529846362683
 21
-206.6453308105468
 31
0.0
  0
LINE
  5
68
  8
DIMNSIONS
  6
CONTINUOUS
 62
     7
 10
-450.0
 20
-225.39999999999989
 30
0.0
 11
-444.97470153637317
 21
-206.6453308105468
 31
0.0
  0
LINE
  5
69
  8
DIMNSIONS
  6
CONTINUOUS
 62
     7
 10
-450.0
 20
-174.59999999999991
 30
0.0
 11
-444.97470153637317
 21
-193.35466918945309
 31
0.0
  0
LINE
  5
6A
  8
DIMNSIONS
  6
CONTINUOUS
 62
     7
 10
-450.0
 20
-174.59999999999991
 30
0.0
 11
-455.02529846362683
 21
-193.35466918945309
 31
0.0
  0
TEXT
  5
6B
  8
DIMNSIONS
 62
     7
 10
-457.45416666666648
 20
-213.2291666666666
 30
0.0
 40
20.360514322916671
  1
51
 50
90.0
 41
0.7
 11
-477.81468098958322
 21
-213.2291666666666
 31
0.0
 73
     3
  0
LINE
  5
6C
  8
DIMNSIONS
  6
CONTINUOUS
 62
     7
 10
-315.0000000000004
 20
-159.59999999999991
 30
0.0
 11
-315.0000000000004
 21
-84.999999999999915
 31
0.0
  0
LINE
  5
6D
  8
DIMNSIONS
  6
CONTINUOUS
 62
     7
 10
319.99999999999972
 20
-158.83799999999991
 30
0.0
 11
319.99999999999972
 21
-84.999999999999915
 31
0.0
  0
LINE
  5
6E
  8
DIMNSIONS
  6
CONTINUOUS
 62
     7
 10
-315.0000000000004
 20
-99.999999999999943
 30
0.0
 11
319.99999999999972
 21
-99.999999999999943
 31
0.0
  0
LINE
  5
6F
  8
DIMNSIONS
  6
CONTINUOUS
 62
     7
 10
-315.0000000000004
 20
-99.999999999999943
 30
0.0
 11
-296.24533081054722
 21
-94.974701536373118
 31
0.0
  0
LINE
  5
70
  8
DIMNSIONS
  6
CONTINUOUS
 62
     7
 10
-315.0000000000004
 20
-99.999999999999943
 30
0.0
 11
-296.24533081054722
 21
-105.0252984636267
 31
0.0
  0
LINE
  5
71
  8
DIMNSIONS
  6
CONTINUOUS
 62
     7
 10
319.99999999999972
 20
-99.999999999999943
 30
0.0
 11
301.24533081054659
 21
-105.0252984636267
 31
0.0
  0
LINE
  5
72
  8
DIMNSIONS
  6
CONTINUOUS
 62
     7
 10
319.99999999999972
 20
-99.999999999999943
 30
0.0
 11
301.24533081054659
 21
-94.974701536373118
 31
0.0
  0
TEXT
  5
73
  8
DIMNSIONS
 62
     7
 10
-17.34375000000033
 20
-92.545833333333263
 30
0.0
 40
20.360514322916671
  1
635
 41
0.7
 11
-17.34375000000033
 21
-72.185319010416606
 31
0.0
 73
     3
  0
LINE
  5
74
  8
DIMNSIONS
  6
CONTINUOUS
 62
     7
 10
-315.0000000000004
 20
-240.39999999999989
 30
0.0
 11
-315.0000000000004
 21
-314.99999999999989
 31
0.0
  0
LINE
  5
75
  8
DIMNSIONS
  6
CONTINUOUS
 62
     7
 10
-289.60000000000042
 20
-222.874
 30
0.0
 11
-289.60000000000042
 21
-314.99999999999989
 31
0.0
  0
LINE
  5
76
  8
DIMNSIONS
  6
CONTINUOUS
 62
     7
 10
-289.60000000000042
 20
-300.0
 30
0.0
 11
-315.0000000000004
 21
-300.0
 31
0.0
  0
LINE
  5
77
  8
DIMNSIONS
  6
CONTINUOUS
 62
     7
 10
-315.0000000000004
 20
-300.0
 30
0.0
 11
-377.91666666666708
 21
-300.0
 31
0.0
  0
LINE
  5
78
  8
DIMNSIONS
  6
CONTINUOUS
 62
     7
 10
-315.0000000000004
 20
-300.0
 30
0.0
 11
-333.75466918945352
 21
-305.02529846362683
 31
0.0
  0
LINE
  5
79
  8
DIMNSIONS
  6
CONTINUOUS
 62
     7
 10
-315.0000000000004
 20
-300.0
 30
0.0
 11
-333.75466918945352
 21
-294.97470153637312
 31
0.0
  0
LINE
  5
7A
  8
DIMNSIONS
  6
CONTINUOUS
 62
     7
 10
-289.60000000000042
 20
-300.0
 30
0.0
 11
-252.10000000000039
 21
-300.0
 31
0.0
  0
LINE
  5
7B
  8
DIMNSIONS
  6
CONTINUOUS
 62
     7
 10
-289.60000000000042
 20
-300.0
 30
0.0
 11
-270.84533081054718
 21
-294.97470153637312
 31
0.0
  0
LINE
  5
7C
  8
DIMNSIONS
  6
CONTINUOUS
 62
     7
 10
-289.60000000000042
 20
-300.0
 30
0.0
 11
-270.84533081054718
 21
-305.02529846362683
 31
0.0
  0
TEXT
  5
7D
  8
DIMNSIONS
 62
     7
 10
-377.91666666666703
 20
-292.54583333333329
 30
0.0
 40
20.360514322916671
  1
25.4
 41
0.7
 11
-377.91666666666703
 21
-272.18531901041661
 31
0.0
 73
     3
  0
LINE
  5
7E
  8
DIMNSIONS
  6
CONTINUOUS
 62
     7
 10
-289.60000000000042
 20
-222.874
 30
0.0
 11
-289.60000000000042
 21
-314.99999999999989
 31
0.0
  0
LINE
  5
7F
  8
DIMNSIONS
  6
CONTINUOUS
 62
     7
 10
-226.10000000000039
 20
-222.874
 30
0.0
 11
-226.10000000000039
 21
-314.99999999999989
 31
0.0
  0
LINE
  5
80
  8
DIMNSIONS
  6
CONTINUOUS
 62
     7
 10
-289.60000000000042
 20
-300.0
 30
0.0
 11
-226.10000000000039
 21
-300.0
 31
0.0
  0
LINE
  5
81
  8
DIMNSIONS
  6
CONTINUOUS
 62
     7
 10
-289.60000000000042
 20
-300.0
 30
0.0
 11
-270.84533081054718
 21
-294.97470153637312
 31
0.0
  0
LINE
  5
82
  8
DIMNSIONS
  6
CONTINUOUS
 62
     7
 10
-289.60000000000042
 20
-300.0
 30
0.0
 11
-270.84533081054718
 21
-305.02529846362683
 31
0.0
  0
LINE
  5
83
  8
DIMNSIONS
  6
CONTINUOUS
 62
     7
 10
-226.10000000000039
 20
-300.0
 30
0.0
 11
-244.8546691894534
 21
-305.02529846362683
 31
0.0
  0
LINE
  5
84
  8
DIMNSIONS
  6
CONTINUOUS
 62
     7
 10
-226.10000000000039
 20
-300.0
 30
0.0
 11
-244.8546691894534
 21
-294.97470153637312
 31
0.0
  0
TEXT
  5
85
  8
DIMNSIONS
 62
     7
 10
-284.30833333333368
 20
-292.54583333333329
 30
0.0
 40
20.360514322916671
  1
63.5
 41
0.7
 11
-284.30833333333368
 21
-272.18531901041661
 31
0.0
 73
     3
  0
LINE
  5
86
  8
DIMNSIONS
  6
CONTINUOUS
 62
     7
 10
-226.10000000000039
 20
-222.874
 30
0.0
 11
-226.10000000000039
 21
-314.99999999999989
 31
0.0
  0
LINE
  5
87
  8
DIMNSIONS
  6
CONTINUOUS
 62
     7
 10
-162.60000000000039
 20
-222.874
 30
0.0
 11
-162.60000000000039
 21
-314.99999999999989
 31
0.0
  0
LINE
  5
88
  8
DIMNSIONS
  6
CONTINUOUS
 62
     7
 10
-226.10000000000039
 20
-300.0
 30
0.0
 11
-162.60000000000039
 21
-300.0
 31
0.0
  0
LINE
  5
89
  8
DIMNSIONS
  6
CONTINUOUS
 62
     7
 10
-226.10000000000039
 20
-300.0
 30
0.0
 11
-207.3453308105473
 21
-294.97470153637312
 31
0.0
  0
LINE
  5
8A
  8
DIMNSIONS
  6
CONTINUOUS
 62
     7
 10
-226.10000000000039
 20
-300.0
 30
0.0
 11
-207.3453308105473
 21
-305.02529846362683
 31
0.0
  0
LINE
  5
8B
  8
DIMNSIONS
  6
CONTINUOUS
 62
     7
 10
-162.60000000000039
 20
-300.0
 30
0.0
 11
-181.3546691894534
 21
-305.02529846362683
 31
0.0
  0
LINE
  5
8C
  8
DIMNSIONS
  6
CONTINUOUS
 62
     7
 10
-162.60000000000039
 20
-300.0
 30
0.0
 11
-181.3546691894534
 21
-294.97470153637312
 31
0.0
  0
TEXT
  5
8D
  8
DIMNSIONS
 62
     7
 10
-220.80833333333371
 20
-292.54583333333329
 30
0.0
 40
20.360514322916671
  1
63.5
 41
0.7
 11
-220.80833333333371
 21
-272.18531901041661
 31
0.0
 73
     3
  0
LINE
  5
8E
  8
DIMNSIONS
  6
CONTINUOUS
 62
     7
 10
-162.60000000000039
 20
-222.874
 30
0.0
 11
-162.60000000000039
 21
-314.99999999999989
 31
0.0
  0
LINE
  5
8F
  8
DIMNSIONS
  6
CONTINUOUS
 62
     7
 10
-99.100000000000364
 20
-222.874
 30
0.0
 11
-99.100000000000364
 21
-314.99999999999989
 31
0.0
  0
LINE
  5
90
  8
DIMNSIONS
  6
CONTINUOUS
 62
     7
 10
-162.60000000000039
 20
-300.0
 30
0.0
 11
-99.100000000000364
 21
-300.0
 31
0.0
  0
LINE
  5
91
  8
DIMNSIONS
  6
CONTINUOUS
 62
     7
 10
-162.60000000000039
 20
-300.0
 30
0.0
 11
-143.84533081054721
 21
-294.97470153637312
 31
0.0
  0
LINE
  5
92
  8
DIMNSIONS
  6
CONTINUOUS
 62
     7
 10
-162.60000000000039
 20
-300.0
 30
0.0
 11
-143.84533081054721
 21
-305.02529846362683
 31
0.0
  0
LINE
  5
93
  8
DIMNSIONS
  6
CONTINUOUS
 62
     7
 10
-99.100000000000364
 20
-300.0
 30
0.0
 11
-117.8546691894535
 21
-305.02529846362683
 31
0.0
  0
LINE
  5
94
  8
DIMNSIONS
  6
CONTINUOUS
 62
     7
 10
-99.100000000000364
 20
-300.0
 30
0.0
 11
-117.8546691894535
 21
-294.97470153637312
 31
0.0
  0
TEXT
  5
95
  8
DIMNSIONS
 62
     7
 10
-157.30833333333359
 20
-292.54583333333329
 30
0.0
 40
20.360514322916671
  1
63.5
 41
0.7
 11
-157.30833333333359
 21
-272.18531901041661
 31
0.0
 73
     3
  0
LINE
  5
96
  8
DIMNSIONS
  6
CONTINUOUS
 62
     7
 10
-99.100000000000364
 20
-222.874
 30
0.0
 11
-99.100000000000364
 21
-314.99999999999989
 31
0.0
  0
LINE
  5
97
  8
DIMNSIONS
  6
CONTINUOUS
 62
     7
 10
-35.600000000000378
 20
-222.874
 30
0.0
 11
-35.600000000000378
 21
-314.99999999999989
 31
0.0
  0
LINE
  5
98
  8
DIMNSIONS
  6
CONTINUOUS
 62
     7
 10
-99.100000000000364
 20
-300.0
 30
0.0
 11
-35.600000000000378
 21
-300.0
 31
0.0
  0
LINE
  5
99
  8
DIMNSIONS
  6
CONTINUOUS
 62
     7
 10
-99.100000000000364
 20
-300.0
 30
0.0
 11
-80.345330810547253
 21
-294.97470153637312
 31
0.0
  0
LINE
  5
9A
  8
DIMNSIONS
  6
CONTINUOUS
 62
     7
 10
-99.100000000000364
 20
-300.0
 30
0.0
 11
-80.345330810547253
 21
-305.02529846362683
 31
0.0
  0
LINE
  5
9B
  8
DIMNSIONS
  6
CONTINUOUS
 62
     7
 10
-35.600000000000378
 20
-300.0
 30
0.0
 11
-54.354669189453489
 21
-305.02529846362683
 31
0.0
  0
LINE
  5
9C
  8
DIMNSIONS
  6
CONTINUOUS
 62
     7
 10
-35.600000000000378
 20
-300.0
 30
0.0
 11
-54.354669189453489
 21
-294.97470153637312
 31
0.0
  0
TEXT
  5
9D
  8
DIMNSIONS
 62
     7
 10
-93.808333333333721
 20
-292.54583333333329
 30
0.0
 40
20.360514322916671
  1
63.5
 41
0.7
 11
-93.808333333333721
 21
-272.18531901041661
 31
0.0
 73
     3
  0
LINE
  5
9E
  8
DIMNSIONS
  6
CONTINUOUS
 62
     7
 10
-35.600000000000378
 20
-222.874
 30
0.0
 11
-35.600000000000378
 21
-314.99999999999989
 31
0.0
  0
LINE
  5
9F
  8
DIMNSIONS
  6
CONTINUOUS
 62
     7
 10
294.59999999999962
 20
-222.874
 30
0.0
 11
294.59999999999962
 21
-314.99999999999989
 31
0.0
  0
LINE
  5
A0
  8
DIMNSIONS
  6
CONTINUOUS
 62
     7
 10
-35.600000000000378
 20
-300.0
 30
0.0
 11
294.59999999999962
 21
-300.0
 31
0.0
  0
LINE
  5
A1
  8
DIMNSIONS
  6
CONTINUOUS
 62
     7
 10
-35.600000000000378
 20
-300.0
 30
0.0
 11
-16.845330810547249
 21
-294.97470153637312
 31
0.0
  0
LINE
  5
A2
  8
DIMNSIONS
  6
CONTINUOUS
 62
     7
 10
-35.600000000000378
 20
-300.0
 30
0.0
 11
-16.845330810547249
 21
-305.02529846362683
 31
0.0
  0
LINE
  5
A3
  8
DIMNSIONS
  6
CONTINUOUS
 62
     7
 10
294.59999999999962
 20
-300.0
 30
0.0
 11
275.8453308105465
 21
-305.02529846362683
 31
0.0
  0
LINE
  5
A4
  8
DIMNSIONS
  6
CONTINUOUS
 62
     7
 10
294.59999999999962
 20
-300.0
 30
0.0
 11
275.8453308105465
 21
-294.97470153637312
 31
0.0
  0
TEXT
  5
A5
  8
DIMNSIONS
 62
     7
 10
96.427083333332945
 20
-292.54583333333329
 30
0.0
 40
20.360514322916671
  1
330.2
 41
0.7
 11
96.427083333332945
 21
-272.18531901041661
 31
0.0
 73
     3
  0
LINE
  5
A6
  8
DIMNSIONS
  6
CONTINUOUS
 62
     7
 10
334.99999999999972
 20
295.17399999999998
 30
0.0
 11
390.0
 21
295.17399999999998
 31
0.0
  0
LINE
  5
A7
  8
DIMNSIONS
  6
CONTINUOUS
 62
     7
 10
334.99999999999972
 20
304.82600000000002
 30
0.0
 11
390.0
 21
304.82600000000002
 31
0.0
  0
LINE
  5
A8
  8
DIMNSIONS
  6
CONTINUOUS
 62
     7
 10
375.0
 20
304.82600000000002
 30
0.0
 11
375.0
 21
295.17399999999998
 31
0.0
  0
LINE
  5
A9
  8
DIMNSIONS
  6
CONTINUOUS
 62
     7
 10
375.0
 20
295.17399999999998
 30
0.0
 11
375.0
 21
257.67399999999998
 31
0.0
  0
LINE
  5
AA
  8
DIMNSIONS
  6
CONTINUOUS
 62
     7
 10
375.0
 20
295.17399999999998
 30
0.0
 11
380.02529846362683
 21
276.4193308105468
 31
0.0
  0
LINE
  5
AB
  8
DIMNSIONS
  6
CONTINUOUS
 62
     7
 10
375.0
 20
295.17399999999998
 30
0.0
 11
369.97470153637317
 21
276.4193308105468
 31
0.0
  0
LINE
  5
AC
  8
DIMNSIONS
  6
CONTINUOUS
 62
     7
 10
375.0
 20
304.82600000000002
 30
0.0
 11
375.0
 21
351.45833333333343
 31
0.0
  0
LINE
  5
AD
  8
DIMNSIONS
  6
CONTINUOUS
 62
     7
 10
375.0
 20
304.82600000000002
 30
0.0
 11
369.97470153637317
 21
323.5806691894532
 31
0.0
  0
LINE
  5
AE
  8
DIMNSIONS
  6
CONTINUOUS
 62
     7
 10
375.0
 20
304.82600000000002
 30
0.0
 11
380.02529846362683
 21
323.5806691894532
 31
0.0
  0
TEXT
  5
AF
  8
DIMNSIONS
 62
     7
 10
367.54583333333341
 20
325.0
 30
0.0
 40
20.360514322916671
  1
10
 50
90.0
 41
0.7
 11
347.18531901041661
 21
325.0
 31
0.0
 73
     3
  0
LINE
  5
B0
  8
DIMNSIONS
  6
CONTINUOUS
 62
     7
 10
529.04999999999995
 20
604.79999999999995
 30
0.0
 11
615.0
 21
604.79999999999995
 31
0.0
  0
LINE
  5
B1
  8
DIMNSIONS
  6
CONTINUOUS
 62
     7
 10
534.04999999999995
 20
312.69999999999999
 30
0.0
 11
615.0
 21
312.69999999999999
 31
0.0
  0
LINE
  5
B2
  8
DIMNSIONS
  6
CONTINUOUS
 62
     7
 10
600.0
 20
604.79999999999995
 30
0.0
 11
600.0
 21
312.69999999999999
 31
0.0
  0
LINE
  5
B3
  8
DIMNSIONS
  6
CONTINUOUS
 62
     7
 10
600.0
 20
604.79999999999995
 30
0.0
 11
605.02529846362677
 21
586.04533081054672
 31
0.0
  0
LINE
  5
B4
  8
DIMNSIONS
  6
CONTINUOUS
 62
     7
 10
600.0
 20
604.79999999999995
 30
0.0
 11
594.97470153637312
 21
586.04533081054672
 31
0.0
  0
LINE
  5
B5
  8
DIMNSIONS
  6
CONTINUOUS
 62
     7
 10
600.0
 20
312.69999999999999
 30
0.0
 11
594.97470153637312
 21
331.45466918945311
 31
0.0
  0
LINE
  5
B6
  8
DIMNSIONS
  6
CONTINUOUS
 62
     7
 10
600.0
 20
312.69999999999999
 30
0.0
 11
605.02529846362677
 21
331.45466918945311
 31
0.0
  0
TEXT
  5
B7
  8
DIMNSIONS
 62
     7
 10
592.54583333333323
 20
438.90625
 30
0.0
 40
20.360514322916671
  1
292
 50
90.0
 41
0.7
 11
572.18531901041661
 21
438.90625
 31
0.0
 73
     3
  0
LINE
  5
B8
  8
DIMNSIONS
  6
CONTINUOUS
 62
     7
 10
529.04999999999995
 20
604.79999999999995
 30
0.0
 11
715.0
 21
604.79999999999995
 31
0.0
  0
LINE
  5
B9
  8
DIMNSIONS
  6
CONTINUOUS
 62
     7
 10
529.04999999999995
 20
-4.7999999999999536
 30
0.0
 11
715.0
 21
-4.7999999999999536
 31
0.0
  0
LINE
  5
BA
  8
DIMNSIONS
  6
CONTINUOUS
 62
     7
 10
700.0
 20
604.79999999999995
 30
0.0
 11
700.0
 21
-4.7999999999999536
 31
0.0
  0
LINE
  5
BB
  8
DIMNSIONS
  6
CONTINUOUS
 62
     7
 10
700.0
 20
604.79999999999995
 30
0.0
 11
705.02529846362665
 21
586.04533081054672
 31
0.0
  0
LINE
  5
BC
  8
DIMNSIONS
  6
CONTINUOUS
 62
     7
 10
700.0
 20
604.79999999999995
 30
0.0
 11
694.97470153637335
 21
586.04533081054672
 31
0.0
  0
LINE
  5
BD
  8
DIMNSIONS
  6
CONTINUOUS
 62
     7
 10
700.0
 20
-4.7999999999999536
 30
0.0
 11
694.97470153637335
 21
13.95466918945317
 31
0.0
  0
LINE
  5
BE
  8
DIMNSIONS
  6
CONTINUOUS
 62
     7
 10
700.0
 20
-4.7999999999999536
 30
0.0
 11
705.02529846362665
 21
13.95466918945317
 31
0.0
  0
TEXT
  5
BF
  8
DIMNSIONS
 62
     7
 10
692.54583333333335
 20
280.15625
 30
0.0
 40
20.360514322916671
  1
610
 50
90.0
 41
0.7
 11
672.18531901041672
 21
280.15625
 31
0.0
 73
     3
  0
LINE
  5
C0
  8
DIMNSIONS
  6
CONTINUOUS
 62
     7
 10
105.86399999999981
 20
376.32741917808232
 30
0.0
 11
35.0
 21
376.32741917808232
 31
0.0
  0
LINE
  5
C1
  8
DIMNSIONS
  6
CONTINUOUS
 62
     7
 10
105.86399999999981
 20
223.67258082191771
 30
0.0
 11
35.0
 21
223.67258082191771
 31
0.0
  0
LINE
  5
C2
  8
DIMNSIONS
  6
CONTINUOUS
 62
     7
 10
50.0
 20
376.32741917808232
 30
0.0
 11
50.0
 21
223.67258082191771
 31
0.0
  0
LINE
  5
C3
  8
DIMNSIONS
  6
CONTINUOUS
 62
     7
 10
50.0
 20
376.32741917808232
 30
0.0
 11
55.025298463626832
 21
357.5727499886292
 31
0.0
  0
LINE
  5
C4
  8
DIMNSIONS
  6
CONTINUOUS
 62
     7
 10
50.0
 20
376.32741917808232
 30
0.0
 11
44.974701536373168
 21
357.5727499886292
 31
0.0
  0
LINE
  5
C5
  8
DIMNSIONS
  6
CONTINUOUS
 62
     7
 10
50.0
 20
223.67258082191771
 30
0.0
 11
44.974701536373168
 21
242.4272500113708
 31
0.0
  0
LINE
  5
C6
  8
DIMNSIONS
  6
CONTINUOUS
 62
     7
 10
50.0
 20
223.67258082191771
 30
0.0
 11
55.025298463626832
 21
242.4272500113708
 31
0.0
  0
TEXT
  5
C7
  8
DIMNSIONS
 62
     7
 10
42.545833333333327
 20
317.65625
 30
0.0
 40
20.360514322916671
  1
153
 50
90.0
 41
0.7
 11
22.18531901041667
 21
317.65625
 31
0.0
 73
     3
  0
LINE
  5
C8
  8
DIMNSIONS
  6
CONTINUOUS
 62
     7
 10
-330.0000000000004
 20
-225.40000000000001
 30
0.0
 11
-415.0
 21
-225.40000000000001
 31
0.0
  0
LINE
  5
C9
  8
DIMNSIONS
  6
CONTINUOUS
 62
     7
 10
-76.000000000000284
 20
-226.16200000000009
 30
0.0
 11
-415.0
 21
-226.16200000000009
 31
0.0
  0
LINE
  5
CA
  8
DIMNSIONS
  6
CONTINUOUS
 62
     7
 10
-400.0
 20
-226.16200000000009
 30
0.0
 11
-400.0
 21
-225.40000000000001
 31
0.0
  0
LINE
  5
CB
  8
DIMNSIONS
  6
CONTINUOUS
 62
     7
 10
-400.0
 20
-225.40000000000001
 30
0.0
 11
-400.0
 21
-187.90000000000001
 31
0.0
  0
LINE
  5
CC
  8
DIMNSIONS
  6
CONTINUOUS
 62
     7
 10
-400.0
 20
-225.40000000000001
 30
0.0
 11
-405.02529846362683
 21
-206.64533081054691
 31
0.0
  0
LINE
  5
CD
  8
DIMNSIONS
  6
CONTINUOUS
 62
     7
 10
-400.0
 20
-225.40000000000001
 30
0.0
 11
-394.97470153637317
 21
-206.64533081054691
 31
0.0
  0
LINE
  5
CE
  8
DIMNSIONS
  6
CONTINUOUS
 62
     7
 10
-400.0
 20
-226.16200000000009
 30
0.0
 11
-400.0
 21
-289.6875
 31
0.0
  0
LINE
  5
CF
  8
DIMNSIONS
  6
CONTINUOUS
 62
     7
 10
-400.0
 20
-226.16200000000009
 30
0.0
 11
-394.97470153637317
 21
-244.91666918945319
 31
0.0
  0
LINE
  5
D0
  8
DIMNSIONS
  6
CONTINUOUS
 62
     7
 10
-400.0
 20
-226.16200000000009
 30
0.0
 11
-405.02529846362683
 21
-244.91666918945319
 31
0.0
  0
TEXT
  5
D1
  8
DIMNSIONS
 62
     7
 10
-407.45416666666648
 20
-289.6875
 30
0.0
 40
20.360514322916671
  1
0.8
 50
90.0
 41
0.7
 11
-427.81468098958322
 21
-289.6875
 31
0.0
 73
     3
  0
LINE
  5
D2
  8
DIMNSIONS
  6
CONTINUOUS
 62
     7
 10
-330.00000000000028
 20
-174.60000000000011
 30
0.0
 11
-415.0
 21
-174.60000000000011
 31
0.0
  0
LINE
  5
D3
  8
DIMNSIONS
  6
CONTINUOUS
 62
     7
 10
111.38499999999971
 20
-170.9500000000001
 30
0.0
 11
-415.0
 21
-170.9500000000001
 31
0.0
  0
LINE
  5
D4
  8
DIMNSIONS
  6
CONTINUOUS
 62
     7
 10
-400.0
 20
-170.9500000000001
 30
0.0
 11
-400.0
 21
-174.60000000000011
 31
0.0
  0
LINE
  5
D5
  8
DIMNSIONS
  6
CONTINUOUS
 62
     7
 10
-400.0
 20
-174.60000000000011
 30
0.0
 11
-400.0
 21
-212.10000000000011
 31
0.0
  0
LINE
  5
D6
  8
DIMNSIONS
  6
CONTINUOUS
 62
     7
 10
-400.0
 20
-174.60000000000011
 30
0.0
 11
-394.97470153637317
 21
-193.3546691894532
 31
0.0
  0
LINE
  5
D7
  8
DIMNSIONS
  6
CONTINUOUS
 62
     7
 10
-400.0
 20
-174.60000000000011
 30
0.0
 11
-405.02529846362683
 21
-193.3546691894532
 31
0.0
  0
LINE
  5
D8
  8
DIMNSIONS
  6
CONTINUOUS
 62
     7
 10
-400.0
 20
-170.9500000000001
 30
0.0
 11
-400.0
 21
-110.3125
 31
0.0
  0
LINE
  5
D9
  8
DIMNSIONS
  6
CONTINUOUS
 62
     7
 10
-400.0
 20
-170.9500000000001
 30
0.0
 11
-405.02529846362683
 21
-152.19533081054701
 31
0.0
  0
LINE
  5
DA
  8
DIMNSIONS
  6
CONTINUOUS
 62
     7
 10
-400.0
 20
-170.9500000000001
 30
0.0
 11
-394.97470153637317
 21
-152.19533081054701
 31
0.0
  0
TEXT
  5
DB
  8
DIMNSIONS
 62
     7
 10
-407.45416666666659
 20
-150.0
 30
0.0
 40
20.360514322916671
  1
3.7
 50
90.0
 41
0.7
 11
-427.81468098958328
 21
-150.0
 31
0.0
 73
     3
  0
TEXT
  5
DC
  8
DATA
 62
     7
 10
475.0
 20
-728.56152750000001
 30
0.0
 40
18.324462890625
  1
VRX-AF
 41
0.7
 11
475.0
 21
-710.23706460937501
 31
0.0
 73
     3
  0
TEXT
  5
DD
  8
DATA
 62
     7
 10
475.0
 20
-674.18652750000001
 30
0.0
 40
18.324462890625
  1
JBL
 41
0.7
 11
475.0
 21
-655.86206460937501
 31
0.0
 73
     3
  0
TEXT
  5
DE
  8
DATA
 62
     7
 10
-499.99999999999989
 20
-780.25820250000015
 30
0.0
 40
12.21630859375
  1
仕様および外観は予告なく変更されることがありますので、ご了承ください。
 41
0.7
 11
-499.99999999999989
 21
-768.04189390625015
 31
0.0
 73
     3
  0
POLYLINE
  5
DF
  8
DATA
  6
CONTINUOUS
 62
     7
 66
     1
 10
0.0
 20
0.0
 30
0.0
 70
     1
  0
VERTEX
  5
23A
  8
DATA
  6
CONTINUOUS
 62
     7
 10
-315.00000000000028
 20
304.82600000000002
 30
0.0
  0
VERTEX
  5
23B
  8
DATA
  6
CONTINUOUS
 62
     7
 10
319.99999999999972
 20
304.82600000000002
 30
0.0
  0
VERTEX
  5
23C
  8
DATA
  6
CONTINUOUS
 62
     7
 10
319.99999999999972
 20
295.17399999999998
 30
0.0
  0
VERTEX
  5
23D
  8
DATA
  6
CONTINUOUS
 62
     7
 10
-315.00000000000028
 20
295.17399999999998
 30
0.0
  0
SEQEND
  5
23E
  8
DATA
  6
CONTINUOUS
 62
     7
  0
LINE
  5
E6
  8
DATA
  6
CONTINUOUS
 62
     7
 10
-297.47400000000027
 20
293.52300000000002
 30
0.0
 11
-297.47400000000027
 21
295.17399999999998
 31
0.0
  0
LINE
  5
E7
  8
DATA
  6
CONTINUOUS
 62
     7
 10
-297.47400000000027
 20
304.82600000000002
 30
0.0
 11
-297.47400000000027
 21
306.47699999999998
 31
0.0
  0
LINE
  5
E8
  8
DATA
  6
CONTINUOUS
 62
     7
 10
-281.72600000000028
 20
293.52300000000002
 30
0.0
 11
-281.72600000000028
 21
295.17399999999998
 31
0.0
  0
LINE
  5
E9
  8
DATA
  6
CONTINUOUS
 62
     7
 10
-281.72600000000028
 20
304.82600000000002
 30
0.0
 11
-281.72600000000028
 21
306.47699999999998
 31
0.0
  0
LINE
  5
EA
  8
DATA
  6
CONTINUOUS
 62
     7
 10
-297.47400000000027
 20
306.47699999999998
 30
0.0
 11
-281.72600000000028
 21
306.47699999999998
 31
0.0
  0
LINE
  5
EB
  8
DATA
  6
CONTINUOUS
 62
     7
 10
-297.47400000000027
 20
293.52300000000002
 30
0.0
 11
-281.72600000000028
 21
293.52300000000002
 31
0.0
  0
LINE
  5
EC
  8
DATA
  6
CONTINUOUS
 62
     7
 10
-233.9740000000003
 20
293.52300000000002
 30
0.0
 11
-233.9740000000003
 21
295.17399999999998
 31
0.0
  0
LINE
  5
ED
  8
DATA
  6
CONTINUOUS
 62
     7
 10
-233.9740000000003
 20
304.82600000000002
 30
0.0
 11
-233.9740000000003
 21
306.47699999999998
 31
0.0
  0
LINE
  5
EE
  8
DATA
  6
CONTINUOUS
 62
     7
 10
-218.2260000000002
 20
293.52300000000002
 30
0.0
 11
-218.2260000000002
 21
295.17399999999998
 31
0.0
  0
LINE
  5
EF
  8
DATA
  6
CONTINUOUS
 62
     7
 10
-218.2260000000002
 20
304.82600000000002
 30
0.0
 11
-218.2260000000002
 21
306.47699999999998
 31
0.0
  0
LINE
  5
F0
  8
DATA
  6
CONTINUOUS
 62
     7
 10
-233.9740000000003
 20
306.47699999999998
 30
0.0
 11
-218.2260000000002
 21
306.47699999999998
 31
0.0
  0
LINE
  5
F1
  8
DATA
  6
CONTINUOUS
 62
     7
 10
-233.9740000000003
 20
293.52300000000002
 30
0.0
 11
-218.2260000000002
 21
293.52300000000002
 31
0.0
  0
LINE
  5
F2
  8
DATA
  6
CONTINUOUS
 62
     7
 10
-170.47400000000019
 20
293.52300000000002
 30
0.0
 11
-170.47400000000019
 21
295.17399999999998
 31
0.0
  0
LINE
  5
F3
  8
DATA
  6
CONTINUOUS
 62
     7
 10
-170.47400000000019
 20
304.82600000000002
 30
0.0
 11
-170.47400000000019
 21
306.47699999999998
 31
0.0
  0
LINE
  5
F4
  8
DATA
  6
CONTINUOUS
 62
     7
 10
-154.7260000000002
 20
293.52300000000002
 30
0.0
 11
-154.7260000000002
 21
295.17399999999998
 31
0.0
  0
LINE
  5
F5
  8
DATA
  6
CONTINUOUS
 62
     7
 10
-154.7260000000002
 20
304.82600000000002
 30
0.0
 11
-154.7260000000002
 21
306.47699999999998
 31
0.0
  0
LINE
  5
F6
  8
DATA
  6
CONTINUOUS
 62
     7
 10
-170.47400000000019
 20
306.47699999999998
 30
0.0
 11
-154.7260000000002
 21
306.47699999999998
 31
0.0
  0
LINE
  5
F7
  8
DATA
  6
CONTINUOUS
 62
     7
 10
-170.47400000000019
 20
293.52300000000002
 30
0.0
 11
-154.7260000000002
 21
293.52300000000002
 31
0.0
  0
LINE
  5
F8
  8
DATA
  6
CONTINUOUS
 62
     7
 10
-106.9740000000003
 20
293.52300000000002
 30
0.0
 11
-106.9740000000003
 21
295.17399999999998
 31
0.0
  0
LINE
  5
F9
  8
DATA
  6
CONTINUOUS
 62
     7
 10
-106.9740000000003
 20
304.82600000000002
 30
0.0
 11
-106.9740000000003
 21
306.47699999999998
 31
0.0
  0
LINE
  5
FA
  8
DATA
  6
CONTINUOUS
 62
     7
 10
-91.226000000000226
 20
293.52300000000002
 30
0.0
 11
-91.226000000000226
 21
295.17399999999998
 31
0.0
  0
LINE
  5
FB
  8
DATA
  6
CONTINUOUS
 62
     7
 10
-91.226000000000226
 20
304.82600000000002
 30
0.0
 11
-91.226000000000226
 21
306.47699999999998
 31
0.0
  0
LINE
  5
FC
  8
DATA
  6
CONTINUOUS
 62
     7
 10
-106.9740000000003
 20
306.47699999999998
 30
0.0
 11
-91.226000000000226
 21
306.47699999999998
 31
0.0
  0
LINE
  5
FD
  8
DATA
  6
CONTINUOUS
 62
     7
 10
-106.9740000000003
 20
293.52300000000002
 30
0.0
 11
-91.226000000000226
 21
293.52300000000002
 31
0.0
  0
LINE
  5
FE
  8
DATA
  6
CONTINUOUS
 62
     7
 10
-43.474000000000281
 20
293.52300000000002
 30
0.0
 11
-43.474000000000281
 21
295.17399999999998
 31
0.0
  0
LINE
  5
FF
  8
DATA
  6
CONTINUOUS
 62
     7
 10
-43.474000000000281
 20
304.82600000000002
 30
0.0
 11
-43.474000000000281
 21
306.47699999999998
 31
0.0
  0
LINE
  5
100
  8
DATA
  6
CONTINUOUS
 62
     7
 10
-27.726000000000241
 20
293.52300000000002
 30
0.0
 11
-27.726000000000241
 21
295.17399999999998
 31
0.0
  0
LINE
  5
101
  8
DATA
  6
CONTINUOUS
 62
     7
 10
-27.726000000000241
 20
304.82600000000002
 30
0.0
 11
-27.726000000000241
 21
306.47699999999998
 31
0.0
  0
LINE
  5
102
  8
DATA
  6
CONTINUOUS
 62
     7
 10
-43.474000000000281
 20
306.47699999999998
 30
0.0
 11
-27.726000000000241
 21
306.47699999999998
 31
0.0
  0
LINE
  5
103
  8
DATA
  6
CONTINUOUS
 62
     7
 10
-43.474000000000281
 20
293.52300000000002
 30
0.0
 11
-27.726000000000241
 21
293.52300000000002
 31
0.0
  0
LINE
  5
104
  8
DATA
  6
CONTINUOUS
 62
     7
 10
286.72599999999971
 20
293.52300000000002
 30
0.0
 11
286.72599999999971
 21
295.17399999999998
 31
0.0
  0
LINE
  5
105
  8
DATA
  6
CONTINUOUS
 62
     7
 10
286.72599999999971
 20
304.82600000000002
 30
0.0
 11
286.72599999999971
 21
306.47699999999998
 31
0.0
  0
LINE
  5
106
  8
DATA
  6
CONTINUOUS
 62
     7
 10
302.47399999999971
 20
293.52300000000002
 30
0.0
 11
302.47399999999971
 21
295.17399999999998
 31
0.0
  0
LINE
  5
107
  8
DATA
  6
CONTINUOUS
 62
     7
 10
302.47399999999971
 20
304.82600000000002
 30
0.0
 11
302.47399999999971
 21
306.47699999999998
 31
0.0
  0
LINE
  5
108
  8
DATA
  6
CONTINUOUS
 62
     7
 10
286.72599999999971
 20
306.47699999999998
 30
0.0
 11
302.47399999999971
 21
306.47699999999998
 31
0.0
  0
LINE
  5
109
  8
DATA
  6
CONTINUOUS
 62
     7
 10
286.72599999999971
 20
293.52300000000002
 30
0.0
 11
302.47399999999971
 21
293.52300000000002
 31
0.0
  0
LINE
  5
10A
  8
DATA
  6
CONTINUOUS
 62
     7
 10
139.40599999999981
 20
309.8255808219177
 30
0.0
 11
144.40558082191751
 21
304.82600000000002
 31
0.0
  0
LINE
  5
10B
  8
DATA
  6
CONTINUOUS
 62
     7
 10
120.86399999999981
 20
309.83403661982231
 30
0.0
 11
115.8570436296672
 21
304.82600000000002
 31
0.0
  0
POLYLINE
  5
10C
  8
DATA
  6
CONTINUOUS
 62
     7
 66
     1
 10
0.0
 20
0.0
 30
0.0
 70
     1
  0
VERTEX
  5
23F
  8
DATA
  6
CONTINUOUS
 62
     7
 10
117.4349999999998
 20
604.79999999999995
 30
0.0
  0
VERTEX
  5
240
  8
DATA
  6
CONTINUOUS
 62
     7
 10
142.83499999999981
 20
604.79999999999995
 30
0.0
  0
VERTEX
  5
241
  8
DATA
  6
CONTINUOUS
 62
     7
 10
142.83499999999981
 20
312.69999999999999
 30
0.0
  0
VERTEX
  5
242
  8
DATA
  6
CONTINUOUS
 62
     7
 10
117.4349999999998
 20
312.69999999999999
 30
0.0
  0
SEQEND
  5
243
  8
DATA
  6
CONTINUOUS
 62
     7
  0
LINE
  5
113
  8
DATA
  6
CONTINUOUS
 62
     7
 10
120.86399999999981
 20
312.69999999999999
 30
0.0
 11
120.86399999999981
 21
304.82600000000002
 31
0.0
  0
LINE
  5
114
  8
DATA
  6
CONTINUOUS
 62
     7
 10
139.40599999999981
 20
312.69999999999999
 30
0.0
 11
139.40599999999981
 21
304.8255808219177
 31
0.0
  0
LINE
  5
115
  8
DATA
  6
CONTINUOUS
 62
     7
 10
123.8812466184883
 20
312.69999999999999
 30
0.0
 11
123.8816712760225
 21
304.82600000000002
 31
0.0
  0
LINE
  5
116
  8
DATA
  6
CONTINUOUS
 62
     7
 10
136.40879999999979
 20
312.69999999999999
 30
0.0
 11
136.40879999999979
 21
304.82600000000002
 31
0.0
  0
LINE
  5
117
  8
DATA
  6
CONTINUOUS
 62
     7
 10
139.40599999999981
 20
290.17441917808242
 30
0.0
 11
144.4055808219174
 21
295.17399999999998
 31
0.0
  0
LINE
  5
118
  8
DATA
  6
CONTINUOUS
 62
     7
 10
120.86399999999981
 20
290.16596338017769
 30
0.0
 11
115.8570436296672
 21
295.17399999999998
 31
0.0
  0
POLYLINE
  5
119
  8
DATA
  6
CONTINUOUS
 62
     7
 66
     1
 10
0.0
 20
0.0
 30
0.0
 70
     1
  0
VERTEX
  5
244
  8
DATA
  6
CONTINUOUS
 62
     7
 10
117.4349999999998
 20
287.30000000000001
 30
0.0
  0
VERTEX
  5
245
  8
DATA
  6
CONTINUOUS
 62
     7
 10
142.83499999999981
 20
287.30000000000001
 30
0.0
  0
VERTEX
  5
246
  8
DATA
  6
CONTINUOUS
 62
     7
 10
142.83499999999981
 20
-4.7999999999999536
 30
0.0
  0
VERTEX
  5
247
  8
DATA
  6
CONTINUOUS
 62
     7
 10
117.4349999999998
 20
-4.7999999999999536
 30
0.0
  0
SEQEND
  5
248
  8
DATA
  6
CONTINUOUS
 62
     7
  0
LINE
  5
120
  8
DATA
  6
CONTINUOUS
 62
     7
 10
120.86399999999981
 20
287.30000000000001
 30
0.0
 11
120.86399999999981
 21
295.17400000000009
 31
0.0
  0
LINE
  5
121
  8
DATA
  6
CONTINUOUS
 62
     7
 10
139.40599999999981
 20
287.30000000000001
 30
0.0
 11
139.40599999999981
 21
295.17441917808242
 31
0.0
  0
LINE
  5
122
  8
DATA
  6
CONTINUOUS
 62
     7
 10
123.8812466184883
 20
287.30000000000001
 30
0.0
 11
123.8816712760225
 21
295.17400000000009
 31
0.0
  0
LINE
  5
123
  8
DATA
  6
CONTINUOUS
 62
     7
 10
136.40879999999979
 20
287.30000000000001
 30
0.0
 11
136.40879999999979
 21
295.17400000000009
 31
0.0
  0
CIRCLE
  5
124
  8
DATA
  6
CONTINUOUS
 62
     7
 10
130.13499999999979
 20
570.54999999999995
 30
0.0
 40
3.75
  0
CIRCLE
  5
125
  8
DATA
  6
CONTINUOUS
 62
     7
 10
130.13499999999979
 20
570.54999999999995
 30
0.0
 40
9.3499999999999641
  0
CIRCLE
  5
126
  8
DATA
  6
CONTINUOUS
 62
     7
 10
130.13499999999979
 20
29.450000000000049
 30
0.0
 40
3.75
  0
CIRCLE
  5
127
  8
DATA
  6
CONTINUOUS
 62
     7
 10
130.13499999999979
 20
29.450000000000049
 30
0.0
 40
9.3499999999999641
  0
CIRCLE
  5
128
  8
DATA
  6
CONTINUOUS
 62
     7
 10
-289.60000000000042
 20
-200.00000000000011
 30
0.0
 40
6.25
  0
CIRCLE
  5
129
  8
DATA
  6
CONTINUOUS
 62
     7
 10
-226.10000000000039
 20
-200.00000000000011
 30
0.0
 40
6.25
  0
CIRCLE
  5
12A
  8
DATA
  6
CONTINUOUS
 62
     7
 10
-162.60000000000039
 20
-200.00000000000011
 30
0.0
 40
6.25
  0
CIRCLE
  5
12B
  8
DATA
  6
CONTINUOUS
 62
     7
 10
-99.100000000000364
 20
-200.00000000000011
 30
0.0
 40
6.25
  0
CIRCLE
  5
12C
  8
DATA
  6
CONTINUOUS
 62
     7
 10
-35.600000000000378
 20
-200.00000000000011
 30
0.0
 40
6.25
  0
CIRCLE
  5
12D
  8
DATA
  6
CONTINUOUS
 62
     7
 10
294.59999999999962
 20
-200.00000000000011
 30
0.0
 40
6.25
  0
LINE
  5
12E
  8
DATA
  6
CONTINUOUS
 62
     7
 10
-61.000000000000291
 20
-225.40000000000001
 30
0.0
 11
-61.000000000000291
 21
-226.16200000000009
 31
0.0
  0
LINE
  5
12F
  8
DATA
  6
CONTINUOUS
 62
     7
 10
-61.000000000000291
 20
-226.16200000000009
 30
0.0
 11
121.1849999999996
 21
-226.16200000000009
 31
0.0
  0
LINE
  5
130
  8
DATA
  6
CONTINUOUS
 62
     7
 10
139.0849999999997
 20
-226.16200000000009
 30
0.0
 11
319.99999999999972
 21
-226.16200000000009
 31
0.0
  0
CIRCLE
  5
131
  8
DATA
  6
CONTINUOUS
 62
     7
 10
-226.10000000000039
 20
-200.00000000000011
 30
0.0
 40
7.8740000000000219
  0
CIRCLE
  5
132
  8
DATA
  6
CONTINUOUS
 62
     7
 10
-162.60000000000039
 20
-200.00000000000011
 30
0.0
 40
7.8740000000000219
  0
CIRCLE
  5
133
  8
DATA
  6
CONTINUOUS
 62
     7
 10
-99.100000000000364
 20
-200.00000000000011
 30
0.0
 40
7.8740000000000219
  0
CIRCLE
  5
134
  8
DATA
  6
CONTINUOUS
 62
     7
 10
-35.600000000000378
 20
-200.00000000000011
 30
0.0
 40
7.8740000000000219
  0
CIRCLE
  5
135
  8
DATA
  6
CONTINUOUS
 62
     7
 10
294.59999999999962
 20
-200.00000000000011
 30
0.0
 40
7.8739999999999952
  0
CIRCLE
  5
136
  8
DATA
  6
CONTINUOUS
 62
     7
 10
-289.60000000000042
 20
-200.00000000000011
 30
0.0
 40
7.8740000000000219
  0
POLYLINE
  5
137
  8
DATA
  6
CONTINUOUS
 62
     7
 66
     1
 10
0.0
 20
0.0
 30
0.0
 70
     1
  0
VERTEX
  5
249
  8
DATA
  6
CONTINUOUS
 62
     7
 10
121.1849999999996
 20
-189.1999999999974
 30
0.0
  0
VERTEX
  5
24A
  8
DATA
  6
CONTINUOUS
 62
     7
 10
139.08499999999981
 20
-189.1999999999974
 30
0.0
  0
VERTEX
  5
24B
  8
DATA
  6
CONTINUOUS
 62
     7
 10
139.08499999999981
 20
-258.09999999999758
 30
0.0
  0
VERTEX
  5
24C
  8
DATA
  6
CONTINUOUS
 62
     7
 10
121.1849999999996
 20
-258.09999999999758
 30
0.0
  0
SEQEND
  5
24D
  8
DATA
  6
CONTINUOUS
 62
     7
  0
LINE
  5
13E
  8
DATA
  6
CONTINUOUS
 62
     7
 10
142.8349999999997
 20
-219.05000000000001
 30
0.0
 11
139.08499999999981
 21
-219.05000000000001
 31
0.0
  0
LINE
  5
13F
  8
DATA
  6
CONTINUOUS
 62
     7
 10
142.8349999999997
 20
-180.94999999999999
 30
0.0
 11
142.8349999999997
 21
-219.05000000000001
 31
0.0
  0
LINE
  5
140
  8
DATA
  6
CONTINUOUS
 62
     7
 10
117.4349999999997
 20
-180.94999999999999
 30
0.0
 11
142.8349999999997
 21
-180.94999999999999
 31
0.0
  0
LINE
  5
141
  8
DATA
  6
CONTINUOUS
 62
     7
 10
117.4349999999997
 20
-219.05000000000001
 30
0.0
 11
117.4349999999997
 21
-180.94999999999999
 31
0.0
  0
LINE
  5
142
  8
DATA
  6
CONTINUOUS
 62
     7
 10
121.1849999999996
 20
-219.05000000000001
 30
0.0
 11
117.4349999999997
 21
-219.05000000000001
 31
0.0
  0
LINE
  5
143
  8
DATA
  6
CONTINUOUS
 62
     7
 10
120.9349999999997
 20
-219.0500000000001
 30
0.0
 11
120.9349999999997
 21
-184.44999999999999
 31
0.0
  0
LINE
  5
144
  8
DATA
  6
CONTINUOUS
 62
     7
 10
139.3349999999997
 20
-184.44999999999999
 30
0.0
 11
139.3349999999997
 21
-219.0500000000001
 31
0.0
  0
LINE
  5
145
  8
DATA
  6
CONTINUOUS
 62
     7
 10
120.9349999999997
 20
-184.44999999999999
 30
0.0
 11
139.3349999999997
 21
-184.44999999999999
 31
0.0
  0
LINE
  5
146
  8
DATA
  6
CONTINUOUS
 62
     7
 10
120.7849999999997
 20
-177.4500000000001
 30
0.0
 11
139.4849999999997
 21
-177.4500000000001
 31
0.0
  0
LINE
  5
147
  8
DATA
  6
CONTINUOUS
 62
     7
 10
126.38499999999971
 20
-170.9500000000001
 30
0.0
 11
133.88499999999971
 21
-170.9500000000001
 31
0.0
  0
LINE
  5
148
  8
DATA
  6
CONTINUOUS
 62
     7
 10
120.7849999999997
 20
-177.4500000000001
 30
0.0
 11
120.7849999999997
 21
-180.94999999999999
 31
0.0
  0
LINE
  5
149
  8
DATA
  6
CONTINUOUS
 62
     7
 10
139.4849999999997
 20
-177.4500000000001
 30
0.0
 11
139.4849999999997
 21
-180.94999999999999
 31
0.0
  0
ARC
  5
14A
  8
DATA
  6
CONTINUOUS
 62
     7
 10
127.99063016528891
 20
-177.99561983471079
 30
0.0
 40
7.2262581660881393
 50
102.8379214585684
 51
175.66975141367041
  0
ARC
  5
14B
  8
DATA
  6
CONTINUOUS
 62
     7
 10
132.27936983471039
 20
-177.99561983471079
 30
0.0
 40
7.2262581660882068
 50
4.3302485863295583
 51
77.162078541431555
  0
LINE
  5
14C
  8
DATA
  6
CONTINUOUS
 62
     7
 10
139.3349999999997
 20
-215.5500000000001
 30
0.0
 11
139.08499999999981
 21
-215.5500000000001
 31
0.0
  0
LINE
  5
14D
  8
DATA
  6
CONTINUOUS
 62
     7
 10
121.1849999999996
 20
-215.5500000000001
 30
0.0
 11
120.9349999999997
 21
-215.5500000000001
 31
0.0
  0
LINE
  5
14E
  8
DATA
  6
CONTINUOUS
 62
     7
 10
-315.0000000000004
 20
-225.40000000000001
 30
0.0
 11
-315.0000000000004
 21
-174.60000000000011
 31
0.0
  0
LINE
  5
14F
  8
DATA
  6
CONTINUOUS
 62
     7
 10
319.99999999999972
 20
-225.40000000000001
 30
0.0
 11
139.08499999999981
 21
-225.40000000000001
 31
0.0
  0
LINE
  5
150
  8
DATA
  6
CONTINUOUS
 62
     7
 10
121.1849999999996
 20
-225.40000000000001
 30
0.0
 11
-315.0000000000004
 21
-225.40000000000001
 31
0.0
  0
LINE
  5
151
  8
DATA
  6
CONTINUOUS
 62
     7
 10
319.99999999999972
 20
-174.60000000000011
 30
0.0
 11
319.99999999999972
 21
-226.16200000000009
 31
0.0
  0
LINE
  5
152
  8
DATA
  6
CONTINUOUS
 62
     7
 10
-315.0000000000004
 20
-174.60000000000011
 30
0.0
 11
121.6118706447337
 21
-174.60000000000011
 31
0.0
  0
LINE
  5
153
  8
DATA
  6
CONTINUOUS
 62
     7
 10
138.6581293552658
 20
-174.60000000000011
 30
0.0
 11
319.99999999999972
 21
-174.60000000000011
 31
0.0
  0
LINE
  5
154
  8
DATA
  6
CONTINUOUS
 62
     7
 10
167.63499999999971
 20
5.6500000000000901
 30
0.0
 11
167.63499999999971
 21
11.75
 31
0.0
  0
LINE
  5
155
  8
DATA
  6
CONTINUOUS
 62
     7
 10
163.83499999999981
 20
4.0000000000002274
 30
0.0
 11
163.83499999999981
 21
13.400000000000089
 31
0.0
  0
LINE
  5
156
  8
DATA
  6
CONTINUOUS
 62
     7
 10
167.63499999999971
 20
5.6500000000000901
 30
0.0
 11
163.83499999999981
 21
5.6500000000000901
 31
0.0
  0
LINE
  5
157
  8
DATA
  6
CONTINUOUS
 62
     7
 10
167.63499999999971
 20
11.75
 30
0.0
 11
163.83499999999981
 21
11.75
 31
0.0
  0
LINE
  5
158
  8
DATA
  6
CONTINUOUS
 62
     7
 10
163.83499999999981
 20
13.400000000000089
 30
0.0
 11
163.2349999999997
 21
13.400000000000089
 31
0.0
  0
LINE
  5
159
  8
DATA
  6
CONTINUOUS
 62
     7
 10
163.83499999999981
 20
4.0000000000002274
 30
0.0
 11
163.2349999999997
 21
4.0000000000002274
 31
0.0
  0
POLYLINE
  5
15A
  8
DATA
  6
CONTINUOUS
 62
     7
 66
     1
 10
0.0
 20
0.0
 30
0.0
 70
     1
  0
VERTEX
  5
24E
  8
DATA
  6
CONTINUOUS
 62
     7
 10
158.2349999999997
 20
15.400000000000089
 30
0.0
  0
VERTEX
  5
24F
  8
DATA
  6
CONTINUOUS
 62
     7
 10
163.2349999999997
 20
15.400000000000089
 30
0.0
  0
VERTEX
  5
250
  8
DATA
  6
CONTINUOUS
 62
     7
 10
163.2349999999997
 20
2.0000000000002269
 30
0.0
  0
VERTEX
  5
251
  8
DATA
  6
CONTINUOUS
 62
     7
 10
158.2349999999997
 20
2.0000000000002269
 30
0.0
  0
SEQEND
  5
252
  8
DATA
  6
CONTINUOUS
 62
     7
  0
LINE
  5
161
  8
DATA
  6
CONTINUOUS
 62
     7
 10
147.33499999999981
 20
3.200000000000045
 30
0.0
 11
147.33499999999981
 21
14.20000000000004
 31
0.0
  0
LINE
  5
162
  8
DATA
  6
CONTINUOUS
 62
     7
 10
158.2349999999997
 20
14.20000000000004
 30
0.0
 11
147.33499999999981
 21
14.20000000000004
 31
0.0
  0
LINE
  5
163
  8
DATA
  6
CONTINUOUS
 62
     7
 10
158.2349999999997
 20
3.200000000000045
 30
0.0
 11
147.33499999999981
 21
3.200000000000045
 31
0.0
  0
LINE
  5
164
  8
DATA
  6
CONTINUOUS
 62
     7
 10
142.83499999999981
 20
13.80000000000018
 30
0.0
 11
147.33499999999981
 21
14.20000000000004
 31
0.0
  0
LINE
  5
165
  8
DATA
  6
CONTINUOUS
 62
     7
 10
147.33499999999981
 20
3.200000000000045
 30
0.0
 11
142.83499999999981
 21
3.600000000000136
 31
0.0
  0
LINE
  5
166
  8
DATA
  6
CONTINUOUS
 62
     7
 10
117.4349999999998
 20
11.05000000000018
 30
0.0
 11
113.83499999999979
 21
11.05000000000018
 31
0.0
  0
LINE
  5
167
  8
DATA
  6
CONTINUOUS
 62
     7
 10
117.4349999999998
 20
6.3500000000001364
 30
0.0
 11
113.83499999999979
 21
6.3500000000001364
 31
0.0
  0
LINE
  5
168
  8
DATA
  6
CONTINUOUS
 62
     7
 10
111.83499999999979
 20
7.0000000000002274
 30
0.0
 11
111.83499999999979
 21
10.400000000000089
 31
0.0
  0
LINE
  5
169
  8
DATA
  6
CONTINUOUS
 62
     7
 10
113.83499999999979
 20
6.3500000000001364
 30
0.0
 11
113.83499999999979
 21
11.05000000000018
 31
0.0
  0
LINE
  5
16A
  8
DATA
  6
CONTINUOUS
 62
     7
 10
113.83499999999979
 20
6.3500000000001364
 30
0.0
 11
111.83499999999979
 21
7.0000000000002274
 31
0.0
  0
LINE
  5
16B
  8
DATA
  6
CONTINUOUS
 62
     7
 10
111.83499999999979
 20
10.400000000000089
 30
0.0
 11
113.83499999999979
 21
11.05000000000018
 31
0.0
  0
LINE
  5
16C
  8
DATA
  6
CONTINUOUS
 62
     7
 10
167.63499999999971
 20
594.3499999999998
 30
0.0
 11
167.63499999999971
 21
588.25
 31
0.0
  0
LINE
  5
16D
  8
DATA
  6
CONTINUOUS
 62
     7
 10
163.83499999999981
 20
595.99999999999977
 30
0.0
 11
163.83499999999981
 21
586.59999999999968
 31
0.0
  0
LINE
  5
16E
  8
DATA
  6
CONTINUOUS
 62
     7
 10
167.63499999999971
 20
594.3499999999998
 30
0.0
 11
163.83499999999981
 21
594.3499999999998
 31
0.0
  0
LINE
  5
16F
  8
DATA
  6
CONTINUOUS
 62
     7
 10
167.63499999999971
 20
588.25
 30
0.0
 11
163.83499999999981
 21
588.25
 31
0.0
  0
LINE
  5
170
  8
DATA
  6
CONTINUOUS
 62
     7
 10
163.83499999999981
 20
586.59999999999968
 30
0.0
 11
163.2349999999997
 21
586.59999999999968
 31
0.0
  0
LINE
  5
171
  8
DATA
  6
CONTINUOUS
 62
     7
 10
163.83499999999981
 20
595.99999999999977
 30
0.0
 11
163.2349999999997
 21
595.99999999999977
 31
0.0
  0
POLYLINE
  5
172
  8
DATA
  6
CONTINUOUS
 62
     7
 66
     1
 10
0.0
 20
0.0
 30
0.0
 70
     1
  0
VERTEX
  5
253
  8
DATA
  6
CONTINUOUS
 62
     7
 10
158.2349999999997
 20
597.99999999999966
 30
0.0
  0
VERTEX
  5
254
  8
DATA
  6
CONTINUOUS
 62
     7
 10
163.2349999999997
 20
597.99999999999966
 30
0.0
  0
VERTEX
  5
255
  8
DATA
  6
CONTINUOUS
 62
     7
 10
163.2349999999997
 20
584.5999999999998
 30
0.0
  0
VERTEX
  5
256
  8
DATA
  6
CONTINUOUS
 62
     7
 10
158.2349999999997
 20
584.5999999999998
 30
0.0
  0
SEQEND
  5
257
  8
DATA
  6
CONTINUOUS
 62
     7
  0
LINE
  5
179
  8
DATA
  6
CONTINUOUS
 62
     7
 10
147.33499999999981
 20
596.79999999999995
 30
0.0
 11
147.33499999999981
 21
585.79999999999995
 31
0.0
  0
LINE
  5
17A
  8
DATA
  6
CONTINUOUS
 62
     7
 10
158.2349999999997
 20
585.79999999999995
 30
0.0
 11
147.33499999999981
 21
585.79999999999995
 31
0.0
  0
LINE
  5
17B
  8
DATA
  6
CONTINUOUS
 62
     7
 10
158.2349999999997
 20
596.79999999999995
 30
0.0
 11
147.33499999999981
 21
596.79999999999995
 31
0.0
  0
LINE
  5
17C
  8
DATA
  6
CONTINUOUS
 62
     7
 10
142.83499999999981
 20
586.19999999999982
 30
0.0
 11
147.33499999999981
 21
585.79999999999995
 31
0.0
  0
LINE
  5
17D
  8
DATA
  6
CONTINUOUS
 62
     7
 10
147.33499999999981
 20
596.79999999999995
 30
0.0
 11
142.83499999999981
 21
596.39999999999975
 31
0.0
  0
LINE
  5
17E
  8
DATA
  6
CONTINUOUS
 62
     7
 10
117.4349999999998
 20
588.94999999999982
 30
0.0
 11
113.83499999999979
 21
588.94999999999982
 31
0.0
  0
LINE
  5
17F
  8
DATA
  6
CONTINUOUS
 62
     7
 10
117.4349999999998
 20
593.64999999999975
 30
0.0
 11
113.83499999999979
 21
593.64999999999975
 31
0.0
  0
LINE
  5
180
  8
DATA
  6
CONTINUOUS
 62
     7
 10
111.83499999999979
 20
592.99999999999966
 30
0.0
 11
111.83499999999979
 21
589.5999999999998
 31
0.0
  0
LINE
  5
181
  8
DATA
  6
CONTINUOUS
 62
     7
 10
113.83499999999979
 20
593.64999999999975
 30
0.0
 11
113.83499999999979
 21
588.94999999999982
 31
0.0
  0
LINE
  5
182
  8
DATA
  6
CONTINUOUS
 62
     7
 10
113.83499999999979
 20
593.64999999999975
 30
0.0
 11
111.83499999999979
 21
592.99999999999966
 31
0.0
  0
LINE
  5
183
  8
DATA
  6
CONTINUOUS
 62
     7
 10
111.83499999999979
 20
589.5999999999998
 30
0.0
 11
113.83499999999979
 21
588.94999999999982
 31
0.0
  0
CIRCLE
  5
184
  8
DATA
  6
CONTINUOUS
 62
     7
 10
495.19999999999987
 20
8.7000000000000455
 30
0.0
 40
3.0499999999999541
  0
CIRCLE
  5
185
  8
DATA
  6
CONTINUOUS
 62
     7
 10
495.19999999999987
 20
8.7000000000001592
 30
0.0
 40
4.6999999999999309
  0
CIRCLE
  5
186
  8
DATA
  6
CONTINUOUS
 62
     7
 10
495.19999999999987
 20
8.7000000000001592
 30
0.0
 40
6.6999999999999309
  0
CIRCLE
  5
187
  8
DATA
  6
CONTINUOUS
 62
     7
 10
495.19999999999987
 20
591.30000000000018
 30
0.0
 40
3.0499999999999541
  0
CIRCLE
  5
188
  8
DATA
  6
CONTINUOUS
 62
     7
 10
495.19999999999987
 20
591.30000000000018
 30
0.0
 40
4.6999999999999309
  0
CIRCLE
  5
189
  8
DATA
  6
CONTINUOUS
 62
     7
 10
495.19999999999987
 20
591.30000000000018
 30
0.0
 40
6.6999999999999309
  0
POLYLINE
  5
18A
  8
DATA
  6
CONTINUOUS
 62
     7
 66
     1
 10
0.0
 20
0.0
 30
0.0
 70
     1
  0
VERTEX
  5
258
  8
DATA
  6
CONTINUOUS
 62
     7
 10
474.60000000000002
 20
304.82600000000002
 30
0.0
  0
VERTEX
  5
259
  8
DATA
  6
CONTINUOUS
 62
     7
 10
525.39999999999986
 20
304.82600000000002
 30
0.0
  0
VERTEX
  5
25A
  8
DATA
  6
CONTINUOUS
 62
     7
 10
525.39999999999986
 20
295.17399999999998
 30
0.0
  0
VERTEX
  5
25B
  8
DATA
  6
CONTINUOUS
 62
     7
 10
474.60000000000002
 20
295.17399999999998
 30
0.0
  0
SEQEND
  5
25C
  8
DATA
  6
CONTINUOUS
 62
     7
  0
CIRCLE
  5
191
  8
DATA
  6
CONTINUOUS
 62
     7
 10
500.0
 20
329.82600000000002
 30
0.0
 40
2.41300000000001
  0
LINE
  5
192
  8
DATA
  6
CONTINUOUS
 62
     7
 10
484.40440000000001
 20
309.82474196458543
 30
0.0
 11
479.4049393452317
 21
304.82420267752599
 31
0.0
  0
LINE
  5
193
  8
DATA
  6
CONTINUOUS
 62
     7
 10
515.59559999999988
 20
309.82474196458543
 30
0.0
 11
520.59506065476819
 21
304.82420267752599
 31
0.0
  0
LINE
  5
194
  8
DATA
  6
CONTINUOUS
 62
     7
 10
526.16199999999992
 20
304.82600000000002
 30
0.0
 11
526.16199999999992
 21
295.17399999999998
 31
0.0
  0
LINE
  5
195
  8
DATA
  6
CONTINUOUS
 62
     7
 10
525.39999999999986
 20
304.82600000000002
 30
0.0
 11
526.16199999999992
 21
304.82600000000002
 31
0.0
  0
LINE
  5
196
  8
DATA
  6
CONTINUOUS
 62
     7
 10
525.39999999999986
 20
295.17399999999998
 30
0.0
 11
526.16199999999992
 21
295.17399999999998
 31
0.0
  0
LINE
  5
197
  8
DATA
  6
CONTINUOUS
 62
     7
 10
484.40440000000001
 20
312.69999999999999
 30
0.0
 11
484.40440000000001
 21
304.82600000000002
 31
0.0
  0
LINE
  5
198
  8
DATA
  6
CONTINUOUS
 62
     7
 10
515.59559999999988
 20
312.69999999999999
 30
0.0
 11
515.59559999999988
 21
304.82600000000002
 31
0.0
  0
LINE
  5
199
  8
DATA
  6
CONTINUOUS
 62
     7
 10
487.40159999999997
 20
312.69999999999999
 30
0.0
 11
487.40159999999997
 21
304.82600000000002
 31
0.0
  0
LINE
  5
19A
  8
DATA
  6
CONTINUOUS
 62
     7
 10
512.59839999999986
 20
312.69999999999999
 30
0.0
 11
512.59839999999986
 21
304.82600000000002
 31
0.0
  0
CIRCLE
  5
19B
  8
DATA
  6
CONTINUOUS
 62
     7
 10
500.0
 20
270.17399999999998
 30
0.0
 40
2.41300000000001
  0
LINE
  5
19C
  8
DATA
  6
CONTINUOUS
 62
     7
 10
484.40440000000001
 20
290.17525803541457
 30
0.0
 11
479.4049393452317
 21
295.17579732247401
 31
0.0
  0
LINE
  5
19D
  8
DATA
  6
CONTINUOUS
 62
     7
 10
515.59559999999988
 20
290.17525803541457
 30
0.0
 11
520.59506065476819
 21
295.17579732247401
 31
0.0
  0
LINE
  5
19E
  8
DATA
  6
CONTINUOUS
 62
     7
 10
484.40440000000001
 20
287.30000000000001
 30
0.0
 11
484.40440000000001
 21
295.17400000000009
 31
0.0
  0
LINE
  5
19F
  8
DATA
  6
CONTINUOUS
 62
     7
 10
515.59559999999988
 20
287.30000000000001
 30
0.0
 11
515.59559999999988
 21
295.17400000000009
 31
0.0
  0
LINE
  5
1A0
  8
DATA
  6
CONTINUOUS
 62
     7
 10
487.40159999999997
 20
287.30000000000001
 30
0.0
 11
487.40159999999997
 21
295.17400000000009
 31
0.0
  0
LINE
  5
1A1
  8
DATA
  6
CONTINUOUS
 62
     7
 10
512.59839999999986
 20
287.30000000000001
 30
0.0
 11
512.59839999999986
 21
295.17400000000009
 31
0.0
  0
LINE
  5
1A2
  8
DATA
  6
CONTINUOUS
 62
     7
 10
477.4500000000001
 20
579.89999999999986
 30
0.0
 11
477.4500000000001
 21
561.20000000000005
 31
0.0
  0
LINE
  5
1A3
  8
DATA
  6
CONTINUOUS
 62
     7
 10
470.95000000000022
 20
574.29999999999995
 30
0.0
 11
470.95000000000022
 21
566.79999999999995
 31
0.0
  0
LINE
  5
1A4
  8
DATA
  6
CONTINUOUS
 62
     7
 10
477.4500000000001
 20
579.89999999999986
 30
0.0
 11
480.9500000000001
 21
579.89999999999986
 31
0.0
  0
LINE
  5
1A5
  8
DATA
  6
CONTINUOUS
 62
     7
 10
477.4500000000001
 20
561.20000000000005
 30
0.0
 11
480.9500000000001
 21
561.20000000000005
 31
0.0
  0
ARC
  5
1A6
  8
DATA
  6
CONTINUOUS
 62
     7
 10
477.99561983471079
 20
572.69436983471041
 30
0.0
 40
7.2262581660882068
 50
94.33024858632956
 51
167.1620785414315
  0
ARC
  5
1A7
  8
DATA
  6
CONTINUOUS
 62
     7
 10
477.99561983471079
 20
568.40563016528915
 30
0.0
 40
7.2262581660881393
 50
192.83792145856839
 51
265.6697514136705
  0
LINE
  5
1A8
  8
DATA
  6
CONTINUOUS
 62
     7
 10
477.4500000000001
 20
20.100000000000019
 30
0.0
 11
477.4500000000001
 21
38.800000000000011
 31
0.0
  0
LINE
  5
1A9
  8
DATA
  6
CONTINUOUS
 62
     7
 10
470.95000000000022
 20
25.700000000000049
 30
0.0
 11
470.95000000000022
 21
33.200000000000053
 31
0.0
  0
LINE
  5
1AA
  8
DATA
  6
CONTINUOUS
 62
     7
 10
477.4500000000001
 20
20.100000000000019
 30
0.0
 11
480.9500000000001
 21
20.100000000000019
 31
0.0
  0
LINE
  5
1AB
  8
DATA
  6
CONTINUOUS
 62
     7
 10
477.4500000000001
 20
38.800000000000011
 30
0.0
 11
480.9500000000001
 21
38.800000000000011
 31
0.0
  0
ARC
  5
1AC
  8
DATA
  6
CONTINUOUS
 62
     7
 10
477.99561983471079
 20
27.305630165289362
 30
0.0
 40
7.2262581660881509
 50
192.8379214585689
 51
265.6697514136705
  0
ARC
  5
1AD
  8
DATA
  6
CONTINUOUS
 62
     7
 10
477.99561983471079
 20
31.59436983471079
 30
0.0
 40
7.2262581660882068
 50
94.33024858632956
 51
167.1620785414315
  0
LINE
  5
1AE
  8
DATA
  6
CONTINUOUS
 62
     7
 10
480.94999999999987
 20
312.69999999999999
 30
0.0
 11
480.94999999999987
 21
604.79999999999995
 31
0.0
  0
LINE
  5
1AF
  8
DATA
  6
CONTINUOUS
 62
     7
 10
519.04999999999995
 20
312.69999999999999
 30
0.0
 11
480.94999999999987
 21
312.69999999999999
 31
0.0
  0
LINE
  5
1B0
  8
DATA
  6
CONTINUOUS
 62
     7
 10
519.04999999999995
 20
599.79999999999995
 30
0.0
 11
519.04999999999995
 21
312.69999999999999
 31
0.0
  0
LINE
  5
1B1
  8
DATA
  6
CONTINUOUS
 62
     7
 10
480.94999999999987
 20
604.79999999999995
 30
0.0
 11
514.04999999999995
 21
604.79999999999995
 31
0.0
  0
ARC
  5
1B2
  8
DATA
  6
CONTINUOUS
 62
     7
 10
514.04999999999995
 20
599.79999999999995
 30
0.0
 40
5.0
 50
0.0
 51
90.0
  0
LINE
  5
1B3
  8
DATA
  6
CONTINUOUS
 62
     7
 10
480.94999999999987
 20
287.30000000000001
 30
0.0
 11
480.94999999999987
 21
-4.7999999999999536
 31
0.0
  0
LINE
  5
1B4
  8
DATA
  6
CONTINUOUS
 62
     7
 10
519.04999999999995
 20
287.30000000000001
 30
0.0
 11
480.94999999999987
 21
287.30000000000001
 31
0.0
  0
LINE
  5
1B5
  8
DATA
  6
CONTINUOUS
 62
     7
 10
519.04999999999995
 20
0.2000000000000455
 30
0.0
 11
519.04999999999995
 21
287.30000000000001
 31
0.0
  0
LINE
  5
1B6
  8
DATA
  6
CONTINUOUS
 62
     7
 10
480.94999999999987
 20
-4.7999999999999536
 30
0.0
 11
514.04999999999995
 21
-4.7999999999999536
 31
0.0
  0
ARC
  5
1B7
  8
DATA
  6
CONTINUOUS
 62
     7
 10
514.04999999999995
 20
0.2000000000000455
 30
0.0
 40
5.0
 50
270.0
 51
0.0
  0
LINE
  5
1B8
  8
DATA
  6
CONTINUOUS
 62
     7
 10
552.1499999999977
 20
585.34999999999968
 30
0.0
 11
519.04999999999995
 21
585.34999999999968
 31
0.0
  0
LINE
  5
1B9
  8
DATA
  6
CONTINUOUS
 62
     7
 10
519.04999999999995
 20
597.25
 30
0.0
 11
552.1499999999977
 21
597.25
 31
0.0
  0
CIRCLE
  5
1BA
  8
DATA
  6
CONTINUOUS
 62
     7
 10
552.09999999999991
 20
591.29999999999995
 30
0.0
 40
2.6499999999999768
  0
ARC
  5
1BB
  8
DATA
  6
CONTINUOUS
 62
     7
 10
552.1499999999977
 20
591.29999999999995
 30
0.0
 40
5.9500000000000446
 50
270.0
 51
90.0
  0
LINE
  5
1BC
  8
DATA
  6
CONTINUOUS
 62
     7
 10
552.1499999999977
 20
2.75
 30
0.0
 11
519.04999999999995
 21
2.75
 31
0.0
  0
LINE
  5
1BD
  8
DATA
  6
CONTINUOUS
 62
     7
 10
519.04999999999995
 20
14.650000000000089
 30
0.0
 11
552.1499999999977
 21
14.650000000000089
 31
0.0
  0
CIRCLE
  5
1BE
  8
DATA
  6
CONTINUOUS
 62
     7
 10
552.09999999999991
 20
8.7000000000000455
 30
0.0
 40
2.6499999999999768
  0
ARC
  5
1BF
  8
DATA
  6
CONTINUOUS
 62
     7
 10
552.1499999999977
 20
8.7000000000000455
 30
0.0
 40
5.9500000000000446
 50
270.0
 51
90.0
  0
LINE
  5
1C0
  8
DATA
  6
CONTINUOUS
 62
     7
 10
167.63499999999959
 20
-203.04999999999291
 30
0.0
 11
167.63499999999959
 21
-196.94999999999291
 31
0.0
  0
LINE
  5
1C1
  8
DATA
  6
CONTINUOUS
 62
     7
 10
163.8349999999997
 20
-204.6999999999928
 30
0.0
 11
163.8349999999997
 21
-195.29999999999291
 31
0.0
  0
LINE
  5
1C2
  8
DATA
  6
CONTINUOUS
 62
     7
 10
167.63499999999959
 20
-203.04999999999291
 30
0.0
 11
163.8349999999997
 21
-203.04999999999291
 31
0.0
  0
LINE
  5
1C3
  8
DATA
  6
CONTINUOUS
 62
     7
 10
167.63499999999959
 20
-196.94999999999291
 30
0.0
 11
163.8349999999997
 21
-196.94999999999291
 31
0.0
  0
LINE
  5
1C4
  8
DATA
  6
CONTINUOUS
 62
     7
 10
163.8349999999997
 20
-195.29999999999291
 30
0.0
 11
163.2349999999995
 21
-195.29999999999291
 31
0.0
  0
LINE
  5
1C5
  8
DATA
  6
CONTINUOUS
 62
     7
 10
163.8349999999997
 20
-204.6999999999928
 30
0.0
 11
163.2349999999995
 21
-204.6999999999928
 31
0.0
  0
POLYLINE
  5
1C6
  8
DATA
  6
CONTINUOUS
 62
     7
 66
     1
 10
0.0
 20
0.0
 30
0.0
 70
     1
  0
VERTEX
  5
25D
  8
DATA
  6
CONTINUOUS
 62
     7
 10
158.2349999999995
 20
-193.29999999999279
 30
0.0
  0
VERTEX
  5
25E
  8
DATA
  6
CONTINUOUS
 62
     7
 10
163.2349999999995
 20
-193.29999999999279
 30
0.0
  0
VERTEX
  5
25F
  8
DATA
  6
CONTINUOUS
 62
     7
 10
163.2349999999995
 20
-206.6999999999928
 30
0.0
  0
VERTEX
  5
260
  8
DATA
  6
CONTINUOUS
 62
     7
 10
158.2349999999995
 20
-206.6999999999928
 30
0.0
  0
SEQEND
  5
261
  8
DATA
  6
CONTINUOUS
 62
     7
  0
LINE
  5
1CD
  8
DATA
  6
CONTINUOUS
 62
     7
 10
147.3349999999997
 20
-205.49999999999289
 30
0.0
 11
147.3349999999997
 21
-194.49999999999289
 31
0.0
  0
LINE
  5
1CE
  8
DATA
  6
CONTINUOUS
 62
     7
 10
158.2349999999995
 20
-194.49999999999289
 30
0.0
 11
147.3349999999997
 21
-194.49999999999289
 31
0.0
  0
LINE
  5
1CF
  8
DATA
  6
CONTINUOUS
 62
     7
 10
158.2349999999995
 20
-205.49999999999289
 30
0.0
 11
147.3349999999997
 21
-205.49999999999289
 31
0.0
  0
LINE
  5
1D0
  8
DATA
  6
CONTINUOUS
 62
     7
 10
142.8349999999997
 20
-194.89999999999279
 30
0.0
 11
147.3349999999997
 21
-194.49999999999289
 31
0.0
  0
LINE
  5
1D1
  8
DATA
  6
CONTINUOUS
 62
     7
 10
147.3349999999997
 20
-205.49999999999289
 30
0.0
 11
142.8349999999997
 21
-205.09999999999289
 31
0.0
  0
LINE
  5
1D2
  8
DATA
  6
CONTINUOUS
 62
     7
 10
117.4349999999997
 20
-197.64999999999279
 30
0.0
 11
113.8349999999997
 21
-197.64999999999279
 31
0.0
  0
LINE
  5
1D3
  8
DATA
  6
CONTINUOUS
 62
     7
 10
117.4349999999997
 20
-202.34999999999289
 30
0.0
 11
113.8349999999997
 21
-202.34999999999289
 31
0.0
  0
LINE
  5
1D4
  8
DATA
  6
CONTINUOUS
 62
     7
 10
111.8349999999997
 20
-201.6999999999928
 30
0.0
 11
111.8349999999997
 21
-198.29999999999291
 31
0.0
  0
LINE
  5
1D5
  8
DATA
  6
CONTINUOUS
 62
     7
 10
113.8349999999997
 20
-202.34999999999289
 30
0.0
 11
113.8349999999997
 21
-197.64999999999279
 31
0.0
  0
LINE
  5
1D6
  8
DATA
  6
CONTINUOUS
 62
     7
 10
113.8349999999997
 20
-202.34999999999289
 30
0.0
 11
111.8349999999997
 21
-201.6999999999928
 31
0.0
  0
LINE
  5
1D7
  8
DATA
  6
CONTINUOUS
 62
     7
 10
111.8349999999997
 20
-198.29999999999291
 30
0.0
 11
113.8349999999997
 21
-197.64999999999279
 31
0.0
  0
CIRCLE
  5
1D8
  8
DATA
  6
CONTINUOUS
 62
     7
 10
116.8349999999997
 20
-199.99999999999289
 30
0.0
 40
0.75
  0
LINE
  5
1D9
  8
DATA
  6
CONTINUOUS
 62
     7
 10
115.86399999999971
 20
-215.5956000000001
 30
0.0
 11
115.86399999999971
 21
-202.34999999999289
 31
0.0
  0
LINE
  5
1DA
  8
DATA
  6
CONTINUOUS
 62
     7
 10
115.86399999999971
 20
-197.64999999999279
 30
0.0
 11
115.86399999999971
 21
-184.40440000000001
 31
0.0
  0
LINE
  5
1DB
  8
DATA
  6
CONTINUOUS
 62
     7
 10
144.40599999999969
 20
-215.5956000000001
 30
0.0
 11
144.40599999999969
 21
-205.23964444443729
 31
0.0
  0
LINE
  5
1DC
  8
DATA
  6
CONTINUOUS
 62
     7
 10
144.40599999999969
 20
-194.76035555554839
 30
0.0
 11
144.40599999999969
 21
-184.40440000000001
 31
0.0
  0
LINE
  5
1DD
  8
DATA
  6
STYLE_01
 62
     7
 10
120.86399999999971
 20
-220.59559999999999
 30
0.0
 11
121.1849999999996
 21
-220.59559999999999
 31
0.0
  0
LINE
  5
1DE
  8
DATA
  6
STYLE_01
 62
     7
 10
139.08499999999981
 20
-220.59559999999999
 30
0.0
 11
139.40599999999969
 21
-220.59559999999999
 31
0.0
  0
ARC
  5
1DF
  8
DATA
  6
CONTINUOUS
 62
     7
 10
120.86399999999971
 20
-215.5956000000001
 30
0.0
 40
5.0
 50
180.0
 51
270.0
  0
ARC
  5
1E0
  8
DATA
  6
CONTINUOUS
 62
     7
 10
120.86399999999971
 20
-184.40440000000001
 30
0.0
 40
4.9999999999999956
 50
90.905310985943956
 51
180.0
  0
ARC
  5
1E1
  8
DATA
  6
CONTINUOUS
 62
     7
 10
139.40599999999969
 20
-184.40440000000001
 30
0.0
 40
5.0
 50
0.0
 51
89.094689014056613
  0
ARC
  5
1E2
  8
DATA
  6
CONTINUOUS
 62
     7
 10
139.40599999999969
 20
-215.5956000000001
 30
0.0
 40
5.0
 50
270.0
 51
0.0
  0
TEXT
  5
1E3
  8
DATA
 62
     7
 10
425.0
 20
-698.35868999999957
 30
0.0
 40
8.1442057291666661
  1
VRX932LA、VRX932LA-WH、VRX918S、VRX918S-WH用アレイフレーム
 41
0.7
 11
425.0
 21
-690.21448427083294
 31
0.0
 73
     3
  0
ENDSEC
  0
EOF
