  0
SECTION
  2
HEADER
  9
$ACADVER
  1
AC1009
  9
$INSBASE
 10
0.0
 20
0.0
 30
0.0
  9
$EXTMIN
 10
-800.05492744973753
 20
-1204.432801395556
 30
-0.0022032698331174
  9
$EXTMAX
 10
1000.05493583164
 20
1471.867842570083
 30
0.0000000504307707
  9
$LIMMIN
 10
0.0
 20
0.0
  9
$LIMMAX
 10
0.0
 20
0.0
  9
$ORTHOMODE
 70
     0
  9
$REGENMODE
 70
     1
  9
$FILLMODE
 70
     1
  9
$QTEXTMODE
 70
     0
  9
$MIRRTEXT
 70
     1
  9
$DRAGMODE
 70
     2
  9
$LTSCALE
 40
50.799999999999997
  9
$OSMODE
 70
   231
  9
$ATTMODE
 70
     1
  9
$TEXTSIZE
 40
0.0
  9
$TRACEWID
 40
1.0
  9
$TEXTSTYLE
  7
STANDARD
  9
$CLAYER
  8
DATA
  9
$CELTYPE
  6
BYLAYER
  9
$CECOLOR
 62
   256
  9
$DIMSCALE
 40
1.0
  9
$DIMASZ
 40
0.18
  9
$DIMEXO
 40
0.0625
  9
$DIMDLI
 40
0.38
  9
$DIMRND
 40
0.0
  9
$DIMDLE
 40
0.0
  9
$DIMEXE
 40
0.18
  9
$DIMTP
 40
0.0
  9
$DIMTM
 40
0.0
  9
$DIMTXT
 40
0.18
  9
$DIMCEN
 40
0.09
  9
$DIMTSZ
 40
0.0
  9
$DIMTOL
 70
     0
  9
$DIMLIM
 70
     0
  9
$DIMTIH
 70
     1
  9
$DIMTOH
 70
     1
  9
$DIMSE1
 70
     0
  9
$DIMSE2
 70
     0
  9
$DIMTAD
 70
     0
  9
$DIMZIN
 70
     0
  9
$DIMBLK
  1

  9
$DIMASO
 70
     1
  9
$DIMSHO
 70
     1
  9
$DIMPOST
  1

  9
$DIMAPOST
  1

  9
$DIMALT
 70
     0
  9
$DIMALTD
 70
     2
  9
$DIMALTF
 40
25.399999999999999
  9
$DIMLFAC
 40
1.0
  9
$DIMTOFL
 70
     0
  9
$DIMTVP
 40
0.0
  9
$DIMTIX
 70
     0
  9
$DIMSOXD
 70
     0
  9
$DIMSAH
 70
     0
  9
$DIMBLK1
  1

  9
$DIMBLK2
  1

  9
$DIMSTYLE
  2
STANDARD
  9
$DIMCLRD
 70
     0
  9
$DIMCLRE
 70
     0
  9
$DIMCLRT
 70
     0
  9
$DIMTFAC
 40
1.0
  9
$DIMGAP
 40
0.09
  9
$LUNITS
 70
     2
  9
$LUPREC
 70
     4
  9
$SKETCHINC
 40
0.1
  9
$FILLETRAD
 40
0.0
  9
$AUNITS
 70
     0
  9
$AUPREC
 70
     0
  9
$MENU
  1
acad
  9
$ELEVATION
 40
0.0
  9
$PELEVATION
 40
0.0
  9
$THICKNESS
 40
0.0
  9
$LIMCHECK
 70
     0
  9
$BLIPMODE
 70
     0
  9
$CHAMFERA
 40
0.0
  9
$CHAMFERB
 40
0.0
  9
$SKPOLY
 70
     0
  9
$TDCREATE
 40
2456311.758831019
  9
$TDUPDATE
 40
2456311.7813656018
  9
$TDINDWG
 40
0.0080939468
  9
$TDUSRTIMER
 40
0.008093588
  9
$USRTIMER
 70
     1
  9
$ANGBASE
 50
0.0
  9
$ANGDIR
 70
     0
  9
$PDMODE
 70
     1
  9
$PDSIZE
 40
-2.0
  9
$PLINEWID
 40
0.0
  9
$COORDS
 70
     2
  9
$SPLFRAME
 70
     0
  9
$SPLINETYPE
 70
     6
  9
$SPLINESEGS
 70
     8
  9
$ATTDIA
 70
     0
  9
$ATTREQ
 70
     1
  9
$HANDLING
 70
     1
  9
$HANDSEED
  5
4EF
  9
$SURFTAB1
 70
     6
  9
$SURFTAB2
 70
     6
  9
$SURFTYPE
 70
     6
  9
$SURFU
 70
     6
  9
$SURFV
 70
     6
  9
$UCSNAME
  2

  9
$UCSORG
 10
0.0
 20
0.0
 30
0.0
  9
$UCSXDIR
 10
1.0
 20
0.0
 30
0.0
  9
$UCSYDIR
 10
0.0
 20
1.0
 30
0.0
  9
$PUCSNAME
  2

  9
$PUCSORG
 10
0.0
 20
0.0
 30
0.0
  9
$PUCSXDIR
 10
1.0
 20
0.0
 30
0.0
  9
$PUCSYDIR
 10
0.0
 20
1.0
 30
0.0
  9
$USERI1
 70
     0
  9
$USERI2
 70
     0
  9
$USERI3
 70
     0
  9
$USERI4
 70
     0
  9
$USERI5
 70
     0
  9
$USERR1
 40
0.0
  9
$USERR2
 40
0.0
  9
$USERR3
 40
0.0
  9
$USERR4
 40
0.0
  9
$USERR5
 40
0.0
  9
$WORLDVIEW
 70
     1
  9
$SHADEDGE
 70
     3
  9
$SHADEDIF
 70
    70
  9
$TILEMODE
 70
     1
  9
$MAXACTVP
 70
    64
  9
$PLIMCHECK
 70
     0
  9
$PEXTMIN
 10
1.0000000000000000E+020
 20
1.0000000000000000E+020
 30
1.0000000000000000E+020
  9
$PEXTMAX
 10
-1.0000000000000000E+020
 20
-1.0000000000000000E+020
 30
-1.0000000000000000E+020
  9
$PLIMMIN
 10
0.0
 20
0.0
  9
$PLIMMAX
 10
12.0
 20
9.0
  9
$UNITMODE
 70
     0
  9
$VISRETAIN
 70
     0
  9
$PLINEGEN
 70
     1
  9
$PSLTSCALE
 70
     0
  0
ENDSEC
  0
SECTION
  2
TABLES
  0
TABLE
  2
VPORT
 70
     1
  0
VPORT
  2
*ACTIVE
 70
     0
 10
0.0
 20
0.0
 11
1.0
 21
1.0
 12
100.0000041909516
 22
133.7175205872631
 13
0.0
 23
0.0
 14
1.0
 24
1.0
 15
0.0
 25
0.0
 16
0.0
 26
0.0
 36
1.0
 17
0.0
 27
0.0
 37
0.0
 40
2697.7110491173639
 41
2.2363150867823758
 42
50.0
 43
0.0
 44
0.0
 50
0.0
 51
0.0
 71
     0
 72
  2000
 73
     1
 74
     1
 75
     0
 76
     0
 77
     0
 78
     0
  0
ENDTAB
  0
TABLE
  2
LTYPE
 70
    12
  0
LTYPE
  2
CONTINUOUS
 70
     0
  3
Solid line
 72
    65
 73
     0
 40
0.0
  0
LTYPE
  2
PHANTOM2
 70
     0
  3
___ _ _ ___ _ _ ___ _ _ ___ _ _
 72
    65
 73
     6
 40
1.25
 49
0.625
 49
-0.125
 49
0.125
 49
-0.125
 49
0.125
 49
-0.125
  0
LTYPE
  2
STYLE_01
 70
     0
  3

 72
    65
 73
     2
 40
0.4166412353515625
 49
0.208282470703125
 49
-0.2083587646484375
  0
ENDTAB
  0
TABLE
  2
LAYER
 70
     6
  0
LAYER
  2
0
 70
     0
 62
     7
  6
CONTINUOUS
  0
LAYER
  2
DATA
 70
     0
 62
     7
  6
CONTINUOUS
  0
LAYER
  2
HIBINO-BASE
 70
     0
 62
     7
  6
CONTINUOUS
  0
LAYER
  2
SPEC
 70
     0
 62
     7
  6
CONTINUOUS
  0
LAYER
  2
DIMNSIONS
 70
     0
 62
     7
  6
CONTINUOUS
  0
ENDTAB
  0
TABLE
  2
STYLE
 70
     3
  0
STYLE
  2
STANDARD
 70
     0
 40
0.0
 41
1.0
 50
0.0
 71
     0
 42
0.0
  3
txt
  4
BIGFONT.SHX
  0
ENDTAB
  0
TABLE
  2
VIEW
 70
     0
  0
ENDTAB
  0
TABLE
  2
UCS
 70
     0
  0
ENDTAB
  0
TABLE
  2
APPID
 70
     4
  0
APPID
  2
ACAD
 70
     0
  0
APPID
  2
ACADANNOTATIVE
 70
     0
  0
APPID
  2
ACAD_NAV_VCDISPLAY
 70
     0
  0
APPID
  2
ACAD_MLEADERVER
 70
     0
  0
ENDTAB
  0
TABLE
  2
DIMSTYLE
 70
     2
  0
DIMSTYLE
  2
STANDARD
 70
     0
  3

  4

  5

  6

  7

 40
1.0
 41
0.18
 42
0.0625
 43
0.38
 44
0.18
 45
0.0
 46
0.0
 47
0.0
 48
0.0
140
0.18
141
0.09
142
0.0
143
25.399999999999999
144
1.0
145
0.0
146
1.0
147
0.09
 71
     0
 72
     0
 73
     1
 74
     1
 75
     0
 76
     0
 77
     0
 78
     0
170
     0
171
     2
172
     0
173
     0
174
     0
175
     0
176
     0
177
     0
178
     0
  0
ENDTAB
  0
ENDSEC
  0
SECTION
  2
BLOCKS
  0
BLOCK
  8
0
  2
$MODEL_SPACE
 70
     0
 10
0.0
 20
0.0
 30
0.0
  3
$MODEL_SPACE
  1

  0
ENDBLK
  5
3E6
  8
0
  0
BLOCK
 67
     1
  8
0
  2
$PAPER_SPACE
 70
     0
 10
0.0
 20
0.0
 30
0.0
  3
$PAPER_SPACE
  1

  0
ENDBLK
  5
3E2
 67
     1
  8
0
  0
BLOCK
  8
DATA
  2
____
 70
     0
 10
0.0
 20
0.0
 30
0.0
  3
____
  1

  0
LINE
  5
2F
  8
0
  6
STYLE_01
 62
     7
 10
-360.0
 20
-362.0
 30
0.0
 11
-360.0
 21
-539.0
 31
0.0
  0
LINE
  5
30
  8
0
  6
STYLE_01
 62
     7
 10
-329.0
 20
-362.0
 30
0.0
 11
-329.0
 21
-539.0
 31
0.0
  0
LINE
  5
31
  8
0
  6
STYLE_01
 62
     7
 10
-360.0
 20
-539.0
 30
0.0
 11
-329.0
 21
-539.0
 31
0.0
  0
LINE
  5
32
  8
0
  6
STYLE_01
 62
     7
 10
-358.0
 20
-536.0
 30
0.0
 11
-331.0
 21
-536.0
 31
0.0
  0
LINE
  5
33
  8
0
  6
STYLE_01
 62
     7
 10
-358.0
 20
-523.0
 30
0.0
 11
-331.0
 21
-523.0
 31
0.0
  0
CIRCLE
  5
34
  8
0
  6
STYLE_01
 62
     7
 10
-344.5
 20
-530.42367902339834
 30
0.0
 40
3.5
  0
CIRCLE
  5
35
  8
0
  6
STYLE_01
 62
     7
 10
-344.5
 20
-461.02687570620537
 30
0.0
 40
9.5
  0
LINE
  5
36
  8
0
  6
STYLE_01
 62
     7
 10
-358.0
 20
-359.0
 30
0.0
 11
-358.0
 21
-539.0
 31
0.0
  0
LINE
  5
37
  8
0
  6
STYLE_01
 62
     7
 10
-331.0
 20
-359.0
 30
0.0
 11
-331.0
 21
-539.0
 31
0.0
  0
LINE
  5
38
  8
0
  6
STYLE_01
 62
     7
 10
-329.0
 20
-362.0
 30
0.0
 11
-360.0
 21
-362.0
 31
0.0
  0
CIRCLE
  5
39
  8
0
  6
STYLE_01
 62
     7
 10
-344.5
 20
-486.02687570620537
 30
0.0
 40
3.5
  0
ENDBLK
  5
3A
  8
DATA
  0
ENDSEC
  0
SECTION
  2
ENTITIES
  0
LINE
  5
3B
  8
HIBINO-BASE
  6
CONTINUOUS
 62
     7
 10
-800.0
 20
1471.786335
 30
0.0
 11
1000.0
 21
1471.786335
 31
0.0
  0
LINE
  5
3C
  8
HIBINO-BASE
  6
CONTINUOUS
 62
     7
 10
1000.0
 20
-1128.213665
 30
0.0
 11
-800.0
 21
-1128.213665
 31
0.0
  0
LINE
  5
3D
  8
HIBINO-BASE
  6
CONTINUOUS
 62
     7
 10
-800.0
 20
-1128.213665
 30
0.0
 11
-800.0
 21
1471.786335
 31
0.0
  0
TEXT
  5
3E
  8
HIBINO-BASE
 62
     7
 10
-728.15999999999985
 20
-1192.3004430000001
 30
0.0
 40
36.000441796874988
  1
Hibino Corporation
 41
0.7
 11
-728.15999999999985
 21
-1156.300001203125
 31
0.0
 73
     3
  0
LINE
  5
3F
  8
HIBINO-BASE
  6
CONTINUOUS
 62
     7
 10
1000.0
 20
1471.786335
 30
0.0
 11
1000.0
 21
-1128.213665
 31
0.0
  0
LINE
  5
40
  8
HIBINO-BASE
  6
CONTINUOUS
 62
     7
 10
100.0
 20
-903.21366500000011
 30
0.0
 11
1000.0
 21
-903.21366500000011
 31
0.0
  0
LINE
  5
41
  8
HIBINO-BASE
  6
CONTINUOUS
 62
     7
 10
100.0
 20
-1128.213665
 30
0.0
 11
100.0
 21
-903.21366500000011
 31
0.0
  0
TEXT
  5
42
  8
HIBINO-BASE
 62
     7
 10
109.0
 20
-928.30059833333337
 30
0.0
 40
16.288411458333329
  1
NOTE
 41
0.7
 11
109.0
 21
-912.012186875
 31
0.0
 73
     3
  0
LINE
  5
43
  8
HIBINO-BASE
  6
CONTINUOUS
 62
     7
 10
450.0
 20
-1128.213665
 30
0.0
 11
450.0
 21
-903.21366500000011
 31
0.0
  0
TEXT
  5
44
  8
HIBINO-BASE
 62
     7
 10
459.0
 20
-928.30059833333337
 30
0.0
 40
16.288411458333329
  1
TITLE
 41
0.7
 11
459.0
 21
-912.012186875
 31
0.0
 73
     3
  0
TEXT
  5
45
  8
HIBINO-BASE
 62
     7
 10
600.68389999999988
 20
-1192.3004430000001
 30
0.0
 40
36.000441796874988
  1
ヒビノ株式会社
 41
0.7
 11
600.68389999999988
 21
-1156.300001203125
 31
0.0
 73
     3
  0
LINE
  5
46
  8
HIBINO-BASE
  6
CONTINUOUS
 62
     7
 10
100.0
 20
-1028.213665
 30
0.0
 11
1000.0
 21
-1028.213665
 31
0.0
  0
TEXT
  5
47
  8
HIBINO-BASE
 62
     7
 10
584.0
 20
-1052.737398333333
 30
0.0
 40
16.288411458333329
  1
DRAWN
 41
0.7
 11
584.0
 21
-1036.4489868749999
 31
0.0
 73
     3
  0
TEXT
  5
48
  8
HIBINO-BASE
 62
     7
 10
334.0
 20
-1052.737398333333
 30
0.0
 40
16.288411458333329
  1
DATE
 41
0.7
 11
334.0
 21
-1036.4489868749999
 31
0.0
 73
     3
  0
TEXT
  5
49
  8
HIBINO-BASE
 62
     7
 10
234.0
 20
-1052.737398333333
 30
0.0
 40
16.288411458333329
  1
SCALE
 41
0.7
 11
234.0
 21
-1036.4489868749999
 31
0.0
 73
     3
  0
TEXT
  5
4A
  8
HIBINO-BASE
 62
     7
 10
459.0
 20
-1052.737398333333
 30
0.0
 40
16.288411458333329
  1
DESIGN
 41
0.7
 11
459.0
 21
-1036.4489868749999
 31
0.0
 73
     3
  0
TEXT
  5
4B
  8
HIBINO-BASE
 62
     7
 10
834.0
 20
-1052.737398333333
 30
0.0
 40
16.288411458333329
  1
DRAWING NO.
 41
0.7
 11
834.0
 21
-1036.4489868749999
 31
0.0
 73
     3
  0
TEXT
  5
4C
  8
HIBINO-BASE
 62
     7
 10
708.99999999999977
 20
-1052.737398333333
 30
0.0
 40
16.288411458333329
  1
CHECK
 41
0.7
 11
708.99999999999977
 21
-1036.4489868749999
 31
0.0
 73
     3
  0
LINE
  5
4D
  8
HIBINO-BASE
  6
CONTINUOUS
 62
     7
 10
243.75
 20
-1115.713665
 30
0.0
 11
281.25
 21
-1078.213665
 31
0.0
  0
TEXT
  5
4E
  8
HIBINO-BASE
 62
     7
 10
237.5
 20
-1089.3030983333331
 30
0.0
 40
16.288411458333329
  1
1
 41
0.7
 11
237.5
 21
-1073.0146868749989
 31
0.0
 73
     3
  0
LINE
  5
4F
  8
HIBINO-BASE
  6
CONTINUOUS
 62
     7
 10
225.0
 20
-1128.213665
 30
0.0
 11
225.0
 21
-1028.213665
 31
0.0
  0
LINE
  5
50
  8
HIBINO-BASE
  6
CONTINUOUS
 62
     7
 10
325.0
 20
-1128.213665
 30
0.0
 11
325.0
 21
-1028.213665
 31
0.0
  0
LINE
  5
51
  8
HIBINO-BASE
  6
CONTINUOUS
 62
     7
 10
574.99999999999989
 20
-1028.213665
 30
0.0
 11
574.99999999999989
 21
-1128.213665
 31
0.0
  0
LINE
  5
52
  8
HIBINO-BASE
  6
CONTINUOUS
 62
     7
 10
825.0
 20
-1028.213665
 30
0.0
 11
825.0
 21
-1128.213665
 31
0.0
  0
LINE
  5
53
  8
HIBINO-BASE
  6
CONTINUOUS
 62
     7
 10
699.99999999999989
 20
-1128.213665
 30
0.0
 11
699.99999999999989
 21
-1028.213665
 31
0.0
  0
TEXT
  5
54
  8
HIBINO-BASE
 62
     7
 10
333.5653999999999
 20
-1099.5771983333329
 30
0.0
 40
16.288411458333329
  1
'12.10.
 41
0.7
 11
333.5653999999999
 21
-1083.2887868749999
 31
0.0
 73
     3
  0
TEXT
  5
55
  8
HIBINO-BASE
 62
     7
 10
275.0
 20
-1108.0530983333331
 30
0.0
 40
16.288411458333329
  1
10
 41
0.7
 11
275.0
 21
-1091.7646868749989
 31
0.0
 73
     3
  0
TEXT
  5
56
  8
HIBINO-BASE
 62
     7
 10
138.83333333333351
 20
-1108.453665
 30
0.0
 40
32.576822916666671
  1
A4
 41
0.7
 11
138.83333333333351
 21
-1075.876842083333
 31
0.0
 73
     3
  0
TEXT
  5
57
  8
HIBINO-BASE
 62
     7
 10
109.5833333333333
 20
-1054.4082149999999
 30
0.0
 40
16.288411458333329
  1
PAPER SIZE
 41
0.7
 11
109.5833333333333
 21
-1038.119803541666
 31
0.0
 73
     3
  0
TEXT
  5
58
  8
HIBINO-BASE
 62
     7
 10
586.5
 20
-1094.3156592510729
 30
0.0
 40
19.003146701388889
  1
T.Ootake
 41
0.7
 11
586.5
 21
-1075.312512549684
 31
0.0
 73
     3
  0
LINE
  5
59
  8
SPEC
  6
CONTINUOUS
 62
     7
 10
-725.0
 20
1371.786335
 30
0.0
 11
750.0
 21
1371.786335
 31
0.0
  0
LINE
  5
5A
  8
SPEC
  6
CONTINUOUS
 62
     7
 10
-725.0
 20
1334.286335
 30
0.0
 11
750.0
 21
1334.286335
 31
0.0
  0
LINE
  5
5B
  8
SPEC
  6
CONTINUOUS
 62
     7
 10
-725.0
 20
1296.786335
 30
0.0
 11
750.0
 21
1296.786335
 31
0.0
  0
TEXT
  5
5C
  8
SPEC
 62
     7
 10
-390.8587606318232
 20
1343.388858523085
 30
0.0
 40
19.003146701388889
  1
610\U+00D738\U+00D7261mm(除突起部）
 41
0.7
 11
-390.8587606318232
 21
1362.3920052244739
 31
0.0
 73
     3
  0
LINE
  5
5D
  8
SPEC
  6
CONTINUOUS
 62
     7
 10
-725.0
 20
1371.786335
 30
0.0
 11
-725.0
 21
1296.786335
 31
0.0
  0
TEXT
  5
5E
  8
SPEC
 62
     7
 10
-712.49999999999989
 20
1385.7190349999989
 30
0.0
 40
24.4326171875
  1
仕様
 41
0.7
 11
-712.49999999999989
 21
1410.1516521874989
 31
0.0
 73
     3
  0
LINE
  5
5F
  8
SPEC
  6
CONTINUOUS
 62
     7
 10
-400.0
 20
1371.786335
 30
0.0
 11
-400.0
 21
1296.786335
 31
0.0
  0
LINE
  5
60
  8
SPEC
  6
CONTINUOUS
 62
     7
 10
750.0
 20
1371.786335
 30
0.0
 11
750.0
 21
1296.786335
 31
0.0
  0
TEXT
  5
61
  8
SPEC
 62
     7
 10
-716.65496734199235
 20
1307.2720127746511
 30
0.0
 40
19.003146701388889
  1
質量
 41
0.7
 11
-716.65496734199235
 21
1326.27515947604
 31
0.0
 73
     3
  0
TEXT
  5
62
  8
SPEC
 62
     7
 10
-390.94225979291838
 20
1307.2464440159411
 30
0.0
 40
19.003146701388889
  1
5kg
 41
0.7
 11
-390.94225979291838
 21
1326.24959071733
 31
0.0
 73
     3
  0
TEXT
  5
63
  8
SPEC
 62
     7
 10
-716.84649864813673
 20
1343.996079646367
 30
0.0
 40
19.003146701388889
  1
寸法(幅\U+00D7高\U+00D7奥行)
 41
0.7
 11
-716.84649864813673
 21
1362.999226347757
 31
0.0
 73
     3
  0
TEXT
  5
64
  8
DIMNSIONS
 62
     7
 10
-100.0
 20
-1005.518765
 30
0.0
 40
24.4326171875
  1
(単位：mm)
 41
0.7
 11
-100.0
 21
-981.08614781250003
 31
0.0
 73
     3
  0
LINE
  5
65
  8
DIMNSIONS
  6
CONTINUOUS
 62
     7
 10
-525.0
 20
69.499999999905214
 30
0.0
 11
-570.0
 21
69.499999999905214
 31
0.0
  0
LINE
  5
66
  8
DIMNSIONS
  6
CONTINUOUS
 62
     7
 10
-525.0
 20
330.50000000009481
 30
0.0
 11
-570.0
 21
330.50000000009481
 31
0.0
  0
LINE
  5
67
  8
DIMNSIONS
  6
CONTINUOUS
 62
     7
 10
-550.0
 20
69.499999999905214
 30
0.0
 11
-550.0
 21
330.50000000009481
 31
0.0
  0
LINE
  5
68
  8
DIMNSIONS
  6
CONTINUOUS
 62
     7
 10
-550.0
 20
69.499999999905214
 30
0.0
 11
-556.7003979515024
 21
94.506225585842728
 31
0.0
  0
LINE
  5
69
  8
DIMNSIONS
  6
CONTINUOUS
 62
     7
 10
-550.0
 20
69.499999999905214
 30
0.0
 11
-543.2996020484976
 21
94.506225585842728
 31
0.0
  0
LINE
  5
6A
  8
DIMNSIONS
  6
CONTINUOUS
 62
     7
 10
-550.0
 20
330.50000000009481
 30
0.0
 11
-543.2996020484976
 21
305.49377441415731
 31
0.0
  0
LINE
  5
6B
  8
DIMNSIONS
  6
CONTINUOUS
 62
     7
 10
-550.0
 20
330.50000000009481
 30
0.0
 11
-556.7003979515024
 21
305.49377441415731
 31
0.0
  0
TEXT
  5
6C
  8
DIMNSIONS
 62
     7
 10
-559.93888888888887
 20
173.5416666666666
 30
0.0
 40
27.147352430555561
  1
261
 50
90.0
 41
0.7
 11
-587.08624131944453
 21
173.5416666666666
 31
0.0
 73
     3
  0
LINE
  5
6D
  8
DIMNSIONS
  6
CONTINUOUS
 62
     7
 10
-225.0
 20
26.500000000094762
 30
0.0
 11
-620.0
 21
26.500000000094762
 31
0.0
  0
LINE
  5
6E
  8
DIMNSIONS
  6
CONTINUOUS
 62
     7
 10
-525.0
 20
330.50000000009481
 30
0.0
 11
-620.0
 21
330.50000000009481
 31
0.0
  0
LINE
  5
6F
  8
DIMNSIONS
  6
CONTINUOUS
 62
     7
 10
-600.0
 20
26.500000000094762
 30
0.0
 11
-600.0
 21
330.50000000009481
 31
0.0
  0
LINE
  5
70
  8
DIMNSIONS
  6
CONTINUOUS
 62
     7
 10
-600.0
 20
26.500000000094762
 30
0.0
 11
-606.7003979515024
 21
51.506225586032258
 31
0.0
  0
LINE
  5
71
  8
DIMNSIONS
  6
CONTINUOUS
 62
     7
 10
-600.0
 20
26.500000000094762
 30
0.0
 11
-593.2996020484976
 21
51.506225586032258
 31
0.0
  0
LINE
  5
72
  8
DIMNSIONS
  6
CONTINUOUS
 62
     7
 10
-600.0
 20
330.50000000009481
 30
0.0
 11
-593.2996020484976
 21
305.49377441415731
 31
0.0
  0
LINE
  5
73
  8
DIMNSIONS
  6
CONTINUOUS
 62
     7
 10
-600.0
 20
330.50000000009481
 30
0.0
 11
-606.7003979515024
 21
305.49377441415731
 31
0.0
  0
TEXT
  5
74
  8
DIMNSIONS
 62
     7
 10
-609.93888888888887
 20
152.04166666676139
 30
0.0
 40
27.147352430555561
  1
304
 50
90.0
 41
0.7
 11
-637.08624131944453
 21
152.04166666676139
 31
0.0
 73
     3
  0
LINE
  5
75
  8
DIMNSIONS
  6
CONTINUOUS
 62
     7
 10
-525.0
 20
-219.0
 30
0.0
 11
-570.0
 21
-219.0
 31
0.0
  0
LINE
  5
76
  8
DIMNSIONS
  6
CONTINUOUS
 62
     7
 10
-525.0
 20
-181.0
 30
0.0
 11
-570.0
 21
-181.0
 31
0.0
  0
LINE
  5
77
  8
DIMNSIONS
  6
CONTINUOUS
 62
     7
 10
-550.0
 20
-181.0
 30
0.0
 11
-550.0
 21
-219.0
 31
0.0
  0
LINE
  5
78
  8
DIMNSIONS
  6
CONTINUOUS
 62
     7
 10
-550.0
 20
-219.0
 30
0.0
 11
-550.0
 21
-269.0
 31
0.0
  0
LINE
  5
79
  8
DIMNSIONS
  6
CONTINUOUS
 62
     7
 10
-550.0
 20
-219.0
 30
0.0
 11
-543.2996020484976
 21
-244.0062255859375
 31
0.0
  0
LINE
  5
7A
  8
DIMNSIONS
  6
CONTINUOUS
 62
     7
 10
-550.0
 20
-219.0
 30
0.0
 11
-556.7003979515024
 21
-244.0062255859375
 31
0.0
  0
LINE
  5
7B
  8
DIMNSIONS
  6
CONTINUOUS
 62
     7
 10
-550.0
 20
-181.0
 30
0.0
 11
-550.0
 21
-73.444444444444457
 31
0.0
  0
LINE
  5
7C
  8
DIMNSIONS
  6
CONTINUOUS
 62
     7
 10
-550.0
 20
-181.0
 30
0.0
 11
-556.7003979515024
 21
-155.9937744140625
 31
0.0
  0
LINE
  5
7D
  8
DIMNSIONS
  6
CONTINUOUS
 62
     7
 10
-550.0
 20
-181.0
 30
0.0
 11
-543.2996020484976
 21
-155.9937744140625
 31
0.0
  0
TEXT
  5
7E
  8
DIMNSIONS
 62
     7
 10
-559.93888888888887
 20
-144.0
 30
0.0
 40
27.147352430555561
  1
38.0
 50
90.0
 41
0.7
 11
-587.08624131944453
 21
-144.0
 31
0.0
 73
     3
  0
LINE
  5
7F
  8
DIMNSIONS
  6
CONTINUOUS
 62
     7
 10
-441.5
 20
-220.0
 30
0.0
 11
-441.5
 21
-495.0
 31
0.0
  0
LINE
  5
80
  8
DIMNSIONS
  6
CONTINUOUS
 62
     7
 10
41.499999999999993
 20
-220.0
 30
0.0
 11
41.499999999999993
 21
-495.0
 31
0.0
  0
LINE
  5
81
  8
DIMNSIONS
  6
CONTINUOUS
 62
     7
 10
-441.5
 20
-475.0
 30
0.0
 11
41.499999999999993
 21
-475.0
 31
0.0
  0
LINE
  5
82
  8
DIMNSIONS
  6
CONTINUOUS
 62
     7
 10
-441.5
 20
-475.0
 30
0.0
 11
-416.49377441406239
 21
-468.2996020484976
 31
0.0
  0
LINE
  5
83
  8
DIMNSIONS
  6
CONTINUOUS
 62
     7
 10
-441.5
 20
-475.0
 30
0.0
 11
-416.49377441406239
 21
-481.7003979515024
 31
0.0
  0
LINE
  5
84
  8
DIMNSIONS
  6
CONTINUOUS
 62
     7
 10
41.499999999999993
 20
-475.0
 30
0.0
 11
16.493774414062479
 21
-481.7003979515024
 31
0.0
  0
LINE
  5
85
  8
DIMNSIONS
  6
CONTINUOUS
 62
     7
 10
41.499999999999993
 20
-475.0
 30
0.0
 11
16.493774414062479
 21
-468.2996020484976
 31
0.0
  0
TEXT
  5
86
  8
DIMNSIONS
 62
     7
 10
-226.45833333333329
 20
-465.06111111111102
 30
0.0
 40
27.147352430555561
  1
483
 41
0.7
 11
-226.45833333333329
 21
-437.91375868055542
 31
0.0
 73
     3
  0
LINE
  5
87
  8
DIMNSIONS
  6
CONTINUOUS
 62
     7
 10
-505.0
 20
-239.0
 30
0.0
 11
-505.0
 21
-570.0
 31
0.0
  0
LINE
  5
88
  8
DIMNSIONS
  6
CONTINUOUS
 62
     7
 10
105.0
 20
-239.0
 30
0.0
 11
105.0
 21
-570.0
 31
0.0
  0
LINE
  5
89
  8
DIMNSIONS
  6
CONTINUOUS
 62
     7
 10
-505.0
 20
-550.0
 30
0.0
 11
105.0
 21
-550.0
 31
0.0
  0
LINE
  5
8A
  8
DIMNSIONS
  6
CONTINUOUS
 62
     7
 10
-505.0
 20
-550.0
 30
0.0
 11
-479.9937744140625
 21
-543.2996020484976
 31
0.0
  0
LINE
  5
8B
  8
DIMNSIONS
  6
CONTINUOUS
 62
     7
 10
-505.0
 20
-550.0
 30
0.0
 11
-479.9937744140625
 21
-556.7003979515024
 31
0.0
  0
LINE
  5
8C
  8
DIMNSIONS
  6
CONTINUOUS
 62
     7
 10
105.0
 20
-550.0
 30
0.0
 11
79.993774414062486
 21
-556.7003979515024
 31
0.0
  0
LINE
  5
8D
  8
DIMNSIONS
  6
CONTINUOUS
 62
     7
 10
105.0
 20
-550.0
 30
0.0
 11
79.993774414062486
 21
-543.2996020484976
 31
0.0
  0
TEXT
  5
8E
  8
DIMNSIONS
 62
     7
 10
-226.45833333333329
 20
-540.06111111111102
 30
0.0
 40
27.147352430555561
  1
610
 41
0.7
 11
-226.45833333333329
 21
-512.91375868055536
 31
0.0
 73
     3
  0
LINE
  5
8F
  8
DIMNSIONS
  6
CONTINUOUS
 62
     7
 10
-280.0
 20
-399.0
 30
0.0
 11
-570.0
 21
-399.0
 31
0.0
  0
LINE
  5
90
  8
DIMNSIONS
  6
CONTINUOUS
 62
     7
 10
-525.0
 20
-219.0
 30
0.0
 11
-570.0
 21
-219.0
 31
0.0
  0
LINE
  5
91
  8
DIMNSIONS
  6
CONTINUOUS
 62
     7
 10
-550.0
 20
-399.0
 30
0.0
 11
-550.0
 21
-219.0
 31
0.0
  0
LINE
  5
92
  8
DIMNSIONS
  6
CONTINUOUS
 62
     7
 10
-550.0
 20
-399.0
 30
0.0
 11
-556.7003979515024
 21
-373.9937744140625
 31
0.0
  0
LINE
  5
93
  8
DIMNSIONS
  6
CONTINUOUS
 62
     7
 10
-550.0
 20
-399.0
 30
0.0
 11
-543.2996020484976
 21
-373.9937744140625
 31
0.0
  0
LINE
  5
94
  8
DIMNSIONS
  6
CONTINUOUS
 62
     7
 10
-550.0
 20
-219.0
 30
0.0
 11
-543.2996020484976
 21
-244.0062255859375
 31
0.0
  0
LINE
  5
95
  8
DIMNSIONS
  6
CONTINUOUS
 62
     7
 10
-550.0
 20
-219.0
 30
0.0
 11
-556.7003979515024
 21
-244.0062255859375
 31
0.0
  0
TEXT
  5
96
  8
DIMNSIONS
 62
     7
 10
-559.93888888888887
 20
-335.45833333333343
 30
0.0
 40
27.147352430555561
  1
180
 50
90.0
 41
0.7
 11
-587.08624131944453
 21
-335.45833333333343
 31
0.0
 73
     3
  0
LINE
  5
97
  8
DIMNSIONS
  6
CONTINUOUS
 62
     7
 10
43.477326767563667
 20
-194.5353086009624
 30
0.0
 11
75.0
 21
-125.0
 31
0.0
  0
LINE
  5
98
  8
DIMNSIONS
  6
CONTINUOUS
 62
     7
 10
43.477326767563667
 20
-194.5353086009624
 30
0.0
 11
47.972791517697317
 21
-169.04026109279721
 31
0.0
  0
LINE
  5
99
  8
DIMNSIONS
  6
CONTINUOUS
 62
     7
 10
43.477326767563667
 20
-194.5353086009624
 30
0.0
 11
60.11803719707946
 21
-174.70368216326699
 31
0.0
  0
LINE
  5
9A
  8
DIMNSIONS
  6
CONTINUOUS
 62
     7
 10
75.0
 20
-125.0
 30
0.0
 11
200.83333333333329
 21
-125.0
 31
0.0
  0
TEXT
  5
9B
  8
DIMNSIONS
 62
     7
 10
95.0
 20
-115.0611111111111
 30
0.0
 40
27.147352430555561
  1
2-\U+03C612
 41
0.7
 11
95.0
 21
-87.91375868055556
 31
0.0
 73
     3
  0
LINE
  5
9C
  8
DIMNSIONS
  6
CONTINUOUS
 62
     7
 10
420.0
 20
124.5000000000947
 30
0.0
 11
520.0
 21
124.5000000000947
 31
0.0
  0
LINE
  5
9D
  8
DIMNSIONS
  6
CONTINUOUS
 62
     7
 10
420.0
 20
154.5000000000947
 30
0.0
 11
520.0
 21
154.5000000000947
 31
0.0
  0
LINE
  5
9E
  8
DIMNSIONS
  6
CONTINUOUS
 62
     7
 10
500.0
 20
154.5000000000947
 30
0.0
 11
500.0
 21
124.5000000000947
 31
0.0
  0
LINE
  5
9F
  8
DIMNSIONS
  6
CONTINUOUS
 62
     7
 10
500.0
 20
124.5000000000947
 30
0.0
 11
500.0
 21
36.444444444539201
 31
0.0
  0
LINE
  5
A0
  8
DIMNSIONS
  6
CONTINUOUS
 62
     7
 10
500.0
 20
124.5000000000947
 30
0.0
 11
506.70039795150251
 21
99.493774414157244
 31
0.0
  0
LINE
  5
A1
  8
DIMNSIONS
  6
CONTINUOUS
 62
     7
 10
500.0
 20
124.5000000000947
 30
0.0
 11
493.2996020484976
 21
99.493774414157244
 31
0.0
  0
LINE
  5
A2
  8
DIMNSIONS
  6
CONTINUOUS
 62
     7
 10
500.0
 20
154.5000000000947
 30
0.0
 11
500.0
 21
204.50000000009479
 31
0.0
  0
LINE
  5
A3
  8
DIMNSIONS
  6
CONTINUOUS
 62
     7
 10
500.0
 20
154.5000000000947
 30
0.0
 11
493.2996020484976
 21
179.5062255860322
 31
0.0
  0
LINE
  5
A4
  8
DIMNSIONS
  6
CONTINUOUS
 62
     7
 10
500.0
 20
154.5000000000947
 30
0.0
 11
506.70039795150251
 21
179.5062255860322
 31
0.0
  0
TEXT
  5
A5
  8
DIMNSIONS
 62
     7
 10
490.06111111111107
 20
36.444444444539222
 30
0.0
 40
27.147352430555561
  1
30.0
 50
90.0
 41
0.7
 11
462.91375868055559
 21
36.444444444539222
 31
0.0
 73
     3
  0
LINE
  5
A6
  8
DIMNSIONS
  6
CONTINUOUS
 62
     7
 10
420.0
 20
244.50000000009479
 30
0.0
 11
488.49999999999989
 21
244.50000000009479
 31
0.0
  0
LINE
  5
A7
  8
DIMNSIONS
  6
CONTINUOUS
 62
     7
 10
420.0
 20
274.50000000009481
 30
0.0
 11
488.49999999999989
 21
274.50000000009481
 31
0.0
  0
LINE
  5
A8
  8
DIMNSIONS
  6
CONTINUOUS
 62
     7
 10
468.5
 20
274.50000000009481
 30
0.0
 11
468.5
 21
244.50000000009479
 31
0.0
  0
LINE
  5
A9
  8
DIMNSIONS
  6
CONTINUOUS
 62
     7
 10
468.5
 20
244.50000000009479
 30
0.0
 11
468.5
 21
194.50000000009479
 31
0.0
  0
LINE
  5
AA
  8
DIMNSIONS
  6
CONTINUOUS
 62
     7
 10
468.5
 20
244.50000000009479
 30
0.0
 11
475.2003979515024
 21
219.49377441415729
 31
0.0
  0
LINE
  5
AB
  8
DIMNSIONS
  6
CONTINUOUS
 62
     7
 10
468.5
 20
244.50000000009479
 30
0.0
 11
461.7996020484976
 21
219.49377441415729
 31
0.0
  0
LINE
  5
AC
  8
DIMNSIONS
  6
CONTINUOUS
 62
     7
 10
468.5
 20
274.50000000009481
 30
0.0
 11
468.5
 21
377.55555555565041
 31
0.0
  0
LINE
  5
AD
  8
DIMNSIONS
  6
CONTINUOUS
 62
     7
 10
468.5
 20
274.50000000009481
 30
0.0
 11
461.7996020484976
 21
299.50622558603231
 31
0.0
  0
LINE
  5
AE
  8
DIMNSIONS
  6
CONTINUOUS
 62
     7
 10
468.5
 20
274.50000000009481
 30
0.0
 11
475.2003979515024
 21
299.50622558603231
 31
0.0
  0
TEXT
  5
AF
  8
DIMNSIONS
 62
     7
 10
458.56111111111119
 20
307.00000000009481
 30
0.0
 40
27.147352430555561
  1
30.0
 50
90.0
 41
0.7
 11
431.41375868055559
 21
307.00000000009481
 31
0.0
 73
     3
  0
LINE
  5
B0
  8
DIMNSIONS
  6
CONTINUOUS
 62
     7
 10
361.0
 20
69.499999999905214
 30
0.0
 11
323.5
 21
69.499999999905214
 31
0.0
  0
LINE
  5
B1
  8
DIMNSIONS
  6
CONTINUOUS
 62
     7
 10
380.0
 20
124.5000000000947
 30
0.0
 11
323.5
 21
124.5000000000947
 31
0.0
  0
LINE
  5
B2
  8
DIMNSIONS
  6
CONTINUOUS
 62
     7
 10
343.5
 20
69.499999999905214
 30
0.0
 11
343.5
 21
-13.55555555546078
 31
0.0
  0
LINE
  5
B3
  8
DIMNSIONS
  6
CONTINUOUS
 62
     7
 10
343.5
 20
69.499999999905214
 30
0.0
 11
343.5
 21
124.5000000000947
 31
0.0
  0
LINE
  5
B4
  8
DIMNSIONS
  6
CONTINUOUS
 62
     7
 10
343.5
 20
69.499999999905214
 30
0.0
 11
336.7996020484976
 21
94.506225585842728
 31
0.0
  0
LINE
  5
B5
  8
DIMNSIONS
  6
CONTINUOUS
 62
     7
 10
343.5
 20
69.499999999905214
 30
0.0
 11
350.2003979515024
 21
94.506225585842728
 31
0.0
  0
LINE
  5
B6
  8
DIMNSIONS
  6
CONTINUOUS
 62
     7
 10
343.5
 20
124.5000000000947
 30
0.0
 11
350.2003979515024
 21
99.493774414157244
 31
0.0
  0
LINE
  5
B7
  8
DIMNSIONS
  6
CONTINUOUS
 62
     7
 10
343.5
 20
124.5000000000947
 30
0.0
 11
336.7996020484976
 21
99.493774414157244
 31
0.0
  0
TEXT
  5
B8
  8
DIMNSIONS
 62
     7
 10
333.56111111111107
 20
-13.55555555546079
 30
0.0
 40
27.147352430555561
  1
55.0
 50
90.0
 41
0.7
 11
306.41375868055559
 21
-13.55555555546078
 31
0.0
 73
     3
  0
LINE
  5
B9
  8
DIMNSIONS
  6
CONTINUOUS
 62
     7
 10
380.0
 20
154.5000000000947
 30
0.0
 11
273.5
 21
154.5000000000947
 31
0.0
  0
LINE
  5
BA
  8
DIMNSIONS
  6
CONTINUOUS
 62
     7
 10
380.0
 20
184.50000000009479
 30
0.0
 11
273.5
 21
184.50000000009479
 31
0.0
  0
LINE
  5
BB
  8
DIMNSIONS
  6
CONTINUOUS
 62
     7
 10
293.5
 20
184.50000000009479
 30
0.0
 11
293.5
 21
154.5000000000947
 31
0.0
  0
LINE
  5
BC
  8
DIMNSIONS
  6
CONTINUOUS
 62
     7
 10
293.5
 20
154.5000000000947
 30
0.0
 11
293.5
 21
104.5000000000947
 31
0.0
  0
LINE
  5
BD
  8
DIMNSIONS
  6
CONTINUOUS
 62
     7
 10
293.5
 20
154.5000000000947
 30
0.0
 11
300.2003979515024
 21
129.4937744141572
 31
0.0
  0
LINE
  5
BE
  8
DIMNSIONS
  6
CONTINUOUS
 62
     7
 10
293.5
 20
154.5000000000947
 30
0.0
 11
286.7996020484976
 21
129.4937744141572
 31
0.0
  0
LINE
  5
BF
  8
DIMNSIONS
  6
CONTINUOUS
 62
     7
 10
293.5
 20
184.50000000009479
 30
0.0
 11
293.5
 21
277.55555555565041
 31
0.0
  0
LINE
  5
C0
  8
DIMNSIONS
  6
CONTINUOUS
 62
     7
 10
293.5
 20
184.50000000009479
 30
0.0
 11
286.7996020484976
 21
209.50622558603229
 31
0.0
  0
LINE
  5
C1
  8
DIMNSIONS
  6
CONTINUOUS
 62
     7
 10
293.5
 20
184.50000000009479
 30
0.0
 11
300.2003979515024
 21
209.50622558603229
 31
0.0
  0
TEXT
  5
C2
  8
DIMNSIONS
 62
     7
 10
283.56111111111107
 20
207.00000000009479
 30
0.0
 40
27.147352430555561
  1
30.0
 50
90.0
 41
0.7
 11
256.41375868055559
 21
207.00000000009479
 31
0.0
 73
     3
  0
LINE
  5
C3
  8
DIMNSIONS
  6
CONTINUOUS
 62
     7
 10
380.0
 20
214.50000000009479
 30
0.0
 11
323.5
 21
214.50000000009479
 31
0.0
  0
LINE
  5
C4
  8
DIMNSIONS
  6
CONTINUOUS
 62
     7
 10
380.0
 20
244.50000000009479
 30
0.0
 11
323.5
 21
244.50000000009479
 31
0.0
  0
LINE
  5
C5
  8
DIMNSIONS
  6
CONTINUOUS
 62
     7
 10
343.5
 20
244.50000000009479
 30
0.0
 11
343.5
 21
214.50000000009479
 31
0.0
  0
LINE
  5
C6
  8
DIMNSIONS
  6
CONTINUOUS
 62
     7
 10
343.5
 20
214.50000000009479
 30
0.0
 11
343.5
 21
164.5000000000947
 31
0.0
  0
LINE
  5
C7
  8
DIMNSIONS
  6
CONTINUOUS
 62
     7
 10
343.5
 20
214.50000000009479
 30
0.0
 11
350.2003979515024
 21
189.49377441415729
 31
0.0
  0
LINE
  5
C8
  8
DIMNSIONS
  6
CONTINUOUS
 62
     7
 10
343.5
 20
214.50000000009479
 30
0.0
 11
336.7996020484976
 21
189.49377441415729
 31
0.0
  0
LINE
  5
C9
  8
DIMNSIONS
  6
CONTINUOUS
 62
     7
 10
343.5
 20
244.50000000009479
 30
0.0
 11
343.5
 21
327.55555555565041
 31
0.0
  0
LINE
  5
CA
  8
DIMNSIONS
  6
CONTINUOUS
 62
     7
 10
343.5
 20
244.50000000009479
 30
0.0
 11
336.7996020484976
 21
269.50622558603231
 31
0.0
  0
LINE
  5
CB
  8
DIMNSIONS
  6
CONTINUOUS
 62
     7
 10
343.5
 20
244.50000000009479
 30
0.0
 11
350.2003979515024
 21
269.50622558603231
 31
0.0
  0
TEXT
  5
CC
  8
DIMNSIONS
 62
     7
 10
333.56111111111107
 20
257.00000000009481
 30
0.0
 40
27.147352430555561
  1
30.0
 50
90.0
 41
0.7
 11
306.41375868055559
 21
257.00000000009481
 31
0.0
 73
     3
  0
LINE
  5
CD
  8
DIMNSIONS
  6
CONTINUOUS
 62
     7
 10
661.0
 20
69.499999999905214
 30
0.0
 11
610.87260439999989
 21
69.499999999905214
 31
0.0
  0
LINE
  5
CE
  8
DIMNSIONS
  6
CONTINUOUS
 62
     7
 10
680.0
 20
142.5000000000947
 30
0.0
 11
610.87260439999989
 21
142.5000000000947
 31
0.0
  0
LINE
  5
CF
  8
DIMNSIONS
  6
CONTINUOUS
 62
     7
 10
630.8726044
 20
69.499999999905214
 30
0.0
 11
630.8726044
 21
142.5000000000947
 31
0.0
  0
LINE
  5
D0
  8
DIMNSIONS
  6
CONTINUOUS
 62
     7
 10
630.8726044
 20
69.499999999905214
 30
0.0
 11
624.17220644849749
 21
94.506225585842728
 31
0.0
  0
LINE
  5
D1
  8
DIMNSIONS
  6
CONTINUOUS
 62
     7
 10
630.8726044
 20
69.499999999905214
 30
0.0
 11
637.5730023515024
 21
94.506225585842728
 31
0.0
  0
LINE
  5
D2
  8
DIMNSIONS
  6
CONTINUOUS
 62
     7
 10
630.8726044
 20
142.5000000000947
 30
0.0
 11
637.5730023515024
 21
117.4937744141572
 31
0.0
  0
LINE
  5
D3
  8
DIMNSIONS
  6
CONTINUOUS
 62
     7
 10
630.8726044
 20
142.5000000000947
 30
0.0
 11
624.17220644849749
 21
117.4937744141572
 31
0.0
  0
TEXT
  5
D4
  8
DIMNSIONS
 62
     7
 10
620.93371551111125
 20
70.7222222222222
 30
0.0
 40
27.147352430555561
  1
73.0
 50
90.0
 41
0.7
 11
593.7863630805557
 21
70.7222222222222
 31
0.0
 73
     3
  0
LINE
  5
D5
  8
DIMNSIONS
  6
CONTINUOUS
 62
     7
 10
680.0
 20
142.5000000000947
 30
0.0
 11
610.87260439999989
 21
142.5000000000947
 31
0.0
  0
LINE
  5
D6
  8
DIMNSIONS
  6
CONTINUOUS
 62
     7
 10
680.0
 20
271.50000000009481
 30
0.0
 11
610.87260439999989
 21
271.50000000009481
 31
0.0
  0
LINE
  5
D7
  8
DIMNSIONS
  6
CONTINUOUS
 62
     7
 10
630.8726044
 20
142.5000000000947
 30
0.0
 11
630.8726044
 21
271.50000000009481
 31
0.0
  0
LINE
  5
D8
  8
DIMNSIONS
  6
CONTINUOUS
 62
     7
 10
630.8726044
 20
142.5000000000947
 30
0.0
 11
624.17220644849749
 21
167.5062255860322
 31
0.0
  0
LINE
  5
D9
  8
DIMNSIONS
  6
CONTINUOUS
 62
     7
 10
630.8726044
 20
142.5000000000947
 30
0.0
 11
637.5730023515024
 21
167.5062255860322
 31
0.0
  0
LINE
  5
DA
  8
DIMNSIONS
  6
CONTINUOUS
 62
     7
 10
630.8726044
 20
271.50000000009481
 30
0.0
 11
637.5730023515024
 21
246.49377441415729
 31
0.0
  0
LINE
  5
DB
  8
DIMNSIONS
  6
CONTINUOUS
 62
     7
 10
630.8726044
 20
271.50000000009481
 30
0.0
 11
624.17220644849749
 21
246.49377441415729
 31
0.0
  0
TEXT
  5
DC
  8
DIMNSIONS
 62
     7
 10
620.93371551111125
 20
180.54166666676139
 30
0.0
 40
27.147352430555561
  1
129
 50
90.0
 41
0.7
 11
593.7863630805557
 21
180.54166666676139
 31
0.0
 73
     3
  0
LINE
  5
DD
  8
DIMNSIONS
  6
CONTINUOUS
 62
     7
 10
401.29883213534822
 20
280.35773293051278
 30
0.0
 11
450.0
 21
500.0
 31
0.0
  0
LINE
  5
DE
  8
DIMNSIONS
  6
CONTINUOUS
 62
     7
 10
401.29883213534822
 20
280.35773293051278
 30
0.0
 11
400.39534175997301
 21
306.23031215843088
 31
0.0
  0
LINE
  5
DF
  8
DIMNSIONS
  6
CONTINUOUS
 62
     7
 10
401.29883213534822
 20
280.35773293051278
 30
0.0
 11
413.45267613215759
 21
303.21578899100308
 31
0.0
  0
LINE
  5
E0
  8
DIMNSIONS
  6
CONTINUOUS
 62
     7
 10
450.0
 20
500.0
 30
0.0
 11
575.83333333333314
 21
500.0
 31
0.0
  0
TEXT
  5
E1
  8
DIMNSIONS
 62
     7
 10
470.0
 20
509.93888888888881
 30
0.0
 40
27.147352430555561
  1
6-\U+03C612
 41
0.7
 11
470.0
 21
537.08624131944418
 31
0.0
 73
     3
  0
LINE
  5
E2
  8
DIMNSIONS
  6
CONTINUOUS
 62
     7
 10
703.22333836927271
 20
276.56064123984709
 30
0.0
 11
750.0
 21
350.0
 31
0.0
  0
LINE
  5
E3
  8
DIMNSIONS
  6
CONTINUOUS
 62
     7
 10
703.22333836927271
 20
276.56064123984709
 30
0.0
 11
711.22327838631895
 21
301.18192492869957
 31
0.0
  0
LINE
  5
E4
  8
DIMNSIONS
  6
CONTINUOUS
 62
     7
 10
703.22333836927271
 20
276.56064123984709
 30
0.0
 11
722.46213149721257
 21
293.88332837965368
 31
0.0
  0
LINE
  5
E5
  8
DIMNSIONS
  6
CONTINUOUS
 62
     7
 10
750.0
 20
350.0
 30
0.0
 11
875.83333333333314
 21
350.0
 31
0.0
  0
TEXT
  5
E6
  8
DIMNSIONS
 62
     7
 10
770.0
 20
359.93888888888898
 30
0.0
 40
27.147352430555561
  1
4-\U+03C612
 41
0.7
 11
770.0
 21
387.08624131944453
 31
0.0
 73
     3
  0
LINE
  5
E7
  8
DIMNSIONS
  6
CONTINUOUS
 62
     7
 10
44.048893171869587
 20
605.16761554554159
 30
0.0
 11
99.999999999999957
 21
700.0
 31
0.0
  0
LINE
  5
E8
  8
DIMNSIONS
  6
CONTINUOUS
 62
     7
 10
44.048893171869587
 20
605.16761554554159
 30
0.0
 11
51.184689432698079
 21
630.05309449386095
 31
0.0
  0
LINE
  5
E9
  8
DIMNSIONS
  6
CONTINUOUS
 62
     7
 10
44.048893171869587
 20
605.16761554554159
 30
0.0
 11
62.671413484136679
 21
623.15117436971457
 31
0.0
  0
LINE
  5
EA
  8
DIMNSIONS
  6
CONTINUOUS
 62
     7
 10
99.999999999999957
 20
700.0
 30
0.0
 11
225.83333333333329
 21
700.0
 31
0.0
  0
TEXT
  5
EB
  8
DIMNSIONS
 62
     7
 10
119.9999999999999
 20
709.93888888888875
 30
0.0
 40
27.147352430555561
  1
2-\U+03C612
 41
0.7
 11
119.9999999999999
 21
737.08624131944441
 31
0.0
 73
     3
  0
LINE
  5
EC
  8
DIMNSIONS
  6
CONTINUOUS
 62
     7
 10
420.0
 20
184.50000000009479
 30
0.0
 11
563.49999999999989
 21
184.50000000009479
 31
0.0
  0
LINE
  5
ED
  8
DIMNSIONS
  6
CONTINUOUS
 62
     7
 10
420.0
 20
214.50000000009479
 30
0.0
 11
563.49999999999989
 21
214.50000000009479
 31
0.0
  0
LINE
  5
EE
  8
DIMNSIONS
  6
CONTINUOUS
 62
     7
 10
543.5
 20
214.50000000009479
 30
0.0
 11
543.5
 21
184.50000000009479
 31
0.0
  0
LINE
  5
EF
  8
DIMNSIONS
  6
CONTINUOUS
 62
     7
 10
543.5
 20
184.50000000009479
 30
0.0
 11
543.5
 21
134.5000000000947
 31
0.0
  0
LINE
  5
F0
  8
DIMNSIONS
  6
CONTINUOUS
 62
     7
 10
543.5
 20
184.50000000009479
 30
0.0
 11
550.20039795150228
 21
159.4937744141572
 31
0.0
  0
LINE
  5
F1
  8
DIMNSIONS
  6
CONTINUOUS
 62
     7
 10
543.5
 20
184.50000000009479
 30
0.0
 11
536.79960204849749
 21
159.4937744141572
 31
0.0
  0
LINE
  5
F2
  8
DIMNSIONS
  6
CONTINUOUS
 62
     7
 10
543.5
 20
214.50000000009479
 30
0.0
 11
543.5
 21
302.55555555565041
 31
0.0
  0
LINE
  5
F3
  8
DIMNSIONS
  6
CONTINUOUS
 62
     7
 10
543.5
 20
214.50000000009479
 30
0.0
 11
536.79960204849749
 21
239.5062255860322
 31
0.0
  0
LINE
  5
F4
  8
DIMNSIONS
  6
CONTINUOUS
 62
     7
 10
543.5
 20
214.50000000009479
 30
0.0
 11
550.20039795150228
 21
239.5062255860322
 31
0.0
  0
TEXT
  5
F5
  8
DIMNSIONS
 62
     7
 10
533.56111111111125
 20
232.00000000009479
 30
0.0
 40
27.147352430555561
  1
30.0
 50
90.0
 41
0.7
 11
506.41375868055559
 21
232.00000000009479
 31
0.0
 73
     3
  0
TEXT
  5
F6
  8
DATA
 62
     7
 10
599.99999999999989
 20
-1016.904765
 30
0.0
 40
24.4326171875
  1
VT4886-SF
 41
0.7
 11
599.99999999999989
 21
-992.4721478125
 31
0.0
 73
     3
  0
TEXT
  5
F7
  8
DATA
 62
     7
 10
573.40331047826282
 20
-979.26300021281929
 30
0.0
 40
19.003146701388889
  1
VT4886用ショートフレーム
 41
0.7
 11
573.40331047826282
 21
-960.25985351143049
 31
0.0
 73
     3
  0
TEXT
  5
F8
  8
DATA
 62
     7
 10
-765.15766347595581
 20
-1063.3568403831341
 30
0.0
 40
16.288411458333329
  1
＊仕様および外観は予告なく変更されることがあります。
 41
0.7
 11
-765.15766347595581
 21
-1047.0684289248011
 31
0.0
 73
     3
  0
LINE
  5
F9
  8
DATA
  6
CONTINUOUS
 62
     7
 10
-505.0
 20
69.499999999905214
 30
0.0
 11
105.0
 21
69.499999999905214
 31
0.0
  0
LINE
  5
FA
  8
DATA
  6
CONTINUOUS
 62
     7
 10
-505.0
 20
69.499999999905214
 30
0.0
 11
-505.0
 21
330.50000000009481
 31
0.0
  0
LINE
  5
FB
  8
DATA
  6
CONTINUOUS
 62
     7
 10
104.9999999999999
 20
69.499999999905214
 30
0.0
 11
105.0
 21
330.50000000009481
 31
0.0
  0
LINE
  5
FC
  8
DATA
  6
CONTINUOUS
 62
     7
 10
-505.0
 20
330.50000000009481
 30
0.0
 11
105.0
 21
330.50000000009481
 31
0.0
  0
LINE
  5
FD
  8
DATA
  6
CONTINUOUS
 62
     7
 10
-496.0
 20
79.499999999905199
 30
0.0
 11
-496.0
 21
330.50000000009481
 31
0.0
  0
LINE
  5
FE
  8
DATA
  6
CONTINUOUS
 62
     7
 10
95.999999999999957
 20
79.499999999905199
 30
0.0
 11
95.999999999999986
 21
320.50000000009481
 31
0.0
  0
LINE
  5
FF
  8
DATA
  6
CONTINUOUS
 62
     7
 10
-422.49999999999989
 20
79.499999999905199
 30
0.0
 11
105.0
 21
79.499999999905199
 31
0.0
  0
LINE
  5
100
  8
DATA
  6
CONTINUOUS
 62
     7
 10
-496.0
 20
320.50000000009481
 30
0.0
 11
105.0
 21
320.50000000009481
 31
0.0
  0
LINE
  5
101
  8
DATA
  6
CONTINUOUS
 62
     7
 10
-129.54599148034859
 20
342.50000000009481
 30
0.0
 11
-129.54599148034859
 21
392.50000000009481
 31
0.0
  0
LINE
  5
102
  8
DATA
  6
CONTINUOUS
 62
     7
 10
-129.54599148034859
 20
342.50000000009481
 30
0.0
 11
-138.05337834003669
 21
374.25000000009481
 31
0.0
  0
LINE
  5
103
  8
DATA
  6
CONTINUOUS
 62
     7
 10
-129.54599148034859
 20
342.50000000009481
 30
0.0
 11
-121.03860462066039
 21
374.25000000009481
 31
0.0
  0
LINE
  5
104
  8
DATA
  6
CONTINUOUS
 62
     7
 10
-129.54599148034859
 20
53.420396973129122
 30
0.0
 11
-129.54599148034859
 21
3.4203969731290429
 31
0.0
  0
LINE
  5
105
  8
DATA
  6
CONTINUOUS
 62
     7
 10
-129.54599148034859
 20
53.420396973129122
 30
0.0
 11
-121.03860462066039
 21
21.670396973129119
 31
0.0
  0
LINE
  5
106
  8
DATA
  6
CONTINUOUS
 62
     7
 10
-129.54599148034859
 20
53.420396973129122
 30
0.0
 11
-138.05337834003669
 21
21.670396973129119
 31
0.0
  0
TEXT
  5
107
  8
DATA
 62
     7
 10
-137.72784427909451
 20
397.77814250824048
 30
0.0
 40
27.147352430555561
  1
A
 41
0.7
 11
-137.72784427909451
 21
424.92549493879602
 31
0.0
 73
     3
  0
TEXT
  5
108
  8
DATA
 62
     7
 10
-137.612727428178
 20
-35.565393199200301
 30
0.0
 40
27.147352430555561
  1
A"
 41
0.7
 11
-137.612727428178
 21
-8.418040768644742
 31
0.0
 73
     3
  0
LINE
  5
109
  8
DATA
  6
CONTINUOUS
 62
     7
 10
-205.0
 20
26.500000000094762
 30
0.0
 11
-195.0
 21
26.500000000094762
 31
0.0
  0
LINE
  5
10A
  8
DATA
  6
CONTINUOUS
 62
     7
 10
-225.5
 20
60.000000000094751
 30
0.0
 11
-207.5
 21
60.000000000094751
 31
0.0
  0
LINE
  5
10B
  8
DATA
  6
CONTINUOUS
 62
     7
 10
-192.5
 20
60.000000000094751
 30
0.0
 11
-174.5
 21
60.000000000094751
 31
0.0
  0
LINE
  5
10C
  8
DATA
  6
CONTINUOUS
 62
     7
 10
-205.0
 20
320.50000000009481
 30
0.0
 11
-205.0
 21
79.499999999905199
 31
0.0
  0
LINE
  5
10D
  8
DATA
  6
CONTINUOUS
 62
     7
 10
-205.0
 20
57.500000000094751
 30
0.0
 11
-205.0
 21
26.500000000094762
 31
0.0
  0
LINE
  5
10E
  8
DATA
  6
CONTINUOUS
 62
     7
 10
-195.0
 20
320.50000000009481
 30
0.0
 11
-195.0
 21
79.499999999905199
 31
0.0
  0
LINE
  5
10F
  8
DATA
  6
CONTINUOUS
 62
     7
 10
-195.0
 20
57.500000000094751
 30
0.0
 11
-195.0
 21
26.500000000094762
 31
0.0
  0
ARC
  5
110
  8
DATA
  6
CONTINUOUS
 62
     7
 10
-207.5
 20
57.500000000094751
 30
0.0
 40
2.5
 50
0.0
 51
90.0
  0
ARC
  5
111
  8
DATA
  6
CONTINUOUS
 62
     7
 10
-192.5
 20
57.500000000094751
 30
0.0
 40
2.5
 50
90.0
 51
180.0
  0
LINE
  5
112
  8
DATA
  6
CONTINUOUS
 62
     7
 10
-496.0
 20
103.5000000000947
 30
0.0
 11
-473.0
 21
103.5000000000947
 31
0.0
  0
LINE
  5
113
  8
DATA
  6
CONTINUOUS
 62
     7
 10
72.999999999999986
 20
103.5000000000947
 30
0.0
 11
95.999999999999957
 21
103.5000000000947
 31
0.0
  0
LINE
  5
114
  8
DATA
  6
CONTINUOUS
 62
     7
 10
-473.0
 20
79.499999999905199
 30
0.0
 11
-473.0
 21
85.499999999905214
 31
0.0
  0
LINE
  5
115
  8
DATA
  6
CONTINUOUS
 62
     7
 10
-473.0
 20
99.500000000094758
 30
0.0
 11
-473.0
 21
103.5000000000947
 31
0.0
  0
LINE
  5
116
  8
DATA
  6
CONTINUOUS
 62
     7
 10
72.999999999999972
 20
79.499999999905199
 30
0.0
 11
72.999999999999972
 21
85.499999999905214
 31
0.0
  0
LINE
  5
117
  8
DATA
  6
CONTINUOUS
 62
     7
 10
72.999999999999972
 20
99.500000000094758
 30
0.0
 11
72.999999999999972
 21
103.5000000000947
 31
0.0
  0
LINE
  5
118
  8
DATA
  6
CONTINUOUS
 62
     7
 10
-486.0
 20
85.499999999905214
 30
0.0
 11
-486.0
 21
99.500000000094758
 31
0.0
  0
LINE
  5
119
  8
DATA
  6
CONTINUOUS
 62
     7
 10
-486.0
 20
99.500000000094758
 30
0.0
 11
-473.0
 21
99.500000000094758
 31
0.0
  0
LINE
  5
11A
  8
DATA
  6
CONTINUOUS
 62
     7
 10
-486.0
 20
85.499999999905214
 30
0.0
 11
-473.0
 21
85.499999999905214
 31
0.0
  0
LINE
  5
11B
  8
DATA
  6
CONTINUOUS
 62
     7
 10
72.999999999999986
 20
85.499999999905214
 30
0.0
 11
85.999999999999957
 21
85.499999999905214
 31
0.0
  0
LINE
  5
11C
  8
DATA
  6
CONTINUOUS
 62
     7
 10
72.999999999999986
 20
99.500000000094758
 30
0.0
 11
85.999999999999957
 21
99.500000000094758
 31
0.0
  0
LINE
  5
11D
  8
DATA
  6
CONTINUOUS
 62
     7
 10
85.999999999999957
 20
85.499999999905214
 30
0.0
 11
85.999999999999957
 21
99.500000000094758
 31
0.0
  0
LINE
  5
11E
  8
DATA
  6
CONTINUOUS
 62
     7
 10
-213.5
 20
104.0000000000947
 30
0.0
 11
-205.0
 21
104.0000000000947
 31
0.0
  0
LINE
  5
11F
  8
DATA
  6
CONTINUOUS
 62
     7
 10
-195.0
 20
104.0000000000947
 30
0.0
 11
-186.5
 21
104.0000000000947
 31
0.0
  0
LINE
  5
120
  8
DATA
  6
CONTINUOUS
 62
     7
 10
-213.5
 20
104.0000000000947
 30
0.0
 11
-213.5
 21
86.000000000094758
 31
0.0
  0
LINE
  5
121
  8
DATA
  6
CONTINUOUS
 62
     7
 10
-186.5
 20
104.0000000000947
 30
0.0
 11
-186.5
 21
86.000000000094758
 31
0.0
  0
LINE
  5
122
  8
DATA
  6
CONTINUOUS
 62
     7
 10
-223.5
 20
86.000000000094758
 30
0.0
 11
-213.5
 21
86.000000000094758
 31
0.0
  0
LINE
  5
123
  8
DATA
  6
CONTINUOUS
 62
     7
 10
-186.5
 20
86.000000000094758
 30
0.0
 11
-176.5
 21
86.000000000094758
 31
0.0
  0
LINE
  5
124
  8
DATA
  6
CONTINUOUS
 62
     7
 10
-223.5
 20
79.499999999905199
 30
0.0
 11
-223.5
 21
86.000000000094758
 31
0.0
  0
LINE
  5
125
  8
DATA
  6
CONTINUOUS
 62
     7
 10
-176.5
 20
86.000000000094758
 30
0.0
 11
-176.5
 21
79.499999999905199
 31
0.0
  0
LINE
  5
126
  8
DATA
  6
CONTINUOUS
 62
     7
 10
-225.5
 20
60.000000000094751
 30
0.0
 11
-225.5
 21
69.500000000094758
 31
0.0
  0
LINE
  5
127
  8
DATA
  6
CONTINUOUS
 62
     7
 10
-174.5
 20
60.000000000094751
 30
0.0
 11
-174.5
 21
69.500000000094758
 31
0.0
  0
LINE
  5
128
  8
DATA
  6
CONTINUOUS
 62
     7
 10
-482.85000000000002
 20
127.8000000000947
 30
0.0
 11
-480.75
 21
127.8000000000947
 31
0.0
  0
LINE
  5
129
  8
DATA
  6
CONTINUOUS
 62
     7
 10
-479.25
 20
127.8000000000947
 30
0.0
 11
-477.15000000000009
 21
127.8000000000947
 31
0.0
  0
LINE
  5
12A
  8
DATA
  6
CONTINUOUS
 62
     7
 10
-484.68000000000001
 20
105.6000000000947
 30
0.0
 11
-475.31999999999988
 21
105.6000000000947
 31
0.0
  0
LINE
  5
12B
  8
DATA
  6
CONTINUOUS
 62
     7
 10
-484.49999999999989
 20
103.5000000000947
 30
0.0
 11
-484.49999999999989
 21
105.6000000000947
 31
0.0
  0
LINE
  5
12C
  8
DATA
  6
CONTINUOUS
 62
     7
 10
-475.49999999999989
 20
105.6000000000947
 30
0.0
 11
-475.49999999999989
 21
103.5000000000947
 31
0.0
  0
LINE
  5
12D
  8
DATA
  6
CONTINUOUS
 62
     7
 10
-482.85000000000002
 20
122.8000000000947
 30
0.0
 11
-482.85000000000002
 21
127.8000000000947
 31
0.0
  0
LINE
  5
12E
  8
DATA
  6
CONTINUOUS
 62
     7
 10
-477.15000000000009
 20
127.8000000000947
 30
0.0
 11
-477.15000000000009
 21
122.8000000000947
 31
0.0
  0
LINE
  5
12F
  8
DATA
  6
CONTINUOUS
 62
     7
 10
-487.5
 20
117.90000000009481
 30
0.0
 11
-487.5
 21
122.8000000000947
 31
0.0
  0
LINE
  5
130
  8
DATA
  6
CONTINUOUS
 62
     7
 10
-472.5
 20
122.8000000000947
 30
0.0
 11
-472.5
 21
117.90000000009481
 31
0.0
  0
LINE
  5
131
  8
DATA
  6
CONTINUOUS
 62
     7
 10
-487.5
 20
122.8000000000947
 30
0.0
 11
-480.75
 21
122.8000000000947
 31
0.0
  0
LINE
  5
132
  8
DATA
  6
CONTINUOUS
 62
     7
 10
-479.25
 20
122.8000000000947
 30
0.0
 11
-472.5
 21
122.8000000000947
 31
0.0
  0
LINE
  5
133
  8
DATA
  6
CONTINUOUS
 62
     7
 10
-487.5
 20
117.90000000009481
 30
0.0
 11
-472.5
 21
117.90000000009481
 31
0.0
  0
LINE
  5
134
  8
DATA
  6
CONTINUOUS
 62
     7
 10
-486.0
 20
117.90000000009481
 30
0.0
 11
-485.67116788321169
 21
112.60000000009479
 31
0.0
  0
LINE
  5
135
  8
DATA
  6
CONTINUOUS
 62
     7
 10
-474.0
 20
117.90000000009481
 30
0.0
 11
-474.32883211678842
 21
112.60000000009479
 31
0.0
  0
LINE
  5
136
  8
DATA
  6
CONTINUOUS
 62
     7
 10
-485.67116788321169
 20
112.60000000009479
 30
0.0
 11
-484.68000000000001
 21
105.6000000000947
 31
0.0
  0
LINE
  5
137
  8
DATA
  6
CONTINUOUS
 62
     7
 10
-474.32883211678842
 20
112.60000000009479
 30
0.0
 11
-475.31999999999988
 21
105.6000000000947
 31
0.0
  0
ARC
  5
138
  8
DATA
  6
CONTINUOUS
 62
     7
 10
-480.0
 20
132.04230769240249
 30
0.0
 40
0.7576923076922951
 50
8.1712335599430777
 51
171.828766440057
  0
ARC
  5
139
  8
DATA
  6
CONTINUOUS
 62
     7
 10
-480.0
 20
119.94517091830799
 30
0.0
 40
0.7576923076922951
 50
188.17123355994309
 51
351.828766440057
  0
LINE
  5
13A
  8
DATA
  6
CONTINUOUS
 62
     7
 10
-480.75
 20
119.8374786106158
 30
0.0
 11
-480.75
 21
132.1600000000947
 31
0.0
  0
LINE
  5
13B
  8
DATA
  6
CONTINUOUS
 62
     7
 10
-479.25
 20
132.15000000009471
 30
0.0
 11
-479.25
 21
119.76000000009471
 31
0.0
  0
LINE
  5
13C
  8
DATA
  6
CONTINUOUS
 62
     7
 10
82.850000000000009
 20
127.8000000000947
 30
0.0
 11
80.749999999999986
 21
127.8000000000947
 31
0.0
  0
LINE
  5
13D
  8
DATA
  6
CONTINUOUS
 62
     7
 10
79.249999999999986
 20
127.8000000000947
 30
0.0
 11
77.150000000000063
 21
127.8000000000947
 31
0.0
  0
LINE
  5
13E
  8
DATA
  6
CONTINUOUS
 62
     7
 10
84.680000000000049
 20
105.6000000000947
 30
0.0
 11
75.319999999999922
 21
105.6000000000947
 31
0.0
  0
LINE
  5
13F
  8
DATA
  6
CONTINUOUS
 62
     7
 10
84.499999999999986
 20
103.5000000000947
 30
0.0
 11
84.499999999999986
 21
105.6000000000947
 31
0.0
  0
LINE
  5
140
  8
DATA
  6
CONTINUOUS
 62
     7
 10
75.499999999999986
 20
105.6000000000947
 30
0.0
 11
75.499999999999986
 21
103.5000000000947
 31
0.0
  0
LINE
  5
141
  8
DATA
  6
CONTINUOUS
 62
     7
 10
82.850000000000009
 20
122.8000000000947
 30
0.0
 11
82.850000000000009
 21
127.8000000000947
 31
0.0
  0
LINE
  5
142
  8
DATA
  6
CONTINUOUS
 62
     7
 10
77.150000000000063
 20
127.8000000000947
 30
0.0
 11
77.150000000000063
 21
122.8000000000947
 31
0.0
  0
LINE
  5
143
  8
DATA
  6
CONTINUOUS
 62
     7
 10
87.499999999999986
 20
117.90000000009481
 30
0.0
 11
87.499999999999986
 21
122.8000000000947
 31
0.0
  0
LINE
  5
144
  8
DATA
  6
CONTINUOUS
 62
     7
 10
72.499999999999986
 20
122.8000000000947
 30
0.0
 11
72.499999999999986
 21
117.90000000009481
 31
0.0
  0
LINE
  5
145
  8
DATA
  6
CONTINUOUS
 62
     7
 10
87.499999999999986
 20
122.8000000000947
 30
0.0
 11
80.749999999999986
 21
122.8000000000947
 31
0.0
  0
LINE
  5
146
  8
DATA
  6
CONTINUOUS
 62
     7
 10
79.249999999999986
 20
122.8000000000947
 30
0.0
 11
72.499999999999986
 21
122.8000000000947
 31
0.0
  0
LINE
  5
147
  8
DATA
  6
CONTINUOUS
 62
     7
 10
87.499999999999986
 20
117.90000000009481
 30
0.0
 11
72.499999999999986
 21
117.90000000009481
 31
0.0
  0
LINE
  5
148
  8
DATA
  6
CONTINUOUS
 62
     7
 10
85.999999999999986
 20
117.90000000009481
 30
0.0
 11
85.671167883211623
 21
112.60000000009479
 31
0.0
  0
LINE
  5
149
  8
DATA
  6
CONTINUOUS
 62
     7
 10
73.999999999999986
 20
117.90000000009481
 30
0.0
 11
74.328832116788334
 21
112.60000000009479
 31
0.0
  0
LINE
  5
14A
  8
DATA
  6
CONTINUOUS
 62
     7
 10
85.671167883211623
 20
112.60000000009479
 30
0.0
 11
84.680000000000049
 21
105.6000000000947
 31
0.0
  0
LINE
  5
14B
  8
DATA
  6
CONTINUOUS
 62
     7
 10
74.328832116788334
 20
112.60000000009479
 30
0.0
 11
75.319999999999922
 21
105.6000000000947
 31
0.0
  0
ARC
  5
14C
  8
DATA
  6
CONTINUOUS
 62
     7
 10
79.999999999999986
 20
132.04230769240249
 30
0.0
 40
0.7576923076922951
 50
8.1712335599430777
 51
171.828766440057
  0
ARC
  5
14D
  8
DATA
  6
CONTINUOUS
 62
     7
 10
79.999999999999986
 20
119.94517091830799
 30
0.0
 40
0.7576923076922951
 50
188.17123355994309
 51
351.828766440057
  0
LINE
  5
14E
  8
DATA
  6
CONTINUOUS
 62
     7
 10
80.749999999999986
 20
119.8374786106158
 30
0.0
 11
80.749999999999986
 21
132.1600000000947
 31
0.0
  0
LINE
  5
14F
  8
DATA
  6
CONTINUOUS
 62
     7
 10
79.249999999999986
 20
132.15000000009471
 30
0.0
 11
79.249999999999986
 21
119.76000000009471
 31
0.0
  0
LINE
  5
150
  8
DATA
  6
CONTINUOUS
 62
     7
 10
-483.15000000000009
 20
85.499999999905214
 30
0.0
 11
-483.15000000000009
 21
99.500000000094758
 31
0.0
  0
LINE
  5
151
  8
DATA
  6
CONTINUOUS
 62
     7
 10
-476.84999999999781
 20
79.442040595229969
 30
0.0
 11
-476.84999999999781
 21
79.499999999905199
 31
0.0
  0
LINE
  5
152
  8
DATA
  6
CONTINUOUS
 62
     7
 10
-476.84999999999781
 20
85.499999999905214
 30
0.0
 11
-476.84999999999781
 21
99.500000000094758
 31
0.0
  0
LINE
  5
153
  8
DATA
  6
CONTINUOUS
 62
     7
 10
76.850000000000023
 20
85.499999999905214
 30
0.0
 11
76.850000000000023
 21
99.500000000094758
 31
0.0
  0
LINE
  5
154
  8
DATA
  6
CONTINUOUS
 62
     7
 10
83.150000000000063
 20
85.499999999905214
 30
0.0
 11
83.150000000000063
 21
99.500000000094758
 31
0.0
  0
LINE
  5
155
  8
DATA
  6
CONTINUOUS
 62
     7
 10
-496.0
 20
296.50000000009481
 30
0.0
 11
-473.0
 21
296.50000000009481
 31
0.0
  0
LINE
  5
156
  8
DATA
  6
CONTINUOUS
 62
     7
 10
72.999999999999986
 20
296.50000000009481
 30
0.0
 11
95.999999999999957
 21
296.50000000009481
 31
0.0
  0
LINE
  5
157
  8
DATA
  6
CONTINUOUS
 62
     7
 10
-473.0
 20
320.50000000028422
 30
0.0
 11
-473.0
 21
314.50000000028422
 31
0.0
  0
LINE
  5
158
  8
DATA
  6
CONTINUOUS
 62
     7
 10
-473.0
 20
300.50000000009481
 30
0.0
 11
-473.0
 21
296.50000000009481
 31
0.0
  0
LINE
  5
159
  8
DATA
  6
CONTINUOUS
 62
     7
 10
72.999999999999972
 20
320.50000000028422
 30
0.0
 11
72.999999999999972
 21
314.50000000028422
 31
0.0
  0
LINE
  5
15A
  8
DATA
  6
CONTINUOUS
 62
     7
 10
72.999999999999972
 20
300.50000000009481
 30
0.0
 11
72.999999999999972
 21
296.50000000009481
 31
0.0
  0
LINE
  5
15B
  8
DATA
  6
CONTINUOUS
 62
     7
 10
-486.0
 20
314.50000000028422
 30
0.0
 11
-486.0
 21
300.5000000000947
 31
0.0
  0
LINE
  5
15C
  8
DATA
  6
CONTINUOUS
 62
     7
 10
-486.0
 20
300.50000000009481
 30
0.0
 11
-473.0
 21
300.50000000009481
 31
0.0
  0
LINE
  5
15D
  8
DATA
  6
CONTINUOUS
 62
     7
 10
-486.0
 20
314.50000000028422
 30
0.0
 11
-473.0
 21
314.50000000028422
 31
0.0
  0
LINE
  5
15E
  8
DATA
  6
CONTINUOUS
 62
     7
 10
72.999999999999986
 20
314.50000000028422
 30
0.0
 11
85.999999999999957
 21
314.50000000028422
 31
0.0
  0
LINE
  5
15F
  8
DATA
  6
CONTINUOUS
 62
     7
 10
72.999999999999986
 20
300.50000000009481
 30
0.0
 11
85.999999999999957
 21
300.50000000009481
 31
0.0
  0
LINE
  5
160
  8
DATA
  6
CONTINUOUS
 62
     7
 10
85.999999999999957
 20
314.50000000028422
 30
0.0
 11
85.999999999999957
 21
300.50000000009481
 31
0.0
  0
LINE
  5
161
  8
DATA
  6
CONTINUOUS
 62
     7
 10
-482.85000000000002
 20
272.2000000000948
 30
0.0
 11
-480.75
 21
272.2000000000948
 31
0.0
  0
LINE
  5
162
  8
DATA
  6
CONTINUOUS
 62
     7
 10
-479.25
 20
272.2000000000948
 30
0.0
 11
-477.15000000000009
 21
272.2000000000948
 31
0.0
  0
LINE
  5
163
  8
DATA
  6
CONTINUOUS
 62
     7
 10
-484.68000000000001
 20
294.40000000009468
 30
0.0
 11
-475.31999999999988
 21
294.40000000009468
 31
0.0
  0
LINE
  5
164
  8
DATA
  6
CONTINUOUS
 62
     7
 10
-484.49999999999989
 20
296.50000000009481
 30
0.0
 11
-484.49999999999989
 21
294.40000000009468
 31
0.0
  0
LINE
  5
165
  8
DATA
  6
CONTINUOUS
 62
     7
 10
-475.49999999999989
 20
294.40000000009468
 30
0.0
 11
-475.49999999999989
 21
296.50000000009481
 31
0.0
  0
LINE
  5
166
  8
DATA
  6
CONTINUOUS
 62
     7
 10
-482.85000000000002
 20
277.20000000009469
 30
0.0
 11
-482.85000000000002
 21
272.2000000000948
 31
0.0
  0
LINE
  5
167
  8
DATA
  6
CONTINUOUS
 62
     7
 10
-477.15000000000009
 20
272.2000000000948
 30
0.0
 11
-477.15000000000009
 21
277.20000000009469
 31
0.0
  0
LINE
  5
168
  8
DATA
  6
CONTINUOUS
 62
     7
 10
-487.5
 20
282.10000000009478
 30
0.0
 11
-487.5
 21
277.20000000009469
 31
0.0
  0
LINE
  5
169
  8
DATA
  6
CONTINUOUS
 62
     7
 10
-472.5
 20
277.20000000009469
 30
0.0
 11
-472.5
 21
282.10000000009478
 31
0.0
  0
LINE
  5
16A
  8
DATA
  6
CONTINUOUS
 62
     7
 10
-487.5
 20
277.20000000009469
 30
0.0
 11
-480.75
 21
277.20000000009469
 31
0.0
  0
LINE
  5
16B
  8
DATA
  6
CONTINUOUS
 62
     7
 10
-479.25
 20
277.20000000009469
 30
0.0
 11
-472.5
 21
277.20000000009469
 31
0.0
  0
LINE
  5
16C
  8
DATA
  6
CONTINUOUS
 62
     7
 10
-487.5
 20
282.10000000009478
 30
0.0
 11
-472.5
 21
282.10000000009478
 31
0.0
  0
LINE
  5
16D
  8
DATA
  6
CONTINUOUS
 62
     7
 10
-486.0
 20
282.10000000009478
 30
0.0
 11
-485.67116788321169
 21
287.40000000009468
 31
0.0
  0
LINE
  5
16E
  8
DATA
  6
CONTINUOUS
 62
     7
 10
-474.0
 20
282.10000000009478
 30
0.0
 11
-474.32883211678842
 21
287.40000000009468
 31
0.0
  0
LINE
  5
16F
  8
DATA
  6
CONTINUOUS
 62
     7
 10
-485.67116788321169
 20
287.40000000009468
 30
0.0
 11
-484.68000000000001
 21
294.40000000009468
 31
0.0
  0
LINE
  5
170
  8
DATA
  6
CONTINUOUS
 62
     7
 10
-474.32883211678842
 20
287.40000000009468
 30
0.0
 11
-475.31999999999988
 21
294.40000000009468
 31
0.0
  0
ARC
  5
171
  8
DATA
  6
CONTINUOUS
 62
     7
 10
-480.0
 20
267.957692307787
 30
0.0
 40
0.7576923076922951
 50
188.17123355994309
 51
351.828766440057
  0
ARC
  5
172
  8
DATA
  6
CONTINUOUS
 62
     7
 10
-480.0
 20
280.05482908188139
 30
0.0
 40
0.7576923076922951
 50
8.1712335599430777
 51
171.828766440057
  0
LINE
  5
173
  8
DATA
  6
CONTINUOUS
 62
     7
 10
-480.75
 20
280.16252138957373
 30
0.0
 11
-480.75
 21
267.84000000009479
 31
0.0
  0
LINE
  5
174
  8
DATA
  6
CONTINUOUS
 62
     7
 10
-479.25
 20
267.85000000009478
 30
0.0
 11
-479.25
 21
280.24000000009482
 31
0.0
  0
LINE
  5
175
  8
DATA
  6
CONTINUOUS
 62
     7
 10
82.850000000000009
 20
272.2000000000948
 30
0.0
 11
80.749999999999986
 21
272.2000000000948
 31
0.0
  0
LINE
  5
176
  8
DATA
  6
CONTINUOUS
 62
     7
 10
79.249999999999986
 20
272.2000000000948
 30
0.0
 11
77.150000000000063
 21
272.2000000000948
 31
0.0
  0
LINE
  5
177
  8
DATA
  6
CONTINUOUS
 62
     7
 10
84.680000000000049
 20
294.40000000009468
 30
0.0
 11
75.319999999999922
 21
294.40000000009468
 31
0.0
  0
LINE
  5
178
  8
DATA
  6
CONTINUOUS
 62
     7
 10
84.499999999999986
 20
296.50000000009481
 30
0.0
 11
84.499999999999986
 21
294.40000000009468
 31
0.0
  0
LINE
  5
179
  8
DATA
  6
CONTINUOUS
 62
     7
 10
75.499999999999986
 20
294.40000000009468
 30
0.0
 11
75.499999999999986
 21
296.50000000009481
 31
0.0
  0
LINE
  5
17A
  8
DATA
  6
CONTINUOUS
 62
     7
 10
82.850000000000009
 20
277.20000000009469
 30
0.0
 11
82.850000000000009
 21
272.2000000000948
 31
0.0
  0
LINE
  5
17B
  8
DATA
  6
CONTINUOUS
 62
     7
 10
77.150000000000063
 20
272.2000000000948
 30
0.0
 11
77.150000000000063
 21
277.20000000009469
 31
0.0
  0
LINE
  5
17C
  8
DATA
  6
CONTINUOUS
 62
     7
 10
87.499999999999986
 20
282.10000000009478
 30
0.0
 11
87.499999999999986
 21
277.20000000009469
 31
0.0
  0
LINE
  5
17D
  8
DATA
  6
CONTINUOUS
 62
     7
 10
72.499999999999986
 20
277.20000000009469
 30
0.0
 11
72.499999999999986
 21
282.10000000009478
 31
0.0
  0
LINE
  5
17E
  8
DATA
  6
CONTINUOUS
 62
     7
 10
87.499999999999986
 20
277.20000000009469
 30
0.0
 11
80.749999999999986
 21
277.20000000009469
 31
0.0
  0
LINE
  5
17F
  8
DATA
  6
CONTINUOUS
 62
     7
 10
79.249999999999986
 20
277.20000000009469
 30
0.0
 11
72.499999999999986
 21
277.20000000009469
 31
0.0
  0
LINE
  5
180
  8
DATA
  6
CONTINUOUS
 62
     7
 10
87.499999999999986
 20
282.10000000009478
 30
0.0
 11
72.499999999999986
 21
282.10000000009478
 31
0.0
  0
LINE
  5
181
  8
DATA
  6
CONTINUOUS
 62
     7
 10
85.999999999999986
 20
282.10000000009478
 30
0.0
 11
85.671167883211623
 21
287.40000000009468
 31
0.0
  0
LINE
  5
182
  8
DATA
  6
CONTINUOUS
 62
     7
 10
73.999999999999986
 20
282.10000000009478
 30
0.0
 11
74.328832116788334
 21
287.40000000009468
 31
0.0
  0
LINE
  5
183
  8
DATA
  6
CONTINUOUS
 62
     7
 10
85.671167883211623
 20
287.40000000009468
 30
0.0
 11
84.680000000000049
 21
294.40000000009468
 31
0.0
  0
LINE
  5
184
  8
DATA
  6
CONTINUOUS
 62
     7
 10
74.328832116788334
 20
287.40000000009468
 30
0.0
 11
75.319999999999922
 21
294.40000000009468
 31
0.0
  0
ARC
  5
185
  8
DATA
  6
CONTINUOUS
 62
     7
 10
79.999999999999986
 20
267.957692307787
 30
0.0
 40
0.7576923076922951
 50
188.17123355994309
 51
351.828766440057
  0
ARC
  5
186
  8
DATA
  6
CONTINUOUS
 62
     7
 10
79.999999999999986
 20
280.05482908188139
 30
0.0
 40
0.7576923076922951
 50
8.1712335599430777
 51
171.828766440057
  0
LINE
  5
187
  8
DATA
  6
CONTINUOUS
 62
     7
 10
80.749999999999986
 20
280.16252138957373
 30
0.0
 11
80.749999999999986
 21
267.84000000009479
 31
0.0
  0
LINE
  5
188
  8
DATA
  6
CONTINUOUS
 62
     7
 10
79.249999999999986
 20
267.85000000009478
 30
0.0
 11
79.249999999999986
 21
280.24000000009482
 31
0.0
  0
LINE
  5
189
  8
DATA
  6
CONTINUOUS
 62
     7
 10
-483.15000000000009
 20
314.50000000028422
 30
0.0
 11
-483.15000000000009
 21
300.50000000009481
 31
0.0
  0
LINE
  5
18A
  8
DATA
  6
CONTINUOUS
 62
     7
 10
-476.84999999999781
 20
320.55795940495949
 30
0.0
 11
-476.84999999999781
 21
320.50000000028422
 31
0.0
  0
LINE
  5
18B
  8
DATA
  6
CONTINUOUS
 62
     7
 10
-476.84999999999781
 20
314.50000000028422
 30
0.0
 11
-476.84999999999781
 21
300.50000000009481
 31
0.0
  0
LINE
  5
18C
  8
DATA
  6
CONTINUOUS
 62
     7
 10
76.850000000000023
 20
314.50000000028422
 30
0.0
 11
76.850000000000023
 21
300.50000000009481
 31
0.0
  0
LINE
  5
18D
  8
DATA
  6
CONTINUOUS
 62
     7
 10
83.150000000000063
 20
314.50000000028422
 30
0.0
 11
83.150000000000063
 21
300.50000000009481
 31
0.0
  0
LINE
  5
18E
  8
DATA
  6
CONTINUOUS
 62
     7
 10
-213.5
 20
296.00000000009481
 30
0.0
 11
-205.0
 21
296.00000000009481
 31
0.0
  0
LINE
  5
18F
  8
DATA
  6
CONTINUOUS
 62
     7
 10
-195.0
 20
296.00000000009481
 30
0.0
 11
-186.5
 21
296.00000000009481
 31
0.0
  0
LINE
  5
190
  8
DATA
  6
CONTINUOUS
 62
     7
 10
-213.5
 20
296.00000000009481
 30
0.0
 11
-213.5
 21
314.00000000009481
 31
0.0
  0
LINE
  5
191
  8
DATA
  6
CONTINUOUS
 62
     7
 10
-186.5
 20
296.00000000009481
 30
0.0
 11
-186.5
 21
314.00000000009481
 31
0.0
  0
LINE
  5
192
  8
DATA
  6
CONTINUOUS
 62
     7
 10
-223.5
 20
314.00000000009481
 30
0.0
 11
-213.5
 21
314.00000000009481
 31
0.0
  0
LINE
  5
193
  8
DATA
  6
CONTINUOUS
 62
     7
 10
-186.5
 20
314.00000000009481
 30
0.0
 11
-176.5
 21
314.00000000009481
 31
0.0
  0
LINE
  5
194
  8
DATA
  6
CONTINUOUS
 62
     7
 10
-223.5
 20
320.50000000028439
 30
0.0
 11
-223.5
 21
314.00000000009481
 31
0.0
  0
LINE
  5
195
  8
DATA
  6
CONTINUOUS
 62
     7
 10
-176.5
 20
314.00000000009481
 30
0.0
 11
-176.5
 21
320.50000000028439
 31
0.0
  0
LINE
  5
196
  8
DATA
  6
CONTINUOUS
 62
     7
 10
88.999999999999957
 20
170.5000000000947
 30
0.0
 11
95.999999999999957
 21
170.5000000000947
 31
0.0
  0
LINE
  5
197
  8
DATA
  6
CONTINUOUS
 62
     7
 10
88.999999999999957
 20
231.50000000009479
 30
0.0
 11
95.999999999999957
 21
231.50000000009479
 31
0.0
  0
LINE
  5
198
  8
DATA
  6
CONTINUOUS
 62
     7
 10
72.999999999999972
 20
188.50000000009479
 30
0.0
 11
72.999999999999972
 21
193.8000000000948
 31
0.0
  0
LINE
  5
199
  8
DATA
  6
CONTINUOUS
 62
     7
 10
72.999999999999972
 20
208.20000000009469
 30
0.0
 11
72.999999999999972
 21
213.50000000009479
 31
0.0
  0
LINE
  5
19A
  8
DATA
  6
CONTINUOUS
 62
     7
 10
85.999999999999957
 20
193.8000000000948
 30
0.0
 11
85.999999999999957
 21
208.20000000009469
 31
0.0
  0
LINE
  5
19B
  8
DATA
  6
CONTINUOUS
 62
     7
 10
86.499999999999957
 20
213.50000000009479
 30
0.0
 11
72.999999999999972
 21
213.50000000009479
 31
0.0
  0
LINE
  5
19C
  8
DATA
  6
CONTINUOUS
 62
     7
 10
86.499999999999957
 20
188.50000000009479
 30
0.0
 11
72.999999999999972
 21
188.50000000009479
 31
0.0
  0
LINE
  5
19D
  8
DATA
  6
CONTINUOUS
 62
     7
 10
85.999999999999957
 20
208.20000000009469
 30
0.0
 11
72.999999999999972
 21
208.20000000009469
 31
0.0
  0
LINE
  5
19E
  8
DATA
  6
CONTINUOUS
 62
     7
 10
85.999999999999957
 20
193.8000000000948
 30
0.0
 11
72.999999999999972
 21
193.8000000000948
 31
0.0
  0
LINE
  5
19F
  8
DATA
  6
CONTINUOUS
 62
     7
 10
88.999999999999957
 20
231.50000000009479
 30
0.0
 11
88.999999999999957
 21
216.00000000009479
 31
0.0
  0
LINE
  5
1A0
  8
DATA
  6
CONTINUOUS
 62
     7
 10
88.999999999999957
 20
186.00000000009479
 30
0.0
 11
88.999999999999957
 21
170.5000000000947
 31
0.0
  0
ARC
  5
1A1
  8
DATA
  6
CONTINUOUS
 62
     7
 10
86.499999999999957
 20
186.00000000009479
 30
0.0
 40
2.5
 50
0.0
 51
90.0
  0
ARC
  5
1A2
  8
DATA
  6
CONTINUOUS
 62
     7
 10
86.499999999999957
 20
216.00000000009479
 30
0.0
 40
2.5
 50
270.0
 51
0.0
  0
LINE
  5
1A3
  8
DATA
  6
CONTINUOUS
 62
     7
 10
-489.0
 20
170.5000000000947
 30
0.0
 11
-496.0
 21
170.5000000000947
 31
0.0
  0
LINE
  5
1A4
  8
DATA
  6
CONTINUOUS
 62
     7
 10
-489.0
 20
231.50000000009479
 30
0.0
 11
-496.0
 21
231.50000000009479
 31
0.0
  0
LINE
  5
1A5
  8
DATA
  6
CONTINUOUS
 62
     7
 10
-473.0
 20
188.50000000009479
 30
0.0
 11
-473.0
 21
193.8000000000948
 31
0.0
  0
LINE
  5
1A6
  8
DATA
  6
CONTINUOUS
 62
     7
 10
-473.0
 20
208.20000000009469
 30
0.0
 11
-473.0
 21
213.50000000009479
 31
0.0
  0
LINE
  5
1A7
  8
DATA
  6
CONTINUOUS
 62
     7
 10
-486.0
 20
193.8000000000948
 30
0.0
 11
-486.0
 21
208.20000000009469
 31
0.0
  0
LINE
  5
1A8
  8
DATA
  6
CONTINUOUS
 62
     7
 10
-486.5
 20
213.50000000009479
 30
0.0
 11
-473.0
 21
213.50000000009479
 31
0.0
  0
LINE
  5
1A9
  8
DATA
  6
CONTINUOUS
 62
     7
 10
-486.5
 20
188.50000000009479
 30
0.0
 11
-473.0
 21
188.50000000009479
 31
0.0
  0
LINE
  5
1AA
  8
DATA
  6
CONTINUOUS
 62
     7
 10
-486.0
 20
208.20000000009469
 30
0.0
 11
-473.0
 21
208.20000000009469
 31
0.0
  0
LINE
  5
1AB
  8
DATA
  6
CONTINUOUS
 62
     7
 10
-486.0
 20
193.8000000000948
 30
0.0
 11
-473.0
 21
193.8000000000948
 31
0.0
  0
LINE
  5
1AC
  8
DATA
  6
CONTINUOUS
 62
     7
 10
-489.0
 20
231.50000000009479
 30
0.0
 11
-489.0
 21
216.00000000009479
 31
0.0
  0
LINE
  5
1AD
  8
DATA
  6
CONTINUOUS
 62
     7
 10
-489.0
 20
186.00000000009479
 30
0.0
 11
-489.0
 21
170.5000000000947
 31
0.0
  0
ARC
  5
1AE
  8
DATA
  6
CONTINUOUS
 62
     7
 10
-486.5
 20
186.00000000009479
 30
0.0
 40
2.5
 50
90.0
 51
180.0
  0
ARC
  5
1AF
  8
DATA
  6
CONTINUOUS
 62
     7
 10
-486.5
 20
216.00000000009479
 30
0.0
 40
2.5
 50
180.0
 51
270.0
  0
LINE
  5
1B0
  8
DATA
  6
CONTINUOUS
 62
     7
 10
-206.5
 20
35.500000000094758
 30
0.0
 11
-205.0
 21
35.500000000094758
 31
0.0
  0
LINE
  5
1B1
  8
DATA
  6
CONTINUOUS
 62
     7
 10
-195.0
 20
35.500000000094758
 30
0.0
 11
-193.5
 21
35.500000000094758
 31
0.0
  0
LINE
  5
1B2
  8
DATA
  6
CONTINUOUS
 62
     7
 10
-206.5
 20
51.500000000094758
 30
0.0
 11
-205.0
 21
51.500000000094758
 31
0.0
  0
LINE
  5
1B3
  8
DATA
  6
CONTINUOUS
 62
     7
 10
-195.0
 20
51.500000000094758
 30
0.0
 11
-193.5
 21
51.500000000094758
 31
0.0
  0
LINE
  5
1B4
  8
DATA
  6
CONTINUOUS
 62
     7
 10
-206.5
 20
51.500000000094758
 30
0.0
 11
-206.5
 21
35.500000000094758
 31
0.0
  0
LINE
  5
1B5
  8
DATA
  6
CONTINUOUS
 62
     7
 10
-193.5
 20
51.500000000094758
 30
0.0
 11
-193.5
 21
35.500000000094758
 31
0.0
  0
LINE
  5
1B6
  8
DATA
  6
CONTINUOUS
 62
     7
 10
48.999999999999993
 20
80.999999999905256
 30
0.0
 11
48.999999999999993
 21
79.499999999905199
 31
0.0
  0
LINE
  5
1B7
  8
DATA
  6
CONTINUOUS
 62
     7
 10
48.999999999999993
 20
69.499999999905214
 30
0.0
 11
48.999999999999993
 21
67.999999999905242
 31
0.0
  0
LINE
  5
1B8
  8
DATA
  6
CONTINUOUS
 62
     7
 10
32.999999999999993
 20
80.999999999905256
 30
0.0
 11
32.999999999999993
 21
79.499999999905199
 31
0.0
  0
LINE
  5
1B9
  8
DATA
  6
CONTINUOUS
 62
     7
 10
32.999999999999993
 20
69.499999999905214
 30
0.0
 11
32.999999999999993
 21
67.999999999905242
 31
0.0
  0
LINE
  5
1BA
  8
DATA
  6
CONTINUOUS
 62
     7
 10
32.999999999999993
 20
80.999999999905256
 30
0.0
 11
48.999999999999993
 21
80.999999999905256
 31
0.0
  0
LINE
  5
1BB
  8
DATA
  6
CONTINUOUS
 62
     7
 10
48.999999999999993
 20
67.999999999905242
 30
0.0
 11
32.999999999999993
 21
67.999999999905242
 31
0.0
  0
LINE
  5
1BC
  8
DATA
  6
CONTINUOUS
 62
     7
 10
-449.0
 20
80.999999999905256
 30
0.0
 11
-449.0
 21
79.499999999905199
 31
0.0
  0
LINE
  5
1BD
  8
DATA
  6
CONTINUOUS
 62
     7
 10
-449.0
 20
69.499999999905214
 30
0.0
 11
-449.0
 21
67.999999999905242
 31
0.0
  0
LINE
  5
1BE
  8
DATA
  6
CONTINUOUS
 62
     7
 10
-433.0
 20
80.999999999905256
 30
0.0
 11
-433.0
 21
79.499999999905199
 31
0.0
  0
LINE
  5
1BF
  8
DATA
  6
CONTINUOUS
 62
     7
 10
-433.0
 20
69.499999999905214
 30
0.0
 11
-433.0
 21
67.999999999905242
 31
0.0
  0
LINE
  5
1C0
  8
DATA
  6
CONTINUOUS
 62
     7
 10
-433.0
 20
80.999999999905256
 30
0.0
 11
-449.0
 21
80.999999999905256
 31
0.0
  0
LINE
  5
1C1
  8
DATA
  6
CONTINUOUS
 62
     7
 10
-449.0
 20
67.999999999905242
 30
0.0
 11
-433.0
 21
67.999999999905242
 31
0.0
  0
LINE
  5
1C2
  8
DATA
  6
CONTINUOUS
 62
     7
 10
93.999999999999986
 20
134.5000000000947
 30
0.0
 11
95.999999999999957
 21
134.5000000000947
 31
0.0
  0
LINE
  5
1C3
  8
DATA
  6
CONTINUOUS
 62
     7
 10
104.9999999999999
 20
134.5000000000947
 30
0.0
 11
107.0
 21
134.5000000000947
 31
0.0
  0
LINE
  5
1C4
  8
DATA
  6
CONTINUOUS
 62
     7
 10
93.999999999999986
 20
150.5000000000947
 30
0.0
 11
95.999999999999957
 21
150.5000000000947
 31
0.0
  0
LINE
  5
1C5
  8
DATA
  6
CONTINUOUS
 62
     7
 10
104.9999999999999
 20
150.5000000000947
 30
0.0
 11
106.9999999999999
 21
150.5000000000947
 31
0.0
  0
LINE
  5
1C6
  8
DATA
  6
CONTINUOUS
 62
     7
 10
93.999999999999957
 20
134.5000000000947
 30
0.0
 11
93.999999999999957
 21
150.5000000000947
 31
0.0
  0
LINE
  5
1C7
  8
DATA
  6
CONTINUOUS
 62
     7
 10
106.9999999999999
 20
150.5000000000947
 30
0.0
 11
106.9999999999999
 21
134.5000000000947
 31
0.0
  0
LINE
  5
1C8
  8
DATA
  6
CONTINUOUS
 62
     7
 10
-494.0
 20
134.5000000000947
 30
0.0
 11
-496.0
 21
134.5000000000947
 31
0.0
  0
LINE
  5
1C9
  8
DATA
  6
CONTINUOUS
 62
     7
 10
-505.0
 20
134.5000000000947
 30
0.0
 11
-507.0
 21
134.5000000000947
 31
0.0
  0
LINE
  5
1CA
  8
DATA
  6
CONTINUOUS
 62
     7
 10
-494.0
 20
150.5000000000947
 30
0.0
 11
-496.0
 21
150.5000000000947
 31
0.0
  0
LINE
  5
1CB
  8
DATA
  6
CONTINUOUS
 62
     7
 10
-505.0
 20
150.5000000000947
 30
0.0
 11
-507.0
 21
150.5000000000947
 31
0.0
  0
LINE
  5
1CC
  8
DATA
  6
CONTINUOUS
 62
     7
 10
-494.0
 20
134.5000000000947
 30
0.0
 11
-494.0
 21
150.5000000000947
 31
0.0
  0
LINE
  5
1CD
  8
DATA
  6
CONTINUOUS
 62
     7
 10
-507.0
 20
150.5000000000947
 30
0.0
 11
-507.0
 21
134.5000000000947
 31
0.0
  0
LINE
  5
1CE
  8
DATA
  6
CONTINUOUS
 62
     7
 10
93.999999999999986
 20
263.50000000009481
 30
0.0
 11
95.999999999999957
 21
263.50000000009481
 31
0.0
  0
LINE
  5
1CF
  8
DATA
  6
CONTINUOUS
 62
     7
 10
104.9999999999999
 20
263.50000000009481
 30
0.0
 11
107.0
 21
263.50000000009481
 31
0.0
  0
LINE
  5
1D0
  8
DATA
  6
CONTINUOUS
 62
     7
 10
93.999999999999986
 20
279.50000000009481
 30
0.0
 11
95.999999999999957
 21
279.50000000009481
 31
0.0
  0
LINE
  5
1D1
  8
DATA
  6
CONTINUOUS
 62
     7
 10
104.9999999999999
 20
279.50000000009481
 30
0.0
 11
106.9999999999999
 21
279.50000000009481
 31
0.0
  0
LINE
  5
1D2
  8
DATA
  6
CONTINUOUS
 62
     7
 10
93.999999999999957
 20
263.50000000009481
 30
0.0
 11
93.999999999999957
 21
279.50000000009481
 31
0.0
  0
LINE
  5
1D3
  8
DATA
  6
CONTINUOUS
 62
     7
 10
106.9999999999999
 20
279.50000000009481
 30
0.0
 11
106.9999999999999
 21
263.50000000009481
 31
0.0
  0
LINE
  5
1D4
  8
DATA
  6
CONTINUOUS
 62
     7
 10
-494.0
 20
263.50000000009481
 30
0.0
 11
-496.0
 21
263.50000000009481
 31
0.0
  0
LINE
  5
1D5
  8
DATA
  6
CONTINUOUS
 62
     7
 10
-505.0
 20
263.50000000009481
 30
0.0
 11
-507.0
 21
263.50000000009481
 31
0.0
  0
LINE
  5
1D6
  8
DATA
  6
CONTINUOUS
 62
     7
 10
-494.0
 20
279.50000000009481
 30
0.0
 11
-496.0
 21
279.50000000009481
 31
0.0
  0
LINE
  5
1D7
  8
DATA
  6
CONTINUOUS
 62
     7
 10
-505.0
 20
279.50000000009481
 30
0.0
 11
-507.0
 21
279.50000000009481
 31
0.0
  0
LINE
  5
1D8
  8
DATA
  6
CONTINUOUS
 62
     7
 10
-494.0
 20
263.50000000009481
 30
0.0
 11
-494.0
 21
279.50000000009481
 31
0.0
  0
LINE
  5
1D9
  8
DATA
  6
CONTINUOUS
 62
     7
 10
-507.0
 20
279.50000000009481
 30
0.0
 11
-507.0
 21
263.50000000009481
 31
0.0
  0
LINE
  5
1DA
  8
DATA
  6
CONTINUOUS
 62
     7
 10
48.999999999999993
 20
319.00000000028422
 30
0.0
 11
48.999999999999993
 21
320.50000000028439
 31
0.0
  0
LINE
  5
1DB
  8
DATA
  6
CONTINUOUS
 62
     7
 10
48.999999999999993
 20
330.50000000028422
 30
0.0
 11
48.999999999999993
 21
332.00000000028422
 31
0.0
  0
LINE
  5
1DC
  8
DATA
  6
CONTINUOUS
 62
     7
 10
32.999999999999993
 20
319.00000000028422
 30
0.0
 11
32.999999999999993
 21
320.50000000028439
 31
0.0
  0
LINE
  5
1DD
  8
DATA
  6
CONTINUOUS
 62
     7
 10
32.999999999999993
 20
330.50000000028422
 30
0.0
 11
32.999999999999993
 21
332.00000000028422
 31
0.0
  0
LINE
  5
1DE
  8
DATA
  6
CONTINUOUS
 62
     7
 10
32.999999999999993
 20
319.00000000028422
 30
0.0
 11
48.999999999999993
 21
319.00000000028422
 31
0.0
  0
LINE
  5
1DF
  8
DATA
  6
CONTINUOUS
 62
     7
 10
48.999999999999993
 20
332.00000000028422
 30
0.0
 11
32.999999999999993
 21
332.00000000028422
 31
0.0
  0
LINE
  5
1E0
  8
DATA
  6
CONTINUOUS
 62
     7
 10
-449.0
 20
319.00000000028422
 30
0.0
 11
-449.0
 21
320.50000000028439
 31
0.0
  0
LINE
  5
1E1
  8
DATA
  6
CONTINUOUS
 62
     7
 10
-449.0
 20
330.50000000028422
 30
0.0
 11
-449.0
 21
332.00000000028422
 31
0.0
  0
LINE
  5
1E2
  8
DATA
  6
CONTINUOUS
 62
     7
 10
-433.0
 20
319.00000000028422
 30
0.0
 11
-433.0
 21
320.50000000028439
 31
0.0
  0
LINE
  5
1E3
  8
DATA
  6
CONTINUOUS
 62
     7
 10
-433.0
 20
330.50000000028422
 30
0.0
 11
-433.0
 21
332.00000000028422
 31
0.0
  0
LINE
  5
1E4
  8
DATA
  6
CONTINUOUS
 62
     7
 10
-433.0
 20
319.00000000028422
 30
0.0
 11
-449.0
 21
319.00000000028422
 31
0.0
  0
LINE
  5
1E5
  8
DATA
  6
CONTINUOUS
 62
     7
 10
-449.0
 20
332.00000000028422
 30
0.0
 11
-433.0
 21
332.00000000028422
 31
0.0
  0
LINE
  5
1E6
  8
DATA
  6
CONTINUOUS
 62
     7
 10
-206.5
 20
132.5000000000947
 30
0.0
 11
-205.0
 21
132.5000000000947
 31
0.0
  0
LINE
  5
1E7
  8
DATA
  6
CONTINUOUS
 62
     7
 10
-195.0
 20
132.5000000000947
 30
0.0
 11
-193.5
 21
132.5000000000947
 31
0.0
  0
LINE
  5
1E8
  8
DATA
  6
CONTINUOUS
 62
     7
 10
-206.5
 20
116.5000000000947
 30
0.0
 11
-205.0
 21
116.5000000000947
 31
0.0
  0
LINE
  5
1E9
  8
DATA
  6
CONTINUOUS
 62
     7
 10
-195.0
 20
116.5000000000947
 30
0.0
 11
-193.5
 21
116.5000000000947
 31
0.0
  0
LINE
  5
1EA
  8
DATA
  6
CONTINUOUS
 62
     7
 10
-206.5
 20
116.5000000000947
 30
0.0
 11
-206.5
 21
132.5000000000947
 31
0.0
  0
LINE
  5
1EB
  8
DATA
  6
CONTINUOUS
 62
     7
 10
-193.5
 20
116.5000000000947
 30
0.0
 11
-193.5
 21
132.5000000000947
 31
0.0
  0
LINE
  5
1EC
  8
DATA
  6
CONTINUOUS
 62
     7
 10
-206.5
 20
162.5000000000947
 30
0.0
 11
-205.0
 21
162.5000000000947
 31
0.0
  0
LINE
  5
1ED
  8
DATA
  6
CONTINUOUS
 62
     7
 10
-195.0
 20
162.5000000000947
 30
0.0
 11
-193.5
 21
162.5000000000947
 31
0.0
  0
LINE
  5
1EE
  8
DATA
  6
CONTINUOUS
 62
     7
 10
-206.5
 20
146.5000000000947
 30
0.0
 11
-205.0
 21
146.5000000000947
 31
0.0
  0
LINE
  5
1EF
  8
DATA
  6
CONTINUOUS
 62
     7
 10
-195.0
 20
146.5000000000947
 30
0.0
 11
-193.5
 21
146.5000000000947
 31
0.0
  0
LINE
  5
1F0
  8
DATA
  6
CONTINUOUS
 62
     7
 10
-206.5
 20
146.5000000000947
 30
0.0
 11
-206.5
 21
162.5000000000947
 31
0.0
  0
LINE
  5
1F1
  8
DATA
  6
CONTINUOUS
 62
     7
 10
-193.5
 20
146.5000000000947
 30
0.0
 11
-193.5
 21
162.5000000000947
 31
0.0
  0
LINE
  5
1F2
  8
DATA
  6
CONTINUOUS
 62
     7
 10
-206.5
 20
192.50000000009479
 30
0.0
 11
-205.0
 21
192.50000000009479
 31
0.0
  0
LINE
  5
1F3
  8
DATA
  6
CONTINUOUS
 62
     7
 10
-195.0
 20
192.50000000009479
 30
0.0
 11
-193.5
 21
192.50000000009479
 31
0.0
  0
LINE
  5
1F4
  8
DATA
  6
CONTINUOUS
 62
     7
 10
-206.5
 20
176.5000000000947
 30
0.0
 11
-205.0
 21
176.5000000000947
 31
0.0
  0
LINE
  5
1F5
  8
DATA
  6
CONTINUOUS
 62
     7
 10
-195.0
 20
176.5000000000947
 30
0.0
 11
-193.5
 21
176.5000000000947
 31
0.0
  0
LINE
  5
1F6
  8
DATA
  6
CONTINUOUS
 62
     7
 10
-206.5
 20
176.5000000000947
 30
0.0
 11
-206.5
 21
192.50000000009479
 31
0.0
  0
LINE
  5
1F7
  8
DATA
  6
CONTINUOUS
 62
     7
 10
-193.5
 20
176.5000000000947
 30
0.0
 11
-193.5
 21
192.50000000009479
 31
0.0
  0
LINE
  5
1F8
  8
DATA
  6
CONTINUOUS
 62
     7
 10
-206.5
 20
222.50000000009479
 30
0.0
 11
-205.0
 21
222.50000000009479
 31
0.0
  0
LINE
  5
1F9
  8
DATA
  6
CONTINUOUS
 62
     7
 10
-195.0
 20
222.50000000009479
 30
0.0
 11
-193.5
 21
222.50000000009479
 31
0.0
  0
LINE
  5
1FA
  8
DATA
  6
CONTINUOUS
 62
     7
 10
-206.5
 20
206.50000000009479
 30
0.0
 11
-205.0
 21
206.50000000009479
 31
0.0
  0
LINE
  5
1FB
  8
DATA
  6
CONTINUOUS
 62
     7
 10
-195.0
 20
206.50000000009479
 30
0.0
 11
-193.5
 21
206.50000000009479
 31
0.0
  0
LINE
  5
1FC
  8
DATA
  6
CONTINUOUS
 62
     7
 10
-206.5
 20
206.50000000009479
 30
0.0
 11
-206.5
 21
222.50000000009479
 31
0.0
  0
LINE
  5
1FD
  8
DATA
  6
CONTINUOUS
 62
     7
 10
-193.5
 20
206.50000000009479
 30
0.0
 11
-193.5
 21
222.50000000009479
 31
0.0
  0
LINE
  5
1FE
  8
DATA
  6
CONTINUOUS
 62
     7
 10
-206.5
 20
252.50000000009479
 30
0.0
 11
-205.0
 21
252.50000000009479
 31
0.0
  0
LINE
  5
1FF
  8
DATA
  6
CONTINUOUS
 62
     7
 10
-195.0
 20
252.50000000009479
 30
0.0
 11
-193.5
 21
252.50000000009479
 31
0.0
  0
LINE
  5
200
  8
DATA
  6
CONTINUOUS
 62
     7
 10
-206.5
 20
236.50000000009479
 30
0.0
 11
-205.0
 21
236.50000000009479
 31
0.0
  0
LINE
  5
201
  8
DATA
  6
CONTINUOUS
 62
     7
 10
-195.0
 20
236.50000000009479
 30
0.0
 11
-193.5
 21
236.50000000009479
 31
0.0
  0
LINE
  5
202
  8
DATA
  6
CONTINUOUS
 62
     7
 10
-206.5
 20
236.50000000009479
 30
0.0
 11
-206.5
 21
252.50000000009479
 31
0.0
  0
LINE
  5
203
  8
DATA
  6
CONTINUOUS
 62
     7
 10
-193.5
 20
236.50000000009479
 30
0.0
 11
-193.5
 21
252.50000000009479
 31
0.0
  0
LINE
  5
204
  8
DATA
  6
CONTINUOUS
 62
     7
 10
-206.5
 20
282.50000000009481
 30
0.0
 11
-205.0
 21
282.50000000009481
 31
0.0
  0
LINE
  5
205
  8
DATA
  6
CONTINUOUS
 62
     7
 10
-195.0
 20
282.50000000009481
 30
0.0
 11
-193.5
 21
282.50000000009481
 31
0.0
  0
LINE
  5
206
  8
DATA
  6
CONTINUOUS
 62
     7
 10
-206.5
 20
266.50000000009481
 30
0.0
 11
-205.0
 21
266.50000000009481
 31
0.0
  0
LINE
  5
207
  8
DATA
  6
CONTINUOUS
 62
     7
 10
-195.0
 20
266.50000000009481
 30
0.0
 11
-193.5
 21
266.50000000009481
 31
0.0
  0
LINE
  5
208
  8
DATA
  6
CONTINUOUS
 62
     7
 10
-206.5
 20
266.50000000009481
 30
0.0
 11
-206.5
 21
282.50000000009481
 31
0.0
  0
LINE
  5
209
  8
DATA
  6
CONTINUOUS
 62
     7
 10
-193.5
 20
266.50000000009481
 30
0.0
 11
-193.5
 21
282.50000000009481
 31
0.0
  0
LINE
  5
20A
  8
DATA
  6
CONTINUOUS
 62
     7
 10
381.0
 20
69.499999999905214
 30
0.0
 11
381.0
 21
330.50000000009481
 31
0.0
  0
LINE
  5
20B
  8
DATA
  6
CONTINUOUS
 62
     7
 10
381.0
 20
330.50000000009481
 30
0.0
 11
419.0
 21
330.50000000009481
 31
0.0
  0
LINE
  5
20C
  8
DATA
  6
CONTINUOUS
 62
     7
 10
381.0
 20
69.499999999905214
 30
0.0
 11
419.0
 21
69.499999999905214
 31
0.0
  0
LINE
  5
20D
  8
DATA
  6
CONTINUOUS
 62
     7
 10
381.0
 20
320.50000000009481
 30
0.0
 11
419.0
 21
320.50000000009481
 31
0.0
  0
LINE
  5
20E
  8
DATA
  6
CONTINUOUS
 62
     7
 10
381.0
 20
79.499999999905199
 30
0.0
 11
419.0
 21
79.499999999905199
 31
0.0
  0
LINE
  5
20F
  8
DATA
  6
CONTINUOUS
 62
     7
 10
-505.0
 20
-219.0
 30
0.0
 11
105.0
 21
-219.0
 31
0.0
  0
LINE
  5
210
  8
DATA
  6
CONTINUOUS
 62
     7
 10
419.0
 20
69.499999999905214
 30
0.0
 11
419.0
 21
330.50000000009481
 31
0.0
  0
LINE
  5
211
  8
DATA
  6
CONTINUOUS
 62
     7
 10
-505.0
 20
-181.0
 30
0.0
 11
105.0
 21
-181.0
 31
0.0
  0
LINE
  5
212
  8
DATA
  6
CONTINUOUS
 62
     7
 10
-505.0
 20
-181.0
 30
0.0
 11
-505.0
 21
-219.0
 31
0.0
  0
LINE
  5
213
  8
DATA
  6
CONTINUOUS
 62
     7
 10
104.9999999999999
 20
-181.0
 30
0.0
 11
104.9999999999999
 21
-219.0
 31
0.0
  0
LINE
  5
214
  8
DATA
  6
CONTINUOUS
 62
     7
 10
-205.0
 20
-181.0
 30
0.0
 11
-205.0
 21
-219.0
 31
0.0
  0
LINE
  5
215
  8
DATA
  6
CONTINUOUS
 62
     7
 10
-195.0
 20
-181.0
 30
0.0
 11
-195.0
 21
-219.0
 31
0.0
  0
LINE
  5
216
  8
DATA
  6
CONTINUOUS
 62
     7
 10
-225.5
 20
-181.0
 30
0.0
 11
-225.5
 21
-219.0
 31
0.0
  0
LINE
  5
217
  8
DATA
  6
CONTINUOUS
 62
     7
 10
-174.5
 20
-181.0
 30
0.0
 11
-174.5
 21
-219.0
 31
0.0
  0
CIRCLE
  5
218
  8
DATA
  6
CONTINUOUS
 62
     7
 10
-441.0
 20
-200.0
 30
0.0
 40
8.0
  0
CIRCLE
  5
219
  8
DATA
  6
CONTINUOUS
 62
     7
 10
-441.0
 20
-200.0
 30
0.0
 40
6.5
  0
CIRCLE
  5
21A
  8
DATA
  6
CONTINUOUS
 62
     7
 10
40.999999999999993
 20
-200.0
 30
0.0
 40
8.0
  0
CIRCLE
  5
21B
  8
DATA
  6
CONTINUOUS
 62
     7
 10
40.999999999999993
 20
-200.0
 30
0.0
 40
6.0
  0
CIRCLE
  5
21C
  8
DATA
  6
CONTINUOUS
 62
     7
 10
-376.0
 20
-200.0
 30
0.0
 40
3.1499999999999768
  0
CIRCLE
  5
21D
  8
DATA
  6
CONTINUOUS
 62
     7
 10
-489.0
 20
-190.12134967468501
 30
0.0
 40
6.5
  0
POLYLINE
  5
21E
  8
DATA
  6
CONTINUOUS
 62
     7
 66
     1
 10
0.0
 20
0.0
 30
0.0
 70
     1
  0
VERTEX
  5
418
  8
DATA
  6
CONTINUOUS
 62
     7
 10
-490.12583302491981
 20
-188.17134967468499
 30
0.0
  0
VERTEX
  5
419
  8
DATA
  6
CONTINUOUS
 62
     7
 10
-491.25166604983963
 20
-190.12134967468501
 30
0.0
  0
VERTEX
  5
41A
  8
DATA
  6
CONTINUOUS
 62
     7
 10
-490.12583302491981
 20
-192.071349674685
 30
0.0
  0
VERTEX
  5
41B
  8
DATA
  6
CONTINUOUS
 62
     7
 10
-487.87416697508019
 20
-192.071349674685
 30
0.0
  0
VERTEX
  5
41C
  8
DATA
  6
CONTINUOUS
 62
     7
 10
-486.74833395016032
 20
-190.12134967468501
 30
0.0
  0
VERTEX
  5
41D
  8
DATA
  6
CONTINUOUS
 62
     7
 10
-487.87416697508019
 20
-188.17134967468499
 30
0.0
  0
SEQEND
  5
41E
  8
DATA
  6
CONTINUOUS
 62
     7
  0
CIRCLE
  5
227
  8
DATA
  6
CONTINUOUS
 62
     7
 10
88.999999999999986
 20
-188.98555465251241
 30
0.0
 40
6.5
  0
POLYLINE
  5
228
  8
DATA
  6
CONTINUOUS
 62
     7
 66
     1
 10
0.0
 20
0.0
 30
0.0
 70
     1
  0
VERTEX
  5
41F
  8
DATA
  6
CONTINUOUS
 62
     7
 10
90.125833024919729
 20
-187.03555465251239
 30
0.0
  0
VERTEX
  5
420
  8
DATA
  6
CONTINUOUS
 62
     7
 10
91.251666049839585
 20
-188.98555465251241
 30
0.0
  0
VERTEX
  5
421
  8
DATA
  6
CONTINUOUS
 62
     7
 10
90.125833024919729
 20
-190.93555465251251
 30
0.0
  0
VERTEX
  5
422
  8
DATA
  6
CONTINUOUS
 62
     7
 10
87.874166975080243
 20
-190.93555465251251
 30
0.0
  0
VERTEX
  5
423
  8
DATA
  6
CONTINUOUS
 62
     7
 10
86.748333950160344
 20
-188.98555465251241
 30
0.0
  0
VERTEX
  5
424
  8
DATA
  6
CONTINUOUS
 62
     7
 10
87.874166975080243
 20
-187.03555465251239
 30
0.0
  0
SEQEND
  5
425
  8
DATA
  6
CONTINUOUS
 62
     7
  0
CIRCLE
  5
231
  8
DATA
  6
CONTINUOUS
 62
     7
 10
-489.0
 20
-209.87865032531499
 30
0.0
 40
6.5
  0
POLYLINE
  5
232
  8
DATA
  6
CONTINUOUS
 62
     7
 66
     1
 10
0.0
 20
0.0
 30
0.0
 70
     1
  0
VERTEX
  5
426
  8
DATA
  6
CONTINUOUS
 62
     7
 10
-490.12583302491981
 20
-211.82865032531501
 30
0.0
  0
VERTEX
  5
427
  8
DATA
  6
CONTINUOUS
 62
     7
 10
-491.25166604983963
 20
-209.87865032531499
 30
0.0
  0
VERTEX
  5
428
  8
DATA
  6
CONTINUOUS
 62
     7
 10
-490.12583302491981
 20
-207.92865032531489
 30
0.0
  0
VERTEX
  5
429
  8
DATA
  6
CONTINUOUS
 62
     7
 10
-487.87416697508019
 20
-207.92865032531489
 30
0.0
  0
VERTEX
  5
42A
  8
DATA
  6
CONTINUOUS
 62
     7
 10
-486.74833395016032
 20
-209.87865032531499
 30
0.0
  0
VERTEX
  5
42B
  8
DATA
  6
CONTINUOUS
 62
     7
 10
-487.87416697508019
 20
-211.82865032531501
 30
0.0
  0
SEQEND
  5
42C
  8
DATA
  6
CONTINUOUS
 62
     7
  0
CIRCLE
  5
23B
  8
DATA
  6
CONTINUOUS
 62
     7
 10
88.999999999999986
 20
-211.01444534748751
 30
0.0
 40
6.5
  0
POLYLINE
  5
23C
  8
DATA
  6
CONTINUOUS
 62
     7
 66
     1
 10
0.0
 20
0.0
 30
0.0
 70
     1
  0
VERTEX
  5
42D
  8
DATA
  6
CONTINUOUS
 62
     7
 10
90.125833024919729
 20
-212.96444534748761
 30
0.0
  0
VERTEX
  5
42E
  8
DATA
  6
CONTINUOUS
 62
     7
 10
91.251666049839585
 20
-211.01444534748751
 30
0.0
  0
VERTEX
  5
42F
  8
DATA
  6
CONTINUOUS
 62
     7
 10
90.125833024919729
 20
-209.06444534748749
 30
0.0
  0
VERTEX
  5
430
  8
DATA
  6
CONTINUOUS
 62
     7
 10
87.874166975080243
 20
-209.06444534748749
 30
0.0
  0
VERTEX
  5
431
  8
DATA
  6
CONTINUOUS
 62
     7
 10
86.748333950160344
 20
-211.01444534748751
 30
0.0
  0
VERTEX
  5
432
  8
DATA
  6
CONTINUOUS
 62
     7
 10
87.874166975080243
 20
-212.96444534748761
 30
0.0
  0
SEQEND
  5
433
  8
DATA
  6
CONTINUOUS
 62
     7
  0
CIRCLE
  5
245
  8
DATA
  6
CONTINUOUS
 62
     7
 10
-217.5
 20
-190.5
 30
0.0
 40
6.5
  0
POLYLINE
  5
246
  8
DATA
  6
CONTINUOUS
 62
     7
 66
     1
 10
0.0
 20
0.0
 30
0.0
 70
     1
  0
VERTEX
  5
434
  8
DATA
  6
CONTINUOUS
 62
     7
 10
-216.3741669750803
 20
-188.5499999999999
 30
0.0
  0
VERTEX
  5
435
  8
DATA
  6
CONTINUOUS
 62
     7
 10
-215.2483339501604
 20
-190.5
 30
0.0
  0
VERTEX
  5
436
  8
DATA
  6
CONTINUOUS
 62
     7
 10
-216.3741669750803
 20
-192.44999999999999
 30
0.0
  0
VERTEX
  5
437
  8
DATA
  6
CONTINUOUS
 62
     7
 10
-218.6258330249197
 20
-192.44999999999999
 30
0.0
  0
VERTEX
  5
438
  8
DATA
  6
CONTINUOUS
 62
     7
 10
-219.7516660498396
 20
-190.5
 30
0.0
  0
VERTEX
  5
439
  8
DATA
  6
CONTINUOUS
 62
     7
 10
-218.6258330249197
 20
-188.5499999999999
 30
0.0
  0
SEQEND
  5
43A
  8
DATA
  6
CONTINUOUS
 62
     7
  0
CIRCLE
  5
24F
  8
DATA
  6
CONTINUOUS
 62
     7
 10
-182.5
 20
-190.5
 30
0.0
 40
6.5
  0
POLYLINE
  5
250
  8
DATA
  6
CONTINUOUS
 62
     7
 66
     1
 10
0.0
 20
0.0
 30
0.0
 70
     1
  0
VERTEX
  5
43B
  8
DATA
  6
CONTINUOUS
 62
     7
 10
-181.37416697508019
 20
-188.5499999999999
 30
0.0
  0
VERTEX
  5
43C
  8
DATA
  6
CONTINUOUS
 62
     7
 10
-180.2483339501604
 20
-190.5
 30
0.0
  0
VERTEX
  5
43D
  8
DATA
  6
CONTINUOUS
 62
     7
 10
-181.37416697508019
 20
-192.44999999999999
 30
0.0
  0
VERTEX
  5
43E
  8
DATA
  6
CONTINUOUS
 62
     7
 10
-183.6258330249197
 20
-192.44999999999999
 30
0.0
  0
VERTEX
  5
43F
  8
DATA
  6
CONTINUOUS
 62
     7
 10
-184.7516660498396
 20
-190.5
 30
0.0
  0
VERTEX
  5
440
  8
DATA
  6
CONTINUOUS
 62
     7
 10
-183.6258330249197
 20
-188.5499999999999
 30
0.0
  0
SEQEND
  5
441
  8
DATA
  6
CONTINUOUS
 62
     7
  0
CIRCLE
  5
259
  8
DATA
  6
CONTINUOUS
 62
     7
 10
-217.5
 20
-209.5
 30
0.0
 40
6.5
  0
POLYLINE
  5
25A
  8
DATA
  6
CONTINUOUS
 62
     7
 66
     1
 10
0.0
 20
0.0
 30
0.0
 70
     1
  0
VERTEX
  5
442
  8
DATA
  6
CONTINUOUS
 62
     7
 10
-216.3741669750803
 20
-211.44999999999999
 30
0.0
  0
VERTEX
  5
443
  8
DATA
  6
CONTINUOUS
 62
     7
 10
-215.2483339501604
 20
-209.5
 30
0.0
  0
VERTEX
  5
444
  8
DATA
  6
CONTINUOUS
 62
     7
 10
-216.3741669750803
 20
-207.5499999999999
 30
0.0
  0
VERTEX
  5
445
  8
DATA
  6
CONTINUOUS
 62
     7
 10
-218.6258330249197
 20
-207.5499999999999
 30
0.0
  0
VERTEX
  5
446
  8
DATA
  6
CONTINUOUS
 62
     7
 10
-219.7516660498396
 20
-209.5
 30
0.0
  0
VERTEX
  5
447
  8
DATA
  6
CONTINUOUS
 62
     7
 10
-218.6258330249197
 20
-211.44999999999999
 30
0.0
  0
SEQEND
  5
448
  8
DATA
  6
CONTINUOUS
 62
     7
  0
CIRCLE
  5
263
  8
DATA
  6
CONTINUOUS
 62
     7
 10
-182.5
 20
-209.5
 30
0.0
 40
6.5
  0
POLYLINE
  5
264
  8
DATA
  6
CONTINUOUS
 62
     7
 66
     1
 10
0.0
 20
0.0
 30
0.0
 70
     1
  0
VERTEX
  5
449
  8
DATA
  6
CONTINUOUS
 62
     7
 10
-181.37416697508019
 20
-211.44999999999999
 30
0.0
  0
VERTEX
  5
44A
  8
DATA
  6
CONTINUOUS
 62
     7
 10
-180.2483339501604
 20
-209.5
 30
0.0
  0
VERTEX
  5
44B
  8
DATA
  6
CONTINUOUS
 62
     7
 10
-181.37416697508019
 20
-207.5499999999999
 30
0.0
  0
VERTEX
  5
44C
  8
DATA
  6
CONTINUOUS
 62
     7
 10
-183.6258330249197
 20
-207.5499999999999
 30
0.0
  0
VERTEX
  5
44D
  8
DATA
  6
CONTINUOUS
 62
     7
 10
-184.7516660498396
 20
-209.5
 30
0.0
  0
VERTEX
  5
44E
  8
DATA
  6
CONTINUOUS
 62
     7
 10
-183.6258330249197
 20
-211.44999999999999
 30
0.0
  0
SEQEND
  5
44F
  8
DATA
  6
CONTINUOUS
 62
     7
  0
LINE
  5
26D
  8
DATA
  6
CONTINUOUS
 62
     7
 10
-206.5
 20
-192.0
 30
0.0
 11
-206.5
 21
-208.0
 31
0.0
  0
LINE
  5
26E
  8
DATA
  6
CONTINUOUS
 62
     7
 10
-193.5
 20
-192.0
 30
0.0
 11
-193.5
 21
-208.0
 31
0.0
  0
LINE
  5
26F
  8
DATA
  6
CONTINUOUS
 62
     7
 10
-206.5
 20
-192.0
 30
0.0
 11
-205.0
 21
-192.0
 31
0.0
  0
LINE
  5
270
  8
DATA
  6
CONTINUOUS
 62
     7
 10
-195.0
 20
-192.0
 30
0.0
 11
-193.5
 21
-192.0
 31
0.0
  0
LINE
  5
271
  8
DATA
  6
CONTINUOUS
 62
     7
 10
-193.5
 20
-208.0
 30
0.0
 11
-195.0
 21
-208.0
 31
0.0
  0
LINE
  5
272
  8
DATA
  6
CONTINUOUS
 62
     7
 10
-205.0
 20
-208.0
 30
0.0
 11
-206.5
 21
-208.0
 31
0.0
  0
LINE
  5
273
  8
DATA
  6
CONTINUOUS
 62
     7
 10
-505.0
 20
619.0
 30
0.0
 11
105.0
 21
619.0
 31
0.0
  0
LINE
  5
274
  8
DATA
  6
CONTINUOUS
 62
     7
 10
-505.0
 20
581.0
 30
0.0
 11
105.0
 21
581.0
 31
0.0
  0
LINE
  5
275
  8
DATA
  6
CONTINUOUS
 62
     7
 10
-505.0
 20
581.0
 30
0.0
 11
-505.0
 21
619.0
 31
0.0
  0
LINE
  5
276
  8
DATA
  6
CONTINUOUS
 62
     7
 10
104.9999999999999
 20
581.0
 30
0.0
 11
104.9999999999999
 21
619.0
 31
0.0
  0
CIRCLE
  5
277
  8
DATA
  6
CONTINUOUS
 62
     7
 10
-441.0
 20
600.0
 30
0.0
 40
8.0
  0
CIRCLE
  5
278
  8
DATA
  6
CONTINUOUS
 62
     7
 10
40.999999999999993
 20
600.0
 30
0.0
 40
8.0
  0
CIRCLE
  5
279
  8
DATA
  6
CONTINUOUS
 62
     7
 10
40.999999999999993
 20
600.0
 30
0.0
 40
6.0
  0
CIRCLE
  5
27A
  8
DATA
  6
CONTINUOUS
 62
     7
 10
-489.0
 20
590.12134967468501
 30
0.0
 40
6.5
  0
POLYLINE
  5
27B
  8
DATA
  6
CONTINUOUS
 62
     7
 66
     1
 10
0.0
 20
0.0
 30
0.0
 70
     1
  0
VERTEX
  5
450
  8
DATA
  6
CONTINUOUS
 62
     7
 10
-490.12583302491981
 20
588.17134967468485
 30
0.0
  0
VERTEX
  5
451
  8
DATA
  6
CONTINUOUS
 62
     7
 10
-491.25166604983963
 20
590.12134967468501
 30
0.0
  0
VERTEX
  5
452
  8
DATA
  6
CONTINUOUS
 62
     7
 10
-490.12583302491981
 20
592.07134967468494
 30
0.0
  0
VERTEX
  5
453
  8
DATA
  6
CONTINUOUS
 62
     7
 10
-487.87416697508019
 20
592.07134967468494
 30
0.0
  0
VERTEX
  5
454
  8
DATA
  6
CONTINUOUS
 62
     7
 10
-486.74833395016032
 20
590.12134967468501
 30
0.0
  0
VERTEX
  5
455
  8
DATA
  6
CONTINUOUS
 62
     7
 10
-487.87416697508019
 20
588.17134967468485
 30
0.0
  0
SEQEND
  5
456
  8
DATA
  6
CONTINUOUS
 62
     7
  0
CIRCLE
  5
284
  8
DATA
  6
CONTINUOUS
 62
     7
 10
88.999999999999986
 20
588.98555465251252
 30
0.0
 40
6.5
  0
POLYLINE
  5
285
  8
DATA
  6
CONTINUOUS
 62
     7
 66
     1
 10
0.0
 20
0.0
 30
0.0
 70
     1
  0
VERTEX
  5
457
  8
DATA
  6
CONTINUOUS
 62
     7
 10
90.125833024919729
 20
587.03555465251236
 30
0.0
  0
VERTEX
  5
458
  8
DATA
  6
CONTINUOUS
 62
     7
 10
91.251666049839585
 20
588.98555465251252
 30
0.0
  0
VERTEX
  5
459
  8
DATA
  6
CONTINUOUS
 62
     7
 10
90.125833024919729
 20
590.93555465251256
 30
0.0
  0
VERTEX
  5
45A
  8
DATA
  6
CONTINUOUS
 62
     7
 10
87.874166975080243
 20
590.93555465251256
 30
0.0
  0
VERTEX
  5
45B
  8
DATA
  6
CONTINUOUS
 62
     7
 10
86.748333950160344
 20
588.98555465251252
 30
0.0
  0
VERTEX
  5
45C
  8
DATA
  6
CONTINUOUS
 62
     7
 10
87.874166975080243
 20
587.03555465251236
 30
0.0
  0
SEQEND
  5
45D
  8
DATA
  6
CONTINUOUS
 62
     7
  0
CIRCLE
  5
28E
  8
DATA
  6
CONTINUOUS
 62
     7
 10
-489.0
 20
609.87865032531488
 30
0.0
 40
6.5
  0
POLYLINE
  5
28F
  8
DATA
  6
CONTINUOUS
 62
     7
 66
     1
 10
0.0
 20
0.0
 30
0.0
 70
     1
  0
VERTEX
  5
45E
  8
DATA
  6
CONTINUOUS
 62
     7
 10
-490.12583302491981
 20
611.82865032531504
 30
0.0
  0
VERTEX
  5
45F
  8
DATA
  6
CONTINUOUS
 62
     7
 10
-491.25166604983963
 20
609.87865032531488
 30
0.0
  0
VERTEX
  5
460
  8
DATA
  6
CONTINUOUS
 62
     7
 10
-490.12583302491981
 20
607.92865032531495
 30
0.0
  0
VERTEX
  5
461
  8
DATA
  6
CONTINUOUS
 62
     7
 10
-487.87416697508019
 20
607.92865032531495
 30
0.0
  0
VERTEX
  5
462
  8
DATA
  6
CONTINUOUS
 62
     7
 10
-486.74833395016032
 20
609.87865032531488
 30
0.0
  0
VERTEX
  5
463
  8
DATA
  6
CONTINUOUS
 62
     7
 10
-487.87416697508019
 20
611.82865032531504
 30
0.0
  0
SEQEND
  5
464
  8
DATA
  6
CONTINUOUS
 62
     7
  0
CIRCLE
  5
298
  8
DATA
  6
CONTINUOUS
 62
     7
 10
88.999999999999986
 20
611.01444534748737
 30
0.0
 40
6.5
  0
POLYLINE
  5
299
  8
DATA
  6
CONTINUOUS
 62
     7
 66
     1
 10
0.0
 20
0.0
 30
0.0
 70
     1
  0
VERTEX
  5
465
  8
DATA
  6
CONTINUOUS
 62
     7
 10
90.125833024919729
 20
612.96444534748753
 30
0.0
  0
VERTEX
  5
466
  8
DATA
  6
CONTINUOUS
 62
     7
 10
91.251666049839585
 20
611.01444534748737
 30
0.0
  0
VERTEX
  5
467
  8
DATA
  6
CONTINUOUS
 62
     7
 10
90.125833024919729
 20
609.06444534748744
 30
0.0
  0
VERTEX
  5
468
  8
DATA
  6
CONTINUOUS
 62
     7
 10
87.874166975080243
 20
609.06444534748744
 30
0.0
  0
VERTEX
  5
469
  8
DATA
  6
CONTINUOUS
 62
     7
 10
86.748333950160344
 20
611.01444534748737
 30
0.0
  0
VERTEX
  5
46A
  8
DATA
  6
CONTINUOUS
 62
     7
 10
87.874166975080243
 20
612.96444534748753
 30
0.0
  0
SEQEND
  5
46B
  8
DATA
  6
CONTINUOUS
 62
     7
  0
CIRCLE
  5
2A2
  8
DATA
  6
CONTINUOUS
 62
     7
 10
-217.5
 20
590.5
 30
0.0
 40
6.5
  0
POLYLINE
  5
2A3
  8
DATA
  6
CONTINUOUS
 62
     7
 66
     1
 10
0.0
 20
0.0
 30
0.0
 70
     1
  0
VERTEX
  5
46C
  8
DATA
  6
CONTINUOUS
 62
     7
 10
-216.3741669750803
 20
588.54999999999995
 30
0.0
  0
VERTEX
  5
46D
  8
DATA
  6
CONTINUOUS
 62
     7
 10
-215.2483339501604
 20
590.5
 30
0.0
  0
VERTEX
  5
46E
  8
DATA
  6
CONTINUOUS
 62
     7
 10
-216.3741669750803
 20
592.45000000000005
 30
0.0
  0
VERTEX
  5
46F
  8
DATA
  6
CONTINUOUS
 62
     7
 10
-218.6258330249197
 20
592.45000000000005
 30
0.0
  0
VERTEX
  5
470
  8
DATA
  6
CONTINUOUS
 62
     7
 10
-219.7516660498396
 20
590.5
 30
0.0
  0
VERTEX
  5
471
  8
DATA
  6
CONTINUOUS
 62
     7
 10
-218.6258330249197
 20
588.54999999999995
 30
0.0
  0
SEQEND
  5
472
  8
DATA
  6
CONTINUOUS
 62
     7
  0
CIRCLE
  5
2AC
  8
DATA
  6
CONTINUOUS
 62
     7
 10
-182.5
 20
590.5
 30
0.0
 40
6.5
  0
POLYLINE
  5
2AD
  8
DATA
  6
CONTINUOUS
 62
     7
 66
     1
 10
0.0
 20
0.0
 30
0.0
 70
     1
  0
VERTEX
  5
473
  8
DATA
  6
CONTINUOUS
 62
     7
 10
-181.37416697508019
 20
588.54999999999995
 30
0.0
  0
VERTEX
  5
474
  8
DATA
  6
CONTINUOUS
 62
     7
 10
-180.2483339501604
 20
590.5
 30
0.0
  0
VERTEX
  5
475
  8
DATA
  6
CONTINUOUS
 62
     7
 10
-181.37416697508019
 20
592.45000000000005
 30
0.0
  0
VERTEX
  5
476
  8
DATA
  6
CONTINUOUS
 62
     7
 10
-183.6258330249197
 20
592.45000000000005
 30
0.0
  0
VERTEX
  5
477
  8
DATA
  6
CONTINUOUS
 62
     7
 10
-184.7516660498396
 20
590.5
 30
0.0
  0
VERTEX
  5
478
  8
DATA
  6
CONTINUOUS
 62
     7
 10
-183.6258330249197
 20
588.54999999999995
 30
0.0
  0
SEQEND
  5
479
  8
DATA
  6
CONTINUOUS
 62
     7
  0
CIRCLE
  5
2B6
  8
DATA
  6
CONTINUOUS
 62
     7
 10
-217.5
 20
609.49999999999989
 30
0.0
 40
6.5
  0
POLYLINE
  5
2B7
  8
DATA
  6
CONTINUOUS
 62
     7
 66
     1
 10
0.0
 20
0.0
 30
0.0
 70
     1
  0
VERTEX
  5
47A
  8
DATA
  6
CONTINUOUS
 62
     7
 10
-216.3741669750803
 20
611.45000000000005
 30
0.0
  0
VERTEX
  5
47B
  8
DATA
  6
CONTINUOUS
 62
     7
 10
-215.2483339501604
 20
609.49999999999989
 30
0.0
  0
VERTEX
  5
47C
  8
DATA
  6
CONTINUOUS
 62
     7
 10
-216.3741669750803
 20
607.54999999999995
 30
0.0
  0
VERTEX
  5
47D
  8
DATA
  6
CONTINUOUS
 62
     7
 10
-218.6258330249197
 20
607.54999999999995
 30
0.0
  0
VERTEX
  5
47E
  8
DATA
  6
CONTINUOUS
 62
     7
 10
-219.7516660498396
 20
609.49999999999989
 30
0.0
  0
VERTEX
  5
47F
  8
DATA
  6
CONTINUOUS
 62
     7
 10
-218.6258330249197
 20
611.45000000000005
 30
0.0
  0
SEQEND
  5
480
  8
DATA
  6
CONTINUOUS
 62
     7
  0
CIRCLE
  5
2C0
  8
DATA
  6
CONTINUOUS
 62
     7
 10
-182.5
 20
609.49999999999989
 30
0.0
 40
6.5
  0
POLYLINE
  5
2C1
  8
DATA
  6
CONTINUOUS
 62
     7
 66
     1
 10
0.0
 20
0.0
 30
0.0
 70
     1
  0
VERTEX
  5
481
  8
DATA
  6
CONTINUOUS
 62
     7
 10
-181.37416697508019
 20
611.45000000000005
 30
0.0
  0
VERTEX
  5
482
  8
DATA
  6
CONTINUOUS
 62
     7
 10
-180.2483339501604
 20
609.49999999999989
 30
0.0
  0
VERTEX
  5
483
  8
DATA
  6
CONTINUOUS
 62
     7
 10
-181.37416697508019
 20
607.54999999999995
 30
0.0
  0
VERTEX
  5
484
  8
DATA
  6
CONTINUOUS
 62
     7
 10
-183.6258330249197
 20
607.54999999999995
 30
0.0
  0
VERTEX
  5
485
  8
DATA
  6
CONTINUOUS
 62
     7
 10
-184.7516660498396
 20
609.49999999999989
 30
0.0
  0
VERTEX
  5
486
  8
DATA
  6
CONTINUOUS
 62
     7
 10
-183.6258330249197
 20
611.45000000000005
 30
0.0
  0
SEQEND
  5
487
  8
DATA
  6
CONTINUOUS
 62
     7
  0
CIRCLE
  5
2CA
  8
DATA
  6
CONTINUOUS
 62
     7
 10
-480.0
 20
601.0
 30
0.0
 40
4.0
  0
CIRCLE
  5
2CB
  8
DATA
  6
CONTINUOUS
 62
     7
 10
-480.0
 20
601.0
 30
0.0
 40
3.1499999999999768
  0
CIRCLE
  5
2CC
  8
DATA
  6
CONTINUOUS
 62
     7
 10
79.999999999999986
 20
601.0
 30
0.0
 40
4.0
  0
CIRCLE
  5
2CD
  8
DATA
  6
CONTINUOUS
 62
     7
 10
79.999999999999986
 20
601.0
 30
0.0
 40
3.1499999999999768
  0
CIRCLE
  5
2CE
  8
DATA
  6
CONTINUOUS
 62
     7
 10
-441.0
 20
600.0
 30
0.0
 40
6.0
  0
CIRCLE
  5
2CF
  8
DATA
  6
CONTINUOUS
 62
     7
 10
400.0
 20
124.5000000000947
 30
0.0
 40
8.0
  0
CIRCLE
  5
2D0
  8
DATA
  6
CONTINUOUS
 62
     7
 10
400.0
 20
124.5000000000947
 30
0.0
 40
6.0
  0
CIRCLE
  5
2D1
  8
DATA
  6
CONTINUOUS
 62
     7
 10
400.0
 20
154.5000000000947
 30
0.0
 40
8.0
  0
CIRCLE
  5
2D2
  8
DATA
  6
CONTINUOUS
 62
     7
 10
400.0
 20
154.5000000000947
 30
0.0
 40
6.0
  0
CIRCLE
  5
2D3
  8
DATA
  6
CONTINUOUS
 62
     7
 10
400.0
 20
184.50000000009479
 30
0.0
 40
8.0
  0
CIRCLE
  5
2D4
  8
DATA
  6
CONTINUOUS
 62
     7
 10
400.0
 20
184.50000000009479
 30
0.0
 40
6.0
  0
CIRCLE
  5
2D5
  8
DATA
  6
CONTINUOUS
 62
     7
 10
400.0
 20
214.50000000009479
 30
0.0
 40
8.0
  0
CIRCLE
  5
2D6
  8
DATA
  6
CONTINUOUS
 62
     7
 10
400.0
 20
214.50000000009479
 30
0.0
 40
6.0
  0
CIRCLE
  5
2D7
  8
DATA
  6
CONTINUOUS
 62
     7
 10
400.0
 20
244.50000000009479
 30
0.0
 40
8.0
  0
CIRCLE
  5
2D8
  8
DATA
  6
CONTINUOUS
 62
     7
 10
400.0
 20
244.50000000009479
 30
0.0
 40
6.0
  0
CIRCLE
  5
2D9
  8
DATA
  6
CONTINUOUS
 62
     7
 10
400.0
 20
274.50000000009481
 30
0.0
 40
8.0
  0
CIRCLE
  5
2DA
  8
DATA
  6
CONTINUOUS
 62
     7
 10
400.0
 20
274.50000000009481
 30
0.0
 40
6.0
  0
LINE
  5
2DB
  8
DATA
  6
CONTINUOUS
 62
     7
 10
381.0
 20
60.000000000094751
 30
0.0
 11
419.0
 21
60.000000000094751
 31
0.0
  0
LINE
  5
2DC
  8
DATA
  6
CONTINUOUS
 62
     7
 10
391.0
 20
26.500000000094762
 30
0.0
 11
409.0
 21
26.500000000094762
 31
0.0
  0
LINE
  5
2DD
  8
DATA
  6
CONTINUOUS
 62
     7
 10
381.0
 20
69.499999999905214
 30
0.0
 11
381.0
 21
36.500000000094758
 31
0.0
  0
LINE
  5
2DE
  8
DATA
  6
CONTINUOUS
 62
     7
 10
419.0
 20
69.499999999905214
 30
0.0
 11
419.0
 21
36.500000000094758
 31
0.0
  0
CIRCLE
  5
2DF
  8
DATA
  6
CONTINUOUS
 62
     7
 10
400.0
 20
43.500000000094751
 30
0.0
 40
8.0
  0
CIRCLE
  5
2E0
  8
DATA
  6
CONTINUOUS
 62
     7
 10
400.0
 20
43.500000000094751
 30
0.0
 40
6.0
  0
ARC
  5
2E1
  8
DATA
  6
CONTINUOUS
 62
     7
 10
391.0
 20
36.500000000094758
 30
0.0
 40
10.0
 50
180.0
 51
270.0
  0
ARC
  5
2E2
  8
DATA
  6
CONTINUOUS
 62
     7
 10
409.0
 20
36.500000000094758
 30
0.0
 40
10.0
 50
270.0
 51
0.0
  0
LINE
  5
2E3
  8
DATA
  6
CONTINUOUS
 62
     7
 10
381.0
 20
104.0000000000947
 30
0.0
 11
419.0
 21
104.0000000000947
 31
0.0
  0
LINE
  5
2E4
  8
DATA
  6
CONTINUOUS
 62
     7
 10
381.0
 20
296.00000000009481
 30
0.0
 11
419.0
 21
296.00000000009481
 31
0.0
  0
CIRCLE
  5
2E5
  8
DATA
  6
CONTINUOUS
 62
     7
 10
411.56483342049893
 20
307.75548935389151
 30
0.0
 40
6.5
  0
POLYLINE
  5
2E6
  8
DATA
  6
CONTINUOUS
 62
     7
 66
     1
 10
0.0
 20
0.0
 30
0.0
 70
     1
  0
VERTEX
  5
488
  8
DATA
  6
CONTINUOUS
 62
     7
 10
413.51483342049892
 20
306.62965632897169
 30
0.0
  0
VERTEX
  5
489
  8
DATA
  6
CONTINUOUS
 62
     7
 10
411.56483342049893
 20
305.50382330405188
 30
0.0
  0
VERTEX
  5
48A
  8
DATA
  6
CONTINUOUS
 62
     7
 10
409.61483342049883
 20
306.62965632897169
 30
0.0
  0
VERTEX
  5
48B
  8
DATA
  6
CONTINUOUS
 62
     7
 10
409.61483342049883
 20
308.88132237881121
 30
0.0
  0
VERTEX
  5
48C
  8
DATA
  6
CONTINUOUS
 62
     7
 10
411.56483342049893
 20
310.00715540373119
 30
0.0
  0
VERTEX
  5
48D
  8
DATA
  6
CONTINUOUS
 62
     7
 10
413.51483342049892
 20
308.88132237881121
 30
0.0
  0
SEQEND
  5
48E
  8
DATA
  6
CONTINUOUS
 62
     7
  0
CIRCLE
  5
2EF
  8
DATA
  6
CONTINUOUS
 62
     7
 10
388.56483342049881
 20
307.75548935389151
 30
0.0
 40
2.5
  0
CIRCLE
  5
2F0
  8
DATA
  6
CONTINUOUS
 62
     7
 10
388.5
 20
92.011388339414523
 30
0.0
 40
6.5
  0
POLYLINE
  5
2F1
  8
DATA
  6
CONTINUOUS
 62
     7
 66
     1
 10
0.0
 20
0.0
 30
0.0
 70
     1
  0
VERTEX
  5
48F
  8
DATA
  6
CONTINUOUS
 62
     7
 10
386.55000000000001
 20
90.885555314494766
 30
0.0
  0
VERTEX
  5
490
  8
DATA
  6
CONTINUOUS
 62
     7
 10
388.5
 20
89.759722289574853
 30
0.0
  0
VERTEX
  5
491
  8
DATA
  6
CONTINUOUS
 62
     7
 10
390.4500000000001
 20
90.885555314494766
 30
0.0
  0
VERTEX
  5
492
  8
DATA
  6
CONTINUOUS
 62
     7
 10
390.4500000000001
 20
93.137221364334266
 30
0.0
  0
VERTEX
  5
493
  8
DATA
  6
CONTINUOUS
 62
     7
 10
388.5
 20
94.263054389254137
 30
0.0
  0
VERTEX
  5
494
  8
DATA
  6
CONTINUOUS
 62
     7
 10
386.55000000000001
 20
93.137221364334266
 30
0.0
  0
SEQEND
  5
495
  8
DATA
  6
CONTINUOUS
 62
     7
  0
CIRCLE
  5
2FA
  8
DATA
  6
CONTINUOUS
 62
     7
 10
411.5
 20
92.011388339414523
 30
0.0
 40
2.5
  0
TEXT
  5
2FB
  8
DATA
 62
     7
 10
311.8055555555556
 20
-62.70000000000001
 30
0.0
 40
27.147352430555561
  1
A-A"断面図
 41
0.7
 11
311.8055555555556
 21
-35.552647569444453
 31
0.0
 73
     3
  0
LINE
  5
2FC
  8
DATA
  6
CONTINUOUS
 62
     7
 10
681.0
 20
69.499999999905214
 30
0.0
 11
681.0
 21
330.50000000009481
 31
0.0
  0
LINE
  5
2FD
  8
DATA
  6
CONTINUOUS
 62
     7
 10
681.0
 20
330.50000000009481
 30
0.0
 11
719.0
 21
330.50000000009481
 31
0.0
  0
LINE
  5
2FE
  8
DATA
  6
CONTINUOUS
 62
     7
 10
681.0
 20
69.499999999905214
 30
0.0
 11
719.0
 21
69.499999999905214
 31
0.0
  0
LINE
  5
2FF
  8
DATA
  6
CONTINUOUS
 62
     7
 10
681.0
 20
320.50000000009481
 30
0.0
 11
719.0
 21
320.50000000009481
 31
0.0
  0
LINE
  5
300
  8
DATA
  6
CONTINUOUS
 62
     7
 10
719.0
 20
69.499999999905214
 30
0.0
 11
719.0
 21
330.50000000009481
 31
0.0
  0
LINE
  5
301
  8
DATA
  6
CONTINUOUS
 62
     7
 10
681.0
 20
60.000000000094751
 30
0.0
 11
719.0
 21
60.000000000094751
 31
0.0
  0
LINE
  5
302
  8
DATA
  6
CONTINUOUS
 62
     7
 10
691.0
 20
26.500000000094762
 30
0.0
 11
709.0
 21
26.500000000094762
 31
0.0
  0
LINE
  5
303
  8
DATA
  6
CONTINUOUS
 62
     7
 10
681.0
 20
69.499999999905214
 30
0.0
 11
681.0
 21
36.500000000094758
 31
0.0
  0
LINE
  5
304
  8
DATA
  6
CONTINUOUS
 62
     7
 10
719.0
 20
69.499999999905214
 30
0.0
 11
719.0
 21
36.500000000094758
 31
0.0
  0
CIRCLE
  5
305
  8
DATA
  6
CONTINUOUS
 62
     7
 10
700.0
 20
43.500000000094751
 30
0.0
 40
8.0
  0
CIRCLE
  5
306
  8
DATA
  6
CONTINUOUS
 62
     7
 10
700.0
 20
43.500000000094751
 30
0.0
 40
6.0
  0
ARC
  5
307
  8
DATA
  6
CONTINUOUS
 62
     7
 10
691.0
 20
36.500000000094758
 30
0.0
 40
10.0
 50
180.0
 51
270.0
  0
ARC
  5
308
  8
DATA
  6
CONTINUOUS
 62
     7
 10
709.0
 20
36.500000000094758
 30
0.0
 40
10.0
 50
270.0
 51
0.0
  0
CIRCLE
  5
309
  8
DATA
  6
CONTINUOUS
 62
     7
 10
711.56483342049864
 20
307.75548935389151
 30
0.0
 40
6.5
  0
POLYLINE
  5
30A
  8
DATA
  6
CONTINUOUS
 62
     7
 66
     1
 10
0.0
 20
0.0
 30
0.0
 70
     1
  0
VERTEX
  5
496
  8
DATA
  6
CONTINUOUS
 62
     7
 10
713.5148334204988
 20
306.62965632897169
 30
0.0
  0
VERTEX
  5
497
  8
DATA
  6
CONTINUOUS
 62
     7
 10
711.56483342049864
 20
305.50382330405188
 30
0.0
  0
VERTEX
  5
498
  8
DATA
  6
CONTINUOUS
 62
     7
 10
709.61483342049883
 20
306.62965632897169
 30
0.0
  0
VERTEX
  5
499
  8
DATA
  6
CONTINUOUS
 62
     7
 10
709.61483342049883
 20
308.88132237881121
 30
0.0
  0
VERTEX
  5
49A
  8
DATA
  6
CONTINUOUS
 62
     7
 10
711.56483342049864
 20
310.00715540373119
 30
0.0
  0
VERTEX
  5
49B
  8
DATA
  6
CONTINUOUS
 62
     7
 10
713.5148334204988
 20
308.88132237881121
 30
0.0
  0
SEQEND
  5
49C
  8
DATA
  6
CONTINUOUS
 62
     7
  0
CIRCLE
  5
313
  8
DATA
  6
CONTINUOUS
 62
     7
 10
688.49999999999989
 20
92.011388339414523
 30
0.0
 40
6.5
  0
POLYLINE
  5
314
  8
DATA
  6
CONTINUOUS
 62
     7
 66
     1
 10
0.0
 20
0.0
 30
0.0
 70
     1
  0
VERTEX
  5
49D
  8
DATA
  6
CONTINUOUS
 62
     7
 10
686.54999999999995
 20
90.885555314494766
 30
0.0
  0
VERTEX
  5
49E
  8
DATA
  6
CONTINUOUS
 62
     7
 10
688.49999999999989
 20
89.759722289574853
 30
0.0
  0
VERTEX
  5
49F
  8
DATA
  6
CONTINUOUS
 62
     7
 10
690.45000000000005
 20
90.885555314494766
 30
0.0
  0
VERTEX
  5
4A0
  8
DATA
  6
CONTINUOUS
 62
     7
 10
690.45000000000005
 20
93.137221364334266
 30
0.0
  0
VERTEX
  5
4A1
  8
DATA
  6
CONTINUOUS
 62
     7
 10
688.49999999999989
 20
94.263054389254137
 30
0.0
  0
VERTEX
  5
4A2
  8
DATA
  6
CONTINUOUS
 62
     7
 10
686.54999999999995
 20
93.137221364334266
 30
0.0
  0
SEQEND
  5
4A3
  8
DATA
  6
CONTINUOUS
 62
     7
  0
CIRCLE
  5
31D
  8
DATA
  6
CONTINUOUS
 62
     7
 10
711.5
 20
92.011388339414523
 30
0.0
 40
6.5
  0
POLYLINE
  5
31E
  8
DATA
  6
CONTINUOUS
 62
     7
 66
     1
 10
0.0
 20
0.0
 30
0.0
 70
     1
  0
VERTEX
  5
4A4
  8
DATA
  6
CONTINUOUS
 62
     7
 10
713.45000000000005
 20
90.885555314494766
 30
0.0
  0
VERTEX
  5
4A5
  8
DATA
  6
CONTINUOUS
 62
     7
 10
711.5
 20
89.759722289574853
 30
0.0
  0
VERTEX
  5
4A6
  8
DATA
  6
CONTINUOUS
 62
     7
 10
709.54999999999995
 20
90.885555314494766
 30
0.0
  0
VERTEX
  5
4A7
  8
DATA
  6
CONTINUOUS
 62
     7
 10
709.54999999999995
 20
93.137221364334266
 30
0.0
  0
VERTEX
  5
4A8
  8
DATA
  6
CONTINUOUS
 62
     7
 10
711.5
 20
94.263054389254137
 30
0.0
  0
VERTEX
  5
4A9
  8
DATA
  6
CONTINUOUS
 62
     7
 10
713.45000000000005
 20
93.137221364334266
 30
0.0
  0
SEQEND
  5
4AA
  8
DATA
  6
CONTINUOUS
 62
     7
  0
CIRCLE
  5
327
  8
DATA
  6
CONTINUOUS
 62
     7
 10
688.43516657950124
 20
307.75548935389151
 30
0.0
 40
6.5
  0
POLYLINE
  5
328
  8
DATA
  6
CONTINUOUS
 62
     7
 66
     1
 10
0.0
 20
0.0
 30
0.0
 70
     1
  0
VERTEX
  5
4AB
  8
DATA
  6
CONTINUOUS
 62
     7
 10
686.48516657950097
 20
306.62965632897169
 30
0.0
  0
VERTEX
  5
4AC
  8
DATA
  6
CONTINUOUS
 62
     7
 10
688.43516657950124
 20
305.50382330405188
 30
0.0
  0
VERTEX
  5
4AD
  8
DATA
  6
CONTINUOUS
 62
     7
 10
690.38516657950106
 20
306.62965632897169
 30
0.0
  0
VERTEX
  5
4AE
  8
DATA
  6
CONTINUOUS
 62
     7
 10
690.38516657950106
 20
308.88132237881121
 30
0.0
  0
VERTEX
  5
4AF
  8
DATA
  6
CONTINUOUS
 62
     7
 10
688.43516657950124
 20
310.00715540373119
 30
0.0
  0
VERTEX
  5
4B0
  8
DATA
  6
CONTINUOUS
 62
     7
 10
686.48516657950097
 20
308.88132237881121
 30
0.0
  0
SEQEND
  5
4B1
  8
DATA
  6
CONTINUOUS
 62
     7
  0
CIRCLE
  5
331
  8
DATA
  6
CONTINUOUS
 62
     7
 10
700.0
 20
271.50000000009481
 30
0.0
 40
8.0
  0
CIRCLE
  5
332
  8
DATA
  6
CONTINUOUS
 62
     7
 10
700.0
 20
271.50000000009481
 30
0.0
 40
6.0
  0
CIRCLE
  5
333
  8
DATA
  6
CONTINUOUS
 62
     7
 10
700.0
 20
142.5000000000947
 30
0.0
 40
8.0
  0
CIRCLE
  5
334
  8
DATA
  6
CONTINUOUS
 62
     7
 10
700.0
 20
142.5000000000947
 30
0.0
 40
6.0
  0
LINE
  5
335
  8
DATA
  6
CONTINUOUS
 62
     7
 10
-427.5
 20
93.500000000094758
 30
0.0
 11
-246.5
 21
93.500000000094758
 31
0.0
  0
LINE
  5
336
  8
DATA
  6
CONTINUOUS
 62
     7
 10
-427.5
 20
84.499999999905199
 30
0.0
 11
-427.5
 21
93.500000000094758
 31
0.0
  0
LINE
  5
337
  8
DATA
  6
CONTINUOUS
 62
     7
 10
-246.5
 20
93.500000000094758
 30
0.0
 11
-246.5
 21
79.499999999905199
 31
0.0
  0
LINE
  5
338
  8
DATA
  6
CONTINUOUS
 62
     7
 10
-378.55242742050251
 20
63.50194193649692
 30
0.0
 11
-373.35242742050252
 21
63.50194193649692
 31
0.0
  0
LINE
  5
339
  8
DATA
  6
CONTINUOUS
 62
     7
 10
-379.10242742050258
 20
65.201941936497136
 30
0.0
 11
-379.10242742050258
 21
69.499999999905214
 31
0.0
  0
LINE
  5
33A
  8
DATA
  6
CONTINUOUS
 62
     7
 10
-379.10242742050258
 20
93.500000000094758
 30
0.0
 11
-379.10242742050258
 21
95.301941936496945
 31
0.0
  0
LINE
  5
33B
  8
DATA
  6
CONTINUOUS
 62
     7
 10
-372.80242742050262
 20
95.301941936496945
 30
0.0
 11
-372.80242742050262
 21
93.500000000094758
 31
0.0
  0
LINE
  5
33C
  8
DATA
  6
CONTINUOUS
 62
     7
 10
-372.80242742050262
 20
69.499999999905214
 30
0.0
 11
-372.80242742050262
 21
65.201941936496709
 31
0.0
  0
LINE
  5
33D
  8
DATA
  6
CONTINUOUS
 62
     7
 10
-379.10242742050258
 20
65.201941936496922
 30
0.0
 11
-378.55242742050262
 21
63.50194193649692
 31
0.0
  0
LINE
  5
33E
  8
DATA
  6
CONTINUOUS
 62
     7
 10
-372.8024274205024
 20
65.201941936496922
 30
0.0
 11
-373.35242742050252
 21
63.50194193649692
 31
0.0
  0
ARC
  5
33F
  8
DATA
  6
CONTINUOUS
 62
     7
 10
-379.00101798209602
 20
68.501941936496905
 30
0.0
 40
0.6499999999999668
 50
98.975639853151577
 51
261.02436014684838
  0
ARC
  5
340
  8
DATA
  6
CONTINUOUS
 62
     7
 10
-372.9038368589093
 20
68.501941936496905
 30
0.0
 40
0.6499999999999668
 50
278.97563985315151
 51
81.024360146848466
  0
LINE
  5
341
  8
DATA
  6
CONTINUOUS
 62
     7
 10
-378.80242742050262
 20
117.50194193649691
 30
0.0
 11
-376.7024274205026
 21
117.50194193649691
 31
0.0
  0
LINE
  5
342
  8
DATA
  6
CONTINUOUS
 62
     7
 10
-375.2024274205026
 20
117.50194193649691
 30
0.0
 11
-373.10242742050258
 21
117.50194193649691
 31
0.0
  0
LINE
  5
343
  8
DATA
  6
CONTINUOUS
 62
     7
 10
-380.63242742050261
 20
95.301941936496945
 30
0.0
 11
-371.27242742050248
 21
95.301941936496945
 31
0.0
  0
LINE
  5
344
  8
DATA
  6
CONTINUOUS
 62
     7
 10
-380.4524274205026
 20
93.501941936496905
 30
0.0
 11
-380.4524274205026
 21
95.301941936496945
 31
0.0
  0
LINE
  5
345
  8
DATA
  6
CONTINUOUS
 62
     7
 10
-371.4524274205026
 20
95.301941936496945
 30
0.0
 11
-371.4524274205026
 21
93.501941936496905
 31
0.0
  0
LINE
  5
346
  8
DATA
  6
CONTINUOUS
 62
     7
 10
-378.80242742050262
 20
112.50194193649691
 30
0.0
 11
-378.80242742050262
 21
117.50194193649691
 31
0.0
  0
LINE
  5
347
  8
DATA
  6
CONTINUOUS
 62
     7
 10
-373.10242742050258
 20
117.50194193649691
 30
0.0
 11
-373.10242742050258
 21
112.50194193649691
 31
0.0
  0
LINE
  5
348
  8
DATA
  6
CONTINUOUS
 62
     7
 10
-383.4524274205026
 20
107.601941936497
 30
0.0
 11
-383.4524274205026
 21
112.50194193649691
 31
0.0
  0
LINE
  5
349
  8
DATA
  6
CONTINUOUS
 62
     7
 10
-368.4524274205026
 20
112.50194193649691
 30
0.0
 11
-368.4524274205026
 21
107.601941936497
 31
0.0
  0
LINE
  5
34A
  8
DATA
  6
CONTINUOUS
 62
     7
 10
-383.4524274205026
 20
112.50194193649691
 30
0.0
 11
-376.7024274205026
 21
112.50194193649691
 31
0.0
  0
LINE
  5
34B
  8
DATA
  6
CONTINUOUS
 62
     7
 10
-375.2024274205026
 20
112.50194193649691
 30
0.0
 11
-368.4524274205026
 21
112.50194193649691
 31
0.0
  0
LINE
  5
34C
  8
DATA
  6
CONTINUOUS
 62
     7
 10
-383.4524274205026
 20
107.601941936497
 30
0.0
 11
-368.4524274205026
 21
107.601941936497
 31
0.0
  0
LINE
  5
34D
  8
DATA
  6
CONTINUOUS
 62
     7
 10
-381.9524274205026
 20
107.601941936497
 30
0.0
 11
-381.62359530371418
 21
102.3019419364969
 31
0.0
  0
LINE
  5
34E
  8
DATA
  6
CONTINUOUS
 62
     7
 10
-369.9524274205026
 20
107.601941936497
 30
0.0
 11
-370.28125953729102
 21
102.3019419364969
 31
0.0
  0
LINE
  5
34F
  8
DATA
  6
CONTINUOUS
 62
     7
 10
-381.62359530371418
 20
102.3019419364969
 30
0.0
 11
-380.63242742050261
 21
95.301941936496945
 31
0.0
  0
LINE
  5
350
  8
DATA
  6
CONTINUOUS
 62
     7
 10
-370.28125953729102
 20
102.3019419364969
 30
0.0
 11
-371.27242742050248
 21
95.301941936496945
 31
0.0
  0
ARC
  5
351
  8
DATA
  6
CONTINUOUS
 62
     7
 10
-375.9524274205026
 20
121.7442496288047
 30
0.0
 40
0.7576923076922951
 50
8.1712335599430777
 51
171.828766440057
  0
ARC
  5
352
  8
DATA
  6
CONTINUOUS
 62
     7
 10
-375.9524274205026
 20
109.6471128547102
 30
0.0
 40
0.7576923076922951
 50
188.17123355994309
 51
351.828766440057
  0
LINE
  5
353
  8
DATA
  6
CONTINUOUS
 62
     7
 10
-376.7024274205026
 20
109.539420547018
 30
0.0
 11
-376.7024274205026
 21
121.8619419364969
 31
0.0
  0
LINE
  5
354
  8
DATA
  6
CONTINUOUS
 62
     7
 10
-375.2024274205026
 20
121.8519419364969
 30
0.0
 11
-375.2024274205026
 21
109.4619419364969
 31
0.0
  0
ARC
  5
355
  8
DATA
  6
CONTINUOUS
 62
     7
 10
-422.49999999999989
 20
84.499999999905199
 30
0.0
 40
5.0
 50
180.0
 51
270.0
  0
LINE
  5
356
  8
DATA
  6
CONTINUOUS
 62
     7
 10
-422.49999999999989
 20
79.499999999905199
 30
0.0
 11
-505.0
 21
79.499999999905199
 31
0.0
  0
LINE
  5
357
  8
DATA
  6
CONTINUOUS
 62
     7
 10
-380.5
 20
83.499999999905214
 30
0.0
 11
-417.49999999999989
 21
83.499999999905214
 31
0.0
  0
LINE
  5
358
  8
DATA
  6
CONTINUOUS
 62
     7
 10
-380.5
 20
87.499999999905185
 30
0.0
 11
-417.49999999999989
 21
87.499999999905185
 31
0.0
  0
ARC
  5
359
  8
DATA
  6
CONTINUOUS
 62
     7
 10
-417.49999999999989
 20
85.499999999905256
 30
0.0
 40
1.9999999999999569
 50
90.0
 51
270.0
  0
ARC
  5
35A
  8
DATA
  6
CONTINUOUS
 62
     7
 10
-380.5
 20
85.499999999905185
 30
0.0
 40
1.9999999999999849
 50
270.0
 51
90.0
  0
CIRCLE
  5
35B
  8
DATA
  6
CONTINUOUS
 62
     7
 10
-416.46444637463719
 20
85.499999999905256
 30
0.0
 40
1.75
  0
LINE
  5
35C
  8
DATA
  6
CONTINUOUS
 62
     7
 10
-412.56910747290681
 20
87.499999999905185
 30
0.0
 11
-412.56910747290681
 21
83.499999999905214
 31
0.0
  0
LINE
  5
35D
  8
DATA
  6
CONTINUOUS
 62
     7
 10
-231.0
 20
81.500000000094744
 30
0.0
 11
-246.5
 21
81.500000000094744
 31
0.0
  0
LINE
  5
35E
  8
DATA
  6
CONTINUOUS
 62
     7
 10
-231.0
 20
81.500000000094744
 30
0.0
 11
-231.0
 21
79.499999999905199
 31
0.0
  0
LINE
  5
35F
  8
DATA
  6
CONTINUOUS
 62
     7
 10
-232.60758514776381
 20
84.499999999905185
 30
0.0
 11
-232.60758514776381
 21
81.500000000094744
 31
0.0
  0
ARC
  5
360
  8
DATA
  6
CONTINUOUS
 62
     7
 10
-234.60758514776381
 20
84.499999999905185
 30
0.0
 40
2.0
 50
0.0
 51
90.0
  0
LINE
  5
361
  8
DATA
  6
CONTINUOUS
 62
     7
 10
-238.60758514776381
 20
86.499999999905185
 30
0.0
 11
-234.60758514776381
 21
86.499999999905185
 31
0.0
  0
ARC
  5
362
  8
DATA
  6
CONTINUOUS
 62
     7
 10
-238.60758514776381
 20
84.499999999905185
 30
0.0
 40
2.0
 50
90.0
 51
180.0
  0
LINE
  5
363
  8
DATA
  6
CONTINUOUS
 62
     7
 10
-240.60758514776381
 20
81.500000000094744
 30
0.0
 11
-240.60758514776381
 21
84.499999999905185
 31
0.0
  0
CIRCLE
  5
364
  8
DATA
  6
CONTINUOUS
 62
     7
 10
-235.0
 20
-205.65354204482639
 30
0.0
 40
1.649999999999977
  0
LINE
  5
365
  8
DATA
  6
CONTINUOUS
 62
     7
 10
287.5
 20
-75.0
 30
0.0
 11
512.5
 21
-75.0
 31
0.0
  0
TEXT
  5
366
  8
DATA
 62
     7
 10
-745.55450838651632
 20
-1087.613680448183
 30
0.0
 40
16.288411458333329
  1
また、同一商品でも若干の個体差があることがあります。ご了承下さい。
 41
0.7
 11
-745.55450838651632
 21
-1071.32526898985
 31
0.0
 73
     3
  0
TEXT
  5
367
  8
DATA
 62
     7
 10
599.99999999999989
 20
-944.40476499999988
 30
0.0
 40
24.4326171875
  1
JBL PROFESSIONAL
 41
0.7
 11
599.99999999999989
 21
-919.97214781249988
 31
0.0
 73
     3
  0
INSERT
  5
368
  8
DATA
 62
     7
  2
____
 10
100.0
 20
140.0
 30
0.0
  0
ARC
  5
369
  8
DATA
  6
STYLE_01
 62
     7
 10
-235.0
 20
-205.65354204482639
 30
0.0
 40
194.956027872471
 50
183.91541018495209
 51
262.63244358645068
  0
LINE
  5
36A
  8
DATA
  6
CONTINUOUS
 62
     7
 10
-229.0
 20
-300.0
 30
0.0
 11
-175.0
 21
-300.0
 31
0.0
  0
LINE
  5
36B
  8
DATA
  6
CONTINUOUS
 62
     7
 10
-229.0
 20
-300.0
 30
0.0
 11
-197.25
 21
-291.49261314031179
 31
0.0
  0
LINE
  5
36C
  8
DATA
  6
CONTINUOUS
 62
     7
 10
-229.0
 20
-300.0
 30
0.0
 11
-197.25
 21
-308.5073868596881
 31
0.0
  0
TEXT
  5
36D
  8
DATA
 62
     7
 10
-163.01028688068479
 20
-313.8388888888889
 30
0.0
 40
27.147352430555561
  1
可動式
 41
0.7
 11
-163.01028688068479
 21
-286.6915364583333
 31
0.0
 73
     3
  0
TEXT
  5
36E
  8
DATA
 62
     7
 10
-75.000000000000014
 20
-695.0611111111109
 30
0.0
 40
30.868055555555561
  1
VT4886ボトムへの取付け時に必要な
 41
0.7
 11
-75.000000000000014
 21
-664.19305555555536
 31
0.0
 73
     3
  0
TEXT
  5
36F
  8
DATA
 62
     7
 10
-75.000000000000014
 20
-730.33888888888885
 30
0.0
 40
30.868055555555561
  1
VT4886フロントヒンジバー\U+00D72本を収納
 41
0.7
 11
-75.000000000000014
 21
-699.4708333333333
 31
0.0
 73
     3
  0
LINE
  5
370
  8
DATA
  6
CONTINUOUS
 62
     7
 10
-225.0
 20
-375.0
 30
0.0
 11
75.0
 21
-650.0
 31
0.0
  0
LINE
  5
371
  8
DATA
  6
CONTINUOUS
 62
     7
 10
-225.0
 20
-375.0
 30
0.0
 11
-195.71259886314019
 21
-389.92267622878222
 31
0.0
  0
LINE
  5
372
  8
DATA
  6
CONTINUOUS
 62
     7
 10
-225.0
 20
-375.0
 30
0.0
 11
-207.0977047190452
 21
-402.56711727500522
 31
0.0
  0
ENDSEC
  0
EOF
