  0
SECTION
  2
HEADER
  9
$ACADVER
  1
AC1015
  9
$ACADMAINTVER
 70
    20
  9
$DWGCODEPAGE
  3
ANSI_932
  9
$INSBASE
 10
0.0
 20
0.0
 30
0.0
  9
$EXTMIN
 10
-1800.109854899024
 20
-2685.333787790443
 30
-0.0015258207003583
  9
$EXTMAX
 10
1800.109871662831
 20
2667.267500139498
 30
0.0000000349246037
  9
$LIMMIN
 10
0.0
 20
0.0
  9
$LIMMAX
 10
0.0
 20
0.0
  9
$ORTHOMODE
 70
     0
  9
$REGENMODE
 70
     1
  9
$FILLMODE
 70
     1
  9
$QTEXTMODE
 70
     0
  9
$MIRRTEXT
 70
     1
  9
$LTSCALE
 40
101.6
  9
$ATTMODE
 70
     1
  9
$TEXTSIZE
 40
0.0
  9
$TRACEWID
 40
1.0
  9
$TEXTSTYLE
  7
STANDARD
  9
$CLAYER
  8
DATA
  9
$CELTYPE
  6
ByLayer
  9
$CECOLOR
 62
   256
  9
$CELTSCALE
 40
1.0
  9
$DISPSILH
 70
     0
  9
$DIMSCALE
 40
1.0
  9
$DIMASZ
 40
0.18
  9
$DIMEXO
 40
0.0625
  9
$DIMDLI
 40
0.38
  9
$DIMRND
 40
0.0
  9
$DIMDLE
 40
0.0
  9
$DIMEXE
 40
0.18
  9
$DIMTP
 40
0.0
  9
$DIMTM
 40
0.0
  9
$DIMTXT
 40
0.18
  9
$DIMCEN
 40
0.09
  9
$DIMTSZ
 40
0.0
  9
$DIMTOL
 70
     0
  9
$DIMLIM
 70
     0
  9
$DIMTIH
 70
     1
  9
$DIMTOH
 70
     1
  9
$DIMSE1
 70
     0
  9
$DIMSE2
 70
     0
  9
$DIMTAD
 70
     0
  9
$DIMZIN
 70
     0
  9
$DIMBLK
  1

  9
$DIMASO
 70
     1
  9
$DIMSHO
 70
     1
  9
$DIMPOST
  1

  9
$DIMAPOST
  1

  9
$DIMALT
 70
     0
  9
$DIMALTD
 70
     2
  9
$DIMALTF
 40
25.4
  9
$DIMLFAC
 40
1.0
  9
$DIMTOFL
 70
     0
  9
$DIMTVP
 40
0.0
  9
$DIMTIX
 70
     0
  9
$DIMSOXD
 70
     0
  9
$DIMSAH
 70
     0
  9
$DIMBLK1
  1

  9
$DIMBLK2
  1

  9
$DIMSTYLE
  2
STANDARD
  9
$DIMCLRD
 70
     0
  9
$DIMCLRE
 70
     0
  9
$DIMCLRT
 70
     0
  9
$DIMTFAC
 40
1.0
  9
$DIMGAP
 40
0.09
  9
$DIMJUST
 70
     0
  9
$DIMSD1
 70
     0
  9
$DIMSD2
 70
     0
  9
$DIMTOLJ
 70
     1
  9
$DIMTZIN
 70
     0
  9
$DIMALTZ
 70
     0
  9
$DIMALTTZ
 70
     0
  9
$DIMUPT
 70
     0
  9
$DIMDEC
 70
     4
  9
$DIMTDEC
 70
     4
  9
$DIMALTU
 70
     2
  9
$DIMALTTD
 70
     2
  9
$DIMTXSTY
  7
STANDARD
  9
$DIMAUNIT
 70
     0
  9
$DIMADEC
 70
     0
  9
$DIMALTRND
 40
0.0
  9
$DIMAZIN
 70
     0
  9
$DIMDSEP
 70
    46
  9
$DIMATFIT
 70
     3
  9
$DIMFRAC
 70
     0
  9
$DIMLDRBLK
  1

  9
$DIMLUNIT
 70
     2
  9
$DIMLWD
 70
    -2
  9
$DIMLWE
 70
    -2
  9
$DIMTMOVE
 70
     0
  9
$LUNITS
 70
     2
  9
$LUPREC
 70
     4
  9
$SKETCHINC
 40
0.1
  9
$FILLETRAD
 40
0.0
  9
$AUNITS
 70
     0
  9
$AUPREC
 70
     0
  9
$MENU
  1
acad
  9
$ELEVATION
 40
0.0
  9
$PELEVATION
 40
0.0
  9
$THICKNESS
 40
0.0
  9
$LIMCHECK
 70
     0
  9
$CHAMFERA
 40
0.0
  9
$CHAMFERB
 40
0.0
  9
$CHAMFERC
 40
0.0
  9
$CHAMFERD
 40
0.0
  9
$SKPOLY
 70
     0
  9
$TDCREATE
 40
2457568.705752315
  9
$TDUCREATE
 40
2457568.330752315
  9
$TDUPDATE
 40
2457568.713506945
  9
$TDUUPDATE
 40
2457568.338506944
  9
$TDINDWG
 40
0.0003240741
  9
$TDUSRTIMER
 40
0.0003240741
  9
$USRTIMER
 70
     1
  9
$ANGBASE
 50
0.0
  9
$ANGDIR
 70
     0
  9
$PDMODE
 70
     1
  9
$PDSIZE
 40
-2.0
  9
$PLINEWID
 40
0.0
  9
$SPLFRAME
 70
     0
  9
$SPLINETYPE
 70
     6
  9
$SPLINESEGS
 70
     8
  9
$HANDSEED
  5
4CF
  9
$SURFTAB1
 70
     6
  9
$SURFTAB2
 70
     6
  9
$SURFTYPE
 70
     6
  9
$SURFU
 70
     6
  9
$SURFV
 70
     6
  9
$UCSBASE
  2

  9
$UCSNAME
  2

  9
$UCSORG
 10
0.0
 20
0.0
 30
0.0
  9
$UCSXDIR
 10
1.0
 20
0.0
 30
0.0
  9
$UCSYDIR
 10
0.0
 20
1.0
 30
0.0
  9
$UCSORTHOREF
  2

  9
$UCSORTHOVIEW
 70
     0
  9
$UCSORGTOP
 10
0.0
 20
0.0
 30
0.0
  9
$UCSORGBOTTOM
 10
0.0
 20
0.0
 30
0.0
  9
$UCSORGLEFT
 10
0.0
 20
0.0
 30
0.0
  9
$UCSORGRIGHT
 10
0.0
 20
0.0
 30
0.0
  9
$UCSORGFRONT
 10
0.0
 20
0.0
 30
0.0
  9
$UCSORGBACK
 10
0.0
 20
0.0
 30
0.0
  9
$PUCSBASE
  2

  9
$PUCSNAME
  2

  9
$PUCSORG
 10
0.0
 20
0.0
 30
0.0
  9
$PUCSXDIR
 10
1.0
 20
0.0
 30
0.0
  9
$PUCSYDIR
 10
0.0
 20
1.0
 30
0.0
  9
$PUCSORTHOREF
  2

  9
$PUCSORTHOVIEW
 70
     0
  9
$PUCSORGTOP
 10
0.0
 20
0.0
 30
0.0
  9
$PUCSORGBOTTOM
 10
0.0
 20
0.0
 30
0.0
  9
$PUCSORGLEFT
 10
0.0
 20
0.0
 30
0.0
  9
$PUCSORGRIGHT
 10
0.0
 20
0.0
 30
0.0
  9
$PUCSORGFRONT
 10
0.0
 20
0.0
 30
0.0
  9
$PUCSORGBACK
 10
0.0
 20
0.0
 30
0.0
  9
$USERI1
 70
     0
  9
$USERI2
 70
     0
  9
$USERI3
 70
     0
  9
$USERI4
 70
     0
  9
$USERI5
 70
     0
  9
$USERR1
 40
0.0
  9
$USERR2
 40
0.0
  9
$USERR3
 40
0.0
  9
$USERR4
 40
0.0
  9
$USERR5
 40
0.0
  9
$WORLDVIEW
 70
     1
  9
$SHADEDGE
 70
     3
  9
$SHADEDIF
 70
    70
  9
$TILEMODE
 70
     1
  9
$MAXACTVP
 70
    64
  9
$PINSBASE
 10
0.0
 20
0.0
 30
0.0
  9
$PLIMCHECK
 70
     0
  9
$PEXTMIN
 10
1.000000000000000E+20
 20
1.000000000000000E+20
 30
1.000000000000000E+20
  9
$PEXTMAX
 10
-1.000000000000000E+20
 20
-1.000000000000000E+20
 30
-1.000000000000000E+20
  9
$PLIMMIN
 10
0.0
 20
0.0
  9
$PLIMMAX
 10
12.0
 20
9.0
  9
$UNITMODE
 70
     0
  9
$VISRETAIN
 70
     0
  9
$PLINEGEN
 70
     1
  9
$PSLTSCALE
 70
     0
  9
$TREEDEPTH
 70
  3020
  9
$CMLSTYLE
  2
Standard
  9
$CMLJUST
 70
     0
  9
$CMLSCALE
 40
1.0
  9
$PROXYGRAPHICS
 70
     1
  9
$MEASUREMENT
 70
     0
  9
$CELWEIGHT
370
    -1
  9
$ENDCAPS
280
     0
  9
$JOINSTYLE
280
     0
  9
$LWDISPLAY
290
     0
  9
$INSUNITS
 70
     0
  9
$HYPERLINKBASE
  1

  9
$STYLESHEET
  1

  9
$XEDIT
290
     1
  9
$CEPSNTYPE
380
     0
  9
$PSTYLEMODE
290
     1
  9
$FINGERPRINTGUID
  2
{C7819302-09AB-F549-A4E8-73E783400426}
  9
$VERSIONGUID
  2
{28978A7D-9085-034F-BA45-0110977734CA}
  9
$EXTNAMES
290
     1
  9
$PSVPSCALE
 40
0.0
  9
$OLESTARTUP
290
     0
  0
ENDSEC
  0
SECTION
  2
CLASSES
  0
CLASS
  1
ACDBDICTIONARYWDFLT
  2
AcDbDictionaryWithDefault
  3
ObjectDBX Classes
 90
        0
280
     0
281
     0
  0
CLASS
  1
MATERIAL
  2
AcDbMaterial
  3
ObjectDBX Classes
 90
     1153
280
     0
281
     0
  0
CLASS
  1
VISUALSTYLE
  2
AcDbVisualStyle
  3
ObjectDBX Classes
 90
     4095
280
     0
281
     0
  0
CLASS
  1
SCALE
  2
AcDbScale
  3
ObjectDBX Classes
 90
     1153
280
     0
281
     0
  0
CLASS
  1
TABLESTYLE
  2
AcDbTableStyle
  3
ObjectDBX Classes
 90
     4095
280
     0
281
     0
  0
CLASS
  1
MLEADERSTYLE
  2
AcDbMLeaderStyle
  3
ACDB_MLEADERSTYLE_CLASS
 90
     4095
280
     0
281
     0
  0
CLASS
  1
ACDBSECTIONVIEWSTYLE
  2
AcDbSectionViewStyle
  3
ObjectDBX Classes
 90
     1025
280
     0
281
     0
  0
CLASS
  1
ACDBDETAILVIEWSTYLE
  2
AcDbDetailViewStyle
  3
ObjectDBX Classes
 90
     1025
280
     0
281
     0
  0
CLASS
  1
DICTIONARYVAR
  2
AcDbDictionaryVar
  3
ObjectDBX Classes
 90
        0
280
     0
281
     0
  0
CLASS
  1
CELLSTYLEMAP
  2
AcDbCellStyleMap
  3
ObjectDBX Classes
 90
     1152
280
     0
281
     0
  0
CLASS
  1
ACDBPLACEHOLDER
  2
AcDbPlaceHolder
  3
ObjectDBX Classes
 90
        0
280
     0
281
     0
  0
CLASS
  1
LAYOUT
  2
AcDbLayout
  3
ObjectDBX Classes
 90
        0
280
     0
281
     0
  0
ENDSEC
  0
SECTION
  2
TABLES
  0
TABLE
  2
VPORT
  5
3F6
330
0
100
AcDbSymbolTable
 70
     1
  0
VPORT
  5
462
330
3F6
100
AcDbSymbolTableRecord
100
AcDbViewportTableRecord
  2
*ACTIVE
 70
     0
 10
0.0
 20
0.0
 11
1.0
 21
1.0
 12
0.0000083819031715
 22
-9.033143825472507
 13
0.0
 23
0.0
 14
1.0
 24
1.0
 15
0.0
 25
0.0
 16
0.0
 26
0.0
 36
1.0
 17
0.0
 27
0.0
 37
0.0
 40
5381.744307646439
 41
2.306993642143505
 42
50.0
 43
0.0
 44
0.0
 50
0.0
 51
0.0
 71
     0
 72
  2000
 73
     1
 74
     1
 75
     0
 76
     0
 77
     0
 78
     0
281
     0
 65
     1
110
0.0
120
0.0
130
0.0
111
1.0
121
0.0
131
0.0
112
0.0
122
1.0
132
0.0
 79
     0
146
0.0
1001
ACAD_NAV_VCDISPLAY
1070
     3
  0
ENDTAB
  0
TABLE
  2
LTYPE
  5
3F3
330
0
100
AcDbSymbolTable
 70
    11
  0
LTYPE
  5
448
330
3F3
100
AcDbSymbolTableRecord
100
AcDbLinetypeTableRecord
  2
ByBlock
 70
     0
  3

 72
    65
 73
     0
 40
0.0
  0
LTYPE
  5
449
330
3F3
100
AcDbSymbolTableRecord
100
AcDbLinetypeTableRecord
  2
ByLayer
 70
     0
  3

 72
    65
 73
     0
 40
0.0
  0
LTYPE
  5
44A
330
3F3
100
AcDbSymbolTableRecord
100
AcDbLinetypeTableRecord
  2
CONTINUOUS
 70
     0
  3
Solid line
 72
    65
 73
     0
 40
0.0
  0
LTYPE
  5
463
330
3F3
100
AcDbSymbolTableRecord
100
AcDbLinetypeTableRecord
  2
STYLE_01
 70
     0
  3

 72
    65
 73
     2
 40
0.4166412353515625
 49
0.208282470703125
 74
     0
 49
-0.2083587646484375
 74
     0
  0
ENDTAB
  0
TABLE
  2
LAYER
  5
3F0
330
0
100
AcDbSymbolTable
 70
     6
  0
LAYER
  5
442
102
{ACAD_XDICTIONARY
360
477
102
}
330
3F0
100
AcDbSymbolTableRecord
100
AcDbLayerTableRecord
  2
0
 70
     0
 62
     7
  6
CONTINUOUS
370
    -3
390
3FD
  0
LAYER
  5
461
102
{ACAD_XDICTIONARY
360
479
102
}
330
3F0
100
AcDbSymbolTableRecord
100
AcDbLayerTableRecord
  2
DATA
 70
     0
 62
     7
  6
CONTINUOUS
370
    -3
390
3FD
  0
LAYER
  5
46D
102
{ACAD_XDICTIONARY
360
47B
102
}
330
3F0
100
AcDbSymbolTableRecord
100
AcDbLayerTableRecord
  2
HIBINO-BASE
 70
     0
 62
     7
  6
CONTINUOUS
370
    -3
390
3FD
  0
LAYER
  5
46E
102
{ACAD_XDICTIONARY
360
47D
102
}
330
3F0
100
AcDbSymbolTableRecord
100
AcDbLayerTableRecord
  2
SPEC
 70
     0
 62
     7
  6
CONTINUOUS
370
    -3
390
3FD
  0
LAYER
  5
46F
102
{ACAD_XDICTIONARY
360
47F
102
}
330
3F0
100
AcDbSymbolTableRecord
100
AcDbLayerTableRecord
  2
DIMNSIONS
 70
     0
 62
     7
  6
CONTINUOUS
370
    -3
390
3FD
  0
LAYER
  5
470
102
{ACAD_XDICTIONARY
360
481
102
}
330
3F0
100
AcDbSymbolTableRecord
100
AcDbLayerTableRecord
  2
SELECTOR
 70
     0
 62
     7
  6
CONTINUOUS
370
    -3
390
3FD
  0
ENDTAB
  0
TABLE
  2
STYLE
  5
3F1
330
0
100
AcDbSymbolTable
 70
     3
  0
STYLE
  5
443
330
3F1
100
AcDbSymbolTableRecord
100
AcDbTextStyleTableRecord
  2
STANDARD
 70
     0
 40
0.0
 41
1.0
 50
0.0
 71
     0
 42
0.0
  3
txt
  4
BIGFONT.SHX
  0
ENDTAB
  0
TABLE
  2
VIEW
  5
3F4
330
0
100
AcDbSymbolTable
 70
     0
  0
ENDTAB
  0
TABLE
  2
UCS
  5
3F5
330
0
100
AcDbSymbolTable
 70
     0
  0
ENDTAB
  0
TABLE
  2
APPID
  5
3F7
330
0
100
AcDbSymbolTable
 70
     4
  0
APPID
  5
444
330
3F7
100
AcDbSymbolTableRecord
100
AcDbRegAppTableRecord
  2
ACAD
 70
     0
  0
APPID
  5
44B
330
3F7
100
AcDbSymbolTableRecord
100
AcDbRegAppTableRecord
  2
AcadAnnotative
 70
     0
  0
APPID
  5
48D
330
3F7
100
AcDbSymbolTableRecord
100
AcDbRegAppTableRecord
  2
ACAD_NAV_VCDISPLAY
 70
     0
  0
APPID
  5
4C6
330
3F7
100
AcDbSymbolTableRecord
100
AcDbRegAppTableRecord
  2
ACAD_MLEADERVER
 70
     0
  0
ENDTAB
  0
TABLE
  2
DIMSTYLE
  5
3F8
330
0
100
AcDbSymbolTable
 70
     2
100
AcDbDimStyleTable
 71
     0
  0
DIMSTYLE
105
445
330
3F8
100
AcDbSymbolTableRecord
100
AcDbDimStyleTableRecord
  2
STANDARD
 70
     0
279
     2
340
443
  0
ENDTAB
  0
TABLE
  2
BLOCK_RECORD
  5
3EF
330
0
100
AcDbSymbolTable
 70
     0
  0
BLOCK_RECORD
  5
45D
330
3EF
100
AcDbSymbolTableRecord
100
AcDbBlockTableRecord
  2
*Model_Space
340
460
  0
BLOCK_RECORD
  5
459
330
3EF
100
AcDbSymbolTableRecord
100
AcDbBlockTableRecord
  2
*Paper_Space
340
45C
  0
ENDTAB
  0
ENDSEC
  0
SECTION
  2
BLOCKS
  0
BLOCK
  5
45E
330
45D
100
AcDbEntity
  8
0
100
AcDbBlockBegin
  2
*Model_Space
 70
     0
 10
0.0
 20
0.0
 30
0.0
  3
*Model_Space
  1

  0
ENDBLK
  5
45F
330
45D
100
AcDbEntity
  8
0
100
AcDbBlockEnd
  0
BLOCK
  5
45A
330
459
100
AcDbEntity
 67
     1
  8
0
100
AcDbBlockBegin
  2
*Paper_Space
 70
     0
 10
0.0
 20
0.0
 30
0.0
  3
*Paper_Space
  1

  0
ENDBLK
  5
45B
330
459
100
AcDbEntity
 67
     1
  8
0
100
AcDbBlockEnd
  0
ENDSEC
  0
SECTION
  2
ENTITIES
  0
LINE
  5
2D
330
45D
100
AcDbEntity
  8
HIBINO-BASE
  6
Continuous
 62
     7
100
AcDbLine
 10
-1799.999999999549
 20
2667.104484999333
 30
0.0
 11
1799.999999999549
 21
2667.104484999333
 31
0.0
  0
LINE
  5
2E
330
45D
100
AcDbEntity
  8
HIBINO-BASE
  6
Continuous
 62
     7
100
AcDbLine
 10
1799.999999999549
 20
-2532.895514999369
 30
0.0
 11
-1799.999999999549
 21
-2532.895514999369
 31
0.0
  0
LINE
  5
2F
330
45D
100
AcDbEntity
  8
HIBINO-BASE
  6
Continuous
 62
     7
100
AcDbLine
 10
-1799.999999999549
 20
-2532.895514999369
 30
0.0
 11
-1799.999999999549
 21
2667.104484999333
 31
0.0
  0
LINE
  5
30
330
45D
100
AcDbEntity
  8
HIBINO-BASE
  6
Continuous
 62
     7
100
AcDbLine
 10
1799.999999999549
 20
2667.104484999333
 30
0.0
 11
1799.999999999549
 21
-2532.895514999369
 31
0.0
  0
LINE
  5
31
330
45D
100
AcDbEntity
  8
HIBINO-BASE
  6
Continuous
 62
     7
100
AcDbLine
 10
0.0000000000001421
 20
-2082.895514999481
 30
0.0
 11
1799.999999999549
 21
-2082.895514999481
 31
0.0
  0
LINE
  5
32
330
45D
100
AcDbEntity
  8
HIBINO-BASE
  6
Continuous
 62
     7
100
AcDbLine
 10
0.0000000000001421
 20
-2532.895514999369
 30
0.0
 11
0.0000000000001421
 21
-2082.895514999481
 31
0.0
  0
TEXT
  5
33
330
45D
100
AcDbEntity
  8
HIBINO-BASE
 62
     7
100
AcDbText
 10
17.99999999999575
 20
-2133.069381666134
 30
0.0
 40
32.57682291665852
  1
NOTE
 41
0.7
 11
17.99999999999575
 21
-2100.492558749476
 31
0.0
100
AcDbText
 73
     3
  0
LINE
  5
34
330
45D
100
AcDbEntity
  8
HIBINO-BASE
  6
Continuous
 62
     7
100
AcDbLine
 10
699.9999999998254
 20
-2532.895514999369
 30
0.0
 11
699.9999999998254
 21
-2082.895514999481
 31
0.0
  0
TEXT
  5
35
330
45D
100
AcDbEntity
  8
HIBINO-BASE
 62
     7
100
AcDbText
 10
717.9999999998206
 20
-2133.069381666134
 30
0.0
 40
32.57682291665852
  1
TITLE
 41
0.7
 11
717.9999999998206
 21
-2100.492558749476
 31
0.0
100
AcDbText
 73
     3
  0
LINE
  5
36
330
45D
100
AcDbEntity
  8
HIBINO-BASE
  6
Continuous
 62
     7
100
AcDbLine
 10
0.0000000000001421
 20
-2332.895514999419
 30
0.0
 11
1799.999999999549
 21
-2332.895514999419
 31
0.0
  0
TEXT
  5
37
330
45D
100
AcDbEntity
  8
HIBINO-BASE
 62
     7
100
AcDbText
 10
967.9999999997576
 20
-2381.942981666072
 30
0.0
 40
32.57682291665852
  1
DRAWN
 41
0.7
 11
967.9999999997576
 21
-2349.366158749413
 31
0.0
100
AcDbText
 73
     3
  0
TEXT
  5
38
330
45D
100
AcDbEntity
  8
HIBINO-BASE
 62
     7
100
AcDbText
 10
467.9999999998829
 20
-2381.942981666072
 30
0.0
 40
32.57682291665852
  1
DATE
 41
0.7
 11
467.9999999998829
 21
-2349.366158749413
 31
0.0
100
AcDbText
 73
     3
  0
TEXT
  5
39
330
45D
100
AcDbEntity
  8
HIBINO-BASE
 62
     7
100
AcDbText
 10
267.999999999933
 20
-2381.942981666072
 30
0.0
 40
32.57682291665852
  1
SCALE
 41
0.7
 11
267.999999999933
 21
-2349.366158749413
 31
0.0
100
AcDbText
 73
     3
  0
TEXT
  5
3A
330
45D
100
AcDbEntity
  8
HIBINO-BASE
 62
     7
100
AcDbText
 10
717.9999999998206
 20
-2381.942981666072
 30
0.0
 40
32.57682291665852
  1
DESIGN
 41
0.7
 11
717.9999999998206
 21
-2349.366158749413
 31
0.0
100
AcDbText
 73
     3
  0
TEXT
  5
3B
330
45D
100
AcDbEntity
  8
HIBINO-BASE
 62
     7
100
AcDbText
 10
1467.999999999632
 20
-2381.942981666072
 30
0.0
 40
32.57682291665852
  1
DRAWING NO.
 41
0.7
 11
1467.999999999632
 21
-2349.366158749413
 31
0.0
100
AcDbText
 73
     3
  0
TEXT
  5
3C
330
45D
100
AcDbEntity
  8
HIBINO-BASE
 62
     7
100
AcDbText
 10
1217.999999999695
 20
-2381.942981666072
 30
0.0
 40
32.57682291665852
  1
CHECK
 41
0.7
 11
1217.999999999695
 21
-2349.366158749413
 31
0.0
100
AcDbText
 73
     3
  0
LINE
  5
3D
330
45D
100
AcDbEntity
  8
HIBINO-BASE
  6
Continuous
 62
     7
100
AcDbLine
 10
287.4999999999283
 20
-2507.895514999375
 30
0.0
 11
362.4999999999098
 21
-2432.895514999393
 31
0.0
  0
TEXT
  5
3E
330
45D
100
AcDbEntity
  8
HIBINO-BASE
 62
     7
100
AcDbText
 10
274.9999999999314
 20
-2455.074381666054
 30
0.0
 40
32.57682291665852
  1
1
 41
0.7
 11
274.9999999999314
 21
-2422.497558749396
 31
0.0
100
AcDbText
 73
     3
  0
LINE
  5
3F
330
45D
100
AcDbEntity
  8
HIBINO-BASE
  6
Continuous
 62
     7
100
AcDbLine
 10
249.9999999999376
 20
-2532.895514999369
 30
0.0
 11
249.9999999999376
 21
-2332.895514999419
 31
0.0
  0
LINE
  5
40
330
45D
100
AcDbEntity
  8
HIBINO-BASE
  6
Continuous
 62
     7
100
AcDbLine
 10
449.9999999998873
 20
-2532.895514999369
 30
0.0
 11
449.9999999998873
 21
-2332.895514999419
 31
0.0
  0
LINE
  5
41
330
45D
100
AcDbEntity
  8
HIBINO-BASE
  6
Continuous
 62
     7
100
AcDbLine
 10
949.9999999997617
 20
-2332.895514999419
 30
0.0
 11
949.9999999997617
 21
-2532.895514999369
 31
0.0
  0
LINE
  5
42
330
45D
100
AcDbEntity
  8
HIBINO-BASE
  6
Continuous
 62
     7
100
AcDbLine
 10
1449.999999999637
 20
-2332.895514999419
 30
0.0
 11
1449.999999999637
 21
-2532.895514999369
 31
0.0
  0
LINE
  5
43
330
45D
100
AcDbEntity
  8
HIBINO-BASE
  6
Continuous
 62
     7
100
AcDbLine
 10
1199.999999999699
 20
-2532.895514999369
 30
0.0
 11
1199.999999999699
 21
-2332.895514999419
 31
0.0
  0
TEXT
  5
44
330
45D
100
AcDbEntity
  8
HIBINO-BASE
 62
     7
100
AcDbText
 10
467.1307999998837
 20
-2475.622581666049
 30
0.0
 40
32.57682291665852
  1
'16.06.
 41
0.7
 11
467.1307999998837
 21
-2443.045758749391
 31
0.0
100
AcDbText
 73
     3
  0
TEXT
  5
45
330
45D
100
AcDbEntity
  8
HIBINO-BASE
 62
     7
100
AcDbText
 10
349.9999999999126
 20
-2492.574381666045
 30
0.0
 40
32.57682291665852
  1
20
 41
0.7
 11
349.9999999999126
 21
-2459.997558749387
 31
0.0
100
AcDbText
 73
     3
  0
TEXT
  5
46
330
45D
100
AcDbEntity
  8
HIBINO-BASE
 62
     7
100
AcDbText
 10
980.1162002204474
 20
-2475.622581666049
 30
0.0
 40
32.57682291665852
  1
N.Sasaki
 41
0.7
 11
980.1162002204474
 21
-2443.045758749391
 31
0.0
100
AcDbText
 73
     3
  0
TEXT
  5
47
330
45D
100
AcDbEntity
  8
HIBINO-BASE
 62
     7
100
AcDbText
 10
77.66666666664781
 20
-2493.375514999378
 30
0.0
 40
65.15364583331704
  1
A4
 41
0.7
 11
77.66666666664781
 21
-2428.221869166061
 31
0.0
100
AcDbText
 73
     3
  0
TEXT
  5
48
330
45D
100
AcDbEntity
  8
HIBINO-BASE
 62
     7
100
AcDbText
 10
19.16666666666191
 20
-2385.284614999404
 30
0.0
 40
32.57682291665852
  1
PAPER SIZE
 41
0.7
 11
19.16666666666192
 21
-2352.707792082746
 31
0.0
100
AcDbText
 73
     3
  0
TEXT
  5
49
330
45D
100
AcDbEntity
  8
HIBINO-BASE
 62
     7
100
AcDbText
 10
-1656.319999999585
 20
-2661.069070999336
 30
0.0
 40
72.000883593732
  1
Hibino Corporation
 41
0.7
 11
-1656.319999999585
 21
-2589.068187405604
 31
0.0
100
AcDbText
 73
     3
  0
TEXT
  5
4A
330
45D
100
AcDbEntity
  8
HIBINO-BASE
 62
     7
100
AcDbText
 10
1001.36779999975
 20
-2661.069070999336
 30
0.0
 40
72.000883593732
  1
ヒビノ株式会社
 41
0.7
 11
1001.36779999975
 21
-2589.068187405604
 31
0.0
100
AcDbText
 73
     3
  0
LINE
  5
4B
330
45D
100
AcDbEntity
  8
SPEC
  6
Continuous
 62
     7
100
AcDbLine
 10
-1649.999999999587
 20
2467.104484999381
 30
0.0
 11
1299.999999999675
 21
2467.104484999381
 31
0.0
  0
LINE
  5
4C
330
45D
100
AcDbEntity
  8
SPEC
  6
Continuous
 62
     7
100
AcDbLine
 10
-1649.999999999587
 20
2392.1044849994
 30
0.0
 11
1299.999999999675
 21
2392.1044849994
 31
0.0
  0
LINE
  5
4D
330
45D
100
AcDbEntity
  8
SPEC
  6
Continuous
 62
     7
100
AcDbLine
 10
-1649.999999999587
 20
2467.104484999381
 30
0.0
 11
-1649.999999999587
 21
1342.104484999662
 31
0.0
  0
TEXT
  5
4E
330
45D
100
AcDbEntity
  8
SPEC
 62
     7
100
AcDbText
 10
-1624.999999999593
 20
2494.969884999374
 30
0.0
 40
48.86523437498778
  1
仕様
 41
0.7
 11
-1624.999999999593
 21
2543.835119374362
 31
0.0
100
AcDbText
 73
     3
  0
LINE
  5
4F
330
45D
100
AcDbEntity
  8
SPEC
  6
Continuous
 62
     7
100
AcDbLine
 10
-825.0
 20
2467.104484999381
 30
0.0
 11
-825.0
 21
1342.104484999662
 31
0.0
  0
LINE
  5
50
330
45D
100
AcDbEntity
  8
SPEC
  6
Continuous
 62
     7
100
AcDbLine
 10
1299.999999999675
 20
2467.104484999381
 30
0.0
 11
1299.999999999675
 21
1342.104484999662
 31
0.0
  0
TEXT
  5
51
330
45D
100
AcDbEntity
  8
SPEC
 62
     7
100
AcDbText
 10
-1631.999999999592
 20
2407.862840554953
 30
0.0
 40
38.00629340276829
  1
形式
 41
0.7
 11
-1631.999999999592
 21
2445.869133957721
 31
0.0
100
AcDbText
 73
     3
  0
LINE
  5
52
330
45D
100
AcDbEntity
  8
SPEC
  6
Continuous
 62
     7
100
AcDbLine
 10
-1649.999999999587
 20
2317.104484999419
 30
0.0
 11
1299.999999999675
 21
2317.104484999419
 31
0.0
  0
LINE
  5
53
330
45D
100
AcDbEntity
  8
SPEC
  6
Continuous
 62
     7
100
AcDbLine
 10
-1649.999999999587
 20
2242.104484999438
 30
0.0
 11
1299.999999999675
 21
2242.104484999438
 31
0.0
  0
LINE
  5
54
330
45D
100
AcDbEntity
  8
SPEC
  6
Continuous
 62
     7
100
AcDbLine
 10
-1649.999999999587
 20
2167.104484999457
 30
0.0
 11
1299.999999999675
 21
2167.104484999457
 31
0.0
  0
TEXT
  5
55
330
45D
100
AcDbEntity
  8
SPEC
 62
     7
100
AcDbText
 10
-807.0000000000044
 20
2407.862840554953
 30
0.0
 40
38.00629340276829
  1
ステージモニター
 41
0.7
 11
-807.0000000000044
 21
2445.869133957721
 31
0.0
100
AcDbText
 73
     3
  0
TEXT
  5
56
330
45D
100
AcDbEntity
  8
SPEC
 62
     7
100
AcDbText
 10
-1631.999999999591
 20
2257.862840554985
 30
0.0
 40
38.00629340277778
  1
周波数レンジ(-10dB)
 41
0.7
 11
-1631.999999999591
 21
2295.869133957763
 31
0.0
100
AcDbText
 73
     3
  0
TEXT
  5
57
330
45D
100
AcDbEntity
  8
SPEC
 62
     7
100
AcDbText
 10
-1631.999999999591
 20
2332.862840554966
 30
0.0
 40
38.00629340277778
  1
駆動方式
 41
0.7
 11
-1631.999999999591
 21
2370.869133957743
 31
0.0
100
AcDbText
 73
     3
  0
TEXT
  5
58
330
45D
100
AcDbEntity
  8
SPEC
 62
     7
100
AcDbText
 10
-1631.999999999591
 20
2182.862840555003
 30
0.0
 40
38.00629340277778
  1
指向角度(水平×垂直)
 41
0.7
 11
-1631.999999999591
 21
2220.869133957781
 31
0.0
100
AcDbText
 73
     3
  0
TEXT
  5
59
330
45D
100
AcDbEntity
  8
SPEC
 62
     7
100
AcDbText
 10
-1631.999999999591
 20
2107.862840555022
 30
0.0
 40
38.00629340277778
  1
最大音圧レベル
 41
0.7
 11
-1631.999999999591
 21
2145.8691339578
 31
0.0
100
AcDbText
 73
     3
  0
TEXT
  5
5A
330
45D
100
AcDbEntity
  8
SPEC
 62
     7
100
AcDbText
 10
-807.0000000000044
 20
2257.862840554985
 30
0.0
 40
38.00629340277778
  1
55Hz～19.5kHz
 41
0.7
 11
-807.0000000000044
 21
2295.869133957763
 31
0.0
100
AcDbText
 73
     3
  0
TEXT
  5
5B
330
45D
100
AcDbEntity
  8
SPEC
 62
     7
100
AcDbText
 10
-807.0000000000044
 20
2332.862840554966
 30
0.0
 40
38.00629340277778
  1
パッシブ/バイアンプ
 41
0.7
 11
-807.0000000000044
 21
2370.869133957743
 31
0.0
100
AcDbText
 73
     3
  0
TEXT
  5
5C
330
45D
100
AcDbEntity
  8
SPEC
 62
     7
100
AcDbText
 10
-807.0000000000044
 20
2182.862840555003
 30
0.0
 40
38.00629340277778
  1
60°×60°
 41
0.7
 11
-807.0000000000044
 21
2220.869133957781
 31
0.0
100
AcDbText
 73
     3
  0
TEXT
  5
5D
330
45D
100
AcDbEntity
  8
SPEC
 62
     7
100
AcDbText
 10
-807.0000000000044
 20
2107.862840555022
 30
0.0
 40
38.00629340277778
  1
136dB SPL(Preset:VTX M20 FR)
 41
0.7
 11
-807.0000000000044
 21
2145.8691339578
 31
0.0
100
AcDbText
 73
     3
  0
LINE
  5
5E
330
45D
100
AcDbEntity
  8
SPEC
  6
Continuous
 62
     7
100
AcDbLine
 10
-1649.999999999587
 20
2092.104484999475
 30
0.0
 11
1299.999999999675
 21
2092.104484999475
 31
0.0
  0
LINE
  5
5F
330
45D
100
AcDbEntity
  8
SPEC
  6
Continuous
 62
     7
100
AcDbLine
 10
-1137.5
 20
2017.104484999494
 30
0.0
 11
1299.999999999675
 21
2017.104484999494
 31
0.0
  0
LINE
  5
60
330
45D
100
AcDbEntity
  8
SPEC
  6
Continuous
 62
     7
100
AcDbLine
 10
-1649.999999999587
 20
1942.104484999513
 30
0.0
 11
1299.999999999675
 21
1942.104484999513
 31
0.0
  0
LINE
  5
61
330
45D
100
AcDbEntity
  8
SPEC
  6
Continuous
 62
     7
100
AcDbLine
 10
-1137.5
 20
1867.104484999531
 30
0.0
 11
1299.999999999675
 21
1867.104484999531
 31
0.0
  0
LINE
  5
62
330
45D
100
AcDbEntity
  8
SPEC
  6
Continuous
 62
     7
100
AcDbLine
 10
-1649.999999999587
 20
1792.10448499955
 30
0.0
 11
1299.999999999675
 21
1792.10448499955
 31
0.0
  0
LINE
  5
63
330
45D
100
AcDbEntity
  8
SPEC
  6
Continuous
 62
     7
100
AcDbLine
 10
-1137.5
 20
1717.104484999569
 30
0.0
 11
1299.999999999675
 21
1717.104484999569
 31
0.0
  0
TEXT
  5
64
330
45D
100
AcDbEntity
  8
SPEC
 62
     7
100
AcDbText
 10
-1631.999999999591
 20
2032.86284055504
 30
0.0
 40
38.00629340277778
  1
公称インピーダンス
 41
0.7
 11
-1631.999999999591
 21
2070.869133957818
 31
0.0
100
AcDbText
 73
     3
  0
TEXT
  5
65
330
45D
100
AcDbEntity
  8
SPEC
 62
     7
100
AcDbText
 10
-1631.999999999591
 20
1882.862840555078
 30
0.0
 40
38.00629340277778
  1
許容入力 ※
 41
0.7
 11
-1631.999999999591
 21
1920.869133957856
 31
0.0
100
AcDbText
 73
     3
  0
TEXT
  5
66
330
45D
100
AcDbEntity
  8
SPEC
 62
     7
100
AcDbText
 10
-1631.999999999591
 20
1732.862840555116
 30
0.0
 40
38.00629340277778
  1
ドライバー構成^I
 41
0.7
 11
-1631.999999999591
 21
1770.869133957893
 31
0.0
100
AcDbText
 73
     3
  0
TEXT
  5
67
330
45D
100
AcDbEntity
  8
SPEC
 62
     7
100
AcDbText
 10
-1119.500000000004
 20
1957.862840555059
 30
0.0
 40
38.00629340277778
  1
バイアンプ
 41
0.7
 11
-1119.500000000004
 21
1995.869133957836
 31
0.0
100
AcDbText
 73
     3
  0
TEXT
  5
68
330
45D
100
AcDbEntity
  8
SPEC
 62
     7
100
AcDbText
 10
-807.0000000000044
 20
1882.862840555078
 30
0.0
 40
38.00629340277778
  1
1,250W(連続)
 41
0.7
 11
-807.0000000000044
 21
1920.869133957856
 31
0.0
100
AcDbText
 73
     3
  0
TEXT
  5
69
330
45D
100
AcDbEntity
  8
SPEC
 62
     7
100
AcDbText
 10
-807.0000000000044
 20
1732.862840555116
 30
0.0
 40
38.00629340277778
  1
2261H(10インチ(254mm))×2
 41
0.7
 11
-807.0000000000044
 21
1770.869133957893
 31
0.0
100
AcDbText
 73
     3
  0
TEXT
  5
6A
330
45D
100
AcDbEntity
  8
SPEC
 62
     7
100
AcDbText
 10
-1119.500000000004
 20
2032.86284055504
 30
0.0
 40
38.00629340277778
  1
パッシブ
 41
0.7
 11
-1119.500000000004
 21
2070.869133957818
 31
0.0
100
AcDbText
 73
     3
  0
TEXT
  5
6B
330
45D
100
AcDbEntity
  8
SPEC
 62
     7
100
AcDbText
 10
-807.0000000000044
 20
1807.862840555097
 30
0.0
 40
38.00629340277778
  1
LF:1,250W(連続)、HF:100W(連続)
 41
0.7
 11
-807.0000000000044
 21
1845.869133957874
 31
0.0
100
AcDbText
 73
     3
  0
LINE
  5
6C
330
45D
100
AcDbEntity
  8
SPEC
  6
Continuous
 62
     7
100
AcDbLine
 10
-1137.5
 20
2092.104484999475
 30
0.0
 11
-1137.5
 21
1642.104484999587
 31
0.0
  0
TEXT
  5
6D
330
45D
100
AcDbEntity
  8
SPEC
 62
     7
100
AcDbText
 10
-807.0000000000044
 20
1957.862840555059
 30
0.0
 40
38.00629340277778
  1
LF:4Ω、HF:8Ω
 41
0.7
 11
-807.0000000000044
 21
1995.869133957836
 31
0.0
100
AcDbText
 73
     3
  0
TEXT
  5
6E
330
45D
100
AcDbEntity
  8
SPEC
 62
     7
100
AcDbText
 10
-807.0000000000044
 20
2032.86284055504
 30
0.0
 40
38.00629340277778
  1
4Ω
 41
0.7
 11
-807.0000000000044
 21
2070.869133957818
 31
0.0
100
AcDbText
 73
     3
  0
TEXT
  5
6F
330
45D
100
AcDbEntity
  8
SPEC
 62
     7
100
AcDbText
 10
-1119.500000000004
 20
1807.862840555096
 30
0.0
 40
38.00629340277778
  1
バイアンプ
 41
0.7
 11
-1119.500000000004
 21
1845.869133957874
 31
0.0
100
AcDbText
 73
     3
  0
TEXT
  5
70
330
45D
100
AcDbEntity
  8
SPEC
 62
     7
100
AcDbText
 10
-1119.500000000004
 20
1882.862840555078
 30
0.0
 40
38.00629340277778
  1
パッシブ
 41
0.7
 11
-1119.500000000004
 21
1920.869133957856
 31
0.0
100
AcDbText
 73
     3
  0
TEXT
  5
71
330
45D
100
AcDbEntity
  8
SPEC
 62
     7
100
AcDbText
 10
-807.0000000000044
 20
1657.862840555134
 30
0.0
 40
38.00629340277778
  1
D2430H(3インチ(76mm))、D2ドライバー
 41
0.7
 11
-807.0000000000044
 21
1695.869133957911
 31
0.0
100
AcDbText
 73
     3
  0
TEXT
  5
72
330
45D
100
AcDbEntity
  8
SPEC
 62
     7
100
AcDbText
 10
-1119.500000000004
 20
1657.862840555134
 30
0.0
 40
38.00629340277778
  1
HF
 41
0.7
 11
-1119.500000000004
 21
1695.869133957911
 31
0.0
100
AcDbText
 73
     3
  0
TEXT
  5
73
330
45D
100
AcDbEntity
  8
SPEC
 62
     7
100
AcDbText
 10
-1119.500000000004
 20
1732.862840555116
 30
0.0
 40
38.00629340277778
  1
LF
 41
0.7
 11
-1119.500000000004
 21
1770.869133957893
 31
0.0
100
AcDbText
 73
     3
  0
LINE
  5
74
330
45D
100
AcDbEntity
  8
SPEC
  6
Continuous
 62
     7
100
AcDbLine
 10
-1649.999999999587
 20
1342.104484999662
 30
0.0
 11
1299.999999999675
 21
1342.104484999662
 31
0.0
  0
LINE
  5
75
330
45D
100
AcDbEntity
  8
SPEC
  6
Continuous
 62
     7
100
AcDbLine
 10
-1649.999999999587
 20
1417.104484999643
 30
0.0
 11
1299.999999999675
 21
1417.104484999643
 31
0.0
  0
TEXT
  5
76
330
45D
100
AcDbEntity
  8
SPEC
 62
     7
100
AcDbText
 10
-1631.999999999592
 20
1432.862840555195
 30
0.0
 40
38.00629340276829
  1
寸法(W×H×D)
 41
0.7
 11
-1631.999999999592
 21
1470.869133957964
 31
0.0
100
AcDbText
 73
     3
  0
TEXT
  5
77
330
45D
100
AcDbEntity
  8
SPEC
 62
     7
100
AcDbText
 10
-1631.999999999592
 20
1357.862840555214
 30
0.0
 40
38.00629340276829
  1
質量
 41
0.7
 11
-1631.999999999592
 21
1395.869133957982
 31
0.0
100
AcDbText
 73
     3
  0
TEXT
  5
78
330
45D
100
AcDbEntity
  8
SPEC
 62
     7
100
AcDbText
 10
-807.0000000000044
 20
1432.862840555195
 30
0.0
 40
38.00629340276829
  1
575×342×516mm(除突起部)
 41
0.7
 11
-807.0000000000044
 21
1470.869133957964
 31
0.0
100
AcDbText
 73
     3
  0
TEXT
  5
79
330
45D
100
AcDbEntity
  8
SPEC
 62
     7
100
AcDbText
 10
-807.0000000000044
 20
1357.862840555214
 30
0.0
 40
38.00629340276829
  1
24kg
 41
0.7
 11
-807.0000000000044
 21
1395.869133957982
 31
0.0
100
AcDbText
 73
     3
  0
LINE
  5
7A
330
45D
100
AcDbEntity
  8
SPEC
  6
Continuous
 62
     7
100
AcDbLine
 10
-1649.999999999587
 20
1642.104484999587
 30
0.0
 11
1299.999999999675
 21
1642.104484999587
 31
0.0
  0
LINE
  5
7B
330
45D
100
AcDbEntity
  8
SPEC
  6
Continuous
 62
     7
100
AcDbLine
 10
-1649.999999999587
 20
1567.104484999606
 30
0.0
 11
1299.999999999675
 21
1567.104484999606
 31
0.0
  0
LINE
  5
7C
330
45D
100
AcDbEntity
  8
SPEC
  6
Continuous
 62
     7
100
AcDbLine
 10
-1649.999999999587
 20
1492.104484999624
 30
0.0
 11
1299.999999999675
 21
1492.104484999624
 31
0.0
  0
TEXT
  5
7D
330
45D
100
AcDbEntity
  8
SPEC
 62
     7
100
AcDbText
 10
-1631.999999999591
 20
1582.862840555153
 30
0.0
 40
38.00629340277778
  1
入力端子
 41
0.7
 11
-1631.999999999591
 21
1620.869133957931
 31
0.0
100
AcDbText
 73
     3
  0
TEXT
  5
7E
330
45D
100
AcDbEntity
  8
SPEC
 62
     7
100
AcDbText
 10
-1631.999999999591
 20
1507.862840555171
 30
0.0
 40
38.00629340277778
  1
エンクロージャー
 41
0.7
 11
-1631.999999999591
 21
1545.869133957949
 31
0.0
100
AcDbText
 73
     3
  0
TEXT
  5
7F
330
45D
100
AcDbEntity
  8
SPEC
 62
     7
100
AcDbText
 10
-1637.5
 20
1269.719999999962
 30
0.0
 40
38.00629340277778
  1
※ IECノイズ、クレストファクター6dB、100時間
 41
0.7
 11
-1637.5
 21
1307.72629340274
 31
0.0
100
AcDbText
 73
     3
  0
TEXT
  5
80
330
45D
100
AcDbEntity
  8
SPEC
 62
     7
100
AcDbText
 10
-807.0000000000044
 20
1582.862840555153
 30
0.0
 40
38.00629340277778
  1
4Pスピコン×4(両端に2個ずつ装備)
 41
0.7
 11
-807.0000000000044
 21
1620.869133957931
 31
0.0
100
AcDbText
 73
     3
  0
TEXT
  5
81
330
45D
100
AcDbEntity
  8
SPEC
 62
     7
100
AcDbText
 10
-807.0000000000044
 20
1507.862840555171
 30
0.0
 40
38.00629340277778
  1
黒
 41
0.7
 11
-807.0000000000044
 21
1545.869133957949
 31
0.0
100
AcDbText
 73
     3
  0
TEXT
  5
82
330
45D
100
AcDbEntity
  8
DIMNSIONS
 62
     7
100
AcDbText
 10
-399.9999999998999
 20
-2287.505714999429
 30
0.0
 40
48.86523437498778
  1
(単位：mm)
 41
0.7
 11
-399.9999999998999
 21
-2238.640480624441
 31
0.0
100
AcDbText
 73
     3
  0
LINE
  5
83
330
45D
100
AcDbEntity
  8
DIMNSIONS
  6
Continuous
 62
     7
100
AcDbLine
 10
-787.528
 20
-1734.0
 30
0.0
 11
-787.528
 21
-1870.0
 31
0.0
  0
LINE
  5
84
330
45D
100
AcDbEntity
  8
DIMNSIONS
  6
Continuous
 62
     7
100
AcDbLine
 10
-212.472
 20
-1734.0
 30
0.0
 11
-212.472
 21
-1870.0
 31
0.0
  0
LINE
  5
85
330
45D
100
AcDbEntity
  8
DIMNSIONS
  6
Continuous
 62
     7
100
AcDbLine
 10
-787.528
 20
-1850.0
 30
0.0
 11
-212.472
 21
-1850.0
 31
0.0
  0
LINE
  5
86
330
45D
100
AcDbEntity
  8
DIMNSIONS
  6
Continuous
 62
     7
100
AcDbLine
 10
-787.528
 20
-1850.0
 30
0.0
 11
-737.515548828125
 21
-1836.599204096995
 31
0.0
  0
LINE
  5
87
330
45D
100
AcDbEntity
  8
DIMNSIONS
  6
Continuous
 62
     7
100
AcDbLine
 10
-787.528
 20
-1850.0
 30
0.0
 11
-737.515548828125
 21
-1863.400795903005
 31
0.0
  0
LINE
  5
88
330
45D
100
AcDbEntity
  8
DIMNSIONS
  6
Continuous
 62
     7
100
AcDbLine
 10
-212.472
 20
-1850.0
 30
0.0
 11
-262.484451171875
 21
-1863.400795903005
 31
0.0
  0
LINE
  5
89
330
45D
100
AcDbEntity
  8
DIMNSIONS
  6
Continuous
 62
     7
100
AcDbLine
 10
-212.472
 20
-1850.0
 30
0.0
 11
-262.484451171875
 21
-1836.599204096995
 31
0.0
  0
TEXT
  5
8A
330
45D
100
AcDbEntity
  8
DIMNSIONS
 62
     7
100
AcDbText
 10
-552.9166666666665
 20
-1832.622222222222
 30
0.0
 40
54.29470486111111
  1
575
 41
0.7
 11
-552.9166666666665
 21
-1778.327517361111
 31
0.0
100
AcDbText
 73
     3
  0
LINE
  5
8B
330
45D
100
AcDbEntity
  8
DIMNSIONS
  6
Continuous
 62
     7
100
AcDbLine
 10
-821.5279999999999
 20
-1700.0
 30
0.0
 11
-970.0
 21
-1700.0
 31
0.0
  0
LINE
  5
8C
330
45D
100
AcDbEntity
  8
DIMNSIONS
  6
Continuous
 62
     7
100
AcDbLine
 10
-821.5279999999999
 20
-1358.454970185852
 30
0.0
 11
-970.0
 21
-1358.454970185852
 31
0.0
  0
LINE
  5
8D
330
45D
100
AcDbEntity
  8
DIMNSIONS
  6
Continuous
 62
     7
100
AcDbLine
 10
-950.0
 20
-1700.0
 30
0.0
 11
-950.0
 21
-1358.454970185852
 31
0.0
  0
LINE
  5
8E
330
45D
100
AcDbEntity
  8
DIMNSIONS
  6
Continuous
 62
     7
100
AcDbLine
 10
-950.0
 20
-1700.0
 30
0.0
 11
-963.4007959030048
 21
-1649.987548828125
 31
0.0
  0
LINE
  5
8F
330
45D
100
AcDbEntity
  8
DIMNSIONS
  6
Continuous
 62
     7
100
AcDbLine
 10
-950.0
 20
-1700.0
 30
0.0
 11
-936.5992040969953
 21
-1649.987548828125
 31
0.0
  0
LINE
  5
90
330
45D
100
AcDbEntity
  8
DIMNSIONS
  6
Continuous
 62
     7
100
AcDbLine
 10
-950.0
 20
-1358.454970185852
 30
0.0
 11
-936.5992040969953
 21
-1408.467421357727
 31
0.0
  0
LINE
  5
91
330
45D
100
AcDbEntity
  8
DIMNSIONS
  6
Continuous
 62
     7
100
AcDbLine
 10
-950.0
 20
-1358.454970185852
 30
0.0
 11
-963.4007959030048
 21
-1408.467421357727
 31
0.0
  0
TEXT
  5
92
330
45D
100
AcDbEntity
  8
DIMNSIONS
 62
     7
100
AcDbText
 10
-967.3777777777782
 20
-1582.144151759593
 30
0.0
 40
54.29470486111111
  1
342
 50
90.0
 41
0.7
 11
-1021.672482638889
 21
-1582.144151759593
 31
0.0
100
AcDbText
 73
     3
  0
LINE
  5
93
330
45D
100
AcDbEntity
  8
DIMNSIONS
  6
Continuous
 62
     7
100
AcDbLine
 10
-821.1327455792011
 20
-1250.0
 30
0.0
 11
-970.0
 21
-1250.0
 31
0.0
  0
LINE
  5
94
330
45D
100
AcDbEntity
  8
DIMNSIONS
  6
Continuous
 62
     7
100
AcDbLine
 10
-821.1327455792011
 20
-734.2010983766887
 30
0.0
 11
-970.0
 21
-734.2010983766887
 31
0.0
  0
LINE
  5
95
330
45D
100
AcDbEntity
  8
DIMNSIONS
  6
Continuous
 62
     7
100
AcDbLine
 10
-950.0
 20
-1250.0
 30
0.0
 11
-950.0
 21
-734.2010983766887
 31
0.0
  0
LINE
  5
96
330
45D
100
AcDbEntity
  8
DIMNSIONS
  6
Continuous
 62
     7
100
AcDbLine
 10
-950.0
 20
-1250.0
 30
0.0
 11
-963.4007959030048
 21
-1199.987548828125
 31
0.0
  0
LINE
  5
97
330
45D
100
AcDbEntity
  8
DIMNSIONS
  6
Continuous
 62
     7
100
AcDbLine
 10
-950.0
 20
-1250.0
 30
0.0
 11
-936.5992040969953
 21
-1199.987548828125
 31
0.0
  0
LINE
  5
98
330
45D
100
AcDbEntity
  8
DIMNSIONS
  6
Continuous
 62
     7
100
AcDbLine
 10
-950.0
 20
-734.2010983766887
 30
0.0
 11
-936.5992040969953
 21
-784.2135495485635
 31
0.0
  0
LINE
  5
99
330
45D
100
AcDbEntity
  8
DIMNSIONS
  6
Continuous
 62
     7
100
AcDbLine
 10
-950.0
 20
-734.2010983766887
 30
0.0
 11
-963.4007959030048
 21
-784.2135495485635
 31
0.0
  0
TEXT
  5
9A
330
45D
100
AcDbEntity
  8
DIMNSIONS
 62
     7
100
AcDbText
 10
-967.3777777777782
 20
-1045.017215855011
 30
0.0
 40
54.29470486111111
  1
516
 50
90.0
 41
0.7
 11
-1021.672482638889
 21
-1045.017215855011
 31
0.0
100
AcDbText
 73
     3
  0
LINE
  5
9B
330
45D
100
AcDbEntity
  8
DIMNSIONS
  6
Continuous
 62
     7
100
AcDbLine
 10
-821.5279999999999
 20
-1700.0
 30
0.0
 11
-970.0
 21
-1700.0
 31
0.0
  0
LINE
  5
9C
330
45D
100
AcDbEntity
  8
DIMNSIONS
  6
Continuous
 62
     7
100
AcDbLine
 10
-782.6505587495867
 20
-1703.0
 30
0.0
 11
-970.0
 21
-1703.0
 31
0.0
  0
LINE
  5
9D
330
45D
100
AcDbEntity
  8
DIMNSIONS
  6
Continuous
 62
     7
100
AcDbLine
 10
-950.0
 20
-1703.0
 30
0.0
 11
-950.0
 21
-1700.0
 31
0.0
  0
LINE
  5
9E
330
45D
100
AcDbEntity
  8
DIMNSIONS
  6
Continuous
 62
     7
100
AcDbLine
 10
-950.0
 20
-1700.0
 30
0.0
 11
-950.0
 21
-1600.0
 31
0.0
  0
LINE
  5
9F
330
45D
100
AcDbEntity
  8
DIMNSIONS
  6
Continuous
 62
     7
100
AcDbLine
 10
-950.0
 20
-1700.0
 30
0.0
 11
-963.4007959030048
 21
-1649.987548828125
 31
0.0
  0
LINE
  5
A0
330
45D
100
AcDbEntity
  8
DIMNSIONS
  6
Continuous
 62
     7
100
AcDbLine
 10
-950.0
 20
-1700.0
 30
0.0
 11
-936.5992040969953
 21
-1649.987548828125
 31
0.0
  0
LINE
  5
A1
330
45D
100
AcDbEntity
  8
DIMNSIONS
  6
Continuous
 62
     7
100
AcDbLine
 10
-950.0
 20
-1703.0
 30
0.0
 11
-950.0
 21
-1842.645833333333
 31
0.0
  0
LINE
  5
A2
330
45D
100
AcDbEntity
  8
DIMNSIONS
  6
Continuous
 62
     7
100
AcDbLine
 10
-950.0
 20
-1703.0
 30
0.0
 11
-936.5992040969953
 21
-1753.012451171875
 31
0.0
  0
LINE
  5
A3
330
45D
100
AcDbEntity
  8
DIMNSIONS
  6
Continuous
 62
     7
100
AcDbLine
 10
-950.0
 20
-1703.0
 30
0.0
 11
-963.4007959030048
 21
-1753.012451171875
 31
0.0
  0
TEXT
  5
A4
330
45D
100
AcDbEntity
  8
DIMNSIONS
 62
     7
100
AcDbText
 10
-967.3777777777782
 20
-1842.645833333333
 30
0.0
 40
54.29470486111111
  1
3.0
 50
90.0
 41
0.7
 11
-1021.672482638889
 21
-1842.645833333333
 31
0.0
100
AcDbText
 73
     3
  0
LINE
  5
A5
330
45D
100
AcDbEntity
  8
DATA
  6
Continuous
 62
     7
100
AcDbLine
 10
500.0000000001001
 20
-1250.0
 30
0.0
 11
1299.9999999999
 21
-1250.0
 31
0.0
  0
TEXT
  5
A6
330
45D
100
AcDbEntity
  8
DATA
 62
     7
100
AcDbText
 10
-1749.999999999562
 20
-2375.369959443852
 30
0.0
 40
38.00629340276829
  1
※仕様及び外観は予告なく変更されることがあります。
 41
0.7
 11
-1749.999999999562
 21
-2337.363666041084
 31
0.0
100
AcDbText
 73
     3
  0
TEXT
  5
A7
330
45D
100
AcDbEntity
  8
DATA
 62
     7
100
AcDbText
 10
-1749.999999999562
 20
-2424.758848332729
 30
0.0
 40
38.00629340276829
  1
　また、同一商品でも若干の個体差があることがあります。ご了承ください。
 41
0.7
 11
-1749.999999999562
 21
-2386.752554929961
 31
0.0
100
AcDbText
 73
     3
  0
TEXT
  5
A8
330
45D
100
AcDbEntity
  8
DATA
 62
     7
100
AcDbText
 10
652.9590928819445
 20
-1217.14735243057
 30
0.0
 40
54.29470486111111
  1
コネクターパネル拡大図
 41
0.7
 72
     1
 11
900.0
 21
-1190.000000000015
 31
0.0
100
AcDbText
 73
     2
  0
LINE
  5
A9
330
45D
100
AcDbEntity
  8
DATA
  6
Continuous
 62
     7
100
AcDbLine
 10
-656.2020854997181
 20
-1703.0
 30
0.0
 11
-742.6505587495868
 21
-1703.0
 31
0.0
  0
LINE
  5
AA
330
45D
100
AcDbEntity
  8
DATA
  6
Continuous
 62
     7
100
AcDbLine
 10
-654.7020854997181
 20
-1700.0
 30
0.0
 11
-654.7020854997181
 21
-1701.5
 31
0.0
  0
LINE
  5
AB
330
45D
100
AcDbEntity
  8
DATA
  6
Continuous
 62
     7
100
AcDbLine
 10
-257.3494412504124
 20
-1703.0
 30
0.0
 11
-343.8017109636412
 21
-1703.0
 31
0.0
  0
LINE
  5
AC
330
45D
100
AcDbEntity
  8
DATA
  6
Continuous
 62
     7
100
AcDbLine
 10
-345.3017109636412
 20
-1700.0
 30
0.0
 11
-345.3017109636412
 21
-1701.5
 31
0.0
  0
TEXT
  5
AD
330
45D
100
AcDbEntity
  8
DATA
 62
     7
100
AcDbText
 10
949.9999999997617
 20
-2237.356814999443
 30
0.0
 40
38.00629340276829
  1
ステージモニター
 41
0.7
 11
949.9999999997617
 21
-2199.350521596674
 31
0.0
100
AcDbText
 73
     3
  0
TEXT
  5
AE
330
45D
100
AcDbEntity
  8
DATA
 62
     7
100
AcDbText
 10
999.9999999997495
 20
-2310.277714999424
 30
0.0
 40
48.86523437498778
  1
VTX-M20
 41
0.7
 11
999.9999999997495
 21
-2261.412480624436
 31
0.0
100
AcDbText
 73
     3
  0
TEXT
  5
AF
330
45D
100
AcDbEntity
  8
DATA
 62
     7
100
AcDbText
 10
999.9999999997495
 20
-2165.27771499946
 30
0.0
 40
48.86523437498778
  1
JBL PROFESSIONAL
 41
0.7
 11
999.9999999997495
 21
-2116.412480624472
 31
0.0
100
AcDbText
 73
     3
  0
LINE
  5
B0
330
45D
100
AcDbEntity
  8
DATA
  6
Continuous
 62
     7
100
AcDbLine
 10
-218.472
 20
-1358.454970185852
 30
0.0
 11
-781.528
 21
-1358.454970185852
 31
0.0
  0
LINE
  5
B1
330
45D
100
AcDbEntity
  8
DATA
  6
Continuous
 62
     7
100
AcDbLine
 10
-781.528
 20
-1700.0
 30
0.0
 11
-218.472
 21
-1700.0
 31
0.0
  0
LINE
  5
B2
330
45D
100
AcDbEntity
  8
DATA
  6
Continuous
 62
     7
100
AcDbLine
 10
-787.528
 20
-1364.454970185852
 30
0.0
 11
-787.528
 21
-1694.0
 31
0.0
  0
LINE
  5
B3
330
45D
100
AcDbEntity
  8
DATA
  6
Continuous
 62
     7
100
AcDbLine
 10
-776.3094507680758
 20
-1700.0
 30
0.0
 11
-776.3094507680758
 21
-1358.454970185852
 31
0.0
  0
LINE
  5
B4
330
45D
100
AcDbEntity
  8
DATA
  6
Continuous
 62
     7
100
AcDbLine
 10
-218.8729491158408
 20
-1250.0
 30
0.0
 11
-781.132745579201
 21
-1250.0
 31
0.0
  0
LINE
  5
B5
330
45D
100
AcDbEntity
  8
DATA
  6
Continuous
 62
     7
100
AcDbLine
 10
-218.8729491158408
 20
-734.2010983766887
 30
0.0
 11
-781.132745579201
 21
-734.2010983766887
 31
0.0
  0
LINE
  5
B6
330
45D
100
AcDbEntity
  8
DATA
  6
Continuous
 62
     7
100
AcDbLine
 10
-787.5327455792011
 20
-740.6010983766886
 30
0.0
 11
-787.5327455792011
 21
-1243.6
 31
0.0
  0
LINE
  5
B7
330
45D
100
AcDbEntity
  8
DATA
  6
Continuous
 62
     7
100
AcDbLine
 10
-776.3103998839161
 20
-1250.0
 30
0.0
 11
-776.3103998839161
 21
-734.2010983766887
 31
0.0
  0
ARC
  5
B8
330
45D
100
AcDbEntity
  8
DATA
  6
Continuous
 62
     7
100
AcDbCircle
 10
-781.132745579201
 20
-740.6010983766886
 30
0.0
 40
6.40000000000009
100
AcDbArc
 50
90.0
 51
179.999999999999
  0
ARC
  5
B9
330
45D
100
AcDbEntity
  8
DATA
  6
Continuous
 62
     7
100
AcDbCircle
 10
-781.1327455792008
 20
-1243.6
 30
0.0
 40
6.40000000000009
100
AcDbArc
 50
180.0
 51
269.999999999999
  0
ARC
  5
BA
330
45D
100
AcDbEntity
  8
DATA
  6
Continuous
 62
     7
100
AcDbCircle
 10
-781.528
 20
-1364.454970185852
 30
0.0
 40
6.0
100
AcDbArc
 50
90.0
 51
180.0
  0
ARC
  5
BB
330
45D
100
AcDbEntity
  8
DATA
  6
Continuous
 62
     7
100
AcDbCircle
 10
-781.528
 20
-1694.0
 30
0.0
 40
6.0
100
AcDbArc
 50
180.0
 51
270.0
  0
LINE
  5
BC
330
45D
100
AcDbEntity
  8
DATA
  6
Continuous
 62
     7
100
AcDbLine
 10
-212.472
 20
-1364.454970185852
 30
0.0
 11
-212.472
 21
-1694.0
 31
0.0
  0
LINE
  5
BD
330
45D
100
AcDbEntity
  8
DATA
  6
Continuous
 62
     7
100
AcDbLine
 10
-223.3754427729566
 20
-1700.0
 30
0.0
 11
-223.3754427729566
 21
-1358.454970185852
 31
0.0
  0
LINE
  5
BE
330
45D
100
AcDbEntity
  8
DATA
  6
Continuous
 62
     7
100
AcDbLine
 10
-212.4729491158408
 20
-740.6010983766886
 30
0.0
 11
-212.4729491158408
 21
-1243.6
 31
0.0
  0
LINE
  5
BF
330
45D
100
AcDbEntity
  8
DATA
  6
Continuous
 62
     7
100
AcDbLine
 10
-223.3744936571159
 20
-1250.0
 30
0.0
 11
-223.3744936571159
 21
-734.2010983766887
 31
0.0
  0
ARC
  5
C0
330
45D
100
AcDbEntity
  8
DATA
  6
Continuous
 62
     7
100
AcDbCircle
 10
-218.8729491158408
 20
-740.6010983766886
 30
0.0
 40
6.399999999999976
100
AcDbArc
 50
0.0
 51
90.0
  0
ARC
  5
C1
330
45D
100
AcDbEntity
  8
DATA
  6
Continuous
 62
     7
100
AcDbCircle
 10
-218.8729491158408
 20
-1243.6
 30
0.0
 40
6.40000000000009
100
AcDbArc
 50
270.0
 51
0.0
  0
ARC
  5
C2
330
45D
100
AcDbEntity
  8
DATA
  6
Continuous
 62
     7
100
AcDbCircle
 10
-218.472
 20
-1364.454970185852
 30
0.0
 40
6.0
100
AcDbArc
 50
0.0
 51
90.0
  0
ARC
  5
C3
330
45D
100
AcDbEntity
  8
DATA
  6
Continuous
 62
     7
100
AcDbCircle
 10
-218.472
 20
-1694.0
 30
0.0
 40
6.0
100
AcDbArc
 50
270.0
 51
0.0
  0
LINE
  5
C4
330
45D
100
AcDbEntity
  8
DATA
  6
Continuous
 62
     7
100
AcDbLine
 10
-751.2072350219523
 20
-734.2010983766887
 30
0.0
 11
-749.9240304059151
 21
-733.8821954543599
 31
0.0
  0
LINE
  5
C5
330
45D
100
AcDbEntity
  8
DATA
  6
Continuous
 62
     7
100
AcDbLine
 10
-747.6803205595301
 20
-733.8821954543599
 30
0.0
 11
-746.7217135608633
 21
-734.2010983766887
 31
0.0
  0
LINE
  5
C6
330
45D
100
AcDbEntity
  8
DATA
  6
Continuous
 62
     7
100
AcDbLine
 10
-585.1252505974644
 20
-734.2010983766887
 30
0.0
 11
-584.1666435987981
 21
-733.8821954543599
 31
0.0
  0
LINE
  5
C7
330
45D
100
AcDbEntity
  8
DATA
  6
Continuous
 62
     7
100
AcDbLine
 10
-581.9229337524129
 20
-733.8821954543599
 30
0.0
 11
-580.6397291363755
 21
-734.2010983766887
 31
0.0
  0
LINE
  5
C8
330
45D
100
AcDbEntity
  8
DATA
  6
Continuous
 62
     7
100
AcDbLine
 10
-419.3678637903468
 20
-734.2010983766887
 30
0.0
 11
-418.0846591743092
 21
-733.8821954543599
 31
0.0
  0
LINE
  5
C9
330
45D
100
AcDbEntity
  8
DATA
  6
Continuous
 62
     7
100
AcDbLine
 10
-415.840949327925
 20
-733.8821954543599
 30
0.0
 11
-414.5577447118876
 21
-734.2010983766887
 31
0.0
  0
LINE
  5
CA
330
45D
100
AcDbEntity
  8
DATA
  6
Continuous
 62
     7
100
AcDbLine
 10
-253.2858793658597
 20
-734.2010983766887
 30
0.0
 11
-252.0026747498214
 21
-733.8821954543599
 31
0.0
  0
LINE
  5
CB
330
45D
100
AcDbEntity
  8
DATA
  6
Continuous
 62
     7
100
AcDbLine
 10
-249.7608631351177
 20
-733.8821954543599
 30
0.0
 11
-248.7965614414097
 21
-734.2010983766887
 31
0.0
  0
LINE
  5
CC
330
45D
100
AcDbEntity
  8
DATA
  6
Continuous
 62
     7
100
AcDbLine
 10
-748.321922867549
 20
-733.8821954543599
 30
0.0
 11
-747.6803205595301
 21
-733.8821954543599
 31
0.0
  0
LINE
  5
CD
330
45D
100
AcDbEntity
  8
DATA
  6
Continuous
 62
     7
100
AcDbLine
 10
-748.321922867549
 20
-734.2010983766887
 30
0.0
 11
-748.321922867549
 21
-733.8821954543599
 31
0.0
  0
LINE
  5
CE
330
45D
100
AcDbEntity
  8
DATA
  6
Continuous
 62
     7
100
AcDbLine
 10
-748.321922867549
 20
-734.2010983766887
 30
0.0
 11
-748.6408257898774
 21
-734.2010983766887
 31
0.0
  0
LINE
  5
CF
330
45D
100
AcDbEntity
  8
DATA
  6
Continuous
 62
     7
100
AcDbLine
 10
-748.6408257898774
 20
-734.2010983766887
 30
0.0
 11
-748.9635251755676
 21
-734.2010983766887
 31
0.0
  0
LINE
  5
D0
330
45D
100
AcDbEntity
  8
DATA
  6
Continuous
 62
     7
100
AcDbLine
 10
-748.9635251755676
 20
-734.2010983766887
 30
0.0
 11
-749.2824280978966
 21
-734.2010983766887
 31
0.0
  0
LINE
  5
D1
330
45D
100
AcDbEntity
  8
DATA
  6
Continuous
 62
     7
100
AcDbLine
 10
-749.2824280978966
 20
-733.8821954543599
 30
0.0
 11
-749.2824280978966
 21
-734.2010983766887
 31
0.0
  0
LINE
  5
D2
330
45D
100
AcDbEntity
  8
DATA
  6
Continuous
 62
     7
100
AcDbLine
 10
-749.6051274835863
 20
-733.8821954543599
 30
0.0
 11
-749.2824280978966
 21
-733.8821954543599
 31
0.0
  0
LINE
  5
D3
330
45D
100
AcDbEntity
  8
DATA
  6
Continuous
 62
     7
100
AcDbLine
 10
-749.9240304059151
 20
-733.8821954543599
 30
0.0
 11
-749.6051274835863
 21
-733.8821954543599
 31
0.0
  0
LINE
  5
D4
330
45D
100
AcDbEntity
  8
DATA
  6
Continuous
 62
     7
100
AcDbLine
 10
-582.2418366747415
 20
-733.8821954543599
 30
0.0
 11
-581.9229337524129
 21
-733.8821954543599
 31
0.0
  0
LINE
  5
D5
330
45D
100
AcDbEntity
  8
DATA
  6
Continuous
 62
     7
100
AcDbLine
 10
-582.5607395970702
 20
-733.8821954543599
 30
0.0
 11
-582.2418366747415
 21
-733.8821954543599
 31
0.0
  0
LINE
  5
D6
330
45D
100
AcDbEntity
  8
DATA
  6
Continuous
 62
     7
100
AcDbLine
 10
-582.5607395970702
 20
-734.2010983766887
 30
0.0
 11
-582.5607395970702
 21
-733.8821954543599
 31
0.0
  0
LINE
  5
D7
330
45D
100
AcDbEntity
  8
DATA
  6
Continuous
 62
     7
100
AcDbLine
 10
-582.5607395970702
 20
-734.2010983766887
 30
0.0
 11
-582.8834389827598
 21
-734.2010983766887
 31
0.0
  0
LINE
  5
D8
330
45D
100
AcDbEntity
  8
DATA
  6
Continuous
 62
     7
100
AcDbLine
 10
-582.8834389827598
 20
-734.2010983766887
 30
0.0
 11
-583.2023419050893
 21
-734.2010983766887
 31
0.0
  0
LINE
  5
D9
330
45D
100
AcDbEntity
  8
DATA
  6
Continuous
 62
     7
100
AcDbLine
 10
-583.2023419050893
 20
-734.2010983766887
 30
0.0
 11
-583.525041290779
 21
-734.2010983766887
 31
0.0
  0
LINE
  5
DA
330
45D
100
AcDbEntity
  8
DATA
  6
Continuous
 62
     7
100
AcDbLine
 10
-583.525041290779
 20
-733.8821954543599
 30
0.0
 11
-583.525041290779
 21
-734.2010983766887
 31
0.0
  0
LINE
  5
DB
330
45D
100
AcDbEntity
  8
DATA
  6
Continuous
 62
     7
100
AcDbLine
 10
-584.1666435987981
 20
-733.8821954543599
 30
0.0
 11
-583.525041290779
 21
-733.8821954543599
 31
0.0
  0
LINE
  5
DC
330
45D
100
AcDbEntity
  8
DATA
  6
Continuous
 62
     7
100
AcDbLine
 10
-416.1598522502536
 20
-733.8821954543599
 30
0.0
 11
-415.840949327925
 21
-733.8821954543599
 31
0.0
  0
LINE
  5
DD
330
45D
100
AcDbEntity
  8
DATA
  6
Continuous
 62
     7
100
AcDbLine
 10
-416.4825516359432
 20
-733.8821954543599
 30
0.0
 11
-416.1598522502536
 21
-733.8821954543599
 31
0.0
  0
LINE
  5
DE
330
45D
100
AcDbEntity
  8
DATA
  6
Continuous
 62
     7
100
AcDbLine
 10
-416.4825516359432
 20
-734.2010983766887
 30
0.0
 11
-416.4825516359432
 21
-733.8821954543599
 31
0.0
  0
LINE
  5
DF
330
45D
100
AcDbEntity
  8
DATA
  6
Continuous
 62
     7
100
AcDbLine
 10
-416.4825516359432
 20
-734.2010983766887
 30
0.0
 11
-416.8014545582727
 21
-734.2010983766887
 31
0.0
  0
LINE
  5
E0
330
45D
100
AcDbEntity
  8
DATA
  6
Continuous
 62
     7
100
AcDbLine
 10
-416.8014545582727
 20
-734.2010983766887
 30
0.0
 11
-417.1241539439624
 21
-734.2010983766887
 31
0.0
  0
LINE
  5
E1
330
45D
100
AcDbEntity
  8
DATA
  6
Continuous
 62
     7
100
AcDbLine
 10
-417.1241539439624
 20
-734.2010983766887
 30
0.0
 11
-417.443056866291
 21
-734.2010983766887
 31
0.0
  0
LINE
  5
E2
330
45D
100
AcDbEntity
  8
DATA
  6
Continuous
 62
     7
100
AcDbLine
 10
-417.443056866291
 20
-733.8821954543599
 30
0.0
 11
-417.443056866291
 21
-734.2010983766887
 31
0.0
  0
LINE
  5
E3
330
45D
100
AcDbEntity
  8
DATA
  6
Continuous
 62
     7
100
AcDbLine
 10
-417.7619597886196
 20
-733.8821954543599
 30
0.0
 11
-417.443056866291
 21
-733.8821954543599
 31
0.0
  0
LINE
  5
E4
330
45D
100
AcDbEntity
  8
DATA
  6
Continuous
 62
     7
100
AcDbLine
 10
-418.0846591743092
 20
-733.8821954543599
 30
0.0
 11
-417.7619597886196
 21
-733.8821954543599
 31
0.0
  0
LINE
  5
E5
330
45D
100
AcDbEntity
  8
DATA
  6
Continuous
 62
     7
100
AcDbLine
 10
-250.4005672114563
 20
-733.8821954543599
 30
0.0
 11
-249.7608631351177
 21
-733.8821954543599
 31
0.0
  0
LINE
  5
E6
330
45D
100
AcDbEntity
  8
DATA
  6
Continuous
 62
     7
100
AcDbLine
 10
-250.4005672114563
 20
-734.2010983766887
 30
0.0
 11
-250.4005672114563
 21
-733.8821954543599
 31
0.0
  0
LINE
  5
E7
330
45D
100
AcDbEntity
  8
DATA
  6
Continuous
 62
     7
100
AcDbLine
 10
-250.4005672114563
 20
-734.2010983766887
 30
0.0
 11
-250.7194701337848
 21
-734.2010983766887
 31
0.0
  0
LINE
  5
E8
330
45D
100
AcDbEntity
  8
DATA
  6
Continuous
 62
     7
100
AcDbLine
 10
-250.7194701337848
 20
-734.2010983766887
 30
0.0
 11
-251.0421695194746
 21
-734.2010983766887
 31
0.0
  0
LINE
  5
E9
330
45D
100
AcDbEntity
  8
DATA
  6
Continuous
 62
     7
100
AcDbLine
 10
-251.0421695194746
 20
-734.2010983766887
 30
0.0
 11
-251.3610724418032
 21
-734.2010983766887
 31
0.0
  0
LINE
  5
EA
330
45D
100
AcDbEntity
  8
DATA
  6
Continuous
 62
     7
100
AcDbLine
 10
-251.3610724418032
 20
-733.8821954543599
 30
0.0
 11
-251.3610724418032
 21
-734.2010983766887
 31
0.0
  0
LINE
  5
EB
330
45D
100
AcDbEntity
  8
DATA
  6
Continuous
 62
     7
100
AcDbLine
 10
-251.6837718274928
 20
-733.8821954543599
 30
0.0
 11
-251.3610724418032
 21
-733.8821954543599
 31
0.0
  0
LINE
  5
EC
330
45D
100
AcDbEntity
  8
DATA
  6
Continuous
 62
     7
100
AcDbLine
 10
-252.0026747498214
 20
-733.8821954543599
 30
0.0
 11
-251.6837718274928
 21
-733.8821954543599
 31
0.0
  0
LINE
  5
ED
330
45D
100
AcDbEntity
  8
DATA
  6
Continuous
 62
     7
100
AcDbLine
 10
-1572.971614888889
 20
-1609.971358420638
 30
0.0
 11
-1568.60592419352
 21
-1658.677834757869
 31
0.0
  0
LINE
  5
EE
330
45D
100
AcDbEntity
  8
DATA
  6
Continuous
 62
     7
100
AcDbLine
 10
-1102.976790168763
 20
-1647.780386422887
 30
0.0
 11
-1118.788617493042
 21
-1691.530824234735
 31
0.0
  0
LINE
  5
EF
330
45D
100
AcDbEntity
  8
DATA
  6
Continuous
 62
     7
100
AcDbLine
 10
-1321.443819276293
 20
-1663.771187372173
 30
0.0
 11
-1321.443819276293
 21
-1609.4
 31
0.0
  0
LINE
  5
F0
330
45D
100
AcDbEntity
  8
DATA
  6
Continuous
 62
     7
100
AcDbLine
 10
-1327.843819276293
 20
-1603.0
 30
0.0
 11
-1566.597169849895
 21
-1603.0
 31
0.0
  0
LINE
  5
F1
330
45D
100
AcDbEntity
  8
DATA
  6
Continuous
 62
     7
100
AcDbLine
 10
-1450.011050998493
 20
-1664.171187372174
 30
0.0
 11
-1450.011050998493
 21
-1609.0
 31
0.0
  0
LINE
  5
F2
330
45D
100
AcDbEntity
  8
DATA
  6
Continuous
 62
     7
100
AcDbLine
 10
-1556.036315382252
 20
-1670.171187372173
 30
0.0
 11
-1327.843819276293
 21
-1670.171187372173
 31
0.0
  0
LINE
  5
F3
330
45D
100
AcDbEntity
  8
DATA
  6
Continuous
 62
     7
100
AcDbLine
 10
-1325.000380398324
 20
-1539.626481709072
 30
0.0
 11
-1363.12519051734
 21
-1520.719610700797
 31
0.0
  0
LINE
  5
F4
330
45D
100
AcDbEntity
  8
DATA
  6
Continuous
 62
     7
100
AcDbLine
 10
-1363.12519051734
 20
-1520.719610700797
 30
0.0
 11
-1401.921249603983
 21
-1502.435843153945
 31
0.0
  0
LINE
  5
F5
330
45D
100
AcDbEntity
  8
DATA
  6
Continuous
 62
     7
100
AcDbLine
 10
-1401.921249603983
 20
-1502.435843153945
 30
0.0
 11
-1441.020147773707
 21
-1485.125604894179
 31
0.0
  0
LINE
  5
F6
330
45D
100
AcDbEntity
  8
DATA
  6
Continuous
 62
     7
100
AcDbLine
 10
-1321.443819276293
 20
-1568.52171810661
 30
0.0
 11
-1321.443819276293
 21
-1545.36014156533
 31
0.0
  0
LINE
  5
F7
330
45D
100
AcDbEntity
  8
DATA
  6
Continuous
 62
     7
100
AcDbLine
 10
-1443.611050998494
 20
-1574.92171810661
 30
0.0
 11
-1327.843819276293
 21
-1574.92171810661
 31
0.0
  0
LINE
  5
F8
330
45D
100
AcDbEntity
  8
DATA
  6
Continuous
 62
     7
100
AcDbLine
 10
-1450.011050998493
 20
-1490.977717374283
 30
0.0
 11
-1450.011050998493
 21
-1568.52171810661
 31
0.0
  0
LINE
  5
F9
330
45D
100
AcDbEntity
  8
DATA
  6
Continuous
 62
     7
100
AcDbLine
 10
-1130.854773135737
 20
-1700.0
 30
0.0
 11
-1578.93509496265
 21
-1700.0
 31
0.0
  0
LINE
  5
FA
330
45D
100
AcDbEntity
  8
DATA
  6
Continuous
 62
     7
100
AcDbLine
 10
-1247.063509106461
 20
-1700.0
 30
0.0
 11
-1247.063509106461
 21
-1701.5
 31
0.0
  0
LINE
  5
FB
330
45D
100
AcDbEntity
  8
DATA
  6
Continuous
 62
     7
100
AcDbLine
 10
-1157.611239393231
 20
-1700.0
 30
0.0
 11
-1157.611239393231
 21
-1701.5
 31
0.0
  0
LINE
  5
FC
330
45D
100
AcDbEntity
  8
DATA
  6
Continuous
 62
     7
100
AcDbLine
 10
-1476.943162081833
 20
-1700.0
 30
0.0
 11
-1476.943162081833
 21
-1701.5
 31
0.0
  0
LINE
  5
FD
330
45D
100
AcDbEntity
  8
DATA
  6
Continuous
 62
     7
100
AcDbLine
 10
-1566.395431795063
 20
-1700.0
 30
0.0
 11
-1566.395431795063
 21
-1701.5
 31
0.0
  0
LINE
  5
FE
330
45D
100
AcDbEntity
  8
DATA
  6
Continuous
 62
     7
100
AcDbLine
 10
-1450.975352692203
 20
-1609.964301693708
 30
0.0
 11
-1450.975352692203
 21
-1662.887982756136
 31
0.0
  0
LINE
  5
FF
330
45D
100
AcDbEntity
  8
DATA
  6
Continuous
 62
     7
100
AcDbLine
 10
-1456.975352692203
 20
-1668.887982756136
 30
0.0
 11
-1556.266462295156
 21
-1668.887982756136
 31
0.0
  0
LINE
  5
100
330
45D
100
AcDbEntity
  8
DATA
  6
Continuous
 62
     7
100
AcDbLine
 10
-1567.557132949572
 20
-1658.604560331852
 30
0.0
 11
-1572.113846685103
 21
-1609.911160777649
 31
0.0
  0
LINE
  5
101
330
45D
100
AcDbEntity
  8
DATA
  6
Continuous
 62
     7
100
AcDbLine
 10
-1566.697510850886
 20
-1603.964301693708
 30
0.0
 11
-1456.975352692203
 21
-1603.964301693708
 31
0.0
  0
ARC
  5
102
330
45D
100
AcDbEntity
  8
DATA
  6
Continuous
 62
     7
100
AcDbCircle
 10
-1130.854773135737
 20
-1687.17
 30
0.0
 40
12.82999999999993
100
AcDbArc
 50
270.0
 51
340.1296588447929
  0
ARC
  5
103
330
45D
100
AcDbEntity
  8
DATA
  6
Continuous
 62
     7
100
AcDbCircle
 10
-1578.93509496265
 20
-1687.17
 30
0.0
 40
12.82999999999992
100
AcDbArc
 50
184.9563248031465
 51
270.0
  0
LINE
  5
104
330
45D
100
AcDbEntity
  8
DATA
  6
Continuous
 62
     7
100
AcDbLine
 10
-1591.717121608982
 20
-1688.278465070469
 30
0.0
 11
-1615.611943892728
 21
-1412.740459158418
 31
0.0
  0
ARC
  5
105
330
45D
100
AcDbEntity
  8
DATA
  6
Continuous
 62
     7
100
AcDbCircle
 10
-1150.0
 20
-1630.785747939897
 30
0.0
 40
49.99999999999992
100
AcDbArc
 50
340.129658844791
 51
55.20406136649677
  0
ARC
  5
106
330
45D
100
AcDbEntity
  8
DATA
  6
Continuous
 62
     7
100
AcDbCircle
 10
-1565.798901623312
 20
-1408.42064204825
 30
0.0
 40
49.99999999999981
100
AcDbArc
 50
68.4524543857684
 51
184.9563248031468
  0
ARC
  5
107
330
45D
100
AcDbEntity
  8
DATA
  6
Continuous
 62
     7
100
AcDbCircle
 10
-1443.611050998494
 20
-1568.52171810661
 30
0.0
 40
6.399999999999863
100
AcDbArc
 50
180.0
 51
270.0
  0
ARC
  5
108
330
45D
100
AcDbEntity
  8
DATA
  6
Continuous
 62
     7
100
AcDbCircle
 10
-1327.843819276293
 20
-1568.52171810661
 30
0.0
 40
6.40000000000009
100
AcDbArc
 50
270.0
 51
0.0
  0
ARC
  5
109
330
45D
100
AcDbEntity
  8
DATA
  6
Continuous
 62
     7
100
AcDbCircle
 10
-1327.843819276293
 20
-1545.36014156533
 30
0.0
 40
6.40000000000009
100
AcDbArc
 50
0.0
 51
63.62224898175892
  0
ARC
  5
10A
330
45D
100
AcDbEntity
  8
DATA
  6
Continuous
 62
     7
100
AcDbCircle
 10
-1443.611050998494
 20
-1490.977717374283
 30
0.0
 40
6.399999999999995
100
AcDbArc
 50
66.1196114085054
 51
179.999999999998
  0
ARC
  5
10B
330
45D
100
AcDbEntity
  8
DATA
  6
Continuous
 62
     7
100
AcDbCircle
 10
-2316.36023497032
 20
-3311.822006796042
 30
0.0
 40
2096.039845260457
100
AcDbArc
 50
55.24477406649373
 51
68.47873299125878
  0
TEXT
  5
10C
330
45D
100
AcDbEntity
  8
DATA
 62
     7
100
AcDbText
 10
-1463.832326976057
 20
-1629.989232231433
 30
0.0
 40
2.036051432291666
  1
Bi-AMP
 50
90.0
 41
0.7
 72
     1
 11
-1464.850352692202
 21
-1626.426142224922
 31
0.0
100
AcDbText
 73
     2
  0
ARC
  5
10D
330
45D
100
AcDbEntity
  8
DATA
  6
Continuous
 62
     7
100
AcDbCircle
 10
-1556.036315382252
 20
-1657.551187372173
 30
0.0
 40
12.61999999999971
100
AcDbArc
 50
185.1218855592096
 51
270.000000000001
  0
ARC
  5
10E
330
45D
100
AcDbEntity
  8
DATA
  6
Continuous
 62
     7
100
AcDbCircle
 10
-1327.843819276293
 20
-1609.4
 30
0.0
 40
6.40000000000009
100
AcDbArc
 50
0.0
 51
90.0
  0
ARC
  5
10F
330
45D
100
AcDbEntity
  8
DATA
  6
Continuous
 62
     7
100
AcDbCircle
 10
-1327.843819276293
 20
-1663.771187372173
 30
0.0
 40
6.40000000000009
100
AcDbArc
 50
270.0
 51
0.0
  0
ARC
  5
110
330
45D
100
AcDbEntity
  8
DATA
  6
Continuous
 62
     7
100
AcDbCircle
 10
-1456.975352692203
 20
-1662.887982756136
 30
0.0
 40
6.0
100
AcDbArc
 50
270.0
 51
0.0
  0
ARC
  5
111
330
45D
100
AcDbEntity
  8
DATA
  6
Continuous
 62
     7
100
AcDbCircle
 10
-1444.011050998494
 20
-1609.0
 30
0.0
 40
6.0
100
AcDbArc
 50
90.0
 51
180.0
  0
ARC
  5
112
330
45D
100
AcDbEntity
  8
DATA
  6
Continuous
 62
     7
100
AcDbCircle
 10
-1444.011050998494
 20
-1664.171187372174
 30
0.0
 40
6.0
100
AcDbArc
 50
180.0
 51
270.0
  0
ARC
  5
113
330
45D
100
AcDbEntity
  8
DATA
  6
Continuous
 62
     7
100
AcDbCircle
 10
-1556.266462295156
 20
-1657.547982756136
 30
0.0
 40
11.34000000000015
100
AcDbArc
 50
185.3461524459403
 51
269.9999999999988
  0
TEXT
  5
114
330
45D
100
AcDbEntity
  8
DATA
 62
     7
100
AcDbText
 10
-1534.906070194373
 20
-1612.212193657214
 30
0.0
 40
4.072102864583333
  1
VTX SERIES | M20
 41
0.7
 72
     1
 11
-1515.475352692203
 21
-1610.176142224922
 31
0.0
100
AcDbText
 73
     2
  0
LINE
  5
115
330
45D
100
AcDbEntity
  8
DATA
  6
Continuous
 62
     7
100
AcDbLine
 10
-1547.975352692202
 20
-1610.176142224922
 30
0.0
 11
-1552.975352692202
 21
-1610.176142224922
 31
0.0
  0
CIRCLE
  5
116
330
45D
100
AcDbEntity
  8
DATA
  6
Continuous
 62
     7
100
AcDbCircle
 10
-1550.475352692202
 20
-1610.176142224922
 30
0.0
 40
3.5
  0
LINE
  5
117
330
45D
100
AcDbEntity
  8
DATA
  6
Continuous
 62
     7
100
AcDbLine
 10
-1550.475352692203
 20
-1607.676142224922
 30
0.0
 11
-1550.475352692203
 21
-1612.676142224922
 31
0.0
  0
ARC
  5
118
330
45D
100
AcDbEntity
  8
DATA
  6
Continuous
 62
     7
100
AcDbCircle
 10
-1566.597169849894
 20
-1609.4
 30
0.0
 40
6.400000000000318
100
AcDbArc
 50
90.00000000000202
 51
185.1218855592086
  0
ARC
  5
119
330
45D
100
AcDbEntity
  8
DATA
  6
Continuous
 62
     7
100
AcDbCircle
 10
-1566.697510850886
 20
-1609.404301693708
 30
0.0
 40
5.440000000000281
100
AcDbArc
 50
90.0
 51
185.346152445937
  0
ARC
  5
11A
330
45D
100
AcDbEntity
  8
DATA
  6
Continuous
 62
     7
100
AcDbCircle
 10
-1456.975352692203
 20
-1609.964301693708
 30
0.0
 40
6.0
100
AcDbArc
 50
0.0
 51
90.0
  0
LINE
  5
11B
330
45D
100
AcDbEntity
  8
DATA
  6
Continuous
 62
     7
100
AcDbLine
 10
-1477.975352692203
 20
-1610.176142224922
 30
0.0
 11
-1482.975352692203
 21
-1610.176142224922
 31
0.0
  0
CIRCLE
  5
11C
330
45D
100
AcDbEntity
  8
DATA
  6
Continuous
 62
     7
100
AcDbCircle
 10
-1480.475352692202
 20
-1610.176142224922
 30
0.0
 40
3.5
  0
LINE
  5
11D
330
45D
100
AcDbEntity
  8
DATA
  6
Continuous
 62
     7
100
AcDbLine
 10
-1480.475352692202
 20
-1607.676142224922
 30
0.0
 11
-1480.475352692202
 21
-1612.676142224922
 31
0.0
  0
LINE
  5
11E
330
45D
100
AcDbEntity
  8
DATA
  6
Continuous
 62
     7
100
AcDbLine
 10
-1547.975352692202
 20
-1662.676142224922
 30
0.0
 11
-1552.975352692202
 21
-1662.676142224922
 31
0.0
  0
CIRCLE
  5
11F
330
45D
100
AcDbEntity
  8
DATA
  6
Continuous
 62
     7
100
AcDbCircle
 10
-1550.475352692203
 20
-1662.676142224922
 30
0.0
 40
3.5
  0
LINE
  5
120
330
45D
100
AcDbEntity
  8
DATA
  6
Continuous
 62
     7
100
AcDbLine
 10
-1550.475352692203
 20
-1660.176142224922
 30
0.0
 11
-1550.475352692203
 21
-1665.176142224922
 31
0.0
  0
LINE
  5
121
330
45D
100
AcDbEntity
  8
DATA
  6
Continuous
 62
     7
100
AcDbLine
 10
-1477.975352692203
 20
-1662.676142224922
 30
0.0
 11
-1482.975352692203
 21
-1662.676142224922
 31
0.0
  0
CIRCLE
  5
122
330
45D
100
AcDbEntity
  8
DATA
  6
Continuous
 62
     7
100
AcDbCircle
 10
-1480.475352692202
 20
-1662.676142224922
 30
0.0
 40
3.5
  0
LINE
  5
123
330
45D
100
AcDbEntity
  8
DATA
  6
Continuous
 62
     7
100
AcDbLine
 10
-1480.475352692203
 20
-1660.176142224922
 30
0.0
 11
-1480.475352692203
 21
-1665.176142224922
 31
0.0
  0
CIRCLE
  5
124
330
45D
100
AcDbEntity
  8
DATA
  6
Continuous
 62
     7
100
AcDbCircle
 10
-1542.725352692203
 20
-1636.426142224922
 30
0.0
 40
15.0
  0
LINE
  5
125
330
45D
100
AcDbEntity
  8
DATA
  6
Continuous
 62
     7
100
AcDbLine
 10
-1545.725352692203
 20
-1626.426142224922
 30
0.0
 11
-1539.725352692203
 21
-1626.426142224922
 31
0.0
  0
LINE
  5
126
330
45D
100
AcDbEntity
  8
DATA
  6
Continuous
 62
     7
100
AcDbLine
 10
-1544.725352692203
 20
-1646.426142224922
 30
0.0
 11
-1540.725352692202
 21
-1646.426142224922
 31
0.0
  0
LINE
  5
127
330
45D
100
AcDbEntity
  8
DATA
  6
Continuous
 62
     7
100
AcDbLine
 10
-1544.725352692203
 20
-1646.426142224922
 30
0.0
 11
-1544.725352692203
 21
-1645.226142224922
 31
0.0
  0
LINE
  5
128
330
45D
100
AcDbEntity
  8
DATA
  6
Continuous
 62
     7
100
AcDbLine
 10
-1540.725352692202
 20
-1646.426142224922
 30
0.0
 11
-1540.725352692202
 21
-1645.226142224922
 31
0.0
  0
LINE
  5
129
330
45D
100
AcDbEntity
  8
DATA
  6
Continuous
 62
     7
100
AcDbLine
 10
-1545.725352692203
 20
-1626.426142224922
 30
0.0
 11
-1545.725352692203
 21
-1628.153292224922
 31
0.0
  0
LINE
  5
12A
330
45D
100
AcDbEntity
  8
DATA
  6
Continuous
 62
     7
100
AcDbLine
 10
-1539.725352692203
 20
-1626.426142224922
 30
0.0
 11
-1539.725352692203
 21
-1628.153292224922
 31
0.0
  0
ARC
  5
12B
330
45D
100
AcDbEntity
  8
DATA
  6
Continuous
 62
     7
100
AcDbCircle
 10
-1542.725352692203
 20
-1636.426142224922
 30
0.0
 40
8.800002677414209
100
AcDbArc
 50
109.9322641506793
 51
257.1961668196986
  0
ARC
  5
12C
330
45D
100
AcDbEntity
  8
DATA
  6
Continuous
 62
     7
100
AcDbCircle
 10
-1542.725352692203
 20
-1636.426142224922
 30
0.0
 40
8.800003504345928
100
AcDbArc
 50
282.9999995554212
 51
69.99999423796154
  0
ARC
  5
12D
330
45D
100
AcDbEntity
  8
DATA
  6
Continuous
 62
     7
100
AcDbCircle
 10
-1542.725352692203
 20
-1636.426142224922
 30
0.0
 40
6.20000216206402
100
AcDbArc
 50
60.00001153556115
 51
150.0000115355622
  0
LINE
  5
12E
330
45D
100
AcDbEntity
  8
DATA
  6
Continuous
 62
     7
100
AcDbLine
 10
-1548.094692692202
 20
-1633.326112224922
 30
0.0
 11
-1547.596732692203
 21
-1633.613612224922
 31
0.0
  0
LINE
  5
12F
330
45D
100
AcDbEntity
  8
DATA
  6
Continuous
 62
     7
100
AcDbLine
 10
-1539.625382692203
 20
-1631.056762224923
 30
0.0
 11
-1539.912882692203
 21
-1631.554732224922
 31
0.0
  0
ARC
  5
130
330
45D
100
AcDbEntity
  8
DATA
  6
Continuous
 62
     7
100
AcDbCircle
 10
-1542.725352692203
 20
-1636.426142224922
 30
0.0
 40
6.200002162064216
100
AcDbArc
 50
240.0000115355621
 51
330.0000115355623
  0
LINE
  5
131
330
45D
100
AcDbEntity
  8
DATA
  6
Continuous
 62
     7
100
AcDbLine
 10
-1545.825352692202
 20
-1641.795502224922
 30
0.0
 11
-1545.537852692203
 21
-1641.297532224922
 31
0.0
  0
LINE
  5
132
330
45D
100
AcDbEntity
  8
DATA
  6
Continuous
 62
     7
100
AcDbLine
 10
-1537.355982692203
 20
-1639.526122224922
 30
0.0
 11
-1537.853952692203
 21
-1639.238622224922
 31
0.0
  0
ARC
  5
133
330
45D
100
AcDbEntity
  8
DATA
  6
Continuous
 62
     7
100
AcDbCircle
 10
-1542.725352692203
 20
-1636.426142224922
 30
0.0
 40
5.625003831580918
100
AcDbArc
 50
149.9996696821033
 51
240.0002126043052
  0
ARC
  5
134
330
45D
100
AcDbEntity
  8
DATA
  6
Continuous
 62
     7
100
AcDbCircle
 10
-1542.725352692203
 20
-1636.426142224922
 30
0.0
 40
5.624996152034259
100
AcDbArc
 50
330.0002126043024
 51
60.00071824312165
  0
ARC
  5
135
330
45D
100
AcDbEntity
  8
DATA
  6
Continuous
 62
     7
100
AcDbCircle
 10
-1542.725352692203
 20
-1636.426142224922
 30
0.0
 40
3.599990080875142
100
AcDbArc
 50
59.9999088547095
 51
149.9999088547045
  0
ARC
  5
136
330
45D
100
AcDbEntity
  8
DATA
  6
Continuous
 62
     7
100
AcDbCircle
 10
-1542.725352692203
 20
-1636.426142224922
 30
0.0
 40
3.599990080875142
100
AcDbArc
 50
239.9999088547095
 51
329.9999088547045
  0
LINE
  5
137
330
45D
100
AcDbEntity
  8
DATA
  6
Continuous
 62
     7
100
AcDbLine
 10
-1540.925372692202
 20
-1633.308452224923
 30
0.0
 11
-1541.275362692202
 21
-1633.914662224922
 31
0.0
  0
LINE
  5
138
330
45D
100
AcDbEntity
  8
DATA
  6
Continuous
 62
     7
100
AcDbLine
 10
-1545.843022692203
 20
-1634.626132224922
 30
0.0
 11
-1545.236822692202
 21
-1634.976132224922
 31
0.0
  0
LINE
  5
139
330
45D
100
AcDbEntity
  8
DATA
  6
Continuous
 62
     7
100
AcDbLine
 10
-1544.525352692202
 20
-1639.543822224922
 30
0.0
 11
-1544.175352692203
 21
-1638.937612224922
 31
0.0
  0
LINE
  5
13A
330
45D
100
AcDbEntity
  8
DATA
  6
Continuous
 62
     7
100
AcDbLine
 10
-1539.607662692202
 20
-1638.226122224922
 30
0.0
 11
-1540.213872692202
 21
-1637.876132224922
 31
0.0
  0
ARC
  5
13B
330
45D
100
AcDbEntity
  8
DATA
  6
Continuous
 62
     7
100
AcDbCircle
 10
-1542.725352692203
 20
-1636.426142224922
 30
0.0
 40
2.900001820861436
100
AcDbArc
 50
149.9997926340292
 51
240.0002336238304
  0
ARC
  5
13C
330
45D
100
AcDbEntity
  8
DATA
  6
Continuous
 62
     7
100
AcDbCircle
 10
-1542.725352692203
 20
-1636.426142224922
 30
0.0
 40
2.900000481120788
100
AcDbArc
 50
330.0002336238303
 51
59.99979263403043
  0
CIRCLE
  5
13D
330
45D
100
AcDbEntity
  8
DATA
  6
Continuous
 62
     7
100
AcDbCircle
 10
-1488.225352692203
 20
-1636.426142224922
 30
0.0
 40
15.0
  0
LINE
  5
13E
330
45D
100
AcDbEntity
  8
DATA
  6
Continuous
 62
     7
100
AcDbLine
 10
-1491.225352692203
 20
-1626.426142224922
 30
0.0
 11
-1485.225352692203
 21
-1626.426142224922
 31
0.0
  0
LINE
  5
13F
330
45D
100
AcDbEntity
  8
DATA
  6
Continuous
 62
     7
100
AcDbLine
 10
-1490.225352692203
 20
-1646.426142224922
 30
0.0
 11
-1486.225352692202
 21
-1646.426142224922
 31
0.0
  0
LINE
  5
140
330
45D
100
AcDbEntity
  8
DATA
  6
Continuous
 62
     7
100
AcDbLine
 10
-1490.225352692203
 20
-1646.426142224922
 30
0.0
 11
-1490.225352692203
 21
-1645.226142224922
 31
0.0
  0
LINE
  5
141
330
45D
100
AcDbEntity
  8
DATA
  6
Continuous
 62
     7
100
AcDbLine
 10
-1486.225352692202
 20
-1646.426142224922
 30
0.0
 11
-1486.225352692202
 21
-1645.226142224922
 31
0.0
  0
LINE
  5
142
330
45D
100
AcDbEntity
  8
DATA
  6
Continuous
 62
     7
100
AcDbLine
 10
-1491.225352692203
 20
-1626.426142224922
 30
0.0
 11
-1491.225352692203
 21
-1628.153292224922
 31
0.0
  0
LINE
  5
143
330
45D
100
AcDbEntity
  8
DATA
  6
Continuous
 62
     7
100
AcDbLine
 10
-1485.225352692203
 20
-1626.426142224922
 30
0.0
 11
-1485.225352692203
 21
-1628.153292224922
 31
0.0
  0
ARC
  5
144
330
45D
100
AcDbEntity
  8
DATA
  6
Continuous
 62
     7
100
AcDbCircle
 10
-1488.225352692203
 20
-1636.426142224922
 30
0.0
 40
8.800002677414209
100
AcDbArc
 50
109.9322641506793
 51
257.1961668196986
  0
ARC
  5
145
330
45D
100
AcDbEntity
  8
DATA
  6
Continuous
 62
     7
100
AcDbCircle
 10
-1488.225352692203
 20
-1636.426142224922
 30
0.0
 40
8.800003504345928
100
AcDbArc
 50
282.9999995554212
 51
69.99999423796154
  0
ARC
  5
146
330
45D
100
AcDbEntity
  8
DATA
  6
Continuous
 62
     7
100
AcDbCircle
 10
-1488.225352692203
 20
-1636.426142224922
 30
0.0
 40
6.20000216206402
100
AcDbArc
 50
60.00001153556115
 51
150.0000115355622
  0
LINE
  5
147
330
45D
100
AcDbEntity
  8
DATA
  6
Continuous
 62
     7
100
AcDbLine
 10
-1493.594692692202
 20
-1633.326112224922
 30
0.0
 11
-1493.096732692203
 21
-1633.613612224922
 31
0.0
  0
LINE
  5
148
330
45D
100
AcDbEntity
  8
DATA
  6
Continuous
 62
     7
100
AcDbLine
 10
-1485.125382692203
 20
-1631.056762224923
 30
0.0
 11
-1485.412882692203
 21
-1631.554732224922
 31
0.0
  0
ARC
  5
149
330
45D
100
AcDbEntity
  8
DATA
  6
Continuous
 62
     7
100
AcDbCircle
 10
-1488.225352692203
 20
-1636.426142224922
 30
0.0
 40
6.200002162064216
100
AcDbArc
 50
240.0000115355621
 51
330.0000115355623
  0
LINE
  5
14A
330
45D
100
AcDbEntity
  8
DATA
  6
Continuous
 62
     7
100
AcDbLine
 10
-1491.325352692202
 20
-1641.795502224922
 30
0.0
 11
-1491.037852692203
 21
-1641.297532224922
 31
0.0
  0
LINE
  5
14B
330
45D
100
AcDbEntity
  8
DATA
  6
Continuous
 62
     7
100
AcDbLine
 10
-1482.855982692203
 20
-1639.526122224922
 30
0.0
 11
-1483.353952692203
 21
-1639.238622224922
 31
0.0
  0
ARC
  5
14C
330
45D
100
AcDbEntity
  8
DATA
  6
Continuous
 62
     7
100
AcDbCircle
 10
-1488.225352692203
 20
-1636.426142224922
 30
0.0
 40
5.625003831580918
100
AcDbArc
 50
149.9996696821033
 51
240.0002126043052
  0
ARC
  5
14D
330
45D
100
AcDbEntity
  8
DATA
  6
Continuous
 62
     7
100
AcDbCircle
 10
-1488.225352692203
 20
-1636.426142224922
 30
0.0
 40
5.624996152034259
100
AcDbArc
 50
330.0002126043024
 51
60.00071824312165
  0
ARC
  5
14E
330
45D
100
AcDbEntity
  8
DATA
  6
Continuous
 62
     7
100
AcDbCircle
 10
-1488.225352692203
 20
-1636.426142224922
 30
0.0
 40
3.599990080875142
100
AcDbArc
 50
59.9999088547095
 51
149.9999088547045
  0
ARC
  5
14F
330
45D
100
AcDbEntity
  8
DATA
  6
Continuous
 62
     7
100
AcDbCircle
 10
-1488.225352692203
 20
-1636.426142224922
 30
0.0
 40
3.599990080875142
100
AcDbArc
 50
239.9999088547095
 51
329.9999088547045
  0
LINE
  5
150
330
45D
100
AcDbEntity
  8
DATA
  6
Continuous
 62
     7
100
AcDbLine
 10
-1486.425372692202
 20
-1633.308452224923
 30
0.0
 11
-1486.775362692202
 21
-1633.914662224922
 31
0.0
  0
LINE
  5
151
330
45D
100
AcDbEntity
  8
DATA
  6
Continuous
 62
     7
100
AcDbLine
 10
-1491.343022692203
 20
-1634.626132224922
 30
0.0
 11
-1490.736822692202
 21
-1634.976132224922
 31
0.0
  0
LINE
  5
152
330
45D
100
AcDbEntity
  8
DATA
  6
Continuous
 62
     7
100
AcDbLine
 10
-1490.025352692202
 20
-1639.543822224922
 30
0.0
 11
-1489.675352692203
 21
-1638.937612224922
 31
0.0
  0
LINE
  5
153
330
45D
100
AcDbEntity
  8
DATA
  6
Continuous
 62
     7
100
AcDbLine
 10
-1485.107662692202
 20
-1638.226122224922
 30
0.0
 11
-1485.713872692202
 21
-1637.876132224922
 31
0.0
  0
ARC
  5
154
330
45D
100
AcDbEntity
  8
DATA
  6
Continuous
 62
     7
100
AcDbCircle
 10
-1488.225352692203
 20
-1636.426142224922
 30
0.0
 40
2.900001820861436
100
AcDbArc
 50
149.9997926340292
 51
240.0002336238304
  0
ARC
  5
155
330
45D
100
AcDbEntity
  8
DATA
  6
Continuous
 62
     7
100
AcDbCircle
 10
-1488.225352692203
 20
-1636.426142224922
 30
0.0
 40
2.900000481120788
100
AcDbArc
 50
330.0002336238303
 51
59.99979263403043
  0
LWPOLYLINE
  5
156
330
45D
100
AcDbEntity
  8
DATA
  6
Continuous
 62
     7
100
AcDbPolyline
 90
        4
 70
     1
 43
0.0
 10
-1467.975352692203
 20
-1621.426142224922
 10
-1455.475352692203
 20
-1621.426142224922
 10
-1455.475352692203
 20
-1651.426142224922
 10
-1467.975352692203
 20
-1651.426142224922
  0
LINE
  5
15D
330
45D
100
AcDbEntity
  8
DATA
  6
Continuous
 62
     7
100
AcDbLine
 10
-1467.975352692203
 20
-1631.426142224922
 30
0.0
 11
-1455.475352692203
 21
-1631.426142224922
 31
0.0
  0
LINE
  5
15E
330
45D
100
AcDbEntity
  8
DATA
  6
Continuous
 62
     7
100
AcDbLine
 10
-1461.725352692203
 20
-1621.426142224922
 30
0.0
 11
-1461.725352692203
 21
-1651.426142224922
 31
0.0
  0
TEXT
  5
15F
330
45D
100
AcDbEntity
  8
DATA
 62
     7
100
AcDbText
 10
-1457.684129547671
 20
-1630.701850232735
 30
0.0
 40
1.8324462890625
  1
PASSIVE
 50
90.0
 41
0.7
 72
     1
 11
-1458.600352692203
 21
-1626.426142224922
 31
0.0
100
AcDbText
 73
     2
  0
TEXT
  5
160
330
45D
100
AcDbEntity
  8
DATA
 62
     7
100
AcDbText
 10
-1466.275588694807
 20
-1635.490824432191
 30
0.0
 40
2.44326171875
  1
LF
 41
0.7
 72
     1
 11
-1464.850352692202
 21
-1634.269193572816
 31
0.0
100
AcDbText
 73
     2
  0
TEXT
  5
161
330
45D
100
AcDbEntity
  8
DATA
 62
     7
100
AcDbText
 10
-1459.170447093244
 20
-1635.490824432191
 30
0.0
 40
2.44326171875
  1
A
 41
0.7
 72
     1
 11
-1458.600352692203
 21
-1634.269193572816
 31
0.0
100
AcDbText
 73
     2
  0
TEXT
  5
162
330
45D
100
AcDbEntity
  8
DATA
 62
     7
100
AcDbText
 10
-1466.446617015119
 20
-1639.719469652487
 30
0.0
 40
2.44326171875
  1
4Ω
 41
0.7
 72
     1
 11
-1464.850352692202
 21
-1638.497838793111
 31
0.0
100
AcDbText
 73
     2
  0
TEXT
  5
163
330
45D
100
AcDbEntity
  8
DATA
 62
     7
100
AcDbText
 10
-1460.196617015119
 20
-1639.719469652487
 30
0.0
 40
2.44326171875
  1
4Ω
 41
0.7
 72
     1
 11
-1458.600352692203
 21
-1638.497838793111
 31
0.0
100
AcDbText
 73
     2
  0
TEXT
  5
164
330
45D
100
AcDbEntity
  8
DATA
 62
     7
100
AcDbText
 10
-1466.275588694807
 20
-1645.49082443219
 30
0.0
 40
2.44326171875
  1
HF
 41
0.7
 72
     1
 11
-1464.850352692202
 21
-1644.269193572815
 31
0.0
100
AcDbText
 73
     2
  0
TEXT
  5
165
330
45D
100
AcDbEntity
  8
DATA
 62
     7
100
AcDbText
 10
-1459.170447093244
 20
-1645.49082443219
 30
0.0
 40
2.44326171875
  1
B
 41
0.7
 72
     1
 11
-1458.600352692203
 21
-1644.269193572815
 31
0.0
100
AcDbText
 73
     2
  0
TEXT
  5
166
330
45D
100
AcDbEntity
  8
DATA
 62
     7
100
AcDbText
 10
-1466.446617015119
 20
-1649.719469652486
 30
0.0
 40
2.44326171875
  1
8Ω
 41
0.7
 72
     1
 11
-1464.850352692202
 21
-1648.497838793112
 31
0.0
100
AcDbText
 73
     2
  0
TEXT
  5
167
330
45D
100
AcDbEntity
  8
DATA
 62
     7
100
AcDbText
 10
-1460.196617015119
 20
-1649.719469652486
 30
0.0
 40
2.44326171875
  1
4Ω
 41
0.7
 72
     1
 11
-1458.600352692203
 21
-1648.497838793112
 31
0.0
100
AcDbText
 73
     2
  0
TEXT
  5
168
330
45D
100
AcDbEntity
  8
DATA
 62
     7
100
AcDbText
 10
-1454.175510027272
 20
-1637.444167941068
 30
0.0
 40
2.036051432291666
  1
1±
 41
0.7
 72
     1
 11
-1453.225352692203
 21
-1636.426142224922
 31
0.0
100
AcDbText
 73
     2
  0
TEXT
  5
169
330
45D
100
AcDbEntity
  8
DATA
 62
     7
100
AcDbText
 10
-1454.413049361039
 20
-1647.444167941068
 30
0.0
 40
2.036051432291666
  1
2±
 41
0.7
 72
     1
 11
-1453.225352692203
 21
-1646.426142224922
 31
0.0
100
AcDbText
 73
     2
  0
LWPOLYLINE
  5
16A
330
45D
100
AcDbEntity
  8
DATA
  6
Continuous
 62
     7
100
AcDbPolyline
 90
        4
 70
     1
 43
0.0
 10
-1522.475352692203
 20
-1629.426142224922
 10
-1508.475352692203
 20
-1629.426142224922
 10
-1508.475352692203
 20
-1643.426142224922
 10
-1522.475352692203
 20
-1643.426142224922
  0
ARC
  5
171
330
45D
100
AcDbEntity
  8
DATA
  6
Continuous
 62
     7
100
AcDbCircle
 10
-1515.240731386779
 20
-1636.876460650862
 30
0.0
 40
0.1555661600313979
100
AcDbArc
 50
307.6419024975801
 51
354.2670192893489
  0
LINE
  5
172
330
45D
100
AcDbEntity
  8
DATA
  6
Continuous
 62
     7
100
AcDbLine
 10
-1519.236637092203
 20
-1634.424989744922
 30
0.0
 11
-1518.507340612202
 21
-1632.687280304923
 31
0.0
  0
LINE
  5
173
330
45D
100
AcDbEntity
  8
DATA
  6
Continuous
 62
     7
100
AcDbLine
 10
-1519.236637092203
 20
-1634.424989744922
 30
0.0
 11
-1519.956934852203
 21
-1632.687280304923
 31
0.0
  0
LINE
  5
174
330
45D
100
AcDbEntity
  8
DATA
  6
Continuous
 62
     7
100
AcDbLine
 10
-1513.708377892202
 20
-1637.567280304922
 30
0.0
 11
-1513.708377892202
 21
-1632.687280304923
 31
0.0
  0
LINE
  5
175
330
45D
100
AcDbEntity
  8
DATA
  6
Continuous
 62
     7
100
AcDbLine
 10
-1512.771993732203
 20
-1632.687280304923
 30
0.0
 11
-1512.771993732203
 21
-1636.819976624923
 31
0.0
  0
LINE
  5
176
330
45D
100
AcDbEntity
  8
DATA
  6
Continuous
 62
     7
100
AcDbLine
 10
-1518.165198932203
 20
-1632.687280304923
 30
0.0
 11
-1518.165198932203
 21
-1636.819976624923
 31
0.0
  0
LINE
  5
177
330
45D
100
AcDbEntity
  8
DATA
  6
Continuous
 62
     7
100
AcDbLine
 10
-1517.264829172203
 20
-1632.687280304923
 30
0.0
 11
-1517.264829172203
 21
-1636.819976624923
 31
0.0
  0
LINE
  5
178
330
45D
100
AcDbEntity
  8
DATA
  6
Continuous
 62
     7
100
AcDbLine
 10
-1516.796637092203
 20
-1632.687280304923
 30
0.0
 11
-1516.796637092203
 21
-1637.567280304922
 31
0.0
  0
LINE
  5
179
330
45D
100
AcDbEntity
  8
DATA
  6
Continuous
 62
     7
100
AcDbLine
 10
-1515.977299732203
 20
-1633.146463904922
 30
0.0
 11
-1515.977299732203
 21
-1634.713109824922
 31
0.0
  0
LINE
  5
17A
330
45D
100
AcDbEntity
  8
DATA
  6
Continuous
 62
     7
100
AcDbLine
 10
-1514.221192692203
 20
-1634.622458944922
 30
0.0
 11
-1514.221192692203
 21
-1633.479606864922
 31
0.0
  0
LINE
  5
17B
330
45D
100
AcDbEntity
  8
DATA
  6
Continuous
 62
     7
100
AcDbLine
 10
-1515.085943332203
 20
-1633.362555184922
 30
0.0
 11
-1515.085943332203
 21
-1634.497023424922
 31
0.0
  0
ARC
  5
17C
330
45D
100
AcDbEntity
  8
DATA
  6
Continuous
 62
     7
100
AcDbCircle
 10
-1518.345876052202
 20
-1636.314193904922
 30
0.0
 40
1.258480471481958
100
AcDbArc
 50
264.6908562215259
 51
323.9911991542396
  0
LINE
  5
17D
330
45D
100
AcDbEntity
  8
DATA
  6
Continuous
 62
     7
100
AcDbLine
 10
-1518.849477412202
 20
-1636.036648784922
 30
0.0
 11
-1518.849477412202
 21
-1636.819966864922
 31
0.0
  0
LINE
  5
17E
330
45D
100
AcDbEntity
  8
DATA
  6
Continuous
 62
     7
100
AcDbLine
 10
-1518.849477412202
 20
-1636.036648784922
 30
0.0
 11
-1519.659811172203
 21
-1636.036648784922
 31
0.0
  0
LINE
  5
17F
330
45D
100
AcDbEntity
  8
DATA
  6
Continuous
 62
     7
100
AcDbLine
 10
-1519.659811172203
 20
-1636.036648784922
 30
0.0
 11
-1519.659811172203
 21
-1636.819966864922
 31
0.0
  0
ARC
  5
180
330
45D
100
AcDbEntity
  8
DATA
  6
Continuous
 62
     7
100
AcDbCircle
 10
-1518.505622852203
 20
-1636.830527184922
 30
0.0
 40
0.3405892672061446
100
AcDbArc
 50
269.7118487927867
 51
1.775987005687966
  0
ARC
  5
181
330
45D
100
AcDbEntity
  8
DATA
  6
Continuous
 62
     7
100
AcDbCircle
 10
-1518.509053492202
 20
-1636.830527184922
 30
0.0
 40
0.3405875256404149
100
AcDbArc
 50
178.2240129943208
 51
270.2881512072453
  0
ARC
  5
182
330
45D
100
AcDbEntity
  8
DATA
  6
Continuous
 62
     7
100
AcDbCircle
 10
-1518.578764292203
 20
-1636.314193904922
 30
0.0
 40
1.258478427629955
100
AcDbArc
 50
216.0088008457637
 51
275.3091437784696
  0
ARC
  5
183
330
45D
100
AcDbEntity
  8
DATA
  6
Continuous
 62
     7
100
AcDbCircle
 10
-1519.091076452203
 20
-1636.792380224922
 30
0.0
 40
0.5693985015898126
100
AcDbArc
 50
182.7769954499926
 51
207.3596066671555
  0
CIRCLE
  5
184
330
45D
100
AcDbEntity
  8
DATA
  6
Continuous
 62
     7
100
AcDbCircle
 10
-1519.187114852203
 20
-1635.100269504922
 30
0.0
 40
0.4636878400001478
  0
LINE
  5
185
330
45D
100
AcDbEntity
  8
DATA
  6
Continuous
 62
     7
100
AcDbLine
 10
-1511.268377892203
 20
-1637.567275424922
 30
0.0
 11
-1513.708377892202
 21
-1637.567275424922
 31
0.0
  0
LINE
  5
186
330
45D
100
AcDbEntity
  8
DATA
  6
Continuous
 62
     7
100
AcDbLine
 10
-1511.268377892203
 20
-1637.567275424922
 30
0.0
 11
-1511.268377892203
 21
-1636.036643904922
 31
0.0
  0
LINE
  5
187
330
45D
100
AcDbEntity
  8
DATA
  6
Continuous
 62
     7
100
AcDbLine
 10
-1511.268377892203
 20
-1636.036648784922
 30
0.0
 11
-1512.087710372203
 21
-1636.036648784922
 31
0.0
  0
LINE
  5
188
330
45D
100
AcDbEntity
  8
DATA
  6
Continuous
 62
     7
100
AcDbLine
 10
-1512.087710372203
 20
-1636.036648784922
 30
0.0
 11
-1512.087710372203
 21
-1636.819966864922
 31
0.0
  0
LINE
  5
189
330
45D
100
AcDbEntity
  8
DATA
  6
Continuous
 62
     7
100
AcDbLine
 10
-1516.796637092203
 20
-1637.567275424922
 30
0.0
 11
-1515.085943332203
 21
-1637.567270544922
 31
0.0
  0
LINE
  5
18A
330
45D
100
AcDbEntity
  8
DATA
  6
Continuous
 62
     7
100
AcDbLine
 10
-1515.977304612202
 20
-1637.108086944922
 30
0.0
 11
-1515.536123332203
 21
-1637.108086944922
 31
0.0
  0
LINE
  5
18B
330
45D
100
AcDbEntity
  8
DATA
  6
Continuous
 62
     7
100
AcDbLine
 10
-1515.977299732203
 20
-1637.108086944922
 30
0.0
 11
-1515.977299732203
 21
-1635.181297024922
 31
0.0
  0
LINE
  5
18C
330
45D
100
AcDbEntity
  8
DATA
  6
Continuous
 62
     7
100
AcDbLine
 10
-1515.977304612202
 20
-1635.181297024922
 30
0.0
 11
-1515.536123332203
 21
-1635.181297024922
 31
0.0
  0
LINE
  5
18D
330
45D
100
AcDbEntity
  8
DATA
  6
Continuous
 62
     7
100
AcDbLine
 10
-1515.085943332203
 20
-1636.892000544922
 30
0.0
 11
-1515.085943332203
 21
-1635.397383424922
 31
0.0
  0
ARC
  5
18E
330
45D
100
AcDbEntity
  8
DATA
  6
Continuous
 62
     7
100
AcDbCircle
 10
-1517.833563892202
 20
-1636.792380224922
 30
0.0
 40
0.5693976913581405
100
AcDbArc
 50
332.640393332847
 51
357.2230045500069
  0
ARC
  5
18F
330
45D
100
AcDbEntity
  8
DATA
  6
Continuous
 62
     7
100
AcDbCircle
 10
-1512.428139172202
 20
-1636.830527184922
 30
0.0
 40
0.3405892672061457
100
AcDbArc
 50
269.7118487927484
 51
1.775987005687966
  0
ARC
  5
190
330
45D
100
AcDbEntity
  8
DATA
  6
Continuous
 62
     7
100
AcDbCircle
 10
-1512.431564932203
 20
-1636.830527184922
 30
0.0
 40
0.3405875256401876
100
AcDbArc
 50
178.2240129943196
 51
270.2881512072453
  0
LINE
  5
191
330
45D
100
AcDbEntity
  8
DATA
  6
Continuous
 62
     7
100
AcDbLine
 10
-1514.221587972203
 20
-1636.783952464923
 30
0.0
 11
-1514.221587972203
 21
-1635.487424304923
 31
0.0
  0
LINE
  5
192
330
45D
100
AcDbEntity
  8
DATA
  6
Continuous
 62
     7
100
AcDbLine
 10
-1515.977304612202
 20
-1634.713109824922
 30
0.0
 11
-1515.536123332203
 21
-1634.713109824922
 31
0.0
  0
ARC
  5
193
330
45D
100
AcDbEntity
  8
DATA
  6
Continuous
 62
     7
100
AcDbCircle
 10
-1515.147977892203
 20
-1636.640870864922
 30
0.0
 40
0.9284743689184736
100
AcDbArc
 50
273.8309816091166
 51
351.1351473098021
  0
LINE
  5
194
330
45D
100
AcDbEntity
  8
DATA
  6
Continuous
 62
     7
100
AcDbLine
 10
-1518.165198932203
 20
-1632.687280304923
 30
0.0
 11
-1517.264829172203
 21
-1632.687280304923
 31
0.0
  0
LINE
  5
195
330
45D
100
AcDbEntity
  8
DATA
  6
Continuous
 62
     7
100
AcDbLine
 10
-1519.956934852203
 20
-1632.687280304923
 30
0.0
 11
-1518.507340612202
 21
-1632.687280304923
 31
0.0
  0
LINE
  5
196
330
45D
100
AcDbEntity
  8
DATA
  6
Continuous
 62
     7
100
AcDbLine
 10
-1513.708377892202
 20
-1632.687280304923
 30
0.0
 11
-1512.771993732203
 21
-1632.687280304923
 31
0.0
  0
LINE
  5
197
330
45D
100
AcDbEntity
  8
DATA
  6
Continuous
 62
     7
100
AcDbLine
 10
-1516.796637092203
 20
-1632.687280304923
 30
0.0
 11
-1515.076539509667
 21
-1632.687284254667
 31
0.0
  0
LINE
  5
198
330
45D
100
AcDbEntity
  8
DATA
  6
Continuous
 62
     7
100
AcDbLine
 10
-1515.977304612202
 20
-1633.146468784923
 30
0.0
 11
-1515.536123332203
 21
-1633.146468784923
 31
0.0
  0
ARC
  5
199
330
45D
100
AcDbEntity
  8
DATA
  6
Continuous
 62
     7
100
AcDbCircle
 10
-1515.138720532202
 20
-1633.612264784922
 30
0.0
 40
0.9270682072606653
100
AcDbArc
 50
8.226923859026939
 51
86.1541266921597
  0
LINE
  5
19A
330
45D
100
AcDbEntity
  8
DATA
  6
Continuous
 62
     7
100
AcDbLine
 10
-1508.475352692203
 20
-1640.833815664922
 30
0.0
 11
-1522.475352692203
 21
-1640.833815664922
 31
0.0
  0
ARC
  5
19B
330
45D
100
AcDbEntity
  8
DATA
  6
Continuous
 62
     7
100
AcDbCircle
 10
-1515.530913706452
 20
-1636.252287220156
 30
0.0
 40
0.8558155812503358
100
AcDbArc
 50
269.6512199376112
 51
282.8264828068749
  0
ARC
  5
19C
330
45D
100
AcDbEntity
  8
DATA
  6
Continuous
 62
     7
100
AcDbCircle
 10
-1515.434792070799
 20
-1636.614109096801
 30
0.0
 40
0.4818696970022209
100
AcDbArc
 50
281.2331036226599
 51
306.862008894044
  0
ARC
  5
19D
330
45D
100
AcDbEntity
  8
DATA
  6
Continuous
 62
     7
100
AcDbCircle
 10
-1515.240731386779
 20
-1635.412923318983
 30
0.0
 40
0.1555661600314516
100
AcDbArc
 50
5.732980710567841
 51
52.35809750241992
  0
ARC
  5
19E
330
45D
100
AcDbEntity
  8
DATA
  6
Continuous
 62
     7
100
AcDbCircle
 10
-1515.530913706452
 20
-1636.037096749689
 30
0.0
 40
0.855815581250259
100
AcDbArc
 50
77.17351719312512
 51
90.34878006238896
  0
ARC
  5
19F
330
45D
100
AcDbEntity
  8
DATA
  6
Continuous
 62
     7
100
AcDbCircle
 10
-1515.434792070799
 20
-1635.675274873043
 30
0.0
 40
0.4818696970021222
100
AcDbArc
 50
53.13799110593991
 51
78.76689637734013
  0
ARC
  5
1A0
330
45D
100
AcDbEntity
  8
DATA
  6
Continuous
 62
     7
100
AcDbCircle
 10
-1514.693815812203
 20
-1635.519344384922
 30
0.0
 40
0.4733054239898862
100
AcDbArc
 50
3.867006359845353
 51
88.36163456787799
  0
ARC
  5
1A1
330
45D
100
AcDbEntity
  8
DATA
  6
Continuous
 62
     7
100
AcDbCircle
 10
-1514.694250132203
 20
-1634.572663424922
 30
0.0
 40
0.4737757466944054
100
AcDbArc
 50
271.689282104645
 51
356.0782829826571
  0
ARC
  5
1A2
330
45D
100
AcDbEntity
  8
DATA
  6
Continuous
 62
     7
100
AcDbCircle
 10
-1515.240731386779
 20
-1634.481483530862
 30
0.0
 40
0.1555661600313979
100
AcDbArc
 50
307.6419024975801
 51
354.2670192894322
  0
ARC
  5
1A3
330
45D
100
AcDbEntity
  8
DATA
  6
Continuous
 62
     7
100
AcDbCircle
 10
-1515.530913706452
 20
-1633.857310100156
 30
0.0
 40
0.8558155812503358
100
AcDbArc
 50
269.6512199376112
 51
282.8264828068715
  0
ARC
  5
1A4
330
45D
100
AcDbEntity
  8
DATA
  6
Continuous
 62
     7
100
AcDbCircle
 10
-1515.434792070799
 20
-1634.219131976801
 30
0.0
 40
0.4818696970022209
100
AcDbArc
 50
281.2331036226599
 51
306.862008894044
  0
ARC
  5
1A5
330
45D
100
AcDbEntity
  8
DATA
  6
Continuous
 62
     7
100
AcDbCircle
 10
-1515.240731386779
 20
-1633.378095078983
 30
0.0
 40
0.1555661600314516
100
AcDbArc
 50
5.732980710567841
 51
52.35809750241992
  0
ARC
  5
1A6
330
45D
100
AcDbEntity
  8
DATA
  6
Continuous
 62
     7
100
AcDbCircle
 10
-1515.530913706452
 20
-1634.002268509689
 30
0.0
 40
0.8558155812504807
100
AcDbArc
 50
77.1735171931285
 51
90.34878006238889
  0
ARC
  5
1A7
330
45D
100
AcDbEntity
  8
DATA
  6
Continuous
 62
     7
100
AcDbCircle
 10
-1515.434792070799
 20
-1633.640446633043
 30
0.0
 40
0.4818696970023041
100
AcDbArc
 50
53.13799110595613
 51
78.76689637734013
  0
LINE
  5
1A8
330
45D
100
AcDbEntity
  8
DATA
  6
Continuous
 62
     7
100
AcDbLine
 10
-1544.475352692202
 20
-1574.0
 30
0.0
 11
-1544.475352692202
 21
-1535.0
 31
0.0
  0
LINE
  5
1A9
330
45D
100
AcDbEntity
  8
DATA
  6
Continuous
 62
     7
100
AcDbLine
 10
-1486.475352692203
 20
-1574.0
 30
0.0
 11
-1544.475352692202
 21
-1574.0
 31
0.0
  0
LINE
  5
1AA
330
45D
100
AcDbEntity
  8
DATA
  6
Continuous
 62
     7
100
AcDbLine
 10
-1486.475352692203
 20
-1535.0
 30
0.0
 11
-1486.475352692203
 21
-1574.0
 31
0.0
  0
LINE
  5
1AB
330
45D
100
AcDbEntity
  8
DATA
  6
Continuous
 62
     7
100
AcDbLine
 10
-1544.475352692202
 20
-1535.0
 30
0.0
 11
-1486.475352692203
 21
-1535.0
 31
0.0
  0
ARC
  5
1AC
330
45D
100
AcDbEntity
  8
DATA
  6
Continuous
 62
     7
100
AcDbCircle
 10
-1494.475352692203
 20
-1554.499999999998
 30
0.0
 40
10.00000000000159
100
AcDbArc
 50
90.0
 51
270.0000000000039
  0
LINE
  5
1AD
330
45D
100
AcDbEntity
  8
DATA
  6
Continuous
 62
     7
100
AcDbLine
 10
-1494.475352692203
 20
-1544.5
 30
0.0
 11
-1486.475352692203
 21
-1544.5
 31
0.0
  0
LINE
  5
1AE
330
45D
100
AcDbEntity
  8
DATA
  6
Continuous
 62
     7
100
AcDbLine
 10
-1494.475352692203
 20
-1564.5
 30
0.0
 11
-1486.475352692203
 21
-1564.5
 31
0.0
  0
ARC
  5
1AF
330
45D
100
AcDbEntity
  8
DATA
  6
Continuous
 62
     7
100
AcDbCircle
 10
-1536.475352692202
 20
-1554.499999999998
 30
0.0
 40
10.00000000000159
100
AcDbArc
 50
269.9999999999961
 51
90.0
  0
LINE
  5
1B0
330
45D
100
AcDbEntity
  8
DATA
  6
Continuous
 62
     7
100
AcDbLine
 10
-1536.475352692202
 20
-1544.5
 30
0.0
 11
-1544.475352692202
 21
-1544.5
 31
0.0
  0
LINE
  5
1B1
330
45D
100
AcDbEntity
  8
DATA
  6
Continuous
 62
     7
100
AcDbLine
 10
-1536.475352692202
 20
-1564.5
 30
0.0
 11
-1544.475352692202
 21
-1564.5
 31
0.0
  0
LINE
  5
1B2
330
45D
100
AcDbEntity
  8
DATA
  6
Continuous
 62
     7
100
AcDbLine
 10
472.9716148888894
 20
-1609.971358420638
 30
0.0
 11
468.6059241935201
 21
-1658.677834757869
 31
0.0
  0
LINE
  5
1B3
330
45D
100
AcDbEntity
  8
DATA
  6
Continuous
 62
     7
100
AcDbLine
 10
2.976790168763272
 20
-1647.780386422887
 30
0.0
 11
18.78861749304201
 21
-1691.530824234735
 31
0.0
  0
LINE
  5
1B4
330
45D
100
AcDbEntity
  8
DATA
  6
Continuous
 62
     7
100
AcDbLine
 10
221.4438192762932
 20
-1663.771187372173
 30
0.0
 11
221.4438192762932
 21
-1609.4
 31
0.0
  0
LINE
  5
1B5
330
45D
100
AcDbEntity
  8
DATA
  6
Continuous
 62
     7
100
AcDbLine
 10
227.8438192762933
 20
-1603.0
 30
0.0
 11
466.5971698498947
 21
-1603.0
 31
0.0
  0
LINE
  5
1B6
330
45D
100
AcDbEntity
  8
DATA
  6
Continuous
 62
     7
100
AcDbLine
 10
350.0110509984939
 20
-1664.171187372174
 30
0.0
 11
350.0110509984939
 21
-1609.0
 31
0.0
  0
LINE
  5
1B7
330
45D
100
AcDbEntity
  8
DATA
  6
Continuous
 62
     7
100
AcDbLine
 10
456.0363153822522
 20
-1670.171187372173
 30
0.0
 11
227.8438192762933
 21
-1670.171187372173
 31
0.0
  0
LINE
  5
1B8
330
45D
100
AcDbEntity
  8
DATA
  6
Continuous
 62
     7
100
AcDbLine
 10
225.0003803983245
 20
-1539.626481709072
 30
0.0
 11
263.1251905173398
 21
-1520.719610700797
 31
0.0
  0
LINE
  5
1B9
330
45D
100
AcDbEntity
  8
DATA
  6
Continuous
 62
     7
100
AcDbLine
 10
263.1251905173398
 20
-1520.719610700797
 30
0.0
 11
301.9212496039832
 21
-1502.435843153945
 31
0.0
  0
LINE
  5
1BA
330
45D
100
AcDbEntity
  8
DATA
  6
Continuous
 62
     7
100
AcDbLine
 10
301.9212496039832
 20
-1502.435843153945
 30
0.0
 11
341.0201477737071
 21
-1485.125604894179
 31
0.0
  0
LINE
  5
1BB
330
45D
100
AcDbEntity
  8
DATA
  6
Continuous
 62
     7
100
AcDbLine
 10
221.4438192762932
 20
-1568.52171810661
 30
0.0
 11
221.4438192762932
 21
-1545.36014156533
 31
0.0
  0
LINE
  5
1BC
330
45D
100
AcDbEntity
  8
DATA
  6
Continuous
 62
     7
100
AcDbLine
 10
343.611050998494
 20
-1574.92171810661
 30
0.0
 11
227.8438192762933
 21
-1574.92171810661
 31
0.0
  0
LINE
  5
1BD
330
45D
100
AcDbEntity
  8
DATA
  6
Continuous
 62
     7
100
AcDbLine
 10
350.0110509984939
 20
-1490.977717374283
 30
0.0
 11
350.0110509984939
 21
-1568.52171810661
 31
0.0
  0
LINE
  5
1BE
330
45D
100
AcDbEntity
  8
DATA
  6
Continuous
 62
     7
100
AcDbLine
 10
350.9753526922027
 20
-1609.964301693708
 30
0.0
 11
350.9753526922027
 21
-1662.887982756136
 31
0.0
  0
LINE
  5
1BF
330
45D
100
AcDbEntity
  8
DATA
  6
Continuous
 62
     7
100
AcDbLine
 10
356.9753526922027
 20
-1668.887982756136
 30
0.0
 11
456.2664622951559
 21
-1668.887982756136
 31
0.0
  0
LINE
  5
1C0
330
45D
100
AcDbEntity
  8
DATA
  6
Continuous
 62
     7
100
AcDbLine
 10
467.557132949572
 20
-1658.604560331852
 30
0.0
 11
472.1138466851034
 21
-1609.911160777649
 31
0.0
  0
LINE
  5
1C1
330
45D
100
AcDbEntity
  8
DATA
  6
Continuous
 62
     7
100
AcDbLine
 10
466.6975108508861
 20
-1603.964301693708
 30
0.0
 11
356.9753526922027
 21
-1603.964301693708
 31
0.0
  0
LINE
  5
1C2
330
45D
100
AcDbEntity
  8
DATA
  6
Continuous
 62
     7
100
AcDbLine
 10
491.7171216089823
 20
-1688.278465070469
 30
0.0
 11
515.611943892728
 21
-1412.740459158418
 31
0.0
  0
ARC
  5
1C3
330
45D
100
AcDbEntity
  8
DATA
  6
Continuous
 62
     7
100
AcDbCircle
 10
49.99999999999977
 20
-1630.785747939897
 30
0.0
 40
49.99999999999954
100
AcDbArc
 50
124.7959386335032
 51
199.870341155209
  0
ARC
  5
1C4
330
45D
100
AcDbEntity
  8
DATA
  6
Continuous
 62
     7
100
AcDbCircle
 10
465.7989016233119
 20
-1408.42064204825
 30
0.0
 40
49.99999999999945
100
AcDbArc
 50
355.043675196853
 51
111.5475456142316
  0
ARC
  5
1C5
330
45D
100
AcDbEntity
  8
DATA
  6
Continuous
 62
     7
100
AcDbCircle
 10
343.611050998494
 20
-1568.52171810661
 30
0.0
 40
6.40000000000009
100
AcDbArc
 50
270.0
 51
0.0
  0
ARC
  5
1C6
330
45D
100
AcDbEntity
  8
DATA
  6
Continuous
 62
     7
100
AcDbCircle
 10
227.8438192762933
 20
-1568.52171810661
 30
0.0
 40
6.40000000000009
100
AcDbArc
 50
180.0
 51
270.0
  0
ARC
  5
1C7
330
45D
100
AcDbEntity
  8
DATA
  6
Continuous
 62
     7
100
AcDbCircle
 10
227.8438192762933
 20
-1545.36014156533
 30
0.0
 40
6.39999999999996
100
AcDbArc
 50
116.3777510182411
 51
180.0
  0
ARC
  5
1C8
330
45D
100
AcDbEntity
  8
DATA
  6
Continuous
 62
     7
100
AcDbCircle
 10
343.6110509984938
 20
-1490.977717374283
 30
0.0
 40
6.40000000000009
100
AcDbArc
 50
0.0000000000020464
 51
113.8803885914946
  0
ARC
  5
1C9
330
45D
100
AcDbEntity
  8
DATA
  6
Continuous
 62
     7
100
AcDbCircle
 10
1216.36023497032
 20
-3311.822006796042
 30
0.0
 40
2096.039845260457
100
AcDbArc
 50
111.5212670087412
 51
124.7552259335063
  0
ARC
  5
1CA
330
45D
100
AcDbEntity
  8
DATA
  6
Continuous
 62
     7
100
AcDbCircle
 10
456.0363153822525
 20
-1657.551187372173
 30
0.0
 40
12.61999999999989
100
AcDbArc
 50
269.999999999999
 51
354.8781144407904
  0
ARC
  5
1CB
330
45D
100
AcDbEntity
  8
DATA
  6
Continuous
 62
     7
100
AcDbCircle
 10
227.8438192762933
 20
-1609.4
 30
0.0
 40
6.40000000000009
100
AcDbArc
 50
90.0
 51
180.0
  0
ARC
  5
1CC
330
45D
100
AcDbEntity
  8
DATA
  6
Continuous
 62
     7
100
AcDbCircle
 10
227.8438192762933
 20
-1663.771187372173
 30
0.0
 40
6.40000000000009
100
AcDbArc
 50
180.0
 51
270.0
  0
ARC
  5
1CD
330
45D
100
AcDbEntity
  8
DATA
  6
Continuous
 62
     7
100
AcDbCircle
 10
356.9753526922027
 20
-1662.887982756136
 30
0.0
 40
6.0
100
AcDbArc
 50
180.0
 51
270.0
  0
ARC
  5
1CE
330
45D
100
AcDbEntity
  8
DATA
  6
Continuous
 62
     7
100
AcDbCircle
 10
344.0110509984938
 20
-1609.0
 30
0.0
 40
6.0
100
AcDbArc
 50
0.0
 51
90.0
  0
ARC
  5
1CF
330
45D
100
AcDbEntity
  8
DATA
  6
Continuous
 62
     7
100
AcDbCircle
 10
344.0110509984938
 20
-1664.171187372174
 30
0.0
 40
6.0
100
AcDbArc
 50
270.0
 51
0.0
  0
ARC
  5
1D0
330
45D
100
AcDbEntity
  8
DATA
  6
Continuous
 62
     7
100
AcDbCircle
 10
456.2664622951556
 20
-1657.547982756136
 30
0.0
 40
11.33999999999992
100
AcDbArc
 50
270.0000000000011
 51
354.6538475540596
  0
TEXT
  5
1D1
330
45D
100
AcDbEntity
  8
DATA
 62
     7
100
AcDbText
 10
396.0446351900326
 20
-1612.212193657214
 30
0.0
 40
4.072102864583333
  1
VTX SERIES | M20
 41
0.7
 72
     1
 11
415.4753526922027
 21
-1610.176142224922
 31
0.0
100
AcDbText
 73
     2
  0
LINE
  5
1D2
330
45D
100
AcDbEntity
  8
DATA
  6
Continuous
 62
     7
100
AcDbLine
 10
447.9753526922025
 20
-1610.176142224922
 30
0.0
 11
452.9753526922025
 21
-1610.176142224922
 31
0.0
  0
CIRCLE
  5
1D3
330
45D
100
AcDbEntity
  8
DATA
  6
Continuous
 62
     7
100
AcDbCircle
 10
450.4753526922025
 20
-1610.176142224922
 30
0.0
 40
3.5
  0
LINE
  5
1D4
330
45D
100
AcDbEntity
  8
DATA
  6
Continuous
 62
     7
100
AcDbLine
 10
450.4753526922026
 20
-1607.676142224922
 30
0.0
 11
450.4753526922026
 21
-1612.676142224922
 31
0.0
  0
ARC
  5
1D5
330
45D
100
AcDbEntity
  8
DATA
  6
Continuous
 62
     7
100
AcDbCircle
 10
466.5971698498944
 20
-1609.4
 30
0.0
 40
6.400000000000096
100
AcDbArc
 50
354.8781144407915
 51
89.99999999999795
  0
ARC
  5
1D6
330
45D
100
AcDbEntity
  8
DATA
  6
Continuous
 62
     7
100
AcDbCircle
 10
466.6975108508861
 20
-1609.404301693708
 30
0.0
 40
5.439999999999999
100
AcDbArc
 50
354.6538475540629
 51
90.0
  0
ARC
  5
1D7
330
45D
100
AcDbEntity
  8
DATA
  6
Continuous
 62
     7
100
AcDbCircle
 10
356.9753526922027
 20
-1609.964301693708
 30
0.0
 40
6.0
100
AcDbArc
 50
90.0
 51
180.0
  0
LINE
  5
1D8
330
45D
100
AcDbEntity
  8
DATA
  6
Continuous
 62
     7
100
AcDbLine
 10
377.9753526922027
 20
-1610.176142224922
 30
0.0
 11
382.9753526922027
 21
-1610.176142224922
 31
0.0
  0
CIRCLE
  5
1D9
330
45D
100
AcDbEntity
  8
DATA
  6
Continuous
 62
     7
100
AcDbCircle
 10
380.4753526922027
 20
-1610.176142224922
 30
0.0
 40
3.5
  0
LINE
  5
1DA
330
45D
100
AcDbEntity
  8
DATA
  6
Continuous
 62
     7
100
AcDbLine
 10
380.4753526922029
 20
-1607.676142224922
 30
0.0
 11
380.4753526922029
 21
-1612.676142224922
 31
0.0
  0
LINE
  5
1DB
330
45D
100
AcDbEntity
  8
DATA
  6
Continuous
 62
     7
100
AcDbLine
 10
447.9753526922027
 20
-1662.676142224922
 30
0.0
 11
452.9753526922027
 21
-1662.676142224922
 31
0.0
  0
CIRCLE
  5
1DC
330
45D
100
AcDbEntity
  8
DATA
  6
Continuous
 62
     7
100
AcDbCircle
 10
450.4753526922026
 20
-1662.676142224922
 30
0.0
 40
3.5
  0
LINE
  5
1DD
330
45D
100
AcDbEntity
  8
DATA
  6
Continuous
 62
     7
100
AcDbLine
 10
450.4753526922029
 20
-1660.176142224922
 30
0.0
 11
450.4753526922029
 21
-1665.176142224922
 31
0.0
  0
LINE
  5
1DE
330
45D
100
AcDbEntity
  8
DATA
  6
Continuous
 62
     7
100
AcDbLine
 10
377.9753526922029
 20
-1662.676142224922
 30
0.0
 11
382.9753526922029
 21
-1662.676142224922
 31
0.0
  0
CIRCLE
  5
1DF
330
45D
100
AcDbEntity
  8
DATA
  6
Continuous
 62
     7
100
AcDbCircle
 10
380.4753526922029
 20
-1662.676142224922
 30
0.0
 40
3.5
  0
LINE
  5
1E0
330
45D
100
AcDbEntity
  8
DATA
  6
Continuous
 62
     7
100
AcDbLine
 10
380.4753526922032
 20
-1660.176142224922
 30
0.0
 11
380.4753526922032
 21
-1665.176142224922
 31
0.0
  0
CIRCLE
  5
1E1
330
45D
100
AcDbEntity
  8
DATA
  6
Continuous
 62
     7
100
AcDbCircle
 10
442.7253526922027
 20
-1636.426142224922
 30
0.0
 40
15.0
  0
LINE
  5
1E2
330
45D
100
AcDbEntity
  8
DATA
  6
Continuous
 62
     7
100
AcDbLine
 10
445.7253526922027
 20
-1626.426142224922
 30
0.0
 11
439.7253526922026
 21
-1626.426142224922
 31
0.0
  0
LINE
  5
1E3
330
45D
100
AcDbEntity
  8
DATA
  6
Continuous
 62
     7
100
AcDbLine
 10
444.7253526922026
 20
-1646.426142224922
 30
0.0
 11
440.7253526922026
 21
-1646.426142224922
 31
0.0
  0
LINE
  5
1E4
330
45D
100
AcDbEntity
  8
DATA
  6
Continuous
 62
     7
100
AcDbLine
 10
444.7253526922026
 20
-1646.426142224922
 30
0.0
 11
444.7253526922026
 21
-1645.226142224922
 31
0.0
  0
LINE
  5
1E5
330
45D
100
AcDbEntity
  8
DATA
  6
Continuous
 62
     7
100
AcDbLine
 10
440.7253526922026
 20
-1646.426142224922
 30
0.0
 11
440.7253526922026
 21
-1645.226142224922
 31
0.0
  0
LINE
  5
1E6
330
45D
100
AcDbEntity
  8
DATA
  6
Continuous
 62
     7
100
AcDbLine
 10
445.7253526922027
 20
-1626.426142224922
 30
0.0
 11
445.7253526922027
 21
-1628.153292224922
 31
0.0
  0
LINE
  5
1E7
330
45D
100
AcDbEntity
  8
DATA
  6
Continuous
 62
     7
100
AcDbLine
 10
439.7253526922026
 20
-1626.426142224922
 30
0.0
 11
439.7253526922026
 21
-1628.153292224922
 31
0.0
  0
ARC
  5
1E8
330
45D
100
AcDbEntity
  8
DATA
  6
Continuous
 62
     7
100
AcDbCircle
 10
442.7253526922027
 20
-1636.426142224922
 30
0.0
 40
8.800002677414353
100
AcDbArc
 50
282.8038331803013
 51
70.06773584932068
  0
ARC
  5
1E9
330
45D
100
AcDbEntity
  8
DATA
  6
Continuous
 62
     7
100
AcDbCircle
 10
442.7253526922027
 20
-1636.426142224922
 30
0.0
 40
8.80000350434606
100
AcDbArc
 50
110.0000057620384
 51
257.0000004445788
  0
ARC
  5
1EA
330
45D
100
AcDbEntity
  8
DATA
  6
Continuous
 62
     7
100
AcDbCircle
 10
442.7253526922027
 20
-1636.426142224922
 30
0.0
 40
6.200002162064216
100
AcDbArc
 50
29.99998846443782
 51
119.9999884644388
  0
LINE
  5
1EB
330
45D
100
AcDbEntity
  8
DATA
  6
Continuous
 62
     7
100
AcDbLine
 10
448.0946926922023
 20
-1633.326112224922
 30
0.0
 11
447.5967326922028
 21
-1633.613612224922
 31
0.0
  0
LINE
  5
1EC
330
45D
100
AcDbEntity
  8
DATA
  6
Continuous
 62
     7
100
AcDbLine
 10
439.6253826922029
 20
-1631.056762224923
 30
0.0
 11
439.9128826922029
 21
-1631.554732224922
 31
0.0
  0
ARC
  5
1ED
330
45D
100
AcDbEntity
  8
DATA
  6
Continuous
 62
     7
100
AcDbCircle
 10
442.7253526922027
 20
-1636.426142224922
 30
0.0
 40
6.200002162064216
100
AcDbArc
 50
209.9999884644378
 51
299.9999884644379
  0
LINE
  5
1EE
330
45D
100
AcDbEntity
  8
DATA
  6
Continuous
 62
     7
100
AcDbLine
 10
445.8253526922026
 20
-1641.795502224922
 30
0.0
 11
445.5378526922027
 21
-1641.297532224922
 31
0.0
  0
LINE
  5
1EF
330
45D
100
AcDbEntity
  8
DATA
  6
Continuous
 62
     7
100
AcDbLine
 10
437.3559826922027
 20
-1639.526122224922
 30
0.0
 11
437.8539526922027
 21
-1639.238622224922
 31
0.0
  0
ARC
  5
1F0
330
45D
100
AcDbEntity
  8
DATA
  6
Continuous
 62
     7
100
AcDbCircle
 10
442.7253526922027
 20
-1636.426142224922
 30
0.0
 40
5.625003831580863
100
AcDbArc
 50
299.9997873956948
 51
30.00033031789661
  0
ARC
  5
1F1
330
45D
100
AcDbEntity
  8
DATA
  6
Continuous
 62
     7
100
AcDbCircle
 10
442.7253526922027
 20
-1636.426142224922
 30
0.0
 40
5.624996152034287
100
AcDbArc
 50
119.9992817568784
 51
209.9997873956977
  0
ARC
  5
1F2
330
45D
100
AcDbEntity
  8
DATA
  6
Continuous
 62
     7
100
AcDbCircle
 10
442.7253526922027
 20
-1636.426142224922
 30
0.0
 40
3.59999008087506
100
AcDbArc
 50
30.00009114529544
 51
120.0000911452905
  0
ARC
  5
1F3
330
45D
100
AcDbEntity
  8
DATA
  6
Continuous
 62
     7
100
AcDbCircle
 10
442.7253526922027
 20
-1636.426142224922
 30
0.0
 40
3.59999008087506
100
AcDbArc
 50
210.0000911452954
 51
300.0000911452905
  0
LINE
  5
1F4
330
45D
100
AcDbEntity
  8
DATA
  6
Continuous
 62
     7
100
AcDbLine
 10
440.9253726922025
 20
-1633.308452224923
 30
0.0
 11
441.2753626922024
 21
-1633.914662224922
 31
0.0
  0
LINE
  5
1F5
330
45D
100
AcDbEntity
  8
DATA
  6
Continuous
 62
     7
100
AcDbLine
 10
445.8430226922028
 20
-1634.626132224922
 30
0.0
 11
445.2368226922025
 21
-1634.976132224922
 31
0.0
  0
LINE
  5
1F6
330
45D
100
AcDbEntity
  8
DATA
  6
Continuous
 62
     7
100
AcDbLine
 10
444.5253526922023
 20
-1639.543822224922
 30
0.0
 11
444.1753526922028
 21
-1638.937612224922
 31
0.0
  0
LINE
  5
1F7
330
45D
100
AcDbEntity
  8
DATA
  6
Continuous
 62
     7
100
AcDbLine
 10
439.6076626922026
 20
-1638.226122224922
 30
0.0
 11
440.2138726922025
 21
-1637.876132224922
 31
0.0
  0
ARC
  5
1F8
330
45D
100
AcDbEntity
  8
DATA
  6
Continuous
 62
     7
100
AcDbCircle
 10
442.7253526922027
 20
-1636.426142224922
 30
0.0
 40
2.900001820861433
100
AcDbArc
 50
299.9997663761697
 51
30.00020736597071
  0
ARC
  5
1F9
330
45D
100
AcDbEntity
  8
DATA
  6
Continuous
 62
     7
100
AcDbCircle
 10
442.7253526922027
 20
-1636.426142224922
 30
0.0
 40
2.900000481120576
100
AcDbArc
 50
120.0002073659695
 51
209.9997663761699
  0
CIRCLE
  5
1FA
330
45D
100
AcDbEntity
  8
DATA
  6
Continuous
 62
     7
100
AcDbCircle
 10
388.2253526922027
 20
-1636.426142224922
 30
0.0
 40
15.0
  0
LINE
  5
1FB
330
45D
100
AcDbEntity
  8
DATA
  6
Continuous
 62
     7
100
AcDbLine
 10
391.2253526922027
 20
-1626.426142224922
 30
0.0
 11
385.2253526922027
 21
-1626.426142224922
 31
0.0
  0
LINE
  5
1FC
330
45D
100
AcDbEntity
  8
DATA
  6
Continuous
 62
     7
100
AcDbLine
 10
390.2253526922027
 20
-1646.426142224922
 30
0.0
 11
386.2253526922027
 21
-1646.426142224922
 31
0.0
  0
LINE
  5
1FD
330
45D
100
AcDbEntity
  8
DATA
  6
Continuous
 62
     7
100
AcDbLine
 10
390.2253526922027
 20
-1646.426142224922
 30
0.0
 11
390.2253526922027
 21
-1645.226142224922
 31
0.0
  0
LINE
  5
1FE
330
45D
100
AcDbEntity
  8
DATA
  6
Continuous
 62
     7
100
AcDbLine
 10
386.2253526922027
 20
-1646.426142224922
 30
0.0
 11
386.2253526922027
 21
-1645.226142224922
 31
0.0
  0
LINE
  5
1FF
330
45D
100
AcDbEntity
  8
DATA
  6
Continuous
 62
     7
100
AcDbLine
 10
391.2253526922027
 20
-1626.426142224922
 30
0.0
 11
391.2253526922027
 21
-1628.153292224922
 31
0.0
  0
LINE
  5
200
330
45D
100
AcDbEntity
  8
DATA
  6
Continuous
 62
     7
100
AcDbLine
 10
385.2253526922027
 20
-1626.426142224922
 30
0.0
 11
385.2253526922027
 21
-1628.153292224922
 31
0.0
  0
ARC
  5
201
330
45D
100
AcDbEntity
  8
DATA
  6
Continuous
 62
     7
100
AcDbCircle
 10
388.2253526922027
 20
-1636.426142224922
 30
0.0
 40
8.800002677414353
100
AcDbArc
 50
282.8038331803013
 51
70.06773584932068
  0
ARC
  5
202
330
45D
100
AcDbEntity
  8
DATA
  6
Continuous
 62
     7
100
AcDbCircle
 10
388.2253526922027
 20
-1636.426142224922
 30
0.0
 40
8.80000350434606
100
AcDbArc
 50
110.0000057620384
 51
257.0000004445788
  0
ARC
  5
203
330
45D
100
AcDbEntity
  8
DATA
  6
Continuous
 62
     7
100
AcDbCircle
 10
388.2253526922027
 20
-1636.426142224922
 30
0.0
 40
6.200002162064216
100
AcDbArc
 50
29.99998846443782
 51
119.9999884644388
  0
LINE
  5
204
330
45D
100
AcDbEntity
  8
DATA
  6
Continuous
 62
     7
100
AcDbLine
 10
393.5946926922024
 20
-1633.326112224922
 30
0.0
 11
393.0967326922029
 21
-1633.613612224922
 31
0.0
  0
LINE
  5
205
330
45D
100
AcDbEntity
  8
DATA
  6
Continuous
 62
     7
100
AcDbLine
 10
385.1253826922029
 20
-1631.056762224923
 30
0.0
 11
385.4128826922029
 21
-1631.554732224922
 31
0.0
  0
ARC
  5
206
330
45D
100
AcDbEntity
  8
DATA
  6
Continuous
 62
     7
100
AcDbCircle
 10
388.2253526922027
 20
-1636.426142224922
 30
0.0
 40
6.200002162064216
100
AcDbArc
 50
209.9999884644378
 51
299.9999884644379
  0
LINE
  5
207
330
45D
100
AcDbEntity
  8
DATA
  6
Continuous
 62
     7
100
AcDbLine
 10
391.3253526922026
 20
-1641.795502224922
 30
0.0
 11
391.0378526922027
 21
-1641.297532224922
 31
0.0
  0
LINE
  5
208
330
45D
100
AcDbEntity
  8
DATA
  6
Continuous
 62
     7
100
AcDbLine
 10
382.8559826922028
 20
-1639.526122224922
 30
0.0
 11
383.3539526922028
 21
-1639.238622224922
 31
0.0
  0
ARC
  5
209
330
45D
100
AcDbEntity
  8
DATA
  6
Continuous
 62
     7
100
AcDbCircle
 10
388.2253526922027
 20
-1636.426142224922
 30
0.0
 40
5.625003831580863
100
AcDbArc
 50
299.9997873956948
 51
30.00033031789661
  0
ARC
  5
20A
330
45D
100
AcDbEntity
  8
DATA
  6
Continuous
 62
     7
100
AcDbCircle
 10
388.2253526922027
 20
-1636.426142224922
 30
0.0
 40
5.624996152034287
100
AcDbArc
 50
119.9992817568784
 51
209.9997873956977
  0
ARC
  5
20B
330
45D
100
AcDbEntity
  8
DATA
  6
Continuous
 62
     7
100
AcDbCircle
 10
388.2253526922027
 20
-1636.426142224922
 30
0.0
 40
3.59999008087506
100
AcDbArc
 50
30.00009114529544
 51
120.0000911452905
  0
ARC
  5
20C
330
45D
100
AcDbEntity
  8
DATA
  6
Continuous
 62
     7
100
AcDbCircle
 10
388.2253526922027
 20
-1636.426142224922
 30
0.0
 40
3.59999008087506
100
AcDbArc
 50
210.0000911452954
 51
300.0000911452905
  0
LINE
  5
20D
330
45D
100
AcDbEntity
  8
DATA
  6
Continuous
 62
     7
100
AcDbLine
 10
386.4253726922025
 20
-1633.308452224923
 30
0.0
 11
386.7753626922025
 21
-1633.914662224922
 31
0.0
  0
LINE
  5
20E
330
45D
100
AcDbEntity
  8
DATA
  6
Continuous
 62
     7
100
AcDbLine
 10
391.3430226922029
 20
-1634.626132224922
 30
0.0
 11
390.7368226922025
 21
-1634.976132224922
 31
0.0
  0
LINE
  5
20F
330
45D
100
AcDbEntity
  8
DATA
  6
Continuous
 62
     7
100
AcDbLine
 10
390.0253526922024
 20
-1639.543822224922
 30
0.0
 11
389.6753526922029
 21
-1638.937612224922
 31
0.0
  0
LINE
  5
210
330
45D
100
AcDbEntity
  8
DATA
  6
Continuous
 62
     7
100
AcDbLine
 10
385.1076626922026
 20
-1638.226122224922
 30
0.0
 11
385.7138726922025
 21
-1637.876132224922
 31
0.0
  0
ARC
  5
211
330
45D
100
AcDbEntity
  8
DATA
  6
Continuous
 62
     7
100
AcDbCircle
 10
388.2253526922027
 20
-1636.426142224922
 30
0.0
 40
2.900001820861433
100
AcDbArc
 50
299.9997663761697
 51
30.00020736597071
  0
ARC
  5
212
330
45D
100
AcDbEntity
  8
DATA
  6
Continuous
 62
     7
100
AcDbCircle
 10
388.2253526922027
 20
-1636.426142224922
 30
0.0
 40
2.900000481120576
100
AcDbArc
 50
120.0002073659695
 51
209.9997663761699
  0
TEXT
  5
213
330
45D
100
AcDbEntity
  8
DATA
 62
     7
100
AcDbText
 10
352.2751953571333
 20
-1637.444167941068
 30
0.0
 40
2.036051432291666
  1
1±
 41
0.7
 72
     1
 11
353.2253526922027
 21
-1636.426142224922
 31
0.0
100
AcDbText
 73
     2
  0
TEXT
  5
214
330
45D
100
AcDbEntity
  8
DATA
 62
     7
100
AcDbText
 10
352.0376560233659
 20
-1647.444167941068
 30
0.0
 40
2.036051432291666
  1
2±
 41
0.7
 72
     1
 11
353.2253526922027
 21
-1646.426142224922
 31
0.0
100
AcDbText
 73
     2
  0
LWPOLYLINE
  5
215
330
45D
100
AcDbEntity
  8
DATA
  6
Continuous
 62
     7
100
AcDbPolyline
 90
        4
 70
     1
 43
0.0
 10
408.4753526922026
 20
-1629.426142224922
 10
422.4753526922027
 20
-1629.426142224922
 10
422.4753526922027
 20
-1643.426142224922
 10
408.4753526922026
 20
-1643.426142224922
  0
ARC
  5
21C
330
45D
100
AcDbEntity
  8
DATA
  6
Continuous
 62
     7
100
AcDbCircle
 10
415.7099739976263
 20
-1636.876460650862
 30
0.0
 40
0.1555661600313979
100
AcDbArc
 50
307.6419024975801
 51
354.2670192893489
  0
LINE
  5
21D
330
45D
100
AcDbEntity
  8
DATA
  6
Continuous
 62
     7
100
AcDbLine
 10
411.7140682922026
 20
-1634.424989744922
 30
0.0
 11
412.4433647722027
 21
-1632.687280304923
 31
0.0
  0
LINE
  5
21E
330
45D
100
AcDbEntity
  8
DATA
  6
Continuous
 62
     7
100
AcDbLine
 10
411.7140682922026
 20
-1634.424989744922
 30
0.0
 11
410.9937705322026
 21
-1632.687280304923
 31
0.0
  0
LINE
  5
21F
330
45D
100
AcDbEntity
  8
DATA
  6
Continuous
 62
     7
100
AcDbLine
 10
417.2423274922028
 20
-1637.567280304922
 30
0.0
 11
417.2423274922028
 21
-1632.687280304923
 31
0.0
  0
LINE
  5
220
330
45D
100
AcDbEntity
  8
DATA
  6
Continuous
 62
     7
100
AcDbLine
 10
418.1787116522025
 20
-1632.687280304923
 30
0.0
 11
418.1787116522025
 21
-1636.819976624923
 31
0.0
  0
LINE
  5
221
330
45D
100
AcDbEntity
  8
DATA
  6
Continuous
 62
     7
100
AcDbLine
 10
412.7855064522027
 20
-1632.687280304923
 30
0.0
 11
412.7855064522027
 21
-1636.819976624923
 31
0.0
  0
LINE
  5
222
330
45D
100
AcDbEntity
  8
DATA
  6
Continuous
 62
     7
100
AcDbLine
 10
413.6858762122025
 20
-1632.687280304923
 30
0.0
 11
413.6858762122025
 21
-1636.819976624923
 31
0.0
  0
LINE
  5
223
330
45D
100
AcDbEntity
  8
DATA
  6
Continuous
 62
     7
100
AcDbLine
 10
414.1540682922027
 20
-1632.687280304923
 30
0.0
 11
414.1540682922027
 21
-1637.567280304922
 31
0.0
  0
LINE
  5
224
330
45D
100
AcDbEntity
  8
DATA
  6
Continuous
 62
     7
100
AcDbLine
 10
414.9734056522026
 20
-1633.146463904922
 30
0.0
 11
414.9734056522026
 21
-1634.713109824922
 31
0.0
  0
LINE
  5
225
330
45D
100
AcDbEntity
  8
DATA
  6
Continuous
 62
     7
100
AcDbLine
 10
416.7295126922025
 20
-1634.622458944922
 30
0.0
 11
416.7295126922025
 21
-1633.479606864922
 31
0.0
  0
LINE
  5
226
330
45D
100
AcDbEntity
  8
DATA
  6
Continuous
 62
     7
100
AcDbLine
 10
415.8647620522025
 20
-1633.362555184922
 30
0.0
 11
415.8647620522025
 21
-1634.497023424922
 31
0.0
  0
ARC
  5
227
330
45D
100
AcDbEntity
  8
DATA
  6
Continuous
 62
     7
100
AcDbCircle
 10
412.6048293322027
 20
-1636.314193904922
 30
0.0
 40
1.258480471481958
100
AcDbArc
 50
264.6908562215259
 51
323.9911991542396
  0
LINE
  5
228
330
45D
100
AcDbEntity
  8
DATA
  6
Continuous
 62
     7
100
AcDbLine
 10
412.1012279722026
 20
-1636.036648784922
 30
0.0
 11
412.1012279722026
 21
-1636.819966864922
 31
0.0
  0
LINE
  5
229
330
45D
100
AcDbEntity
  8
DATA
  6
Continuous
 62
     7
100
AcDbLine
 10
412.1012279722026
 20
-1636.036648784922
 30
0.0
 11
411.2908942122025
 21
-1636.036648784922
 31
0.0
  0
LINE
  5
22A
330
45D
100
AcDbEntity
  8
DATA
  6
Continuous
 62
     7
100
AcDbLine
 10
411.2908942122025
 20
-1636.036648784922
 30
0.0
 11
411.2908942122025
 21
-1636.819966864922
 31
0.0
  0
ARC
  5
22B
330
45D
100
AcDbEntity
  8
DATA
  6
Continuous
 62
     7
100
AcDbCircle
 10
412.4450825322026
 20
-1636.830527184922
 30
0.0
 40
0.3405892672061446
100
AcDbArc
 50
269.7118487927867
 51
1.775987005687966
  0
ARC
  5
22C
330
45D
100
AcDbEntity
  8
DATA
  6
Continuous
 62
     7
100
AcDbCircle
 10
412.4416518922028
 20
-1636.830527184922
 30
0.0
 40
0.3405875256404149
100
AcDbArc
 50
178.2240129943208
 51
270.2881512072453
  0
ARC
  5
22D
330
45D
100
AcDbEntity
  8
DATA
  6
Continuous
 62
     7
100
AcDbCircle
 10
412.3719410922025
 20
-1636.314193904922
 30
0.0
 40
1.258478427629955
100
AcDbArc
 50
216.0088008457637
 51
275.3091437784696
  0
ARC
  5
22E
330
45D
100
AcDbEntity
  8
DATA
  6
Continuous
 62
     7
100
AcDbCircle
 10
411.8596289322026
 20
-1636.792380224922
 30
0.0
 40
0.5693985015898126
100
AcDbArc
 50
182.7769954499926
 51
207.3596066671555
  0
CIRCLE
  5
22F
330
45D
100
AcDbEntity
  8
DATA
  6
Continuous
 62
     7
100
AcDbCircle
 10
411.7635905322026
 20
-1635.100269504922
 30
0.0
 40
0.4636878400001478
  0
LINE
  5
230
330
45D
100
AcDbEntity
  8
DATA
  6
Continuous
 62
     7
100
AcDbLine
 10
419.6823274922025
 20
-1637.567275424922
 30
0.0
 11
417.2423274922028
 21
-1637.567275424922
 31
0.0
  0
LINE
  5
231
330
45D
100
AcDbEntity
  8
DATA
  6
Continuous
 62
     7
100
AcDbLine
 10
419.6823274922025
 20
-1637.567275424922
 30
0.0
 11
419.6823274922025
 21
-1636.036643904922
 31
0.0
  0
LINE
  5
232
330
45D
100
AcDbEntity
  8
DATA
  6
Continuous
 62
     7
100
AcDbLine
 10
419.6823274922025
 20
-1636.036648784922
 30
0.0
 11
418.8629950122026
 21
-1636.036648784922
 31
0.0
  0
LINE
  5
233
330
45D
100
AcDbEntity
  8
DATA
  6
Continuous
 62
     7
100
AcDbLine
 10
418.8629950122026
 20
-1636.036648784922
 30
0.0
 11
418.8629950122026
 21
-1636.819966864922
 31
0.0
  0
LINE
  5
234
330
45D
100
AcDbEntity
  8
DATA
  6
Continuous
 62
     7
100
AcDbLine
 10
414.1540682922027
 20
-1637.567275424922
 30
0.0
 11
415.8647620522025
 21
-1637.567270544922
 31
0.0
  0
LINE
  5
235
330
45D
100
AcDbEntity
  8
DATA
  6
Continuous
 62
     7
100
AcDbLine
 10
414.9734007722026
 20
-1637.108086944922
 30
0.0
 11
415.4145820522026
 21
-1637.108086944922
 31
0.0
  0
LINE
  5
236
330
45D
100
AcDbEntity
  8
DATA
  6
Continuous
 62
     7
100
AcDbLine
 10
414.9734056522026
 20
-1637.108086944922
 30
0.0
 11
414.9734056522026
 21
-1635.181297024922
 31
0.0
  0
LINE
  5
237
330
45D
100
AcDbEntity
  8
DATA
  6
Continuous
 62
     7
100
AcDbLine
 10
414.9734007722026
 20
-1635.181297024922
 30
0.0
 11
415.4145820522026
 21
-1635.181297024922
 31
0.0
  0
LINE
  5
238
330
45D
100
AcDbEntity
  8
DATA
  6
Continuous
 62
     7
100
AcDbLine
 10
415.8647620522025
 20
-1636.892000544922
 30
0.0
 11
415.8647620522025
 21
-1635.397383424922
 31
0.0
  0
ARC
  5
239
330
45D
100
AcDbEntity
  8
DATA
  6
Continuous
 62
     7
100
AcDbCircle
 10
413.1171414922028
 20
-1636.792380224922
 30
0.0
 40
0.5693976913581405
100
AcDbArc
 50
332.640393332847
 51
357.2230045500069
  0
ARC
  5
23A
330
45D
100
AcDbEntity
  8
DATA
  6
Continuous
 62
     7
100
AcDbCircle
 10
418.5225662122027
 20
-1636.830527184922
 30
0.0
 40
0.3405892672061457
100
AcDbArc
 50
269.7118487927484
 51
1.775987005687966
  0
ARC
  5
23B
330
45D
100
AcDbEntity
  8
DATA
  6
Continuous
 62
     7
100
AcDbCircle
 10
418.5191404522026
 20
-1636.830527184922
 30
0.0
 40
0.3405875256401876
100
AcDbArc
 50
178.2240129943196
 51
270.2881512072453
  0
LINE
  5
23C
330
45D
100
AcDbEntity
  8
DATA
  6
Continuous
 62
     7
100
AcDbLine
 10
416.7291174122025
 20
-1636.783952464923
 30
0.0
 11
416.7291174122025
 21
-1635.487424304923
 31
0.0
  0
LINE
  5
23D
330
45D
100
AcDbEntity
  8
DATA
  6
Continuous
 62
     7
100
AcDbLine
 10
414.9734007722026
 20
-1634.713109824922
 30
0.0
 11
415.4145820522026
 21
-1634.713109824922
 31
0.0
  0
ARC
  5
23E
330
45D
100
AcDbEntity
  8
DATA
  6
Continuous
 62
     7
100
AcDbCircle
 10
415.8027274922025
 20
-1636.640870864922
 30
0.0
 40
0.9284743689184736
100
AcDbArc
 50
273.8309816091166
 51
351.1351473098021
  0
LINE
  5
23F
330
45D
100
AcDbEntity
  8
DATA
  6
Continuous
 62
     7
100
AcDbLine
 10
412.7855064522027
 20
-1632.687280304923
 30
0.0
 11
413.6858762122025
 21
-1632.687280304923
 31
0.0
  0
LINE
  5
240
330
45D
100
AcDbEntity
  8
DATA
  6
Continuous
 62
     7
100
AcDbLine
 10
410.9937705322026
 20
-1632.687280304923
 30
0.0
 11
412.4433647722027
 21
-1632.687280304923
 31
0.0
  0
LINE
  5
241
330
45D
100
AcDbEntity
  8
DATA
  6
Continuous
 62
     7
100
AcDbLine
 10
417.2423274922028
 20
-1632.687280304923
 30
0.0
 11
418.1787116522025
 21
-1632.687280304923
 31
0.0
  0
LINE
  5
242
330
45D
100
AcDbEntity
  8
DATA
  6
Continuous
 62
     7
100
AcDbLine
 10
414.1540682922027
 20
-1632.687280304923
 30
0.0
 11
415.8741658747382
 21
-1632.687284254667
 31
0.0
  0
LINE
  5
243
330
45D
100
AcDbEntity
  8
DATA
  6
Continuous
 62
     7
100
AcDbLine
 10
414.9734007722026
 20
-1633.146468784923
 30
0.0
 11
415.4145820522026
 21
-1633.146468784923
 31
0.0
  0
ARC
  5
244
330
45D
100
AcDbEntity
  8
DATA
  6
Continuous
 62
     7
100
AcDbCircle
 10
415.8119848522028
 20
-1633.612264784922
 30
0.0
 40
0.9270682072606653
100
AcDbArc
 50
8.226923859026939
 51
86.1541266921597
  0
LINE
  5
245
330
45D
100
AcDbEntity
  8
DATA
  6
Continuous
 62
     7
100
AcDbLine
 10
422.4753526922027
 20
-1640.833815664922
 30
0.0
 11
408.4753526922026
 21
-1640.833815664922
 31
0.0
  0
ARC
  5
246
330
45D
100
AcDbEntity
  8
DATA
  6
Continuous
 62
     7
100
AcDbCircle
 10
415.419791677953
 20
-1636.252287220156
 30
0.0
 40
0.8558155812503358
100
AcDbArc
 50
269.6512199376112
 51
282.8264828068749
  0
ARC
  5
247
330
45D
100
AcDbEntity
  8
DATA
  6
Continuous
 62
     7
100
AcDbCircle
 10
415.5159133136065
 20
-1636.614109096801
 30
0.0
 40
0.4818696970022209
100
AcDbArc
 50
281.2331036226599
 51
306.862008894044
  0
ARC
  5
248
330
45D
100
AcDbEntity
  8
DATA
  6
Continuous
 62
     7
100
AcDbCircle
 10
415.7099739976263
 20
-1635.412923318983
 30
0.0
 40
0.1555661600314516
100
AcDbArc
 50
5.732980710567841
 51
52.35809750241992
  0
ARC
  5
249
330
45D
100
AcDbEntity
  8
DATA
  6
Continuous
 62
     7
100
AcDbCircle
 10
415.419791677953
 20
-1636.037096749689
 30
0.0
 40
0.855815581250259
100
AcDbArc
 50
77.17351719312512
 51
90.34878006238896
  0
ARC
  5
24A
330
45D
100
AcDbEntity
  8
DATA
  6
Continuous
 62
     7
100
AcDbCircle
 10
415.5159133136065
 20
-1635.675274873043
 30
0.0
 40
0.4818696970021222
100
AcDbArc
 50
53.13799110593991
 51
78.76689637734013
  0
ARC
  5
24B
330
45D
100
AcDbEntity
  8
DATA
  6
Continuous
 62
     7
100
AcDbCircle
 10
416.2568895722026
 20
-1635.519344384922
 30
0.0
 40
0.4733054239898862
100
AcDbArc
 50
3.867006359845353
 51
88.36163456787799
  0
ARC
  5
24C
330
45D
100
AcDbEntity
  8
DATA
  6
Continuous
 62
     7
100
AcDbCircle
 10
416.2564552522026
 20
-1634.572663424922
 30
0.0
 40
0.4737757466944054
100
AcDbArc
 50
271.689282104645
 51
356.0782829826571
  0
ARC
  5
24D
330
45D
100
AcDbEntity
  8
DATA
  6
Continuous
 62
     7
100
AcDbCircle
 10
415.7099739976263
 20
-1634.481483530862
 30
0.0
 40
0.1555661600313979
100
AcDbArc
 50
307.6419024975801
 51
354.2670192894322
  0
ARC
  5
24E
330
45D
100
AcDbEntity
  8
DATA
  6
Continuous
 62
     7
100
AcDbCircle
 10
415.419791677953
 20
-1633.857310100156
 30
0.0
 40
0.8558155812503358
100
AcDbArc
 50
269.6512199376112
 51
282.8264828068715
  0
ARC
  5
24F
330
45D
100
AcDbEntity
  8
DATA
  6
Continuous
 62
     7
100
AcDbCircle
 10
415.5159133136065
 20
-1634.219131976801
 30
0.0
 40
0.4818696970022209
100
AcDbArc
 50
281.2331036226599
 51
306.862008894044
  0
ARC
  5
250
330
45D
100
AcDbEntity
  8
DATA
  6
Continuous
 62
     7
100
AcDbCircle
 10
415.7099739976263
 20
-1633.378095078983
 30
0.0
 40
0.1555661600314516
100
AcDbArc
 50
5.732980710567841
 51
52.35809750241992
  0
ARC
  5
251
330
45D
100
AcDbEntity
  8
DATA
  6
Continuous
 62
     7
100
AcDbCircle
 10
415.419791677953
 20
-1634.002268509689
 30
0.0
 40
0.8558155812504807
100
AcDbArc
 50
77.1735171931285
 51
90.34878006238889
  0
ARC
  5
252
330
45D
100
AcDbEntity
  8
DATA
  6
Continuous
 62
     7
100
AcDbCircle
 10
415.5159133136065
 20
-1633.640446633043
 30
0.0
 40
0.4818696970023041
100
AcDbArc
 50
53.13799110595613
 51
78.76689637734013
  0
ARC
  5
253
330
45D
100
AcDbEntity
  8
DATA
  6
Continuous
 62
     7
100
AcDbCircle
 10
-257.3494412504124
 20
-1701.5
 30
0.0
 40
1.5
100
AcDbArc
 50
270.0
 51
0.0
  0
ARC
  5
254
330
45D
100
AcDbEntity
  8
DATA
  6
Continuous
 62
     7
100
AcDbCircle
 10
-343.8017109636412
 20
-1701.5
 30
0.0
 40
1.5
100
AcDbArc
 50
180.0
 51
270.0
  0
ARC
  5
255
330
45D
100
AcDbEntity
  8
DATA
  6
Continuous
 62
     7
100
AcDbCircle
 10
-656.2020854997181
 20
-1701.5
 30
0.0
 40
1.5
100
AcDbArc
 50
270.0
 51
0.0
  0
ARC
  5
256
330
45D
100
AcDbEntity
  8
DATA
  6
Continuous
 62
     7
100
AcDbCircle
 10
-742.6505587495868
 20
-1701.5
 30
0.0
 40
1.5
100
AcDbArc
 50
180.0
 51
270.0
  0
LINE
  5
257
330
45D
100
AcDbEntity
  8
DATA
  6
Continuous
 62
     7
100
AcDbLine
 10
-1478.443162081833
 20
-1703.0
 30
0.0
 11
-1564.895431795063
 21
-1703.0
 31
0.0
  0
ARC
  5
258
330
45D
100
AcDbEntity
  8
DATA
  6
Continuous
 62
     7
100
AcDbCircle
 10
-1564.895431795063
 20
-1701.5
 30
0.0
 40
1.5
100
AcDbArc
 50
180.0
 51
270.0
  0
ARC
  5
259
330
45D
100
AcDbEntity
  8
DATA
  6
Continuous
 62
     7
100
AcDbCircle
 10
-1159.111239393231
 20
-1701.5
 30
0.0
 40
1.5
100
AcDbArc
 50
270.0
 51
0.0
  0
LINE
  5
25A
330
45D
100
AcDbEntity
  8
DATA
  6
Continuous
 62
     7
100
AcDbLine
 10
-1159.111239393231
 20
-1703.0
 30
0.0
 11
-1245.563509106461
 21
-1703.0
 31
0.0
  0
ARC
  5
25B
330
45D
100
AcDbEntity
  8
DATA
  6
Continuous
 62
     7
100
AcDbCircle
 10
-1245.563509106461
 20
-1701.5
 30
0.0
 40
1.5
100
AcDbArc
 50
180.0
 51
270.0
  0
ARC
  5
25C
330
45D
100
AcDbEntity
  8
DATA
  6
Continuous
 62
     7
100
AcDbCircle
 10
-1478.443162081833
 20
-1701.5
 30
0.0
 40
1.5
100
AcDbArc
 50
270.0
 51
0.0
  0
LINE
  5
25D
330
45D
100
AcDbEntity
  8
DATA
  6
Continuous
 62
     7
100
AcDbLine
 10
30.85477313573733
 20
-1700.0
 30
0.0
 11
478.93509496265
 21
-1700.0
 31
0.0
  0
LINE
  5
25E
330
45D
100
AcDbEntity
  8
DATA
  6
Continuous
 62
     7
100
AcDbLine
 10
147.0635091064609
 20
-1700.0
 30
0.0
 11
147.0635091064609
 21
-1701.5
 31
0.0
  0
LINE
  5
25F
330
45D
100
AcDbEntity
  8
DATA
  6
Continuous
 62
     7
100
AcDbLine
 10
57.61123939323125
 20
-1700.0
 30
0.0
 11
57.61123939323125
 21
-1701.5
 31
0.0
  0
LINE
  5
260
330
45D
100
AcDbEntity
  8
DATA
  6
Continuous
 62
     7
100
AcDbLine
 10
376.9431620818336
 20
-1700.0
 30
0.0
 11
376.9431620818336
 21
-1701.5
 31
0.0
  0
LINE
  5
261
330
45D
100
AcDbEntity
  8
DATA
  6
Continuous
 62
     7
100
AcDbLine
 10
466.3954317950634
 20
-1700.0
 30
0.0
 11
466.3954317950634
 21
-1701.5
 31
0.0
  0
ARC
  5
262
330
45D
100
AcDbEntity
  8
DATA
  6
Continuous
 62
     7
100
AcDbCircle
 10
30.85477313573733
 20
-1687.17
 30
0.0
 40
12.82999999999985
100
AcDbArc
 50
199.870341155207
 51
270.0
  0
ARC
  5
263
330
45D
100
AcDbEntity
  8
DATA
  6
Continuous
 62
     7
100
AcDbCircle
 10
478.93509496265
 20
-1687.17
 30
0.0
 40
12.82999999999993
100
AcDbArc
 50
270.0
 51
355.0436751968535
  0
LINE
  5
264
330
45D
100
AcDbEntity
  8
DATA
  6
Continuous
 62
     7
100
AcDbLine
 10
378.4431620818336
 20
-1703.0
 30
0.0
 11
464.8954317950634
 21
-1703.0
 31
0.0
  0
ARC
  5
265
330
45D
100
AcDbEntity
  8
DATA
  6
Continuous
 62
     7
100
AcDbCircle
 10
464.8954317950634
 20
-1701.5
 30
0.0
 40
1.5
100
AcDbArc
 50
270.0
 51
0.0
  0
ARC
  5
266
330
45D
100
AcDbEntity
  8
DATA
  6
Continuous
 62
     7
100
AcDbCircle
 10
59.11123939323125
 20
-1701.5
 30
0.0
 40
1.5
100
AcDbArc
 50
180.0
 51
270.0
  0
LINE
  5
267
330
45D
100
AcDbEntity
  8
DATA
  6
Continuous
 62
     7
100
AcDbLine
 10
59.11123939323125
 20
-1703.0
 30
0.0
 11
145.5635091064609
 21
-1703.0
 31
0.0
  0
ARC
  5
268
330
45D
100
AcDbEntity
  8
DATA
  6
Continuous
 62
     7
100
AcDbCircle
 10
145.5635091064609
 20
-1701.5
 30
0.0
 40
1.5
100
AcDbArc
 50
270.0
 51
0.0
  0
ARC
  5
269
330
45D
100
AcDbEntity
  8
DATA
  6
Continuous
 62
     7
100
AcDbCircle
 10
378.4431620818336
 20
-1701.5
 30
0.0
 40
1.5
100
AcDbArc
 50
180.0
 51
270.0
  0
ARC
  5
26A
330
45D
100
AcDbEntity
  8
DATA
  6
Continuous
 62
     7
100
AcDbCircle
 10
508.4203600867497
 20
-1452.264058938648
 30
0.0
 40
6.25000000000017
100
AcDbArc
 50
301.8698976458428
 51
48.13010235415498
  0
ARC
  5
26B
330
45D
100
AcDbEntity
  8
DATA
  6
Continuous
 62
     7
100
AcDbCircle
 10
35.84945874348267
 20
-1696.25
 30
0.0
 40
6.25
100
AcDbArc
 50
216.869897645844
 51
323.1301023541561
  0
ARC
  5
26C
330
45D
100
AcDbEntity
  8
DATA
  6
Continuous
 62
     7
100
AcDbCircle
 10
-417.5018982316805
 20
-1696.25
 30
0.0
 40
6.25
100
AcDbArc
 50
216.869897645844
 51
323.1301023541561
  0
ARC
  5
26D
330
45D
100
AcDbEntity
  8
DATA
  6
Continuous
 62
     7
100
AcDbCircle
 10
-252.5018982316806
 20
-1696.25
 30
0.0
 40
6.25
100
AcDbArc
 50
216.869897645844
 51
323.1301023541561
  0
ARC
  5
26E
330
45D
100
AcDbEntity
  8
DATA
  6
Continuous
 62
     7
100
AcDbCircle
 10
-582.5018982316805
 20
-1696.25
 30
0.0
 40
6.25
100
AcDbArc
 50
216.869897645844
 51
323.1301023541561
  0
ARC
  5
26F
330
45D
100
AcDbEntity
  8
DATA
  6
Continuous
 62
     7
100
AcDbCircle
 10
-747.5018982316804
 20
-1696.25
 30
0.0
 40
6.25
100
AcDbArc
 50
216.869897645844
 51
323.1301023541561
  0
LWPOLYLINE
  5
270
330
45D
100
AcDbEntity
  8
DATA
  6
Continuous
 62
     7
100
AcDbPolyline
 90
        4
 70
     1
 43
0.0
 10
-537.5028473475208
 20
-1125.0
 10
-462.5028473475209
 20
-1125.0
 10
-462.5028473475209
 20
-1190.0
 10
-537.5028473475208
 20
-1190.0
  0
LWPOLYLINE
  5
277
330
45D
100
AcDbEntity
  8
DATA
  6
Continuous
 62
     7
100
AcDbPolyline
 90
        4
 70
     1
 43
0.0
 10
-532.5028473475208
 20
-1130.0
 10
-467.5028473475209
 20
-1130.0
 10
-467.5028473475209
 20
-1185.0
 10
-532.5028473475208
 20
-1185.0
  0
LWPOLYLINE
  5
27E
330
45D
100
AcDbEntity
  8
DATA
  6
Continuous
 62
     7
100
AcDbPolyline
 90
        4
 70
     1
 43
0.0
 10
-524.0028473475208
 20
-1138.5
 10
-476.0028473475209
 20
-1138.5
 10
-476.0028473475209
 20
-1176.5
 10
-524.0028473475208
 20
-1176.5
  0
ARC
  5
285
330
45D
100
AcDbEntity
  8
DATA
  6
Continuous
 62
     7
100
AcDbCircle
 10
-499.1855190294464
 20
-1163.58405512315
 30
0.0
 40
0.5419312951914021
100
AcDbArc
 50
307.6419024975757
 51
354.2670192894103
  0
LINE
  5
286
330
45D
100
AcDbEntity
  8
DATA
  6
Continuous
 62
     7
100
AcDbLine
 10
-513.1056823475208
 20
-1155.044095
 30
0.0
 11
-510.5651003475209
 21
-1148.990599
 31
0.0
  0
LINE
  5
287
330
45D
100
AcDbEntity
  8
DATA
  6
Continuous
 62
     7
100
AcDbLine
 10
-513.1056823475208
 20
-1155.044095
 30
0.0
 11
-515.6149163475208
 21
-1148.990599
 31
0.0
  0
LINE
  5
288
330
45D
100
AcDbEntity
  8
DATA
  6
Continuous
 62
     7
100
AcDbLine
 10
-493.8474023475209
 20
-1165.990599
 30
0.0
 11
-493.8474023475209
 21
-1148.990599
 31
0.0
  0
LINE
  5
289
330
45D
100
AcDbEntity
  8
DATA
  6
Continuous
 62
     7
100
AcDbLine
 10
-490.5854083475209
 20
-1148.990599
 30
0.0
 11
-490.5854083475209
 21
-1163.387287
 31
0.0
  0
LINE
  5
28A
330
45D
100
AcDbEntity
  8
DATA
  6
Continuous
 62
     7
100
AcDbLine
 10
-509.3732133475208
 20
-1148.990599
 30
0.0
 11
-509.3732133475208
 21
-1163.387287
 31
0.0
  0
LINE
  5
28B
330
45D
100
AcDbEntity
  8
DATA
  6
Continuous
 62
     7
100
AcDbLine
 10
-506.2366793475209
 20
-1148.990599
 30
0.0
 11
-506.2366793475209
 21
-1163.387287
 31
0.0
  0
LINE
  5
28C
330
45D
100
AcDbEntity
  8
DATA
  6
Continuous
 62
     7
100
AcDbLine
 10
-504.6056823475209
 20
-1148.990599
 30
0.0
 11
-504.6056823475209
 21
-1165.990599
 31
0.0
  0
LINE
  5
28D
330
45D
100
AcDbEntity
  8
DATA
  6
Continuous
 62
     7
100
AcDbLine
 10
-501.7514333475209
 20
-1150.590214
 30
0.0
 11
-501.7514333475209
 21
-1156.047791999999
 31
0.0
  0
LINE
  5
28E
330
45D
100
AcDbEntity
  8
DATA
  6
Continuous
 62
     7
100
AcDbLine
 10
-495.6338473475208
 20
-1155.732
 30
0.0
 11
-495.6338473475208
 21
-1151.750753
 31
0.0
  0
LINE
  5
28F
330
45D
100
AcDbEntity
  8
DATA
  6
Continuous
 62
     7
100
AcDbLine
 10
-498.6462983475209
 20
-1151.342991
 30
0.0
 11
-498.6462983475209
 21
-1155.295032
 31
0.0
  0
ARC
  5
290
330
45D
100
AcDbEntity
  8
DATA
  6
Continuous
 62
     7
100
AcDbCircle
 10
-510.0026213475209
 20
-1161.625339
 30
0.0
 40
4.384050822785321
100
AcDbArc
 50
264.6908562215358
 51
323.9911991542413
  0
LINE
  5
291
330
45D
100
AcDbEntity
  8
DATA
  6
Continuous
 62
     7
100
AcDbLine
 10
-511.7569703475209
 20
-1160.658481
 30
0.0
 11
-511.7569703475209
 21
-1163.387253
 31
0.0
  0
LINE
  5
292
330
45D
100
AcDbEntity
  8
DATA
  6
Continuous
 62
     7
100
AcDbLine
 10
-511.7569703475209
 20
-1160.658481
 30
0.0
 11
-514.5798543475209
 21
-1160.658481
 31
0.0
  0
LINE
  5
293
330
45D
100
AcDbEntity
  8
DATA
  6
Continuous
 62
     7
100
AcDbLine
 10
-514.5798543475209
 20
-1160.658481
 30
0.0
 11
-514.5798543475209
 21
-1163.387253
 31
0.0
  0
ARC
  5
294
330
45D
100
AcDbEntity
  8
DATA
  6
Continuous
 62
     7
100
AcDbCircle
 10
-510.5591163475208
 20
-1163.424041
 30
0.0
 40
1.186479004612079
100
AcDbArc
 50
269.7118487927481
 51
1.775987005692172
  0
ARC
  5
295
330
45D
100
AcDbEntity
  8
DATA
  6
Continuous
 62
     7
100
AcDbCircle
 10
-510.5710673475209
 20
-1163.424041
 30
0.0
 40
1.18647293768125
100
AcDbArc
 50
178.2240129943224
 51
270.2881512072486
  0
ARC
  5
296
330
45D
100
AcDbEntity
  8
DATA
  6
Continuous
 62
     7
100
AcDbCircle
 10
-510.8139123475209
 20
-1161.625339
 30
0.0
 40
4.384043702809375
100
AcDbArc
 50
216.0088008457592
 51
275.3091437784642
  0
ARC
  5
297
330
45D
100
AcDbEntity
  8
DATA
  6
Continuous
 62
     7
100
AcDbCircle
 10
-512.5986063475209
 20
-1163.291152
 30
0.0
 40
1.983560353899495
100
AcDbArc
 50
182.7769954499897
 51
207.3596066671495
  0
CIRCLE
  5
298
330
45D
100
AcDbEntity
  8
DATA
  6
Continuous
 62
     7
100
AcDbCircle
 10
-512.9331663475209
 20
-1157.396504
 30
0.0
 40
1.615306000000032
  0
LINE
  5
299
330
45D
100
AcDbEntity
  8
DATA
  6
Continuous
 62
     7
100
AcDbLine
 10
-485.3474023475209
 20
-1165.990582
 30
0.0
 11
-493.8474023475209
 21
-1165.990582
 31
0.0
  0
LINE
  5
29A
330
45D
100
AcDbEntity
  8
DATA
  6
Continuous
 62
     7
100
AcDbLine
 10
-485.3474023475209
 20
-1165.990582
 30
0.0
 11
-485.3474023475209
 21
-1160.658464
 31
0.0
  0
LINE
  5
29B
330
45D
100
AcDbEntity
  8
DATA
  6
Continuous
 62
     7
100
AcDbLine
 10
-485.3474023475209
 20
-1160.658481
 30
0.0
 11
-488.2016343475209
 21
-1160.658481
 31
0.0
  0
LINE
  5
29C
330
45D
100
AcDbEntity
  8
DATA
  6
Continuous
 62
     7
100
AcDbLine
 10
-488.2016343475209
 20
-1160.658481
 30
0.0
 11
-488.2016343475209
 21
-1163.387253
 31
0.0
  0
LINE
  5
29D
330
45D
100
AcDbEntity
  8
DATA
  6
Continuous
 62
     7
100
AcDbLine
 10
-504.6056823475209
 20
-1165.990582
 30
0.0
 11
-498.6462983475209
 21
-1165.990565
 31
0.0
  0
LINE
  5
29E
330
45D
100
AcDbEntity
  8
DATA
  6
Continuous
 62
     7
100
AcDbLine
 10
-501.7514503475209
 20
-1164.39095
 30
0.0
 11
-500.2145483475209
 21
-1164.39095
 31
0.0
  0
LINE
  5
29F
330
45D
100
AcDbEntity
  8
DATA
  6
Continuous
 62
     7
100
AcDbLine
 10
-501.7514333475209
 20
-1164.39095
 30
0.0
 11
-501.7514333475209
 21
-1157.678771999999
 31
0.0
  0
LINE
  5
2A0
330
45D
100
AcDbEntity
  8
DATA
  6
Continuous
 62
     7
100
AcDbLine
 10
-501.7514503475209
 20
-1157.678771999999
 30
0.0
 11
-500.2145483475209
 21
-1157.678771999999
 31
0.0
  0
LINE
  5
2A1
330
45D
100
AcDbEntity
  8
DATA
  6
Continuous
 62
     7
100
AcDbLine
 10
-498.6462983475209
 20
-1163.63819
 30
0.0
 11
-498.6462983475209
 21
-1158.431532
 31
0.0
  0
ARC
  5
2A2
330
45D
100
AcDbEntity
  8
DATA
  6
Continuous
 62
     7
100
AcDbCircle
 10
-508.2179273475209
 20
-1163.291152
 30
0.0
 40
1.983557531370477
100
AcDbArc
 50
332.6403933328553
 51
357.2230045500039
  0
ARC
  5
2A3
330
45D
100
AcDbEntity
  8
DATA
  6
Continuous
 62
     7
100
AcDbCircle
 10
-489.3875543475209
 20
-1163.424041
 30
0.0
 40
1.186479004612079
100
AcDbArc
 50
269.7118487927509
 51
1.775987005692172
  0
ARC
  5
2A4
330
45D
100
AcDbEntity
  8
DATA
  6
Continuous
 62
     7
100
AcDbCircle
 10
-489.3994883475208
 20
-1163.424041
 30
0.0
 40
1.18647293768125
100
AcDbArc
 50
178.2240129943224
 51
270.2881512072486
  0
LINE
  5
2A5
330
45D
100
AcDbEntity
  8
DATA
  6
Continuous
 62
     7
100
AcDbLine
 10
-495.6352243475209
 20
-1163.261793
 30
0.0
 11
-495.6352243475209
 21
-1158.745199
 31
0.0
  0
LINE
  5
2A6
330
45D
100
AcDbEntity
  8
DATA
  6
Continuous
 62
     7
100
AcDbLine
 10
-501.7514503475209
 20
-1156.047791999999
 30
0.0
 11
-500.2145483475209
 21
-1156.047791999999
 31
0.0
  0
ARC
  5
2A7
330
45D
100
AcDbEntity
  8
DATA
  6
Continuous
 62
     7
100
AcDbCircle
 10
-498.8624023475209
 20
-1162.763353
 30
0.0
 40
3.234439399920806
100
AcDbArc
 50
273.8309816091154
 51
351.1351473098022
  0
LINE
  5
2A8
330
45D
100
AcDbEntity
  8
DATA
  6
Continuous
 62
     7
100
AcDbLine
 10
-509.3732133475208
 20
-1148.990599
 30
0.0
 11
-506.2366793475209
 21
-1148.990599
 31
0.0
  0
LINE
  5
2A9
330
45D
100
AcDbEntity
  8
DATA
  6
Continuous
 62
     7
100
AcDbLine
 10
-515.6149163475208
 20
-1148.990599
 30
0.0
 11
-510.5651003475209
 21
-1148.990599
 31
0.0
  0
LINE
  5
2AA
330
45D
100
AcDbEntity
  8
DATA
  6
Continuous
 62
     7
100
AcDbLine
 10
-493.8474023475209
 20
-1148.990599
 30
0.0
 11
-490.5854083475209
 21
-1148.990599
 31
0.0
  0
LINE
  5
2AB
330
45D
100
AcDbEntity
  8
DATA
  6
Continuous
 62
     7
100
AcDbLine
 10
-504.6056823475209
 20
-1148.990599
 30
0.0
 11
-498.6135391296715
 21
-1148.990612759359
 31
0.0
  0
LINE
  5
2AC
330
45D
100
AcDbEntity
  8
DATA
  6
Continuous
 62
     7
100
AcDbLine
 10
-501.7514503475209
 20
-1150.590231
 30
0.0
 11
-500.2145483475209
 21
-1150.590231
 31
0.0
  0
ARC
  5
2AD
330
45D
100
AcDbEntity
  8
DATA
  6
Continuous
 62
     7
100
AcDbCircle
 10
-498.8301533475208
 20
-1152.212881
 30
0.0
 40
3.229540885949525
100
AcDbArc
 50
8.226923859009957
 51
86.15412669215297
  0
ARC
  5
2AE
330
45D
100
AcDbEntity
  8
DATA
  6
Continuous
 62
     7
100
AcDbCircle
 10
-500.1964000610954
 20
-1161.409680467002
 30
0.0
 40
2.981324770749004
100
AcDbArc
 50
269.6512199376178
 51
282.8264828068735
  0
ARC
  5
2AF
330
45D
100
AcDbEntity
  8
DATA
  6
Continuous
 62
     7
100
AcDbCircle
 10
-499.8615501008276
 20
-1162.670125529086
 30
0.0
 40
1.678644436278414
100
AcDbArc
 50
281.2331036226596
 51
306.8620088940666
  0
ARC
  5
2B0
330
45D
100
AcDbEntity
  8
DATA
  6
Continuous
 62
     7
100
AcDbCircle
 10
-499.1855190294464
 20
-1158.48566687685
 30
0.0
 40
0.5419312951914139
100
AcDbArc
 50
5.732980710589099
 51
52.35809750242433
  0
ARC
  5
2B1
330
45D
100
AcDbEntity
  8
DATA
  6
Continuous
 62
     7
100
AcDbCircle
 10
-500.1964000610954
 20
-1160.660041532998
 30
0.0
 40
2.981324770749226
100
AcDbArc
 50
77.17351719312752
 51
90.34878006238216
  0
ARC
  5
2B2
330
45D
100
AcDbEntity
  8
DATA
  6
Continuous
 62
     7
100
AcDbCircle
 10
-499.8615501008276
 20
-1159.399596470913
 30
0.0
 40
1.67864443627853
100
AcDbArc
 50
53.137991105938
 51
78.7668963773404
  0
ARC
  5
2B3
330
45D
100
AcDbEntity
  8
DATA
  6
Continuous
 62
     7
100
AcDbCircle
 10
-497.2802803475208
 20
-1158.856396
 30
0.0
 40
1.648809878653395
100
AcDbArc
 50
3.86700635982012
 51
88.3616345678995
  0
ARC
  5
2B4
330
45D
100
AcDbEntity
  8
DATA
  6
Continuous
 62
     7
100
AcDbCircle
 10
-497.2817933475209
 20
-1155.558532
 30
0.0
 40
1.650448297910878
100
AcDbArc
 50
271.6892821046484
 51
356.0782829826557
  0
ARC
  5
2B5
330
45D
100
AcDbEntity
  8
DATA
  6
Continuous
 62
     7
100
AcDbCircle
 10
-499.1855190294464
 20
-1155.24089712315
 30
0.0
 40
0.5419312951915823
100
AcDbArc
 50
307.6419024975609
 51
354.2670192893883
  0
ARC
  5
2B6
330
45D
100
AcDbEntity
  8
DATA
  6
Continuous
 62
     7
100
AcDbCircle
 10
-500.1964000610954
 20
-1153.066522467002
 30
0.0
 40
2.981324770748777
100
AcDbArc
 50
269.6512199376178
 51
282.8264828068735
  0
ARC
  5
2B7
330
45D
100
AcDbEntity
  8
DATA
  6
Continuous
 62
     7
100
AcDbCircle
 10
-499.8615501008276
 20
-1154.326967529086
 30
0.0
 40
1.678644436278414
100
AcDbArc
 50
281.2331036226596
 51
306.862008894062
  0
ARC
  5
2B8
330
45D
100
AcDbEntity
  8
DATA
  6
Continuous
 62
     7
100
AcDbCircle
 10
-499.1855190294464
 20
-1151.39712587685
 30
0.0
 40
0.5419312951914366
100
AcDbArc
 50
5.732980710613017
 51
52.35809750242911
  0
ARC
  5
2B9
330
45D
100
AcDbEntity
  8
DATA
  6
Continuous
 62
     7
100
AcDbCircle
 10
-500.1964000610954
 20
-1153.571500532998
 30
0.0
 40
2.981324770749004
100
AcDbArc
 50
77.17351719312654
 51
90.34878006238216
  0
ARC
  5
2BA
330
45D
100
AcDbEntity
  8
DATA
  6
Continuous
 62
     7
100
AcDbCircle
 10
-499.8615501008276
 20
-1152.311055470913
 30
0.0
 40
1.67864443627853
100
AcDbArc
 50
53.137991105938
 51
78.7668963773404
  0
LINE
  5
2BB
330
45D
100
AcDbEntity
  8
DATA
  6
Continuous
 62
     7
100
AcDbLine
 10
-781.528
 20
-1611.967302950798
 30
0.0
 11
-218.472
 21
-1611.967302950798
 31
0.0
  0
ARC
  5
2BC
330
45D
100
AcDbEntity
  8
DATA
  6
Continuous
 62
     7
100
AcDbCircle
 10
-781.528
 20
-1605.967302950798
 30
0.0
 40
6.0
100
AcDbArc
 50
180.0
 51
270.0
  0
ARC
  5
2BD
330
45D
100
AcDbEntity
  8
DATA
  6
Continuous
 62
     7
100
AcDbCircle
 10
-218.472
 20
-1605.967302950798
 30
0.0
 40
6.0
100
AcDbArc
 50
270.0
 51
0.0
  0
LWPOLYLINE
  5
2BE
330
45D
100
AcDbEntity
  8
DATA
  6
Continuous
 62
     7
100
AcDbPolyline
 90
        4
 70
     1
 43
0.0
 10
-537.5028473475208
 20
-1533.794431372232
 10
-462.5028473475209
 20
-1533.794431372232
 10
-462.5028473475209
 20
-1564.448471646417
 10
-537.5028473475208
 20
-1564.448471646417
  0
LINE
  5
2C5
330
45D
100
AcDbEntity
  8
DATA
  6
Continuous
 62
     7
100
AcDbLine
 10
523.0
 20
100.0
 30
0.0
 11
523.0
 21
607.0
 31
0.0
  0
LINE
  5
2C6
330
45D
100
AcDbEntity
  8
DATA
  6
Continuous
 62
     7
100
AcDbLine
 10
1277.0
 20
100.0
 30
0.0
 11
523.0
 21
100.0
 31
0.0
  0
LINE
  5
2C7
330
45D
100
AcDbEntity
  8
DATA
  6
Continuous
 62
     7
100
AcDbLine
 10
952.0
 20
509.4999999999999
 30
0.0
 11
952.0
 21
197.5
 31
0.0
  0
LINE
  5
2C8
330
45D
100
AcDbEntity
  8
DATA
  6
Continuous
 62
     7
100
AcDbLine
 10
523.0
 20
607.0
 30
0.0
 11
1277.0
 21
607.0
 31
0.0
  0
LINE
  5
2C9
330
45D
100
AcDbEntity
  8
DATA
  6
Continuous
 62
     7
100
AcDbLine
 10
1218.5
 20
600.4999999999999
 30
0.0
 11
935.7499999999999
 21
600.4999999999999
 31
0.0
  0
LINE
  5
2CA
330
45D
100
AcDbEntity
  8
DATA
  6
Continuous
 62
     7
100
AcDbLine
 10
1218.5
 20
106.5
 30
0.0
 11
581.5
 21
106.5
 31
0.0
  0
LINE
  5
2CB
330
45D
100
AcDbEntity
  8
DATA
  6
Continuous
 62
     7
100
AcDbLine
 10
614.0000000000059
 20
509.4999999999999
 30
0.0
 11
848.0
 21
509.4999999999999
 31
0.0
  0
LINE
  5
2CC
330
45D
100
AcDbEntity
  8
DATA
  6
Continuous
 62
     7
100
AcDbLine
 10
951.999999999994
 20
509.4999999999999
 30
0.0
 11
1186.0
 21
509.4999999999999
 31
0.0
  0
LINE
  5
2CD
330
45D
100
AcDbEntity
  8
DATA
  6
Continuous
 62
     7
100
AcDbLine
 10
848.0
 20
197.5
 30
0.0
 11
614.0
 21
197.5
 31
0.0
  0
LINE
  5
2CE
330
45D
100
AcDbEntity
  8
DATA
  6
Continuous
 62
     7
100
AcDbLine
 10
1186.0
 20
197.5
 30
0.0
 11
952.0
 21
197.5
 31
0.0
  0
LINE
  5
2CF
330
45D
100
AcDbEntity
  8
DATA
  6
Continuous
 62
     7
100
AcDbLine
 10
1186.0
 20
509.4999999999999
 30
0.0
 11
1186.0
 21
197.5
 31
0.0
  0
LINE
  5
2D0
330
45D
100
AcDbEntity
  8
DATA
  6
Continuous
 62
     7
100
AcDbLine
 10
848.0
 20
509.4999999999999
 30
0.0
 11
848.0
 21
197.5
 31
0.0
  0
LINE
  5
2D1
330
45D
100
AcDbEntity
  8
DATA
  6
Continuous
 62
     7
100
AcDbLine
 10
614.0
 20
509.4999999999999
 30
0.0
 11
614.0
 21
197.5
 31
0.0
  0
LINE
  5
2D2
330
45D
100
AcDbEntity
  8
DATA
  6
Continuous
 62
     7
100
AcDbLine
 10
1277.0
 20
607.0
 30
0.0
 11
1277.0
 21
100.0
 31
0.0
  0
LINE
  5
2D3
330
45D
100
AcDbEntity
  8
DATA
  6
Continuous
 62
     7
100
AcDbLine
 10
763.4999999999999
 20
314.5
 30
0.0
 11
698.499999999994
 21
314.5
 31
0.0
  0
LINE
  5
2D4
330
45D
100
AcDbEntity
  8
DATA
  6
Continuous
 62
     7
100
AcDbLine
 10
679.0
 20
295.0
 30
0.0
 11
679.0
 21
412.0
 31
0.0
  0
LINE
  5
2D5
330
45D
100
AcDbEntity
  8
DATA
  6
Continuous
 62
     7
100
AcDbLine
 10
763.4999999999999
 20
275.5
 30
0.0
 11
698.499999999994
 21
275.5
 31
0.0
  0
LINE
  5
2D6
330
45D
100
AcDbEntity
  8
DATA
  6
Continuous
 62
     7
100
AcDbLine
 10
783.0
 20
412.0
 30
0.0
 11
783.0
 21
295.0
 31
0.0
  0
LINE
  5
2D7
330
45D
100
AcDbEntity
  8
DATA
  6
Continuous
 62
     7
100
AcDbLine
 10
698.499999999994
 20
431.5
 30
0.0
 11
763.4999999999941
 21
431.5
 31
0.0
  0
ARC
  5
2D8
330
45D
100
AcDbEntity
  8
DATA
  6
Continuous
 62
     7
100
AcDbCircle
 10
698.5
 20
295.0
 30
0.0
 40
19.5
100
AcDbArc
 50
90.0
 51
270.0
  0
ARC
  5
2D9
330
45D
100
AcDbEntity
  8
DATA
  6
Continuous
 62
     7
100
AcDbCircle
 10
763.4999999999999
 20
295.0
 30
0.0
 40
19.5
100
AcDbArc
 50
270.0
 51
90.0
  0
ARC
  5
2DA
330
45D
100
AcDbEntity
  8
DATA
  6
Continuous
 62
     7
100
AcDbCircle
 10
698.5
 20
412.0
 30
0.0
 40
19.5
100
AcDbArc
 50
90.0
 51
180.0
  0
ARC
  5
2DB
330
45D
100
AcDbEntity
  8
DATA
  6
Continuous
 62
     7
100
AcDbCircle
 10
763.4999999999999
 20
412.0
 30
0.0
 40
19.5
100
AcDbArc
 50
0.0
 51
90.0
  0
LINE
  5
2DC
330
45D
100
AcDbEntity
  8
DATA
  6
Continuous
 62
     7
100
AcDbLine
 10
1101.5
 20
314.5
 30
0.0
 11
1036.499999999994
 21
314.5
 31
0.0
  0
LINE
  5
2DD
330
45D
100
AcDbEntity
  8
DATA
  6
Continuous
 62
     7
100
AcDbLine
 10
1017.0
 20
295.0
 30
0.0
 11
1017.0
 21
412.0
 31
0.0
  0
LINE
  5
2DE
330
45D
100
AcDbEntity
  8
DATA
  6
Continuous
 62
     7
100
AcDbLine
 10
1101.5
 20
275.5
 30
0.0
 11
1036.499999999994
 21
275.5
 31
0.0
  0
LINE
  5
2DF
330
45D
100
AcDbEntity
  8
DATA
  6
Continuous
 62
     7
100
AcDbLine
 10
1121.0
 20
412.0
 30
0.0
 11
1121.0
 21
295.0
 31
0.0
  0
LINE
  5
2E0
330
45D
100
AcDbEntity
  8
DATA
  6
Continuous
 62
     7
100
AcDbLine
 10
1036.499999999994
 20
431.5
 30
0.0
 11
1101.499999999994
 21
431.5
 31
0.0
  0
ARC
  5
2E1
330
45D
100
AcDbEntity
  8
DATA
  6
Continuous
 62
     7
100
AcDbCircle
 10
1036.5
 20
295.0
 30
0.0
 40
19.5
100
AcDbArc
 50
90.0
 51
270.0
  0
ARC
  5
2E2
330
45D
100
AcDbEntity
  8
DATA
  6
Continuous
 62
     7
100
AcDbCircle
 10
1101.5
 20
295.0
 30
0.0
 40
19.5
100
AcDbArc
 50
270.0
 51
90.0
  0
ARC
  5
2E3
330
45D
100
AcDbEntity
  8
DATA
  6
Continuous
 62
     7
100
AcDbCircle
 10
1036.5
 20
412.0
 30
0.0
 40
19.5
100
AcDbArc
 50
90.0
 51
180.0
  0
ARC
  5
2E4
330
45D
100
AcDbEntity
  8
DATA
  6
Continuous
 62
     7
100
AcDbCircle
 10
1101.5
 20
412.0
 30
0.0
 40
19.5
100
AcDbArc
 50
0.0
 51
90.0
  0
LINE
  5
2E5
330
45D
100
AcDbEntity
  8
DATA
  6
Continuous
 62
     7
100
AcDbLine
 10
568.5
 20
324.25
 30
0.0
 11
568.5
 21
119.5
 31
0.0
  0
LINE
  5
2E6
330
45D
100
AcDbEntity
  8
DATA
  6
Continuous
 62
     7
100
AcDbLine
 10
1231.5
 20
587.5
 30
0.0
 11
1231.5
 21
119.5
 31
0.0
  0
LINE
  5
2E7
330
45D
100
AcDbEntity
  8
DATA
  6
Continuous
 62
     7
100
AcDbLine
 10
877.25
 20
587.5
 30
0.0
 11
877.25
 21
382.75
 31
0.0
  0
LINE
  5
2E8
330
45D
100
AcDbEntity
  8
DATA
  6
Continuous
 62
     7
100
AcDbLine
 10
922.75
 20
587.5
 30
0.0
 11
922.75
 21
350.25
 31
0.0
  0
LINE
  5
2E9
330
45D
100
AcDbEntity
  8
DATA
  6
Continuous
 62
     7
100
AcDbLine
 10
864.25
 20
369.75
 30
0.0
 11
848.0
 21
369.75
 31
0.0
  0
LINE
  5
2EA
330
45D
100
AcDbEntity
  8
DATA
  6
Continuous
 62
     7
100
AcDbLine
 10
909.75
 20
337.25
 30
0.0
 11
848.0
 21
337.25
 31
0.0
  0
LINE
  5
2EB
330
45D
100
AcDbEntity
  8
DATA
  6
Continuous
 62
     7
100
AcDbLine
 10
864.25
 20
600.4999999999999
 30
0.0
 11
581.5
 21
600.4999999999999
 31
0.0
  0
LINE
  5
2EC
330
45D
100
AcDbEntity
  8
DATA
  6
Continuous
 62
     7
100
AcDbLine
 10
581.5
 20
369.75
 30
0.0
 11
614.0
 21
369.75
 31
0.0
  0
LINE
  5
2ED
330
45D
100
AcDbEntity
  8
DATA
  6
Continuous
 62
     7
100
AcDbLine
 10
581.5
 20
337.25
 30
0.0
 11
614.0
 21
337.25
 31
0.0
  0
LINE
  5
2EE
330
45D
100
AcDbEntity
  8
DATA
  6
Continuous
 62
     7
100
AcDbLine
 10
568.5
 20
587.5
 30
0.0
 11
568.5
 21
382.75
 31
0.0
  0
ARC
  5
2EF
330
45D
100
AcDbEntity
  8
DATA
  6
Continuous
 62
     7
100
AcDbCircle
 10
581.5
 20
587.5
 30
0.0
 40
13.0
100
AcDbArc
 50
90.0
 51
180.0
  0
ARC
  5
2F0
330
45D
100
AcDbEntity
  8
DATA
  6
Continuous
 62
     7
100
AcDbCircle
 10
935.7499999999999
 20
587.5
 30
0.0
 40
13.0
100
AcDbArc
 50
90.0
 51
180.0
  0
ARC
  5
2F1
330
45D
100
AcDbEntity
  8
DATA
  6
Continuous
 62
     7
100
AcDbCircle
 10
864.25
 20
587.5
 30
0.0
 40
13.0
100
AcDbArc
 50
0.0
 51
90.0
  0
ARC
  5
2F2
330
45D
100
AcDbEntity
  8
DATA
  6
Continuous
 62
     7
100
AcDbCircle
 10
581.5
 20
382.75
 30
0.0
 40
13.0
100
AcDbArc
 50
180.0
 51
270.0
  0
ARC
  5
2F3
330
45D
100
AcDbEntity
  8
DATA
  6
Continuous
 62
     7
100
AcDbCircle
 10
581.5
 20
324.25
 30
0.0
 40
13.0
100
AcDbArc
 50
90.0
 51
180.0
  0
ARC
  5
2F4
330
45D
100
AcDbEntity
  8
DATA
  6
Continuous
 62
     7
100
AcDbCircle
 10
864.25
 20
382.75
 30
0.0
 40
13.0
100
AcDbArc
 50
270.0
 51
0.0
  0
ARC
  5
2F5
330
45D
100
AcDbEntity
  8
DATA
  6
Continuous
 62
     7
100
AcDbCircle
 10
909.75
 20
350.25
 30
0.0
 40
13.0
100
AcDbArc
 50
270.0
 51
0.0
  0
ARC
  5
2F6
330
45D
100
AcDbEntity
  8
DATA
  6
Continuous
 62
     7
100
AcDbCircle
 10
581.5
 20
119.5
 30
0.0
 40
13.0
100
AcDbArc
 50
180.0
 51
270.0
  0
ARC
  5
2F7
330
45D
100
AcDbEntity
  8
DATA
  6
Continuous
 62
     7
100
AcDbCircle
 10
1218.5
 20
119.5
 30
0.0
 40
13.0
100
AcDbArc
 50
270.0
 51
0.0
  0
ARC
  5
2F8
330
45D
100
AcDbEntity
  8
DATA
  6
Continuous
 62
     7
100
AcDbCircle
 10
1218.5
 20
587.5
 30
0.0
 40
13.0
100
AcDbArc
 50
0.0
 51
90.0
  0
TEXT
  5
2F9
330
45D
100
AcDbEntity
  8
DATA
 62
     7
100
AcDbText
 10
656.8877278645833
 20
533.8250651041667
 30
0.0
 40
42.34986979166666
  1
Bi-AMP
 41
0.7
 72
     1
 11
731.0
 21
555.0
 31
0.0
100
AcDbText
 73
     2
  0
TEXT
  5
2FA
330
45D
100
AcDbEntity
  8
DATA
 62
     7
100
AcDbText
 10
632.1836371527778
 20
130.8250651041666
 30
0.0
 40
42.34986979166666
  1
PASSIVE
 41
0.7
 72
     1
 11
731.0
 21
152.0
 31
0.0
100
AcDbText
 73
     2
  0
TEXT
  5
2FB
330
45D
100
AcDbEntity
  8
DATA
 62
     7
100
AcDbText
 10
948.8145986870661
 20
536.4719319661458
 30
0.0
 40
37.05613606770834
  1
INPUT B(2±)
 41
0.7
 72
     1
 11
1069.0
 21
555.0
 31
0.0
100
AcDbText
 73
     2
  0
TEXT
  5
2FC
330
45D
100
AcDbEntity
  8
DATA
 62
     7
100
AcDbText
 10
953.1378145616319
 20
133.4719319661458
 30
0.0
 40
37.05613606770834
  1
INPUT A(1±)
 41
0.7
 72
     1
 11
1069.0
 21
152.0
 31
0.0
100
AcDbText
 73
     2
  0
LINE
  5
2FD
330
45D
100
AcDbEntity
  8
DATA
  6
Continuous
 62
     7
100
AcDbLine
 10
500.0000000001001
 20
-37.5
 30
0.0
 11
1299.9999999999
 21
-37.5
 31
0.0
  0
TEXT
  5
2FE
330
45D
100
AcDbEntity
  8
DATA
 62
     7
100
AcDbText
 10
722.6372974537037
 20
-4.647352430570563
 30
0.0
 40
54.29470486111111
  1
セレクター拡大図
 41
0.7
 72
     1
 11
900.0
 21
22.49999999998499
 31
0.0
100
AcDbText
 73
     2
  0
TEXT
  5
2FF
330
45D
100
AcDbEntity
  8
DATA
 62
     7
100
AcDbText
 10
-1459.767475088036
 20
-1642.426532849922
 30
0.0
 40
2.00078125
  1
OR
 41
0.7
 72
     1
 11
-1458.600352692203
 21
-1641.426142224922
 31
0.0
100
AcDbText
 73
     2
  0
LINE
  5
300
330
45D
100
AcDbEntity
  8
DATA
  6
Continuous
 62
     7
100
AcDbLine
 10
-1460.225352692203
 20
-1641.426142224922
 30
0.0
 11
-1467.975352692203
 21
-1641.426142224922
 31
0.0
  0
LINE
  5
301
330
45D
100
AcDbEntity
  8
DATA
  6
Continuous
 62
     7
100
AcDbLine
 10
-1455.475352692203
 20
-1641.426142224922
 30
0.0
 11
-1456.975352692203
 21
-1641.426142224922
 31
0.0
  0
LINE
  5
302
330
45D
100
AcDbEntity
  8
DATA
  6
Continuous
 62
     7
100
AcDbLine
 10
1734.68332202215
 20
-216.1447840635811
 30
0.0
 11
1734.68332202215
 21
-1010.0
 31
0.0
  0
LINE
  5
303
330
45D
100
AcDbEntity
  8
DATA
  6
Continuous
 62
     7
100
AcDbLine
 10
1644.683322022151
 20
-1100.0
 30
0.0
 11
155.3166779778496
 21
-1100.0
 31
0.0
  0
LINE
  5
304
330
45D
100
AcDbEntity
  8
DATA
  6
Continuous
 62
     7
100
AcDbLine
 10
-14.04338183838831
 20
-945.7486636357396
 30
0.0
 11
-82.39408787136085
 21
-215.3476703227
 31
0.0
  0
LINE
  5
305
330
45D
100
AcDbEntity
  8
DATA
  6
Continuous
 62
     7
100
AcDbLine
 10
-1.149050358097838
 20
-126.144784063581
 30
0.0
 11
1644.683322022151
 21
-126.144784063581
 31
0.0
  0
ARC
  5
306
330
45D
100
AcDbEntity
  8
DATA
  6
Continuous
 62
     7
100
AcDbCircle
 10
1644.683322022151
 20
-1010.0
 30
0.0
 40
90.0
100
AcDbArc
 50
270.0
 51
0.0
  0
ARC
  5
307
330
45D
100
AcDbEntity
  8
DATA
  6
Continuous
 62
     7
100
AcDbCircle
 10
155.3166779778564
 20
-929.9000000000011
 30
0.0
 40
170.1000000000023
100
AcDbArc
 50
185.3461524459403
 51
269.9999999999977
  0
TEXT
  5
308
330
45D
100
AcDbEntity
  8
DATA
 62
     7
100
AcDbText
 10
475.7225594895982
 20
-249.8631635161654
 30
0.0
 40
61.08154296875
  1
VTX SERIES | M20
 41
0.7
 72
     1
 11
767.1833220221503
 21
-219.3223920317905
 31
0.0
100
AcDbText
 73
     2
  0
LINE
  5
309
330
45D
100
AcDbEntity
  8
DATA
  6
Continuous
 62
     7
100
AcDbLine
 10
279.6833220221572
 20
-219.3223920317905
 30
0.0
 11
204.6833220221571
 21
-219.3223920317905
 31
0.0
  0
CIRCLE
  5
30A
330
45D
100
AcDbEntity
  8
DATA
  6
Continuous
 62
     7
100
AcDbCircle
 10
242.1833220221571
 20
-219.3223920317905
 30
0.0
 40
52.5
  0
LINE
  5
30B
330
45D
100
AcDbEntity
  8
DATA
  6
Continuous
 62
     7
100
AcDbLine
 10
242.1833220221504
 20
-181.8223920317904
 30
0.0
 11
242.1833220221504
 21
-256.8223920317905
 31
0.0
  0
ARC
  5
30C
330
45D
100
AcDbEntity
  8
DATA
  6
Continuous
 62
     7
100
AcDbCircle
 10
-1.149050358097838
 20
-207.7447840635853
 30
0.0
 40
81.60000000000422
100
AcDbArc
 50
90.0
 51
185.3461524459367
  0
ARC
  5
30D
330
45D
100
AcDbEntity
  8
DATA
  6
Continuous
 62
     7
100
AcDbCircle
 10
1644.683322022151
 20
-216.1447840635811
 30
0.0
 40
90.0
100
AcDbArc
 50
0.0
 51
90.0
  0
LINE
  5
30E
330
45D
100
AcDbEntity
  8
DATA
  6
Continuous
 62
     7
100
AcDbLine
 10
1329.68332202215
 20
-219.3223920317905
 30
0.0
 11
1254.68332202215
 21
-219.3223920317905
 31
0.0
  0
CIRCLE
  5
30F
330
45D
100
AcDbEntity
  8
DATA
  6
Continuous
 62
     7
100
AcDbCircle
 10
1292.183322022151
 20
-219.3223920317905
 30
0.0
 40
52.5
  0
LINE
  5
310
330
45D
100
AcDbEntity
  8
DATA
  6
Continuous
 62
     7
100
AcDbLine
 10
1292.183322022143
 20
-181.8223920317904
 30
0.0
 11
1292.183322022143
 21
-256.8223920317905
 31
0.0
  0
LINE
  5
311
330
45D
100
AcDbEntity
  8
DATA
  6
Continuous
 62
     7
100
AcDbLine
 10
279.6833220221504
 20
-1006.82239203179
 30
0.0
 11
204.6833220221504
 21
-1006.82239203179
 31
0.0
  0
CIRCLE
  5
312
330
45D
100
AcDbEntity
  8
DATA
  6
Continuous
 62
     7
100
AcDbCircle
 10
242.1833220221504
 20
-1006.82239203179
 30
0.0
 40
52.5
  0
LINE
  5
313
330
45D
100
AcDbEntity
  8
DATA
  6
Continuous
 62
     7
100
AcDbLine
 10
242.1833220221436
 20
-969.3223920317903
 30
0.0
 11
242.1833220221436
 21
-1044.32239203179
 31
0.0
  0
LINE
  5
314
330
45D
100
AcDbEntity
  8
DATA
  6
Continuous
 62
     7
100
AcDbLine
 10
1329.683322022143
 20
-1006.82239203179
 30
0.0
 11
1254.683322022143
 21
-1006.82239203179
 31
0.0
  0
CIRCLE
  5
315
330
45D
100
AcDbEntity
  8
DATA
  6
Continuous
 62
     7
100
AcDbCircle
 10
1292.183322022143
 20
-1006.82239203179
 30
0.0
 40
52.5
  0
LINE
  5
316
330
45D
100
AcDbEntity
  8
DATA
  6
Continuous
 62
     7
100
AcDbLine
 10
1292.183322022143
 20
-969.3223920317903
 30
0.0
 11
1292.183322022143
 21
-1044.32239203179
 31
0.0
  0
CIRCLE
  5
317
330
45D
100
AcDbEntity
  8
DATA
  6
Continuous
 62
     7
100
AcDbCircle
 10
358.4333220221503
 20
-613.0723920317905
 30
0.0
 40
225.0
  0
LINE
  5
318
330
45D
100
AcDbEntity
  8
DATA
  6
Continuous
 62
     7
100
AcDbLine
 10
313.4333220221504
 20
-463.0723920317904
 30
0.0
 11
403.4333220221503
 21
-463.0723920317904
 31
0.0
  0
LINE
  5
319
330
45D
100
AcDbEntity
  8
DATA
  6
Continuous
 62
     7
100
AcDbLine
 10
328.4333220221504
 20
-763.0723920317905
 30
0.0
 11
388.4333220221503
 21
-763.0723920317905
 31
0.0
  0
LINE
  5
31A
330
45D
100
AcDbEntity
  8
DATA
  6
Continuous
 62
     7
100
AcDbLine
 10
328.4333220221504
 20
-763.0723920317905
 30
0.0
 11
328.4333220221504
 21
-745.0723920317897
 31
0.0
  0
LINE
  5
31B
330
45D
100
AcDbEntity
  8
DATA
  6
Continuous
 62
     7
100
AcDbLine
 10
388.4333220221503
 20
-763.0723920317905
 30
0.0
 11
388.4333220221503
 21
-745.0723920317897
 31
0.0
  0
LINE
  5
31C
330
45D
100
AcDbEntity
  8
DATA
  6
Continuous
 62
     7
100
AcDbLine
 10
313.4333220221504
 20
-463.0723920317904
 30
0.0
 11
313.4333220221504
 21
-488.9796420317929
 31
0.0
  0
LINE
  5
31D
330
45D
100
AcDbEntity
  8
DATA
  6
Continuous
 62
     7
100
AcDbLine
 10
403.4333220221503
 20
-463.0723920317904
 30
0.0
 11
403.4333220221503
 21
-488.9796420317929
 31
0.0
  0
ARC
  5
31E
330
45D
100
AcDbEntity
  8
DATA
  6
Continuous
 62
     7
100
AcDbCircle
 10
358.4333220221503
 20
-613.0723920317905
 30
0.0
 40
132.0000401612131
100
AcDbArc
 50
109.9322641506793
 51
257.1961668196986
  0
ARC
  5
31F
330
45D
100
AcDbEntity
  8
DATA
  6
Continuous
 62
     7
100
AcDbCircle
 10
358.4333220221503
 20
-613.0723920317905
 30
0.0
 40
132.0000525651889
100
AcDbArc
 50
282.9999995554212
 51
69.99999423796149
  0
ARC
  5
320
330
45D
100
AcDbEntity
  8
DATA
  6
Continuous
 62
     7
100
AcDbCircle
 10
358.4333220221503
 20
-613.0723920317905
 30
0.0
 40
93.00003243096028
100
AcDbArc
 50
60.00001153556115
 51
150.0000115355621
  0
LINE
  5
321
330
45D
100
AcDbEntity
  8
DATA
  6
Continuous
 62
     7
100
AcDbLine
 10
277.8932220221543
 20
-566.5719420317896
 30
0.0
 11
285.3626220221497
 21
-570.8844420317916
 31
0.0
  0
LINE
  5
322
330
45D
100
AcDbEntity
  8
DATA
  6
Continuous
 62
     7
100
AcDbLine
 10
404.9328720221467
 20
-532.5316920317891
 30
0.0
 11
400.6203720221481
 21
-540.0012420317909
 31
0.0
  0
ARC
  5
323
330
45D
100
AcDbEntity
  8
DATA
  6
Continuous
 62
     7
100
AcDbCircle
 10
358.4333220221503
 20
-613.0723920317905
 30
0.0
 40
93.00003243096323
100
AcDbArc
 50
240.0000115355621
 51
330.0000115355623
  0
LINE
  5
324
330
45D
100
AcDbEntity
  8
DATA
  6
Continuous
 62
     7
100
AcDbLine
 10
311.9333220221518
 20
-693.6127920317927
 30
0.0
 11
316.2458220221504
 21
-686.1432420317908
 31
0.0
  0
LINE
  5
325
330
45D
100
AcDbEntity
  8
DATA
  6
Continuous
 62
     7
100
AcDbLine
 10
438.9738720221487
 20
-659.5720920317899
 30
0.0
 11
431.5043220221503
 21
-655.2595920317912
 31
0.0
  0
ARC
  5
326
330
45D
100
AcDbEntity
  8
DATA
  6
Continuous
 62
     7
100
AcDbCircle
 10
358.4333220221503
 20
-613.0723920317905
 30
0.0
 40
84.37505747371377
100
AcDbArc
 50
149.9996696821033
 51
240.000212604305
  0
ARC
  5
327
330
45D
100
AcDbEntity
  8
DATA
  6
Continuous
 62
     7
100
AcDbCircle
 10
358.4333220221503
 20
-613.0723920317905
 30
0.0
 40
84.3749422805139
100
AcDbArc
 50
330.0002126043024
 51
60.00071824312145
  0
ARC
  5
328
330
45D
100
AcDbEntity
  8
DATA
  6
Continuous
 62
     7
100
AcDbCircle
 10
358.4333220221503
 20
-613.0723920317905
 30
0.0
 40
53.99985121312713
100
AcDbArc
 50
59.9999088547095
 51
149.9999088547044
  0
ARC
  5
329
330
45D
100
AcDbEntity
  8
DATA
  6
Continuous
 62
     7
100
AcDbCircle
 10
358.4333220221503
 20
-613.0723920317905
 30
0.0
 40
53.99985121312713
100
AcDbArc
 50
239.9999088547095
 51
329.9999088547044
  0
LINE
  5
32A
330
45D
100
AcDbEntity
  8
DATA
  6
Continuous
 62
     7
100
AcDbLine
 10
385.4330220221537
 20
-566.3070420317898
 30
0.0
 11
380.1831720221514
 21
-575.4001920317921
 31
0.0
  0
LINE
  5
32B
330
45D
100
AcDbEntity
  8
DATA
  6
Continuous
 62
     7
100
AcDbLine
 10
311.668272022149
 20
-586.0722420317915
 30
0.0
 11
320.7612720221516
 21
-591.3222420317902
 31
0.0
  0
LINE
  5
32C
330
45D
100
AcDbEntity
  8
DATA
  6
Continuous
 62
     7
100
AcDbLine
 10
331.4333220221545
 20
-659.8375920317915
 30
0.0
 11
336.6833220221463
 21
-650.7444420317892
 31
0.0
  0
LINE
  5
32D
330
45D
100
AcDbEntity
  8
DATA
  6
Continuous
 62
     7
100
AcDbLine
 10
405.1986720221509
 20
-640.0720920317905
 30
0.0
 11
396.1055220221522
 21
-634.8222420317916
 31
0.0
  0
ARC
  5
32E
330
45D
100
AcDbEntity
  8
DATA
  6
Continuous
 62
     7
100
AcDbCircle
 10
358.4333220221503
 20
-613.0723920317905
 30
0.0
 40
43.50002731292152
100
AcDbArc
 50
149.9997926340292
 51
240.0002336238304
  0
ARC
  5
32F
330
45D
100
AcDbEntity
  8
DATA
  6
Continuous
 62
     7
100
AcDbCircle
 10
358.4333220221503
 20
-613.0723920317905
 30
0.0
 40
43.50000721681182
100
AcDbArc
 50
330.0002336238303
 51
59.99979263403014
  0
CIRCLE
  5
330
330
45D
100
AcDbEntity
  8
DATA
  6
Continuous
 62
     7
100
AcDbCircle
 10
1175.93332202215
 20
-613.0723920317905
 30
0.0
 40
225.0
  0
LINE
  5
331
330
45D
100
AcDbEntity
  8
DATA
  6
Continuous
 62
     7
100
AcDbLine
 10
1130.93332202215
 20
-463.0723920317904
 30
0.0
 11
1220.93332202215
 21
-463.0723920317904
 31
0.0
  0
LINE
  5
332
330
45D
100
AcDbEntity
  8
DATA
  6
Continuous
 62
     7
100
AcDbLine
 10
1145.93332202215
 20
-763.0723920317905
 30
0.0
 11
1205.93332202215
 21
-763.0723920317905
 31
0.0
  0
LINE
  5
333
330
45D
100
AcDbEntity
  8
DATA
  6
Continuous
 62
     7
100
AcDbLine
 10
1145.93332202215
 20
-763.0723920317905
 30
0.0
 11
1145.93332202215
 21
-745.0723920317897
 31
0.0
  0
LINE
  5
334
330
45D
100
AcDbEntity
  8
DATA
  6
Continuous
 62
     7
100
AcDbLine
 10
1205.93332202215
 20
-763.0723920317905
 30
0.0
 11
1205.93332202215
 21
-745.0723920317897
 31
0.0
  0
LINE
  5
335
330
45D
100
AcDbEntity
  8
DATA
  6
Continuous
 62
     7
100
AcDbLine
 10
1130.93332202215
 20
-463.0723920317904
 30
0.0
 11
1130.93332202215
 21
-488.9796420317929
 31
0.0
  0
LINE
  5
336
330
45D
100
AcDbEntity
  8
DATA
  6
Continuous
 62
     7
100
AcDbLine
 10
1220.93332202215
 20
-463.0723920317904
 30
0.0
 11
1220.93332202215
 21
-488.9796420317929
 31
0.0
  0
ARC
  5
337
330
45D
100
AcDbEntity
  8
DATA
  6
Continuous
 62
     7
100
AcDbCircle
 10
1175.93332202215
 20
-613.0723920317905
 30
0.0
 40
132.0000401612131
100
AcDbArc
 50
109.9322641506793
 51
257.1961668196986
  0
ARC
  5
338
330
45D
100
AcDbEntity
  8
DATA
  6
Continuous
 62
     7
100
AcDbCircle
 10
1175.93332202215
 20
-613.0723920317905
 30
0.0
 40
132.0000525651889
100
AcDbArc
 50
282.9999995554212
 51
69.99999423796149
  0
ARC
  5
339
330
45D
100
AcDbEntity
  8
DATA
  6
Continuous
 62
     7
100
AcDbCircle
 10
1175.93332202215
 20
-613.0723920317905
 30
0.0
 40
93.00003243096028
100
AcDbArc
 50
60.00001153556115
 51
150.0000115355621
  0
LINE
  5
33A
330
45D
100
AcDbEntity
  8
DATA
  6
Continuous
 62
     7
100
AcDbLine
 10
1095.393222022154
 20
-566.5719420317896
 30
0.0
 11
1102.86262202215
 21
-570.8844420317916
 31
0.0
  0
LINE
  5
33B
330
45D
100
AcDbEntity
  8
DATA
  6
Continuous
 62
     7
100
AcDbLine
 10
1222.432872022147
 20
-532.5316920317891
 30
0.0
 11
1218.120372022148
 21
-540.0012420317909
 31
0.0
  0
ARC
  5
33C
330
45D
100
AcDbEntity
  8
DATA
  6
Continuous
 62
     7
100
AcDbCircle
 10
1175.93332202215
 20
-613.0723920317905
 30
0.0
 40
93.00003243096323
100
AcDbArc
 50
240.0000115355621
 51
330.0000115355623
  0
LINE
  5
33D
330
45D
100
AcDbEntity
  8
DATA
  6
Continuous
 62
     7
100
AcDbLine
 10
1129.433322022151
 20
-693.6127920317927
 30
0.0
 11
1133.745822022151
 21
-686.1432420317908
 31
0.0
  0
LINE
  5
33E
330
45D
100
AcDbEntity
  8
DATA
  6
Continuous
 62
     7
100
AcDbLine
 10
1256.473872022149
 20
-659.5720920317899
 30
0.0
 11
1249.00432202215
 21
-655.2595920317912
 31
0.0
  0
ARC
  5
33F
330
45D
100
AcDbEntity
  8
DATA
  6
Continuous
 62
     7
100
AcDbCircle
 10
1175.93332202215
 20
-613.0723920317905
 30
0.0
 40
84.37505747371377
100
AcDbArc
 50
149.9996696821033
 51
240.000212604305
  0
ARC
  5
340
330
45D
100
AcDbEntity
  8
DATA
  6
Continuous
 62
     7
100
AcDbCircle
 10
1175.93332202215
 20
-613.0723920317905
 30
0.0
 40
84.3749422805139
100
AcDbArc
 50
330.0002126043024
 51
60.00071824312145
  0
ARC
  5
341
330
45D
100
AcDbEntity
  8
DATA
  6
Continuous
 62
     7
100
AcDbCircle
 10
1175.93332202215
 20
-613.0723920317905
 30
0.0
 40
53.99985121312713
100
AcDbArc
 50
59.9999088547095
 51
149.9999088547044
  0
ARC
  5
342
330
45D
100
AcDbEntity
  8
DATA
  6
Continuous
 62
     7
100
AcDbCircle
 10
1175.93332202215
 20
-613.0723920317905
 30
0.0
 40
53.99985121312713
100
AcDbArc
 50
239.9999088547095
 51
329.9999088547044
  0
LINE
  5
343
330
45D
100
AcDbEntity
  8
DATA
  6
Continuous
 62
     7
100
AcDbLine
 10
1202.933022022154
 20
-566.3070420317898
 30
0.0
 11
1197.683172022151
 21
-575.4001920317921
 31
0.0
  0
LINE
  5
344
330
45D
100
AcDbEntity
  8
DATA
  6
Continuous
 62
     7
100
AcDbLine
 10
1129.168272022149
 20
-586.0722420317915
 30
0.0
 11
1138.261272022151
 21
-591.3222420317902
 31
0.0
  0
LINE
  5
345
330
45D
100
AcDbEntity
  8
DATA
  6
Continuous
 62
     7
100
AcDbLine
 10
1148.933322022154
 20
-659.8375920317915
 30
0.0
 11
1154.183322022146
 21
-650.7444420317892
 31
0.0
  0
LINE
  5
346
330
45D
100
AcDbEntity
  8
DATA
  6
Continuous
 62
     7
100
AcDbLine
 10
1222.698672022151
 20
-640.0720920317905
 30
0.0
 11
1213.605522022152
 21
-634.8222420317916
 31
0.0
  0
ARC
  5
347
330
45D
100
AcDbEntity
  8
DATA
  6
Continuous
 62
     7
100
AcDbCircle
 10
1175.93332202215
 20
-613.0723920317905
 30
0.0
 40
43.50002731292152
100
AcDbArc
 50
149.9997926340292
 51
240.0002336238304
  0
ARC
  5
348
330
45D
100
AcDbEntity
  8
DATA
  6
Continuous
 62
     7
100
AcDbCircle
 10
1175.93332202215
 20
-613.0723920317905
 30
0.0
 40
43.50000721681182
100
AcDbArc
 50
330.0002336238303
 51
59.99979263403014
  0
TEXT
  5
349
330
45D
100
AcDbEntity
  8
DATA
 62
     7
100
AcDbText
 10
1686.680961996109
 20
-628.342777773978
 30
0.0
 40
30.540771484375
  1
1±
 41
0.7
 72
     1
 11
1700.933322022151
 21
-613.0723920317905
 31
0.0
100
AcDbText
 73
     2
  0
TEXT
  5
34A
330
45D
100
AcDbEntity
  8
DATA
 62
     7
100
AcDbText
 10
1683.117871989599
 20
-778.342777773978
 30
0.0
 40
30.540771484375
  1
2±
 41
0.7
 72
     1
 11
1700.933322022151
 21
-763.0723920317905
 31
0.0
100
AcDbText
 73
     2
  0
LWPOLYLINE
  5
34B
330
45D
100
AcDbEntity
  8
DATA
  6
Continuous
 62
     7
100
AcDbPolyline
 90
        4
 70
     1
 43
0.0
 10
662.1833220221503
 20
-508.0723920317904
 10
872.1833220221503
 20
-508.0723920317904
 10
872.1833220221503
 20
-718.0723920317904
 10
662.1833220221503
 20
-718.0723920317904
  0
ARC
  5
352
330
45D
100
AcDbEntity
  8
DATA
  6
Continuous
 62
     7
100
AcDbCircle
 10
770.702641603508
 20
-619.8271684208826
 30
0.0
 40
2.333492400470968
100
AcDbArc
 50
307.6419024975801
 51
354.2670192893316
  0
LINE
  5
353
330
45D
100
AcDbEntity
  8
DATA
  6
Continuous
 62
     7
100
AcDbLine
 10
710.7640560221502
 20
-583.0551048317907
 30
0.0
 11
721.7035032221485
 21
-556.9894632317925
 31
0.0
  0
LINE
  5
354
330
45D
100
AcDbEntity
  8
DATA
  6
Continuous
 62
     7
100
AcDbLine
 10
710.7640560221502
 20
-583.0551048317907
 30
0.0
 11
699.9595896221501
 21
-556.9894632317925
 31
0.0
  0
LINE
  5
355
330
45D
100
AcDbEntity
  8
DATA
  6
Continuous
 62
     7
100
AcDbLine
 10
793.6879440221548
 20
-630.1894632317908
 30
0.0
 11
793.6879440221548
 21
-556.9894632317925
 31
0.0
  0
LINE
  5
356
330
45D
100
AcDbEntity
  8
DATA
  6
Continuous
 62
     7
100
AcDbLine
 10
807.7337064221511
 20
-556.9894632317925
 30
0.0
 11
807.7337064221511
 21
-618.9799080317913
 31
0.0
  0
LINE
  5
357
330
45D
100
AcDbEntity
  8
DATA
  6
Continuous
 62
     7
100
AcDbLine
 10
726.8356284221511
 20
-556.9894632317925
 30
0.0
 11
726.8356284221511
 21
-618.9799080317913
 31
0.0
  0
LINE
  5
358
330
45D
100
AcDbEntity
  8
DATA
  6
Continuous
 62
     7
100
AcDbLine
 10
740.3411748221525
 20
-556.9894632317925
 30
0.0
 11
740.3411748221525
 21
-618.9799080317913
 31
0.0
  0
LINE
  5
359
330
45D
100
AcDbEntity
  8
DATA
  6
Continuous
 62
     7
100
AcDbLine
 10
747.3640560221507
 20
-556.9894632317925
 30
0.0
 11
747.3640560221507
 21
-630.1894632317908
 31
0.0
  0
LINE
  5
35A
330
45D
100
AcDbEntity
  8
DATA
  6
Continuous
 62
     7
100
AcDbLine
 10
759.6541164221538
 20
-563.877217231792
 30
0.0
 11
759.6541164221538
 21
-587.3769060317909
 31
0.0
  0
LINE
  5
35B
330
45D
100
AcDbEntity
  8
DATA
  6
Continuous
 62
     7
100
AcDbLine
 10
785.9957220221498
 20
-586.0171428317926
 30
0.0
 11
785.9957220221498
 21
-568.874361631789
 31
0.0
  0
LINE
  5
35C
330
45D
100
AcDbEntity
  8
DATA
  6
Continuous
 62
     7
100
AcDbLine
 10
773.0244624221461
 20
-567.1185864317919
 30
0.0
 11
773.0244624221461
 21
-584.1356100317909
 31
0.0
  0
ARC
  5
35D
330
45D
100
AcDbEntity
  8
DATA
  6
Continuous
 62
     7
100
AcDbCircle
 10
724.1254716221524
 20
-611.3931672317903
 30
0.0
 40
18.87720707222969
100
AcDbArc
 50
264.6908562215155
 51
323.9911991542458
  0
LINE
  5
35E
330
45D
100
AcDbEntity
  8
DATA
  6
Continuous
 62
     7
100
AcDbLine
 10
716.5714512221496
 20
-607.2299904317901
 30
0.0
 11
716.5714512221496
 21
-618.9797616317912
 31
0.0
  0
LINE
  5
35F
330
45D
100
AcDbEntity
  8
DATA
  6
Continuous
 62
     7
100
AcDbLine
 10
716.5714512221496
 20
-607.2299904317901
 30
0.0
 11
704.4164448221486
 21
-607.2299904317901
 31
0.0
  0
LINE
  5
360
330
45D
100
AcDbEntity
  8
DATA
  6
Continuous
 62
     7
100
AcDbLine
 10
704.4164448221486
 20
-607.2299904317901
 30
0.0
 11
704.4164448221486
 21
-618.9797616317912
 31
0.0
  0
ARC
  5
361
330
45D
100
AcDbEntity
  8
DATA
  6
Continuous
 62
     7
100
AcDbCircle
 10
721.7292696221524
 20
-619.1381664317908
 30
0.0
 40
5.108839008092185
100
AcDbArc
 50
269.7118487927484
 51
1.775987005690637
  0
ARC
  5
362
330
45D
100
AcDbEntity
  8
DATA
  6
Continuous
 62
     7
100
AcDbCircle
 10
721.6778100221485
 20
-619.1381664317908
 30
0.0
 40
5.108812884602813
100
AcDbArc
 50
178.2240129943196
 51
270.2881512072837
  0
ARC
  5
363
330
45D
100
AcDbEntity
  8
DATA
  6
Continuous
 62
     7
100
AcDbCircle
 10
720.6321480221491
 20
-611.3931672317903
 30
0.0
 40
18.87717641445208
100
AcDbArc
 50
216.0088008457576
 51
275.3091437784597
  0
ARC
  5
364
330
45D
100
AcDbEntity
  8
DATA
  6
Continuous
 62
     7
100
AcDbCircle
 10
712.9474656221498
 20
-618.5659620317915
 30
0.0
 40
8.540977523847187
100
AcDbArc
 50
182.7769954499926
 51
207.3596066671554
  0
CIRCLE
  5
365
330
45D
100
AcDbEntity
  8
DATA
  6
Continuous
 62
     7
100
AcDbCircle
 10
711.5068896221498
 20
-593.1843012317904
 30
0.0
 40
6.955317600002217
  0
LINE
  5
366
330
45D
100
AcDbEntity
  8
DATA
  6
Continuous
 62
     7
100
AcDbLine
 10
830.2879440221486
 20
-630.1893900317907
 30
0.0
 11
793.6879440221548
 21
-630.1893900317907
 31
0.0
  0
LINE
  5
367
330
45D
100
AcDbEntity
  8
DATA
  6
Continuous
 62
     7
100
AcDbLine
 10
830.2879440221486
 20
-630.1893900317907
 30
0.0
 11
830.2879440221486
 21
-607.2299172317902
 31
0.0
  0
LINE
  5
368
330
45D
100
AcDbEntity
  8
DATA
  6
Continuous
 62
     7
100
AcDbLine
 10
830.2879440221486
 20
-607.2299904317901
 30
0.0
 11
817.9979568221495
 21
-607.2299904317901
 31
0.0
  0
LINE
  5
369
330
45D
100
AcDbEntity
  8
DATA
  6
Continuous
 62
     7
100
AcDbLine
 10
817.9979568221495
 20
-607.2299904317901
 30
0.0
 11
817.9979568221495
 21
-618.9797616317912
 31
0.0
  0
LINE
  5
36A
330
45D
100
AcDbEntity
  8
DATA
  6
Continuous
 62
     7
100
AcDbLine
 10
747.3640560221507
 20
-630.1893900317907
 30
0.0
 11
773.0244624221461
 21
-630.1893168317905
 31
0.0
  0
LINE
  5
36B
330
45D
100
AcDbEntity
  8
DATA
  6
Continuous
 62
     7
100
AcDbLine
 10
759.6540432221502
 20
-623.3015628317912
 30
0.0
 11
766.2717624221487
 21
-623.3015628317912
 31
0.0
  0
LINE
  5
36C
330
45D
100
AcDbEntity
  8
DATA
  6
Continuous
 62
     7
100
AcDbLine
 10
759.6541164221538
 20
-623.3015628317912
 30
0.0
 11
759.6541164221538
 21
-594.3997140317924
 31
0.0
  0
LINE
  5
36D
330
45D
100
AcDbEntity
  8
DATA
  6
Continuous
 62
     7
100
AcDbLine
 10
759.6540432221502
 20
-594.3997140317924
 30
0.0
 11
766.2717624221487
 21
-594.3997140317924
 31
0.0
  0
LINE
  5
36E
330
45D
100
AcDbEntity
  8
DATA
  6
Continuous
 62
     7
100
AcDbLine
 10
773.0244624221461
 20
-620.0602668317912
 30
0.0
 11
773.0244624221461
 21
-597.6410100317923
 31
0.0
  0
ARC
  5
36F
330
45D
100
AcDbEntity
  8
DATA
  6
Continuous
 62
     7
100
AcDbCircle
 10
731.8101540221516
 20
-618.5659620317915
 30
0.0
 40
8.540965370369077
100
AcDbArc
 50
332.6403933328365
 51
357.2230045500069
  0
ARC
  5
370
330
45D
100
AcDbEntity
  8
DATA
  6
Continuous
 62
     7
100
AcDbCircle
 10
812.8915248221538
 20
-619.1381664317908
 30
0.0
 40
5.108839008092185
100
AcDbArc
 50
269.7118487927484
 51
1.775987005690637
  0
ARC
  5
371
330
45D
100
AcDbEntity
  8
DATA
  6
Continuous
 62
     7
100
AcDbCircle
 10
812.8401384221536
 20
-619.1381664317908
 30
0.0
 40
5.108812884602813
100
AcDbArc
 50
178.2240129943196
 51
270.2881512072071
  0
LINE
  5
372
330
45D
100
AcDbEntity
  8
DATA
  6
Continuous
 62
     7
100
AcDbLine
 10
785.9897928221527
 20
-618.4395456317929
 30
0.0
 11
785.9897928221527
 21
-598.9916232317897
 31
0.0
  0
LINE
  5
373
330
45D
100
AcDbEntity
  8
DATA
  6
Continuous
 62
     7
100
AcDbLine
 10
759.6540432221502
 20
-587.3769060317909
 30
0.0
 11
766.2717624221487
 21
-587.3769060317909
 31
0.0
  0
ARC
  5
374
330
45D
100
AcDbEntity
  8
DATA
  6
Continuous
 62
     7
100
AcDbCircle
 10
772.0939440221457
 20
-616.2933216317902
 30
0.0
 40
13.92711553377711
100
AcDbArc
 50
273.8309816091166
 51
351.1351473098021
  0
LINE
  5
375
330
45D
100
AcDbEntity
  8
DATA
  6
Continuous
 62
     7
100
AcDbLine
 10
726.8356284221511
 20
-556.9894632317925
 30
0.0
 11
740.3411748221525
 21
-556.9894632317925
 31
0.0
  0
LINE
  5
376
330
45D
100
AcDbEntity
  8
DATA
  6
Continuous
 62
     7
100
AcDbLine
 10
699.9595896221501
 20
-556.9894632317925
 30
0.0
 11
721.7035032221485
 21
-556.9894632317925
 31
0.0
  0
LINE
  5
377
330
45D
100
AcDbEntity
  8
DATA
  6
Continuous
 62
     7
100
AcDbLine
 10
793.6879440221548
 20
-556.9894632317925
 30
0.0
 11
807.7337064221511
 21
-556.9894632317925
 31
0.0
  0
LINE
  5
378
330
45D
100
AcDbEntity
  8
DATA
  6
Continuous
 62
     7
100
AcDbLine
 10
747.3640560221507
 20
-556.9894632317925
 30
0.0
 11
773.1655197601878
 21
-556.9895224779702
 31
0.0
  0
LINE
  5
379
330
45D
100
AcDbEntity
  8
DATA
  6
Continuous
 62
     7
100
AcDbLine
 10
759.6540432221502
 20
-563.8772904317922
 30
0.0
 11
766.2717624221487
 21
-563.8772904317922
 31
0.0
  0
ARC
  5
37A
330
45D
100
AcDbEntity
  8
DATA
  6
Continuous
 62
     7
100
AcDbCircle
 10
772.2328044221524
 20
-570.8642304317914
 30
0.0
 40
13.90602310890998
100
AcDbArc
 50
8.226923859026939
 51
86.15412669214659
  0
LINE
  5
37B
330
45D
100
AcDbEntity
  8
DATA
  6
Continuous
 62
     7
100
AcDbLine
 10
872.1833220221503
 20
-679.1874936317912
 30
0.0
 11
662.1833220221503
 21
-679.1874936317912
 31
0.0
  0
ARC
  5
37C
330
45D
100
AcDbEntity
  8
DATA
  6
Continuous
 62
     7
100
AcDbCircle
 10
766.3499068084057
 20
-610.464566960294
 30
0.0
 40
12.83723371875504
100
AcDbArc
 50
269.6512199376112
 51
282.8264828068758
  0
ARC
  5
37D
330
45D
100
AcDbEntity
  8
DATA
  6
Continuous
 62
     7
100
AcDbCircle
 10
767.7917313432101
 20
-615.8918951099735
 30
0.0
 40
7.228045455032647
100
AcDbArc
 50
281.2331036226333
 51
306.8620088940422
  0
ARC
  5
37E
330
45D
100
AcDbEntity
  8
DATA
  6
Continuous
 62
     7
100
AcDbCircle
 10
770.702641603508
 20
-597.8741084426975
 30
0.0
 40
2.333492400464987
100
AcDbArc
 50
5.732980710584571
 51
52.35809750241904
  0
ARC
  5
37F
330
45D
100
AcDbEntity
  8
DATA
  6
Continuous
 62
     7
100
AcDbCircle
 10
766.3499068084057
 20
-607.2367099032864
 30
0.0
 40
12.83723371875388
100
AcDbArc
 50
77.17351719312512
 51
90.34878006238891
  0
ARC
  5
380
330
45D
100
AcDbEntity
  8
DATA
  6
Continuous
 62
     7
100
AcDbCircle
 10
767.7917313432101
 20
-601.8093817536066
 30
0.0
 40
7.228045455031831
100
AcDbArc
 50
53.13799110593991
 51
78.76689637736541
  0
ARC
  5
381
330
45D
100
AcDbEntity
  8
DATA
  6
Continuous
 62
     7
100
AcDbCircle
 10
778.9063752221465
 20
-599.4704244317927
 30
0.0
 40
7.099581359855099
100
AcDbArc
 50
3.867006359841641
 51
88.36163456787918
  0
ARC
  5
382
330
45D
100
AcDbEntity
  8
DATA
  6
Continuous
 62
     7
100
AcDbCircle
 10
778.899860422149
 20
-585.2702100317912
 30
0.0
 40
7.106636200416079
100
AcDbArc
 50
271.689282104645
 51
356.0782829826589
  0
ARC
  5
383
330
45D
100
AcDbEntity
  8
DATA
  6
Continuous
 62
     7
100
AcDbCircle
 10
770.702641603508
 20
-583.9025116208858
 30
0.0
 40
2.333492400470968
100
AcDbArc
 50
307.6419024975801
 51
354.267019289416
  0
ARC
  5
384
330
45D
100
AcDbEntity
  8
DATA
  6
Continuous
 62
     7
100
AcDbCircle
 10
766.3499068084057
 20
-574.5399101602936
 30
0.0
 40
12.83723371875504
100
AcDbArc
 50
269.6512199376112
 51
282.8264828068717
  0
ARC
  5
385
330
45D
100
AcDbEntity
  8
DATA
  6
Continuous
 62
     7
100
AcDbCircle
 10
767.7917313432101
 20
-579.9672383099732
 30
0.0
 40
7.228045455032647
100
AcDbArc
 50
281.2331036226333
 51
306.8620088940422
  0
ARC
  5
386
330
45D
100
AcDbEntity
  8
DATA
  6
Continuous
 62
     7
100
AcDbCircle
 10
770.702641603508
 20
-567.3516848426969
 30
0.0
 40
2.333492400464987
100
AcDbArc
 50
5.732980710584571
 51
52.35809750241904
  0
ARC
  5
387
330
45D
100
AcDbEntity
  8
DATA
  6
Continuous
 62
     7
100
AcDbCircle
 10
766.3499068084057
 20
-576.7142863032892
 30
0.0
 40
12.83723371875721
100
AcDbArc
 50
77.1735171931285
 51
90.34878006238882
  0
ARC
  5
388
330
45D
100
AcDbEntity
  8
DATA
  6
Continuous
 62
     7
100
AcDbCircle
 10
767.7917313432101
 20
-571.2869581536097
 30
0.0
 40
7.228045455034563
100
AcDbArc
 50
53.13799110595613
 51
78.76689637736593
  0
TEXT
  5
389
330
45D
100
AcDbEntity
  8
DATA
 62
     7
100
AcDbText
 10
359.6183784083485
 20
-1629.989232231433
 30
0.0
 40
2.036051432291666
  1
Bi-AMP
 50
90.0
 41
0.7
 72
     1
 11
358.6003526922027
 21
-1626.426142224922
 31
0.0
100
AcDbText
 73
     2
  0
LWPOLYLINE
  5
38A
330
45D
100
AcDbEntity
  8
DATA
  6
Continuous
 62
     7
100
AcDbPolyline
 90
        4
 70
     1
 43
0.0
 10
355.4753526922027
 20
-1621.426142224922
 10
367.9753526922027
 20
-1621.426142224922
 10
367.9753526922027
 20
-1651.426142224922
 10
355.4753526922027
 20
-1651.426142224922
  0
LINE
  5
391
330
45D
100
AcDbEntity
  8
DATA
  6
Continuous
 62
     7
100
AcDbLine
 10
355.4753526922027
 20
-1631.426142224922
 30
0.0
 11
367.9753526922027
 21
-1631.426142224922
 31
0.0
  0
LINE
  5
392
330
45D
100
AcDbEntity
  8
DATA
  6
Continuous
 62
     7
100
AcDbLine
 10
361.7253526922027
 20
-1621.426142224922
 30
0.0
 11
361.7253526922027
 21
-1651.426142224922
 31
0.0
  0
TEXT
  5
393
330
45D
100
AcDbEntity
  8
DATA
 62
     7
100
AcDbText
 10
365.766575836734
 20
-1630.701850232735
 30
0.0
 40
1.8324462890625
  1
PASSIVE
 50
90.0
 41
0.7
 72
     1
 11
364.8503526922027
 21
-1626.426142224922
 31
0.0
100
AcDbText
 73
     2
  0
TEXT
  5
394
330
45D
100
AcDbEntity
  8
DATA
 62
     7
100
AcDbText
 10
357.1751166895986
 20
-1635.490824432191
 30
0.0
 40
2.44326171875
  1
LF
 41
0.7
 72
     1
 11
358.6003526922027
 21
-1634.269193572816
 31
0.0
100
AcDbText
 73
     2
  0
TEXT
  5
395
330
45D
100
AcDbEntity
  8
DATA
 62
     7
100
AcDbText
 10
364.280258291161
 20
-1635.490824432191
 30
0.0
 40
2.44326171875
  1
A
 41
0.7
 72
     1
 11
364.8503526922027
 21
-1634.269193572816
 31
0.0
100
AcDbText
 73
     2
  0
TEXT
  5
396
330
45D
100
AcDbEntity
  8
DATA
 62
     7
100
AcDbText
 10
357.004088369286
 20
-1639.719469652487
 30
0.0
 40
2.44326171875
  1
4Ω
 41
0.7
 72
     1
 11
358.6003526922027
 21
-1638.497838793111
 31
0.0
100
AcDbText
 73
     2
  0
TEXT
  5
397
330
45D
100
AcDbEntity
  8
DATA
 62
     7
100
AcDbText
 10
363.254088369286
 20
-1639.719469652487
 30
0.0
 40
2.44326171875
  1
4Ω
 41
0.7
 72
     1
 11
364.8503526922027
 21
-1638.497838793111
 31
0.0
100
AcDbText
 73
     2
  0
TEXT
  5
398
330
45D
100
AcDbEntity
  8
DATA
 62
     7
100
AcDbText
 10
357.1751166895986
 20
-1645.49082443219
 30
0.0
 40
2.44326171875
  1
HF
 41
0.7
 72
     1
 11
358.6003526922027
 21
-1644.269193572815
 31
0.0
100
AcDbText
 73
     2
  0
TEXT
  5
399
330
45D
100
AcDbEntity
  8
DATA
 62
     7
100
AcDbText
 10
364.280258291161
 20
-1645.49082443219
 30
0.0
 40
2.44326171875
  1
B
 41
0.7
 72
     1
 11
364.8503526922027
 21
-1644.269193572815
 31
0.0
100
AcDbText
 73
     2
  0
TEXT
  5
39A
330
45D
100
AcDbEntity
  8
DATA
 62
     7
100
AcDbText
 10
357.004088369286
 20
-1649.719469652486
 30
0.0
 40
2.44326171875
  1
8Ω
 41
0.7
 72
     1
 11
358.6003526922027
 21
-1648.497838793112
 31
0.0
100
AcDbText
 73
     2
  0
TEXT
  5
39B
330
45D
100
AcDbEntity
  8
DATA
 62
     7
100
AcDbText
 10
363.254088369286
 20
-1649.719469652486
 30
0.0
 40
2.44326171875
  1
4Ω
 41
0.7
 72
     1
 11
364.8503526922027
 21
-1648.497838793112
 31
0.0
100
AcDbText
 73
     2
  0
TEXT
  5
39C
330
45D
100
AcDbEntity
  8
DATA
 62
     7
100
AcDbText
 10
363.6832302963693
 20
-1642.426532849922
 30
0.0
 40
2.00078125
  1
OR
 41
0.7
 72
     1
 11
364.8503526922027
 21
-1641.426142224922
 31
0.0
100
AcDbText
 73
     2
  0
LINE
  5
39D
330
45D
100
AcDbEntity
  8
DATA
  6
Continuous
 62
     7
100
AcDbLine
 10
363.2253526922027
 20
-1641.426142224922
 30
0.0
 11
355.4753526922027
 21
-1641.426142224922
 31
0.0
  0
LINE
  5
39E
330
45D
100
AcDbEntity
  8
DATA
  6
Continuous
 62
     7
100
AcDbLine
 10
367.9753526922027
 20
-1641.426142224922
 30
0.0
 11
366.4753526922027
 21
-1641.426142224922
 31
0.0
  0
TEXT
  5
39F
330
45D
100
AcDbEntity
  8
DATA
 62
     7
100
AcDbText
 10
1541.828707764338
 20
-516.5187421294466
 30
0.0
 40
30.540771484375
  1
Bi-AMP
 50
90.0
 41
0.7
 72
     1
 11
1526.55832202215
 21
-463.0723920317904
 31
0.0
100
AcDbText
 73
     2
  0
LWPOLYLINE
  5
3A0
330
45D
100
AcDbEntity
  8
DATA
  6
Continuous
 62
     7
100
AcDbPolyline
 90
        4
 70
     1
 43
0.0
 10
1479.68332202215
 20
-388.0723920317905
 10
1667.18332202215
 20
-388.0723920317905
 10
1667.18332202215
 20
-838.0723920317905
 10
1479.68332202215
 20
-838.0723920317905
  0
LINE
  5
3A7
330
45D
100
AcDbEntity
  8
DATA
  6
Continuous
 62
     7
100
AcDbLine
 10
1479.68332202215
 20
-538.0723920317905
 30
0.0
 11
1667.18332202215
 21
-538.0723920317905
 31
0.0
  0
LINE
  5
3A8
330
45D
100
AcDbEntity
  8
DATA
  6
Continuous
 62
     7
100
AcDbLine
 10
1573.43332202215
 20
-388.0723920317905
 30
0.0
 11
1573.43332202215
 21
-838.0723920317905
 31
0.0
  0
TEXT
  5
3A9
330
45D
100
AcDbEntity
  8
DATA
 62
     7
100
AcDbText
 10
1634.051669190119
 20
-527.2080121489779
 30
0.0
 40
27.48669433593751
  1
PASSIVE
 50
90.0
 41
0.7
 72
     1
 11
1620.30832202215
 21
-463.0723920317904
 31
0.0
100
AcDbText
 73
     2
  0
TEXT
  5
3AA
330
45D
100
AcDbEntity
  8
DATA
 62
     7
100
AcDbText
 10
1505.179781983088
 20
-599.0426251408194
 30
0.0
 40
36.64892578125
  1
LF
 41
0.7
 72
     1
 11
1526.55832202215
 21
-580.7181622501945
 31
0.0
100
AcDbText
 73
     2
  0
TEXT
  5
3AB
330
45D
100
AcDbEntity
  8
DATA
 62
     7
100
AcDbText
 10
1611.756906006525
 20
-599.0426251408194
 30
0.0
 40
36.64892578125
  1
A
 41
0.7
 72
     1
 11
1620.30832202215
 21
-580.7181622501945
 31
0.0
100
AcDbText
 73
     2
  0
TEXT
  5
3AC
330
45D
100
AcDbEntity
  8
DATA
 62
     7
100
AcDbText
 10
1502.6143571784
 20
-662.4723034452547
 30
0.0
 40
36.64892578125
  1
4Ω
 41
0.7
 72
     1
 11
1526.55832202215
 21
-644.1478405546297
 31
0.0
100
AcDbText
 73
     2
  0
TEXT
  5
3AD
330
45D
100
AcDbEntity
  8
DATA
 62
     7
100
AcDbText
 10
1596.3643571784
 20
-662.4723034452547
 30
0.0
 40
36.64892578125
  1
4Ω
 41
0.7
 72
     1
 11
1620.30832202215
 21
-644.1478405546297
 31
0.0
100
AcDbText
 73
     2
  0
TEXT
  5
3AE
330
45D
100
AcDbEntity
  8
DATA
 62
     7
100
AcDbText
 10
1505.179781983088
 20
-749.0426251408194
 30
0.0
 40
36.64892578125
  1
HF
 41
0.7
 72
     1
 11
1526.55832202215
 21
-730.7181622501945
 31
0.0
100
AcDbText
 73
     2
  0
TEXT
  5
3AF
330
45D
100
AcDbEntity
  8
DATA
 62
     7
100
AcDbText
 10
1611.756906006525
 20
-749.0426251408194
 30
0.0
 40
36.64892578125
  1
B
 41
0.7
 72
     1
 11
1620.30832202215
 21
-730.7181622501945
 31
0.0
100
AcDbText
 73
     2
  0
TEXT
  5
3B0
330
45D
100
AcDbEntity
  8
DATA
 62
     7
100
AcDbText
 10
1502.6143571784
 20
-812.4723034452548
 30
0.0
 40
36.64892578125
  1
8Ω
 41
0.7
 72
     1
 11
1526.55832202215
 21
-794.1478405546298
 31
0.0
100
AcDbText
 73
     2
  0
TEXT
  5
3B1
330
45D
100
AcDbEntity
  8
DATA
 62
     7
100
AcDbText
 10
1596.3643571784
 20
-812.4723034452548
 30
0.0
 40
36.64892578125
  1
4Ω
 41
0.7
 72
     1
 11
1620.30832202215
 21
-794.1478405546298
 31
0.0
100
AcDbText
 73
     2
  0
TEXT
  5
3B2
330
45D
100
AcDbEntity
  8
DATA
 62
     7
100
AcDbText
 10
1602.801486084651
 20
-703.0782514067904
 30
0.0
 40
30.01171875000001
  1
OR
 41
0.7
 72
     1
 11
1620.30832202215
 21
-688.0723920317905
 31
0.0
100
AcDbText
 73
     2
  0
LINE
  5
3B3
330
45D
100
AcDbEntity
  8
DATA
  6
Continuous
 62
     7
100
AcDbLine
 10
1595.93332202215
 20
-688.0723920317905
 30
0.0
 11
1479.68332202215
 21
-688.0723920317905
 31
0.0
  0
LINE
  5
3B4
330
45D
100
AcDbEntity
  8
DATA
  6
Continuous
 62
     7
100
AcDbLine
 10
1667.18332202215
 20
-688.0723920317905
 30
0.0
 11
1644.683322022151
 21
-688.0723920317905
 31
0.0
  0
LINE
  5
3B5
330
45D
100
AcDbEntity
  8
SELECTOR
  6
STYLE_01
 62
     7
100
AcDbLine
 10
-1544.475352692202
 20
-1574.0
 30
0.0
 11
-1544.475352692202
 21
-1535.0
 31
0.0
  0
LINE
  5
3B6
330
45D
100
AcDbEntity
  8
SELECTOR
  6
STYLE_01
 62
     7
100
AcDbLine
 10
-1486.475352692203
 20
-1574.0
 30
0.0
 11
-1544.475352692202
 21
-1574.0
 31
0.0
  0
LINE
  5
3B7
330
45D
100
AcDbEntity
  8
SELECTOR
  6
STYLE_01
 62
     7
100
AcDbLine
 10
-1511.475352692203
 20
-1542.5
 30
0.0
 11
-1511.475352692203
 21
-1566.5
 31
0.0
  0
LINE
  5
3B8
330
45D
100
AcDbEntity
  8
SELECTOR
  6
STYLE_01
 62
     7
100
AcDbLine
 10
-1544.475352692202
 20
-1535.0
 30
0.0
 11
-1486.475352692203
 21
-1535.0
 31
0.0
  0
LINE
  5
3B9
330
45D
100
AcDbEntity
  8
SELECTOR
  6
STYLE_01
 62
     7
100
AcDbLine
 10
-1490.975352692203
 20
-1535.5
 30
0.0
 11
-1512.725352692203
 21
-1535.5
 31
0.0
  0
LINE
  5
3BA
330
45D
100
AcDbEntity
  8
SELECTOR
  6
STYLE_01
 62
     7
100
AcDbLine
 10
-1490.975352692203
 20
-1573.5
 30
0.0
 11
-1539.975352692203
 21
-1573.5
 31
0.0
  0
LINE
  5
3BB
330
45D
100
AcDbEntity
  8
SELECTOR
  6
STYLE_01
 62
     7
100
AcDbLine
 10
-1537.475352692202
 20
-1542.5
 30
0.0
 11
-1519.475352692203
 21
-1542.5
 31
0.0
  0
LINE
  5
3BC
330
45D
100
AcDbEntity
  8
SELECTOR
  6
STYLE_01
 62
     7
100
AcDbLine
 10
-1511.475352692203
 20
-1542.5
 30
0.0
 11
-1493.475352692202
 21
-1542.5
 31
0.0
  0
LINE
  5
3BD
330
45D
100
AcDbEntity
  8
SELECTOR
  6
STYLE_01
 62
     7
100
AcDbLine
 10
-1519.475352692203
 20
-1566.5
 30
0.0
 11
-1537.475352692203
 21
-1566.5
 31
0.0
  0
LINE
  5
3BE
330
45D
100
AcDbEntity
  8
SELECTOR
  6
STYLE_01
 62
     7
100
AcDbLine
 10
-1493.475352692202
 20
-1566.5
 30
0.0
 11
-1511.475352692203
 21
-1566.5
 31
0.0
  0
LINE
  5
3BF
330
45D
100
AcDbEntity
  8
SELECTOR
  6
STYLE_01
 62
     7
100
AcDbLine
 10
-1493.475352692202
 20
-1542.5
 30
0.0
 11
-1493.475352692202
 21
-1566.5
 31
0.0
  0
LINE
  5
3C0
330
45D
100
AcDbEntity
  8
SELECTOR
  6
STYLE_01
 62
     7
100
AcDbLine
 10
-1519.475352692203
 20
-1542.5
 30
0.0
 11
-1519.475352692203
 21
-1566.5
 31
0.0
  0
LINE
  5
3C1
330
45D
100
AcDbEntity
  8
SELECTOR
  6
STYLE_01
 62
     7
100
AcDbLine
 10
-1537.475352692203
 20
-1542.5
 30
0.0
 11
-1537.475352692203
 21
-1566.5
 31
0.0
  0
LINE
  5
3C2
330
45D
100
AcDbEntity
  8
SELECTOR
  6
STYLE_01
 62
     7
100
AcDbLine
 10
-1486.475352692203
 20
-1535.0
 30
0.0
 11
-1486.475352692203
 21
-1574.0
 31
0.0
  0
LINE
  5
3C3
330
45D
100
AcDbEntity
  8
SELECTOR
  6
STYLE_01
 62
     7
100
AcDbLine
 10
-1525.975352692203
 20
-1557.5
 30
0.0
 11
-1530.975352692203
 21
-1557.5
 31
0.0
  0
LINE
  5
3C4
330
45D
100
AcDbEntity
  8
SELECTOR
  6
STYLE_01
 62
     7
100
AcDbLine
 10
-1532.475352692203
 20
-1559.0
 30
0.0
 11
-1532.475352692203
 21
-1550.0
 31
0.0
  0
LINE
  5
3C5
330
45D
100
AcDbEntity
  8
SELECTOR
  6
STYLE_01
 62
     7
100
AcDbLine
 10
-1525.975352692203
 20
-1560.5
 30
0.0
 11
-1530.975352692203
 21
-1560.5
 31
0.0
  0
LINE
  5
3C6
330
45D
100
AcDbEntity
  8
SELECTOR
  6
STYLE_01
 62
     7
100
AcDbLine
 10
-1524.475352692203
 20
-1550.0
 30
0.0
 11
-1524.475352692203
 21
-1559.0
 31
0.0
  0
LINE
  5
3C7
330
45D
100
AcDbEntity
  8
SELECTOR
  6
STYLE_01
 62
     7
100
AcDbLine
 10
-1530.975352692203
 20
-1548.5
 30
0.0
 11
-1525.975352692203
 21
-1548.5
 31
0.0
  0
ARC
  5
3C8
330
45D
100
AcDbEntity
  8
SELECTOR
  6
STYLE_01
 62
     7
100
AcDbCircle
 10
-1530.975352692203
 20
-1559.0
 30
0.0
 40
1.5
100
AcDbArc
 50
90.0
 51
270.0
  0
ARC
  5
3C9
330
45D
100
AcDbEntity
  8
SELECTOR
  6
STYLE_01
 62
     7
100
AcDbCircle
 10
-1525.975352692203
 20
-1559.0
 30
0.0
 40
1.5
100
AcDbArc
 50
270.0
 51
90.0
  0
ARC
  5
3CA
330
45D
100
AcDbEntity
  8
SELECTOR
  6
STYLE_01
 62
     7
100
AcDbCircle
 10
-1530.975352692203
 20
-1550.0
 30
0.0
 40
1.5
100
AcDbArc
 50
90.0
 51
180.0
  0
ARC
  5
3CB
330
45D
100
AcDbEntity
  8
SELECTOR
  6
STYLE_01
 62
     7
100
AcDbCircle
 10
-1525.975352692203
 20
-1550.0
 30
0.0
 40
1.5
100
AcDbArc
 50
0.0
 51
90.0
  0
LINE
  5
3CC
330
45D
100
AcDbEntity
  8
SELECTOR
  6
STYLE_01
 62
     7
100
AcDbLine
 10
-1499.975352692203
 20
-1557.5
 30
0.0
 11
-1504.975352692202
 21
-1557.5
 31
0.0
  0
LINE
  5
3CD
330
45D
100
AcDbEntity
  8
SELECTOR
  6
STYLE_01
 62
     7
100
AcDbLine
 10
-1506.475352692203
 20
-1559.0
 30
0.0
 11
-1506.475352692203
 21
-1550.0
 31
0.0
  0
LINE
  5
3CE
330
45D
100
AcDbEntity
  8
SELECTOR
  6
STYLE_01
 62
     7
100
AcDbLine
 10
-1499.975352692203
 20
-1560.5
 30
0.0
 11
-1504.975352692202
 21
-1560.5
 31
0.0
  0
LINE
  5
3CF
330
45D
100
AcDbEntity
  8
SELECTOR
  6
STYLE_01
 62
     7
100
AcDbLine
 10
-1498.475352692202
 20
-1550.0
 30
0.0
 11
-1498.475352692202
 21
-1559.0
 31
0.0
  0
LINE
  5
3D0
330
45D
100
AcDbEntity
  8
SELECTOR
  6
STYLE_01
 62
     7
100
AcDbLine
 10
-1504.975352692202
 20
-1548.5
 30
0.0
 11
-1499.975352692203
 21
-1548.5
 31
0.0
  0
ARC
  5
3D1
330
45D
100
AcDbEntity
  8
SELECTOR
  6
STYLE_01
 62
     7
100
AcDbCircle
 10
-1504.975352692202
 20
-1559.0
 30
0.0
 40
1.5
100
AcDbArc
 50
90.0
 51
270.0
  0
ARC
  5
3D2
330
45D
100
AcDbEntity
  8
SELECTOR
  6
STYLE_01
 62
     7
100
AcDbCircle
 10
-1499.975352692203
 20
-1559.0
 30
0.0
 40
1.5
100
AcDbArc
 50
270.0
 51
90.0
  0
ARC
  5
3D3
330
45D
100
AcDbEntity
  8
SELECTOR
  6
STYLE_01
 62
     7
100
AcDbCircle
 10
-1504.975352692202
 20
-1550.0
 30
0.0
 40
1.5
100
AcDbArc
 50
90.0
 51
180.0
  0
ARC
  5
3D4
330
45D
100
AcDbEntity
  8
SELECTOR
  6
STYLE_01
 62
     7
100
AcDbCircle
 10
-1499.975352692203
 20
-1550.0
 30
0.0
 40
1.5
100
AcDbArc
 50
0.0
 51
90.0
  0
LINE
  5
3D5
330
45D
100
AcDbEntity
  8
SELECTOR
  6
STYLE_01
 62
     7
100
AcDbLine
 10
-1540.975352692203
 20
-1556.75
 30
0.0
 11
-1540.975352692203
 21
-1572.5
 31
0.0
  0
LINE
  5
3D6
330
45D
100
AcDbEntity
  8
SELECTOR
  6
STYLE_01
 62
     7
100
AcDbLine
 10
-1489.975352692203
 20
-1536.5
 30
0.0
 11
-1489.975352692203
 21
-1572.5
 31
0.0
  0
LINE
  5
3D7
330
45D
100
AcDbEntity
  8
SELECTOR
  6
STYLE_01
 62
     7
100
AcDbLine
 10
-1517.225352692203
 20
-1536.5
 30
0.0
 11
-1517.225352692203
 21
-1552.25
 31
0.0
  0
LINE
  5
3D8
330
45D
100
AcDbEntity
  8
SELECTOR
  6
STYLE_01
 62
     7
100
AcDbLine
 10
-1513.725352692202
 20
-1536.5
 30
0.0
 11
-1513.725352692202
 21
-1554.75
 31
0.0
  0
LINE
  5
3D9
330
45D
100
AcDbEntity
  8
SELECTOR
  6
STYLE_01
 62
     7
100
AcDbLine
 10
-1518.225352692202
 20
-1553.25
 30
0.0
 11
-1519.475352692203
 21
-1553.25
 31
0.0
  0
LINE
  5
3DA
330
45D
100
AcDbEntity
  8
SELECTOR
  6
STYLE_01
 62
     7
100
AcDbLine
 10
-1514.725352692203
 20
-1555.75
 30
0.0
 11
-1519.475352692203
 21
-1555.75
 31
0.0
  0
LINE
  5
3DB
330
45D
100
AcDbEntity
  8
SELECTOR
  6
STYLE_01
 62
     7
100
AcDbLine
 10
-1518.225352692202
 20
-1535.5
 30
0.0
 11
-1539.975352692203
 21
-1535.5
 31
0.0
  0
LINE
  5
3DC
330
45D
100
AcDbEntity
  8
SELECTOR
  6
STYLE_01
 62
     7
100
AcDbLine
 10
-1539.975352692203
 20
-1553.25
 30
0.0
 11
-1537.475352692203
 21
-1553.25
 31
0.0
  0
LINE
  5
3DD
330
45D
100
AcDbEntity
  8
SELECTOR
  6
STYLE_01
 62
     7
100
AcDbLine
 10
-1539.975352692203
 20
-1555.75
 30
0.0
 11
-1537.475352692203
 21
-1555.75
 31
0.0
  0
LINE
  5
3DE
330
45D
100
AcDbEntity
  8
SELECTOR
  6
STYLE_01
 62
     7
100
AcDbLine
 10
-1540.975352692203
 20
-1536.5
 30
0.0
 11
-1540.975352692203
 21
-1552.25
 31
0.0
  0
ARC
  5
3DF
330
45D
100
AcDbEntity
  8
SELECTOR
  6
STYLE_01
 62
     7
100
AcDbCircle
 10
-1539.975352692203
 20
-1536.5
 30
0.0
 40
1.0
100
AcDbArc
 50
90.0
 51
180.0
  0
ARC
  5
3E0
330
45D
100
AcDbEntity
  8
SELECTOR
  6
STYLE_01
 62
     7
100
AcDbCircle
 10
-1512.725352692203
 20
-1536.5
 30
0.0
 40
1.0
100
AcDbArc
 50
90.0
 51
180.0
  0
ARC
  5
3E1
330
45D
100
AcDbEntity
  8
SELECTOR
  6
STYLE_01
 62
     7
100
AcDbCircle
 10
-1518.225352692202
 20
-1536.5
 30
0.0
 40
1.0
100
AcDbArc
 50
0.0
 51
90.0
  0
ARC
  5
3E2
330
45D
100
AcDbEntity
  8
SELECTOR
  6
STYLE_01
 62
     7
100
AcDbCircle
 10
-1539.975352692203
 20
-1552.25
 30
0.0
 40
1.0
100
AcDbArc
 50
180.0
 51
270.0
  0
ARC
  5
3E3
330
45D
100
AcDbEntity
  8
SELECTOR
  6
STYLE_01
 62
     7
100
AcDbCircle
 10
-1539.975352692203
 20
-1556.75
 30
0.0
 40
1.0
100
AcDbArc
 50
90.0
 51
180.0
  0
ARC
  5
3E4
330
45D
100
AcDbEntity
  8
SELECTOR
  6
STYLE_01
 62
     7
100
AcDbCircle
 10
-1518.225352692202
 20
-1552.25
 30
0.0
 40
1.0
100
AcDbArc
 50
270.0
 51
0.0
  0
ARC
  5
3E5
330
45D
100
AcDbEntity
  8
SELECTOR
  6
STYLE_01
 62
     7
100
AcDbCircle
 10
-1514.725352692203
 20
-1554.75
 30
0.0
 40
1.0
100
AcDbArc
 50
270.0
 51
0.0
  0
ARC
  5
3E6
330
45D
100
AcDbEntity
  8
SELECTOR
  6
STYLE_01
 62
     7
100
AcDbCircle
 10
-1539.975352692203
 20
-1572.5
 30
0.0
 40
1.0
100
AcDbArc
 50
180.0
 51
270.0
  0
ARC
  5
3E7
330
45D
100
AcDbEntity
  8
SELECTOR
  6
STYLE_01
 62
     7
100
AcDbCircle
 10
-1490.975352692203
 20
-1572.5
 30
0.0
 40
1.0
100
AcDbArc
 50
270.0
 51
0.0
  0
ARC
  5
3E8
330
45D
100
AcDbEntity
  8
SELECTOR
  6
STYLE_01
 62
     7
100
AcDbCircle
 10
-1490.975352692203
 20
-1536.5
 30
0.0
 40
1.0
100
AcDbArc
 50
0.0
 51
90.0
  0
TEXT
  5
3E9
330
45D
100
AcDbEntity
  8
SELECTOR
 62
     7
100
AcDbText
 10
-1534.176296702619
 20
-1540.628841145833
 30
0.0
 40
3.257682291666666
  1
Bi-AMP
 41
0.7
 72
     1
 11
-1528.475352692202
 21
-1539.0
 31
0.0
100
AcDbText
 73
     2
  0
TEXT
  5
3EA
330
45D
100
AcDbEntity
  8
SELECTOR
 62
     7
100
AcDbText
 10
-1536.076611372758
 20
-1571.628841145833
 30
0.0
 40
3.257682291666666
  1
PASSIVE
 41
0.7
 72
     1
 11
-1528.475352692202
 21
-1570.0
 31
0.0
100
AcDbText
 73
     2
  0
TEXT
  5
3EB
330
45D
100
AcDbEntity
  8
SELECTOR
 62
     7
100
AcDbText
 10
-1511.720383562428
 20
-1540.425236002604
 30
0.0
 40
2.850472005208333
  1
INPUT B(2±)
 41
0.7
 72
     1
 11
-1502.475352692203
 21
-1539.0
 31
0.0
100
AcDbText
 73
     2
  0
TEXT
  5
3EC
330
45D
100
AcDbEntity
  8
SELECTOR
 62
     7
100
AcDbText
 10
-1511.387828495154
 20
-1571.425236002604
 30
0.0
 40
2.850472005208333
  1
INPUT A(1±)
 41
0.7
 72
     1
 11
-1502.475352692203
 21
-1570.0
 31
0.0
100
AcDbText
 73
     2
  0
ENDSEC
  0
SECTION
  2
OBJECTS
  0
DICTIONARY
  5
3FA
330
0
100
AcDbDictionary
281
     1
  3
ACAD_CIP_PREVIOUS_PRODUCT_INFO
350
476
  3
ACAD_COLOR
350
450
  3
ACAD_DETAILVIEWSTYLE
350
457
  3
ACAD_GROUP
350
3FB
  3
ACAD_LAYOUT
350
44F
  3
ACAD_MATERIAL
350
3FE
  3
ACAD_MLEADERSTYLE
350
453
  3
ACAD_MLINESTYLE
350
44C
  3
ACAD_PLOTSETTINGS
350
44E
  3
ACAD_PLOTSTYLENAME
350
3FC
  3
ACAD_SCALELIST
350
430
  3
ACAD_SECTIONVIEWSTYLE
350
455
  3
ACAD_TABLESTYLE
350
451
  3
ACAD_VISUALSTYLE
350
417
  3
ACDB_RECOMPOSE_DATA
350
490
  3
AcDbVariableDictionary
350
483
  3
DWGPROPS
350
491
  0
DICTIONARY
  5
477
330
442
100
AcDbDictionary
280
     1
281
     1
  3
ADSK_XREC_LAYER_RECONCILED
360
478
  0
DICTIONARY
  5
479
330
461
100
AcDbDictionary
280
     1
281
     1
  3
ADSK_XREC_LAYER_RECONCILED
360
47A
  0
DICTIONARY
  5
47B
330
46D
100
AcDbDictionary
280
     1
281
     1
  3
ADSK_XREC_LAYER_RECONCILED
360
47C
  0
DICTIONARY
  5
47D
330
46E
100
AcDbDictionary
280
     1
281
     1
  3
ADSK_XREC_LAYER_RECONCILED
360
47E
  0
DICTIONARY
  5
47F
330
46F
100
AcDbDictionary
280
     1
281
     1
  3
ADSK_XREC_LAYER_RECONCILED
360
480
  0
DICTIONARY
  5
481
330
470
100
AcDbDictionary
280
     1
281
     1
  3
ADSK_XREC_LAYER_RECONCILED
360
482
  0
XRECORD
  5
476
102
{ACAD_REACTORS
330
3FA
102
}
330
3FA
100
AcDbXrecord
280
     1
300
ACDLT
300
2017
300
ACDLT_F_S
  0
DICTIONARY
  5
450
102
{ACAD_REACTORS
330
3FA
102
}
330
3FA
100
AcDbDictionary
281
     1
  0
DICTIONARY
  5
457
102
{ACAD_REACTORS
330
3FA
102
}
330
3FA
100
AcDbDictionary
281
     1
  3
Imperial24
350
458
  0
DICTIONARY
  5
3FB
102
{ACAD_REACTORS
330
3FA
102
}
330
3FA
100
AcDbDictionary
281
     1
  0
DICTIONARY
  5
44F
102
{ACAD_REACTORS
330
3FA
102
}
330
3FA
100
AcDbDictionary
281
     1
  3
Model
350
460
  3
レイアウト1
350
45C
  0
DICTIONARY
  5
3FE
102
{ACAD_REACTORS
330
3FA
102
}
330
3FA
100
AcDbDictionary
281
     1
  3
ByBlock
350
407
  3
ByLayer
350
3FF
  3
Global
350
40F
  0
DICTIONARY
  5
453
102
{ACAD_REACTORS
330
3FA
102
}
330
3FA
100
AcDbDictionary
281
     1
  3
Standard
350
454
  0
DICTIONARY
  5
44C
102
{ACAD_REACTORS
330
3FA
102
}
330
3FA
100
AcDbDictionary
281
     1
  3
Standard
350
44D
  0
DICTIONARY
  5
44E
102
{ACAD_REACTORS
330
3FA
102
}
330
3FA
100
AcDbDictionary
281
     1
  0
ACDBDICTIONARYWDFLT
  5
3FC
102
{ACAD_REACTORS
330
3FA
102
}
330
3FA
100
AcDbDictionary
281
     1
  3
Normal
350
3FD
100
AcDbDictionaryWithDefault
340
3FD
  0
DICTIONARY
  5
430
102
{ACAD_REACTORS
330
3FA
102
}
330
3FA
100
AcDbDictionary
281
     1
  3
A0
350
431
  3
A1
350
432
  3
A2
350
433
  3
A3
350
434
  3
A4
350
435
  3
A5
350
436
  3
A6
350
437
  3
A7
350
438
  3
A8
350
439
  3
A9
350
43A
  3
B0
350
43B
  3
B1
350
43C
  3
B2
350
43D
  3
B3
350
43E
  3
B4
350
43F
  3
B5
350
440
  3
B6
350
441
  0
DICTIONARY
  5
455
102
{ACAD_REACTORS
330
3FA
102
}
330
3FA
100
AcDbDictionary
281
     1
  3
Imperial24
350
456
  0
DICTIONARY
  5
451
102
{ACAD_REACTORS
330
3FA
102
}
330
3FA
100
AcDbDictionary
281
     1
  3
Standard
350
452
  0
DICTIONARY
  5
417
102
{ACAD_REACTORS
330
3FA
102
}
330
3FA
100
AcDbDictionary
281
     1
  3
2dWireframe
350
41D
  3
Basic
350
41C
  3
Brighten
350
423
  3
ColorChange
350
427
  3
Conceptual
350
420
  3
Dim
350
422
  3
EdgeColorOff
350
42F
  3
Facepattern
350
426
  3
Flat
350
418
  3
FlatWithEdges
350
419
  3
Gouraud
350
41A
  3
GouraudWithEdges
350
41B
  3
Hidden
350
41F
  3
JitterOff
350
42D
  3
Linepattern
350
425
  3
OverhangOff
350
42E
  3
Realistic
350
421
  3
Shaded
350
42C
  3
Shaded with edges
350
42B
  3
Shades of Gray
350
428
  3
Sketchy
350
429
  3
Thicken
350
424
  3
Wireframe
350
41E
  3
X-Ray
350
42A
  0
XRECORD
  5
490
102
{ACAD_REACTORS
330
3FA
102
}
330
3FA
100
AcDbXrecord
280
     1
 90
        1
330
452
  0
DICTIONARY
  5
483
102
{ACAD_REACTORS
330
3FA
102
}
330
3FA
100
AcDbDictionary
281
     1
  3
CANNOSCALE
350
488
  3
CMLEADERSTYLE
350
485
  3
CTABLESTYLE
350
484
  3
CVIEWDETAILSTYLE
350
486
  3
CVIEWSECTIONSTYLE
350
487
  3
DIMASSOC
350
48B
  3
INDEXCTL
350
48A
  3
SORTENTS
350
489
  3
XCLIPFRAME
350
48C
  0
XRECORD
  5
491
102
{ACAD_REACTORS
330
3FA
102
}
330
3FA
100
AcDbXrecord
280
     1
  1
DWGPROPS COOKIE
  2

  3

  4

  6

  7

  8
sasaki_n
  9

300
=
301
=
302
=
303
=
304
=
305
=
306
=
307
=
308
=
309
=
 40
0.0003240740740741
 41
2457568.705752315
 42
2457568.713506945
  1

 90
        0
  0
XRECORD
  5
478
102
{ACAD_REACTORS
330
477
102
}
330
477
100
AcDbXrecord
280
     1
290
     1
  0
XRECORD
  5
47A
102
{ACAD_REACTORS
330
479
102
}
330
479
100
AcDbXrecord
280
     1
290
     1
  0
XRECORD
  5
47C
102
{ACAD_REACTORS
330
47B
102
}
330
47B
100
AcDbXrecord
280
     1
290
     1
  0
XRECORD
  5
47E
102
{ACAD_REACTORS
330
47D
102
}
330
47D
100
AcDbXrecord
280
     1
290
     1
  0
XRECORD
  5
480
102
{ACAD_REACTORS
330
47F
102
}
330
47F
100
AcDbXrecord
280
     1
290
     1
  0
XRECORD
  5
482
102
{ACAD_REACTORS
330
481
102
}
330
481
100
AcDbXrecord
280
     1
290
     1
  0
ACDBDETAILVIEWSTYLE
  5
458
102
{ACAD_XDICTIONARY
360
4C9
102
}
102
{ACAD_REACTORS
330
457
102
}
330
457
100
AcDbModelDocViewStyle
 70
     0
  3
Imperial24
290
     0
100
AcDbDetailViewStyle
 70
     0
 71
     0
 90
        3
 71
     1
340
443
 40
0.24
340
0
 40
0.24
300

 40
0.36
280
     3
 71
     2
340
44A
 90
       25
 71
     3
340
443
 40
0.24
 90
        1
 40
0.75
 90
        1
300
%<\AcVar ViewType \f "%tc1">% %<\AcVar ViewDetailId>%\PSCALE %<\AcVar ViewScale \f "%sn">%
 71
     4
340
44A
 90
       25
340
44A
 90
       25
280
     0
  0
LAYOUT
  5
460
102
{ACAD_XDICTIONARY
360
4CD
102
}
102
{ACAD_REACTORS
330
44F
102
}
330
44F
100
AcDbPlotSettings
  1

  2
DocuPrint 3000-2
  4

  6

 40
0.0
 41
0.0
 42
0.0
 43
0.0
 44
0.0
 45
0.0
 46
0.0
 47
0.0
 48
0.0
 49
0.0
140
0.0
141
0.0
142
1.0
143
1.0
 70
  1712
 72
     0
 73
     0
 74
     0
  7

 75
     0
147
1.0
148
0.0
149
0.0
100
AcDbLayout
  1
Model
 70
     1
 71
     0
 10
0.0
 20
0.0
 11
12.0
 21
9.0
 12
0.0
 22
0.0
 32
0.0
 14
0.0
 24
0.0
 34
0.0
 15
0.0
 25
0.0
 35
0.0
146
0.0
 13
0.0
 23
0.0
 33
0.0
 16
1.0
 26
0.0
 36
0.0
 17
0.0
 27
1.0
 37
0.0
 76
     0
330
45D
331
462
  0
LAYOUT
  5
45C
102
{ACAD_XDICTIONARY
360
4CB
102
}
102
{ACAD_REACTORS
330
44F
102
}
330
44F
100
AcDbPlotSettings
  1

  2
DocuPrint 3000-2
  4

  6

 40
0.0
 41
0.0
 42
0.0
 43
0.0
 44
0.0
 45
0.0
 46
0.0
 47
0.0
 48
0.0
 49
0.0
140
0.0
141
0.0
142
1.0
143
1.0
 70
   688
 72
     0
 73
     0
 74
     5
  7

 75
    16
147
1.0
148
0.0
149
0.0
100
AcDbLayout
  1
レイアウト1
 70
     0
 71
     1
 10
0.0
 20
0.0
 11
12.0
 21
9.0
 12
0.0
 22
0.0
 32
0.0
 14
1.000000000000000E+20
 24
1.000000000000000E+20
 34
1.000000000000000E+20
 15
-1.000000000000000E+20
 25
-1.000000000000000E+20
 35
-1.000000000000000E+20
146
0.0
 13
0.0
 23
0.0
 33
0.0
 16
1.0
 26
0.0
 36
0.0
 17
0.0
 27
1.0
 37
0.0
 76
     0
330
459
  0
MATERIAL
  5
407
102
{ACAD_XDICTIONARY
360
408
102
}
102
{ACAD_REACTORS
330
3FE
102
}
330
3FE
100
AcDbMaterial
  1
ByBlock
 72
     0
 43
0.0208333333333333
 43
0.0
 43
0.0
 43
0.0
 43
0.0
 43
0.0208333333333333
 43
0.0
 43
0.0
 43
0.0
 43
0.0
 43
1.0
 43
0.0
 43
0.0
 43
0.0
 43
0.0
 43
1.0
 77
     0
 47
0.0208333333333333
 47
0.0
 47
0.0
 47
0.0
 47
0.0
 47
0.0208333333333333
 47
0.0
 47
0.0
 47
0.0
 47
0.0
 47
1.0
 47
0.0
 47
0.0
 47
0.0
 47
0.0
 47
1.0
171
     0
 49
0.0208333333333333
 49
0.0
 49
0.0
 49
0.0
 49
0.0
 49
0.0208333333333333
 49
0.0
 49
0.0
 49
0.0
 49
0.0
 49
1.0
 49
0.0
 49
0.0
 49
0.0
 49
0.0
 49
1.0
175
     0
142
0.0208333333333333
142
0.0
142
0.0
142
0.0
142
0.0
142
0.0208333333333333
142
0.0
142
0.0
142
0.0
142
0.0
142
1.0
142
0.0
142
0.0
142
0.0
142
0.0
142
1.0
179
     0
144
0.0208333333333333
144
0.0
144
0.0
144
0.0
144
0.0
144
0.0208333333333333
144
0.0
144
0.0
144
0.0
144
0.0
144
1.0
144
0.0
144
0.0
144
0.0
144
0.0
144
1.0
147
0.0208333333333333
147
0.0
147
0.0
147
0.0
147
0.0
147
0.0208333333333333
147
0.0
147
0.0
147
0.0
147
0.0
147
1.0
147
0.0
147
0.0
147
0.0
147
0.0
147
1.0
  0
MATERIAL
  5
3FF
102
{ACAD_XDICTIONARY
360
400
102
}
102
{ACAD_REACTORS
330
3FE
102
}
330
3FE
100
AcDbMaterial
  1
ByLayer
 72
     0
 43
0.0208333333333333
 43
0.0
 43
0.0
 43
0.0
 43
0.0
 43
0.0208333333333333
 43
0.0
 43
0.0
 43
0.0
 43
0.0
 43
1.0
 43
0.0
 43
0.0
 43
0.0
 43
0.0
 43
1.0
 77
     0
 47
0.0208333333333333
 47
0.0
 47
0.0
 47
0.0
 47
0.0
 47
0.0208333333333333
 47
0.0
 47
0.0
 47
0.0
 47
0.0
 47
1.0
 47
0.0
 47
0.0
 47
0.0
 47
0.0
 47
1.0
171
     0
 49
0.0208333333333333
 49
0.0
 49
0.0
 49
0.0
 49
0.0
 49
0.0208333333333333
 49
0.0
 49
0.0
 49
0.0
 49
0.0
 49
1.0
 49
0.0
 49
0.0
 49
0.0
 49
0.0
 49
1.0
175
     0
142
0.0208333333333333
142
0.0
142
0.0
142
0.0
142
0.0
142
0.0208333333333333
142
0.0
142
0.0
142
0.0
142
0.0
142
1.0
142
0.0
142
0.0
142
0.0
142
0.0
142
1.0
179
     0
144
0.0208333333333333
144
0.0
144
0.0
144
0.0
144
0.0
144
0.0208333333333333
144
0.0
144
0.0
144
0.0
144
0.0
144
1.0
144
0.0
144
0.0
144
0.0
144
0.0
144
1.0
147
0.0208333333333333
147
0.0
147
0.0
147
0.0
147
0.0
147
0.0208333333333333
147
0.0
147
0.0
147
0.0
147
0.0
147
1.0
147
0.0
147
0.0
147
0.0
147
0.0
147
1.0
  0
MATERIAL
  5
40F
102
{ACAD_XDICTIONARY
360
410
102
}
102
{ACAD_REACTORS
330
3FE
102
}
330
3FE
100
AcDbMaterial
  1
Global
 72
     0
 43
0.0208333333333333
 43
0.0
 43
0.0
 43
0.0
 43
0.0
 43
0.0208333333333333
 43
0.0
 43
0.0
 43
0.0
 43
0.0
 43
1.0
 43
0.0
 43
0.0
 43
0.0
 43
0.0
 43
1.0
 77
     0
 47
0.0208333333333333
 47
0.0
 47
0.0
 47
0.0
 47
0.0
 47
0.0208333333333333
 47
0.0
 47
0.0
 47
0.0
 47
0.0
 47
1.0
 47
0.0
 47
0.0
 47
0.0
 47
0.0
 47
1.0
171
     0
 49
0.0208333333333333
 49
0.0
 49
0.0
 49
0.0
 49
0.0
 49
0.0208333333333333
 49
0.0
 49
0.0
 49
0.0
 49
0.0
 49
1.0
 49
0.0
 49
0.0
 49
0.0
 49
0.0
 49
1.0
175
     0
142
0.0208333333333333
142
0.0
142
0.0
142
0.0
142
0.0
142
0.0208333333333333
142
0.0
142
0.0
142
0.0
142
0.0
142
1.0
142
0.0
142
0.0
142
0.0
142
0.0
142
1.0
179
     0
144
0.0208333333333333
144
0.0
144
0.0
144
0.0
144
0.0
144
0.0208333333333333
144
0.0
144
0.0
144
0.0
144
0.0
144
1.0
144
0.0
144
0.0
144
0.0
144
0.0
144
1.0
147
0.0208333333333333
147
0.0
147
0.0
147
0.0
147
0.0
147
0.0208333333333333
147
0.0
147
0.0
147
0.0
147
0.0
147
1.0
147
0.0
147
0.0
147
0.0
147
0.0
147
1.0
  0
MLEADERSTYLE
  5
454
102
{ACAD_REACTORS
330
453
102
}
330
453
100
AcDbMLeaderStyle
170
     2
171
     1
172
     0
 90
        2
 40
0.0
 41
0.0
173
     1
 91
-1056964608
340
448
 92
       -2
290
     1
 42
0.09
291
     1
 43
0.36
  3
Standard
 44
0.18
300

342
443
174
     1
178
     6
175
     1
176
     0
 93
-1056964608
 45
0.18
292
     0
297
     0
 46
0.18
 94
-1056964608
 47
1.0
 49
1.0
140
1.0
293
     1
141
0.0
294
     1
177
     0
142
1.0
295
     0
296
     0
143
0.125
1001
ACAD_MLEADERVER
1070
     2
  0
MLINESTYLE
  5
44D
102
{ACAD_REACTORS
330
44C
102
}
330
44C
100
AcDbMlineStyle
  2
STANDARD
 70
     0
  3

 62
   256
 51
90.0
 52
90.0
 71
     2
 49
0.5
 62
   256
  6
BYLAYER
 49
-0.5
 62
   256
  6
BYLAYER
  0
ACDBPLACEHOLDER
  5
3FD
102
{ACAD_REACTORS
330
3FC
102
}
330
3FC
  0
SCALE
  5
431
102
{ACAD_REACTORS
330
430
102
}
330
430
100
AcDbScale
 70
     0
300
1:1
140
1.0
141
1.0
290
     1
  0
SCALE
  5
432
102
{ACAD_REACTORS
330
430
102
}
330
430
100
AcDbScale
 70
     0
300
1/128" = 1'-0"
140
0.0078125
141
12.0
290
     0
  0
SCALE
  5
433
102
{ACAD_REACTORS
330
430
102
}
330
430
100
AcDbScale
 70
     0
300
1/64" = 1'-0"
140
0.015625
141
12.0
290
     0
  0
SCALE
  5
434
102
{ACAD_REACTORS
330
430
102
}
330
430
100
AcDbScale
 70
     0
300
1/32" = 1'-0"
140
0.03125
141
12.0
290
     0
  0
SCALE
  5
435
102
{ACAD_REACTORS
330
430
102
}
330
430
100
AcDbScale
 70
     0
300
1/16" = 1'-0"
140
0.0625
141
12.0
290
     0
  0
SCALE
  5
436
102
{ACAD_REACTORS
330
430
102
}
330
430
100
AcDbScale
 70
     0
300
3/32" = 1'-0"
140
0.09375
141
12.0
290
     0
  0
SCALE
  5
437
102
{ACAD_REACTORS
330
430
102
}
330
430
100
AcDbScale
 70
     0
300
1/8" = 1'-0"
140
0.125
141
12.0
290
     0
  0
SCALE
  5
438
102
{ACAD_REACTORS
330
430
102
}
330
430
100
AcDbScale
 70
     0
300
3/16" = 1'-0"
140
0.1875
141
12.0
290
     0
  0
SCALE
  5
439
102
{ACAD_REACTORS
330
430
102
}
330
430
100
AcDbScale
 70
     0
300
1/4" = 1'-0"
140
0.25
141
12.0
290
     0
  0
SCALE
  5
43A
102
{ACAD_REACTORS
330
430
102
}
330
430
100
AcDbScale
 70
     0
300
3/8" = 1'-0"
140
0.375
141
12.0
290
     0
  0
SCALE
  5
43B
102
{ACAD_REACTORS
330
430
102
}
330
430
100
AcDbScale
 70
     0
300
1/2" = 1'-0"
140
0.5
141
12.0
290
     0
  0
SCALE
  5
43C
102
{ACAD_REACTORS
330
430
102
}
330
430
100
AcDbScale
 70
     0
300
3/4" = 1'-0"
140
0.75
141
12.0
290
     0
  0
SCALE
  5
43D
102
{ACAD_REACTORS
330
430
102
}
330
430
100
AcDbScale
 70
     0
300
1" = 1'-0"
140
1.0
141
12.0
290
     0
  0
SCALE
  5
43E
102
{ACAD_REACTORS
330
430
102
}
330
430
100
AcDbScale
 70
     0
300
1-1/2" = 1'-0"
140
1.5
141
12.0
290
     0
  0
SCALE
  5
43F
102
{ACAD_REACTORS
330
430
102
}
330
430
100
AcDbScale
 70
     0
300
3" = 1'-0"
140
3.0
141
12.0
290
     0
  0
SCALE
  5
440
102
{ACAD_REACTORS
330
430
102
}
330
430
100
AcDbScale
 70
     0
300
6" = 1'-0"
140
6.0
141
12.0
290
     0
  0
SCALE
  5
441
102
{ACAD_REACTORS
330
430
102
}
330
430
100
AcDbScale
 70
     0
300
1'-0" = 1'-0"
140
12.0
141
12.0
290
     0
  0
ACDBSECTIONVIEWSTYLE
  5
456
102
{ACAD_XDICTIONARY
360
4C7
102
}
102
{ACAD_REACTORS
330
455
102
}
330
455
100
AcDbModelDocViewStyle
 70
     0
  3
Imperial24
290
     0
100
AcDbSectionViewStyle
 70
     0
 71
     0
 90
       78
 71
     1
340
443
 40
0.24
340
0
340
0
 40
0.24
300
I, O, Q, S, X, Z
 40
0.48
 90
        3
 40
0.18
 90
        1
 71
     2
340
44A
 90
       25
340
44A
 90
       50
 40
0.24
 40
0.0
 40
0.24
 71
     3
340
443
 40
0.24
 90
        1
 40
0.75
 90
        1
300
%<\AcVar ViewType \f "%tc1">% %<\AcVar ViewSectionStartId>%-%<\AcVar ViewSectionEndId>%\PSCALE %<\AcVar ViewScale \f "%sn">%
 71
     4
300
ANSI31
 40
1.0
 90
        0
290
     0
290
     0
 90
        6
 40
0.0
 40
1.570796326794896
 40
0.2617993877991494
 40
1.308996938995747
 40
-0.2617993877991494
 40
1.832595714594046
  0
TABLESTYLE
  5
452
102
{ACAD_XDICTIONARY
360
48E
102
}
102
{ACAD_REACTORS
330
451
102
}
330
451
100
AcDbTableStyle
  3
Standard
 70
     0
 71
     0
 40
0.06
 41
0.06
280
     0
281
     0
  7
STANDARD
140
0.18
170
     2
 62
     0
 63
     7
283
     0
274
    -2
284
     1
 64
     0
275
    -2
285
     1
 65
     0
276
    -2
286
     1
 66
     0
277
    -2
287
     1
 67
     0
278
    -2
288
     1
 68
     0
279
    -2
289
     1
 69
     0
  7
STANDARD
140
0.25
170
     5
 62
     0
 63
     7
283
     0
274
    -2
284
     1
 64
     0
275
    -2
285
     1
 65
     0
276
    -2
286
     1
 66
     0
277
    -2
287
     1
 67
     0
278
    -2
288
     1
 68
     0
279
    -2
289
     1
 69
     0
  7
STANDARD
140
0.18
170
     5
 62
     0
 63
     7
283
     0
274
    -2
284
     1
 64
     0
275
    -2
285
     1
 65
     0
276
    -2
286
     1
 66
     0
277
    -2
287
     1
 67
     0
278
    -2
288
     1
 68
     0
279
    -2
289
     1
 69
     0
  0
VISUALSTYLE
  5
41D
102
{ACAD_XDICTIONARY
360
49F
102
}
102
{ACAD_REACTORS
330
417
102
}
330
417
100
AcDbVisualStyle
  2
2dWireframe
 70
     4
 71
     0
 72
     2
 73
     0
 90
        0
 40
-0.6
 41
-30.0
 62
     5
 63
     7
 74
     1
 91
        4
 64
     7
 65
   257
 75
     1
175
     1
 42
1.0
 92
        0
 66
   257
 43
1.0
 76
     1
 77
     6
 78
     2
 67
     7
 79
     5
170
     0
171
     0
290
     0
174
     0
 93
        1
 44
0.0
173
     0
291
     0
 45
0.0
1001
ACAD
1000
AcDbSavedByObjectVersion
1070
     0
  0
VISUALSTYLE
  5
41C
102
{ACAD_XDICTIONARY
360
49D
102
}
102
{ACAD_REACTORS
330
417
102
}
330
417
100
AcDbVisualStyle
  2
Basic
 70
     7
 71
     1
 72
     0
 73
     1
 90
        0
 40
-0.6
 41
-30.0
 62
     5
 63
     7
 74
     0
 91
        4
 64
     7
 65
   257
 75
     1
175
     1
 42
1.0
 92
        8
 66
     7
 43
1.0
 76
     1
 77
     6
 78
     2
 67
     7
 79
     5
170
     0
171
     0
290
     0
174
     0
 93
        1
 44
0.0
173
     0
291
     1
 45
0.0
1001
ACAD
1000
AcDbSavedByObjectVersion
1070
     0
  0
VISUALSTYLE
  5
423
102
{ACAD_XDICTIONARY
360
4AB
102
}
102
{ACAD_REACTORS
330
417
102
}
330
417
100
AcDbVisualStyle
  2
Brighten
 70
    12
 71
     2
 72
     2
 73
     0
 90
        0
 40
-0.6
 41
-30.0
 62
     5
 63
     7
 74
     1
 91
        4
 64
     7
 65
   257
 75
     1
175
     1
 42
1.0
 92
        8
 66
     7
 43
1.0
 76
     1
 77
     6
 78
     2
 67
     7
 79
     5
170
     0
171
     0
290
     0
174
     0
 93
        1
 44
50.0
173
     0
291
     1
 45
0.0
1001
ACAD
1000
AcDbSavedByObjectVersion
1070
     0
  0
VISUALSTYLE
  5
427
102
{ACAD_XDICTIONARY
360
4B3
102
}
102
{ACAD_REACTORS
330
417
102
}
330
417
100
AcDbVisualStyle
  2
ColorChange
 70
    16
 71
     2
 72
     2
 73
     3
 90
        0
 40
-0.6
 41
-30.0
 62
     5
 63
     8
 74
     1
 91
        4
 64
     7
 65
   257
 75
     1
175
     1
 42
1.0
 92
        8
 66
     8
 43
1.0
 76
     1
 77
     6
 78
     2
 67
     7
 79
     5
170
     0
171
     0
290
     0
174
     0
 93
        1
 44
0.0
173
     0
291
     1
 45
0.0
1001
ACAD
1000
AcDbSavedByObjectVersion
1070
     0
  0
VISUALSTYLE
  5
420
102
{ACAD_XDICTIONARY
360
4A5
102
}
102
{ACAD_REACTORS
330
417
102
}
330
417
100
AcDbVisualStyle
  2
Conceptual
 70
     9
 71
     3
 72
     2
 73
     0
 90
        0
 40
-0.6
 41
-30.0
 62
     5
 63
     7
 74
     2
 91
        2
 64
     7
 65
   257
 75
     1
175
     1
 42
179.0
 92
        8
 66
     7
 43
1.0
 76
     1
 77
     6
 78
     2
 67
     7
 79
     3
170
     0
171
     0
290
     0
174
     0
 93
        1
 44
0.0
173
     0
291
     0
 45
0.0
1001
ACAD
1000
AcDbSavedByObjectVersion
1070
     0
  0
VISUALSTYLE
  5
422
102
{ACAD_XDICTIONARY
360
4A9
102
}
102
{ACAD_REACTORS
330
417
102
}
330
417
100
AcDbVisualStyle
  2
Dim
 70
    11
 71
     2
 72
     2
 73
     0
 90
        0
 40
-0.6
 41
-30.0
 62
     5
 63
     7
 74
     1
 91
        4
 64
     7
 65
   257
 75
     1
175
     1
 42
1.0
 92
        8
 66
     7
 43
1.0
 76
     1
 77
     6
 78
     2
 67
     7
 79
     5
170
     0
171
     0
290
     0
174
     0
 93
        1
 44
-50.0
173
     0
291
     1
 45
0.0
1001
ACAD
1000
AcDbSavedByObjectVersion
1070
     0
  0
VISUALSTYLE
  5
42F
102
{ACAD_XDICTIONARY
360
4C3
102
}
102
{ACAD_REACTORS
330
417
102
}
330
417
100
AcDbVisualStyle
  2
EdgeColorOff
 70
    22
 71
     2
 72
     2
 73
     0
 90
        0
 40
-0.6
 41
-30.0
 62
     5
 63
     7
 74
     1
 91
        4
 64
     7
 65
   257
 75
     1
175
     1
 42
1.0
 92
        8
 66
     7
 43
1.0
 76
     1
 77
     6
 78
     2
 67
     7
 79
     5
170
     0
171
     0
290
     0
174
     0
 93
        1
 44
0.0
173
     0
291
     1
 45
0.0
1001
ACAD
1000
AcDbSavedByObjectVersion
1070
     0
  0
VISUALSTYLE
  5
426
102
{ACAD_XDICTIONARY
360
4B1
102
}
102
{ACAD_REACTORS
330
417
102
}
330
417
100
AcDbVisualStyle
  2
Facepattern
 70
    15
 71
     2
 72
     2
 73
     0
 90
        0
 40
-0.6
 41
-30.0
 62
     5
 63
     7
 74
     1
 91
        4
 64
     7
 65
   257
 75
     1
175
     1
 42
1.0
 92
        8
 66
     7
 43
1.0
 76
     1
 77
     6
 78
     2
 67
     7
 79
     5
170
     0
171
     0
290
     0
174
     0
 93
        1
 44
0.0
173
     0
291
     1
 45
0.0
1001
ACAD
1000
AcDbSavedByObjectVersion
1070
     0
  0
VISUALSTYLE
  5
418
102
{ACAD_XDICTIONARY
360
495
102
}
102
{ACAD_REACTORS
330
417
102
}
330
417
100
AcDbVisualStyle
  2
Flat
 70
     0
 71
     2
 72
     1
 73
     1
 90
        2
 40
-0.6
 41
30.0
 62
     5
 63
     7
 74
     0
 91
        0
 64
     7
 65
   257
 75
     1
175
     1
 42
1.0
 92
        8
 66
     7
 43
1.0
 76
     1
 77
     6
 78
     2
 67
     7
 79
     5
170
     0
171
     0
290
     0
174
     0
 93
       13
 44
0.0
173
     0
291
     1
 45
0.0
1001
ACAD
1000
AcDbSavedByObjectVersion
1070
     0
  0
VISUALSTYLE
  5
419
102
{ACAD_XDICTIONARY
360
497
102
}
102
{ACAD_REACTORS
330
417
102
}
330
417
100
AcDbVisualStyle
  2
FlatWithEdges
 70
     1
 71
     2
 72
     1
 73
     1
 90
        2
 40
-0.6
 41
30.0
 62
     5
 63
     7
 74
     1
 91
        0
 64
     7
 65
   257
 75
     1
175
     1
 42
1.0
 92
        0
 66
   257
 43
1.0
 76
     1
 77
     6
 78
     2
 67
     7
 79
     5
170
     0
171
     0
290
     0
174
     0
 93
       13
 44
0.0
173
     0
291
     1
 45
0.0
1001
ACAD
1000
AcDbSavedByObjectVersion
1070
     0
  0
VISUALSTYLE
  5
41A
102
{ACAD_XDICTIONARY
360
499
102
}
102
{ACAD_REACTORS
330
417
102
}
330
417
100
AcDbVisualStyle
  2
Gouraud
 70
     2
 71
     2
 72
     2
 73
     1
 90
        2
 40
-0.6
 41
30.0
 62
     5
 63
     7
 74
     0
 91
        0
 64
     7
 65
   257
 75
     1
175
     1
 42
1.0
 92
        0
 66
     7
 43
1.0
 76
     1
 77
     6
 78
     2
 67
     7
 79
     5
170
     0
171
     0
290
     0
174
     0
 93
       13
 44
0.0
173
     0
291
     1
 45
0.0
1001
ACAD
1000
AcDbSavedByObjectVersion
1070
     0
  0
VISUALSTYLE
  5
41B
102
{ACAD_XDICTIONARY
360
49B
102
}
102
{ACAD_REACTORS
330
417
102
}
330
417
100
AcDbVisualStyle
  2
GouraudWithEdges
 70
     3
 71
     2
 72
     2
 73
     1
 90
        2
 40
-0.6
 41
30.0
 62
     5
 63
     7
 74
     1
 91
        0
 64
     7
 65
   257
 75
     1
175
     1
 42
1.0
 92
        0
 66
   257
 43
1.0
 76
     1
 77
     6
 78
     2
 67
     7
 79
     5
170
     0
171
     0
290
     0
174
     0
 93
       13
 44
0.0
173
     0
291
     1
 45
0.0
1001
ACAD
1000
AcDbSavedByObjectVersion
1070
     0
  0
VISUALSTYLE
  5
41F
102
{ACAD_XDICTIONARY
360
4A3
102
}
102
{ACAD_REACTORS
330
417
102
}
330
417
100
AcDbVisualStyle
  2
Hidden
 70
     6
 71
     1
 72
     2
 73
     2
 90
        0
 40
-0.6
 41
-30.0
 62
     5
 63
     7
 74
     2
 91
        2
 64
     7
 65
   257
 75
     2
175
     1
 42
40.0
 92
        0
 66
   257
 43
1.0
 76
     1
 77
     6
 78
     2
 67
     7
 79
     3
170
     0
171
     0
290
     0
174
     0
 93
        1
 44
0.0
173
     0
291
     0
 45
0.0
1001
ACAD
1000
AcDbSavedByObjectVersion
1070
     0
  0
VISUALSTYLE
  5
42D
102
{ACAD_XDICTIONARY
360
4BF
102
}
102
{ACAD_REACTORS
330
417
102
}
330
417
100
AcDbVisualStyle
  2
JitterOff
 70
    20
 71
     2
 72
     2
 73
     0
 90
        0
 40
-0.6
 41
-30.0
 62
     5
 63
     7
 74
     1
 91
        4
 64
     7
 65
   257
 75
     1
175
     1
 42
1.0
 92
       10
 66
     7
 43
1.0
 76
     1
 77
     6
 78
     2
 67
     7
 79
     5
170
     0
171
     0
290
     0
174
     0
 93
        1
 44
0.0
173
     0
291
     1
 45
0.0
1001
ACAD
1000
AcDbSavedByObjectVersion
1070
     0
  0
VISUALSTYLE
  5
425
102
{ACAD_XDICTIONARY
360
4AF
102
}
102
{ACAD_REACTORS
330
417
102
}
330
417
100
AcDbVisualStyle
  2
Linepattern
 70
    14
 71
     2
 72
     2
 73
     0
 90
        0
 40
-0.6
 41
-30.0
 62
     5
 63
     7
 74
     1
 91
        4
 64
     7
 65
   257
 75
     7
175
     7
 42
1.0
 92
        8
 66
     7
 43
1.0
 76
     1
 77
     6
 78
     2
 67
     7
 79
     5
170
     0
171
     0
290
     0
174
     0
 93
        1
 44
0.0
173
     0
291
     1
 45
0.0
1001
ACAD
1000
AcDbSavedByObjectVersion
1070
     0
  0
VISUALSTYLE
  5
42E
102
{ACAD_XDICTIONARY
360
4C1
102
}
102
{ACAD_REACTORS
330
417
102
}
330
417
100
AcDbVisualStyle
  2
OverhangOff
 70
    21
 71
     2
 72
     2
 73
     0
 90
        0
 40
-0.6
 41
-30.0
 62
     5
 63
     7
 74
     1
 91
        4
 64
     7
 65
   257
 75
     1
175
     1
 42
1.0
 92
        9
 66
     7
 43
1.0
 76
     1
 77
     6
 78
     2
 67
     7
 79
     5
170
     0
171
     0
290
     0
174
     0
 93
        1
 44
0.0
173
     0
291
     1
 45
0.0
1001
ACAD
1000
AcDbSavedByObjectVersion
1070
     0
  0
VISUALSTYLE
  5
421
102
{ACAD_XDICTIONARY
360
4A7
102
}
102
{ACAD_REACTORS
330
417
102
}
330
417
100
AcDbVisualStyle
  2
Realistic
 70
     8
 71
     2
 72
     3
 73
     0
 90
        2
 40
-0.6
 41
30.0
 62
     5
 63
     7
 74
     0
 91
        0
 64
     7
 65
   257
 75
     1
175
     1
 42
1.0
 92
        8
 66
   257
 43
1.0
 76
     1
 77
     6
 78
     2
 67
     7
 79
     3
170
     0
171
     0
290
     0
174
     0
 93
       13
 44
0.0
173
     0
291
     0
 45
0.0
1001
ACAD
1000
AcDbSavedByObjectVersion
1070
     0
  0
VISUALSTYLE
  5
42C
102
{ACAD_XDICTIONARY
360
4BD
102
}
102
{ACAD_REACTORS
330
417
102
}
330
417
100
AcDbVisualStyle
  2
Shaded
 70
    27
 71
     2
 72
     2
 73
     1
 90
        2
 40
-0.6
 41
30.0
 62
     5
 63
     7
 74
     0
 91
        4
 64
     7
 65
   257
 75
     1
175
     1
 42
1.0
 92
        8
 66
   257
 43
1.0
 76
     1
 77
     6
 78
     2
 67
     8
 79
     3
170
     0
171
     0
290
     0
174
     0
 93
        5
 44
0.0
173
     0
291
     0
 45
0.0
1001
ACAD
1000
AcDbSavedByObjectVersion
1070
     0
  0
VISUALSTYLE
  5
42B
102
{ACAD_XDICTIONARY
360
4BB
102
}
102
{ACAD_REACTORS
330
417
102
}
330
417
100
AcDbVisualStyle
  2
Shaded with edges
 70
    26
 71
     2
 72
     2
 73
     1
 90
        2
 40
-0.6
 41
30.0
 62
     5
 63
     7
 74
     1
 91
        2
 64
     7
 65
   257
 75
     2
175
     1
 42
1.0
 92
        8
 66
   257
 43
1.0
 76
     1
 77
     6
 78
     2
 67
     7
 79
     3
170
     0
171
     0
290
     0
174
     0
 93
        5
 44
0.0
173
     0
291
     0
 45
0.0
1001
ACAD
1000
AcDbSavedByObjectVersion
1070
     0
  0
VISUALSTYLE
  5
428
102
{ACAD_XDICTIONARY
360
4B5
102
}
102
{ACAD_REACTORS
330
417
102
}
330
417
100
AcDbVisualStyle
  2
Shades of Gray
 70
    23
 71
     2
 72
     2
 73
     3
 90
        0
 40
-0.6
 41
-30.0
 62
     5
 63
     7
 74
     2
 91
        2
 64
     7
 65
     7
 75
     1
175
     1
 42
40.0
 92
        8
 66
     7
 43
1.0
 76
     1
 77
     6
 78
     2
 67
     7
 79
     3
170
     0
171
     0
290
     0
174
     0
 93
        1
 44
0.0
173
     0
291
     0
 45
0.0
1001
ACAD
1000
AcDbSavedByObjectVersion
1070
     0
  0
VISUALSTYLE
  5
429
102
{ACAD_XDICTIONARY
360
4B7
102
}
102
{ACAD_REACTORS
330
417
102
}
330
417
100
AcDbVisualStyle
  2
Sketchy
 70
    24
 71
     1
 72
     2
 73
     2
 90
        0
 40
-0.6
 41
-30.0
 62
     5
 63
     7
 74
     2
 91
        2
 64
     7
 65
     7
 75
     1
175
     1
 42
40.0
 92
       11
 66
     7
 43
1.0
 76
     1
 77
     6
 78
     2
 67
     7
 79
     6
170
     0
171
     0
290
     0
174
     0
 93
        1
 44
0.0
173
     0
291
     0
 45
0.0
1001
ACAD
1000
AcDbSavedByObjectVersion
1070
     0
  0
VISUALSTYLE
  5
424
102
{ACAD_XDICTIONARY
360
4AD
102
}
102
{ACAD_REACTORS
330
417
102
}
330
417
100
AcDbVisualStyle
  2
Thicken
 70
    13
 71
     2
 72
     2
 73
     0
 90
        0
 40
-0.6
 41
-30.0
 62
     5
 63
     7
 74
     1
 91
        4
 64
     7
 65
   257
 75
     1
175
     1
 42
1.0
 92
       12
 66
     7
 43
1.0
 76
     1
 77
     6
 78
     2
 67
     7
 79
     5
170
     0
171
     0
290
     0
174
     0
 93
        1
 44
0.0
173
     0
291
     1
 45
0.0
1001
ACAD
1000
AcDbSavedByObjectVersion
1070
     0
  0
VISUALSTYLE
  5
41E
102
{ACAD_XDICTIONARY
360
4A1
102
}
102
{ACAD_REACTORS
330
417
102
}
330
417
100
AcDbVisualStyle
  2
Wireframe
 70
     5
 71
     0
 72
     2
 73
     0
 90
        0
 40
-0.6
 41
-30.0
 62
     5
 63
     7
 74
     1
 91
        4
 64
     7
 65
   257
 75
     1
175
     1
 42
1.0
 92
        0
 66
   257
 43
1.0
 76
     1
 77
     6
 78
     2
 67
     7
 79
     3
170
     0
171
     0
290
     0
174
     0
 93
        1
 44
0.0
173
     0
291
     0
 45
0.0
1001
ACAD
1000
AcDbSavedByObjectVersion
1070
     0
  0
VISUALSTYLE
  5
42A
102
{ACAD_XDICTIONARY
360
4B9
102
}
102
{ACAD_REACTORS
330
417
102
}
330
417
100
AcDbVisualStyle
  2
X-Ray
 70
    25
 71
     2
 72
     2
 73
     1
 90
        1
 40
0.5
 41
-30.0
 62
     5
 63
     7
 74
     1
 91
        0
 64
     7
 65
   257
 75
     1
175
     1
 42
1.0
 92
        8
 66
     7
 43
1.0
 76
     1
 77
     6
 78
     2
 67
     7
 79
     3
170
     0
171
     0
290
     0
174
     0
 93
       13
 44
0.0
173
     0
291
     0
 45
0.0
1001
ACAD
1000
AcDbSavedByObjectVersion
1070
     0
  0
DICTIONARYVAR
  5
488
102
{ACAD_REACTORS
330
483
102
}
330
483
100
DictionaryVariables
280
     0
  1
1:1
  0
DICTIONARYVAR
  5
485
102
{ACAD_REACTORS
330
483
102
}
330
483
100
DictionaryVariables
280
     0
  1
STANDARD
  0
DICTIONARYVAR
  5
484
102
{ACAD_REACTORS
330
483
102
}
330
483
100
DictionaryVariables
280
     0
  1
STANDARD
  0
DICTIONARYVAR
  5
486
102
{ACAD_REACTORS
330
483
102
}
330
483
100
DictionaryVariables
280
     0
  1
Imperial24
  0
DICTIONARYVAR
  5
487
102
{ACAD_REACTORS
330
483
102
}
330
483
100
DictionaryVariables
280
     0
  1
Imperial24
  0
DICTIONARYVAR
  5
48B
102
{ACAD_REACTORS
330
483
102
}
330
483
100
DictionaryVariables
280
     0
  1
1
  0
DICTIONARYVAR
  5
48A
102
{ACAD_REACTORS
330
483
102
}
330
483
100
DictionaryVariables
280
     0
  1
0
  0
DICTIONARYVAR
  5
489
102
{ACAD_REACTORS
330
483
102
}
330
483
100
DictionaryVariables
280
     0
  1
127
  0
DICTIONARYVAR
  5
48C
102
{ACAD_REACTORS
330
483
102
}
330
483
100
DictionaryVariables
280
     0
  1
2
  0
DICTIONARY
  5
4C9
330
458
100
AcDbDictionary
280
     1
281
     1
  3
ACAD_XREC_ROUNDTRIP
360
4CA
  0
DICTIONARY
  5
4CD
330
460
100
AcDbDictionary
280
     1
281
     1
  3
ACAD_XREC_ROUNDTRIP
360
4CE
  0
DICTIONARY
  5
4CB
330
45C
100
AcDbDictionary
280
     1
281
     1
  3
ACAD_XREC_ROUNDTRIP
360
4CC
  0
DICTIONARY
  5
408
330
407
100
AcDbDictionary
280
     1
281
     1
  3
ACAD_XREC_ROUNDTRIP
360
493
  3
BUMPTILE
360
40A
  3
DIFFUSETILE
360
409
  3
OPACITYTILE
360
40D
  3
REFLECTIONTILE
360
40C
  3
REFRACTIONTILE
360
40E
  3
SPECULARTILE
360
40B
  0
DICTIONARY
  5
400
330
3FF
100
AcDbDictionary
280
     1
281
     1
  3
ACAD_XREC_ROUNDTRIP
360
492
  3
BUMPTILE
360
402
  3
DIFFUSETILE
360
401
  3
OPACITYTILE
360
405
  3
REFLECTIONTILE
360
404
  3
REFRACTIONTILE
360
406
  3
SPECULARTILE
360
403
  0
DICTIONARY
  5
410
330
40F
100
AcDbDictionary
280
     1
281
     1
  3
ACAD_XREC_ROUNDTRIP
360
494
  3
BUMPTILE
360
412
  3
DIFFUSETILE
360
411
  3
OPACITYTILE
360
415
  3
REFLECTIONTILE
360
414
  3
REFRACTIONTILE
360
416
  3
SPECULARTILE
360
413
  0
DICTIONARY
  5
4C7
330
456
100
AcDbDictionary
280
     1
281
     1
  3
ACAD_XREC_ROUNDTRIP
360
4C8
  0
DICTIONARY
  5
48E
330
452
100
AcDbDictionary
280
     1
281
     1
  3
ACAD_ROUNDTRIP_2008_TABLESTYLE_CELLSTYLEMAP
360
48F
  3
ACAD_XREC_ROUNDTRIP
360
4C5
  0
DICTIONARY
  5
49F
330
41D
100
AcDbDictionary
280
     1
281
     1
  3
ACAD_XREC_ROUNDTRIP
360
4A0
  0
DICTIONARY
  5
49D
330
41C
100
AcDbDictionary
280
     1
281
     1
  3
ACAD_XREC_ROUNDTRIP
360
49E
  0
DICTIONARY
  5
4AB
330
423
100
AcDbDictionary
280
     1
281
     1
  3
ACAD_XREC_ROUNDTRIP
360
4AC
  0
DICTIONARY
  5
4B3
330
427
100
AcDbDictionary
280
     1
281
     1
  3
ACAD_XREC_ROUNDTRIP
360
4B4
  0
DICTIONARY
  5
4A5
330
420
100
AcDbDictionary
280
     1
281
     1
  3
ACAD_XREC_ROUNDTRIP
360
4A6
  0
DICTIONARY
  5
4A9
330
422
100
AcDbDictionary
280
     1
281
     1
  3
ACAD_XREC_ROUNDTRIP
360
4AA
  0
DICTIONARY
  5
4C3
330
42F
100
AcDbDictionary
280
     1
281
     1
  3
ACAD_XREC_ROUNDTRIP
360
4C4
  0
DICTIONARY
  5
4B1
330
426
100
AcDbDictionary
280
     1
281
     1
  3
ACAD_XREC_ROUNDTRIP
360
4B2
  0
DICTIONARY
  5
495
330
418
100
AcDbDictionary
280
     1
281
     1
  3
ACAD_XREC_ROUNDTRIP
360
496
  0
DICTIONARY
  5
497
330
419
100
AcDbDictionary
280
     1
281
     1
  3
ACAD_XREC_ROUNDTRIP
360
498
  0
DICTIONARY
  5
499
330
41A
100
AcDbDictionary
280
     1
281
     1
  3
ACAD_XREC_ROUNDTRIP
360
49A
  0
DICTIONARY
  5
49B
330
41B
100
AcDbDictionary
280
     1
281
     1
  3
ACAD_XREC_ROUNDTRIP
360
49C
  0
DICTIONARY
  5
4A3
330
41F
100
AcDbDictionary
280
     1
281
     1
  3
ACAD_XREC_ROUNDTRIP
360
4A4
  0
DICTIONARY
  5
4BF
330
42D
100
AcDbDictionary
280
     1
281
     1
  3
ACAD_XREC_ROUNDTRIP
360
4C0
  0
DICTIONARY
  5
4AF
330
425
100
AcDbDictionary
280
     1
281
     1
  3
ACAD_XREC_ROUNDTRIP
360
4B0
  0
DICTIONARY
  5
4C1
330
42E
100
AcDbDictionary
280
     1
281
     1
  3
ACAD_XREC_ROUNDTRIP
360
4C2
  0
DICTIONARY
  5
4A7
330
421
100
AcDbDictionary
280
     1
281
     1
  3
ACAD_XREC_ROUNDTRIP
360
4A8
  0
DICTIONARY
  5
4BD
330
42C
100
AcDbDictionary
280
     1
281
     1
  3
ACAD_XREC_ROUNDTRIP
360
4BE
  0
DICTIONARY
  5
4BB
330
42B
100
AcDbDictionary
280
     1
281
     1
  3
ACAD_XREC_ROUNDTRIP
360
4BC
  0
DICTIONARY
  5
4B5
330
428
100
AcDbDictionary
280
     1
281
     1
  3
ACAD_XREC_ROUNDTRIP
360
4B6
  0
DICTIONARY
  5
4B7
330
429
100
AcDbDictionary
280
     1
281
     1
  3
ACAD_XREC_ROUNDTRIP
360
4B8
  0
DICTIONARY
  5
4AD
330
424
100
AcDbDictionary
280
     1
281
     1
  3
ACAD_XREC_ROUNDTRIP
360
4AE
  0
DICTIONARY
  5
4A1
330
41E
100
AcDbDictionary
280
     1
281
     1
  3
ACAD_XREC_ROUNDTRIP
360
4A2
  0
DICTIONARY
  5
4B9
330
42A
100
AcDbDictionary
280
     1
281
     1
  3
ACAD_XREC_ROUNDTRIP
360
4BA
  0
XRECORD
  5
4CA
102
{ACAD_REACTORS
330
4C9
102
}
330
4C9
100
AcDbXrecord
280
     1
102
DISPLAYNAME
  1
Imperial24
102
FLAGS
 90
        0
  0
XRECORD
  5
4CE
102
{ACAD_REACTORS
330
4CD
102
}
330
4CD
100
AcDbXrecord
280
     1
102
SHADEPLOT
 70
     0
102
SHADEPLOTRESLEVEL
 70
     2
102
SHADEPLOTCUSTOMDPI
 70
   300
  0
XRECORD
  5
4CC
102
{ACAD_REACTORS
330
4CB
102
}
330
4CB
100
AcDbXrecord
280
     1
102
SHADEPLOT
 70
     0
102
SHADEPLOTRESLEVEL
 70
     2
102
SHADEPLOTCUSTOMDPI
 70
   300
  0
XRECORD
  5
493
102
{ACAD_REACTORS
330
408
102
}
330
408
100
AcDbXrecord
280
     1
102
MATERIAL
148
0.0
149
0.0
149
0.0
 93
        0
 94
      127
282
     0
 72
     0
 77
     0
171
     0
175
     0
179
     0
273
     0
  0
XRECORD
  5
40A
102
{ACAD_REACTORS
330
408
102
}
330
408
100
AcDbXrecord
280
     1
270
     1
271
     1
  0
XRECORD
  5
409
102
{ACAD_REACTORS
330
408
102
}
330
408
100
AcDbXrecord
280
     1
270
     1
271
     1
  0
XRECORD
  5
40D
102
{ACAD_REACTORS
330
408
102
}
330
408
100
AcDbXrecord
280
     1
270
     1
271
     1
  0
XRECORD
  5
40C
102
{ACAD_REACTORS
330
408
102
}
330
408
100
AcDbXrecord
280
     1
270
     1
271
     1
  0
XRECORD
  5
40E
102
{ACAD_REACTORS
330
408
102
}
330
408
100
AcDbXrecord
280
     1
270
     1
271
     1
  0
XRECORD
  5
40B
102
{ACAD_REACTORS
330
408
102
}
330
408
100
AcDbXrecord
280
     1
270
     1
271
     1
  0
XRECORD
  5
492
102
{ACAD_REACTORS
330
400
102
}
330
400
100
AcDbXrecord
280
     1
102
MATERIAL
148
0.0
149
0.0
149
0.0
 93
        0
 94
      127
282
     0
 72
     0
 77
     0
171
     0
175
     0
179
     0
273
     0
  0
XRECORD
  5
402
102
{ACAD_REACTORS
330
400
102
}
330
400
100
AcDbXrecord
280
     1
270
     1
271
     1
  0
XRECORD
  5
401
102
{ACAD_REACTORS
330
400
102
}
330
400
100
AcDbXrecord
280
     1
270
     1
271
     1
  0
XRECORD
  5
405
102
{ACAD_REACTORS
330
400
102
}
330
400
100
AcDbXrecord
280
     1
270
     1
271
     1
  0
XRECORD
  5
404
102
{ACAD_REACTORS
330
400
102
}
330
400
100
AcDbXrecord
280
     1
270
     1
271
     1
  0
XRECORD
  5
406
102
{ACAD_REACTORS
330
400
102
}
330
400
100
AcDbXrecord
280
     1
270
     1
271
     1
  0
XRECORD
  5
403
102
{ACAD_REACTORS
330
400
102
}
330
400
100
AcDbXrecord
280
     1
270
     1
271
     1
  0
XRECORD
  5
494
102
{ACAD_REACTORS
330
410
102
}
330
410
100
AcDbXrecord
280
     1
102
MATERIAL
148
0.0
149
0.0
149
0.0
 93
        0
 94
      127
282
     0
 72
     0
 77
     0
171
     0
175
     0
179
     0
273
     0
  0
XRECORD
  5
412
102
{ACAD_REACTORS
330
410
102
}
330
410
100
AcDbXrecord
280
     1
270
     1
271
     1
  0
XRECORD
  5
411
102
{ACAD_REACTORS
330
410
102
}
330
410
100
AcDbXrecord
280
     1
270
     1
271
     1
  0
XRECORD
  5
415
102
{ACAD_REACTORS
330
410
102
}
330
410
100
AcDbXrecord
280
     1
270
     1
271
     1
  0
XRECORD
  5
414
102
{ACAD_REACTORS
330
410
102
}
330
410
100
AcDbXrecord
280
     1
270
     1
271
     1
  0
XRECORD
  5
416
102
{ACAD_REACTORS
330
410
102
}
330
410
100
AcDbXrecord
280
     1
270
     1
271
     1
  0
XRECORD
  5
413
102
{ACAD_REACTORS
330
410
102
}
330
410
100
AcDbXrecord
280
     1
270
     1
271
     1
  0
XRECORD
  5
4C8
102
{ACAD_REACTORS
330
4C7
102
}
330
4C7
100
AcDbXrecord
280
     1
102
DISPLAYNAME
  1
Imperial24
102
FLAGS
 90
        0
  0
CELLSTYLEMAP
  5
48F
102
{ACAD_REACTORS
330
48E
102
}
330
48E
100
AcDbCellStyleMap
 90
        3
300
CELLSTYLE
  1
TABLEFORMAT_BEGIN
 90
        5
170
     1
 91
        0
 92
    32768
 62
   257
 93
        1
300
CONTENTFORMAT
  1
CONTENTFORMAT_BEGIN
 90
        0
 91
        0
 92
      512
 93
        0
300

 40
0.0
140
1.0
 94
        5
 62
     0
340
443
144
0.25
309
CONTENTFORMAT_END
171
     0
 94
        0
309
TABLEFORMAT_END
  1
CELLSTYLE_BEGIN
 90
        1
 91
        1
300
_TITLE
309
CELLSTYLE_END
300
CELLSTYLE
  1
TABLEFORMAT_BEGIN
 90
        5
170
     1
 91
        0
 92
        0
 62
   257
 93
        1
300
CONTENTFORMAT
  1
CONTENTFORMAT_BEGIN
 90
        0
 91
        0
 92
      512
 93
        0
300

 40
0.0
140
1.0
 94
        5
 62
     0
340
443
144
0.18
309
CONTENTFORMAT_END
171
     0
 94
        0
309
TABLEFORMAT_END
  1
CELLSTYLE_BEGIN
 90
        2
 91
        1
300
_HEADER
309
CELLSTYLE_END
300
CELLSTYLE
  1
TABLEFORMAT_BEGIN
 90
        5
170
     1
 91
        0
 92
        0
 62
   257
 93
        1
300
CONTENTFORMAT
  1
CONTENTFORMAT_BEGIN
 90
        0
 91
        0
 92
      512
 93
        0
300

 40
0.0
140
1.0
 94
        2
 62
     0
340
443
144
0.18
309
CONTENTFORMAT_END
171
     0
 94
        0
309
TABLEFORMAT_END
  1
CELLSTYLE_BEGIN
 90
        3
 91
        2
300
_DATA
309
CELLSTYLE_END
  0
XRECORD
  5
4C5
102
{ACAD_REACTORS
330
48E
102
}
330
48E
100
AcDbXrecord
280
     1
102
ACAD_ROUNDTRIP_PRE2007_TABLESTYLE
 90
      512
 91
        0
  1

 92
      512
 93
        0
  2

 94
      512
 95
        0
  3

  0
XRECORD
  5
4A0
102
{ACAD_REACTORS
330
49F
102
}
330
49F
100
AcDbXrecord
280
     1
102
RTVSPost2010Prop28
280
     1
102
RTVSPost2010PropOp28
 70
     1
102
RTVSPost2010Prop29
280
     1
102
RTVSPost2010PropOp29
 70
     1
102
RTVSPost2010Prop30
280
     0
102
RTVSPost2010PropOp30
 70
     1
102
RTVSPost2010Prop31
280
     0
102
RTVSPost2010PropOp31
 70
     1
102
RTVSPost2010Prop32
280
     0
102
RTVSPost2010PropOp32
 70
     1
102
RTVSPost2010Prop33
280
     0
102
RTVSPost2010PropOp33
 70
     1
102
RTVSPost2010Prop34
280
     0
102
RTVSPost2010PropOp34
 70
     1
102
RTVSPost2010Prop35
280
     0
102
RTVSPost2010PropOp35
 70
     1
102
RTVSPost2010Prop36
280
     0
102
RTVSPost2010PropOp36
 70
     1
102
RTVSPost2010Prop37
 90
       50
102
RTVSPost2010PropOp37
 70
     1
102
RTVSPost2010Prop38
140
0.0
102
RTVSPost2010PropOp38
 70
     1
102
RTVSPost2010Prop39
140
1.0
102
RTVSPost2010PropOp39
 70
     1
102
RTVSPost2010Prop40
 90
        0
102
RTVSPost2010PropOp40
 70
     1
102
RTVSPost2010Prop41ColorIndex
 90
       18
102
RTVSPost2010Prop41ColorRGB
 90
        0
102
RTVSPost2010PropOp41
 70
     1
102
RTVSPost2010Prop42
 90
       50
102
RTVSPost2010PropOp42
 70
     1
102
RTVSPost2010Prop43
 90
        3
102
RTVSPost2010PropOp43
 70
     1
102
RTVSPost2010Prop44ColorIndex
 90
        5
102
RTVSPost2010Prop44ColorRGB
 90
      255
102
RTVSPost2010PropOp44
 70
     1
102
RTVSPost2010Prop45
280
     0
102
RTVSPost2010PropOp45
 70
     1
102
RTVSPost2010Prop46
 90
       50
102
RTVSPost2010PropOp46
 70
     1
102
RTVSPost2010Prop47
 90
       50
102
RTVSPost2010PropOp47
 70
     1
102
RTVSPost2010Prop48
 90
       50
102
RTVSPost2010PropOp48
 70
     1
102
RTVSPost2010Prop49
280
     0
102
RTVSPost2010PropOp49
 70
     1
102
RTVSPost2010Prop50
 90
       50
102
RTVSPost2010PropOp50
 70
     1
102
RTVSPost2010Prop51ColorIndex
 90
      256
102
RTVSPost2010Prop51ColorRGB
 90
-16777216
102
RTVSPost2010PropOp51
 70
     0
102
RTVSPost2010Prop52
140
1.0
102
RTVSPost2010PropOp52
 70
     0
102
RTVSPost2010Prop53
 90
        2
102
RTVSPost2010PropOp53
 70
     1
102
RTVSPost2010Prop54
  1
strokes_ogs.tif
102
RTVSPost2010PropOp54
 70
     1
102
RTVSPost2010Prop55
280
     0
102
RTVSPost2010PropOp55
 70
     1
102
RTVSPost2010Prop56
140
1.0
102
RTVSPost2010PropOp56
 70
     1
102
RTVSPost2010Prop57
140
1.0
102
RTVSPost2010PropOp57
 70
     1
102
RTVSPropertyOp0
 70
     1
102
RTVSPropertyOp1
 70
     1
102
RTVSPropertyOp2
 70
     1
102
RTVSPropertyOp3
 70
     1
102
RTVSPropertyOp4
 70
     1
102
RTVSPropertyOp5
 70
     1
102
RTVSPropertyOp6
 70
     1
102
RTVSPropertyOp7
 70
     1
102
RTVSPropertyOp8
 70
     1
102
RTVSPropertyOp9
 70
     1
102
RTVSPropertyOp10
 70
     1
102
RTVSPropertyOp11
 70
     1
102
RTVSPropertyOp12
 70
     1
102
RTVSPropertyOp13
 70
     1
102
RTVSPropertyOp14
 70
     1
102
RTVSPropertyOp15
 70
     1
102
RTVSPropertyOp16
 70
     1
102
RTVSPropertyOp17
 70
     1
102
RTVSPropertyOp18
 70
     1
102
RTVSPropertyOp19
 70
     1
102
RTVSPropertyOp20
 70
     1
102
RTVSPropertyOp21
 70
     1
102
RTVSPropertyOp22
 70
     1
102
RTVSPropertyOp23
 70
     1
102
RTVSPropertyOp24
 70
     1
102
RTVSPropertyOp25
 70
     1
102
RTVSPropertyOp26
 70
     1
102
RTVSPropertyOp27
 70
     1
102
RTVSPropertyOp28
 70
     1
102
RTVSPropertyOp29
 70
     1
102
RTVSPropertyOp30
 70
     1
102
RTVSPropertyOp31
 70
     1
102
RTVSPropertyOp32
 70
     1
102
RTVSPropertyOp33
 70
     1
102
RTVSPropertyOp34
 70
     1
102
RTVSPropertyOp35
 70
     1
102
RTVSPropertyOp36
 70
     1
102
RTVSPropertyOp37
 70
     1
102
RTVSPropertyOp38
 70
     1
102
RTVSPropertyOp39
 70
     1
102
RTVSPropertyOp40
 70
     1
102
RTVSPropertyOp41
 70
     1
102
RTVSPropertyOp42
 70
     1
102
RTVSPropertyOp43
 70
     1
102
RTVSPropertyOp44
 70
     1
102
RTVSPropertyOp45
 70
     1
102
RTVSPropertyOp46
 70
     1
102
RTVSPropertyOp47
 70
     1
102
RTVSPropertyOp48
 70
     1
102
RTVSPropertyOp49
 70
     1
102
RTVSPropertyOp50
 70
     1
102
RTVSPropertyOp51
 70
     0
102
RTVSPropertyOp52
 70
     0
102
RTVSPropertyOp53
 70
     1
102
RTVSPropertyOp54
 70
     1
102
RTVSPropertyOp55
 70
     1
102
RTVSPropertyOp56
 70
     1
102
RTVSPropertyOp57
 70
     1
102
RTVSPropertyOp58
 70
     1
102
RTVSPropertyOp59
 70
     1
102
RTVSPropertyOp60
 70
     1
102
RTVSPropertyOp61
 70
     1
102
RTVSPropertyOp62
 70
     1
  0
XRECORD
  5
49E
102
{ACAD_REACTORS
330
49D
102
}
330
49D
100
AcDbXrecord
280
     1
102
RTVSPost2010Prop28
280
     0
102
RTVSPost2010PropOp28
 70
     1
102
RTVSPost2010Prop29
280
     1
102
RTVSPost2010PropOp29
 70
     1
102
RTVSPost2010Prop30
280
     1
102
RTVSPost2010PropOp30
 70
     1
102
RTVSPost2010Prop31
280
     0
102
RTVSPost2010PropOp31
 70
     1
102
RTVSPost2010Prop32
280
     0
102
RTVSPost2010PropOp32
 70
     1
102
RTVSPost2010Prop33
280
     0
102
RTVSPost2010PropOp33
 70
     1
102
RTVSPost2010Prop34
280
     0
102
RTVSPost2010PropOp34
 70
     1
102
RTVSPost2010Prop35
280
     0
102
RTVSPost2010PropOp35
 70
     1
102
RTVSPost2010Prop36
280
     0
102
RTVSPost2010PropOp36
 70
     1
102
RTVSPost2010Prop37
 90
       50
102
RTVSPost2010PropOp37
 70
     1
102
RTVSPost2010Prop38
140
0.0
102
RTVSPost2010PropOp38
 70
     1
102
RTVSPost2010Prop39
140
1.0
102
RTVSPost2010PropOp39
 70
     1
102
RTVSPost2010Prop40
 90
        0
102
RTVSPost2010PropOp40
 70
     1
102
RTVSPost2010Prop41ColorIndex
 90
       18
102
RTVSPost2010Prop41ColorRGB
 90
        0
102
RTVSPost2010PropOp41
 70
     1
102
RTVSPost2010Prop42
 90
       50
102
RTVSPost2010PropOp42
 70
     1
102
RTVSPost2010Prop43
 90
        3
102
RTVSPost2010PropOp43
 70
     1
102
RTVSPost2010Prop44ColorIndex
 90
        5
102
RTVSPost2010Prop44ColorRGB
 90
      255
102
RTVSPost2010PropOp44
 70
     1
102
RTVSPost2010Prop45
280
     0
102
RTVSPost2010PropOp45
 70
     1
102
RTVSPost2010Prop46
 90
       50
102
RTVSPost2010PropOp46
 70
     1
102
RTVSPost2010Prop47
 90
       50
102
RTVSPost2010PropOp47
 70
     1
102
RTVSPost2010Prop48
 90
       50
102
RTVSPost2010PropOp48
 70
     1
102
RTVSPost2010Prop49
280
     0
102
RTVSPost2010PropOp49
 70
     1
102
RTVSPost2010Prop50
 90
       50
102
RTVSPost2010PropOp50
 70
     1
102
RTVSPost2010Prop51ColorIndex
 90
      256
102
RTVSPost2010Prop51ColorRGB
 90
-16777216
102
RTVSPost2010PropOp51
 70
     0
102
RTVSPost2010Prop52
140
1.0
102
RTVSPost2010PropOp52
 70
     0
102
RTVSPost2010Prop53
 90
        2
102
RTVSPost2010PropOp53
 70
     1
102
RTVSPost2010Prop54
  1
strokes_ogs.tif
102
RTVSPost2010PropOp54
 70
     1
102
RTVSPost2010Prop55
280
     0
102
RTVSPost2010PropOp55
 70
     1
102
RTVSPost2010Prop56
140
1.0
102
RTVSPost2010PropOp56
 70
     1
102
RTVSPost2010Prop57
140
1.0
102
RTVSPost2010PropOp57
 70
     1
102
RTVSPropertyOp0
 70
     1
102
RTVSPropertyOp1
 70
     1
102
RTVSPropertyOp2
 70
     1
102
RTVSPropertyOp3
 70
     1
102
RTVSPropertyOp4
 70
     1
102
RTVSPropertyOp5
 70
     1
102
RTVSPropertyOp6
 70
     1
102
RTVSPropertyOp7
 70
     1
102
RTVSPropertyOp8
 70
     1
102
RTVSPropertyOp9
 70
     1
102
RTVSPropertyOp10
 70
     1
102
RTVSPropertyOp11
 70
     1
102
RTVSPropertyOp12
 70
     1
102
RTVSPropertyOp13
 70
     1
102
RTVSPropertyOp14
 70
     1
102
RTVSPropertyOp15
 70
     1
102
RTVSPropertyOp16
 70
     1
102
RTVSPropertyOp17
 70
     1
102
RTVSPropertyOp18
 70
     1
102
RTVSPropertyOp19
 70
     1
102
RTVSPropertyOp20
 70
     1
102
RTVSPropertyOp21
 70
     1
102
RTVSPropertyOp22
 70
     1
102
RTVSPropertyOp23
 70
     1
102
RTVSPropertyOp24
 70
     1
102
RTVSPropertyOp25
 70
     1
102
RTVSPropertyOp26
 70
     1
102
RTVSPropertyOp27
 70
     1
102
RTVSPropertyOp28
 70
     1
102
RTVSPropertyOp29
 70
     1
102
RTVSPropertyOp30
 70
     1
102
RTVSPropertyOp31
 70
     1
102
RTVSPropertyOp32
 70
     1
102
RTVSPropertyOp33
 70
     1
102
RTVSPropertyOp34
 70
     1
102
RTVSPropertyOp35
 70
     1
102
RTVSPropertyOp36
 70
     1
102
RTVSPropertyOp37
 70
     1
102
RTVSPropertyOp38
 70
     1
102
RTVSPropertyOp39
 70
     1
102
RTVSPropertyOp40
 70
     1
102
RTVSPropertyOp41
 70
     1
102
RTVSPropertyOp42
 70
     1
102
RTVSPropertyOp43
 70
     1
102
RTVSPropertyOp44
 70
     1
102
RTVSPropertyOp45
 70
     1
102
RTVSPropertyOp46
 70
     1
102
RTVSPropertyOp47
 70
     1
102
RTVSPropertyOp48
 70
     1
102
RTVSPropertyOp49
 70
     1
102
RTVSPropertyOp50
 70
     1
102
RTVSPropertyOp51
 70
     0
102
RTVSPropertyOp52
 70
     0
102
RTVSPropertyOp53
 70
     1
102
RTVSPropertyOp54
 70
     1
102
RTVSPropertyOp55
 70
     1
102
RTVSPropertyOp56
 70
     1
102
RTVSPropertyOp57
 70
     1
102
RTVSPropertyOp58
 70
     1
102
RTVSPropertyOp59
 70
     1
102
RTVSPropertyOp60
 70
     1
102
RTVSPropertyOp61
 70
     1
102
RTVSPropertyOp62
 70
     1
  0
XRECORD
  5
4AC
102
{ACAD_REACTORS
330
4AB
102
}
330
4AB
100
AcDbXrecord
280
     1
102
RTVSPost2010Prop28
280
     0
102
RTVSPost2010PropOp28
 70
     1
102
RTVSPost2010Prop29
280
     1
102
RTVSPost2010PropOp29
 70
     1
102
RTVSPost2010Prop30
280
     1
102
RTVSPost2010PropOp30
 70
     1
102
RTVSPost2010Prop31
280
     0
102
RTVSPost2010PropOp31
 70
     1
102
RTVSPost2010Prop32
280
     0
102
RTVSPost2010PropOp32
 70
     1
102
RTVSPost2010Prop33
280
     0
102
RTVSPost2010PropOp33
 70
     1
102
RTVSPost2010Prop34
280
     0
102
RTVSPost2010PropOp34
 70
     1
102
RTVSPost2010Prop35
280
     0
102
RTVSPost2010PropOp35
 70
     1
102
RTVSPost2010Prop36
280
     0
102
RTVSPost2010PropOp36
 70
     1
102
RTVSPost2010Prop37
 90
       50
102
RTVSPost2010PropOp37
 70
     1
102
RTVSPost2010Prop38
140
0.0
102
RTVSPost2010PropOp38
 70
     1
102
RTVSPost2010Prop39
140
1.0
102
RTVSPost2010PropOp39
 70
     1
102
RTVSPost2010Prop40
 90
        0
102
RTVSPost2010PropOp40
 70
     1
102
RTVSPost2010Prop41ColorIndex
 90
       18
102
RTVSPost2010Prop41ColorRGB
 90
        0
102
RTVSPost2010PropOp41
 70
     1
102
RTVSPost2010Prop42
 90
       50
102
RTVSPost2010PropOp42
 70
     1
102
RTVSPost2010Prop43
 90
        3
102
RTVSPost2010PropOp43
 70
     1
102
RTVSPost2010Prop44ColorIndex
 90
        5
102
RTVSPost2010Prop44ColorRGB
 90
      255
102
RTVSPost2010PropOp44
 70
     1
102
RTVSPost2010Prop45
280
     0
102
RTVSPost2010PropOp45
 70
     1
102
RTVSPost2010Prop46
 90
       50
102
RTVSPost2010PropOp46
 70
     1
102
RTVSPost2010Prop47
 90
       50
102
RTVSPost2010PropOp47
 70
     1
102
RTVSPost2010Prop48
 90
       50
102
RTVSPost2010PropOp48
 70
     1
102
RTVSPost2010Prop49
280
     0
102
RTVSPost2010PropOp49
 70
     1
102
RTVSPost2010Prop50
 90
       50
102
RTVSPost2010PropOp50
 70
     1
102
RTVSPost2010Prop51ColorIndex
 90
      256
102
RTVSPost2010Prop51ColorRGB
 90
-16777216
102
RTVSPost2010PropOp51
 70
     0
102
RTVSPost2010Prop52
140
1.0
102
RTVSPost2010PropOp52
 70
     0
102
RTVSPost2010Prop53
 90
        2
102
RTVSPost2010PropOp53
 70
     1
102
RTVSPost2010Prop54
  1
strokes_ogs.tif
102
RTVSPost2010PropOp54
 70
     1
102
RTVSPost2010Prop55
280
     0
102
RTVSPost2010PropOp55
 70
     1
102
RTVSPost2010Prop56
140
1.0
102
RTVSPost2010PropOp56
 70
     1
102
RTVSPost2010Prop57
140
1.0
102
RTVSPost2010PropOp57
 70
     1
102
RTVSPropertyOp0
 70
     1
102
RTVSPropertyOp1
 70
     1
102
RTVSPropertyOp2
 70
     1
102
RTVSPropertyOp3
 70
     1
102
RTVSPropertyOp4
 70
     1
102
RTVSPropertyOp5
 70
     1
102
RTVSPropertyOp6
 70
     1
102
RTVSPropertyOp7
 70
     1
102
RTVSPropertyOp8
 70
     1
102
RTVSPropertyOp9
 70
     1
102
RTVSPropertyOp10
 70
     1
102
RTVSPropertyOp11
 70
     1
102
RTVSPropertyOp12
 70
     1
102
RTVSPropertyOp13
 70
     1
102
RTVSPropertyOp14
 70
     1
102
RTVSPropertyOp15
 70
     1
102
RTVSPropertyOp16
 70
     1
102
RTVSPropertyOp17
 70
     1
102
RTVSPropertyOp18
 70
     1
102
RTVSPropertyOp19
 70
     1
102
RTVSPropertyOp20
 70
     1
102
RTVSPropertyOp21
 70
     1
102
RTVSPropertyOp22
 70
     1
102
RTVSPropertyOp23
 70
     1
102
RTVSPropertyOp24
 70
     1
102
RTVSPropertyOp25
 70
     1
102
RTVSPropertyOp26
 70
     1
102
RTVSPropertyOp27
 70
     1
102
RTVSPropertyOp28
 70
     1
102
RTVSPropertyOp29
 70
     1
102
RTVSPropertyOp30
 70
     1
102
RTVSPropertyOp31
 70
     1
102
RTVSPropertyOp32
 70
     1
102
RTVSPropertyOp33
 70
     1
102
RTVSPropertyOp34
 70
     1
102
RTVSPropertyOp35
 70
     1
102
RTVSPropertyOp36
 70
     1
102
RTVSPropertyOp37
 70
     1
102
RTVSPropertyOp38
 70
     1
102
RTVSPropertyOp39
 70
     1
102
RTVSPropertyOp40
 70
     1
102
RTVSPropertyOp41
 70
     1
102
RTVSPropertyOp42
 70
     1
102
RTVSPropertyOp43
 70
     1
102
RTVSPropertyOp44
 70
     1
102
RTVSPropertyOp45
 70
     1
102
RTVSPropertyOp46
 70
     1
102
RTVSPropertyOp47
 70
     1
102
RTVSPropertyOp48
 70
     1
102
RTVSPropertyOp49
 70
     1
102
RTVSPropertyOp50
 70
     1
102
RTVSPropertyOp51
 70
     0
102
RTVSPropertyOp52
 70
     0
102
RTVSPropertyOp53
 70
     1
102
RTVSPropertyOp54
 70
     1
102
RTVSPropertyOp55
 70
     1
102
RTVSPropertyOp56
 70
     1
102
RTVSPropertyOp57
 70
     1
102
RTVSPropertyOp58
 70
     1
102
RTVSPropertyOp59
 70
     1
102
RTVSPropertyOp60
 70
     1
102
RTVSPropertyOp61
 70
     1
102
RTVSPropertyOp62
 70
     1
  0
XRECORD
  5
4B4
102
{ACAD_REACTORS
330
4B3
102
}
330
4B3
100
AcDbXrecord
280
     1
102
RTVSPost2010Prop28
280
     0
102
RTVSPost2010PropOp28
 70
     1
102
RTVSPost2010Prop29
280
     1
102
RTVSPost2010PropOp29
 70
     1
102
RTVSPost2010Prop30
280
     1
102
RTVSPost2010PropOp30
 70
     1
102
RTVSPost2010Prop31
280
     0
102
RTVSPost2010PropOp31
 70
     1
102
RTVSPost2010Prop32
280
     0
102
RTVSPost2010PropOp32
 70
     1
102
RTVSPost2010Prop33
280
     0
102
RTVSPost2010PropOp33
 70
     1
102
RTVSPost2010Prop34
280
     0
102
RTVSPost2010PropOp34
 70
     1
102
RTVSPost2010Prop35
280
     0
102
RTVSPost2010PropOp35
 70
     1
102
RTVSPost2010Prop36
280
     0
102
RTVSPost2010PropOp36
 70
     1
102
RTVSPost2010Prop37
 90
       50
102
RTVSPost2010PropOp37
 70
     1
102
RTVSPost2010Prop38
140
0.0
102
RTVSPost2010PropOp38
 70
     1
102
RTVSPost2010Prop39
140
1.0
102
RTVSPost2010PropOp39
 70
     1
102
RTVSPost2010Prop40
 90
        0
102
RTVSPost2010PropOp40
 70
     1
102
RTVSPost2010Prop41ColorIndex
 90
       18
102
RTVSPost2010Prop41ColorRGB
 90
        0
102
RTVSPost2010PropOp41
 70
     1
102
RTVSPost2010Prop42
 90
       50
102
RTVSPost2010PropOp42
 70
     1
102
RTVSPost2010Prop43
 90
        3
102
RTVSPost2010PropOp43
 70
     1
102
RTVSPost2010Prop44ColorIndex
 90
        5
102
RTVSPost2010Prop44ColorRGB
 90
      255
102
RTVSPost2010PropOp44
 70
     1
102
RTVSPost2010Prop45
280
     0
102
RTVSPost2010PropOp45
 70
     1
102
RTVSPost2010Prop46
 90
       50
102
RTVSPost2010PropOp46
 70
     1
102
RTVSPost2010Prop47
 90
       50
102
RTVSPost2010PropOp47
 70
     1
102
RTVSPost2010Prop48
 90
       50
102
RTVSPost2010PropOp48
 70
     1
102
RTVSPost2010Prop49
280
     0
102
RTVSPost2010PropOp49
 70
     1
102
RTVSPost2010Prop50
 90
       50
102
RTVSPost2010PropOp50
 70
     1
102
RTVSPost2010Prop51ColorIndex
 90
      256
102
RTVSPost2010Prop51ColorRGB
 90
-16777216
102
RTVSPost2010PropOp51
 70
     0
102
RTVSPost2010Prop52
140
1.0
102
RTVSPost2010PropOp52
 70
     0
102
RTVSPost2010Prop53
 90
        2
102
RTVSPost2010PropOp53
 70
     1
102
RTVSPost2010Prop54
  1
strokes_ogs.tif
102
RTVSPost2010PropOp54
 70
     1
102
RTVSPost2010Prop55
280
     0
102
RTVSPost2010PropOp55
 70
     1
102
RTVSPost2010Prop56
140
1.0
102
RTVSPost2010PropOp56
 70
     1
102
RTVSPost2010Prop57
140
1.0
102
RTVSPost2010PropOp57
 70
     1
102
RTVSPropertyOp0
 70
     1
102
RTVSPropertyOp1
 70
     1
102
RTVSPropertyOp2
 70
     1
102
RTVSPropertyOp3
 70
     1
102
RTVSPropertyOp4
 70
     1
102
RTVSPropertyOp5
 70
     1
102
RTVSPropertyOp6
 70
     1
102
RTVSPropertyOp7
 70
     1
102
RTVSPropertyOp8
 70
     1
102
RTVSPropertyOp9
 70
     1
102
RTVSPropertyOp10
 70
     1
102
RTVSPropertyOp11
 70
     1
102
RTVSPropertyOp12
 70
     1
102
RTVSPropertyOp13
 70
     1
102
RTVSPropertyOp14
 70
     1
102
RTVSPropertyOp15
 70
     1
102
RTVSPropertyOp16
 70
     1
102
RTVSPropertyOp17
 70
     1
102
RTVSPropertyOp18
 70
     1
102
RTVSPropertyOp19
 70
     1
102
RTVSPropertyOp20
 70
     1
102
RTVSPropertyOp21
 70
     1
102
RTVSPropertyOp22
 70
     1
102
RTVSPropertyOp23
 70
     1
102
RTVSPropertyOp24
 70
     1
102
RTVSPropertyOp25
 70
     1
102
RTVSPropertyOp26
 70
     1
102
RTVSPropertyOp27
 70
     1
102
RTVSPropertyOp28
 70
     1
102
RTVSPropertyOp29
 70
     1
102
RTVSPropertyOp30
 70
     1
102
RTVSPropertyOp31
 70
     1
102
RTVSPropertyOp32
 70
     1
102
RTVSPropertyOp33
 70
     1
102
RTVSPropertyOp34
 70
     1
102
RTVSPropertyOp35
 70
     1
102
RTVSPropertyOp36
 70
     1
102
RTVSPropertyOp37
 70
     1
102
RTVSPropertyOp38
 70
     1
102
RTVSPropertyOp39
 70
     1
102
RTVSPropertyOp40
 70
     1
102
RTVSPropertyOp41
 70
     1
102
RTVSPropertyOp42
 70
     1
102
RTVSPropertyOp43
 70
     1
102
RTVSPropertyOp44
 70
     1
102
RTVSPropertyOp45
 70
     1
102
RTVSPropertyOp46
 70
     1
102
RTVSPropertyOp47
 70
     1
102
RTVSPropertyOp48
 70
     1
102
RTVSPropertyOp49
 70
     1
102
RTVSPropertyOp50
 70
     1
102
RTVSPropertyOp51
 70
     0
102
RTVSPropertyOp52
 70
     0
102
RTVSPropertyOp53
 70
     1
102
RTVSPropertyOp54
 70
     1
102
RTVSPropertyOp55
 70
     1
102
RTVSPropertyOp56
 70
     1
102
RTVSPropertyOp57
 70
     1
102
RTVSPropertyOp58
 70
     1
102
RTVSPropertyOp59
 70
     1
102
RTVSPropertyOp60
 70
     1
102
RTVSPropertyOp61
 70
     1
102
RTVSPropertyOp62
 70
     1
  0
XRECORD
  5
4A6
102
{ACAD_REACTORS
330
4A5
102
}
330
4A5
100
AcDbXrecord
280
     1
102
RTVSPost2010Prop28
280
     0
102
RTVSPost2010PropOp28
 70
     1
102
RTVSPost2010Prop29
280
     1
102
RTVSPost2010PropOp29
 70
     1
102
RTVSPost2010Prop30
280
     1
102
RTVSPost2010PropOp30
 70
     1
102
RTVSPost2010Prop31
280
     0
102
RTVSPost2010PropOp31
 70
     1
102
RTVSPost2010Prop32
280
     0
102
RTVSPost2010PropOp32
 70
     1
102
RTVSPost2010Prop33
280
     0
102
RTVSPost2010PropOp33
 70
     1
102
RTVSPost2010Prop34
280
     0
102
RTVSPost2010PropOp34
 70
     1
102
RTVSPost2010Prop35
280
     0
102
RTVSPost2010PropOp35
 70
     1
102
RTVSPost2010Prop36
280
     0
102
RTVSPost2010PropOp36
 70
     1
102
RTVSPost2010Prop37
 90
       50
102
RTVSPost2010PropOp37
 70
     1
102
RTVSPost2010Prop38
140
0.0
102
RTVSPost2010PropOp38
 70
     1
102
RTVSPost2010Prop39
140
1.0
102
RTVSPost2010PropOp39
 70
     1
102
RTVSPost2010Prop40
 90
        0
102
RTVSPost2010PropOp40
 70
     1
102
RTVSPost2010Prop41ColorIndex
 90
       18
102
RTVSPost2010Prop41ColorRGB
 90
        0
102
RTVSPost2010PropOp41
 70
     1
102
RTVSPost2010Prop42
 90
       50
102
RTVSPost2010PropOp42
 70
     1
102
RTVSPost2010Prop43
 90
        3
102
RTVSPost2010PropOp43
 70
     1
102
RTVSPost2010Prop44ColorIndex
 90
        5
102
RTVSPost2010Prop44ColorRGB
 90
      255
102
RTVSPost2010PropOp44
 70
     1
102
RTVSPost2010Prop45
280
     0
102
RTVSPost2010PropOp45
 70
     1
102
RTVSPost2010Prop46
 90
       50
102
RTVSPost2010PropOp46
 70
     1
102
RTVSPost2010Prop47
 90
       50
102
RTVSPost2010PropOp47
 70
     1
102
RTVSPost2010Prop48
 90
       50
102
RTVSPost2010PropOp48
 70
     1
102
RTVSPost2010Prop49
280
     0
102
RTVSPost2010PropOp49
 70
     1
102
RTVSPost2010Prop50
 90
       50
102
RTVSPost2010PropOp50
 70
     1
102
RTVSPost2010Prop51ColorIndex
 90
      256
102
RTVSPost2010Prop51ColorRGB
 90
-16777216
102
RTVSPost2010PropOp51
 70
     0
102
RTVSPost2010Prop52
140
1.0
102
RTVSPost2010PropOp52
 70
     0
102
RTVSPost2010Prop53
 90
        2
102
RTVSPost2010PropOp53
 70
     1
102
RTVSPost2010Prop54
  1
strokes_ogs.tif
102
RTVSPost2010PropOp54
 70
     1
102
RTVSPost2010Prop55
280
     0
102
RTVSPost2010PropOp55
 70
     1
102
RTVSPost2010Prop56
140
1.0
102
RTVSPost2010PropOp56
 70
     1
102
RTVSPost2010Prop57
140
1.0
102
RTVSPost2010PropOp57
 70
     1
102
RTVSPropertyOp0
 70
     1
102
RTVSPropertyOp1
 70
     1
102
RTVSPropertyOp2
 70
     1
102
RTVSPropertyOp3
 70
     1
102
RTVSPropertyOp4
 70
     1
102
RTVSPropertyOp5
 70
     1
102
RTVSPropertyOp6
 70
     1
102
RTVSPropertyOp7
 70
     1
102
RTVSPropertyOp8
 70
     1
102
RTVSPropertyOp9
 70
     1
102
RTVSPropertyOp10
 70
     1
102
RTVSPropertyOp11
 70
     1
102
RTVSPropertyOp12
 70
     1
102
RTVSPropertyOp13
 70
     1
102
RTVSPropertyOp14
 70
     1
102
RTVSPropertyOp15
 70
     1
102
RTVSPropertyOp16
 70
     1
102
RTVSPropertyOp17
 70
     1
102
RTVSPropertyOp18
 70
     1
102
RTVSPropertyOp19
 70
     1
102
RTVSPropertyOp20
 70
     1
102
RTVSPropertyOp21
 70
     1
102
RTVSPropertyOp22
 70
     1
102
RTVSPropertyOp23
 70
     1
102
RTVSPropertyOp24
 70
     1
102
RTVSPropertyOp25
 70
     1
102
RTVSPropertyOp26
 70
     1
102
RTVSPropertyOp27
 70
     1
102
RTVSPropertyOp28
 70
     1
102
RTVSPropertyOp29
 70
     1
102
RTVSPropertyOp30
 70
     1
102
RTVSPropertyOp31
 70
     1
102
RTVSPropertyOp32
 70
     1
102
RTVSPropertyOp33
 70
     1
102
RTVSPropertyOp34
 70
     1
102
RTVSPropertyOp35
 70
     1
102
RTVSPropertyOp36
 70
     1
102
RTVSPropertyOp37
 70
     1
102
RTVSPropertyOp38
 70
     1
102
RTVSPropertyOp39
 70
     1
102
RTVSPropertyOp40
 70
     1
102
RTVSPropertyOp41
 70
     1
102
RTVSPropertyOp42
 70
     1
102
RTVSPropertyOp43
 70
     1
102
RTVSPropertyOp44
 70
     1
102
RTVSPropertyOp45
 70
     1
102
RTVSPropertyOp46
 70
     1
102
RTVSPropertyOp47
 70
     1
102
RTVSPropertyOp48
 70
     1
102
RTVSPropertyOp49
 70
     1
102
RTVSPropertyOp50
 70
     1
102
RTVSPropertyOp51
 70
     0
102
RTVSPropertyOp52
 70
     0
102
RTVSPropertyOp53
 70
     1
102
RTVSPropertyOp54
 70
     1
102
RTVSPropertyOp55
 70
     1
102
RTVSPropertyOp56
 70
     1
102
RTVSPropertyOp57
 70
     1
102
RTVSPropertyOp58
 70
     1
102
RTVSPropertyOp59
 70
     1
102
RTVSPropertyOp60
 70
     1
102
RTVSPropertyOp61
 70
     1
102
RTVSPropertyOp62
 70
     1
  0
XRECORD
  5
4AA
102
{ACAD_REACTORS
330
4A9
102
}
330
4A9
100
AcDbXrecord
280
     1
102
RTVSPost2010Prop28
280
     0
102
RTVSPost2010PropOp28
 70
     1
102
RTVSPost2010Prop29
280
     1
102
RTVSPost2010PropOp29
 70
     1
102
RTVSPost2010Prop30
280
     1
102
RTVSPost2010PropOp30
 70
     1
102
RTVSPost2010Prop31
280
     0
102
RTVSPost2010PropOp31
 70
     1
102
RTVSPost2010Prop32
280
     0
102
RTVSPost2010PropOp32
 70
     1
102
RTVSPost2010Prop33
280
     0
102
RTVSPost2010PropOp33
 70
     1
102
RTVSPost2010Prop34
280
     0
102
RTVSPost2010PropOp34
 70
     1
102
RTVSPost2010Prop35
280
     0
102
RTVSPost2010PropOp35
 70
     1
102
RTVSPost2010Prop36
280
     0
102
RTVSPost2010PropOp36
 70
     1
102
RTVSPost2010Prop37
 90
       50
102
RTVSPost2010PropOp37
 70
     1
102
RTVSPost2010Prop38
140
0.0
102
RTVSPost2010PropOp38
 70
     1
102
RTVSPost2010Prop39
140
1.0
102
RTVSPost2010PropOp39
 70
     1
102
RTVSPost2010Prop40
 90
        0
102
RTVSPost2010PropOp40
 70
     1
102
RTVSPost2010Prop41ColorIndex
 90
       18
102
RTVSPost2010Prop41ColorRGB
 90
        0
102
RTVSPost2010PropOp41
 70
     1
102
RTVSPost2010Prop42
 90
       50
102
RTVSPost2010PropOp42
 70
     1
102
RTVSPost2010Prop43
 90
        3
102
RTVSPost2010PropOp43
 70
     1
102
RTVSPost2010Prop44ColorIndex
 90
        5
102
RTVSPost2010Prop44ColorRGB
 90
      255
102
RTVSPost2010PropOp44
 70
     1
102
RTVSPost2010Prop45
280
     0
102
RTVSPost2010PropOp45
 70
     1
102
RTVSPost2010Prop46
 90
       50
102
RTVSPost2010PropOp46
 70
     1
102
RTVSPost2010Prop47
 90
       50
102
RTVSPost2010PropOp47
 70
     1
102
RTVSPost2010Prop48
 90
       50
102
RTVSPost2010PropOp48
 70
     1
102
RTVSPost2010Prop49
280
     0
102
RTVSPost2010PropOp49
 70
     1
102
RTVSPost2010Prop50
 90
       50
102
RTVSPost2010PropOp50
 70
     1
102
RTVSPost2010Prop51ColorIndex
 90
      256
102
RTVSPost2010Prop51ColorRGB
 90
-16777216
102
RTVSPost2010PropOp51
 70
     0
102
RTVSPost2010Prop52
140
1.0
102
RTVSPost2010PropOp52
 70
     0
102
RTVSPost2010Prop53
 90
        2
102
RTVSPost2010PropOp53
 70
     1
102
RTVSPost2010Prop54
  1
strokes_ogs.tif
102
RTVSPost2010PropOp54
 70
     1
102
RTVSPost2010Prop55
280
     0
102
RTVSPost2010PropOp55
 70
     1
102
RTVSPost2010Prop56
140
1.0
102
RTVSPost2010PropOp56
 70
     1
102
RTVSPost2010Prop57
140
1.0
102
RTVSPost2010PropOp57
 70
     1
102
RTVSPropertyOp0
 70
     1
102
RTVSPropertyOp1
 70
     1
102
RTVSPropertyOp2
 70
     1
102
RTVSPropertyOp3
 70
     1
102
RTVSPropertyOp4
 70
     1
102
RTVSPropertyOp5
 70
     1
102
RTVSPropertyOp6
 70
     1
102
RTVSPropertyOp7
 70
     1
102
RTVSPropertyOp8
 70
     1
102
RTVSPropertyOp9
 70
     1
102
RTVSPropertyOp10
 70
     1
102
RTVSPropertyOp11
 70
     1
102
RTVSPropertyOp12
 70
     1
102
RTVSPropertyOp13
 70
     1
102
RTVSPropertyOp14
 70
     1
102
RTVSPropertyOp15
 70
     1
102
RTVSPropertyOp16
 70
     1
102
RTVSPropertyOp17
 70
     1
102
RTVSPropertyOp18
 70
     1
102
RTVSPropertyOp19
 70
     1
102
RTVSPropertyOp20
 70
     1
102
RTVSPropertyOp21
 70
     1
102
RTVSPropertyOp22
 70
     1
102
RTVSPropertyOp23
 70
     1
102
RTVSPropertyOp24
 70
     1
102
RTVSPropertyOp25
 70
     1
102
RTVSPropertyOp26
 70
     1
102
RTVSPropertyOp27
 70
     1
102
RTVSPropertyOp28
 70
     1
102
RTVSPropertyOp29
 70
     1
102
RTVSPropertyOp30
 70
     1
102
RTVSPropertyOp31
 70
     1
102
RTVSPropertyOp32
 70
     1
102
RTVSPropertyOp33
 70
     1
102
RTVSPropertyOp34
 70
     1
102
RTVSPropertyOp35
 70
     1
102
RTVSPropertyOp36
 70
     1
102
RTVSPropertyOp37
 70
     1
102
RTVSPropertyOp38
 70
     1
102
RTVSPropertyOp39
 70
     1
102
RTVSPropertyOp40
 70
     1
102
RTVSPropertyOp41
 70
     1
102
RTVSPropertyOp42
 70
     1
102
RTVSPropertyOp43
 70
     1
102
RTVSPropertyOp44
 70
     1
102
RTVSPropertyOp45
 70
     1
102
RTVSPropertyOp46
 70
     1
102
RTVSPropertyOp47
 70
     1
102
RTVSPropertyOp48
 70
     1
102
RTVSPropertyOp49
 70
     1
102
RTVSPropertyOp50
 70
     1
102
RTVSPropertyOp51
 70
     0
102
RTVSPropertyOp52
 70
     0
102
RTVSPropertyOp53
 70
     1
102
RTVSPropertyOp54
 70
     1
102
RTVSPropertyOp55
 70
     1
102
RTVSPropertyOp56
 70
     1
102
RTVSPropertyOp57
 70
     1
102
RTVSPropertyOp58
 70
     1
102
RTVSPropertyOp59
 70
     1
102
RTVSPropertyOp60
 70
     1
102
RTVSPropertyOp61
 70
     1
102
RTVSPropertyOp62
 70
     1
  0
XRECORD
  5
4C4
102
{ACAD_REACTORS
330
4C3
102
}
330
4C3
100
AcDbXrecord
280
     1
102
RTVSPost2010Prop28
280
     0
102
RTVSPost2010PropOp28
 70
     1
102
RTVSPost2010Prop29
280
     1
102
RTVSPost2010PropOp29
 70
     1
102
RTVSPost2010Prop30
280
     1
102
RTVSPost2010PropOp30
 70
     1
102
RTVSPost2010Prop31
280
     0
102
RTVSPost2010PropOp31
 70
     1
102
RTVSPost2010Prop32
280
     0
102
RTVSPost2010PropOp32
 70
     1
102
RTVSPost2010Prop33
280
     0
102
RTVSPost2010PropOp33
 70
     1
102
RTVSPost2010Prop34
280
     0
102
RTVSPost2010PropOp34
 70
     1
102
RTVSPost2010Prop35
280
     0
102
RTVSPost2010PropOp35
 70
     1
102
RTVSPost2010Prop36
280
     0
102
RTVSPost2010PropOp36
 70
     1
102
RTVSPost2010Prop37
 90
       50
102
RTVSPost2010PropOp37
 70
     0
102
RTVSPost2010Prop38
140
0.0
102
RTVSPost2010PropOp38
 70
     0
102
RTVSPost2010Prop39
140
1.0
102
RTVSPost2010PropOp39
 70
     0
102
RTVSPost2010Prop40
 90
        0
102
RTVSPost2010PropOp40
 70
     0
102
RTVSPost2010Prop41ColorIndex
 90
       18
102
RTVSPost2010Prop41ColorRGB
 90
        0
102
RTVSPost2010PropOp41
 70
     0
102
RTVSPost2010Prop42
 90
       50
102
RTVSPost2010PropOp42
 70
     0
102
RTVSPost2010Prop43
 90
        3
102
RTVSPost2010PropOp43
 70
     0
102
RTVSPost2010Prop44ColorIndex
 90
        5
102
RTVSPost2010Prop44ColorRGB
 90
      255
102
RTVSPost2010PropOp44
 70
     0
102
RTVSPost2010Prop45
280
     0
102
RTVSPost2010PropOp45
 70
     1
102
RTVSPost2010Prop46
 90
       50
102
RTVSPost2010PropOp46
 70
     0
102
RTVSPost2010Prop47
 90
       50
102
RTVSPost2010PropOp47
 70
     0
102
RTVSPost2010Prop48
 90
       50
102
RTVSPost2010PropOp48
 70
     0
102
RTVSPost2010Prop49
280
     0
102
RTVSPost2010PropOp49
 70
     1
102
RTVSPost2010Prop50
 90
       50
102
RTVSPost2010PropOp50
 70
     0
102
RTVSPost2010Prop51ColorIndex
 90
      256
102
RTVSPost2010Prop51ColorRGB
 90
-16777216
102
RTVSPost2010PropOp51
 70
     0
102
RTVSPost2010Prop52
140
1.0
102
RTVSPost2010PropOp52
 70
     0
102
RTVSPost2010Prop53
 90
        2
102
RTVSPost2010PropOp53
 70
     0
102
RTVSPost2010Prop54
  1
strokes_ogs.tif
102
RTVSPost2010PropOp54
 70
     0
102
RTVSPost2010Prop55
280
     0
102
RTVSPost2010PropOp55
 70
     1
102
RTVSPost2010Prop56
140
1.0
102
RTVSPost2010PropOp56
 70
     0
102
RTVSPost2010Prop57
140
1.0
102
RTVSPost2010PropOp57
 70
     0
102
RTVSPropertyOp0
 70
     0
102
RTVSPropertyOp1
 70
     0
102
RTVSPropertyOp2
 70
     0
102
RTVSPropertyOp3
 70
     0
102
RTVSPropertyOp4
 70
     0
102
RTVSPropertyOp5
 70
     0
102
RTVSPropertyOp6
 70
     0
102
RTVSPropertyOp7
 70
     0
102
RTVSPropertyOp8
 70
     0
102
RTVSPropertyOp9
 70
     0
102
RTVSPropertyOp10
 70
     0
102
RTVSPropertyOp11
 70
     0
102
RTVSPropertyOp12
 70
     0
102
RTVSPropertyOp13
 70
     0
102
RTVSPropertyOp14
 70
     2
102
RTVSPropertyOp15
 70
     0
102
RTVSPropertyOp16
 70
     0
102
RTVSPropertyOp17
 70
     0
102
RTVSPropertyOp18
 70
     0
102
RTVSPropertyOp19
 70
     0
102
RTVSPropertyOp20
 70
     0
102
RTVSPropertyOp21
 70
     0
102
RTVSPropertyOp22
 70
     0
102
RTVSPropertyOp23
 70
     0
102
RTVSPropertyOp24
 70
     0
102
RTVSPropertyOp25
 70
     0
102
RTVSPropertyOp26
 70
     0
102
RTVSPropertyOp27
 70
     0
102
RTVSPropertyOp28
 70
     1
102
RTVSPropertyOp29
 70
     1
102
RTVSPropertyOp30
 70
     1
102
RTVSPropertyOp31
 70
     1
102
RTVSPropertyOp32
 70
     1
102
RTVSPropertyOp33
 70
     1
102
RTVSPropertyOp34
 70
     1
102
RTVSPropertyOp35
 70
     1
102
RTVSPropertyOp36
 70
     1
102
RTVSPropertyOp37
 70
     0
102
RTVSPropertyOp38
 70
     0
102
RTVSPropertyOp39
 70
     0
102
RTVSPropertyOp40
 70
     0
102
RTVSPropertyOp41
 70
     0
102
RTVSPropertyOp42
 70
     0
102
RTVSPropertyOp43
 70
     0
102
RTVSPropertyOp44
 70
     0
102
RTVSPropertyOp45
 70
     1
102
RTVSPropertyOp46
 70
     0
102
RTVSPropertyOp47
 70
     0
102
RTVSPropertyOp48
 70
     0
102
RTVSPropertyOp49
 70
     1
102
RTVSPropertyOp50
 70
     0
102
RTVSPropertyOp51
 70
     0
102
RTVSPropertyOp52
 70
     0
102
RTVSPropertyOp53
 70
     0
102
RTVSPropertyOp54
 70
     0
102
RTVSPropertyOp55
 70
     1
102
RTVSPropertyOp56
 70
     0
102
RTVSPropertyOp57
 70
     0
102
RTVSPropertyOp58
 70
     0
102
RTVSPropertyOp59
 70
     0
102
RTVSPropertyOp60
 70
     0
102
RTVSPropertyOp61
 70
     0
102
RTVSPropertyOp62
 70
     0
  0
XRECORD
  5
4B2
102
{ACAD_REACTORS
330
4B1
102
}
330
4B1
100
AcDbXrecord
280
     1
102
RTVSPost2010Prop28
280
     0
102
RTVSPost2010PropOp28
 70
     1
102
RTVSPost2010Prop29
280
     1
102
RTVSPost2010PropOp29
 70
     1
102
RTVSPost2010Prop30
280
     1
102
RTVSPost2010PropOp30
 70
     1
102
RTVSPost2010Prop31
280
     0
102
RTVSPost2010PropOp31
 70
     1
102
RTVSPost2010Prop32
280
     0
102
RTVSPost2010PropOp32
 70
     1
102
RTVSPost2010Prop33
280
     0
102
RTVSPost2010PropOp33
 70
     1
102
RTVSPost2010Prop34
280
     0
102
RTVSPost2010PropOp34
 70
     1
102
RTVSPost2010Prop35
280
     0
102
RTVSPost2010PropOp35
 70
     1
102
RTVSPost2010Prop36
280
     0
102
RTVSPost2010PropOp36
 70
     1
102
RTVSPost2010Prop37
 90
       50
102
RTVSPost2010PropOp37
 70
     1
102
RTVSPost2010Prop38
140
0.0
102
RTVSPost2010PropOp38
 70
     1
102
RTVSPost2010Prop39
140
1.0
102
RTVSPost2010PropOp39
 70
     1
102
RTVSPost2010Prop40
 90
        0
102
RTVSPost2010PropOp40
 70
     1
102
RTVSPost2010Prop41ColorIndex
 90
       18
102
RTVSPost2010Prop41ColorRGB
 90
        0
102
RTVSPost2010PropOp41
 70
     1
102
RTVSPost2010Prop42
 90
       50
102
RTVSPost2010PropOp42
 70
     1
102
RTVSPost2010Prop43
 90
        3
102
RTVSPost2010PropOp43
 70
     1
102
RTVSPost2010Prop44ColorIndex
 90
        5
102
RTVSPost2010Prop44ColorRGB
 90
      255
102
RTVSPost2010PropOp44
 70
     1
102
RTVSPost2010Prop45
280
     0
102
RTVSPost2010PropOp45
 70
     1
102
RTVSPost2010Prop46
 90
       50
102
RTVSPost2010PropOp46
 70
     1
102
RTVSPost2010Prop47
 90
       50
102
RTVSPost2010PropOp47
 70
     1
102
RTVSPost2010Prop48
 90
       50
102
RTVSPost2010PropOp48
 70
     1
102
RTVSPost2010Prop49
280
     0
102
RTVSPost2010PropOp49
 70
     1
102
RTVSPost2010Prop50
 90
       50
102
RTVSPost2010PropOp50
 70
     1
102
RTVSPost2010Prop51ColorIndex
 90
      256
102
RTVSPost2010Prop51ColorRGB
 90
-16777216
102
RTVSPost2010PropOp51
 70
     0
102
RTVSPost2010Prop52
140
1.0
102
RTVSPost2010PropOp52
 70
     0
102
RTVSPost2010Prop53
 90
        2
102
RTVSPost2010PropOp53
 70
     1
102
RTVSPost2010Prop54
  1
strokes_ogs.tif
102
RTVSPost2010PropOp54
 70
     1
102
RTVSPost2010Prop55
280
     0
102
RTVSPost2010PropOp55
 70
     1
102
RTVSPost2010Prop56
140
1.0
102
RTVSPost2010PropOp56
 70
     1
102
RTVSPost2010Prop57
140
1.0
102
RTVSPost2010PropOp57
 70
     1
102
RTVSPropertyOp0
 70
     1
102
RTVSPropertyOp1
 70
     1
102
RTVSPropertyOp2
 70
     1
102
RTVSPropertyOp3
 70
     1
102
RTVSPropertyOp4
 70
     1
102
RTVSPropertyOp5
 70
     1
102
RTVSPropertyOp6
 70
     1
102
RTVSPropertyOp7
 70
     1
102
RTVSPropertyOp8
 70
     1
102
RTVSPropertyOp9
 70
     1
102
RTVSPropertyOp10
 70
     1
102
RTVSPropertyOp11
 70
     1
102
RTVSPropertyOp12
 70
     1
102
RTVSPropertyOp13
 70
     1
102
RTVSPropertyOp14
 70
     1
102
RTVSPropertyOp15
 70
     1
102
RTVSPropertyOp16
 70
     1
102
RTVSPropertyOp17
 70
     1
102
RTVSPropertyOp18
 70
     1
102
RTVSPropertyOp19
 70
     1
102
RTVSPropertyOp20
 70
     1
102
RTVSPropertyOp21
 70
     1
102
RTVSPropertyOp22
 70
     1
102
RTVSPropertyOp23
 70
     1
102
RTVSPropertyOp24
 70
     1
102
RTVSPropertyOp25
 70
     1
102
RTVSPropertyOp26
 70
     1
102
RTVSPropertyOp27
 70
     1
102
RTVSPropertyOp28
 70
     1
102
RTVSPropertyOp29
 70
     1
102
RTVSPropertyOp30
 70
     1
102
RTVSPropertyOp31
 70
     1
102
RTVSPropertyOp32
 70
     1
102
RTVSPropertyOp33
 70
     1
102
RTVSPropertyOp34
 70
     1
102
RTVSPropertyOp35
 70
     1
102
RTVSPropertyOp36
 70
     1
102
RTVSPropertyOp37
 70
     1
102
RTVSPropertyOp38
 70
     1
102
RTVSPropertyOp39
 70
     1
102
RTVSPropertyOp40
 70
     1
102
RTVSPropertyOp41
 70
     1
102
RTVSPropertyOp42
 70
     1
102
RTVSPropertyOp43
 70
     1
102
RTVSPropertyOp44
 70
     1
102
RTVSPropertyOp45
 70
     1
102
RTVSPropertyOp46
 70
     1
102
RTVSPropertyOp47
 70
     1
102
RTVSPropertyOp48
 70
     1
102
RTVSPropertyOp49
 70
     1
102
RTVSPropertyOp50
 70
     1
102
RTVSPropertyOp51
 70
     0
102
RTVSPropertyOp52
 70
     0
102
RTVSPropertyOp53
 70
     1
102
RTVSPropertyOp54
 70
     1
102
RTVSPropertyOp55
 70
     1
102
RTVSPropertyOp56
 70
     1
102
RTVSPropertyOp57
 70
     1
102
RTVSPropertyOp58
 70
     1
102
RTVSPropertyOp59
 70
     1
102
RTVSPropertyOp60
 70
     1
102
RTVSPropertyOp61
 70
     1
102
RTVSPropertyOp62
 70
     1
  0
XRECORD
  5
496
102
{ACAD_REACTORS
330
495
102
}
330
495
100
AcDbXrecord
280
     1
102
RTVSPost2010Prop28
280
     0
102
RTVSPost2010PropOp28
 70
     1
102
RTVSPost2010Prop29
280
     1
102
RTVSPost2010PropOp29
 70
     1
102
RTVSPost2010Prop30
280
     1
102
RTVSPost2010PropOp30
 70
     1
102
RTVSPost2010Prop31
280
     0
102
RTVSPost2010PropOp31
 70
     1
102
RTVSPost2010Prop32
280
     0
102
RTVSPost2010PropOp32
 70
     1
102
RTVSPost2010Prop33
280
     0
102
RTVSPost2010PropOp33
 70
     1
102
RTVSPost2010Prop34
280
     0
102
RTVSPost2010PropOp34
 70
     1
102
RTVSPost2010Prop35
280
     0
102
RTVSPost2010PropOp35
 70
     1
102
RTVSPost2010Prop36
280
     0
102
RTVSPost2010PropOp36
 70
     1
102
RTVSPost2010Prop37
 90
       50
102
RTVSPost2010PropOp37
 70
     1
102
RTVSPost2010Prop38
140
0.0
102
RTVSPost2010PropOp38
 70
     1
102
RTVSPost2010Prop39
140
1.0
102
RTVSPost2010PropOp39
 70
     1
102
RTVSPost2010Prop40
 90
        0
102
RTVSPost2010PropOp40
 70
     1
102
RTVSPost2010Prop41ColorIndex
 90
       18
102
RTVSPost2010Prop41ColorRGB
 90
        0
102
RTVSPost2010PropOp41
 70
     1
102
RTVSPost2010Prop42
 90
       50
102
RTVSPost2010PropOp42
 70
     1
102
RTVSPost2010Prop43
 90
        3
102
RTVSPost2010PropOp43
 70
     1
102
RTVSPost2010Prop44ColorIndex
 90
        5
102
RTVSPost2010Prop44ColorRGB
 90
      255
102
RTVSPost2010PropOp44
 70
     1
102
RTVSPost2010Prop45
280
     0
102
RTVSPost2010PropOp45
 70
     1
102
RTVSPost2010Prop46
 90
       50
102
RTVSPost2010PropOp46
 70
     1
102
RTVSPost2010Prop47
 90
       50
102
RTVSPost2010PropOp47
 70
     1
102
RTVSPost2010Prop48
 90
       50
102
RTVSPost2010PropOp48
 70
     1
102
RTVSPost2010Prop49
280
     0
102
RTVSPost2010PropOp49
 70
     1
102
RTVSPost2010Prop50
 90
       50
102
RTVSPost2010PropOp50
 70
     1
102
RTVSPost2010Prop51ColorIndex
 90
      256
102
RTVSPost2010Prop51ColorRGB
 90
-16777216
102
RTVSPost2010PropOp51
 70
     0
102
RTVSPost2010Prop52
140
1.0
102
RTVSPost2010PropOp52
 70
     0
102
RTVSPost2010Prop53
 90
        2
102
RTVSPost2010PropOp53
 70
     1
102
RTVSPost2010Prop54
  1
strokes_ogs.tif
102
RTVSPost2010PropOp54
 70
     1
102
RTVSPost2010Prop55
280
     0
102
RTVSPost2010PropOp55
 70
     1
102
RTVSPost2010Prop56
140
1.0
102
RTVSPost2010PropOp56
 70
     1
102
RTVSPost2010Prop57
140
1.0
102
RTVSPost2010PropOp57
 70
     1
102
RTVSPropertyOp0
 70
     1
102
RTVSPropertyOp1
 70
     1
102
RTVSPropertyOp2
 70
     1
102
RTVSPropertyOp3
 70
     1
102
RTVSPropertyOp4
 70
     1
102
RTVSPropertyOp5
 70
     1
102
RTVSPropertyOp6
 70
     1
102
RTVSPropertyOp7
 70
     1
102
RTVSPropertyOp8
 70
     1
102
RTVSPropertyOp9
 70
     1
102
RTVSPropertyOp10
 70
     1
102
RTVSPropertyOp11
 70
     1
102
RTVSPropertyOp12
 70
     1
102
RTVSPropertyOp13
 70
     1
102
RTVSPropertyOp14
 70
     1
102
RTVSPropertyOp15
 70
     1
102
RTVSPropertyOp16
 70
     1
102
RTVSPropertyOp17
 70
     1
102
RTVSPropertyOp18
 70
     1
102
RTVSPropertyOp19
 70
     1
102
RTVSPropertyOp20
 70
     1
102
RTVSPropertyOp21
 70
     1
102
RTVSPropertyOp22
 70
     1
102
RTVSPropertyOp23
 70
     1
102
RTVSPropertyOp24
 70
     1
102
RTVSPropertyOp25
 70
     1
102
RTVSPropertyOp26
 70
     1
102
RTVSPropertyOp27
 70
     1
102
RTVSPropertyOp28
 70
     1
102
RTVSPropertyOp29
 70
     1
102
RTVSPropertyOp30
 70
     1
102
RTVSPropertyOp31
 70
     1
102
RTVSPropertyOp32
 70
     1
102
RTVSPropertyOp33
 70
     1
102
RTVSPropertyOp34
 70
     1
102
RTVSPropertyOp35
 70
     1
102
RTVSPropertyOp36
 70
     1
102
RTVSPropertyOp37
 70
     1
102
RTVSPropertyOp38
 70
     1
102
RTVSPropertyOp39
 70
     1
102
RTVSPropertyOp40
 70
     1
102
RTVSPropertyOp41
 70
     1
102
RTVSPropertyOp42
 70
     1
102
RTVSPropertyOp43
 70
     1
102
RTVSPropertyOp44
 70
     1
102
RTVSPropertyOp45
 70
     1
102
RTVSPropertyOp46
 70
     1
102
RTVSPropertyOp47
 70
     1
102
RTVSPropertyOp48
 70
     1
102
RTVSPropertyOp49
 70
     1
102
RTVSPropertyOp50
 70
     1
102
RTVSPropertyOp51
 70
     0
102
RTVSPropertyOp52
 70
     0
102
RTVSPropertyOp53
 70
     1
102
RTVSPropertyOp54
 70
     1
102
RTVSPropertyOp55
 70
     1
102
RTVSPropertyOp56
 70
     1
102
RTVSPropertyOp57
 70
     1
102
RTVSPropertyOp58
 70
     1
102
RTVSPropertyOp59
 70
     1
102
RTVSPropertyOp60
 70
     1
102
RTVSPropertyOp61
 70
     1
102
RTVSPropertyOp62
 70
     1
  0
XRECORD
  5
498
102
{ACAD_REACTORS
330
497
102
}
330
497
100
AcDbXrecord
280
     1
102
RTVSPost2010Prop28
280
     0
102
RTVSPost2010PropOp28
 70
     1
102
RTVSPost2010Prop29
280
     1
102
RTVSPost2010PropOp29
 70
     1
102
RTVSPost2010Prop30
280
     1
102
RTVSPost2010PropOp30
 70
     1
102
RTVSPost2010Prop31
280
     0
102
RTVSPost2010PropOp31
 70
     1
102
RTVSPost2010Prop32
280
     0
102
RTVSPost2010PropOp32
 70
     1
102
RTVSPost2010Prop33
280
     0
102
RTVSPost2010PropOp33
 70
     1
102
RTVSPost2010Prop34
280
     0
102
RTVSPost2010PropOp34
 70
     1
102
RTVSPost2010Prop35
280
     0
102
RTVSPost2010PropOp35
 70
     1
102
RTVSPost2010Prop36
280
     0
102
RTVSPost2010PropOp36
 70
     1
102
RTVSPost2010Prop37
 90
       50
102
RTVSPost2010PropOp37
 70
     1
102
RTVSPost2010Prop38
140
0.0
102
RTVSPost2010PropOp38
 70
     1
102
RTVSPost2010Prop39
140
1.0
102
RTVSPost2010PropOp39
 70
     1
102
RTVSPost2010Prop40
 90
        0
102
RTVSPost2010PropOp40
 70
     1
102
RTVSPost2010Prop41ColorIndex
 90
       18
102
RTVSPost2010Prop41ColorRGB
 90
        0
102
RTVSPost2010PropOp41
 70
     1
102
RTVSPost2010Prop42
 90
       50
102
RTVSPost2010PropOp42
 70
     1
102
RTVSPost2010Prop43
 90
        3
102
RTVSPost2010PropOp43
 70
     1
102
RTVSPost2010Prop44ColorIndex
 90
        5
102
RTVSPost2010Prop44ColorRGB
 90
      255
102
RTVSPost2010PropOp44
 70
     1
102
RTVSPost2010Prop45
280
     0
102
RTVSPost2010PropOp45
 70
     1
102
RTVSPost2010Prop46
 90
       50
102
RTVSPost2010PropOp46
 70
     1
102
RTVSPost2010Prop47
 90
       50
102
RTVSPost2010PropOp47
 70
     1
102
RTVSPost2010Prop48
 90
       50
102
RTVSPost2010PropOp48
 70
     1
102
RTVSPost2010Prop49
280
     0
102
RTVSPost2010PropOp49
 70
     1
102
RTVSPost2010Prop50
 90
       50
102
RTVSPost2010PropOp50
 70
     1
102
RTVSPost2010Prop51ColorIndex
 90
      256
102
RTVSPost2010Prop51ColorRGB
 90
-16777216
102
RTVSPost2010PropOp51
 70
     0
102
RTVSPost2010Prop52
140
1.0
102
RTVSPost2010PropOp52
 70
     0
102
RTVSPost2010Prop53
 90
        2
102
RTVSPost2010PropOp53
 70
     1
102
RTVSPost2010Prop54
  1
strokes_ogs.tif
102
RTVSPost2010PropOp54
 70
     1
102
RTVSPost2010Prop55
280
     0
102
RTVSPost2010PropOp55
 70
     1
102
RTVSPost2010Prop56
140
1.0
102
RTVSPost2010PropOp56
 70
     1
102
RTVSPost2010Prop57
140
1.0
102
RTVSPost2010PropOp57
 70
     1
102
RTVSPropertyOp0
 70
     1
102
RTVSPropertyOp1
 70
     1
102
RTVSPropertyOp2
 70
     1
102
RTVSPropertyOp3
 70
     1
102
RTVSPropertyOp4
 70
     1
102
RTVSPropertyOp5
 70
     1
102
RTVSPropertyOp6
 70
     1
102
RTVSPropertyOp7
 70
     1
102
RTVSPropertyOp8
 70
     1
102
RTVSPropertyOp9
 70
     1
102
RTVSPropertyOp10
 70
     1
102
RTVSPropertyOp11
 70
     1
102
RTVSPropertyOp12
 70
     1
102
RTVSPropertyOp13
 70
     1
102
RTVSPropertyOp14
 70
     1
102
RTVSPropertyOp15
 70
     1
102
RTVSPropertyOp16
 70
     1
102
RTVSPropertyOp17
 70
     1
102
RTVSPropertyOp18
 70
     1
102
RTVSPropertyOp19
 70
     1
102
RTVSPropertyOp20
 70
     1
102
RTVSPropertyOp21
 70
     1
102
RTVSPropertyOp22
 70
     1
102
RTVSPropertyOp23
 70
     1
102
RTVSPropertyOp24
 70
     1
102
RTVSPropertyOp25
 70
     1
102
RTVSPropertyOp26
 70
     1
102
RTVSPropertyOp27
 70
     1
102
RTVSPropertyOp28
 70
     1
102
RTVSPropertyOp29
 70
     1
102
RTVSPropertyOp30
 70
     1
102
RTVSPropertyOp31
 70
     1
102
RTVSPropertyOp32
 70
     1
102
RTVSPropertyOp33
 70
     1
102
RTVSPropertyOp34
 70
     1
102
RTVSPropertyOp35
 70
     1
102
RTVSPropertyOp36
 70
     1
102
RTVSPropertyOp37
 70
     1
102
RTVSPropertyOp38
 70
     1
102
RTVSPropertyOp39
 70
     1
102
RTVSPropertyOp40
 70
     1
102
RTVSPropertyOp41
 70
     1
102
RTVSPropertyOp42
 70
     1
102
RTVSPropertyOp43
 70
     1
102
RTVSPropertyOp44
 70
     1
102
RTVSPropertyOp45
 70
     1
102
RTVSPropertyOp46
 70
     1
102
RTVSPropertyOp47
 70
     1
102
RTVSPropertyOp48
 70
     1
102
RTVSPropertyOp49
 70
     1
102
RTVSPropertyOp50
 70
     1
102
RTVSPropertyOp51
 70
     0
102
RTVSPropertyOp52
 70
     0
102
RTVSPropertyOp53
 70
     1
102
RTVSPropertyOp54
 70
     1
102
RTVSPropertyOp55
 70
     1
102
RTVSPropertyOp56
 70
     1
102
RTVSPropertyOp57
 70
     1
102
RTVSPropertyOp58
 70
     1
102
RTVSPropertyOp59
 70
     1
102
RTVSPropertyOp60
 70
     1
102
RTVSPropertyOp61
 70
     1
102
RTVSPropertyOp62
 70
     1
  0
XRECORD
  5
49A
102
{ACAD_REACTORS
330
499
102
}
330
499
100
AcDbXrecord
280
     1
102
RTVSPost2010Prop28
280
     0
102
RTVSPost2010PropOp28
 70
     1
102
RTVSPost2010Prop29
280
     1
102
RTVSPost2010PropOp29
 70
     1
102
RTVSPost2010Prop30
280
     1
102
RTVSPost2010PropOp30
 70
     1
102
RTVSPost2010Prop31
280
     0
102
RTVSPost2010PropOp31
 70
     1
102
RTVSPost2010Prop32
280
     0
102
RTVSPost2010PropOp32
 70
     1
102
RTVSPost2010Prop33
280
     0
102
RTVSPost2010PropOp33
 70
     1
102
RTVSPost2010Prop34
280
     0
102
RTVSPost2010PropOp34
 70
     1
102
RTVSPost2010Prop35
280
     0
102
RTVSPost2010PropOp35
 70
     1
102
RTVSPost2010Prop36
280
     0
102
RTVSPost2010PropOp36
 70
     1
102
RTVSPost2010Prop37
 90
       50
102
RTVSPost2010PropOp37
 70
     1
102
RTVSPost2010Prop38
140
0.0
102
RTVSPost2010PropOp38
 70
     1
102
RTVSPost2010Prop39
140
1.0
102
RTVSPost2010PropOp39
 70
     1
102
RTVSPost2010Prop40
 90
        0
102
RTVSPost2010PropOp40
 70
     1
102
RTVSPost2010Prop41ColorIndex
 90
       18
102
RTVSPost2010Prop41ColorRGB
 90
        0
102
RTVSPost2010PropOp41
 70
     1
102
RTVSPost2010Prop42
 90
       50
102
RTVSPost2010PropOp42
 70
     1
102
RTVSPost2010Prop43
 90
        3
102
RTVSPost2010PropOp43
 70
     1
102
RTVSPost2010Prop44ColorIndex
 90
        5
102
RTVSPost2010Prop44ColorRGB
 90
      255
102
RTVSPost2010PropOp44
 70
     1
102
RTVSPost2010Prop45
280
     0
102
RTVSPost2010PropOp45
 70
     1
102
RTVSPost2010Prop46
 90
       50
102
RTVSPost2010PropOp46
 70
     1
102
RTVSPost2010Prop47
 90
       50
102
RTVSPost2010PropOp47
 70
     1
102
RTVSPost2010Prop48
 90
       50
102
RTVSPost2010PropOp48
 70
     1
102
RTVSPost2010Prop49
280
     0
102
RTVSPost2010PropOp49
 70
     1
102
RTVSPost2010Prop50
 90
       50
102
RTVSPost2010PropOp50
 70
     1
102
RTVSPost2010Prop51ColorIndex
 90
      256
102
RTVSPost2010Prop51ColorRGB
 90
-16777216
102
RTVSPost2010PropOp51
 70
     0
102
RTVSPost2010Prop52
140
1.0
102
RTVSPost2010PropOp52
 70
     0
102
RTVSPost2010Prop53
 90
        2
102
RTVSPost2010PropOp53
 70
     1
102
RTVSPost2010Prop54
  1
strokes_ogs.tif
102
RTVSPost2010PropOp54
 70
     1
102
RTVSPost2010Prop55
280
     0
102
RTVSPost2010PropOp55
 70
     1
102
RTVSPost2010Prop56
140
1.0
102
RTVSPost2010PropOp56
 70
     1
102
RTVSPost2010Prop57
140
1.0
102
RTVSPost2010PropOp57
 70
     1
102
RTVSPropertyOp0
 70
     1
102
RTVSPropertyOp1
 70
     1
102
RTVSPropertyOp2
 70
     1
102
RTVSPropertyOp3
 70
     1
102
RTVSPropertyOp4
 70
     1
102
RTVSPropertyOp5
 70
     1
102
RTVSPropertyOp6
 70
     1
102
RTVSPropertyOp7
 70
     1
102
RTVSPropertyOp8
 70
     1
102
RTVSPropertyOp9
 70
     1
102
RTVSPropertyOp10
 70
     1
102
RTVSPropertyOp11
 70
     1
102
RTVSPropertyOp12
 70
     1
102
RTVSPropertyOp13
 70
     1
102
RTVSPropertyOp14
 70
     1
102
RTVSPropertyOp15
 70
     1
102
RTVSPropertyOp16
 70
     1
102
RTVSPropertyOp17
 70
     1
102
RTVSPropertyOp18
 70
     1
102
RTVSPropertyOp19
 70
     1
102
RTVSPropertyOp20
 70
     1
102
RTVSPropertyOp21
 70
     1
102
RTVSPropertyOp22
 70
     1
102
RTVSPropertyOp23
 70
     1
102
RTVSPropertyOp24
 70
     1
102
RTVSPropertyOp25
 70
     1
102
RTVSPropertyOp26
 70
     1
102
RTVSPropertyOp27
 70
     1
102
RTVSPropertyOp28
 70
     1
102
RTVSPropertyOp29
 70
     1
102
RTVSPropertyOp30
 70
     1
102
RTVSPropertyOp31
 70
     1
102
RTVSPropertyOp32
 70
     1
102
RTVSPropertyOp33
 70
     1
102
RTVSPropertyOp34
 70
     1
102
RTVSPropertyOp35
 70
     1
102
RTVSPropertyOp36
 70
     1
102
RTVSPropertyOp37
 70
     1
102
RTVSPropertyOp38
 70
     1
102
RTVSPropertyOp39
 70
     1
102
RTVSPropertyOp40
 70
     1
102
RTVSPropertyOp41
 70
     1
102
RTVSPropertyOp42
 70
     1
102
RTVSPropertyOp43
 70
     1
102
RTVSPropertyOp44
 70
     1
102
RTVSPropertyOp45
 70
     1
102
RTVSPropertyOp46
 70
     1
102
RTVSPropertyOp47
 70
     1
102
RTVSPropertyOp48
 70
     1
102
RTVSPropertyOp49
 70
     1
102
RTVSPropertyOp50
 70
     1
102
RTVSPropertyOp51
 70
     0
102
RTVSPropertyOp52
 70
     0
102
RTVSPropertyOp53
 70
     1
102
RTVSPropertyOp54
 70
     1
102
RTVSPropertyOp55
 70
     1
102
RTVSPropertyOp56
 70
     1
102
RTVSPropertyOp57
 70
     1
102
RTVSPropertyOp58
 70
     1
102
RTVSPropertyOp59
 70
     1
102
RTVSPropertyOp60
 70
     1
102
RTVSPropertyOp61
 70
     1
102
RTVSPropertyOp62
 70
     1
  0
XRECORD
  5
49C
102
{ACAD_REACTORS
330
49B
102
}
330
49B
100
AcDbXrecord
280
     1
102
RTVSPost2010Prop28
280
     0
102
RTVSPost2010PropOp28
 70
     1
102
RTVSPost2010Prop29
280
     1
102
RTVSPost2010PropOp29
 70
     1
102
RTVSPost2010Prop30
280
     1
102
RTVSPost2010PropOp30
 70
     1
102
RTVSPost2010Prop31
280
     0
102
RTVSPost2010PropOp31
 70
     1
102
RTVSPost2010Prop32
280
     0
102
RTVSPost2010PropOp32
 70
     1
102
RTVSPost2010Prop33
280
     0
102
RTVSPost2010PropOp33
 70
     1
102
RTVSPost2010Prop34
280
     0
102
RTVSPost2010PropOp34
 70
     1
102
RTVSPost2010Prop35
280
     0
102
RTVSPost2010PropOp35
 70
     1
102
RTVSPost2010Prop36
280
     0
102
RTVSPost2010PropOp36
 70
     1
102
RTVSPost2010Prop37
 90
       50
102
RTVSPost2010PropOp37
 70
     1
102
RTVSPost2010Prop38
140
0.0
102
RTVSPost2010PropOp38
 70
     1
102
RTVSPost2010Prop39
140
1.0
102
RTVSPost2010PropOp39
 70
     1
102
RTVSPost2010Prop40
 90
        0
102
RTVSPost2010PropOp40
 70
     1
102
RTVSPost2010Prop41ColorIndex
 90
       18
102
RTVSPost2010Prop41ColorRGB
 90
        0
102
RTVSPost2010PropOp41
 70
     1
102
RTVSPost2010Prop42
 90
       50
102
RTVSPost2010PropOp42
 70
     1
102
RTVSPost2010Prop43
 90
        3
102
RTVSPost2010PropOp43
 70
     1
102
RTVSPost2010Prop44ColorIndex
 90
        5
102
RTVSPost2010Prop44ColorRGB
 90
      255
102
RTVSPost2010PropOp44
 70
     1
102
RTVSPost2010Prop45
280
     0
102
RTVSPost2010PropOp45
 70
     1
102
RTVSPost2010Prop46
 90
       50
102
RTVSPost2010PropOp46
 70
     1
102
RTVSPost2010Prop47
 90
       50
102
RTVSPost2010PropOp47
 70
     1
102
RTVSPost2010Prop48
 90
       50
102
RTVSPost2010PropOp48
 70
     1
102
RTVSPost2010Prop49
280
     0
102
RTVSPost2010PropOp49
 70
     1
102
RTVSPost2010Prop50
 90
       50
102
RTVSPost2010PropOp50
 70
     1
102
RTVSPost2010Prop51ColorIndex
 90
      256
102
RTVSPost2010Prop51ColorRGB
 90
-16777216
102
RTVSPost2010PropOp51
 70
     0
102
RTVSPost2010Prop52
140
1.0
102
RTVSPost2010PropOp52
 70
     0
102
RTVSPost2010Prop53
 90
        2
102
RTVSPost2010PropOp53
 70
     1
102
RTVSPost2010Prop54
  1
strokes_ogs.tif
102
RTVSPost2010PropOp54
 70
     1
102
RTVSPost2010Prop55
280
     0
102
RTVSPost2010PropOp55
 70
     1
102
RTVSPost2010Prop56
140
1.0
102
RTVSPost2010PropOp56
 70
     1
102
RTVSPost2010Prop57
140
1.0
102
RTVSPost2010PropOp57
 70
     1
102
RTVSPropertyOp0
 70
     1
102
RTVSPropertyOp1
 70
     1
102
RTVSPropertyOp2
 70
     1
102
RTVSPropertyOp3
 70
     1
102
RTVSPropertyOp4
 70
     1
102
RTVSPropertyOp5
 70
     1
102
RTVSPropertyOp6
 70
     1
102
RTVSPropertyOp7
 70
     1
102
RTVSPropertyOp8
 70
     1
102
RTVSPropertyOp9
 70
     1
102
RTVSPropertyOp10
 70
     1
102
RTVSPropertyOp11
 70
     1
102
RTVSPropertyOp12
 70
     1
102
RTVSPropertyOp13
 70
     1
102
RTVSPropertyOp14
 70
     1
102
RTVSPropertyOp15
 70
     1
102
RTVSPropertyOp16
 70
     1
102
RTVSPropertyOp17
 70
     1
102
RTVSPropertyOp18
 70
     1
102
RTVSPropertyOp19
 70
     1
102
RTVSPropertyOp20
 70
     1
102
RTVSPropertyOp21
 70
     1
102
RTVSPropertyOp22
 70
     1
102
RTVSPropertyOp23
 70
     1
102
RTVSPropertyOp24
 70
     1
102
RTVSPropertyOp25
 70
     1
102
RTVSPropertyOp26
 70
     1
102
RTVSPropertyOp27
 70
     1
102
RTVSPropertyOp28
 70
     1
102
RTVSPropertyOp29
 70
     1
102
RTVSPropertyOp30
 70
     1
102
RTVSPropertyOp31
 70
     1
102
RTVSPropertyOp32
 70
     1
102
RTVSPropertyOp33
 70
     1
102
RTVSPropertyOp34
 70
     1
102
RTVSPropertyOp35
 70
     1
102
RTVSPropertyOp36
 70
     1
102
RTVSPropertyOp37
 70
     1
102
RTVSPropertyOp38
 70
     1
102
RTVSPropertyOp39
 70
     1
102
RTVSPropertyOp40
 70
     1
102
RTVSPropertyOp41
 70
     1
102
RTVSPropertyOp42
 70
     1
102
RTVSPropertyOp43
 70
     1
102
RTVSPropertyOp44
 70
     1
102
RTVSPropertyOp45
 70
     1
102
RTVSPropertyOp46
 70
     1
102
RTVSPropertyOp47
 70
     1
102
RTVSPropertyOp48
 70
     1
102
RTVSPropertyOp49
 70
     1
102
RTVSPropertyOp50
 70
     1
102
RTVSPropertyOp51
 70
     0
102
RTVSPropertyOp52
 70
     0
102
RTVSPropertyOp53
 70
     1
102
RTVSPropertyOp54
 70
     1
102
RTVSPropertyOp55
 70
     1
102
RTVSPropertyOp56
 70
     1
102
RTVSPropertyOp57
 70
     1
102
RTVSPropertyOp58
 70
     1
102
RTVSPropertyOp59
 70
     1
102
RTVSPropertyOp60
 70
     1
102
RTVSPropertyOp61
 70
     1
102
RTVSPropertyOp62
 70
     1
  0
XRECORD
  5
4A4
102
{ACAD_REACTORS
330
4A3
102
}
330
4A3
100
AcDbXrecord
280
     1
102
RTVSPost2010Prop28
280
     0
102
RTVSPost2010PropOp28
 70
     1
102
RTVSPost2010Prop29
280
     1
102
RTVSPost2010PropOp29
 70
     1
102
RTVSPost2010Prop30
280
     1
102
RTVSPost2010PropOp30
 70
     1
102
RTVSPost2010Prop31
280
     0
102
RTVSPost2010PropOp31
 70
     1
102
RTVSPost2010Prop32
280
     0
102
RTVSPost2010PropOp32
 70
     1
102
RTVSPost2010Prop33
280
     0
102
RTVSPost2010PropOp33
 70
     1
102
RTVSPost2010Prop34
280
     0
102
RTVSPost2010PropOp34
 70
     1
102
RTVSPost2010Prop35
280
     0
102
RTVSPost2010PropOp35
 70
     1
102
RTVSPost2010Prop36
280
     0
102
RTVSPost2010PropOp36
 70
     1
102
RTVSPost2010Prop37
 90
       50
102
RTVSPost2010PropOp37
 70
     1
102
RTVSPost2010Prop38
140
0.0
102
RTVSPost2010PropOp38
 70
     1
102
RTVSPost2010Prop39
140
1.0
102
RTVSPost2010PropOp39
 70
     1
102
RTVSPost2010Prop40
 90
        0
102
RTVSPost2010PropOp40
 70
     1
102
RTVSPost2010Prop41ColorIndex
 90
       18
102
RTVSPost2010Prop41ColorRGB
 90
        0
102
RTVSPost2010PropOp41
 70
     1
102
RTVSPost2010Prop42
 90
       50
102
RTVSPost2010PropOp42
 70
     1
102
RTVSPost2010Prop43
 90
        3
102
RTVSPost2010PropOp43
 70
     1
102
RTVSPost2010Prop44ColorIndex
 90
        5
102
RTVSPost2010Prop44ColorRGB
 90
      255
102
RTVSPost2010PropOp44
 70
     1
102
RTVSPost2010Prop45
280
     0
102
RTVSPost2010PropOp45
 70
     1
102
RTVSPost2010Prop46
 90
       50
102
RTVSPost2010PropOp46
 70
     1
102
RTVSPost2010Prop47
 90
       50
102
RTVSPost2010PropOp47
 70
     1
102
RTVSPost2010Prop48
 90
       50
102
RTVSPost2010PropOp48
 70
     1
102
RTVSPost2010Prop49
280
     0
102
RTVSPost2010PropOp49
 70
     1
102
RTVSPost2010Prop50
 90
       50
102
RTVSPost2010PropOp50
 70
     1
102
RTVSPost2010Prop51ColorIndex
 90
      256
102
RTVSPost2010Prop51ColorRGB
 90
-16777216
102
RTVSPost2010PropOp51
 70
     0
102
RTVSPost2010Prop52
140
1.0
102
RTVSPost2010PropOp52
 70
     0
102
RTVSPost2010Prop53
 90
        2
102
RTVSPost2010PropOp53
 70
     1
102
RTVSPost2010Prop54
  1
strokes_ogs.tif
102
RTVSPost2010PropOp54
 70
     1
102
RTVSPost2010Prop55
280
     0
102
RTVSPost2010PropOp55
 70
     1
102
RTVSPost2010Prop56
140
1.0
102
RTVSPost2010PropOp56
 70
     1
102
RTVSPost2010Prop57
140
1.0
102
RTVSPost2010PropOp57
 70
     1
102
RTVSPropertyOp0
 70
     1
102
RTVSPropertyOp1
 70
     1
102
RTVSPropertyOp2
 70
     1
102
RTVSPropertyOp3
 70
     1
102
RTVSPropertyOp4
 70
     1
102
RTVSPropertyOp5
 70
     1
102
RTVSPropertyOp6
 70
     1
102
RTVSPropertyOp7
 70
     1
102
RTVSPropertyOp8
 70
     1
102
RTVSPropertyOp9
 70
     1
102
RTVSPropertyOp10
 70
     1
102
RTVSPropertyOp11
 70
     1
102
RTVSPropertyOp12
 70
     1
102
RTVSPropertyOp13
 70
     1
102
RTVSPropertyOp14
 70
     1
102
RTVSPropertyOp15
 70
     1
102
RTVSPropertyOp16
 70
     1
102
RTVSPropertyOp17
 70
     1
102
RTVSPropertyOp18
 70
     1
102
RTVSPropertyOp19
 70
     1
102
RTVSPropertyOp20
 70
     1
102
RTVSPropertyOp21
 70
     1
102
RTVSPropertyOp22
 70
     1
102
RTVSPropertyOp23
 70
     1
102
RTVSPropertyOp24
 70
     1
102
RTVSPropertyOp25
 70
     1
102
RTVSPropertyOp26
 70
     1
102
RTVSPropertyOp27
 70
     1
102
RTVSPropertyOp28
 70
     1
102
RTVSPropertyOp29
 70
     1
102
RTVSPropertyOp30
 70
     1
102
RTVSPropertyOp31
 70
     1
102
RTVSPropertyOp32
 70
     1
102
RTVSPropertyOp33
 70
     1
102
RTVSPropertyOp34
 70
     1
102
RTVSPropertyOp35
 70
     1
102
RTVSPropertyOp36
 70
     1
102
RTVSPropertyOp37
 70
     1
102
RTVSPropertyOp38
 70
     1
102
RTVSPropertyOp39
 70
     1
102
RTVSPropertyOp40
 70
     1
102
RTVSPropertyOp41
 70
     1
102
RTVSPropertyOp42
 70
     1
102
RTVSPropertyOp43
 70
     1
102
RTVSPropertyOp44
 70
     1
102
RTVSPropertyOp45
 70
     1
102
RTVSPropertyOp46
 70
     1
102
RTVSPropertyOp47
 70
     1
102
RTVSPropertyOp48
 70
     1
102
RTVSPropertyOp49
 70
     1
102
RTVSPropertyOp50
 70
     1
102
RTVSPropertyOp51
 70
     0
102
RTVSPropertyOp52
 70
     0
102
RTVSPropertyOp53
 70
     1
102
RTVSPropertyOp54
 70
     1
102
RTVSPropertyOp55
 70
     1
102
RTVSPropertyOp56
 70
     1
102
RTVSPropertyOp57
 70
     1
102
RTVSPropertyOp58
 70
     1
102
RTVSPropertyOp59
 70
     1
102
RTVSPropertyOp60
 70
     1
102
RTVSPropertyOp61
 70
     1
102
RTVSPropertyOp62
 70
     1
  0
XRECORD
  5
4C0
102
{ACAD_REACTORS
330
4BF
102
}
330
4BF
100
AcDbXrecord
280
     1
102
RTVSPost2010Prop28
280
     0
102
RTVSPost2010PropOp28
 70
     1
102
RTVSPost2010Prop29
280
     1
102
RTVSPost2010PropOp29
 70
     1
102
RTVSPost2010Prop30
280
     1
102
RTVSPost2010PropOp30
 70
     1
102
RTVSPost2010Prop31
280
     0
102
RTVSPost2010PropOp31
 70
     1
102
RTVSPost2010Prop32
280
     0
102
RTVSPost2010PropOp32
 70
     1
102
RTVSPost2010Prop33
280
     0
102
RTVSPost2010PropOp33
 70
     1
102
RTVSPost2010Prop34
280
     0
102
RTVSPost2010PropOp34
 70
     1
102
RTVSPost2010Prop35
280
     0
102
RTVSPost2010PropOp35
 70
     1
102
RTVSPost2010Prop36
280
     0
102
RTVSPost2010PropOp36
 70
     1
102
RTVSPost2010Prop37
 90
       50
102
RTVSPost2010PropOp37
 70
     0
102
RTVSPost2010Prop38
140
0.0
102
RTVSPost2010PropOp38
 70
     0
102
RTVSPost2010Prop39
140
1.0
102
RTVSPost2010PropOp39
 70
     0
102
RTVSPost2010Prop40
 90
        0
102
RTVSPost2010PropOp40
 70
     0
102
RTVSPost2010Prop41ColorIndex
 90
       18
102
RTVSPost2010Prop41ColorRGB
 90
        0
102
RTVSPost2010PropOp41
 70
     0
102
RTVSPost2010Prop42
 90
       50
102
RTVSPost2010PropOp42
 70
     0
102
RTVSPost2010Prop43
 90
        3
102
RTVSPost2010PropOp43
 70
     0
102
RTVSPost2010Prop44ColorIndex
 90
        5
102
RTVSPost2010Prop44ColorRGB
 90
      255
102
RTVSPost2010PropOp44
 70
     0
102
RTVSPost2010Prop45
280
     0
102
RTVSPost2010PropOp45
 70
     1
102
RTVSPost2010Prop46
 90
       50
102
RTVSPost2010PropOp46
 70
     0
102
RTVSPost2010Prop47
 90
       50
102
RTVSPost2010PropOp47
 70
     0
102
RTVSPost2010Prop48
 90
       50
102
RTVSPost2010PropOp48
 70
     0
102
RTVSPost2010Prop49
280
     0
102
RTVSPost2010PropOp49
 70
     1
102
RTVSPost2010Prop50
 90
       50
102
RTVSPost2010PropOp50
 70
     0
102
RTVSPost2010Prop51ColorIndex
 90
      256
102
RTVSPost2010Prop51ColorRGB
 90
-16777216
102
RTVSPost2010PropOp51
 70
     0
102
RTVSPost2010Prop52
140
1.0
102
RTVSPost2010PropOp52
 70
     0
102
RTVSPost2010Prop53
 90
        2
102
RTVSPost2010PropOp53
 70
     0
102
RTVSPost2010Prop54
  1
strokes_ogs.tif
102
RTVSPost2010PropOp54
 70
     0
102
RTVSPost2010Prop55
280
     0
102
RTVSPost2010PropOp55
 70
     1
102
RTVSPost2010Prop56
140
1.0
102
RTVSPost2010PropOp56
 70
     0
102
RTVSPost2010Prop57
140
1.0
102
RTVSPost2010PropOp57
 70
     0
102
RTVSPropertyOp0
 70
     0
102
RTVSPropertyOp1
 70
     0
102
RTVSPropertyOp2
 70
     0
102
RTVSPropertyOp3
 70
     0
102
RTVSPropertyOp4
 70
     0
102
RTVSPropertyOp5
 70
     0
102
RTVSPropertyOp6
 70
     0
102
RTVSPropertyOp7
 70
     0
102
RTVSPropertyOp8
 70
     0
102
RTVSPropertyOp9
 70
     0
102
RTVSPropertyOp10
 70
     0
102
RTVSPropertyOp11
 70
     0
102
RTVSPropertyOp12
 70
     0
102
RTVSPropertyOp13
 70
     0
102
RTVSPropertyOp14
 70
     2
102
RTVSPropertyOp15
 70
     0
102
RTVSPropertyOp16
 70
     0
102
RTVSPropertyOp17
 70
     0
102
RTVSPropertyOp18
 70
     0
102
RTVSPropertyOp19
 70
     0
102
RTVSPropertyOp20
 70
     0
102
RTVSPropertyOp21
 70
     0
102
RTVSPropertyOp22
 70
     0
102
RTVSPropertyOp23
 70
     0
102
RTVSPropertyOp24
 70
     0
102
RTVSPropertyOp25
 70
     0
102
RTVSPropertyOp26
 70
     0
102
RTVSPropertyOp27
 70
     0
102
RTVSPropertyOp28
 70
     1
102
RTVSPropertyOp29
 70
     1
102
RTVSPropertyOp30
 70
     1
102
RTVSPropertyOp31
 70
     1
102
RTVSPropertyOp32
 70
     1
102
RTVSPropertyOp33
 70
     1
102
RTVSPropertyOp34
 70
     1
102
RTVSPropertyOp35
 70
     1
102
RTVSPropertyOp36
 70
     1
102
RTVSPropertyOp37
 70
     0
102
RTVSPropertyOp38
 70
     0
102
RTVSPropertyOp39
 70
     0
102
RTVSPropertyOp40
 70
     0
102
RTVSPropertyOp41
 70
     0
102
RTVSPropertyOp42
 70
     0
102
RTVSPropertyOp43
 70
     0
102
RTVSPropertyOp44
 70
     0
102
RTVSPropertyOp45
 70
     1
102
RTVSPropertyOp46
 70
     0
102
RTVSPropertyOp47
 70
     0
102
RTVSPropertyOp48
 70
     0
102
RTVSPropertyOp49
 70
     1
102
RTVSPropertyOp50
 70
     0
102
RTVSPropertyOp51
 70
     0
102
RTVSPropertyOp52
 70
     0
102
RTVSPropertyOp53
 70
     0
102
RTVSPropertyOp54
 70
     0
102
RTVSPropertyOp55
 70
     1
102
RTVSPropertyOp56
 70
     0
102
RTVSPropertyOp57
 70
     0
102
RTVSPropertyOp58
 70
     0
102
RTVSPropertyOp59
 70
     0
102
RTVSPropertyOp60
 70
     0
102
RTVSPropertyOp61
 70
     0
102
RTVSPropertyOp62
 70
     0
  0
XRECORD
  5
4B0
102
{ACAD_REACTORS
330
4AF
102
}
330
4AF
100
AcDbXrecord
280
     1
102
RTVSPost2010Prop28
280
     0
102
RTVSPost2010PropOp28
 70
     1
102
RTVSPost2010Prop29
280
     1
102
RTVSPost2010PropOp29
 70
     1
102
RTVSPost2010Prop30
280
     1
102
RTVSPost2010PropOp30
 70
     1
102
RTVSPost2010Prop31
280
     0
102
RTVSPost2010PropOp31
 70
     1
102
RTVSPost2010Prop32
280
     0
102
RTVSPost2010PropOp32
 70
     1
102
RTVSPost2010Prop33
280
     0
102
RTVSPost2010PropOp33
 70
     1
102
RTVSPost2010Prop34
280
     0
102
RTVSPost2010PropOp34
 70
     1
102
RTVSPost2010Prop35
280
     0
102
RTVSPost2010PropOp35
 70
     1
102
RTVSPost2010Prop36
280
     0
102
RTVSPost2010PropOp36
 70
     1
102
RTVSPost2010Prop37
 90
       50
102
RTVSPost2010PropOp37
 70
     1
102
RTVSPost2010Prop38
140
0.0
102
RTVSPost2010PropOp38
 70
     1
102
RTVSPost2010Prop39
140
1.0
102
RTVSPost2010PropOp39
 70
     1
102
RTVSPost2010Prop40
 90
        0
102
RTVSPost2010PropOp40
 70
     1
102
RTVSPost2010Prop41ColorIndex
 90
       18
102
RTVSPost2010Prop41ColorRGB
 90
        0
102
RTVSPost2010PropOp41
 70
     1
102
RTVSPost2010Prop42
 90
       50
102
RTVSPost2010PropOp42
 70
     1
102
RTVSPost2010Prop43
 90
        3
102
RTVSPost2010PropOp43
 70
     1
102
RTVSPost2010Prop44ColorIndex
 90
        5
102
RTVSPost2010Prop44ColorRGB
 90
      255
102
RTVSPost2010PropOp44
 70
     1
102
RTVSPost2010Prop45
280
     0
102
RTVSPost2010PropOp45
 70
     1
102
RTVSPost2010Prop46
 90
       50
102
RTVSPost2010PropOp46
 70
     1
102
RTVSPost2010Prop47
 90
       50
102
RTVSPost2010PropOp47
 70
     1
102
RTVSPost2010Prop48
 90
       50
102
RTVSPost2010PropOp48
 70
     1
102
RTVSPost2010Prop49
280
     0
102
RTVSPost2010PropOp49
 70
     1
102
RTVSPost2010Prop50
 90
       50
102
RTVSPost2010PropOp50
 70
     1
102
RTVSPost2010Prop51ColorIndex
 90
      256
102
RTVSPost2010Prop51ColorRGB
 90
-16777216
102
RTVSPost2010PropOp51
 70
     0
102
RTVSPost2010Prop52
140
1.0
102
RTVSPost2010PropOp52
 70
     0
102
RTVSPost2010Prop53
 90
        2
102
RTVSPost2010PropOp53
 70
     1
102
RTVSPost2010Prop54
  1
strokes_ogs.tif
102
RTVSPost2010PropOp54
 70
     1
102
RTVSPost2010Prop55
280
     0
102
RTVSPost2010PropOp55
 70
     1
102
RTVSPost2010Prop56
140
1.0
102
RTVSPost2010PropOp56
 70
     1
102
RTVSPost2010Prop57
140
1.0
102
RTVSPost2010PropOp57
 70
     1
102
RTVSPropertyOp0
 70
     1
102
RTVSPropertyOp1
 70
     1
102
RTVSPropertyOp2
 70
     1
102
RTVSPropertyOp3
 70
     1
102
RTVSPropertyOp4
 70
     1
102
RTVSPropertyOp5
 70
     1
102
RTVSPropertyOp6
 70
     1
102
RTVSPropertyOp7
 70
     1
102
RTVSPropertyOp8
 70
     1
102
RTVSPropertyOp9
 70
     1
102
RTVSPropertyOp10
 70
     1
102
RTVSPropertyOp11
 70
     1
102
RTVSPropertyOp12
 70
     1
102
RTVSPropertyOp13
 70
     1
102
RTVSPropertyOp14
 70
     1
102
RTVSPropertyOp15
 70
     1
102
RTVSPropertyOp16
 70
     1
102
RTVSPropertyOp17
 70
     1
102
RTVSPropertyOp18
 70
     1
102
RTVSPropertyOp19
 70
     1
102
RTVSPropertyOp20
 70
     1
102
RTVSPropertyOp21
 70
     1
102
RTVSPropertyOp22
 70
     1
102
RTVSPropertyOp23
 70
     1
102
RTVSPropertyOp24
 70
     1
102
RTVSPropertyOp25
 70
     1
102
RTVSPropertyOp26
 70
     1
102
RTVSPropertyOp27
 70
     1
102
RTVSPropertyOp28
 70
     1
102
RTVSPropertyOp29
 70
     1
102
RTVSPropertyOp30
 70
     1
102
RTVSPropertyOp31
 70
     1
102
RTVSPropertyOp32
 70
     1
102
RTVSPropertyOp33
 70
     1
102
RTVSPropertyOp34
 70
     1
102
RTVSPropertyOp35
 70
     1
102
RTVSPropertyOp36
 70
     1
102
RTVSPropertyOp37
 70
     1
102
RTVSPropertyOp38
 70
     1
102
RTVSPropertyOp39
 70
     1
102
RTVSPropertyOp40
 70
     1
102
RTVSPropertyOp41
 70
     1
102
RTVSPropertyOp42
 70
     1
102
RTVSPropertyOp43
 70
     1
102
RTVSPropertyOp44
 70
     1
102
RTVSPropertyOp45
 70
     1
102
RTVSPropertyOp46
 70
     1
102
RTVSPropertyOp47
 70
     1
102
RTVSPropertyOp48
 70
     1
102
RTVSPropertyOp49
 70
     1
102
RTVSPropertyOp50
 70
     1
102
RTVSPropertyOp51
 70
     0
102
RTVSPropertyOp52
 70
     0
102
RTVSPropertyOp53
 70
     1
102
RTVSPropertyOp54
 70
     1
102
RTVSPropertyOp55
 70
     1
102
RTVSPropertyOp56
 70
     1
102
RTVSPropertyOp57
 70
     1
102
RTVSPropertyOp58
 70
     1
102
RTVSPropertyOp59
 70
     1
102
RTVSPropertyOp60
 70
     1
102
RTVSPropertyOp61
 70
     1
102
RTVSPropertyOp62
 70
     1
  0
XRECORD
  5
4C2
102
{ACAD_REACTORS
330
4C1
102
}
330
4C1
100
AcDbXrecord
280
     1
102
RTVSPost2010Prop28
280
     0
102
RTVSPost2010PropOp28
 70
     1
102
RTVSPost2010Prop29
280
     1
102
RTVSPost2010PropOp29
 70
     1
102
RTVSPost2010Prop30
280
     1
102
RTVSPost2010PropOp30
 70
     1
102
RTVSPost2010Prop31
280
     0
102
RTVSPost2010PropOp31
 70
     1
102
RTVSPost2010Prop32
280
     0
102
RTVSPost2010PropOp32
 70
     1
102
RTVSPost2010Prop33
280
     0
102
RTVSPost2010PropOp33
 70
     1
102
RTVSPost2010Prop34
280
     0
102
RTVSPost2010PropOp34
 70
     1
102
RTVSPost2010Prop35
280
     0
102
RTVSPost2010PropOp35
 70
     1
102
RTVSPost2010Prop36
280
     0
102
RTVSPost2010PropOp36
 70
     1
102
RTVSPost2010Prop37
 90
       50
102
RTVSPost2010PropOp37
 70
     0
102
RTVSPost2010Prop38
140
0.0
102
RTVSPost2010PropOp38
 70
     0
102
RTVSPost2010Prop39
140
1.0
102
RTVSPost2010PropOp39
 70
     0
102
RTVSPost2010Prop40
 90
        0
102
RTVSPost2010PropOp40
 70
     0
102
RTVSPost2010Prop41ColorIndex
 90
       18
102
RTVSPost2010Prop41ColorRGB
 90
        0
102
RTVSPost2010PropOp41
 70
     0
102
RTVSPost2010Prop42
 90
       50
102
RTVSPost2010PropOp42
 70
     0
102
RTVSPost2010Prop43
 90
        3
102
RTVSPost2010PropOp43
 70
     0
102
RTVSPost2010Prop44ColorIndex
 90
        5
102
RTVSPost2010Prop44ColorRGB
 90
      255
102
RTVSPost2010PropOp44
 70
     0
102
RTVSPost2010Prop45
280
     0
102
RTVSPost2010PropOp45
 70
     1
102
RTVSPost2010Prop46
 90
       50
102
RTVSPost2010PropOp46
 70
     0
102
RTVSPost2010Prop47
 90
       50
102
RTVSPost2010PropOp47
 70
     0
102
RTVSPost2010Prop48
 90
       50
102
RTVSPost2010PropOp48
 70
     0
102
RTVSPost2010Prop49
280
     0
102
RTVSPost2010PropOp49
 70
     1
102
RTVSPost2010Prop50
 90
       50
102
RTVSPost2010PropOp50
 70
     0
102
RTVSPost2010Prop51ColorIndex
 90
      256
102
RTVSPost2010Prop51ColorRGB
 90
-16777216
102
RTVSPost2010PropOp51
 70
     0
102
RTVSPost2010Prop52
140
1.0
102
RTVSPost2010PropOp52
 70
     0
102
RTVSPost2010Prop53
 90
        2
102
RTVSPost2010PropOp53
 70
     0
102
RTVSPost2010Prop54
  1
strokes_ogs.tif
102
RTVSPost2010PropOp54
 70
     0
102
RTVSPost2010Prop55
280
     0
102
RTVSPost2010PropOp55
 70
     1
102
RTVSPost2010Prop56
140
1.0
102
RTVSPost2010PropOp56
 70
     0
102
RTVSPost2010Prop57
140
1.0
102
RTVSPost2010PropOp57
 70
     0
102
RTVSPropertyOp0
 70
     0
102
RTVSPropertyOp1
 70
     0
102
RTVSPropertyOp2
 70
     0
102
RTVSPropertyOp3
 70
     0
102
RTVSPropertyOp4
 70
     0
102
RTVSPropertyOp5
 70
     0
102
RTVSPropertyOp6
 70
     0
102
RTVSPropertyOp7
 70
     0
102
RTVSPropertyOp8
 70
     0
102
RTVSPropertyOp9
 70
     0
102
RTVSPropertyOp10
 70
     0
102
RTVSPropertyOp11
 70
     0
102
RTVSPropertyOp12
 70
     0
102
RTVSPropertyOp13
 70
     0
102
RTVSPropertyOp14
 70
     2
102
RTVSPropertyOp15
 70
     0
102
RTVSPropertyOp16
 70
     0
102
RTVSPropertyOp17
 70
     0
102
RTVSPropertyOp18
 70
     0
102
RTVSPropertyOp19
 70
     0
102
RTVSPropertyOp20
 70
     0
102
RTVSPropertyOp21
 70
     0
102
RTVSPropertyOp22
 70
     0
102
RTVSPropertyOp23
 70
     0
102
RTVSPropertyOp24
 70
     0
102
RTVSPropertyOp25
 70
     0
102
RTVSPropertyOp26
 70
     0
102
RTVSPropertyOp27
 70
     0
102
RTVSPropertyOp28
 70
     1
102
RTVSPropertyOp29
 70
     1
102
RTVSPropertyOp30
 70
     1
102
RTVSPropertyOp31
 70
     1
102
RTVSPropertyOp32
 70
     1
102
RTVSPropertyOp33
 70
     1
102
RTVSPropertyOp34
 70
     1
102
RTVSPropertyOp35
 70
     1
102
RTVSPropertyOp36
 70
     1
102
RTVSPropertyOp37
 70
     0
102
RTVSPropertyOp38
 70
     0
102
RTVSPropertyOp39
 70
     0
102
RTVSPropertyOp40
 70
     0
102
RTVSPropertyOp41
 70
     0
102
RTVSPropertyOp42
 70
     0
102
RTVSPropertyOp43
 70
     0
102
RTVSPropertyOp44
 70
     0
102
RTVSPropertyOp45
 70
     1
102
RTVSPropertyOp46
 70
     0
102
RTVSPropertyOp47
 70
     0
102
RTVSPropertyOp48
 70
     0
102
RTVSPropertyOp49
 70
     1
102
RTVSPropertyOp50
 70
     0
102
RTVSPropertyOp51
 70
     0
102
RTVSPropertyOp52
 70
     0
102
RTVSPropertyOp53
 70
     0
102
RTVSPropertyOp54
 70
     0
102
RTVSPropertyOp55
 70
     1
102
RTVSPropertyOp56
 70
     0
102
RTVSPropertyOp57
 70
     0
102
RTVSPropertyOp58
 70
     0
102
RTVSPropertyOp59
 70
     0
102
RTVSPropertyOp60
 70
     0
102
RTVSPropertyOp61
 70
     0
102
RTVSPropertyOp62
 70
     0
  0
XRECORD
  5
4A8
102
{ACAD_REACTORS
330
4A7
102
}
330
4A7
100
AcDbXrecord
280
     1
102
RTVSPost2010Prop28
280
     0
102
RTVSPost2010PropOp28
 70
     1
102
RTVSPost2010Prop29
280
     1
102
RTVSPost2010PropOp29
 70
     1
102
RTVSPost2010Prop30
280
     1
102
RTVSPost2010PropOp30
 70
     1
102
RTVSPost2010Prop31
280
     0
102
RTVSPost2010PropOp31
 70
     1
102
RTVSPost2010Prop32
280
     0
102
RTVSPost2010PropOp32
 70
     1
102
RTVSPost2010Prop33
280
     0
102
RTVSPost2010PropOp33
 70
     1
102
RTVSPost2010Prop34
280
     0
102
RTVSPost2010PropOp34
 70
     1
102
RTVSPost2010Prop35
280
     0
102
RTVSPost2010PropOp35
 70
     1
102
RTVSPost2010Prop36
280
     0
102
RTVSPost2010PropOp36
 70
     1
102
RTVSPost2010Prop37
 90
       50
102
RTVSPost2010PropOp37
 70
     1
102
RTVSPost2010Prop38
140
0.0
102
RTVSPost2010PropOp38
 70
     1
102
RTVSPost2010Prop39
140
1.0
102
RTVSPost2010PropOp39
 70
     1
102
RTVSPost2010Prop40
 90
        0
102
RTVSPost2010PropOp40
 70
     1
102
RTVSPost2010Prop41ColorIndex
 90
       18
102
RTVSPost2010Prop41ColorRGB
 90
        0
102
RTVSPost2010PropOp41
 70
     1
102
RTVSPost2010Prop42
 90
       50
102
RTVSPost2010PropOp42
 70
     1
102
RTVSPost2010Prop43
 90
        3
102
RTVSPost2010PropOp43
 70
     1
102
RTVSPost2010Prop44ColorIndex
 90
        5
102
RTVSPost2010Prop44ColorRGB
 90
      255
102
RTVSPost2010PropOp44
 70
     1
102
RTVSPost2010Prop45
280
     0
102
RTVSPost2010PropOp45
 70
     1
102
RTVSPost2010Prop46
 90
       50
102
RTVSPost2010PropOp46
 70
     1
102
RTVSPost2010Prop47
 90
       50
102
RTVSPost2010PropOp47
 70
     1
102
RTVSPost2010Prop48
 90
       50
102
RTVSPost2010PropOp48
 70
     1
102
RTVSPost2010Prop49
280
     0
102
RTVSPost2010PropOp49
 70
     1
102
RTVSPost2010Prop50
 90
       50
102
RTVSPost2010PropOp50
 70
     1
102
RTVSPost2010Prop51ColorIndex
 90
      256
102
RTVSPost2010Prop51ColorRGB
 90
-16777216
102
RTVSPost2010PropOp51
 70
     0
102
RTVSPost2010Prop52
140
1.0
102
RTVSPost2010PropOp52
 70
     0
102
RTVSPost2010Prop53
 90
        2
102
RTVSPost2010PropOp53
 70
     1
102
RTVSPost2010Prop54
  1
strokes_ogs.tif
102
RTVSPost2010PropOp54
 70
     1
102
RTVSPost2010Prop55
280
     0
102
RTVSPost2010PropOp55
 70
     1
102
RTVSPost2010Prop56
140
1.0
102
RTVSPost2010PropOp56
 70
     1
102
RTVSPost2010Prop57
140
1.0
102
RTVSPost2010PropOp57
 70
     1
102
RTVSPropertyOp0
 70
     1
102
RTVSPropertyOp1
 70
     1
102
RTVSPropertyOp2
 70
     1
102
RTVSPropertyOp3
 70
     1
102
RTVSPropertyOp4
 70
     1
102
RTVSPropertyOp5
 70
     1
102
RTVSPropertyOp6
 70
     1
102
RTVSPropertyOp7
 70
     1
102
RTVSPropertyOp8
 70
     1
102
RTVSPropertyOp9
 70
     1
102
RTVSPropertyOp10
 70
     1
102
RTVSPropertyOp11
 70
     1
102
RTVSPropertyOp12
 70
     1
102
RTVSPropertyOp13
 70
     1
102
RTVSPropertyOp14
 70
     1
102
RTVSPropertyOp15
 70
     1
102
RTVSPropertyOp16
 70
     1
102
RTVSPropertyOp17
 70
     1
102
RTVSPropertyOp18
 70
     1
102
RTVSPropertyOp19
 70
     1
102
RTVSPropertyOp20
 70
     1
102
RTVSPropertyOp21
 70
     1
102
RTVSPropertyOp22
 70
     1
102
RTVSPropertyOp23
 70
     1
102
RTVSPropertyOp24
 70
     1
102
RTVSPropertyOp25
 70
     1
102
RTVSPropertyOp26
 70
     1
102
RTVSPropertyOp27
 70
     1
102
RTVSPropertyOp28
 70
     1
102
RTVSPropertyOp29
 70
     1
102
RTVSPropertyOp30
 70
     1
102
RTVSPropertyOp31
 70
     1
102
RTVSPropertyOp32
 70
     1
102
RTVSPropertyOp33
 70
     1
102
RTVSPropertyOp34
 70
     1
102
RTVSPropertyOp35
 70
     1
102
RTVSPropertyOp36
 70
     1
102
RTVSPropertyOp37
 70
     1
102
RTVSPropertyOp38
 70
     1
102
RTVSPropertyOp39
 70
     1
102
RTVSPropertyOp40
 70
     1
102
RTVSPropertyOp41
 70
     1
102
RTVSPropertyOp42
 70
     1
102
RTVSPropertyOp43
 70
     1
102
RTVSPropertyOp44
 70
     1
102
RTVSPropertyOp45
 70
     1
102
RTVSPropertyOp46
 70
     1
102
RTVSPropertyOp47
 70
     1
102
RTVSPropertyOp48
 70
     1
102
RTVSPropertyOp49
 70
     1
102
RTVSPropertyOp50
 70
     1
102
RTVSPropertyOp51
 70
     0
102
RTVSPropertyOp52
 70
     0
102
RTVSPropertyOp53
 70
     1
102
RTVSPropertyOp54
 70
     1
102
RTVSPropertyOp55
 70
     1
102
RTVSPropertyOp56
 70
     1
102
RTVSPropertyOp57
 70
     1
102
RTVSPropertyOp58
 70
     1
102
RTVSPropertyOp59
 70
     1
102
RTVSPropertyOp60
 70
     1
102
RTVSPropertyOp61
 70
     1
102
RTVSPropertyOp62
 70
     1
  0
XRECORD
  5
4BE
102
{ACAD_REACTORS
330
4BD
102
}
330
4BD
100
AcDbXrecord
280
     1
102
RTVSPost2010Prop28
280
     0
102
RTVSPost2010PropOp28
 70
     1
102
RTVSPost2010Prop29
280
     1
102
RTVSPost2010PropOp29
 70
     1
102
RTVSPost2010Prop30
280
     1
102
RTVSPost2010PropOp30
 70
     1
102
RTVSPost2010Prop31
280
     0
102
RTVSPost2010PropOp31
 70
     1
102
RTVSPost2010Prop32
280
     0
102
RTVSPost2010PropOp32
 70
     1
102
RTVSPost2010Prop33
280
     0
102
RTVSPost2010PropOp33
 70
     1
102
RTVSPost2010Prop34
280
     0
102
RTVSPost2010PropOp34
 70
     1
102
RTVSPost2010Prop35
280
     0
102
RTVSPost2010PropOp35
 70
     1
102
RTVSPost2010Prop36
280
     0
102
RTVSPost2010PropOp36
 70
     1
102
RTVSPost2010Prop37
 90
       50
102
RTVSPost2010PropOp37
 70
     1
102
RTVSPost2010Prop38
140
0.0
102
RTVSPost2010PropOp38
 70
     1
102
RTVSPost2010Prop39
140
1.0
102
RTVSPost2010PropOp39
 70
     1
102
RTVSPost2010Prop40
 90
        0
102
RTVSPost2010PropOp40
 70
     1
102
RTVSPost2010Prop41ColorIndex
 90
       18
102
RTVSPost2010Prop41ColorRGB
 90
        0
102
RTVSPost2010PropOp41
 70
     1
102
RTVSPost2010Prop42
 90
       50
102
RTVSPost2010PropOp42
 70
     1
102
RTVSPost2010Prop43
 90
        3
102
RTVSPost2010PropOp43
 70
     1
102
RTVSPost2010Prop44ColorIndex
 90
        5
102
RTVSPost2010Prop44ColorRGB
 90
      255
102
RTVSPost2010PropOp44
 70
     1
102
RTVSPost2010Prop45
280
     0
102
RTVSPost2010PropOp45
 70
     1
102
RTVSPost2010Prop46
 90
       50
102
RTVSPost2010PropOp46
 70
     1
102
RTVSPost2010Prop47
 90
       50
102
RTVSPost2010PropOp47
 70
     1
102
RTVSPost2010Prop48
 90
       50
102
RTVSPost2010PropOp48
 70
     1
102
RTVSPost2010Prop49
280
     0
102
RTVSPost2010PropOp49
 70
     1
102
RTVSPost2010Prop50
 90
       50
102
RTVSPost2010PropOp50
 70
     1
102
RTVSPost2010Prop51ColorIndex
 90
      256
102
RTVSPost2010Prop51ColorRGB
 90
-16777216
102
RTVSPost2010PropOp51
 70
     0
102
RTVSPost2010Prop52
140
1.0
102
RTVSPost2010PropOp52
 70
     0
102
RTVSPost2010Prop53
 90
        2
102
RTVSPost2010PropOp53
 70
     1
102
RTVSPost2010Prop54
  1
strokes_ogs.tif
102
RTVSPost2010PropOp54
 70
     1
102
RTVSPost2010Prop55
280
     0
102
RTVSPost2010PropOp55
 70
     1
102
RTVSPost2010Prop56
140
1.0
102
RTVSPost2010PropOp56
 70
     1
102
RTVSPost2010Prop57
140
1.0
102
RTVSPost2010PropOp57
 70
     1
102
RTVSPropertyOp0
 70
     1
102
RTVSPropertyOp1
 70
     1
102
RTVSPropertyOp2
 70
     1
102
RTVSPropertyOp3
 70
     1
102
RTVSPropertyOp4
 70
     1
102
RTVSPropertyOp5
 70
     1
102
RTVSPropertyOp6
 70
     1
102
RTVSPropertyOp7
 70
     1
102
RTVSPropertyOp8
 70
     1
102
RTVSPropertyOp9
 70
     1
102
RTVSPropertyOp10
 70
     1
102
RTVSPropertyOp11
 70
     1
102
RTVSPropertyOp12
 70
     1
102
RTVSPropertyOp13
 70
     1
102
RTVSPropertyOp14
 70
     1
102
RTVSPropertyOp15
 70
     1
102
RTVSPropertyOp16
 70
     1
102
RTVSPropertyOp17
 70
     1
102
RTVSPropertyOp18
 70
     1
102
RTVSPropertyOp19
 70
     1
102
RTVSPropertyOp20
 70
     1
102
RTVSPropertyOp21
 70
     1
102
RTVSPropertyOp22
 70
     1
102
RTVSPropertyOp23
 70
     1
102
RTVSPropertyOp24
 70
     1
102
RTVSPropertyOp25
 70
     1
102
RTVSPropertyOp26
 70
     1
102
RTVSPropertyOp27
 70
     1
102
RTVSPropertyOp28
 70
     1
102
RTVSPropertyOp29
 70
     1
102
RTVSPropertyOp30
 70
     1
102
RTVSPropertyOp31
 70
     1
102
RTVSPropertyOp32
 70
     1
102
RTVSPropertyOp33
 70
     1
102
RTVSPropertyOp34
 70
     1
102
RTVSPropertyOp35
 70
     1
102
RTVSPropertyOp36
 70
     1
102
RTVSPropertyOp37
 70
     1
102
RTVSPropertyOp38
 70
     1
102
RTVSPropertyOp39
 70
     1
102
RTVSPropertyOp40
 70
     1
102
RTVSPropertyOp41
 70
     1
102
RTVSPropertyOp42
 70
     1
102
RTVSPropertyOp43
 70
     1
102
RTVSPropertyOp44
 70
     1
102
RTVSPropertyOp45
 70
     1
102
RTVSPropertyOp46
 70
     1
102
RTVSPropertyOp47
 70
     1
102
RTVSPropertyOp48
 70
     1
102
RTVSPropertyOp49
 70
     1
102
RTVSPropertyOp50
 70
     1
102
RTVSPropertyOp51
 70
     0
102
RTVSPropertyOp52
 70
     0
102
RTVSPropertyOp53
 70
     1
102
RTVSPropertyOp54
 70
     1
102
RTVSPropertyOp55
 70
     1
102
RTVSPropertyOp56
 70
     1
102
RTVSPropertyOp57
 70
     1
102
RTVSPropertyOp58
 70
     1
102
RTVSPropertyOp59
 70
     1
102
RTVSPropertyOp60
 70
     1
102
RTVSPropertyOp61
 70
     1
102
RTVSPropertyOp62
 70
     1
  0
XRECORD
  5
4BC
102
{ACAD_REACTORS
330
4BB
102
}
330
4BB
100
AcDbXrecord
280
     1
102
RTVSPost2010Prop28
280
     0
102
RTVSPost2010PropOp28
 70
     1
102
RTVSPost2010Prop29
280
     1
102
RTVSPost2010PropOp29
 70
     1
102
RTVSPost2010Prop30
280
     1
102
RTVSPost2010PropOp30
 70
     1
102
RTVSPost2010Prop31
280
     0
102
RTVSPost2010PropOp31
 70
     1
102
RTVSPost2010Prop32
280
     0
102
RTVSPost2010PropOp32
 70
     1
102
RTVSPost2010Prop33
280
     0
102
RTVSPost2010PropOp33
 70
     1
102
RTVSPost2010Prop34
280
     0
102
RTVSPost2010PropOp34
 70
     1
102
RTVSPost2010Prop35
280
     0
102
RTVSPost2010PropOp35
 70
     1
102
RTVSPost2010Prop36
280
     0
102
RTVSPost2010PropOp36
 70
     1
102
RTVSPost2010Prop37
 90
       50
102
RTVSPost2010PropOp37
 70
     1
102
RTVSPost2010Prop38
140
0.0
102
RTVSPost2010PropOp38
 70
     1
102
RTVSPost2010Prop39
140
1.0
102
RTVSPost2010PropOp39
 70
     1
102
RTVSPost2010Prop40
 90
        0
102
RTVSPost2010PropOp40
 70
     1
102
RTVSPost2010Prop41ColorIndex
 90
       18
102
RTVSPost2010Prop41ColorRGB
 90
        0
102
RTVSPost2010PropOp41
 70
     1
102
RTVSPost2010Prop42
 90
       50
102
RTVSPost2010PropOp42
 70
     1
102
RTVSPost2010Prop43
 90
        3
102
RTVSPost2010PropOp43
 70
     1
102
RTVSPost2010Prop44ColorIndex
 90
        5
102
RTVSPost2010Prop44ColorRGB
 90
      255
102
RTVSPost2010PropOp44
 70
     1
102
RTVSPost2010Prop45
280
     0
102
RTVSPost2010PropOp45
 70
     1
102
RTVSPost2010Prop46
 90
       50
102
RTVSPost2010PropOp46
 70
     1
102
RTVSPost2010Prop47
 90
       50
102
RTVSPost2010PropOp47
 70
     1
102
RTVSPost2010Prop48
 90
       50
102
RTVSPost2010PropOp48
 70
     1
102
RTVSPost2010Prop49
280
     0
102
RTVSPost2010PropOp49
 70
     1
102
RTVSPost2010Prop50
 90
       50
102
RTVSPost2010PropOp50
 70
     1
102
RTVSPost2010Prop51ColorIndex
 90
      256
102
RTVSPost2010Prop51ColorRGB
 90
-16777216
102
RTVSPost2010PropOp51
 70
     0
102
RTVSPost2010Prop52
140
1.0
102
RTVSPost2010PropOp52
 70
     0
102
RTVSPost2010Prop53
 90
        2
102
RTVSPost2010PropOp53
 70
     1
102
RTVSPost2010Prop54
  1
strokes_ogs.tif
102
RTVSPost2010PropOp54
 70
     1
102
RTVSPost2010Prop55
280
     0
102
RTVSPost2010PropOp55
 70
     1
102
RTVSPost2010Prop56
140
1.0
102
RTVSPost2010PropOp56
 70
     1
102
RTVSPost2010Prop57
140
1.0
102
RTVSPost2010PropOp57
 70
     1
102
RTVSPropertyOp0
 70
     1
102
RTVSPropertyOp1
 70
     1
102
RTVSPropertyOp2
 70
     1
102
RTVSPropertyOp3
 70
     1
102
RTVSPropertyOp4
 70
     1
102
RTVSPropertyOp5
 70
     1
102
RTVSPropertyOp6
 70
     1
102
RTVSPropertyOp7
 70
     1
102
RTVSPropertyOp8
 70
     1
102
RTVSPropertyOp9
 70
     1
102
RTVSPropertyOp10
 70
     1
102
RTVSPropertyOp11
 70
     1
102
RTVSPropertyOp12
 70
     1
102
RTVSPropertyOp13
 70
     1
102
RTVSPropertyOp14
 70
     1
102
RTVSPropertyOp15
 70
     1
102
RTVSPropertyOp16
 70
     1
102
RTVSPropertyOp17
 70
     1
102
RTVSPropertyOp18
 70
     1
102
RTVSPropertyOp19
 70
     1
102
RTVSPropertyOp20
 70
     1
102
RTVSPropertyOp21
 70
     1
102
RTVSPropertyOp22
 70
     1
102
RTVSPropertyOp23
 70
     1
102
RTVSPropertyOp24
 70
     1
102
RTVSPropertyOp25
 70
     1
102
RTVSPropertyOp26
 70
     1
102
RTVSPropertyOp27
 70
     1
102
RTVSPropertyOp28
 70
     1
102
RTVSPropertyOp29
 70
     1
102
RTVSPropertyOp30
 70
     1
102
RTVSPropertyOp31
 70
     1
102
RTVSPropertyOp32
 70
     1
102
RTVSPropertyOp33
 70
     1
102
RTVSPropertyOp34
 70
     1
102
RTVSPropertyOp35
 70
     1
102
RTVSPropertyOp36
 70
     1
102
RTVSPropertyOp37
 70
     1
102
RTVSPropertyOp38
 70
     1
102
RTVSPropertyOp39
 70
     1
102
RTVSPropertyOp40
 70
     1
102
RTVSPropertyOp41
 70
     1
102
RTVSPropertyOp42
 70
     1
102
RTVSPropertyOp43
 70
     1
102
RTVSPropertyOp44
 70
     1
102
RTVSPropertyOp45
 70
     1
102
RTVSPropertyOp46
 70
     1
102
RTVSPropertyOp47
 70
     1
102
RTVSPropertyOp48
 70
     1
102
RTVSPropertyOp49
 70
     1
102
RTVSPropertyOp50
 70
     1
102
RTVSPropertyOp51
 70
     0
102
RTVSPropertyOp52
 70
     0
102
RTVSPropertyOp53
 70
     1
102
RTVSPropertyOp54
 70
     1
102
RTVSPropertyOp55
 70
     1
102
RTVSPropertyOp56
 70
     1
102
RTVSPropertyOp57
 70
     1
102
RTVSPropertyOp58
 70
     1
102
RTVSPropertyOp59
 70
     1
102
RTVSPropertyOp60
 70
     1
102
RTVSPropertyOp61
 70
     1
102
RTVSPropertyOp62
 70
     1
  0
XRECORD
  5
4B6
102
{ACAD_REACTORS
330
4B5
102
}
330
4B5
100
AcDbXrecord
280
     1
102
RTVSPost2010Prop28
280
     0
102
RTVSPost2010PropOp28
 70
     1
102
RTVSPost2010Prop29
280
     1
102
RTVSPost2010PropOp29
 70
     1
102
RTVSPost2010Prop30
280
     1
102
RTVSPost2010PropOp30
 70
     1
102
RTVSPost2010Prop31
280
     0
102
RTVSPost2010PropOp31
 70
     1
102
RTVSPost2010Prop32
280
     0
102
RTVSPost2010PropOp32
 70
     1
102
RTVSPost2010Prop33
280
     0
102
RTVSPost2010PropOp33
 70
     1
102
RTVSPost2010Prop34
280
     0
102
RTVSPost2010PropOp34
 70
     1
102
RTVSPost2010Prop35
280
     0
102
RTVSPost2010PropOp35
 70
     1
102
RTVSPost2010Prop36
280
     0
102
RTVSPost2010PropOp36
 70
     1
102
RTVSPost2010Prop37
 90
       50
102
RTVSPost2010PropOp37
 70
     1
102
RTVSPost2010Prop38
140
0.0
102
RTVSPost2010PropOp38
 70
     1
102
RTVSPost2010Prop39
140
1.0
102
RTVSPost2010PropOp39
 70
     1
102
RTVSPost2010Prop40
 90
        0
102
RTVSPost2010PropOp40
 70
     1
102
RTVSPost2010Prop41ColorIndex
 90
       18
102
RTVSPost2010Prop41ColorRGB
 90
        0
102
RTVSPost2010PropOp41
 70
     1
102
RTVSPost2010Prop42
 90
       50
102
RTVSPost2010PropOp42
 70
     1
102
RTVSPost2010Prop43
 90
        3
102
RTVSPost2010PropOp43
 70
     1
102
RTVSPost2010Prop44ColorIndex
 90
        5
102
RTVSPost2010Prop44ColorRGB
 90
      255
102
RTVSPost2010PropOp44
 70
     1
102
RTVSPost2010Prop45
280
     0
102
RTVSPost2010PropOp45
 70
     1
102
RTVSPost2010Prop46
 90
       50
102
RTVSPost2010PropOp46
 70
     1
102
RTVSPost2010Prop47
 90
       50
102
RTVSPost2010PropOp47
 70
     1
102
RTVSPost2010Prop48
 90
       50
102
RTVSPost2010PropOp48
 70
     1
102
RTVSPost2010Prop49
280
     0
102
RTVSPost2010PropOp49
 70
     1
102
RTVSPost2010Prop50
 90
       50
102
RTVSPost2010PropOp50
 70
     1
102
RTVSPost2010Prop51ColorIndex
 90
      256
102
RTVSPost2010Prop51ColorRGB
 90
-16777216
102
RTVSPost2010PropOp51
 70
     0
102
RTVSPost2010Prop52
140
1.0
102
RTVSPost2010PropOp52
 70
     0
102
RTVSPost2010Prop53
 90
        2
102
RTVSPost2010PropOp53
 70
     1
102
RTVSPost2010Prop54
  1
strokes_ogs.tif
102
RTVSPost2010PropOp54
 70
     1
102
RTVSPost2010Prop55
280
     0
102
RTVSPost2010PropOp55
 70
     1
102
RTVSPost2010Prop56
140
1.0
102
RTVSPost2010PropOp56
 70
     1
102
RTVSPost2010Prop57
140
1.0
102
RTVSPost2010PropOp57
 70
     1
102
RTVSPropertyOp0
 70
     1
102
RTVSPropertyOp1
 70
     1
102
RTVSPropertyOp2
 70
     1
102
RTVSPropertyOp3
 70
     1
102
RTVSPropertyOp4
 70
     1
102
RTVSPropertyOp5
 70
     1
102
RTVSPropertyOp6
 70
     1
102
RTVSPropertyOp7
 70
     1
102
RTVSPropertyOp8
 70
     1
102
RTVSPropertyOp9
 70
     1
102
RTVSPropertyOp10
 70
     1
102
RTVSPropertyOp11
 70
     1
102
RTVSPropertyOp12
 70
     1
102
RTVSPropertyOp13
 70
     1
102
RTVSPropertyOp14
 70
     1
102
RTVSPropertyOp15
 70
     1
102
RTVSPropertyOp16
 70
     1
102
RTVSPropertyOp17
 70
     1
102
RTVSPropertyOp18
 70
     1
102
RTVSPropertyOp19
 70
     1
102
RTVSPropertyOp20
 70
     1
102
RTVSPropertyOp21
 70
     1
102
RTVSPropertyOp22
 70
     1
102
RTVSPropertyOp23
 70
     1
102
RTVSPropertyOp24
 70
     1
102
RTVSPropertyOp25
 70
     1
102
RTVSPropertyOp26
 70
     1
102
RTVSPropertyOp27
 70
     1
102
RTVSPropertyOp28
 70
     1
102
RTVSPropertyOp29
 70
     1
102
RTVSPropertyOp30
 70
     1
102
RTVSPropertyOp31
 70
     1
102
RTVSPropertyOp32
 70
     1
102
RTVSPropertyOp33
 70
     1
102
RTVSPropertyOp34
 70
     1
102
RTVSPropertyOp35
 70
     1
102
RTVSPropertyOp36
 70
     1
102
RTVSPropertyOp37
 70
     1
102
RTVSPropertyOp38
 70
     1
102
RTVSPropertyOp39
 70
     1
102
RTVSPropertyOp40
 70
     1
102
RTVSPropertyOp41
 70
     1
102
RTVSPropertyOp42
 70
     1
102
RTVSPropertyOp43
 70
     1
102
RTVSPropertyOp44
 70
     1
102
RTVSPropertyOp45
 70
     1
102
RTVSPropertyOp46
 70
     1
102
RTVSPropertyOp47
 70
     1
102
RTVSPropertyOp48
 70
     1
102
RTVSPropertyOp49
 70
     1
102
RTVSPropertyOp50
 70
     1
102
RTVSPropertyOp51
 70
     0
102
RTVSPropertyOp52
 70
     0
102
RTVSPropertyOp53
 70
     1
102
RTVSPropertyOp54
 70
     1
102
RTVSPropertyOp55
 70
     1
102
RTVSPropertyOp56
 70
     1
102
RTVSPropertyOp57
 70
     1
102
RTVSPropertyOp58
 70
     1
102
RTVSPropertyOp59
 70
     1
102
RTVSPropertyOp60
 70
     1
102
RTVSPropertyOp61
 70
     1
102
RTVSPropertyOp62
 70
     1
  0
XRECORD
  5
4B8
102
{ACAD_REACTORS
330
4B7
102
}
330
4B7
100
AcDbXrecord
280
     1
102
RTVSPost2010Prop28
280
     0
102
RTVSPost2010PropOp28
 70
     1
102
RTVSPost2010Prop29
280
     1
102
RTVSPost2010PropOp29
 70
     1
102
RTVSPost2010Prop30
280
     1
102
RTVSPost2010PropOp30
 70
     1
102
RTVSPost2010Prop31
280
     0
102
RTVSPost2010PropOp31
 70
     1
102
RTVSPost2010Prop32
280
     0
102
RTVSPost2010PropOp32
 70
     1
102
RTVSPost2010Prop33
280
     0
102
RTVSPost2010PropOp33
 70
     1
102
RTVSPost2010Prop34
280
     0
102
RTVSPost2010PropOp34
 70
     1
102
RTVSPost2010Prop35
280
     0
102
RTVSPost2010PropOp35
 70
     1
102
RTVSPost2010Prop36
280
     0
102
RTVSPost2010PropOp36
 70
     1
102
RTVSPost2010Prop37
 90
       50
102
RTVSPost2010PropOp37
 70
     1
102
RTVSPost2010Prop38
140
0.0
102
RTVSPost2010PropOp38
 70
     1
102
RTVSPost2010Prop39
140
1.0
102
RTVSPost2010PropOp39
 70
     1
102
RTVSPost2010Prop40
 90
        0
102
RTVSPost2010PropOp40
 70
     1
102
RTVSPost2010Prop41ColorIndex
 90
       18
102
RTVSPost2010Prop41ColorRGB
 90
        0
102
RTVSPost2010PropOp41
 70
     1
102
RTVSPost2010Prop42
 90
       50
102
RTVSPost2010PropOp42
 70
     1
102
RTVSPost2010Prop43
 90
        3
102
RTVSPost2010PropOp43
 70
     1
102
RTVSPost2010Prop44ColorIndex
 90
        5
102
RTVSPost2010Prop44ColorRGB
 90
      255
102
RTVSPost2010PropOp44
 70
     1
102
RTVSPost2010Prop45
280
     0
102
RTVSPost2010PropOp45
 70
     1
102
RTVSPost2010Prop46
 90
       50
102
RTVSPost2010PropOp46
 70
     1
102
RTVSPost2010Prop47
 90
       50
102
RTVSPost2010PropOp47
 70
     1
102
RTVSPost2010Prop48
 90
       50
102
RTVSPost2010PropOp48
 70
     1
102
RTVSPost2010Prop49
280
     0
102
RTVSPost2010PropOp49
 70
     1
102
RTVSPost2010Prop50
 90
       50
102
RTVSPost2010PropOp50
 70
     1
102
RTVSPost2010Prop51ColorIndex
 90
      256
102
RTVSPost2010Prop51ColorRGB
 90
-16777216
102
RTVSPost2010PropOp51
 70
     0
102
RTVSPost2010Prop52
140
1.0
102
RTVSPost2010PropOp52
 70
     0
102
RTVSPost2010Prop53
 90
        2
102
RTVSPost2010PropOp53
 70
     1
102
RTVSPost2010Prop54
  1
strokes_ogs.tif
102
RTVSPost2010PropOp54
 70
     1
102
RTVSPost2010Prop55
280
     0
102
RTVSPost2010PropOp55
 70
     1
102
RTVSPost2010Prop56
140
1.0
102
RTVSPost2010PropOp56
 70
     1
102
RTVSPost2010Prop57
140
1.0
102
RTVSPost2010PropOp57
 70
     1
102
RTVSPropertyOp0
 70
     1
102
RTVSPropertyOp1
 70
     1
102
RTVSPropertyOp2
 70
     1
102
RTVSPropertyOp3
 70
     1
102
RTVSPropertyOp4
 70
     1
102
RTVSPropertyOp5
 70
     1
102
RTVSPropertyOp6
 70
     1
102
RTVSPropertyOp7
 70
     1
102
RTVSPropertyOp8
 70
     1
102
RTVSPropertyOp9
 70
     1
102
RTVSPropertyOp10
 70
     1
102
RTVSPropertyOp11
 70
     1
102
RTVSPropertyOp12
 70
     1
102
RTVSPropertyOp13
 70
     1
102
RTVSPropertyOp14
 70
     1
102
RTVSPropertyOp15
 70
     1
102
RTVSPropertyOp16
 70
     1
102
RTVSPropertyOp17
 70
     1
102
RTVSPropertyOp18
 70
     1
102
RTVSPropertyOp19
 70
     1
102
RTVSPropertyOp20
 70
     1
102
RTVSPropertyOp21
 70
     1
102
RTVSPropertyOp22
 70
     1
102
RTVSPropertyOp23
 70
     1
102
RTVSPropertyOp24
 70
     1
102
RTVSPropertyOp25
 70
     1
102
RTVSPropertyOp26
 70
     1
102
RTVSPropertyOp27
 70
     1
102
RTVSPropertyOp28
 70
     1
102
RTVSPropertyOp29
 70
     1
102
RTVSPropertyOp30
 70
     1
102
RTVSPropertyOp31
 70
     1
102
RTVSPropertyOp32
 70
     1
102
RTVSPropertyOp33
 70
     1
102
RTVSPropertyOp34
 70
     1
102
RTVSPropertyOp35
 70
     1
102
RTVSPropertyOp36
 70
     1
102
RTVSPropertyOp37
 70
     1
102
RTVSPropertyOp38
 70
     1
102
RTVSPropertyOp39
 70
     1
102
RTVSPropertyOp40
 70
     1
102
RTVSPropertyOp41
 70
     1
102
RTVSPropertyOp42
 70
     1
102
RTVSPropertyOp43
 70
     1
102
RTVSPropertyOp44
 70
     1
102
RTVSPropertyOp45
 70
     1
102
RTVSPropertyOp46
 70
     1
102
RTVSPropertyOp47
 70
     1
102
RTVSPropertyOp48
 70
     1
102
RTVSPropertyOp49
 70
     1
102
RTVSPropertyOp50
 70
     1
102
RTVSPropertyOp51
 70
     0
102
RTVSPropertyOp52
 70
     0
102
RTVSPropertyOp53
 70
     1
102
RTVSPropertyOp54
 70
     1
102
RTVSPropertyOp55
 70
     1
102
RTVSPropertyOp56
 70
     1
102
RTVSPropertyOp57
 70
     1
102
RTVSPropertyOp58
 70
     1
102
RTVSPropertyOp59
 70
     1
102
RTVSPropertyOp60
 70
     1
102
RTVSPropertyOp61
 70
     1
102
RTVSPropertyOp62
 70
     1
  0
XRECORD
  5
4AE
102
{ACAD_REACTORS
330
4AD
102
}
330
4AD
100
AcDbXrecord
280
     1
102
RTVSPost2010Prop28
280
     0
102
RTVSPost2010PropOp28
 70
     1
102
RTVSPost2010Prop29
280
     1
102
RTVSPost2010PropOp29
 70
     1
102
RTVSPost2010Prop30
280
     1
102
RTVSPost2010PropOp30
 70
     1
102
RTVSPost2010Prop31
280
     0
102
RTVSPost2010PropOp31
 70
     1
102
RTVSPost2010Prop32
280
     0
102
RTVSPost2010PropOp32
 70
     1
102
RTVSPost2010Prop33
280
     0
102
RTVSPost2010PropOp33
 70
     1
102
RTVSPost2010Prop34
280
     0
102
RTVSPost2010PropOp34
 70
     1
102
RTVSPost2010Prop35
280
     0
102
RTVSPost2010PropOp35
 70
     1
102
RTVSPost2010Prop36
280
     0
102
RTVSPost2010PropOp36
 70
     1
102
RTVSPost2010Prop37
 90
       50
102
RTVSPost2010PropOp37
 70
     1
102
RTVSPost2010Prop38
140
0.0
102
RTVSPost2010PropOp38
 70
     1
102
RTVSPost2010Prop39
140
1.0
102
RTVSPost2010PropOp39
 70
     1
102
RTVSPost2010Prop40
 90
        0
102
RTVSPost2010PropOp40
 70
     1
102
RTVSPost2010Prop41ColorIndex
 90
       18
102
RTVSPost2010Prop41ColorRGB
 90
        0
102
RTVSPost2010PropOp41
 70
     1
102
RTVSPost2010Prop42
 90
       50
102
RTVSPost2010PropOp42
 70
     1
102
RTVSPost2010Prop43
 90
        3
102
RTVSPost2010PropOp43
 70
     1
102
RTVSPost2010Prop44ColorIndex
 90
        5
102
RTVSPost2010Prop44ColorRGB
 90
      255
102
RTVSPost2010PropOp44
 70
     1
102
RTVSPost2010Prop45
280
     0
102
RTVSPost2010PropOp45
 70
     1
102
RTVSPost2010Prop46
 90
       50
102
RTVSPost2010PropOp46
 70
     1
102
RTVSPost2010Prop47
 90
       50
102
RTVSPost2010PropOp47
 70
     1
102
RTVSPost2010Prop48
 90
       50
102
RTVSPost2010PropOp48
 70
     1
102
RTVSPost2010Prop49
280
     0
102
RTVSPost2010PropOp49
 70
     1
102
RTVSPost2010Prop50
 90
       50
102
RTVSPost2010PropOp50
 70
     1
102
RTVSPost2010Prop51ColorIndex
 90
      256
102
RTVSPost2010Prop51ColorRGB
 90
-16777216
102
RTVSPost2010PropOp51
 70
     0
102
RTVSPost2010Prop52
140
1.0
102
RTVSPost2010PropOp52
 70
     0
102
RTVSPost2010Prop53
 90
        2
102
RTVSPost2010PropOp53
 70
     1
102
RTVSPost2010Prop54
  1
strokes_ogs.tif
102
RTVSPost2010PropOp54
 70
     1
102
RTVSPost2010Prop55
280
     0
102
RTVSPost2010PropOp55
 70
     1
102
RTVSPost2010Prop56
140
1.0
102
RTVSPost2010PropOp56
 70
     1
102
RTVSPost2010Prop57
140
1.0
102
RTVSPost2010PropOp57
 70
     1
102
RTVSPropertyOp0
 70
     1
102
RTVSPropertyOp1
 70
     1
102
RTVSPropertyOp2
 70
     1
102
RTVSPropertyOp3
 70
     1
102
RTVSPropertyOp4
 70
     1
102
RTVSPropertyOp5
 70
     1
102
RTVSPropertyOp6
 70
     1
102
RTVSPropertyOp7
 70
     1
102
RTVSPropertyOp8
 70
     1
102
RTVSPropertyOp9
 70
     1
102
RTVSPropertyOp10
 70
     1
102
RTVSPropertyOp11
 70
     1
102
RTVSPropertyOp12
 70
     1
102
RTVSPropertyOp13
 70
     1
102
RTVSPropertyOp14
 70
     1
102
RTVSPropertyOp15
 70
     1
102
RTVSPropertyOp16
 70
     1
102
RTVSPropertyOp17
 70
     1
102
RTVSPropertyOp18
 70
     1
102
RTVSPropertyOp19
 70
     1
102
RTVSPropertyOp20
 70
     1
102
RTVSPropertyOp21
 70
     1
102
RTVSPropertyOp22
 70
     1
102
RTVSPropertyOp23
 70
     1
102
RTVSPropertyOp24
 70
     1
102
RTVSPropertyOp25
 70
     1
102
RTVSPropertyOp26
 70
     1
102
RTVSPropertyOp27
 70
     1
102
RTVSPropertyOp28
 70
     1
102
RTVSPropertyOp29
 70
     1
102
RTVSPropertyOp30
 70
     1
102
RTVSPropertyOp31
 70
     1
102
RTVSPropertyOp32
 70
     1
102
RTVSPropertyOp33
 70
     1
102
RTVSPropertyOp34
 70
     1
102
RTVSPropertyOp35
 70
     1
102
RTVSPropertyOp36
 70
     1
102
RTVSPropertyOp37
 70
     1
102
RTVSPropertyOp38
 70
     1
102
RTVSPropertyOp39
 70
     1
102
RTVSPropertyOp40
 70
     1
102
RTVSPropertyOp41
 70
     1
102
RTVSPropertyOp42
 70
     1
102
RTVSPropertyOp43
 70
     1
102
RTVSPropertyOp44
 70
     1
102
RTVSPropertyOp45
 70
     1
102
RTVSPropertyOp46
 70
     1
102
RTVSPropertyOp47
 70
     1
102
RTVSPropertyOp48
 70
     1
102
RTVSPropertyOp49
 70
     1
102
RTVSPropertyOp50
 70
     1
102
RTVSPropertyOp51
 70
     0
102
RTVSPropertyOp52
 70
     0
102
RTVSPropertyOp53
 70
     1
102
RTVSPropertyOp54
 70
     1
102
RTVSPropertyOp55
 70
     1
102
RTVSPropertyOp56
 70
     1
102
RTVSPropertyOp57
 70
     1
102
RTVSPropertyOp58
 70
     1
102
RTVSPropertyOp59
 70
     1
102
RTVSPropertyOp60
 70
     1
102
RTVSPropertyOp61
 70
     1
102
RTVSPropertyOp62
 70
     1
  0
XRECORD
  5
4A2
102
{ACAD_REACTORS
330
4A1
102
}
330
4A1
100
AcDbXrecord
280
     1
102
RTVSPost2010Prop28
280
     0
102
RTVSPost2010PropOp28
 70
     1
102
RTVSPost2010Prop29
280
     1
102
RTVSPost2010PropOp29
 70
     1
102
RTVSPost2010Prop30
280
     1
102
RTVSPost2010PropOp30
 70
     1
102
RTVSPost2010Prop31
280
     0
102
RTVSPost2010PropOp31
 70
     1
102
RTVSPost2010Prop32
280
     0
102
RTVSPost2010PropOp32
 70
     1
102
RTVSPost2010Prop33
280
     0
102
RTVSPost2010PropOp33
 70
     1
102
RTVSPost2010Prop34
280
     0
102
RTVSPost2010PropOp34
 70
     1
102
RTVSPost2010Prop35
280
     0
102
RTVSPost2010PropOp35
 70
     1
102
RTVSPost2010Prop36
280
     0
102
RTVSPost2010PropOp36
 70
     1
102
RTVSPost2010Prop37
 90
       50
102
RTVSPost2010PropOp37
 70
     1
102
RTVSPost2010Prop38
140
0.0
102
RTVSPost2010PropOp38
 70
     1
102
RTVSPost2010Prop39
140
1.0
102
RTVSPost2010PropOp39
 70
     1
102
RTVSPost2010Prop40
 90
        0
102
RTVSPost2010PropOp40
 70
     1
102
RTVSPost2010Prop41ColorIndex
 90
       18
102
RTVSPost2010Prop41ColorRGB
 90
        0
102
RTVSPost2010PropOp41
 70
     1
102
RTVSPost2010Prop42
 90
       50
102
RTVSPost2010PropOp42
 70
     1
102
RTVSPost2010Prop43
 90
        3
102
RTVSPost2010PropOp43
 70
     1
102
RTVSPost2010Prop44ColorIndex
 90
        5
102
RTVSPost2010Prop44ColorRGB
 90
      255
102
RTVSPost2010PropOp44
 70
     1
102
RTVSPost2010Prop45
280
     0
102
RTVSPost2010PropOp45
 70
     1
102
RTVSPost2010Prop46
 90
       50
102
RTVSPost2010PropOp46
 70
     1
102
RTVSPost2010Prop47
 90
       50
102
RTVSPost2010PropOp47
 70
     1
102
RTVSPost2010Prop48
 90
       50
102
RTVSPost2010PropOp48
 70
     1
102
RTVSPost2010Prop49
280
     0
102
RTVSPost2010PropOp49
 70
     1
102
RTVSPost2010Prop50
 90
       50
102
RTVSPost2010PropOp50
 70
     1
102
RTVSPost2010Prop51ColorIndex
 90
      256
102
RTVSPost2010Prop51ColorRGB
 90
-16777216
102
RTVSPost2010PropOp51
 70
     0
102
RTVSPost2010Prop52
140
1.0
102
RTVSPost2010PropOp52
 70
     0
102
RTVSPost2010Prop53
 90
        2
102
RTVSPost2010PropOp53
 70
     1
102
RTVSPost2010Prop54
  1
strokes_ogs.tif
102
RTVSPost2010PropOp54
 70
     1
102
RTVSPost2010Prop55
280
     0
102
RTVSPost2010PropOp55
 70
     1
102
RTVSPost2010Prop56
140
1.0
102
RTVSPost2010PropOp56
 70
     1
102
RTVSPost2010Prop57
140
1.0
102
RTVSPost2010PropOp57
 70
     1
102
RTVSPropertyOp0
 70
     1
102
RTVSPropertyOp1
 70
     1
102
RTVSPropertyOp2
 70
     1
102
RTVSPropertyOp3
 70
     1
102
RTVSPropertyOp4
 70
     1
102
RTVSPropertyOp5
 70
     1
102
RTVSPropertyOp6
 70
     1
102
RTVSPropertyOp7
 70
     1
102
RTVSPropertyOp8
 70
     1
102
RTVSPropertyOp9
 70
     1
102
RTVSPropertyOp10
 70
     1
102
RTVSPropertyOp11
 70
     1
102
RTVSPropertyOp12
 70
     1
102
RTVSPropertyOp13
 70
     1
102
RTVSPropertyOp14
 70
     1
102
RTVSPropertyOp15
 70
     1
102
RTVSPropertyOp16
 70
     1
102
RTVSPropertyOp17
 70
     1
102
RTVSPropertyOp18
 70
     1
102
RTVSPropertyOp19
 70
     1
102
RTVSPropertyOp20
 70
     1
102
RTVSPropertyOp21
 70
     1
102
RTVSPropertyOp22
 70
     1
102
RTVSPropertyOp23
 70
     1
102
RTVSPropertyOp24
 70
     1
102
RTVSPropertyOp25
 70
     1
102
RTVSPropertyOp26
 70
     1
102
RTVSPropertyOp27
 70
     1
102
RTVSPropertyOp28
 70
     1
102
RTVSPropertyOp29
 70
     1
102
RTVSPropertyOp30
 70
     1
102
RTVSPropertyOp31
 70
     1
102
RTVSPropertyOp32
 70
     1
102
RTVSPropertyOp33
 70
     1
102
RTVSPropertyOp34
 70
     1
102
RTVSPropertyOp35
 70
     1
102
RTVSPropertyOp36
 70
     1
102
RTVSPropertyOp37
 70
     1
102
RTVSPropertyOp38
 70
     1
102
RTVSPropertyOp39
 70
     1
102
RTVSPropertyOp40
 70
     1
102
RTVSPropertyOp41
 70
     1
102
RTVSPropertyOp42
 70
     1
102
RTVSPropertyOp43
 70
     1
102
RTVSPropertyOp44
 70
     1
102
RTVSPropertyOp45
 70
     1
102
RTVSPropertyOp46
 70
     1
102
RTVSPropertyOp47
 70
     1
102
RTVSPropertyOp48
 70
     1
102
RTVSPropertyOp49
 70
     1
102
RTVSPropertyOp50
 70
     1
102
RTVSPropertyOp51
 70
     0
102
RTVSPropertyOp52
 70
     0
102
RTVSPropertyOp53
 70
     1
102
RTVSPropertyOp54
 70
     1
102
RTVSPropertyOp55
 70
     1
102
RTVSPropertyOp56
 70
     1
102
RTVSPropertyOp57
 70
     1
102
RTVSPropertyOp58
 70
     1
102
RTVSPropertyOp59
 70
     1
102
RTVSPropertyOp60
 70
     1
102
RTVSPropertyOp61
 70
     1
102
RTVSPropertyOp62
 70
     1
  0
XRECORD
  5
4BA
102
{ACAD_REACTORS
330
4B9
102
}
330
4B9
100
AcDbXrecord
280
     1
102
RTVSPost2010Prop28
280
     0
102
RTVSPost2010PropOp28
 70
     1
102
RTVSPost2010Prop29
280
     1
102
RTVSPost2010PropOp29
 70
     1
102
RTVSPost2010Prop30
280
     1
102
RTVSPost2010PropOp30
 70
     1
102
RTVSPost2010Prop31
280
     0
102
RTVSPost2010PropOp31
 70
     1
102
RTVSPost2010Prop32
280
     0
102
RTVSPost2010PropOp32
 70
     1
102
RTVSPost2010Prop33
280
     0
102
RTVSPost2010PropOp33
 70
     1
102
RTVSPost2010Prop34
280
     0
102
RTVSPost2010PropOp34
 70
     1
102
RTVSPost2010Prop35
280
     0
102
RTVSPost2010PropOp35
 70
     1
102
RTVSPost2010Prop36
280
     0
102
RTVSPost2010PropOp36
 70
     1
102
RTVSPost2010Prop37
 90
       50
102
RTVSPost2010PropOp37
 70
     1
102
RTVSPost2010Prop38
140
0.0
102
RTVSPost2010PropOp38
 70
     1
102
RTVSPost2010Prop39
140
1.0
102
RTVSPost2010PropOp39
 70
     1
102
RTVSPost2010Prop40
 90
        0
102
RTVSPost2010PropOp40
 70
     1
102
RTVSPost2010Prop41ColorIndex
 90
       18
102
RTVSPost2010Prop41ColorRGB
 90
        0
102
RTVSPost2010PropOp41
 70
     1
102
RTVSPost2010Prop42
 90
       50
102
RTVSPost2010PropOp42
 70
     1
102
RTVSPost2010Prop43
 90
        3
102
RTVSPost2010PropOp43
 70
     1
102
RTVSPost2010Prop44ColorIndex
 90
        5
102
RTVSPost2010Prop44ColorRGB
 90
      255
102
RTVSPost2010PropOp44
 70
     1
102
RTVSPost2010Prop45
280
     0
102
RTVSPost2010PropOp45
 70
     1
102
RTVSPost2010Prop46
 90
       50
102
RTVSPost2010PropOp46
 70
     1
102
RTVSPost2010Prop47
 90
       50
102
RTVSPost2010PropOp47
 70
     1
102
RTVSPost2010Prop48
 90
       50
102
RTVSPost2010PropOp48
 70
     1
102
RTVSPost2010Prop49
280
     0
102
RTVSPost2010PropOp49
 70
     1
102
RTVSPost2010Prop50
 90
       50
102
RTVSPost2010PropOp50
 70
     1
102
RTVSPost2010Prop51ColorIndex
 90
      256
102
RTVSPost2010Prop51ColorRGB
 90
-16777216
102
RTVSPost2010PropOp51
 70
     0
102
RTVSPost2010Prop52
140
1.0
102
RTVSPost2010PropOp52
 70
     0
102
RTVSPost2010Prop53
 90
        2
102
RTVSPost2010PropOp53
 70
     1
102
RTVSPost2010Prop54
  1
strokes_ogs.tif
102
RTVSPost2010PropOp54
 70
     1
102
RTVSPost2010Prop55
280
     0
102
RTVSPost2010PropOp55
 70
     1
102
RTVSPost2010Prop56
140
1.0
102
RTVSPost2010PropOp56
 70
     1
102
RTVSPost2010Prop57
140
1.0
102
RTVSPost2010PropOp57
 70
     1
102
RTVSPropertyOp0
 70
     1
102
RTVSPropertyOp1
 70
     1
102
RTVSPropertyOp2
 70
     1
102
RTVSPropertyOp3
 70
     1
102
RTVSPropertyOp4
 70
     1
102
RTVSPropertyOp5
 70
     1
102
RTVSPropertyOp6
 70
     1
102
RTVSPropertyOp7
 70
     1
102
RTVSPropertyOp8
 70
     1
102
RTVSPropertyOp9
 70
     1
102
RTVSPropertyOp10
 70
     1
102
RTVSPropertyOp11
 70
     1
102
RTVSPropertyOp12
 70
     1
102
RTVSPropertyOp13
 70
     1
102
RTVSPropertyOp14
 70
     1
102
RTVSPropertyOp15
 70
     1
102
RTVSPropertyOp16
 70
     1
102
RTVSPropertyOp17
 70
     1
102
RTVSPropertyOp18
 70
     1
102
RTVSPropertyOp19
 70
     1
102
RTVSPropertyOp20
 70
     1
102
RTVSPropertyOp21
 70
     1
102
RTVSPropertyOp22
 70
     1
102
RTVSPropertyOp23
 70
     1
102
RTVSPropertyOp24
 70
     1
102
RTVSPropertyOp25
 70
     1
102
RTVSPropertyOp26
 70
     1
102
RTVSPropertyOp27
 70
     1
102
RTVSPropertyOp28
 70
     1
102
RTVSPropertyOp29
 70
     1
102
RTVSPropertyOp30
 70
     1
102
RTVSPropertyOp31
 70
     1
102
RTVSPropertyOp32
 70
     1
102
RTVSPropertyOp33
 70
     1
102
RTVSPropertyOp34
 70
     1
102
RTVSPropertyOp35
 70
     1
102
RTVSPropertyOp36
 70
     1
102
RTVSPropertyOp37
 70
     1
102
RTVSPropertyOp38
 70
     1
102
RTVSPropertyOp39
 70
     1
102
RTVSPropertyOp40
 70
     1
102
RTVSPropertyOp41
 70
     1
102
RTVSPropertyOp42
 70
     1
102
RTVSPropertyOp43
 70
     1
102
RTVSPropertyOp44
 70
     1
102
RTVSPropertyOp45
 70
     1
102
RTVSPropertyOp46
 70
     1
102
RTVSPropertyOp47
 70
     1
102
RTVSPropertyOp48
 70
     1
102
RTVSPropertyOp49
 70
     1
102
RTVSPropertyOp50
 70
     1
102
RTVSPropertyOp51
 70
     0
102
RTVSPropertyOp52
 70
     0
102
RTVSPropertyOp53
 70
     1
102
RTVSPropertyOp54
 70
     1
102
RTVSPropertyOp55
 70
     1
102
RTVSPropertyOp56
 70
     1
102
RTVSPropertyOp57
 70
     1
102
RTVSPropertyOp58
 70
     1
102
RTVSPropertyOp59
 70
     1
102
RTVSPropertyOp60
 70
     1
102
RTVSPropertyOp61
 70
     1
102
RTVSPropertyOp62
 70
     1
  0
ENDSEC
  0
EOF
