  0
SECTION
  2
HEADER
  9
$ACADVER
  1
AC1015
  9
$ACADMAINTVER
 70
    20
  9
$DWGCODEPAGE
  3
ANSI_932
  9
$INSBASE
 10
0.0
 20
0.0
 30
0.0
  9
$EXTMIN
 10
-450.0274637248687
 20
-673.9823081977779
 30
-0.0011016349165587
  9
$EXTMAX
 10
450.0274679158201
 20
664.1680137850417
 30
0.0000000252153853
  9
$LIMMIN
 10
0.0
 20
0.0
  9
$LIMMAX
 10
0.0
 20
0.0
  9
$ORTHOMODE
 70
     0
  9
$REGENMODE
 70
     1
  9
$FILLMODE
 70
     1
  9
$QTEXTMODE
 70
     0
  9
$MIRRTEXT
 70
     1
  9
$LTSCALE
 40
25.4
  9
$ATTMODE
 70
     1
  9
$TEXTSIZE
 40
0.0
  9
$TRACEWID
 40
1.0
  9
$TEXTSTYLE
  7
STANDARD
  9
$CLAYER
  8
DATA
  9
$CELTYPE
  6
ByLayer
  9
$CECOLOR
 62
   256
  9
$CELTSCALE
 40
1.0
  9
$DISPSILH
 70
     0
  9
$DIMSCALE
 40
1.0
  9
$DIMASZ
 40
0.18
  9
$DIMEXO
 40
0.0625
  9
$DIMDLI
 40
0.38
  9
$DIMRND
 40
0.0
  9
$DIMDLE
 40
0.0
  9
$DIMEXE
 40
0.18
  9
$DIMTP
 40
0.0
  9
$DIMTM
 40
0.0
  9
$DIMTXT
 40
0.18
  9
$DIMCEN
 40
0.09
  9
$DIMTSZ
 40
0.0
  9
$DIMTOL
 70
     0
  9
$DIMLIM
 70
     0
  9
$DIMTIH
 70
     1
  9
$DIMTOH
 70
     1
  9
$DIMSE1
 70
     0
  9
$DIMSE2
 70
     0
  9
$DIMTAD
 70
     0
  9
$DIMZIN
 70
     0
  9
$DIMBLK
  1

  9
$DIMASO
 70
     1
  9
$DIMSHO
 70
     1
  9
$DIMPOST
  1

  9
$DIMAPOST
  1

  9
$DIMALT
 70
     0
  9
$DIMALTD
 70
     2
  9
$DIMALTF
 40
25.4
  9
$DIMLFAC
 40
1.0
  9
$DIMTOFL
 70
     0
  9
$DIMTVP
 40
0.0
  9
$DIMTIX
 70
     0
  9
$DIMSOXD
 70
     0
  9
$DIMSAH
 70
     0
  9
$DIMBLK1
  1

  9
$DIMBLK2
  1

  9
$DIMSTYLE
  2
STANDARD
  9
$DIMCLRD
 70
     0
  9
$DIMCLRE
 70
     0
  9
$DIMCLRT
 70
     0
  9
$DIMTFAC
 40
1.0
  9
$DIMGAP
 40
0.09
  9
$DIMJUST
 70
     0
  9
$DIMSD1
 70
     0
  9
$DIMSD2
 70
     0
  9
$DIMTOLJ
 70
     1
  9
$DIMTZIN
 70
     0
  9
$DIMALTZ
 70
     0
  9
$DIMALTTZ
 70
     0
  9
$DIMUPT
 70
     0
  9
$DIMDEC
 70
     4
  9
$DIMTDEC
 70
     4
  9
$DIMALTU
 70
     2
  9
$DIMALTTD
 70
     2
  9
$DIMTXSTY
  7
STANDARD
  9
$DIMAUNIT
 70
     0
  9
$DIMADEC
 70
     0
  9
$DIMALTRND
 40
0.0
  9
$DIMAZIN
 70
     0
  9
$DIMDSEP
 70
    46
  9
$DIMATFIT
 70
     3
  9
$DIMFRAC
 70
     0
  9
$DIMLDRBLK
  1

  9
$DIMLUNIT
 70
     2
  9
$DIMLWD
 70
    -2
  9
$DIMLWE
 70
    -2
  9
$DIMTMOVE
 70
     0
  9
$LUNITS
 70
     2
  9
$LUPREC
 70
     4
  9
$SKETCHINC
 40
0.1
  9
$FILLETRAD
 40
0.0
  9
$AUNITS
 70
     0
  9
$AUPREC
 70
     0
  9
$MENU
  1
acad
  9
$ELEVATION
 40
0.0
  9
$PELEVATION
 40
0.0
  9
$THICKNESS
 40
0.0
  9
$LIMCHECK
 70
     0
  9
$CHAMFERA
 40
0.0
  9
$CHAMFERB
 40
0.0
  9
$CHAMFERC
 40
0.0
  9
$CHAMFERD
 40
0.0
  9
$SKPOLY
 70
     0
  9
$TDCREATE
 40
2458054.426956019
  9
$TDUCREATE
 40
2458054.051956018
  9
$TDUPDATE
 40
2458054.427349537
  9
$TDUUPDATE
 40
2458054.052349537
  9
$TDINDWG
 40
0.0003125000
  9
$TDUSRTIMER
 40
0.0003125000
  9
$USRTIMER
 70
     1
  9
$ANGBASE
 50
0.0
  9
$ANGDIR
 70
     0
  9
$PDMODE
 70
     1
  9
$PDSIZE
 40
-2.0
  9
$PLINEWID
 40
0.0
  9
$SPLFRAME
 70
     0
  9
$SPLINETYPE
 70
     6
  9
$SPLINESEGS
 70
     8
  9
$HANDSEED
  5
6FF
  9
$SURFTAB1
 70
     6
  9
$SURFTAB2
 70
     6
  9
$SURFTYPE
 70
     6
  9
$SURFU
 70
     6
  9
$SURFV
 70
     6
  9
$UCSBASE
  2

  9
$UCSNAME
  2

  9
$UCSORG
 10
0.0
 20
0.0
 30
0.0
  9
$UCSXDIR
 10
1.0
 20
0.0
 30
0.0
  9
$UCSYDIR
 10
0.0
 20
1.0
 30
0.0
  9
$UCSORTHOREF
  2

  9
$UCSORTHOVIEW
 70
     0
  9
$UCSORGTOP
 10
0.0
 20
0.0
 30
0.0
  9
$UCSORGBOTTOM
 10
0.0
 20
0.0
 30
0.0
  9
$UCSORGLEFT
 10
0.0
 20
0.0
 30
0.0
  9
$UCSORGRIGHT
 10
0.0
 20
0.0
 30
0.0
  9
$UCSORGFRONT
 10
0.0
 20
0.0
 30
0.0
  9
$UCSORGBACK
 10
0.0
 20
0.0
 30
0.0
  9
$PUCSBASE
  2

  9
$PUCSNAME
  2

  9
$PUCSORG
 10
0.0
 20
0.0
 30
0.0
  9
$PUCSXDIR
 10
1.0
 20
0.0
 30
0.0
  9
$PUCSYDIR
 10
0.0
 20
1.0
 30
0.0
  9
$PUCSORTHOREF
  2

  9
$PUCSORTHOVIEW
 70
     0
  9
$PUCSORGTOP
 10
0.0
 20
0.0
 30
0.0
  9
$PUCSORGBOTTOM
 10
0.0
 20
0.0
 30
0.0
  9
$PUCSORGLEFT
 10
0.0
 20
0.0
 30
0.0
  9
$PUCSORGRIGHT
 10
0.0
 20
0.0
 30
0.0
  9
$PUCSORGFRONT
 10
0.0
 20
0.0
 30
0.0
  9
$PUCSORGBACK
 10
0.0
 20
0.0
 30
0.0
  9
$USERI1
 70
     0
  9
$USERI2
 70
     0
  9
$USERI3
 70
     0
  9
$USERI4
 70
     0
  9
$USERI5
 70
     0
  9
$USERR1
 40
0.0
  9
$USERR2
 40
0.0
  9
$USERR3
 40
0.0
  9
$USERR4
 40
0.0
  9
$USERR5
 40
0.0
  9
$WORLDVIEW
 70
     1
  9
$SHADEDGE
 70
     3
  9
$SHADEDIF
 70
    70
  9
$TILEMODE
 70
     1
  9
$MAXACTVP
 70
    64
  9
$PINSBASE
 10
0.0
 20
0.0
 30
0.0
  9
$PLIMCHECK
 70
     0
  9
$PEXTMIN
 10
1.000000000000000E+20
 20
1.000000000000000E+20
 30
1.000000000000000E+20
  9
$PEXTMAX
 10
-1.000000000000000E+20
 20
-1.000000000000000E+20
 30
-1.000000000000000E+20
  9
$PLIMMIN
 10
0.0
 20
0.0
  9
$PLIMMAX
 10
12.0
 20
9.0
  9
$UNITMODE
 70
     0
  9
$VISRETAIN
 70
     0
  9
$PLINEGEN
 70
     1
  9
$PSLTSCALE
 70
     0
  9
$TREEDEPTH
 70
  3020
  9
$CMLSTYLE
  2
Standard
  9
$CMLJUST
 70
     0
  9
$CMLSCALE
 40
1.0
  9
$PROXYGRAPHICS
 70
     1
  9
$MEASUREMENT
 70
     0
  9
$CELWEIGHT
370
    -1
  9
$ENDCAPS
280
     0
  9
$JOINSTYLE
280
     0
  9
$LWDISPLAY
290
     0
  9
$INSUNITS
 70
     0
  9
$HYPERLINKBASE
  1

  9
$STYLESHEET
  1

  9
$XEDIT
290
     1
  9
$CEPSNTYPE
380
     0
  9
$PSTYLEMODE
290
     1
  9
$FINGERPRINTGUID
  2
{91552730-832D-EF44-A11D-33A821F1ECF9}
  9
$VERSIONGUID
  2
{EA5074FD-B901-804A-9460-4BB55C911CE3}
  9
$EXTNAMES
290
     1
  9
$PSVPSCALE
 40
0.0
  9
$OLESTARTUP
290
     0
  0
ENDSEC
  0
SECTION
  2
CLASSES
  0
CLASS
  1
ACDBDICTIONARYWDFLT
  2
AcDbDictionaryWithDefault
  3
ObjectDBX Classes
 90
        0
280
     0
281
     0
  0
CLASS
  1
MATERIAL
  2
AcDbMaterial
  3
ObjectDBX Classes
 90
     1153
280
     0
281
     0
  0
CLASS
  1
VISUALSTYLE
  2
AcDbVisualStyle
  3
ObjectDBX Classes
 90
     4095
280
     0
281
     0
  0
CLASS
  1
SCALE
  2
AcDbScale
  3
ObjectDBX Classes
 90
     1153
280
     0
281
     0
  0
CLASS
  1
TABLESTYLE
  2
AcDbTableStyle
  3
ObjectDBX Classes
 90
     4095
280
     0
281
     0
  0
CLASS
  1
MLEADERSTYLE
  2
AcDbMLeaderStyle
  3
ACDB_MLEADERSTYLE_CLASS
 90
     4095
280
     0
281
     0
  0
CLASS
  1
ACDBSECTIONVIEWSTYLE
  2
AcDbSectionViewStyle
  3
ObjectDBX Classes
 90
     1025
280
     0
281
     0
  0
CLASS
  1
ACDBDETAILVIEWSTYLE
  2
AcDbDetailViewStyle
  3
ObjectDBX Classes
 90
     1025
280
     0
281
     0
  0
CLASS
  1
DICTIONARYVAR
  2
AcDbDictionaryVar
  3
ObjectDBX Classes
 90
        0
280
     0
281
     0
  0
CLASS
  1
CELLSTYLEMAP
  2
AcDbCellStyleMap
  3
ObjectDBX Classes
 90
     1152
280
     0
281
     0
  0
CLASS
  1
ACDBPLACEHOLDER
  2
AcDbPlaceHolder
  3
ObjectDBX Classes
 90
        0
280
     0
281
     0
  0
CLASS
  1
LAYOUT
  2
AcDbLayout
  3
ObjectDBX Classes
 90
        0
280
     0
281
     0
  0
ENDSEC
  0
SECTION
  2
TABLES
  0
TABLE
  2
VPORT
  5
628
330
0
100
AcDbSymbolTable
 70
     1
  0
VPORT
  5
694
330
628
100
AcDbSymbolTableRecord
100
AcDbViewportTableRecord
  2
*ACTIVE
 70
     0
 10
0.0
 20
0.0
 11
1.0
 21
1.0
 12
0.0000020954755655
 22
-4.907147206368108
 13
0.0
 23
0.0
 14
1.0
 24
1.0
 15
0.0
 25
0.0
 16
0.0
 26
0.0
 36
1.0
 17
0.0
 27
0.0
 37
0.0
 40
1348.985547262033
 41
2.567567567567567
 42
50.0
 43
0.0
 44
0.0
 50
0.0
 51
0.0
 71
     0
 72
  2000
 73
     1
 74
     1
 75
     0
 76
     0
 77
     0
 78
     0
281
     0
 65
     1
110
0.0
120
0.0
130
0.0
111
1.0
121
0.0
131
0.0
112
0.0
122
1.0
132
0.0
 79
     0
146
0.0
1001
ACAD_NAV_VCDISPLAY
1070
     3
  0
ENDTAB
  0
TABLE
  2
LTYPE
  5
625
330
0
100
AcDbSymbolTable
 70
    11
  0
LTYPE
  5
67A
330
625
100
AcDbSymbolTableRecord
100
AcDbLinetypeTableRecord
  2
ByBlock
 70
     0
  3

 72
    65
 73
     0
 40
0.0
  0
LTYPE
  5
67B
330
625
100
AcDbSymbolTableRecord
100
AcDbLinetypeTableRecord
  2
ByLayer
 70
     0
  3

 72
    65
 73
     0
 40
0.0
  0
LTYPE
  5
67C
330
625
100
AcDbSymbolTableRecord
100
AcDbLinetypeTableRecord
  2
CONTINUOUS
 70
     0
  3
Solid line
 72
    65
 73
     0
 40
0.0
  0
ENDTAB
  0
TABLE
  2
LAYER
  5
622
330
0
100
AcDbSymbolTable
 70
     5
  0
LAYER
  5
674
102
{ACAD_XDICTIONARY
360
6A9
102
}
330
622
100
AcDbSymbolTableRecord
100
AcDbLayerTableRecord
  2
0
 70
     0
 62
     7
  6
CONTINUOUS
370
    -3
390
62F
  0
LAYER
  5
693
102
{ACAD_XDICTIONARY
360
6AB
102
}
330
622
100
AcDbSymbolTableRecord
100
AcDbLayerTableRecord
  2
DATA
 70
     0
 62
     7
  6
CONTINUOUS
370
    -3
390
62F
  0
LAYER
  5
69F
102
{ACAD_XDICTIONARY
360
6AD
102
}
330
622
100
AcDbSymbolTableRecord
100
AcDbLayerTableRecord
  2
HIBINO-BASE
 70
     0
 62
     7
  6
CONTINUOUS
370
    -3
390
62F
  0
LAYER
  5
6A0
102
{ACAD_XDICTIONARY
360
6AF
102
}
330
622
100
AcDbSymbolTableRecord
100
AcDbLayerTableRecord
  2
SPEC
 70
     0
 62
     7
  6
CONTINUOUS
370
    -3
390
62F
  0
LAYER
  5
6A1
102
{ACAD_XDICTIONARY
360
6B1
102
}
330
622
100
AcDbSymbolTableRecord
100
AcDbLayerTableRecord
  2
DIMNSIONS
 70
     0
 62
     7
  6
CONTINUOUS
370
    -3
390
62F
  0
ENDTAB
  0
TABLE
  2
STYLE
  5
623
330
0
100
AcDbSymbolTable
 70
     3
  0
STYLE
  5
675
330
623
100
AcDbSymbolTableRecord
100
AcDbTextStyleTableRecord
  2
STANDARD
 70
     0
 40
0.0
 41
1.0
 50
0.0
 71
     0
 42
0.0
  3
txt
  4
BIGFONT.SHX
  0
ENDTAB
  0
TABLE
  2
VIEW
  5
626
330
0
100
AcDbSymbolTable
 70
     0
  0
ENDTAB
  0
TABLE
  2
UCS
  5
627
330
0
100
AcDbSymbolTable
 70
     0
  0
ENDTAB
  0
TABLE
  2
APPID
  5
629
330
0
100
AcDbSymbolTable
 70
     4
  0
APPID
  5
676
330
629
100
AcDbSymbolTableRecord
100
AcDbRegAppTableRecord
  2
ACAD
 70
     0
  0
APPID
  5
67D
330
629
100
AcDbSymbolTableRecord
100
AcDbRegAppTableRecord
  2
AcadAnnotative
 70
     0
  0
APPID
  5
6BD
330
629
100
AcDbSymbolTableRecord
100
AcDbRegAppTableRecord
  2
ACAD_NAV_VCDISPLAY
 70
     0
  0
APPID
  5
6F6
330
629
100
AcDbSymbolTableRecord
100
AcDbRegAppTableRecord
  2
ACAD_MLEADERVER
 70
     0
  0
ENDTAB
  0
TABLE
  2
DIMSTYLE
  5
62A
330
0
100
AcDbSymbolTable
 70
     2
100
AcDbDimStyleTable
 71
     0
  0
DIMSTYLE
105
677
330
62A
100
AcDbSymbolTableRecord
100
AcDbDimStyleTableRecord
  2
STANDARD
 70
     0
279
     2
340
675
  0
ENDTAB
  0
TABLE
  2
BLOCK_RECORD
  5
621
330
0
100
AcDbSymbolTable
 70
     1
  0
BLOCK_RECORD
  5
68F
330
621
100
AcDbSymbolTableRecord
100
AcDbBlockTableRecord
  2
*Model_Space
340
692
  0
BLOCK_RECORD
  5
68B
330
621
100
AcDbSymbolTableRecord
100
AcDbBlockTableRecord
  2
*Paper_Space
340
68E
  0
BLOCK_RECORD
  5
6A6
330
621
100
AcDbSymbolTableRecord
100
AcDbBlockTableRecord
  2
____
340
0
102
{BLKREFS
331
61E
102
}
  0
ENDTAB
  0
ENDSEC
  0
SECTION
  2
BLOCKS
  0
BLOCK
  5
690
330
68F
100
AcDbEntity
  8
0
100
AcDbBlockBegin
  2
*Model_Space
 70
     0
 10
0.0
 20
0.0
 30
0.0
  3
*Model_Space
  1

  0
ENDBLK
  5
691
330
68F
100
AcDbEntity
  8
0
100
AcDbBlockEnd
  0
BLOCK
  5
68C
330
68B
100
AcDbEntity
 67
     1
  8
0
100
AcDbBlockBegin
  2
*Paper_Space
 70
     0
 10
0.0
 20
0.0
 30
0.0
  3
*Paper_Space
  1

  0
ENDBLK
  5
68D
330
68B
100
AcDbEntity
 67
     1
  8
0
100
AcDbBlockEnd
  0
BLOCK
  5
2D
330
6A6
100
AcDbEntity
  8
DATA
100
AcDbBlockBegin
  2
____
 70
     0
 10
0.0
 20
0.0
 30
0.0
  3
____
  1

  0
LINE
  5
2E
330
6A6
100
AcDbEntity
  8
0
  6
Continuous
 62
     7
100
AcDbLine
 10
342.4
 20
-363.35
 30
0.0
 11
337.5
 21
-363.35
 31
0.0
  0
LINE
  5
2F
330
6A6
100
AcDbEntity
  8
0
  6
Continuous
 62
     7
100
AcDbLine
 10
342.4
 20
-397.3500000000001
 30
0.0
 11
337.4
 21
-397.3500000000001
 31
0.0
  0
LINE
  5
30
330
6A6
100
AcDbEntity
  8
0
  6
Continuous
 62
     7
100
AcDbLine
 10
342.4
 20
-363.35
 30
0.0
 11
342.4
 21
-397.3500000000001
 31
0.0
  0
ENDBLK
  5
31
330
6A6
100
AcDbEntity
  8
DATA
100
AcDbBlockEnd
  0
ENDSEC
  0
SECTION
  2
ENTITIES
  0
LINE
  5
32
330
68F
100
AcDbEntity
  8
HIBINO-BASE
  6
Continuous
 62
     7
100
AcDbLine
 10
-450.0
 20
664.1272599999999
 30
0.0
 11
450.0
 21
664.1272599999999
 31
0.0
  0
LINE
  5
33
330
68F
100
AcDbEntity
  8
HIBINO-BASE
  6
Continuous
 62
     7
100
AcDbLine
 10
450.0
 20
-635.8727399999998
 30
0.0
 11
-450.0
 21
-635.8727399999998
 31
0.0
  0
LINE
  5
34
330
68F
100
AcDbEntity
  8
HIBINO-BASE
  6
Continuous
 62
     7
100
AcDbLine
 10
-450.0
 20
-635.8727399999998
 30
0.0
 11
-450.0
 21
664.1272599999999
 31
0.0
  0
LINE
  5
35
330
68F
100
AcDbEntity
  8
HIBINO-BASE
  6
Continuous
 62
     7
100
AcDbLine
 10
450.0
 20
664.1272599999999
 30
0.0
 11
450.0
 21
-635.8727399999998
 31
0.0
  0
LINE
  5
36
330
68F
100
AcDbEntity
  8
HIBINO-BASE
  6
Continuous
 62
     7
100
AcDbLine
 10
0.0000000000000711
 20
-523.3727399999998
 30
0.0
 11
450.0
 21
-523.3727399999998
 31
0.0
  0
LINE
  5
37
330
68F
100
AcDbEntity
  8
HIBINO-BASE
  6
Continuous
 62
     7
100
AcDbLine
 10
0.0000000000000711
 20
-635.8727399999998
 30
0.0
 11
0.0000000000000711
 21
-523.3727399999998
 31
0.0
  0
TEXT
  5
38
330
68F
100
AcDbEntity
  8
HIBINO-BASE
 62
     7
100
AcDbText
 10
4.500000000000099
 20
-535.9162066666664
 30
0.0
 40
8.144205729166666
  1
NOTE
 41
0.7
 11
4.5000000000001
 21
-527.7720009374998
 31
0.0
100
AcDbText
 73
     3
  0
LINE
  5
39
330
68F
100
AcDbEntity
  8
HIBINO-BASE
  6
Continuous
 62
     7
100
AcDbLine
 10
175.0000000000001
 20
-635.8727399999998
 30
0.0
 11
175.0000000000001
 21
-523.3727399999998
 31
0.0
  0
TEXT
  5
3A
330
68F
100
AcDbEntity
  8
HIBINO-BASE
 62
     7
100
AcDbText
 10
179.4999999999999
 20
-535.9162066666664
 30
0.0
 40
8.144205729166666
  1
TITLE
 41
0.7
 11
179.4999999999999
 21
-527.7720009374998
 31
0.0
100
AcDbText
 73
     3
  0
LINE
  5
3B
330
68F
100
AcDbEntity
  8
HIBINO-BASE
  6
Continuous
 62
     7
100
AcDbLine
 10
0.0000000000000711
 20
-585.8727399999998
 30
0.0
 11
450.0
 21
-585.8727399999998
 31
0.0
  0
TEXT
  5
3C
330
68F
100
AcDbEntity
  8
HIBINO-BASE
 62
     7
100
AcDbText
 10
242.0
 20
-598.1346066666666
 30
0.0
 40
8.144205729166666
  1
DRAWN
 41
0.7
 11
242.0
 21
-589.9904009374999
 31
0.0
100
AcDbText
 73
     3
  0
TEXT
  5
3D
330
68F
100
AcDbEntity
  8
HIBINO-BASE
 62
     7
100
AcDbText
 10
116.9999999999999
 20
-598.1346066666666
 30
0.0
 40
8.144205729166666
  1
DATE
 41
0.7
 11
116.9999999999999
 21
-589.9904009374999
 31
0.0
100
AcDbText
 73
     3
  0
TEXT
  5
3E
330
68F
100
AcDbEntity
  8
HIBINO-BASE
 62
     7
100
AcDbText
 10
66.99999999999995
 20
-598.1346066666666
 30
0.0
 40
8.144205729166666
  1
SCALE
 41
0.7
 11
66.99999999999995
 21
-589.9904009374999
 31
0.0
100
AcDbText
 73
     3
  0
TEXT
  5
3F
330
68F
100
AcDbEntity
  8
HIBINO-BASE
 62
     7
100
AcDbText
 10
179.4999999999999
 20
-598.1346066666666
 30
0.0
 40
8.144205729166666
  1
DESIGN
 41
0.7
 11
179.4999999999999
 21
-589.9904009374999
 31
0.0
100
AcDbText
 73
     3
  0
TEXT
  5
40
330
68F
100
AcDbEntity
  8
HIBINO-BASE
 62
     7
100
AcDbText
 10
367.0
 20
-598.1346066666666
 30
0.0
 40
8.144205729166666
  1
DRAWING NO.
 41
0.7
 11
367.0
 21
-589.9904009374999
 31
0.0
100
AcDbText
 73
     3
  0
TEXT
  5
41
330
68F
100
AcDbEntity
  8
HIBINO-BASE
 62
     7
100
AcDbText
 10
304.4999999999999
 20
-598.1346066666666
 30
0.0
 40
8.144205729166666
  1
CHECK
 41
0.7
 11
304.4999999999999
 21
-589.9904009374999
 31
0.0
100
AcDbText
 73
     3
  0
LINE
  5
42
330
68F
100
AcDbEntity
  8
HIBINO-BASE
  6
Continuous
 62
     7
100
AcDbLine
 10
71.87500000000007
 20
-629.6227399999998
 30
0.0
 11
90.62500000000007
 21
-610.8727399999998
 31
0.0
  0
TEXT
  5
43
330
68F
100
AcDbEntity
  8
HIBINO-BASE
 62
     7
100
AcDbText
 10
68.75000000000007
 20
-616.4174566666664
 30
0.0
 40
8.144205729166666
  1
1
 41
0.7
 11
68.75000000000007
 21
-608.2732509374998
 31
0.0
100
AcDbText
 73
     3
  0
LINE
  5
44
330
68F
100
AcDbEntity
  8
HIBINO-BASE
  6
Continuous
 62
     7
100
AcDbLine
 10
62.50000000000007
 20
-635.8727399999998
 30
0.0
 11
62.50000000000007
 21
-585.8727399999998
 31
0.0
  0
LINE
  5
45
330
68F
100
AcDbEntity
  8
HIBINO-BASE
  6
Continuous
 62
     7
100
AcDbLine
 10
112.4999999999999
 20
-635.8727399999998
 30
0.0
 11
112.4999999999999
 21
-585.8727399999998
 31
0.0
  0
LINE
  5
46
330
68F
100
AcDbEntity
  8
HIBINO-BASE
  6
Continuous
 62
     7
100
AcDbLine
 10
237.5
 20
-585.8727399999998
 30
0.0
 11
237.5
 21
-635.8727399999998
 31
0.0
  0
LINE
  5
47
330
68F
100
AcDbEntity
  8
HIBINO-BASE
  6
Continuous
 62
     7
100
AcDbLine
 10
362.5
 20
-585.8727399999998
 30
0.0
 11
362.5
 21
-635.8727399999998
 31
0.0
  0
LINE
  5
48
330
68F
100
AcDbEntity
  8
HIBINO-BASE
  6
Continuous
 62
     7
100
AcDbLine
 10
300.0
 20
-635.8727399999998
 30
0.0
 11
300.0
 21
-585.8727399999998
 31
0.0
  0
TEXT
  5
49
330
68F
100
AcDbEntity
  8
HIBINO-BASE
 62
     7
100
AcDbText
 10
116.7827
 20
-621.5545066666662
 30
0.0
 40
8.144205729166666
  1
'17.10.
 41
0.7
 11
116.7827
 21
-613.4103009374996
 31
0.0
100
AcDbText
 73
     3
  0
TEXT
  5
4A
330
68F
100
AcDbEntity
  8
HIBINO-BASE
 62
     7
100
AcDbText
 10
87.50000000000005
 20
-625.7924566666664
 30
0.0
 40
8.144205729166666
  1
5
 41
0.7
 11
87.50000000000005
 21
-617.6482509374998
 31
0.0
100
AcDbText
 73
     3
  0
TEXT
  5
4B
330
68F
100
AcDbEntity
  8
HIBINO-BASE
 62
     7
100
AcDbText
 10
245.0290500551731
 20
-621.5545066666662
 30
0.0
 40
8.144205729166666
  1
N.Sasaki
 41
0.7
 11
245.0290500551731
 21
-613.4103009374996
 31
0.0
100
AcDbText
 73
     3
  0
TEXT
  5
4C
330
68F
100
AcDbEntity
  8
HIBINO-BASE
 62
     7
100
AcDbText
 10
19.41666666666684
 20
-625.9927399999999
 30
0.0
 40
16.28841145833333
  1
A4
 41
0.7
 11
19.41666666666684
 21
-609.7043285416665
 31
0.0
100
AcDbText
 73
     3
  0
TEXT
  5
4D
330
68F
100
AcDbEntity
  8
HIBINO-BASE
 62
     7
100
AcDbText
 10
4.791666666666642
 20
-598.9700149999997
 30
0.0
 40
8.144205729166666
  1
PAPER SIZE
 41
0.7
 11
4.791666666666643
 21
-590.8258092708331
 31
0.0
100
AcDbText
 73
     3
  0
TEXT
  5
4E
330
68F
100
AcDbEntity
  8
HIBINO-BASE
 62
     7
100
AcDbText
 10
-414.0799999999999
 20
-667.9161289999998
 30
0.0
 40
18.00022089843749
  1
Hibino Corporation
 41
0.7
 11
-414.0799999999999
 21
-649.9159081015623
 31
0.0
100
AcDbText
 73
     3
  0
TEXT
  5
4F
330
68F
100
AcDbEntity
  8
HIBINO-BASE
 62
     7
100
AcDbText
 10
250.34195
 20
-667.9161289999998
 30
0.0
 40
18.00022089843749
  1
ヒビノ株式会社
 41
0.7
 11
250.34195
 21
-649.9159081015623
 31
0.0
100
AcDbText
 73
     3
  0
LINE
  5
50
330
68F
100
AcDbEntity
  8
SPEC
  6
Continuous
 62
     7
100
AcDbLine
 10
-412.4999999999999
 20
614.1272600000002
 30
0.0
 11
325.0
 21
614.1272600000002
 31
0.0
  0
LINE
  5
51
330
68F
100
AcDbEntity
  8
SPEC
  6
Continuous
 62
     7
100
AcDbLine
 10
-412.4999999999999
 20
595.3772599999999
 30
0.0
 11
325.0
 21
595.3772599999999
 31
0.0
  0
LINE
  5
52
330
68F
100
AcDbEntity
  8
SPEC
  6
Continuous
 62
     7
100
AcDbLine
 10
-412.4999999999999
 20
614.1272600000002
 30
0.0
 11
-412.4999999999999
 21
257.87726
 31
0.0
  0
TEXT
  5
53
330
68F
100
AcDbEntity
  8
SPEC
 62
     7
100
AcDbText
 10
-406.2499999999999
 20
621.09361
 30
0.0
 40
12.21630859375
  1
仕様
 41
0.7
 11
-406.2499999999999
 21
633.3099185937499
 31
0.0
100
AcDbText
 73
     3
  0
LINE
  5
54
330
68F
100
AcDbEntity
  8
SPEC
  6
Continuous
 62
     7
100
AcDbLine
 10
-175.0
 20
614.1272600000002
 30
0.0
 11
-175.0
 21
257.87726
 31
0.0
  0
LINE
  5
55
330
68F
100
AcDbEntity
  8
SPEC
  6
Continuous
 62
     7
100
AcDbLine
 10
325.0
 20
614.1272600000002
 30
0.0
 11
325.0
 21
257.87726
 31
0.0
  0
TEXT
  5
56
330
68F
100
AcDbEntity
  8
SPEC
 62
     7
100
AcDbText
 10
-408.0
 20
280.5668488888888
 30
0.0
 40
9.501573350694446
  1
寸法(W×H×D)
 41
0.7
 11
-408.0
 21
290.0684222395832
 31
0.0
100
AcDbText
 73
     3
  0
TEXT
  5
57
330
68F
100
AcDbEntity
  8
SPEC
 62
     7
100
AcDbText
 10
-408.0
 20
261.8168488888888
 30
0.0
 40
9.501573350694446
  1
質量
 41
0.7
 11
-408.0
 21
271.3184222395832
 31
0.0
100
AcDbText
 73
     3
  0
TEXT
  5
58
330
68F
100
AcDbEntity
  8
SPEC
 62
     7
100
AcDbText
 10
-170.5
 20
280.5668488888888
 30
0.0
 40
9.501573350694446
  1
483×44×162mm(除突起部)
 41
0.7
 11
-170.5
 21
290.0684222395832
 31
0.0
100
AcDbText
 73
     3
  0
TEXT
  5
59
330
68F
100
AcDbEntity
  8
SPEC
 62
     7
100
AcDbText
 10
-170.5
 20
261.8168488888888
 30
0.0
 40
9.501573350694446
  1
2.7kg
 41
0.7
 11
-170.5
 21
271.3184222395832
 31
0.0
100
AcDbText
 73
     3
  0
LINE
  5
5A
330
68F
100
AcDbEntity
  8
SPEC
  6
Continuous
 62
     7
100
AcDbLine
 10
-313.4063519443434
 20
576.6272599999999
 30
0.0
 11
325.0
 21
576.6272599999999
 31
0.0
  0
LINE
  5
5B
330
68F
100
AcDbEntity
  8
SPEC
  6
Continuous
 62
     7
100
AcDbLine
 10
-313.4063519443434
 20
557.8772599999999
 30
0.0
 11
325.0
 21
557.8772599999999
 31
0.0
  0
LINE
  5
5C
330
68F
100
AcDbEntity
  8
SPEC
  6
Continuous
 62
     7
100
AcDbLine
 10
-412.4999999999999
 20
539.1272599999999
 30
0.0
 11
325.0
 21
539.1272599999999
 31
0.0
  0
LINE
  5
5D
330
68F
100
AcDbEntity
  8
SPEC
  6
Continuous
 62
     7
100
AcDbLine
 10
-313.4063519443434
 20
520.3772599999999
 30
0.0
 11
325.0
 21
520.3772599999999
 31
0.0
  0
LINE
  5
5E
330
68F
100
AcDbEntity
  8
SPEC
  6
Continuous
 62
     7
100
AcDbLine
 10
-313.4063519443434
 20
501.6272599999999
 30
0.0
 11
325.0
 21
501.6272599999999
 31
0.0
  0
LINE
  5
5F
330
68F
100
AcDbEntity
  8
SPEC
  6
Continuous
 62
     7
100
AcDbLine
 10
-412.4999999999999
 20
482.8772599999999
 30
0.0
 11
325.0
 21
482.8772599999999
 31
0.0
  0
LINE
  5
60
330
68F
100
AcDbEntity
  8
SPEC
  6
Continuous
 62
     7
100
AcDbLine
 10
-313.4063519443434
 20
464.1272599999999
 30
0.0
 11
325.0
 21
464.1272599999999
 31
0.0
  0
LINE
  5
61
330
68F
100
AcDbEntity
  8
SPEC
  6
Continuous
 62
     7
100
AcDbLine
 10
-313.4063519443434
 20
445.3772599999999
 30
0.0
 11
325.0
 21
445.3772599999999
 31
0.0
  0
LINE
  5
62
330
68F
100
AcDbEntity
  8
SPEC
  6
Continuous
 62
     7
100
AcDbLine
 10
-313.4063519443434
 20
426.6272599999999
 30
0.0
 11
325.0
 21
426.6272599999999
 31
0.0
  0
LINE
  5
63
330
68F
100
AcDbEntity
  8
SPEC
  6
Continuous
 62
     7
100
AcDbLine
 10
-412.4999999999999
 20
407.8772599999999
 30
0.0
 11
325.0
 21
407.8772599999999
 31
0.0
  0
LINE
  5
64
330
68F
100
AcDbEntity
  8
SPEC
  6
Continuous
 62
     7
100
AcDbLine
 10
-412.4999999999999
 20
389.12726
 30
0.0
 11
325.0
 21
389.12726
 31
0.0
  0
LINE
  5
65
330
68F
100
AcDbEntity
  8
SPEC
  6
Continuous
 62
     7
100
AcDbLine
 10
-412.4999999999999
 20
370.37726
 30
0.0
 11
325.0
 21
370.37726
 31
0.0
  0
LINE
  5
66
330
68F
100
AcDbEntity
  8
SPEC
  6
Continuous
 62
     7
100
AcDbLine
 10
-412.4999999999999
 20
351.6272600000001
 30
0.0
 11
325.0
 21
351.6272600000001
 31
0.0
  0
LINE
  5
67
330
68F
100
AcDbEntity
  8
SPEC
  6
Continuous
 62
     7
100
AcDbLine
 10
-412.4999999999999
 20
332.8772600000001
 30
0.0
 11
325.0
 21
332.8772600000001
 31
0.0
  0
LINE
  5
68
330
68F
100
AcDbEntity
  8
SPEC
  6
Continuous
 62
     7
100
AcDbLine
 10
-412.4999999999999
 20
314.1272600000001
 30
0.0
 11
325.0
 21
314.1272600000001
 31
0.0
  0
LINE
  5
69
330
68F
100
AcDbEntity
  8
SPEC
  6
Continuous
 62
     7
100
AcDbLine
 10
-412.4999999999999
 20
295.3772600000001
 30
0.0
 11
325.0
 21
295.3772600000001
 31
0.0
  0
LINE
  5
6A
330
68F
100
AcDbEntity
  8
SPEC
  6
Continuous
 62
     7
100
AcDbLine
 10
-412.4999999999999
 20
276.62726
 30
0.0
 11
325.0
 21
276.62726
 31
0.0
  0
LINE
  5
6B
330
68F
100
AcDbEntity
  8
SPEC
  6
Continuous
 62
     7
100
AcDbLine
 10
-412.4999999999999
 20
257.87726
 30
0.0
 11
325.0
 21
257.87726
 31
0.0
  0
TEXT
  5
6C
330
68F
100
AcDbEntity
  8
SPEC
 62
     7
100
AcDbText
 10
-408.0
 20
599.3168488888888
 30
0.0
 40
9.501573350694446
  1
チャンネル数
 41
0.7
 11
-408.0
 21
608.8184222395832
 31
0.0
100
AcDbText
 73
     3
  0
TEXT
  5
6D
330
68F
100
AcDbEntity
  8
SPEC
 62
     7
100
AcDbText
 10
-408.0
 20
580.5668488888888
 30
0.0
 40
9.501573350694446
  1
デジタル入出力
 41
0.7
 11
-408.0
 21
590.0684222395832
 31
0.0
100
AcDbText
 73
     3
  0
TEXT
  5
6E
330
68F
100
AcDbEntity
  8
SPEC
 62
     7
100
AcDbText
 10
-170.5
 20
599.3168488888888
 30
0.0
 40
9.501573350694446
  1
2入力2出力
 41
0.7
 11
-170.5
 21
608.8184222395832
 31
0.0
100
AcDbText
 73
     3
  0
TEXT
  5
6F
330
68F
100
AcDbEntity
  8
SPEC
 62
     7
100
AcDbText
 10
-408.0
 20
524.3168488888888
 30
0.0
 40
9.501573350694446
  1
アナログ入力
 41
0.7
 11
-408.0
 21
533.8184222395832
 31
0.0
100
AcDbText
 73
     3
  0
TEXT
  5
70
330
68F
100
AcDbEntity
  8
SPEC
 62
     7
100
AcDbText
 10
-308.9063519443434
 20
580.5668488888888
 30
0.0
 40
9.501573350694446
  1
端子・形式
 41
0.7
 11
-308.9063519443434
 21
590.0684222395832
 31
0.0
100
AcDbText
 73
     3
  0
LINE
  5
71
330
68F
100
AcDbEntity
  8
SPEC
  6
Continuous
 62
     7
100
AcDbLine
 10
-313.4063519443434
 20
595.3772599999999
 30
0.0
 11
-313.4063519443434
 21
407.8772599999999
 31
0.0
  0
TEXT
  5
72
330
68F
100
AcDbEntity
  8
SPEC
 62
     7
100
AcDbText
 10
-170.5
 20
580.5668488888888
 30
0.0
 40
9.501573350694446
  1
RCA:S/PDIF、24bit
 41
0.7
 11
-170.5
 21
590.0684222395832
 31
0.0
100
AcDbText
 73
     3
  0
TEXT
  5
73
330
68F
100
AcDbEntity
  8
SPEC
 62
     7
100
AcDbText
 10
-308.9063519443434
 20
561.8168488888888
 30
0.0
 40
9.501573350694446
  1
サンプリングレート
 41
0.7
 11
-308.9063519443434
 21
571.3184222395832
 31
0.0
100
AcDbText
 73
     3
  0
TEXT
  5
74
330
68F
100
AcDbEntity
  8
SPEC
 62
     7
100
AcDbText
 10
-170.5
 20
561.8168488888888
 30
0.0
 40
9.501573350694446
  1
44.1/48kHz
 41
0.7
 11
-170.5
 21
571.3184222395832
 31
0.0
100
AcDbText
 73
     3
  0
TEXT
  5
75
330
68F
100
AcDbEntity
  8
SPEC
 62
     7
100
AcDbText
 10
-308.9063519443434
 20
543.0668488888888
 30
0.0
 40
9.501573350694446
  1
周波数特性
 41
0.7
 11
-308.9063519443434
 21
552.5684222395832
 31
0.0
100
AcDbText
 73
     3
  0
TEXT
  5
76
330
68F
100
AcDbEntity
  8
SPEC
 62
     7
100
AcDbText
 10
-170.5
 20
543.0668488888888
 30
0.0
 40
9.501573350694446
  1
10Hz～22kHz(±0.5dB)
 41
0.7
 11
-170.5
 21
552.5684222395832
 31
0.0
100
AcDbText
 73
     3
  0
TEXT
  5
77
330
68F
100
AcDbEntity
  8
SPEC
 62
     7
100
AcDbText
 10
-408.0
 20
374.3168488888888
 30
0.0
 40
9.501573350694446
  1
THD＋N
 41
0.7
 11
-408.0
 21
383.8184222395833
 31
0.0
100
AcDbText
 73
     3
  0
TEXT
  5
78
330
68F
100
AcDbEntity
  8
SPEC
 62
     7
100
AcDbText
 10
-308.9063519443434
 20
524.3168488888888
 30
0.0
 40
9.501573350694446
  1
端子・形式
 41
0.7
 11
-308.9063519443434
 21
533.8184222395832
 31
0.0
100
AcDbText
 73
     3
  0
TEXT
  5
79
330
68F
100
AcDbEntity
  8
SPEC
 62
     7
100
AcDbText
 10
-170.5
 20
524.3168488888888
 30
0.0
 40
9.501573350694446
  1
XLR/標準フォーンジャック(3P)、バランス
 41
0.7
 11
-170.5
 21
533.8184222395832
 31
0.0
100
AcDbText
 73
     3
  0
TEXT
  5
7A
330
68F
100
AcDbEntity
  8
SPEC
 62
     7
100
AcDbText
 10
-308.9063519443434
 20
505.5668488888888
 30
0.0
 40
9.501573350694446
  1
インピーダンス
 41
0.7
 11
-308.9063519443434
 21
515.0684222395832
 31
0.0
100
AcDbText
 73
     3
  0
TEXT
  5
7B
330
68F
100
AcDbEntity
  8
SPEC
 62
     7
100
AcDbText
 10
-170.5
 20
505.5668488888888
 30
0.0
 40
9.501573350694446
  1
50kΩ(バランス)
 41
0.7
 11
-170.5
 21
515.0684222395832
 31
0.0
100
AcDbText
 73
     3
  0
TEXT
  5
7C
330
68F
100
AcDbEntity
  8
SPEC
 62
     7
100
AcDbText
 10
-308.9063519443434
 20
486.8168488888887
 30
0.0
 40
9.501573350694446
  1
最大レベル
 41
0.7
 11
-308.9063519443434
 21
496.3184222395831
 31
0.0
100
AcDbText
 73
     3
  0
TEXT
  5
7D
330
68F
100
AcDbEntity
  8
SPEC
 62
     7
100
AcDbText
 10
-170.5
 20
486.8168488888887
 30
0.0
 40
9.501573350694446
  1
+24dBu
 41
0.7
 11
-170.5
 21
496.3184222395831
 31
0.0
100
AcDbText
 73
     3
  0
TEXT
  5
7E
330
68F
100
AcDbEntity
  8
SPEC
 62
     7
100
AcDbText
 10
-408.0
 20
468.0668488888887
 30
0.0
 40
9.501573350694446
  1
アナログ出力
 41
0.7
 11
-408.0
 21
477.5684222395831
 31
0.0
100
AcDbText
 73
     3
  0
TEXT
  5
7F
330
68F
100
AcDbEntity
  8
SPEC
 62
     7
100
AcDbText
 10
-308.9063519443434
 20
468.0668488888887
 30
0.0
 40
9.501573350694446
  1
端子・形式
 41
0.7
 11
-308.9063519443434
 21
477.5684222395831
 31
0.0
100
AcDbText
 73
     3
  0
TEXT
  5
80
330
68F
100
AcDbEntity
  8
SPEC
 62
     7
100
AcDbText
 10
-170.5
 20
468.0668488888887
 30
0.0
 40
9.501573350694446
  1
XLR/標準フォーンジャック(3P)、バランス
 41
0.7
 11
-170.5
 21
477.5684222395831
 31
0.0
100
AcDbText
 73
     3
  0
TEXT
  5
81
330
68F
100
AcDbEntity
  8
SPEC
 62
     7
100
AcDbText
 10
-308.9063519443434
 20
449.3168488888887
 30
0.0
 40
9.501573350694446
  1
インピーダンス
 41
0.7
 11
-308.9063519443434
 21
458.8184222395831
 31
0.0
100
AcDbText
 73
     3
  0
TEXT
  5
82
330
68F
100
AcDbEntity
  8
SPEC
 62
     7
100
AcDbText
 10
-308.9063519443434
 20
430.5668488888887
 30
0.0
 40
9.501573350694446
  1
最大レベル
 41
0.7
 11
-308.9063519443434
 21
440.0684222395831
 31
0.0
100
AcDbText
 73
     3
  0
TEXT
  5
83
330
68F
100
AcDbEntity
  8
SPEC
 62
     7
100
AcDbText
 10
-170.5
 20
449.3168488888887
 30
0.0
 40
9.501573350694446
  1
2kΩ(バランス)
 41
0.7
 11
-170.5
 21
458.8184222395831
 31
0.0
100
AcDbText
 73
     3
  0
TEXT
  5
84
330
68F
100
AcDbEntity
  8
SPEC
 62
     7
100
AcDbText
 10
-170.5
 20
430.5668488888887
 30
0.0
 40
9.501573350694446
  1
+24dBu
 41
0.7
 11
-170.5
 21
440.0684222395831
 31
0.0
100
AcDbText
 73
     3
  0
TEXT
  5
85
330
68F
100
AcDbEntity
  8
SPEC
 62
     7
100
AcDbText
 10
-308.9063519443434
 20
411.8168488888887
 30
0.0
 40
9.501573350694446
  1
周波数特性
 41
0.7
 11
-308.9063519443434
 21
421.3184222395831
 31
0.0
100
AcDbText
 73
     3
  0
TEXT
  5
86
330
68F
100
AcDbEntity
  8
SPEC
 62
     7
100
AcDbText
 10
-170.5
 20
411.8168488888888
 30
0.0
 40
9.501573350694446
  1
10Hz～20kHz(＋0dB/-0.5dB)
 41
0.7
 11
-170.5
 21
421.3184222395833
 31
0.0
100
AcDbText
 73
     3
  0
TEXT
  5
87
330
68F
100
AcDbEntity
  8
SPEC
 62
     7
100
AcDbText
 10
-408.0
 20
393.0668488888888
 30
0.0
 40
9.501573350694446
  1
ダイナミックレンジ
 41
0.7
 11
-408.0
 21
402.5684222395833
 31
0.0
100
AcDbText
 73
     3
  0
TEXT
  5
88
330
68F
100
AcDbEntity
  8
SPEC
 62
     7
100
AcDbText
 10
-170.5
 20
393.0668488888888
 30
0.0
 40
9.501573350694446
  1
109dB以上(Aウェイト)
 41
0.7
 11
-170.5
 21
402.5684222395833
 31
0.0
100
AcDbText
 73
     3
  0
TEXT
  5
89
330
68F
100
AcDbEntity
  8
SPEC
 62
     7
100
AcDbText
 10
-408.0
 20
355.5668488888887
 30
0.0
 40
9.501573350694446
  1
クロストーク
 41
0.7
 11
-408.0
 21
365.0684222395832
 31
0.0
100
AcDbText
 73
     3
  0
TEXT
  5
8A
330
68F
100
AcDbEntity
  8
SPEC
 62
     7
100
AcDbText
 10
-408.0
 20
336.8168488888888
 30
0.0
 40
9.501573350694446
  1
AD-DA変換
 41
0.7
 11
-408.0
 21
346.3184222395833
 31
0.0
100
AcDbText
 73
     3
  0
TEXT
  5
8B
330
68F
100
AcDbEntity
  8
SPEC
 62
     7
100
AcDbText
 10
-408.0
 20
318.0668488888888
 30
0.0
 40
9.501573350694446
  1
電源
 41
0.7
 11
-408.0
 21
327.5684222395832
 31
0.0
100
AcDbText
 73
     3
  0
TEXT
  5
8C
330
68F
100
AcDbEntity
  8
SPEC
 62
     7
100
AcDbText
 10
-408.0
 20
299.3168488888888
 30
0.0
 40
9.501573350694446
  1
消費電力
 41
0.7
 11
-408.0
 21
308.8184222395832
 31
0.0
100
AcDbText
 73
     3
  0
TEXT
  5
8D
330
68F
100
AcDbEntity
  8
SPEC
 62
     7
100
AcDbText
 10
-170.5
 20
374.3168488888888
 30
0.0
 40
9.501573350694446
  1
0.0019%%%以下(10Hz～20kHz)
 41
0.7
 11
-170.5
 21
383.8184222395833
 31
0.0
100
AcDbText
 73
     3
  0
TEXT
  5
8E
330
68F
100
AcDbEntity
  8
SPEC
 62
     7
100
AcDbText
 10
-170.5
 20
355.5668488888887
 30
0.0
 40
9.501573350694446
  1
-80dB以下(代表値:20Hz～20kHz)
 41
0.7
 11
-170.5
 21
365.0684222395832
 31
0.0
100
AcDbText
 73
     3
  0
TEXT
  5
8F
330
68F
100
AcDbEntity
  8
SPEC
 62
     7
100
AcDbText
 10
-170.5
 20
336.8168488888888
 30
0.0
 40
9.501573350694446
  1
24bit、44.1/48kHz、128倍オーバーサンプリング
 41
0.7
 11
-170.5
 21
346.3184222395833
 31
0.0
100
AcDbText
 73
     3
  0
TEXT
  5
90
330
68F
100
AcDbEntity
  8
SPEC
 62
     7
100
AcDbText
 10
-170.5
 20
318.0668488888888
 30
0.0
 40
9.501573350694446
  1
AC100V、50/60Hz
 41
0.7
 11
-170.5
 21
327.5684222395832
 31
0.0
100
AcDbText
 73
     3
  0
TEXT
  5
91
330
68F
100
AcDbEntity
  8
SPEC
 62
     7
100
AcDbText
 10
-170.5
 20
299.3168488888888
 30
0.0
 40
9.501573350694446
  1
18W
 41
0.7
 11
-170.5
 21
308.8184222395832
 31
0.0
100
AcDbText
 73
     3
  0
TEXT
  5
92
330
68F
100
AcDbEntity
  8
DIMNSIONS
 62
     7
100
AcDbText
 10
-99.99999999999996
 20
-574.5252899999996
 30
0.0
 40
12.21630859375
  1
(単位：mm)
 41
0.7
 11
-99.99999999999996
 21
-562.3089814062496
 31
0.0
100
AcDbText
 73
     3
  0
LINE
  5
93
330
68F
100
AcDbEntity
  8
DIMNSIONS
  6
Continuous
 62
     7
100
AcDbLine
 10
-350.0
 20
-407.5
 30
0.0
 11
-350.0
 21
-455.0
 31
0.0
  0
LINE
  5
94
330
68F
100
AcDbEntity
  8
DIMNSIONS
  6
Continuous
 62
     7
100
AcDbLine
 10
133.0
 20
-407.5
 30
0.0
 11
133.0
 21
-455.0
 31
0.0
  0
LINE
  5
95
330
68F
100
AcDbEntity
  8
DIMNSIONS
  6
Continuous
 62
     7
100
AcDbLine
 10
-350.0
 20
-450.0
 30
0.0
 11
133.0
 21
-450.0
 31
0.0
  0
LINE
  5
96
330
68F
100
AcDbEntity
  8
DIMNSIONS
  6
Continuous
 62
     7
100
AcDbLine
 10
-350.0
 20
-450.0
 30
0.0
 11
-340.0006103515625
 21
-447.3206716188971
 31
0.0
  0
LINE
  5
97
330
68F
100
AcDbEntity
  8
DIMNSIONS
  6
Continuous
 62
     7
100
AcDbLine
 10
-350.0
 20
-450.0
 30
0.0
 11
-340.0006103515625
 21
-452.6793283811029
 31
0.0
  0
LINE
  5
98
330
68F
100
AcDbEntity
  8
DIMNSIONS
  6
Continuous
 62
     7
100
AcDbLine
 10
133.0
 20
-450.0
 30
0.0
 11
123.0006103515625
 21
-452.6793283811029
 31
0.0
  0
LINE
  5
99
330
68F
100
AcDbEntity
  8
DIMNSIONS
  6
Continuous
 62
     7
100
AcDbLine
 10
133.0
 20
-450.0
 30
0.0
 11
123.0006103515625
 21
-447.3206716188971
 31
0.0
  0
TEXT
  5
9A
330
68F
100
AcDbEntity
  8
DIMNSIONS
 62
     7
100
AcDbText
 10
-121.7291666666667
 20
-445.0305555555555
 30
0.0
 40
13.57367621527778
  1
483
 41
0.7
 11
-121.7291666666667
 21
-431.4568793402777
 31
0.0
100
AcDbText
 73
     3
  0
LINE
  5
9B
330
68F
100
AcDbEntity
  8
DIMNSIONS
  6
Continuous
 62
     7
100
AcDbLine
 10
-357.5
 20
-400.0
 30
0.0
 11
-392.5
 21
-400.0
 31
0.0
  0
LINE
  5
9C
330
68F
100
AcDbEntity
  8
DIMNSIONS
  6
Continuous
 62
     7
100
AcDbLine
 10
-357.5
 20
-355.7
 30
0.0
 11
-392.5
 21
-355.7
 31
0.0
  0
LINE
  5
9D
330
68F
100
AcDbEntity
  8
DIMNSIONS
  6
Continuous
 62
     7
100
AcDbLine
 10
-387.5
 20
-400.0
 30
0.0
 11
-387.5
 21
-355.7
 31
0.0
  0
LINE
  5
9E
330
68F
100
AcDbEntity
  8
DIMNSIONS
  6
Continuous
 62
     7
100
AcDbLine
 10
-387.5
 20
-400.0
 30
0.0
 11
-390.1793283811029
 21
-390.0006103515625
 31
0.0
  0
LINE
  5
9F
330
68F
100
AcDbEntity
  8
DIMNSIONS
  6
Continuous
 62
     7
100
AcDbLine
 10
-387.5
 20
-400.0
 30
0.0
 11
-384.8206716188971
 21
-390.0006103515625
 31
0.0
  0
LINE
  5
A0
330
68F
100
AcDbEntity
  8
DIMNSIONS
  6
Continuous
 62
     7
100
AcDbLine
 10
-387.5
 20
-355.7
 30
0.0
 11
-384.8206716188971
 21
-365.6993896484375
 31
0.0
  0
LINE
  5
A1
330
68F
100
AcDbEntity
  8
DIMNSIONS
  6
Continuous
 62
     7
100
AcDbLine
 10
-387.5
 20
-355.7
 30
0.0
 11
-390.1793283811029
 21
-365.6993896484375
 31
0.0
  0
TEXT
  5
A2
330
68F
100
AcDbEntity
  8
DIMNSIONS
 62
     7
100
AcDbText
 10
-392.4694444444445
 20
-395.488888888889
 30
0.0
 40
13.57367621527778
  1
44.3
 50
90.0
 41
0.7
 11
-406.0431206597222
 21
-395.488888888889
 31
0.0
100
AcDbText
 73
     3
  0
LINE
  5
A3
330
68F
100
AcDbEntity
  8
DIMNSIONS
  6
Continuous
 62
     7
100
AcDbLine
 10
-357.5
 20
-300.0
 30
0.0
 11
-392.5
 21
-300.0
 31
0.0
  0
LINE
  5
A4
330
68F
100
AcDbEntity
  8
DIMNSIONS
  6
Continuous
 62
     7
100
AcDbLine
 10
-334.0
 20
-137.6
 30
0.0
 11
-392.5
 21
-137.6
 31
0.0
  0
LINE
  5
A5
330
68F
100
AcDbEntity
  8
DIMNSIONS
  6
Continuous
 62
     7
100
AcDbLine
 10
-387.5
 20
-300.0
 30
0.0
 11
-387.5
 21
-137.6
 31
0.0
  0
LINE
  5
A6
330
68F
100
AcDbEntity
  8
DIMNSIONS
  6
Continuous
 62
     7
100
AcDbLine
 10
-387.5
 20
-300.0
 30
0.0
 11
-390.1793283811029
 21
-290.0006103515625
 31
0.0
  0
LINE
  5
A7
330
68F
100
AcDbEntity
  8
DIMNSIONS
  6
Continuous
 62
     7
100
AcDbLine
 10
-387.5
 20
-300.0
 30
0.0
 11
-384.8206716188971
 21
-290.0006103515625
 31
0.0
  0
LINE
  5
A8
330
68F
100
AcDbEntity
  8
DIMNSIONS
  6
Continuous
 62
     7
100
AcDbLine
 10
-387.5
 20
-137.6
 30
0.0
 11
-384.8206716188971
 21
-147.5993896484374
 31
0.0
  0
LINE
  5
A9
330
68F
100
AcDbEntity
  8
DIMNSIONS
  6
Continuous
 62
     7
100
AcDbLine
 10
-387.5
 20
-137.6
 30
0.0
 11
-390.1793283811029
 21
-147.5993896484374
 31
0.0
  0
TEXT
  5
AA
330
68F
100
AcDbEntity
  8
DIMNSIONS
 62
     7
100
AcDbText
 10
-392.4694444444445
 20
-232.0291666666667
 30
0.0
 40
13.57367621527778
  1
162
 50
90.0
 41
0.7
 11
-406.0431206597222
 21
-232.0291666666667
 31
0.0
100
AcDbText
 73
     3
  0
LINE
  5
AB
330
68F
100
AcDbEntity
  8
DIMNSIONS
  6
Continuous
 62
     7
100
AcDbLine
 10
-326.5
 20
-130.1
 30
0.0
 11
-326.5
 21
-107.5
 31
0.0
  0
LINE
  5
AC
330
68F
100
AcDbEntity
  8
DIMNSIONS
  6
Continuous
 62
     7
100
AcDbLine
 10
109.5
 20
-130.1
 30
0.0
 11
109.5
 21
-107.5
 31
0.0
  0
LINE
  5
AD
330
68F
100
AcDbEntity
  8
DIMNSIONS
  6
Continuous
 62
     7
100
AcDbLine
 10
-326.5
 20
-112.5
 30
0.0
 11
109.5
 21
-112.5
 31
0.0
  0
LINE
  5
AE
330
68F
100
AcDbEntity
  8
DIMNSIONS
  6
Continuous
 62
     7
100
AcDbLine
 10
-326.5
 20
-112.5
 30
0.0
 11
-316.5006103515625
 21
-109.820671618897
 31
0.0
  0
LINE
  5
AF
330
68F
100
AcDbEntity
  8
DIMNSIONS
  6
Continuous
 62
     7
100
AcDbLine
 10
-326.5
 20
-112.5
 30
0.0
 11
-316.5006103515625
 21
-115.1793283811029
 31
0.0
  0
LINE
  5
B0
330
68F
100
AcDbEntity
  8
DIMNSIONS
  6
Continuous
 62
     7
100
AcDbLine
 10
109.5
 20
-112.5
 30
0.0
 11
99.50061035156251
 21
-115.1793283811029
 31
0.0
  0
LINE
  5
B1
330
68F
100
AcDbEntity
  8
DIMNSIONS
  6
Continuous
 62
     7
100
AcDbLine
 10
109.5
 20
-112.5
 30
0.0
 11
99.50061035156251
 21
-109.820671618897
 31
0.0
  0
TEXT
  5
B2
330
68F
100
AcDbEntity
  8
DIMNSIONS
 62
     7
100
AcDbText
 10
-121.7291666666667
 20
-107.5305555555555
 30
0.0
 40
13.57367621527778
  1
436
 41
0.7
 11
-121.7291666666667
 21
-93.95687934027778
 31
0.0
100
AcDbText
 73
     3
  0
TEXT
  5
B3
330
68F
100
AcDbEntity
  8
DIMNSIONS
 62
     7
100
AcDbText
 10
37.5
 20
-506.3499999999999
 30
0.0
 40
13.57367621527778
  1
※センター振り分け
 41
0.7
 11
37.5
 21
-492.7763237847222
 31
0.0
100
AcDbText
 73
     3
  0
TEXT
  5
B4
330
68F
100
AcDbEntity
  8
DIMNSIONS
 62
     7
100
AcDbText
 10
-94.8698956463961
 20
-97.50055555555555
 30
0.0
 40
9.501573350694446
  1
※
 41
0.7
 11
-94.8698956463961
 21
-87.9989822048611
 31
0.0
100
AcDbText
 73
     3
  0
LINE
  5
B5
330
68F
100
AcDbEntity
  8
DIMNSIONS
  6
Continuous
 62
     7
100
AcDbLine
 10
-357.5
 20
-300.0
 30
0.0
 11
-367.5
 21
-300.0
 31
0.0
  0
LINE
  5
B6
330
68F
100
AcDbEntity
  8
DIMNSIONS
  6
Continuous
 62
     7
100
AcDbLine
 10
-357.5
 20
-296.0
 30
0.0
 11
-367.5
 21
-296.0
 31
0.0
  0
LINE
  5
B7
330
68F
100
AcDbEntity
  8
DIMNSIONS
  6
Continuous
 62
     7
100
AcDbLine
 10
-362.5
 20
-296.0
 30
0.0
 11
-362.5
 21
-300.0
 31
0.0
  0
LINE
  5
B8
330
68F
100
AcDbEntity
  8
DIMNSIONS
  6
Continuous
 62
     7
100
AcDbLine
 10
-362.5
 20
-300.0
 30
0.0
 11
-362.5
 21
-317.5
 31
0.0
  0
LINE
  5
B9
330
68F
100
AcDbEntity
  8
DIMNSIONS
  6
Continuous
 62
     7
100
AcDbLine
 10
-362.5
 20
-300.0
 30
0.0
 11
-359.8206716188971
 21
-309.9993896484375
 31
0.0
  0
LINE
  5
BA
330
68F
100
AcDbEntity
  8
DIMNSIONS
  6
Continuous
 62
     7
100
AcDbLine
 10
-362.5
 20
-300.0
 30
0.0
 11
-365.1793283811029
 21
-309.9993896484375
 31
0.0
  0
LINE
  5
BB
330
68F
100
AcDbEntity
  8
DIMNSIONS
  6
Continuous
 62
     7
100
AcDbLine
 10
-362.5
 20
-296.0
 30
0.0
 11
-362.5
 21
-261.0416666666667
 31
0.0
  0
LINE
  5
BC
330
68F
100
AcDbEntity
  8
DIMNSIONS
  6
Continuous
 62
     7
100
AcDbLine
 10
-362.5
 20
-296.0
 30
0.0
 11
-365.1793283811029
 21
-286.0006103515625
 31
0.0
  0
LINE
  5
BD
330
68F
100
AcDbEntity
  8
DIMNSIONS
  6
Continuous
 62
     7
100
AcDbLine
 10
-362.5
 20
-296.0
 30
0.0
 11
-359.8206716188971
 21
-286.0006103515625
 31
0.0
  0
TEXT
  5
BE
330
68F
100
AcDbEntity
  8
DIMNSIONS
 62
     7
100
AcDbText
 10
-367.4694444444445
 20
-287.5
 30
0.0
 40
13.57367621527778
  1
4.0
 50
90.0
 41
0.7
 11
-381.0431206597223
 21
-287.5
 31
0.0
100
AcDbText
 73
     3
  0
LINE
  5
BF
330
68F
100
AcDbEntity
  8
DIMNSIONS
  6
Continuous
 62
     7
100
AcDbLine
 10
-334.0
 20
-137.6
 30
0.0
 11
-392.5
 21
-137.6
 31
0.0
  0
LINE
  5
C0
330
68F
100
AcDbEntity
  8
DIMNSIONS
  6
Continuous
 62
     7
100
AcDbLine
 10
-290.2999999999999
 20
-131.1
 30
0.0
 11
-392.5
 21
-131.1
 31
0.0
  0
LINE
  5
C1
330
68F
100
AcDbEntity
  8
DIMNSIONS
  6
Continuous
 62
     7
100
AcDbLine
 10
-387.5
 20
-131.1
 30
0.0
 11
-387.5
 21
-137.6
 31
0.0
  0
LINE
  5
C2
330
68F
100
AcDbEntity
  8
DIMNSIONS
  6
Continuous
 62
     7
100
AcDbLine
 10
-387.5
 20
-137.6
 30
0.0
 11
-387.5
 21
-155.1
 31
0.0
  0
LINE
  5
C3
330
68F
100
AcDbEntity
  8
DIMNSIONS
  6
Continuous
 62
     7
100
AcDbLine
 10
-387.5
 20
-137.6
 30
0.0
 11
-384.8206716188971
 21
-147.5993896484374
 31
0.0
  0
LINE
  5
C4
330
68F
100
AcDbEntity
  8
DIMNSIONS
  6
Continuous
 62
     7
100
AcDbLine
 10
-387.5
 20
-137.6
 30
0.0
 11
-390.1793283811029
 21
-147.5993896484374
 31
0.0
  0
LINE
  5
C5
330
68F
100
AcDbEntity
  8
DIMNSIONS
  6
Continuous
 62
     7
100
AcDbLine
 10
-387.5
 20
-131.1
 30
0.0
 11
-387.5
 21
-99.82222222222221
 31
0.0
  0
LINE
  5
C6
330
68F
100
AcDbEntity
  8
DIMNSIONS
  6
Continuous
 62
     7
100
AcDbLine
 10
-387.5
 20
-131.1
 30
0.0
 11
-390.1793283811029
 21
-121.1006103515624
 31
0.0
  0
LINE
  5
C7
330
68F
100
AcDbEntity
  8
DIMNSIONS
  6
Continuous
 62
     7
100
AcDbLine
 10
-387.5
 20
-131.1
 30
0.0
 11
-384.8206716188971
 21
-121.1006103515624
 31
0.0
  0
TEXT
  5
C8
330
68F
100
AcDbEntity
  8
DIMNSIONS
 62
     7
100
AcDbText
 10
-392.4694444444445
 20
-126.2805555555555
 30
0.0
 40
13.57367621527778
  1
6.5
 50
90.0
 41
0.7
 11
-406.0431206597222
 21
-126.2805555555555
 31
0.0
100
AcDbText
 73
     3
  0
LINE
  5
C9
330
68F
100
AcDbEntity
  8
DIMNSIONS
  6
Continuous
 62
     7
100
AcDbLine
 10
-124.0
 20
-320.0
 30
0.0
 11
-392.5
 21
-320.0
 31
0.0
  0
LINE
  5
CA
330
68F
100
AcDbEntity
  8
DIMNSIONS
  6
Continuous
 62
     7
100
AcDbLine
 10
-357.5
 20
-300.0
 30
0.0
 11
-392.5
 21
-300.0
 31
0.0
  0
LINE
  5
CB
330
68F
100
AcDbEntity
  8
DIMNSIONS
  6
Continuous
 62
     7
100
AcDbLine
 10
-387.5
 20
-300.0
 30
0.0
 11
-387.5
 21
-320.0
 31
0.0
  0
LINE
  5
CC
330
68F
100
AcDbEntity
  8
DIMNSIONS
  6
Continuous
 62
     7
100
AcDbLine
 10
-387.5
 20
-320.0
 30
0.0
 11
-387.5
 21
-337.5
 31
0.0
  0
LINE
  5
CD
330
68F
100
AcDbEntity
  8
DIMNSIONS
  6
Continuous
 62
     7
100
AcDbLine
 10
-387.5
 20
-320.0
 30
0.0
 11
-384.8206716188971
 21
-329.9993896484375
 31
0.0
  0
LINE
  5
CE
330
68F
100
AcDbEntity
  8
DIMNSIONS
  6
Continuous
 62
     7
100
AcDbLine
 10
-387.5
 20
-320.0
 30
0.0
 11
-390.1793283811029
 21
-329.9993896484375
 31
0.0
  0
LINE
  5
CF
330
68F
100
AcDbEntity
  8
DIMNSIONS
  6
Continuous
 62
     7
100
AcDbLine
 10
-387.5
 20
-300.0
 30
0.0
 11
-387.5
 21
-282.5
 31
0.0
  0
LINE
  5
D0
330
68F
100
AcDbEntity
  8
DIMNSIONS
  6
Continuous
 62
     7
100
AcDbLine
 10
-387.5
 20
-300.0
 30
0.0
 11
-390.1793283811029
 21
-290.0006103515625
 31
0.0
  0
LINE
  5
D1
330
68F
100
AcDbEntity
  8
DIMNSIONS
  6
Continuous
 62
     7
100
AcDbLine
 10
-387.5
 20
-300.0
 30
0.0
 11
-384.8206716188971
 21
-290.0006103515625
 31
0.0
  0
TEXT
  5
D2
330
68F
100
AcDbEntity
  8
DIMNSIONS
 62
     7
100
AcDbText
 10
-394.9694444444445
 20
-327.6388888888889
 30
0.0
 40
13.57367621527778
  1
20.0
 50
90.0
 41
0.7
 11
-408.5431206597222
 21
-327.6388888888889
 31
0.0
100
AcDbText
 73
     3
  0
LINE
  5
D3
330
68F
100
AcDbEntity
  8
DATA
  6
Continuous
 62
     7
100
AcDbLine
 10
-239.0
 20
-393.7
 30
0.0
 11
-239.0
 21
-367.2
 31
0.0
  0
TEXT
  5
D4
330
68F
100
AcDbEntity
  8
DATA
 62
     7
100
AcDbText
 10
250.0
 20
-580.2182899999995
 30
0.0
 40
12.21630859375
  1
MX300
 41
0.7
 11
250.0
 21
-568.0019814062496
 31
0.0
100
AcDbText
 73
     3
  0
TEXT
  5
D5
330
68F
100
AcDbEntity
  8
DATA
 62
     7
100
AcDbText
 10
-437.5
 20
-596.4913511111109
 30
0.0
 40
9.501573350694446
  1
※仕様及び外観は予告なく変更されることがあります。
 41
0.7
 11
-437.5
 21
-586.9897777604164
 31
0.0
100
AcDbText
 73
     3
  0
TEXT
  5
D6
330
68F
100
AcDbEntity
  8
DATA
 62
     7
100
AcDbText
 10
-437.5
 20
-608.8385733333328
 30
0.0
 40
9.501573350694446
  1
　また、同一商品でも若干の個体差があることがあります。ご了承ください。
 41
0.7
 11
-437.5
 21
-599.3369999826384
 31
0.0
100
AcDbText
 73
     3
  0
LWPOLYLINE
  5
D7
330
68F
100
AcDbEntity
  8
DATA
  6
Continuous
 62
     7
100
AcDbPolyline
 90
        4
 70
     1
 43
0.0
 10
-350.0
 20
-355.7
 10
133.0
 20
-355.7
 10
133.0
 20
-400.0
 10
-350.0
 20
-400.0
  0
LWPOLYLINE
  5
DE
330
68F
100
AcDbEntity
  8
DATA
  6
Continuous
 62
     7
100
AcDbPolyline
 90
        4
 70
     1
 43
0.0
 10
175.0
 20
-355.7
 10
337.4
 20
-355.7
 10
337.4
 20
-400.0
 10
175.0
 20
-400.0
  0
LWPOLYLINE
  5
E5
330
68F
100
AcDbEntity
  8
DATA
  6
Continuous
 62
     7
100
AcDbPolyline
 90
        4
 70
     1
 43
0.0
 10
-326.5
 20
-137.6
 10
109.5
 20
-137.6
 10
109.5
 20
-296.0
 10
-326.5
 20
-296.0
  0
LWPOLYLINE
  5
EC
330
68F
100
AcDbEntity
  8
DATA
  6
Continuous
 62
     7
100
AcDbPolyline
 90
        4
 70
     1
 43
0.0
 10
-350.0
 20
-296.0
 10
133.0
 20
-296.0
 10
133.0
 20
-300.0
 10
-350.0
 20
-300.0
  0
ARC
  5
F3
330
68F
100
AcDbEntity
  8
DATA
  6
Continuous
 62
     7
100
AcDbCircle
 10
120.8499999999995
 20
-361.975
 30
0.0
 40
3.149999999999977
100
AcDbArc
 50
90.0
 51
270.0
  0
ARC
  5
F4
330
68F
100
AcDbEntity
  8
DATA
  6
Continuous
 62
     7
100
AcDbCircle
 10
125.3499999999997
 20
-361.975
 30
0.0
 40
3.149999999999977
100
AcDbArc
 50
270.0
 51
90.0
  0
LINE
  5
F5
330
68F
100
AcDbEntity
  8
DATA
  6
Continuous
 62
     7
100
AcDbLine
 10
120.8499999999995
 20
-358.8250000000001
 30
0.0
 11
125.3499999999997
 21
-358.8250000000001
 31
0.0
  0
LINE
  5
F6
330
68F
100
AcDbEntity
  8
DATA
  6
Continuous
 62
     7
100
AcDbLine
 10
120.8499999999995
 20
-365.125
 30
0.0
 11
125.3499999999997
 21
-365.125
 31
0.0
  0
ARC
  5
F7
330
68F
100
AcDbEntity
  8
DATA
  6
Continuous
 62
     7
100
AcDbCircle
 10
120.8499999999995
 20
-393.725
 30
0.0
 40
3.149999999999977
100
AcDbArc
 50
90.0
 51
270.0
  0
ARC
  5
F8
330
68F
100
AcDbEntity
  8
DATA
  6
Continuous
 62
     7
100
AcDbCircle
 10
125.3499999999997
 20
-393.725
 30
0.0
 40
3.149999999999977
100
AcDbArc
 50
270.0
 51
90.0
  0
LINE
  5
F9
330
68F
100
AcDbEntity
  8
DATA
  6
Continuous
 62
     7
100
AcDbLine
 10
120.8499999999995
 20
-396.875
 30
0.0
 11
125.3499999999997
 21
-396.875
 31
0.0
  0
LINE
  5
FA
330
68F
100
AcDbEntity
  8
DATA
  6
Continuous
 62
     7
100
AcDbLine
 10
120.8499999999995
 20
-390.5750000000001
 30
0.0
 11
125.3499999999997
 21
-390.5750000000001
 31
0.0
  0
ARC
  5
FB
330
68F
100
AcDbEntity
  8
DATA
  6
Continuous
 62
     7
100
AcDbCircle
 10
-337.8499999999994
 20
-361.975
 30
0.0
 40
3.149999999999977
100
AcDbArc
 50
270.0
 51
90.0
  0
ARC
  5
FC
330
68F
100
AcDbEntity
  8
DATA
  6
Continuous
 62
     7
100
AcDbCircle
 10
-342.3499999999998
 20
-361.975
 30
0.0
 40
3.149999999999977
100
AcDbArc
 50
90.0
 51
270.0
  0
LINE
  5
FD
330
68F
100
AcDbEntity
  8
DATA
  6
Continuous
 62
     7
100
AcDbLine
 10
-337.8499999999994
 20
-358.8250000000001
 30
0.0
 11
-342.3499999999998
 21
-358.8250000000001
 31
0.0
  0
LINE
  5
FE
330
68F
100
AcDbEntity
  8
DATA
  6
Continuous
 62
     7
100
AcDbLine
 10
-337.8499999999994
 20
-365.125
 30
0.0
 11
-342.3499999999998
 21
-365.125
 31
0.0
  0
ARC
  5
FF
330
68F
100
AcDbEntity
  8
DATA
  6
Continuous
 62
     7
100
AcDbCircle
 10
-337.8499999999994
 20
-393.725
 30
0.0
 40
3.149999999999977
100
AcDbArc
 50
270.0
 51
90.0
  0
ARC
  5
100
330
68F
100
AcDbEntity
  8
DATA
  6
Continuous
 62
     7
100
AcDbCircle
 10
-342.3499999999998
 20
-393.725
 30
0.0
 40
3.149999999999977
100
AcDbArc
 50
90.0
 51
270.0
  0
LINE
  5
101
330
68F
100
AcDbEntity
  8
DATA
  6
Continuous
 62
     7
100
AcDbLine
 10
-337.8499999999994
 20
-396.875
 30
0.0
 11
-342.3499999999998
 21
-396.875
 31
0.0
  0
LINE
  5
102
330
68F
100
AcDbEntity
  8
DATA
  6
Continuous
 62
     7
100
AcDbLine
 10
-337.8499999999994
 20
-390.5750000000001
 30
0.0
 11
-342.3499999999998
 21
-390.5750000000001
 31
0.0
  0
LINE
  5
103
330
68F
100
AcDbEntity
  8
DATA
  6
Continuous
 62
     7
100
AcDbLine
 10
179.0
 20
-355.7
 30
0.0
 11
179.0
 21
-400.0
 31
0.0
  0
TEXT
  5
104
330
68F
100
AcDbEntity
  8
DATA
 62
     7
100
AcDbText
 10
250.0
 20
-543.9682899999996
 30
0.0
 40
12.21630859375
  1
Lexicon PRO
 41
0.7
 11
250.0
 21
-531.7519814062497
 31
0.0
100
AcDbText
 73
     3
  0
TEXT
  5
105
330
68F
100
AcDbEntity
  8
DATA
 62
     7
100
AcDbText
 10
237.5
 20
-561.9880649999998
 30
0.0
 40
9.501573350694446
  1
2chマルチエフェクタ ー
 41
0.7
 11
237.5
 21
-552.4864916493054
 31
0.0
100
AcDbText
 73
     3
  0
CIRCLE
  5
106
330
68F
100
AcDbEntity
  8
DATA
  6
Continuous
 62
     7
100
AcDbCircle
 10
-321.75
 20
-366.6
 30
0.0
 40
2.800000000000011
  0
LINE
  5
107
330
68F
100
AcDbEntity
  8
DATA
  6
Continuous
 62
     7
100
AcDbLine
 10
-321.75
 20
-365.1
 30
0.0
 11
-323.0490381056767
 21
-365.85
 31
0.0
  0
LINE
  5
108
330
68F
100
AcDbEntity
  8
DATA
  6
Continuous
 62
     7
100
AcDbLine
 10
-323.0490381056767
 20
-365.85
 30
0.0
 11
-323.0490381056767
 21
-367.35
 31
0.0
  0
LINE
  5
109
330
68F
100
AcDbEntity
  8
DATA
  6
Continuous
 62
     7
100
AcDbLine
 10
-323.0490381056767
 20
-367.35
 30
0.0
 11
-321.75
 21
-368.1
 31
0.0
  0
LINE
  5
10A
330
68F
100
AcDbEntity
  8
DATA
  6
Continuous
 62
     7
100
AcDbLine
 10
-321.75
 20
-368.1
 30
0.0
 11
-320.4509618943234
 21
-367.35
 31
0.0
  0
LINE
  5
10B
330
68F
100
AcDbEntity
  8
DATA
  6
Continuous
 62
     7
100
AcDbLine
 10
-320.4509618943234
 20
-367.35
 30
0.0
 11
-320.4509618943234
 21
-365.85
 31
0.0
  0
LINE
  5
10C
330
68F
100
AcDbEntity
  8
DATA
  6
Continuous
 62
     7
100
AcDbLine
 10
-320.4509618943234
 20
-365.85
 30
0.0
 11
-321.75
 21
-365.1
 31
0.0
  0
CIRCLE
  5
10D
330
68F
100
AcDbEntity
  8
DATA
  6
Continuous
 62
     7
100
AcDbCircle
 10
-321.75
 20
-389.1
 30
0.0
 40
2.800000000000011
  0
LINE
  5
10E
330
68F
100
AcDbEntity
  8
DATA
  6
Continuous
 62
     7
100
AcDbLine
 10
-321.75
 20
-387.6
 30
0.0
 11
-323.0490381056767
 21
-388.35
 31
0.0
  0
LINE
  5
10F
330
68F
100
AcDbEntity
  8
DATA
  6
Continuous
 62
     7
100
AcDbLine
 10
-323.0490381056767
 20
-388.35
 30
0.0
 11
-323.0490381056767
 21
-389.85
 31
0.0
  0
LINE
  5
110
330
68F
100
AcDbEntity
  8
DATA
  6
Continuous
 62
     7
100
AcDbLine
 10
-323.0490381056767
 20
-389.85
 30
0.0
 11
-321.75
 21
-390.6
 31
0.0
  0
LINE
  5
111
330
68F
100
AcDbEntity
  8
DATA
  6
Continuous
 62
     7
100
AcDbLine
 10
-321.75
 20
-390.6
 30
0.0
 11
-320.4509618943234
 21
-389.85
 31
0.0
  0
LINE
  5
112
330
68F
100
AcDbEntity
  8
DATA
  6
Continuous
 62
     7
100
AcDbLine
 10
-320.4509618943234
 20
-389.85
 30
0.0
 11
-320.4509618943234
 21
-388.35
 31
0.0
  0
LINE
  5
113
330
68F
100
AcDbEntity
  8
DATA
  6
Continuous
 62
     7
100
AcDbLine
 10
-320.4509618943234
 20
-388.35
 30
0.0
 11
-321.75
 21
-387.6
 31
0.0
  0
CIRCLE
  5
114
330
68F
100
AcDbEntity
  8
DATA
  6
Continuous
 62
     7
100
AcDbCircle
 10
104.75
 20
-366.6
 30
0.0
 40
2.800000000000011
  0
LINE
  5
115
330
68F
100
AcDbEntity
  8
DATA
  6
Continuous
 62
     7
100
AcDbLine
 10
104.75
 20
-365.1
 30
0.0
 11
103.4509618943233
 21
-365.85
 31
0.0
  0
LINE
  5
116
330
68F
100
AcDbEntity
  8
DATA
  6
Continuous
 62
     7
100
AcDbLine
 10
103.4509618943233
 20
-365.85
 30
0.0
 11
103.4509618943233
 21
-367.35
 31
0.0
  0
LINE
  5
117
330
68F
100
AcDbEntity
  8
DATA
  6
Continuous
 62
     7
100
AcDbLine
 10
103.4509618943233
 20
-367.35
 30
0.0
 11
104.75
 21
-368.1
 31
0.0
  0
LINE
  5
118
330
68F
100
AcDbEntity
  8
DATA
  6
Continuous
 62
     7
100
AcDbLine
 10
104.75
 20
-368.1
 30
0.0
 11
106.0490381056766
 21
-367.35
 31
0.0
  0
LINE
  5
119
330
68F
100
AcDbEntity
  8
DATA
  6
Continuous
 62
     7
100
AcDbLine
 10
106.0490381056766
 20
-367.35
 30
0.0
 11
106.0490381056766
 21
-365.85
 31
0.0
  0
LINE
  5
11A
330
68F
100
AcDbEntity
  8
DATA
  6
Continuous
 62
     7
100
AcDbLine
 10
106.0490381056766
 20
-365.85
 30
0.0
 11
104.75
 21
-365.1
 31
0.0
  0
CIRCLE
  5
11B
330
68F
100
AcDbEntity
  8
DATA
  6
Continuous
 62
     7
100
AcDbCircle
 10
104.75
 20
-389.1
 30
0.0
 40
2.800000000000011
  0
LINE
  5
11C
330
68F
100
AcDbEntity
  8
DATA
  6
Continuous
 62
     7
100
AcDbLine
 10
104.75
 20
-387.6
 30
0.0
 11
103.4509618943233
 21
-388.35
 31
0.0
  0
LINE
  5
11D
330
68F
100
AcDbEntity
  8
DATA
  6
Continuous
 62
     7
100
AcDbLine
 10
103.4509618943233
 20
-388.35
 30
0.0
 11
103.4509618943233
 21
-389.85
 31
0.0
  0
LINE
  5
11E
330
68F
100
AcDbEntity
  8
DATA
  6
Continuous
 62
     7
100
AcDbLine
 10
103.4509618943233
 20
-389.85
 30
0.0
 11
104.75
 21
-390.6
 31
0.0
  0
LINE
  5
11F
330
68F
100
AcDbEntity
  8
DATA
  6
Continuous
 62
     7
100
AcDbLine
 10
104.75
 20
-390.6
 30
0.0
 11
106.0490381056766
 21
-389.85
 31
0.0
  0
LINE
  5
120
330
68F
100
AcDbEntity
  8
DATA
  6
Continuous
 62
     7
100
AcDbLine
 10
106.0490381056766
 20
-389.85
 30
0.0
 11
106.0490381056766
 21
-388.35
 31
0.0
  0
LINE
  5
121
330
68F
100
AcDbEntity
  8
DATA
  6
Continuous
 62
     7
100
AcDbLine
 10
106.0490381056766
 20
-388.35
 30
0.0
 11
104.75
 21
-387.6
 31
0.0
  0
LINE
  5
122
330
68F
100
AcDbEntity
  8
DATA
  6
Continuous
 62
     7
100
AcDbLine
 10
-325.0
 20
-303.0
 30
0.0
 11
-325.0
 21
-300.0
 31
0.0
  0
LINE
  5
123
330
68F
100
AcDbEntity
  8
DATA
  6
Continuous
 62
     7
100
AcDbLine
 10
-318.95
 20
-303.0
 30
0.0
 11
-318.95
 21
-300.0
 31
0.0
  0
LINE
  5
124
330
68F
100
AcDbEntity
  8
DATA
  6
Continuous
 62
     7
100
AcDbLine
 10
-325.0
 20
-303.0
 30
0.0
 11
-318.95
 21
-303.0
 31
0.0
  0
LINE
  5
125
330
68F
100
AcDbEntity
  8
DATA
  6
Continuous
 62
     7
100
AcDbLine
 10
108.0
 20
-303.0
 30
0.0
 11
108.0
 21
-300.0
 31
0.0
  0
LINE
  5
126
330
68F
100
AcDbEntity
  8
DATA
  6
Continuous
 62
     7
100
AcDbLine
 10
101.95
 20
-303.0
 30
0.0
 11
101.95
 21
-300.0
 31
0.0
  0
LINE
  5
127
330
68F
100
AcDbEntity
  8
DATA
  6
Continuous
 62
     7
100
AcDbLine
 10
108.0
 20
-303.0
 30
0.0
 11
101.95
 21
-303.0
 31
0.0
  0
LINE
  5
128
330
68F
100
AcDbEntity
  8
DATA
  6
Continuous
 62
     7
100
AcDbLine
 10
-292.0
 20
-360.7
 30
0.0
 11
-292.0
 21
-396.7
 31
0.0
  0
LINE
  5
129
330
68F
100
AcDbEntity
  8
DATA
  6
Continuous
 62
     7
100
AcDbLine
 10
-250.0
 20
-357.7
 30
0.0
 11
-250.0
 21
-396.7
 31
0.0
  0
LINE
  5
12A
330
68F
100
AcDbEntity
  8
DATA
  6
Continuous
 62
     7
100
AcDbLine
 10
-19.0
 20
-357.7
 30
0.0
 11
-19.0
 21
-396.7
 31
0.0
  0
LINE
  5
12B
330
68F
100
AcDbEntity
  8
DATA
  6
Continuous
 62
     7
100
AcDbLine
 10
-292.0
 20
-360.7
 30
0.0
 11
-135.7780388766175
 21
-360.7
 31
0.0
  0
LINE
  5
12C
330
68F
100
AcDbEntity
  8
DATA
  6
Continuous
 62
     7
100
AcDbLine
 10
-130.2219611233825
 20
-360.7
 30
0.0
 11
62.0
 21
-360.7
 31
0.0
  0
LINE
  5
12D
330
68F
100
AcDbEntity
  8
DATA
  6
Continuous
 62
     7
100
AcDbLine
 10
-292.0
 20
-396.7
 30
0.0
 11
-135.4530593144071
 21
-396.7
 31
0.0
  0
LINE
  5
12E
330
68F
100
AcDbEntity
  8
DATA
  6
Continuous
 62
     7
100
AcDbLine
 10
-267.0
 20
-357.7
 30
0.0
 11
-250.0
 21
-357.7
 31
0.0
  0
LINE
  5
12F
330
68F
100
AcDbEntity
  8
DATA
  6
Continuous
 62
     7
100
AcDbLine
 10
-234.0
 20
-357.7
 30
0.0
 11
-133.9041570660008
 21
-357.7
 31
0.0
  0
LINE
  5
130
330
68F
100
AcDbEntity
  8
DATA
  6
Continuous
 62
     7
100
AcDbLine
 10
-132.0958429339992
 20
-357.7
 30
0.0
 11
-19.0
 21
-357.7
 31
0.0
  0
LINE
  5
131
330
68F
100
AcDbEntity
  8
DATA
  6
Continuous
 62
     7
100
AcDbLine
 10
4.0
 20
-357.7
 30
0.0
 11
62.0
 21
-357.7
 31
0.0
  0
LINE
  5
132
330
68F
100
AcDbEntity
  8
DATA
  6
Continuous
 62
     7
100
AcDbLine
 10
-268.0
 20
-360.7
 30
0.0
 11
-267.0
 21
-357.7
 31
0.0
  0
LINE
  5
133
330
68F
100
AcDbEntity
  8
DATA
  6
Continuous
 62
     7
100
AcDbLine
 10
-235.0
 20
-360.7
 30
0.0
 11
-234.0
 21
-357.7
 31
0.0
  0
LINE
  5
134
330
68F
100
AcDbEntity
  8
DATA
  6
Continuous
 62
     7
100
AcDbLine
 10
3.0
 20
-360.7
 30
0.0
 11
4.0
 21
-357.7
 31
0.0
  0
CIRCLE
  5
135
330
68F
100
AcDbEntity
  8
DATA
  6
Continuous
 62
     7
100
AcDbCircle
 10
-133.0
 20
-360.35
 30
0.0
 40
2.800000000000011
  0
LINE
  5
136
330
68F
100
AcDbEntity
  8
DATA
  6
Continuous
 62
     7
100
AcDbLine
 10
-133.0
 20
-358.85
 30
0.0
 11
-134.2990381056767
 21
-359.6
 31
0.0
  0
LINE
  5
137
330
68F
100
AcDbEntity
  8
DATA
  6
Continuous
 62
     7
100
AcDbLine
 10
-134.2990381056767
 20
-359.6
 30
0.0
 11
-134.2990381056767
 21
-361.1
 31
0.0
  0
LINE
  5
138
330
68F
100
AcDbEntity
  8
DATA
  6
Continuous
 62
     7
100
AcDbLine
 10
-134.2990381056767
 20
-361.1
 30
0.0
 11
-133.0
 21
-361.85
 31
0.0
  0
LINE
  5
139
330
68F
100
AcDbEntity
  8
DATA
  6
Continuous
 62
     7
100
AcDbLine
 10
-133.0
 20
-361.85
 30
0.0
 11
-131.7009618943233
 21
-361.1
 31
0.0
  0
LINE
  5
13A
330
68F
100
AcDbEntity
  8
DATA
  6
Continuous
 62
     7
100
AcDbLine
 10
-131.7009618943233
 20
-361.1
 30
0.0
 11
-131.7009618943233
 21
-359.6
 31
0.0
  0
LINE
  5
13B
330
68F
100
AcDbEntity
  8
DATA
  6
Continuous
 62
     7
100
AcDbLine
 10
-131.7009618943233
 20
-359.6
 30
0.0
 11
-133.0
 21
-358.85
 31
0.0
  0
CIRCLE
  5
13C
330
68F
100
AcDbEntity
  8
DATA
  6
Continuous
 62
     7
100
AcDbCircle
 10
-133.0
 20
-395.35
 30
0.0
 40
2.800000000000011
  0
LINE
  5
13D
330
68F
100
AcDbEntity
  8
DATA
  6
Continuous
 62
     7
100
AcDbLine
 10
-133.0
 20
-393.85
 30
0.0
 11
-134.2990381056767
 21
-394.6
 31
0.0
  0
LINE
  5
13E
330
68F
100
AcDbEntity
  8
DATA
  6
Continuous
 62
     7
100
AcDbLine
 10
-134.2990381056767
 20
-394.6
 30
0.0
 11
-134.2990381056767
 21
-396.1
 31
0.0
  0
LINE
  5
13F
330
68F
100
AcDbEntity
  8
DATA
  6
Continuous
 62
     7
100
AcDbLine
 10
-134.2990381056767
 20
-396.1
 30
0.0
 11
-133.0
 21
-396.85
 31
0.0
  0
LINE
  5
140
330
68F
100
AcDbEntity
  8
DATA
  6
Continuous
 62
     7
100
AcDbLine
 10
-133.0
 20
-396.85
 30
0.0
 11
-131.7009618943233
 21
-396.1
 31
0.0
  0
LINE
  5
141
330
68F
100
AcDbEntity
  8
DATA
  6
Continuous
 62
     7
100
AcDbLine
 10
-131.7009618943233
 20
-396.1
 30
0.0
 11
-131.7009618943233
 21
-394.6
 31
0.0
  0
LINE
  5
142
330
68F
100
AcDbEntity
  8
DATA
  6
Continuous
 62
     7
100
AcDbLine
 10
-131.7009618943233
 20
-394.6
 30
0.0
 11
-133.0
 21
-393.85
 31
0.0
  0
LINE
  5
143
330
68F
100
AcDbEntity
  8
DATA
  6
Continuous
 62
     7
100
AcDbLine
 10
-136.025
 20
-303.0
 30
0.0
 11
-136.025
 21
-300.0
 31
0.0
  0
LINE
  5
144
330
68F
100
AcDbEntity
  8
DATA
  6
Continuous
 62
     7
100
AcDbLine
 10
-129.975
 20
-303.0
 30
0.0
 11
-129.975
 21
-300.0
 31
0.0
  0
LINE
  5
145
330
68F
100
AcDbEntity
  8
DATA
  6
Continuous
 62
     7
100
AcDbLine
 10
-136.025
 20
-303.0
 30
0.0
 11
-129.975
 21
-303.0
 31
0.0
  0
CIRCLE
  5
146
330
68F
100
AcDbEntity
  8
DATA
  6
Continuous
 62
     7
100
AcDbCircle
 10
-271.0
 20
-384.7
 30
0.0
 40
8.600000000000022
  0
CIRCLE
  5
147
330
68F
100
AcDbEntity
  8
DATA
  6
Continuous
 62
     7
100
AcDbCircle
 10
-271.0
 20
-384.7
 30
0.0
 40
6.25
  0
TEXT
  5
148
330
68F
100
AcDbEntity
  8
DATA
 62
     7
100
AcDbText
 10
-291.0445627170138
 20
-360.293478732639
 30
0.0
 40
2.714735243055555
  1
INPUT CONTROL
 41
0.7
 72
     1
 11
-279.7060185185185
 21
-358.9361111111113
 31
0.0
100
AcDbText
 73
     2
  0
TEXT
  5
149
330
68F
100
AcDbEntity
  8
DATA
 62
     7
100
AcDbText
 10
-245.3732096354167
 20
-360.293478732639
 30
0.0
 40
2.714735243055555
  1
EDIT
 41
0.7
 72
     1
 11
-242.2060185185185
 21
-358.9361111111113
 31
0.0
100
AcDbText
 73
     2
  0
TEXT
  5
14A
330
68F
100
AcDbEntity
  8
DATA
 62
     7
100
AcDbText
 10
-14.04040075231482
 20
-360.293478732639
 30
0.0
 40
2.714735243055555
  1
PROGRAM
 41
0.7
 72
     1
 11
-7.706018518518523
 21
-358.9361111111113
 31
0.0
100
AcDbText
 73
     2
  0
TEXT
  5
14B
330
68F
100
AcDbEntity
  8
DATA
 62
     7
100
AcDbText
 10
41.83098171657992
 20
-364.6903557347394
 30
0.0
 40
2.036051432291666
  1
PROGRAM / Load
 41
0.7
 72
     1
 11
51.00000000000006
 21
-363.6723300185936
 31
0.0
100
AcDbText
 73
     2
  0
TEXT
  5
14C
330
68F
100
AcDbEntity
  8
DATA
 62
     7
100
AcDbText
 10
-15.4340675636574
 20
-364.0573676215278
 30
0.0
 40
2.714735243055555
  1
Store
 41
0.7
 72
     1
 11
-11.0
 21
-362.7
 31
0.0
100
AcDbText
 73
     2
  0
TEXT
  5
14D
330
68F
100
AcDbEntity
  8
DATA
 62
     7
100
AcDbText
 10
-16.38422489872685
 20
-374.3073676215278
 30
0.0
 40
2.714735243055555
  1
System
 41
0.7
 72
     1
 11
-11.0
 21
-372.95
 31
0.0
100
AcDbText
 73
     2
  0
TEXT
  5
14E
330
68F
100
AcDbEntity
  8
DATA
 62
     7
100
AcDbText
 10
-16.38422489872685
 20
-385.3073676215278
 30
0.0
 40
2.714735243055555
  1
Bypass
 41
0.7
 72
     1
 11
-11.0
 21
-383.95
 31
0.0
100
AcDbText
 73
     2
  0
TEXT
  5
14F
330
68F
100
AcDbEntity
  8
DATA
 62
     7
100
AcDbText
 10
2.258044885706018
 20
-374.0664826154772
 30
0.0
 40
1.357367621527777
  1
User
 41
0.7
 72
     1
 11
4.0
 21
-373.3877988047133
 31
0.0
100
AcDbText
 73
     2
  0
TEXT
  5
150
330
68F
100
AcDbEntity
  8
DATA
 62
     7
100
AcDbText
 10
0.8328088831018515
 20
-383.5664826154772
 30
0.0
 40
1.357367621527777
  1
Factory
 41
0.7
 72
     1
 11
4.0
 21
-382.8877988047133
 31
0.0
100
AcDbText
 73
     2
  0
TEXT
  5
151
330
68F
100
AcDbEntity
  8
DATA
 62
     7
100
AcDbText
 10
-51.03816867404514
 20
-363.7180257161458
 30
0.0
 40
2.036051432291666
  1
Bypass
 41
0.7
 72
     1
 11
-47.0
 21
-362.7
 31
0.0
100
AcDbText
 73
     2
  0
TEXT
  5
152
330
68F
100
AcDbEntity
  8
DATA
 62
     7
100
AcDbText
 10
-75.32555067274305
 20
-363.7180257161458
 30
0.0
 40
2.036051432291666
  1
Tempo
 41
0.7
 72
     1
 11
-72.0
 21
-362.7
 31
0.0
100
AcDbText
 73
     2
  0
TEXT
  5
153
330
68F
100
AcDbEntity
  8
DATA
 62
     7
100
AcDbText
 10
-99.63785400390626
 20
-363.7180257161458
 30
0.0
 40
2.036051432291666
  1
Exit
 41
0.7
 72
     1
 11
-97.5
 21
-362.7
 31
0.0
100
AcDbText
 73
     2
  0
TEXT
  5
154
330
68F
100
AcDbEntity
  8
DATA
 62
     7
100
AcDbText
 10
-124.600091281467
 20
-364.6903557347394
 30
0.0
 40
2.036051432291666
  1
Page / Select
 41
0.7
 72
     1
 11
-116.5
 21
-363.6723300185936
 31
0.0
100
AcDbText
 73
     2
  0
TEXT
  5
155
330
68F
100
AcDbEntity
  8
DATA
 62
     7
100
AcDbText
 10
-115.4328816731771
 20
-367.7968840262371
 30
0.0
 40
2.036051432291666
  1
(Push)
 41
0.7
 72
     1
 11
-111.8697916666667
 21
-366.7788583100913
 31
0.0
100
AcDbText
 73
     2
  0
TEXT
  5
156
330
68F
100
AcDbEntity
  8
DATA
 62
     7
100
AcDbText
 10
-278.9890320503837
 20
-365.0573676215278
 30
0.0
 40
2.714735243055555
  1
L
 41
0.7
 72
     1
 11
-278.3555938270041
 21
-363.7
 31
0.0
100
AcDbText
 73
     2
  0
TEXT
  5
157
330
68F
100
AcDbEntity
  8
DATA
 62
     7
100
AcDbText
 10
-278.9890320503837
 20
-371.0573676215278
 30
0.0
 40
2.714735243055555
  1
R
 41
0.7
 72
     1
 11
-278.3555938270041
 21
-369.7
 31
0.0
100
AcDbText
 73
     2
  0
TEXT
  5
158
330
68F
100
AcDbEntity
  8
DATA
 62
     7
100
AcDbText
 10
-277.7702517361111
 20
-367.5144205729167
 30
0.0
 40
1.628841145833333
  1
-24
 41
0.7
 72
     1
 11
-276.25
 21
-366.7
 31
0.0
100
AcDbText
 73
     2
  0
TEXT
  5
159
330
68F
100
AcDbEntity
  8
DATA
 62
     7
100
AcDbText
 10
-274.0802202690972
 20
-367.5144205729167
 30
0.0
 40
1.628841145833333
  1
-12
 41
0.7
 72
     1
 11
-272.75
 21
-366.7
 31
0.0
100
AcDbText
 73
     2
  0
TEXT
  5
15A
330
68F
100
AcDbEntity
  8
DATA
 62
     7
100
AcDbText
 10
-270.2001573350695
 20
-367.5144205729167
 30
0.0
 40
1.628841145833333
  1
-6
 41
0.7
 72
     1
 11
-269.25
 21
-366.7
 31
0.0
100
AcDbText
 73
     2
  0
TEXT
  5
15B
330
68F
100
AcDbEntity
  8
DATA
 62
     7
100
AcDbText
 10
-266.0350472005208
 20
-367.5144205729167
 30
0.0
 40
1.628841145833333
  1
0
 41
0.7
 72
     1
 11
-265.75
 21
-366.7
 31
0.0
100
AcDbText
 73
     2
  0
LINE
  5
15C
330
68F
100
AcDbEntity
  8
DATA
  6
Continuous
 62
     7
100
AcDbLine
 10
-271.0
 20
-384.7
 30
0.0
 11
-271.0
 21
-376.1
 31
0.0
  0
LWPOLYLINE
  5
15D
330
68F
100
AcDbEntity
  8
DATA
  6
Continuous
 62
     7
100
AcDbPolyline
 90
        4
 70
     1
 43
0.0
 10
-277.0
 20
-362.95
 10
-275.5
 20
-362.95
 10
-275.5
 20
-364.45
 10
-277.0
 20
-364.45
  0
LWPOLYLINE
  5
164
330
68F
100
AcDbEntity
  8
DATA
  6
Continuous
 62
     7
100
AcDbPolyline
 90
        4
 70
     1
 43
0.0
 10
-277.0
 20
-368.95
 10
-275.5
 20
-368.95
 10
-275.5
 20
-370.45
 10
-277.0
 20
-370.45
  0
LWPOLYLINE
  5
16B
330
68F
100
AcDbEntity
  8
DATA
  6
Continuous
 62
     7
100
AcDbPolyline
 90
        4
 70
     1
 43
0.0
 10
-273.5
 20
-362.95
 10
-272.0
 20
-362.95
 10
-272.0
 20
-364.45
 10
-273.5
 20
-364.45
  0
LWPOLYLINE
  5
172
330
68F
100
AcDbEntity
  8
DATA
  6
Continuous
 62
     7
100
AcDbPolyline
 90
        4
 70
     1
 43
0.0
 10
-273.5
 20
-368.95
 10
-272.0
 20
-368.95
 10
-272.0
 20
-370.45
 10
-273.5
 20
-370.45
  0
LWPOLYLINE
  5
179
330
68F
100
AcDbEntity
  8
DATA
  6
Continuous
 62
     7
100
AcDbPolyline
 90
        4
 70
     1
 43
0.0
 10
-270.0
 20
-362.95
 10
-268.5
 20
-362.95
 10
-268.5
 20
-364.45
 10
-270.0
 20
-364.45
  0
LWPOLYLINE
  5
180
330
68F
100
AcDbEntity
  8
DATA
  6
Continuous
 62
     7
100
AcDbPolyline
 90
        4
 70
     1
 43
0.0
 10
-270.0
 20
-368.95
 10
-268.5
 20
-368.95
 10
-268.5
 20
-370.45
 10
-270.0
 20
-370.45
  0
LWPOLYLINE
  5
187
330
68F
100
AcDbEntity
  8
DATA
  6
Continuous
 62
     7
100
AcDbPolyline
 90
        4
 70
     1
 43
0.0
 10
-266.5
 20
-362.95
 10
-265.0
 20
-362.95
 10
-265.0
 20
-364.45
 10
-266.5
 20
-364.45
  0
LWPOLYLINE
  5
18E
330
68F
100
AcDbEntity
  8
DATA
  6
Continuous
 62
     7
100
AcDbPolyline
 90
        4
 70
     1
 43
0.0
 10
-266.5
 20
-368.95
 10
-265.0
 20
-368.95
 10
-265.0
 20
-370.45
 10
-266.5
 20
-370.45
  0
CIRCLE
  5
195
330
68F
100
AcDbEntity
  8
DATA
  6
Continuous
 62
     7
100
AcDbCircle
 10
-116.5
 20
-381.7
 30
0.0
 40
13.0
  0
CIRCLE
  5
196
330
68F
100
AcDbEntity
  8
DATA
  6
Continuous
 62
     7
100
AcDbCircle
 10
-116.5
 20
-381.7
 30
0.0
 40
10.5
  0
LINE
  5
197
330
68F
100
AcDbEntity
  8
DATA
  6
Continuous
 62
     7
100
AcDbLine
 10
-135.2621892051727
 20
-393.7
 30
0.0
 11
-239.0
 21
-393.7
 31
0.0
  0
LWPOLYLINE
  5
198
330
68F
100
AcDbEntity
  8
DATA
  6
Continuous
 62
     7
100
AcDbPolyline
 90
        4
 70
     1
 43
0.0
 10
-234.25
 20
-375.95
 10
-232.75
 20
-375.95
 10
-232.75
 20
-377.45
 10
-234.25
 20
-377.45
  0
LWPOLYLINE
  5
19F
330
68F
100
AcDbEntity
  8
DATA
  6
Continuous
 62
     7
100
AcDbPolyline
 90
        4
 70
     1
 43
0.0
 10
-234.25
 20
-384.95
 10
-232.75
 20
-384.95
 10
-232.75
 20
-386.45
 10
-234.25
 20
-386.45
  0
LWPOLYLINE
  5
1A6
330
68F
100
AcDbEntity
  8
DATA
  6
Continuous
 62
     7
100
AcDbPolyline
 90
        4
 70
     1
 43
0.0
 10
-236.0
 20
-373.7
 10
-211.0
 20
-373.7
 10
-211.0
 20
-387.7
 10
-236.0
 20
-387.7
  0
LINE
  5
1AD
330
68F
100
AcDbEntity
  8
DATA
  6
Continuous
 62
     7
100
AcDbLine
 10
-207.0
 20
-367.2
 30
0.0
 11
-207.0
 21
-393.7
 31
0.0
  0
LINE
  5
1AE
330
68F
100
AcDbEntity
  8
DATA
  6
Continuous
 62
     7
100
AcDbLine
 10
-139.0
 20
-367.2
 30
0.0
 11
-139.0
 21
-393.7
 31
0.0
  0
LINE
  5
1AF
330
68F
100
AcDbEntity
  8
DATA
  6
Continuous
 62
     7
100
AcDbLine
 10
-128.5415945787922
 20
-393.7
 30
0.0
 11
-130.7378107948273
 21
-393.7
 31
0.0
  0
LINE
  5
1B0
330
68F
100
AcDbEntity
  8
DATA
  6
Continuous
 62
     7
100
AcDbLine
 10
-239.0
 20
-367.2
 30
0.0
 11
-125.3741196746495
 21
-367.2
 31
0.0
  0
ARC
  5
1B1
330
68F
100
AcDbEntity
  8
DATA
  6
Continuous
 62
     7
100
AcDbCircle
 10
-116.5
 20
-381.7
 30
0.0
 40
16.99999999999996
100
AcDbArc
 50
121.466976293267
 51
224.900872155973
  0
LWPOLYLINE
  5
1B2
330
68F
100
AcDbEntity
  8
DATA
  6
Continuous
 62
     7
100
AcDbPolyline
 90
        4
 70
     1
 43
0.0
 10
-202.5
 20
-371.45
 10
-143.5
 20
-371.45
 10
-143.5
 20
-389.45
 10
-202.5
 20
-389.45
  0
TEXT
  5
1B9
330
68F
100
AcDbEntity
  8
DATA
 62
     7
100
AcDbText
 10
-232.055048223096
 20
-378.0573676215277
 30
0.0
 40
2.714735243055555
  1
S/PDIF
 41
0.7
 11
-232.055048223096
 21
-376.7
 31
0.0
100
AcDbText
 73
     2
  0
TEXT
  5
1BA
330
68F
100
AcDbEntity
  8
DATA
 62
     7
100
AcDbText
 10
-232.055048223096
 20
-387.0573676215278
 30
0.0
 40
2.714735243055555
  1
USB
 41
0.7
 11
-232.055048223096
 21
-385.7
 31
0.0
100
AcDbText
 73
     2
  0
TEXT
  5
1BB
330
68F
100
AcDbEntity
  8
DATA
 62
     7
100
AcDbText
 10
-218.9716396904818
 20
-382.0573676215277
 30
0.0
 40
2.714735243055555
  1
Lock
 41
0.7
 72
     2
 11
-212.0038192333058
 21
-380.7
 31
0.0
100
AcDbText
 73
     2
  0
LWPOLYLINE
  5
1BC
330
68F
100
AcDbEntity
  8
DATA
  6
Continuous
 62
     7
100
AcDbPolyline
 90
        4
 70
     1
 43
0.0
 10
-102.5
 20
-364.7
 10
-92.5
 20
-364.7
 10
-92.5
 20
-370.2
 10
-102.5
 20
-370.2
  0
TEXT
  5
1C3
330
68F
100
AcDbEntity
  8
DATA
 62
     7
100
AcDbText
 10
-274.0880113389757
 20
-374.2930257161458
 30
0.0
 40
2.036051432291666
  1
Input
 41
0.7
 72
     1
 11
-271.0
 21
-373.275
 31
0.0
100
AcDbText
 73
     2
  0
CIRCLE
  5
1C4
330
68F
100
AcDbEntity
  8
DATA
  6
Continuous
 62
     7
100
AcDbCircle
 10
-85.0
 20
-384.7
 30
0.0
 40
9.0
  0
CIRCLE
  5
1C5
330
68F
100
AcDbEntity
  8
DATA
  6
Continuous
 62
     7
100
AcDbCircle
 10
-85.0
 20
-384.7
 30
0.0
 40
6.0
  0
CIRCLE
  5
1C6
330
68F
100
AcDbEntity
  8
DATA
  6
Continuous
 62
     7
100
AcDbCircle
 10
-60.0
 20
-384.7
 30
0.0
 40
9.0
  0
CIRCLE
  5
1C7
330
68F
100
AcDbEntity
  8
DATA
  6
Continuous
 62
     7
100
AcDbCircle
 10
-60.0
 20
-384.7
 30
0.0
 40
6.0
  0
CIRCLE
  5
1C8
330
68F
100
AcDbEntity
  8
DATA
  6
Continuous
 62
     7
100
AcDbCircle
 10
-34.0
 20
-384.7
 30
0.0
 40
9.0
  0
CIRCLE
  5
1C9
330
68F
100
AcDbEntity
  8
DATA
  6
Continuous
 62
     7
100
AcDbCircle
 10
-34.0
 20
-384.7
 30
0.0
 40
6.0
  0
LWPOLYLINE
  5
1CA
330
68F
100
AcDbEntity
  8
DATA
  6
Continuous
 62
     7
100
AcDbPolyline
 90
        4
 70
     1
 43
0.0
 10
-101.0
 20
-365.95
 10
-99.50000000000001
 20
-365.95
 10
-99.50000000000001
 20
-368.95
 10
-101.0
 20
-368.95
  0
LWPOLYLINE
  5
1D1
330
68F
100
AcDbEntity
  8
DATA
  6
Continuous
 62
     7
100
AcDbPolyline
 90
        4
 70
     1
 43
0.0
 10
-77.0
 20
-364.7
 10
-67.0
 20
-364.7
 10
-67.0
 20
-370.2
 10
-77.0
 20
-370.2
  0
LWPOLYLINE
  5
1D8
330
68F
100
AcDbEntity
  8
DATA
  6
Continuous
 62
     7
100
AcDbPolyline
 90
        4
 70
     1
 43
0.0
 10
-75.5
 20
-365.95
 10
-74.0
 20
-365.95
 10
-74.0
 20
-368.95
 10
-75.5
 20
-368.95
  0
LWPOLYLINE
  5
1DF
330
68F
100
AcDbEntity
  8
DATA
  6
Continuous
 62
     7
100
AcDbPolyline
 90
        4
 70
     1
 43
0.0
 10
-52.0
 20
-364.7
 10
-42.0
 20
-364.7
 10
-42.0
 20
-370.2
 10
-52.0
 20
-370.2
  0
LWPOLYLINE
  5
1E6
330
68F
100
AcDbEntity
  8
DATA
  6
Continuous
 62
     7
100
AcDbPolyline
 90
        4
 70
     1
 43
0.0
 10
-50.5
 20
-365.95
 10
-49.0
 20
-365.95
 10
-49.0
 20
-368.95
 10
-50.5
 20
-368.95
  0
TEXT
  5
1ED
330
68F
100
AcDbEntity
  8
DATA
 62
     7
100
AcDbText
 10
-85.31671911168983
 20
-395.8786838107639
 30
0.0
 40
1.357367621527777
  1
A
 41
0.7
 72
     1
 11
-85.0
 21
-395.2
 31
0.0
100
AcDbText
 73
     2
  0
TEXT
  5
1EE
330
68F
100
AcDbEntity
  8
DATA
 62
     7
100
AcDbText
 10
-60.31671911168981
 20
-395.8786838107639
 30
0.0
 40
1.357367621527777
  1
B
 41
0.7
 72
     1
 11
-60.0
 21
-395.2
 31
0.0
100
AcDbText
 73
     2
  0
TEXT
  5
1EF
330
68F
100
AcDbEntity
  8
DATA
 62
     7
100
AcDbText
 10
-34.31671911168982
 20
-395.8786838107639
 30
0.0
 40
1.357367621527777
  1
C
 41
0.7
 72
     1
 11
-34.0
 21
-395.2
 31
0.0
100
AcDbText
 73
     2
  0
LWPOLYLINE
  5
1F0
330
68F
100
AcDbEntity
  8
DATA
  6
Continuous
 62
     7
100
AcDbPolyline
 90
        4
 70
     1
 43
0.0
 10
-16.0
 20
-364.7
 10
-6.0
 20
-364.7
 10
-6.0
 20
-370.2
 10
-16.0
 20
-370.2
  0
LWPOLYLINE
  5
1F7
330
68F
100
AcDbEntity
  8
DATA
  6
Continuous
 62
     7
100
AcDbPolyline
 90
        4
 70
     1
 43
0.0
 10
-14.5
 20
-365.95
 10
-13.0
 20
-365.95
 10
-13.0
 20
-368.95
 10
-14.5
 20
-368.95
  0
LWPOLYLINE
  5
1FE
330
68F
100
AcDbEntity
  8
DATA
  6
Continuous
 62
     7
100
AcDbPolyline
 90
        4
 70
     1
 43
0.0
 10
-16.0
 20
-386.7
 10
-6.0
 20
-386.7
 10
-6.0
 20
-392.2
 10
-16.0
 20
-392.2
  0
LWPOLYLINE
  5
205
330
68F
100
AcDbEntity
  8
DATA
  6
Continuous
 62
     7
100
AcDbPolyline
 90
        4
 70
     1
 43
0.0
 10
-14.5
 20
-387.95
 10
-13.0
 20
-387.95
 10
-13.0
 20
-390.95
 10
-14.5
 20
-390.95
  0
LWPOLYLINE
  5
20C
330
68F
100
AcDbEntity
  8
DATA
  6
Continuous
 62
     7
100
AcDbPolyline
 90
        4
 70
     1
 43
0.0
 10
-16.0
 20
-375.7
 10
-6.0
 20
-375.7
 10
-6.0
 20
-381.2
 10
-16.0
 20
-381.2
  0
LWPOLYLINE
  5
213
330
68F
100
AcDbEntity
  8
DATA
  6
Continuous
 62
     7
100
AcDbPolyline
 90
        4
 70
     1
 43
0.0
 10
-14.5
 20
-376.95
 10
-13.0
 20
-376.95
 10
-13.0
 20
-379.95
 10
-14.5
 20
-379.95
  0
LWPOLYLINE
  5
21A
330
68F
100
AcDbEntity
  8
DATA
  6
Continuous
 62
     7
100
AcDbPolyline
 90
        4
 70
     1
 43
0.0
 10
3.25
 20
-375.45
 10
4.75
 20
-375.45
 10
4.75
 20
-376.95
 10
3.25
 20
-376.95
  0
LWPOLYLINE
  5
221
330
68F
100
AcDbEntity
  8
DATA
  6
Continuous
 62
     7
100
AcDbPolyline
 90
        4
 70
     1
 43
0.0
 10
3.25
 20
-384.95
 10
4.75
 20
-384.95
 10
4.75
 20
-386.45
 10
3.25
 20
-386.45
  0
CIRCLE
  5
228
330
68F
100
AcDbEntity
  8
DATA
  6
Continuous
 62
     7
100
AcDbCircle
 10
51.0
 20
-381.7
 30
0.0
 40
13.0
  0
CIRCLE
  5
229
330
68F
100
AcDbEntity
  8
DATA
  6
Continuous
 62
     7
100
AcDbCircle
 10
51.0
 20
-381.7
 30
0.0
 40
10.5
  0
LINE
  5
22A
330
68F
100
AcDbEntity
  8
DATA
  6
Continuous
 62
     7
100
AcDbLine
 10
-130.5469406855929
 20
-396.7
 30
0.0
 11
51.0
 21
-396.7
 31
0.0
  0
LINE
  5
22B
330
68F
100
AcDbEntity
  8
DATA
  6
Continuous
 62
     7
100
AcDbLine
 10
62.0
 20
-371.5019609728144
 30
0.0
 11
62.0
 21
-357.7
 31
0.0
  0
ARC
  5
22C
330
68F
100
AcDbEntity
  8
DATA
  6
Continuous
 62
     7
100
AcDbCircle
 10
51.0
 20
-381.7
 30
0.0
 40
15.0
100
AcDbArc
 50
270.0
 51
42.83342806606731
  0
LINE
  5
22D
330
68F
100
AcDbEntity
  8
DATA
  6
Continuous
 62
     7
100
AcDbLine
 10
9.0
 20
-391.7
 30
0.0
 11
9.0
 21
-372.7
 31
0.0
  0
ARC
  5
22E
330
68F
100
AcDbEntity
  8
DATA
  6
Continuous
 62
     7
100
AcDbCircle
 10
51.00000000000006
 20
-381.7
 30
0.0
 40
15.00000000000004
100
AcDbArc
 50
143.1301023541561
 51
221.8103148957785
  0
LINE
  5
22F
330
68F
100
AcDbEntity
  8
DATA
  6
Continuous
 62
     7
100
AcDbLine
 10
9.0
 20
-372.7
 30
0.0
 11
39.0
 21
-372.7
 31
0.0
  0
LINE
  5
230
330
68F
100
AcDbEntity
  8
DATA
  6
Continuous
 62
     7
100
AcDbLine
 10
9.0
 20
-391.7
 30
0.0
 11
39.81966011250106
 21
-391.7
 31
0.0
  0
TEXT
  5
231
330
68F
100
AcDbEntity
  8
DATA
 62
     7
100
AcDbText
 10
52.06711832682297
 20
-367.7968840262371
 30
0.0
 40
2.036051432291666
  1
(Push)
 41
0.7
 72
     1
 11
55.63020833333339
 21
-366.7788583100913
 31
0.0
100
AcDbText
 73
     2
  0
LWPOLYLINE
  5
232
330
68F
100
AcDbEntity
  8
DATA
  6
Continuous
 62
     7
100
AcDbPolyline
 90
        4
 70
     1
 43
0.0
 10
78.0
 20
-367.7
 10
92.0
 20
-367.7
 10
92.0
 20
-389.7
 10
78.0
 20
-389.7
  0
LINE
  5
239
330
68F
100
AcDbEntity
  8
DATA
  6
Continuous
 62
     7
100
AcDbLine
 10
89.25
 20
-386.2
 30
0.0
 11
80.75000000000001
 21
-386.2
 31
0.0
  0
LINE
  5
23A
330
68F
100
AcDbEntity
  8
DATA
  6
Continuous
 62
     7
100
AcDbLine
 10
80.75000000000001
 20
-371.2
 30
0.0
 11
89.25
 21
-371.2
 31
0.0
  0
ARC
  5
23B
330
68F
100
AcDbEntity
  8
DATA
  6
Continuous
 62
     7
100
AcDbCircle
 10
136.7500000000001
 20
-378.7
 30
0.0
 40
56.50000000000011
100
AcDbArc
 50
172.3718503314193
 51
187.6281496685807
  0
ARC
  5
23C
330
68F
100
AcDbEntity
  8
DATA
  6
Continuous
 62
     7
100
AcDbCircle
 10
33.24999999999989
 20
-378.7
 30
0.0
 40
56.50000000000011
100
AcDbArc
 50
352.3718503314193
 51
7.628149668580704
  0
LINE
  5
23D
330
68F
100
AcDbEntity
  8
DATA
  6
Continuous
 62
     7
100
AcDbLine
 10
80.47167379887708
 20
-383.7
 30
0.0
 11
89.52832620112294
 21
-383.7
 31
0.0
  0
TEXT
  5
23E
330
68F
100
AcDbEntity
  8
DATA
 62
     7
100
AcDbText
 10
79.45741554542824
 20
-365.1903743272685
 30
0.0
 40
3.393419053819444
  1
Power
 41
0.7
 72
     1
 11
85.0
 21
-363.4936648003588
 31
0.0
100
AcDbText
 73
     2
  0
LINE
  5
23F
330
68F
100
AcDbEntity
  8
DATA
  6
Continuous
 62
     7
100
AcDbLine
 10
-271.5
 20
-315.993758778088
 30
0.0
 11
-271.5
 21
-300.0
 31
0.0
  0
LINE
  5
240
330
68F
100
AcDbEntity
  8
DATA
  6
Continuous
 62
     7
100
AcDbLine
 10
-264.75
 20
-315.0
 30
0.0
 11
-277.25
 21
-315.0
 31
0.0
  0
LINE
  5
241
330
68F
100
AcDbEntity
  8
DATA
  6
Continuous
 62
     7
100
AcDbLine
 10
-264.25
 20
-303.5
 30
0.0
 11
-277.75
 21
-303.5
 31
0.0
  0
LINE
  5
242
330
68F
100
AcDbEntity
  8
DATA
  6
Continuous
 62
     7
100
AcDbLine
 10
-277.25
 20
-315.0
 30
0.0
 11
-277.75
 21
-303.5
 31
0.0
  0
LINE
  5
243
330
68F
100
AcDbEntity
  8
DATA
  6
Continuous
 62
     7
100
AcDbLine
 10
-264.25
 20
-303.5
 30
0.0
 11
-264.75
 21
-315.0
 31
0.0
  0
ARC
  5
244
330
68F
100
AcDbEntity
  8
DATA
  6
Continuous
 62
     7
100
AcDbCircle
 10
-271.0
 20
-295.96875
 30
0.0
 40
20.03125
100
AcDbArc
 50
251.8194461583553
 51
288.1805538416446
  0
LINE
  5
245
330
68F
100
AcDbEntity
  8
DATA
  6
Continuous
 62
     7
100
AcDbLine
 10
-270.5
 20
-315.993758778088
 30
0.0
 11
-270.5
 21
-300.0
 31
0.0
  0
LINE
  5
246
330
68F
100
AcDbEntity
  8
DATA
  6
Continuous
 62
     7
100
AcDbLine
 10
-277.75
 20
-303.5
 30
0.0
 11
-279.6
 21
-300.0
 31
0.0
  0
LINE
  5
247
330
68F
100
AcDbEntity
  8
DATA
  6
Continuous
 62
     7
100
AcDbLine
 10
-264.25
 20
-303.5
 30
0.0
 11
-262.4
 21
-300.0
 31
0.0
  0
LINE
  5
248
330
68F
100
AcDbEntity
  8
DATA
  6
Continuous
 62
     7
100
AcDbLine
 10
-78.75
 20
-315.0
 30
0.0
 11
-91.25
 21
-315.0
 31
0.0
  0
LINE
  5
249
330
68F
100
AcDbEntity
  8
DATA
  6
Continuous
 62
     7
100
AcDbLine
 10
-78.25
 20
-303.5
 30
0.0
 11
-91.75
 21
-303.5
 31
0.0
  0
LINE
  5
24A
330
68F
100
AcDbEntity
  8
DATA
  6
Continuous
 62
     7
100
AcDbLine
 10
-91.25
 20
-315.0
 30
0.0
 11
-91.75
 21
-303.5
 31
0.0
  0
LINE
  5
24B
330
68F
100
AcDbEntity
  8
DATA
  6
Continuous
 62
     7
100
AcDbLine
 10
-78.25
 20
-303.5
 30
0.0
 11
-78.75
 21
-315.0
 31
0.0
  0
ARC
  5
24C
330
68F
100
AcDbEntity
  8
DATA
  6
Continuous
 62
     7
100
AcDbCircle
 10
-85.0
 20
-295.96875
 30
0.0
 40
20.03125
100
AcDbArc
 50
251.8194461583553
 51
288.1805538416446
  0
LINE
  5
24D
330
68F
100
AcDbEntity
  8
DATA
  6
Continuous
 62
     7
100
AcDbLine
 10
-91.75
 20
-303.5
 30
0.0
 11
-92.5
 21
-302.081081081081
 31
0.0
  0
LINE
  5
24E
330
68F
100
AcDbEntity
  8
DATA
  6
Continuous
 62
     7
100
AcDbLine
 10
-78.25
 20
-303.5
 30
0.0
 11
-77.0
 21
-301.1351351351352
 31
0.0
  0
LINE
  5
24F
330
68F
100
AcDbEntity
  8
DATA
  6
Continuous
 62
     7
100
AcDbLine
 10
-53.75
 20
-315.0
 30
0.0
 11
-66.25
 21
-315.0
 31
0.0
  0
LINE
  5
250
330
68F
100
AcDbEntity
  8
DATA
  6
Continuous
 62
     7
100
AcDbLine
 10
-53.25
 20
-303.5
 30
0.0
 11
-66.75
 21
-303.5
 31
0.0
  0
LINE
  5
251
330
68F
100
AcDbEntity
  8
DATA
  6
Continuous
 62
     7
100
AcDbLine
 10
-66.25
 20
-315.0
 30
0.0
 11
-66.75
 21
-303.5
 31
0.0
  0
LINE
  5
252
330
68F
100
AcDbEntity
  8
DATA
  6
Continuous
 62
     7
100
AcDbLine
 10
-53.25
 20
-303.5
 30
0.0
 11
-53.75
 21
-315.0
 31
0.0
  0
ARC
  5
253
330
68F
100
AcDbEntity
  8
DATA
  6
Continuous
 62
     7
100
AcDbCircle
 10
-60.0
 20
-295.96875
 30
0.0
 40
20.03125
100
AcDbArc
 50
251.8194461583553
 51
288.1805538416446
  0
LINE
  5
254
330
68F
100
AcDbEntity
  8
DATA
  6
Continuous
 62
     7
100
AcDbLine
 10
-66.75
 20
-303.5
 30
0.0
 11
-67.27857142857144
 21
-302.5
 31
0.0
  0
LINE
  5
255
330
68F
100
AcDbEntity
  8
DATA
  6
Continuous
 62
     7
100
AcDbLine
 10
-53.25
 20
-303.5
 30
0.0
 11
-52.0
 21
-301.1351351351352
 31
0.0
  0
LINE
  5
256
330
68F
100
AcDbEntity
  8
DATA
  6
Continuous
 62
     7
100
AcDbLine
 10
-27.75
 20
-315.0
 30
0.0
 11
-40.25
 21
-315.0
 31
0.0
  0
LINE
  5
257
330
68F
100
AcDbEntity
  8
DATA
  6
Continuous
 62
     7
100
AcDbLine
 10
-27.25
 20
-303.5
 30
0.0
 11
-40.75
 21
-303.5
 31
0.0
  0
LINE
  5
258
330
68F
100
AcDbEntity
  8
DATA
  6
Continuous
 62
     7
100
AcDbLine
 10
-40.25
 20
-315.0
 30
0.0
 11
-40.75
 21
-303.5
 31
0.0
  0
LINE
  5
259
330
68F
100
AcDbEntity
  8
DATA
  6
Continuous
 62
     7
100
AcDbLine
 10
-27.25
 20
-303.5
 30
0.0
 11
-27.75
 21
-315.0
 31
0.0
  0
ARC
  5
25A
330
68F
100
AcDbEntity
  8
DATA
  6
Continuous
 62
     7
100
AcDbCircle
 10
-34.0
 20
-295.96875
 30
0.0
 40
20.03125
100
AcDbArc
 50
251.8194461583553
 51
288.1805538416446
  0
LINE
  5
25B
330
68F
100
AcDbEntity
  8
DATA
  6
Continuous
 62
     7
100
AcDbLine
 10
-40.75
 20
-303.5
 30
0.0
 11
-41.99999999999998
 21
-301.1351351351352
 31
0.0
  0
LINE
  5
25C
330
68F
100
AcDbEntity
  8
DATA
  6
Continuous
 62
     7
100
AcDbLine
 10
-27.25
 20
-303.5
 30
0.0
 11
-25.39999999999998
 21
-300.0
 31
0.0
  0
LINE
  5
25D
330
68F
100
AcDbEntity
  8
DATA
  6
Continuous
 62
     7
100
AcDbLine
 10
-106.0
 20
-319.0
 30
0.0
 11
-127.0
 21
-319.0
 31
0.0
  0
ARC
  5
25E
330
68F
100
AcDbEntity
  8
DATA
  6
Continuous
 62
     7
100
AcDbCircle
 10
-116.5
 20
-264.375
 30
0.0
 40
55.625
100
AcDbArc
 50
259.119335937989
 51
280.880664062011
  0
LINE
  5
25F
330
68F
100
AcDbEntity
  8
DATA
  6
Continuous
 62
     7
100
AcDbLine
 10
-129.5
 20
-303.0
 30
0.0
 11
-129.5
 21
-300.0
 31
0.0
  0
LINE
  5
260
330
68F
100
AcDbEntity
  8
DATA
  6
Continuous
 62
     7
100
AcDbLine
 10
-103.5
 20
-303.0
 30
0.0
 11
-103.5
 21
-300.0
 31
0.0
  0
LINE
  5
261
330
68F
100
AcDbEntity
  8
DATA
  6
Continuous
 62
     7
100
AcDbLine
 10
-129.5
 20
-303.0
 30
0.0
 11
-103.5
 21
-303.0
 31
0.0
  0
LINE
  5
262
330
68F
100
AcDbEntity
  8
DATA
  6
Continuous
 62
     7
100
AcDbLine
 10
-105.5
 20
-306.5
 30
0.0
 11
-127.5
 21
-306.5
 31
0.0
  0
LINE
  5
263
330
68F
100
AcDbEntity
  8
DATA
  6
Continuous
 62
     7
100
AcDbLine
 10
-129.5
 20
-303.0
 30
0.0
 11
-127.5
 21
-306.5
 31
0.0
  0
LINE
  5
264
330
68F
100
AcDbEntity
  8
DATA
  6
Continuous
 62
     7
100
AcDbLine
 10
-127.0
 20
-319.0
 30
0.0
 11
-127.5
 21
-306.5
 31
0.0
  0
LINE
  5
265
330
68F
100
AcDbEntity
  8
DATA
  6
Continuous
 62
     7
100
AcDbLine
 10
-105.5
 20
-306.5
 30
0.0
 11
-103.5
 21
-303.0
 31
0.0
  0
LINE
  5
266
330
68F
100
AcDbEntity
  8
DATA
  6
Continuous
 62
     7
100
AcDbLine
 10
-105.5
 20
-306.5
 30
0.0
 11
-106.0
 21
-319.0
 31
0.0
  0
LINE
  5
267
330
68F
100
AcDbEntity
  8
DATA
  6
Continuous
 62
     7
100
AcDbLine
 10
61.5
 20
-319.0
 30
0.0
 11
40.49999999999999
 21
-319.0
 31
0.0
  0
ARC
  5
268
330
68F
100
AcDbEntity
  8
DATA
  6
Continuous
 62
     7
100
AcDbCircle
 10
51.0
 20
-264.375
 30
0.0
 40
55.625
100
AcDbArc
 50
259.119335937989
 51
280.880664062011
  0
LINE
  5
269
330
68F
100
AcDbEntity
  8
DATA
  6
Continuous
 62
     7
100
AcDbLine
 10
38.0
 20
-303.0
 30
0.0
 11
38.0
 21
-300.0
 31
0.0
  0
LINE
  5
26A
330
68F
100
AcDbEntity
  8
DATA
  6
Continuous
 62
     7
100
AcDbLine
 10
64.0
 20
-303.0
 30
0.0
 11
64.0
 21
-300.0
 31
0.0
  0
LINE
  5
26B
330
68F
100
AcDbEntity
  8
DATA
  6
Continuous
 62
     7
100
AcDbLine
 10
38.0
 20
-303.0
 30
0.0
 11
64.0
 21
-303.0
 31
0.0
  0
LINE
  5
26C
330
68F
100
AcDbEntity
  8
DATA
  6
Continuous
 62
     7
100
AcDbLine
 10
62.0
 20
-306.5
 30
0.0
 11
40.0
 21
-306.5
 31
0.0
  0
LINE
  5
26D
330
68F
100
AcDbEntity
  8
DATA
  6
Continuous
 62
     7
100
AcDbLine
 10
38.0
 20
-303.0
 30
0.0
 11
40.0
 21
-306.5
 31
0.0
  0
LINE
  5
26E
330
68F
100
AcDbEntity
  8
DATA
  6
Continuous
 62
     7
100
AcDbLine
 10
40.49999999999999
 20
-319.0
 30
0.0
 11
40.0
 21
-306.5
 31
0.0
  0
LINE
  5
26F
330
68F
100
AcDbEntity
  8
DATA
  6
Continuous
 62
     7
100
AcDbLine
 10
62.0
 20
-306.5
 30
0.0
 11
64.0
 21
-303.0
 31
0.0
  0
LINE
  5
270
330
68F
100
AcDbEntity
  8
DATA
  6
Continuous
 62
     7
100
AcDbLine
 10
62.0
 20
-306.5
 30
0.0
 11
61.5
 21
-319.0
 31
0.0
  0
LINE
  5
271
330
68F
100
AcDbEntity
  8
DATA
  6
Continuous
 62
     7
100
AcDbLine
 10
-92.5
 20
-302.5
 30
0.0
 11
-92.5
 21
-300.0
 31
0.0
  0
LINE
  5
272
330
68F
100
AcDbEntity
  8
DATA
  6
Continuous
 62
     7
100
AcDbLine
 10
-102.5
 20
-302.5
 30
0.0
 11
-102.5
 21
-300.0
 31
0.0
  0
LINE
  5
273
330
68F
100
AcDbEntity
  8
DATA
  6
Continuous
 62
     7
100
AcDbLine
 10
-92.5
 20
-302.5
 30
0.0
 11
-102.5
 21
-302.5
 31
0.0
  0
LINE
  5
274
330
68F
100
AcDbEntity
  8
DATA
  6
Continuous
 62
     7
100
AcDbLine
 10
-67.0
 20
-302.5
 30
0.0
 11
-67.0
 21
-300.0
 31
0.0
  0
LINE
  5
275
330
68F
100
AcDbEntity
  8
DATA
  6
Continuous
 62
     7
100
AcDbLine
 10
-77.0
 20
-302.5
 30
0.0
 11
-77.0
 21
-300.0
 31
0.0
  0
LINE
  5
276
330
68F
100
AcDbEntity
  8
DATA
  6
Continuous
 62
     7
100
AcDbLine
 10
-67.0
 20
-302.5
 30
0.0
 11
-77.0
 21
-302.5
 31
0.0
  0
LINE
  5
277
330
68F
100
AcDbEntity
  8
DATA
  6
Continuous
 62
     7
100
AcDbLine
 10
-42.0
 20
-302.5
 30
0.0
 11
-42.0
 21
-300.0
 31
0.0
  0
LINE
  5
278
330
68F
100
AcDbEntity
  8
DATA
  6
Continuous
 62
     7
100
AcDbLine
 10
-52.0
 20
-302.5
 30
0.0
 11
-52.0
 21
-300.0
 31
0.0
  0
LINE
  5
279
330
68F
100
AcDbEntity
  8
DATA
  6
Continuous
 62
     7
100
AcDbLine
 10
-42.0
 20
-302.5
 30
0.0
 11
-52.0
 21
-302.5
 31
0.0
  0
LINE
  5
27A
330
68F
100
AcDbEntity
  8
DATA
  6
Continuous
 62
     7
100
AcDbLine
 10
-6.0
 20
-302.5
 30
0.0
 11
-6.0
 21
-300.0
 31
0.0
  0
LINE
  5
27B
330
68F
100
AcDbEntity
  8
DATA
  6
Continuous
 62
     7
100
AcDbLine
 10
-16.0
 20
-302.5
 30
0.0
 11
-16.0
 21
-300.0
 31
0.0
  0
LINE
  5
27C
330
68F
100
AcDbEntity
  8
DATA
  6
Continuous
 62
     7
100
AcDbLine
 10
-6.0
 20
-302.5
 30
0.0
 11
-16.0
 21
-302.5
 31
0.0
  0
LINE
  5
27D
330
68F
100
AcDbEntity
  8
DATA
  6
Continuous
 62
     7
100
AcDbLine
 10
172.0
 20
-369.625
 30
0.0
 11
175.0
 21
-369.625
 31
0.0
  0
LINE
  5
27E
330
68F
100
AcDbEntity
  8
DATA
  6
Continuous
 62
     7
100
AcDbLine
 10
172.0
 20
-363.5750000000001
 30
0.0
 11
175.0
 21
-363.5750000000001
 31
0.0
  0
LINE
  5
27F
330
68F
100
AcDbEntity
  8
DATA
  6
Continuous
 62
     7
100
AcDbLine
 10
172.0
 20
-369.625
 30
0.0
 11
172.0
 21
-363.5750000000001
 31
0.0
  0
LINE
  5
280
330
68F
100
AcDbEntity
  8
DATA
  6
Continuous
 62
     7
100
AcDbLine
 10
172.0
 20
-392.125
 30
0.0
 11
175.0
 21
-392.125
 31
0.0
  0
LINE
  5
281
330
68F
100
AcDbEntity
  8
DATA
  6
Continuous
 62
     7
100
AcDbLine
 10
172.0
 20
-386.0750000000001
 30
0.0
 11
175.0
 21
-386.0750000000001
 31
0.0
  0
LINE
  5
282
330
68F
100
AcDbEntity
  8
DATA
  6
Continuous
 62
     7
100
AcDbLine
 10
172.0
 20
-392.125
 30
0.0
 11
172.0
 21
-386.0750000000001
 31
0.0
  0
LINE
  5
283
330
68F
100
AcDbEntity
  8
DATA
  6
Continuous
 62
     7
100
AcDbLine
 10
80.47167379887708
 20
-302.0
 30
0.0
 11
80.47167379887708
 21
-300.0
 31
0.0
  0
LINE
  5
284
330
68F
100
AcDbEntity
  8
DATA
  6
Continuous
 62
     7
100
AcDbLine
 10
89.52832620112294
 20
-302.0
 30
0.0
 11
89.52832620112294
 21
-300.0
 31
0.0
  0
LINE
  5
285
330
68F
100
AcDbEntity
  8
DATA
  6
Continuous
 62
     7
100
AcDbLine
 10
89.52832620112294
 20
-302.0
 30
0.0
 11
80.47167379887708
 21
-302.0
 31
0.0
  0
ARC
  5
286
330
68F
100
AcDbEntity
  8
DATA
  6
Continuous
 62
     7
100
AcDbCircle
 10
165.816666666667
 20
-377.6083333333335
 30
0.0
 40
9.418528576988476
100
AcDbArc
 50
319.7011274863132
 51
347.1687701595302
  0
ARC
  5
287
330
68F
100
AcDbEntity
  8
DATA
  6
Continuous
 62
     7
100
AcDbCircle
 10
170.8166666666668
 20
-387.8833333333332
 30
0.0
 40
4.718815764810075
100
AcDbArc
 50
27.56061222738529
 51
62.43938777261471
  0
LINE
  5
288
330
68F
100
AcDbEntity
  8
DATA
  6
Continuous
 62
     7
100
AcDbLine
 10
156.0
 20
-392.2
 30
0.0
 11
156.0
 21
-371.2
 31
0.0
  0
ARC
  5
289
330
68F
100
AcDbEntity
  8
DATA
  6
Continuous
 62
     7
100
AcDbCircle
 10
210.625
 20
-381.7
 30
0.0
 40
55.625
100
AcDbArc
 50
169.119335937989
 51
190.8806640620109
  0
LINE
  5
28A
330
68F
100
AcDbEntity
  8
DATA
  6
Continuous
 62
     7
100
AcDbLine
 10
172.0
 20
-394.7
 30
0.0
 11
175.0
 21
-394.7
 31
0.0
  0
LINE
  5
28B
330
68F
100
AcDbEntity
  8
DATA
  6
Continuous
 62
     7
100
AcDbLine
 10
172.0
 20
-369.625
 30
0.0
 11
172.0
 21
-386.0750000000001
 31
0.0
  0
LINE
  5
28C
330
68F
100
AcDbEntity
  8
DATA
  6
Continuous
 62
     7
100
AcDbLine
 10
168.5
 20
-392.7
 30
0.0
 11
168.5
 21
-370.7
 31
0.0
  0
LINE
  5
28D
330
68F
100
AcDbEntity
  8
DATA
  6
Continuous
 62
     7
100
AcDbLine
 10
172.0
 20
-368.7
 30
0.0
 11
168.5
 21
-370.7
 31
0.0
  0
LINE
  5
28E
330
68F
100
AcDbEntity
  8
DATA
  6
Continuous
 62
     7
100
AcDbLine
 10
156.0
 20
-371.2
 30
0.0
 11
168.5
 21
-370.7
 31
0.0
  0
LINE
  5
28F
330
68F
100
AcDbEntity
  8
DATA
  6
Continuous
 62
     7
100
AcDbLine
 10
168.5
 20
-392.7
 30
0.0
 11
172.0
 21
-394.7
 31
0.0
  0
LINE
  5
290
330
68F
100
AcDbEntity
  8
DATA
  6
Continuous
 62
     7
100
AcDbLine
 10
168.5
 20
-392.7
 30
0.0
 11
156.0
 21
-392.2
 31
0.0
  0
LINE
  5
291
330
68F
100
AcDbEntity
  8
DATA
  6
Continuous
 62
     7
100
AcDbLine
 10
172.0
 20
-392.125
 30
0.0
 11
172.0
 21
-394.7
 31
0.0
  0
LINE
  5
292
330
68F
100
AcDbEntity
  8
DATA
  6
Continuous
 62
     7
100
AcDbLine
 10
172.5
 20
-362.45
 30
0.0
 11
175.0
 21
-362.45
 31
0.0
  0
LINE
  5
293
330
68F
100
AcDbEntity
  8
DATA
  6
Continuous
 62
     7
100
AcDbLine
 10
172.5
 20
-363.5750000000001
 30
0.0
 11
172.5
 21
-362.45
 31
0.0
  0
LINE
  5
294
330
68F
100
AcDbEntity
  8
DATA
  6
Continuous
 62
     7
100
AcDbLine
 10
172.0
 20
-398.375
 30
0.0
 11
175.0
 21
-398.375
 31
0.0
  0
LINE
  5
295
330
68F
100
AcDbEntity
  8
DATA
  6
Continuous
 62
     7
100
AcDbLine
 10
172.0
 20
-398.375
 30
0.0
 11
172.0
 21
-394.7
 31
0.0
  0
LINE
  5
296
330
68F
100
AcDbEntity
  8
DATA
  6
Continuous
 62
     7
100
AcDbLine
 10
172.0
 20
-363.375
 30
0.0
 11
172.5
 21
-363.375
 31
0.0
  0
LINE
  5
297
330
68F
100
AcDbEntity
  8
DATA
  6
Continuous
 62
     7
100
AcDbLine
 10
172.0
 20
-357.3250000000001
 30
0.0
 11
175.0
 21
-357.3250000000001
 31
0.0
  0
LINE
  5
298
330
68F
100
AcDbEntity
  8
DATA
  6
Continuous
 62
     7
100
AcDbLine
 10
172.0
 20
-363.375
 30
0.0
 11
172.0
 21
-357.3250000000001
 31
0.0
  0
LWPOLYLINE
  5
299
330
68F
100
AcDbEntity
  8
DATA
  6
Continuous
 62
     7
100
AcDbPolyline
 90
        4
 70
     1
 43
0.0
 10
-350.0
 20
-30.69999999999999
 10
133.0
 20
-30.69999999999999
 10
133.0
 20
-75.0
 10
-350.0
 20
-75.0
  0
ARC
  5
2A0
330
68F
100
AcDbEntity
  8
DATA
  6
Continuous
 62
     7
100
AcDbCircle
 10
120.8499999999995
 20
-36.97500000000002
 30
0.0
 40
3.149999999999977
100
AcDbArc
 50
90.0
 51
270.0
  0
ARC
  5
2A1
330
68F
100
AcDbEntity
  8
DATA
  6
Continuous
 62
     7
100
AcDbCircle
 10
125.3499999999997
 20
-36.97500000000002
 30
0.0
 40
3.149999999999977
100
AcDbArc
 50
270.0
 51
90.0
  0
LINE
  5
2A2
330
68F
100
AcDbEntity
  8
DATA
  6
Continuous
 62
     7
100
AcDbLine
 10
120.8499999999995
 20
-33.82500000000005
 30
0.0
 11
125.3499999999997
 21
-33.82500000000005
 31
0.0
  0
LINE
  5
2A3
330
68F
100
AcDbEntity
  8
DATA
  6
Continuous
 62
     7
100
AcDbLine
 10
120.8499999999995
 20
-40.125
 30
0.0
 11
125.3499999999997
 21
-40.125
 31
0.0
  0
ARC
  5
2A4
330
68F
100
AcDbEntity
  8
DATA
  6
Continuous
 62
     7
100
AcDbCircle
 10
120.8499999999995
 20
-68.72500000000002
 30
0.0
 40
3.149999999999977
100
AcDbArc
 50
90.0
 51
270.0
  0
ARC
  5
2A5
330
68F
100
AcDbEntity
  8
DATA
  6
Continuous
 62
     7
100
AcDbCircle
 10
125.3499999999997
 20
-68.72500000000002
 30
0.0
 40
3.149999999999977
100
AcDbArc
 50
270.0
 51
90.0
  0
LINE
  5
2A6
330
68F
100
AcDbEntity
  8
DATA
  6
Continuous
 62
     7
100
AcDbLine
 10
120.8499999999995
 20
-71.875
 30
0.0
 11
125.3499999999997
 21
-71.875
 31
0.0
  0
LINE
  5
2A7
330
68F
100
AcDbEntity
  8
DATA
  6
Continuous
 62
     7
100
AcDbLine
 10
120.8499999999995
 20
-65.57500000000004
 30
0.0
 11
125.3499999999997
 21
-65.57500000000004
 31
0.0
  0
ARC
  5
2A8
330
68F
100
AcDbEntity
  8
DATA
  6
Continuous
 62
     7
100
AcDbCircle
 10
-337.8499999999994
 20
-36.97500000000002
 30
0.0
 40
3.149999999999977
100
AcDbArc
 50
270.0
 51
90.0
  0
ARC
  5
2A9
330
68F
100
AcDbEntity
  8
DATA
  6
Continuous
 62
     7
100
AcDbCircle
 10
-342.3499999999998
 20
-36.97500000000002
 30
0.0
 40
3.149999999999977
100
AcDbArc
 50
90.0
 51
270.0
  0
LINE
  5
2AA
330
68F
100
AcDbEntity
  8
DATA
  6
Continuous
 62
     7
100
AcDbLine
 10
-337.8499999999994
 20
-33.82500000000005
 30
0.0
 11
-342.3499999999998
 21
-33.82500000000005
 31
0.0
  0
LINE
  5
2AB
330
68F
100
AcDbEntity
  8
DATA
  6
Continuous
 62
     7
100
AcDbLine
 10
-337.8499999999994
 20
-40.125
 30
0.0
 11
-342.3499999999998
 21
-40.125
 31
0.0
  0
ARC
  5
2AC
330
68F
100
AcDbEntity
  8
DATA
  6
Continuous
 62
     7
100
AcDbCircle
 10
-337.8499999999994
 20
-68.72500000000002
 30
0.0
 40
3.149999999999977
100
AcDbArc
 50
270.0
 51
90.0
  0
ARC
  5
2AD
330
68F
100
AcDbEntity
  8
DATA
  6
Continuous
 62
     7
100
AcDbCircle
 10
-342.3499999999998
 20
-68.72500000000002
 30
0.0
 40
3.149999999999977
100
AcDbArc
 50
90.0
 51
270.0
  0
LINE
  5
2AE
330
68F
100
AcDbEntity
  8
DATA
  6
Continuous
 62
     7
100
AcDbLine
 10
-337.8499999999994
 20
-71.875
 30
0.0
 11
-342.3499999999998
 21
-71.875
 31
0.0
  0
LINE
  5
2AF
330
68F
100
AcDbEntity
  8
DATA
  6
Continuous
 62
     7
100
AcDbLine
 10
-337.8499999999994
 20
-65.57500000000004
 30
0.0
 11
-342.3499999999998
 21
-65.57500000000004
 31
0.0
  0
LINE
  5
2B0
330
68F
100
AcDbEntity
  8
DATA
  6
Continuous
 62
     7
100
AcDbLine
 10
-326.5
 20
-75.0
 30
0.0
 11
-326.5
 21
-30.69999999999999
 31
0.0
  0
LINE
  5
2B1
330
68F
100
AcDbEntity
  8
DATA
  6
Continuous
 62
     7
100
AcDbLine
 10
109.5
 20
-75.0
 30
0.0
 11
109.5
 21
-30.69999999999999
 31
0.0
  0
CIRCLE
  5
2B2
330
68F
100
AcDbEntity
  8
DATA
  6
Continuous
 62
     7
100
AcDbCircle
 10
187.0
 20
-361.85
 30
0.0
 40
3.400000000000005
  0
LINE
  5
2B3
330
68F
100
AcDbEntity
  8
DATA
  6
Continuous
 62
     7
100
AcDbLine
 10
188.75
 20
-361.85
 30
0.0
 11
185.25
 21
-361.85
 31
0.0
  0
LINE
  5
2B4
330
68F
100
AcDbEntity
  8
DATA
  6
Continuous
 62
     7
100
AcDbLine
 10
187.0
 20
-360.1
 30
0.0
 11
187.0
 21
-363.6
 31
0.0
  0
CIRCLE
  5
2B5
330
68F
100
AcDbEntity
  8
DATA
  6
Continuous
 62
     7
100
AcDbCircle
 10
187.0
 20
-393.85
 30
0.0
 40
3.400000000000005
  0
LINE
  5
2B6
330
68F
100
AcDbEntity
  8
DATA
  6
Continuous
 62
     7
100
AcDbLine
 10
188.75
 20
-393.85
 30
0.0
 11
185.25
 21
-393.85
 31
0.0
  0
LINE
  5
2B7
330
68F
100
AcDbEntity
  8
DATA
  6
Continuous
 62
     7
100
AcDbLine
 10
187.0
 20
-392.1
 30
0.0
 11
187.0
 21
-395.6
 31
0.0
  0
CIRCLE
  5
2B8
330
68F
100
AcDbEntity
  8
DATA
  6
Continuous
 62
     7
100
AcDbCircle
 10
307.5
 20
-393.85
 30
0.0
 40
3.399999999999977
  0
LINE
  5
2B9
330
68F
100
AcDbEntity
  8
DATA
  6
Continuous
 62
     7
100
AcDbLine
 10
309.25
 20
-393.85
 30
0.0
 11
305.75
 21
-393.85
 31
0.0
  0
LINE
  5
2BA
330
68F
100
AcDbEntity
  8
DATA
  6
Continuous
 62
     7
100
AcDbLine
 10
307.5
 20
-392.1
 30
0.0
 11
307.5
 21
-395.6
 31
0.0
  0
LWPOLYLINE
  5
2BB
330
68F
100
AcDbEntity
  8
DATA
  6
Continuous
 62
     7
100
AcDbPolyline
 90
        4
 70
     1
 43
0.0
 10
224.0
 20
-367.05
 10
240.0
 20
-367.05
 10
240.0
 20
-368.65
 10
224.0
 20
-368.65
  0
LWPOLYLINE
  5
2C2
330
68F
100
AcDbEntity
  8
DATA
  6
Continuous
 62
     7
100
AcDbPolyline
 90
        4
 70
     1
 43
0.0
 10
264.5
 20
-367.05
 10
280.5
 20
-367.05
 10
280.5
 20
-368.65
 10
264.5
 20
-368.65
  0
LWPOLYLINE
  5
2C9
330
68F
100
AcDbEntity
  8
DATA
  6
Continuous
 62
     7
100
AcDbPolyline
 90
        4
 70
     1
 43
0.0
 10
244.25
 20
-367.05
 10
260.25
 20
-367.05
 10
260.25
 20
-368.65
 10
244.25
 20
-368.65
  0
LWPOLYLINE
  5
2D0
330
68F
100
AcDbEntity
  8
DATA
  6
Continuous
 62
     7
100
AcDbPolyline
 90
        4
 70
     1
 43
0.0
 10
224.0
 20
-372.05
 10
240.0
 20
-372.05
 10
240.0
 20
-373.65
 10
224.0
 20
-373.65
  0
LWPOLYLINE
  5
2D7
330
68F
100
AcDbEntity
  8
DATA
  6
Continuous
 62
     7
100
AcDbPolyline
 90
        4
 70
     1
 43
0.0
 10
264.5
 20
-372.05
 10
280.5
 20
-372.05
 10
280.5
 20
-373.65
 10
264.5
 20
-373.65
  0
LWPOLYLINE
  5
2DE
330
68F
100
AcDbEntity
  8
DATA
  6
Continuous
 62
     7
100
AcDbPolyline
 90
        4
 70
     1
 43
0.0
 10
244.25
 20
-372.05
 10
260.25
 20
-372.05
 10
260.25
 20
-373.65
 10
244.25
 20
-373.65
  0
LWPOLYLINE
  5
2E5
330
68F
100
AcDbEntity
  8
DATA
  6
Continuous
 62
     7
100
AcDbPolyline
 90
        4
 70
     1
 43
0.0
 10
224.0
 20
-377.05
 10
240.0
 20
-377.05
 10
240.0
 20
-378.65
 10
224.0
 20
-378.65
  0
LWPOLYLINE
  5
2EC
330
68F
100
AcDbEntity
  8
DATA
  6
Continuous
 62
     7
100
AcDbPolyline
 90
        4
 70
     1
 43
0.0
 10
264.5
 20
-377.05
 10
280.5
 20
-377.05
 10
280.5
 20
-378.65
 10
264.5
 20
-378.65
  0
LWPOLYLINE
  5
2F3
330
68F
100
AcDbEntity
  8
DATA
  6
Continuous
 62
     7
100
AcDbPolyline
 90
        4
 70
     1
 43
0.0
 10
244.25
 20
-377.05
 10
260.25
 20
-377.05
 10
260.25
 20
-378.65
 10
244.25
 20
-378.65
  0
LWPOLYLINE
  5
2FA
330
68F
100
AcDbEntity
  8
DATA
  6
Continuous
 62
     7
100
AcDbPolyline
 90
        4
 70
     1
 43
0.0
 10
224.0
 20
-382.05
 10
240.0
 20
-382.05
 10
240.0
 20
-383.65
 10
224.0
 20
-383.65
  0
LWPOLYLINE
  5
301
330
68F
100
AcDbEntity
  8
DATA
  6
Continuous
 62
     7
100
AcDbPolyline
 90
        4
 70
     1
 43
0.0
 10
264.5
 20
-382.05
 10
280.5
 20
-382.05
 10
280.5
 20
-383.65
 10
264.5
 20
-383.65
  0
LWPOLYLINE
  5
308
330
68F
100
AcDbEntity
  8
DATA
  6
Continuous
 62
     7
100
AcDbPolyline
 90
        4
 70
     1
 43
0.0
 10
244.25
 20
-382.05
 10
260.25
 20
-382.05
 10
260.25
 20
-383.65
 10
244.25
 20
-383.65
  0
LWPOLYLINE
  5
30F
330
68F
100
AcDbEntity
  8
DATA
  6
Continuous
 62
     7
100
AcDbPolyline
 90
        4
 70
     1
 43
0.0
 10
224.0
 20
-387.05
 10
240.0
 20
-387.05
 10
240.0
 20
-388.65
 10
224.0
 20
-388.65
  0
LWPOLYLINE
  5
316
330
68F
100
AcDbEntity
  8
DATA
  6
Continuous
 62
     7
100
AcDbPolyline
 90
        4
 70
     1
 43
0.0
 10
264.5
 20
-387.05
 10
280.5
 20
-387.05
 10
280.5
 20
-388.65
 10
264.5
 20
-388.65
  0
LWPOLYLINE
  5
31D
330
68F
100
AcDbEntity
  8
DATA
  6
Continuous
 62
     7
100
AcDbPolyline
 90
        4
 70
     1
 43
0.0
 10
244.25
 20
-387.05
 10
260.25
 20
-387.05
 10
260.25
 20
-388.65
 10
244.25
 20
-388.65
  0
LWPOLYLINE
  5
324
330
68F
100
AcDbEntity
  8
DATA
  6
Continuous
 62
     7
100
AcDbPolyline
 90
        4
 70
     1
 43
0.0
 10
-5.300000000000011
 20
-231.5
 10
-3.699999999999988
 20
-231.5
 10
-3.699999999999988
 20
-247.5
 10
-5.300000000000011
 20
-247.5
  0
LWPOLYLINE
  5
32B
330
68F
100
AcDbEntity
  8
DATA
  6
Continuous
 62
     7
100
AcDbPolyline
 90
        4
 70
     1
 43
0.0
 10
-5.300000000000011
 20
-191.0
 10
-3.699999999999988
 20
-191.0
 10
-3.699999999999988
 20
-207.0
 10
-5.300000000000011
 20
-207.0
  0
LWPOLYLINE
  5
332
330
68F
100
AcDbEntity
  8
DATA
  6
Continuous
 62
     7
100
AcDbPolyline
 90
        4
 70
     1
 43
0.0
 10
-5.300000000000011
 20
-211.25
 10
-3.699999999999988
 20
-211.25
 10
-3.699999999999988
 20
-227.25
 10
-5.300000000000011
 20
-227.25
  0
LWPOLYLINE
  5
339
330
68F
100
AcDbEntity
  8
DATA
  6
Continuous
 62
     7
100
AcDbPolyline
 90
        4
 70
     1
 43
0.0
 10
-0.3000000000000114
 20
-231.5
 10
1.300000000000011
 20
-231.5
 10
1.300000000000011
 20
-247.5
 10
-0.3000000000000114
 20
-247.5
  0
LWPOLYLINE
  5
340
330
68F
100
AcDbEntity
  8
DATA
  6
Continuous
 62
     7
100
AcDbPolyline
 90
        4
 70
     1
 43
0.0
 10
-0.3000000000000114
 20
-191.0
 10
1.300000000000011
 20
-191.0
 10
1.300000000000011
 20
-207.0
 10
-0.3000000000000114
 20
-207.0
  0
LWPOLYLINE
  5
347
330
68F
100
AcDbEntity
  8
DATA
  6
Continuous
 62
     7
100
AcDbPolyline
 90
        4
 70
     1
 43
0.0
 10
-0.3000000000000114
 20
-211.25
 10
1.300000000000011
 20
-211.25
 10
1.300000000000011
 20
-227.25
 10
-0.3000000000000114
 20
-227.25
  0
LWPOLYLINE
  5
34E
330
68F
100
AcDbEntity
  8
DATA
  6
Continuous
 62
     7
100
AcDbPolyline
 90
        4
 70
     1
 43
0.0
 10
4.699999999999988
 20
-231.5
 10
6.300000000000011
 20
-231.5
 10
6.300000000000011
 20
-247.5
 10
4.699999999999988
 20
-247.5
  0
LWPOLYLINE
  5
355
330
68F
100
AcDbEntity
  8
DATA
  6
Continuous
 62
     7
100
AcDbPolyline
 90
        4
 70
     1
 43
0.0
 10
4.699999999999988
 20
-191.0
 10
6.300000000000011
 20
-191.0
 10
6.300000000000011
 20
-207.0
 10
4.699999999999988
 20
-207.0
  0
LWPOLYLINE
  5
35C
330
68F
100
AcDbEntity
  8
DATA
  6
Continuous
 62
     7
100
AcDbPolyline
 90
        4
 70
     1
 43
0.0
 10
4.699999999999988
 20
-211.25
 10
6.300000000000011
 20
-211.25
 10
6.300000000000011
 20
-227.25
 10
4.699999999999988
 20
-227.25
  0
LWPOLYLINE
  5
363
330
68F
100
AcDbEntity
  8
DATA
  6
Continuous
 62
     7
100
AcDbPolyline
 90
        4
 70
     1
 43
0.0
 10
9.699999999999986
 20
-231.5
 10
11.30000000000001
 20
-231.5
 10
11.30000000000001
 20
-247.5
 10
9.699999999999986
 20
-247.5
  0
LWPOLYLINE
  5
36A
330
68F
100
AcDbEntity
  8
DATA
  6
Continuous
 62
     7
100
AcDbPolyline
 90
        4
 70
     1
 43
0.0
 10
9.699999999999986
 20
-191.0
 10
11.30000000000001
 20
-191.0
 10
11.30000000000001
 20
-207.0
 10
9.699999999999986
 20
-207.0
  0
LWPOLYLINE
  5
371
330
68F
100
AcDbEntity
  8
DATA
  6
Continuous
 62
     7
100
AcDbPolyline
 90
        4
 70
     1
 43
0.0
 10
9.699999999999986
 20
-211.25
 10
11.30000000000001
 20
-211.25
 10
11.30000000000001
 20
-227.25
 10
9.699999999999986
 20
-227.25
  0
LWPOLYLINE
  5
378
330
68F
100
AcDbEntity
  8
DATA
  6
Continuous
 62
     7
100
AcDbPolyline
 90
        4
 70
     1
 43
0.0
 10
14.69999999999999
 20
-231.5
 10
16.30000000000001
 20
-231.5
 10
16.30000000000001
 20
-247.5
 10
14.69999999999999
 20
-247.5
  0
LWPOLYLINE
  5
37F
330
68F
100
AcDbEntity
  8
DATA
  6
Continuous
 62
     7
100
AcDbPolyline
 90
        4
 70
     1
 43
0.0
 10
14.69999999999999
 20
-191.0
 10
16.30000000000001
 20
-191.0
 10
16.30000000000001
 20
-207.0
 10
14.69999999999999
 20
-207.0
  0
LWPOLYLINE
  5
386
330
68F
100
AcDbEntity
  8
DATA
  6
Continuous
 62
     7
100
AcDbPolyline
 90
        4
 70
     1
 43
0.0
 10
14.69999999999999
 20
-211.25
 10
16.30000000000001
 20
-211.25
 10
16.30000000000001
 20
-227.25
 10
14.69999999999999
 20
-227.25
  0
LWPOLYLINE
  5
38D
330
68F
100
AcDbEntity
  8
DATA
  6
Continuous
 62
     7
100
AcDbPolyline
 90
        4
 70
     1
 43
0.0
 10
-10.30000000000001
 20
-231.5
 10
-8.699999999999986
 20
-231.5
 10
-8.699999999999986
 20
-247.5
 10
-10.30000000000001
 20
-247.5
  0
LWPOLYLINE
  5
394
330
68F
100
AcDbEntity
  8
DATA
  6
Continuous
 62
     7
100
AcDbPolyline
 90
        4
 70
     1
 43
0.0
 10
-10.30000000000001
 20
-191.0
 10
-8.699999999999986
 20
-191.0
 10
-8.699999999999986
 20
-207.0
 10
-10.30000000000001
 20
-207.0
  0
LWPOLYLINE
  5
39B
330
68F
100
AcDbEntity
  8
DATA
  6
Continuous
 62
     7
100
AcDbPolyline
 90
        4
 70
     1
 43
0.0
 10
-10.30000000000001
 20
-211.25
 10
-8.699999999999986
 20
-211.25
 10
-8.699999999999986
 20
-227.25
 10
-10.30000000000001
 20
-227.25
  0
LWPOLYLINE
  5
3A2
330
68F
100
AcDbEntity
  8
DATA
  6
Continuous
 62
     7
100
AcDbPolyline
 90
        4
 70
     1
 43
0.0
 10
-15.30000000000001
 20
-231.5
 10
-13.69999999999999
 20
-231.5
 10
-13.69999999999999
 20
-247.5
 10
-15.30000000000001
 20
-247.5
  0
LWPOLYLINE
  5
3A9
330
68F
100
AcDbEntity
  8
DATA
  6
Continuous
 62
     7
100
AcDbPolyline
 90
        4
 70
     1
 43
0.0
 10
-15.30000000000001
 20
-191.0
 10
-13.69999999999999
 20
-191.0
 10
-13.69999999999999
 20
-207.0
 10
-15.30000000000001
 20
-207.0
  0
LWPOLYLINE
  5
3B0
330
68F
100
AcDbEntity
  8
DATA
  6
Continuous
 62
     7
100
AcDbPolyline
 90
        4
 70
     1
 43
0.0
 10
-15.30000000000001
 20
-211.25
 10
-13.69999999999999
 20
-211.25
 10
-13.69999999999999
 20
-227.25
 10
-15.30000000000001
 20
-227.25
  0
LWPOLYLINE
  5
3B7
330
68F
100
AcDbEntity
  8
DATA
  6
Continuous
 62
     7
100
AcDbPolyline
 90
        4
 70
     1
 43
0.0
 10
-20.30000000000001
 20
-231.5
 10
-18.69999999999999
 20
-231.5
 10
-18.69999999999999
 20
-247.5
 10
-20.30000000000001
 20
-247.5
  0
LWPOLYLINE
  5
3BE
330
68F
100
AcDbEntity
  8
DATA
  6
Continuous
 62
     7
100
AcDbPolyline
 90
        4
 70
     1
 43
0.0
 10
-20.30000000000001
 20
-191.0
 10
-18.69999999999999
 20
-191.0
 10
-18.69999999999999
 20
-207.0
 10
-20.30000000000001
 20
-207.0
  0
LWPOLYLINE
  5
3C5
330
68F
100
AcDbEntity
  8
DATA
  6
Continuous
 62
     7
100
AcDbPolyline
 90
        4
 70
     1
 43
0.0
 10
-20.30000000000001
 20
-211.25
 10
-18.69999999999999
 20
-211.25
 10
-18.69999999999999
 20
-227.25
 10
-20.30000000000001
 20
-227.25
  0
LWPOLYLINE
  5
3CC
330
68F
100
AcDbEntity
  8
DATA
  6
Continuous
 62
     7
100
AcDbPolyline
 90
        4
 70
     1
 43
0.0
 10
-25.30000000000001
 20
-231.5
 10
-23.69999999999999
 20
-231.5
 10
-23.69999999999999
 20
-247.5
 10
-25.30000000000001
 20
-247.5
  0
LWPOLYLINE
  5
3D3
330
68F
100
AcDbEntity
  8
DATA
  6
Continuous
 62
     7
100
AcDbPolyline
 90
        4
 70
     1
 43
0.0
 10
-25.30000000000001
 20
-191.0
 10
-23.69999999999999
 20
-191.0
 10
-23.69999999999999
 20
-207.0
 10
-25.30000000000001
 20
-207.0
  0
LWPOLYLINE
  5
3DA
330
68F
100
AcDbEntity
  8
DATA
  6
Continuous
 62
     7
100
AcDbPolyline
 90
        4
 70
     1
 43
0.0
 10
-25.30000000000001
 20
-211.25
 10
-23.69999999999999
 20
-211.25
 10
-23.69999999999999
 20
-227.25
 10
-25.30000000000001
 20
-227.25
  0
LWPOLYLINE
  5
3E1
330
68F
100
AcDbEntity
  8
DATA
  6
Continuous
 62
     7
100
AcDbPolyline
 90
        4
 70
     1
 43
0.0
 10
-30.30000000000001
 20
-231.5
 10
-28.69999999999999
 20
-231.5
 10
-28.69999999999999
 20
-247.5
 10
-30.30000000000001
 20
-247.5
  0
LWPOLYLINE
  5
3E8
330
68F
100
AcDbEntity
  8
DATA
  6
Continuous
 62
     7
100
AcDbPolyline
 90
        4
 70
     1
 43
0.0
 10
-30.30000000000001
 20
-191.0
 10
-28.69999999999999
 20
-191.0
 10
-28.69999999999999
 20
-207.0
 10
-30.30000000000001
 20
-207.0
  0
LWPOLYLINE
  5
3EF
330
68F
100
AcDbEntity
  8
DATA
  6
Continuous
 62
     7
100
AcDbPolyline
 90
        4
 70
     1
 43
0.0
 10
-30.30000000000001
 20
-211.25
 10
-28.69999999999999
 20
-211.25
 10
-28.69999999999999
 20
-227.25
 10
-30.30000000000001
 20
-227.25
  0
LINE
  5
3F6
330
68F
100
AcDbEntity
  8
DATA
  6
Continuous
 62
     7
100
AcDbLine
 10
-320.5
 20
-70.0
 30
0.0
 11
-320.5
 21
-30.69999999999999
 31
0.0
  0
LINE
  5
3F7
330
68F
100
AcDbEntity
  8
DATA
  6
Continuous
 62
     7
100
AcDbLine
 10
103.5
 20
-30.69999999999999
 30
0.0
 11
103.5
 21
-70.0
 31
0.0
  0
CIRCLE
  5
3F8
330
68F
100
AcDbEntity
  8
DATA
  6
Continuous
 62
     7
100
AcDbCircle
 10
9.500000000000111
 20
-49.19999999999999
 30
0.0
 40
3.0
  0
LINE
  5
3F9
330
68F
100
AcDbEntity
  8
DATA
  6
Continuous
 62
     7
100
AcDbLine
 10
11.5
 20
-49.19999999999999
 30
0.0
 11
7.5
 21
-49.19999999999999
 31
0.0
  0
LINE
  5
3FA
330
68F
100
AcDbEntity
  8
DATA
  6
Continuous
 62
     7
100
AcDbLine
 10
9.500000000000111
 20
-47.19999999999993
 30
0.0
 11
9.500000000000111
 21
-51.19999999999993
 31
0.0
  0
TEXT
  5
3FB
330
68F
100
AcDbEntity
  8
DATA
 62
     7
100
AcDbText
 10
11.78037760416678
 20
-54.01051606451332
 30
0.0
 40
2.44326171875
  1
USB
 50
180.0
 41
0.7
 72
     1
 11
9.500000000000111
 21
-55.23214692388832
 31
0.0
100
AcDbText
 73
     2
  0
TEXT
  5
3FC
330
68F
100
AcDbEntity
  8
DATA
 62
     7
100
AcDbText
 10
-2.733631184895855
 20
-54.01051606451332
 30
0.0
 40
2.44326171875
  1
FOOTSWITCH
 50
180.0
 41
0.7
 72
     1
 11
-11.00000000000002
 21
-55.23214692388832
 31
0.0
100
AcDbText
 73
     2
  0
LINE
  5
3FD
330
68F
100
AcDbEntity
  8
DATA
  6
Continuous
 62
     7
100
AcDbLine
 10
-320.5
 20
-70.0
 30
0.0
 11
103.5
 21
-70.0
 31
0.0
  0
LINE
  5
3FE
330
68F
100
AcDbEntity
  8
DATA
  6
Continuous
 62
     7
100
AcDbLine
 10
-326.5
 20
-75.0
 30
0.0
 11
-320.5
 21
-70.0
 31
0.0
  0
LINE
  5
3FF
330
68F
100
AcDbEntity
  8
DATA
  6
Continuous
 62
     7
100
AcDbLine
 10
109.5
 20
-75.0
 30
0.0
 11
103.5
 21
-70.0
 31
0.0
  0
LINE
  5
400
330
68F
100
AcDbEntity
  8
DATA
  6
Continuous
 62
     7
100
AcDbLine
 10
99.50000000000001
 20
-33.34999999999999
 30
0.0
 11
99.50000000000001
 21
-67.34999999999999
 31
0.0
  0
LINE
  5
401
330
68F
100
AcDbEntity
  8
DATA
  6
Continuous
 62
     7
100
AcDbLine
 10
69.5
 20
-67.34999999999999
 30
0.0
 11
69.5
 21
-33.34999999999999
 31
0.0
  0
LINE
  5
402
330
68F
100
AcDbEntity
  8
DATA
  6
Continuous
 62
     7
100
AcDbLine
 10
99.50000000000001
 20
-67.34999999999999
 30
0.0
 11
69.5
 21
-67.34999999999999
 31
0.0
  0
LINE
  5
403
330
68F
100
AcDbEntity
  8
DATA
  6
Continuous
 62
     7
100
AcDbLine
 10
72.0
 20
-49.14999999999993
 30
0.0
 11
97.0
 21
-49.14999999999993
 31
0.0
  0
LINE
  5
404
330
68F
100
AcDbEntity
  8
DATA
  6
Continuous
 62
     7
100
AcDbLine
 10
72.0
 20
-59.55000000000004
 30
0.0
 11
72.0
 21
-49.14999999999993
 31
0.0
  0
LINE
  5
405
330
68F
100
AcDbEntity
  8
DATA
  6
Continuous
 62
     7
100
AcDbLine
 10
97.0
 20
-59.55000000000004
 30
0.0
 11
97.0
 21
-49.14999999999993
 31
0.0
  0
LINE
  5
406
330
68F
100
AcDbEntity
  8
DATA
  6
Continuous
 62
     7
100
AcDbLine
 10
77.0
 20
-64.55000000000004
 30
0.0
 11
72.0
 21
-59.55000000000004
 31
0.0
  0
LINE
  5
407
330
68F
100
AcDbEntity
  8
DATA
  6
Continuous
 62
     7
100
AcDbLine
 10
92.0
 20
-64.55000000000004
 30
0.0
 11
97.0
 21
-59.55000000000004
 31
0.0
  0
LINE
  5
408
330
68F
100
AcDbEntity
  8
DATA
  6
Continuous
 62
     7
100
AcDbLine
 10
77.0
 20
-64.55000000000004
 30
0.0
 11
92.0
 21
-64.55000000000004
 31
0.0
  0
LWPOLYLINE
  5
409
330
68F
100
AcDbEntity
  8
DATA
  6
Continuous
 62
     7
100
AcDbPolyline
 90
        4
 70
     1
 43
0.0
 10
83.49999999999999
 20
-57.38065220143116
 10
85.5
 20
-57.38065220143116
 10
85.5
 20
-61.18065220143112
 10
83.49999999999999
 20
-61.18065220143112
  0
LWPOLYLINE
  5
410
330
68F
100
AcDbEntity
  8
DATA
  6
Continuous
 62
     7
100
AcDbPolyline
 90
        4
 70
     1
 43
0.0
 10
90.3000000000002
 20
-53.24999999999985
 10
92.30000000000019
 20
-53.24999999999985
 10
92.30000000000019
 20
-57.05000000000004
 10
90.3000000000002
 20
-57.05000000000004
  0
LWPOLYLINE
  5
417
330
68F
100
AcDbEntity
  8
DATA
  6
Continuous
 62
     7
100
AcDbPolyline
 90
        4
 70
     1
 43
0.0
 10
76.70000000000027
 20
-53.24999999999985
 10
78.70000000000027
 20
-53.24999999999985
 10
78.70000000000027
 20
-57.05000000000004
 10
76.70000000000027
 20
-57.05000000000004
  0
LINE
  5
41E
330
68F
100
AcDbEntity
  8
DATA
  6
Continuous
 62
     7
100
AcDbLine
 10
99.50000000000001
 20
-33.34999999999999
 30
0.0
 11
69.5
 21
-33.34999999999999
 31
0.0
  0
LWPOLYLINE
  5
41F
330
68F
100
AcDbEntity
  8
DATA
  6
Continuous
 62
     7
100
AcDbPolyline
 90
        6
 70
     0
 43
0.0
 10
6.671572875253919
 20
-48.2
 10
3.274999999999977
 20
-48.2
 10
3.274999999999977
 20
-36.7
 10
15.72500000000002
 20
-36.7
 10
15.72500000000002
 20
-48.2
 10
12.3284271247463
 20
-48.2
  0
LINE
  5
428
330
68F
100
AcDbEntity
  8
DATA
  6
Continuous
 62
     7
100
AcDbLine
 10
13.85000000000002
 20
-38.12500000000002
 30
0.0
 11
13.85000000000002
 21
-45.075
 31
0.0
  0
LINE
  5
429
330
68F
100
AcDbEntity
  8
DATA
  6
Continuous
 62
     7
100
AcDbLine
 10
5.149999999999976
 20
-38.12500000000002
 30
0.0
 11
5.149999999999976
 21
-42.45
 31
0.0
  0
LINE
  5
42A
330
68F
100
AcDbEntity
  8
DATA
  6
Continuous
 62
     7
100
AcDbLine
 10
6.850000000000023
 20
-46.77499999999999
 30
0.0
 11
7.733824753882102
 21
-46.77499999999999
 31
0.0
  0
LINE
  5
42B
330
68F
100
AcDbEntity
  8
DATA
  6
Continuous
 62
     7
100
AcDbLine
 10
11.26617524611812
 20
-46.77499999999999
 30
0.0
 11
12.14999999999997
 21
-46.77499999999999
 31
0.0
  0
LINE
  5
42C
330
68F
100
AcDbEntity
  8
DATA
  6
Continuous
 62
     7
100
AcDbLine
 10
13.85000000000002
 20
-38.12500000000002
 30
0.0
 11
5.149999999999976
 21
-38.12500000000002
 31
0.0
  0
LWPOLYLINE
  5
42D
330
68F
100
AcDbEntity
  8
DATA
  6
Continuous
 62
     7
100
AcDbPolyline
 90
        4
 70
     1
 43
0.0
 10
6.599999999999795
 20
-40.85000000000003
 10
12.39999999999997
 20
-40.85000000000003
 10
12.39999999999997
 20
-44.05000000000002
 10
6.599999999999795
 20
-44.05000000000002
  0
LINE
  5
434
330
68F
100
AcDbEntity
  8
DATA
  6
Continuous
 62
     7
100
AcDbLine
 10
13.85000000000002
 20
-45.075
 30
0.0
 11
12.14999999999997
 21
-46.77499999999999
 31
0.0
  0
LINE
  5
435
330
68F
100
AcDbEntity
  8
DATA
  6
Continuous
 62
     7
100
AcDbLine
 10
5.149999999999976
 20
-45.075
 30
0.0
 11
6.850000000000023
 21
-46.77499999999999
 31
0.0
  0
LINE
  5
436
330
68F
100
AcDbEntity
  8
DATA
  6
Continuous
 62
     7
100
AcDbLine
 10
5.149999999999976
 20
-45.075
 30
0.0
 11
5.149999999999976
 21
-42.45
 31
0.0
  0
CIRCLE
  5
437
330
68F
100
AcDbEntity
  8
DATA
  6
Continuous
 62
     7
100
AcDbCircle
 10
-11.00000000000002
 20
-42.19999999999997
 30
0.0
 40
5.299999999999954
  0
CIRCLE
  5
438
330
68F
100
AcDbEntity
  8
DATA
  6
Continuous
 62
     7
100
AcDbCircle
 10
-11.00000000000002
 20
-42.19999999999997
 30
0.0
 40
3.25
  0
CIRCLE
  5
439
330
68F
100
AcDbEntity
  8
DATA
  6
Continuous
 62
     7
100
AcDbCircle
 10
-11.00000000000002
 20
-42.19999999999997
 30
0.0
 40
8.649999999999867
  0
LWPOLYLINE
  5
43A
330
68F
100
AcDbEntity
  8
DATA
  6
Continuous
 62
     7
100
AcDbPolyline
 90
        6
 70
     1
 43
0.0
 10
-3.040960119880108
 20
-45.5876517215709
 10
-4.086687609885554
 20
-37.00109513486818
 10
-12.04572749000547
 20
-33.61344341329725
 10
-18.95903988011971
 20
-38.81234827842904
 10
-17.91331239011449
 20
-47.39890486513177
 10
-9.954272509994575
 20
-50.7865565867027
  0
TEXT
  5
443
330
68F
100
AcDbEntity
  8
DATA
 62
     7
100
AcDbText
 10
61.28078355577256
 20
-38.02743474370171
 30
0.0
 40
2.036051432291666
  1
100V - 120V～50/60Hz
 50
180.0
 41
0.7
 72
     1
 11
49.0
 21
-39.04546045984755
 31
0.0
100
AcDbText
 73
     2
  0
TEXT
  5
444
330
68F
100
AcDbEntity
  8
DATA
 62
     7
100
AcDbText
 10
50.90031467013889
 20
-33.02041786379945
 30
0.0
 40
2.036051432291666
  1
18W
 50
180.0
 41
0.7
 72
     1
 11
49.0
 21
-34.03844357994529
 31
0.0
100
AcDbText
 73
     2
  0
LWPOLYLINE
  5
445
330
68F
100
AcDbEntity
  8
DATA
  6
Continuous
 62
     7
100
AcDbPolyline
 90
        4
 70
     1
 43
0.0
 10
33.5
 20
-42.19999999999998
 10
64.5
 20
-42.19999999999998
 10
64.5
 20
-54.19999999999999
 10
33.5
 20
-54.19999999999999
  0
LINE
  5
44C
330
68F
100
AcDbEntity
  8
DATA
  6
Continuous
 62
     7
100
AcDbLine
 10
64.5
 20
-49.19999999999999
 30
0.0
 11
33.5
 21
-49.19999999999999
 31
0.0
  0
LINE
  5
44D
330
68F
100
AcDbEntity
  8
DATA
  6
Continuous
 62
     7
100
AcDbLine
 10
50.5
 20
-48.69999999999999
 30
0.0
 11
50.5
 21
-42.69999999999998
 31
0.0
  0
TEXT
  5
44E
330
68F
100
AcDbEntity
  8
DATA
 62
     7
100
AcDbText
 10
63.98714836516203
 20
-51.99984266493054
 30
0.0
 40
1.900314670138888
  1
FUSE REPLACEMENT RATINGS
 50
180.0
 41
0.7
 72
     1
 11
49.0
 21
-52.94999999999999
 31
0.0
100
AcDbText
 73
     2
  0
LINE
  5
44F
330
68F
100
AcDbEntity
  8
DATA
  6
Continuous
 62
     7
100
AcDbLine
 10
64.5
 20
-51.69999999999999
 30
0.0
 11
33.5
 21
-51.69999999999999
 31
0.0
  0
LINE
  5
450
330
68F
100
AcDbEntity
  8
DATA
  6
Continuous
 62
     7
100
AcDbLine
 10
34.0
 20
-45.69999999999999
 30
0.0
 11
64.0
 21
-45.69999999999999
 31
0.0
  0
TEXT
  5
451
330
68F
100
AcDbEntity
  8
DATA
 62
     7
100
AcDbText
 10
63.32203823061342
 20
-49.49984266493054
 30
0.0
 40
1.900314670138888
  1
REMPLACEMENT DE FUSIBLE
 50
180.0
 41
0.7
 72
     1
 11
49.0
 21
-50.44999999999999
 31
0.0
100
AcDbText
 73
     2
  0
TEXT
  5
452
330
68F
100
AcDbEntity
  8
DATA
 62
     7
100
AcDbText
 10
62.93173276548032
 20
-46.49984266493055
 30
0.0
 40
1.900314670138888
  1
100V-120V
 50
180.0
 41
0.7
 72
     1
 11
57.5
 21
-47.44999999999999
 31
0.0
100
AcDbText
 73
     2
  0
TEXT
  5
453
330
68F
100
AcDbEntity
  8
DATA
 62
     7
100
AcDbText
 10
49.59650789388021
 20
-46.56771104600693
 30
0.0
 40
1.764577907986111
  1
T 200mA L 250V
 50
180.0
 41
0.7
 72
     1
 11
42.0
 21
-47.44999999999999
 31
0.0
100
AcDbText
 73
     2
  0
TEXT
  5
454
330
68F
100
AcDbEntity
  8
DATA
 62
     7
100
AcDbText
 10
49.49357418258102
 20
-43.06771104600693
 30
0.0
 40
1.764577907986111
  1
T 160mA L 250V
 50
180.0
 41
0.7
 72
     1
 11
42.0
 21
-43.94999999999998
 31
0.0
100
AcDbText
 73
     2
  0
TEXT
  5
455
330
68F
100
AcDbEntity
  8
DATA
 62
     7
100
AcDbText
 10
63.37513952184607
 20
-42.99984266493054
 30
0.0
 40
1.900314670138888
  1
200V-240V
 50
180.0
 41
0.7
 72
     1
 11
57.5
 21
-43.94999999999998
 31
0.0
100
AcDbText
 73
     2
  0
LINE
  5
456
330
68F
100
AcDbEntity
  8
DATA
  6
Continuous
 62
     7
100
AcDbLine
 10
-69.5
 20
-64.7
 30
0.0
 11
-69.5
 21
-33.7
 31
0.0
  0
LINE
  5
457
330
68F
100
AcDbEntity
  8
DATA
  6
Continuous
 62
     7
100
AcDbLine
 10
-26.0
 20
-61.69999999999999
 30
0.0
 11
-69.5
 21
-61.69999999999999
 31
0.0
  0
LINE
  5
458
330
68F
100
AcDbEntity
  8
DATA
  6
Continuous
 62
     7
100
AcDbLine
 10
-26.0
 20
-33.7
 30
0.0
 11
-26.0
 21
-61.69999999999999
 31
0.0
  0
LINE
  5
459
330
68F
100
AcDbEntity
  8
DATA
  6
Continuous
 62
     7
100
AcDbLine
 10
-68.0
 20
-32.20000000000001
 30
0.0
 11
-27.5
 21
-32.20000000000001
 31
0.0
  0
CIRCLE
  5
45A
330
68F
100
AcDbEntity
  8
DATA
  6
Continuous
 62
     7
100
AcDbCircle
 10
-37.0
 20
-47.69999999999998
 30
0.0
 40
8.25
  0
CIRCLE
  5
45B
330
68F
100
AcDbEntity
  8
DATA
  6
Continuous
 62
     7
100
AcDbCircle
 10
-37.0
 20
-47.69999999999998
 30
0.0
 40
6.899999999999945
  0
CIRCLE
  5
45C
330
68F
100
AcDbEntity
  8
DATA
  6
Continuous
 62
     7
100
AcDbCircle
 10
-34.18204905598623
 20
-47.23097162823285
 30
0.0
 40
0.5519621081382744
  0
CIRCLE
  5
45D
330
68F
100
AcDbEntity
  8
DATA
  6
Continuous
 62
     7
100
AcDbCircle
 10
-35.20083231538979
 20
-45.47778930658426
 30
0.0
 40
0.5522307728991005
  0
CIRCLE
  5
45E
330
68F
100
AcDbEntity
  8
DATA
  6
Continuous
 62
     7
100
AcDbCircle
 10
-37.02009460940143
 20
-44.49193557406857
 30
0.0
 40
0.5505590016105089
  0
CIRCLE
  5
45F
330
68F
100
AcDbEntity
  8
DATA
  6
Continuous
 62
     7
100
AcDbCircle
 10
-38.87899536578333
 20
-45.48213894623693
 30
0.0
 40
0.552639956913218
  0
CIRCLE
  5
460
330
68F
100
AcDbEntity
  8
DATA
  6
Continuous
 62
     7
100
AcDbCircle
 10
-39.92531894853437
 20
-47.21868131309469
 30
0.0
 40
0.5441980039814436
  0
LWPOLYLINE
  5
461
330
68F
100
AcDbEntity
  8
DATA
  6
Continuous
 62
     7
100
AcDbPolyline
 90
        4
 70
     0
 43
0.0
 10
-37.35005555090675
 20
-44.93266337139499
 10
-37.35005555090675
 20
-45.81203264418905
 10
-36.66807720566453
 20
-45.81203264418905
 10
-36.66807720566453
 20
-44.91525455748609
  0
LWPOLYLINE
  5
468
330
68F
100
AcDbEntity
  8
DATA
  6
Continuous
 62
     7
100
AcDbPolyline
 90
        4
 70
     0
 43
0.0
 10
-37.35005555090675
 20
-44.05120777674215
 10
-37.35005555090675
 20
-43.19407726813096
 10
-36.66807720566453
 20
-43.19407726813096
 10
-36.66807720566453
 20
-44.068616590651
  0
LWPOLYLINE
  5
46F
330
68F
100
AcDbEntity
  8
DATA
  6
Continuous
 62
     7
100
AcDbPolyline
 90
        4
 70
     0
 43
0.0
 10
-38.8240294589782
 20
-46.0320386380816
 10
-38.20808606140486
 20
-46.64798203565475
 10
-37.72409180370073
 20
-46.16398777795064
 10
-38.33140487759124
 20
-45.55667470406024
  0
LWPOLYLINE
  5
476
330
68F
100
AcDbEntity
  8
DATA
  6
Continuous
 62
     7
100
AcDbPolyline
 90
        4
 70
     0
 43
0.0
 10
-39.42889505758511
 20
-45.42717303947495
 10
-40.05603700959272
 20
-44.80003108746745
 10
-39.5720427518886
 20
-44.31603682976333
 10
-38.95353112359294
 20
-44.93454845805882
  0
LWPOLYLINE
  5
47D
330
68F
100
AcDbEntity
  8
DATA
  6
Continuous
 62
     7
100
AcDbPolyline
 90
        4
 70
     0
 43
0.0
 10
-35.14628818546634
 20
-44.92825881202036
 10
-34.53404148893583
 20
-44.31603682976333
 10
-34.0500472312317
 20
-44.80003108746745
 10
-34.65361162265344
 20
-45.40357111509012
  0
LWPOLYLINE
  5
484
330
68F
100
AcDbEntity
  8
DATA
  6
Continuous
 62
     7
100
AcDbPolyline
 90
        4
 70
     0
 43
0.0
 10
-35.75036501130739
 20
-45.5323112533772
 10
-36.38206703549849
 20
-46.16398777795064
 10
-35.89807277779437
 20
-46.64798203565475
 10
-35.27507259666891
 20
-46.02500700288357
  0
LWPOLYLINE
  5
48B
330
68F
100
AcDbEntity
  8
DATA
  6
Continuous
 62
     7
100
AcDbPolyline
 90
        4
 70
     0
 43
0.0
 10
-39.86137188277325
 20
-47.75910914389732
 10
-39.2200876181264
 20
-48.40805609796497
 10
-38.73609336042296
 20
-47.92406184026083
 10
-39.38491438122219
 20
-47.28282467708693
  0
LWPOLYLINE
  5
492
330
68F
100
AcDbEntity
  8
DATA
  6
Continuous
 62
     7
100
AcDbPolyline
 90
        4
 70
     0
 43
0.0
 10
-40.46494911992271
 20
-47.1483197776426
 10
-41.06803856631427
 20
-46.53802403074524
 10
-40.60605082926781
 20
-46.07596169532268
 10
-39.99581140609917
 20
-46.67906822859674
  0
LWPOLYLINE
  5
499
330
68F
100
AcDbEntity
  8
DATA
  6
Continuous
 62
     7
100
AcDbPolyline
 90
        4
 70
     0
 43
0.0
 10
-34.10804078957131
 20
-46.68399361648432
 10
-33.50003341155661
 20
-46.07596169532268
 10
-33.01603915385249
 20
-46.53802403074524
 10
-33.63421836903194
 20
-47.16356460177479
  0
LWPOLYLINE
  5
4A0
330
68F
100
AcDbEntity
  8
DATA
  6
Continuous
 62
     7
100
AcDbPolyline
 90
        4
 70
     0
 43
0.0
 10
-34.72902407989272
 20
-47.30500197374527
 10
-35.34805895811928
 20
-47.92406184026083
 10
-34.86406470041584
 20
-48.40805609796497
 10
-34.24296656246543
 20
-47.77956184526494
  0
LWPOLYLINE
  5
4A7
330
68F
100
AcDbEntity
  8
DATA
  6
Continuous
 62
     7
100
AcDbPolyline
 90
        4
 70
     0
 43
0.0
 10
-38.19999999999981
 20
-52.82071926336613
 10
-38.19999999999981
 20
-51.15944538656014
 10
-35.79999999999996
 20
-51.15944538656014
 10
-35.79999999999996
 20
-52.82071926336613
  0
ARC
  5
4AE
330
68F
100
AcDbEntity
  8
DATA
  6
Continuous
 62
     7
100
AcDbCircle
 10
-37.0
 20
-47.69999999999998
 30
0.0
 40
5.259445386560181
100
AcDbArc
 50
283.1888227030045
 51
256.8111772969978
  0
CIRCLE
  5
4AF
330
68F
100
AcDbEntity
  8
DATA
  6
Continuous
 62
     7
100
AcDbCircle
 10
-44.50000000000001
 20
-39.19999999999997
 30
0.0
 40
2.25
  0
LINE
  5
4B0
330
68F
100
AcDbEntity
  8
DATA
  6
Continuous
 62
     7
100
AcDbLine
 10
-46.00000000000002
 20
-39.19999999999997
 30
0.0
 11
-43.00000000000002
 21
-39.19999999999997
 31
0.0
  0
LINE
  5
4B1
330
68F
100
AcDbEntity
  8
DATA
  6
Continuous
 62
     7
100
AcDbLine
 10
-44.50000000000001
 20
-40.69999999999996
 30
0.0
 11
-44.50000000000001
 21
-37.69999999999997
 31
0.0
  0
CIRCLE
  5
4B2
330
68F
100
AcDbEntity
  8
DATA
  6
Continuous
 62
     7
100
AcDbCircle
 10
-58.5
 20
-47.69999999999998
 30
0.0
 40
8.25
  0
CIRCLE
  5
4B3
330
68F
100
AcDbEntity
  8
DATA
  6
Continuous
 62
     7
100
AcDbCircle
 10
-58.5
 20
-47.69999999999998
 30
0.0
 40
6.899999999999945
  0
CIRCLE
  5
4B4
330
68F
100
AcDbEntity
  8
DATA
  6
Continuous
 62
     7
100
AcDbCircle
 10
-55.68204905598623
 20
-47.23097162823285
 30
0.0
 40
0.5519621081382744
  0
CIRCLE
  5
4B5
330
68F
100
AcDbEntity
  8
DATA
  6
Continuous
 62
     7
100
AcDbCircle
 10
-56.70083231538979
 20
-45.47778930658426
 30
0.0
 40
0.5522307728991005
  0
CIRCLE
  5
4B6
330
68F
100
AcDbEntity
  8
DATA
  6
Continuous
 62
     7
100
AcDbCircle
 10
-58.52009460940143
 20
-44.49193557406857
 30
0.0
 40
0.5505590016105089
  0
CIRCLE
  5
4B7
330
68F
100
AcDbEntity
  8
DATA
  6
Continuous
 62
     7
100
AcDbCircle
 10
-60.37899536578335
 20
-45.48213894623693
 30
0.0
 40
0.552639956913218
  0
CIRCLE
  5
4B8
330
68F
100
AcDbEntity
  8
DATA
  6
Continuous
 62
     7
100
AcDbCircle
 10
-61.42531894853437
 20
-47.21868131309469
 30
0.0
 40
0.5441980039814436
  0
LWPOLYLINE
  5
4B9
330
68F
100
AcDbEntity
  8
DATA
  6
Continuous
 62
     7
100
AcDbPolyline
 90
        4
 70
     0
 43
0.0
 10
-58.85005555090675
 20
-44.93266337139499
 10
-58.85005555090675
 20
-45.81203264418905
 10
-58.16807720566453
 20
-45.81203264418905
 10
-58.16807720566453
 20
-44.91525455748609
  0
LWPOLYLINE
  5
4C0
330
68F
100
AcDbEntity
  8
DATA
  6
Continuous
 62
     7
100
AcDbPolyline
 90
        4
 70
     0
 43
0.0
 10
-58.85005555090675
 20
-44.05120777674215
 10
-58.85005555090675
 20
-43.19407726813096
 10
-58.16807720566453
 20
-43.19407726813096
 10
-58.16807720566453
 20
-44.068616590651
  0
LWPOLYLINE
  5
4C7
330
68F
100
AcDbEntity
  8
DATA
  6
Continuous
 62
     7
100
AcDbPolyline
 90
        4
 70
     0
 43
0.0
 10
-60.3240294589782
 20
-46.0320386380816
 10
-59.70808606140486
 20
-46.64798203565475
 10
-59.22409180370072
 20
-46.16398777795064
 10
-59.83140487759124
 20
-45.55667470406024
  0
LWPOLYLINE
  5
4CE
330
68F
100
AcDbEntity
  8
DATA
  6
Continuous
 62
     7
100
AcDbPolyline
 90
        4
 70
     0
 43
0.0
 10
-60.92889505758511
 20
-45.42717303947495
 10
-61.55603700959272
 20
-44.80003108746745
 10
-61.0720427518886
 20
-44.31603682976333
 10
-60.45353112359293
 20
-44.93454845805882
  0
LWPOLYLINE
  5
4D5
330
68F
100
AcDbEntity
  8
DATA
  6
Continuous
 62
     7
100
AcDbPolyline
 90
        4
 70
     0
 43
0.0
 10
-56.64628818546635
 20
-44.92825881202036
 10
-56.03404148893582
 20
-44.31603682976333
 10
-55.5500472312317
 20
-44.80003108746745
 10
-56.15361162265344
 20
-45.40357111509012
  0
LWPOLYLINE
  5
4DC
330
68F
100
AcDbEntity
  8
DATA
  6
Continuous
 62
     7
100
AcDbPolyline
 90
        4
 70
     0
 43
0.0
 10
-57.2503650113074
 20
-45.5323112533772
 10
-57.8820670354985
 20
-46.16398777795064
 10
-57.39807277779437
 20
-46.64798203565475
 10
-56.7750725966689
 20
-46.02500700288357
  0
LWPOLYLINE
  5
4E3
330
68F
100
AcDbEntity
  8
DATA
  6
Continuous
 62
     7
100
AcDbPolyline
 90
        4
 70
     0
 43
0.0
 10
-61.36137188277325
 20
-47.75910914389732
 10
-60.72008761812639
 20
-48.40805609796497
 10
-60.23609336042296
 20
-47.92406184026083
 10
-60.88491438122218
 20
-47.28282467708693
  0
LWPOLYLINE
  5
4EA
330
68F
100
AcDbEntity
  8
DATA
  6
Continuous
 62
     7
100
AcDbPolyline
 90
        4
 70
     0
 43
0.0
 10
-61.96494911992271
 20
-47.1483197776426
 10
-62.56803856631428
 20
-46.53802403074524
 10
-62.10605082926782
 20
-46.07596169532268
 10
-61.49581140609917
 20
-46.67906822859674
  0
LWPOLYLINE
  5
4F1
330
68F
100
AcDbEntity
  8
DATA
  6
Continuous
 62
     7
100
AcDbPolyline
 90
        4
 70
     0
 43
0.0
 10
-55.60804078957129
 20
-46.68399361648432
 10
-55.00003341155661
 20
-46.07596169532268
 10
-54.51603915385248
 20
-46.53802403074524
 10
-55.13421836903193
 20
-47.16356460177479
  0
LWPOLYLINE
  5
4F8
330
68F
100
AcDbEntity
  8
DATA
  6
Continuous
 62
     7
100
AcDbPolyline
 90
        4
 70
     0
 43
0.0
 10
-56.22902407989272
 20
-47.30500197374527
 10
-56.84805895811927
 20
-47.92406184026083
 10
-56.36406470041584
 20
-48.40805609796497
 10
-55.74296656246542
 20
-47.77956184526494
  0
LWPOLYLINE
  5
4FF
330
68F
100
AcDbEntity
  8
DATA
  6
Continuous
 62
     7
100
AcDbPolyline
 90
        4
 70
     0
 43
0.0
 10
-59.69999999999981
 20
-52.82071926336613
 10
-59.69999999999981
 20
-51.15944538656014
 10
-57.29999999999996
 20
-51.15944538656014
 10
-57.29999999999996
 20
-52.82071926336613
  0
ARC
  5
506
330
68F
100
AcDbEntity
  8
DATA
  6
Continuous
 62
     7
100
AcDbCircle
 10
-58.5
 20
-47.69999999999998
 30
0.0
 40
5.259445386560181
100
AcDbArc
 50
283.1888227030045
 51
256.8111772969978
  0
CIRCLE
  5
507
330
68F
100
AcDbEntity
  8
DATA
  6
Continuous
 62
     7
100
AcDbCircle
 10
-66.00000000000001
 20
-39.19999999999997
 30
0.0
 40
2.25
  0
LINE
  5
508
330
68F
100
AcDbEntity
  8
DATA
  6
Continuous
 62
     7
100
AcDbLine
 10
-67.50000000000001
 20
-39.19999999999997
 30
0.0
 11
-64.50000000000001
 21
-39.19999999999997
 31
0.0
  0
LINE
  5
509
330
68F
100
AcDbEntity
  8
DATA
  6
Continuous
 62
     7
100
AcDbLine
 10
-66.00000000000001
 20
-40.69999999999996
 30
0.0
 11
-66.00000000000001
 21
-37.69999999999997
 31
0.0
  0
LINE
  5
50A
330
68F
100
AcDbEntity
  8
DATA
  6
Continuous
 62
     7
100
AcDbLine
 10
-69.5
 20
-64.7
 30
0.0
 11
-36.0
 21
-64.7
 31
0.0
  0
LINE
  5
50B
330
68F
100
AcDbEntity
  8
DATA
  6
Continuous
 62
     7
100
AcDbLine
 10
-35.0
 20
-61.69999999999999
 30
0.0
 11
-36.0
 21
-64.7
 31
0.0
  0
TEXT
  5
50C
330
68F
100
AcDbEntity
  8
DATA
 62
     7
100
AcDbText
 10
-35.85981119791667
 20
-57.60336914062499
 30
0.0
 40
2.44326171875
  1
IN
 50
180.0
 41
0.7
 72
     1
 11
-37.0
 21
-58.82499999999999
 31
0.0
100
AcDbText
 73
     2
  0
TEXT
  5
50D
330
68F
100
AcDbEntity
  8
DATA
 62
     7
100
AcDbText
 10
-55.36448079427083
 20
-57.60336914062499
 30
0.0
 40
2.44326171875
  1
THRU
 50
180.0
 41
0.7
 72
     1
 11
-58.5
 21
-58.82499999999999
 31
0.0
100
AcDbText
 73
     2
  0
TEXT
  5
50E
330
68F
100
AcDbEntity
  8
DATA
 62
     7
100
AcDbText
 10
-27.9345751953125
 20
-61.978369140625
 30
0.0
 40
2.44326171875
  1
MIDI
 50
180.0
 41
0.7
 72
     1
 11
-30.5
 21
-63.2
 31
0.0
100
AcDbText
 73
     2
  0
CIRCLE
  5
50F
330
68F
100
AcDbEntity
  8
DATA
  6
Continuous
 62
     7
100
AcDbCircle
 10
-85.5
 20
-43.19999999999999
 30
0.0
 40
4.200000000000045
  0
CIRCLE
  5
510
330
68F
100
AcDbEntity
  8
DATA
  6
Continuous
 62
     7
100
AcDbCircle
 10
-85.5
 20
-43.19999999999999
 30
0.0
 40
1.75
  0
CIRCLE
  5
511
330
68F
100
AcDbEntity
  8
DATA
  6
Continuous
 62
     7
100
AcDbCircle
 10
-85.5
 20
-58.69999999999999
 30
0.0
 40
4.200000000000045
  0
CIRCLE
  5
512
330
68F
100
AcDbEntity
  8
DATA
  6
Continuous
 62
     7
100
AcDbCircle
 10
-85.5
 20
-58.69999999999999
 30
0.0
 40
1.75
  0
TEXT
  5
513
330
68F
100
AcDbEntity
  8
DATA
 62
     7
100
AcDbText
 10
-80.93924479166666
 20
-64.71051606451337
 30
0.0
 40
2.44326171875
  1
S/PDIF
 50
180.0
 41
0.7
 72
     1
 11
-85.5
 21
-65.93214692388837
 31
0.0
100
AcDbText
 73
     2
  0
CIRCLE
  5
514
330
68F
100
AcDbEntity
  8
DATA
  6
Continuous
 62
     7
100
AcDbCircle
 10
-95.0
 20
-50.94999999999998
 30
0.0
 40
2.700000000000002
  0
LINE
  5
515
330
68F
100
AcDbEntity
  8
DATA
  6
Continuous
 62
     7
100
AcDbLine
 10
-96.75
 20
-50.94999999999998
 30
0.0
 11
-93.25000000000001
 21
-50.94999999999998
 31
0.0
  0
LINE
  5
516
330
68F
100
AcDbEntity
  8
DATA
  6
Continuous
 62
     7
100
AcDbLine
 10
-95.0
 20
-52.69999999999999
 30
0.0
 11
-95.0
 21
-49.19999999999999
 31
0.0
  0
TEXT
  5
517
330
68F
100
AcDbEntity
  8
DATA
 62
     7
100
AcDbText
 10
-95.0
 20
-57.47836914062499
 30
0.0
 40
2.44326171875
  1
IN
 50
180.0
 41
0.7
 11
-95.0
 21
-58.69999999999999
 31
0.0
100
AcDbText
 73
     2
  0
TEXT
  5
518
330
68F
100
AcDbEntity
  8
DATA
 62
     7
100
AcDbText
 10
-95.0
 20
-41.97836914062499
 30
0.0
 40
2.44326171875
  1
OUT
 50
180.0
 41
0.7
 11
-95.0
 21
-43.19999999999999
 31
0.0
100
AcDbText
 73
     2
  0
LINE
  5
519
330
68F
100
AcDbEntity
  8
DATA
  6
Continuous
 62
     7
100
AcDbLine
 10
-105.5
 20
-61.69999999999999
 30
0.0
 11
-105.5
 21
-33.7
 31
0.0
  0
LINE
  5
51A
330
68F
100
AcDbEntity
  8
DATA
  6
Continuous
 62
     7
100
AcDbLine
 10
-211.0
 20
-64.7
 30
0.0
 11
-211.0
 21
-33.7
 31
0.0
  0
ARC
  5
51B
330
68F
100
AcDbEntity
  8
DATA
  6
Continuous
 62
     7
100
AcDbCircle
 10
-27.5
 20
-33.7
 30
0.0
 40
1.5
100
AcDbArc
 50
0.0
 51
90.0
  0
ARC
  5
51C
330
68F
100
AcDbEntity
  8
DATA
  6
Continuous
 62
     7
100
AcDbCircle
 10
-68.0
 20
-33.7
 30
0.0
 40
1.5
100
AcDbArc
 50
90.0
 51
180.0
  0
LINE
  5
51D
330
68F
100
AcDbEntity
  8
DATA
  6
Continuous
 62
     7
100
AcDbLine
 10
-105.5
 20
-61.69999999999999
 30
0.0
 11
-244.7641245054223
 21
-61.69999999999999
 31
0.0
  0
LINE
  5
51E
330
68F
100
AcDbEntity
  8
DATA
  6
Continuous
 62
     7
100
AcDbLine
 10
-252.2358754945824
 20
-61.69999999999999
 30
0.0
 11
-298.2641245054174
 21
-61.69999999999999
 31
0.0
  0
LINE
  5
51F
330
68F
100
AcDbEntity
  8
DATA
  6
Continuous
 62
     7
100
AcDbLine
 10
-305.7358754945824
 20
-61.69999999999999
 30
0.0
 11
-316.5
 21
-61.69999999999999
 31
0.0
  0
LINE
  5
520
330
68F
100
AcDbEntity
  8
DATA
  6
Continuous
 62
     7
100
AcDbLine
 10
-315.0
 20
-32.20000000000001
 30
0.0
 11
-212.5
 21
-32.20000000000001
 31
0.0
  0
LINE
  5
521
330
68F
100
AcDbEntity
  8
DATA
  6
Continuous
 62
     7
100
AcDbLine
 10
-211.0
 20
-64.7
 30
0.0
 11
-135.0
 21
-64.7
 31
0.0
  0
ARC
  5
522
330
68F
100
AcDbEntity
  8
DATA
  6
Continuous
 62
     7
100
AcDbCircle
 10
-107.0
 20
-33.7
 30
0.0
 40
1.5
100
AcDbArc
 50
0.0
 51
90.0
  0
LINE
  5
523
330
68F
100
AcDbEntity
  8
DATA
  6
Continuous
 62
     7
100
AcDbLine
 10
-134.0
 20
-61.69999999999999
 30
0.0
 11
-135.0
 21
-64.7
 31
0.0
  0
CIRCLE
  5
524
330
68F
100
AcDbEntity
  8
DATA
  6
Continuous
 62
     7
100
AcDbCircle
 10
-118.5
 20
-44.19999999999999
 30
0.0
 40
5.299999999999954
  0
CIRCLE
  5
525
330
68F
100
AcDbEntity
  8
DATA
  6
Continuous
 62
     7
100
AcDbCircle
 10
-118.5
 20
-44.19999999999999
 30
0.0
 40
3.25
  0
CIRCLE
  5
526
330
68F
100
AcDbEntity
  8
DATA
  6
Continuous
 62
     7
100
AcDbCircle
 10
-118.5
 20
-44.19999999999999
 30
0.0
 40
8.649999999999861
  0
LWPOLYLINE
  5
527
330
68F
100
AcDbEntity
  8
DATA
  6
Continuous
 62
     7
100
AcDbPolyline
 90
        6
 70
     1
 43
0.0
 10
-110.5409601198801
 20
-47.58765172157092
 10
-111.5866876098855
 20
-39.00109513486819
 10
-119.5457274900054
 20
-35.61344341329725
 10
-126.4590398801197
 20
-40.81234827842905
 10
-125.4133123901145
 20
-49.39890486513178
 10
-117.4542725099945
 20
-52.78655658670271
  0
CIRCLE
  5
530
330
68F
100
AcDbEntity
  8
DATA
  6
Continuous
 62
     7
100
AcDbCircle
 10
-143.0
 20
-49.69999999999998
 30
0.0
 40
11.0
  0
CIRCLE
  5
531
330
68F
100
AcDbEntity
  8
DATA
  6
Continuous
 62
     7
100
AcDbCircle
 10
-143.0
 20
-49.69999999999998
 30
0.0
 40
8.25
  0
CIRCLE
  5
532
330
68F
100
AcDbEntity
  8
DATA
  6
Continuous
 62
     7
100
AcDbCircle
 10
-143.0
 20
-45.51065933611715
 30
0.0
 40
1.25
  0
CIRCLE
  5
533
330
68F
100
AcDbEntity
  8
DATA
  6
Continuous
 62
     7
100
AcDbCircle
 10
-147.25
 20
-49.69999999999998
 30
0.0
 40
1.25
  0
CIRCLE
  5
534
330
68F
100
AcDbEntity
  8
DATA
  6
Continuous
 62
     7
100
AcDbCircle
 10
-138.75
 20
-49.69999999999998
 30
0.0
 40
1.25
  0
CIRCLE
  5
535
330
68F
100
AcDbEntity
  8
DATA
  6
Continuous
 62
     7
100
AcDbCircle
 10
-152.5377562957992
 20
-40.09493666722589
 30
0.0
 40
2.000699999999824
  0
CIRCLE
  5
536
330
68F
100
AcDbEntity
  8
DATA
  6
Continuous
 62
     7
100
AcDbCircle
 10
-133.3973788890753
 20
-59.23531407394984
 30
0.0
 40
2.000700000000052
  0
ARC
  5
537
330
68F
100
AcDbEntity
  8
DATA
  6
Continuous
 62
     7
100
AcDbCircle
 10
-143.0
 20
-49.69999999999998
 30
0.0
 40
8.000000000000031
100
AcDbArc
 50
247.9756871629579
 51
292.024312837042
  0
LINE
  5
538
330
68F
100
AcDbEntity
  8
DATA
  6
Continuous
 62
     7
100
AcDbLine
 10
-146.0
 20
-57.11619848709569
 30
0.0
 11
-146.0
 21
-57.38521307446961
 31
0.0
  0
LINE
  5
539
330
68F
100
AcDbEntity
  8
DATA
  6
Continuous
 62
     7
100
AcDbLine
 10
-140.0
 20
-57.11619848709569
 30
0.0
 11
-140.0
 21
-57.38521307446961
 31
0.0
  0
LINE
  5
53A
330
68F
100
AcDbEntity
  8
DATA
  6
Continuous
 62
     7
100
AcDbLine
 10
-133.3973788890753
 20
-58.48531407394984
 30
0.0
 11
-133.3973788890753
 21
-59.98531407394985
 31
0.0
  0
LINE
  5
53B
330
68F
100
AcDbEntity
  8
DATA
  6
Continuous
 62
     7
100
AcDbLine
 10
-132.6473788890753
 20
-59.23531407394984
 30
0.0
 11
-134.1473788890753
 21
-59.23531407394984
 31
0.0
  0
LINE
  5
53C
330
68F
100
AcDbEntity
  8
DATA
  6
Continuous
 62
     7
100
AcDbLine
 10
-152.5377562957992
 20
-39.3449366672259
 30
0.0
 11
-152.5377562957992
 21
-40.8449366672259
 31
0.0
  0
LINE
  5
53D
330
68F
100
AcDbEntity
  8
DATA
  6
Continuous
 62
     7
100
AcDbLine
 10
-151.7877562957992
 20
-40.09493666722589
 30
0.0
 11
-153.2877562957992
 21
-40.09493666722589
 31
0.0
  0
LINE
  5
53E
330
68F
100
AcDbEntity
  8
DATA
  6
Continuous
 62
     7
100
AcDbLine
 10
-159.0
 20
-36.69999999999999
 30
0.0
 11
-159.0
 21
-58.69999999999999
 31
0.0
  0
CIRCLE
  5
53F
330
68F
100
AcDbEntity
  8
DATA
  6
Continuous
 62
     7
100
AcDbCircle
 10
-172.0
 20
-44.19999999999999
 30
0.0
 40
5.299999999999954
  0
CIRCLE
  5
540
330
68F
100
AcDbEntity
  8
DATA
  6
Continuous
 62
     7
100
AcDbCircle
 10
-172.0
 20
-44.19999999999999
 30
0.0
 40
3.25
  0
CIRCLE
  5
541
330
68F
100
AcDbEntity
  8
DATA
  6
Continuous
 62
     7
100
AcDbCircle
 10
-172.0
 20
-44.19999999999999
 30
0.0
 40
8.649999999999861
  0
LWPOLYLINE
  5
542
330
68F
100
AcDbEntity
  8
DATA
  6
Continuous
 62
     7
100
AcDbPolyline
 90
        6
 70
     1
 43
0.0
 10
-164.0409601198801
 20
-47.58765172157092
 10
-165.0866876098855
 20
-39.00109513486819
 10
-173.0457274900054
 20
-35.61344341329725
 10
-179.9590398801197
 20
-40.81234827842905
 10
-178.9133123901144
 20
-49.39890486513178
 10
-170.9542725099945
 20
-52.78655658670271
  0
CIRCLE
  5
54B
330
68F
100
AcDbEntity
  8
DATA
  6
Continuous
 62
     7
100
AcDbCircle
 10
-196.5
 20
-49.69999999999998
 30
0.0
 40
11.0
  0
CIRCLE
  5
54C
330
68F
100
AcDbEntity
  8
DATA
  6
Continuous
 62
     7
100
AcDbCircle
 10
-196.5
 20
-49.69999999999998
 30
0.0
 40
8.25
  0
CIRCLE
  5
54D
330
68F
100
AcDbEntity
  8
DATA
  6
Continuous
 62
     7
100
AcDbCircle
 10
-196.5
 20
-45.51065933611715
 30
0.0
 40
1.25
  0
CIRCLE
  5
54E
330
68F
100
AcDbEntity
  8
DATA
  6
Continuous
 62
     7
100
AcDbCircle
 10
-200.75
 20
-49.69999999999998
 30
0.0
 40
1.25
  0
CIRCLE
  5
54F
330
68F
100
AcDbEntity
  8
DATA
  6
Continuous
 62
     7
100
AcDbCircle
 10
-192.25
 20
-49.69999999999998
 30
0.0
 40
1.25
  0
CIRCLE
  5
550
330
68F
100
AcDbEntity
  8
DATA
  6
Continuous
 62
     7
100
AcDbCircle
 10
-206.0377562957993
 20
-40.09493666722589
 30
0.0
 40
2.000699999999824
  0
CIRCLE
  5
551
330
68F
100
AcDbEntity
  8
DATA
  6
Continuous
 62
     7
100
AcDbCircle
 10
-186.8973788890753
 20
-59.23531407394984
 30
0.0
 40
2.000700000000052
  0
ARC
  5
552
330
68F
100
AcDbEntity
  8
DATA
  6
Continuous
 62
     7
100
AcDbCircle
 10
-196.5
 20
-49.69999999999998
 30
0.0
 40
8.000000000000031
100
AcDbArc
 50
247.9756871629579
 51
292.024312837042
  0
LINE
  5
553
330
68F
100
AcDbEntity
  8
DATA
  6
Continuous
 62
     7
100
AcDbLine
 10
-199.5
 20
-57.11619848709569
 30
0.0
 11
-199.5
 21
-57.38521307446961
 31
0.0
  0
LINE
  5
554
330
68F
100
AcDbEntity
  8
DATA
  6
Continuous
 62
     7
100
AcDbLine
 10
-193.5
 20
-57.11619848709569
 30
0.0
 11
-193.5
 21
-57.38521307446961
 31
0.0
  0
LINE
  5
555
330
68F
100
AcDbEntity
  8
DATA
  6
Continuous
 62
     7
100
AcDbLine
 10
-186.8973788890753
 20
-58.48531407394984
 30
0.0
 11
-186.8973788890753
 21
-59.98531407394985
 31
0.0
  0
LINE
  5
556
330
68F
100
AcDbEntity
  8
DATA
  6
Continuous
 62
     7
100
AcDbLine
 10
-186.1473788890753
 20
-59.23531407394984
 30
0.0
 11
-187.6473788890753
 21
-59.23531407394984
 31
0.0
  0
LINE
  5
557
330
68F
100
AcDbEntity
  8
DATA
  6
Continuous
 62
     7
100
AcDbLine
 10
-206.0377562957993
 20
-39.3449366672259
 30
0.0
 11
-206.0377562957993
 21
-40.8449366672259
 31
0.0
  0
LINE
  5
558
330
68F
100
AcDbEntity
  8
DATA
  6
Continuous
 62
     7
100
AcDbLine
 10
-205.2877562957993
 20
-40.09493666722589
 30
0.0
 11
-206.7877562957992
 21
-40.09493666722589
 31
0.0
  0
TEXT
  5
559
330
68F
100
AcDbEntity
  8
DATA
 62
     7
100
AcDbText
 10
-109.2602630208333
 20
-61.978369140625
 30
0.0
 40
2.44326171875
  1
ANALOG PUTPUT
 50
180.0
 41
0.7
 72
     1
 11
-119.75
 21
-63.2
 31
0.0
100
AcDbText
 73
     2
  0
TEXT
  5
55A
330
68F
100
AcDbEntity
  8
DATA
 62
     7
100
AcDbText
 10
-121.8644807942708
 20
-58.01368321457484
 30
0.0
 40
2.44326171875
  1
LEFT
 50
180.0
 41
0.7
 72
     1
 11
-125.0
 21
-59.23531407394984
 31
0.0
100
AcDbText
 73
     2
  0
TEXT
  5
55B
330
68F
100
AcDbEntity
  8
DATA
 62
     7
100
AcDbText
 10
-174.7943863932291
 20
-58.01368321457485
 30
0.0
 40
2.44326171875
  1
RIGHT
 50
180.0
 41
0.7
 72
     1
 11
-178.4999999999999
 21
-59.23531407394985
 31
0.0
100
AcDbText
 73
     2
  0
LINE
  5
55C
330
68F
100
AcDbEntity
  8
DATA
  6
Continuous
 62
     7
100
AcDbLine
 10
-316.5
 20
-64.7
 30
0.0
 11
-316.5
 21
-33.7
 31
0.0
  0
LINE
  5
55D
330
68F
100
AcDbEntity
  8
DATA
  6
Continuous
 62
     7
100
AcDbLine
 10
-316.5
 20
-64.7
 30
0.0
 11
-306.9656081246944
 21
-64.7
 31
0.0
  0
LINE
  5
55E
330
68F
100
AcDbEntity
  8
DATA
  6
Continuous
 62
     7
100
AcDbLine
 10
-297.0343918753082
 20
-64.7
 30
0.0
 11
-253.4656081246914
 21
-64.7
 31
0.0
  0
LINE
  5
55F
330
68F
100
AcDbEntity
  8
DATA
  6
Continuous
 62
     7
100
AcDbLine
 10
-243.5343918753097
 20
-64.7
 30
0.0
 11
-240.5
 21
-64.7
 31
0.0
  0
LINE
  5
560
330
68F
100
AcDbEntity
  8
DATA
  6
Continuous
 62
     7
100
AcDbLine
 10
-239.5
 20
-61.69999999999999
 30
0.0
 11
-240.5
 21
-64.7
 31
0.0
  0
CIRCLE
  5
561
330
68F
100
AcDbEntity
  8
DATA
  6
Continuous
 62
     7
100
AcDbCircle
 10
-224.0
 20
-44.19999999999999
 30
0.0
 40
5.299999999999954
  0
CIRCLE
  5
562
330
68F
100
AcDbEntity
  8
DATA
  6
Continuous
 62
     7
100
AcDbCircle
 10
-224.0
 20
-44.19999999999999
 30
0.0
 40
3.25
  0
CIRCLE
  5
563
330
68F
100
AcDbEntity
  8
DATA
  6
Continuous
 62
     7
100
AcDbCircle
 10
-224.0
 20
-44.19999999999999
 30
0.0
 40
8.649999999999861
  0
LWPOLYLINE
  5
564
330
68F
100
AcDbEntity
  8
DATA
  6
Continuous
 62
     7
100
AcDbPolyline
 90
        6
 70
     1
 43
0.0
 10
-216.0409601198801
 20
-47.58765172157092
 10
-217.0866876098855
 20
-39.00109513486819
 10
-225.0457274900055
 20
-35.61344341329725
 10
-231.9590398801197
 20
-40.81234827842905
 10
-230.9133123901145
 20
-49.39890486513178
 10
-222.9542725099946
 20
-52.78655658670271
  0
CIRCLE
  5
56D
330
68F
100
AcDbEntity
  8
DATA
  6
Continuous
 62
     7
100
AcDbCircle
 10
-277.5
 20
-44.19999999999999
 30
0.0
 40
5.299999999999954
  0
CIRCLE
  5
56E
330
68F
100
AcDbEntity
  8
DATA
  6
Continuous
 62
     7
100
AcDbCircle
 10
-277.5
 20
-44.19999999999999
 30
0.0
 40
3.25
  0
CIRCLE
  5
56F
330
68F
100
AcDbEntity
  8
DATA
  6
Continuous
 62
     7
100
AcDbCircle
 10
-277.5
 20
-44.19999999999999
 30
0.0
 40
8.649999999999861
  0
LWPOLYLINE
  5
570
330
68F
100
AcDbEntity
  8
DATA
  6
Continuous
 62
     7
100
AcDbPolyline
 90
        6
 70
     1
 43
0.0
 10
-269.5409601198801
 20
-47.58765172157092
 10
-270.5866876098856
 20
-39.00109513486819
 10
-278.5457274900054
 20
-35.61344341329725
 10
-285.4590398801197
 20
-40.81234827842905
 10
-284.4133123901145
 20
-49.39890486513178
 10
-276.4542725099945
 20
-52.78655658670271
  0
TEXT
  5
579
330
68F
100
AcDbEntity
  8
DATA
 62
     7
100
AcDbText
 10
-227.3644807942708
 20
-58.01368321457484
 30
0.0
 40
2.44326171875
  1
LEFT
 50
180.0
 41
0.7
 72
     1
 11
-230.5
 21
-59.23531407394984
 31
0.0
100
AcDbText
 73
     2
  0
TEXT
  5
57A
330
68F
100
AcDbEntity
  8
DATA
 62
     7
100
AcDbText
 10
-280.2943863932291
 20
-58.01368321457485
 30
0.0
 40
2.44326171875
  1
RIGHT
 50
180.0
 41
0.7
 72
     1
 11
-284.0
 21
-59.23531407394985
 31
0.0
100
AcDbText
 73
     2
  0
LINE
  5
57B
330
68F
100
AcDbEntity
  8
DATA
  6
Continuous
 62
     7
100
AcDbLine
 10
-264.5
 20
-36.69999999999999
 30
0.0
 11
-264.5
 21
-58.69999999999999
 31
0.0
  0
CIRCLE
  5
57C
330
68F
100
AcDbEntity
  8
DATA
  6
Continuous
 62
     7
100
AcDbCircle
 10
-248.5
 20
-49.69999999999998
 30
0.0
 40
9.850000000000136
  0
CIRCLE
  5
57D
330
68F
100
AcDbEntity
  8
DATA
  6
Continuous
 62
     7
100
AcDbCircle
 10
-248.5
 20
-49.69999999999998
 30
0.0
 40
7.850000000000136
  0
CIRCLE
  5
57E
330
68F
100
AcDbEntity
  8
DATA
  6
Continuous
 62
     7
100
AcDbCircle
 10
-248.5
 20
-45.77886197885749
 30
0.0
 40
1.2650000000001
  0
CIRCLE
  5
57F
330
68F
100
AcDbEntity
  8
DATA
  6
Continuous
 62
     7
100
AcDbCircle
 10
-244.5685184141137
 20
-49.69999999999998
 30
0.0
 40
1.2650000000001
  0
CIRCLE
  5
580
330
68F
100
AcDbEntity
  8
DATA
  6
Continuous
 62
     7
100
AcDbCircle
 10
-252.4344444193873
 20
-49.69999999999998
 30
0.0
 40
1.264999999999872
  0
ARC
  5
581
330
68F
100
AcDbEntity
  8
DATA
  6
Continuous
 62
     7
100
AcDbCircle
 10
-250.3278575598217
 20
-64.23415769466345
 30
0.0
 40
3.172142440178306
100
AcDbArc
 50
101.3105610478386
 51
266.8892056860701
  0
ARC
  5
582
330
68F
100
AcDbEntity
  8
DATA
  6
Continuous
 62
     7
100
AcDbCircle
 10
-246.6721424401783
 20
-64.23415769466345
 30
0.0
 40
3.172142440178104
100
AcDbArc
 50
273.11079431393
 51
78.68943895306597
  0
LINE
  5
583
330
68F
100
AcDbEntity
  8
DATA
  6
Continuous
 62
     7
100
AcDbLine
 10
-246.5
 20
-67.4016258698893
 30
0.0
 11
-250.5
 21
-67.4016258698893
 31
0.0
  0
CIRCLE
  5
584
330
68F
100
AcDbEntity
  8
DATA
  6
Continuous
 62
     7
100
AcDbCircle
 10
-258.0068654128964
 20
-40.14677486279281
 30
0.0
 40
2.000699999999824
  0
CIRCLE
  5
585
330
68F
100
AcDbEntity
  8
DATA
  6
Continuous
 62
     7
100
AcDbCircle
 10
-238.8664880061726
 20
-59.28715226951675
 30
0.0
 40
2.000700000000052
  0
ARC
  5
586
330
68F
100
AcDbEntity
  8
DATA
  6
Continuous
 62
     7
100
AcDbCircle
 10
-248.5
 20
-49.69999999999998
 30
0.0
 40
10.89999999999999
100
AcDbArc
 50
282.9893914705026
 51
257.0106085292324
  0
LINE
  5
587
330
68F
100
AcDbEntity
  8
DATA
  6
Continuous
 62
     7
100
AcDbLine
 10
-246.0500000000244
 20
-59.24044024142079
 30
0.0
 11
-246.0500000000244
 21
-61.12362294241568
 31
0.0
  0
LINE
  5
588
330
68F
100
AcDbEntity
  8
DATA
  6
Continuous
 62
     7
100
AcDbLine
 10
-250.9500000000246
 20
-59.24044024140807
 30
0.0
 11
-250.9500000000246
 21
-61.12362294242569
 31
0.0
  0
LINE
  5
589
330
68F
100
AcDbEntity
  8
DATA
  6
Continuous
 62
     7
100
AcDbLine
 10
-257.2568654128964
 20
-40.14677486279281
 30
0.0
 11
-258.7568654128964
 21
-40.14677486279281
 31
0.0
  0
LINE
  5
58A
330
68F
100
AcDbEntity
  8
DATA
  6
Continuous
 62
     7
100
AcDbLine
 10
-258.0068654128964
 20
-39.39677486279281
 30
0.0
 11
-258.0068654128964
 21
-40.8967748627928
 31
0.0
  0
LINE
  5
58B
330
68F
100
AcDbEntity
  8
DATA
  6
Continuous
 62
     7
100
AcDbLine
 10
-238.8664880061726
 20
-58.53715226951675
 30
0.0
 11
-238.8664880061726
 21
-60.03715226951675
 31
0.0
  0
LINE
  5
58C
330
68F
100
AcDbEntity
  8
DATA
  6
Continuous
 62
     7
100
AcDbLine
 10
-238.1164880061726
 20
-59.28715226951675
 30
0.0
 11
-239.6164880061726
 21
-59.28715226951675
 31
0.0
  0
CIRCLE
  5
58D
330
68F
100
AcDbEntity
  8
DATA
  6
Continuous
 62
     7
100
AcDbCircle
 10
-302.0
 20
-49.69999999999998
 30
0.0
 40
9.850000000000136
  0
CIRCLE
  5
58E
330
68F
100
AcDbEntity
  8
DATA
  6
Continuous
 62
     7
100
AcDbCircle
 10
-302.0
 20
-49.69999999999998
 30
0.0
 40
7.850000000000136
  0
CIRCLE
  5
58F
330
68F
100
AcDbEntity
  8
DATA
  6
Continuous
 62
     7
100
AcDbCircle
 10
-302.0
 20
-45.77886197885749
 30
0.0
 40
1.2650000000001
  0
CIRCLE
  5
590
330
68F
100
AcDbEntity
  8
DATA
  6
Continuous
 62
     7
100
AcDbCircle
 10
-298.0685184141137
 20
-49.69999999999998
 30
0.0
 40
1.2650000000001
  0
CIRCLE
  5
591
330
68F
100
AcDbEntity
  8
DATA
  6
Continuous
 62
     7
100
AcDbCircle
 10
-305.9344444193873
 20
-49.69999999999998
 30
0.0
 40
1.264999999999872
  0
ARC
  5
592
330
68F
100
AcDbEntity
  8
DATA
  6
Continuous
 62
     7
100
AcDbCircle
 10
-303.8278575598217
 20
-64.23415769466345
 30
0.0
 40
3.172142440178306
100
AcDbArc
 50
101.3105610478386
 51
266.8892056860701
  0
ARC
  5
593
330
68F
100
AcDbEntity
  8
DATA
  6
Continuous
 62
     7
100
AcDbCircle
 10
-300.1721424401783
 20
-64.23415769466345
 30
0.0
 40
3.172142440178104
100
AcDbArc
 50
273.11079431393
 51
78.68943895306597
  0
LINE
  5
594
330
68F
100
AcDbEntity
  8
DATA
  6
Continuous
 62
     7
100
AcDbLine
 10
-300.0
 20
-67.4016258698893
 30
0.0
 11
-304.0
 21
-67.4016258698893
 31
0.0
  0
CIRCLE
  5
595
330
68F
100
AcDbEntity
  8
DATA
  6
Continuous
 62
     7
100
AcDbCircle
 10
-311.5068654128964
 20
-40.14677486279281
 30
0.0
 40
2.000699999999824
  0
CIRCLE
  5
596
330
68F
100
AcDbEntity
  8
DATA
  6
Continuous
 62
     7
100
AcDbCircle
 10
-292.3664880061726
 20
-59.28715226951675
 30
0.0
 40
2.000700000000052
  0
ARC
  5
597
330
68F
100
AcDbEntity
  8
DATA
  6
Continuous
 62
     7
100
AcDbCircle
 10
-302.0
 20
-49.69999999999998
 30
0.0
 40
10.89999999999999
100
AcDbArc
 50
282.9893914705026
 51
257.0106085292324
  0
LINE
  5
598
330
68F
100
AcDbEntity
  8
DATA
  6
Continuous
 62
     7
100
AcDbLine
 10
-299.5500000000245
 20
-59.24044024142079
 30
0.0
 11
-299.5500000000245
 21
-61.12362294241568
 31
0.0
  0
LINE
  5
599
330
68F
100
AcDbEntity
  8
DATA
  6
Continuous
 62
     7
100
AcDbLine
 10
-304.4500000000247
 20
-59.24044024140807
 30
0.0
 11
-304.4500000000247
 21
-61.12362294242569
 31
0.0
  0
LINE
  5
59A
330
68F
100
AcDbEntity
  8
DATA
  6
Continuous
 62
     7
100
AcDbLine
 10
-310.7568654128964
 20
-40.14677486279281
 30
0.0
 11
-312.2568654128964
 21
-40.14677486279281
 31
0.0
  0
LINE
  5
59B
330
68F
100
AcDbEntity
  8
DATA
  6
Continuous
 62
     7
100
AcDbLine
 10
-311.5068654128964
 20
-39.39677486279281
 30
0.0
 11
-311.5068654128964
 21
-40.8967748627928
 31
0.0
  0
LINE
  5
59C
330
68F
100
AcDbEntity
  8
DATA
  6
Continuous
 62
     7
100
AcDbLine
 10
-292.3664880061726
 20
-58.53715226951675
 30
0.0
 11
-292.3664880061726
 21
-60.03715226951675
 31
0.0
  0
LINE
  5
59D
330
68F
100
AcDbEntity
  8
DATA
  6
Continuous
 62
     7
100
AcDbLine
 10
-291.6164880061726
 20
-59.28715226951675
 30
0.0
 11
-293.1164880061727
 21
-59.28715226951675
 31
0.0
  0
TEXT
  5
59E
330
68F
100
AcDbEntity
  8
DATA
 62
     7
100
AcDbText
 10
-215.9004518229167
 20
-61.978369140625
 30
0.0
 40
2.44326171875
  1
ANALOG INPUT
 50
180.0
 41
0.7
 72
     1
 11
-225.25
 21
-63.2
 31
0.0
100
AcDbText
 73
     2
  0
LINE
  5
59F
330
68F
100
AcDbEntity
  8
DATA
  6
Continuous
 62
     7
100
AcDbLine
 10
-89.65000000000008
 20
-133.1
 30
0.0
 11
-81.34999999999992
 21
-133.1
 31
0.0
  0
LINE
  5
5A0
330
68F
100
AcDbEntity
  8
DATA
  6
Continuous
 62
     7
100
AcDbLine
 10
-89.65000000000008
 20
-133.1
 30
0.0
 11
-89.65000000000008
 21
-137.6
 31
0.0
  0
LINE
  5
5A1
330
68F
100
AcDbEntity
  8
DATA
  6
Continuous
 62
     7
100
AcDbLine
 10
-81.34999999999992
 20
-133.1
 30
0.0
 11
-81.34999999999992
 21
-137.6
 31
0.0
  0
LINE
  5
5A2
330
68F
100
AcDbEntity
  8
DATA
  6
Continuous
 62
     7
100
AcDbLine
 10
-16.29999999999995
 20
-131.1
 30
0.0
 11
-5.700000000000045
 21
-131.1
 31
0.0
  0
LINE
  5
5A3
330
68F
100
AcDbEntity
  8
DATA
  6
Continuous
 62
     7
100
AcDbLine
 10
-18.95903988011992
 20
-134.1
 30
0.0
 11
-3.040960119880082
 21
-134.1
 31
0.0
  0
LINE
  5
5A4
330
68F
100
AcDbEntity
  8
DATA
  6
Continuous
 62
     7
100
AcDbLine
 10
-16.29999999999995
 20
-131.1
 30
0.0
 11
-16.29999999999995
 21
-134.1
 31
0.0
  0
LINE
  5
5A5
330
68F
100
AcDbEntity
  8
DATA
  6
Continuous
 62
     7
100
AcDbLine
 10
-5.700000000000045
 20
-131.1
 30
0.0
 11
-5.700000000000045
 21
-134.1
 31
0.0
  0
LINE
  5
5A6
330
68F
100
AcDbEntity
  8
DATA
  6
Continuous
 62
     7
100
AcDbLine
 10
-18.95903988011992
 20
-134.1
 30
0.0
 11
-18.95903988011992
 21
-137.6
 31
0.0
  0
LINE
  5
5A7
330
68F
100
AcDbEntity
  8
DATA
  6
Continuous
 62
     7
100
AcDbLine
 10
-3.040960119880082
 20
-134.1
 30
0.0
 11
-3.040960119880082
 21
-137.6
 31
0.0
  0
LINE
  5
5A8
330
68F
100
AcDbEntity
  8
DATA
  6
Continuous
 62
     7
100
AcDbLine
 10
-17.91331239011447
 20
-134.1
 30
0.0
 11
-17.91331239011447
 21
-137.6
 31
0.0
  0
LINE
  5
5A9
330
68F
100
AcDbEntity
  8
DATA
  6
Continuous
 62
     7
100
AcDbLine
 10
-9.954272509994552
 20
-134.1
 30
0.0
 11
-9.954272509994552
 21
-137.6
 31
0.0
  0
LINE
  5
5AA
330
68F
100
AcDbEntity
  8
DATA
  6
Continuous
 62
     7
100
AcDbLine
 10
69.5
 20
-132.6
 30
0.0
 11
69.5
 21
-137.6
 31
0.0
  0
LINE
  5
5AB
330
68F
100
AcDbEntity
  8
DATA
  6
Continuous
 62
     7
100
AcDbLine
 10
99.50000000000001
 20
-132.6
 30
0.0
 11
99.50000000000001
 21
-137.6
 31
0.0
  0
LINE
  5
5AC
330
68F
100
AcDbEntity
  8
DATA
  6
Continuous
 62
     7
100
AcDbLine
 10
6.608633541039925
 20
-136.1
 30
0.0
 11
6.608633541039925
 21
-137.6
 31
0.0
  0
LINE
  5
5AD
330
68F
100
AcDbEntity
  8
DATA
  6
Continuous
 62
     7
100
AcDbLine
 10
12.50000000000011
 20
-136.1
 30
0.0
 11
12.50000000000011
 21
-137.6
 31
0.0
  0
LINE
  5
5AE
330
68F
100
AcDbEntity
  8
DATA
  6
Continuous
 62
     7
100
AcDbLine
 10
6.608633541039925
 20
-136.1
 30
0.0
 11
12.50000000000011
 21
-136.1
 31
0.0
  0
ARC
  5
5AF
330
68F
100
AcDbEntity
  8
DATA
  6
Continuous
 62
     7
100
AcDbCircle
 10
9.554316770520019
 20
-139.9385248442201
 30
0.0
 40
4.838524844220132
100
AcDbArc
 50
52.49737401007116
 51
127.5026259899288
  0
LINE
  5
5B0
330
68F
100
AcDbEntity
  8
DATA
  6
Continuous
 62
     7
100
AcDbLine
 10
99.50000000000001
 20
-132.6
 30
0.0
 11
69.5
 21
-132.6
 31
0.0
  0
ARC
  5
5B1
330
68F
100
AcDbEntity
  8
DATA
  6
Continuous
 62
     7
100
AcDbCircle
 10
-66.00000000000001
 20
-139.109375
 30
0.0
 40
2.709375000000003
100
AcDbArc
 50
33.85502612829419
 51
146.1449738717058
  0
ARC
  5
5B2
330
68F
100
AcDbEntity
  8
DATA
  6
Continuous
 62
     7
100
AcDbCircle
 10
-44.50000000000001
 20
-139.109375
 30
0.0
 40
2.709375000000003
100
AcDbArc
 50
33.85502612829419
 51
146.1449738717058
  0
LINE
  5
5B3
330
68F
100
AcDbEntity
  8
DATA
  6
Continuous
 62
     7
100
AcDbLine
 10
-209.5
 20
-32.20000000000001
 30
0.0
 11
-107.0
 21
-32.20000000000001
 31
0.0
  0
ARC
  5
5B4
330
68F
100
AcDbEntity
  8
DATA
  6
Continuous
 62
     7
100
AcDbCircle
 10
-209.5
 20
-33.7
 30
0.0
 40
1.5
100
AcDbArc
 50
90.0
 51
180.0
  0
ARC
  5
5B5
330
68F
100
AcDbEntity
  8
DATA
  6
Continuous
 62
     7
100
AcDbCircle
 10
-212.5
 20
-33.7
 30
0.0
 40
1.5
100
AcDbArc
 50
0.0
 51
90.0
  0
ARC
  5
5B6
330
68F
100
AcDbEntity
  8
DATA
  6
Continuous
 62
     7
100
AcDbCircle
 10
-315.0
 20
-33.7
 30
0.0
 40
1.5
100
AcDbArc
 50
90.0
 51
180.0
  0
LINE
  5
5B7
330
68F
100
AcDbEntity
  8
DATA
  6
Continuous
 62
     7
100
AcDbLine
 10
-123.7999999999999
 20
-131.1
 30
0.0
 11
-113.2
 21
-131.1
 31
0.0
  0
LINE
  5
5B8
330
68F
100
AcDbEntity
  8
DATA
  6
Continuous
 62
     7
100
AcDbLine
 10
-126.4590398801199
 20
-134.1
 30
0.0
 11
-110.54096011988
 21
-134.1
 31
0.0
  0
LINE
  5
5B9
330
68F
100
AcDbEntity
  8
DATA
  6
Continuous
 62
     7
100
AcDbLine
 10
-123.7999999999999
 20
-131.1
 30
0.0
 11
-123.7999999999999
 21
-134.1
 31
0.0
  0
LINE
  5
5BA
330
68F
100
AcDbEntity
  8
DATA
  6
Continuous
 62
     7
100
AcDbLine
 10
-113.2
 20
-131.1
 30
0.0
 11
-113.2
 21
-134.1
 31
0.0
  0
LINE
  5
5BB
330
68F
100
AcDbEntity
  8
DATA
  6
Continuous
 62
     7
100
AcDbLine
 10
-126.4590398801199
 20
-134.1
 30
0.0
 11
-126.4590398801199
 21
-137.6
 31
0.0
  0
LINE
  5
5BC
330
68F
100
AcDbEntity
  8
DATA
  6
Continuous
 62
     7
100
AcDbLine
 10
-110.54096011988
 20
-134.1
 30
0.0
 11
-110.54096011988
 21
-137.6
 31
0.0
  0
LINE
  5
5BD
330
68F
100
AcDbEntity
  8
DATA
  6
Continuous
 62
     7
100
AcDbLine
 10
-125.4133123901144
 20
-134.1
 30
0.0
 11
-125.4133123901144
 21
-137.6
 31
0.0
  0
LINE
  5
5BE
330
68F
100
AcDbEntity
  8
DATA
  6
Continuous
 62
     7
100
AcDbLine
 10
-117.4542725099945
 20
-134.1
 30
0.0
 11
-117.4542725099945
 21
-137.6
 31
0.0
  0
LINE
  5
5BF
330
68F
100
AcDbEntity
  8
DATA
  6
Continuous
 62
     7
100
AcDbLine
 10
-177.2999999999999
 20
-131.1
 30
0.0
 11
-166.7
 21
-131.1
 31
0.0
  0
LINE
  5
5C0
330
68F
100
AcDbEntity
  8
DATA
  6
Continuous
 62
     7
100
AcDbLine
 10
-179.9590398801198
 20
-134.1
 30
0.0
 11
-164.04096011988
 21
-134.1
 31
0.0
  0
LINE
  5
5C1
330
68F
100
AcDbEntity
  8
DATA
  6
Continuous
 62
     7
100
AcDbLine
 10
-177.2999999999999
 20
-131.1
 30
0.0
 11
-177.2999999999999
 21
-134.1
 31
0.0
  0
LINE
  5
5C2
330
68F
100
AcDbEntity
  8
DATA
  6
Continuous
 62
     7
100
AcDbLine
 10
-166.7
 20
-131.1
 30
0.0
 11
-166.7
 21
-134.1
 31
0.0
  0
LINE
  5
5C3
330
68F
100
AcDbEntity
  8
DATA
  6
Continuous
 62
     7
100
AcDbLine
 10
-179.9590398801198
 20
-134.1
 30
0.0
 11
-179.9590398801198
 21
-137.6
 31
0.0
  0
LINE
  5
5C4
330
68F
100
AcDbEntity
  8
DATA
  6
Continuous
 62
     7
100
AcDbLine
 10
-164.04096011988
 20
-134.1
 30
0.0
 11
-164.04096011988
 21
-137.6
 31
0.0
  0
LINE
  5
5C5
330
68F
100
AcDbEntity
  8
DATA
  6
Continuous
 62
     7
100
AcDbLine
 10
-178.9133123901144
 20
-134.1
 30
0.0
 11
-178.9133123901144
 21
-137.6
 31
0.0
  0
LINE
  5
5C6
330
68F
100
AcDbEntity
  8
DATA
  6
Continuous
 62
     7
100
AcDbLine
 10
-170.9542725099945
 20
-134.1
 30
0.0
 11
-170.9542725099945
 21
-137.6
 31
0.0
  0
LINE
  5
5C7
330
68F
100
AcDbEntity
  8
DATA
  6
Continuous
 62
     7
100
AcDbLine
 10
-229.3
 20
-131.1
 30
0.0
 11
-218.7
 21
-131.1
 31
0.0
  0
LINE
  5
5C8
330
68F
100
AcDbEntity
  8
DATA
  6
Continuous
 62
     7
100
AcDbLine
 10
-231.9590398801198
 20
-134.1
 30
0.0
 11
-216.04096011988
 21
-134.1
 31
0.0
  0
LINE
  5
5C9
330
68F
100
AcDbEntity
  8
DATA
  6
Continuous
 62
     7
100
AcDbLine
 10
-229.3
 20
-131.1
 30
0.0
 11
-229.3
 21
-134.1
 31
0.0
  0
LINE
  5
5CA
330
68F
100
AcDbEntity
  8
DATA
  6
Continuous
 62
     7
100
AcDbLine
 10
-218.7
 20
-131.1
 30
0.0
 11
-218.7
 21
-134.1
 31
0.0
  0
LINE
  5
5CB
330
68F
100
AcDbEntity
  8
DATA
  6
Continuous
 62
     7
100
AcDbLine
 10
-231.9590398801198
 20
-134.1
 30
0.0
 11
-231.9590398801198
 21
-137.6
 31
0.0
  0
LINE
  5
5CC
330
68F
100
AcDbEntity
  8
DATA
  6
Continuous
 62
     7
100
AcDbLine
 10
-216.04096011988
 20
-134.1
 30
0.0
 11
-216.04096011988
 21
-137.6
 31
0.0
  0
LINE
  5
5CD
330
68F
100
AcDbEntity
  8
DATA
  6
Continuous
 62
     7
100
AcDbLine
 10
-230.9133123901145
 20
-134.1
 30
0.0
 11
-230.9133123901145
 21
-137.6
 31
0.0
  0
LINE
  5
5CE
330
68F
100
AcDbEntity
  8
DATA
  6
Continuous
 62
     7
100
AcDbLine
 10
-222.9542725099945
 20
-134.1
 30
0.0
 11
-222.9542725099945
 21
-137.6
 31
0.0
  0
LINE
  5
5CF
330
68F
100
AcDbEntity
  8
DATA
  6
Continuous
 62
     7
100
AcDbLine
 10
-282.7999999999999
 20
-131.1
 30
0.0
 11
-272.2
 21
-131.1
 31
0.0
  0
LINE
  5
5D0
330
68F
100
AcDbEntity
  8
DATA
  6
Continuous
 62
     7
100
AcDbLine
 10
-285.4590398801199
 20
-134.1
 30
0.0
 11
-269.5409601198801
 21
-134.1
 31
0.0
  0
LINE
  5
5D1
330
68F
100
AcDbEntity
  8
DATA
  6
Continuous
 62
     7
100
AcDbLine
 10
-282.7999999999999
 20
-131.1
 30
0.0
 11
-282.7999999999999
 21
-134.1
 31
0.0
  0
LINE
  5
5D2
330
68F
100
AcDbEntity
  8
DATA
  6
Continuous
 62
     7
100
AcDbLine
 10
-272.2
 20
-131.1
 30
0.0
 11
-272.2
 21
-134.1
 31
0.0
  0
LINE
  5
5D3
330
68F
100
AcDbEntity
  8
DATA
  6
Continuous
 62
     7
100
AcDbLine
 10
-285.4590398801199
 20
-134.1
 30
0.0
 11
-285.4590398801199
 21
-137.6
 31
0.0
  0
LINE
  5
5D4
330
68F
100
AcDbEntity
  8
DATA
  6
Continuous
 62
     7
100
AcDbLine
 10
-269.5409601198801
 20
-134.1
 30
0.0
 11
-269.5409601198801
 21
-137.6
 31
0.0
  0
LINE
  5
5D5
330
68F
100
AcDbEntity
  8
DATA
  6
Continuous
 62
     7
100
AcDbLine
 10
-284.4133123901145
 20
-134.1
 30
0.0
 11
-284.4133123901145
 21
-137.6
 31
0.0
  0
LINE
  5
5D6
330
68F
100
AcDbEntity
  8
DATA
  6
Continuous
 62
     7
100
AcDbLine
 10
-276.4542725099945
 20
-134.1
 30
0.0
 11
-276.4542725099945
 21
-137.6
 31
0.0
  0
LINE
  5
5D7
330
68F
100
AcDbEntity
  8
DATA
  6
Continuous
 62
     7
100
AcDbLine
 10
-135.3980788890753
 20
-136.6
 30
0.0
 11
-135.3980788890753
 21
-137.6
 31
0.0
  0
LINE
  5
5D8
330
68F
100
AcDbEntity
  8
DATA
  6
Continuous
 62
     7
100
AcDbLine
 10
-131.3966788890752
 20
-136.6
 30
0.0
 11
-131.3966788890752
 21
-137.6
 31
0.0
  0
LINE
  5
5D9
330
68F
100
AcDbEntity
  8
DATA
  6
Continuous
 62
     7
100
AcDbLine
 10
-135.3980788890753
 20
-136.6
 30
0.0
 11
-131.3966788890752
 21
-136.6
 31
0.0
  0
LINE
  5
5DA
330
68F
100
AcDbEntity
  8
DATA
  6
Continuous
 62
     7
100
AcDbLine
 10
-135.3980788890753
 20
-136.6
 30
0.0
 11
-135.3980788890753
 21
-137.6
 31
0.0
  0
LINE
  5
5DB
330
68F
100
AcDbEntity
  8
DATA
  6
Continuous
 62
     7
100
AcDbLine
 10
-131.3966788890752
 20
-136.6
 30
0.0
 11
-131.3966788890752
 21
-137.6
 31
0.0
  0
LINE
  5
5DC
330
68F
100
AcDbEntity
  8
DATA
  6
Continuous
 62
     7
100
AcDbLine
 10
-135.3980788890753
 20
-136.6
 30
0.0
 11
-131.3966788890752
 21
-136.6
 31
0.0
  0
ARC
  5
5DD
330
68F
100
AcDbEntity
  8
DATA
  6
Continuous
 62
     7
100
AcDbCircle
 10
-133.3973788890753
 20
-138.70175030625
 30
0.0
 40
2.901750306250084
100
AcDbArc
 50
46.4110068713831
 51
133.5889931286168
  0
LINE
  5
5DE
330
68F
100
AcDbEntity
  8
DATA
  6
Continuous
 62
     7
100
AcDbLine
 10
-154.5384562957992
 20
-136.6
 30
0.0
 11
-154.5384562957992
 21
-137.6
 31
0.0
  0
LINE
  5
5DF
330
68F
100
AcDbEntity
  8
DATA
  6
Continuous
 62
     7
100
AcDbLine
 10
-150.5370562957992
 20
-136.6
 30
0.0
 11
-150.5370562957992
 21
-137.6
 31
0.0
  0
LINE
  5
5E0
330
68F
100
AcDbEntity
  8
DATA
  6
Continuous
 62
     7
100
AcDbLine
 10
-154.5384562957992
 20
-136.6
 30
0.0
 11
-150.5370562957992
 21
-136.6
 31
0.0
  0
LINE
  5
5E1
330
68F
100
AcDbEntity
  8
DATA
  6
Continuous
 62
     7
100
AcDbLine
 10
-154.5384562957992
 20
-136.6
 30
0.0
 11
-154.5384562957992
 21
-137.6
 31
0.0
  0
LINE
  5
5E2
330
68F
100
AcDbEntity
  8
DATA
  6
Continuous
 62
     7
100
AcDbLine
 10
-150.5370562957992
 20
-136.6
 30
0.0
 11
-150.5370562957992
 21
-137.6
 31
0.0
  0
LINE
  5
5E3
330
68F
100
AcDbEntity
  8
DATA
  6
Continuous
 62
     7
100
AcDbLine
 10
-154.5384562957992
 20
-136.6
 30
0.0
 11
-150.5370562957992
 21
-136.6
 31
0.0
  0
ARC
  5
5E4
330
68F
100
AcDbEntity
  8
DATA
  6
Continuous
 62
     7
100
AcDbCircle
 10
-152.5377562957992
 20
-138.70175030625
 30
0.0
 40
2.901750306250084
100
AcDbArc
 50
46.4110068713831
 51
133.5889931286168
  0
LINE
  5
5E5
330
68F
100
AcDbEntity
  8
DATA
  6
Continuous
 62
     7
100
AcDbLine
 10
-188.8980788890753
 20
-136.6
 30
0.0
 11
-188.8980788890753
 21
-137.6
 31
0.0
  0
LINE
  5
5E6
330
68F
100
AcDbEntity
  8
DATA
  6
Continuous
 62
     7
100
AcDbLine
 10
-184.8966788890752
 20
-136.6
 30
0.0
 11
-184.8966788890752
 21
-137.6
 31
0.0
  0
LINE
  5
5E7
330
68F
100
AcDbEntity
  8
DATA
  6
Continuous
 62
     7
100
AcDbLine
 10
-188.8980788890753
 20
-136.6
 30
0.0
 11
-184.8966788890752
 21
-136.6
 31
0.0
  0
LINE
  5
5E8
330
68F
100
AcDbEntity
  8
DATA
  6
Continuous
 62
     7
100
AcDbLine
 10
-188.8980788890753
 20
-136.6
 30
0.0
 11
-188.8980788890753
 21
-137.6
 31
0.0
  0
LINE
  5
5E9
330
68F
100
AcDbEntity
  8
DATA
  6
Continuous
 62
     7
100
AcDbLine
 10
-184.8966788890752
 20
-136.6
 30
0.0
 11
-184.8966788890752
 21
-137.6
 31
0.0
  0
LINE
  5
5EA
330
68F
100
AcDbEntity
  8
DATA
  6
Continuous
 62
     7
100
AcDbLine
 10
-188.8980788890753
 20
-136.6
 30
0.0
 11
-184.8966788890752
 21
-136.6
 31
0.0
  0
ARC
  5
5EB
330
68F
100
AcDbEntity
  8
DATA
  6
Continuous
 62
     7
100
AcDbCircle
 10
-186.8973788890753
 20
-138.70175030625
 30
0.0
 40
2.901750306250084
100
AcDbArc
 50
46.4110068713831
 51
133.5889931286168
  0
LINE
  5
5EC
330
68F
100
AcDbEntity
  8
DATA
  6
Continuous
 62
     7
100
AcDbLine
 10
-208.0384562957993
 20
-136.6
 30
0.0
 11
-208.0384562957993
 21
-137.6
 31
0.0
  0
LINE
  5
5ED
330
68F
100
AcDbEntity
  8
DATA
  6
Continuous
 62
     7
100
AcDbLine
 10
-204.0370562957992
 20
-136.6
 30
0.0
 11
-204.0370562957992
 21
-137.6
 31
0.0
  0
LINE
  5
5EE
330
68F
100
AcDbEntity
  8
DATA
  6
Continuous
 62
     7
100
AcDbLine
 10
-208.0384562957993
 20
-136.6
 30
0.0
 11
-204.0370562957992
 21
-136.6
 31
0.0
  0
LINE
  5
5EF
330
68F
100
AcDbEntity
  8
DATA
  6
Continuous
 62
     7
100
AcDbLine
 10
-208.0384562957993
 20
-136.6
 30
0.0
 11
-208.0384562957993
 21
-137.6
 31
0.0
  0
LINE
  5
5F0
330
68F
100
AcDbEntity
  8
DATA
  6
Continuous
 62
     7
100
AcDbLine
 10
-204.0370562957992
 20
-136.6
 30
0.0
 11
-204.0370562957992
 21
-137.6
 31
0.0
  0
LINE
  5
5F1
330
68F
100
AcDbEntity
  8
DATA
  6
Continuous
 62
     7
100
AcDbLine
 10
-208.0384562957993
 20
-136.6
 30
0.0
 11
-204.0370562957992
 21
-136.6
 31
0.0
  0
ARC
  5
5F2
330
68F
100
AcDbEntity
  8
DATA
  6
Continuous
 62
     7
100
AcDbCircle
 10
-206.0377562957993
 20
-138.70175030625
 30
0.0
 40
2.901750306250084
100
AcDbArc
 50
46.4110068713831
 51
133.5889931286168
  0
LINE
  5
5F3
330
68F
100
AcDbEntity
  8
DATA
  6
Continuous
 62
     7
100
AcDbLine
 10
-240.8671880061727
 20
-136.6
 30
0.0
 11
-240.8671880061727
 21
-137.6
 31
0.0
  0
LINE
  5
5F4
330
68F
100
AcDbEntity
  8
DATA
  6
Continuous
 62
     7
100
AcDbLine
 10
-236.8657880061725
 20
-136.6
 30
0.0
 11
-236.8657880061725
 21
-137.6
 31
0.0
  0
LINE
  5
5F5
330
68F
100
AcDbEntity
  8
DATA
  6
Continuous
 62
     7
100
AcDbLine
 10
-240.8671880061727
 20
-136.6
 30
0.0
 11
-236.8657880061725
 21
-136.6
 31
0.0
  0
LINE
  5
5F6
330
68F
100
AcDbEntity
  8
DATA
  6
Continuous
 62
     7
100
AcDbLine
 10
-240.8671880061727
 20
-136.6
 30
0.0
 11
-240.8671880061727
 21
-137.6
 31
0.0
  0
LINE
  5
5F7
330
68F
100
AcDbEntity
  8
DATA
  6
Continuous
 62
     7
100
AcDbLine
 10
-236.8657880061725
 20
-136.6
 30
0.0
 11
-236.8657880061725
 21
-137.6
 31
0.0
  0
LINE
  5
5F8
330
68F
100
AcDbEntity
  8
DATA
  6
Continuous
 62
     7
100
AcDbLine
 10
-240.8671880061727
 20
-136.6
 30
0.0
 11
-236.8657880061725
 21
-136.6
 31
0.0
  0
ARC
  5
5F9
330
68F
100
AcDbEntity
  8
DATA
  6
Continuous
 62
     7
100
AcDbCircle
 10
-238.8664880061726
 20
-138.70175030625
 30
0.0
 40
2.901750306250084
100
AcDbArc
 50
46.4110068713831
 51
133.5889931286168
  0
LINE
  5
5FA
330
68F
100
AcDbEntity
  8
DATA
  6
Continuous
 62
     7
100
AcDbLine
 10
-260.0075654128966
 20
-136.6
 30
0.0
 11
-260.0075654128966
 21
-137.6
 31
0.0
  0
LINE
  5
5FB
330
68F
100
AcDbEntity
  8
DATA
  6
Continuous
 62
     7
100
AcDbLine
 10
-256.0061654128964
 20
-136.6
 30
0.0
 11
-256.0061654128964
 21
-137.6
 31
0.0
  0
LINE
  5
5FC
330
68F
100
AcDbEntity
  8
DATA
  6
Continuous
 62
     7
100
AcDbLine
 10
-260.0075654128966
 20
-136.6
 30
0.0
 11
-256.0061654128964
 21
-136.6
 31
0.0
  0
LINE
  5
5FD
330
68F
100
AcDbEntity
  8
DATA
  6
Continuous
 62
     7
100
AcDbLine
 10
-260.0075654128966
 20
-136.6
 30
0.0
 11
-260.0075654128966
 21
-137.6
 31
0.0
  0
LINE
  5
5FE
330
68F
100
AcDbEntity
  8
DATA
  6
Continuous
 62
     7
100
AcDbLine
 10
-256.0061654128964
 20
-136.6
 30
0.0
 11
-256.0061654128964
 21
-137.6
 31
0.0
  0
LINE
  5
5FF
330
68F
100
AcDbEntity
  8
DATA
  6
Continuous
 62
     7
100
AcDbLine
 10
-260.0075654128966
 20
-136.6
 30
0.0
 11
-256.0061654128964
 21
-136.6
 31
0.0
  0
ARC
  5
600
330
68F
100
AcDbEntity
  8
DATA
  6
Continuous
 62
     7
100
AcDbCircle
 10
-258.0068654128965
 20
-138.70175030625
 30
0.0
 40
2.901750306250084
100
AcDbArc
 50
46.4110068713831
 51
133.5889931286168
  0
LINE
  5
601
330
68F
100
AcDbEntity
  8
DATA
  6
Continuous
 62
     7
100
AcDbLine
 10
-294.3671880061727
 20
-136.6
 30
0.0
 11
-294.3671880061727
 21
-137.6
 31
0.0
  0
LINE
  5
602
330
68F
100
AcDbEntity
  8
DATA
  6
Continuous
 62
     7
100
AcDbLine
 10
-290.3657880061726
 20
-136.6
 30
0.0
 11
-290.3657880061726
 21
-137.6
 31
0.0
  0
LINE
  5
603
330
68F
100
AcDbEntity
  8
DATA
  6
Continuous
 62
     7
100
AcDbLine
 10
-294.3671880061727
 20
-136.6
 30
0.0
 11
-290.3657880061726
 21
-136.6
 31
0.0
  0
LINE
  5
604
330
68F
100
AcDbEntity
  8
DATA
  6
Continuous
 62
     7
100
AcDbLine
 10
-294.3671880061727
 20
-136.6
 30
0.0
 11
-294.3671880061727
 21
-137.6
 31
0.0
  0
LINE
  5
605
330
68F
100
AcDbEntity
  8
DATA
  6
Continuous
 62
     7
100
AcDbLine
 10
-290.3657880061726
 20
-136.6
 30
0.0
 11
-290.3657880061726
 21
-137.6
 31
0.0
  0
LINE
  5
606
330
68F
100
AcDbEntity
  8
DATA
  6
Continuous
 62
     7
100
AcDbLine
 10
-294.3671880061727
 20
-136.6
 30
0.0
 11
-290.3657880061726
 21
-136.6
 31
0.0
  0
ARC
  5
607
330
68F
100
AcDbEntity
  8
DATA
  6
Continuous
 62
     7
100
AcDbCircle
 10
-292.3664880061726
 20
-138.70175030625
 30
0.0
 40
2.901750306250084
100
AcDbArc
 50
46.4110068713831
 51
133.5889931286168
  0
LINE
  5
608
330
68F
100
AcDbEntity
  8
DATA
  6
Continuous
 62
     7
100
AcDbLine
 10
-313.5075654128966
 20
-136.6
 30
0.0
 11
-313.5075654128966
 21
-137.6
 31
0.0
  0
LINE
  5
609
330
68F
100
AcDbEntity
  8
DATA
  6
Continuous
 62
     7
100
AcDbLine
 10
-309.5061654128965
 20
-136.6
 30
0.0
 11
-309.5061654128965
 21
-137.6
 31
0.0
  0
LINE
  5
60A
330
68F
100
AcDbEntity
  8
DATA
  6
Continuous
 62
     7
100
AcDbLine
 10
-313.5075654128966
 20
-136.6
 30
0.0
 11
-309.5061654128965
 21
-136.6
 31
0.0
  0
LINE
  5
60B
330
68F
100
AcDbEntity
  8
DATA
  6
Continuous
 62
     7
100
AcDbLine
 10
-313.5075654128966
 20
-136.6
 30
0.0
 11
-313.5075654128966
 21
-137.6
 31
0.0
  0
LINE
  5
60C
330
68F
100
AcDbEntity
  8
DATA
  6
Continuous
 62
     7
100
AcDbLine
 10
-309.5061654128965
 20
-136.6
 30
0.0
 11
-309.5061654128965
 21
-137.6
 31
0.0
  0
LINE
  5
60D
330
68F
100
AcDbEntity
  8
DATA
  6
Continuous
 62
     7
100
AcDbLine
 10
-313.5075654128966
 20
-136.6
 30
0.0
 11
-309.5061654128965
 21
-136.6
 31
0.0
  0
ARC
  5
60E
330
68F
100
AcDbEntity
  8
DATA
  6
Continuous
 62
     7
100
AcDbCircle
 10
-311.5068654128966
 20
-138.70175030625
 30
0.0
 40
2.901750306250084
100
AcDbArc
 50
46.4110068713831
 51
133.5889931286168
  0
LINE
  5
60F
330
68F
100
AcDbEntity
  8
DATA
  6
Continuous
 62
     7
100
AcDbLine
 10
-243.5152621372947
 20
-135.6
 30
0.0
 11
-253.4847378627052
 21
-135.6
 31
0.0
  0
LINE
  5
610
330
68F
100
AcDbEntity
  8
DATA
  6
Continuous
 62
     7
100
AcDbLine
 10
-253.4847378627052
 20
-135.6
 30
0.0
 11
-253.4847378627052
 21
-136.4
 31
0.0
  0
LINE
  5
611
330
68F
100
AcDbEntity
  8
DATA
  6
Continuous
 62
     7
100
AcDbLine
 10
-243.5152621372947
 20
-135.6
 30
0.0
 11
-243.5152621372947
 21
-136.4
 31
0.0
  0
LINE
  5
612
330
68F
100
AcDbEntity
  8
DATA
  6
Continuous
 62
     7
100
AcDbLine
 10
-243.5152621372947
 20
-136.4
 30
0.0
 11
-253.4847378627052
 21
-136.4
 31
0.0
  0
LINE
  5
613
330
68F
100
AcDbEntity
  8
DATA
  6
Continuous
 62
     7
100
AcDbLine
 10
-246.1
 20
-136.4
 30
0.0
 11
-246.1
 21
-137.6
 31
0.0
  0
LINE
  5
614
330
68F
100
AcDbEntity
  8
DATA
  6
Continuous
 62
     7
100
AcDbLine
 10
-250.9
 20
-137.6
 30
0.0
 11
-250.9
 21
-136.4
 31
0.0
  0
LINE
  5
615
330
68F
100
AcDbEntity
  8
DATA
  6
Continuous
 62
     7
100
AcDbLine
 10
-297.0152621372947
 20
-135.6
 30
0.0
 11
-306.9847378627053
 21
-135.6
 31
0.0
  0
LINE
  5
616
330
68F
100
AcDbEntity
  8
DATA
  6
Continuous
 62
     7
100
AcDbLine
 10
-306.9847378627053
 20
-135.6
 30
0.0
 11
-306.9847378627053
 21
-136.4
 31
0.0
  0
LINE
  5
617
330
68F
100
AcDbEntity
  8
DATA
  6
Continuous
 62
     7
100
AcDbLine
 10
-297.0152621372947
 20
-135.6
 30
0.0
 11
-297.0152621372947
 21
-136.4
 31
0.0
  0
LINE
  5
618
330
68F
100
AcDbEntity
  8
DATA
  6
Continuous
 62
     7
100
AcDbLine
 10
-297.0152621372947
 20
-136.4
 30
0.0
 11
-306.9847378627053
 21
-136.4
 31
0.0
  0
LINE
  5
619
330
68F
100
AcDbEntity
  8
DATA
  6
Continuous
 62
     7
100
AcDbLine
 10
-299.6
 20
-136.4
 30
0.0
 11
-299.6
 21
-137.6
 31
0.0
  0
LINE
  5
61A
330
68F
100
AcDbEntity
  8
DATA
  6
Continuous
 62
     7
100
AcDbLine
 10
-304.4
 20
-137.6
 30
0.0
 11
-304.4
 21
-136.4
 31
0.0
  0
LINE
  5
61B
330
68F
100
AcDbEntity
  8
DATA
  6
Continuous
 62
     7
100
AcDbLine
 10
343.9
 20
-382.4029140805312
 30
0.0
 11
343.9
 21
-393.0029140805311
 31
0.0
  0
LINE
  5
61C
330
68F
100
AcDbEntity
  8
DATA
  6
Continuous
 62
     7
100
AcDbLine
 10
343.9
 20
-382.4029140805312
 30
0.0
 11
342.4
 21
-382.4029140805312
 31
0.0
  0
LINE
  5
61D
330
68F
100
AcDbEntity
  8
DATA
  6
Continuous
 62
     7
100
AcDbLine
 10
343.9
 20
-393.0029140805311
 30
0.0
 11
342.4
 21
-393.0029140805311
 31
0.0
  0
INSERT
  5
61E
330
68F
100
AcDbEntity
  8
DATA
 62
     7
100
AcDbBlockReference
  2
____
 10
0.0
 20
0.0
 30
0.0
  0
ENDSEC
  0
SECTION
  2
OBJECTS
  0
DICTIONARY
  5
62C
330
0
100
AcDbDictionary
281
     1
  3
ACAD_CIP_PREVIOUS_PRODUCT_INFO
350
6A8
  3
ACAD_COLOR
350
682
  3
ACAD_DETAILVIEWSTYLE
350
689
  3
ACAD_GROUP
350
62D
  3
ACAD_LAYOUT
350
681
  3
ACAD_MATERIAL
350
630
  3
ACAD_MLEADERSTYLE
350
685
  3
ACAD_MLINESTYLE
350
67E
  3
ACAD_PLOTSETTINGS
350
680
  3
ACAD_PLOTSTYLENAME
350
62E
  3
ACAD_SCALELIST
350
662
  3
ACAD_SECTIONVIEWSTYLE
350
687
  3
ACAD_TABLESTYLE
350
683
  3
ACAD_VISUALSTYLE
350
649
  3
ACDB_RECOMPOSE_DATA
350
6C0
  3
AcDbVariableDictionary
350
6B3
  3
DWGPROPS
350
6C1
  0
DICTIONARY
  5
6A9
330
674
100
AcDbDictionary
280
     1
281
     1
  3
ADSK_XREC_LAYER_RECONCILED
360
6AA
  0
DICTIONARY
  5
6AB
330
693
100
AcDbDictionary
280
     1
281
     1
  3
ADSK_XREC_LAYER_RECONCILED
360
6AC
  0
DICTIONARY
  5
6AD
330
69F
100
AcDbDictionary
280
     1
281
     1
  3
ADSK_XREC_LAYER_RECONCILED
360
6AE
  0
DICTIONARY
  5
6AF
330
6A0
100
AcDbDictionary
280
     1
281
     1
  3
ADSK_XREC_LAYER_RECONCILED
360
6B0
  0
DICTIONARY
  5
6B1
330
6A1
100
AcDbDictionary
280
     1
281
     1
  3
ADSK_XREC_LAYER_RECONCILED
360
6B2
  0
XRECORD
  5
6A8
102
{ACAD_REACTORS
330
62C
102
}
330
62C
100
AcDbXrecord
280
     1
300
ACDLT
300
2018
300
ACDLT_F_S
  0
DICTIONARY
  5
682
102
{ACAD_REACTORS
330
62C
102
}
330
62C
100
AcDbDictionary
281
     1
  0
DICTIONARY
  5
689
102
{ACAD_REACTORS
330
62C
102
}
330
62C
100
AcDbDictionary
281
     1
  3
Imperial24
350
68A
  0
DICTIONARY
  5
62D
102
{ACAD_REACTORS
330
62C
102
}
330
62C
100
AcDbDictionary
281
     1
  0
DICTIONARY
  5
681
102
{ACAD_REACTORS
330
62C
102
}
330
62C
100
AcDbDictionary
281
     1
  3
Model
350
692
  3
レイアウト1
350
68E
  0
DICTIONARY
  5
630
102
{ACAD_REACTORS
330
62C
102
}
330
62C
100
AcDbDictionary
281
     1
  3
ByBlock
350
639
  3
ByLayer
350
631
  3
Global
350
641
  0
DICTIONARY
  5
685
102
{ACAD_REACTORS
330
62C
102
}
330
62C
100
AcDbDictionary
281
     1
  3
Standard
350
686
  0
DICTIONARY
  5
67E
102
{ACAD_REACTORS
330
62C
102
}
330
62C
100
AcDbDictionary
281
     1
  3
Standard
350
67F
  0
DICTIONARY
  5
680
102
{ACAD_REACTORS
330
62C
102
}
330
62C
100
AcDbDictionary
281
     1
  0
ACDBDICTIONARYWDFLT
  5
62E
102
{ACAD_REACTORS
330
62C
102
}
330
62C
100
AcDbDictionary
281
     1
  3
Normal
350
62F
100
AcDbDictionaryWithDefault
340
62F
  0
DICTIONARY
  5
662
102
{ACAD_REACTORS
330
62C
102
}
330
62C
100
AcDbDictionary
281
     1
  3
A0
350
663
  3
A1
350
664
  3
A2
350
665
  3
A3
350
666
  3
A4
350
667
  3
A5
350
668
  3
A6
350
669
  3
A7
350
66A
  3
A8
350
66B
  3
A9
350
66C
  3
B0
350
66D
  3
B1
350
66E
  3
B2
350
66F
  3
B3
350
670
  3
B4
350
671
  3
B5
350
672
  3
B6
350
673
  0
DICTIONARY
  5
687
102
{ACAD_REACTORS
330
62C
102
}
330
62C
100
AcDbDictionary
281
     1
  3
Imperial24
350
688
  0
DICTIONARY
  5
683
102
{ACAD_REACTORS
330
62C
102
}
330
62C
100
AcDbDictionary
281
     1
  3
Standard
350
684
  0
DICTIONARY
  5
649
102
{ACAD_REACTORS
330
62C
102
}
330
62C
100
AcDbDictionary
281
     1
  3
2dWireframe
350
64F
  3
Basic
350
64E
  3
Brighten
350
655
  3
ColorChange
350
659
  3
Conceptual
350
652
  3
Dim
350
654
  3
EdgeColorOff
350
661
  3
Facepattern
350
658
  3
Flat
350
64A
  3
FlatWithEdges
350
64B
  3
Gouraud
350
64C
  3
GouraudWithEdges
350
64D
  3
Hidden
350
651
  3
JitterOff
350
65F
  3
Linepattern
350
657
  3
OverhangOff
350
660
  3
Realistic
350
653
  3
Shaded
350
65E
  3
Shaded with edges
350
65D
  3
Shades of Gray
350
65A
  3
Sketchy
350
65B
  3
Thicken
350
656
  3
Wireframe
350
650
  3
X-Ray
350
65C
  0
XRECORD
  5
6C0
102
{ACAD_REACTORS
330
62C
102
}
330
62C
100
AcDbXrecord
280
     1
 90
        1
330
684
  0
DICTIONARY
  5
6B3
102
{ACAD_REACTORS
330
62C
102
}
330
62C
100
AcDbDictionary
281
     1
  3
CANNOSCALE
350
6B8
  3
CMLEADERSTYLE
350
6B5
  3
CTABLESTYLE
350
6B4
  3
CVIEWDETAILSTYLE
350
6B6
  3
CVIEWSECTIONSTYLE
350
6B7
  3
DIMASSOC
350
6BB
  3
INDEXCTL
350
6BA
  3
SORTENTS
350
6B9
  3
XCLIPFRAME
350
6BC
  0
XRECORD
  5
6C1
102
{ACAD_REACTORS
330
62C
102
}
330
62C
100
AcDbXrecord
280
     1
  1
DWGPROPS COOKIE
  2

  3

  4

  6

  7

  8
sasaki_n
  9

300
=
301
=
302
=
303
=
304
=
305
=
306
=
307
=
308
=
309
=
 40
0.0003125
 41
2458054.426956019
 42
2458054.427349537
  1

 90
        0
  0
XRECORD
  5
6AA
102
{ACAD_REACTORS
330
6A9
102
}
330
6A9
100
AcDbXrecord
280
     1
290
     1
  0
XRECORD
  5
6AC
102
{ACAD_REACTORS
330
6AB
102
}
330
6AB
100
AcDbXrecord
280
     1
290
     1
  0
XRECORD
  5
6AE
102
{ACAD_REACTORS
330
6AD
102
}
330
6AD
100
AcDbXrecord
280
     1
290
     1
  0
XRECORD
  5
6B0
102
{ACAD_REACTORS
330
6AF
102
}
330
6AF
100
AcDbXrecord
280
     1
290
     1
  0
XRECORD
  5
6B2
102
{ACAD_REACTORS
330
6B1
102
}
330
6B1
100
AcDbXrecord
280
     1
290
     1
  0
ACDBDETAILVIEWSTYLE
  5
68A
102
{ACAD_XDICTIONARY
360
6F9
102
}
102
{ACAD_REACTORS
330
689
102
}
330
689
100
AcDbModelDocViewStyle
 70
     0
  3
Imperial24
290
     0
100
AcDbDetailViewStyle
 70
     0
 71
     0
 90
        3
 71
     1
340
675
 40
0.24
340
0
 40
0.24
300

 40
0.36
280
     3
 71
     2
340
67C
 90
       25
 71
     3
340
675
 40
0.24
 90
        1
 40
0.75
 90
        1
300
%<\AcVar ViewType \f "%tc1">% %<\AcVar ViewDetailId>%\PSCALE %<\AcVar ViewScale \f "%sn">%
 71
     4
340
67C
 90
       25
340
67C
 90
       25
280
     0
  0
LAYOUT
  5
692
102
{ACAD_XDICTIONARY
360
6FD
102
}
102
{ACAD_REACTORS
330
681
102
}
330
681
100
AcDbPlotSettings
  1

  2
DocuPrint 3000-3
  4

  6

 40
0.0
 41
0.0
 42
0.0
 43
0.0
 44
0.0
 45
0.0
 46
0.0
 47
0.0
 48
0.0
 49
0.0
140
0.0
141
0.0
142
1.0
143
1.0
 70
  1712
 72
     0
 73
     0
 74
     0
  7

 75
     0
147
1.0
148
0.0
149
0.0
100
AcDbLayout
  1
Model
 70
     1
 71
     0
 10
0.0
 20
0.0
 11
12.0
 21
9.0
 12
0.0
 22
0.0
 32
0.0
 14
0.0
 24
0.0
 34
0.0
 15
0.0
 25
0.0
 35
0.0
146
0.0
 13
0.0
 23
0.0
 33
0.0
 16
1.0
 26
0.0
 36
0.0
 17
0.0
 27
1.0
 37
0.0
 76
     0
330
68F
331
694
  0
LAYOUT
  5
68E
102
{ACAD_XDICTIONARY
360
6FB
102
}
102
{ACAD_REACTORS
330
681
102
}
330
681
100
AcDbPlotSettings
  1

  2
DocuPrint 3000-3
  4

  6

 40
0.0
 41
0.0
 42
0.0
 43
0.0
 44
0.0
 45
0.0
 46
0.0
 47
0.0
 48
0.0
 49
0.0
140
0.0
141
0.0
142
1.0
143
1.0
 70
   688
 72
     0
 73
     0
 74
     5
  7

 75
    16
147
1.0
148
0.0
149
0.0
100
AcDbLayout
  1
レイアウト1
 70
     0
 71
     1
 10
0.0
 20
0.0
 11
12.0
 21
9.0
 12
0.0
 22
0.0
 32
0.0
 14
1.000000000000000E+20
 24
1.000000000000000E+20
 34
1.000000000000000E+20
 15
-1.000000000000000E+20
 25
-1.000000000000000E+20
 35
-1.000000000000000E+20
146
0.0
 13
0.0
 23
0.0
 33
0.0
 16
1.0
 26
0.0
 36
0.0
 17
0.0
 27
1.0
 37
0.0
 76
     0
330
68B
  0
MATERIAL
  5
639
102
{ACAD_XDICTIONARY
360
63A
102
}
102
{ACAD_REACTORS
330
630
102
}
330
630
100
AcDbMaterial
  1
ByBlock
 72
     0
 43
0.0208333333333333
 43
0.0
 43
0.0
 43
0.0
 43
0.0
 43
0.0208333333333333
 43
0.0
 43
0.0
 43
0.0
 43
0.0
 43
1.0
 43
0.0
 43
0.0
 43
0.0
 43
0.0
 43
1.0
 77
     0
 47
0.0208333333333333
 47
0.0
 47
0.0
 47
0.0
 47
0.0
 47
0.0208333333333333
 47
0.0
 47
0.0
 47
0.0
 47
0.0
 47
1.0
 47
0.0
 47
0.0
 47
0.0
 47
0.0
 47
1.0
171
     0
 49
0.0208333333333333
 49
0.0
 49
0.0
 49
0.0
 49
0.0
 49
0.0208333333333333
 49
0.0
 49
0.0
 49
0.0
 49
0.0
 49
1.0
 49
0.0
 49
0.0
 49
0.0
 49
0.0
 49
1.0
175
     0
142
0.0208333333333333
142
0.0
142
0.0
142
0.0
142
0.0
142
0.0208333333333333
142
0.0
142
0.0
142
0.0
142
0.0
142
1.0
142
0.0
142
0.0
142
0.0
142
0.0
142
1.0
179
     0
144
0.0208333333333333
144
0.0
144
0.0
144
0.0
144
0.0
144
0.0208333333333333
144
0.0
144
0.0
144
0.0
144
0.0
144
1.0
144
0.0
144
0.0
144
0.0
144
0.0
144
1.0
147
0.0208333333333333
147
0.0
147
0.0
147
0.0
147
0.0
147
0.0208333333333333
147
0.0
147
0.0
147
0.0
147
0.0
147
1.0
147
0.0
147
0.0
147
0.0
147
0.0
147
1.0
  0
MATERIAL
  5
631
102
{ACAD_XDICTIONARY
360
632
102
}
102
{ACAD_REACTORS
330
630
102
}
330
630
100
AcDbMaterial
  1
ByLayer
 72
     0
 43
0.0208333333333333
 43
0.0
 43
0.0
 43
0.0
 43
0.0
 43
0.0208333333333333
 43
0.0
 43
0.0
 43
0.0
 43
0.0
 43
1.0
 43
0.0
 43
0.0
 43
0.0
 43
0.0
 43
1.0
 77
     0
 47
0.0208333333333333
 47
0.0
 47
0.0
 47
0.0
 47
0.0
 47
0.0208333333333333
 47
0.0
 47
0.0
 47
0.0
 47
0.0
 47
1.0
 47
0.0
 47
0.0
 47
0.0
 47
0.0
 47
1.0
171
     0
 49
0.0208333333333333
 49
0.0
 49
0.0
 49
0.0
 49
0.0
 49
0.0208333333333333
 49
0.0
 49
0.0
 49
0.0
 49
0.0
 49
1.0
 49
0.0
 49
0.0
 49
0.0
 49
0.0
 49
1.0
175
     0
142
0.0208333333333333
142
0.0
142
0.0
142
0.0
142
0.0
142
0.0208333333333333
142
0.0
142
0.0
142
0.0
142
0.0
142
1.0
142
0.0
142
0.0
142
0.0
142
0.0
142
1.0
179
     0
144
0.0208333333333333
144
0.0
144
0.0
144
0.0
144
0.0
144
0.0208333333333333
144
0.0
144
0.0
144
0.0
144
0.0
144
1.0
144
0.0
144
0.0
144
0.0
144
0.0
144
1.0
147
0.0208333333333333
147
0.0
147
0.0
147
0.0
147
0.0
147
0.0208333333333333
147
0.0
147
0.0
147
0.0
147
0.0
147
1.0
147
0.0
147
0.0
147
0.0
147
0.0
147
1.0
  0
MATERIAL
  5
641
102
{ACAD_XDICTIONARY
360
642
102
}
102
{ACAD_REACTORS
330
630
102
}
330
630
100
AcDbMaterial
  1
Global
 72
     0
 43
0.0208333333333333
 43
0.0
 43
0.0
 43
0.0
 43
0.0
 43
0.0208333333333333
 43
0.0
 43
0.0
 43
0.0
 43
0.0
 43
1.0
 43
0.0
 43
0.0
 43
0.0
 43
0.0
 43
1.0
 77
     0
 47
0.0208333333333333
 47
0.0
 47
0.0
 47
0.0
 47
0.0
 47
0.0208333333333333
 47
0.0
 47
0.0
 47
0.0
 47
0.0
 47
1.0
 47
0.0
 47
0.0
 47
0.0
 47
0.0
 47
1.0
171
     0
 49
0.0208333333333333
 49
0.0
 49
0.0
 49
0.0
 49
0.0
 49
0.0208333333333333
 49
0.0
 49
0.0
 49
0.0
 49
0.0
 49
1.0
 49
0.0
 49
0.0
 49
0.0
 49
0.0
 49
1.0
175
     0
142
0.0208333333333333
142
0.0
142
0.0
142
0.0
142
0.0
142
0.0208333333333333
142
0.0
142
0.0
142
0.0
142
0.0
142
1.0
142
0.0
142
0.0
142
0.0
142
0.0
142
1.0
179
     0
144
0.0208333333333333
144
0.0
144
0.0
144
0.0
144
0.0
144
0.0208333333333333
144
0.0
144
0.0
144
0.0
144
0.0
144
1.0
144
0.0
144
0.0
144
0.0
144
0.0
144
1.0
147
0.0208333333333333
147
0.0
147
0.0
147
0.0
147
0.0
147
0.0208333333333333
147
0.0
147
0.0
147
0.0
147
0.0
147
1.0
147
0.0
147
0.0
147
0.0
147
0.0
147
1.0
  0
MLEADERSTYLE
  5
686
102
{ACAD_REACTORS
330
685
102
}
330
685
100
AcDbMLeaderStyle
170
     2
171
     1
172
     0
 90
        2
 40
0.0
 41
0.0
173
     1
 91
-1056964608
340
67A
 92
       -2
290
     1
 42
0.09
291
     1
 43
0.36
  3
Standard
 44
0.18
300

342
675
174
     1
178
     6
175
     1
176
     0
 93
-1056964608
 45
0.18
292
     0
297
     0
 46
0.18
 94
-1056964608
 47
1.0
 49
1.0
140
1.0
293
     1
141
0.0
294
     1
177
     0
142
1.0
295
     0
296
     0
143
0.125
1001
ACAD_MLEADERVER
1070
     2
  0
MLINESTYLE
  5
67F
102
{ACAD_REACTORS
330
67E
102
}
330
67E
100
AcDbMlineStyle
  2
STANDARD
 70
     0
  3

 62
   256
 51
90.0
 52
90.0
 71
     2
 49
0.5
 62
   256
  6
BYLAYER
 49
-0.5
 62
   256
  6
BYLAYER
  0
ACDBPLACEHOLDER
  5
62F
102
{ACAD_REACTORS
330
62E
102
}
330
62E
  0
SCALE
  5
663
102
{ACAD_REACTORS
330
662
102
}
330
662
100
AcDbScale
 70
     0
300
1:1
140
1.0
141
1.0
290
     1
  0
SCALE
  5
664
102
{ACAD_REACTORS
330
662
102
}
330
662
100
AcDbScale
 70
     0
300
1/128" = 1'-0"
140
0.0078125
141
12.0
290
     0
  0
SCALE
  5
665
102
{ACAD_REACTORS
330
662
102
}
330
662
100
AcDbScale
 70
     0
300
1/64" = 1'-0"
140
0.015625
141
12.0
290
     0
  0
SCALE
  5
666
102
{ACAD_REACTORS
330
662
102
}
330
662
100
AcDbScale
 70
     0
300
1/32" = 1'-0"
140
0.03125
141
12.0
290
     0
  0
SCALE
  5
667
102
{ACAD_REACTORS
330
662
102
}
330
662
100
AcDbScale
 70
     0
300
1/16" = 1'-0"
140
0.0625
141
12.0
290
     0
  0
SCALE
  5
668
102
{ACAD_REACTORS
330
662
102
}
330
662
100
AcDbScale
 70
     0
300
3/32" = 1'-0"
140
0.09375
141
12.0
290
     0
  0
SCALE
  5
669
102
{ACAD_REACTORS
330
662
102
}
330
662
100
AcDbScale
 70
     0
300
1/8" = 1'-0"
140
0.125
141
12.0
290
     0
  0
SCALE
  5
66A
102
{ACAD_REACTORS
330
662
102
}
330
662
100
AcDbScale
 70
     0
300
3/16" = 1'-0"
140
0.1875
141
12.0
290
     0
  0
SCALE
  5
66B
102
{ACAD_REACTORS
330
662
102
}
330
662
100
AcDbScale
 70
     0
300
1/4" = 1'-0"
140
0.25
141
12.0
290
     0
  0
SCALE
  5
66C
102
{ACAD_REACTORS
330
662
102
}
330
662
100
AcDbScale
 70
     0
300
3/8" = 1'-0"
140
0.375
141
12.0
290
     0
  0
SCALE
  5
66D
102
{ACAD_REACTORS
330
662
102
}
330
662
100
AcDbScale
 70
     0
300
1/2" = 1'-0"
140
0.5
141
12.0
290
     0
  0
SCALE
  5
66E
102
{ACAD_REACTORS
330
662
102
}
330
662
100
AcDbScale
 70
     0
300
3/4" = 1'-0"
140
0.75
141
12.0
290
     0
  0
SCALE
  5
66F
102
{ACAD_REACTORS
330
662
102
}
330
662
100
AcDbScale
 70
     0
300
1" = 1'-0"
140
1.0
141
12.0
290
     0
  0
SCALE
  5
670
102
{ACAD_REACTORS
330
662
102
}
330
662
100
AcDbScale
 70
     0
300
1-1/2" = 1'-0"
140
1.5
141
12.0
290
     0
  0
SCALE
  5
671
102
{ACAD_REACTORS
330
662
102
}
330
662
100
AcDbScale
 70
     0
300
3" = 1'-0"
140
3.0
141
12.0
290
     0
  0
SCALE
  5
672
102
{ACAD_REACTORS
330
662
102
}
330
662
100
AcDbScale
 70
     0
300
6" = 1'-0"
140
6.0
141
12.0
290
     0
  0
SCALE
  5
673
102
{ACAD_REACTORS
330
662
102
}
330
662
100
AcDbScale
 70
     0
300
1'-0" = 1'-0"
140
12.0
141
12.0
290
     0
  0
ACDBSECTIONVIEWSTYLE
  5
688
102
{ACAD_XDICTIONARY
360
6F7
102
}
102
{ACAD_REACTORS
330
687
102
}
330
687
100
AcDbModelDocViewStyle
 70
     0
  3
Imperial24
290
     0
100
AcDbSectionViewStyle
 70
     0
 71
     0
 90
       78
 71
     1
340
675
 40
0.24
340
0
340
0
 40
0.24
300
I, O, Q, S, X, Z
 40
0.48
 90
        3
 40
0.18
 90
        1
 71
     2
340
67C
 90
       25
340
67C
 90
       50
 40
0.24
 40
0.0
 40
0.24
 71
     3
340
675
 40
0.24
 90
        1
 40
0.75
 90
        1
300
%<\AcVar ViewType \f "%tc1">% %<\AcVar ViewSectionStartId>%-%<\AcVar ViewSectionEndId>%\PSCALE %<\AcVar ViewScale \f "%sn">%
 71
     4
300
ANSI31
 40
1.0
 90
        0
290
     0
290
     0
 90
        6
 40
0.0
 40
1.570796326794896
 40
0.2617993877991494
 40
1.308996938995747
 40
-0.2617993877991494
 40
1.832595714594046
  0
TABLESTYLE
  5
684
102
{ACAD_XDICTIONARY
360
6BE
102
}
102
{ACAD_REACTORS
330
683
102
}
330
683
100
AcDbTableStyle
  3
Standard
 70
     0
 71
     0
 40
0.06
 41
0.06
280
     0
281
     0
  7
STANDARD
140
0.18
170
     2
 62
     0
 63
     7
283
     0
274
    -2
284
     1
 64
     0
275
    -2
285
     1
 65
     0
276
    -2
286
     1
 66
     0
277
    -2
287
     1
 67
     0
278
    -2
288
     1
 68
     0
279
    -2
289
     1
 69
     0
  7
STANDARD
140
0.25
170
     5
 62
     0
 63
     7
283
     0
274
    -2
284
     1
 64
     0
275
    -2
285
     1
 65
     0
276
    -2
286
     1
 66
     0
277
    -2
287
     1
 67
     0
278
    -2
288
     1
 68
     0
279
    -2
289
     1
 69
     0
  7
STANDARD
140
0.18
170
     5
 62
     0
 63
     7
283
     0
274
    -2
284
     1
 64
     0
275
    -2
285
     1
 65
     0
276
    -2
286
     1
 66
     0
277
    -2
287
     1
 67
     0
278
    -2
288
     1
 68
     0
279
    -2
289
     1
 69
     0
  0
VISUALSTYLE
  5
64F
102
{ACAD_XDICTIONARY
360
6CF
102
}
102
{ACAD_REACTORS
330
649
102
}
330
649
100
AcDbVisualStyle
  2
2dWireframe
 70
     4
 71
     0
 72
     2
 73
     0
 90
        0
 40
-0.6
 41
-30.0
 62
     5
 63
     7
 74
     1
 91
        4
 64
     7
 65
   257
 75
     1
175
     1
 42
1.0
 92
        0
 66
   257
 43
1.0
 76
     1
 77
     6
 78
     2
 67
     7
 79
     5
170
     0
171
     0
290
     0
174
     0
 93
        1
 44
0.0
173
     0
291
     0
 45
0.0
1001
ACAD
1000
AcDbSavedByObjectVersion
1070
     0
  0
VISUALSTYLE
  5
64E
102
{ACAD_XDICTIONARY
360
6CD
102
}
102
{ACAD_REACTORS
330
649
102
}
330
649
100
AcDbVisualStyle
  2
Basic
 70
     7
 71
     1
 72
     0
 73
     1
 90
        0
 40
-0.6
 41
-30.0
 62
     5
 63
     7
 74
     0
 91
        4
 64
     7
 65
   257
 75
     1
175
     1
 42
1.0
 92
        8
 66
     7
 43
1.0
 76
     1
 77
     6
 78
     2
 67
     7
 79
     5
170
     0
171
     0
290
     0
174
     0
 93
        1
 44
0.0
173
     0
291
     1
 45
0.0
1001
ACAD
1000
AcDbSavedByObjectVersion
1070
     0
  0
VISUALSTYLE
  5
655
102
{ACAD_XDICTIONARY
360
6DB
102
}
102
{ACAD_REACTORS
330
649
102
}
330
649
100
AcDbVisualStyle
  2
Brighten
 70
    12
 71
     2
 72
     2
 73
     0
 90
        0
 40
-0.6
 41
-30.0
 62
     5
 63
     7
 74
     1
 91
        4
 64
     7
 65
   257
 75
     1
175
     1
 42
1.0
 92
        8
 66
     7
 43
1.0
 76
     1
 77
     6
 78
     2
 67
     7
 79
     5
170
     0
171
     0
290
     0
174
     0
 93
        1
 44
50.0
173
     0
291
     1
 45
0.0
1001
ACAD
1000
AcDbSavedByObjectVersion
1070
     0
  0
VISUALSTYLE
  5
659
102
{ACAD_XDICTIONARY
360
6E3
102
}
102
{ACAD_REACTORS
330
649
102
}
330
649
100
AcDbVisualStyle
  2
ColorChange
 70
    16
 71
     2
 72
     2
 73
     3
 90
        0
 40
-0.6
 41
-30.0
 62
     5
 63
     8
 74
     1
 91
        4
 64
     7
 65
   257
 75
     1
175
     1
 42
1.0
 92
        8
 66
     8
 43
1.0
 76
     1
 77
     6
 78
     2
 67
     7
 79
     5
170
     0
171
     0
290
     0
174
     0
 93
        1
 44
0.0
173
     0
291
     1
 45
0.0
1001
ACAD
1000
AcDbSavedByObjectVersion
1070
     0
  0
VISUALSTYLE
  5
652
102
{ACAD_XDICTIONARY
360
6D5
102
}
102
{ACAD_REACTORS
330
649
102
}
330
649
100
AcDbVisualStyle
  2
Conceptual
 70
     9
 71
     3
 72
     2
 73
     0
 90
        0
 40
-0.6
 41
-30.0
 62
     5
 63
     7
 74
     2
 91
        2
 64
     7
 65
   257
 75
     1
175
     1
 42
179.0
 92
        8
 66
     7
 43
1.0
 76
     1
 77
     6
 78
     2
 67
     7
 79
     3
170
     0
171
     0
290
     0
174
     0
 93
        1
 44
0.0
173
     0
291
     0
 45
0.0
1001
ACAD
1000
AcDbSavedByObjectVersion
1070
     0
  0
VISUALSTYLE
  5
654
102
{ACAD_XDICTIONARY
360
6D9
102
}
102
{ACAD_REACTORS
330
649
102
}
330
649
100
AcDbVisualStyle
  2
Dim
 70
    11
 71
     2
 72
     2
 73
     0
 90
        0
 40
-0.6
 41
-30.0
 62
     5
 63
     7
 74
     1
 91
        4
 64
     7
 65
   257
 75
     1
175
     1
 42
1.0
 92
        8
 66
     7
 43
1.0
 76
     1
 77
     6
 78
     2
 67
     7
 79
     5
170
     0
171
     0
290
     0
174
     0
 93
        1
 44
-50.0
173
     0
291
     1
 45
0.0
1001
ACAD
1000
AcDbSavedByObjectVersion
1070
     0
  0
VISUALSTYLE
  5
661
102
{ACAD_XDICTIONARY
360
6F3
102
}
102
{ACAD_REACTORS
330
649
102
}
330
649
100
AcDbVisualStyle
  2
EdgeColorOff
 70
    22
 71
     2
 72
     2
 73
     0
 90
        0
 40
-0.6
 41
-30.0
 62
     5
 63
     7
 74
     1
 91
        4
 64
     7
 65
   257
 75
     1
175
     1
 42
1.0
 92
        8
 66
     7
 43
1.0
 76
     1
 77
     6
 78
     2
 67
     7
 79
     5
170
     0
171
     0
290
     0
174
     0
 93
        1
 44
0.0
173
     0
291
     1
 45
0.0
1001
ACAD
1000
AcDbSavedByObjectVersion
1070
     0
  0
VISUALSTYLE
  5
658
102
{ACAD_XDICTIONARY
360
6E1
102
}
102
{ACAD_REACTORS
330
649
102
}
330
649
100
AcDbVisualStyle
  2
Facepattern
 70
    15
 71
     2
 72
     2
 73
     0
 90
        0
 40
-0.6
 41
-30.0
 62
     5
 63
     7
 74
     1
 91
        4
 64
     7
 65
   257
 75
     1
175
     1
 42
1.0
 92
        8
 66
     7
 43
1.0
 76
     1
 77
     6
 78
     2
 67
     7
 79
     5
170
     0
171
     0
290
     0
174
     0
 93
        1
 44
0.0
173
     0
291
     1
 45
0.0
1001
ACAD
1000
AcDbSavedByObjectVersion
1070
     0
  0
VISUALSTYLE
  5
64A
102
{ACAD_XDICTIONARY
360
6C5
102
}
102
{ACAD_REACTORS
330
649
102
}
330
649
100
AcDbVisualStyle
  2
Flat
 70
     0
 71
     2
 72
     1
 73
     1
 90
        2
 40
-0.6
 41
30.0
 62
     5
 63
     7
 74
     0
 91
        0
 64
     7
 65
   257
 75
     1
175
     1
 42
1.0
 92
        8
 66
     7
 43
1.0
 76
     1
 77
     6
 78
     2
 67
     7
 79
     5
170
     0
171
     0
290
     0
174
     0
 93
       13
 44
0.0
173
     0
291
     1
 45
0.0
1001
ACAD
1000
AcDbSavedByObjectVersion
1070
     0
  0
VISUALSTYLE
  5
64B
102
{ACAD_XDICTIONARY
360
6C7
102
}
102
{ACAD_REACTORS
330
649
102
}
330
649
100
AcDbVisualStyle
  2
FlatWithEdges
 70
     1
 71
     2
 72
     1
 73
     1
 90
        2
 40
-0.6
 41
30.0
 62
     5
 63
     7
 74
     1
 91
        0
 64
     7
 65
   257
 75
     1
175
     1
 42
1.0
 92
        0
 66
   257
 43
1.0
 76
     1
 77
     6
 78
     2
 67
     7
 79
     5
170
     0
171
     0
290
     0
174
     0
 93
       13
 44
0.0
173
     0
291
     1
 45
0.0
1001
ACAD
1000
AcDbSavedByObjectVersion
1070
     0
  0
VISUALSTYLE
  5
64C
102
{ACAD_XDICTIONARY
360
6C9
102
}
102
{ACAD_REACTORS
330
649
102
}
330
649
100
AcDbVisualStyle
  2
Gouraud
 70
     2
 71
     2
 72
     2
 73
     1
 90
        2
 40
-0.6
 41
30.0
 62
     5
 63
     7
 74
     0
 91
        0
 64
     7
 65
   257
 75
     1
175
     1
 42
1.0
 92
        0
 66
     7
 43
1.0
 76
     1
 77
     6
 78
     2
 67
     7
 79
     5
170
     0
171
     0
290
     0
174
     0
 93
       13
 44
0.0
173
     0
291
     1
 45
0.0
1001
ACAD
1000
AcDbSavedByObjectVersion
1070
     0
  0
VISUALSTYLE
  5
64D
102
{ACAD_XDICTIONARY
360
6CB
102
}
102
{ACAD_REACTORS
330
649
102
}
330
649
100
AcDbVisualStyle
  2
GouraudWithEdges
 70
     3
 71
     2
 72
     2
 73
     1
 90
        2
 40
-0.6
 41
30.0
 62
     5
 63
     7
 74
     1
 91
        0
 64
     7
 65
   257
 75
     1
175
     1
 42
1.0
 92
        0
 66
   257
 43
1.0
 76
     1
 77
     6
 78
     2
 67
     7
 79
     5
170
     0
171
     0
290
     0
174
     0
 93
       13
 44
0.0
173
     0
291
     1
 45
0.0
1001
ACAD
1000
AcDbSavedByObjectVersion
1070
     0
  0
VISUALSTYLE
  5
651
102
{ACAD_XDICTIONARY
360
6D3
102
}
102
{ACAD_REACTORS
330
649
102
}
330
649
100
AcDbVisualStyle
  2
Hidden
 70
     6
 71
     1
 72
     2
 73
     2
 90
        0
 40
-0.6
 41
-30.0
 62
     5
 63
     7
 74
     2
 91
        2
 64
     7
 65
   257
 75
     2
175
     1
 42
40.0
 92
        0
 66
   257
 43
1.0
 76
     1
 77
     6
 78
     2
 67
     7
 79
     3
170
     0
171
     0
290
     0
174
     0
 93
        1
 44
0.0
173
     0
291
     0
 45
0.0
1001
ACAD
1000
AcDbSavedByObjectVersion
1070
     0
  0
VISUALSTYLE
  5
65F
102
{ACAD_XDICTIONARY
360
6EF
102
}
102
{ACAD_REACTORS
330
649
102
}
330
649
100
AcDbVisualStyle
  2
JitterOff
 70
    20
 71
     2
 72
     2
 73
     0
 90
        0
 40
-0.6
 41
-30.0
 62
     5
 63
     7
 74
     1
 91
        4
 64
     7
 65
   257
 75
     1
175
     1
 42
1.0
 92
       10
 66
     7
 43
1.0
 76
     1
 77
     6
 78
     2
 67
     7
 79
     5
170
     0
171
     0
290
     0
174
     0
 93
        1
 44
0.0
173
     0
291
     1
 45
0.0
1001
ACAD
1000
AcDbSavedByObjectVersion
1070
     0
  0
VISUALSTYLE
  5
657
102
{ACAD_XDICTIONARY
360
6DF
102
}
102
{ACAD_REACTORS
330
649
102
}
330
649
100
AcDbVisualStyle
  2
Linepattern
 70
    14
 71
     2
 72
     2
 73
     0
 90
        0
 40
-0.6
 41
-30.0
 62
     5
 63
     7
 74
     1
 91
        4
 64
     7
 65
   257
 75
     7
175
     7
 42
1.0
 92
        8
 66
     7
 43
1.0
 76
     1
 77
     6
 78
     2
 67
     7
 79
     5
170
     0
171
     0
290
     0
174
     0
 93
        1
 44
0.0
173
     0
291
     1
 45
0.0
1001
ACAD
1000
AcDbSavedByObjectVersion
1070
     0
  0
VISUALSTYLE
  5
660
102
{ACAD_XDICTIONARY
360
6F1
102
}
102
{ACAD_REACTORS
330
649
102
}
330
649
100
AcDbVisualStyle
  2
OverhangOff
 70
    21
 71
     2
 72
     2
 73
     0
 90
        0
 40
-0.6
 41
-30.0
 62
     5
 63
     7
 74
     1
 91
        4
 64
     7
 65
   257
 75
     1
175
     1
 42
1.0
 92
        9
 66
     7
 43
1.0
 76
     1
 77
     6
 78
     2
 67
     7
 79
     5
170
     0
171
     0
290
     0
174
     0
 93
        1
 44
0.0
173
     0
291
     1
 45
0.0
1001
ACAD
1000
AcDbSavedByObjectVersion
1070
     0
  0
VISUALSTYLE
  5
653
102
{ACAD_XDICTIONARY
360
6D7
102
}
102
{ACAD_REACTORS
330
649
102
}
330
649
100
AcDbVisualStyle
  2
Realistic
 70
     8
 71
     2
 72
     3
 73
     0
 90
        2
 40
-0.6
 41
30.0
 62
     5
 63
     7
 74
     0
 91
        0
 64
     7
 65
   257
 75
     1
175
     1
 42
1.0
 92
        8
 66
   257
 43
1.0
 76
     1
 77
     6
 78
     2
 67
     7
 79
     3
170
     0
171
     0
290
     0
174
     0
 93
       13
 44
0.0
173
     0
291
     0
 45
0.0
1001
ACAD
1000
AcDbSavedByObjectVersion
1070
     0
  0
VISUALSTYLE
  5
65E
102
{ACAD_XDICTIONARY
360
6ED
102
}
102
{ACAD_REACTORS
330
649
102
}
330
649
100
AcDbVisualStyle
  2
Shaded
 70
    27
 71
     2
 72
     2
 73
     1
 90
        2
 40
-0.6
 41
30.0
 62
     5
 63
     7
 74
     0
 91
        4
 64
     7
 65
   257
 75
     1
175
     1
 42
1.0
 92
        8
 66
   257
 43
1.0
 76
     1
 77
     6
 78
     2
 67
     8
 79
     3
170
     0
171
     0
290
     0
174
     0
 93
        5
 44
0.0
173
     0
291
     0
 45
0.0
1001
ACAD
1000
AcDbSavedByObjectVersion
1070
     0
  0
VISUALSTYLE
  5
65D
102
{ACAD_XDICTIONARY
360
6EB
102
}
102
{ACAD_REACTORS
330
649
102
}
330
649
100
AcDbVisualStyle
  2
Shaded with edges
 70
    26
 71
     2
 72
     2
 73
     1
 90
        2
 40
-0.6
 41
30.0
 62
     5
 63
     7
 74
     1
 91
        2
 64
     7
 65
   257
 75
     2
175
     1
 42
1.0
 92
        8
 66
   257
 43
1.0
 76
     1
 77
     6
 78
     2
 67
     7
 79
     3
170
     0
171
     0
290
     0
174
     0
 93
        5
 44
0.0
173
     0
291
     0
 45
0.0
1001
ACAD
1000
AcDbSavedByObjectVersion
1070
     0
  0
VISUALSTYLE
  5
65A
102
{ACAD_XDICTIONARY
360
6E5
102
}
102
{ACAD_REACTORS
330
649
102
}
330
649
100
AcDbVisualStyle
  2
Shades of Gray
 70
    23
 71
     2
 72
     2
 73
     3
 90
        0
 40
-0.6
 41
-30.0
 62
     5
 63
     7
 74
     2
 91
        2
 64
     7
 65
     7
 75
     1
175
     1
 42
40.0
 92
        8
 66
     7
 43
1.0
 76
     1
 77
     6
 78
     2
 67
     7
 79
     3
170
     0
171
     0
290
     0
174
     0
 93
        1
 44
0.0
173
     0
291
     0
 45
0.0
1001
ACAD
1000
AcDbSavedByObjectVersion
1070
     0
  0
VISUALSTYLE
  5
65B
102
{ACAD_XDICTIONARY
360
6E7
102
}
102
{ACAD_REACTORS
330
649
102
}
330
649
100
AcDbVisualStyle
  2
Sketchy
 70
    24
 71
     1
 72
     2
 73
     2
 90
        0
 40
-0.6
 41
-30.0
 62
     5
 63
     7
 74
     2
 91
        2
 64
     7
 65
     7
 75
     1
175
     1
 42
40.0
 92
       11
 66
     7
 43
1.0
 76
     1
 77
     6
 78
     2
 67
     7
 79
     6
170
     0
171
     0
290
     0
174
     0
 93
        1
 44
0.0
173
     0
291
     0
 45
0.0
1001
ACAD
1000
AcDbSavedByObjectVersion
1070
     0
  0
VISUALSTYLE
  5
656
102
{ACAD_XDICTIONARY
360
6DD
102
}
102
{ACAD_REACTORS
330
649
102
}
330
649
100
AcDbVisualStyle
  2
Thicken
 70
    13
 71
     2
 72
     2
 73
     0
 90
        0
 40
-0.6
 41
-30.0
 62
     5
 63
     7
 74
     1
 91
        4
 64
     7
 65
   257
 75
     1
175
     1
 42
1.0
 92
       12
 66
     7
 43
1.0
 76
     1
 77
     6
 78
     2
 67
     7
 79
     5
170
     0
171
     0
290
     0
174
     0
 93
        1
 44
0.0
173
     0
291
     1
 45
0.0
1001
ACAD
1000
AcDbSavedByObjectVersion
1070
     0
  0
VISUALSTYLE
  5
650
102
{ACAD_XDICTIONARY
360
6D1
102
}
102
{ACAD_REACTORS
330
649
102
}
330
649
100
AcDbVisualStyle
  2
Wireframe
 70
     5
 71
     0
 72
     2
 73
     0
 90
        0
 40
-0.6
 41
-30.0
 62
     5
 63
     7
 74
     1
 91
        4
 64
     7
 65
   257
 75
     1
175
     1
 42
1.0
 92
        0
 66
   257
 43
1.0
 76
     1
 77
     6
 78
     2
 67
     7
 79
     3
170
     0
171
     0
290
     0
174
     0
 93
        1
 44
0.0
173
     0
291
     0
 45
0.0
1001
ACAD
1000
AcDbSavedByObjectVersion
1070
     0
  0
VISUALSTYLE
  5
65C
102
{ACAD_XDICTIONARY
360
6E9
102
}
102
{ACAD_REACTORS
330
649
102
}
330
649
100
AcDbVisualStyle
  2
X-Ray
 70
    25
 71
     2
 72
     2
 73
     1
 90
        1
 40
0.5
 41
-30.0
 62
     5
 63
     7
 74
     1
 91
        0
 64
     7
 65
   257
 75
     1
175
     1
 42
1.0
 92
        8
 66
     7
 43
1.0
 76
     1
 77
     6
 78
     2
 67
     7
 79
     3
170
     0
171
     0
290
     0
174
     0
 93
       13
 44
0.0
173
     0
291
     0
 45
0.0
1001
ACAD
1000
AcDbSavedByObjectVersion
1070
     0
  0
DICTIONARYVAR
  5
6B8
102
{ACAD_REACTORS
330
6B3
102
}
330
6B3
100
DictionaryVariables
280
     0
  1
1:1
  0
DICTIONARYVAR
  5
6B5
102
{ACAD_REACTORS
330
6B3
102
}
330
6B3
100
DictionaryVariables
280
     0
  1
STANDARD
  0
DICTIONARYVAR
  5
6B4
102
{ACAD_REACTORS
330
6B3
102
}
330
6B3
100
DictionaryVariables
280
     0
  1
STANDARD
  0
DICTIONARYVAR
  5
6B6
102
{ACAD_REACTORS
330
6B3
102
}
330
6B3
100
DictionaryVariables
280
     0
  1
Imperial24
  0
DICTIONARYVAR
  5
6B7
102
{ACAD_REACTORS
330
6B3
102
}
330
6B3
100
DictionaryVariables
280
     0
  1
Imperial24
  0
DICTIONARYVAR
  5
6BB
102
{ACAD_REACTORS
330
6B3
102
}
330
6B3
100
DictionaryVariables
280
     0
  1
1
  0
DICTIONARYVAR
  5
6BA
102
{ACAD_REACTORS
330
6B3
102
}
330
6B3
100
DictionaryVariables
280
     0
  1
0
  0
DICTIONARYVAR
  5
6B9
102
{ACAD_REACTORS
330
6B3
102
}
330
6B3
100
DictionaryVariables
280
     0
  1
127
  0
DICTIONARYVAR
  5
6BC
102
{ACAD_REACTORS
330
6B3
102
}
330
6B3
100
DictionaryVariables
280
     0
  1
2
  0
DICTIONARY
  5
6F9
330
68A
100
AcDbDictionary
280
     1
281
     1
  3
ACAD_XREC_ROUNDTRIP
360
6FA
  0
DICTIONARY
  5
6FD
330
692
100
AcDbDictionary
280
     1
281
     1
  3
ACAD_XREC_ROUNDTRIP
360
6FE
  0
DICTIONARY
  5
6FB
330
68E
100
AcDbDictionary
280
     1
281
     1
  3
ACAD_XREC_ROUNDTRIP
360
6FC
  0
DICTIONARY
  5
63A
330
639
100
AcDbDictionary
280
     1
281
     1
  3
ACAD_XREC_ROUNDTRIP
360
6C3
  3
BUMPTILE
360
63C
  3
DIFFUSETILE
360
63B
  3
OPACITYTILE
360
63F
  3
REFLECTIONTILE
360
63E
  3
REFRACTIONTILE
360
640
  3
SPECULARTILE
360
63D
  0
DICTIONARY
  5
632
330
631
100
AcDbDictionary
280
     1
281
     1
  3
ACAD_XREC_ROUNDTRIP
360
6C2
  3
BUMPTILE
360
634
  3
DIFFUSETILE
360
633
  3
OPACITYTILE
360
637
  3
REFLECTIONTILE
360
636
  3
REFRACTIONTILE
360
638
  3
SPECULARTILE
360
635
  0
DICTIONARY
  5
642
330
641
100
AcDbDictionary
280
     1
281
     1
  3
ACAD_XREC_ROUNDTRIP
360
6C4
  3
BUMPTILE
360
644
  3
DIFFUSETILE
360
643
  3
OPACITYTILE
360
647
  3
REFLECTIONTILE
360
646
  3
REFRACTIONTILE
360
648
  3
SPECULARTILE
360
645
  0
DICTIONARY
  5
6F7
330
688
100
AcDbDictionary
280
     1
281
     1
  3
ACAD_XREC_ROUNDTRIP
360
6F8
  0
DICTIONARY
  5
6BE
330
684
100
AcDbDictionary
280
     1
281
     1
  3
ACAD_ROUNDTRIP_2008_TABLESTYLE_CELLSTYLEMAP
360
6BF
  3
ACAD_XREC_ROUNDTRIP
360
6F5
  0
DICTIONARY
  5
6CF
330
64F
100
AcDbDictionary
280
     1
281
     1
  3
ACAD_XREC_ROUNDTRIP
360
6D0
  0
DICTIONARY
  5
6CD
330
64E
100
AcDbDictionary
280
     1
281
     1
  3
ACAD_XREC_ROUNDTRIP
360
6CE
  0
DICTIONARY
  5
6DB
330
655
100
AcDbDictionary
280
     1
281
     1
  3
ACAD_XREC_ROUNDTRIP
360
6DC
  0
DICTIONARY
  5
6E3
330
659
100
AcDbDictionary
280
     1
281
     1
  3
ACAD_XREC_ROUNDTRIP
360
6E4
  0
DICTIONARY
  5
6D5
330
652
100
AcDbDictionary
280
     1
281
     1
  3
ACAD_XREC_ROUNDTRIP
360
6D6
  0
DICTIONARY
  5
6D9
330
654
100
AcDbDictionary
280
     1
281
     1
  3
ACAD_XREC_ROUNDTRIP
360
6DA
  0
DICTIONARY
  5
6F3
330
661
100
AcDbDictionary
280
     1
281
     1
  3
ACAD_XREC_ROUNDTRIP
360
6F4
  0
DICTIONARY
  5
6E1
330
658
100
AcDbDictionary
280
     1
281
     1
  3
ACAD_XREC_ROUNDTRIP
360
6E2
  0
DICTIONARY
  5
6C5
330
64A
100
AcDbDictionary
280
     1
281
     1
  3
ACAD_XREC_ROUNDTRIP
360
6C6
  0
DICTIONARY
  5
6C7
330
64B
100
AcDbDictionary
280
     1
281
     1
  3
ACAD_XREC_ROUNDTRIP
360
6C8
  0
DICTIONARY
  5
6C9
330
64C
100
AcDbDictionary
280
     1
281
     1
  3
ACAD_XREC_ROUNDTRIP
360
6CA
  0
DICTIONARY
  5
6CB
330
64D
100
AcDbDictionary
280
     1
281
     1
  3
ACAD_XREC_ROUNDTRIP
360
6CC
  0
DICTIONARY
  5
6D3
330
651
100
AcDbDictionary
280
     1
281
     1
  3
ACAD_XREC_ROUNDTRIP
360
6D4
  0
DICTIONARY
  5
6EF
330
65F
100
AcDbDictionary
280
     1
281
     1
  3
ACAD_XREC_ROUNDTRIP
360
6F0
  0
DICTIONARY
  5
6DF
330
657
100
AcDbDictionary
280
     1
281
     1
  3
ACAD_XREC_ROUNDTRIP
360
6E0
  0
DICTIONARY
  5
6F1
330
660
100
AcDbDictionary
280
     1
281
     1
  3
ACAD_XREC_ROUNDTRIP
360
6F2
  0
DICTIONARY
  5
6D7
330
653
100
AcDbDictionary
280
     1
281
     1
  3
ACAD_XREC_ROUNDTRIP
360
6D8
  0
DICTIONARY
  5
6ED
330
65E
100
AcDbDictionary
280
     1
281
     1
  3
ACAD_XREC_ROUNDTRIP
360
6EE
  0
DICTIONARY
  5
6EB
330
65D
100
AcDbDictionary
280
     1
281
     1
  3
ACAD_XREC_ROUNDTRIP
360
6EC
  0
DICTIONARY
  5
6E5
330
65A
100
AcDbDictionary
280
     1
281
     1
  3
ACAD_XREC_ROUNDTRIP
360
6E6
  0
DICTIONARY
  5
6E7
330
65B
100
AcDbDictionary
280
     1
281
     1
  3
ACAD_XREC_ROUNDTRIP
360
6E8
  0
DICTIONARY
  5
6DD
330
656
100
AcDbDictionary
280
     1
281
     1
  3
ACAD_XREC_ROUNDTRIP
360
6DE
  0
DICTIONARY
  5
6D1
330
650
100
AcDbDictionary
280
     1
281
     1
  3
ACAD_XREC_ROUNDTRIP
360
6D2
  0
DICTIONARY
  5
6E9
330
65C
100
AcDbDictionary
280
     1
281
     1
  3
ACAD_XREC_ROUNDTRIP
360
6EA
  0
XRECORD
  5
6FA
102
{ACAD_REACTORS
330
6F9
102
}
330
6F9
100
AcDbXrecord
280
     1
102
DISPLAYNAME
  1
Imperial24
102
FLAGS
 90
        0
  0
XRECORD
  5
6FE
102
{ACAD_REACTORS
330
6FD
102
}
330
6FD
100
AcDbXrecord
280
     1
102
SHADEPLOT
 70
     0
102
SHADEPLOTRESLEVEL
 70
     2
102
SHADEPLOTCUSTOMDPI
 70
   300
  0
XRECORD
  5
6FC
102
{ACAD_REACTORS
330
6FB
102
}
330
6FB
100
AcDbXrecord
280
     1
102
SHADEPLOT
 70
     0
102
SHADEPLOTRESLEVEL
 70
     2
102
SHADEPLOTCUSTOMDPI
 70
   300
  0
XRECORD
  5
6C3
102
{ACAD_REACTORS
330
63A
102
}
330
63A
100
AcDbXrecord
280
     1
102
MATERIAL
148
0.0
149
0.0
149
0.0
 93
        0
 94
      127
282
     0
 72
     0
 77
     0
171
     0
175
     0
179
     0
273
     0
  0
XRECORD
  5
63C
102
{ACAD_REACTORS
330
63A
102
}
330
63A
100
AcDbXrecord
280
     1
270
     1
271
     1
  0
XRECORD
  5
63B
102
{ACAD_REACTORS
330
63A
102
}
330
63A
100
AcDbXrecord
280
     1
270
     1
271
     1
  0
XRECORD
  5
63F
102
{ACAD_REACTORS
330
63A
102
}
330
63A
100
AcDbXrecord
280
     1
270
     1
271
     1
  0
XRECORD
  5
63E
102
{ACAD_REACTORS
330
63A
102
}
330
63A
100
AcDbXrecord
280
     1
270
     1
271
     1
  0
XRECORD
  5
640
102
{ACAD_REACTORS
330
63A
102
}
330
63A
100
AcDbXrecord
280
     1
270
     1
271
     1
  0
XRECORD
  5
63D
102
{ACAD_REACTORS
330
63A
102
}
330
63A
100
AcDbXrecord
280
     1
270
     1
271
     1
  0
XRECORD
  5
6C2
102
{ACAD_REACTORS
330
632
102
}
330
632
100
AcDbXrecord
280
     1
102
MATERIAL
148
0.0
149
0.0
149
0.0
 93
        0
 94
      127
282
     0
 72
     0
 77
     0
171
     0
175
     0
179
     0
273
     0
  0
XRECORD
  5
634
102
{ACAD_REACTORS
330
632
102
}
330
632
100
AcDbXrecord
280
     1
270
     1
271
     1
  0
XRECORD
  5
633
102
{ACAD_REACTORS
330
632
102
}
330
632
100
AcDbXrecord
280
     1
270
     1
271
     1
  0
XRECORD
  5
637
102
{ACAD_REACTORS
330
632
102
}
330
632
100
AcDbXrecord
280
     1
270
     1
271
     1
  0
XRECORD
  5
636
102
{ACAD_REACTORS
330
632
102
}
330
632
100
AcDbXrecord
280
     1
270
     1
271
     1
  0
XRECORD
  5
638
102
{ACAD_REACTORS
330
632
102
}
330
632
100
AcDbXrecord
280
     1
270
     1
271
     1
  0
XRECORD
  5
635
102
{ACAD_REACTORS
330
632
102
}
330
632
100
AcDbXrecord
280
     1
270
     1
271
     1
  0
XRECORD
  5
6C4
102
{ACAD_REACTORS
330
642
102
}
330
642
100
AcDbXrecord
280
     1
102
MATERIAL
148
0.0
149
0.0
149
0.0
 93
        0
 94
      127
282
     0
 72
     0
 77
     0
171
     0
175
     0
179
     0
273
     0
  0
XRECORD
  5
644
102
{ACAD_REACTORS
330
642
102
}
330
642
100
AcDbXrecord
280
     1
270
     1
271
     1
  0
XRECORD
  5
643
102
{ACAD_REACTORS
330
642
102
}
330
642
100
AcDbXrecord
280
     1
270
     1
271
     1
  0
XRECORD
  5
647
102
{ACAD_REACTORS
330
642
102
}
330
642
100
AcDbXrecord
280
     1
270
     1
271
     1
  0
XRECORD
  5
646
102
{ACAD_REACTORS
330
642
102
}
330
642
100
AcDbXrecord
280
     1
270
     1
271
     1
  0
XRECORD
  5
648
102
{ACAD_REACTORS
330
642
102
}
330
642
100
AcDbXrecord
280
     1
270
     1
271
     1
  0
XRECORD
  5
645
102
{ACAD_REACTORS
330
642
102
}
330
642
100
AcDbXrecord
280
     1
270
     1
271
     1
  0
XRECORD
  5
6F8
102
{ACAD_REACTORS
330
6F7
102
}
330
6F7
100
AcDbXrecord
280
     1
102
DISPLAYNAME
  1
Imperial24
102
FLAGS
 90
        0
  0
CELLSTYLEMAP
  5
6BF
102
{ACAD_REACTORS
330
6BE
102
}
330
6BE
100
AcDbCellStyleMap
 90
        3
300
CELLSTYLE
  1
TABLEFORMAT_BEGIN
 90
        5
170
     1
 91
        0
 92
    32768
 62
   257
 93
        1
300
CONTENTFORMAT
  1
CONTENTFORMAT_BEGIN
 90
        0
 91
        0
 92
      512
 93
        0
300

 40
0.0
140
1.0
 94
        5
 62
     0
340
675
144
0.25
309
CONTENTFORMAT_END
171
     0
 94
        0
309
TABLEFORMAT_END
  1
CELLSTYLE_BEGIN
 90
        1
 91
        1
300
_TITLE
309
CELLSTYLE_END
300
CELLSTYLE
  1
TABLEFORMAT_BEGIN
 90
        5
170
     1
 91
        0
 92
        0
 62
   257
 93
        1
300
CONTENTFORMAT
  1
CONTENTFORMAT_BEGIN
 90
        0
 91
        0
 92
      512
 93
        0
300

 40
0.0
140
1.0
 94
        5
 62
     0
340
675
144
0.18
309
CONTENTFORMAT_END
171
     0
 94
        0
309
TABLEFORMAT_END
  1
CELLSTYLE_BEGIN
 90
        2
 91
        1
300
_HEADER
309
CELLSTYLE_END
300
CELLSTYLE
  1
TABLEFORMAT_BEGIN
 90
        5
170
     1
 91
        0
 92
        0
 62
   257
 93
        1
300
CONTENTFORMAT
  1
CONTENTFORMAT_BEGIN
 90
        0
 91
        0
 92
      512
 93
        0
300

 40
0.0
140
1.0
 94
        2
 62
     0
340
675
144
0.18
309
CONTENTFORMAT_END
171
     0
 94
        0
309
TABLEFORMAT_END
  1
CELLSTYLE_BEGIN
 90
        3
 91
        2
300
_DATA
309
CELLSTYLE_END
  0
XRECORD
  5
6F5
102
{ACAD_REACTORS
330
6BE
102
}
330
6BE
100
AcDbXrecord
280
     1
102
ACAD_ROUNDTRIP_PRE2007_TABLESTYLE
 90
      512
 91
        0
  1

 92
      512
 93
        0
  2

 94
      512
 95
        0
  3

  0
XRECORD
  5
6D0
102
{ACAD_REACTORS
330
6CF
102
}
330
6CF
100
AcDbXrecord
280
     1
102
RTVSPost2010Prop28
280
     1
102
RTVSPost2010PropOp28
 70
     1
102
RTVSPost2010Prop29
280
     1
102
RTVSPost2010PropOp29
 70
     1
102
RTVSPost2010Prop30
280
     0
102
RTVSPost2010PropOp30
 70
     1
102
RTVSPost2010Prop31
280
     0
102
RTVSPost2010PropOp31
 70
     1
102
RTVSPost2010Prop32
280
     0
102
RTVSPost2010PropOp32
 70
     1
102
RTVSPost2010Prop33
280
     0
102
RTVSPost2010PropOp33
 70
     1
102
RTVSPost2010Prop34
280
     0
102
RTVSPost2010PropOp34
 70
     1
102
RTVSPost2010Prop35
280
     0
102
RTVSPost2010PropOp35
 70
     1
102
RTVSPost2010Prop36
280
     0
102
RTVSPost2010PropOp36
 70
     1
102
RTVSPost2010Prop37
 90
       50
102
RTVSPost2010PropOp37
 70
     1
102
RTVSPost2010Prop38
140
0.0
102
RTVSPost2010PropOp38
 70
     1
102
RTVSPost2010Prop39
140
1.0
102
RTVSPost2010PropOp39
 70
     1
102
RTVSPost2010Prop40
 90
        0
102
RTVSPost2010PropOp40
 70
     1
102
RTVSPost2010Prop41ColorIndex
 90
       18
102
RTVSPost2010Prop41ColorRGB
 90
        0
102
RTVSPost2010PropOp41
 70
     1
102
RTVSPost2010Prop42
 90
       50
102
RTVSPost2010PropOp42
 70
     1
102
RTVSPost2010Prop43
 90
        3
102
RTVSPost2010PropOp43
 70
     1
102
RTVSPost2010Prop44ColorIndex
 90
        5
102
RTVSPost2010Prop44ColorRGB
 90
      255
102
RTVSPost2010PropOp44
 70
     1
102
RTVSPost2010Prop45
280
     0
102
RTVSPost2010PropOp45
 70
     1
102
RTVSPost2010Prop46
 90
       50
102
RTVSPost2010PropOp46
 70
     1
102
RTVSPost2010Prop47
 90
       50
102
RTVSPost2010PropOp47
 70
     1
102
RTVSPost2010Prop48
 90
       50
102
RTVSPost2010PropOp48
 70
     1
102
RTVSPost2010Prop49
280
     0
102
RTVSPost2010PropOp49
 70
     1
102
RTVSPost2010Prop50
 90
       50
102
RTVSPost2010PropOp50
 70
     1
102
RTVSPost2010Prop51ColorIndex
 90
      256
102
RTVSPost2010Prop51ColorRGB
 90
-16777216
102
RTVSPost2010PropOp51
 70
     0
102
RTVSPost2010Prop52
140
1.0
102
RTVSPost2010PropOp52
 70
     0
102
RTVSPost2010Prop53
 90
        2
102
RTVSPost2010PropOp53
 70
     1
102
RTVSPost2010Prop54
  1
strokes_ogs.tif
102
RTVSPost2010PropOp54
 70
     1
102
RTVSPost2010Prop55
280
     0
102
RTVSPost2010PropOp55
 70
     1
102
RTVSPost2010Prop56
140
1.0
102
RTVSPost2010PropOp56
 70
     1
102
RTVSPost2010Prop57
140
1.0
102
RTVSPost2010PropOp57
 70
     1
102
RTVSPropertyOp0
 70
     1
102
RTVSPropertyOp1
 70
     1
102
RTVSPropertyOp2
 70
     1
102
RTVSPropertyOp3
 70
     1
102
RTVSPropertyOp4
 70
     1
102
RTVSPropertyOp5
 70
     1
102
RTVSPropertyOp6
 70
     1
102
RTVSPropertyOp7
 70
     1
102
RTVSPropertyOp8
 70
     1
102
RTVSPropertyOp9
 70
     1
102
RTVSPropertyOp10
 70
     1
102
RTVSPropertyOp11
 70
     1
102
RTVSPropertyOp12
 70
     1
102
RTVSPropertyOp13
 70
     1
102
RTVSPropertyOp14
 70
     1
102
RTVSPropertyOp15
 70
     1
102
RTVSPropertyOp16
 70
     1
102
RTVSPropertyOp17
 70
     1
102
RTVSPropertyOp18
 70
     1
102
RTVSPropertyOp19
 70
     1
102
RTVSPropertyOp20
 70
     1
102
RTVSPropertyOp21
 70
     1
102
RTVSPropertyOp22
 70
     1
102
RTVSPropertyOp23
 70
     1
102
RTVSPropertyOp24
 70
     1
102
RTVSPropertyOp25
 70
     1
102
RTVSPropertyOp26
 70
     1
102
RTVSPropertyOp27
 70
     1
102
RTVSPropertyOp28
 70
     1
102
RTVSPropertyOp29
 70
     1
102
RTVSPropertyOp30
 70
     1
102
RTVSPropertyOp31
 70
     1
102
RTVSPropertyOp32
 70
     1
102
RTVSPropertyOp33
 70
     1
102
RTVSPropertyOp34
 70
     1
102
RTVSPropertyOp35
 70
     1
102
RTVSPropertyOp36
 70
     1
102
RTVSPropertyOp37
 70
     1
102
RTVSPropertyOp38
 70
     1
102
RTVSPropertyOp39
 70
     1
102
RTVSPropertyOp40
 70
     1
102
RTVSPropertyOp41
 70
     1
102
RTVSPropertyOp42
 70
     1
102
RTVSPropertyOp43
 70
     1
102
RTVSPropertyOp44
 70
     1
102
RTVSPropertyOp45
 70
     1
102
RTVSPropertyOp46
 70
     1
102
RTVSPropertyOp47
 70
     1
102
RTVSPropertyOp48
 70
     1
102
RTVSPropertyOp49
 70
     1
102
RTVSPropertyOp50
 70
     1
102
RTVSPropertyOp51
 70
     0
102
RTVSPropertyOp52
 70
     0
102
RTVSPropertyOp53
 70
     1
102
RTVSPropertyOp54
 70
     1
102
RTVSPropertyOp55
 70
     1
102
RTVSPropertyOp56
 70
     1
102
RTVSPropertyOp57
 70
     1
102
RTVSPropertyOp58
 70
     1
102
RTVSPropertyOp59
 70
     1
102
RTVSPropertyOp60
 70
     1
102
RTVSPropertyOp61
 70
     1
102
RTVSPropertyOp62
 70
     1
  0
XRECORD
  5
6CE
102
{ACAD_REACTORS
330
6CD
102
}
330
6CD
100
AcDbXrecord
280
     1
102
RTVSPost2010Prop28
280
     0
102
RTVSPost2010PropOp28
 70
     1
102
RTVSPost2010Prop29
280
     1
102
RTVSPost2010PropOp29
 70
     1
102
RTVSPost2010Prop30
280
     1
102
RTVSPost2010PropOp30
 70
     1
102
RTVSPost2010Prop31
280
     0
102
RTVSPost2010PropOp31
 70
     1
102
RTVSPost2010Prop32
280
     0
102
RTVSPost2010PropOp32
 70
     1
102
RTVSPost2010Prop33
280
     0
102
RTVSPost2010PropOp33
 70
     1
102
RTVSPost2010Prop34
280
     0
102
RTVSPost2010PropOp34
 70
     1
102
RTVSPost2010Prop35
280
     0
102
RTVSPost2010PropOp35
 70
     1
102
RTVSPost2010Prop36
280
     0
102
RTVSPost2010PropOp36
 70
     1
102
RTVSPost2010Prop37
 90
       50
102
RTVSPost2010PropOp37
 70
     1
102
RTVSPost2010Prop38
140
0.0
102
RTVSPost2010PropOp38
 70
     1
102
RTVSPost2010Prop39
140
1.0
102
RTVSPost2010PropOp39
 70
     1
102
RTVSPost2010Prop40
 90
        0
102
RTVSPost2010PropOp40
 70
     1
102
RTVSPost2010Prop41ColorIndex
 90
       18
102
RTVSPost2010Prop41ColorRGB
 90
        0
102
RTVSPost2010PropOp41
 70
     1
102
RTVSPost2010Prop42
 90
       50
102
RTVSPost2010PropOp42
 70
     1
102
RTVSPost2010Prop43
 90
        3
102
RTVSPost2010PropOp43
 70
     1
102
RTVSPost2010Prop44ColorIndex
 90
        5
102
RTVSPost2010Prop44ColorRGB
 90
      255
102
RTVSPost2010PropOp44
 70
     1
102
RTVSPost2010Prop45
280
     0
102
RTVSPost2010PropOp45
 70
     1
102
RTVSPost2010Prop46
 90
       50
102
RTVSPost2010PropOp46
 70
     1
102
RTVSPost2010Prop47
 90
       50
102
RTVSPost2010PropOp47
 70
     1
102
RTVSPost2010Prop48
 90
       50
102
RTVSPost2010PropOp48
 70
     1
102
RTVSPost2010Prop49
280
     0
102
RTVSPost2010PropOp49
 70
     1
102
RTVSPost2010Prop50
 90
       50
102
RTVSPost2010PropOp50
 70
     1
102
RTVSPost2010Prop51ColorIndex
 90
      256
102
RTVSPost2010Prop51ColorRGB
 90
-16777216
102
RTVSPost2010PropOp51
 70
     0
102
RTVSPost2010Prop52
140
1.0
102
RTVSPost2010PropOp52
 70
     0
102
RTVSPost2010Prop53
 90
        2
102
RTVSPost2010PropOp53
 70
     1
102
RTVSPost2010Prop54
  1
strokes_ogs.tif
102
RTVSPost2010PropOp54
 70
     1
102
RTVSPost2010Prop55
280
     0
102
RTVSPost2010PropOp55
 70
     1
102
RTVSPost2010Prop56
140
1.0
102
RTVSPost2010PropOp56
 70
     1
102
RTVSPost2010Prop57
140
1.0
102
RTVSPost2010PropOp57
 70
     1
102
RTVSPropertyOp0
 70
     1
102
RTVSPropertyOp1
 70
     1
102
RTVSPropertyOp2
 70
     1
102
RTVSPropertyOp3
 70
     1
102
RTVSPropertyOp4
 70
     1
102
RTVSPropertyOp5
 70
     1
102
RTVSPropertyOp6
 70
     1
102
RTVSPropertyOp7
 70
     1
102
RTVSPropertyOp8
 70
     1
102
RTVSPropertyOp9
 70
     1
102
RTVSPropertyOp10
 70
     1
102
RTVSPropertyOp11
 70
     1
102
RTVSPropertyOp12
 70
     1
102
RTVSPropertyOp13
 70
     1
102
RTVSPropertyOp14
 70
     1
102
RTVSPropertyOp15
 70
     1
102
RTVSPropertyOp16
 70
     1
102
RTVSPropertyOp17
 70
     1
102
RTVSPropertyOp18
 70
     1
102
RTVSPropertyOp19
 70
     1
102
RTVSPropertyOp20
 70
     1
102
RTVSPropertyOp21
 70
     1
102
RTVSPropertyOp22
 70
     1
102
RTVSPropertyOp23
 70
     1
102
RTVSPropertyOp24
 70
     1
102
RTVSPropertyOp25
 70
     1
102
RTVSPropertyOp26
 70
     1
102
RTVSPropertyOp27
 70
     1
102
RTVSPropertyOp28
 70
     1
102
RTVSPropertyOp29
 70
     1
102
RTVSPropertyOp30
 70
     1
102
RTVSPropertyOp31
 70
     1
102
RTVSPropertyOp32
 70
     1
102
RTVSPropertyOp33
 70
     1
102
RTVSPropertyOp34
 70
     1
102
RTVSPropertyOp35
 70
     1
102
RTVSPropertyOp36
 70
     1
102
RTVSPropertyOp37
 70
     1
102
RTVSPropertyOp38
 70
     1
102
RTVSPropertyOp39
 70
     1
102
RTVSPropertyOp40
 70
     1
102
RTVSPropertyOp41
 70
     1
102
RTVSPropertyOp42
 70
     1
102
RTVSPropertyOp43
 70
     1
102
RTVSPropertyOp44
 70
     1
102
RTVSPropertyOp45
 70
     1
102
RTVSPropertyOp46
 70
     1
102
RTVSPropertyOp47
 70
     1
102
RTVSPropertyOp48
 70
     1
102
RTVSPropertyOp49
 70
     1
102
RTVSPropertyOp50
 70
     1
102
RTVSPropertyOp51
 70
     0
102
RTVSPropertyOp52
 70
     0
102
RTVSPropertyOp53
 70
     1
102
RTVSPropertyOp54
 70
     1
102
RTVSPropertyOp55
 70
     1
102
RTVSPropertyOp56
 70
     1
102
RTVSPropertyOp57
 70
     1
102
RTVSPropertyOp58
 70
     1
102
RTVSPropertyOp59
 70
     1
102
RTVSPropertyOp60
 70
     1
102
RTVSPropertyOp61
 70
     1
102
RTVSPropertyOp62
 70
     1
  0
XRECORD
  5
6DC
102
{ACAD_REACTORS
330
6DB
102
}
330
6DB
100
AcDbXrecord
280
     1
102
RTVSPost2010Prop28
280
     0
102
RTVSPost2010PropOp28
 70
     1
102
RTVSPost2010Prop29
280
     1
102
RTVSPost2010PropOp29
 70
     1
102
RTVSPost2010Prop30
280
     1
102
RTVSPost2010PropOp30
 70
     1
102
RTVSPost2010Prop31
280
     0
102
RTVSPost2010PropOp31
 70
     1
102
RTVSPost2010Prop32
280
     0
102
RTVSPost2010PropOp32
 70
     1
102
RTVSPost2010Prop33
280
     0
102
RTVSPost2010PropOp33
 70
     1
102
RTVSPost2010Prop34
280
     0
102
RTVSPost2010PropOp34
 70
     1
102
RTVSPost2010Prop35
280
     0
102
RTVSPost2010PropOp35
 70
     1
102
RTVSPost2010Prop36
280
     0
102
RTVSPost2010PropOp36
 70
     1
102
RTVSPost2010Prop37
 90
       50
102
RTVSPost2010PropOp37
 70
     1
102
RTVSPost2010Prop38
140
0.0
102
RTVSPost2010PropOp38
 70
     1
102
RTVSPost2010Prop39
140
1.0
102
RTVSPost2010PropOp39
 70
     1
102
RTVSPost2010Prop40
 90
        0
102
RTVSPost2010PropOp40
 70
     1
102
RTVSPost2010Prop41ColorIndex
 90
       18
102
RTVSPost2010Prop41ColorRGB
 90
        0
102
RTVSPost2010PropOp41
 70
     1
102
RTVSPost2010Prop42
 90
       50
102
RTVSPost2010PropOp42
 70
     1
102
RTVSPost2010Prop43
 90
        3
102
RTVSPost2010PropOp43
 70
     1
102
RTVSPost2010Prop44ColorIndex
 90
        5
102
RTVSPost2010Prop44ColorRGB
 90
      255
102
RTVSPost2010PropOp44
 70
     1
102
RTVSPost2010Prop45
280
     0
102
RTVSPost2010PropOp45
 70
     1
102
RTVSPost2010Prop46
 90
       50
102
RTVSPost2010PropOp46
 70
     1
102
RTVSPost2010Prop47
 90
       50
102
RTVSPost2010PropOp47
 70
     1
102
RTVSPost2010Prop48
 90
       50
102
RTVSPost2010PropOp48
 70
     1
102
RTVSPost2010Prop49
280
     0
102
RTVSPost2010PropOp49
 70
     1
102
RTVSPost2010Prop50
 90
       50
102
RTVSPost2010PropOp50
 70
     1
102
RTVSPost2010Prop51ColorIndex
 90
      256
102
RTVSPost2010Prop51ColorRGB
 90
-16777216
102
RTVSPost2010PropOp51
 70
     0
102
RTVSPost2010Prop52
140
1.0
102
RTVSPost2010PropOp52
 70
     0
102
RTVSPost2010Prop53
 90
        2
102
RTVSPost2010PropOp53
 70
     1
102
RTVSPost2010Prop54
  1
strokes_ogs.tif
102
RTVSPost2010PropOp54
 70
     1
102
RTVSPost2010Prop55
280
     0
102
RTVSPost2010PropOp55
 70
     1
102
RTVSPost2010Prop56
140
1.0
102
RTVSPost2010PropOp56
 70
     1
102
RTVSPost2010Prop57
140
1.0
102
RTVSPost2010PropOp57
 70
     1
102
RTVSPropertyOp0
 70
     1
102
RTVSPropertyOp1
 70
     1
102
RTVSPropertyOp2
 70
     1
102
RTVSPropertyOp3
 70
     1
102
RTVSPropertyOp4
 70
     1
102
RTVSPropertyOp5
 70
     1
102
RTVSPropertyOp6
 70
     1
102
RTVSPropertyOp7
 70
     1
102
RTVSPropertyOp8
 70
     1
102
RTVSPropertyOp9
 70
     1
102
RTVSPropertyOp10
 70
     1
102
RTVSPropertyOp11
 70
     1
102
RTVSPropertyOp12
 70
     1
102
RTVSPropertyOp13
 70
     1
102
RTVSPropertyOp14
 70
     1
102
RTVSPropertyOp15
 70
     1
102
RTVSPropertyOp16
 70
     1
102
RTVSPropertyOp17
 70
     1
102
RTVSPropertyOp18
 70
     1
102
RTVSPropertyOp19
 70
     1
102
RTVSPropertyOp20
 70
     1
102
RTVSPropertyOp21
 70
     1
102
RTVSPropertyOp22
 70
     1
102
RTVSPropertyOp23
 70
     1
102
RTVSPropertyOp24
 70
     1
102
RTVSPropertyOp25
 70
     1
102
RTVSPropertyOp26
 70
     1
102
RTVSPropertyOp27
 70
     1
102
RTVSPropertyOp28
 70
     1
102
RTVSPropertyOp29
 70
     1
102
RTVSPropertyOp30
 70
     1
102
RTVSPropertyOp31
 70
     1
102
RTVSPropertyOp32
 70
     1
102
RTVSPropertyOp33
 70
     1
102
RTVSPropertyOp34
 70
     1
102
RTVSPropertyOp35
 70
     1
102
RTVSPropertyOp36
 70
     1
102
RTVSPropertyOp37
 70
     1
102
RTVSPropertyOp38
 70
     1
102
RTVSPropertyOp39
 70
     1
102
RTVSPropertyOp40
 70
     1
102
RTVSPropertyOp41
 70
     1
102
RTVSPropertyOp42
 70
     1
102
RTVSPropertyOp43
 70
     1
102
RTVSPropertyOp44
 70
     1
102
RTVSPropertyOp45
 70
     1
102
RTVSPropertyOp46
 70
     1
102
RTVSPropertyOp47
 70
     1
102
RTVSPropertyOp48
 70
     1
102
RTVSPropertyOp49
 70
     1
102
RTVSPropertyOp50
 70
     1
102
RTVSPropertyOp51
 70
     0
102
RTVSPropertyOp52
 70
     0
102
RTVSPropertyOp53
 70
     1
102
RTVSPropertyOp54
 70
     1
102
RTVSPropertyOp55
 70
     1
102
RTVSPropertyOp56
 70
     1
102
RTVSPropertyOp57
 70
     1
102
RTVSPropertyOp58
 70
     1
102
RTVSPropertyOp59
 70
     1
102
RTVSPropertyOp60
 70
     1
102
RTVSPropertyOp61
 70
     1
102
RTVSPropertyOp62
 70
     1
  0
XRECORD
  5
6E4
102
{ACAD_REACTORS
330
6E3
102
}
330
6E3
100
AcDbXrecord
280
     1
102
RTVSPost2010Prop28
280
     0
102
RTVSPost2010PropOp28
 70
     1
102
RTVSPost2010Prop29
280
     1
102
RTVSPost2010PropOp29
 70
     1
102
RTVSPost2010Prop30
280
     1
102
RTVSPost2010PropOp30
 70
     1
102
RTVSPost2010Prop31
280
     0
102
RTVSPost2010PropOp31
 70
     1
102
RTVSPost2010Prop32
280
     0
102
RTVSPost2010PropOp32
 70
     1
102
RTVSPost2010Prop33
280
     0
102
RTVSPost2010PropOp33
 70
     1
102
RTVSPost2010Prop34
280
     0
102
RTVSPost2010PropOp34
 70
     1
102
RTVSPost2010Prop35
280
     0
102
RTVSPost2010PropOp35
 70
     1
102
RTVSPost2010Prop36
280
     0
102
RTVSPost2010PropOp36
 70
     1
102
RTVSPost2010Prop37
 90
       50
102
RTVSPost2010PropOp37
 70
     1
102
RTVSPost2010Prop38
140
0.0
102
RTVSPost2010PropOp38
 70
     1
102
RTVSPost2010Prop39
140
1.0
102
RTVSPost2010PropOp39
 70
     1
102
RTVSPost2010Prop40
 90
        0
102
RTVSPost2010PropOp40
 70
     1
102
RTVSPost2010Prop41ColorIndex
 90
       18
102
RTVSPost2010Prop41ColorRGB
 90
        0
102
RTVSPost2010PropOp41
 70
     1
102
RTVSPost2010Prop42
 90
       50
102
RTVSPost2010PropOp42
 70
     1
102
RTVSPost2010Prop43
 90
        3
102
RTVSPost2010PropOp43
 70
     1
102
RTVSPost2010Prop44ColorIndex
 90
        5
102
RTVSPost2010Prop44ColorRGB
 90
      255
102
RTVSPost2010PropOp44
 70
     1
102
RTVSPost2010Prop45
280
     0
102
RTVSPost2010PropOp45
 70
     1
102
RTVSPost2010Prop46
 90
       50
102
RTVSPost2010PropOp46
 70
     1
102
RTVSPost2010Prop47
 90
       50
102
RTVSPost2010PropOp47
 70
     1
102
RTVSPost2010Prop48
 90
       50
102
RTVSPost2010PropOp48
 70
     1
102
RTVSPost2010Prop49
280
     0
102
RTVSPost2010PropOp49
 70
     1
102
RTVSPost2010Prop50
 90
       50
102
RTVSPost2010PropOp50
 70
     1
102
RTVSPost2010Prop51ColorIndex
 90
      256
102
RTVSPost2010Prop51ColorRGB
 90
-16777216
102
RTVSPost2010PropOp51
 70
     0
102
RTVSPost2010Prop52
140
1.0
102
RTVSPost2010PropOp52
 70
     0
102
RTVSPost2010Prop53
 90
        2
102
RTVSPost2010PropOp53
 70
     1
102
RTVSPost2010Prop54
  1
strokes_ogs.tif
102
RTVSPost2010PropOp54
 70
     1
102
RTVSPost2010Prop55
280
     0
102
RTVSPost2010PropOp55
 70
     1
102
RTVSPost2010Prop56
140
1.0
102
RTVSPost2010PropOp56
 70
     1
102
RTVSPost2010Prop57
140
1.0
102
RTVSPost2010PropOp57
 70
     1
102
RTVSPropertyOp0
 70
     1
102
RTVSPropertyOp1
 70
     1
102
RTVSPropertyOp2
 70
     1
102
RTVSPropertyOp3
 70
     1
102
RTVSPropertyOp4
 70
     1
102
RTVSPropertyOp5
 70
     1
102
RTVSPropertyOp6
 70
     1
102
RTVSPropertyOp7
 70
     1
102
RTVSPropertyOp8
 70
     1
102
RTVSPropertyOp9
 70
     1
102
RTVSPropertyOp10
 70
     1
102
RTVSPropertyOp11
 70
     1
102
RTVSPropertyOp12
 70
     1
102
RTVSPropertyOp13
 70
     1
102
RTVSPropertyOp14
 70
     1
102
RTVSPropertyOp15
 70
     1
102
RTVSPropertyOp16
 70
     1
102
RTVSPropertyOp17
 70
     1
102
RTVSPropertyOp18
 70
     1
102
RTVSPropertyOp19
 70
     1
102
RTVSPropertyOp20
 70
     1
102
RTVSPropertyOp21
 70
     1
102
RTVSPropertyOp22
 70
     1
102
RTVSPropertyOp23
 70
     1
102
RTVSPropertyOp24
 70
     1
102
RTVSPropertyOp25
 70
     1
102
RTVSPropertyOp26
 70
     1
102
RTVSPropertyOp27
 70
     1
102
RTVSPropertyOp28
 70
     1
102
RTVSPropertyOp29
 70
     1
102
RTVSPropertyOp30
 70
     1
102
RTVSPropertyOp31
 70
     1
102
RTVSPropertyOp32
 70
     1
102
RTVSPropertyOp33
 70
     1
102
RTVSPropertyOp34
 70
     1
102
RTVSPropertyOp35
 70
     1
102
RTVSPropertyOp36
 70
     1
102
RTVSPropertyOp37
 70
     1
102
RTVSPropertyOp38
 70
     1
102
RTVSPropertyOp39
 70
     1
102
RTVSPropertyOp40
 70
     1
102
RTVSPropertyOp41
 70
     1
102
RTVSPropertyOp42
 70
     1
102
RTVSPropertyOp43
 70
     1
102
RTVSPropertyOp44
 70
     1
102
RTVSPropertyOp45
 70
     1
102
RTVSPropertyOp46
 70
     1
102
RTVSPropertyOp47
 70
     1
102
RTVSPropertyOp48
 70
     1
102
RTVSPropertyOp49
 70
     1
102
RTVSPropertyOp50
 70
     1
102
RTVSPropertyOp51
 70
     0
102
RTVSPropertyOp52
 70
     0
102
RTVSPropertyOp53
 70
     1
102
RTVSPropertyOp54
 70
     1
102
RTVSPropertyOp55
 70
     1
102
RTVSPropertyOp56
 70
     1
102
RTVSPropertyOp57
 70
     1
102
RTVSPropertyOp58
 70
     1
102
RTVSPropertyOp59
 70
     1
102
RTVSPropertyOp60
 70
     1
102
RTVSPropertyOp61
 70
     1
102
RTVSPropertyOp62
 70
     1
  0
XRECORD
  5
6D6
102
{ACAD_REACTORS
330
6D5
102
}
330
6D5
100
AcDbXrecord
280
     1
102
RTVSPost2010Prop28
280
     0
102
RTVSPost2010PropOp28
 70
     1
102
RTVSPost2010Prop29
280
     1
102
RTVSPost2010PropOp29
 70
     1
102
RTVSPost2010Prop30
280
     1
102
RTVSPost2010PropOp30
 70
     1
102
RTVSPost2010Prop31
280
     0
102
RTVSPost2010PropOp31
 70
     1
102
RTVSPost2010Prop32
280
     0
102
RTVSPost2010PropOp32
 70
     1
102
RTVSPost2010Prop33
280
     0
102
RTVSPost2010PropOp33
 70
     1
102
RTVSPost2010Prop34
280
     0
102
RTVSPost2010PropOp34
 70
     1
102
RTVSPost2010Prop35
280
     0
102
RTVSPost2010PropOp35
 70
     1
102
RTVSPost2010Prop36
280
     0
102
RTVSPost2010PropOp36
 70
     1
102
RTVSPost2010Prop37
 90
       50
102
RTVSPost2010PropOp37
 70
     1
102
RTVSPost2010Prop38
140
0.0
102
RTVSPost2010PropOp38
 70
     1
102
RTVSPost2010Prop39
140
1.0
102
RTVSPost2010PropOp39
 70
     1
102
RTVSPost2010Prop40
 90
        0
102
RTVSPost2010PropOp40
 70
     1
102
RTVSPost2010Prop41ColorIndex
 90
       18
102
RTVSPost2010Prop41ColorRGB
 90
        0
102
RTVSPost2010PropOp41
 70
     1
102
RTVSPost2010Prop42
 90
       50
102
RTVSPost2010PropOp42
 70
     1
102
RTVSPost2010Prop43
 90
        3
102
RTVSPost2010PropOp43
 70
     1
102
RTVSPost2010Prop44ColorIndex
 90
        5
102
RTVSPost2010Prop44ColorRGB
 90
      255
102
RTVSPost2010PropOp44
 70
     1
102
RTVSPost2010Prop45
280
     0
102
RTVSPost2010PropOp45
 70
     1
102
RTVSPost2010Prop46
 90
       50
102
RTVSPost2010PropOp46
 70
     1
102
RTVSPost2010Prop47
 90
       50
102
RTVSPost2010PropOp47
 70
     1
102
RTVSPost2010Prop48
 90
       50
102
RTVSPost2010PropOp48
 70
     1
102
RTVSPost2010Prop49
280
     0
102
RTVSPost2010PropOp49
 70
     1
102
RTVSPost2010Prop50
 90
       50
102
RTVSPost2010PropOp50
 70
     1
102
RTVSPost2010Prop51ColorIndex
 90
      256
102
RTVSPost2010Prop51ColorRGB
 90
-16777216
102
RTVSPost2010PropOp51
 70
     0
102
RTVSPost2010Prop52
140
1.0
102
RTVSPost2010PropOp52
 70
     0
102
RTVSPost2010Prop53
 90
        2
102
RTVSPost2010PropOp53
 70
     1
102
RTVSPost2010Prop54
  1
strokes_ogs.tif
102
RTVSPost2010PropOp54
 70
     1
102
RTVSPost2010Prop55
280
     0
102
RTVSPost2010PropOp55
 70
     1
102
RTVSPost2010Prop56
140
1.0
102
RTVSPost2010PropOp56
 70
     1
102
RTVSPost2010Prop57
140
1.0
102
RTVSPost2010PropOp57
 70
     1
102
RTVSPropertyOp0
 70
     1
102
RTVSPropertyOp1
 70
     1
102
RTVSPropertyOp2
 70
     1
102
RTVSPropertyOp3
 70
     1
102
RTVSPropertyOp4
 70
     1
102
RTVSPropertyOp5
 70
     1
102
RTVSPropertyOp6
 70
     1
102
RTVSPropertyOp7
 70
     1
102
RTVSPropertyOp8
 70
     1
102
RTVSPropertyOp9
 70
     1
102
RTVSPropertyOp10
 70
     1
102
RTVSPropertyOp11
 70
     1
102
RTVSPropertyOp12
 70
     1
102
RTVSPropertyOp13
 70
     1
102
RTVSPropertyOp14
 70
     1
102
RTVSPropertyOp15
 70
     1
102
RTVSPropertyOp16
 70
     1
102
RTVSPropertyOp17
 70
     1
102
RTVSPropertyOp18
 70
     1
102
RTVSPropertyOp19
 70
     1
102
RTVSPropertyOp20
 70
     1
102
RTVSPropertyOp21
 70
     1
102
RTVSPropertyOp22
 70
     1
102
RTVSPropertyOp23
 70
     1
102
RTVSPropertyOp24
 70
     1
102
RTVSPropertyOp25
 70
     1
102
RTVSPropertyOp26
 70
     1
102
RTVSPropertyOp27
 70
     1
102
RTVSPropertyOp28
 70
     1
102
RTVSPropertyOp29
 70
     1
102
RTVSPropertyOp30
 70
     1
102
RTVSPropertyOp31
 70
     1
102
RTVSPropertyOp32
 70
     1
102
RTVSPropertyOp33
 70
     1
102
RTVSPropertyOp34
 70
     1
102
RTVSPropertyOp35
 70
     1
102
RTVSPropertyOp36
 70
     1
102
RTVSPropertyOp37
 70
     1
102
RTVSPropertyOp38
 70
     1
102
RTVSPropertyOp39
 70
     1
102
RTVSPropertyOp40
 70
     1
102
RTVSPropertyOp41
 70
     1
102
RTVSPropertyOp42
 70
     1
102
RTVSPropertyOp43
 70
     1
102
RTVSPropertyOp44
 70
     1
102
RTVSPropertyOp45
 70
     1
102
RTVSPropertyOp46
 70
     1
102
RTVSPropertyOp47
 70
     1
102
RTVSPropertyOp48
 70
     1
102
RTVSPropertyOp49
 70
     1
102
RTVSPropertyOp50
 70
     1
102
RTVSPropertyOp51
 70
     0
102
RTVSPropertyOp52
 70
     0
102
RTVSPropertyOp53
 70
     1
102
RTVSPropertyOp54
 70
     1
102
RTVSPropertyOp55
 70
     1
102
RTVSPropertyOp56
 70
     1
102
RTVSPropertyOp57
 70
     1
102
RTVSPropertyOp58
 70
     1
102
RTVSPropertyOp59
 70
     1
102
RTVSPropertyOp60
 70
     1
102
RTVSPropertyOp61
 70
     1
102
RTVSPropertyOp62
 70
     1
  0
XRECORD
  5
6DA
102
{ACAD_REACTORS
330
6D9
102
}
330
6D9
100
AcDbXrecord
280
     1
102
RTVSPost2010Prop28
280
     0
102
RTVSPost2010PropOp28
 70
     1
102
RTVSPost2010Prop29
280
     1
102
RTVSPost2010PropOp29
 70
     1
102
RTVSPost2010Prop30
280
     1
102
RTVSPost2010PropOp30
 70
     1
102
RTVSPost2010Prop31
280
     0
102
RTVSPost2010PropOp31
 70
     1
102
RTVSPost2010Prop32
280
     0
102
RTVSPost2010PropOp32
 70
     1
102
RTVSPost2010Prop33
280
     0
102
RTVSPost2010PropOp33
 70
     1
102
RTVSPost2010Prop34
280
     0
102
RTVSPost2010PropOp34
 70
     1
102
RTVSPost2010Prop35
280
     0
102
RTVSPost2010PropOp35
 70
     1
102
RTVSPost2010Prop36
280
     0
102
RTVSPost2010PropOp36
 70
     1
102
RTVSPost2010Prop37
 90
       50
102
RTVSPost2010PropOp37
 70
     1
102
RTVSPost2010Prop38
140
0.0
102
RTVSPost2010PropOp38
 70
     1
102
RTVSPost2010Prop39
140
1.0
102
RTVSPost2010PropOp39
 70
     1
102
RTVSPost2010Prop40
 90
        0
102
RTVSPost2010PropOp40
 70
     1
102
RTVSPost2010Prop41ColorIndex
 90
       18
102
RTVSPost2010Prop41ColorRGB
 90
        0
102
RTVSPost2010PropOp41
 70
     1
102
RTVSPost2010Prop42
 90
       50
102
RTVSPost2010PropOp42
 70
     1
102
RTVSPost2010Prop43
 90
        3
102
RTVSPost2010PropOp43
 70
     1
102
RTVSPost2010Prop44ColorIndex
 90
        5
102
RTVSPost2010Prop44ColorRGB
 90
      255
102
RTVSPost2010PropOp44
 70
     1
102
RTVSPost2010Prop45
280
     0
102
RTVSPost2010PropOp45
 70
     1
102
RTVSPost2010Prop46
 90
       50
102
RTVSPost2010PropOp46
 70
     1
102
RTVSPost2010Prop47
 90
       50
102
RTVSPost2010PropOp47
 70
     1
102
RTVSPost2010Prop48
 90
       50
102
RTVSPost2010PropOp48
 70
     1
102
RTVSPost2010Prop49
280
     0
102
RTVSPost2010PropOp49
 70
     1
102
RTVSPost2010Prop50
 90
       50
102
RTVSPost2010PropOp50
 70
     1
102
RTVSPost2010Prop51ColorIndex
 90
      256
102
RTVSPost2010Prop51ColorRGB
 90
-16777216
102
RTVSPost2010PropOp51
 70
     0
102
RTVSPost2010Prop52
140
1.0
102
RTVSPost2010PropOp52
 70
     0
102
RTVSPost2010Prop53
 90
        2
102
RTVSPost2010PropOp53
 70
     1
102
RTVSPost2010Prop54
  1
strokes_ogs.tif
102
RTVSPost2010PropOp54
 70
     1
102
RTVSPost2010Prop55
280
     0
102
RTVSPost2010PropOp55
 70
     1
102
RTVSPost2010Prop56
140
1.0
102
RTVSPost2010PropOp56
 70
     1
102
RTVSPost2010Prop57
140
1.0
102
RTVSPost2010PropOp57
 70
     1
102
RTVSPropertyOp0
 70
     1
102
RTVSPropertyOp1
 70
     1
102
RTVSPropertyOp2
 70
     1
102
RTVSPropertyOp3
 70
     1
102
RTVSPropertyOp4
 70
     1
102
RTVSPropertyOp5
 70
     1
102
RTVSPropertyOp6
 70
     1
102
RTVSPropertyOp7
 70
     1
102
RTVSPropertyOp8
 70
     1
102
RTVSPropertyOp9
 70
     1
102
RTVSPropertyOp10
 70
     1
102
RTVSPropertyOp11
 70
     1
102
RTVSPropertyOp12
 70
     1
102
RTVSPropertyOp13
 70
     1
102
RTVSPropertyOp14
 70
     1
102
RTVSPropertyOp15
 70
     1
102
RTVSPropertyOp16
 70
     1
102
RTVSPropertyOp17
 70
     1
102
RTVSPropertyOp18
 70
     1
102
RTVSPropertyOp19
 70
     1
102
RTVSPropertyOp20
 70
     1
102
RTVSPropertyOp21
 70
     1
102
RTVSPropertyOp22
 70
     1
102
RTVSPropertyOp23
 70
     1
102
RTVSPropertyOp24
 70
     1
102
RTVSPropertyOp25
 70
     1
102
RTVSPropertyOp26
 70
     1
102
RTVSPropertyOp27
 70
     1
102
RTVSPropertyOp28
 70
     1
102
RTVSPropertyOp29
 70
     1
102
RTVSPropertyOp30
 70
     1
102
RTVSPropertyOp31
 70
     1
102
RTVSPropertyOp32
 70
     1
102
RTVSPropertyOp33
 70
     1
102
RTVSPropertyOp34
 70
     1
102
RTVSPropertyOp35
 70
     1
102
RTVSPropertyOp36
 70
     1
102
RTVSPropertyOp37
 70
     1
102
RTVSPropertyOp38
 70
     1
102
RTVSPropertyOp39
 70
     1
102
RTVSPropertyOp40
 70
     1
102
RTVSPropertyOp41
 70
     1
102
RTVSPropertyOp42
 70
     1
102
RTVSPropertyOp43
 70
     1
102
RTVSPropertyOp44
 70
     1
102
RTVSPropertyOp45
 70
     1
102
RTVSPropertyOp46
 70
     1
102
RTVSPropertyOp47
 70
     1
102
RTVSPropertyOp48
 70
     1
102
RTVSPropertyOp49
 70
     1
102
RTVSPropertyOp50
 70
     1
102
RTVSPropertyOp51
 70
     0
102
RTVSPropertyOp52
 70
     0
102
RTVSPropertyOp53
 70
     1
102
RTVSPropertyOp54
 70
     1
102
RTVSPropertyOp55
 70
     1
102
RTVSPropertyOp56
 70
     1
102
RTVSPropertyOp57
 70
     1
102
RTVSPropertyOp58
 70
     1
102
RTVSPropertyOp59
 70
     1
102
RTVSPropertyOp60
 70
     1
102
RTVSPropertyOp61
 70
     1
102
RTVSPropertyOp62
 70
     1
  0
XRECORD
  5
6F4
102
{ACAD_REACTORS
330
6F3
102
}
330
6F3
100
AcDbXrecord
280
     1
102
RTVSPost2010Prop28
280
     0
102
RTVSPost2010PropOp28
 70
     1
102
RTVSPost2010Prop29
280
     1
102
RTVSPost2010PropOp29
 70
     1
102
RTVSPost2010Prop30
280
     1
102
RTVSPost2010PropOp30
 70
     1
102
RTVSPost2010Prop31
280
     0
102
RTVSPost2010PropOp31
 70
     1
102
RTVSPost2010Prop32
280
     0
102
RTVSPost2010PropOp32
 70
     1
102
RTVSPost2010Prop33
280
     0
102
RTVSPost2010PropOp33
 70
     1
102
RTVSPost2010Prop34
280
     0
102
RTVSPost2010PropOp34
 70
     1
102
RTVSPost2010Prop35
280
     0
102
RTVSPost2010PropOp35
 70
     1
102
RTVSPost2010Prop36
280
     0
102
RTVSPost2010PropOp36
 70
     1
102
RTVSPost2010Prop37
 90
       50
102
RTVSPost2010PropOp37
 70
     0
102
RTVSPost2010Prop38
140
0.0
102
RTVSPost2010PropOp38
 70
     0
102
RTVSPost2010Prop39
140
1.0
102
RTVSPost2010PropOp39
 70
     0
102
RTVSPost2010Prop40
 90
        0
102
RTVSPost2010PropOp40
 70
     0
102
RTVSPost2010Prop41ColorIndex
 90
       18
102
RTVSPost2010Prop41ColorRGB
 90
        0
102
RTVSPost2010PropOp41
 70
     0
102
RTVSPost2010Prop42
 90
       50
102
RTVSPost2010PropOp42
 70
     0
102
RTVSPost2010Prop43
 90
        3
102
RTVSPost2010PropOp43
 70
     0
102
RTVSPost2010Prop44ColorIndex
 90
        5
102
RTVSPost2010Prop44ColorRGB
 90
      255
102
RTVSPost2010PropOp44
 70
     0
102
RTVSPost2010Prop45
280
     0
102
RTVSPost2010PropOp45
 70
     1
102
RTVSPost2010Prop46
 90
       50
102
RTVSPost2010PropOp46
 70
     0
102
RTVSPost2010Prop47
 90
       50
102
RTVSPost2010PropOp47
 70
     0
102
RTVSPost2010Prop48
 90
       50
102
RTVSPost2010PropOp48
 70
     0
102
RTVSPost2010Prop49
280
     0
102
RTVSPost2010PropOp49
 70
     1
102
RTVSPost2010Prop50
 90
       50
102
RTVSPost2010PropOp50
 70
     0
102
RTVSPost2010Prop51ColorIndex
 90
      256
102
RTVSPost2010Prop51ColorRGB
 90
-16777216
102
RTVSPost2010PropOp51
 70
     0
102
RTVSPost2010Prop52
140
1.0
102
RTVSPost2010PropOp52
 70
     0
102
RTVSPost2010Prop53
 90
        2
102
RTVSPost2010PropOp53
 70
     0
102
RTVSPost2010Prop54
  1
strokes_ogs.tif
102
RTVSPost2010PropOp54
 70
     0
102
RTVSPost2010Prop55
280
     0
102
RTVSPost2010PropOp55
 70
     1
102
RTVSPost2010Prop56
140
1.0
102
RTVSPost2010PropOp56
 70
     0
102
RTVSPost2010Prop57
140
1.0
102
RTVSPost2010PropOp57
 70
     0
102
RTVSPropertyOp0
 70
     0
102
RTVSPropertyOp1
 70
     0
102
RTVSPropertyOp2
 70
     0
102
RTVSPropertyOp3
 70
     0
102
RTVSPropertyOp4
 70
     0
102
RTVSPropertyOp5
 70
     0
102
RTVSPropertyOp6
 70
     0
102
RTVSPropertyOp7
 70
     0
102
RTVSPropertyOp8
 70
     0
102
RTVSPropertyOp9
 70
     0
102
RTVSPropertyOp10
 70
     0
102
RTVSPropertyOp11
 70
     0
102
RTVSPropertyOp12
 70
     0
102
RTVSPropertyOp13
 70
     0
102
RTVSPropertyOp14
 70
     2
102
RTVSPropertyOp15
 70
     0
102
RTVSPropertyOp16
 70
     0
102
RTVSPropertyOp17
 70
     0
102
RTVSPropertyOp18
 70
     0
102
RTVSPropertyOp19
 70
     0
102
RTVSPropertyOp20
 70
     0
102
RTVSPropertyOp21
 70
     0
102
RTVSPropertyOp22
 70
     0
102
RTVSPropertyOp23
 70
     0
102
RTVSPropertyOp24
 70
     0
102
RTVSPropertyOp25
 70
     0
102
RTVSPropertyOp26
 70
     0
102
RTVSPropertyOp27
 70
     0
102
RTVSPropertyOp28
 70
     1
102
RTVSPropertyOp29
 70
     1
102
RTVSPropertyOp30
 70
     1
102
RTVSPropertyOp31
 70
     1
102
RTVSPropertyOp32
 70
     1
102
RTVSPropertyOp33
 70
     1
102
RTVSPropertyOp34
 70
     1
102
RTVSPropertyOp35
 70
     1
102
RTVSPropertyOp36
 70
     1
102
RTVSPropertyOp37
 70
     0
102
RTVSPropertyOp38
 70
     0
102
RTVSPropertyOp39
 70
     0
102
RTVSPropertyOp40
 70
     0
102
RTVSPropertyOp41
 70
     0
102
RTVSPropertyOp42
 70
     0
102
RTVSPropertyOp43
 70
     0
102
RTVSPropertyOp44
 70
     0
102
RTVSPropertyOp45
 70
     1
102
RTVSPropertyOp46
 70
     0
102
RTVSPropertyOp47
 70
     0
102
RTVSPropertyOp48
 70
     0
102
RTVSPropertyOp49
 70
     1
102
RTVSPropertyOp50
 70
     0
102
RTVSPropertyOp51
 70
     0
102
RTVSPropertyOp52
 70
     0
102
RTVSPropertyOp53
 70
     0
102
RTVSPropertyOp54
 70
     0
102
RTVSPropertyOp55
 70
     1
102
RTVSPropertyOp56
 70
     0
102
RTVSPropertyOp57
 70
     0
102
RTVSPropertyOp58
 70
     0
102
RTVSPropertyOp59
 70
     0
102
RTVSPropertyOp60
 70
     0
102
RTVSPropertyOp61
 70
     0
102
RTVSPropertyOp62
 70
     0
  0
XRECORD
  5
6E2
102
{ACAD_REACTORS
330
6E1
102
}
330
6E1
100
AcDbXrecord
280
     1
102
RTVSPost2010Prop28
280
     0
102
RTVSPost2010PropOp28
 70
     1
102
RTVSPost2010Prop29
280
     1
102
RTVSPost2010PropOp29
 70
     1
102
RTVSPost2010Prop30
280
     1
102
RTVSPost2010PropOp30
 70
     1
102
RTVSPost2010Prop31
280
     0
102
RTVSPost2010PropOp31
 70
     1
102
RTVSPost2010Prop32
280
     0
102
RTVSPost2010PropOp32
 70
     1
102
RTVSPost2010Prop33
280
     0
102
RTVSPost2010PropOp33
 70
     1
102
RTVSPost2010Prop34
280
     0
102
RTVSPost2010PropOp34
 70
     1
102
RTVSPost2010Prop35
280
     0
102
RTVSPost2010PropOp35
 70
     1
102
RTVSPost2010Prop36
280
     0
102
RTVSPost2010PropOp36
 70
     1
102
RTVSPost2010Prop37
 90
       50
102
RTVSPost2010PropOp37
 70
     1
102
RTVSPost2010Prop38
140
0.0
102
RTVSPost2010PropOp38
 70
     1
102
RTVSPost2010Prop39
140
1.0
102
RTVSPost2010PropOp39
 70
     1
102
RTVSPost2010Prop40
 90
        0
102
RTVSPost2010PropOp40
 70
     1
102
RTVSPost2010Prop41ColorIndex
 90
       18
102
RTVSPost2010Prop41ColorRGB
 90
        0
102
RTVSPost2010PropOp41
 70
     1
102
RTVSPost2010Prop42
 90
       50
102
RTVSPost2010PropOp42
 70
     1
102
RTVSPost2010Prop43
 90
        3
102
RTVSPost2010PropOp43
 70
     1
102
RTVSPost2010Prop44ColorIndex
 90
        5
102
RTVSPost2010Prop44ColorRGB
 90
      255
102
RTVSPost2010PropOp44
 70
     1
102
RTVSPost2010Prop45
280
     0
102
RTVSPost2010PropOp45
 70
     1
102
RTVSPost2010Prop46
 90
       50
102
RTVSPost2010PropOp46
 70
     1
102
RTVSPost2010Prop47
 90
       50
102
RTVSPost2010PropOp47
 70
     1
102
RTVSPost2010Prop48
 90
       50
102
RTVSPost2010PropOp48
 70
     1
102
RTVSPost2010Prop49
280
     0
102
RTVSPost2010PropOp49
 70
     1
102
RTVSPost2010Prop50
 90
       50
102
RTVSPost2010PropOp50
 70
     1
102
RTVSPost2010Prop51ColorIndex
 90
      256
102
RTVSPost2010Prop51ColorRGB
 90
-16777216
102
RTVSPost2010PropOp51
 70
     0
102
RTVSPost2010Prop52
140
1.0
102
RTVSPost2010PropOp52
 70
     0
102
RTVSPost2010Prop53
 90
        2
102
RTVSPost2010PropOp53
 70
     1
102
RTVSPost2010Prop54
  1
strokes_ogs.tif
102
RTVSPost2010PropOp54
 70
     1
102
RTVSPost2010Prop55
280
     0
102
RTVSPost2010PropOp55
 70
     1
102
RTVSPost2010Prop56
140
1.0
102
RTVSPost2010PropOp56
 70
     1
102
RTVSPost2010Prop57
140
1.0
102
RTVSPost2010PropOp57
 70
     1
102
RTVSPropertyOp0
 70
     1
102
RTVSPropertyOp1
 70
     1
102
RTVSPropertyOp2
 70
     1
102
RTVSPropertyOp3
 70
     1
102
RTVSPropertyOp4
 70
     1
102
RTVSPropertyOp5
 70
     1
102
RTVSPropertyOp6
 70
     1
102
RTVSPropertyOp7
 70
     1
102
RTVSPropertyOp8
 70
     1
102
RTVSPropertyOp9
 70
     1
102
RTVSPropertyOp10
 70
     1
102
RTVSPropertyOp11
 70
     1
102
RTVSPropertyOp12
 70
     1
102
RTVSPropertyOp13
 70
     1
102
RTVSPropertyOp14
 70
     1
102
RTVSPropertyOp15
 70
     1
102
RTVSPropertyOp16
 70
     1
102
RTVSPropertyOp17
 70
     1
102
RTVSPropertyOp18
 70
     1
102
RTVSPropertyOp19
 70
     1
102
RTVSPropertyOp20
 70
     1
102
RTVSPropertyOp21
 70
     1
102
RTVSPropertyOp22
 70
     1
102
RTVSPropertyOp23
 70
     1
102
RTVSPropertyOp24
 70
     1
102
RTVSPropertyOp25
 70
     1
102
RTVSPropertyOp26
 70
     1
102
RTVSPropertyOp27
 70
     1
102
RTVSPropertyOp28
 70
     1
102
RTVSPropertyOp29
 70
     1
102
RTVSPropertyOp30
 70
     1
102
RTVSPropertyOp31
 70
     1
102
RTVSPropertyOp32
 70
     1
102
RTVSPropertyOp33
 70
     1
102
RTVSPropertyOp34
 70
     1
102
RTVSPropertyOp35
 70
     1
102
RTVSPropertyOp36
 70
     1
102
RTVSPropertyOp37
 70
     1
102
RTVSPropertyOp38
 70
     1
102
RTVSPropertyOp39
 70
     1
102
RTVSPropertyOp40
 70
     1
102
RTVSPropertyOp41
 70
     1
102
RTVSPropertyOp42
 70
     1
102
RTVSPropertyOp43
 70
     1
102
RTVSPropertyOp44
 70
     1
102
RTVSPropertyOp45
 70
     1
102
RTVSPropertyOp46
 70
     1
102
RTVSPropertyOp47
 70
     1
102
RTVSPropertyOp48
 70
     1
102
RTVSPropertyOp49
 70
     1
102
RTVSPropertyOp50
 70
     1
102
RTVSPropertyOp51
 70
     0
102
RTVSPropertyOp52
 70
     0
102
RTVSPropertyOp53
 70
     1
102
RTVSPropertyOp54
 70
     1
102
RTVSPropertyOp55
 70
     1
102
RTVSPropertyOp56
 70
     1
102
RTVSPropertyOp57
 70
     1
102
RTVSPropertyOp58
 70
     1
102
RTVSPropertyOp59
 70
     1
102
RTVSPropertyOp60
 70
     1
102
RTVSPropertyOp61
 70
     1
102
RTVSPropertyOp62
 70
     1
  0
XRECORD
  5
6C6
102
{ACAD_REACTORS
330
6C5
102
}
330
6C5
100
AcDbXrecord
280
     1
102
RTVSPost2010Prop28
280
     0
102
RTVSPost2010PropOp28
 70
     1
102
RTVSPost2010Prop29
280
     1
102
RTVSPost2010PropOp29
 70
     1
102
RTVSPost2010Prop30
280
     1
102
RTVSPost2010PropOp30
 70
     1
102
RTVSPost2010Prop31
280
     0
102
RTVSPost2010PropOp31
 70
     1
102
RTVSPost2010Prop32
280
     0
102
RTVSPost2010PropOp32
 70
     1
102
RTVSPost2010Prop33
280
     0
102
RTVSPost2010PropOp33
 70
     1
102
RTVSPost2010Prop34
280
     0
102
RTVSPost2010PropOp34
 70
     1
102
RTVSPost2010Prop35
280
     0
102
RTVSPost2010PropOp35
 70
     1
102
RTVSPost2010Prop36
280
     0
102
RTVSPost2010PropOp36
 70
     1
102
RTVSPost2010Prop37
 90
       50
102
RTVSPost2010PropOp37
 70
     1
102
RTVSPost2010Prop38
140
0.0
102
RTVSPost2010PropOp38
 70
     1
102
RTVSPost2010Prop39
140
1.0
102
RTVSPost2010PropOp39
 70
     1
102
RTVSPost2010Prop40
 90
        0
102
RTVSPost2010PropOp40
 70
     1
102
RTVSPost2010Prop41ColorIndex
 90
       18
102
RTVSPost2010Prop41ColorRGB
 90
        0
102
RTVSPost2010PropOp41
 70
     1
102
RTVSPost2010Prop42
 90
       50
102
RTVSPost2010PropOp42
 70
     1
102
RTVSPost2010Prop43
 90
        3
102
RTVSPost2010PropOp43
 70
     1
102
RTVSPost2010Prop44ColorIndex
 90
        5
102
RTVSPost2010Prop44ColorRGB
 90
      255
102
RTVSPost2010PropOp44
 70
     1
102
RTVSPost2010Prop45
280
     0
102
RTVSPost2010PropOp45
 70
     1
102
RTVSPost2010Prop46
 90
       50
102
RTVSPost2010PropOp46
 70
     1
102
RTVSPost2010Prop47
 90
       50
102
RTVSPost2010PropOp47
 70
     1
102
RTVSPost2010Prop48
 90
       50
102
RTVSPost2010PropOp48
 70
     1
102
RTVSPost2010Prop49
280
     0
102
RTVSPost2010PropOp49
 70
     1
102
RTVSPost2010Prop50
 90
       50
102
RTVSPost2010PropOp50
 70
     1
102
RTVSPost2010Prop51ColorIndex
 90
      256
102
RTVSPost2010Prop51ColorRGB
 90
-16777216
102
RTVSPost2010PropOp51
 70
     0
102
RTVSPost2010Prop52
140
1.0
102
RTVSPost2010PropOp52
 70
     0
102
RTVSPost2010Prop53
 90
        2
102
RTVSPost2010PropOp53
 70
     1
102
RTVSPost2010Prop54
  1
strokes_ogs.tif
102
RTVSPost2010PropOp54
 70
     1
102
RTVSPost2010Prop55
280
     0
102
RTVSPost2010PropOp55
 70
     1
102
RTVSPost2010Prop56
140
1.0
102
RTVSPost2010PropOp56
 70
     1
102
RTVSPost2010Prop57
140
1.0
102
RTVSPost2010PropOp57
 70
     1
102
RTVSPropertyOp0
 70
     1
102
RTVSPropertyOp1
 70
     1
102
RTVSPropertyOp2
 70
     1
102
RTVSPropertyOp3
 70
     1
102
RTVSPropertyOp4
 70
     1
102
RTVSPropertyOp5
 70
     1
102
RTVSPropertyOp6
 70
     1
102
RTVSPropertyOp7
 70
     1
102
RTVSPropertyOp8
 70
     1
102
RTVSPropertyOp9
 70
     1
102
RTVSPropertyOp10
 70
     1
102
RTVSPropertyOp11
 70
     1
102
RTVSPropertyOp12
 70
     1
102
RTVSPropertyOp13
 70
     1
102
RTVSPropertyOp14
 70
     1
102
RTVSPropertyOp15
 70
     1
102
RTVSPropertyOp16
 70
     1
102
RTVSPropertyOp17
 70
     1
102
RTVSPropertyOp18
 70
     1
102
RTVSPropertyOp19
 70
     1
102
RTVSPropertyOp20
 70
     1
102
RTVSPropertyOp21
 70
     1
102
RTVSPropertyOp22
 70
     1
102
RTVSPropertyOp23
 70
     1
102
RTVSPropertyOp24
 70
     1
102
RTVSPropertyOp25
 70
     1
102
RTVSPropertyOp26
 70
     1
102
RTVSPropertyOp27
 70
     1
102
RTVSPropertyOp28
 70
     1
102
RTVSPropertyOp29
 70
     1
102
RTVSPropertyOp30
 70
     1
102
RTVSPropertyOp31
 70
     1
102
RTVSPropertyOp32
 70
     1
102
RTVSPropertyOp33
 70
     1
102
RTVSPropertyOp34
 70
     1
102
RTVSPropertyOp35
 70
     1
102
RTVSPropertyOp36
 70
     1
102
RTVSPropertyOp37
 70
     1
102
RTVSPropertyOp38
 70
     1
102
RTVSPropertyOp39
 70
     1
102
RTVSPropertyOp40
 70
     1
102
RTVSPropertyOp41
 70
     1
102
RTVSPropertyOp42
 70
     1
102
RTVSPropertyOp43
 70
     1
102
RTVSPropertyOp44
 70
     1
102
RTVSPropertyOp45
 70
     1
102
RTVSPropertyOp46
 70
     1
102
RTVSPropertyOp47
 70
     1
102
RTVSPropertyOp48
 70
     1
102
RTVSPropertyOp49
 70
     1
102
RTVSPropertyOp50
 70
     1
102
RTVSPropertyOp51
 70
     0
102
RTVSPropertyOp52
 70
     0
102
RTVSPropertyOp53
 70
     1
102
RTVSPropertyOp54
 70
     1
102
RTVSPropertyOp55
 70
     1
102
RTVSPropertyOp56
 70
     1
102
RTVSPropertyOp57
 70
     1
102
RTVSPropertyOp58
 70
     1
102
RTVSPropertyOp59
 70
     1
102
RTVSPropertyOp60
 70
     1
102
RTVSPropertyOp61
 70
     1
102
RTVSPropertyOp62
 70
     1
  0
XRECORD
  5
6C8
102
{ACAD_REACTORS
330
6C7
102
}
330
6C7
100
AcDbXrecord
280
     1
102
RTVSPost2010Prop28
280
     0
102
RTVSPost2010PropOp28
 70
     1
102
RTVSPost2010Prop29
280
     1
102
RTVSPost2010PropOp29
 70
     1
102
RTVSPost2010Prop30
280
     1
102
RTVSPost2010PropOp30
 70
     1
102
RTVSPost2010Prop31
280
     0
102
RTVSPost2010PropOp31
 70
     1
102
RTVSPost2010Prop32
280
     0
102
RTVSPost2010PropOp32
 70
     1
102
RTVSPost2010Prop33
280
     0
102
RTVSPost2010PropOp33
 70
     1
102
RTVSPost2010Prop34
280
     0
102
RTVSPost2010PropOp34
 70
     1
102
RTVSPost2010Prop35
280
     0
102
RTVSPost2010PropOp35
 70
     1
102
RTVSPost2010Prop36
280
     0
102
RTVSPost2010PropOp36
 70
     1
102
RTVSPost2010Prop37
 90
       50
102
RTVSPost2010PropOp37
 70
     1
102
RTVSPost2010Prop38
140
0.0
102
RTVSPost2010PropOp38
 70
     1
102
RTVSPost2010Prop39
140
1.0
102
RTVSPost2010PropOp39
 70
     1
102
RTVSPost2010Prop40
 90
        0
102
RTVSPost2010PropOp40
 70
     1
102
RTVSPost2010Prop41ColorIndex
 90
       18
102
RTVSPost2010Prop41ColorRGB
 90
        0
102
RTVSPost2010PropOp41
 70
     1
102
RTVSPost2010Prop42
 90
       50
102
RTVSPost2010PropOp42
 70
     1
102
RTVSPost2010Prop43
 90
        3
102
RTVSPost2010PropOp43
 70
     1
102
RTVSPost2010Prop44ColorIndex
 90
        5
102
RTVSPost2010Prop44ColorRGB
 90
      255
102
RTVSPost2010PropOp44
 70
     1
102
RTVSPost2010Prop45
280
     0
102
RTVSPost2010PropOp45
 70
     1
102
RTVSPost2010Prop46
 90
       50
102
RTVSPost2010PropOp46
 70
     1
102
RTVSPost2010Prop47
 90
       50
102
RTVSPost2010PropOp47
 70
     1
102
RTVSPost2010Prop48
 90
       50
102
RTVSPost2010PropOp48
 70
     1
102
RTVSPost2010Prop49
280
     0
102
RTVSPost2010PropOp49
 70
     1
102
RTVSPost2010Prop50
 90
       50
102
RTVSPost2010PropOp50
 70
     1
102
RTVSPost2010Prop51ColorIndex
 90
      256
102
RTVSPost2010Prop51ColorRGB
 90
-16777216
102
RTVSPost2010PropOp51
 70
     0
102
RTVSPost2010Prop52
140
1.0
102
RTVSPost2010PropOp52
 70
     0
102
RTVSPost2010Prop53
 90
        2
102
RTVSPost2010PropOp53
 70
     1
102
RTVSPost2010Prop54
  1
strokes_ogs.tif
102
RTVSPost2010PropOp54
 70
     1
102
RTVSPost2010Prop55
280
     0
102
RTVSPost2010PropOp55
 70
     1
102
RTVSPost2010Prop56
140
1.0
102
RTVSPost2010PropOp56
 70
     1
102
RTVSPost2010Prop57
140
1.0
102
RTVSPost2010PropOp57
 70
     1
102
RTVSPropertyOp0
 70
     1
102
RTVSPropertyOp1
 70
     1
102
RTVSPropertyOp2
 70
     1
102
RTVSPropertyOp3
 70
     1
102
RTVSPropertyOp4
 70
     1
102
RTVSPropertyOp5
 70
     1
102
RTVSPropertyOp6
 70
     1
102
RTVSPropertyOp7
 70
     1
102
RTVSPropertyOp8
 70
     1
102
RTVSPropertyOp9
 70
     1
102
RTVSPropertyOp10
 70
     1
102
RTVSPropertyOp11
 70
     1
102
RTVSPropertyOp12
 70
     1
102
RTVSPropertyOp13
 70
     1
102
RTVSPropertyOp14
 70
     1
102
RTVSPropertyOp15
 70
     1
102
RTVSPropertyOp16
 70
     1
102
RTVSPropertyOp17
 70
     1
102
RTVSPropertyOp18
 70
     1
102
RTVSPropertyOp19
 70
     1
102
RTVSPropertyOp20
 70
     1
102
RTVSPropertyOp21
 70
     1
102
RTVSPropertyOp22
 70
     1
102
RTVSPropertyOp23
 70
     1
102
RTVSPropertyOp24
 70
     1
102
RTVSPropertyOp25
 70
     1
102
RTVSPropertyOp26
 70
     1
102
RTVSPropertyOp27
 70
     1
102
RTVSPropertyOp28
 70
     1
102
RTVSPropertyOp29
 70
     1
102
RTVSPropertyOp30
 70
     1
102
RTVSPropertyOp31
 70
     1
102
RTVSPropertyOp32
 70
     1
102
RTVSPropertyOp33
 70
     1
102
RTVSPropertyOp34
 70
     1
102
RTVSPropertyOp35
 70
     1
102
RTVSPropertyOp36
 70
     1
102
RTVSPropertyOp37
 70
     1
102
RTVSPropertyOp38
 70
     1
102
RTVSPropertyOp39
 70
     1
102
RTVSPropertyOp40
 70
     1
102
RTVSPropertyOp41
 70
     1
102
RTVSPropertyOp42
 70
     1
102
RTVSPropertyOp43
 70
     1
102
RTVSPropertyOp44
 70
     1
102
RTVSPropertyOp45
 70
     1
102
RTVSPropertyOp46
 70
     1
102
RTVSPropertyOp47
 70
     1
102
RTVSPropertyOp48
 70
     1
102
RTVSPropertyOp49
 70
     1
102
RTVSPropertyOp50
 70
     1
102
RTVSPropertyOp51
 70
     0
102
RTVSPropertyOp52
 70
     0
102
RTVSPropertyOp53
 70
     1
102
RTVSPropertyOp54
 70
     1
102
RTVSPropertyOp55
 70
     1
102
RTVSPropertyOp56
 70
     1
102
RTVSPropertyOp57
 70
     1
102
RTVSPropertyOp58
 70
     1
102
RTVSPropertyOp59
 70
     1
102
RTVSPropertyOp60
 70
     1
102
RTVSPropertyOp61
 70
     1
102
RTVSPropertyOp62
 70
     1
  0
XRECORD
  5
6CA
102
{ACAD_REACTORS
330
6C9
102
}
330
6C9
100
AcDbXrecord
280
     1
102
RTVSPost2010Prop28
280
     0
102
RTVSPost2010PropOp28
 70
     1
102
RTVSPost2010Prop29
280
     1
102
RTVSPost2010PropOp29
 70
     1
102
RTVSPost2010Prop30
280
     1
102
RTVSPost2010PropOp30
 70
     1
102
RTVSPost2010Prop31
280
     0
102
RTVSPost2010PropOp31
 70
     1
102
RTVSPost2010Prop32
280
     0
102
RTVSPost2010PropOp32
 70
     1
102
RTVSPost2010Prop33
280
     0
102
RTVSPost2010PropOp33
 70
     1
102
RTVSPost2010Prop34
280
     0
102
RTVSPost2010PropOp34
 70
     1
102
RTVSPost2010Prop35
280
     0
102
RTVSPost2010PropOp35
 70
     1
102
RTVSPost2010Prop36
280
     0
102
RTVSPost2010PropOp36
 70
     1
102
RTVSPost2010Prop37
 90
       50
102
RTVSPost2010PropOp37
 70
     1
102
RTVSPost2010Prop38
140
0.0
102
RTVSPost2010PropOp38
 70
     1
102
RTVSPost2010Prop39
140
1.0
102
RTVSPost2010PropOp39
 70
     1
102
RTVSPost2010Prop40
 90
        0
102
RTVSPost2010PropOp40
 70
     1
102
RTVSPost2010Prop41ColorIndex
 90
       18
102
RTVSPost2010Prop41ColorRGB
 90
        0
102
RTVSPost2010PropOp41
 70
     1
102
RTVSPost2010Prop42
 90
       50
102
RTVSPost2010PropOp42
 70
     1
102
RTVSPost2010Prop43
 90
        3
102
RTVSPost2010PropOp43
 70
     1
102
RTVSPost2010Prop44ColorIndex
 90
        5
102
RTVSPost2010Prop44ColorRGB
 90
      255
102
RTVSPost2010PropOp44
 70
     1
102
RTVSPost2010Prop45
280
     0
102
RTVSPost2010PropOp45
 70
     1
102
RTVSPost2010Prop46
 90
       50
102
RTVSPost2010PropOp46
 70
     1
102
RTVSPost2010Prop47
 90
       50
102
RTVSPost2010PropOp47
 70
     1
102
RTVSPost2010Prop48
 90
       50
102
RTVSPost2010PropOp48
 70
     1
102
RTVSPost2010Prop49
280
     0
102
RTVSPost2010PropOp49
 70
     1
102
RTVSPost2010Prop50
 90
       50
102
RTVSPost2010PropOp50
 70
     1
102
RTVSPost2010Prop51ColorIndex
 90
      256
102
RTVSPost2010Prop51ColorRGB
 90
-16777216
102
RTVSPost2010PropOp51
 70
     0
102
RTVSPost2010Prop52
140
1.0
102
RTVSPost2010PropOp52
 70
     0
102
RTVSPost2010Prop53
 90
        2
102
RTVSPost2010PropOp53
 70
     1
102
RTVSPost2010Prop54
  1
strokes_ogs.tif
102
RTVSPost2010PropOp54
 70
     1
102
RTVSPost2010Prop55
280
     0
102
RTVSPost2010PropOp55
 70
     1
102
RTVSPost2010Prop56
140
1.0
102
RTVSPost2010PropOp56
 70
     1
102
RTVSPost2010Prop57
140
1.0
102
RTVSPost2010PropOp57
 70
     1
102
RTVSPropertyOp0
 70
     1
102
RTVSPropertyOp1
 70
     1
102
RTVSPropertyOp2
 70
     1
102
RTVSPropertyOp3
 70
     1
102
RTVSPropertyOp4
 70
     1
102
RTVSPropertyOp5
 70
     1
102
RTVSPropertyOp6
 70
     1
102
RTVSPropertyOp7
 70
     1
102
RTVSPropertyOp8
 70
     1
102
RTVSPropertyOp9
 70
     1
102
RTVSPropertyOp10
 70
     1
102
RTVSPropertyOp11
 70
     1
102
RTVSPropertyOp12
 70
     1
102
RTVSPropertyOp13
 70
     1
102
RTVSPropertyOp14
 70
     1
102
RTVSPropertyOp15
 70
     1
102
RTVSPropertyOp16
 70
     1
102
RTVSPropertyOp17
 70
     1
102
RTVSPropertyOp18
 70
     1
102
RTVSPropertyOp19
 70
     1
102
RTVSPropertyOp20
 70
     1
102
RTVSPropertyOp21
 70
     1
102
RTVSPropertyOp22
 70
     1
102
RTVSPropertyOp23
 70
     1
102
RTVSPropertyOp24
 70
     1
102
RTVSPropertyOp25
 70
     1
102
RTVSPropertyOp26
 70
     1
102
RTVSPropertyOp27
 70
     1
102
RTVSPropertyOp28
 70
     1
102
RTVSPropertyOp29
 70
     1
102
RTVSPropertyOp30
 70
     1
102
RTVSPropertyOp31
 70
     1
102
RTVSPropertyOp32
 70
     1
102
RTVSPropertyOp33
 70
     1
102
RTVSPropertyOp34
 70
     1
102
RTVSPropertyOp35
 70
     1
102
RTVSPropertyOp36
 70
     1
102
RTVSPropertyOp37
 70
     1
102
RTVSPropertyOp38
 70
     1
102
RTVSPropertyOp39
 70
     1
102
RTVSPropertyOp40
 70
     1
102
RTVSPropertyOp41
 70
     1
102
RTVSPropertyOp42
 70
     1
102
RTVSPropertyOp43
 70
     1
102
RTVSPropertyOp44
 70
     1
102
RTVSPropertyOp45
 70
     1
102
RTVSPropertyOp46
 70
     1
102
RTVSPropertyOp47
 70
     1
102
RTVSPropertyOp48
 70
     1
102
RTVSPropertyOp49
 70
     1
102
RTVSPropertyOp50
 70
     1
102
RTVSPropertyOp51
 70
     0
102
RTVSPropertyOp52
 70
     0
102
RTVSPropertyOp53
 70
     1
102
RTVSPropertyOp54
 70
     1
102
RTVSPropertyOp55
 70
     1
102
RTVSPropertyOp56
 70
     1
102
RTVSPropertyOp57
 70
     1
102
RTVSPropertyOp58
 70
     1
102
RTVSPropertyOp59
 70
     1
102
RTVSPropertyOp60
 70
     1
102
RTVSPropertyOp61
 70
     1
102
RTVSPropertyOp62
 70
     1
  0
XRECORD
  5
6CC
102
{ACAD_REACTORS
330
6CB
102
}
330
6CB
100
AcDbXrecord
280
     1
102
RTVSPost2010Prop28
280
     0
102
RTVSPost2010PropOp28
 70
     1
102
RTVSPost2010Prop29
280
     1
102
RTVSPost2010PropOp29
 70
     1
102
RTVSPost2010Prop30
280
     1
102
RTVSPost2010PropOp30
 70
     1
102
RTVSPost2010Prop31
280
     0
102
RTVSPost2010PropOp31
 70
     1
102
RTVSPost2010Prop32
280
     0
102
RTVSPost2010PropOp32
 70
     1
102
RTVSPost2010Prop33
280
     0
102
RTVSPost2010PropOp33
 70
     1
102
RTVSPost2010Prop34
280
     0
102
RTVSPost2010PropOp34
 70
     1
102
RTVSPost2010Prop35
280
     0
102
RTVSPost2010PropOp35
 70
     1
102
RTVSPost2010Prop36
280
     0
102
RTVSPost2010PropOp36
 70
     1
102
RTVSPost2010Prop37
 90
       50
102
RTVSPost2010PropOp37
 70
     1
102
RTVSPost2010Prop38
140
0.0
102
RTVSPost2010PropOp38
 70
     1
102
RTVSPost2010Prop39
140
1.0
102
RTVSPost2010PropOp39
 70
     1
102
RTVSPost2010Prop40
 90
        0
102
RTVSPost2010PropOp40
 70
     1
102
RTVSPost2010Prop41ColorIndex
 90
       18
102
RTVSPost2010Prop41ColorRGB
 90
        0
102
RTVSPost2010PropOp41
 70
     1
102
RTVSPost2010Prop42
 90
       50
102
RTVSPost2010PropOp42
 70
     1
102
RTVSPost2010Prop43
 90
        3
102
RTVSPost2010PropOp43
 70
     1
102
RTVSPost2010Prop44ColorIndex
 90
        5
102
RTVSPost2010Prop44ColorRGB
 90
      255
102
RTVSPost2010PropOp44
 70
     1
102
RTVSPost2010Prop45
280
     0
102
RTVSPost2010PropOp45
 70
     1
102
RTVSPost2010Prop46
 90
       50
102
RTVSPost2010PropOp46
 70
     1
102
RTVSPost2010Prop47
 90
       50
102
RTVSPost2010PropOp47
 70
     1
102
RTVSPost2010Prop48
 90
       50
102
RTVSPost2010PropOp48
 70
     1
102
RTVSPost2010Prop49
280
     0
102
RTVSPost2010PropOp49
 70
     1
102
RTVSPost2010Prop50
 90
       50
102
RTVSPost2010PropOp50
 70
     1
102
RTVSPost2010Prop51ColorIndex
 90
      256
102
RTVSPost2010Prop51ColorRGB
 90
-16777216
102
RTVSPost2010PropOp51
 70
     0
102
RTVSPost2010Prop52
140
1.0
102
RTVSPost2010PropOp52
 70
     0
102
RTVSPost2010Prop53
 90
        2
102
RTVSPost2010PropOp53
 70
     1
102
RTVSPost2010Prop54
  1
strokes_ogs.tif
102
RTVSPost2010PropOp54
 70
     1
102
RTVSPost2010Prop55
280
     0
102
RTVSPost2010PropOp55
 70
     1
102
RTVSPost2010Prop56
140
1.0
102
RTVSPost2010PropOp56
 70
     1
102
RTVSPost2010Prop57
140
1.0
102
RTVSPost2010PropOp57
 70
     1
102
RTVSPropertyOp0
 70
     1
102
RTVSPropertyOp1
 70
     1
102
RTVSPropertyOp2
 70
     1
102
RTVSPropertyOp3
 70
     1
102
RTVSPropertyOp4
 70
     1
102
RTVSPropertyOp5
 70
     1
102
RTVSPropertyOp6
 70
     1
102
RTVSPropertyOp7
 70
     1
102
RTVSPropertyOp8
 70
     1
102
RTVSPropertyOp9
 70
     1
102
RTVSPropertyOp10
 70
     1
102
RTVSPropertyOp11
 70
     1
102
RTVSPropertyOp12
 70
     1
102
RTVSPropertyOp13
 70
     1
102
RTVSPropertyOp14
 70
     1
102
RTVSPropertyOp15
 70
     1
102
RTVSPropertyOp16
 70
     1
102
RTVSPropertyOp17
 70
     1
102
RTVSPropertyOp18
 70
     1
102
RTVSPropertyOp19
 70
     1
102
RTVSPropertyOp20
 70
     1
102
RTVSPropertyOp21
 70
     1
102
RTVSPropertyOp22
 70
     1
102
RTVSPropertyOp23
 70
     1
102
RTVSPropertyOp24
 70
     1
102
RTVSPropertyOp25
 70
     1
102
RTVSPropertyOp26
 70
     1
102
RTVSPropertyOp27
 70
     1
102
RTVSPropertyOp28
 70
     1
102
RTVSPropertyOp29
 70
     1
102
RTVSPropertyOp30
 70
     1
102
RTVSPropertyOp31
 70
     1
102
RTVSPropertyOp32
 70
     1
102
RTVSPropertyOp33
 70
     1
102
RTVSPropertyOp34
 70
     1
102
RTVSPropertyOp35
 70
     1
102
RTVSPropertyOp36
 70
     1
102
RTVSPropertyOp37
 70
     1
102
RTVSPropertyOp38
 70
     1
102
RTVSPropertyOp39
 70
     1
102
RTVSPropertyOp40
 70
     1
102
RTVSPropertyOp41
 70
     1
102
RTVSPropertyOp42
 70
     1
102
RTVSPropertyOp43
 70
     1
102
RTVSPropertyOp44
 70
     1
102
RTVSPropertyOp45
 70
     1
102
RTVSPropertyOp46
 70
     1
102
RTVSPropertyOp47
 70
     1
102
RTVSPropertyOp48
 70
     1
102
RTVSPropertyOp49
 70
     1
102
RTVSPropertyOp50
 70
     1
102
RTVSPropertyOp51
 70
     0
102
RTVSPropertyOp52
 70
     0
102
RTVSPropertyOp53
 70
     1
102
RTVSPropertyOp54
 70
     1
102
RTVSPropertyOp55
 70
     1
102
RTVSPropertyOp56
 70
     1
102
RTVSPropertyOp57
 70
     1
102
RTVSPropertyOp58
 70
     1
102
RTVSPropertyOp59
 70
     1
102
RTVSPropertyOp60
 70
     1
102
RTVSPropertyOp61
 70
     1
102
RTVSPropertyOp62
 70
     1
  0
XRECORD
  5
6D4
102
{ACAD_REACTORS
330
6D3
102
}
330
6D3
100
AcDbXrecord
280
     1
102
RTVSPost2010Prop28
280
     0
102
RTVSPost2010PropOp28
 70
     1
102
RTVSPost2010Prop29
280
     1
102
RTVSPost2010PropOp29
 70
     1
102
RTVSPost2010Prop30
280
     1
102
RTVSPost2010PropOp30
 70
     1
102
RTVSPost2010Prop31
280
     0
102
RTVSPost2010PropOp31
 70
     1
102
RTVSPost2010Prop32
280
     0
102
RTVSPost2010PropOp32
 70
     1
102
RTVSPost2010Prop33
280
     0
102
RTVSPost2010PropOp33
 70
     1
102
RTVSPost2010Prop34
280
     0
102
RTVSPost2010PropOp34
 70
     1
102
RTVSPost2010Prop35
280
     0
102
RTVSPost2010PropOp35
 70
     1
102
RTVSPost2010Prop36
280
     0
102
RTVSPost2010PropOp36
 70
     1
102
RTVSPost2010Prop37
 90
       50
102
RTVSPost2010PropOp37
 70
     1
102
RTVSPost2010Prop38
140
0.0
102
RTVSPost2010PropOp38
 70
     1
102
RTVSPost2010Prop39
140
1.0
102
RTVSPost2010PropOp39
 70
     1
102
RTVSPost2010Prop40
 90
        0
102
RTVSPost2010PropOp40
 70
     1
102
RTVSPost2010Prop41ColorIndex
 90
       18
102
RTVSPost2010Prop41ColorRGB
 90
        0
102
RTVSPost2010PropOp41
 70
     1
102
RTVSPost2010Prop42
 90
       50
102
RTVSPost2010PropOp42
 70
     1
102
RTVSPost2010Prop43
 90
        3
102
RTVSPost2010PropOp43
 70
     1
102
RTVSPost2010Prop44ColorIndex
 90
        5
102
RTVSPost2010Prop44ColorRGB
 90
      255
102
RTVSPost2010PropOp44
 70
     1
102
RTVSPost2010Prop45
280
     0
102
RTVSPost2010PropOp45
 70
     1
102
RTVSPost2010Prop46
 90
       50
102
RTVSPost2010PropOp46
 70
     1
102
RTVSPost2010Prop47
 90
       50
102
RTVSPost2010PropOp47
 70
     1
102
RTVSPost2010Prop48
 90
       50
102
RTVSPost2010PropOp48
 70
     1
102
RTVSPost2010Prop49
280
     0
102
RTVSPost2010PropOp49
 70
     1
102
RTVSPost2010Prop50
 90
       50
102
RTVSPost2010PropOp50
 70
     1
102
RTVSPost2010Prop51ColorIndex
 90
      256
102
RTVSPost2010Prop51ColorRGB
 90
-16777216
102
RTVSPost2010PropOp51
 70
     0
102
RTVSPost2010Prop52
140
1.0
102
RTVSPost2010PropOp52
 70
     0
102
RTVSPost2010Prop53
 90
        2
102
RTVSPost2010PropOp53
 70
     1
102
RTVSPost2010Prop54
  1
strokes_ogs.tif
102
RTVSPost2010PropOp54
 70
     1
102
RTVSPost2010Prop55
280
     0
102
RTVSPost2010PropOp55
 70
     1
102
RTVSPost2010Prop56
140
1.0
102
RTVSPost2010PropOp56
 70
     1
102
RTVSPost2010Prop57
140
1.0
102
RTVSPost2010PropOp57
 70
     1
102
RTVSPropertyOp0
 70
     1
102
RTVSPropertyOp1
 70
     1
102
RTVSPropertyOp2
 70
     1
102
RTVSPropertyOp3
 70
     1
102
RTVSPropertyOp4
 70
     1
102
RTVSPropertyOp5
 70
     1
102
RTVSPropertyOp6
 70
     1
102
RTVSPropertyOp7
 70
     1
102
RTVSPropertyOp8
 70
     1
102
RTVSPropertyOp9
 70
     1
102
RTVSPropertyOp10
 70
     1
102
RTVSPropertyOp11
 70
     1
102
RTVSPropertyOp12
 70
     1
102
RTVSPropertyOp13
 70
     1
102
RTVSPropertyOp14
 70
     1
102
RTVSPropertyOp15
 70
     1
102
RTVSPropertyOp16
 70
     1
102
RTVSPropertyOp17
 70
     1
102
RTVSPropertyOp18
 70
     1
102
RTVSPropertyOp19
 70
     1
102
RTVSPropertyOp20
 70
     1
102
RTVSPropertyOp21
 70
     1
102
RTVSPropertyOp22
 70
     1
102
RTVSPropertyOp23
 70
     1
102
RTVSPropertyOp24
 70
     1
102
RTVSPropertyOp25
 70
     1
102
RTVSPropertyOp26
 70
     1
102
RTVSPropertyOp27
 70
     1
102
RTVSPropertyOp28
 70
     1
102
RTVSPropertyOp29
 70
     1
102
RTVSPropertyOp30
 70
     1
102
RTVSPropertyOp31
 70
     1
102
RTVSPropertyOp32
 70
     1
102
RTVSPropertyOp33
 70
     1
102
RTVSPropertyOp34
 70
     1
102
RTVSPropertyOp35
 70
     1
102
RTVSPropertyOp36
 70
     1
102
RTVSPropertyOp37
 70
     1
102
RTVSPropertyOp38
 70
     1
102
RTVSPropertyOp39
 70
     1
102
RTVSPropertyOp40
 70
     1
102
RTVSPropertyOp41
 70
     1
102
RTVSPropertyOp42
 70
     1
102
RTVSPropertyOp43
 70
     1
102
RTVSPropertyOp44
 70
     1
102
RTVSPropertyOp45
 70
     1
102
RTVSPropertyOp46
 70
     1
102
RTVSPropertyOp47
 70
     1
102
RTVSPropertyOp48
 70
     1
102
RTVSPropertyOp49
 70
     1
102
RTVSPropertyOp50
 70
     1
102
RTVSPropertyOp51
 70
     0
102
RTVSPropertyOp52
 70
     0
102
RTVSPropertyOp53
 70
     1
102
RTVSPropertyOp54
 70
     1
102
RTVSPropertyOp55
 70
     1
102
RTVSPropertyOp56
 70
     1
102
RTVSPropertyOp57
 70
     1
102
RTVSPropertyOp58
 70
     1
102
RTVSPropertyOp59
 70
     1
102
RTVSPropertyOp60
 70
     1
102
RTVSPropertyOp61
 70
     1
102
RTVSPropertyOp62
 70
     1
  0
XRECORD
  5
6F0
102
{ACAD_REACTORS
330
6EF
102
}
330
6EF
100
AcDbXrecord
280
     1
102
RTVSPost2010Prop28
280
     0
102
RTVSPost2010PropOp28
 70
     1
102
RTVSPost2010Prop29
280
     1
102
RTVSPost2010PropOp29
 70
     1
102
RTVSPost2010Prop30
280
     1
102
RTVSPost2010PropOp30
 70
     1
102
RTVSPost2010Prop31
280
     0
102
RTVSPost2010PropOp31
 70
     1
102
RTVSPost2010Prop32
280
     0
102
RTVSPost2010PropOp32
 70
     1
102
RTVSPost2010Prop33
280
     0
102
RTVSPost2010PropOp33
 70
     1
102
RTVSPost2010Prop34
280
     0
102
RTVSPost2010PropOp34
 70
     1
102
RTVSPost2010Prop35
280
     0
102
RTVSPost2010PropOp35
 70
     1
102
RTVSPost2010Prop36
280
     0
102
RTVSPost2010PropOp36
 70
     1
102
RTVSPost2010Prop37
 90
       50
102
RTVSPost2010PropOp37
 70
     0
102
RTVSPost2010Prop38
140
0.0
102
RTVSPost2010PropOp38
 70
     0
102
RTVSPost2010Prop39
140
1.0
102
RTVSPost2010PropOp39
 70
     0
102
RTVSPost2010Prop40
 90
        0
102
RTVSPost2010PropOp40
 70
     0
102
RTVSPost2010Prop41ColorIndex
 90
       18
102
RTVSPost2010Prop41ColorRGB
 90
        0
102
RTVSPost2010PropOp41
 70
     0
102
RTVSPost2010Prop42
 90
       50
102
RTVSPost2010PropOp42
 70
     0
102
RTVSPost2010Prop43
 90
        3
102
RTVSPost2010PropOp43
 70
     0
102
RTVSPost2010Prop44ColorIndex
 90
        5
102
RTVSPost2010Prop44ColorRGB
 90
      255
102
RTVSPost2010PropOp44
 70
     0
102
RTVSPost2010Prop45
280
     0
102
RTVSPost2010PropOp45
 70
     1
102
RTVSPost2010Prop46
 90
       50
102
RTVSPost2010PropOp46
 70
     0
102
RTVSPost2010Prop47
 90
       50
102
RTVSPost2010PropOp47
 70
     0
102
RTVSPost2010Prop48
 90
       50
102
RTVSPost2010PropOp48
 70
     0
102
RTVSPost2010Prop49
280
     0
102
RTVSPost2010PropOp49
 70
     1
102
RTVSPost2010Prop50
 90
       50
102
RTVSPost2010PropOp50
 70
     0
102
RTVSPost2010Prop51ColorIndex
 90
      256
102
RTVSPost2010Prop51ColorRGB
 90
-16777216
102
RTVSPost2010PropOp51
 70
     0
102
RTVSPost2010Prop52
140
1.0
102
RTVSPost2010PropOp52
 70
     0
102
RTVSPost2010Prop53
 90
        2
102
RTVSPost2010PropOp53
 70
     0
102
RTVSPost2010Prop54
  1
strokes_ogs.tif
102
RTVSPost2010PropOp54
 70
     0
102
RTVSPost2010Prop55
280
     0
102
RTVSPost2010PropOp55
 70
     1
102
RTVSPost2010Prop56
140
1.0
102
RTVSPost2010PropOp56
 70
     0
102
RTVSPost2010Prop57
140
1.0
102
RTVSPost2010PropOp57
 70
     0
102
RTVSPropertyOp0
 70
     0
102
RTVSPropertyOp1
 70
     0
102
RTVSPropertyOp2
 70
     0
102
RTVSPropertyOp3
 70
     0
102
RTVSPropertyOp4
 70
     0
102
RTVSPropertyOp5
 70
     0
102
RTVSPropertyOp6
 70
     0
102
RTVSPropertyOp7
 70
     0
102
RTVSPropertyOp8
 70
     0
102
RTVSPropertyOp9
 70
     0
102
RTVSPropertyOp10
 70
     0
102
RTVSPropertyOp11
 70
     0
102
RTVSPropertyOp12
 70
     0
102
RTVSPropertyOp13
 70
     0
102
RTVSPropertyOp14
 70
     2
102
RTVSPropertyOp15
 70
     0
102
RTVSPropertyOp16
 70
     0
102
RTVSPropertyOp17
 70
     0
102
RTVSPropertyOp18
 70
     0
102
RTVSPropertyOp19
 70
     0
102
RTVSPropertyOp20
 70
     0
102
RTVSPropertyOp21
 70
     0
102
RTVSPropertyOp22
 70
     0
102
RTVSPropertyOp23
 70
     0
102
RTVSPropertyOp24
 70
     0
102
RTVSPropertyOp25
 70
     0
102
RTVSPropertyOp26
 70
     0
102
RTVSPropertyOp27
 70
     0
102
RTVSPropertyOp28
 70
     1
102
RTVSPropertyOp29
 70
     1
102
RTVSPropertyOp30
 70
     1
102
RTVSPropertyOp31
 70
     1
102
RTVSPropertyOp32
 70
     1
102
RTVSPropertyOp33
 70
     1
102
RTVSPropertyOp34
 70
     1
102
RTVSPropertyOp35
 70
     1
102
RTVSPropertyOp36
 70
     1
102
RTVSPropertyOp37
 70
     0
102
RTVSPropertyOp38
 70
     0
102
RTVSPropertyOp39
 70
     0
102
RTVSPropertyOp40
 70
     0
102
RTVSPropertyOp41
 70
     0
102
RTVSPropertyOp42
 70
     0
102
RTVSPropertyOp43
 70
     0
102
RTVSPropertyOp44
 70
     0
102
RTVSPropertyOp45
 70
     1
102
RTVSPropertyOp46
 70
     0
102
RTVSPropertyOp47
 70
     0
102
RTVSPropertyOp48
 70
     0
102
RTVSPropertyOp49
 70
     1
102
RTVSPropertyOp50
 70
     0
102
RTVSPropertyOp51
 70
     0
102
RTVSPropertyOp52
 70
     0
102
RTVSPropertyOp53
 70
     0
102
RTVSPropertyOp54
 70
     0
102
RTVSPropertyOp55
 70
     1
102
RTVSPropertyOp56
 70
     0
102
RTVSPropertyOp57
 70
     0
102
RTVSPropertyOp58
 70
     0
102
RTVSPropertyOp59
 70
     0
102
RTVSPropertyOp60
 70
     0
102
RTVSPropertyOp61
 70
     0
102
RTVSPropertyOp62
 70
     0
  0
XRECORD
  5
6E0
102
{ACAD_REACTORS
330
6DF
102
}
330
6DF
100
AcDbXrecord
280
     1
102
RTVSPost2010Prop28
280
     0
102
RTVSPost2010PropOp28
 70
     1
102
RTVSPost2010Prop29
280
     1
102
RTVSPost2010PropOp29
 70
     1
102
RTVSPost2010Prop30
280
     1
102
RTVSPost2010PropOp30
 70
     1
102
RTVSPost2010Prop31
280
     0
102
RTVSPost2010PropOp31
 70
     1
102
RTVSPost2010Prop32
280
     0
102
RTVSPost2010PropOp32
 70
     1
102
RTVSPost2010Prop33
280
     0
102
RTVSPost2010PropOp33
 70
     1
102
RTVSPost2010Prop34
280
     0
102
RTVSPost2010PropOp34
 70
     1
102
RTVSPost2010Prop35
280
     0
102
RTVSPost2010PropOp35
 70
     1
102
RTVSPost2010Prop36
280
     0
102
RTVSPost2010PropOp36
 70
     1
102
RTVSPost2010Prop37
 90
       50
102
RTVSPost2010PropOp37
 70
     1
102
RTVSPost2010Prop38
140
0.0
102
RTVSPost2010PropOp38
 70
     1
102
RTVSPost2010Prop39
140
1.0
102
RTVSPost2010PropOp39
 70
     1
102
RTVSPost2010Prop40
 90
        0
102
RTVSPost2010PropOp40
 70
     1
102
RTVSPost2010Prop41ColorIndex
 90
       18
102
RTVSPost2010Prop41ColorRGB
 90
        0
102
RTVSPost2010PropOp41
 70
     1
102
RTVSPost2010Prop42
 90
       50
102
RTVSPost2010PropOp42
 70
     1
102
RTVSPost2010Prop43
 90
        3
102
RTVSPost2010PropOp43
 70
     1
102
RTVSPost2010Prop44ColorIndex
 90
        5
102
RTVSPost2010Prop44ColorRGB
 90
      255
102
RTVSPost2010PropOp44
 70
     1
102
RTVSPost2010Prop45
280
     0
102
RTVSPost2010PropOp45
 70
     1
102
RTVSPost2010Prop46
 90
       50
102
RTVSPost2010PropOp46
 70
     1
102
RTVSPost2010Prop47
 90
       50
102
RTVSPost2010PropOp47
 70
     1
102
RTVSPost2010Prop48
 90
       50
102
RTVSPost2010PropOp48
 70
     1
102
RTVSPost2010Prop49
280
     0
102
RTVSPost2010PropOp49
 70
     1
102
RTVSPost2010Prop50
 90
       50
102
RTVSPost2010PropOp50
 70
     1
102
RTVSPost2010Prop51ColorIndex
 90
      256
102
RTVSPost2010Prop51ColorRGB
 90
-16777216
102
RTVSPost2010PropOp51
 70
     0
102
RTVSPost2010Prop52
140
1.0
102
RTVSPost2010PropOp52
 70
     0
102
RTVSPost2010Prop53
 90
        2
102
RTVSPost2010PropOp53
 70
     1
102
RTVSPost2010Prop54
  1
strokes_ogs.tif
102
RTVSPost2010PropOp54
 70
     1
102
RTVSPost2010Prop55
280
     0
102
RTVSPost2010PropOp55
 70
     1
102
RTVSPost2010Prop56
140
1.0
102
RTVSPost2010PropOp56
 70
     1
102
RTVSPost2010Prop57
140
1.0
102
RTVSPost2010PropOp57
 70
     1
102
RTVSPropertyOp0
 70
     1
102
RTVSPropertyOp1
 70
     1
102
RTVSPropertyOp2
 70
     1
102
RTVSPropertyOp3
 70
     1
102
RTVSPropertyOp4
 70
     1
102
RTVSPropertyOp5
 70
     1
102
RTVSPropertyOp6
 70
     1
102
RTVSPropertyOp7
 70
     1
102
RTVSPropertyOp8
 70
     1
102
RTVSPropertyOp9
 70
     1
102
RTVSPropertyOp10
 70
     1
102
RTVSPropertyOp11
 70
     1
102
RTVSPropertyOp12
 70
     1
102
RTVSPropertyOp13
 70
     1
102
RTVSPropertyOp14
 70
     1
102
RTVSPropertyOp15
 70
     1
102
RTVSPropertyOp16
 70
     1
102
RTVSPropertyOp17
 70
     1
102
RTVSPropertyOp18
 70
     1
102
RTVSPropertyOp19
 70
     1
102
RTVSPropertyOp20
 70
     1
102
RTVSPropertyOp21
 70
     1
102
RTVSPropertyOp22
 70
     1
102
RTVSPropertyOp23
 70
     1
102
RTVSPropertyOp24
 70
     1
102
RTVSPropertyOp25
 70
     1
102
RTVSPropertyOp26
 70
     1
102
RTVSPropertyOp27
 70
     1
102
RTVSPropertyOp28
 70
     1
102
RTVSPropertyOp29
 70
     1
102
RTVSPropertyOp30
 70
     1
102
RTVSPropertyOp31
 70
     1
102
RTVSPropertyOp32
 70
     1
102
RTVSPropertyOp33
 70
     1
102
RTVSPropertyOp34
 70
     1
102
RTVSPropertyOp35
 70
     1
102
RTVSPropertyOp36
 70
     1
102
RTVSPropertyOp37
 70
     1
102
RTVSPropertyOp38
 70
     1
102
RTVSPropertyOp39
 70
     1
102
RTVSPropertyOp40
 70
     1
102
RTVSPropertyOp41
 70
     1
102
RTVSPropertyOp42
 70
     1
102
RTVSPropertyOp43
 70
     1
102
RTVSPropertyOp44
 70
     1
102
RTVSPropertyOp45
 70
     1
102
RTVSPropertyOp46
 70
     1
102
RTVSPropertyOp47
 70
     1
102
RTVSPropertyOp48
 70
     1
102
RTVSPropertyOp49
 70
     1
102
RTVSPropertyOp50
 70
     1
102
RTVSPropertyOp51
 70
     0
102
RTVSPropertyOp52
 70
     0
102
RTVSPropertyOp53
 70
     1
102
RTVSPropertyOp54
 70
     1
102
RTVSPropertyOp55
 70
     1
102
RTVSPropertyOp56
 70
     1
102
RTVSPropertyOp57
 70
     1
102
RTVSPropertyOp58
 70
     1
102
RTVSPropertyOp59
 70
     1
102
RTVSPropertyOp60
 70
     1
102
RTVSPropertyOp61
 70
     1
102
RTVSPropertyOp62
 70
     1
  0
XRECORD
  5
6F2
102
{ACAD_REACTORS
330
6F1
102
}
330
6F1
100
AcDbXrecord
280
     1
102
RTVSPost2010Prop28
280
     0
102
RTVSPost2010PropOp28
 70
     1
102
RTVSPost2010Prop29
280
     1
102
RTVSPost2010PropOp29
 70
     1
102
RTVSPost2010Prop30
280
     1
102
RTVSPost2010PropOp30
 70
     1
102
RTVSPost2010Prop31
280
     0
102
RTVSPost2010PropOp31
 70
     1
102
RTVSPost2010Prop32
280
     0
102
RTVSPost2010PropOp32
 70
     1
102
RTVSPost2010Prop33
280
     0
102
RTVSPost2010PropOp33
 70
     1
102
RTVSPost2010Prop34
280
     0
102
RTVSPost2010PropOp34
 70
     1
102
RTVSPost2010Prop35
280
     0
102
RTVSPost2010PropOp35
 70
     1
102
RTVSPost2010Prop36
280
     0
102
RTVSPost2010PropOp36
 70
     1
102
RTVSPost2010Prop37
 90
       50
102
RTVSPost2010PropOp37
 70
     0
102
RTVSPost2010Prop38
140
0.0
102
RTVSPost2010PropOp38
 70
     0
102
RTVSPost2010Prop39
140
1.0
102
RTVSPost2010PropOp39
 70
     0
102
RTVSPost2010Prop40
 90
        0
102
RTVSPost2010PropOp40
 70
     0
102
RTVSPost2010Prop41ColorIndex
 90
       18
102
RTVSPost2010Prop41ColorRGB
 90
        0
102
RTVSPost2010PropOp41
 70
     0
102
RTVSPost2010Prop42
 90
       50
102
RTVSPost2010PropOp42
 70
     0
102
RTVSPost2010Prop43
 90
        3
102
RTVSPost2010PropOp43
 70
     0
102
RTVSPost2010Prop44ColorIndex
 90
        5
102
RTVSPost2010Prop44ColorRGB
 90
      255
102
RTVSPost2010PropOp44
 70
     0
102
RTVSPost2010Prop45
280
     0
102
RTVSPost2010PropOp45
 70
     1
102
RTVSPost2010Prop46
 90
       50
102
RTVSPost2010PropOp46
 70
     0
102
RTVSPost2010Prop47
 90
       50
102
RTVSPost2010PropOp47
 70
     0
102
RTVSPost2010Prop48
 90
       50
102
RTVSPost2010PropOp48
 70
     0
102
RTVSPost2010Prop49
280
     0
102
RTVSPost2010PropOp49
 70
     1
102
RTVSPost2010Prop50
 90
       50
102
RTVSPost2010PropOp50
 70
     0
102
RTVSPost2010Prop51ColorIndex
 90
      256
102
RTVSPost2010Prop51ColorRGB
 90
-16777216
102
RTVSPost2010PropOp51
 70
     0
102
RTVSPost2010Prop52
140
1.0
102
RTVSPost2010PropOp52
 70
     0
102
RTVSPost2010Prop53
 90
        2
102
RTVSPost2010PropOp53
 70
     0
102
RTVSPost2010Prop54
  1
strokes_ogs.tif
102
RTVSPost2010PropOp54
 70
     0
102
RTVSPost2010Prop55
280
     0
102
RTVSPost2010PropOp55
 70
     1
102
RTVSPost2010Prop56
140
1.0
102
RTVSPost2010PropOp56
 70
     0
102
RTVSPost2010Prop57
140
1.0
102
RTVSPost2010PropOp57
 70
     0
102
RTVSPropertyOp0
 70
     0
102
RTVSPropertyOp1
 70
     0
102
RTVSPropertyOp2
 70
     0
102
RTVSPropertyOp3
 70
     0
102
RTVSPropertyOp4
 70
     0
102
RTVSPropertyOp5
 70
     0
102
RTVSPropertyOp6
 70
     0
102
RTVSPropertyOp7
 70
     0
102
RTVSPropertyOp8
 70
     0
102
RTVSPropertyOp9
 70
     0
102
RTVSPropertyOp10
 70
     0
102
RTVSPropertyOp11
 70
     0
102
RTVSPropertyOp12
 70
     0
102
RTVSPropertyOp13
 70
     0
102
RTVSPropertyOp14
 70
     2
102
RTVSPropertyOp15
 70
     0
102
RTVSPropertyOp16
 70
     0
102
RTVSPropertyOp17
 70
     0
102
RTVSPropertyOp18
 70
     0
102
RTVSPropertyOp19
 70
     0
102
RTVSPropertyOp20
 70
     0
102
RTVSPropertyOp21
 70
     0
102
RTVSPropertyOp22
 70
     0
102
RTVSPropertyOp23
 70
     0
102
RTVSPropertyOp24
 70
     0
102
RTVSPropertyOp25
 70
     0
102
RTVSPropertyOp26
 70
     0
102
RTVSPropertyOp27
 70
     0
102
RTVSPropertyOp28
 70
     1
102
RTVSPropertyOp29
 70
     1
102
RTVSPropertyOp30
 70
     1
102
RTVSPropertyOp31
 70
     1
102
RTVSPropertyOp32
 70
     1
102
RTVSPropertyOp33
 70
     1
102
RTVSPropertyOp34
 70
     1
102
RTVSPropertyOp35
 70
     1
102
RTVSPropertyOp36
 70
     1
102
RTVSPropertyOp37
 70
     0
102
RTVSPropertyOp38
 70
     0
102
RTVSPropertyOp39
 70
     0
102
RTVSPropertyOp40
 70
     0
102
RTVSPropertyOp41
 70
     0
102
RTVSPropertyOp42
 70
     0
102
RTVSPropertyOp43
 70
     0
102
RTVSPropertyOp44
 70
     0
102
RTVSPropertyOp45
 70
     1
102
RTVSPropertyOp46
 70
     0
102
RTVSPropertyOp47
 70
     0
102
RTVSPropertyOp48
 70
     0
102
RTVSPropertyOp49
 70
     1
102
RTVSPropertyOp50
 70
     0
102
RTVSPropertyOp51
 70
     0
102
RTVSPropertyOp52
 70
     0
102
RTVSPropertyOp53
 70
     0
102
RTVSPropertyOp54
 70
     0
102
RTVSPropertyOp55
 70
     1
102
RTVSPropertyOp56
 70
     0
102
RTVSPropertyOp57
 70
     0
102
RTVSPropertyOp58
 70
     0
102
RTVSPropertyOp59
 70
     0
102
RTVSPropertyOp60
 70
     0
102
RTVSPropertyOp61
 70
     0
102
RTVSPropertyOp62
 70
     0
  0
XRECORD
  5
6D8
102
{ACAD_REACTORS
330
6D7
102
}
330
6D7
100
AcDbXrecord
280
     1
102
RTVSPost2010Prop28
280
     0
102
RTVSPost2010PropOp28
 70
     1
102
RTVSPost2010Prop29
280
     1
102
RTVSPost2010PropOp29
 70
     1
102
RTVSPost2010Prop30
280
     1
102
RTVSPost2010PropOp30
 70
     1
102
RTVSPost2010Prop31
280
     0
102
RTVSPost2010PropOp31
 70
     1
102
RTVSPost2010Prop32
280
     0
102
RTVSPost2010PropOp32
 70
     1
102
RTVSPost2010Prop33
280
     0
102
RTVSPost2010PropOp33
 70
     1
102
RTVSPost2010Prop34
280
     0
102
RTVSPost2010PropOp34
 70
     1
102
RTVSPost2010Prop35
280
     0
102
RTVSPost2010PropOp35
 70
     1
102
RTVSPost2010Prop36
280
     0
102
RTVSPost2010PropOp36
 70
     1
102
RTVSPost2010Prop37
 90
       50
102
RTVSPost2010PropOp37
 70
     1
102
RTVSPost2010Prop38
140
0.0
102
RTVSPost2010PropOp38
 70
     1
102
RTVSPost2010Prop39
140
1.0
102
RTVSPost2010PropOp39
 70
     1
102
RTVSPost2010Prop40
 90
        0
102
RTVSPost2010PropOp40
 70
     1
102
RTVSPost2010Prop41ColorIndex
 90
       18
102
RTVSPost2010Prop41ColorRGB
 90
        0
102
RTVSPost2010PropOp41
 70
     1
102
RTVSPost2010Prop42
 90
       50
102
RTVSPost2010PropOp42
 70
     1
102
RTVSPost2010Prop43
 90
        3
102
RTVSPost2010PropOp43
 70
     1
102
RTVSPost2010Prop44ColorIndex
 90
        5
102
RTVSPost2010Prop44ColorRGB
 90
      255
102
RTVSPost2010PropOp44
 70
     1
102
RTVSPost2010Prop45
280
     0
102
RTVSPost2010PropOp45
 70
     1
102
RTVSPost2010Prop46
 90
       50
102
RTVSPost2010PropOp46
 70
     1
102
RTVSPost2010Prop47
 90
       50
102
RTVSPost2010PropOp47
 70
     1
102
RTVSPost2010Prop48
 90
       50
102
RTVSPost2010PropOp48
 70
     1
102
RTVSPost2010Prop49
280
     0
102
RTVSPost2010PropOp49
 70
     1
102
RTVSPost2010Prop50
 90
       50
102
RTVSPost2010PropOp50
 70
     1
102
RTVSPost2010Prop51ColorIndex
 90
      256
102
RTVSPost2010Prop51ColorRGB
 90
-16777216
102
RTVSPost2010PropOp51
 70
     0
102
RTVSPost2010Prop52
140
1.0
102
RTVSPost2010PropOp52
 70
     0
102
RTVSPost2010Prop53
 90
        2
102
RTVSPost2010PropOp53
 70
     1
102
RTVSPost2010Prop54
  1
strokes_ogs.tif
102
RTVSPost2010PropOp54
 70
     1
102
RTVSPost2010Prop55
280
     0
102
RTVSPost2010PropOp55
 70
     1
102
RTVSPost2010Prop56
140
1.0
102
RTVSPost2010PropOp56
 70
     1
102
RTVSPost2010Prop57
140
1.0
102
RTVSPost2010PropOp57
 70
     1
102
RTVSPropertyOp0
 70
     1
102
RTVSPropertyOp1
 70
     1
102
RTVSPropertyOp2
 70
     1
102
RTVSPropertyOp3
 70
     1
102
RTVSPropertyOp4
 70
     1
102
RTVSPropertyOp5
 70
     1
102
RTVSPropertyOp6
 70
     1
102
RTVSPropertyOp7
 70
     1
102
RTVSPropertyOp8
 70
     1
102
RTVSPropertyOp9
 70
     1
102
RTVSPropertyOp10
 70
     1
102
RTVSPropertyOp11
 70
     1
102
RTVSPropertyOp12
 70
     1
102
RTVSPropertyOp13
 70
     1
102
RTVSPropertyOp14
 70
     1
102
RTVSPropertyOp15
 70
     1
102
RTVSPropertyOp16
 70
     1
102
RTVSPropertyOp17
 70
     1
102
RTVSPropertyOp18
 70
     1
102
RTVSPropertyOp19
 70
     1
102
RTVSPropertyOp20
 70
     1
102
RTVSPropertyOp21
 70
     1
102
RTVSPropertyOp22
 70
     1
102
RTVSPropertyOp23
 70
     1
102
RTVSPropertyOp24
 70
     1
102
RTVSPropertyOp25
 70
     1
102
RTVSPropertyOp26
 70
     1
102
RTVSPropertyOp27
 70
     1
102
RTVSPropertyOp28
 70
     1
102
RTVSPropertyOp29
 70
     1
102
RTVSPropertyOp30
 70
     1
102
RTVSPropertyOp31
 70
     1
102
RTVSPropertyOp32
 70
     1
102
RTVSPropertyOp33
 70
     1
102
RTVSPropertyOp34
 70
     1
102
RTVSPropertyOp35
 70
     1
102
RTVSPropertyOp36
 70
     1
102
RTVSPropertyOp37
 70
     1
102
RTVSPropertyOp38
 70
     1
102
RTVSPropertyOp39
 70
     1
102
RTVSPropertyOp40
 70
     1
102
RTVSPropertyOp41
 70
     1
102
RTVSPropertyOp42
 70
     1
102
RTVSPropertyOp43
 70
     1
102
RTVSPropertyOp44
 70
     1
102
RTVSPropertyOp45
 70
     1
102
RTVSPropertyOp46
 70
     1
102
RTVSPropertyOp47
 70
     1
102
RTVSPropertyOp48
 70
     1
102
RTVSPropertyOp49
 70
     1
102
RTVSPropertyOp50
 70
     1
102
RTVSPropertyOp51
 70
     0
102
RTVSPropertyOp52
 70
     0
102
RTVSPropertyOp53
 70
     1
102
RTVSPropertyOp54
 70
     1
102
RTVSPropertyOp55
 70
     1
102
RTVSPropertyOp56
 70
     1
102
RTVSPropertyOp57
 70
     1
102
RTVSPropertyOp58
 70
     1
102
RTVSPropertyOp59
 70
     1
102
RTVSPropertyOp60
 70
     1
102
RTVSPropertyOp61
 70
     1
102
RTVSPropertyOp62
 70
     1
  0
XRECORD
  5
6EE
102
{ACAD_REACTORS
330
6ED
102
}
330
6ED
100
AcDbXrecord
280
     1
102
RTVSPost2010Prop28
280
     0
102
RTVSPost2010PropOp28
 70
     1
102
RTVSPost2010Prop29
280
     1
102
RTVSPost2010PropOp29
 70
     1
102
RTVSPost2010Prop30
280
     1
102
RTVSPost2010PropOp30
 70
     1
102
RTVSPost2010Prop31
280
     0
102
RTVSPost2010PropOp31
 70
     1
102
RTVSPost2010Prop32
280
     0
102
RTVSPost2010PropOp32
 70
     1
102
RTVSPost2010Prop33
280
     0
102
RTVSPost2010PropOp33
 70
     1
102
RTVSPost2010Prop34
280
     0
102
RTVSPost2010PropOp34
 70
     1
102
RTVSPost2010Prop35
280
     0
102
RTVSPost2010PropOp35
 70
     1
102
RTVSPost2010Prop36
280
     0
102
RTVSPost2010PropOp36
 70
     1
102
RTVSPost2010Prop37
 90
       50
102
RTVSPost2010PropOp37
 70
     1
102
RTVSPost2010Prop38
140
0.0
102
RTVSPost2010PropOp38
 70
     1
102
RTVSPost2010Prop39
140
1.0
102
RTVSPost2010PropOp39
 70
     1
102
RTVSPost2010Prop40
 90
        0
102
RTVSPost2010PropOp40
 70
     1
102
RTVSPost2010Prop41ColorIndex
 90
       18
102
RTVSPost2010Prop41ColorRGB
 90
        0
102
RTVSPost2010PropOp41
 70
     1
102
RTVSPost2010Prop42
 90
       50
102
RTVSPost2010PropOp42
 70
     1
102
RTVSPost2010Prop43
 90
        3
102
RTVSPost2010PropOp43
 70
     1
102
RTVSPost2010Prop44ColorIndex
 90
        5
102
RTVSPost2010Prop44ColorRGB
 90
      255
102
RTVSPost2010PropOp44
 70
     1
102
RTVSPost2010Prop45
280
     0
102
RTVSPost2010PropOp45
 70
     1
102
RTVSPost2010Prop46
 90
       50
102
RTVSPost2010PropOp46
 70
     1
102
RTVSPost2010Prop47
 90
       50
102
RTVSPost2010PropOp47
 70
     1
102
RTVSPost2010Prop48
 90
       50
102
RTVSPost2010PropOp48
 70
     1
102
RTVSPost2010Prop49
280
     0
102
RTVSPost2010PropOp49
 70
     1
102
RTVSPost2010Prop50
 90
       50
102
RTVSPost2010PropOp50
 70
     1
102
RTVSPost2010Prop51ColorIndex
 90
      256
102
RTVSPost2010Prop51ColorRGB
 90
-16777216
102
RTVSPost2010PropOp51
 70
     0
102
RTVSPost2010Prop52
140
1.0
102
RTVSPost2010PropOp52
 70
     0
102
RTVSPost2010Prop53
 90
        2
102
RTVSPost2010PropOp53
 70
     1
102
RTVSPost2010Prop54
  1
strokes_ogs.tif
102
RTVSPost2010PropOp54
 70
     1
102
RTVSPost2010Prop55
280
     0
102
RTVSPost2010PropOp55
 70
     1
102
RTVSPost2010Prop56
140
1.0
102
RTVSPost2010PropOp56
 70
     1
102
RTVSPost2010Prop57
140
1.0
102
RTVSPost2010PropOp57
 70
     1
102
RTVSPropertyOp0
 70
     1
102
RTVSPropertyOp1
 70
     1
102
RTVSPropertyOp2
 70
     1
102
RTVSPropertyOp3
 70
     1
102
RTVSPropertyOp4
 70
     1
102
RTVSPropertyOp5
 70
     1
102
RTVSPropertyOp6
 70
     1
102
RTVSPropertyOp7
 70
     1
102
RTVSPropertyOp8
 70
     1
102
RTVSPropertyOp9
 70
     1
102
RTVSPropertyOp10
 70
     1
102
RTVSPropertyOp11
 70
     1
102
RTVSPropertyOp12
 70
     1
102
RTVSPropertyOp13
 70
     1
102
RTVSPropertyOp14
 70
     1
102
RTVSPropertyOp15
 70
     1
102
RTVSPropertyOp16
 70
     1
102
RTVSPropertyOp17
 70
     1
102
RTVSPropertyOp18
 70
     1
102
RTVSPropertyOp19
 70
     1
102
RTVSPropertyOp20
 70
     1
102
RTVSPropertyOp21
 70
     1
102
RTVSPropertyOp22
 70
     1
102
RTVSPropertyOp23
 70
     1
102
RTVSPropertyOp24
 70
     1
102
RTVSPropertyOp25
 70
     1
102
RTVSPropertyOp26
 70
     1
102
RTVSPropertyOp27
 70
     1
102
RTVSPropertyOp28
 70
     1
102
RTVSPropertyOp29
 70
     1
102
RTVSPropertyOp30
 70
     1
102
RTVSPropertyOp31
 70
     1
102
RTVSPropertyOp32
 70
     1
102
RTVSPropertyOp33
 70
     1
102
RTVSPropertyOp34
 70
     1
102
RTVSPropertyOp35
 70
     1
102
RTVSPropertyOp36
 70
     1
102
RTVSPropertyOp37
 70
     1
102
RTVSPropertyOp38
 70
     1
102
RTVSPropertyOp39
 70
     1
102
RTVSPropertyOp40
 70
     1
102
RTVSPropertyOp41
 70
     1
102
RTVSPropertyOp42
 70
     1
102
RTVSPropertyOp43
 70
     1
102
RTVSPropertyOp44
 70
     1
102
RTVSPropertyOp45
 70
     1
102
RTVSPropertyOp46
 70
     1
102
RTVSPropertyOp47
 70
     1
102
RTVSPropertyOp48
 70
     1
102
RTVSPropertyOp49
 70
     1
102
RTVSPropertyOp50
 70
     1
102
RTVSPropertyOp51
 70
     0
102
RTVSPropertyOp52
 70
     0
102
RTVSPropertyOp53
 70
     1
102
RTVSPropertyOp54
 70
     1
102
RTVSPropertyOp55
 70
     1
102
RTVSPropertyOp56
 70
     1
102
RTVSPropertyOp57
 70
     1
102
RTVSPropertyOp58
 70
     1
102
RTVSPropertyOp59
 70
     1
102
RTVSPropertyOp60
 70
     1
102
RTVSPropertyOp61
 70
     1
102
RTVSPropertyOp62
 70
     1
  0
XRECORD
  5
6EC
102
{ACAD_REACTORS
330
6EB
102
}
330
6EB
100
AcDbXrecord
280
     1
102
RTVSPost2010Prop28
280
     0
102
RTVSPost2010PropOp28
 70
     1
102
RTVSPost2010Prop29
280
     1
102
RTVSPost2010PropOp29
 70
     1
102
RTVSPost2010Prop30
280
     1
102
RTVSPost2010PropOp30
 70
     1
102
RTVSPost2010Prop31
280
     0
102
RTVSPost2010PropOp31
 70
     1
102
RTVSPost2010Prop32
280
     0
102
RTVSPost2010PropOp32
 70
     1
102
RTVSPost2010Prop33
280
     0
102
RTVSPost2010PropOp33
 70
     1
102
RTVSPost2010Prop34
280
     0
102
RTVSPost2010PropOp34
 70
     1
102
RTVSPost2010Prop35
280
     0
102
RTVSPost2010PropOp35
 70
     1
102
RTVSPost2010Prop36
280
     0
102
RTVSPost2010PropOp36
 70
     1
102
RTVSPost2010Prop37
 90
       50
102
RTVSPost2010PropOp37
 70
     1
102
RTVSPost2010Prop38
140
0.0
102
RTVSPost2010PropOp38
 70
     1
102
RTVSPost2010Prop39
140
1.0
102
RTVSPost2010PropOp39
 70
     1
102
RTVSPost2010Prop40
 90
        0
102
RTVSPost2010PropOp40
 70
     1
102
RTVSPost2010Prop41ColorIndex
 90
       18
102
RTVSPost2010Prop41ColorRGB
 90
        0
102
RTVSPost2010PropOp41
 70
     1
102
RTVSPost2010Prop42
 90
       50
102
RTVSPost2010PropOp42
 70
     1
102
RTVSPost2010Prop43
 90
        3
102
RTVSPost2010PropOp43
 70
     1
102
RTVSPost2010Prop44ColorIndex
 90
        5
102
RTVSPost2010Prop44ColorRGB
 90
      255
102
RTVSPost2010PropOp44
 70
     1
102
RTVSPost2010Prop45
280
     0
102
RTVSPost2010PropOp45
 70
     1
102
RTVSPost2010Prop46
 90
       50
102
RTVSPost2010PropOp46
 70
     1
102
RTVSPost2010Prop47
 90
       50
102
RTVSPost2010PropOp47
 70
     1
102
RTVSPost2010Prop48
 90
       50
102
RTVSPost2010PropOp48
 70
     1
102
RTVSPost2010Prop49
280
     0
102
RTVSPost2010PropOp49
 70
     1
102
RTVSPost2010Prop50
 90
       50
102
RTVSPost2010PropOp50
 70
     1
102
RTVSPost2010Prop51ColorIndex
 90
      256
102
RTVSPost2010Prop51ColorRGB
 90
-16777216
102
RTVSPost2010PropOp51
 70
     0
102
RTVSPost2010Prop52
140
1.0
102
RTVSPost2010PropOp52
 70
     0
102
RTVSPost2010Prop53
 90
        2
102
RTVSPost2010PropOp53
 70
     1
102
RTVSPost2010Prop54
  1
strokes_ogs.tif
102
RTVSPost2010PropOp54
 70
     1
102
RTVSPost2010Prop55
280
     0
102
RTVSPost2010PropOp55
 70
     1
102
RTVSPost2010Prop56
140
1.0
102
RTVSPost2010PropOp56
 70
     1
102
RTVSPost2010Prop57
140
1.0
102
RTVSPost2010PropOp57
 70
     1
102
RTVSPropertyOp0
 70
     1
102
RTVSPropertyOp1
 70
     1
102
RTVSPropertyOp2
 70
     1
102
RTVSPropertyOp3
 70
     1
102
RTVSPropertyOp4
 70
     1
102
RTVSPropertyOp5
 70
     1
102
RTVSPropertyOp6
 70
     1
102
RTVSPropertyOp7
 70
     1
102
RTVSPropertyOp8
 70
     1
102
RTVSPropertyOp9
 70
     1
102
RTVSPropertyOp10
 70
     1
102
RTVSPropertyOp11
 70
     1
102
RTVSPropertyOp12
 70
     1
102
RTVSPropertyOp13
 70
     1
102
RTVSPropertyOp14
 70
     1
102
RTVSPropertyOp15
 70
     1
102
RTVSPropertyOp16
 70
     1
102
RTVSPropertyOp17
 70
     1
102
RTVSPropertyOp18
 70
     1
102
RTVSPropertyOp19
 70
     1
102
RTVSPropertyOp20
 70
     1
102
RTVSPropertyOp21
 70
     1
102
RTVSPropertyOp22
 70
     1
102
RTVSPropertyOp23
 70
     1
102
RTVSPropertyOp24
 70
     1
102
RTVSPropertyOp25
 70
     1
102
RTVSPropertyOp26
 70
     1
102
RTVSPropertyOp27
 70
     1
102
RTVSPropertyOp28
 70
     1
102
RTVSPropertyOp29
 70
     1
102
RTVSPropertyOp30
 70
     1
102
RTVSPropertyOp31
 70
     1
102
RTVSPropertyOp32
 70
     1
102
RTVSPropertyOp33
 70
     1
102
RTVSPropertyOp34
 70
     1
102
RTVSPropertyOp35
 70
     1
102
RTVSPropertyOp36
 70
     1
102
RTVSPropertyOp37
 70
     1
102
RTVSPropertyOp38
 70
     1
102
RTVSPropertyOp39
 70
     1
102
RTVSPropertyOp40
 70
     1
102
RTVSPropertyOp41
 70
     1
102
RTVSPropertyOp42
 70
     1
102
RTVSPropertyOp43
 70
     1
102
RTVSPropertyOp44
 70
     1
102
RTVSPropertyOp45
 70
     1
102
RTVSPropertyOp46
 70
     1
102
RTVSPropertyOp47
 70
     1
102
RTVSPropertyOp48
 70
     1
102
RTVSPropertyOp49
 70
     1
102
RTVSPropertyOp50
 70
     1
102
RTVSPropertyOp51
 70
     0
102
RTVSPropertyOp52
 70
     0
102
RTVSPropertyOp53
 70
     1
102
RTVSPropertyOp54
 70
     1
102
RTVSPropertyOp55
 70
     1
102
RTVSPropertyOp56
 70
     1
102
RTVSPropertyOp57
 70
     1
102
RTVSPropertyOp58
 70
     1
102
RTVSPropertyOp59
 70
     1
102
RTVSPropertyOp60
 70
     1
102
RTVSPropertyOp61
 70
     1
102
RTVSPropertyOp62
 70
     1
  0
XRECORD
  5
6E6
102
{ACAD_REACTORS
330
6E5
102
}
330
6E5
100
AcDbXrecord
280
     1
102
RTVSPost2010Prop28
280
     0
102
RTVSPost2010PropOp28
 70
     1
102
RTVSPost2010Prop29
280
     1
102
RTVSPost2010PropOp29
 70
     1
102
RTVSPost2010Prop30
280
     1
102
RTVSPost2010PropOp30
 70
     1
102
RTVSPost2010Prop31
280
     0
102
RTVSPost2010PropOp31
 70
     1
102
RTVSPost2010Prop32
280
     0
102
RTVSPost2010PropOp32
 70
     1
102
RTVSPost2010Prop33
280
     0
102
RTVSPost2010PropOp33
 70
     1
102
RTVSPost2010Prop34
280
     0
102
RTVSPost2010PropOp34
 70
     1
102
RTVSPost2010Prop35
280
     0
102
RTVSPost2010PropOp35
 70
     1
102
RTVSPost2010Prop36
280
     0
102
RTVSPost2010PropOp36
 70
     1
102
RTVSPost2010Prop37
 90
       50
102
RTVSPost2010PropOp37
 70
     1
102
RTVSPost2010Prop38
140
0.0
102
RTVSPost2010PropOp38
 70
     1
102
RTVSPost2010Prop39
140
1.0
102
RTVSPost2010PropOp39
 70
     1
102
RTVSPost2010Prop40
 90
        0
102
RTVSPost2010PropOp40
 70
     1
102
RTVSPost2010Prop41ColorIndex
 90
       18
102
RTVSPost2010Prop41ColorRGB
 90
        0
102
RTVSPost2010PropOp41
 70
     1
102
RTVSPost2010Prop42
 90
       50
102
RTVSPost2010PropOp42
 70
     1
102
RTVSPost2010Prop43
 90
        3
102
RTVSPost2010PropOp43
 70
     1
102
RTVSPost2010Prop44ColorIndex
 90
        5
102
RTVSPost2010Prop44ColorRGB
 90
      255
102
RTVSPost2010PropOp44
 70
     1
102
RTVSPost2010Prop45
280
     0
102
RTVSPost2010PropOp45
 70
     1
102
RTVSPost2010Prop46
 90
       50
102
RTVSPost2010PropOp46
 70
     1
102
RTVSPost2010Prop47
 90
       50
102
RTVSPost2010PropOp47
 70
     1
102
RTVSPost2010Prop48
 90
       50
102
RTVSPost2010PropOp48
 70
     1
102
RTVSPost2010Prop49
280
     0
102
RTVSPost2010PropOp49
 70
     1
102
RTVSPost2010Prop50
 90
       50
102
RTVSPost2010PropOp50
 70
     1
102
RTVSPost2010Prop51ColorIndex
 90
      256
102
RTVSPost2010Prop51ColorRGB
 90
-16777216
102
RTVSPost2010PropOp51
 70
     0
102
RTVSPost2010Prop52
140
1.0
102
RTVSPost2010PropOp52
 70
     0
102
RTVSPost2010Prop53
 90
        2
102
RTVSPost2010PropOp53
 70
     1
102
RTVSPost2010Prop54
  1
strokes_ogs.tif
102
RTVSPost2010PropOp54
 70
     1
102
RTVSPost2010Prop55
280
     0
102
RTVSPost2010PropOp55
 70
     1
102
RTVSPost2010Prop56
140
1.0
102
RTVSPost2010PropOp56
 70
     1
102
RTVSPost2010Prop57
140
1.0
102
RTVSPost2010PropOp57
 70
     1
102
RTVSPropertyOp0
 70
     1
102
RTVSPropertyOp1
 70
     1
102
RTVSPropertyOp2
 70
     1
102
RTVSPropertyOp3
 70
     1
102
RTVSPropertyOp4
 70
     1
102
RTVSPropertyOp5
 70
     1
102
RTVSPropertyOp6
 70
     1
102
RTVSPropertyOp7
 70
     1
102
RTVSPropertyOp8
 70
     1
102
RTVSPropertyOp9
 70
     1
102
RTVSPropertyOp10
 70
     1
102
RTVSPropertyOp11
 70
     1
102
RTVSPropertyOp12
 70
     1
102
RTVSPropertyOp13
 70
     1
102
RTVSPropertyOp14
 70
     1
102
RTVSPropertyOp15
 70
     1
102
RTVSPropertyOp16
 70
     1
102
RTVSPropertyOp17
 70
     1
102
RTVSPropertyOp18
 70
     1
102
RTVSPropertyOp19
 70
     1
102
RTVSPropertyOp20
 70
     1
102
RTVSPropertyOp21
 70
     1
102
RTVSPropertyOp22
 70
     1
102
RTVSPropertyOp23
 70
     1
102
RTVSPropertyOp24
 70
     1
102
RTVSPropertyOp25
 70
     1
102
RTVSPropertyOp26
 70
     1
102
RTVSPropertyOp27
 70
     1
102
RTVSPropertyOp28
 70
     1
102
RTVSPropertyOp29
 70
     1
102
RTVSPropertyOp30
 70
     1
102
RTVSPropertyOp31
 70
     1
102
RTVSPropertyOp32
 70
     1
102
RTVSPropertyOp33
 70
     1
102
RTVSPropertyOp34
 70
     1
102
RTVSPropertyOp35
 70
     1
102
RTVSPropertyOp36
 70
     1
102
RTVSPropertyOp37
 70
     1
102
RTVSPropertyOp38
 70
     1
102
RTVSPropertyOp39
 70
     1
102
RTVSPropertyOp40
 70
     1
102
RTVSPropertyOp41
 70
     1
102
RTVSPropertyOp42
 70
     1
102
RTVSPropertyOp43
 70
     1
102
RTVSPropertyOp44
 70
     1
102
RTVSPropertyOp45
 70
     1
102
RTVSPropertyOp46
 70
     1
102
RTVSPropertyOp47
 70
     1
102
RTVSPropertyOp48
 70
     1
102
RTVSPropertyOp49
 70
     1
102
RTVSPropertyOp50
 70
     1
102
RTVSPropertyOp51
 70
     0
102
RTVSPropertyOp52
 70
     0
102
RTVSPropertyOp53
 70
     1
102
RTVSPropertyOp54
 70
     1
102
RTVSPropertyOp55
 70
     1
102
RTVSPropertyOp56
 70
     1
102
RTVSPropertyOp57
 70
     1
102
RTVSPropertyOp58
 70
     1
102
RTVSPropertyOp59
 70
     1
102
RTVSPropertyOp60
 70
     1
102
RTVSPropertyOp61
 70
     1
102
RTVSPropertyOp62
 70
     1
  0
XRECORD
  5
6E8
102
{ACAD_REACTORS
330
6E7
102
}
330
6E7
100
AcDbXrecord
280
     1
102
RTVSPost2010Prop28
280
     0
102
RTVSPost2010PropOp28
 70
     1
102
RTVSPost2010Prop29
280
     1
102
RTVSPost2010PropOp29
 70
     1
102
RTVSPost2010Prop30
280
     1
102
RTVSPost2010PropOp30
 70
     1
102
RTVSPost2010Prop31
280
     0
102
RTVSPost2010PropOp31
 70
     1
102
RTVSPost2010Prop32
280
     0
102
RTVSPost2010PropOp32
 70
     1
102
RTVSPost2010Prop33
280
     0
102
RTVSPost2010PropOp33
 70
     1
102
RTVSPost2010Prop34
280
     0
102
RTVSPost2010PropOp34
 70
     1
102
RTVSPost2010Prop35
280
     0
102
RTVSPost2010PropOp35
 70
     1
102
RTVSPost2010Prop36
280
     0
102
RTVSPost2010PropOp36
 70
     1
102
RTVSPost2010Prop37
 90
       50
102
RTVSPost2010PropOp37
 70
     1
102
RTVSPost2010Prop38
140
0.0
102
RTVSPost2010PropOp38
 70
     1
102
RTVSPost2010Prop39
140
1.0
102
RTVSPost2010PropOp39
 70
     1
102
RTVSPost2010Prop40
 90
        0
102
RTVSPost2010PropOp40
 70
     1
102
RTVSPost2010Prop41ColorIndex
 90
       18
102
RTVSPost2010Prop41ColorRGB
 90
        0
102
RTVSPost2010PropOp41
 70
     1
102
RTVSPost2010Prop42
 90
       50
102
RTVSPost2010PropOp42
 70
     1
102
RTVSPost2010Prop43
 90
        3
102
RTVSPost2010PropOp43
 70
     1
102
RTVSPost2010Prop44ColorIndex
 90
        5
102
RTVSPost2010Prop44ColorRGB
 90
      255
102
RTVSPost2010PropOp44
 70
     1
102
RTVSPost2010Prop45
280
     0
102
RTVSPost2010PropOp45
 70
     1
102
RTVSPost2010Prop46
 90
       50
102
RTVSPost2010PropOp46
 70
     1
102
RTVSPost2010Prop47
 90
       50
102
RTVSPost2010PropOp47
 70
     1
102
RTVSPost2010Prop48
 90
       50
102
RTVSPost2010PropOp48
 70
     1
102
RTVSPost2010Prop49
280
     0
102
RTVSPost2010PropOp49
 70
     1
102
RTVSPost2010Prop50
 90
       50
102
RTVSPost2010PropOp50
 70
     1
102
RTVSPost2010Prop51ColorIndex
 90
      256
102
RTVSPost2010Prop51ColorRGB
 90
-16777216
102
RTVSPost2010PropOp51
 70
     0
102
RTVSPost2010Prop52
140
1.0
102
RTVSPost2010PropOp52
 70
     0
102
RTVSPost2010Prop53
 90
        2
102
RTVSPost2010PropOp53
 70
     1
102
RTVSPost2010Prop54
  1
strokes_ogs.tif
102
RTVSPost2010PropOp54
 70
     1
102
RTVSPost2010Prop55
280
     0
102
RTVSPost2010PropOp55
 70
     1
102
RTVSPost2010Prop56
140
1.0
102
RTVSPost2010PropOp56
 70
     1
102
RTVSPost2010Prop57
140
1.0
102
RTVSPost2010PropOp57
 70
     1
102
RTVSPropertyOp0
 70
     1
102
RTVSPropertyOp1
 70
     1
102
RTVSPropertyOp2
 70
     1
102
RTVSPropertyOp3
 70
     1
102
RTVSPropertyOp4
 70
     1
102
RTVSPropertyOp5
 70
     1
102
RTVSPropertyOp6
 70
     1
102
RTVSPropertyOp7
 70
     1
102
RTVSPropertyOp8
 70
     1
102
RTVSPropertyOp9
 70
     1
102
RTVSPropertyOp10
 70
     1
102
RTVSPropertyOp11
 70
     1
102
RTVSPropertyOp12
 70
     1
102
RTVSPropertyOp13
 70
     1
102
RTVSPropertyOp14
 70
     1
102
RTVSPropertyOp15
 70
     1
102
RTVSPropertyOp16
 70
     1
102
RTVSPropertyOp17
 70
     1
102
RTVSPropertyOp18
 70
     1
102
RTVSPropertyOp19
 70
     1
102
RTVSPropertyOp20
 70
     1
102
RTVSPropertyOp21
 70
     1
102
RTVSPropertyOp22
 70
     1
102
RTVSPropertyOp23
 70
     1
102
RTVSPropertyOp24
 70
     1
102
RTVSPropertyOp25
 70
     1
102
RTVSPropertyOp26
 70
     1
102
RTVSPropertyOp27
 70
     1
102
RTVSPropertyOp28
 70
     1
102
RTVSPropertyOp29
 70
     1
102
RTVSPropertyOp30
 70
     1
102
RTVSPropertyOp31
 70
     1
102
RTVSPropertyOp32
 70
     1
102
RTVSPropertyOp33
 70
     1
102
RTVSPropertyOp34
 70
     1
102
RTVSPropertyOp35
 70
     1
102
RTVSPropertyOp36
 70
     1
102
RTVSPropertyOp37
 70
     1
102
RTVSPropertyOp38
 70
     1
102
RTVSPropertyOp39
 70
     1
102
RTVSPropertyOp40
 70
     1
102
RTVSPropertyOp41
 70
     1
102
RTVSPropertyOp42
 70
     1
102
RTVSPropertyOp43
 70
     1
102
RTVSPropertyOp44
 70
     1
102
RTVSPropertyOp45
 70
     1
102
RTVSPropertyOp46
 70
     1
102
RTVSPropertyOp47
 70
     1
102
RTVSPropertyOp48
 70
     1
102
RTVSPropertyOp49
 70
     1
102
RTVSPropertyOp50
 70
     1
102
RTVSPropertyOp51
 70
     0
102
RTVSPropertyOp52
 70
     0
102
RTVSPropertyOp53
 70
     1
102
RTVSPropertyOp54
 70
     1
102
RTVSPropertyOp55
 70
     1
102
RTVSPropertyOp56
 70
     1
102
RTVSPropertyOp57
 70
     1
102
RTVSPropertyOp58
 70
     1
102
RTVSPropertyOp59
 70
     1
102
RTVSPropertyOp60
 70
     1
102
RTVSPropertyOp61
 70
     1
102
RTVSPropertyOp62
 70
     1
  0
XRECORD
  5
6DE
102
{ACAD_REACTORS
330
6DD
102
}
330
6DD
100
AcDbXrecord
280
     1
102
RTVSPost2010Prop28
280
     0
102
RTVSPost2010PropOp28
 70
     1
102
RTVSPost2010Prop29
280
     1
102
RTVSPost2010PropOp29
 70
     1
102
RTVSPost2010Prop30
280
     1
102
RTVSPost2010PropOp30
 70
     1
102
RTVSPost2010Prop31
280
     0
102
RTVSPost2010PropOp31
 70
     1
102
RTVSPost2010Prop32
280
     0
102
RTVSPost2010PropOp32
 70
     1
102
RTVSPost2010Prop33
280
     0
102
RTVSPost2010PropOp33
 70
     1
102
RTVSPost2010Prop34
280
     0
102
RTVSPost2010PropOp34
 70
     1
102
RTVSPost2010Prop35
280
     0
102
RTVSPost2010PropOp35
 70
     1
102
RTVSPost2010Prop36
280
     0
102
RTVSPost2010PropOp36
 70
     1
102
RTVSPost2010Prop37
 90
       50
102
RTVSPost2010PropOp37
 70
     1
102
RTVSPost2010Prop38
140
0.0
102
RTVSPost2010PropOp38
 70
     1
102
RTVSPost2010Prop39
140
1.0
102
RTVSPost2010PropOp39
 70
     1
102
RTVSPost2010Prop40
 90
        0
102
RTVSPost2010PropOp40
 70
     1
102
RTVSPost2010Prop41ColorIndex
 90
       18
102
RTVSPost2010Prop41ColorRGB
 90
        0
102
RTVSPost2010PropOp41
 70
     1
102
RTVSPost2010Prop42
 90
       50
102
RTVSPost2010PropOp42
 70
     1
102
RTVSPost2010Prop43
 90
        3
102
RTVSPost2010PropOp43
 70
     1
102
RTVSPost2010Prop44ColorIndex
 90
        5
102
RTVSPost2010Prop44ColorRGB
 90
      255
102
RTVSPost2010PropOp44
 70
     1
102
RTVSPost2010Prop45
280
     0
102
RTVSPost2010PropOp45
 70
     1
102
RTVSPost2010Prop46
 90
       50
102
RTVSPost2010PropOp46
 70
     1
102
RTVSPost2010Prop47
 90
       50
102
RTVSPost2010PropOp47
 70
     1
102
RTVSPost2010Prop48
 90
       50
102
RTVSPost2010PropOp48
 70
     1
102
RTVSPost2010Prop49
280
     0
102
RTVSPost2010PropOp49
 70
     1
102
RTVSPost2010Prop50
 90
       50
102
RTVSPost2010PropOp50
 70
     1
102
RTVSPost2010Prop51ColorIndex
 90
      256
102
RTVSPost2010Prop51ColorRGB
 90
-16777216
102
RTVSPost2010PropOp51
 70
     0
102
RTVSPost2010Prop52
140
1.0
102
RTVSPost2010PropOp52
 70
     0
102
RTVSPost2010Prop53
 90
        2
102
RTVSPost2010PropOp53
 70
     1
102
RTVSPost2010Prop54
  1
strokes_ogs.tif
102
RTVSPost2010PropOp54
 70
     1
102
RTVSPost2010Prop55
280
     0
102
RTVSPost2010PropOp55
 70
     1
102
RTVSPost2010Prop56
140
1.0
102
RTVSPost2010PropOp56
 70
     1
102
RTVSPost2010Prop57
140
1.0
102
RTVSPost2010PropOp57
 70
     1
102
RTVSPropertyOp0
 70
     1
102
RTVSPropertyOp1
 70
     1
102
RTVSPropertyOp2
 70
     1
102
RTVSPropertyOp3
 70
     1
102
RTVSPropertyOp4
 70
     1
102
RTVSPropertyOp5
 70
     1
102
RTVSPropertyOp6
 70
     1
102
RTVSPropertyOp7
 70
     1
102
RTVSPropertyOp8
 70
     1
102
RTVSPropertyOp9
 70
     1
102
RTVSPropertyOp10
 70
     1
102
RTVSPropertyOp11
 70
     1
102
RTVSPropertyOp12
 70
     1
102
RTVSPropertyOp13
 70
     1
102
RTVSPropertyOp14
 70
     1
102
RTVSPropertyOp15
 70
     1
102
RTVSPropertyOp16
 70
     1
102
RTVSPropertyOp17
 70
     1
102
RTVSPropertyOp18
 70
     1
102
RTVSPropertyOp19
 70
     1
102
RTVSPropertyOp20
 70
     1
102
RTVSPropertyOp21
 70
     1
102
RTVSPropertyOp22
 70
     1
102
RTVSPropertyOp23
 70
     1
102
RTVSPropertyOp24
 70
     1
102
RTVSPropertyOp25
 70
     1
102
RTVSPropertyOp26
 70
     1
102
RTVSPropertyOp27
 70
     1
102
RTVSPropertyOp28
 70
     1
102
RTVSPropertyOp29
 70
     1
102
RTVSPropertyOp30
 70
     1
102
RTVSPropertyOp31
 70
     1
102
RTVSPropertyOp32
 70
     1
102
RTVSPropertyOp33
 70
     1
102
RTVSPropertyOp34
 70
     1
102
RTVSPropertyOp35
 70
     1
102
RTVSPropertyOp36
 70
     1
102
RTVSPropertyOp37
 70
     1
102
RTVSPropertyOp38
 70
     1
102
RTVSPropertyOp39
 70
     1
102
RTVSPropertyOp40
 70
     1
102
RTVSPropertyOp41
 70
     1
102
RTVSPropertyOp42
 70
     1
102
RTVSPropertyOp43
 70
     1
102
RTVSPropertyOp44
 70
     1
102
RTVSPropertyOp45
 70
     1
102
RTVSPropertyOp46
 70
     1
102
RTVSPropertyOp47
 70
     1
102
RTVSPropertyOp48
 70
     1
102
RTVSPropertyOp49
 70
     1
102
RTVSPropertyOp50
 70
     1
102
RTVSPropertyOp51
 70
     0
102
RTVSPropertyOp52
 70
     0
102
RTVSPropertyOp53
 70
     1
102
RTVSPropertyOp54
 70
     1
102
RTVSPropertyOp55
 70
     1
102
RTVSPropertyOp56
 70
     1
102
RTVSPropertyOp57
 70
     1
102
RTVSPropertyOp58
 70
     1
102
RTVSPropertyOp59
 70
     1
102
RTVSPropertyOp60
 70
     1
102
RTVSPropertyOp61
 70
     1
102
RTVSPropertyOp62
 70
     1
  0
XRECORD
  5
6D2
102
{ACAD_REACTORS
330
6D1
102
}
330
6D1
100
AcDbXrecord
280
     1
102
RTVSPost2010Prop28
280
     0
102
RTVSPost2010PropOp28
 70
     1
102
RTVSPost2010Prop29
280
     1
102
RTVSPost2010PropOp29
 70
     1
102
RTVSPost2010Prop30
280
     1
102
RTVSPost2010PropOp30
 70
     1
102
RTVSPost2010Prop31
280
     0
102
RTVSPost2010PropOp31
 70
     1
102
RTVSPost2010Prop32
280
     0
102
RTVSPost2010PropOp32
 70
     1
102
RTVSPost2010Prop33
280
     0
102
RTVSPost2010PropOp33
 70
     1
102
RTVSPost2010Prop34
280
     0
102
RTVSPost2010PropOp34
 70
     1
102
RTVSPost2010Prop35
280
     0
102
RTVSPost2010PropOp35
 70
     1
102
RTVSPost2010Prop36
280
     0
102
RTVSPost2010PropOp36
 70
     1
102
RTVSPost2010Prop37
 90
       50
102
RTVSPost2010PropOp37
 70
     1
102
RTVSPost2010Prop38
140
0.0
102
RTVSPost2010PropOp38
 70
     1
102
RTVSPost2010Prop39
140
1.0
102
RTVSPost2010PropOp39
 70
     1
102
RTVSPost2010Prop40
 90
        0
102
RTVSPost2010PropOp40
 70
     1
102
RTVSPost2010Prop41ColorIndex
 90
       18
102
RTVSPost2010Prop41ColorRGB
 90
        0
102
RTVSPost2010PropOp41
 70
     1
102
RTVSPost2010Prop42
 90
       50
102
RTVSPost2010PropOp42
 70
     1
102
RTVSPost2010Prop43
 90
        3
102
RTVSPost2010PropOp43
 70
     1
102
RTVSPost2010Prop44ColorIndex
 90
        5
102
RTVSPost2010Prop44ColorRGB
 90
      255
102
RTVSPost2010PropOp44
 70
     1
102
RTVSPost2010Prop45
280
     0
102
RTVSPost2010PropOp45
 70
     1
102
RTVSPost2010Prop46
 90
       50
102
RTVSPost2010PropOp46
 70
     1
102
RTVSPost2010Prop47
 90
       50
102
RTVSPost2010PropOp47
 70
     1
102
RTVSPost2010Prop48
 90
       50
102
RTVSPost2010PropOp48
 70
     1
102
RTVSPost2010Prop49
280
     0
102
RTVSPost2010PropOp49
 70
     1
102
RTVSPost2010Prop50
 90
       50
102
RTVSPost2010PropOp50
 70
     1
102
RTVSPost2010Prop51ColorIndex
 90
      256
102
RTVSPost2010Prop51ColorRGB
 90
-16777216
102
RTVSPost2010PropOp51
 70
     0
102
RTVSPost2010Prop52
140
1.0
102
RTVSPost2010PropOp52
 70
     0
102
RTVSPost2010Prop53
 90
        2
102
RTVSPost2010PropOp53
 70
     1
102
RTVSPost2010Prop54
  1
strokes_ogs.tif
102
RTVSPost2010PropOp54
 70
     1
102
RTVSPost2010Prop55
280
     0
102
RTVSPost2010PropOp55
 70
     1
102
RTVSPost2010Prop56
140
1.0
102
RTVSPost2010PropOp56
 70
     1
102
RTVSPost2010Prop57
140
1.0
102
RTVSPost2010PropOp57
 70
     1
102
RTVSPropertyOp0
 70
     1
102
RTVSPropertyOp1
 70
     1
102
RTVSPropertyOp2
 70
     1
102
RTVSPropertyOp3
 70
     1
102
RTVSPropertyOp4
 70
     1
102
RTVSPropertyOp5
 70
     1
102
RTVSPropertyOp6
 70
     1
102
RTVSPropertyOp7
 70
     1
102
RTVSPropertyOp8
 70
     1
102
RTVSPropertyOp9
 70
     1
102
RTVSPropertyOp10
 70
     1
102
RTVSPropertyOp11
 70
     1
102
RTVSPropertyOp12
 70
     1
102
RTVSPropertyOp13
 70
     1
102
RTVSPropertyOp14
 70
     1
102
RTVSPropertyOp15
 70
     1
102
RTVSPropertyOp16
 70
     1
102
RTVSPropertyOp17
 70
     1
102
RTVSPropertyOp18
 70
     1
102
RTVSPropertyOp19
 70
     1
102
RTVSPropertyOp20
 70
     1
102
RTVSPropertyOp21
 70
     1
102
RTVSPropertyOp22
 70
     1
102
RTVSPropertyOp23
 70
     1
102
RTVSPropertyOp24
 70
     1
102
RTVSPropertyOp25
 70
     1
102
RTVSPropertyOp26
 70
     1
102
RTVSPropertyOp27
 70
     1
102
RTVSPropertyOp28
 70
     1
102
RTVSPropertyOp29
 70
     1
102
RTVSPropertyOp30
 70
     1
102
RTVSPropertyOp31
 70
     1
102
RTVSPropertyOp32
 70
     1
102
RTVSPropertyOp33
 70
     1
102
RTVSPropertyOp34
 70
     1
102
RTVSPropertyOp35
 70
     1
102
RTVSPropertyOp36
 70
     1
102
RTVSPropertyOp37
 70
     1
102
RTVSPropertyOp38
 70
     1
102
RTVSPropertyOp39
 70
     1
102
RTVSPropertyOp40
 70
     1
102
RTVSPropertyOp41
 70
     1
102
RTVSPropertyOp42
 70
     1
102
RTVSPropertyOp43
 70
     1
102
RTVSPropertyOp44
 70
     1
102
RTVSPropertyOp45
 70
     1
102
RTVSPropertyOp46
 70
     1
102
RTVSPropertyOp47
 70
     1
102
RTVSPropertyOp48
 70
     1
102
RTVSPropertyOp49
 70
     1
102
RTVSPropertyOp50
 70
     1
102
RTVSPropertyOp51
 70
     0
102
RTVSPropertyOp52
 70
     0
102
RTVSPropertyOp53
 70
     1
102
RTVSPropertyOp54
 70
     1
102
RTVSPropertyOp55
 70
     1
102
RTVSPropertyOp56
 70
     1
102
RTVSPropertyOp57
 70
     1
102
RTVSPropertyOp58
 70
     1
102
RTVSPropertyOp59
 70
     1
102
RTVSPropertyOp60
 70
     1
102
RTVSPropertyOp61
 70
     1
102
RTVSPropertyOp62
 70
     1
  0
XRECORD
  5
6EA
102
{ACAD_REACTORS
330
6E9
102
}
330
6E9
100
AcDbXrecord
280
     1
102
RTVSPost2010Prop28
280
     0
102
RTVSPost2010PropOp28
 70
     1
102
RTVSPost2010Prop29
280
     1
102
RTVSPost2010PropOp29
 70
     1
102
RTVSPost2010Prop30
280
     1
102
RTVSPost2010PropOp30
 70
     1
102
RTVSPost2010Prop31
280
     0
102
RTVSPost2010PropOp31
 70
     1
102
RTVSPost2010Prop32
280
     0
102
RTVSPost2010PropOp32
 70
     1
102
RTVSPost2010Prop33
280
     0
102
RTVSPost2010PropOp33
 70
     1
102
RTVSPost2010Prop34
280
     0
102
RTVSPost2010PropOp34
 70
     1
102
RTVSPost2010Prop35
280
     0
102
RTVSPost2010PropOp35
 70
     1
102
RTVSPost2010Prop36
280
     0
102
RTVSPost2010PropOp36
 70
     1
102
RTVSPost2010Prop37
 90
       50
102
RTVSPost2010PropOp37
 70
     1
102
RTVSPost2010Prop38
140
0.0
102
RTVSPost2010PropOp38
 70
     1
102
RTVSPost2010Prop39
140
1.0
102
RTVSPost2010PropOp39
 70
     1
102
RTVSPost2010Prop40
 90
        0
102
RTVSPost2010PropOp40
 70
     1
102
RTVSPost2010Prop41ColorIndex
 90
       18
102
RTVSPost2010Prop41ColorRGB
 90
        0
102
RTVSPost2010PropOp41
 70
     1
102
RTVSPost2010Prop42
 90
       50
102
RTVSPost2010PropOp42
 70
     1
102
RTVSPost2010Prop43
 90
        3
102
RTVSPost2010PropOp43
 70
     1
102
RTVSPost2010Prop44ColorIndex
 90
        5
102
RTVSPost2010Prop44ColorRGB
 90
      255
102
RTVSPost2010PropOp44
 70
     1
102
RTVSPost2010Prop45
280
     0
102
RTVSPost2010PropOp45
 70
     1
102
RTVSPost2010Prop46
 90
       50
102
RTVSPost2010PropOp46
 70
     1
102
RTVSPost2010Prop47
 90
       50
102
RTVSPost2010PropOp47
 70
     1
102
RTVSPost2010Prop48
 90
       50
102
RTVSPost2010PropOp48
 70
     1
102
RTVSPost2010Prop49
280
     0
102
RTVSPost2010PropOp49
 70
     1
102
RTVSPost2010Prop50
 90
       50
102
RTVSPost2010PropOp50
 70
     1
102
RTVSPost2010Prop51ColorIndex
 90
      256
102
RTVSPost2010Prop51ColorRGB
 90
-16777216
102
RTVSPost2010PropOp51
 70
     0
102
RTVSPost2010Prop52
140
1.0
102
RTVSPost2010PropOp52
 70
     0
102
RTVSPost2010Prop53
 90
        2
102
RTVSPost2010PropOp53
 70
     1
102
RTVSPost2010Prop54
  1
strokes_ogs.tif
102
RTVSPost2010PropOp54
 70
     1
102
RTVSPost2010Prop55
280
     0
102
RTVSPost2010PropOp55
 70
     1
102
RTVSPost2010Prop56
140
1.0
102
RTVSPost2010PropOp56
 70
     1
102
RTVSPost2010Prop57
140
1.0
102
RTVSPost2010PropOp57
 70
     1
102
RTVSPropertyOp0
 70
     1
102
RTVSPropertyOp1
 70
     1
102
RTVSPropertyOp2
 70
     1
102
RTVSPropertyOp3
 70
     1
102
RTVSPropertyOp4
 70
     1
102
RTVSPropertyOp5
 70
     1
102
RTVSPropertyOp6
 70
     1
102
RTVSPropertyOp7
 70
     1
102
RTVSPropertyOp8
 70
     1
102
RTVSPropertyOp9
 70
     1
102
RTVSPropertyOp10
 70
     1
102
RTVSPropertyOp11
 70
     1
102
RTVSPropertyOp12
 70
     1
102
RTVSPropertyOp13
 70
     1
102
RTVSPropertyOp14
 70
     1
102
RTVSPropertyOp15
 70
     1
102
RTVSPropertyOp16
 70
     1
102
RTVSPropertyOp17
 70
     1
102
RTVSPropertyOp18
 70
     1
102
RTVSPropertyOp19
 70
     1
102
RTVSPropertyOp20
 70
     1
102
RTVSPropertyOp21
 70
     1
102
RTVSPropertyOp22
 70
     1
102
RTVSPropertyOp23
 70
     1
102
RTVSPropertyOp24
 70
     1
102
RTVSPropertyOp25
 70
     1
102
RTVSPropertyOp26
 70
     1
102
RTVSPropertyOp27
 70
     1
102
RTVSPropertyOp28
 70
     1
102
RTVSPropertyOp29
 70
     1
102
RTVSPropertyOp30
 70
     1
102
RTVSPropertyOp31
 70
     1
102
RTVSPropertyOp32
 70
     1
102
RTVSPropertyOp33
 70
     1
102
RTVSPropertyOp34
 70
     1
102
RTVSPropertyOp35
 70
     1
102
RTVSPropertyOp36
 70
     1
102
RTVSPropertyOp37
 70
     1
102
RTVSPropertyOp38
 70
     1
102
RTVSPropertyOp39
 70
     1
102
RTVSPropertyOp40
 70
     1
102
RTVSPropertyOp41
 70
     1
102
RTVSPropertyOp42
 70
     1
102
RTVSPropertyOp43
 70
     1
102
RTVSPropertyOp44
 70
     1
102
RTVSPropertyOp45
 70
     1
102
RTVSPropertyOp46
 70
     1
102
RTVSPropertyOp47
 70
     1
102
RTVSPropertyOp48
 70
     1
102
RTVSPropertyOp49
 70
     1
102
RTVSPropertyOp50
 70
     1
102
RTVSPropertyOp51
 70
     0
102
RTVSPropertyOp52
 70
     0
102
RTVSPropertyOp53
 70
     1
102
RTVSPropertyOp54
 70
     1
102
RTVSPropertyOp55
 70
     1
102
RTVSPropertyOp56
 70
     1
102
RTVSPropertyOp57
 70
     1
102
RTVSPropertyOp58
 70
     1
102
RTVSPropertyOp59
 70
     1
102
RTVSPropertyOp60
 70
     1
102
RTVSPropertyOp61
 70
     1
102
RTVSPropertyOp62
 70
     1
  0
ENDSEC
  0
EOF
