  0
SECTION
  2
HEADER
  9
$ACADVER
  1
AC1009
  9
$DWGCODEPAGE
  3
ansi_932
  9
$INSBASE
 10
0.0
 20
0.0
 30
0.0
  9
$EXTMIN
 10
-720.0
 20
-1081.3864528125
 30
0.0
  9
$EXTMAX
 10
720.0
 20
1064.722705
 30
0.0
  9
$LIMMIN
 10
0.0
 20
0.0
  9
$LIMMAX
 10
0.0
 20
0.0
  9
$ORTHOMODE
 70
     0
  9
$REGENMODE
 70
     1
  9
$FILLMODE
 70
     1
  9
$QTEXTMODE
 70
     0
  9
$MIRRTEXT
 70
     1
  9
$DRAGMODE
 70
     2
  9
$LTSCALE
 40
40.64
  9
$OSMODE
 70
  8423
  9
$ATTMODE
 70
     1
  9
$TEXTSIZE
 40
0.0
  9
$TRACEWID
 40
1.0
  9
$TEXTSTYLE
  7
STANDARD
  9
$CLAYER
  8
DATA
  9
$CELTYPE
  6
BYLAYER
  9
$CECOLOR
 62
   256
  9
$DIMSCALE
 40
1.0
  9
$DIMASZ
 40
0.18
  9
$DIMEXO
 40
0.0625
  9
$DIMDLI
 40
0.38
  9
$DIMRND
 40
0.0
  9
$DIMDLE
 40
0.0
  9
$DIMEXE
 40
0.18
  9
$DIMTP
 40
0.0
  9
$DIMTM
 40
0.0
  9
$DIMTXT
 40
0.18
  9
$DIMCEN
 40
0.09
  9
$DIMTSZ
 40
0.0
  9
$DIMTOL
 70
     0
  9
$DIMLIM
 70
     0
  9
$DIMTIH
 70
     1
  9
$DIMTOH
 70
     1
  9
$DIMSE1
 70
     0
  9
$DIMSE2
 70
     0
  9
$DIMTAD
 70
     0
  9
$DIMZIN
 70
     0
  9
$DIMBLK
  1

  9
$DIMASO
 70
     1
  9
$DIMSHO
 70
     1
  9
$DIMPOST
  1

  9
$DIMAPOST
  1

  9
$DIMALT
 70
     0
  9
$DIMALTD
 70
     2
  9
$DIMALTF
 40
25.4
  9
$DIMLFAC
 40
1.0
  9
$DIMTOFL
 70
     0
  9
$DIMTVP
 40
0.0
  9
$DIMTIX
 70
     0
  9
$DIMSOXD
 70
     0
  9
$DIMSAH
 70
     0
  9
$DIMBLK1
  1

  9
$DIMBLK2
  1

  9
$DIMSTYLE
  2
STANDARD
  9
$DIMCLRD
 70
     0
  9
$DIMCLRE
 70
     0
  9
$DIMCLRT
 70
     0
  9
$DIMTFAC
 40
1.0
  9
$DIMGAP
 40
0.09
  9
$LUNITS
 70
     2
  9
$LUPREC
 70
     2
  9
$SKETCHINC
 40
0.1
  9
$FILLETRAD
 40
0.0
  9
$AUNITS
 70
     0
  9
$AUPREC
 70
     0
  9
$MENU
  1
acad
  9
$ELEVATION
 40
0.0
  9
$PELEVATION
 40
0.0
  9
$THICKNESS
 40
0.0
  9
$LIMCHECK
 70
     0
  9
$CHAMFERA
 40
0.0
  9
$CHAMFERB
 40
0.0
  9
$SKPOLY
 70
     0
  9
$TDCREATE
 40
2459566.668884491
  9
$TDUPDATE
 40
2459566.669530683
  9
$TDINDWG
 40
2459566.294531157
  9
$TDUSRTIMER
 40
0.0006466782
  9
$USRTIMER
 70
     1
  9
$ANGBASE
 50
0.0
  9
$ANGDIR
 70
     0
  9
$PDMODE
 70
     1
  9
$PDSIZE
 40
-2.0
  9
$PLINEWID
 40
0.0
  9
$COORDS
 70
     1
  9
$SPLFRAME
 70
     0
  9
$SPLINETYPE
 70
     6
  9
$SPLINESEGS
 70
     8
  9
$ATTDIA
 70
     1
  9
$ATTREQ
 70
     1
  9
$HANDLING
 70
     1
  9
$HANDSEED
  5
96F
  9
$SURFTAB1
 70
     6
  9
$SURFTAB2
 70
     6
  9
$SURFTYPE
 70
     6
  9
$SURFU
 70
     6
  9
$SURFV
 70
     6
  9
$UCSNAME
  2

  9
$UCSORG
 10
0.0
 20
0.0
 30
0.0
  9
$UCSXDIR
 10
1.0
 20
0.0
 30
0.0
  9
$UCSYDIR
 10
0.0
 20
1.0
 30
0.0
  9
$PUCSNAME
  2

  9
$PUCSORG
 10
0.0
 20
0.0
 30
0.0
  9
$PUCSXDIR
 10
1.0
 20
0.0
 30
0.0
  9
$PUCSYDIR
 10
0.0
 20
1.0
 30
0.0
  9
$USERI1
 70
     0
  9
$USERI2
 70
     0
  9
$USERI3
 70
     0
  9
$USERI4
 70
     0
  9
$USERI5
 70
     0
  9
$USERR1
 40
0.0
  9
$USERR2
 40
0.0
  9
$USERR3
 40
0.0
  9
$USERR4
 40
0.0
  9
$USERR5
 40
0.0
  9
$WORLDVIEW
 70
     1
  9
$SHADEDGE
 70
     3
  9
$SHADEDIF
 70
    70
  9
$TILEMODE
 70
     1
  9
$MAXACTVP
 70
    64
  9
$PLIMCHECK
 70
     0
  9
$PEXTMIN
 10
1.000000000000000E+20
 20
1.000000000000000E+20
 30
1.000000000000000E+20
  9
$PEXTMAX
 10
-1.000000000000000E+20
 20
-1.000000000000000E+20
 30
-1.000000000000000E+20
  9
$PLIMMIN
 10
0.0
 20
0.0
  9
$PLIMMAX
 10
12.0
 20
9.0
  9
$UNITMODE
 70
     0
  9
$VISRETAIN
 70
     0
  9
$PLINEGEN
 70
     1
  9
$PSLTSCALE
 70
     0
  0
ENDSEC
  0
SECTION
  2
TABLES
  0
TABLE
  2
VPORT
 70
     1
  0
VPORT
  2
*ACTIVE
 70
     0
 10
0.0
 20
0.0
 11
1.0
 21
1.0
 12
0.0
 22
-3.531814999999824
 13
0.0
 23
0.0
 14
1.0
 24
1.0
 15
0.0
 25
0.0
 16
0.0
 26
0.0
 36
1.0
 17
0.0
 27
0.0
 37
0.0
 40
2136.50904
 41
2.409090909090909
 42
50.0
 43
0.0
 44
0.0
 50
0.0
 51
0.0
 71
     0
 72
  2000
 73
     1
 74
     1
 75
     0
 76
     0
 77
     0
 78
     0
  0
ENDTAB
  0
TABLE
  2
LTYPE
 70
    11
  0
LTYPE
  2
CONTINUOUS
 70
     0
  3
Solid line
 72
    65
 73
     0
 40
0.0
  0
ENDTAB
  0
TABLE
  2
LAYER
 70
     5
  0
LAYER
  2
0
 70
     0
 62
     7
  6
CONTINUOUS
  0
LAYER
  2
HIBINO-BASE
 70
     0
 62
     7
  6
CONTINUOUS
  0
LAYER
  2
SPEC
 70
     0
 62
     7
  6
CONTINUOUS
  0
LAYER
  2
DIMNSIONS
 70
     0
 62
     7
  6
CONTINUOUS
  0
LAYER
  2
DATA
 70
     0
 62
     7
  6
CONTINUOUS
  0
ENDTAB
  0
TABLE
  2
STYLE
 70
     2
  0
STYLE
  2
STANDARD
 70
     0
 40
0.0
 41
1.0
 50
0.0
 71
     0
 42
0.0
  3
txt
  4
BIGFONT.SHX
  0
ENDTAB
  0
TABLE
  2
VIEW
 70
     0
  0
ENDTAB
  0
TABLE
  2
UCS
 70
     0
  0
ENDTAB
  0
TABLE
  2
APPID
 70
     3
  0
APPID
  2
ACAD
 70
     0
  0
APPID
  2
ACAD_MLEADERVER
 70
     0
  0
APPID
  2
ACADANNOPO
 70
     0
  0
ENDTAB
  0
TABLE
  2
DIMSTYLE
 70
     1
  0
DIMSTYLE
  2
STANDARD
 70
     0
  3

  4

  5

  6

  7

 40
1.0
 41
0.18
 42
0.0625
 43
0.38
 44
0.18
 45
0.0
 46
0.0
 47
0.0
 48
0.0
140
0.18
141
0.09
142
0.0
143
25.4
144
1.0
145
0.0
146
1.0
147
0.09
 71
     0
 72
     0
 73
     1
 74
     1
 75
     0
 76
     0
 77
     0
 78
     0
170
     0
171
     2
172
     0
173
     0
174
     0
175
     0
176
     0
177
     0
178
     0
  0
ENDTAB
  0
ENDSEC
  0
SECTION
  2
BLOCKS
  0
BLOCK
  8
DATA
  2
$MODEL_SPACE
 70
     0
 10
0.0
 20
0.0
 30
0.0
  3
$MODEL_SPACE
  1

  0
ENDBLK
  5
6EA
  8
DATA
  6
CONTINUOUS
  0
BLOCK
 67
     1
  8
DATA
  2
$PAPER_SPACE
 70
     0
 10
0.0
 20
0.0
 30
0.0
  3
$PAPER_SPACE
  1

  0
ENDBLK
  5
6E8
 67
     1
  8
DATA
  6
CONTINUOUS
  0
ENDSEC
  0
SECTION
  2
ENTITIES
  0
LINE
  5
2C
  8
HIBINO-BASE
  6
CONTINUOUS
 62
     7
 10
-720.0
 20
1064.722705
 30
0.0
 11
720.0
 21
1064.722705
 31
0.0
  0
LINE
  5
2D
  8
HIBINO-BASE
  6
CONTINUOUS
 62
     7
 10
720.0
 20
-1015.277295
 30
0.0
 11
-720.0
 21
-1015.277295
 31
0.0
  0
LINE
  5
2E
  8
HIBINO-BASE
  6
CONTINUOUS
 62
     7
 10
-720.0
 20
-1015.277295
 30
0.0
 11
-720.0
 21
1064.722705
 31
0.0
  0
LINE
  5
2F
  8
HIBINO-BASE
  6
CONTINUOUS
 62
     7
 10
720.0
 20
1064.722705
 30
0.0
 11
720.0
 21
-1015.277295
 31
0.0
  0
LINE
  5
30
  8
HIBINO-BASE
  6
CONTINUOUS
 62
     7
 10
0.0000000000001137
 20
-835.277295
 30
0.0
 11
720.0
 21
-835.277295
 31
0.0
  0
LINE
  5
31
  8
HIBINO-BASE
  6
CONTINUOUS
 62
     7
 10
0.0000000000001137
 20
-1015.277295
 30
0.0
 11
0.0000000000001137
 21
-835.277295
 31
0.0
  0
TEXT
  5
32
  8
HIBINO-BASE
 62
     7
 10
7.200000000000159
 20
-855.3468416666664
 30
0.0
 40
13.03072916666667
  1
NOTE
 41
0.7
 11
7.200000000000159
 21
-842.3161124999997
 31
0.0
 73
     3
  0
LINE
  5
33
  8
HIBINO-BASE
  6
CONTINUOUS
 62
     7
 10
280.0000000000001
 20
-1015.277295
 30
0.0
 11
280.0000000000001
 21
-835.277295
 31
0.0
  0
TEXT
  5
34
  8
HIBINO-BASE
 62
     7
 10
287.1999999999999
 20
-855.3468416666664
 30
0.0
 40
13.03072916666667
  1
TITLE
 41
0.7
 11
287.1999999999999
 21
-842.3161124999997
 31
0.0
 73
     3
  0
LINE
  5
35
  8
HIBINO-BASE
  6
CONTINUOUS
 62
     7
 10
0.0000000000001137
 20
-935.277295
 30
0.0
 11
720.0
 21
-935.277295
 31
0.0
  0
TEXT
  5
36
  8
HIBINO-BASE
 62
     7
 10
387.1999999999999
 20
-954.8962816666667
 30
0.0
 40
13.03072916666667
  1
DRAWN
 41
0.7
 11
387.1999999999999
 21
-941.8655525
 31
0.0
 73
     3
  0
TEXT
  5
37
  8
HIBINO-BASE
 62
     7
 10
187.1999999999999
 20
-954.8962816666667
 30
0.0
 40
13.03072916666667
  1
DATE
 41
0.7
 11
187.1999999999999
 21
-941.8655525
 31
0.0
 73
     3
  0
TEXT
  5
38
  8
HIBINO-BASE
 62
     7
 10
107.1999999999999
 20
-954.8962816666667
 30
0.0
 40
13.03072916666667
  1
SCALE
 41
0.7
 11
107.1999999999999
 21
-941.8655525
 31
0.0
 73
     3
  0
TEXT
  5
39
  8
HIBINO-BASE
 62
     7
 10
287.1999999999999
 20
-954.8962816666667
 30
0.0
 40
13.03072916666667
  1
DESIGN
 41
0.7
 11
287.1999999999999
 21
-941.8655525
 31
0.0
 73
     3
  0
TEXT
  5
3A
  8
HIBINO-BASE
 62
     7
 10
587.1999999999999
 20
-954.8962816666667
 30
0.0
 40
13.03072916666667
  1
DRAWING NO.
 41
0.7
 11
587.1999999999999
 21
-941.8655525
 31
0.0
 73
     3
  0
TEXT
  5
3B
  8
HIBINO-BASE
 62
     7
 10
487.1999999999999
 20
-954.8962816666667
 30
0.0
 40
13.03072916666667
  1
CHECK
 41
0.7
 11
487.1999999999999
 21
-941.8655525
 31
0.0
 73
     3
  0
LINE
  5
3C
  8
HIBINO-BASE
  6
CONTINUOUS
 62
     7
 10
115.0000000000001
 20
-1005.277295
 30
0.0
 11
145.0000000000001
 21
-975.277295
 31
0.0
  0
TEXT
  5
3D
  8
HIBINO-BASE
 62
     7
 10
110.0000000000001
 20
-984.1488416666667
 30
0.0
 40
13.03072916666667
  1
1
 41
0.7
 11
110.0000000000001
 21
-971.1181125
 31
0.0
 73
     3
  0
LINE
  5
3E
  8
HIBINO-BASE
  6
CONTINUOUS
 62
     7
 10
100.0000000000001
 20
-1015.277295
 30
0.0
 11
100.0000000000001
 21
-935.277295
 31
0.0
  0
LINE
  5
3F
  8
HIBINO-BASE
  6
CONTINUOUS
 62
     7
 10
179.9999999999999
 20
-1015.277295
 30
0.0
 11
179.9999999999999
 21
-935.277295
 31
0.0
  0
LINE
  5
40
  8
HIBINO-BASE
  6
CONTINUOUS
 62
     7
 10
379.9999999999999
 20
-935.277295
 30
0.0
 11
379.9999999999999
 21
-1015.277295
 31
0.0
  0
LINE
  5
41
  8
HIBINO-BASE
  6
CONTINUOUS
 62
     7
 10
580.0000000000001
 20
-935.277295
 30
0.0
 11
580.0000000000001
 21
-1015.277295
 31
0.0
  0
LINE
  5
42
  8
HIBINO-BASE
  6
CONTINUOUS
 62
     7
 10
479.9999999999999
 20
-1015.277295
 30
0.0
 11
479.9999999999999
 21
-935.277295
 31
0.0
  0
TEXT
  5
43
  8
HIBINO-BASE
 62
     7
 10
186.8523200000001
 20
-992.3681216666665
 30
0.0
 40
13.03072916666667
  1
'21.12.
 41
0.7
 11
186.8523200000001
 21
-979.3373924999999
 31
0.0
 73
     3
  0
TEXT
  5
44
  8
HIBINO-BASE
 62
     7
 10
140.0000000000001
 20
-999.1488416666667
 30
0.0
 40
13.03072916666667
  1
8
 41
0.7
 11
140.0000000000001
 21
-986.1181125
 31
0.0
 73
     3
  0
TEXT
  5
45
  8
HIBINO-BASE
 62
     7
 10
392.046480088277
 20
-992.3681216666665
 30
0.0
 40
13.03072916666667
  1
N.Sasaki
 41
0.7
 11
392.046480088277
 21
-979.3373924999999
 31
0.0
 73
     3
  0
TEXT
  5
46
  8
HIBINO-BASE
 62
     7
 10
31.06666666666695
 20
-999.4692949999998
 30
0.0
 40
26.06145833333333
  1
A4
 41
0.7
 11
31.06666666666695
 21
-973.4078366666664
 31
0.0
 73
     3
  0
TEXT
  5
47
  8
HIBINO-BASE
 62
     7
 10
7.666666666666629
 20
-956.2329350000001
 30
0.0
 40
13.03072916666667
  1
PAPER SIZE
 41
0.7
 11
7.666666666666629
 21
-943.2022058333334
 31
0.0
 73
     3
  0
TEXT
  5
48
  8
HIBINO-BASE
 62
     7
 10
-662.5279999999998
 20
-1066.5467174
 30
0.0
 40
28.8003534375
  1
Hibino Corporation
 41
0.7
 11
-662.5279999999998
 21
-1037.7463639625
 31
0.0
 73
     3
  0
TEXT
  5
49
  8
HIBINO-BASE
 62
     7
 10
400.5471200000001
 20
-1066.5467174
 30
0.0
 40
28.8003534375
  1
ヒビノ株式会社
 41
0.7
 11
400.5471200000001
 21
-1037.7463639625
 31
0.0
 73
     3
  0
LINE
  5
4A
  8
SPEC
  6
CONTINUOUS
 62
     7
 10
-659.9999999999999
 20
984.7227050000001
 30
0.0
 11
520.0000000000001
 21
984.7227050000001
 31
0.0
  0
LINE
  5
4B
  8
SPEC
  6
CONTINUOUS
 62
     7
 10
-659.9999999999999
 20
954.7227050000001
 30
0.0
 11
520.0000000000001
 21
954.7227050000001
 31
0.0
  0
LINE
  5
4C
  8
SPEC
  6
CONTINUOUS
 62
     7
 10
-659.9999999999999
 20
984.7227050000001
 30
0.0
 11
-659.9999999999999
 21
414.722705
 31
0.0
  0
TEXT
  5
4D
  8
SPEC
 62
     7
 10
-649.9999999999999
 20
995.8688649999999
 30
0.0
 40
19.54609375
  1
仕様
 41
0.7
 11
-649.9999999999999
 21
1015.41495875
 31
0.0
 73
     3
  0
LINE
  5
4E
  8
SPEC
  6
CONTINUOUS
 62
     7
 10
-500.0
 20
954.7227050000001
 30
0.0
 11
-500.0
 21
714.7227050000002
 31
0.0
  0
LINE
  5
4F
  8
SPEC
  6
CONTINUOUS
 62
     7
 10
520.0000000000001
 20
984.7227050000001
 30
0.0
 11
520.0000000000001
 21
414.722705
 31
0.0
  0
TEXT
  5
50
  8
SPEC
 62
     7
 10
-652.8000000000001
 20
451.0260472222222
 30
0.0
 40
15.20251736111112
  1
寸法(W×H×D)
 41
0.7
 11
-652.8000000000001
 21
466.2285645833333
 31
0.0
 73
     3
  0
TEXT
  5
51
  8
SPEC
 62
     7
 10
-652.8000000000001
 20
421.0260472222222
 30
0.0
 40
15.20251736111112
  1
質量
 41
0.7
 11
-652.8000000000001
 21
436.2285645833333
 31
0.0
 73
     3
  0
LINE
  5
52
  8
SPEC
  6
CONTINUOUS
 62
     7
 10
-500.0
 20
924.7227050000001
 30
0.0
 11
520.0000000000001
 21
924.7227050000001
 31
0.0
  0
LINE
  5
53
  8
SPEC
  6
CONTINUOUS
 62
     7
 10
-500.0
 20
894.7227050000001
 30
0.0
 11
520.0000000000001
 21
894.7227050000001
 31
0.0
  0
LINE
  5
54
  8
SPEC
  6
CONTINUOUS
 62
     7
 10
-659.9999999999999
 20
864.7227050000001
 30
0.0
 11
520.0000000000001
 21
864.7227050000001
 31
0.0
  0
LINE
  5
55
  8
SPEC
  6
CONTINUOUS
 62
     7
 10
-500.0
 20
834.7227050000001
 30
0.0
 11
520.0000000000001
 21
834.7227050000001
 31
0.0
  0
LINE
  5
56
  8
SPEC
  6
CONTINUOUS
 62
     7
 10
-500.0
 20
804.722705
 30
0.0
 11
520.0000000000001
 21
804.722705
 31
0.0
  0
LINE
  5
57
  8
SPEC
  6
CONTINUOUS
 62
     7
 10
-659.9999999999999
 20
774.722705
 30
0.0
 11
520.0000000000001
 21
774.722705
 31
0.0
  0
LINE
  5
58
  8
SPEC
  6
CONTINUOUS
 62
     7
 10
-500.0
 20
744.722705
 30
0.0
 11
520.0000000000001
 21
744.722705
 31
0.0
  0
LINE
  5
59
  8
SPEC
  6
CONTINUOUS
 62
     7
 10
-659.9999999999999
 20
714.722705
 30
0.0
 11
520.0000000000001
 21
714.722705
 31
0.0
  0
LINE
  5
5A
  8
SPEC
  6
CONTINUOUS
 62
     7
 10
-659.9999999999999
 20
684.722705
 30
0.0
 11
520.0000000000001
 21
684.722705
 31
0.0
  0
LINE
  5
5B
  8
SPEC
  6
CONTINUOUS
 62
     7
 10
-659.9999999999999
 20
654.722705
 30
0.0
 11
520.0000000000001
 21
654.722705
 31
0.0
  0
LINE
  5
5C
  8
SPEC
  6
CONTINUOUS
 62
     7
 10
-659.9999999999999
 20
624.722705
 30
0.0
 11
520.0000000000001
 21
624.722705
 31
0.0
  0
LINE
  5
5D
  8
SPEC
  6
CONTINUOUS
 62
     7
 10
-659.9999999999999
 20
594.722705
 30
0.0
 11
520.0000000000001
 21
594.722705
 31
0.0
  0
LINE
  5
5E
  8
SPEC
  6
CONTINUOUS
 62
     7
 10
-659.9999999999999
 20
564.722705
 30
0.0
 11
520.0000000000001
 21
564.722705
 31
0.0
  0
LINE
  5
5F
  8
SPEC
  6
CONTINUOUS
 62
     7
 10
-659.9999999999999
 20
534.722705
 30
0.0
 11
520.0000000000001
 21
534.722705
 31
0.0
  0
LINE
  5
60
  8
SPEC
  6
CONTINUOUS
 62
     7
 10
-659.9999999999999
 20
504.722705
 30
0.0
 11
520.0000000000001
 21
504.722705
 31
0.0
  0
LINE
  5
61
  8
SPEC
  6
CONTINUOUS
 62
     7
 10
-659.9999999999999
 20
474.722705
 30
0.0
 11
520.0000000000001
 21
474.722705
 31
0.0
  0
LINE
  5
62
  8
SPEC
  6
CONTINUOUS
 62
     7
 10
-659.9999999999999
 20
444.722705
 30
0.0
 11
520.0000000000001
 21
444.722705
 31
0.0
  0
LINE
  5
63
  8
SPEC
  6
CONTINUOUS
 62
     7
 10
-659.9999999999999
 20
414.722705
 30
0.0
 11
520.0000000000001
 21
414.722705
 31
0.0
  0
TEXT
  5
64
  8
SPEC
 62
     7
 10
-652.8000000000001
 20
961.0260472222224
 30
0.0
 40
15.20251736111112
  1
チャンネル数
 41
0.7
 11
-652.8000000000001
 21
976.2285645833334
 31
0.0
 73
     3
  0
TEXT
  5
65
  8
SPEC
 62
     7
 10
-652.8000000000001
 20
931.0260472222224
 30
0.0
 40
15.20251736111112
  1
アナログ入力
 41
0.7
 11
-652.8000000000001
 21
946.2285645833334
 31
0.0
 73
     3
  0
TEXT
  5
66
  8
SPEC
 62
     7
 10
-492.8
 20
901.0260472222224
 30
0.0
 40
15.20251736111112
  1
インピーダンス
 41
0.7
 11
-492.8
 21
916.2285645833334
 31
0.0
 73
     3
  0
TEXT
  5
67
  8
SPEC
 62
     7
 10
-492.8
 20
871.0260472222224
 30
0.0
 40
15.20251736111112
  1
最大レベル
 41
0.7
 11
-492.8
 21
886.2285645833334
 31
0.0
 73
     3
  0
TEXT
  5
68
  8
SPEC
 62
     7
 10
-652.8000000000001
 20
841.0260472222224
 30
0.0
 40
15.20251736111112
  1
アナログ出力
 41
0.7
 11
-652.8000000000001
 21
856.2285645833334
 31
0.0
 73
     3
  0
TEXT
  5
69
  8
SPEC
 62
     7
 10
-492.8
 20
811.0260472222224
 30
0.0
 40
15.20251736111112
  1
インピーダンス
 41
0.7
 11
-492.8
 21
826.2285645833334
 31
0.0
 73
     3
  0
TEXT
  5
6A
  8
SPEC
 62
     7
 10
-492.8
 20
781.0260472222222
 30
0.0
 40
15.20251736111112
  1
最大レベル
 41
0.7
 11
-492.8
 21
796.2285645833333
 31
0.0
 73
     3
  0
TEXT
  5
6B
  8
SPEC
 62
     7
 10
-652.8000000000001
 20
751.0260472222222
 30
0.0
 40
15.20251736111112
  1
デジタル入出力
 41
0.7
 11
-652.8000000000001
 21
766.2285645833333
 31
0.0
 73
     3
  0
TEXT
  5
6C
  8
SPEC
 62
     7
 10
-492.8
 20
721.0260472222222
 30
0.0
 40
15.20251736111112
  1
フォーマット
 41
0.7
 11
-492.8
 21
736.2285645833333
 31
0.0
 73
     3
  0
TEXT
  5
6D
  8
SPEC
 62
     7
 10
-652.8000000000001
 20
691.0260472222222
 30
0.0
 40
15.20251736111112
  1
周波数特性(@96kHz)
 41
0.7
 11
-652.8000000000001
 21
706.2285645833333
 31
0.0
 73
     3
  0
TEXT
  5
6E
  8
SPEC
 62
     7
 10
-652.8000000000001
 20
661.0260472222222
 30
0.0
 40
15.20251736111112
  1
ダイナミックレンジ
 41
0.7
 11
-652.8000000000001
 21
676.2285645833333
 31
0.0
 73
     3
  0
TEXT
  5
6F
  8
SPEC
 62
     7
 10
-652.8000000000001
 20
631.0260472222222
 30
0.0
 40
15.20251736111112
  1
THD＋N
 41
0.7
 11
-652.8000000000001
 21
646.2285645833333
 31
0.0
 73
     3
  0
TEXT
  5
70
  8
SPEC
 62
     7
 10
-652.8000000000001
 20
601.0260472222222
 30
0.0
 40
15.20251736111112
  1
AD-DA変換
 41
0.7
 11
-652.8000000000001
 21
616.2285645833333
 31
0.0
 73
     3
  0
TEXT
  5
71
  8
SPEC
 62
     7
 10
-652.8000000000001
 20
571.0260472222222
 30
0.0
 40
15.20251736111112
  1
クロストーク
 41
0.7
 11
-652.8000000000001
 21
586.2285645833333
 31
0.0
 73
     3
  0
TEXT
  5
72
  8
SPEC
 62
     7
 10
-652.8000000000001
 20
541.0260472222222
 30
0.0
 40
15.20251736111112
  1
ストレージメディア
 41
0.7
 11
-652.8000000000001
 21
556.2285645833333
 31
0.0
 73
     3
  0
TEXT
  5
73
  8
SPEC
 62
     7
 10
-652.8000000000001
 20
511.0260472222222
 30
0.0
 40
15.20251736111112
  1
電源
 41
0.7
 11
-652.8000000000001
 21
526.2285645833333
 31
0.0
 73
     3
  0
TEXT
  5
74
  8
SPEC
 62
     7
 10
-652.8000000000001
 20
481.0260472222222
 30
0.0
 40
15.20251736111112
  1
消費電力
 41
0.7
 11
-652.8000000000001
 21
496.2285645833333
 31
0.0
 73
     3
  0
TEXT
  5
75
  8
SPEC
 62
     7
 10
-492.8
 20
931.0260472222224
 30
0.0
 40
15.20251736111112
  1
端子・形式
 41
0.7
 11
-492.8
 21
946.2285645833334
 31
0.0
 73
     3
  0
TEXT
  5
76
  8
SPEC
 62
     7
 10
-492.8
 20
841.0260472222224
 30
0.0
 40
15.20251736111112
  1
端子・形式^I
 41
0.7
 11
-492.8
 21
856.2285645833334
 31
0.0
 73
     3
  0
LINE
  5
77
  8
SPEC
  6
CONTINUOUS
 62
     7
 10
-325.0
 20
984.7227050000001
 30
0.0
 11
-325.0
 21
414.722705
 31
0.0
  0
TEXT
  5
78
  8
SPEC
 62
     7
 10
-317.8
 20
451.0260472222223
 30
0.0
 40
15.20251736111112
  1
483×45×290mm(除突起部)
 41
0.7
 11
-317.8
 21
466.2285645833334
 31
0.0
 73
     3
  0
TEXT
  5
79
  8
SPEC
 62
     7
 10
-317.8
 20
421.0260472222223
 30
0.0
 40
15.20251736111112
  1
3.9kg
 41
0.7
 11
-317.8
 21
436.2285645833334
 31
0.0
 73
     3
  0
TEXT
  5
7A
  8
SPEC
 62
     7
 10
-317.8
 20
961.0260472222224
 30
0.0
 40
15.20251736111112
  1
2入力2出力
 41
0.7
 11
-317.8
 21
976.2285645833334
 31
0.0
 73
     3
  0
TEXT
  5
7B
  8
SPEC
 62
     7
 10
-317.8
 20
931.0260472222224
 30
0.0
 40
15.20251736111112
  1
XLR、バランス
 41
0.7
 11
-317.8
 21
946.2285645833334
 31
0.0
 73
     3
  0
TEXT
  5
7C
  8
SPEC
 62
     7
 10
-317.8
 20
901.0260472222224
 30
0.0
 40
15.20251736111112
  1
20kΩ(バランス)
 41
0.7
 11
-317.8
 21
916.2285645833334
 31
0.0
 73
     3
  0
TEXT
  5
7D
  8
SPEC
 62
     7
 10
-317.8
 20
871.0260472222224
 30
0.0
 40
15.20251736111112
  1
+20dBu(+4dBuモード)
 41
0.7
 11
-317.8
 21
886.2285645833334
 31
0.0
 73
     3
  0
TEXT
  5
7E
  8
SPEC
 62
     7
 10
-317.8
 20
841.0260472222224
 30
0.0
 40
15.20251736111112
  1
XLR、電子バランス
 41
0.7
 11
-317.8
 21
856.2285645833334
 31
0.0
 73
     3
  0
TEXT
  5
7F
  8
SPEC
 62
     7
 10
-317.8
 20
811.0260472222224
 30
0.0
 40
15.20251736111112
  1
30Ω(バランス)
 41
0.7
 11
-317.8
 21
826.2285645833334
 31
0.0
 73
     3
  0
TEXT
  5
80
  8
SPEC
 62
     7
 10
-317.8
 20
781.0260472222222
 30
0.0
 40
15.20251736111112
  1
+20dBu(@0dBFS)
 41
0.7
 11
-317.8
 21
796.2285645833333
 31
0.0
 73
     3
  0
TEXT
  5
81
  8
SPEC
 62
     7
 10
-317.8
 20
751.0260472222222
 30
0.0
 40
15.20251736111112
  1
XLR
 41
0.7
 11
-317.8
 21
766.2285645833333
 31
0.0
 73
     3
  0
TEXT
  5
82
  8
SPEC
 62
     7
 10
-317.8
 20
721.0260472222222
 30
0.0
 40
15.20251736111112
  1
AES/EBU
 41
0.7
 11
-317.8
 21
736.2285645833333
 31
0.0
 73
     3
  0
TEXT
  5
83
  8
SPEC
 62
     7
 10
-317.8
 20
691.0260472222222
 30
0.0
 40
15.20251736111112
  1
20Hz～40kHz(+0/-3dB)
 41
0.7
 11
-317.8
 21
706.2285645833333
 31
0.0
 73
     3
  0
TEXT
  5
84
  8
SPEC
 62
     7
 10
-317.8
 20
661.0260472222222
 30
0.0
 40
15.20251736111112
  1
115dB(Aウェイト)
 41
0.7
 11
-317.8
 21
676.2285645833333
 31
0.0
 73
     3
  0
TEXT
  5
85
  8
SPEC
 62
     7
 10
-317.8
 20
631.0260472222222
 30
0.0
 40
15.20251736111112
  1
0.002％以下(20Hz～20kHz、@+4dBu)
 41
0.7
 11
-317.8
 21
646.2285645833333
 31
0.0
 73
     3
  0
TEXT
  5
86
  8
SPEC
 62
     7
 10
-317.8
 20
601.0260472222222
 30
0.0
 40
15.20251736111112
  1
24bit、44.1/48/88.2/96kHz、内部32bit浮動小数点演算
 41
0.7
 11
-317.8
 21
616.2285645833333
 31
0.0
 73
     3
  0
TEXT
  5
87
  8
SPEC
 62
     7
 10
-317.8
 20
571.0260472222222
 30
0.0
 40
15.20251736111112
  1
-90dB以下(20Hz～20kHz、+20dBu)
 41
0.7
 11
-317.8
 21
586.2285645833333
 31
0.0
 73
     3
  0
TEXT
  5
88
  8
SPEC
 62
     7
 10
-317.8
 20
541.0260472222222
 30
0.0
 40
15.20251736111112
  1
コンパクトフラッシュカード(Type I)、プリセット保存容量1536個
 41
0.7
 11
-317.8
 21
556.2285645833333
 31
0.0
 73
     3
  0
TEXT
  5
89
  8
SPEC
 62
     7
 10
-317.8
 20
511.0260472222222
 30
0.0
 40
15.20251736111112
  1
AC100V、50/60Hz
 41
0.7
 11
-317.8
 21
526.2285645833333
 31
0.0
 73
     3
  0
TEXT
  5
8A
  8
SPEC
 62
     7
 10
-492.8
 20
751.0260472222222
 30
0.0
 40
15.20251736111112
  1
端子・形式
 41
0.7
 11
-492.8
 21
766.2285645833333
 31
0.0
 73
     3
  0
TEXT
  5
8B
  8
SPEC
 62
     7
 10
-317.8
 20
481.0260472222222
 30
0.0
 40
15.20251736111112
  1
20W
 41
0.7
 11
-317.8
 21
496.2285645833333
 31
0.0
 73
     3
  0
TEXT
  5
8C
  8
DIMNSIONS
 62
     7
 10
-160.0
 20
-917.1213749999997
 30
0.0
 40
19.54609375
  1
(単位：mm)
 41
0.7
 11
-160.0
 21
-897.5752812499998
 31
0.0
 73
     3
  0
LINE
  5
8D
  8
DIMNSIONS
  6
CONTINUOUS
 62
     7
 10
-191.5
 20
-632.1
 30
0.0
 11
-191.5
 21
-683.0
 31
0.0
  0
LINE
  5
8E
  8
DIMNSIONS
  6
CONTINUOUS
 62
     7
 10
291.5
 20
-632.1
 30
0.0
 11
291.5
 21
-683.0
 31
0.0
  0
LINE
  5
8F
  8
DIMNSIONS
  6
CONTINUOUS
 62
     7
 10
-191.5
 20
-675.0
 30
0.0
 11
291.5
 21
-675.0
 31
0.0
  0
LINE
  5
90
  8
DIMNSIONS
  6
CONTINUOUS
 62
     7
 10
-191.5
 20
-675.0
 30
0.0
 11
-175.5009765625
 21
-670.7130745902352
 31
0.0
  0
LINE
  5
91
  8
DIMNSIONS
  6
CONTINUOUS
 62
     7
 10
-191.5
 20
-675.0
 30
0.0
 11
-175.5009765625
 21
-679.2869254097648
 31
0.0
  0
LINE
  5
92
  8
DIMNSIONS
  6
CONTINUOUS
 62
     7
 10
291.5
 20
-675.0
 30
0.0
 11
275.5009765625
 21
-679.2869254097648
 31
0.0
  0
LINE
  5
93
  8
DIMNSIONS
  6
CONTINUOUS
 62
     7
 10
291.5
 20
-675.0
 30
0.0
 11
275.5009765625
 21
-670.7130745902352
 31
0.0
  0
TEXT
  5
94
  8
DIMNSIONS
 62
     7
 10
23.54166666666667
 20
-666.061111111111
 30
0.0
 40
27.14735243055558
  1
483
 41
0.7
 11
23.54166666666667
 21
-638.9137586805555
 31
0.0
 73
     3
  0
LINE
  5
95
  8
DIMNSIONS
  6
CONTINUOUS
 62
     7
 10
-201.1
 20
-622.5
 30
0.0
 11
-270.5
 21
-622.5
 31
0.0
  0
LINE
  5
96
  8
DIMNSIONS
  6
CONTINUOUS
 62
     7
 10
-201.1
 20
-577.5
 30
0.0
 11
-270.5
 21
-577.5
 31
0.0
  0
LINE
  5
97
  8
DIMNSIONS
  6
CONTINUOUS
 62
     7
 10
-262.5
 20
-622.5
 30
0.0
 11
-262.5
 21
-577.5
 31
0.0
  0
LINE
  5
98
  8
DIMNSIONS
  6
CONTINUOUS
 62
     7
 10
-262.5
 20
-622.5
 30
0.0
 11
-266.7869254097647
 21
-606.5009765625
 31
0.0
  0
LINE
  5
99
  8
DIMNSIONS
  6
CONTINUOUS
 62
     7
 10
-262.5
 20
-622.5
 30
0.0
 11
-258.2130745902353
 21
-606.5009765625
 31
0.0
  0
LINE
  5
9A
  8
DIMNSIONS
  6
CONTINUOUS
 62
     7
 10
-262.5
 20
-577.5
 30
0.0
 11
-258.2130745902353
 21
-593.4990234375
 31
0.0
  0
LINE
  5
9B
  8
DIMNSIONS
  6
CONTINUOUS
 62
     7
 10
-262.5
 20
-577.5
 30
0.0
 11
-266.7869254097647
 21
-593.4990234375
 31
0.0
  0
TEXT
  5
9C
  8
DIMNSIONS
 62
     7
 10
-275.4388888888889
 20
-635.2777777777778
 30
0.0
 40
27.14735243055558
  1
45.0
 50
90.0
 41
0.7
 11
-302.5862413194445
 21
-635.2777777777778
 31
0.0
 73
     3
  0
LINE
  5
9D
  8
DIMNSIONS
  6
CONTINUOUS
 62
     7
 10
-201.1
 20
-500.0
 30
0.0
 11
-270.5
 21
-500.0
 31
0.0
  0
LINE
  5
9E
  8
DIMNSIONS
  6
CONTINUOUS
 62
     7
 10
-176.6
 20
-210.0
 30
0.0
 11
-270.5
 21
-210.0
 31
0.0
  0
LINE
  5
9F
  8
DIMNSIONS
  6
CONTINUOUS
 62
     7
 10
-262.5
 20
-500.0
 30
0.0
 11
-262.5
 21
-210.0
 31
0.0
  0
LINE
  5
A0
  8
DIMNSIONS
  6
CONTINUOUS
 62
     7
 10
-262.5
 20
-500.0
 30
0.0
 11
-266.7869254097647
 21
-484.0009765625
 31
0.0
  0
LINE
  5
A1
  8
DIMNSIONS
  6
CONTINUOUS
 62
     7
 10
-262.5
 20
-500.0
 30
0.0
 11
-258.2130745902353
 21
-484.0009765625
 31
0.0
  0
LINE
  5
A2
  8
DIMNSIONS
  6
CONTINUOUS
 62
     7
 10
-262.5
 20
-210.0
 30
0.0
 11
-258.2130745902353
 21
-225.9990234375
 31
0.0
  0
LINE
  5
A3
  8
DIMNSIONS
  6
CONTINUOUS
 62
     7
 10
-262.5
 20
-210.0
 30
0.0
 11
-266.7869254097647
 21
-225.9990234375
 31
0.0
  0
TEXT
  5
A4
  8
DIMNSIONS
 62
     7
 10
-271.4388888888889
 20
-381.4583333333333
 30
0.0
 40
27.14735243055558
  1
290
 50
90.0
 41
0.7
 11
-298.5862413194445
 21
-381.4583333333333
 31
0.0
 73
     3
  0
LINE
  5
A5
  8
DIMNSIONS
  6
CONTINUOUS
 62
     7
 10
-201.1
 20
-500.0
 30
0.0
 11
-270.5
 21
-500.0
 31
0.0
  0
LINE
  5
A6
  8
DIMNSIONS
  6
CONTINUOUS
 62
     7
 10
14.9
 20
-518.0
 30
0.0
 11
-270.5
 21
-518.0
 31
0.0
  0
LINE
  5
A7
  8
DIMNSIONS
  6
CONTINUOUS
 62
     7
 10
-262.5
 20
-518.0
 30
0.0
 11
-262.5
 21
-500.0
 31
0.0
  0
LINE
  5
A8
  8
DIMNSIONS
  6
CONTINUOUS
 62
     7
 10
-262.5
 20
-500.0
 30
0.0
 11
-262.5
 21
-472.0
 31
0.0
  0
LINE
  5
A9
  8
DIMNSIONS
  6
CONTINUOUS
 62
     7
 10
-262.5
 20
-500.0
 30
0.0
 11
-266.7869254097647
 21
-484.0009765625
 31
0.0
  0
LINE
  5
AA
  8
DIMNSIONS
  6
CONTINUOUS
 62
     7
 10
-262.5
 20
-500.0
 30
0.0
 11
-258.2130745902353
 21
-484.0009765625
 31
0.0
  0
LINE
  5
AB
  8
DIMNSIONS
  6
CONTINUOUS
 62
     7
 10
-262.5
 20
-518.0
 30
0.0
 11
-262.5
 21
-546.0
 31
0.0
  0
LINE
  5
AC
  8
DIMNSIONS
  6
CONTINUOUS
 62
     7
 10
-262.5
 20
-518.0
 30
0.0
 11
-258.2130745902353
 21
-533.9990234375
 31
0.0
  0
LINE
  5
AD
  8
DIMNSIONS
  6
CONTINUOUS
 62
     7
 10
-262.5
 20
-518.0
 30
0.0
 11
-266.7869254097647
 21
-533.9990234375
 31
0.0
  0
TEXT
  5
AE
  8
DIMNSIONS
 62
     7
 10
-275.4388888888889
 20
-544.2777777777778
 30
0.0
 40
27.14735243055558
  1
18.0
 50
90.0
 41
0.7
 11
-302.5862413194445
 21
-544.2777777777778
 31
0.0
 73
     3
  0
LINE
  5
AF
  8
DIMNSIONS
  6
CONTINUOUS
 62
     7
 10
267.0
 20
-200.4
 30
0.0
 11
267.0
 21
-167.0
 31
0.0
  0
LINE
  5
B0
  8
DIMNSIONS
  6
CONTINUOUS
 62
     7
 10
269.0
 20
-211.2
 30
0.0
 11
269.0
 21
-167.0
 31
0.0
  0
LINE
  5
B1
  8
DIMNSIONS
  6
CONTINUOUS
 62
     7
 10
269.0
 20
-175.0
 30
0.0
 11
267.0
 21
-175.0
 31
0.0
  0
LINE
  5
B2
  8
DIMNSIONS
  6
CONTINUOUS
 62
     7
 10
267.0
 20
-175.0
 30
0.0
 11
239.0
 21
-175.0
 31
0.0
  0
LINE
  5
B3
  8
DIMNSIONS
  6
CONTINUOUS
 62
     7
 10
267.0
 20
-175.0
 30
0.0
 11
251.0009765625
 21
-179.2869254097647
 31
0.0
  0
LINE
  5
B4
  8
DIMNSIONS
  6
CONTINUOUS
 62
     7
 10
267.0
 20
-175.0
 30
0.0
 11
251.0009765625
 21
-170.7130745902353
 31
0.0
  0
LINE
  5
B5
  8
DIMNSIONS
  6
CONTINUOUS
 62
     7
 10
269.0
 20
-175.0
 30
0.0
 11
297.0
 21
-175.0
 31
0.0
  0
LINE
  5
B6
  8
DIMNSIONS
  6
CONTINUOUS
 62
     7
 10
269.0
 20
-175.0
 30
0.0
 11
284.9990234375
 21
-170.7130745902353
 31
0.0
  0
LINE
  5
B7
  8
DIMNSIONS
  6
CONTINUOUS
 62
     7
 10
269.0
 20
-175.0
 30
0.0
 11
284.9990234375
 21
-179.2869254097647
 31
0.0
  0
TEXT
  5
B8
  8
DIMNSIONS
 62
     7
 10
241.5416666666667
 20
-162.0611111111111
 30
0.0
 40
27.14735243055558
  1
2.0
 41
0.7
 11
241.5416666666667
 21
-134.9137586805555
 31
0.0
 73
     3
  0
LINE
  5
B9
  8
DIMNSIONS
  6
CONTINUOUS
 62
     7
 10
-169.0
 20
-211.2
 30
0.0
 11
-169.0
 21
-167.0
 31
0.0
  0
LINE
  5
BA
  8
DIMNSIONS
  6
CONTINUOUS
 62
     7
 10
-167.0
 20
-200.4
 30
0.0
 11
-167.0
 21
-167.0
 31
0.0
  0
LINE
  5
BB
  8
DIMNSIONS
  6
CONTINUOUS
 62
     7
 10
-167.0
 20
-175.0
 30
0.0
 11
-169.0
 21
-175.0
 31
0.0
  0
LINE
  5
BC
  8
DIMNSIONS
  6
CONTINUOUS
 62
     7
 10
-169.0
 20
-175.0
 30
0.0
 11
-197.0
 21
-175.0
 31
0.0
  0
LINE
  5
BD
  8
DIMNSIONS
  6
CONTINUOUS
 62
     7
 10
-169.0
 20
-175.0
 30
0.0
 11
-184.9990234375
 21
-179.2869254097647
 31
0.0
  0
LINE
  5
BE
  8
DIMNSIONS
  6
CONTINUOUS
 62
     7
 10
-169.0
 20
-175.0
 30
0.0
 11
-184.9990234375
 21
-170.7130745902353
 31
0.0
  0
LINE
  5
BF
  8
DIMNSIONS
  6
CONTINUOUS
 62
     7
 10
-167.0
 20
-175.0
 30
0.0
 11
-139.0
 21
-175.0
 31
0.0
  0
LINE
  5
C0
  8
DIMNSIONS
  6
CONTINUOUS
 62
     7
 10
-167.0
 20
-175.0
 30
0.0
 11
-151.0009765625
 21
-170.7130745902353
 31
0.0
  0
LINE
  5
C1
  8
DIMNSIONS
  6
CONTINUOUS
 62
     7
 10
-167.0
 20
-175.0
 30
0.0
 11
-151.0009765625
 21
-179.2869254097647
 31
0.0
  0
TEXT
  5
C2
  8
DIMNSIONS
 62
     7
 10
-194.4583333333333
 20
-162.0611111111111
 30
0.0
 40
27.14735243055558
  1
2.0
 41
0.7
 11
-194.4583333333333
 21
-134.9137586805555
 31
0.0
 73
     3
  0
LINE
  5
C3
  8
DIMNSIONS
  6
CONTINUOUS
 62
     7
 10
-167.0
 20
-200.4
 30
0.0
 11
-167.0
 21
-167.0
 31
0.0
  0
LINE
  5
C4
  8
DIMNSIONS
  6
CONTINUOUS
 62
     7
 10
267.0
 20
-200.4
 30
0.0
 11
267.0
 21
-167.0
 31
0.0
  0
LINE
  5
C5
  8
DIMNSIONS
  6
CONTINUOUS
 62
     7
 10
-167.0
 20
-175.0
 30
0.0
 11
267.0
 21
-175.0
 31
0.0
  0
LINE
  5
C6
  8
DIMNSIONS
  6
CONTINUOUS
 62
     7
 10
-167.0
 20
-175.0
 30
0.0
 11
-151.0009765625
 21
-170.7130745902353
 31
0.0
  0
LINE
  5
C7
  8
DIMNSIONS
  6
CONTINUOUS
 62
     7
 10
-167.0
 20
-175.0
 30
0.0
 11
-151.0009765625
 21
-179.2869254097647
 31
0.0
  0
LINE
  5
C8
  8
DIMNSIONS
  6
CONTINUOUS
 62
     7
 10
267.0
 20
-175.0
 30
0.0
 11
251.0009765625
 21
-179.2869254097647
 31
0.0
  0
LINE
  5
C9
  8
DIMNSIONS
  6
CONTINUOUS
 62
     7
 10
267.0
 20
-175.0
 30
0.0
 11
251.0009765625
 21
-170.7130745902353
 31
0.0
  0
TEXT
  5
CA
  8
DIMNSIONS
 62
     7
 10
23.54166666666667
 20
-166.0611111111111
 30
0.0
 40
27.14735243055558
  1
434
 41
0.7
 11
23.54166666666667
 21
-138.9137586805555
 31
0.0
 73
     3
  0
LINE
  5
CB
  8
DIMNSIONS
  6
CONTINUOUS
 62
     7
 10
-201.1
 20
-500.0
 30
0.0
 11
-233.0
 21
-500.0
 31
0.0
  0
LINE
  5
CC
  8
DIMNSIONS
  6
CONTINUOUS
 62
     7
 10
-201.1
 20
-490.0
 30
0.0
 11
-233.0
 21
-490.0
 31
0.0
  0
LINE
  5
CD
  8
DIMNSIONS
  6
CONTINUOUS
 62
     7
 10
-225.0
 20
-490.0
 30
0.0
 11
-225.0
 21
-500.0
 31
0.0
  0
LINE
  5
CE
  8
DIMNSIONS
  6
CONTINUOUS
 62
     7
 10
-225.0
 20
-500.0
 30
0.0
 11
-225.0
 21
-528.0
 31
0.0
  0
LINE
  5
CF
  8
DIMNSIONS
  6
CONTINUOUS
 62
     7
 10
-225.0
 20
-500.0
 30
0.0
 11
-220.7130745902353
 21
-515.9990234375
 31
0.0
  0
LINE
  5
D0
  8
DIMNSIONS
  6
CONTINUOUS
 62
     7
 10
-225.0
 20
-500.0
 30
0.0
 11
-229.2869254097647
 21
-515.9990234375
 31
0.0
  0
LINE
  5
D1
  8
DIMNSIONS
  6
CONTINUOUS
 62
     7
 10
-225.0
 20
-490.0
 30
0.0
 11
-225.0
 21
-416.8777777777779
 31
0.0
  0
LINE
  5
D2
  8
DIMNSIONS
  6
CONTINUOUS
 62
     7
 10
-225.0
 20
-490.0
 30
0.0
 11
-229.2869254097647
 21
-474.0009765625
 31
0.0
  0
LINE
  5
D3
  8
DIMNSIONS
  6
CONTINUOUS
 62
     7
 10
-225.0
 20
-490.0
 30
0.0
 11
-220.7130745902353
 21
-474.0009765625
 31
0.0
  0
TEXT
  5
D4
  8
DIMNSIONS
 62
     7
 10
-232.9511111111111
 20
-473.3222222222223
 30
0.0
 40
21.71788194444446
  1
10.0
 50
90.0
 41
0.7
 11
-254.6689930555555
 21
-473.3222222222223
 31
0.0
 73
     3
  0
TEXT
  5
D5
  8
DIMNSIONS
 62
     7
 10
75.0
 20
-810.1600000000001
 30
0.0
 40
21.71788194444445
  1
※ センター振り分け
 41
0.7
 11
75.0
 21
-788.4421180555556
 31
0.0
 73
     3
  0
TEXT
  5
D6
  8
DIMNSIONS
 62
     7
 10
76.45833333333333
 20
-142.8342222222222
 30
0.0
 40
15.20251736111111
  1
※
 41
0.7
 11
76.45833333333333
 21
-127.6317048611111
 31
0.0
 73
     3
  0
LINE
  5
D7
  8
DIMNSIONS
  6
CONTINUOUS
 62
     7
 10
-176.6
 20
-210.0
 30
0.0
 11
-270.5
 21
-210.0
 31
0.0
  0
LINE
  5
D8
  8
DIMNSIONS
  6
CONTINUOUS
 62
     7
 10
-6.649999999999999
 20
-195.05
 30
0.0
 11
-270.5
 21
-195.05
 31
0.0
  0
LINE
  5
D9
  8
DIMNSIONS
  6
CONTINUOUS
 62
     7
 10
-262.5
 20
-195.05
 30
0.0
 11
-262.5
 21
-210.0
 31
0.0
  0
LINE
  5
DA
  8
DIMNSIONS
  6
CONTINUOUS
 62
     7
 10
-262.5
 20
-210.0
 30
0.0
 11
-262.5
 21
-238.0
 31
0.0
  0
LINE
  5
DB
  8
DIMNSIONS
  6
CONTINUOUS
 62
     7
 10
-262.5
 20
-210.0
 30
0.0
 11
-258.2130745902353
 21
-225.9990234375
 31
0.0
  0
LINE
  5
DC
  8
DIMNSIONS
  6
CONTINUOUS
 62
     7
 10
-262.5
 20
-210.0
 30
0.0
 11
-266.7869254097647
 21
-225.9990234375
 31
0.0
  0
LINE
  5
DD
  8
DIMNSIONS
  6
CONTINUOUS
 62
     7
 10
-262.5
 20
-195.05
 30
0.0
 11
-262.5
 21
-167.05
 31
0.0
  0
LINE
  5
DE
  8
DIMNSIONS
  6
CONTINUOUS
 62
     7
 10
-262.5
 20
-195.05
 30
0.0
 11
-266.7869254097647
 21
-179.0509765625
 31
0.0
  0
LINE
  5
DF
  8
DIMNSIONS
  6
CONTINUOUS
 62
     7
 10
-262.5
 20
-195.05
 30
0.0
 11
-258.2130745902353
 21
-179.0509765625
 31
0.0
  0
TEXT
  5
E0
  8
DIMNSIONS
 62
     7
 10
-274.4511111111112
 20
-230.7472222222222
 30
0.0
 40
21.71788194444446
  1
15.0
 50
90.0
 41
0.7
 11
-296.1689930555556
 21
-230.7472222222222
 31
0.0
 73
     3
  0
POLYLINE
  5
E1
  8
DATA
  6
CONTINUOUS
 62
     7
 66
     1
 10
0.0
 20
0.0
 30
0.0
 70
     1
  0
VERTEX
  5
729
  8
DATA
  6
CONTINUOUS
 62
     7
 10
-191.5
 20
-577.5
 30
0.0
  0
VERTEX
  5
72A
  8
DATA
  6
CONTINUOUS
 62
     7
 10
291.5
 20
-577.5
 30
0.0
  0
VERTEX
  5
72B
  8
DATA
  6
CONTINUOUS
 62
     7
 10
291.5
 20
-622.5
 30
0.0
  0
VERTEX
  5
72C
  8
DATA
  6
CONTINUOUS
 62
     7
 10
-191.5
 20
-622.5
 30
0.0
  0
SEQEND
  5
8FB
  8
DATA
  6
CONTINUOUS
 62
     7
  0
LINE
  5
E8
  8
DATA
  6
CONTINUOUS
 62
     7
 10
-167.0
 20
-490.0
 30
0.0
 11
-167.0
 21
-210.0
 31
0.0
  0
LINE
  5
E9
  8
DATA
  6
CONTINUOUS
 62
     7
 10
267.0
 20
-210.0
 30
0.0
 11
267.0
 21
-490.0
 31
0.0
  0
POLYLINE
  5
EA
  8
DATA
  6
CONTINUOUS
 62
     7
 66
     1
 10
0.0
 20
0.0
 30
0.0
 70
     1
  0
VERTEX
  5
72D
  8
DATA
  6
CONTINUOUS
 62
     7
 10
350.0
 20
-577.5
 30
0.0
  0
VERTEX
  5
72E
  8
DATA
  6
CONTINUOUS
 62
     7
 10
640.0
 20
-577.5
 30
0.0
  0
VERTEX
  5
72F
  8
DATA
  6
CONTINUOUS
 62
     7
 10
640.0
 20
-622.5
 30
0.0
  0
VERTEX
  5
730
  8
DATA
  6
CONTINUOUS
 62
     7
 10
350.0
 20
-622.5
 30
0.0
  0
SEQEND
  5
8FC
  8
DATA
  6
CONTINUOUS
 62
     7
  0
POLYLINE
  5
F1
  8
DATA
  6
CONTINUOUS
 62
     7
 66
     1
 10
0.0
 20
0.0
 30
0.0
 70
     1
  0
VERTEX
  5
731
  8
DATA
  6
CONTINUOUS
 62
     7
 10
-191.5
 20
-490.0
 30
0.0
  0
VERTEX
  5
732
  8
DATA
  6
CONTINUOUS
 62
     7
 10
291.5
 20
-490.0
 30
0.0
  0
VERTEX
  5
733
  8
DATA
  6
CONTINUOUS
 62
     7
 10
291.5
 20
-500.0
 30
0.0
  0
VERTEX
  5
734
  8
DATA
  6
CONTINUOUS
 62
     7
 10
-191.5
 20
-500.0
 30
0.0
  0
SEQEND
  5
8FD
  8
DATA
  6
CONTINUOUS
 62
     7
  0
LINE
  5
F8
  8
DATA
  6
CONTINUOUS
 62
     7
 10
-174.3
 20
-622.5
 30
0.0
 11
-174.3
 21
-618.75
 31
0.0
  0
LINE
  5
F9
  8
DATA
  6
CONTINUOUS
 62
     7
 10
-174.3
 20
-581.25
 30
0.0
 11
-174.3
 21
-577.5
 31
0.0
  0
LINE
  5
FA
  8
DATA
  6
CONTINUOUS
 62
     7
 10
274.3000000000001
 20
-577.5
 30
0.0
 11
274.3000000000001
 21
-581.25
 31
0.0
  0
LINE
  5
FB
  8
DATA
  6
CONTINUOUS
 62
     7
 10
274.3000000000001
 20
-618.75
 30
0.0
 11
274.3000000000001
 21
-622.5
 31
0.0
  0
LINE
  5
FC
  8
DATA
  6
CONTINUOUS
 62
     7
 10
291.5
 20
-495.3
 30
0.0
 11
274.3000000000001
 21
-495.3
 31
0.0
  0
LINE
  5
FD
  8
DATA
  6
CONTINUOUS
 62
     7
 10
-175.0
 20
-495.3
 30
0.0
 11
-191.5
 21
-495.3
 31
0.0
  0
LINE
  5
FE
  8
DATA
  6
CONTINUOUS
 62
     7
 10
274.3000000000001
 20
-500.0
 30
0.0
 11
274.3000000000001
 21
-495.3
 31
0.0
  0
LINE
  5
FF
  8
DATA
  6
CONTINUOUS
 62
     7
 10
-175.0
 20
-500.0
 30
0.0
 11
-175.0
 21
-495.3
 31
0.0
  0
LINE
  5
100
  8
DATA
  6
CONTINUOUS
 62
     7
 10
291.5
 20
-610.75
 30
0.0
 11
282.3000000000001
 21
-610.75
 31
0.0
  0
LINE
  5
101
  8
DATA
  6
CONTINUOUS
 62
     7
 10
-182.3
 20
-610.75
 30
0.0
 11
-191.5
 21
-610.75
 31
0.0
  0
LINE
  5
102
  8
DATA
  6
CONTINUOUS
 62
     7
 10
-191.5
 20
-589.25
 30
0.0
 11
-182.3
 21
-589.25
 31
0.0
  0
LINE
  5
103
  8
DATA
  6
CONTINUOUS
 62
     7
 10
282.3000000000001
 20
-589.25
 30
0.0
 11
291.5
 21
-589.25
 31
0.0
  0
ARC
  5
104
  8
DATA
  6
CONTINUOUS
 62
     7
 10
-182.3
 20
-581.25
 30
0.0
 40
8.0
 50
270.0
 51
0.0
  0
ARC
  5
105
  8
DATA
  6
CONTINUOUS
 62
     7
 10
-182.3
 20
-618.75
 30
0.0
 40
8.0
 50
0.0
 51
90.0
  0
ARC
  5
106
  8
DATA
  6
CONTINUOUS
 62
     7
 10
282.3000000000001
 20
-618.75
 30
0.0
 40
8.0
 50
90.0
 51
180.0
  0
ARC
  5
107
  8
DATA
  6
CONTINUOUS
 62
     7
 10
282.3000000000001
 20
-581.25
 30
0.0
 40
8.0
 50
180.0
 51
270.0
  0
ARC
  5
108
  8
DATA
  6
CONTINUOUS
 62
     7
 10
284.3
 20
-583.7
 30
0.0
 40
3.200000000000045
 50
270.0
 51
90.0
  0
ARC
  5
109
  8
DATA
  6
CONTINUOUS
 62
     7
 10
279.9
 20
-583.7
 30
0.0
 40
3.200000000000045
 50
90.0
 51
270.0
  0
LINE
  5
10A
  8
DATA
  6
CONTINUOUS
 62
     7
 10
279.9
 20
-580.5
 30
0.0
 11
284.3
 21
-580.5
 31
0.0
  0
LINE
  5
10B
  8
DATA
  6
CONTINUOUS
 62
     7
 10
284.3
 20
-586.9000000000001
 30
0.0
 11
279.9
 21
-586.9000000000001
 31
0.0
  0
ARC
  5
10C
  8
DATA
  6
CONTINUOUS
 62
     7
 10
284.3
 20
-616.3
 30
0.0
 40
3.200000000000045
 50
270.0
 51
90.0
  0
ARC
  5
10D
  8
DATA
  6
CONTINUOUS
 62
     7
 10
279.9
 20
-616.3
 30
0.0
 40
3.200000000000045
 50
90.0
 51
270.0
  0
LINE
  5
10E
  8
DATA
  6
CONTINUOUS
 62
     7
 10
279.9
 20
-619.5
 30
0.0
 11
284.3
 21
-619.5
 31
0.0
  0
LINE
  5
10F
  8
DATA
  6
CONTINUOUS
 62
     7
 10
284.3
 20
-613.0999999999999
 30
0.0
 11
279.9
 21
-613.0999999999999
 31
0.0
  0
ARC
  5
110
  8
DATA
  6
CONTINUOUS
 62
     7
 10
-184.3
 20
-583.7
 30
0.0
 40
3.200000000000045
 50
90.0
 51
270.0
  0
ARC
  5
111
  8
DATA
  6
CONTINUOUS
 62
     7
 10
-179.9000000000001
 20
-583.7
 30
0.0
 40
3.200000000000045
 50
270.0
 51
90.0
  0
LINE
  5
112
  8
DATA
  6
CONTINUOUS
 62
     7
 10
-179.9000000000001
 20
-580.5
 30
0.0
 11
-184.3
 21
-580.5
 31
0.0
  0
LINE
  5
113
  8
DATA
  6
CONTINUOUS
 62
     7
 10
-184.3
 20
-586.9000000000001
 30
0.0
 11
-179.9000000000001
 21
-586.9000000000001
 31
0.0
  0
ARC
  5
114
  8
DATA
  6
CONTINUOUS
 62
     7
 10
-184.3
 20
-616.3
 30
0.0
 40
3.200000000000045
 50
90.0
 51
270.0
  0
ARC
  5
115
  8
DATA
  6
CONTINUOUS
 62
     7
 10
-179.9000000000001
 20
-616.3
 30
0.0
 40
3.200000000000045
 50
270.0
 51
90.0
  0
LINE
  5
116
  8
DATA
  6
CONTINUOUS
 62
     7
 10
-179.9000000000001
 20
-619.5
 30
0.0
 11
-184.3
 21
-619.5
 31
0.0
  0
LINE
  5
117
  8
DATA
  6
CONTINUOUS
 62
     7
 10
-184.3
 20
-613.0999999999999
 30
0.0
 11
-179.9000000000001
 21
-613.0999999999999
 31
0.0
  0
CIRCLE
  5
118
  8
DATA
  6
CONTINUOUS
 62
     7
 10
-140.5
 20
-599.2
 30
0.0
 40
0.75
  0
CIRCLE
  5
119
  8
DATA
  6
CONTINUOUS
 62
     7
 10
-140.5
 20
-595.1
 30
0.0
 40
0.75
  0
CIRCLE
  5
11A
  8
DATA
  6
CONTINUOUS
 62
     7
 10
-140.5
 20
-591.0
 30
0.0
 40
0.75
  0
CIRCLE
  5
11B
  8
DATA
  6
CONTINUOUS
 62
     7
 10
-140.5
 20
-603.3000000000001
 30
0.0
 40
0.75
  0
CIRCLE
  5
11C
  8
DATA
  6
CONTINUOUS
 62
     7
 10
-140.5
 20
-607.4000000000001
 30
0.0
 40
0.75
  0
CIRCLE
  5
11D
  8
DATA
  6
CONTINUOUS
 62
     7
 10
-140.5
 20
-611.5000000000001
 30
0.0
 40
0.75
  0
CIRCLE
  5
11E
  8
DATA
  6
CONTINUOUS
 62
     7
 10
-127.5
 20
-599.2
 30
0.0
 40
0.75
  0
CIRCLE
  5
11F
  8
DATA
  6
CONTINUOUS
 62
     7
 10
-127.5
 20
-595.1
 30
0.0
 40
0.75
  0
CIRCLE
  5
120
  8
DATA
  6
CONTINUOUS
 62
     7
 10
-127.5
 20
-591.0
 30
0.0
 40
0.75
  0
CIRCLE
  5
121
  8
DATA
  6
CONTINUOUS
 62
     7
 10
-127.5
 20
-603.3000000000001
 30
0.0
 40
0.75
  0
CIRCLE
  5
122
  8
DATA
  6
CONTINUOUS
 62
     7
 10
-127.5
 20
-607.4000000000001
 30
0.0
 40
0.75
  0
CIRCLE
  5
123
  8
DATA
  6
CONTINUOUS
 62
     7
 10
-127.5
 20
-611.5000000000001
 30
0.0
 40
0.75
  0
ARC
  5
124
  8
DATA
  6
CONTINUOUS
 62
     7
 10
24.49999999999994
 20
-600.0
 30
0.0
 40
18.99999999999995
 50
247.0804578484305
 51
112.9195421515695
  0
LINE
  5
125
  8
DATA
  6
CONTINUOUS
 62
     7
 10
-101.0
 20
-582.5
 30
0.0
 11
17.10067570652564
 21
-582.5
 31
0.0
  0
LINE
  5
126
  8
DATA
  6
CONTINUOUS
 62
     7
 10
-101.0
 20
-617.5
 30
0.0
 11
17.10067570652564
 21
-617.5
 31
0.0
  0
CIRCLE
  5
127
  8
DATA
  6
CONTINUOUS
 62
     7
 10
24.5
 20
-600.0
 30
0.0
 40
15.14999999999998
  0
POLYLINE
  5
128
  8
DATA
  6
CONTINUOUS
 62
     7
 66
     1
 10
0.0
 20
0.0
 30
0.0
 70
     1
  0
VERTEX
  5
735
  8
DATA
  6
CONTINUOUS
 62
     7
 10
-96.5
 20
-590.0
 30
0.0
  0
VERTEX
  5
736
  8
DATA
  6
CONTINUOUS
 62
     7
 10
-18.5
 20
-590.0
 30
0.0
  0
VERTEX
  5
737
  8
DATA
  6
CONTINUOUS
 62
     7
 10
-18.5
 20
-610.0
 30
0.0
  0
VERTEX
  5
738
  8
DATA
  6
CONTINUOUS
 62
     7
 10
-96.5
 20
-610.0
 30
0.0
  0
SEQEND
  5
8FE
  8
DATA
  6
CONTINUOUS
 62
     7
  0
CIRCLE
  5
12F
  8
DATA
  6
CONTINUOUS
 62
     7
 10
-1.5
 20
-591.0
 30
0.0
 40
5.5
  0
CIRCLE
  5
130
  8
DATA
  6
CONTINUOUS
 62
     7
 10
-1.5
 20
-609.0
 30
0.0
 40
5.5
  0
CIRCLE
  5
131
  8
DATA
  6
CONTINUOUS
 62
     7
 10
63.5
 20
-600.0
 30
0.0
 40
8.450000000000045
  0
CIRCLE
  5
132
  8
DATA
  6
CONTINUOUS
 62
     7
 10
88.5
 20
-600.0
 30
0.0
 40
8.450000000000045
  0
CIRCLE
  5
133
  8
DATA
  6
CONTINUOUS
 62
     7
 10
113.5
 20
-600.0
 30
0.0
 40
8.450000000000045
  0
ARC
  5
134
  8
DATA
  6
CONTINUOUS
 62
     7
 10
-75.90909090909093
 20
-600.0
 30
0.0
 40
30.59090909090907
 50
145.1056231534356
 51
214.8943768465644
  0
LINE
  5
135
  8
DATA
  6
CONTINUOUS
 62
     7
 10
137.0
 20
-582.5
 30
0.0
 11
231.0
 21
-582.5
 31
0.0
  0
LINE
  5
136
  8
DATA
  6
CONTINUOUS
 62
     7
 10
137.0
 20
-617.5
 30
0.0
 11
231.0
 21
-617.5
 31
0.0
  0
ARC
  5
137
  8
DATA
  6
CONTINUOUS
 62
     7
 10
162.0909090909091
 20
-600.0
 30
0.0
 40
30.59090909090907
 50
145.1056231534356
 51
214.8943768465644
  0
ARC
  5
138
  8
DATA
  6
CONTINUOUS
 62
     7
 10
205.9090909090909
 20
-600.0
 30
0.0
 40
30.59090909090907
 50
325.1056231534355
 51
34.89437684656446
  0
CIRCLE
  5
139
  8
DATA
  6
CONTINUOUS
 62
     7
 10
143.5
 20
-591.5
 30
0.0
 40
5.5
  0
CIRCLE
  5
13A
  8
DATA
  6
CONTINUOUS
 62
     7
 10
143.5
 20
-608.5
 30
0.0
 40
5.5
  0
CIRCLE
  5
13B
  8
DATA
  6
CONTINUOUS
 62
     7
 10
162.0
 20
-591.5
 30
0.0
 40
5.5
  0
CIRCLE
  5
13C
  8
DATA
  6
CONTINUOUS
 62
     7
 10
162.0
 20
-608.5
 30
0.0
 40
5.5
  0
LINE
  5
13D
  8
DATA
  6
CONTINUOUS
 62
     7
 10
230.0
 20
-606.0
 30
0.0
 11
172.0
 21
-606.0
 31
0.0
  0
LINE
  5
13E
  8
DATA
  6
CONTINUOUS
 62
     7
 10
172.0
 20
-594.0
 30
0.0
 11
230.0
 21
-594.0
 31
0.0
  0
ARC
  5
13F
  8
DATA
  6
CONTINUOUS
 62
     7
 10
207.75
 20
-600.0
 30
0.0
 40
36.25
 50
170.4727166185476
 51
189.5272833814524
  0
ARC
  5
140
  8
DATA
  6
CONTINUOUS
 62
     7
 10
194.25
 20
-600.0
 30
0.0
 40
36.25
 50
350.4727166185476
 51
9.527283381452321
  0
POLYLINE
  5
141
  8
DATA
  6
CONTINUOUS
 62
     7
 66
     1
 10
0.0
 20
0.0
 30
0.0
 70
     1
  0
VERTEX
  5
739
  8
DATA
  6
CONTINUOUS
 62
     7
 10
176.5
 20
-597.1
 30
0.0
  0
VERTEX
  5
73A
  8
DATA
  6
CONTINUOUS
 62
     7
 10
221.5
 20
-597.1
 30
0.0
  0
VERTEX
  5
73B
  8
DATA
  6
CONTINUOUS
 62
     7
 10
221.5
 20
-602.9
 30
0.0
  0
VERTEX
  5
73C
  8
DATA
  6
CONTINUOUS
 62
     7
 10
176.5
 20
-602.9
 30
0.0
  0
SEQEND
  5
8FF
  8
DATA
  6
CONTINUOUS
 62
     7
  0
LINE
  5
148
  8
DATA
  6
CONTINUOUS
 62
     7
 10
181.5
 20
-606.0
 30
0.0
 11
176.5
 21
-602.9
 31
0.0
  0
LINE
  5
149
  8
DATA
  6
CONTINUOUS
 62
     7
 10
181.5
 20
-594.0
 30
0.0
 11
176.5
 21
-597.1
 31
0.0
  0
LINE
  5
14A
  8
DATA
  6
CONTINUOUS
 62
     7
 10
216.5
 20
-594.0
 30
0.0
 11
221.5
 21
-597.1
 31
0.0
  0
LINE
  5
14B
  8
DATA
  6
CONTINUOUS
 62
     7
 10
221.5
 20
-602.9
 30
0.0
 11
216.5
 21
-606.0
 31
0.0
  0
POLYLINE
  5
14C
  8
DATA
  6
CONTINUOUS
 62
     7
 66
     1
 10
0.0
 20
0.0
 30
0.0
 70
     1
  0
VERTEX
  5
73D
  8
DATA
  6
CONTINUOUS
 62
     7
 10
223.7419069018468
 20
-597.1
 30
0.0
  0
VERTEX
  5
73E
  8
DATA
  6
CONTINUOUS
 62
     7
 10
228.1419069018468
 20
-597.1
 30
0.0
  0
VERTEX
  5
73F
  8
DATA
  6
CONTINUOUS
 62
     7
 10
228.1419069018468
 20
-601.5
 30
0.0
  0
VERTEX
  5
740
  8
DATA
  6
CONTINUOUS
 62
     7
 10
223.7419069018468
 20
-601.5
 30
0.0
  0
SEQEND
  5
900
  8
DATA
  6
CONTINUOUS
 62
     7
  0
POLYLINE
  5
153
  8
DATA
  6
CONTINUOUS
 62
     7
 66
     1
 10
0.0
 20
0.0
 30
0.0
 70
     1
  0
VERTEX
  5
741
  8
DATA
  6
CONTINUOUS
 62
     7
 10
223.7419069018468
 20
-592.0
 30
0.0
  0
VERTEX
  5
742
  8
DATA
  6
CONTINUOUS
 62
     7
 10
228.1419069018468
 20
-592.0
 30
0.0
  0
VERTEX
  5
743
  8
DATA
  6
CONTINUOUS
 62
     7
 10
228.1419069018468
 20
-593.0
 30
0.0
  0
VERTEX
  5
744
  8
DATA
  6
CONTINUOUS
 62
     7
 10
223.7419069018468
 20
-593.0
 30
0.0
  0
SEQEND
  5
901
  8
DATA
  6
CONTINUOUS
 62
     7
  0
CIRCLE
  5
15A
  8
DATA
  6
CONTINUOUS
 62
     7
 10
251.5
 20
-600.0
 30
0.0
 40
5.5
  0
LINE
  5
15B
  8
DATA
  6
CONTINUOUS
 62
     7
 10
-7.0
 20
-502.5
 30
0.0
 11
4.0
 21
-502.5
 31
0.0
  0
LINE
  5
15C
  8
DATA
  6
CONTINUOUS
 62
     7
 10
-7.0
 20
-502.5
 30
0.0
 11
-7.0
 21
-500.0
 31
0.0
  0
LINE
  5
15D
  8
DATA
  6
CONTINUOUS
 62
     7
 10
4.0
 20
-502.5
 30
0.0
 11
4.0
 21
-500.0
 31
0.0
  0
ARC
  5
15E
  8
DATA
  6
CONTINUOUS
 62
     7
 10
-1.5
 20
-497.7
 30
0.0
 40
7.299999999999971
 50
221.1120904391666
 51
318.8879095608334
  0
LINE
  5
15F
  8
DATA
  6
CONTINUOUS
 62
     7
 10
9.350000000000023
 20
-517.0
 30
0.0
 11
39.64999999999998
 21
-517.0
 31
0.0
  0
LINE
  5
160
  8
DATA
  6
CONTINUOUS
 62
     7
 10
9.350000000000023
 20
-516.9999999999999
 30
0.0
 11
9.350000000000023
 21
-500.0
 31
0.0
  0
LINE
  5
161
  8
DATA
  6
CONTINUOUS
 62
     7
 10
39.64999999999998
 20
-516.9999999999999
 30
0.0
 11
39.64999999999998
 21
-500.0
 31
0.0
  0
ARC
  5
162
  8
DATA
  6
CONTINUOUS
 62
     7
 10
24.5
 20
-402.7387500000003
 30
0.0
 40
115.2612499999997
 50
262.4471569311102
 51
277.5528430688898
  0
CIRCLE
  5
163
  8
DATA
  6
CONTINUOUS
 62
     7
 10
25.0
 20
-482.0
 30
0.0
 40
3.0
  0
LINE
  5
164
  8
DATA
  6
CONTINUOUS
 62
     7
 10
23.5
 20
-482.0
 30
0.0
 11
26.5
 21
-482.0
 31
0.0
  0
LINE
  5
165
  8
DATA
  6
CONTINUOUS
 62
     7
 10
25.0
 20
-483.5
 30
0.0
 11
25.0
 21
-480.5
 31
0.0
  0
CIRCLE
  5
166
  8
DATA
  6
CONTINUOUS
 62
     7
 10
-134.0
 20
-482.0
 30
0.0
 40
3.0
  0
LINE
  5
167
  8
DATA
  6
CONTINUOUS
 62
     7
 10
-135.5
 20
-482.0
 30
0.0
 11
-132.5
 21
-482.0
 31
0.0
  0
LINE
  5
168
  8
DATA
  6
CONTINUOUS
 62
     7
 10
-134.0
 20
-483.5
 30
0.0
 11
-134.0
 21
-480.5
 31
0.0
  0
CIRCLE
  5
169
  8
DATA
  6
CONTINUOUS
 62
     7
 10
184.0
 20
-482.0
 30
0.0
 40
3.0
  0
LINE
  5
16A
  8
DATA
  6
CONTINUOUS
 62
     7
 10
182.5
 20
-482.0
 30
0.0
 11
185.5
 21
-482.0
 31
0.0
  0
LINE
  5
16B
  8
DATA
  6
CONTINUOUS
 62
     7
 10
184.0
 20
-483.5
 30
0.0
 11
184.0
 21
-480.5
 31
0.0
  0
LINE
  5
16C
  8
DATA
  6
CONTINUOUS
 62
     7
 10
55.04999999999995
 20
-510.0
 30
0.0
 11
55.04999999999995
 21
-500.0
 31
0.0
  0
LINE
  5
16D
  8
DATA
  6
CONTINUOUS
 62
     7
 10
71.95000000000005
 20
-510.0
 30
0.0
 11
71.95000000000005
 21
-500.0
 31
0.0
  0
LINE
  5
16E
  8
DATA
  6
CONTINUOUS
 62
     7
 10
55.04999999999995
 20
-510.0
 30
0.0
 11
71.95000000000005
 21
-510.0
 31
0.0
  0
ARC
  5
16F
  8
DATA
  6
CONTINUOUS
 62
     7
 10
63.5
 20
-474.7987499999996
 30
0.0
 40
36.20125000000041
 50
256.5016504208608
 51
283.4983495791392
  0
LINE
  5
170
  8
DATA
  6
CONTINUOUS
 62
     7
 10
80.04999999999995
 20
-510.0
 30
0.0
 11
80.04999999999995
 21
-500.0
 31
0.0
  0
LINE
  5
171
  8
DATA
  6
CONTINUOUS
 62
     7
 10
96.95000000000005
 20
-510.0
 30
0.0
 11
96.95000000000005
 21
-500.0
 31
0.0
  0
LINE
  5
172
  8
DATA
  6
CONTINUOUS
 62
     7
 10
80.04999999999995
 20
-510.0
 30
0.0
 11
96.95000000000005
 21
-510.0
 31
0.0
  0
ARC
  5
173
  8
DATA
  6
CONTINUOUS
 62
     7
 10
88.5
 20
-474.7987499999996
 30
0.0
 40
36.20125000000041
 50
256.5016504208608
 51
283.4983495791392
  0
LINE
  5
174
  8
DATA
  6
CONTINUOUS
 62
     7
 10
105.05
 20
-510.0
 30
0.0
 11
105.05
 21
-500.0
 31
0.0
  0
LINE
  5
175
  8
DATA
  6
CONTINUOUS
 62
     7
 10
121.95
 20
-510.0
 30
0.0
 11
121.95
 21
-500.0
 31
0.0
  0
LINE
  5
176
  8
DATA
  6
CONTINUOUS
 62
     7
 10
105.05
 20
-510.0
 30
0.0
 11
121.95
 21
-510.0
 31
0.0
  0
ARC
  5
177
  8
DATA
  6
CONTINUOUS
 62
     7
 10
113.5
 20
-474.7987499999996
 30
0.0
 40
36.20125000000041
 50
256.5016504208608
 51
283.4983495791392
  0
LINE
  5
178
  8
DATA
  6
CONTINUOUS
 62
     7
 10
138.0
 20
-502.5
 30
0.0
 11
149.0
 21
-502.5
 31
0.0
  0
LINE
  5
179
  8
DATA
  6
CONTINUOUS
 62
     7
 10
138.0
 20
-502.5
 30
0.0
 11
138.0
 21
-500.0
 31
0.0
  0
LINE
  5
17A
  8
DATA
  6
CONTINUOUS
 62
     7
 10
149.0
 20
-502.5
 30
0.0
 11
149.0
 21
-500.0
 31
0.0
  0
ARC
  5
17B
  8
DATA
  6
CONTINUOUS
 62
     7
 10
143.5
 20
-497.7
 30
0.0
 40
7.299999999999971
 50
221.1120904391666
 51
318.8879095608334
  0
LINE
  5
17C
  8
DATA
  6
CONTINUOUS
 62
     7
 10
156.5
 20
-502.5
 30
0.0
 11
167.5
 21
-502.5
 31
0.0
  0
LINE
  5
17D
  8
DATA
  6
CONTINUOUS
 62
     7
 10
156.5
 20
-502.5
 30
0.0
 11
156.5
 21
-500.0
 31
0.0
  0
LINE
  5
17E
  8
DATA
  6
CONTINUOUS
 62
     7
 10
167.5
 20
-502.5
 30
0.0
 11
167.5
 21
-500.0
 31
0.0
  0
ARC
  5
17F
  8
DATA
  6
CONTINUOUS
 62
     7
 10
162.0
 20
-497.7
 30
0.0
 40
7.299999999999971
 50
221.1120904391666
 51
318.8879095608334
  0
LINE
  5
180
  8
DATA
  6
CONTINUOUS
 62
     7
 10
171.5
 20
-502.0
 30
0.0
 11
171.5
 21
-500.0
 31
0.0
  0
LINE
  5
181
  8
DATA
  6
CONTINUOUS
 62
     7
 10
230.5
 20
-502.0
 30
0.0
 11
230.5
 21
-500.0
 31
0.0
  0
LINE
  5
182
  8
DATA
  6
CONTINUOUS
 62
     7
 10
230.5
 20
-502.0
 30
0.0
 11
171.5
 21
-502.0
 31
0.0
  0
LINE
  5
183
  8
DATA
  6
CONTINUOUS
 62
     7
 10
223.7419069018468
 20
-505.0
 30
0.0
 11
223.7419069018468
 21
-502.0
 31
0.0
  0
LINE
  5
184
  8
DATA
  6
CONTINUOUS
 62
     7
 10
228.1419069018468
 20
-505.0
 30
0.0
 11
228.1419069018468
 21
-502.0
 31
0.0
  0
LINE
  5
185
  8
DATA
  6
CONTINUOUS
 62
     7
 10
228.1419069018468
 20
-505.0
 30
0.0
 11
223.7419069018468
 21
-505.0
 31
0.0
  0
LINE
  5
186
  8
DATA
  6
CONTINUOUS
 62
     7
 10
246.0
 20
-505.0
 30
0.0
 11
246.0
 21
-500.0
 31
0.0
  0
LINE
  5
187
  8
DATA
  6
CONTINUOUS
 62
     7
 10
257.0
 20
-505.0
 30
0.0
 11
257.0
 21
-500.0
 31
0.0
  0
LINE
  5
188
  8
DATA
  6
CONTINUOUS
 62
     7
 10
257.0
 20
-505.0
 30
0.0
 11
246.0
 21
-505.0
 31
0.0
  0
ARC
  5
189
  8
DATA
  6
CONTINUOUS
 62
     7
 10
251.5
 20
-490.375
 30
0.0
 40
15.625
 50
249.390307062468
 51
290.609692937532
  0
LINE
  5
18A
  8
DATA
  6
CONTINUOUS
 62
     7
 10
347.5451450109039
 20
-585.9941123638048
 30
0.0
 11
347.5451450109039
 21
-585.9999999999999
 31
0.0
  0
LINE
  5
18B
  8
DATA
  6
CONTINUOUS
 62
     7
 10
347.5451450109039
 20
-585.9941123638048
 30
0.0
 11
350.0451450109039
 21
-585.9941123638048
 31
0.0
  0
ARC
  5
18C
  8
DATA
  6
CONTINUOUS
 62
     7
 10
352.3451450109038
 20
-591.4941123638048
 30
0.0
 40
7.299999999999971
 50
131.1120904391666
 51
131.5840867497532
  0
LINE
  5
18D
  8
DATA
  6
CONTINUOUS
 62
     7
 10
345.0
 20
-594.5
 30
0.0
 11
350.0
 21
-594.5
 31
0.0
  0
LINE
  5
18E
  8
DATA
  6
CONTINUOUS
 62
     7
 10
345.0
 20
-605.5
 30
0.0
 11
350.0
 21
-605.5
 31
0.0
  0
LINE
  5
18F
  8
DATA
  6
CONTINUOUS
 62
     7
 10
345.0
 20
-605.5
 30
0.0
 11
345.0
 21
-594.5
 31
0.0
  0
ARC
  5
190
  8
DATA
  6
CONTINUOUS
 62
     7
 10
359.625
 20
-600.0
 30
0.0
 40
15.625
 50
159.3903070624679
 51
200.609692937532
  0
LINE
  5
191
  8
DATA
  6
CONTINUOUS
 62
     7
 10
348.0
 20
-594.0
 30
0.0
 11
350.0
 21
-594.0
 31
0.0
  0
LINE
  5
192
  8
DATA
  6
CONTINUOUS
 62
     7
 10
348.0
 20
-606.0
 30
0.0
 11
350.0
 21
-606.0
 31
0.0
  0
LINE
  5
193
  8
DATA
  6
CONTINUOUS
 62
     7
 10
348.0
 20
-594.0
 30
0.0
 11
348.0
 21
-594.5
 31
0.0
  0
LINE
  5
194
  8
DATA
  6
CONTINUOUS
 62
     7
 10
348.0
 20
-605.5
 30
0.0
 11
348.0
 21
-606.0
 31
0.0
  0
LINE
  5
195
  8
DATA
  6
CONTINUOUS
 62
     7
 10
347.5
 20
-586.0
 30
0.0
 11
347.5
 21
-594.5
 31
0.0
  0
LINE
  5
196
  8
DATA
  6
CONTINUOUS
 62
     7
 10
347.5
 20
-586.0
 30
0.0
 11
350.0
 21
-586.0
 31
0.0
  0
ARC
  5
197
  8
DATA
  6
CONTINUOUS
 62
     7
 10
352.3
 20
-591.5
 30
0.0
 40
7.299999999999971
 50
131.1120904391666
 51
204.2650859026833
  0
LINE
  5
198
  8
DATA
  6
CONTINUOUS
 62
     7
 10
347.5
 20
-605.5
 30
0.0
 11
347.5
 21
-614.0
 31
0.0
  0
LINE
  5
199
  8
DATA
  6
CONTINUOUS
 62
     7
 10
347.5
 20
-614.0
 30
0.0
 11
350.0
 21
-614.0
 31
0.0
  0
ARC
  5
19A
  8
DATA
  6
CONTINUOUS
 62
     7
 10
352.3
 20
-608.5
 30
0.0
 40
7.299999999999986
 50
155.7349140973167
 51
228.8879095608334
  0
LINE
  5
19B
  8
DATA
  6
CONTINUOUS
 62
     7
 10
340.0
 20
-591.55
 30
0.0
 11
345.000171234885
 21
-591.55
 31
0.0
  0
LINE
  5
19C
  8
DATA
  6
CONTINUOUS
 62
     7
 10
340.0
 20
-608.45
 30
0.0
 11
345.000171234885
 21
-608.45
 31
0.0
  0
LINE
  5
19D
  8
DATA
  6
CONTINUOUS
 62
     7
 10
340.0
 20
-591.55
 30
0.0
 11
340.0
 21
-608.45
 31
0.0
  0
ARC
  5
19E
  8
DATA
  6
CONTINUOUS
 62
     7
 10
375.2012500000004
 20
-600.0
 30
0.0
 40
36.20125000000041
 50
166.5016504208608
 51
193.4983495791392
  0
LINE
  5
19F
  8
DATA
  6
CONTINUOUS
 62
     7
 10
333.0
 20
-584.8499999999999
 30
0.0
 11
333.0
 21
-615.1499999999999
 31
0.0
  0
LINE
  5
1A0
  8
DATA
  6
CONTINUOUS
 62
     7
 10
333.0000000000001
 20
-584.8499999999999
 30
0.0
 11
350.0
 21
-584.8499999999999
 31
0.0
  0
LINE
  5
1A1
  8
DATA
  6
CONTINUOUS
 62
     7
 10
333.0000000000001
 20
-615.1499999999999
 30
0.0
 11
350.0
 21
-615.1499999999999
 31
0.0
  0
ARC
  5
1A2
  8
DATA
  6
CONTINUOUS
 62
     7
 10
447.2612499999997
 20
-600.0
 30
0.0
 40
115.2612499999997
 50
172.4471569311102
 51
187.5528430688898
  0
LINE
  5
1A3
  8
DATA
  6
CONTINUOUS
 62
     7
 10
347.5
 20
-614.0000000000001
 30
0.0
 11
347.5
 21
-614.5
 31
0.0
  0
LINE
  5
1A4
  8
DATA
  6
CONTINUOUS
 62
     7
 10
347.5
 20
-614.5
 30
0.0
 11
350.0
 21
-614.5
 31
0.0
  0
ARC
  5
1A5
  8
DATA
  6
CONTINUOUS
 62
     7
 10
352.3
 20
-609.0
 30
0.0
 40
7.299999999999971
 50
178.0374320167895
 51
228.8879095608334
  0
LINE
  5
1A6
  8
DATA
  6
CONTINUOUS
 62
     7
 10
354.7
 20
-610.75
 30
0.0
 11
350.0
 21
-610.75
 31
0.0
  0
LINE
  5
1A7
  8
DATA
  6
CONTINUOUS
 62
     7
 10
350.0
 20
-589.25
 30
0.0
 11
354.7
 21
-589.25
 31
0.0
  0
LINE
  5
1A8
  8
DATA
  6
CONTINUOUS
 62
     7
 10
354.7
 20
-577.5
 30
0.0
 11
354.7
 21
-589.25
 31
0.0
  0
LINE
  5
1A9
  8
DATA
  6
CONTINUOUS
 62
     7
 10
354.7
 20
-610.75
 30
0.0
 11
354.7
 21
-622.5
 31
0.0
  0
LINE
  5
1AA
  8
DATA
  6
CONTINUOUS
 62
     7
 10
360.0
 20
-577.5
 30
0.0
 11
360.0
 21
-622.5
 31
0.0
  0
CIRCLE
  5
1AB
  8
DATA
  6
CONTINUOUS
 62
     7
 10
380.2
 20
-584.0
 30
0.0
 40
3.0
  0
LINE
  5
1AC
  8
DATA
  6
CONTINUOUS
 62
     7
 10
378.7
 20
-584.0
 30
0.0
 11
381.7
 21
-584.0
 31
0.0
  0
LINE
  5
1AD
  8
DATA
  6
CONTINUOUS
 62
     7
 10
380.2
 20
-585.5
 30
0.0
 11
380.2
 21
-582.5
 31
0.0
  0
CIRCLE
  5
1AE
  8
DATA
  6
CONTINUOUS
 62
     7
 10
380.2
 20
-616.0
 30
0.0
 40
3.0
  0
LINE
  5
1AF
  8
DATA
  6
CONTINUOUS
 62
     7
 10
378.7
 20
-616.0
 30
0.0
 11
381.7
 21
-616.0
 31
0.0
  0
LINE
  5
1B0
  8
DATA
  6
CONTINUOUS
 62
     7
 10
380.2
 20
-617.5
 30
0.0
 11
380.2
 21
-614.5
 31
0.0
  0
CIRCLE
  5
1B1
  8
DATA
  6
CONTINUOUS
 62
     7
 10
481.2
 20
-616.0
 30
0.0
 40
3.0
  0
LINE
  5
1B2
  8
DATA
  6
CONTINUOUS
 62
     7
 10
479.7
 20
-616.0
 30
0.0
 11
482.7
 21
-616.0
 31
0.0
  0
LINE
  5
1B3
  8
DATA
  6
CONTINUOUS
 62
     7
 10
481.2
 20
-617.5
 30
0.0
 11
481.2
 21
-614.5
 31
0.0
  0
CIRCLE
  5
1B4
  8
DATA
  6
CONTINUOUS
 62
     7
 10
599.2
 20
-612.0
 30
0.0
 40
1.5
  0
CIRCLE
  5
1B5
  8
DATA
  6
CONTINUOUS
 62
     7
 10
599.2
 20
-588.0
 30
0.0
 40
1.5
  0
POLYLINE
  5
1B6
  8
DATA
  6
CONTINUOUS
 62
     7
 66
     1
 10
0.0
 20
0.0
 30
0.0
 70
     1
  0
VERTEX
  5
745
  8
DATA
  6
CONTINUOUS
 62
     7
 10
455.2
 20
-589.5
 30
0.0
  0
VERTEX
  5
746
  8
DATA
  6
CONTINUOUS
 62
     7
 10
456.6700000000001
 20
-589.5
 30
0.0
  0
VERTEX
  5
747
  8
DATA
  6
CONTINUOUS
 62
     7
 10
456.6700000000001
 20
-610.0
 30
0.0
  0
VERTEX
  5
748
  8
DATA
  6
CONTINUOUS
 62
     7
 10
455.2
 20
-610.0
 30
0.0
  0
SEQEND
  5
902
  8
DATA
  6
CONTINUOUS
 62
     7
  0
POLYLINE
  5
1BD
  8
DATA
  6
CONTINUOUS
 62
     7
 66
     1
 10
0.0
 20
0.0
 30
0.0
 70
     1
  0
VERTEX
  5
749
  8
DATA
  6
CONTINUOUS
 62
     7
 10
459.2
 20
-589.5
 30
0.0
  0
VERTEX
  5
74A
  8
DATA
  6
CONTINUOUS
 62
     7
 10
460.6700000000001
 20
-589.5
 30
0.0
  0
VERTEX
  5
74B
  8
DATA
  6
CONTINUOUS
 62
     7
 10
460.6700000000001
 20
-610.0
 30
0.0
  0
VERTEX
  5
74C
  8
DATA
  6
CONTINUOUS
 62
     7
 10
459.2
 20
-610.0
 30
0.0
  0
SEQEND
  5
903
  8
DATA
  6
CONTINUOUS
 62
     7
  0
POLYLINE
  5
1C4
  8
DATA
  6
CONTINUOUS
 62
     7
 66
     1
 10
0.0
 20
0.0
 30
0.0
 70
     1
  0
VERTEX
  5
74D
  8
DATA
  6
CONTINUOUS
 62
     7
 10
463.2
 20
-589.5
 30
0.0
  0
VERTEX
  5
74E
  8
DATA
  6
CONTINUOUS
 62
     7
 10
464.6700000000001
 20
-589.5
 30
0.0
  0
VERTEX
  5
74F
  8
DATA
  6
CONTINUOUS
 62
     7
 10
464.6700000000001
 20
-610.0
 30
0.0
  0
VERTEX
  5
750
  8
DATA
  6
CONTINUOUS
 62
     7
 10
463.2
 20
-610.0
 30
0.0
  0
SEQEND
  5
904
  8
DATA
  6
CONTINUOUS
 62
     7
  0
POLYLINE
  5
1CB
  8
DATA
  6
CONTINUOUS
 62
     7
 66
     1
 10
0.0
 20
0.0
 30
0.0
 70
     1
  0
VERTEX
  5
751
  8
DATA
  6
CONTINUOUS
 62
     7
 10
467.2
 20
-589.5
 30
0.0
  0
VERTEX
  5
752
  8
DATA
  6
CONTINUOUS
 62
     7
 10
468.6700000000001
 20
-589.5
 30
0.0
  0
VERTEX
  5
753
  8
DATA
  6
CONTINUOUS
 62
     7
 10
468.6700000000001
 20
-610.0
 30
0.0
  0
VERTEX
  5
754
  8
DATA
  6
CONTINUOUS
 62
     7
 10
467.2
 20
-610.0
 30
0.0
  0
SEQEND
  5
905
  8
DATA
  6
CONTINUOUS
 62
     7
  0
POLYLINE
  5
1D2
  8
DATA
  6
CONTINUOUS
 62
     7
 66
     1
 10
0.0
 20
0.0
 30
0.0
 70
     1
  0
VERTEX
  5
755
  8
DATA
  6
CONTINUOUS
 62
     7
 10
471.2
 20
-589.5
 30
0.0
  0
VERTEX
  5
756
  8
DATA
  6
CONTINUOUS
 62
     7
 10
472.6700000000001
 20
-589.5
 30
0.0
  0
VERTEX
  5
757
  8
DATA
  6
CONTINUOUS
 62
     7
 10
472.6700000000001
 20
-610.0
 30
0.0
  0
VERTEX
  5
758
  8
DATA
  6
CONTINUOUS
 62
     7
 10
471.2
 20
-610.0
 30
0.0
  0
SEQEND
  5
906
  8
DATA
  6
CONTINUOUS
 62
     7
  0
POLYLINE
  5
1D9
  8
DATA
  6
CONTINUOUS
 62
     7
 66
     1
 10
0.0
 20
0.0
 30
0.0
 70
     1
  0
VERTEX
  5
759
  8
DATA
  6
CONTINUOUS
 62
     7
 10
475.2
 20
-589.5
 30
0.0
  0
VERTEX
  5
75A
  8
DATA
  6
CONTINUOUS
 62
     7
 10
476.6700000000001
 20
-589.5
 30
0.0
  0
VERTEX
  5
75B
  8
DATA
  6
CONTINUOUS
 62
     7
 10
476.6700000000001
 20
-610.0
 30
0.0
  0
VERTEX
  5
75C
  8
DATA
  6
CONTINUOUS
 62
     7
 10
475.2
 20
-610.0
 30
0.0
  0
SEQEND
  5
907
  8
DATA
  6
CONTINUOUS
 62
     7
  0
POLYLINE
  5
1E0
  8
DATA
  6
CONTINUOUS
 62
     7
 66
     1
 10
0.0
 20
0.0
 30
0.0
 70
     1
  0
VERTEX
  5
75D
  8
DATA
  6
CONTINUOUS
 62
     7
 10
479.2
 20
-589.5
 30
0.0
  0
VERTEX
  5
75E
  8
DATA
  6
CONTINUOUS
 62
     7
 10
480.6700000000001
 20
-589.5
 30
0.0
  0
VERTEX
  5
75F
  8
DATA
  6
CONTINUOUS
 62
     7
 10
480.6700000000001
 20
-610.0
 30
0.0
  0
VERTEX
  5
760
  8
DATA
  6
CONTINUOUS
 62
     7
 10
479.2
 20
-610.0
 30
0.0
  0
SEQEND
  5
908
  8
DATA
  6
CONTINUOUS
 62
     7
  0
POLYLINE
  5
1E7
  8
DATA
  6
CONTINUOUS
 62
     7
 66
     1
 10
0.0
 20
0.0
 30
0.0
 70
     1
  0
VERTEX
  5
761
  8
DATA
  6
CONTINUOUS
 62
     7
 10
483.2
 20
-589.5
 30
0.0
  0
VERTEX
  5
762
  8
DATA
  6
CONTINUOUS
 62
     7
 10
484.6700000000001
 20
-589.5
 30
0.0
  0
VERTEX
  5
763
  8
DATA
  6
CONTINUOUS
 62
     7
 10
484.6700000000001
 20
-610.0
 30
0.0
  0
VERTEX
  5
764
  8
DATA
  6
CONTINUOUS
 62
     7
 10
483.2
 20
-610.0
 30
0.0
  0
SEQEND
  5
909
  8
DATA
  6
CONTINUOUS
 62
     7
  0
POLYLINE
  5
1EE
  8
DATA
  6
CONTINUOUS
 62
     7
 66
     1
 10
0.0
 20
0.0
 30
0.0
 70
     1
  0
VERTEX
  5
765
  8
DATA
  6
CONTINUOUS
 62
     7
 10
487.2
 20
-589.5
 30
0.0
  0
VERTEX
  5
766
  8
DATA
  6
CONTINUOUS
 62
     7
 10
488.6700000000001
 20
-589.5
 30
0.0
  0
VERTEX
  5
767
  8
DATA
  6
CONTINUOUS
 62
     7
 10
488.6700000000001
 20
-610.0
 30
0.0
  0
VERTEX
  5
768
  8
DATA
  6
CONTINUOUS
 62
     7
 10
487.2
 20
-610.0
 30
0.0
  0
SEQEND
  5
90A
  8
DATA
  6
CONTINUOUS
 62
     7
  0
POLYLINE
  5
1F5
  8
DATA
  6
CONTINUOUS
 62
     7
 66
     1
 10
0.0
 20
0.0
 30
0.0
 70
     1
  0
VERTEX
  5
769
  8
DATA
  6
CONTINUOUS
 62
     7
 10
491.2
 20
-589.5
 30
0.0
  0
VERTEX
  5
76A
  8
DATA
  6
CONTINUOUS
 62
     7
 10
492.6700000000001
 20
-589.5
 30
0.0
  0
VERTEX
  5
76B
  8
DATA
  6
CONTINUOUS
 62
     7
 10
492.6700000000001
 20
-610.0
 30
0.0
  0
VERTEX
  5
76C
  8
DATA
  6
CONTINUOUS
 62
     7
 10
491.2
 20
-610.0
 30
0.0
  0
SEQEND
  5
90B
  8
DATA
  6
CONTINUOUS
 62
     7
  0
POLYLINE
  5
1FC
  8
DATA
  6
CONTINUOUS
 62
     7
 66
     1
 10
0.0
 20
0.0
 30
0.0
 70
     1
  0
VERTEX
  5
76D
  8
DATA
  6
CONTINUOUS
 62
     7
 10
495.2
 20
-589.5
 30
0.0
  0
VERTEX
  5
76E
  8
DATA
  6
CONTINUOUS
 62
     7
 10
496.6700000000001
 20
-589.5
 30
0.0
  0
VERTEX
  5
76F
  8
DATA
  6
CONTINUOUS
 62
     7
 10
496.6700000000001
 20
-610.0
 30
0.0
  0
VERTEX
  5
770
  8
DATA
  6
CONTINUOUS
 62
     7
 10
495.2
 20
-610.0
 30
0.0
  0
SEQEND
  5
90C
  8
DATA
  6
CONTINUOUS
 62
     7
  0
POLYLINE
  5
203
  8
DATA
  6
CONTINUOUS
 62
     7
 66
     1
 10
0.0
 20
0.0
 30
0.0
 70
     1
  0
VERTEX
  5
771
  8
DATA
  6
CONTINUOUS
 62
     7
 10
499.2
 20
-589.5
 30
0.0
  0
VERTEX
  5
772
  8
DATA
  6
CONTINUOUS
 62
     7
 10
500.6700000000001
 20
-589.5
 30
0.0
  0
VERTEX
  5
773
  8
DATA
  6
CONTINUOUS
 62
     7
 10
500.6700000000001
 20
-610.0
 30
0.0
  0
VERTEX
  5
774
  8
DATA
  6
CONTINUOUS
 62
     7
 10
499.2
 20
-610.0
 30
0.0
  0
SEQEND
  5
90D
  8
DATA
  6
CONTINUOUS
 62
     7
  0
POLYLINE
  5
20A
  8
DATA
  6
CONTINUOUS
 62
     7
 66
     1
 10
0.0
 20
0.0
 30
0.0
 70
     1
  0
VERTEX
  5
775
  8
DATA
  6
CONTINUOUS
 62
     7
 10
503.2
 20
-589.5
 30
0.0
  0
VERTEX
  5
776
  8
DATA
  6
CONTINUOUS
 62
     7
 10
504.6700000000001
 20
-589.5
 30
0.0
  0
VERTEX
  5
777
  8
DATA
  6
CONTINUOUS
 62
     7
 10
504.6700000000001
 20
-610.0
 30
0.0
  0
VERTEX
  5
778
  8
DATA
  6
CONTINUOUS
 62
     7
 10
503.2
 20
-610.0
 30
0.0
  0
SEQEND
  5
90E
  8
DATA
  6
CONTINUOUS
 62
     7
  0
POLYLINE
  5
211
  8
DATA
  6
CONTINUOUS
 62
     7
 66
     1
 10
0.0
 20
0.0
 30
0.0
 70
     1
  0
VERTEX
  5
779
  8
DATA
  6
CONTINUOUS
 62
     7
 10
507.2
 20
-589.5
 30
0.0
  0
VERTEX
  5
77A
  8
DATA
  6
CONTINUOUS
 62
     7
 10
508.6700000000001
 20
-589.5
 30
0.0
  0
VERTEX
  5
77B
  8
DATA
  6
CONTINUOUS
 62
     7
 10
508.6700000000001
 20
-610.0
 30
0.0
  0
VERTEX
  5
77C
  8
DATA
  6
CONTINUOUS
 62
     7
 10
507.2
 20
-610.0
 30
0.0
  0
SEQEND
  5
90F
  8
DATA
  6
CONTINUOUS
 62
     7
  0
POLYLINE
  5
218
  8
DATA
  6
CONTINUOUS
 62
     7
 66
     1
 10
0.0
 20
0.0
 30
0.0
 70
     1
  0
VERTEX
  5
77D
  8
DATA
  6
CONTINUOUS
 62
     7
 10
511.2
 20
-589.5
 30
0.0
  0
VERTEX
  5
77E
  8
DATA
  6
CONTINUOUS
 62
     7
 10
512.6700000000001
 20
-589.5
 30
0.0
  0
VERTEX
  5
77F
  8
DATA
  6
CONTINUOUS
 62
     7
 10
512.6700000000001
 20
-610.0
 30
0.0
  0
VERTEX
  5
780
  8
DATA
  6
CONTINUOUS
 62
     7
 10
511.2
 20
-610.0
 30
0.0
  0
SEQEND
  5
910
  8
DATA
  6
CONTINUOUS
 62
     7
  0
POLYLINE
  5
21F
  8
DATA
  6
CONTINUOUS
 62
     7
 66
     1
 10
0.0
 20
0.0
 30
0.0
 70
     1
  0
VERTEX
  5
781
  8
DATA
  6
CONTINUOUS
 62
     7
 10
515.2
 20
-589.5
 30
0.0
  0
VERTEX
  5
782
  8
DATA
  6
CONTINUOUS
 62
     7
 10
516.6700000000001
 20
-589.5
 30
0.0
  0
VERTEX
  5
783
  8
DATA
  6
CONTINUOUS
 62
     7
 10
516.6700000000001
 20
-610.0
 30
0.0
  0
VERTEX
  5
784
  8
DATA
  6
CONTINUOUS
 62
     7
 10
515.2
 20
-610.0
 30
0.0
  0
SEQEND
  5
911
  8
DATA
  6
CONTINUOUS
 62
     7
  0
POLYLINE
  5
226
  8
DATA
  6
CONTINUOUS
 62
     7
 66
     1
 10
0.0
 20
0.0
 30
0.0
 70
     1
  0
VERTEX
  5
785
  8
DATA
  6
CONTINUOUS
 62
     7
 10
519.2
 20
-589.5
 30
0.0
  0
VERTEX
  5
786
  8
DATA
  6
CONTINUOUS
 62
     7
 10
520.6700000000001
 20
-589.5
 30
0.0
  0
VERTEX
  5
787
  8
DATA
  6
CONTINUOUS
 62
     7
 10
520.6700000000001
 20
-610.0
 30
0.0
  0
VERTEX
  5
788
  8
DATA
  6
CONTINUOUS
 62
     7
 10
519.2
 20
-610.0
 30
0.0
  0
SEQEND
  5
912
  8
DATA
  6
CONTINUOUS
 62
     7
  0
POLYLINE
  5
22D
  8
DATA
  6
CONTINUOUS
 62
     7
 66
     1
 10
0.0
 20
0.0
 30
0.0
 70
     1
  0
VERTEX
  5
789
  8
DATA
  6
CONTINUOUS
 62
     7
 10
523.2
 20
-589.5
 30
0.0
  0
VERTEX
  5
78A
  8
DATA
  6
CONTINUOUS
 62
     7
 10
524.6700000000001
 20
-589.5
 30
0.0
  0
VERTEX
  5
78B
  8
DATA
  6
CONTINUOUS
 62
     7
 10
524.6700000000001
 20
-610.0
 30
0.0
  0
VERTEX
  5
78C
  8
DATA
  6
CONTINUOUS
 62
     7
 10
523.2
 20
-610.0
 30
0.0
  0
SEQEND
  5
913
  8
DATA
  6
CONTINUOUS
 62
     7
  0
POLYLINE
  5
234
  8
DATA
  6
CONTINUOUS
 62
     7
 66
     1
 10
0.0
 20
0.0
 30
0.0
 70
     1
  0
VERTEX
  5
78D
  8
DATA
  6
CONTINUOUS
 62
     7
 10
527.2
 20
-589.5
 30
0.0
  0
VERTEX
  5
78E
  8
DATA
  6
CONTINUOUS
 62
     7
 10
528.6700000000001
 20
-589.5
 30
0.0
  0
VERTEX
  5
78F
  8
DATA
  6
CONTINUOUS
 62
     7
 10
528.6700000000001
 20
-610.0
 30
0.0
  0
VERTEX
  5
790
  8
DATA
  6
CONTINUOUS
 62
     7
 10
527.2
 20
-610.0
 30
0.0
  0
SEQEND
  5
914
  8
DATA
  6
CONTINUOUS
 62
     7
  0
POLYLINE
  5
23B
  8
DATA
  6
CONTINUOUS
 62
     7
 66
     1
 10
0.0
 20
0.0
 30
0.0
 70
     1
  0
VERTEX
  5
791
  8
DATA
  6
CONTINUOUS
 62
     7
 10
531.2
 20
-589.5
 30
0.0
  0
VERTEX
  5
792
  8
DATA
  6
CONTINUOUS
 62
     7
 10
532.6700000000001
 20
-589.5
 30
0.0
  0
VERTEX
  5
793
  8
DATA
  6
CONTINUOUS
 62
     7
 10
532.6700000000001
 20
-610.0
 30
0.0
  0
VERTEX
  5
794
  8
DATA
  6
CONTINUOUS
 62
     7
 10
531.2
 20
-610.0
 30
0.0
  0
SEQEND
  5
915
  8
DATA
  6
CONTINUOUS
 62
     7
  0
POLYLINE
  5
242
  8
DATA
  6
CONTINUOUS
 62
     7
 66
     1
 10
0.0
 20
0.0
 30
0.0
 70
     1
  0
VERTEX
  5
795
  8
DATA
  6
CONTINUOUS
 62
     7
 10
535.2
 20
-589.5
 30
0.0
  0
VERTEX
  5
796
  8
DATA
  6
CONTINUOUS
 62
     7
 10
536.6700000000001
 20
-589.5
 30
0.0
  0
VERTEX
  5
797
  8
DATA
  6
CONTINUOUS
 62
     7
 10
536.6700000000001
 20
-610.0
 30
0.0
  0
VERTEX
  5
798
  8
DATA
  6
CONTINUOUS
 62
     7
 10
535.2
 20
-610.0
 30
0.0
  0
SEQEND
  5
916
  8
DATA
  6
CONTINUOUS
 62
     7
  0
POLYLINE
  5
249
  8
DATA
  6
CONTINUOUS
 62
     7
 66
     1
 10
0.0
 20
0.0
 30
0.0
 70
     1
  0
VERTEX
  5
799
  8
DATA
  6
CONTINUOUS
 62
     7
 10
539.2
 20
-589.5
 30
0.0
  0
VERTEX
  5
79A
  8
DATA
  6
CONTINUOUS
 62
     7
 10
540.6700000000001
 20
-589.5
 30
0.0
  0
VERTEX
  5
79B
  8
DATA
  6
CONTINUOUS
 62
     7
 10
540.6700000000001
 20
-610.0
 30
0.0
  0
VERTEX
  5
79C
  8
DATA
  6
CONTINUOUS
 62
     7
 10
539.2
 20
-610.0
 30
0.0
  0
SEQEND
  5
917
  8
DATA
  6
CONTINUOUS
 62
     7
  0
POLYLINE
  5
250
  8
DATA
  6
CONTINUOUS
 62
     7
 66
     1
 10
0.0
 20
0.0
 30
0.0
 70
     1
  0
VERTEX
  5
79D
  8
DATA
  6
CONTINUOUS
 62
     7
 10
543.2
 20
-589.5
 30
0.0
  0
VERTEX
  5
79E
  8
DATA
  6
CONTINUOUS
 62
     7
 10
544.6700000000001
 20
-589.5
 30
0.0
  0
VERTEX
  5
79F
  8
DATA
  6
CONTINUOUS
 62
     7
 10
544.6700000000001
 20
-610.0
 30
0.0
  0
VERTEX
  5
7A0
  8
DATA
  6
CONTINUOUS
 62
     7
 10
543.2
 20
-610.0
 30
0.0
  0
SEQEND
  5
918
  8
DATA
  6
CONTINUOUS
 62
     7
  0
POLYLINE
  5
257
  8
DATA
  6
CONTINUOUS
 62
     7
 66
     1
 10
0.0
 20
0.0
 30
0.0
 70
     1
  0
VERTEX
  5
7A1
  8
DATA
  6
CONTINUOUS
 62
     7
 10
547.2
 20
-589.5
 30
0.0
  0
VERTEX
  5
7A2
  8
DATA
  6
CONTINUOUS
 62
     7
 10
548.6700000000001
 20
-589.5
 30
0.0
  0
VERTEX
  5
7A3
  8
DATA
  6
CONTINUOUS
 62
     7
 10
548.6700000000001
 20
-610.0
 30
0.0
  0
VERTEX
  5
7A4
  8
DATA
  6
CONTINUOUS
 62
     7
 10
547.2
 20
-610.0
 30
0.0
  0
SEQEND
  5
919
  8
DATA
  6
CONTINUOUS
 62
     7
  0
POLYLINE
  5
25E
  8
DATA
  6
CONTINUOUS
 62
     7
 66
     1
 10
0.0
 20
0.0
 30
0.0
 70
     1
  0
VERTEX
  5
7A5
  8
DATA
  6
CONTINUOUS
 62
     7
 10
551.2
 20
-589.5
 30
0.0
  0
VERTEX
  5
7A6
  8
DATA
  6
CONTINUOUS
 62
     7
 10
552.6700000000001
 20
-589.5
 30
0.0
  0
VERTEX
  5
7A7
  8
DATA
  6
CONTINUOUS
 62
     7
 10
552.6700000000001
 20
-610.0
 30
0.0
  0
VERTEX
  5
7A8
  8
DATA
  6
CONTINUOUS
 62
     7
 10
551.2
 20
-610.0
 30
0.0
  0
SEQEND
  5
91A
  8
DATA
  6
CONTINUOUS
 62
     7
  0
LINE
  5
265
  8
DATA
  6
CONTINUOUS
 62
     7
 10
268.0
 20
-472.8
 30
0.0
 11
267.0
 21
-472.8
 31
0.0
  0
LINE
  5
266
  8
DATA
  6
CONTINUOUS
 62
     7
 10
268.0
 20
-466.8
 30
0.0
 11
267.0
 21
-466.8
 31
0.0
  0
LINE
  5
267
  8
DATA
  6
CONTINUOUS
 62
     7
 10
268.0
 20
-472.8
 30
0.0
 11
268.0
 21
-466.8
 31
0.0
  0
ARC
  5
268
  8
DATA
  6
CONTINUOUS
 62
     7
 10
264.0
 20
-469.8
 30
0.0
 40
5.0
 50
323.1301023541561
 51
36.86989764584405
  0
LINE
  5
269
  8
DATA
  6
CONTINUOUS
 62
     7
 10
268.0
 20
-371.8
 30
0.0
 11
267.0
 21
-371.8
 31
0.0
  0
LINE
  5
26A
  8
DATA
  6
CONTINUOUS
 62
     7
 10
268.0
 20
-365.8
 30
0.0
 11
267.0
 21
-365.8
 31
0.0
  0
LINE
  5
26B
  8
DATA
  6
CONTINUOUS
 62
     7
 10
268.0
 20
-371.8
 30
0.0
 11
268.0
 21
-365.8
 31
0.0
  0
ARC
  5
26C
  8
DATA
  6
CONTINUOUS
 62
     7
 10
264.0
 20
-368.8
 30
0.0
 40
5.0
 50
323.1301023541561
 51
36.86989764584405
  0
LINE
  5
26D
  8
DATA
  6
CONTINUOUS
 62
     7
 10
268.0
 20
-223.8
 30
0.0
 11
267.0
 21
-223.8
 31
0.0
  0
LINE
  5
26E
  8
DATA
  6
CONTINUOUS
 62
     7
 10
268.0
 20
-217.8
 30
0.0
 11
267.0
 21
-217.8
 31
0.0
  0
LINE
  5
26F
  8
DATA
  6
CONTINUOUS
 62
     7
 10
268.0
 20
-223.8
 30
0.0
 11
268.0
 21
-217.8
 31
0.0
  0
ARC
  5
270
  8
DATA
  6
CONTINUOUS
 62
     7
 10
264.0
 20
-220.8
 30
0.0
 40
5.0
 50
323.1301023541561
 51
36.86989764584405
  0
LINE
  5
271
  8
DATA
  6
CONTINUOUS
 62
     7
 10
-168.0
 20
-472.8
 30
0.0
 11
-167.0
 21
-472.8
 31
0.0
  0
LINE
  5
272
  8
DATA
  6
CONTINUOUS
 62
     7
 10
-168.0
 20
-466.8
 30
0.0
 11
-167.0
 21
-466.8
 31
0.0
  0
LINE
  5
273
  8
DATA
  6
CONTINUOUS
 62
     7
 10
-168.0
 20
-472.8
 30
0.0
 11
-168.0
 21
-466.8
 31
0.0
  0
ARC
  5
274
  8
DATA
  6
CONTINUOUS
 62
     7
 10
-164.0
 20
-469.8
 30
0.0
 40
5.0
 50
143.130102354156
 51
216.869897645844
  0
LINE
  5
275
  8
DATA
  6
CONTINUOUS
 62
     7
 10
-168.0
 20
-371.8
 30
0.0
 11
-167.0
 21
-371.8
 31
0.0
  0
LINE
  5
276
  8
DATA
  6
CONTINUOUS
 62
     7
 10
-168.0
 20
-365.8
 30
0.0
 11
-167.0
 21
-365.8
 31
0.0
  0
LINE
  5
277
  8
DATA
  6
CONTINUOUS
 62
     7
 10
-168.0
 20
-371.8
 30
0.0
 11
-168.0
 21
-365.8
 31
0.0
  0
ARC
  5
278
  8
DATA
  6
CONTINUOUS
 62
     7
 10
-164.0
 20
-368.8
 30
0.0
 40
5.0
 50
143.130102354156
 51
216.869897645844
  0
LINE
  5
279
  8
DATA
  6
CONTINUOUS
 62
     7
 10
-168.0
 20
-223.8
 30
0.0
 11
-167.0
 21
-223.8
 31
0.0
  0
LINE
  5
27A
  8
DATA
  6
CONTINUOUS
 62
     7
 10
-168.0
 20
-217.8
 30
0.0
 11
-167.0
 21
-217.8
 31
0.0
  0
LINE
  5
27B
  8
DATA
  6
CONTINUOUS
 62
     7
 10
-168.0
 20
-223.8
 30
0.0
 11
-168.0
 21
-217.8
 31
0.0
  0
ARC
  5
27C
  8
DATA
  6
CONTINUOUS
 62
     7
 10
-164.0
 20
-220.8
 30
0.0
 40
5.0
 50
143.130102354156
 51
216.869897645844
  0
LINE
  5
27D
  8
DATA
  6
CONTINUOUS
 62
     7
 10
-167.0
 20
-110.0
 30
0.0
 11
-167.0
 21
-64.99999999999997
 31
0.0
  0
LINE
  5
27E
  8
DATA
  6
CONTINUOUS
 62
     7
 10
267.0
 20
-65.0
 30
0.0
 11
267.0
 21
-110.0
 31
0.0
  0
POLYLINE
  5
27F
  8
DATA
  6
CONTINUOUS
 62
     7
 66
     1
 10
0.0
 20
0.0
 30
0.0
 70
     1
  0
VERTEX
  5
7A9
  8
DATA
  6
CONTINUOUS
 62
     7
 10
-191.5
 20
-65.0
 30
0.0
  0
VERTEX
  5
7AA
  8
DATA
  6
CONTINUOUS
 62
     7
 10
291.5
 20
-65.0
 30
0.0
  0
VERTEX
  5
7AB
  8
DATA
  6
CONTINUOUS
 62
     7
 10
291.5
 20
-110.0
 30
0.0
  0
VERTEX
  5
7AC
  8
DATA
  6
CONTINUOUS
 62
     7
 10
-191.5
 20
-110.0
 30
0.0
  0
SEQEND
  5
91B
  8
DATA
  6
CONTINUOUS
 62
     7
  0
ARC
  5
286
  8
DATA
  6
CONTINUOUS
 62
     7
 10
284.3
 20
-71.20000000000005
 30
0.0
 40
3.200000000000045
 50
270.0
 51
90.0
  0
ARC
  5
287
  8
DATA
  6
CONTINUOUS
 62
     7
 10
279.9
 20
-71.20000000000005
 30
0.0
 40
3.200000000000045
 50
90.0
 51
270.0
  0
LINE
  5
288
  8
DATA
  6
CONTINUOUS
 62
     7
 10
279.9
 20
-68.0
 30
0.0
 11
284.3
 21
-68.0
 31
0.0
  0
LINE
  5
289
  8
DATA
  6
CONTINUOUS
 62
     7
 10
284.3
 20
-74.40000000000009
 30
0.0
 11
279.9
 21
-74.40000000000009
 31
0.0
  0
ARC
  5
28A
  8
DATA
  6
CONTINUOUS
 62
     7
 10
284.3
 20
-103.8
 30
0.0
 40
3.200000000000045
 50
270.0
 51
90.0
  0
ARC
  5
28B
  8
DATA
  6
CONTINUOUS
 62
     7
 10
279.9
 20
-103.8
 30
0.0
 40
3.200000000000045
 50
90.0
 51
270.0
  0
LINE
  5
28C
  8
DATA
  6
CONTINUOUS
 62
     7
 10
279.9
 20
-107.0
 30
0.0
 11
284.3
 21
-107.0
 31
0.0
  0
LINE
  5
28D
  8
DATA
  6
CONTINUOUS
 62
     7
 10
284.3
 20
-100.5999999999999
 30
0.0
 11
279.9
 21
-100.5999999999999
 31
0.0
  0
ARC
  5
28E
  8
DATA
  6
CONTINUOUS
 62
     7
 10
-184.3
 20
-71.20000000000005
 30
0.0
 40
3.200000000000045
 50
90.0
 51
270.0
  0
ARC
  5
28F
  8
DATA
  6
CONTINUOUS
 62
     7
 10
-179.9000000000001
 20
-71.20000000000005
 30
0.0
 40
3.200000000000045
 50
270.0
 51
90.0
  0
LINE
  5
290
  8
DATA
  6
CONTINUOUS
 62
     7
 10
-179.9000000000001
 20
-68.0
 30
0.0
 11
-184.3
 21
-68.0
 31
0.0
  0
LINE
  5
291
  8
DATA
  6
CONTINUOUS
 62
     7
 10
-184.3
 20
-74.40000000000009
 30
0.0
 11
-179.9000000000001
 21
-74.40000000000009
 31
0.0
  0
ARC
  5
292
  8
DATA
  6
CONTINUOUS
 62
     7
 10
-184.3
 20
-103.8
 30
0.0
 40
3.200000000000045
 50
90.0
 51
270.0
  0
ARC
  5
293
  8
DATA
  6
CONTINUOUS
 62
     7
 10
-179.9000000000001
 20
-103.8
 30
0.0
 40
3.200000000000045
 50
270.0
 51
90.0
  0
LINE
  5
294
  8
DATA
  6
CONTINUOUS
 62
     7
 10
-179.9000000000001
 20
-107.0
 30
0.0
 11
-184.3
 21
-107.0
 31
0.0
  0
LINE
  5
295
  8
DATA
  6
CONTINUOUS
 62
     7
 10
-184.3
 20
-100.5999999999999
 30
0.0
 11
-179.9000000000001
 21
-100.5999999999999
 31
0.0
  0
LINE
  5
296
  8
DATA
  6
CONTINUOUS
 62
     7
 10
268.0
 20
-106.5
 30
0.0
 11
267.0
 21
-106.5
 31
0.0
  0
LINE
  5
297
  8
DATA
  6
CONTINUOUS
 62
     7
 10
268.0
 20
-100.5
 30
0.0
 11
267.0
 21
-100.5
 31
0.0
  0
LINE
  5
298
  8
DATA
  6
CONTINUOUS
 62
     7
 10
268.0
 20
-106.5
 30
0.0
 11
268.0
 21
-100.5
 31
0.0
  0
ARC
  5
299
  8
DATA
  6
CONTINUOUS
 62
     7
 10
264.0
 20
-103.5
 30
0.0
 40
5.0
 50
323.1301023541561
 51
36.86989764584405
  0
LINE
  5
29A
  8
DATA
  6
CONTINUOUS
 62
     7
 10
268.0
 20
-78.5
 30
0.0
 11
267.0
 21
-78.5
 31
0.0
  0
LINE
  5
29B
  8
DATA
  6
CONTINUOUS
 62
     7
 10
268.0
 20
-72.5
 30
0.0
 11
267.0
 21
-72.5
 31
0.0
  0
LINE
  5
29C
  8
DATA
  6
CONTINUOUS
 62
     7
 10
268.0
 20
-78.5
 30
0.0
 11
268.0
 21
-68.5
 31
0.0
  0
ARC
  5
29D
  8
DATA
  6
CONTINUOUS
 62
     7
 10
264.0
 20
-75.5
 30
0.0
 40
5.0
 50
323.1301023541561
 51
36.86989764584405
  0
LINE
  5
29E
  8
DATA
  6
CONTINUOUS
 62
     7
 10
268.0
 20
-68.5
 30
0.0
 11
267.0
 21
-68.5
 31
0.0
  0
ARC
  5
29F
  8
DATA
  6
CONTINUOUS
 62
     7
 10
264.0
 20
-71.5
 30
0.0
 40
4.999999999999996
 50
336.4218215217981
 51
36.86989764584399
  0
LINE
  5
2A0
  8
DATA
  6
CONTINUOUS
 62
     7
 10
-168.0
 20
-106.5
 30
0.0
 11
-167.0
 21
-106.5
 31
0.0
  0
LINE
  5
2A1
  8
DATA
  6
CONTINUOUS
 62
     7
 10
-168.0
 20
-100.5
 30
0.0
 11
-167.0
 21
-100.5
 31
0.0
  0
LINE
  5
2A2
  8
DATA
  6
CONTINUOUS
 62
     7
 10
-168.0
 20
-106.5
 30
0.0
 11
-168.0
 21
-100.5
 31
0.0
  0
ARC
  5
2A3
  8
DATA
  6
CONTINUOUS
 62
     7
 10
-164.0
 20
-103.5
 30
0.0
 40
5.0
 50
143.130102354156
 51
216.869897645844
  0
LINE
  5
2A4
  8
DATA
  6
CONTINUOUS
 62
     7
 10
-168.0
 20
-78.5
 30
0.0
 11
-167.0
 21
-78.5
 31
0.0
  0
LINE
  5
2A5
  8
DATA
  6
CONTINUOUS
 62
     7
 10
-168.0
 20
-72.5
 30
0.0
 11
-167.0
 21
-72.5
 31
0.0
  0
LINE
  5
2A6
  8
DATA
  6
CONTINUOUS
 62
     7
 10
-168.0
 20
-78.5
 30
0.0
 11
-168.0
 21
-68.5
 31
0.0
  0
ARC
  5
2A7
  8
DATA
  6
CONTINUOUS
 62
     7
 10
-164.0
 20
-75.5
 30
0.0
 40
5.0
 50
143.130102354156
 51
216.869897645844
  0
LINE
  5
2A8
  8
DATA
  6
CONTINUOUS
 62
     7
 10
-168.0
 20
-68.5
 30
0.0
 11
-167.0
 21
-68.5
 31
0.0
  0
ARC
  5
2A9
  8
DATA
  6
CONTINUOUS
 62
     7
 10
-164.0
 20
-71.5
 30
0.0
 40
5.0
 50
143.130102354156
 51
203.5781784782018
  0
LINE
  5
2AA
  8
DATA
  6
CONTINUOUS
 62
     7
 10
-161.5
 20
-104.0
 30
0.0
 11
-161.5
 21
-64.99999999999997
 31
0.0
  0
LINE
  5
2AB
  8
DATA
  6
CONTINUOUS
 62
     7
 10
261.5
 20
-65.0
 30
0.0
 11
261.5
 21
-104.0
 31
0.0
  0
LINE
  5
2AC
  8
DATA
  6
CONTINUOUS
 62
     7
 10
-161.5
 20
-104.0
 30
0.0
 11
46.75962965079606
 21
-104.0
 31
0.0
  0
LINE
  5
2AD
  8
DATA
  6
CONTINUOUS
 62
     7
 10
53.24037034920366
 20
-104.0
 30
0.0
 11
261.5
 21
-104.0
 31
0.0
  0
LINE
  5
2AE
  8
DATA
  6
CONTINUOUS
 62
     7
 10
261.5
 20
-104.0
 30
0.0
 11
267.0
 21
-110.0
 31
0.0
  0
LINE
  5
2AF
  8
DATA
  6
CONTINUOUS
 62
     7
 10
-161.5
 20
-104.0
 30
0.0
 11
-167.0
 21
-110.0
 31
0.0
  0
CIRCLE
  5
2B0
  8
DATA
  6
CONTINUOUS
 62
     7
 10
49.99999999999983
 20
-104.2499999999999
 30
0.0
 40
3.0
  0
LINE
  5
2B1
  8
DATA
  6
CONTINUOUS
 62
     7
 10
48.49999999999983
 20
-104.2499999999999
 30
0.0
 11
51.49999999999983
 21
-104.2499999999999
 31
0.0
  0
LINE
  5
2B2
  8
DATA
  6
CONTINUOUS
 62
     7
 10
49.99999999999983
 20
-105.7499999999999
 30
0.0
 11
49.99999999999983
 21
-102.7499999999999
 31
0.0
  0
ARC
  5
2B3
  8
DATA
  6
CONTINUOUS
 62
     7
 10
49.99999999999983
 20
-104.2499999999999
 30
0.0
 40
3.249999999999838
 50
4.411725785769391
 51
175.5882742142326
  0
CIRCLE
  5
2B4
  8
DATA
  6
CONTINUOUS
 62
     7
 10
-149.5
 20
-83.99999999999997
 30
0.0
 40
9.850000000000136
  0
CIRCLE
  5
2B5
  8
DATA
  6
CONTINUOUS
 62
     7
 10
-149.5
 20
-83.99999999999997
 30
0.0
 40
7.850000000000136
  0
CIRCLE
  5
2B6
  8
DATA
  6
CONTINUOUS
 62
     7
 10
-149.5
 20
-80.07886197885747
 30
0.0
 40
1.2650000000001
  0
CIRCLE
  5
2B7
  8
DATA
  6
CONTINUOUS
 62
     7
 10
-145.5685184141137
 20
-83.99999999999997
 30
0.0
 40
1.2650000000001
  0
CIRCLE
  5
2B8
  8
DATA
  6
CONTINUOUS
 62
     7
 10
-153.4344444193873
 20
-83.99999999999997
 30
0.0
 40
1.264999999999873
  0
ARC
  5
2B9
  8
DATA
  6
CONTINUOUS
 62
     7
 10
-151.3278575598217
 20
-98.53415769466343
 30
0.0
 40
3.172142440178306
 50
101.3105610478386
 51
266.8892056860701
  0
ARC
  5
2BA
  8
DATA
  6
CONTINUOUS
 62
     7
 10
-147.6721424401783
 20
-98.53415769466343
 30
0.0
 40
3.172142440178105
 50
273.1107943139299
 51
78.68943895306596
  0
LINE
  5
2BB
  8
DATA
  6
CONTINUOUS
 62
     7
 10
-147.5
 20
-101.7016258698893
 30
0.0
 11
-151.5
 21
-101.7016258698893
 31
0.0
  0
CIRCLE
  5
2BC
  8
DATA
  6
CONTINUOUS
 62
     7
 10
-159.0068654128963
 20
-74.44677486279281
 30
0.0
 40
2.000699999999824
  0
CIRCLE
  5
2BD
  8
DATA
  6
CONTINUOUS
 62
     7
 10
-139.8664880061726
 20
-93.58715226951674
 30
0.0
 40
2.000700000000052
  0
ARC
  5
2BE
  8
DATA
  6
CONTINUOUS
 62
     7
 10
-149.5
 20
-83.99999999999997
 30
0.0
 40
10.9
 50
282.9893914705026
 51
257.0106085292324
  0
LINE
  5
2BF
  8
DATA
  6
CONTINUOUS
 62
     7
 10
-147.0500000000245
 20
-93.54044024142078
 30
0.0
 11
-147.0500000000245
 21
-95.42362294241568
 31
0.0
  0
LINE
  5
2C0
  8
DATA
  6
CONTINUOUS
 62
     7
 10
-151.9500000000246
 20
-93.54044024140805
 30
0.0
 11
-151.9500000000246
 21
-95.42362294242568
 31
0.0
  0
LINE
  5
2C1
  8
DATA
  6
CONTINUOUS
 62
     7
 10
-158.2568654128963
 20
-74.44677486279281
 30
0.0
 11
-159.7568654128963
 21
-74.44677486279281
 31
0.0
  0
LINE
  5
2C2
  8
DATA
  6
CONTINUOUS
 62
     7
 10
-159.0068654128963
 20
-73.69677486279281
 30
0.0
 11
-159.0068654128963
 21
-75.19677486279281
 31
0.0
  0
LINE
  5
2C3
  8
DATA
  6
CONTINUOUS
 62
     7
 10
-139.8664880061726
 20
-92.83715226951674
 30
0.0
 11
-139.8664880061726
 21
-94.33715226951674
 31
0.0
  0
LINE
  5
2C4
  8
DATA
  6
CONTINUOUS
 62
     7
 10
-139.1164880061726
 20
-93.58715226951674
 30
0.0
 11
-140.6164880061726
 21
-93.58715226951674
 31
0.0
  0
CIRCLE
  5
2C5
  8
DATA
  6
CONTINUOUS
 62
     7
 10
-125.0
 20
-83.99999999999997
 30
0.0
 40
9.850000000000136
  0
CIRCLE
  5
2C6
  8
DATA
  6
CONTINUOUS
 62
     7
 10
-125.0
 20
-83.99999999999997
 30
0.0
 40
7.850000000000136
  0
CIRCLE
  5
2C7
  8
DATA
  6
CONTINUOUS
 62
     7
 10
-125.0
 20
-80.07886197885747
 30
0.0
 40
1.2650000000001
  0
CIRCLE
  5
2C8
  8
DATA
  6
CONTINUOUS
 62
     7
 10
-121.0685184141137
 20
-83.99999999999997
 30
0.0
 40
1.2650000000001
  0
CIRCLE
  5
2C9
  8
DATA
  6
CONTINUOUS
 62
     7
 10
-128.9344444193873
 20
-83.99999999999997
 30
0.0
 40
1.264999999999873
  0
ARC
  5
2CA
  8
DATA
  6
CONTINUOUS
 62
     7
 10
-126.8278575598217
 20
-98.53415769466343
 30
0.0
 40
3.172142440178306
 50
101.3105610478386
 51
266.8892056860701
  0
ARC
  5
2CB
  8
DATA
  6
CONTINUOUS
 62
     7
 10
-123.1721424401783
 20
-98.53415769466343
 30
0.0
 40
3.172142440178105
 50
273.1107943139299
 51
78.68943895306596
  0
LINE
  5
2CC
  8
DATA
  6
CONTINUOUS
 62
     7
 10
-123.0
 20
-101.7016258698893
 30
0.0
 11
-127.0
 21
-101.7016258698893
 31
0.0
  0
CIRCLE
  5
2CD
  8
DATA
  6
CONTINUOUS
 62
     7
 10
-134.5068654128963
 20
-74.44677486279281
 30
0.0
 40
2.000699999999824
  0
CIRCLE
  5
2CE
  8
DATA
  6
CONTINUOUS
 62
     7
 10
-115.3664880061726
 20
-93.58715226951674
 30
0.0
 40
2.000700000000052
  0
ARC
  5
2CF
  8
DATA
  6
CONTINUOUS
 62
     7
 10
-125.0
 20
-83.99999999999997
 30
0.0
 40
10.9
 50
282.9893914705026
 51
257.0106085292324
  0
LINE
  5
2D0
  8
DATA
  6
CONTINUOUS
 62
     7
 10
-122.5500000000245
 20
-93.54044024142078
 30
0.0
 11
-122.5500000000245
 21
-95.42362294241568
 31
0.0
  0
LINE
  5
2D1
  8
DATA
  6
CONTINUOUS
 62
     7
 10
-127.4500000000246
 20
-93.54044024140805
 30
0.0
 11
-127.4500000000246
 21
-95.42362294242568
 31
0.0
  0
LINE
  5
2D2
  8
DATA
  6
CONTINUOUS
 62
     7
 10
-133.7568654128963
 20
-74.44677486279281
 30
0.0
 11
-135.2568654128963
 21
-74.44677486279281
 31
0.0
  0
LINE
  5
2D3
  8
DATA
  6
CONTINUOUS
 62
     7
 10
-134.5068654128963
 20
-73.69677486279281
 30
0.0
 11
-134.5068654128963
 21
-75.19677486279281
 31
0.0
  0
LINE
  5
2D4
  8
DATA
  6
CONTINUOUS
 62
     7
 10
-115.3664880061726
 20
-92.83715226951674
 30
0.0
 11
-115.3664880061726
 21
-94.33715226951674
 31
0.0
  0
LINE
  5
2D5
  8
DATA
  6
CONTINUOUS
 62
     7
 10
-114.6164880061726
 20
-93.58715226951674
 30
0.0
 11
-116.1164880061726
 21
-93.58715226951674
 31
0.0
  0
CIRCLE
  5
2D6
  8
DATA
  6
CONTINUOUS
 62
     7
 10
-100.0
 20
-83.99999999999997
 30
0.0
 40
11.0
  0
CIRCLE
  5
2D7
  8
DATA
  6
CONTINUOUS
 62
     7
 10
-100.0
 20
-83.99999999999997
 30
0.0
 40
8.25
  0
CIRCLE
  5
2D8
  8
DATA
  6
CONTINUOUS
 62
     7
 10
-100.0
 20
-79.81065933611714
 30
0.0
 40
1.25
  0
CIRCLE
  5
2D9
  8
DATA
  6
CONTINUOUS
 62
     7
 10
-104.25
 20
-83.99999999999997
 30
0.0
 40
1.25
  0
CIRCLE
  5
2DA
  8
DATA
  6
CONTINUOUS
 62
     7
 10
-95.75
 20
-83.99999999999997
 30
0.0
 40
1.25
  0
CIRCLE
  5
2DB
  8
DATA
  6
CONTINUOUS
 62
     7
 10
-109.5377562957992
 20
-74.39493666722589
 30
0.0
 40
2.000699999999824
  0
CIRCLE
  5
2DC
  8
DATA
  6
CONTINUOUS
 62
     7
 10
-90.3973788890753
 20
-93.53531407394982
 30
0.0
 40
2.000700000000052
  0
ARC
  5
2DD
  8
DATA
  6
CONTINUOUS
 62
     7
 10
-100.0
 20
-83.99999999999997
 30
0.0
 40
8.000000000000032
 50
247.9756871629579
 51
292.0243128370421
  0
LINE
  5
2DE
  8
DATA
  6
CONTINUOUS
 62
     7
 10
-103.0
 20
-91.41619848709567
 30
0.0
 11
-103.0
 21
-91.6852130744696
 31
0.0
  0
LINE
  5
2DF
  8
DATA
  6
CONTINUOUS
 62
     7
 10
-97.0
 20
-91.41619848709567
 30
0.0
 11
-97.0
 21
-91.6852130744696
 31
0.0
  0
LINE
  5
2E0
  8
DATA
  6
CONTINUOUS
 62
     7
 10
-90.3973788890753
 20
-92.78531407394982
 30
0.0
 11
-90.3973788890753
 21
-94.28531407394982
 31
0.0
  0
LINE
  5
2E1
  8
DATA
  6
CONTINUOUS
 62
     7
 10
-89.6473788890753
 20
-93.53531407394982
 30
0.0
 11
-91.1473788890753
 21
-93.53531407394982
 31
0.0
  0
LINE
  5
2E2
  8
DATA
  6
CONTINUOUS
 62
     7
 10
-109.5377562957992
 20
-73.64493666722589
 30
0.0
 11
-109.5377562957992
 21
-75.14493666722589
 31
0.0
  0
LINE
  5
2E3
  8
DATA
  6
CONTINUOUS
 62
     7
 10
-108.7877562957992
 20
-74.39493666722589
 30
0.0
 11
-110.2877562957992
 21
-74.39493666722589
 31
0.0
  0
CIRCLE
  5
2E4
  8
DATA
  6
CONTINUOUS
 62
     7
 10
-76.0
 20
-83.99999999999997
 30
0.0
 40
11.0
  0
CIRCLE
  5
2E5
  8
DATA
  6
CONTINUOUS
 62
     7
 10
-76.0
 20
-83.99999999999997
 30
0.0
 40
8.25
  0
CIRCLE
  5
2E6
  8
DATA
  6
CONTINUOUS
 62
     7
 10
-76.0
 20
-79.81065933611714
 30
0.0
 40
1.25
  0
CIRCLE
  5
2E7
  8
DATA
  6
CONTINUOUS
 62
     7
 10
-80.25
 20
-83.99999999999997
 30
0.0
 40
1.25
  0
CIRCLE
  5
2E8
  8
DATA
  6
CONTINUOUS
 62
     7
 10
-71.75
 20
-83.99999999999997
 30
0.0
 40
1.25
  0
CIRCLE
  5
2E9
  8
DATA
  6
CONTINUOUS
 62
     7
 10
-85.53775629579923
 20
-74.39493666722589
 30
0.0
 40
2.000699999999824
  0
CIRCLE
  5
2EA
  8
DATA
  6
CONTINUOUS
 62
     7
 10
-66.3973788890753
 20
-93.53531407394982
 30
0.0
 40
2.000700000000052
  0
ARC
  5
2EB
  8
DATA
  6
CONTINUOUS
 62
     7
 10
-76.0
 20
-83.99999999999997
 30
0.0
 40
8.000000000000032
 50
247.9756871629579
 51
292.0243128370421
  0
LINE
  5
2EC
  8
DATA
  6
CONTINUOUS
 62
     7
 10
-79.0
 20
-91.41619848709567
 30
0.0
 11
-79.0
 21
-91.6852130744696
 31
0.0
  0
LINE
  5
2ED
  8
DATA
  6
CONTINUOUS
 62
     7
 10
-73.0
 20
-91.41619848709567
 30
0.0
 11
-73.0
 21
-91.6852130744696
 31
0.0
  0
LINE
  5
2EE
  8
DATA
  6
CONTINUOUS
 62
     7
 10
-66.3973788890753
 20
-92.78531407394982
 30
0.0
 11
-66.3973788890753
 21
-94.28531407394982
 31
0.0
  0
LINE
  5
2EF
  8
DATA
  6
CONTINUOUS
 62
     7
 10
-65.6473788890753
 20
-93.53531407394982
 30
0.0
 11
-67.1473788890753
 21
-93.53531407394982
 31
0.0
  0
LINE
  5
2F0
  8
DATA
  6
CONTINUOUS
 62
     7
 10
-85.53775629579923
 20
-73.64493666722589
 30
0.0
 11
-85.53775629579923
 21
-75.14493666722589
 31
0.0
  0
LINE
  5
2F1
  8
DATA
  6
CONTINUOUS
 62
     7
 10
-84.78775629579923
 20
-74.39493666722589
 30
0.0
 11
-86.28775629579923
 21
-74.39493666722589
 31
0.0
  0
LINE
  5
2F2
  8
DATA
  6
CONTINUOUS
 62
     7
 10
-61.0
 20
-102.0
 30
0.0
 11
-61.0
 21
-71.0
 31
0.0
  0
LINE
  5
2F3
  8
DATA
  6
CONTINUOUS
 62
     7
 10
-63.0
 20
-69.0
 30
0.0
 11
-161.5
 21
-69.0
 31
0.0
  0
LINE
  5
2F4
  8
DATA
  6
CONTINUOUS
 62
     7
 10
-66.0
 20
-102.0
 30
0.0
 11
-161.5
 21
-102.0
 31
0.0
  0
LINE
  5
2F5
  8
DATA
  6
CONTINUOUS
 62
     7
 10
-5.5
 20
-99.0
 30
0.0
 11
-41.53439187530893
 21
-99.0
 31
0.0
  0
LINE
  5
2F6
  8
DATA
  6
CONTINUOUS
 62
     7
 10
-51.46560812469124
 20
-99.0
 30
0.0
 11
-120.034391875309
 21
-99.0
 31
0.0
  0
LINE
  5
2F7
  8
DATA
  6
CONTINUOUS
 62
     7
 10
-129.9656081246913
 20
-99.0
 30
0.0
 11
-144.534391875309
 21
-99.0
 31
0.0
  0
LINE
  5
2F8
  8
DATA
  6
CONTINUOUS
 62
     7
 10
-154.4656081246912
 20
-99.0
 30
0.0
 11
-161.5
 21
-99.0
 31
0.0
  0
LINE
  5
2F9
  8
DATA
  6
CONTINUOUS
 62
     7
 10
-63.00000000000006
 20
-99.0
 30
0.0
 11
-66.0
 21
-102.0
 31
0.0
  0
LINE
  5
2FA
  8
DATA
  6
CONTINUOUS
 62
     7
 10
-5.5
 20
-99.0
 30
0.0
 11
-5.5
 21
-71.0
 31
0.0
  0
LINE
  5
2FB
  8
DATA
  6
CONTINUOUS
 62
     7
 10
-10.5
 20
-102.0
 30
0.0
 11
-61.0
 21
-102.0
 31
0.0
  0
LINE
  5
2FC
  8
DATA
  6
CONTINUOUS
 62
     7
 10
-7.500000000000057
 20
-99.0
 30
0.0
 11
-10.5
 21
-102.0
 31
0.0
  0
CIRCLE
  5
2FD
  8
DATA
  6
CONTINUOUS
 62
     7
 10
-46.5
 20
-83.99999999999997
 30
0.0
 40
9.850000000000136
  0
CIRCLE
  5
2FE
  8
DATA
  6
CONTINUOUS
 62
     7
 10
-46.5
 20
-83.99999999999997
 30
0.0
 40
7.850000000000136
  0
CIRCLE
  5
2FF
  8
DATA
  6
CONTINUOUS
 62
     7
 10
-46.5
 20
-80.07886197885747
 30
0.0
 40
1.2650000000001
  0
CIRCLE
  5
300
  8
DATA
  6
CONTINUOUS
 62
     7
 10
-42.56851841411367
 20
-83.99999999999997
 30
0.0
 40
1.2650000000001
  0
CIRCLE
  5
301
  8
DATA
  6
CONTINUOUS
 62
     7
 10
-50.43444441938732
 20
-83.99999999999997
 30
0.0
 40
1.264999999999873
  0
ARC
  5
302
  8
DATA
  6
CONTINUOUS
 62
     7
 10
-48.32785755982172
 20
-98.53415769466343
 30
0.0
 40
3.172142440178306
 50
101.3105610478386
 51
266.8892056860701
  0
ARC
  5
303
  8
DATA
  6
CONTINUOUS
 62
     7
 10
-44.67214244017828
 20
-98.53415769466343
 30
0.0
 40
3.172142440178105
 50
273.1107943139299
 51
78.68943895306596
  0
LINE
  5
304
  8
DATA
  6
CONTINUOUS
 62
     7
 10
-44.5
 20
-101.7016258698893
 30
0.0
 11
-48.5
 21
-101.7016258698893
 31
0.0
  0
CIRCLE
  5
305
  8
DATA
  6
CONTINUOUS
 62
     7
 10
-56.00686541289633
 20
-74.44677486279281
 30
0.0
 40
2.000699999999824
  0
CIRCLE
  5
306
  8
DATA
  6
CONTINUOUS
 62
     7
 10
-36.86648800617263
 20
-93.58715226951674
 30
0.0
 40
2.000700000000052
  0
ARC
  5
307
  8
DATA
  6
CONTINUOUS
 62
     7
 10
-46.5
 20
-83.99999999999997
 30
0.0
 40
10.9
 50
282.9893914705026
 51
257.0106085292324
  0
LINE
  5
308
  8
DATA
  6
CONTINUOUS
 62
     7
 10
-44.05000000002451
 20
-93.54044024142078
 30
0.0
 11
-44.05000000002451
 21
-95.42362294241568
 31
0.0
  0
LINE
  5
309
  8
DATA
  6
CONTINUOUS
 62
     7
 10
-48.9500000000246
 20
-93.54044024140805
 30
0.0
 11
-48.9500000000246
 21
-95.42362294242568
 31
0.0
  0
LINE
  5
30A
  8
DATA
  6
CONTINUOUS
 62
     7
 10
-55.25686541289633
 20
-74.44677486279281
 30
0.0
 11
-56.75686541289633
 21
-74.44677486279281
 31
0.0
  0
LINE
  5
30B
  8
DATA
  6
CONTINUOUS
 62
     7
 10
-56.00686541289633
 20
-73.69677486279281
 30
0.0
 11
-56.00686541289633
 21
-75.19677486279281
 31
0.0
  0
LINE
  5
30C
  8
DATA
  6
CONTINUOUS
 62
     7
 10
-36.86648800617263
 20
-92.83715226951674
 30
0.0
 11
-36.86648800617263
 21
-94.33715226951674
 31
0.0
  0
LINE
  5
30D
  8
DATA
  6
CONTINUOUS
 62
     7
 10
-36.11648800617263
 20
-93.58715226951674
 30
0.0
 11
-37.61648800617263
 21
-93.58715226951674
 31
0.0
  0
CIRCLE
  5
30E
  8
DATA
  6
CONTINUOUS
 62
     7
 10
-22.18444441938732
 20
-83.99999999999997
 30
0.0
 40
11.0
  0
CIRCLE
  5
30F
  8
DATA
  6
CONTINUOUS
 62
     7
 10
-22.18444441938732
 20
-83.99999999999997
 30
0.0
 40
8.25
  0
CIRCLE
  5
310
  8
DATA
  6
CONTINUOUS
 62
     7
 10
-22.18444441938732
 20
-79.81065933611714
 30
0.0
 40
1.25
  0
CIRCLE
  5
311
  8
DATA
  6
CONTINUOUS
 62
     7
 10
-26.43444441938732
 20
-83.99999999999997
 30
0.0
 40
1.25
  0
CIRCLE
  5
312
  8
DATA
  6
CONTINUOUS
 62
     7
 10
-17.93444441938732
 20
-83.99999999999997
 30
0.0
 40
1.25
  0
CIRCLE
  5
313
  8
DATA
  6
CONTINUOUS
 62
     7
 10
-31.72220071518655
 20
-74.39493666722589
 30
0.0
 40
2.000699999999824
  0
CIRCLE
  5
314
  8
DATA
  6
CONTINUOUS
 62
     7
 10
-12.58182330846262
 20
-93.53531407394982
 30
0.0
 40
2.000700000000052
  0
ARC
  5
315
  8
DATA
  6
CONTINUOUS
 62
     7
 10
-22.18444441938732
 20
-83.99999999999997
 30
0.0
 40
8.000000000000032
 50
247.9756871629579
 51
292.0243128370421
  0
LINE
  5
316
  8
DATA
  6
CONTINUOUS
 62
     7
 10
-25.18444441938732
 20
-91.41619848709567
 30
0.0
 11
-25.18444441938732
 21
-91.6852130744696
 31
0.0
  0
LINE
  5
317
  8
DATA
  6
CONTINUOUS
 62
     7
 10
-19.18444441938732
 20
-91.41619848709567
 30
0.0
 11
-19.18444441938732
 21
-91.6852130744696
 31
0.0
  0
LINE
  5
318
  8
DATA
  6
CONTINUOUS
 62
     7
 10
-12.58182330846262
 20
-92.78531407394982
 30
0.0
 11
-12.58182330846262
 21
-94.28531407394982
 31
0.0
  0
LINE
  5
319
  8
DATA
  6
CONTINUOUS
 62
     7
 10
-11.83182330846262
 20
-93.53531407394982
 30
0.0
 11
-13.33182330846262
 21
-93.53531407394982
 31
0.0
  0
LINE
  5
31A
  8
DATA
  6
CONTINUOUS
 62
     7
 10
-31.72220071518655
 20
-73.64493666722589
 30
0.0
 11
-31.72220071518655
 21
-75.14493666722589
 31
0.0
  0
LINE
  5
31B
  8
DATA
  6
CONTINUOUS
 62
     7
 10
-30.97220071518655
 20
-74.39493666722589
 30
0.0
 11
-32.47220071518655
 21
-74.39493666722589
 31
0.0
  0
CIRCLE
  5
31C
  8
DATA
  6
CONTINUOUS
 62
     7
 10
8.0
 20
-79.0
 30
0.0
 40
5.0
  0
CIRCLE
  5
31D
  8
DATA
  6
CONTINUOUS
 62
     7
 10
8.0
 20
-79.0
 30
0.0
 40
6.199999999999989
  0
CIRCLE
  5
31E
  8
DATA
  6
CONTINUOUS
 62
     7
 10
8.0
 20
-79.0
 30
0.0
 40
1.0
  0
LINE
  5
31F
  8
DATA
  6
CONTINUOUS
 62
     7
 10
7.0
 20
-84.5
 30
0.0
 11
7.0
 21
-83.89897948556637
 31
0.0
  0
LINE
  5
320
  8
DATA
  6
CONTINUOUS
 62
     7
 10
7.0
 20
-74.10102051443363
 30
0.0
 11
7.0
 21
-73.5
 31
0.0
  0
LINE
  5
321
  8
DATA
  6
CONTINUOUS
 62
     7
 10
9.0
 20
-73.5
 30
0.0
 11
9.0
 21
-74.10102051443363
 31
0.0
  0
LINE
  5
322
  8
DATA
  6
CONTINUOUS
 62
     7
 10
9.0
 20
-83.89897948556637
 30
0.0
 11
9.0
 21
-84.5
 31
0.0
  0
LINE
  5
323
  8
DATA
  6
CONTINUOUS
 62
     7
 10
9.0
 20
-84.5
 30
0.0
 11
6.999999999999886
 21
-84.5
 31
0.0
  0
LINE
  5
324
  8
DATA
  6
CONTINUOUS
 62
     7
 10
9.0
 20
-73.5
 30
0.0
 11
7.0
 21
-73.5
 31
0.0
  0
LINE
  5
325
  8
DATA
  6
CONTINUOUS
 62
     7
 10
19.5
 20
-102.0
 30
0.0
 11
19.5
 21
-71.0
 31
0.0
  0
LINE
  5
326
  8
DATA
  6
CONTINUOUS
 62
     7
 10
85.0
 20
-99.0
 30
0.0
 11
85.0
 21
-71.0
 31
0.0
  0
LINE
  5
327
  8
DATA
  6
CONTINUOUS
 62
     7
 10
83.0
 20
-69.0
 30
0.0
 11
21.5
 21
-69.0
 31
0.0
  0
LINE
  5
328
  8
DATA
  6
CONTINUOUS
 62
     7
 10
85.0
 20
-99.0
 30
0.0
 11
19.5
 21
-99.0
 31
0.0
  0
LINE
  5
329
  8
DATA
  6
CONTINUOUS
 62
     7
 10
80.0
 20
-102.0
 30
0.0
 11
19.5
 21
-102.0
 31
0.0
  0
LINE
  5
32A
  8
DATA
  6
CONTINUOUS
 62
     7
 10
82.99999999999994
 20
-99.0
 30
0.0
 11
80.0
 21
-102.0
 31
0.0
  0
CIRCLE
  5
32B
  8
DATA
  6
CONTINUOUS
 62
     7
 10
31.0
 20
-80.99999999999997
 30
0.0
 40
8.25
  0
CIRCLE
  5
32C
  8
DATA
  6
CONTINUOUS
 62
     7
 10
31.0
 20
-80.99999999999997
 30
0.0
 40
6.899999999999946
  0
CIRCLE
  5
32D
  8
DATA
  6
CONTINUOUS
 62
     7
 10
33.81795094401377
 20
-80.53097162823283
 30
0.0
 40
0.5519621081382744
  0
CIRCLE
  5
32E
  8
DATA
  6
CONTINUOUS
 62
     7
 10
32.79916768461021
 20
-78.77778930658425
 30
0.0
 40
0.5522307728991005
  0
CIRCLE
  5
32F
  8
DATA
  6
CONTINUOUS
 62
     7
 10
30.97990539059856
 20
-77.79193557406856
 30
0.0
 40
0.5505590016105089
  0
CIRCLE
  5
330
  8
DATA
  6
CONTINUOUS
 62
     7
 10
29.12100463421666
 20
-78.78213894623693
 30
0.0
 40
0.5526399569132179
  0
CIRCLE
  5
331
  8
DATA
  6
CONTINUOUS
 62
     7
 10
28.07468105146563
 20
-80.51868131309467
 30
0.0
 40
0.5441980039814436
  0
POLYLINE
  5
332
  8
DATA
  6
CONTINUOUS
 62
     7
 66
     1
 10
0.0
 20
0.0
 30
0.0
  0
VERTEX
  5
7AD
  8
DATA
  6
CONTINUOUS
 62
     7
 10
30.64994444909325
 20
-78.23266337139498
 30
0.0
  0
VERTEX
  5
7AE
  8
DATA
  6
CONTINUOUS
 62
     7
 10
30.64994444909325
 20
-79.11203264418904
 30
0.0
  0
VERTEX
  5
7AF
  8
DATA
  6
CONTINUOUS
 62
     7
 10
31.33192279433547
 20
-79.11203264418904
 30
0.0
  0
VERTEX
  5
7B0
  8
DATA
  6
CONTINUOUS
 62
     7
 10
31.33192279433547
 20
-78.21525455748608
 30
0.0
  0
SEQEND
  5
91C
  8
DATA
  6
CONTINUOUS
 62
     7
  0
POLYLINE
  5
339
  8
DATA
  6
CONTINUOUS
 62
     7
 66
     1
 10
0.0
 20
0.0
 30
0.0
  0
VERTEX
  5
7B1
  8
DATA
  6
CONTINUOUS
 62
     7
 10
30.64994444909325
 20
-77.35120777674214
 30
0.0
  0
VERTEX
  5
7B2
  8
DATA
  6
CONTINUOUS
 62
     7
 10
30.64994444909325
 20
-76.49407726813095
 30
0.0
  0
VERTEX
  5
7B3
  8
DATA
  6
CONTINUOUS
 62
     7
 10
31.33192279433547
 20
-76.49407726813095
 30
0.0
  0
VERTEX
  5
7B4
  8
DATA
  6
CONTINUOUS
 62
     7
 10
31.33192279433547
 20
-77.36861659065099
 30
0.0
  0
SEQEND
  5
91D
  8
DATA
  6
CONTINUOUS
 62
     7
  0
POLYLINE
  5
340
  8
DATA
  6
CONTINUOUS
 62
     7
 66
     1
 10
0.0
 20
0.0
 30
0.0
  0
VERTEX
  5
7B5
  8
DATA
  6
CONTINUOUS
 62
     7
 10
29.1759705410218
 20
-79.33203863808157
 30
0.0
  0
VERTEX
  5
7B6
  8
DATA
  6
CONTINUOUS
 62
     7
 10
29.79191393859514
 20
-79.94798203565475
 30
0.0
  0
VERTEX
  5
7B7
  8
DATA
  6
CONTINUOUS
 62
     7
 10
30.27590819629927
 20
-79.46398777795062
 30
0.0
  0
VERTEX
  5
7B8
  8
DATA
  6
CONTINUOUS
 62
     7
 10
29.66859512240876
 20
-78.85667470406023
 30
0.0
  0
SEQEND
  5
91E
  8
DATA
  6
CONTINUOUS
 62
     7
  0
POLYLINE
  5
347
  8
DATA
  6
CONTINUOUS
 62
     7
 66
     1
 10
0.0
 20
0.0
 30
0.0
  0
VERTEX
  5
7B9
  8
DATA
  6
CONTINUOUS
 62
     7
 10
28.57110494241488
 20
-78.72717303947493
 30
0.0
  0
VERTEX
  5
7BA
  8
DATA
  6
CONTINUOUS
 62
     7
 10
27.94396299040727
 20
-78.10003108746744
 30
0.0
  0
VERTEX
  5
7BB
  8
DATA
  6
CONTINUOUS
 62
     7
 10
28.4279572481114
 20
-77.61603682976332
 30
0.0
  0
VERTEX
  5
7BC
  8
DATA
  6
CONTINUOUS
 62
     7
 10
29.04646887640706
 20
-78.23454845805881
 30
0.0
  0
SEQEND
  5
91F
  8
DATA
  6
CONTINUOUS
 62
     7
  0
POLYLINE
  5
34E
  8
DATA
  6
CONTINUOUS
 62
     7
 66
     1
 10
0.0
 20
0.0
 30
0.0
  0
VERTEX
  5
7BD
  8
DATA
  6
CONTINUOUS
 62
     7
 10
32.85371181453365
 20
-78.22825881202036
 30
0.0
  0
VERTEX
  5
7BE
  8
DATA
  6
CONTINUOUS
 62
     7
 10
33.46595851106417
 20
-77.61603682976332
 30
0.0
  0
VERTEX
  5
7BF
  8
DATA
  6
CONTINUOUS
 62
     7
 10
33.9499527687683
 20
-78.10003108746744
 30
0.0
  0
VERTEX
  5
7C0
  8
DATA
  6
CONTINUOUS
 62
     7
 10
33.34638837734656
 20
-78.70357111509011
 30
0.0
  0
SEQEND
  5
920
  8
DATA
  6
CONTINUOUS
 62
     7
  0
POLYLINE
  5
355
  8
DATA
  6
CONTINUOUS
 62
     7
 66
     1
 10
0.0
 20
0.0
 30
0.0
  0
VERTEX
  5
7C1
  8
DATA
  6
CONTINUOUS
 62
     7
 10
32.24963498869261
 20
-78.83231125337718
 30
0.0
  0
VERTEX
  5
7C2
  8
DATA
  6
CONTINUOUS
 62
     7
 10
31.61793296450151
 20
-79.46398777795062
 30
0.0
  0
VERTEX
  5
7C3
  8
DATA
  6
CONTINUOUS
 62
     7
 10
32.10192722220563
 20
-79.94798203565475
 30
0.0
  0
VERTEX
  5
7C4
  8
DATA
  6
CONTINUOUS
 62
     7
 10
32.72492740333109
 20
-79.32500700288355
 30
0.0
  0
SEQEND
  5
921
  8
DATA
  6
CONTINUOUS
 62
     7
  0
POLYLINE
  5
35C
  8
DATA
  6
CONTINUOUS
 62
     7
 66
     1
 10
0.0
 20
0.0
 30
0.0
  0
VERTEX
  5
7C5
  8
DATA
  6
CONTINUOUS
 62
     7
 10
28.13862811722674
 20
-81.0591091438973
 30
0.0
  0
VERTEX
  5
7C6
  8
DATA
  6
CONTINUOUS
 62
     7
 10
28.7799123818736
 20
-81.70805609796494
 30
0.0
  0
VERTEX
  5
7C7
  8
DATA
  6
CONTINUOUS
 62
     7
 10
29.26390663957704
 20
-81.22406184026082
 30
0.0
  0
VERTEX
  5
7C8
  8
DATA
  6
CONTINUOUS
 62
     7
 10
28.61508561877781
 20
-80.5828246770869
 30
0.0
  0
SEQEND
  5
922
  8
DATA
  6
CONTINUOUS
 62
     7
  0
POLYLINE
  5
363
  8
DATA
  6
CONTINUOUS
 62
     7
 66
     1
 10
0.0
 20
0.0
 30
0.0
  0
VERTEX
  5
7C9
  8
DATA
  6
CONTINUOUS
 62
     7
 10
27.53505088007728
 20
-80.44831977764258
 30
0.0
  0
VERTEX
  5
7CA
  8
DATA
  6
CONTINUOUS
 62
     7
 10
26.93196143368573
 20
-79.83802403074523
 30
0.0
  0
VERTEX
  5
7CB
  8
DATA
  6
CONTINUOUS
 62
     7
 10
27.39394917073218
 20
-79.37596169532267
 30
0.0
  0
VERTEX
  5
7CC
  8
DATA
  6
CONTINUOUS
 62
     7
 10
28.00418859390084
 20
-79.97906822859673
 30
0.0
  0
SEQEND
  5
923
  8
DATA
  6
CONTINUOUS
 62
     7
  0
POLYLINE
  5
36A
  8
DATA
  6
CONTINUOUS
 62
     7
 66
     1
 10
0.0
 20
0.0
 30
0.0
  0
VERTEX
  5
7CD
  8
DATA
  6
CONTINUOUS
 62
     7
 10
33.89195921042869
 20
-79.9839936164843
 30
0.0
  0
VERTEX
  5
7CE
  8
DATA
  6
CONTINUOUS
 62
     7
 10
34.49996658844339
 20
-79.37596169532267
 30
0.0
  0
VERTEX
  5
7CF
  8
DATA
  6
CONTINUOUS
 62
     7
 10
34.98396084614751
 20
-79.83802403074523
 30
0.0
  0
VERTEX
  5
7D0
  8
DATA
  6
CONTINUOUS
 62
     7
 10
34.36578163096806
 20
-80.46356460177478
 30
0.0
  0
SEQEND
  5
924
  8
DATA
  6
CONTINUOUS
 62
     7
  0
POLYLINE
  5
371
  8
DATA
  6
CONTINUOUS
 62
     7
 66
     1
 10
0.0
 20
0.0
 30
0.0
  0
VERTEX
  5
7D1
  8
DATA
  6
CONTINUOUS
 62
     7
 10
33.27097592010728
 20
-80.60500197374526
 30
0.0
  0
VERTEX
  5
7D2
  8
DATA
  6
CONTINUOUS
 62
     7
 10
32.65194104188072
 20
-81.22406184026082
 30
0.0
  0
VERTEX
  5
7D3
  8
DATA
  6
CONTINUOUS
 62
     7
 10
33.13593529958416
 20
-81.70805609796494
 30
0.0
  0
VERTEX
  5
7D4
  8
DATA
  6
CONTINUOUS
 62
     7
 10
33.75703343753457
 20
-81.07956184526492
 30
0.0
  0
SEQEND
  5
925
  8
DATA
  6
CONTINUOUS
 62
     7
  0
POLYLINE
  5
378
  8
DATA
  6
CONTINUOUS
 62
     7
 66
     1
 10
0.0
 20
0.0
 30
0.0
  0
VERTEX
  5
7D5
  8
DATA
  6
CONTINUOUS
 62
     7
 10
29.80000000000018
 20
-86.12071926336611
 30
0.0
  0
VERTEX
  5
7D6
  8
DATA
  6
CONTINUOUS
 62
     7
 10
29.80000000000018
 20
-84.45944538656013
 30
0.0
  0
VERTEX
  5
7D7
  8
DATA
  6
CONTINUOUS
 62
     7
 10
32.20000000000005
 20
-84.45944538656013
 30
0.0
  0
VERTEX
  5
7D8
  8
DATA
  6
CONTINUOUS
 62
     7
 10
32.20000000000005
 20
-86.12071926336611
 30
0.0
  0
SEQEND
  5
926
  8
DATA
  6
CONTINUOUS
 62
     7
  0
ARC
  5
37F
  8
DATA
  6
CONTINUOUS
 62
     7
 10
31.0
 20
-80.99999999999997
 30
0.0
 40
5.259445386560182
 50
283.1888227030046
 51
256.8111772969978
  0
CIRCLE
  5
380
  8
DATA
  6
CONTINUOUS
 62
     7
 10
23.5
 20
-72.49999999999997
 30
0.0
 40
2.25
  0
LINE
  5
381
  8
DATA
  6
CONTINUOUS
 62
     7
 10
22.0
 20
-72.49999999999997
 30
0.0
 11
25.0
 21
-72.49999999999997
 31
0.0
  0
LINE
  5
382
  8
DATA
  6
CONTINUOUS
 62
     7
 10
23.5
 20
-73.99999999999997
 30
0.0
 11
23.5
 21
-70.99999999999997
 31
0.0
  0
CIRCLE
  5
383
  8
DATA
  6
CONTINUOUS
 62
     7
 10
53.0
 20
-80.99999999999997
 30
0.0
 40
8.25
  0
CIRCLE
  5
384
  8
DATA
  6
CONTINUOUS
 62
     7
 10
53.0
 20
-80.99999999999997
 30
0.0
 40
6.899999999999946
  0
CIRCLE
  5
385
  8
DATA
  6
CONTINUOUS
 62
     7
 10
55.81795094401377
 20
-80.53097162823283
 30
0.0
 40
0.5519621081382744
  0
CIRCLE
  5
386
  8
DATA
  6
CONTINUOUS
 62
     7
 10
54.79916768461021
 20
-78.77778930658425
 30
0.0
 40
0.5522307728991005
  0
CIRCLE
  5
387
  8
DATA
  6
CONTINUOUS
 62
     7
 10
52.97990539059856
 20
-77.79193557406856
 30
0.0
 40
0.5505590016105089
  0
CIRCLE
  5
388
  8
DATA
  6
CONTINUOUS
 62
     7
 10
51.12100463421666
 20
-78.78213894623693
 30
0.0
 40
0.5526399569132179
  0
CIRCLE
  5
389
  8
DATA
  6
CONTINUOUS
 62
     7
 10
50.07468105146563
 20
-80.51868131309467
 30
0.0
 40
0.5441980039814436
  0
POLYLINE
  5
38A
  8
DATA
  6
CONTINUOUS
 62
     7
 66
     1
 10
0.0
 20
0.0
 30
0.0
  0
VERTEX
  5
7D9
  8
DATA
  6
CONTINUOUS
 62
     7
 10
52.64994444909325
 20
-78.23266337139498
 30
0.0
  0
VERTEX
  5
7DA
  8
DATA
  6
CONTINUOUS
 62
     7
 10
52.64994444909325
 20
-79.11203264418904
 30
0.0
  0
VERTEX
  5
7DB
  8
DATA
  6
CONTINUOUS
 62
     7
 10
53.33192279433547
 20
-79.11203264418904
 30
0.0
  0
VERTEX
  5
7DC
  8
DATA
  6
CONTINUOUS
 62
     7
 10
53.33192279433547
 20
-78.21525455748608
 30
0.0
  0
SEQEND
  5
927
  8
DATA
  6
CONTINUOUS
 62
     7
  0
POLYLINE
  5
391
  8
DATA
  6
CONTINUOUS
 62
     7
 66
     1
 10
0.0
 20
0.0
 30
0.0
  0
VERTEX
  5
7DD
  8
DATA
  6
CONTINUOUS
 62
     7
 10
52.64994444909325
 20
-77.35120777674214
 30
0.0
  0
VERTEX
  5
7DE
  8
DATA
  6
CONTINUOUS
 62
     7
 10
52.64994444909325
 20
-76.49407726813095
 30
0.0
  0
VERTEX
  5
7DF
  8
DATA
  6
CONTINUOUS
 62
     7
 10
53.33192279433547
 20
-76.49407726813095
 30
0.0
  0
VERTEX
  5
7E0
  8
DATA
  6
CONTINUOUS
 62
     7
 10
53.33192279433547
 20
-77.36861659065099
 30
0.0
  0
SEQEND
  5
928
  8
DATA
  6
CONTINUOUS
 62
     7
  0
POLYLINE
  5
398
  8
DATA
  6
CONTINUOUS
 62
     7
 66
     1
 10
0.0
 20
0.0
 30
0.0
  0
VERTEX
  5
7E1
  8
DATA
  6
CONTINUOUS
 62
     7
 10
51.1759705410218
 20
-79.33203863808157
 30
0.0
  0
VERTEX
  5
7E2
  8
DATA
  6
CONTINUOUS
 62
     7
 10
51.79191393859514
 20
-79.94798203565475
 30
0.0
  0
VERTEX
  5
7E3
  8
DATA
  6
CONTINUOUS
 62
     7
 10
52.27590819629927
 20
-79.46398777795062
 30
0.0
  0
VERTEX
  5
7E4
  8
DATA
  6
CONTINUOUS
 62
     7
 10
51.66859512240876
 20
-78.85667470406023
 30
0.0
  0
SEQEND
  5
929
  8
DATA
  6
CONTINUOUS
 62
     7
  0
POLYLINE
  5
39F
  8
DATA
  6
CONTINUOUS
 62
     7
 66
     1
 10
0.0
 20
0.0
 30
0.0
  0
VERTEX
  5
7E5
  8
DATA
  6
CONTINUOUS
 62
     7
 10
50.57110494241488
 20
-78.72717303947493
 30
0.0
  0
VERTEX
  5
7E6
  8
DATA
  6
CONTINUOUS
 62
     7
 10
49.94396299040727
 20
-78.10003108746744
 30
0.0
  0
VERTEX
  5
7E7
  8
DATA
  6
CONTINUOUS
 62
     7
 10
50.4279572481114
 20
-77.61603682976332
 30
0.0
  0
VERTEX
  5
7E8
  8
DATA
  6
CONTINUOUS
 62
     7
 10
51.04646887640706
 20
-78.23454845805881
 30
0.0
  0
SEQEND
  5
92A
  8
DATA
  6
CONTINUOUS
 62
     7
  0
POLYLINE
  5
3A6
  8
DATA
  6
CONTINUOUS
 62
     7
 66
     1
 10
0.0
 20
0.0
 30
0.0
  0
VERTEX
  5
7E9
  8
DATA
  6
CONTINUOUS
 62
     7
 10
54.85371181453365
 20
-78.22825881202036
 30
0.0
  0
VERTEX
  5
7EA
  8
DATA
  6
CONTINUOUS
 62
     7
 10
55.46595851106417
 20
-77.61603682976332
 30
0.0
  0
VERTEX
  5
7EB
  8
DATA
  6
CONTINUOUS
 62
     7
 10
55.9499527687683
 20
-78.10003108746744
 30
0.0
  0
VERTEX
  5
7EC
  8
DATA
  6
CONTINUOUS
 62
     7
 10
55.34638837734656
 20
-78.70357111509011
 30
0.0
  0
SEQEND
  5
92B
  8
DATA
  6
CONTINUOUS
 62
     7
  0
POLYLINE
  5
3AD
  8
DATA
  6
CONTINUOUS
 62
     7
 66
     1
 10
0.0
 20
0.0
 30
0.0
  0
VERTEX
  5
7ED
  8
DATA
  6
CONTINUOUS
 62
     7
 10
54.24963498869261
 20
-78.83231125337718
 30
0.0
  0
VERTEX
  5
7EE
  8
DATA
  6
CONTINUOUS
 62
     7
 10
53.61793296450151
 20
-79.46398777795062
 30
0.0
  0
VERTEX
  5
7EF
  8
DATA
  6
CONTINUOUS
 62
     7
 10
54.10192722220563
 20
-79.94798203565475
 30
0.0
  0
VERTEX
  5
7F0
  8
DATA
  6
CONTINUOUS
 62
     7
 10
54.72492740333109
 20
-79.32500700288355
 30
0.0
  0
SEQEND
  5
92C
  8
DATA
  6
CONTINUOUS
 62
     7
  0
POLYLINE
  5
3B4
  8
DATA
  6
CONTINUOUS
 62
     7
 66
     1
 10
0.0
 20
0.0
 30
0.0
  0
VERTEX
  5
7F1
  8
DATA
  6
CONTINUOUS
 62
     7
 10
50.13862811722674
 20
-81.0591091438973
 30
0.0
  0
VERTEX
  5
7F2
  8
DATA
  6
CONTINUOUS
 62
     7
 10
50.7799123818736
 20
-81.70805609796494
 30
0.0
  0
VERTEX
  5
7F3
  8
DATA
  6
CONTINUOUS
 62
     7
 10
51.26390663957704
 20
-81.22406184026082
 30
0.0
  0
VERTEX
  5
7F4
  8
DATA
  6
CONTINUOUS
 62
     7
 10
50.61508561877781
 20
-80.5828246770869
 30
0.0
  0
SEQEND
  5
92D
  8
DATA
  6
CONTINUOUS
 62
     7
  0
POLYLINE
  5
3BB
  8
DATA
  6
CONTINUOUS
 62
     7
 66
     1
 10
0.0
 20
0.0
 30
0.0
  0
VERTEX
  5
7F5
  8
DATA
  6
CONTINUOUS
 62
     7
 10
49.53505088007728
 20
-80.44831977764258
 30
0.0
  0
VERTEX
  5
7F6
  8
DATA
  6
CONTINUOUS
 62
     7
 10
48.93196143368573
 20
-79.83802403074523
 30
0.0
  0
VERTEX
  5
7F7
  8
DATA
  6
CONTINUOUS
 62
     7
 10
49.39394917073218
 20
-79.37596169532267
 30
0.0
  0
VERTEX
  5
7F8
  8
DATA
  6
CONTINUOUS
 62
     7
 10
50.00418859390084
 20
-79.97906822859673
 30
0.0
  0
SEQEND
  5
92E
  8
DATA
  6
CONTINUOUS
 62
     7
  0
POLYLINE
  5
3C2
  8
DATA
  6
CONTINUOUS
 62
     7
 66
     1
 10
0.0
 20
0.0
 30
0.0
  0
VERTEX
  5
7F9
  8
DATA
  6
CONTINUOUS
 62
     7
 10
55.89195921042869
 20
-79.9839936164843
 30
0.0
  0
VERTEX
  5
7FA
  8
DATA
  6
CONTINUOUS
 62
     7
 10
56.49996658844339
 20
-79.37596169532267
 30
0.0
  0
VERTEX
  5
7FB
  8
DATA
  6
CONTINUOUS
 62
     7
 10
56.98396084614751
 20
-79.83802403074523
 30
0.0
  0
VERTEX
  5
7FC
  8
DATA
  6
CONTINUOUS
 62
     7
 10
56.36578163096806
 20
-80.46356460177478
 30
0.0
  0
SEQEND
  5
92F
  8
DATA
  6
CONTINUOUS
 62
     7
  0
POLYLINE
  5
3C9
  8
DATA
  6
CONTINUOUS
 62
     7
 66
     1
 10
0.0
 20
0.0
 30
0.0
  0
VERTEX
  5
7FD
  8
DATA
  6
CONTINUOUS
 62
     7
 10
55.27097592010728
 20
-80.60500197374526
 30
0.0
  0
VERTEX
  5
7FE
  8
DATA
  6
CONTINUOUS
 62
     7
 10
54.65194104188072
 20
-81.22406184026082
 30
0.0
  0
VERTEX
  5
7FF
  8
DATA
  6
CONTINUOUS
 62
     7
 10
55.13593529958416
 20
-81.70805609796494
 30
0.0
  0
VERTEX
  5
800
  8
DATA
  6
CONTINUOUS
 62
     7
 10
55.75703343753457
 20
-81.07956184526492
 30
0.0
  0
SEQEND
  5
930
  8
DATA
  6
CONTINUOUS
 62
     7
  0
POLYLINE
  5
3D0
  8
DATA
  6
CONTINUOUS
 62
     7
 66
     1
 10
0.0
 20
0.0
 30
0.0
  0
VERTEX
  5
801
  8
DATA
  6
CONTINUOUS
 62
     7
 10
51.80000000000018
 20
-86.12071926336611
 30
0.0
  0
VERTEX
  5
802
  8
DATA
  6
CONTINUOUS
 62
     7
 10
51.80000000000018
 20
-84.45944538656013
 30
0.0
  0
VERTEX
  5
803
  8
DATA
  6
CONTINUOUS
 62
     7
 10
54.20000000000005
 20
-84.45944538656013
 30
0.0
  0
VERTEX
  5
804
  8
DATA
  6
CONTINUOUS
 62
     7
 10
54.20000000000005
 20
-86.12071926336611
 30
0.0
  0
SEQEND
  5
931
  8
DATA
  6
CONTINUOUS
 62
     7
  0
ARC
  5
3D7
  8
DATA
  6
CONTINUOUS
 62
     7
 10
53.0
 20
-80.99999999999997
 30
0.0
 40
5.259445386560182
 50
283.1888227030046
 51
256.8111772969978
  0
CIRCLE
  5
3D8
  8
DATA
  6
CONTINUOUS
 62
     7
 10
45.5
 20
-72.49999999999997
 30
0.0
 40
2.25
  0
LINE
  5
3D9
  8
DATA
  6
CONTINUOUS
 62
     7
 10
44.0
 20
-72.49999999999997
 30
0.0
 11
47.0
 21
-72.49999999999997
 31
0.0
  0
LINE
  5
3DA
  8
DATA
  6
CONTINUOUS
 62
     7
 10
45.5
 20
-73.99999999999997
 30
0.0
 11
45.5
 21
-70.99999999999997
 31
0.0
  0
CIRCLE
  5
3DB
  8
DATA
  6
CONTINUOUS
 62
     7
 10
74.0
 20
-80.99999999999997
 30
0.0
 40
8.25
  0
CIRCLE
  5
3DC
  8
DATA
  6
CONTINUOUS
 62
     7
 10
74.0
 20
-80.99999999999997
 30
0.0
 40
6.899999999999946
  0
CIRCLE
  5
3DD
  8
DATA
  6
CONTINUOUS
 62
     7
 10
76.81795094401377
 20
-80.53097162823283
 30
0.0
 40
0.5519621081382744
  0
CIRCLE
  5
3DE
  8
DATA
  6
CONTINUOUS
 62
     7
 10
75.79916768461021
 20
-78.77778930658425
 30
0.0
 40
0.5522307728991005
  0
CIRCLE
  5
3DF
  8
DATA
  6
CONTINUOUS
 62
     7
 10
73.97990539059856
 20
-77.79193557406856
 30
0.0
 40
0.5505590016105089
  0
CIRCLE
  5
3E0
  8
DATA
  6
CONTINUOUS
 62
     7
 10
72.12100463421666
 20
-78.78213894623693
 30
0.0
 40
0.5526399569132179
  0
CIRCLE
  5
3E1
  8
DATA
  6
CONTINUOUS
 62
     7
 10
71.07468105146563
 20
-80.51868131309467
 30
0.0
 40
0.5441980039814436
  0
POLYLINE
  5
3E2
  8
DATA
  6
CONTINUOUS
 62
     7
 66
     1
 10
0.0
 20
0.0
 30
0.0
  0
VERTEX
  5
805
  8
DATA
  6
CONTINUOUS
 62
     7
 10
73.64994444909325
 20
-78.23266337139498
 30
0.0
  0
VERTEX
  5
806
  8
DATA
  6
CONTINUOUS
 62
     7
 10
73.64994444909325
 20
-79.11203264418904
 30
0.0
  0
VERTEX
  5
807
  8
DATA
  6
CONTINUOUS
 62
     7
 10
74.33192279433547
 20
-79.11203264418904
 30
0.0
  0
VERTEX
  5
808
  8
DATA
  6
CONTINUOUS
 62
     7
 10
74.33192279433547
 20
-78.21525455748608
 30
0.0
  0
SEQEND
  5
932
  8
DATA
  6
CONTINUOUS
 62
     7
  0
POLYLINE
  5
3E9
  8
DATA
  6
CONTINUOUS
 62
     7
 66
     1
 10
0.0
 20
0.0
 30
0.0
  0
VERTEX
  5
809
  8
DATA
  6
CONTINUOUS
 62
     7
 10
73.64994444909325
 20
-77.35120777674214
 30
0.0
  0
VERTEX
  5
80A
  8
DATA
  6
CONTINUOUS
 62
     7
 10
73.64994444909325
 20
-76.49407726813095
 30
0.0
  0
VERTEX
  5
80B
  8
DATA
  6
CONTINUOUS
 62
     7
 10
74.33192279433547
 20
-76.49407726813095
 30
0.0
  0
VERTEX
  5
80C
  8
DATA
  6
CONTINUOUS
 62
     7
 10
74.33192279433547
 20
-77.36861659065099
 30
0.0
  0
SEQEND
  5
933
  8
DATA
  6
CONTINUOUS
 62
     7
  0
POLYLINE
  5
3F0
  8
DATA
  6
CONTINUOUS
 62
     7
 66
     1
 10
0.0
 20
0.0
 30
0.0
  0
VERTEX
  5
80D
  8
DATA
  6
CONTINUOUS
 62
     7
 10
72.1759705410218
 20
-79.33203863808157
 30
0.0
  0
VERTEX
  5
80E
  8
DATA
  6
CONTINUOUS
 62
     7
 10
72.79191393859514
 20
-79.94798203565475
 30
0.0
  0
VERTEX
  5
80F
  8
DATA
  6
CONTINUOUS
 62
     7
 10
73.27590819629927
 20
-79.46398777795062
 30
0.0
  0
VERTEX
  5
810
  8
DATA
  6
CONTINUOUS
 62
     7
 10
72.66859512240876
 20
-78.85667470406023
 30
0.0
  0
SEQEND
  5
934
  8
DATA
  6
CONTINUOUS
 62
     7
  0
POLYLINE
  5
3F7
  8
DATA
  6
CONTINUOUS
 62
     7
 66
     1
 10
0.0
 20
0.0
 30
0.0
  0
VERTEX
  5
811
  8
DATA
  6
CONTINUOUS
 62
     7
 10
71.57110494241488
 20
-78.72717303947493
 30
0.0
  0
VERTEX
  5
812
  8
DATA
  6
CONTINUOUS
 62
     7
 10
70.94396299040727
 20
-78.10003108746744
 30
0.0
  0
VERTEX
  5
813
  8
DATA
  6
CONTINUOUS
 62
     7
 10
71.4279572481114
 20
-77.61603682976332
 30
0.0
  0
VERTEX
  5
814
  8
DATA
  6
CONTINUOUS
 62
     7
 10
72.04646887640706
 20
-78.23454845805881
 30
0.0
  0
SEQEND
  5
935
  8
DATA
  6
CONTINUOUS
 62
     7
  0
POLYLINE
  5
3FE
  8
DATA
  6
CONTINUOUS
 62
     7
 66
     1
 10
0.0
 20
0.0
 30
0.0
  0
VERTEX
  5
815
  8
DATA
  6
CONTINUOUS
 62
     7
 10
75.85371181453365
 20
-78.22825881202036
 30
0.0
  0
VERTEX
  5
816
  8
DATA
  6
CONTINUOUS
 62
     7
 10
76.46595851106417
 20
-77.61603682976332
 30
0.0
  0
VERTEX
  5
817
  8
DATA
  6
CONTINUOUS
 62
     7
 10
76.9499527687683
 20
-78.10003108746744
 30
0.0
  0
VERTEX
  5
818
  8
DATA
  6
CONTINUOUS
 62
     7
 10
76.34638837734656
 20
-78.70357111509011
 30
0.0
  0
SEQEND
  5
936
  8
DATA
  6
CONTINUOUS
 62
     7
  0
POLYLINE
  5
405
  8
DATA
  6
CONTINUOUS
 62
     7
 66
     1
 10
0.0
 20
0.0
 30
0.0
  0
VERTEX
  5
819
  8
DATA
  6
CONTINUOUS
 62
     7
 10
75.2496349886926
 20
-78.83231125337718
 30
0.0
  0
VERTEX
  5
81A
  8
DATA
  6
CONTINUOUS
 62
     7
 10
74.6179329645015
 20
-79.46398777795062
 30
0.0
  0
VERTEX
  5
81B
  8
DATA
  6
CONTINUOUS
 62
     7
 10
75.10192722220563
 20
-79.94798203565475
 30
0.0
  0
VERTEX
  5
81C
  8
DATA
  6
CONTINUOUS
 62
     7
 10
75.7249274033311
 20
-79.32500700288355
 30
0.0
  0
SEQEND
  5
937
  8
DATA
  6
CONTINUOUS
 62
     7
  0
POLYLINE
  5
40C
  8
DATA
  6
CONTINUOUS
 62
     7
 66
     1
 10
0.0
 20
0.0
 30
0.0
  0
VERTEX
  5
81D
  8
DATA
  6
CONTINUOUS
 62
     7
 10
71.13862811722674
 20
-81.0591091438973
 30
0.0
  0
VERTEX
  5
81E
  8
DATA
  6
CONTINUOUS
 62
     7
 10
71.7799123818736
 20
-81.70805609796494
 30
0.0
  0
VERTEX
  5
81F
  8
DATA
  6
CONTINUOUS
 62
     7
 10
72.26390663957704
 20
-81.22406184026082
 30
0.0
  0
VERTEX
  5
820
  8
DATA
  6
CONTINUOUS
 62
     7
 10
71.61508561877781
 20
-80.5828246770869
 30
0.0
  0
SEQEND
  5
938
  8
DATA
  6
CONTINUOUS
 62
     7
  0
POLYLINE
  5
413
  8
DATA
  6
CONTINUOUS
 62
     7
 66
     1
 10
0.0
 20
0.0
 30
0.0
  0
VERTEX
  5
821
  8
DATA
  6
CONTINUOUS
 62
     7
 10
70.53505088007728
 20
-80.44831977764258
 30
0.0
  0
VERTEX
  5
822
  8
DATA
  6
CONTINUOUS
 62
     7
 10
69.93196143368573
 20
-79.83802403074523
 30
0.0
  0
VERTEX
  5
823
  8
DATA
  6
CONTINUOUS
 62
     7
 10
70.39394917073218
 20
-79.37596169532267
 30
0.0
  0
VERTEX
  5
824
  8
DATA
  6
CONTINUOUS
 62
     7
 10
71.00418859390084
 20
-79.97906822859673
 30
0.0
  0
SEQEND
  5
939
  8
DATA
  6
CONTINUOUS
 62
     7
  0
POLYLINE
  5
41A
  8
DATA
  6
CONTINUOUS
 62
     7
 66
     1
 10
0.0
 20
0.0
 30
0.0
  0
VERTEX
  5
825
  8
DATA
  6
CONTINUOUS
 62
     7
 10
76.8919592104287
 20
-79.9839936164843
 30
0.0
  0
VERTEX
  5
826
  8
DATA
  6
CONTINUOUS
 62
     7
 10
77.49996658844339
 20
-79.37596169532267
 30
0.0
  0
VERTEX
  5
827
  8
DATA
  6
CONTINUOUS
 62
     7
 10
77.98396084614751
 20
-79.83802403074523
 30
0.0
  0
VERTEX
  5
828
  8
DATA
  6
CONTINUOUS
 62
     7
 10
77.36578163096806
 20
-80.46356460177478
 30
0.0
  0
SEQEND
  5
93A
  8
DATA
  6
CONTINUOUS
 62
     7
  0
POLYLINE
  5
421
  8
DATA
  6
CONTINUOUS
 62
     7
 66
     1
 10
0.0
 20
0.0
 30
0.0
  0
VERTEX
  5
829
  8
DATA
  6
CONTINUOUS
 62
     7
 10
76.27097592010728
 20
-80.60500197374526
 30
0.0
  0
VERTEX
  5
82A
  8
DATA
  6
CONTINUOUS
 62
     7
 10
75.65194104188072
 20
-81.22406184026082
 30
0.0
  0
VERTEX
  5
82B
  8
DATA
  6
CONTINUOUS
 62
     7
 10
76.13593529958416
 20
-81.70805609796494
 30
0.0
  0
VERTEX
  5
82C
  8
DATA
  6
CONTINUOUS
 62
     7
 10
76.75703343753457
 20
-81.07956184526492
 30
0.0
  0
SEQEND
  5
93B
  8
DATA
  6
CONTINUOUS
 62
     7
  0
POLYLINE
  5
428
  8
DATA
  6
CONTINUOUS
 62
     7
 66
     1
 10
0.0
 20
0.0
 30
0.0
  0
VERTEX
  5
82D
  8
DATA
  6
CONTINUOUS
 62
     7
 10
72.80000000000018
 20
-86.12071926336611
 30
0.0
  0
VERTEX
  5
82E
  8
DATA
  6
CONTINUOUS
 62
     7
 10
72.80000000000018
 20
-84.45944538656013
 30
0.0
  0
VERTEX
  5
82F
  8
DATA
  6
CONTINUOUS
 62
     7
 10
75.20000000000005
 20
-84.45944538656013
 30
0.0
  0
VERTEX
  5
830
  8
DATA
  6
CONTINUOUS
 62
     7
 10
75.20000000000005
 20
-86.12071926336611
 30
0.0
  0
SEQEND
  5
93C
  8
DATA
  6
CONTINUOUS
 62
     7
  0
ARC
  5
42F
  8
DATA
  6
CONTINUOUS
 62
     7
 10
74.0
 20
-80.99999999999997
 30
0.0
 40
5.259445386560182
 50
283.1888227030046
 51
256.8111772969978
  0
CIRCLE
  5
430
  8
DATA
  6
CONTINUOUS
 62
     7
 10
66.5
 20
-72.49999999999997
 30
0.0
 40
2.25
  0
LINE
  5
431
  8
DATA
  6
CONTINUOUS
 62
     7
 10
65.0
 20
-72.49999999999997
 30
0.0
 11
68.0
 21
-72.49999999999997
 31
0.0
  0
LINE
  5
432
  8
DATA
  6
CONTINUOUS
 62
     7
 10
66.5
 20
-73.99999999999997
 30
0.0
 11
66.5
 21
-70.99999999999997
 31
0.0
  0
LINE
  5
433
  8
DATA
  6
CONTINUOUS
 62
     7
 10
-7.5
 20
-69.0
 30
0.0
 11
-59.0
 21
-69.0
 31
0.0
  0
ARC
  5
434
  8
DATA
  6
CONTINUOUS
 62
     7
 10
-63.0
 20
-71.0
 30
0.0
 40
2.0
 50
0.0
 51
90.0
  0
ARC
  5
435
  8
DATA
  6
CONTINUOUS
 62
     7
 10
-59.0
 20
-71.0
 30
0.0
 40
2.0
 50
90.0
 51
180.0
  0
ARC
  5
436
  8
DATA
  6
CONTINUOUS
 62
     7
 10
-7.5
 20
-71.0
 30
0.0
 40
2.0
 50
0.0
 51
90.0
  0
ARC
  5
437
  8
DATA
  6
CONTINUOUS
 62
     7
 10
21.5
 20
-71.0
 30
0.0
 40
2.0
 50
90.0
 51
180.0
  0
ARC
  5
438
  8
DATA
  6
CONTINUOUS
 62
     7
 10
83.0
 20
-71.0
 30
0.0
 40
2.0
 50
0.0
 51
90.0
  0
LINE
  5
439
  8
DATA
  6
CONTINUOUS
 62
     7
 10
89.30000000000001
 20
-83.25
 30
0.0
 11
89.30000000000001
 21
-73.75
 31
0.0
  0
LINE
  5
43A
  8
DATA
  6
CONTINUOUS
 62
     7
 10
96.69999999999999
 20
-73.75
 30
0.0
 11
96.69999999999999
 21
-83.25
 31
0.0
  0
LINE
  5
43B
  8
DATA
  6
CONTINUOUS
 62
     7
 10
91.5
 20
-72.25
 30
0.0
 11
94.5
 21
-72.25
 31
0.0
  0
LINE
  5
43C
  8
DATA
  6
CONTINUOUS
 62
     7
 10
90.0
 20
-73.75
 30
0.0
 11
91.5
 21
-72.25
 31
0.0
  0
LINE
  5
43D
  8
DATA
  6
CONTINUOUS
 62
     7
 10
90.0
 20
-83.94999999999999
 30
0.0
 11
90.0
 21
-73.75
 31
0.0
  0
LINE
  5
43E
  8
DATA
  6
CONTINUOUS
 62
     7
 10
96.69999999999999
 20
-83.25
 30
0.0
 11
89.30000000000001
 21
-83.25
 31
0.0
  0
LINE
  5
43F
  8
DATA
  6
CONTINUOUS
 62
     7
 10
96.0
 20
-73.75
 30
0.0
 11
96.0
 21
-83.94999999999999
 31
0.0
  0
LINE
  5
440
  8
DATA
  6
CONTINUOUS
 62
     7
 10
94.5
 20
-72.25
 30
0.0
 11
96.0
 21
-73.75
 31
0.0
  0
ARC
  5
441
  8
DATA
  6
CONTINUOUS
 62
     7
 10
94.00000000000003
 20
-74.24999999999991
 30
0.0
 40
0.4999999999999716
 50
359.9999999999902
 51
90.0
  0
LINE
  5
442
  8
DATA
  6
CONTINUOUS
 62
     7
 10
92.0
 20
-73.74999999999994
 30
0.0
 11
94.00000000000003
 21
-73.74999999999994
 31
0.0
  0
ARC
  5
443
  8
DATA
  6
CONTINUOUS
 62
     7
 10
91.99999999999994
 20
-74.24999999999986
 30
0.0
 40
0.4999999999999147
 50
89.99999999999349
 51
180.0000000000163
  0
LINE
  5
444
  8
DATA
  6
CONTINUOUS
 62
     7
 10
91.5
 20
-81.25000000000006
 30
0.0
 11
91.5
 21
-74.25
 31
0.0
  0
ARC
  5
445
  8
DATA
  6
CONTINUOUS
 62
     7
 10
91.99999999999994
 20
-81.25000000000014
 30
0.0
 40
0.4999999999999432
 50
179.9999999999902
 51
270.000000000013
  0
LINE
  5
446
  8
DATA
  6
CONTINUOUS
 62
     7
 10
94.0
 20
-81.75000000000006
 30
0.0
 11
92.00000000000006
 21
-81.75000000000009
 31
0.0
  0
ARC
  5
447
  8
DATA
  6
CONTINUOUS
 62
     7
 10
94.0
 20
-81.25000000000003
 30
0.0
 40
0.5000000000000284
 50
270.0
 51
0.0000000000032401
  0
LINE
  5
448
  8
DATA
  6
CONTINUOUS
 62
     7
 10
94.5
 20
-74.25
 30
0.0
 11
94.5
 21
-81.25
 31
0.0
  0
LINE
  5
449
  8
DATA
  6
CONTINUOUS
 62
     7
 10
92.25
 20
-75.25
 30
0.0
 11
93.75
 21
-75.25
 31
0.0
  0
LINE
  5
44A
  8
DATA
  6
CONTINUOUS
 62
     7
 10
92.25
 20
-80.25
 30
0.0
 11
92.25
 21
-75.25
 31
0.0
  0
LINE
  5
44B
  8
DATA
  6
CONTINUOUS
 62
     7
 10
93.75
 20
-80.25
 30
0.0
 11
92.25
 21
-80.25
 31
0.0
  0
LINE
  5
44C
  8
DATA
  6
CONTINUOUS
 62
     7
 10
93.75
 20
-75.25
 30
0.0
 11
93.75
 21
-80.25
 31
0.0
  0
LINE
  5
44D
  8
DATA
  6
CONTINUOUS
 62
     7
 10
88.05000000000001
 20
-83.0
 30
0.0
 11
88.05000000000001
 21
-72.5
 31
0.0
  0
LINE
  5
44E
  8
DATA
  6
CONTINUOUS
 62
     7
 10
89.55000000000001
 20
-84.5
 30
0.0
 11
88.05000000000001
 21
-83.0
 31
0.0
  0
LINE
  5
44F
  8
DATA
  6
CONTINUOUS
 62
     7
 10
96.45000000000002
 20
-84.5
 30
0.0
 11
89.55000000000001
 21
-84.5
 31
0.0
  0
LINE
  5
450
  8
DATA
  6
CONTINUOUS
 62
     7
 10
97.95000000000002
 20
-83.0
 30
0.0
 11
96.45000000000002
 21
-84.5
 31
0.0
  0
LINE
  5
451
  8
DATA
  6
CONTINUOUS
 62
     7
 10
97.95000000000002
 20
-72.5
 30
0.0
 11
97.95000000000002
 21
-83.0
 31
0.0
  0
LINE
  5
452
  8
DATA
  6
CONTINUOUS
 62
     7
 10
96.45000000000002
 20
-71.0
 30
0.0
 11
97.95000000000002
 21
-72.5
 31
0.0
  0
LINE
  5
453
  8
DATA
  6
CONTINUOUS
 62
     7
 10
89.55000000000001
 20
-71.0
 30
0.0
 11
96.45000000000002
 21
-71.0
 31
0.0
  0
LINE
  5
454
  8
DATA
  6
CONTINUOUS
 62
     7
 10
88.05000000000001
 20
-72.5
 30
0.0
 11
89.55000000000001
 21
-71.0
 31
0.0
  0
LINE
  5
455
  8
DATA
  6
CONTINUOUS
 62
     7
 10
90.0
 20
-73.75
 30
0.0
 11
89.30000000000001
 21
-73.75
 31
0.0
  0
LINE
  5
456
  8
DATA
  6
CONTINUOUS
 62
     7
 10
96.0
 20
-73.75
 30
0.0
 11
96.69999999999999
 21
-73.75
 31
0.0
  0
LINE
  5
457
  8
DATA
  6
CONTINUOUS
 62
     7
 10
96.0
 20
-83.94999999999999
 30
0.0
 11
90.0
 21
-83.94999999999999
 31
0.0
  0
LINE
  5
458
  8
DATA
  6
CONTINUOUS
 62
     7
 10
91.5
 20
-71.55000000000001
 30
0.0
 11
94.5
 21
-71.55000000000001
 31
0.0
  0
LINE
  5
459
  8
DATA
  6
CONTINUOUS
 62
     7
 10
91.5
 20
-71.55000000000001
 30
0.0
 11
91.5
 21
-72.25
 31
0.0
  0
LINE
  5
45A
  8
DATA
  6
CONTINUOUS
 62
     7
 10
94.5
 20
-72.25
 30
0.0
 11
94.5
 21
-71.55000000000001
 31
0.0
  0
LINE
  5
45B
  8
DATA
  6
CONTINUOUS
 62
     7
 10
101.3
 20
-83.25
 30
0.0
 11
101.3
 21
-73.75
 31
0.0
  0
LINE
  5
45C
  8
DATA
  6
CONTINUOUS
 62
     7
 10
108.7
 20
-73.75
 30
0.0
 11
108.7
 21
-83.25
 31
0.0
  0
LINE
  5
45D
  8
DATA
  6
CONTINUOUS
 62
     7
 10
103.5
 20
-72.25
 30
0.0
 11
106.5
 21
-72.25
 31
0.0
  0
LINE
  5
45E
  8
DATA
  6
CONTINUOUS
 62
     7
 10
102.0
 20
-73.75
 30
0.0
 11
103.5
 21
-72.25
 31
0.0
  0
LINE
  5
45F
  8
DATA
  6
CONTINUOUS
 62
     7
 10
102.0
 20
-83.94999999999999
 30
0.0
 11
102.0
 21
-73.75
 31
0.0
  0
LINE
  5
460
  8
DATA
  6
CONTINUOUS
 62
     7
 10
108.7
 20
-83.25
 30
0.0
 11
101.3
 21
-83.25
 31
0.0
  0
LINE
  5
461
  8
DATA
  6
CONTINUOUS
 62
     7
 10
108.0
 20
-73.75
 30
0.0
 11
108.0
 21
-83.94999999999999
 31
0.0
  0
LINE
  5
462
  8
DATA
  6
CONTINUOUS
 62
     7
 10
106.5
 20
-72.25
 30
0.0
 11
108.0
 21
-73.75
 31
0.0
  0
ARC
  5
463
  8
DATA
  6
CONTINUOUS
 62
     7
 10
106.0
 20
-74.24999999999991
 30
0.0
 40
0.4999999999999716
 50
359.9999999999902
 51
90.0
  0
LINE
  5
464
  8
DATA
  6
CONTINUOUS
 62
     7
 10
104.0
 20
-73.74999999999994
 30
0.0
 11
106.0
 21
-73.74999999999994
 31
0.0
  0
ARC
  5
465
  8
DATA
  6
CONTINUOUS
 62
     7
 10
103.9999999999999
 20
-74.24999999999986
 30
0.0
 40
0.4999999999999147
 50
89.99999999999349
 51
180.0000000000163
  0
LINE
  5
466
  8
DATA
  6
CONTINUOUS
 62
     7
 10
103.5
 20
-81.25000000000006
 30
0.0
 11
103.5
 21
-74.25
 31
0.0
  0
ARC
  5
467
  8
DATA
  6
CONTINUOUS
 62
     7
 10
103.9999999999999
 20
-81.25000000000014
 30
0.0
 40
0.4999999999999432
 50
179.9999999999902
 51
270.000000000013
  0
LINE
  5
468
  8
DATA
  6
CONTINUOUS
 62
     7
 10
106.0
 20
-81.75000000000006
 30
0.0
 11
104.0000000000001
 21
-81.75000000000009
 31
0.0
  0
ARC
  5
469
  8
DATA
  6
CONTINUOUS
 62
     7
 10
106.0
 20
-81.25000000000003
 30
0.0
 40
0.5000000000000284
 50
270.0
 51
0.0000000000032401
  0
LINE
  5
46A
  8
DATA
  6
CONTINUOUS
 62
     7
 10
106.5
 20
-74.25
 30
0.0
 11
106.5
 21
-81.25
 31
0.0
  0
LINE
  5
46B
  8
DATA
  6
CONTINUOUS
 62
     7
 10
104.25
 20
-75.25
 30
0.0
 11
105.75
 21
-75.25
 31
0.0
  0
LINE
  5
46C
  8
DATA
  6
CONTINUOUS
 62
     7
 10
104.25
 20
-80.25
 30
0.0
 11
104.25
 21
-75.25
 31
0.0
  0
LINE
  5
46D
  8
DATA
  6
CONTINUOUS
 62
     7
 10
105.75
 20
-80.25
 30
0.0
 11
104.25
 21
-80.25
 31
0.0
  0
LINE
  5
46E
  8
DATA
  6
CONTINUOUS
 62
     7
 10
105.75
 20
-75.25
 30
0.0
 11
105.75
 21
-80.25
 31
0.0
  0
LINE
  5
46F
  8
DATA
  6
CONTINUOUS
 62
     7
 10
100.05
 20
-83.0
 30
0.0
 11
100.05
 21
-72.5
 31
0.0
  0
LINE
  5
470
  8
DATA
  6
CONTINUOUS
 62
     7
 10
101.55
 20
-84.5
 30
0.0
 11
100.05
 21
-83.0
 31
0.0
  0
LINE
  5
471
  8
DATA
  6
CONTINUOUS
 62
     7
 10
108.45
 20
-84.5
 30
0.0
 11
101.55
 21
-84.5
 31
0.0
  0
LINE
  5
472
  8
DATA
  6
CONTINUOUS
 62
     7
 10
109.95
 20
-83.0
 30
0.0
 11
108.45
 21
-84.5
 31
0.0
  0
LINE
  5
473
  8
DATA
  6
CONTINUOUS
 62
     7
 10
109.95
 20
-72.5
 30
0.0
 11
109.95
 21
-83.0
 31
0.0
  0
LINE
  5
474
  8
DATA
  6
CONTINUOUS
 62
     7
 10
108.45
 20
-71.0
 30
0.0
 11
109.95
 21
-72.5
 31
0.0
  0
LINE
  5
475
  8
DATA
  6
CONTINUOUS
 62
     7
 10
101.55
 20
-71.0
 30
0.0
 11
108.45
 21
-71.0
 31
0.0
  0
LINE
  5
476
  8
DATA
  6
CONTINUOUS
 62
     7
 10
100.05
 20
-72.5
 30
0.0
 11
101.55
 21
-71.0
 31
0.0
  0
LINE
  5
477
  8
DATA
  6
CONTINUOUS
 62
     7
 10
102.0
 20
-73.75
 30
0.0
 11
101.3
 21
-73.75
 31
0.0
  0
LINE
  5
478
  8
DATA
  6
CONTINUOUS
 62
     7
 10
108.0
 20
-73.75
 30
0.0
 11
108.7
 21
-73.75
 31
0.0
  0
LINE
  5
479
  8
DATA
  6
CONTINUOUS
 62
     7
 10
108.0
 20
-83.94999999999999
 30
0.0
 11
102.0
 21
-83.94999999999999
 31
0.0
  0
LINE
  5
47A
  8
DATA
  6
CONTINUOUS
 62
     7
 10
103.5
 20
-71.55000000000001
 30
0.0
 11
106.5
 21
-71.55000000000001
 31
0.0
  0
LINE
  5
47B
  8
DATA
  6
CONTINUOUS
 62
     7
 10
103.5
 20
-71.55000000000001
 30
0.0
 11
103.5
 21
-72.25
 31
0.0
  0
LINE
  5
47C
  8
DATA
  6
CONTINUOUS
 62
     7
 10
106.5
 20
-72.25
 30
0.0
 11
106.5
 21
-71.55000000000001
 31
0.0
  0
CIRCLE
  5
47D
  8
DATA
  6
CONTINUOUS
 62
     7
 10
99.0
 20
-90.0
 30
0.0
 40
0.75
  0
CIRCLE
  5
47E
  8
DATA
  6
CONTINUOUS
 62
     7
 10
99.0
 20
-90.0
 30
0.0
 40
1.0
  0
POLYLINE
  5
47F
  8
DATA
  6
CONTINUOUS
 62
     7
 66
     1
 10
0.0
 20
0.0
 30
0.0
 70
     1
  0
VERTEX
  5
831
  8
DATA
  6
CONTINUOUS
 62
     7
 10
100.3441342951089
 20
-90.37189110867544
 30
0.0
  0
VERTEX
  5
832
  8
DATA
  6
CONTINUOUS
 62
     7
 10
100.6039419162443
 20
-90.52189110867545
 30
0.0
  0
VERTEX
  5
833
  8
DATA
  6
CONTINUOUS
 62
     7
 10
100.2539419162443
 20
-91.12810889132456
 30
0.0
  0
VERTEX
  5
834
  8
DATA
  6
CONTINUOUS
 62
     7
 10
99.99413429510895
 20
-90.97810889132455
 30
0.0
  0
SEQEND
  5
93D
  8
DATA
  6
CONTINUOUS
 62
     7
  0
POLYLINE
  5
486
  8
DATA
  6
CONTINUOUS
 62
     7
 66
     1
 10
0.0
 20
0.0
 30
0.0
 70
     1
  0
VERTEX
  5
835
  8
DATA
  6
CONTINUOUS
 62
     7
 10
100.7771469970012
 20
-90.62189110867544
 30
0.0
  0
VERTEX
  5
836
  8
DATA
  6
CONTINUOUS
 62
     7
 10
101.0369546181365
 20
-90.77189110867545
 30
0.0
  0
VERTEX
  5
837
  8
DATA
  6
CONTINUOUS
 62
     7
 10
100.6869546181366
 20
-91.37810889132456
 30
0.0
  0
VERTEX
  5
838
  8
DATA
  6
CONTINUOUS
 62
     7
 10
100.4271469970012
 20
-91.22810889132455
 30
0.0
  0
SEQEND
  5
93E
  8
DATA
  6
CONTINUOUS
 62
     7
  0
POLYLINE
  5
48D
  8
DATA
  6
CONTINUOUS
 62
     7
 66
     1
 10
0.0
 20
0.0
 30
0.0
 70
     1
  0
VERTEX
  5
839
  8
DATA
  6
CONTINUOUS
 62
     7
 10
98.64999999999998
 20
-88.65
 30
0.0
  0
VERTEX
  5
83A
  8
DATA
  6
CONTINUOUS
 62
     7
 10
98.64999999999998
 20
-88.35000000000001
 30
0.0
  0
VERTEX
  5
83B
  8
DATA
  6
CONTINUOUS
 62
     7
 10
99.35
 20
-88.35000000000001
 30
0.0
  0
VERTEX
  5
83C
  8
DATA
  6
CONTINUOUS
 62
     7
 10
99.35
 20
-88.65
 30
0.0
  0
SEQEND
  5
93F
  8
DATA
  6
CONTINUOUS
 62
     7
  0
POLYLINE
  5
494
  8
DATA
  6
CONTINUOUS
 62
     7
 66
     1
 10
0.0
 20
0.0
 30
0.0
 70
     1
  0
VERTEX
  5
83D
  8
DATA
  6
CONTINUOUS
 62
     7
 10
98.64999999999998
 20
-88.15
 30
0.0
  0
VERTEX
  5
83E
  8
DATA
  6
CONTINUOUS
 62
     7
 10
98.64999999999998
 20
-87.85000000000001
 30
0.0
  0
VERTEX
  5
83F
  8
DATA
  6
CONTINUOUS
 62
     7
 10
99.35
 20
-87.85000000000001
 30
0.0
  0
VERTEX
  5
840
  8
DATA
  6
CONTINUOUS
 62
     7
 10
99.35
 20
-88.15
 30
0.0
  0
SEQEND
  5
940
  8
DATA
  6
CONTINUOUS
 62
     7
  0
POLYLINE
  5
49B
  8
DATA
  6
CONTINUOUS
 62
     7
 66
     1
 10
0.0
 20
0.0
 30
0.0
 70
     1
  0
VERTEX
  5
841
  8
DATA
  6
CONTINUOUS
 62
     7
 10
98.005865704891
 20
-90.97810889132455
 30
0.0
  0
VERTEX
  5
842
  8
DATA
  6
CONTINUOUS
 62
     7
 10
97.31304538186345
 20
-91.37810889132456
 30
0.0
  0
VERTEX
  5
843
  8
DATA
  6
CONTINUOUS
 62
     7
 10
96.96304538186345
 20
-90.77189110867545
 30
0.0
  0
VERTEX
  5
844
  8
DATA
  6
CONTINUOUS
 62
     7
 10
97.655865704891
 20
-90.37189110867544
 30
0.0
  0
SEQEND
  5
941
  8
DATA
  6
CONTINUOUS
 62
     7
  0
LINE
  5
4A2
  8
DATA
  6
CONTINUOUS
 62
     7
 10
249.5
 20
-88.40000000000003
 30
0.0
 11
224.5
 21
-88.40000000000003
 31
0.0
  0
LINE
  5
4A3
  8
DATA
  6
CONTINUOUS
 62
     7
 10
249.5
 20
-77.99999999999994
 30
0.0
 11
249.5
 21
-88.40000000000003
 31
0.0
  0
LINE
  5
4A4
  8
DATA
  6
CONTINUOUS
 62
     7
 10
224.5
 20
-77.99999999999994
 30
0.0
 11
224.5
 21
-88.40000000000003
 31
0.0
  0
LINE
  5
4A5
  8
DATA
  6
CONTINUOUS
 62
     7
 10
244.5
 20
-72.99999999999994
 30
0.0
 11
249.5
 21
-77.99999999999994
 31
0.0
  0
LINE
  5
4A6
  8
DATA
  6
CONTINUOUS
 62
     7
 10
229.5
 20
-72.99999999999994
 30
0.0
 11
224.5
 21
-77.99999999999994
 31
0.0
  0
LINE
  5
4A7
  8
DATA
  6
CONTINUOUS
 62
     7
 10
244.5
 20
-72.99999999999994
 30
0.0
 11
229.5
 21
-72.99999999999994
 31
0.0
  0
POLYLINE
  5
4A8
  8
DATA
  6
CONTINUOUS
 62
     7
 66
     1
 10
0.0
 20
0.0
 30
0.0
 70
     1
  0
VERTEX
  5
845
  8
DATA
  6
CONTINUOUS
 62
     7
 10
236.0
 20
-76.36934779856887
 30
0.0
  0
VERTEX
  5
846
  8
DATA
  6
CONTINUOUS
 62
     7
 10
238.0
 20
-76.36934779856887
 30
0.0
  0
VERTEX
  5
847
  8
DATA
  6
CONTINUOUS
 62
     7
 10
238.0
 20
-80.16934779856882
 30
0.0
  0
VERTEX
  5
848
  8
DATA
  6
CONTINUOUS
 62
     7
 10
236.0
 20
-80.16934779856882
 30
0.0
  0
SEQEND
  5
942
  8
DATA
  6
CONTINUOUS
 62
     7
  0
POLYLINE
  5
4AF
  8
DATA
  6
CONTINUOUS
 62
     7
 66
     1
 10
0.0
 20
0.0
 30
0.0
 70
     1
  0
VERTEX
  5
849
  8
DATA
  6
CONTINUOUS
 62
     7
 10
229.1999999999998
 20
-80.49999999999994
 30
0.0
  0
VERTEX
  5
84A
  8
DATA
  6
CONTINUOUS
 62
     7
 10
231.1999999999998
 20
-80.49999999999994
 30
0.0
  0
VERTEX
  5
84B
  8
DATA
  6
CONTINUOUS
 62
     7
 10
231.1999999999998
 20
-84.30000000000013
 30
0.0
  0
VERTEX
  5
84C
  8
DATA
  6
CONTINUOUS
 62
     7
 10
229.1999999999998
 20
-84.30000000000013
 30
0.0
  0
SEQEND
  5
943
  8
DATA
  6
CONTINUOUS
 62
     7
  0
POLYLINE
  5
4B6
  8
DATA
  6
CONTINUOUS
 62
     7
 66
     1
 10
0.0
 20
0.0
 30
0.0
 70
     1
  0
VERTEX
  5
84D
  8
DATA
  6
CONTINUOUS
 62
     7
 10
242.7999999999997
 20
-80.49999999999994
 30
0.0
  0
VERTEX
  5
84E
  8
DATA
  6
CONTINUOUS
 62
     7
 10
244.7999999999997
 20
-80.49999999999994
 30
0.0
  0
VERTEX
  5
84F
  8
DATA
  6
CONTINUOUS
 62
     7
 10
244.7999999999997
 20
-84.30000000000013
 30
0.0
  0
VERTEX
  5
850
  8
DATA
  6
CONTINUOUS
 62
     7
 10
242.7999999999997
 20
-84.30000000000013
 30
0.0
  0
SEQEND
  5
944
  8
DATA
  6
CONTINUOUS
 62
     7
  0
LINE
  5
4BD
  8
DATA
  6
CONTINUOUS
 62
     7
 10
129.85
 20
-72.20000000000005
 30
0.0
 11
129.85
 21
-98.79999999999995
 31
0.0
  0
LINE
  5
4BE
  8
DATA
  6
CONTINUOUS
 62
     7
 10
114.15
 20
-98.79999999999995
 30
0.0
 11
129.85
 21
-98.79999999999995
 31
0.0
  0
LINE
  5
4BF
  8
DATA
  6
CONTINUOUS
 62
     7
 10
114.15
 20
-85.5
 30
0.0
 11
129.85
 21
-85.5
 31
0.0
  0
LINE
  5
4C0
  8
DATA
  6
CONTINUOUS
 62
     7
 10
115.85
 20
-88.49999999999994
 30
0.0
 11
128.15
 21
-88.49999999999994
 31
0.0
  0
LINE
  5
4C1
  8
DATA
  6
CONTINUOUS
 62
     7
 10
115.85
 20
-88.49999999999994
 30
0.0
 11
115.85
 21
-95.79999999999995
 31
0.0
  0
LINE
  5
4C2
  8
DATA
  6
CONTINUOUS
 62
     7
 10
128.15
 20
-88.49999999999994
 30
0.0
 11
128.15
 21
-95.79999999999995
 31
0.0
  0
LINE
  5
4C3
  8
DATA
  6
CONTINUOUS
 62
     7
 10
119.775
 20
-98.79999999999995
 30
0.0
 11
119.775
 21
-97.29999999999995
 31
0.0
  0
LINE
  5
4C4
  8
DATA
  6
CONTINUOUS
 62
     7
 10
124.225
 20
-97.29999999999995
 30
0.0
 11
124.225
 21
-98.79999999999995
 31
0.0
  0
LINE
  5
4C5
  8
DATA
  6
CONTINUOUS
 62
     7
 10
118.65
 20
-97.29999999999995
 30
0.0
 11
119.775
 21
-97.29999999999995
 31
0.0
  0
LINE
  5
4C6
  8
DATA
  6
CONTINUOUS
 62
     7
 10
124.225
 20
-97.29999999999995
 30
0.0
 11
125.35
 21
-97.29999999999995
 31
0.0
  0
LINE
  5
4C7
  8
DATA
  6
CONTINUOUS
 62
     7
 10
115.85
 20
-95.79999999999995
 30
0.0
 11
118.65
 21
-95.79999999999995
 31
0.0
  0
LINE
  5
4C8
  8
DATA
  6
CONTINUOUS
 62
     7
 10
125.35
 20
-95.79999999999995
 30
0.0
 11
128.15
 21
-95.79999999999995
 31
0.0
  0
LINE
  5
4C9
  8
DATA
  6
CONTINUOUS
 62
     7
 10
118.65
 20
-97.29999999999995
 30
0.0
 11
118.65
 21
-95.79999999999995
 31
0.0
  0
LINE
  5
4CA
  8
DATA
  6
CONTINUOUS
 62
     7
 10
125.35
 20
-95.79999999999995
 30
0.0
 11
125.35
 21
-97.29999999999995
 31
0.0
  0
POLYLINE
  5
4CB
  8
DATA
  6
CONTINUOUS
 62
     7
 66
     1
 10
0.0
 20
0.0
 30
0.0
 70
     1
  0
VERTEX
  5
851
  8
DATA
  6
CONTINUOUS
 62
     7
 10
113.25
 20
-72.0
 30
0.0
  0
VERTEX
  5
852
  8
DATA
  6
CONTINUOUS
 62
     7
 10
130.75
 20
-72.0
 30
0.0
  0
VERTEX
  5
853
  8
DATA
  6
CONTINUOUS
 62
     7
 10
130.75
 20
-99.0
 30
0.0
  0
VERTEX
  5
854
  8
DATA
  6
CONTINUOUS
 62
     7
 10
113.25
 20
-99.0
 30
0.0
  0
SEQEND
  5
945
  8
DATA
  6
CONTINUOUS
 62
     7
  0
LINE
  5
4D2
  8
DATA
  6
CONTINUOUS
 62
     7
 10
114.15
 20
-98.79999999999995
 30
0.0
 11
114.15
 21
-72.20000000000005
 31
0.0
  0
LINE
  5
4D3
  8
DATA
  6
CONTINUOUS
 62
     7
 10
114.15
 20
-72.20000000000005
 30
0.0
 11
129.85
 21
-72.20000000000005
 31
0.0
  0
LINE
  5
4D4
  8
DATA
  6
CONTINUOUS
 62
     7
 10
115.85
 20
-82.50000000000006
 30
0.0
 11
128.15
 21
-82.50000000000006
 31
0.0
  0
LINE
  5
4D5
  8
DATA
  6
CONTINUOUS
 62
     7
 10
115.85
 20
-82.50000000000006
 30
0.0
 11
115.85
 21
-75.20000000000005
 31
0.0
  0
LINE
  5
4D6
  8
DATA
  6
CONTINUOUS
 62
     7
 10
128.15
 20
-82.50000000000006
 30
0.0
 11
128.15
 21
-75.20000000000005
 31
0.0
  0
LINE
  5
4D7
  8
DATA
  6
CONTINUOUS
 62
     7
 10
119.775
 20
-72.20000000000005
 30
0.0
 11
119.775
 21
-73.70000000000005
 31
0.0
  0
LINE
  5
4D8
  8
DATA
  6
CONTINUOUS
 62
     7
 10
124.225
 20
-73.70000000000005
 30
0.0
 11
124.225
 21
-72.20000000000005
 31
0.0
  0
LINE
  5
4D9
  8
DATA
  6
CONTINUOUS
 62
     7
 10
118.65
 20
-73.70000000000005
 30
0.0
 11
119.775
 21
-73.70000000000005
 31
0.0
  0
LINE
  5
4DA
  8
DATA
  6
CONTINUOUS
 62
     7
 10
124.225
 20
-73.70000000000005
 30
0.0
 11
125.35
 21
-73.70000000000005
 31
0.0
  0
LINE
  5
4DB
  8
DATA
  6
CONTINUOUS
 62
     7
 10
115.85
 20
-75.20000000000005
 30
0.0
 11
118.65
 21
-75.20000000000005
 31
0.0
  0
LINE
  5
4DC
  8
DATA
  6
CONTINUOUS
 62
     7
 10
125.35
 20
-75.20000000000005
 30
0.0
 11
128.15
 21
-75.20000000000005
 31
0.0
  0
LINE
  5
4DD
  8
DATA
  6
CONTINUOUS
 62
     7
 10
118.65
 20
-73.70000000000005
 30
0.0
 11
118.65
 21
-75.20000000000005
 31
0.0
  0
LINE
  5
4DE
  8
DATA
  6
CONTINUOUS
 62
     7
 10
125.35
 20
-75.20000000000005
 30
0.0
 11
125.35
 21
-73.70000000000005
 31
0.0
  0
POLYLINE
  5
4DF
  8
DATA
  6
CONTINUOUS
 62
     7
 66
     1
 10
0.0
 20
0.0
 30
0.0
 70
     1
  0
VERTEX
  5
855
  8
DATA
  6
CONTINUOUS
 62
     7
 10
223.0
 20
-72.0
 30
0.0
  0
VERTEX
  5
856
  8
DATA
  6
CONTINUOUS
 62
     7
 10
251.0
 20
-72.0
 30
0.0
  0
VERTEX
  5
857
  8
DATA
  6
CONTINUOUS
 62
     7
 10
251.0
 20
-100.0
 30
0.0
  0
VERTEX
  5
858
  8
DATA
  6
CONTINUOUS
 62
     7
 10
223.0
 20
-100.0
 30
0.0
  0
SEQEND
  5
946
  8
DATA
  6
CONTINUOUS
 62
     7
  0
POLYLINE
  5
4E6
  8
DATA
  6
CONTINUOUS
 62
     7
 66
     1
 10
0.0
 20
0.0
 30
0.0
 70
     1
  0
VERTEX
  5
859
  8
DATA
  6
CONTINUOUS
 62
     7
 10
224.5
 20
-90.20000000000002
 30
0.0
  0
VERTEX
  5
85A
  8
DATA
  6
CONTINUOUS
 62
     7
 10
249.5
 20
-90.20000000000002
 30
0.0
  0
VERTEX
  5
85B
  8
DATA
  6
CONTINUOUS
 62
     7
 10
249.5
 20
-98.20000000000002
 30
0.0
  0
VERTEX
  5
85C
  8
DATA
  6
CONTINUOUS
 62
     7
 10
224.5
 20
-98.20000000000002
 30
0.0
  0
SEQEND
  5
947
  8
DATA
  6
CONTINUOUS
 62
     7
  0
TEXT
  5
4ED
  8
DATA
 62
     7
 10
-134.3325550672743
 20
-591.9501573350694
 30
0.0
 40
1.900314670138889
  1
0
 41
0.7
 72
     1
 11
-134.0
 21
-591.0
 31
0.0
 73
     2
  0
TEXT
  5
4EE
  8
DATA
 62
     7
 10
-135.1085168909144
 20
-588.9501573350694
 30
0.0
 40
1.900314670138889
  1
dB
 41
0.7
 72
     1
 11
-134.0
 21
-588.0
 31
0.0
 73
     2
  0
TEXT
  5
4EF
  8
DATA
 62
     7
 10
-139.099177698206
 20
-585.9501573350694
 30
0.0
 40
1.900314670138889
  1
HEADROOM
 41
0.7
 72
     1
 11
-134.0
 21
-585.0
 31
0.0
 73
     2
  0
TEXT
  5
4F0
  8
DATA
 62
     7
 10
-135.1085168909144
 20
-596.0501573350695
 30
0.0
 40
1.900314670138889
  1
-3
 41
0.7
 72
     1
 11
-134.0
 21
-595.1
 31
0.0
 73
     2
  0
TEXT
  5
4F1
  8
DATA
 62
     7
 10
-135.1085168909144
 20
-600.1501573350695
 30
0.0
 40
1.900314670138889
  1
-6
 41
0.7
 72
     1
 11
-134.0
 21
-599.2
 31
0.0
 73
     2
  0
TEXT
  5
4F2
  8
DATA
 62
     7
 10
-135.5519236472801
 20
-604.2501573350695
 30
0.0
 40
1.900314670138889
  1
-12
 41
0.7
 72
     1
 11
-134.0
 21
-603.3000000000001
 31
0.0
 73
     2
  0
TEXT
  5
4F3
  8
DATA
 62
     7
 10
-135.5519236472801
 20
-608.3501573350695
 30
0.0
 40
1.900314670138889
  1
-18
 41
0.7
 72
     1
 11
-134.0
 21
-607.4000000000001
 31
0.0
 73
     2
  0
TEXT
  5
4F4
  8
DATA
 62
     7
 10
-137.5472540509259
 20
-612.4501573350695
 30
0.0
 40
1.900314670138889
  1
SIGNAL
 41
0.7
 72
     1
 11
-134.0
 21
-611.5000000000001
 31
0.0
 73
     2
  0
TEXT
  5
4F5
  8
DATA
 62
     7
 10
20.7310425708912
 20
-583.8751573350694
 30
0.0
 40
1.900314670138889
  1
SELECT
 41
0.7
 72
     1
 11
24.5
 21
-582.925
 31
0.0
 73
     2
  0
TEXT
  5
4F6
  8
DATA
 62
     7
 10
-5.712364185474537
 20
-584.9501573350694
 30
0.0
 40
1.900314670138889
  1
MACHINE
 41
0.7
 72
     1
 11
-1.5
 21
-584.0
 31
0.0
 73
     2
  0
TEXT
  5
4F7
  8
DATA
 62
     7
 10
-3.938737160011574
 20
-602.9501573350694
 30
0.0
 40
1.900314670138889
  1
BACK
 41
0.7
 72
     1
 11
-1.5
 21
-602.0
 31
0.0
 73
     2
  0
TEXT
  5
4F8
  8
DATA
 62
     7
 10
63.05659324363426
 20
-583.8751573350694
 30
0.0
 40
1.900314670138889
  1
A
 41
0.7
 72
     1
 11
63.5
 21
-582.925
 31
0.0
 73
     2
  0
TEXT
  5
4F9
  8
DATA
 62
     7
 10
88.05659324363425
 20
-583.8751573350694
 30
0.0
 40
1.900314670138889
  1
B
 41
0.7
 72
     1
 11
88.5
 21
-582.925
 31
0.0
 73
     2
  0
TEXT
  5
4FA
  8
DATA
 62
     7
 10
113.0565932436343
 20
-583.8751573350694
 30
0.0
 40
1.900314670138889
  1
C
 41
0.7
 72
     1
 11
113.5
 21
-582.925
 31
0.0
 73
     2
  0
TEXT
  5
4FB
  8
DATA
 62
     7
 10
137.7357121672454
 20
-585.4501573350694
 30
0.0
 40
1.900314670138889
  1
TAP/TEMPO
 41
0.7
 72
     1
 11
143.5
 21
-584.5
 31
0.0
 73
     2
  0
TEXT
  5
4FC
  8
DATA
 62
     7
 10
141.0612628399884
 20
-602.4501573350694
 30
0.0
 40
1.900314670138889
  1
LOAD
 41
0.7
 72
     1
 11
143.5
 21
-601.5
 31
0.0
 73
     2
  0
TEXT
  5
4FD
  8
DATA
 62
     7
 10
158.8961527054398
 20
-585.4501573350694
 30
0.0
 40
1.900314670138889
  1
STORE
 41
0.7
 72
     1
 11
162.0
 21
-584.5
 31
0.0
 73
     2
  0
TEXT
  5
4FE
  8
DATA
 62
     7
 10
157.5659324363426
 20
-602.4501573350694
 30
0.0
 40
1.900314670138889
  1
COMPARE
 41
0.7
 72
     1
 11
162.0
 21
-601.5
 31
0.0
 73
     2
  0
TEXT
  5
4FF
  8
DATA
 62
     7
 10
210.4049418772162
 20
-593.4501573350694
 30
0.0
 40
1.900314670138889
  1
FLASH BUSY
 41
0.7
 72
     1
 11
216.5682957907
 21
-592.5
 31
0.0
 73
     2
  0
TEXT
  5
500
  8
DATA
 62
     7
 10
248.174449327257
 20
-584.6848795572917
 30
0.0
 40
1.900314670138889
  1
POWER
 41
0.7
 72
     1
 11
251.5
 21
-583.7347222222222
 31
0.0
 73
     2
  0
TEXT
  5
501
  8
DATA
 62
     7
 10
260.9477973090278
 20
-604.0721028645834
 30
0.0
 40
8.144205729166666
  1
PCM96
 41
0.7
 72
     1
 11
274.25
 21
-600.0
 31
0.0
 73
     2
  0
TEXT
  5
502
  8
DATA
 62
     7
 10
-145.3826515480072
 20
-69.69263237847221
 30
0.0
 40
2.714735243055556
  1
RIGHT
 50
180.0
 41
0.7
 72
     1
 11
-149.4999999999748
 21
-71.04999999999998
 31
0.0
 73
     2
  0
TEXT
  5
503
  8
DATA
 62
     7
 10
-121.5160897713868
 20
-69.69263237847221
 30
0.0
 40
2.714735243055556
  1
LEFT
 50
180.0
 41
0.7
 72
     1
 11
-124.9999999999748
 21
-71.04999999999998
 31
0.0
 73
     2
  0
TEXT
  5
504
  8
DATA
 62
     7
 10
-95.88265154800717
 20
-69.42442973573188
 30
0.0
 40
2.714735243055556
  1
RIGHT
 50
180.0
 41
0.7
 72
     1
 11
-99.99999999997476
 21
-70.78179735725965
 31
0.0
 73
     2
  0
TEXT
  5
505
  8
DATA
 62
     7
 10
-72.5160897713868
 20
-69.42442973573188
 30
0.0
 40
2.714735243055556
  1
LEFT
 50
180.0
 41
0.7
 72
     1
 11
-75.99999999997476
 21
-70.78179735725965
 31
0.0
 73
     2
  0
TEXT
  5
506
  8
DATA
 62
     7
 10
-154.6736111111
 20
-94.91083502117223
 30
0.0
 40
2.714735243055556
  1
IN
 50
180.0
 41
0.7
 11
-154.6736111111
 21
-96.2682026427
 31
0.0
 73
     2
  0
TEXT
  5
507
  8
DATA
 62
     7
 10
-130.1736111111
 20
-94.91083502117223
 30
0.0
 40
2.714735243055556
  1
IN
 50
180.0
 41
0.7
 11
-130.1736111111
 21
-96.2682026427
 31
0.0
 73
     2
  0
TEXT
  5
508
  8
DATA
 62
     7
 10
-105.4891666917127
 20
-94.91083502117223
 30
0.0
 40
2.714735243055556
  1
OUT
 50
180.0
 41
0.7
 11
-105.4891666917127
 21
-96.2682026427
 31
0.0
 73
     2
  0
TEXT
  5
509
  8
DATA
 62
     7
 10
-81.48916669171268
 20
-94.91083502117223
 30
0.0
 40
2.714735243055556
  1
OUT
 50
180.0
 41
0.7
 11
-81.48916669171268
 21
-96.2682026427
 31
0.0
 73
     2
  0
TEXT
  5
50A
  8
DATA
 62
     7
 10
-70.05834946469908
 20
-99.54984266493055
 30
0.0
 40
1.900314670138889
  1
ANALOG I/O
 50
180.0
 41
0.7
 72
     1
 11
-76.0
 21
-100.5
 31
0.0
 73
     2
  0
TEXT
  5
50B
  8
DATA
 62
     7
 10
-45.2331235532155
 20
-69.69263237847221
 30
0.0
 40
2.714735243055556
  1
IN
 50
180.0
 41
0.7
 72
     1
 11
-46.49999999997476
 21
-71.04999999999998
 31
0.0
 73
     2
  0
TEXT
  5
50C
  8
DATA
 62
     7
 10
-19.65069152584356
 20
-69.42442973573188
 30
0.0
 40
2.714735243055556
  1
OUT
 50
180.0
 41
0.7
 72
     1
 11
-22.18444441936208
 21
-70.78179735725965
 31
0.0
 73
     2
  0
TEXT
  5
50D
  8
DATA
 62
     7
 10
-17.75037685572991
 20
-99.54984266493055
 30
0.0
 40
1.900314670138889
  1
AES/EBU
 50
180.0
 41
0.7
 72
     1
 11
-22.18444441938732
 21
-100.5
 31
0.0
 73
     2
  0
TEXT
  5
50E
  8
DATA
 62
     7
 10
54.26687644675926
 20
-92.14263237847223
 30
0.0
 40
2.714735243055556
  1
IN
 50
180.0
 41
0.7
 72
     1
 11
53.0
 21
-93.5
 31
0.0
 73
     2
  0
TEXT
  5
50F
  8
DATA
 62
     7
 10
77.48391022858796
 20
-92.14263237847223
 30
0.0
 40
2.714735243055556
  1
THRU
 50
180.0
 41
0.7
 72
     1
 11
74.0
 21
-93.5
 31
0.0
 73
     2
  0
TEXT
  5
510
  8
DATA
 62
     7
 10
33.53375289351852
 20
-92.14263237847223
 30
0.0
 40
2.714735243055556
  1
OUT
 50
180.0
 41
0.7
 72
     1
 11
31.0
 21
-93.5
 31
0.0
 73
     2
  0
TEXT
  5
511
  8
DATA
 62
     7
 10
75.99533040364584
 20
-99.54984266493055
 30
0.0
 40
1.900314670138889
  1
MIDI
 50
180.0
 41
0.7
 72
     1
 11
74.0
 21
-100.5
 31
0.0
 73
     2
  0
TEXT
  5
512
  8
DATA
 62
     7
 10
93.63343822337963
 20
-66.64263237847223
 30
0.0
 40
2.714735243055556
  1
2
 50
180.0
 41
0.7
 72
     1
 11
93.0
 21
-68.0
 31
0.0
 73
     2
  0
TEXT
  5
513
  8
DATA
 62
     7
 10
105.3167191116898
 20
-66.64263237847223
 30
0.0
 40
2.714735243055556
  1
1
 50
180.0
 41
0.7
 72
     1
 11
105.0
 21
-68.0
 31
0.0
 73
     2
  0
TEXT
  5
514
  8
DATA
 62
     7
 10
105.9678204571759
 20
-94.64263237847223
 30
0.0
 40
2.714735243055556
  1
FIREWIRE
 50
180.0
 41
0.7
 72
     1
 11
99.0
 21
-96.0
 31
0.0
 73
     2
  0
TEXT
  5
515
  8
DATA
 62
     7
 10
106.6012586805556
 20
-98.96394856770833
 30
0.0
 40
4.072102864583333
  1
HIQnet
 50
180.0
 41
0.7
 72
     1
 11
99.0
 21
-101.0
 31
0.0
 73
     2
  0
TEXT
  5
516
  8
DATA
 62
     7
 10
129.2845395688657
 20
-100.1426323784722
 30
0.0
 40
2.714735243055556
  1
ETHERNET
 50
180.0
 41
0.7
 72
     1
 11
122.0
 21
-101.5
 31
0.0
 73
     2
  0
TEXT
  5
517
  8
DATA
 62
     7
 10
-704.0
 20
-952.2670727777777
 30
0.0
 40
15.20251736111112
  1
※仕様及び外観は予告なく変更されることがあります。
 41
0.7
 11
-704.0
 21
-937.0645554166666
 31
0.0
 73
     3
  0
TEXT
  5
518
  8
DATA
 62
     7
 10
-704.0
 20
-972.0226283333333
 30
0.0
 40
15.20251736111112
  1
　また、同一商品でも若干の個体差があることがあります。ご了承ください。
 41
0.7
 11
-704.0
 21
-956.8201109722222
 31
0.0
 73
     3
  0
TEXT
  5
519
  8
DATA
 62
     7
 10
399.9999999999999
 20
-868.2301749999997
 30
0.0
 40
19.54609375
  1
Lexicon PRO
 41
0.7
 11
399.9999999999999
 21
-848.6840812499997
 31
0.0
 73
     3
  0
TEXT
  5
51A
  8
DATA
 62
     7
 10
379.9999999999999
 20
-897.061815
 30
0.0
 40
15.20251736111112
  1
リバーブレーター
 41
0.7
 11
379.9999999999999
 21
-881.859297638889
 31
0.0
 73
     3
  0
TEXT
  5
51B
  8
DATA
 62
     7
 10
399.9999999999999
 20
-926.2301749999997
 30
0.0
 40
19.54609375
  1
PCM96
 41
0.7
 11
399.9999999999999
 21
-906.6840812499997
 31
0.0
 73
     3
  0
TEXT
  5
51C
  8
DATA
 62
     7
 10
209.7734443721287
 20
-73.04152126736116
 30
0.0
 40
2.714735243055556
  1
T 4A,H 250V
 50
180.0
 41
0.7
 72
     1
 11
200.7152777778
 21
-74.39888888888893
 31
0.0
 73
     2
  0
TEXT
  5
51D
  8
DATA
 62
     7
 10
221.175332392962
 20
-77.06929904508334
 30
0.0
 40
2.714735243055556
  1
FUSE REPLACEMENT RATING
 50
180.0
 41
0.7
 72
     1
 11
200.7152777778
 21
-78.42666666661111
 31
0.0
 73
     2
  0
TEXT
  5
51E
  8
DATA
 62
     7
 10
207.7781139684829
 20
-85.12485460067222
 30
0.0
 40
2.714735243055556
  1
20 WATTS
 50
180.0
 41
0.7
 72
     1
 11
200.7152777778
 21
-86.4822222222
 31
0.0
 73
     2
  0
TEXT
  5
51F
  8
DATA
 62
     7
 10
214.9993097150106
 20
-81.0970768228778
 30
0.0
 40
2.714735243055556
  1
100-240V～50/60Hz
 50
180.0
 41
0.7
 72
     1
 11
200.7152777778
 21
-82.45444444440557
 31
0.0
 73
     2
  0
LINE
  5
520
  8
DATA
  6
CONTINUOUS
 62
     7
 10
640.5
 20
-592.0763770575841
 30
0.0
 11
640.5
 21
-586.25
 31
0.0
  0
LINE
  5
521
  8
DATA
  6
CONTINUOUS
 62
     7
 10
641.0
 20
-580.25
 30
0.0
 11
640.0
 21
-580.25
 31
0.0
  0
LINE
  5
522
  8
DATA
  6
CONTINUOUS
 62
     7
 10
641.0
 20
-586.25
 30
0.0
 11
640.0
 21
-586.25
 31
0.0
  0
LINE
  5
523
  8
DATA
  6
CONTINUOUS
 62
     7
 10
641.0
 20
-580.25
 30
0.0
 11
641.0
 21
-586.25
 31
0.0
  0
ARC
  5
524
  8
DATA
  6
CONTINUOUS
 62
     7
 10
637.0
 20
-583.25
 30
0.0
 40
5.0
 50
323.1301023541561
 51
36.86989764584405
  0
LINE
  5
525
  8
DATA
  6
CONTINUOUS
 62
     7
 10
641.5
 20
-602.3
 30
0.0
 11
640.0
 21
-602.3
 31
0.0
  0
LINE
  5
526
  8
DATA
  6
CONTINUOUS
 62
     7
 10
641.5
 20
-614.7
 30
0.0
 11
640.0
 21
-614.7
 31
0.0
  0
LINE
  5
527
  8
DATA
  6
CONTINUOUS
 62
     7
 10
653.5
 20
-603.5
 30
0.0
 11
641.5
 21
-603.5
 31
0.0
  0
LINE
  5
528
  8
DATA
  6
CONTINUOUS
 62
     7
 10
653.5
 20
-613.5
 30
0.0
 11
641.5
 21
-613.5
 31
0.0
  0
LINE
  5
529
  8
DATA
  6
CONTINUOUS
 62
     7
 10
653.5
 20
-603.5
 30
0.0
 11
653.5
 21
-613.5
 31
0.0
  0
LINE
  5
52A
  8
DATA
  6
CONTINUOUS
 62
     7
 10
641.5
 20
-602.3
 30
0.0
 11
641.5
 21
-614.7
 31
0.0
  0
CIRCLE
  5
52B
  8
DATA
  6
CONTINUOUS
 62
     7
 10
649.5
 20
-608.5
 30
0.0
 40
1.0
  0
LINE
  5
52C
  8
DATA
  6
CONTINUOUS
 62
     7
 10
640.0
 20
-602.3
 30
0.0
 11
640.6498564631097
 21
-614.7
 31
0.0
  0
LINE
  5
52D
  8
DATA
  6
CONTINUOUS
 62
     7
 10
640.5
 20
-602.3
 30
0.0
 11
641.1498564631097
 21
-614.7
 31
0.0
  0
LINE
  5
52E
  8
DATA
  6
CONTINUOUS
 62
     7
 10
641.0
 20
-602.3
 30
0.0
 11
641.5
 21
-611.8405683438634
 31
0.0
  0
LINE
  5
52F
  8
DATA
  6
CONTINUOUS
 62
     7
 10
640.0
 20
-611.8405683438634
 30
0.0
 11
640.1498564631097
 21
-614.7
 31
0.0
  0
ARC
  5
530
  8
DATA
  6
CONTINUOUS
 62
     7
 10
637.790625
 20
-615.0
 30
0.0
 40
2.709374999999964
 50
324.6324349261087
 51
6.357205071689635
  0
ARC
  5
531
  8
DATA
  6
CONTINUOUS
 62
     7
 10
637.3982496937499
 20
-593.9646859260503
 30
0.0
 40
2.90175030625008
 50
333.7165174074127
 51
26.28348259259138
  0
LINE
  5
532
  8
DATA
  6
CONTINUOUS
 62
     7
 10
640.5
 20
-592.0763770575841
 30
0.0
 11
640.0
 21
-592.0763770575841
 31
0.0
  0
TEXT
  5
533
  8
DATA
 62
     7
 10
11.80062934027778
 20
-92.14263237847223
 30
0.0
 40
2.714735243055556
  1
WORD
 50
180.0
 41
0.7
 72
     1
 11
8.0
 21
-93.5
 31
0.0
 73
     2
  0
TEXT
  5
534
  8
DATA
 62
     7
 10
12.43406756365741
 20
-88.61485460069446
 30
0.0
 40
2.714735243055556
  1
CLOCK
 50
180.0
 41
0.7
 72
     1
 11
8.0
 21
-89.97222222222223
 31
0.0
 73
     2
  0
LINE
  5
535
  8
DATA
  6
CONTINUOUS
 62
     7
 10
-347.5451450109039
 20
-585.9941123638048
 30
0.0
 11
-347.5451450109039
 21
-585.9999999999999
 31
0.0
  0
LINE
  5
536
  8
DATA
  6
CONTINUOUS
 62
     7
 10
-347.5451450109039
 20
-585.9941123638048
 30
0.0
 11
-350.0451450109039
 21
-585.9941123638048
 31
0.0
  0
ARC
  5
537
  8
DATA
  6
CONTINUOUS
 62
     7
 10
-352.3451450109038
 20
-591.4941123638048
 30
0.0
 40
7.299999999999993
 50
48.4159132502468
 51
48.88790956083334
  0
LINE
  5
538
  8
DATA
  6
CONTINUOUS
 62
     7
 10
-345.0
 20
-594.5
 30
0.0
 11
-350.0
 21
-594.5
 31
0.0
  0
LINE
  5
539
  8
DATA
  6
CONTINUOUS
 62
     7
 10
-345.0
 20
-605.5
 30
0.0
 11
-350.0
 21
-605.5
 31
0.0
  0
LINE
  5
53A
  8
DATA
  6
CONTINUOUS
 62
     7
 10
-345.0
 20
-605.5
 30
0.0
 11
-345.0
 21
-594.5
 31
0.0
  0
ARC
  5
53B
  8
DATA
  6
CONTINUOUS
 62
     7
 10
-359.625
 20
-600.0
 30
0.0
 40
15.625
 50
339.390307062468
 51
20.60969293753209
  0
LINE
  5
53C
  8
DATA
  6
CONTINUOUS
 62
     7
 10
-348.0
 20
-594.0
 30
0.0
 11
-350.0
 21
-594.0
 31
0.0
  0
LINE
  5
53D
  8
DATA
  6
CONTINUOUS
 62
     7
 10
-348.0
 20
-606.0
 30
0.0
 11
-350.0
 21
-606.0
 31
0.0
  0
LINE
  5
53E
  8
DATA
  6
CONTINUOUS
 62
     7
 10
-348.0
 20
-594.0
 30
0.0
 11
-348.0
 21
-594.5
 31
0.0
  0
LINE
  5
53F
  8
DATA
  6
CONTINUOUS
 62
     7
 10
-348.0
 20
-605.5
 30
0.0
 11
-348.0
 21
-606.0
 31
0.0
  0
LINE
  5
540
  8
DATA
  6
CONTINUOUS
 62
     7
 10
-347.5
 20
-586.0
 30
0.0
 11
-347.5
 21
-594.5
 31
0.0
  0
LINE
  5
541
  8
DATA
  6
CONTINUOUS
 62
     7
 10
-347.5
 20
-586.0
 30
0.0
 11
-350.0
 21
-586.0
 31
0.0
  0
ARC
  5
542
  8
DATA
  6
CONTINUOUS
 62
     7
 10
-352.3
 20
-591.5
 30
0.0
 40
7.299999999999934
 50
335.7349140973164
 51
48.88790956083336
  0
LINE
  5
543
  8
DATA
  6
CONTINUOUS
 62
     7
 10
-347.5
 20
-605.5
 30
0.0
 11
-347.5
 21
-614.0
 31
0.0
  0
LINE
  5
544
  8
DATA
  6
CONTINUOUS
 62
     7
 10
-347.5
 20
-614.0
 30
0.0
 11
-350.0
 21
-614.0
 31
0.0
  0
ARC
  5
545
  8
DATA
  6
CONTINUOUS
 62
     7
 10
-352.3
 20
-608.5
 30
0.0
 40
7.299999999999971
 50
311.1120904391666
 51
24.26508590268355
  0
LINE
  5
546
  8
DATA
  6
CONTINUOUS
 62
     7
 10
-340.0
 20
-591.55
 30
0.0
 11
-345.000171234885
 21
-591.55
 31
0.0
  0
LINE
  5
547
  8
DATA
  6
CONTINUOUS
 62
     7
 10
-340.0
 20
-608.45
 30
0.0
 11
-345.000171234885
 21
-608.45
 31
0.0
  0
LINE
  5
548
  8
DATA
  6
CONTINUOUS
 62
     7
 10
-340.0
 20
-591.55
 30
0.0
 11
-340.0
 21
-608.45
 31
0.0
  0
ARC
  5
549
  8
DATA
  6
CONTINUOUS
 62
     7
 10
-375.2012500000004
 20
-600.0
 30
0.0
 40
36.20125000000041
 50
346.5016504208608
 51
13.49834957913924
  0
LINE
  5
54A
  8
DATA
  6
CONTINUOUS
 62
     7
 10
-333.0
 20
-584.8499999999999
 30
0.0
 11
-333.0
 21
-615.1499999999999
 31
0.0
  0
LINE
  5
54B
  8
DATA
  6
CONTINUOUS
 62
     7
 10
-333.0000000000001
 20
-584.8499999999999
 30
0.0
 11
-350.0
 21
-584.8499999999999
 31
0.0
  0
LINE
  5
54C
  8
DATA
  6
CONTINUOUS
 62
     7
 10
-333.0000000000001
 20
-615.1499999999999
 30
0.0
 11
-350.0
 21
-615.1499999999999
 31
0.0
  0
ARC
  5
54D
  8
DATA
  6
CONTINUOUS
 62
     7
 10
-447.2612499999997
 20
-600.0
 30
0.0
 40
115.2612499999997
 50
352.4471569311103
 51
7.552843068889899
  0
LINE
  5
54E
  8
DATA
  6
CONTINUOUS
 62
     7
 10
-347.5
 20
-614.0000000000001
 30
0.0
 11
-347.5
 21
-614.5
 31
0.0
  0
LINE
  5
54F
  8
DATA
  6
CONTINUOUS
 62
     7
 10
-347.5
 20
-614.5
 30
0.0
 11
-350.0
 21
-614.5
 31
0.0
  0
ARC
  5
550
  8
DATA
  6
CONTINUOUS
 62
     7
 10
-352.3
 20
-609.0
 30
0.0
 40
7.299999999999971
 50
311.1120904391666
 51
1.962567983210533
  0
LINE
  5
551
  8
DATA
  6
CONTINUOUS
 62
     7
 10
-354.7
 20
-610.75
 30
0.0
 11
-350.0
 21
-610.75
 31
0.0
  0
LINE
  5
552
  8
DATA
  6
CONTINUOUS
 62
     7
 10
-350.0
 20
-589.25
 30
0.0
 11
-354.7
 21
-589.25
 31
0.0
  0
LINE
  5
553
  8
DATA
  6
CONTINUOUS
 62
     7
 10
-354.7
 20
-577.5
 30
0.0
 11
-354.7
 21
-589.25
 31
0.0
  0
LINE
  5
554
  8
DATA
  6
CONTINUOUS
 62
     7
 10
-354.7
 20
-610.75
 30
0.0
 11
-354.7
 21
-622.5
 31
0.0
  0
LINE
  5
555
  8
DATA
  6
CONTINUOUS
 62
     7
 10
-360.0
 20
-577.5
 30
0.0
 11
-360.0
 21
-622.5
 31
0.0
  0
CIRCLE
  5
556
  8
DATA
  6
CONTINUOUS
 62
     7
 10
-380.2
 20
-584.0
 30
0.0
 40
3.0
  0
LINE
  5
557
  8
DATA
  6
CONTINUOUS
 62
     7
 10
-378.7
 20
-584.0
 30
0.0
 11
-381.7
 21
-584.0
 31
0.0
  0
LINE
  5
558
  8
DATA
  6
CONTINUOUS
 62
     7
 10
-380.2
 20
-585.5
 30
0.0
 11
-380.2
 21
-582.5
 31
0.0
  0
CIRCLE
  5
559
  8
DATA
  6
CONTINUOUS
 62
     7
 10
-380.2
 20
-616.0
 30
0.0
 40
3.0
  0
LINE
  5
55A
  8
DATA
  6
CONTINUOUS
 62
     7
 10
-378.7
 20
-616.0
 30
0.0
 11
-381.7
 21
-616.0
 31
0.0
  0
LINE
  5
55B
  8
DATA
  6
CONTINUOUS
 62
     7
 10
-380.2
 20
-617.5
 30
0.0
 11
-380.2
 21
-614.5
 31
0.0
  0
CIRCLE
  5
55C
  8
DATA
  6
CONTINUOUS
 62
     7
 10
-498.2
 20
-616.0
 30
0.0
 40
3.0
  0
LINE
  5
55D
  8
DATA
  6
CONTINUOUS
 62
     7
 10
-496.7
 20
-616.0
 30
0.0
 11
-499.7
 21
-616.0
 31
0.0
  0
LINE
  5
55E
  8
DATA
  6
CONTINUOUS
 62
     7
 10
-498.2
 20
-617.5
 30
0.0
 11
-498.2
 21
-614.5
 31
0.0
  0
POLYLINE
  5
55F
  8
DATA
  6
CONTINUOUS
 62
     7
 66
     1
 10
0.0
 20
0.0
 30
0.0
 70
     1
  0
VERTEX
  5
85D
  8
DATA
  6
CONTINUOUS
 62
     7
 10
-405.6700000000001
 20
-589.5
 30
0.0
  0
VERTEX
  5
85E
  8
DATA
  6
CONTINUOUS
 62
     7
 10
-404.2
 20
-589.5
 30
0.0
  0
VERTEX
  5
85F
  8
DATA
  6
CONTINUOUS
 62
     7
 10
-404.2
 20
-610.0
 30
0.0
  0
VERTEX
  5
860
  8
DATA
  6
CONTINUOUS
 62
     7
 10
-405.6700000000001
 20
-610.0
 30
0.0
  0
SEQEND
  5
948
  8
DATA
  6
CONTINUOUS
 62
     7
  0
POLYLINE
  5
566
  8
DATA
  6
CONTINUOUS
 62
     7
 66
     1
 10
0.0
 20
0.0
 30
0.0
 70
     1
  0
VERTEX
  5
861
  8
DATA
  6
CONTINUOUS
 62
     7
 10
-409.6700000000001
 20
-589.5
 30
0.0
  0
VERTEX
  5
862
  8
DATA
  6
CONTINUOUS
 62
     7
 10
-408.2
 20
-589.5
 30
0.0
  0
VERTEX
  5
863
  8
DATA
  6
CONTINUOUS
 62
     7
 10
-408.2
 20
-610.0
 30
0.0
  0
VERTEX
  5
864
  8
DATA
  6
CONTINUOUS
 62
     7
 10
-409.6700000000001
 20
-610.0
 30
0.0
  0
SEQEND
  5
949
  8
DATA
  6
CONTINUOUS
 62
     7
  0
POLYLINE
  5
56D
  8
DATA
  6
CONTINUOUS
 62
     7
 66
     1
 10
0.0
 20
0.0
 30
0.0
 70
     1
  0
VERTEX
  5
865
  8
DATA
  6
CONTINUOUS
 62
     7
 10
-413.6700000000001
 20
-589.5
 30
0.0
  0
VERTEX
  5
866
  8
DATA
  6
CONTINUOUS
 62
     7
 10
-412.2
 20
-589.5
 30
0.0
  0
VERTEX
  5
867
  8
DATA
  6
CONTINUOUS
 62
     7
 10
-412.2
 20
-610.0
 30
0.0
  0
VERTEX
  5
868
  8
DATA
  6
CONTINUOUS
 62
     7
 10
-413.6700000000001
 20
-610.0
 30
0.0
  0
SEQEND
  5
94A
  8
DATA
  6
CONTINUOUS
 62
     7
  0
POLYLINE
  5
574
  8
DATA
  6
CONTINUOUS
 62
     7
 66
     1
 10
0.0
 20
0.0
 30
0.0
 70
     1
  0
VERTEX
  5
869
  8
DATA
  6
CONTINUOUS
 62
     7
 10
-417.6700000000001
 20
-589.5
 30
0.0
  0
VERTEX
  5
86A
  8
DATA
  6
CONTINUOUS
 62
     7
 10
-416.2
 20
-589.5
 30
0.0
  0
VERTEX
  5
86B
  8
DATA
  6
CONTINUOUS
 62
     7
 10
-416.2
 20
-610.0
 30
0.0
  0
VERTEX
  5
86C
  8
DATA
  6
CONTINUOUS
 62
     7
 10
-417.6700000000001
 20
-610.0
 30
0.0
  0
SEQEND
  5
94B
  8
DATA
  6
CONTINUOUS
 62
     7
  0
POLYLINE
  5
57B
  8
DATA
  6
CONTINUOUS
 62
     7
 66
     1
 10
0.0
 20
0.0
 30
0.0
 70
     1
  0
VERTEX
  5
86D
  8
DATA
  6
CONTINUOUS
 62
     7
 10
-421.6700000000001
 20
-589.5
 30
0.0
  0
VERTEX
  5
86E
  8
DATA
  6
CONTINUOUS
 62
     7
 10
-420.2
 20
-589.5
 30
0.0
  0
VERTEX
  5
86F
  8
DATA
  6
CONTINUOUS
 62
     7
 10
-420.2
 20
-610.0
 30
0.0
  0
VERTEX
  5
870
  8
DATA
  6
CONTINUOUS
 62
     7
 10
-421.6700000000001
 20
-610.0
 30
0.0
  0
SEQEND
  5
94C
  8
DATA
  6
CONTINUOUS
 62
     7
  0
POLYLINE
  5
582
  8
DATA
  6
CONTINUOUS
 62
     7
 66
     1
 10
0.0
 20
0.0
 30
0.0
 70
     1
  0
VERTEX
  5
871
  8
DATA
  6
CONTINUOUS
 62
     7
 10
-425.6700000000001
 20
-589.5
 30
0.0
  0
VERTEX
  5
872
  8
DATA
  6
CONTINUOUS
 62
     7
 10
-424.2
 20
-589.5
 30
0.0
  0
VERTEX
  5
873
  8
DATA
  6
CONTINUOUS
 62
     7
 10
-424.2
 20
-610.0
 30
0.0
  0
VERTEX
  5
874
  8
DATA
  6
CONTINUOUS
 62
     7
 10
-425.6700000000001
 20
-610.0
 30
0.0
  0
SEQEND
  5
94D
  8
DATA
  6
CONTINUOUS
 62
     7
  0
POLYLINE
  5
589
  8
DATA
  6
CONTINUOUS
 62
     7
 66
     1
 10
0.0
 20
0.0
 30
0.0
 70
     1
  0
VERTEX
  5
875
  8
DATA
  6
CONTINUOUS
 62
     7
 10
-429.6700000000001
 20
-589.5
 30
0.0
  0
VERTEX
  5
876
  8
DATA
  6
CONTINUOUS
 62
     7
 10
-428.2
 20
-589.5
 30
0.0
  0
VERTEX
  5
877
  8
DATA
  6
CONTINUOUS
 62
     7
 10
-428.2
 20
-610.0
 30
0.0
  0
VERTEX
  5
878
  8
DATA
  6
CONTINUOUS
 62
     7
 10
-429.6700000000001
 20
-610.0
 30
0.0
  0
SEQEND
  5
94E
  8
DATA
  6
CONTINUOUS
 62
     7
  0
POLYLINE
  5
590
  8
DATA
  6
CONTINUOUS
 62
     7
 66
     1
 10
0.0
 20
0.0
 30
0.0
 70
     1
  0
VERTEX
  5
879
  8
DATA
  6
CONTINUOUS
 62
     7
 10
-433.6700000000001
 20
-589.5
 30
0.0
  0
VERTEX
  5
87A
  8
DATA
  6
CONTINUOUS
 62
     7
 10
-432.2
 20
-589.5
 30
0.0
  0
VERTEX
  5
87B
  8
DATA
  6
CONTINUOUS
 62
     7
 10
-432.2
 20
-610.0
 30
0.0
  0
VERTEX
  5
87C
  8
DATA
  6
CONTINUOUS
 62
     7
 10
-433.6700000000001
 20
-610.0
 30
0.0
  0
SEQEND
  5
94F
  8
DATA
  6
CONTINUOUS
 62
     7
  0
POLYLINE
  5
597
  8
DATA
  6
CONTINUOUS
 62
     7
 66
     1
 10
0.0
 20
0.0
 30
0.0
 70
     1
  0
VERTEX
  5
87D
  8
DATA
  6
CONTINUOUS
 62
     7
 10
-437.6700000000001
 20
-589.5
 30
0.0
  0
VERTEX
  5
87E
  8
DATA
  6
CONTINUOUS
 62
     7
 10
-436.2
 20
-589.5
 30
0.0
  0
VERTEX
  5
87F
  8
DATA
  6
CONTINUOUS
 62
     7
 10
-436.2
 20
-610.0
 30
0.0
  0
VERTEX
  5
880
  8
DATA
  6
CONTINUOUS
 62
     7
 10
-437.6700000000001
 20
-610.0
 30
0.0
  0
SEQEND
  5
950
  8
DATA
  6
CONTINUOUS
 62
     7
  0
POLYLINE
  5
59E
  8
DATA
  6
CONTINUOUS
 62
     7
 66
     1
 10
0.0
 20
0.0
 30
0.0
 70
     1
  0
VERTEX
  5
881
  8
DATA
  6
CONTINUOUS
 62
     7
 10
-441.6700000000001
 20
-589.5
 30
0.0
  0
VERTEX
  5
882
  8
DATA
  6
CONTINUOUS
 62
     7
 10
-440.2
 20
-589.5
 30
0.0
  0
VERTEX
  5
883
  8
DATA
  6
CONTINUOUS
 62
     7
 10
-440.2
 20
-610.0
 30
0.0
  0
VERTEX
  5
884
  8
DATA
  6
CONTINUOUS
 62
     7
 10
-441.6700000000001
 20
-610.0
 30
0.0
  0
SEQEND
  5
951
  8
DATA
  6
CONTINUOUS
 62
     7
  0
POLYLINE
  5
5A5
  8
DATA
  6
CONTINUOUS
 62
     7
 66
     1
 10
0.0
 20
0.0
 30
0.0
 70
     1
  0
VERTEX
  5
885
  8
DATA
  6
CONTINUOUS
 62
     7
 10
-445.6700000000001
 20
-589.5
 30
0.0
  0
VERTEX
  5
886
  8
DATA
  6
CONTINUOUS
 62
     7
 10
-444.2
 20
-589.5
 30
0.0
  0
VERTEX
  5
887
  8
DATA
  6
CONTINUOUS
 62
     7
 10
-444.2
 20
-610.0
 30
0.0
  0
VERTEX
  5
888
  8
DATA
  6
CONTINUOUS
 62
     7
 10
-445.6700000000001
 20
-610.0
 30
0.0
  0
SEQEND
  5
952
  8
DATA
  6
CONTINUOUS
 62
     7
  0
POLYLINE
  5
5AC
  8
DATA
  6
CONTINUOUS
 62
     7
 66
     1
 10
0.0
 20
0.0
 30
0.0
 70
     1
  0
VERTEX
  5
889
  8
DATA
  6
CONTINUOUS
 62
     7
 10
-449.6700000000001
 20
-589.5
 30
0.0
  0
VERTEX
  5
88A
  8
DATA
  6
CONTINUOUS
 62
     7
 10
-448.2
 20
-589.5
 30
0.0
  0
VERTEX
  5
88B
  8
DATA
  6
CONTINUOUS
 62
     7
 10
-448.2
 20
-610.0
 30
0.0
  0
VERTEX
  5
88C
  8
DATA
  6
CONTINUOUS
 62
     7
 10
-449.6700000000001
 20
-610.0
 30
0.0
  0
SEQEND
  5
953
  8
DATA
  6
CONTINUOUS
 62
     7
  0
POLYLINE
  5
5B3
  8
DATA
  6
CONTINUOUS
 62
     7
 66
     1
 10
0.0
 20
0.0
 30
0.0
 70
     1
  0
VERTEX
  5
88D
  8
DATA
  6
CONTINUOUS
 62
     7
 10
-453.6700000000001
 20
-589.5
 30
0.0
  0
VERTEX
  5
88E
  8
DATA
  6
CONTINUOUS
 62
     7
 10
-452.2
 20
-589.5
 30
0.0
  0
VERTEX
  5
88F
  8
DATA
  6
CONTINUOUS
 62
     7
 10
-452.2
 20
-610.0
 30
0.0
  0
VERTEX
  5
890
  8
DATA
  6
CONTINUOUS
 62
     7
 10
-453.6700000000001
 20
-610.0
 30
0.0
  0
SEQEND
  5
954
  8
DATA
  6
CONTINUOUS
 62
     7
  0
POLYLINE
  5
5BA
  8
DATA
  6
CONTINUOUS
 62
     7
 66
     1
 10
0.0
 20
0.0
 30
0.0
 70
     1
  0
VERTEX
  5
891
  8
DATA
  6
CONTINUOUS
 62
     7
 10
-457.6700000000001
 20
-589.5
 30
0.0
  0
VERTEX
  5
892
  8
DATA
  6
CONTINUOUS
 62
     7
 10
-456.2
 20
-589.5
 30
0.0
  0
VERTEX
  5
893
  8
DATA
  6
CONTINUOUS
 62
     7
 10
-456.2
 20
-610.0
 30
0.0
  0
VERTEX
  5
894
  8
DATA
  6
CONTINUOUS
 62
     7
 10
-457.6700000000001
 20
-610.0
 30
0.0
  0
SEQEND
  5
955
  8
DATA
  6
CONTINUOUS
 62
     7
  0
POLYLINE
  5
5C1
  8
DATA
  6
CONTINUOUS
 62
     7
 66
     1
 10
0.0
 20
0.0
 30
0.0
 70
     1
  0
VERTEX
  5
895
  8
DATA
  6
CONTINUOUS
 62
     7
 10
-461.6700000000001
 20
-589.5
 30
0.0
  0
VERTEX
  5
896
  8
DATA
  6
CONTINUOUS
 62
     7
 10
-460.2
 20
-589.5
 30
0.0
  0
VERTEX
  5
897
  8
DATA
  6
CONTINUOUS
 62
     7
 10
-460.2
 20
-610.0
 30
0.0
  0
VERTEX
  5
898
  8
DATA
  6
CONTINUOUS
 62
     7
 10
-461.6700000000001
 20
-610.0
 30
0.0
  0
SEQEND
  5
956
  8
DATA
  6
CONTINUOUS
 62
     7
  0
POLYLINE
  5
5C8
  8
DATA
  6
CONTINUOUS
 62
     7
 66
     1
 10
0.0
 20
0.0
 30
0.0
 70
     1
  0
VERTEX
  5
899
  8
DATA
  6
CONTINUOUS
 62
     7
 10
-465.6700000000001
 20
-589.5
 30
0.0
  0
VERTEX
  5
89A
  8
DATA
  6
CONTINUOUS
 62
     7
 10
-464.2
 20
-589.5
 30
0.0
  0
VERTEX
  5
89B
  8
DATA
  6
CONTINUOUS
 62
     7
 10
-464.2
 20
-610.0
 30
0.0
  0
VERTEX
  5
89C
  8
DATA
  6
CONTINUOUS
 62
     7
 10
-465.6700000000001
 20
-610.0
 30
0.0
  0
SEQEND
  5
957
  8
DATA
  6
CONTINUOUS
 62
     7
  0
POLYLINE
  5
5CF
  8
DATA
  6
CONTINUOUS
 62
     7
 66
     1
 10
0.0
 20
0.0
 30
0.0
 70
     1
  0
VERTEX
  5
89D
  8
DATA
  6
CONTINUOUS
 62
     7
 10
-469.6700000000001
 20
-589.5
 30
0.0
  0
VERTEX
  5
89E
  8
DATA
  6
CONTINUOUS
 62
     7
 10
-468.2
 20
-589.5
 30
0.0
  0
VERTEX
  5
89F
  8
DATA
  6
CONTINUOUS
 62
     7
 10
-468.2
 20
-610.0
 30
0.0
  0
VERTEX
  5
8A0
  8
DATA
  6
CONTINUOUS
 62
     7
 10
-469.6700000000001
 20
-610.0
 30
0.0
  0
SEQEND
  5
958
  8
DATA
  6
CONTINUOUS
 62
     7
  0
POLYLINE
  5
5D6
  8
DATA
  6
CONTINUOUS
 62
     7
 66
     1
 10
0.0
 20
0.0
 30
0.0
 70
     1
  0
VERTEX
  5
8A1
  8
DATA
  6
CONTINUOUS
 62
     7
 10
-473.6700000000001
 20
-589.5
 30
0.0
  0
VERTEX
  5
8A2
  8
DATA
  6
CONTINUOUS
 62
     7
 10
-472.2
 20
-589.5
 30
0.0
  0
VERTEX
  5
8A3
  8
DATA
  6
CONTINUOUS
 62
     7
 10
-472.2
 20
-610.0
 30
0.0
  0
VERTEX
  5
8A4
  8
DATA
  6
CONTINUOUS
 62
     7
 10
-473.6700000000001
 20
-610.0
 30
0.0
  0
SEQEND
  5
959
  8
DATA
  6
CONTINUOUS
 62
     7
  0
POLYLINE
  5
5DD
  8
DATA
  6
CONTINUOUS
 62
     7
 66
     1
 10
0.0
 20
0.0
 30
0.0
 70
     1
  0
VERTEX
  5
8A5
  8
DATA
  6
CONTINUOUS
 62
     7
 10
-477.6700000000001
 20
-589.5
 30
0.0
  0
VERTEX
  5
8A6
  8
DATA
  6
CONTINUOUS
 62
     7
 10
-476.2
 20
-589.5
 30
0.0
  0
VERTEX
  5
8A7
  8
DATA
  6
CONTINUOUS
 62
     7
 10
-476.2
 20
-610.0
 30
0.0
  0
VERTEX
  5
8A8
  8
DATA
  6
CONTINUOUS
 62
     7
 10
-477.6700000000001
 20
-610.0
 30
0.0
  0
SEQEND
  5
95A
  8
DATA
  6
CONTINUOUS
 62
     7
  0
POLYLINE
  5
5E4
  8
DATA
  6
CONTINUOUS
 62
     7
 66
     1
 10
0.0
 20
0.0
 30
0.0
 70
     1
  0
VERTEX
  5
8A9
  8
DATA
  6
CONTINUOUS
 62
     7
 10
-519.6700000000001
 20
-589.5
 30
0.0
  0
VERTEX
  5
8AA
  8
DATA
  6
CONTINUOUS
 62
     7
 10
-518.2
 20
-589.5
 30
0.0
  0
VERTEX
  5
8AB
  8
DATA
  6
CONTINUOUS
 62
     7
 10
-518.2
 20
-610.0
 30
0.0
  0
VERTEX
  5
8AC
  8
DATA
  6
CONTINUOUS
 62
     7
 10
-519.6700000000001
 20
-610.0
 30
0.0
  0
SEQEND
  5
95B
  8
DATA
  6
CONTINUOUS
 62
     7
  0
POLYLINE
  5
5EB
  8
DATA
  6
CONTINUOUS
 62
     7
 66
     1
 10
0.0
 20
0.0
 30
0.0
 70
     1
  0
VERTEX
  5
8AD
  8
DATA
  6
CONTINUOUS
 62
     7
 10
-523.6700000000001
 20
-589.5
 30
0.0
  0
VERTEX
  5
8AE
  8
DATA
  6
CONTINUOUS
 62
     7
 10
-522.2
 20
-589.5
 30
0.0
  0
VERTEX
  5
8AF
  8
DATA
  6
CONTINUOUS
 62
     7
 10
-522.2
 20
-610.0
 30
0.0
  0
VERTEX
  5
8B0
  8
DATA
  6
CONTINUOUS
 62
     7
 10
-523.6700000000001
 20
-610.0
 30
0.0
  0
SEQEND
  5
95C
  8
DATA
  6
CONTINUOUS
 62
     7
  0
POLYLINE
  5
5F2
  8
DATA
  6
CONTINUOUS
 62
     7
 66
     1
 10
0.0
 20
0.0
 30
0.0
 70
     1
  0
VERTEX
  5
8B1
  8
DATA
  6
CONTINUOUS
 62
     7
 10
-527.6700000000001
 20
-589.5
 30
0.0
  0
VERTEX
  5
8B2
  8
DATA
  6
CONTINUOUS
 62
     7
 10
-526.2
 20
-589.5
 30
0.0
  0
VERTEX
  5
8B3
  8
DATA
  6
CONTINUOUS
 62
     7
 10
-526.2
 20
-610.0
 30
0.0
  0
VERTEX
  5
8B4
  8
DATA
  6
CONTINUOUS
 62
     7
 10
-527.6700000000001
 20
-610.0
 30
0.0
  0
SEQEND
  5
95D
  8
DATA
  6
CONTINUOUS
 62
     7
  0
POLYLINE
  5
5F9
  8
DATA
  6
CONTINUOUS
 62
     7
 66
     1
 10
0.0
 20
0.0
 30
0.0
 70
     1
  0
VERTEX
  5
8B5
  8
DATA
  6
CONTINUOUS
 62
     7
 10
-531.6700000000001
 20
-589.5
 30
0.0
  0
VERTEX
  5
8B6
  8
DATA
  6
CONTINUOUS
 62
     7
 10
-530.2
 20
-589.5
 30
0.0
  0
VERTEX
  5
8B7
  8
DATA
  6
CONTINUOUS
 62
     7
 10
-530.2
 20
-610.0
 30
0.0
  0
VERTEX
  5
8B8
  8
DATA
  6
CONTINUOUS
 62
     7
 10
-531.6700000000001
 20
-610.0
 30
0.0
  0
SEQEND
  5
95E
  8
DATA
  6
CONTINUOUS
 62
     7
  0
POLYLINE
  5
600
  8
DATA
  6
CONTINUOUS
 62
     7
 66
     1
 10
0.0
 20
0.0
 30
0.0
 70
     1
  0
VERTEX
  5
8B9
  8
DATA
  6
CONTINUOUS
 62
     7
 10
-535.6700000000001
 20
-589.5
 30
0.0
  0
VERTEX
  5
8BA
  8
DATA
  6
CONTINUOUS
 62
     7
 10
-534.2
 20
-589.5
 30
0.0
  0
VERTEX
  5
8BB
  8
DATA
  6
CONTINUOUS
 62
     7
 10
-534.2
 20
-610.0
 30
0.0
  0
VERTEX
  5
8BC
  8
DATA
  6
CONTINUOUS
 62
     7
 10
-535.6700000000001
 20
-610.0
 30
0.0
  0
SEQEND
  5
95F
  8
DATA
  6
CONTINUOUS
 62
     7
  0
POLYLINE
  5
607
  8
DATA
  6
CONTINUOUS
 62
     7
 66
     1
 10
0.0
 20
0.0
 30
0.0
 70
     1
  0
VERTEX
  5
8BD
  8
DATA
  6
CONTINUOUS
 62
     7
 10
-539.6700000000001
 20
-589.5
 30
0.0
  0
VERTEX
  5
8BE
  8
DATA
  6
CONTINUOUS
 62
     7
 10
-538.2
 20
-589.5
 30
0.0
  0
VERTEX
  5
8BF
  8
DATA
  6
CONTINUOUS
 62
     7
 10
-538.2
 20
-610.0
 30
0.0
  0
VERTEX
  5
8C0
  8
DATA
  6
CONTINUOUS
 62
     7
 10
-539.6700000000001
 20
-610.0
 30
0.0
  0
SEQEND
  5
960
  8
DATA
  6
CONTINUOUS
 62
     7
  0
POLYLINE
  5
60E
  8
DATA
  6
CONTINUOUS
 62
     7
 66
     1
 10
0.0
 20
0.0
 30
0.0
 70
     1
  0
VERTEX
  5
8C1
  8
DATA
  6
CONTINUOUS
 62
     7
 10
-543.6700000000001
 20
-589.5
 30
0.0
  0
VERTEX
  5
8C2
  8
DATA
  6
CONTINUOUS
 62
     7
 10
-542.2
 20
-589.5
 30
0.0
  0
VERTEX
  5
8C3
  8
DATA
  6
CONTINUOUS
 62
     7
 10
-542.2
 20
-610.0
 30
0.0
  0
VERTEX
  5
8C4
  8
DATA
  6
CONTINUOUS
 62
     7
 10
-543.6700000000001
 20
-610.0
 30
0.0
  0
SEQEND
  5
961
  8
DATA
  6
CONTINUOUS
 62
     7
  0
POLYLINE
  5
615
  8
DATA
  6
CONTINUOUS
 62
     7
 66
     1
 10
0.0
 20
0.0
 30
0.0
 70
     1
  0
VERTEX
  5
8C5
  8
DATA
  6
CONTINUOUS
 62
     7
 10
-547.6700000000001
 20
-589.5
 30
0.0
  0
VERTEX
  5
8C6
  8
DATA
  6
CONTINUOUS
 62
     7
 10
-546.2
 20
-589.5
 30
0.0
  0
VERTEX
  5
8C7
  8
DATA
  6
CONTINUOUS
 62
     7
 10
-546.2
 20
-610.0
 30
0.0
  0
VERTEX
  5
8C8
  8
DATA
  6
CONTINUOUS
 62
     7
 10
-547.6700000000001
 20
-610.0
 30
0.0
  0
SEQEND
  5
962
  8
DATA
  6
CONTINUOUS
 62
     7
  0
POLYLINE
  5
61C
  8
DATA
  6
CONTINUOUS
 62
     7
 66
     1
 10
0.0
 20
0.0
 30
0.0
 70
     1
  0
VERTEX
  5
8C9
  8
DATA
  6
CONTINUOUS
 62
     7
 10
-551.6700000000001
 20
-589.5
 30
0.0
  0
VERTEX
  5
8CA
  8
DATA
  6
CONTINUOUS
 62
     7
 10
-550.2
 20
-589.5
 30
0.0
  0
VERTEX
  5
8CB
  8
DATA
  6
CONTINUOUS
 62
     7
 10
-550.2
 20
-610.0
 30
0.0
  0
VERTEX
  5
8CC
  8
DATA
  6
CONTINUOUS
 62
     7
 10
-551.6700000000001
 20
-610.0
 30
0.0
  0
SEQEND
  5
963
  8
DATA
  6
CONTINUOUS
 62
     7
  0
POLYLINE
  5
623
  8
DATA
  6
CONTINUOUS
 62
     7
 66
     1
 10
0.0
 20
0.0
 30
0.0
 70
     1
  0
VERTEX
  5
8CD
  8
DATA
  6
CONTINUOUS
 62
     7
 10
-555.6700000000001
 20
-589.5
 30
0.0
  0
VERTEX
  5
8CE
  8
DATA
  6
CONTINUOUS
 62
     7
 10
-554.2
 20
-589.5
 30
0.0
  0
VERTEX
  5
8CF
  8
DATA
  6
CONTINUOUS
 62
     7
 10
-554.2
 20
-610.0
 30
0.0
  0
VERTEX
  5
8D0
  8
DATA
  6
CONTINUOUS
 62
     7
 10
-555.6700000000001
 20
-610.0
 30
0.0
  0
SEQEND
  5
964
  8
DATA
  6
CONTINUOUS
 62
     7
  0
POLYLINE
  5
62A
  8
DATA
  6
CONTINUOUS
 62
     7
 66
     1
 10
0.0
 20
0.0
 30
0.0
 70
     1
  0
VERTEX
  5
8D1
  8
DATA
  6
CONTINUOUS
 62
     7
 10
-559.6700000000001
 20
-589.5
 30
0.0
  0
VERTEX
  5
8D2
  8
DATA
  6
CONTINUOUS
 62
     7
 10
-558.2
 20
-589.5
 30
0.0
  0
VERTEX
  5
8D3
  8
DATA
  6
CONTINUOUS
 62
     7
 10
-558.2
 20
-610.0
 30
0.0
  0
VERTEX
  5
8D4
  8
DATA
  6
CONTINUOUS
 62
     7
 10
-559.6700000000001
 20
-610.0
 30
0.0
  0
SEQEND
  5
965
  8
DATA
  6
CONTINUOUS
 62
     7
  0
POLYLINE
  5
631
  8
DATA
  6
CONTINUOUS
 62
     7
 66
     1
 10
0.0
 20
0.0
 30
0.0
 70
     1
  0
VERTEX
  5
8D5
  8
DATA
  6
CONTINUOUS
 62
     7
 10
-563.6700000000001
 20
-589.5
 30
0.0
  0
VERTEX
  5
8D6
  8
DATA
  6
CONTINUOUS
 62
     7
 10
-562.2
 20
-589.5
 30
0.0
  0
VERTEX
  5
8D7
  8
DATA
  6
CONTINUOUS
 62
     7
 10
-562.2
 20
-610.0
 30
0.0
  0
VERTEX
  5
8D8
  8
DATA
  6
CONTINUOUS
 62
     7
 10
-563.6700000000001
 20
-610.0
 30
0.0
  0
SEQEND
  5
966
  8
DATA
  6
CONTINUOUS
 62
     7
  0
POLYLINE
  5
638
  8
DATA
  6
CONTINUOUS
 62
     7
 66
     1
 10
0.0
 20
0.0
 30
0.0
 70
     1
  0
VERTEX
  5
8D9
  8
DATA
  6
CONTINUOUS
 62
     7
 10
-567.6700000000001
 20
-589.5
 30
0.0
  0
VERTEX
  5
8DA
  8
DATA
  6
CONTINUOUS
 62
     7
 10
-566.2
 20
-589.5
 30
0.0
  0
VERTEX
  5
8DB
  8
DATA
  6
CONTINUOUS
 62
     7
 10
-566.2
 20
-610.0
 30
0.0
  0
VERTEX
  5
8DC
  8
DATA
  6
CONTINUOUS
 62
     7
 10
-567.6700000000001
 20
-610.0
 30
0.0
  0
SEQEND
  5
967
  8
DATA
  6
CONTINUOUS
 62
     7
  0
POLYLINE
  5
63F
  8
DATA
  6
CONTINUOUS
 62
     7
 66
     1
 10
0.0
 20
0.0
 30
0.0
 70
     1
  0
VERTEX
  5
8DD
  8
DATA
  6
CONTINUOUS
 62
     7
 10
-571.6700000000001
 20
-589.5
 30
0.0
  0
VERTEX
  5
8DE
  8
DATA
  6
CONTINUOUS
 62
     7
 10
-570.2
 20
-589.5
 30
0.0
  0
VERTEX
  5
8DF
  8
DATA
  6
CONTINUOUS
 62
     7
 10
-570.2
 20
-610.0
 30
0.0
  0
VERTEX
  5
8E0
  8
DATA
  6
CONTINUOUS
 62
     7
 10
-571.6700000000001
 20
-610.0
 30
0.0
  0
SEQEND
  5
968
  8
DATA
  6
CONTINUOUS
 62
     7
  0
POLYLINE
  5
646
  8
DATA
  6
CONTINUOUS
 62
     7
 66
     1
 10
0.0
 20
0.0
 30
0.0
 70
     1
  0
VERTEX
  5
8E1
  8
DATA
  6
CONTINUOUS
 62
     7
 10
-575.6700000000001
 20
-589.5
 30
0.0
  0
VERTEX
  5
8E2
  8
DATA
  6
CONTINUOUS
 62
     7
 10
-574.2
 20
-589.5
 30
0.0
  0
VERTEX
  5
8E3
  8
DATA
  6
CONTINUOUS
 62
     7
 10
-574.2
 20
-610.0
 30
0.0
  0
VERTEX
  5
8E4
  8
DATA
  6
CONTINUOUS
 62
     7
 10
-575.6700000000001
 20
-610.0
 30
0.0
  0
SEQEND
  5
969
  8
DATA
  6
CONTINUOUS
 62
     7
  0
POLYLINE
  5
64D
  8
DATA
  6
CONTINUOUS
 62
     7
 66
     1
 10
0.0
 20
0.0
 30
0.0
 70
     1
  0
VERTEX
  5
8E5
  8
DATA
  6
CONTINUOUS
 62
     7
 10
-579.6700000000001
 20
-589.5
 30
0.0
  0
VERTEX
  5
8E6
  8
DATA
  6
CONTINUOUS
 62
     7
 10
-578.2
 20
-589.5
 30
0.0
  0
VERTEX
  5
8E7
  8
DATA
  6
CONTINUOUS
 62
     7
 10
-578.2
 20
-610.0
 30
0.0
  0
VERTEX
  5
8E8
  8
DATA
  6
CONTINUOUS
 62
     7
 10
-579.6700000000001
 20
-610.0
 30
0.0
  0
SEQEND
  5
96A
  8
DATA
  6
CONTINUOUS
 62
     7
  0
POLYLINE
  5
654
  8
DATA
  6
CONTINUOUS
 62
     7
 66
     1
 10
0.0
 20
0.0
 30
0.0
 70
     1
  0
VERTEX
  5
8E9
  8
DATA
  6
CONTINUOUS
 62
     7
 10
-583.6700000000001
 20
-589.5
 30
0.0
  0
VERTEX
  5
8EA
  8
DATA
  6
CONTINUOUS
 62
     7
 10
-582.2
 20
-589.5
 30
0.0
  0
VERTEX
  5
8EB
  8
DATA
  6
CONTINUOUS
 62
     7
 10
-582.2
 20
-610.0
 30
0.0
  0
VERTEX
  5
8EC
  8
DATA
  6
CONTINUOUS
 62
     7
 10
-583.6700000000001
 20
-610.0
 30
0.0
  0
SEQEND
  5
96B
  8
DATA
  6
CONTINUOUS
 62
     7
  0
POLYLINE
  5
65B
  8
DATA
  6
CONTINUOUS
 62
     7
 66
     1
 10
0.0
 20
0.0
 30
0.0
 70
     1
  0
VERTEX
  5
8ED
  8
DATA
  6
CONTINUOUS
 62
     7
 10
-587.6700000000001
 20
-589.5
 30
0.0
  0
VERTEX
  5
8EE
  8
DATA
  6
CONTINUOUS
 62
     7
 10
-586.2
 20
-589.5
 30
0.0
  0
VERTEX
  5
8EF
  8
DATA
  6
CONTINUOUS
 62
     7
 10
-586.2
 20
-610.0
 30
0.0
  0
VERTEX
  5
8F0
  8
DATA
  6
CONTINUOUS
 62
     7
 10
-587.6700000000001
 20
-610.0
 30
0.0
  0
SEQEND
  5
96C
  8
DATA
  6
CONTINUOUS
 62
     7
  0
POLYLINE
  5
662
  8
DATA
  6
CONTINUOUS
 62
     7
 66
     1
 10
0.0
 20
0.0
 30
0.0
 70
     1
  0
VERTEX
  5
8F1
  8
DATA
  6
CONTINUOUS
 62
     7
 10
-591.6700000000001
 20
-589.5
 30
0.0
  0
VERTEX
  5
8F2
  8
DATA
  6
CONTINUOUS
 62
     7
 10
-590.2
 20
-589.5
 30
0.0
  0
VERTEX
  5
8F3
  8
DATA
  6
CONTINUOUS
 62
     7
 10
-590.2
 20
-610.0
 30
0.0
  0
VERTEX
  5
8F4
  8
DATA
  6
CONTINUOUS
 62
     7
 10
-591.6700000000001
 20
-610.0
 30
0.0
  0
SEQEND
  5
96D
  8
DATA
  6
CONTINUOUS
 62
     7
  0
LINE
  5
669
  8
DATA
  6
CONTINUOUS
 62
     7
 10
-167.0
 20
-210.0
 30
0.0
 11
267.0
 21
-210.0
 31
0.0
  0
LINE
  5
66A
  8
DATA
  6
CONTINUOUS
 62
     7
 10
46.99999999999983
 20
-209.0
 30
0.0
 11
46.99999999999983
 21
-210.0
 31
0.0
  0
LINE
  5
66B
  8
DATA
  6
CONTINUOUS
 62
     7
 10
52.99999999999983
 20
-209.0
 30
0.0
 11
52.99999999999983
 21
-210.0
 31
0.0
  0
LINE
  5
66C
  8
DATA
  6
CONTINUOUS
 62
     7
 10
46.99999999999983
 20
-209.0
 30
0.0
 11
52.99999999999983
 21
-209.0
 31
0.0
  0
ARC
  5
66D
  8
DATA
  6
CONTINUOUS
 62
     7
 10
49.99999999999983
 20
-213.0
 30
0.0
 40
5.0
 50
53.13010235415597
 51
126.869897645844
  0
ARC
  5
66E
  8
DATA
  6
CONTINUOUS
 62
     7
 10
-139.8664880061726
 20
-212.60175030625
 30
0.0
 40
2.901750306250029
 50
63.71651740741211
 51
116.2834825925899
  0
ARC
  5
66F
  8
DATA
  6
CONTINUOUS
 62
     7
 10
-159.0068654128966
 20
-212.60175030625
 30
0.0
 40
2.901750306250029
 50
63.71651740741211
 51
116.2834825925899
  0
LINE
  5
670
  8
DATA
  6
CONTINUOUS
 62
     7
 10
-144.5152621372947
 20
-209.5
 30
0.0
 11
-154.4847378627053
 21
-209.5
 31
0.0
  0
LINE
  5
671
  8
DATA
  6
CONTINUOUS
 62
     7
 10
-154.4847378627053
 20
-209.5
 30
0.0
 11
-154.4847378627053
 21
-210.0
 31
0.0
  0
LINE
  5
672
  8
DATA
  6
CONTINUOUS
 62
     7
 10
-144.5152621372947
 20
-209.5
 30
0.0
 11
-144.5152621372947
 21
-210.0
 31
0.0
  0
ARC
  5
673
  8
DATA
  6
CONTINUOUS
 62
     7
 10
-115.3664880061726
 20
-212.60175030625
 30
0.0
 40
2.901750306250029
 50
63.71651740741211
 51
116.2834825925914
  0
ARC
  5
674
  8
DATA
  6
CONTINUOUS
 62
     7
 10
-134.5068654128966
 20
-212.60175030625
 30
0.0
 40
2.901750306250054
 50
63.7165174074086
 51
116.2834825925899
  0
LINE
  5
675
  8
DATA
  6
CONTINUOUS
 62
     7
 10
-120.0152621372947
 20
-209.5
 30
0.0
 11
-129.9847378627053
 21
-209.5
 31
0.0
  0
LINE
  5
676
  8
DATA
  6
CONTINUOUS
 62
     7
 10
-129.9847378627053
 20
-209.5
 30
0.0
 11
-129.9847378627053
 21
-210.0
 31
0.0
  0
LINE
  5
677
  8
DATA
  6
CONTINUOUS
 62
     7
 10
-120.0152621372947
 20
-209.5
 30
0.0
 11
-120.0152621372947
 21
-210.0
 31
0.0
  0
ARC
  5
678
  8
DATA
  6
CONTINUOUS
 62
     7
 10
-90.3973788890753
 20
-212.60175030625
 30
0.0
 40
2.901750306250029
 50
63.71651740741211
 51
116.2834825925914
  0
ARC
  5
679
  8
DATA
  6
CONTINUOUS
 62
     7
 10
-109.5377562957992
 20
-212.60175030625
 30
0.0
 40
2.901750306250054
 50
63.7165174074086
 51
116.2834825925899
  0
ARC
  5
67A
  8
DATA
  6
CONTINUOUS
 62
     7
 10
-66.3973788890753
 20
-212.60175030625
 30
0.0
 40
2.901750306250029
 50
63.71651740741211
 51
116.2834825925914
  0
ARC
  5
67B
  8
DATA
  6
CONTINUOUS
 62
     7
 10
-85.53775629579923
 20
-212.60175030625
 30
0.0
 40
2.901750306250054
 50
63.7165174074086
 51
116.2834825925899
  0
ARC
  5
67C
  8
DATA
  6
CONTINUOUS
 62
     7
 10
-36.86648800617263
 20
-212.60175030625
 30
0.0
 40
2.901750306250029
 50
63.71651740741211
 51
116.2834825925914
  0
ARC
  5
67D
  8
DATA
  6
CONTINUOUS
 62
     7
 10
-56.00686541289656
 20
-212.60175030625
 30
0.0
 40
2.901750306250054
 50
63.7165174074086
 51
116.2834825925899
  0
LINE
  5
67E
  8
DATA
  6
CONTINUOUS
 62
     7
 10
-41.51526213729471
 20
-209.5
 30
0.0
 11
-51.48473786270529
 21
-209.5
 31
0.0
  0
LINE
  5
67F
  8
DATA
  6
CONTINUOUS
 62
     7
 10
-51.48473786270529
 20
-209.5
 30
0.0
 11
-51.48473786270529
 21
-210.0
 31
0.0
  0
LINE
  5
680
  8
DATA
  6
CONTINUOUS
 62
     7
 10
-41.51526213729471
 20
-209.5
 30
0.0
 11
-41.51526213729471
 21
-210.0
 31
0.0
  0
ARC
  5
681
  8
DATA
  6
CONTINUOUS
 62
     7
 10
-12.58182330846262
 20
-212.60175030625
 30
0.0
 40
2.901750306250029
 50
63.71651740741211
 51
116.2834825925914
  0
ARC
  5
682
  8
DATA
  6
CONTINUOUS
 62
     7
 10
-31.72220071518655
 20
-212.60175030625
 30
0.0
 40
2.901750306250054
 50
63.7165174074086
 51
116.2834825925899
  0
LINE
  5
683
  8
DATA
  6
CONTINUOUS
 62
     7
 10
1.800000000213913
 20
-208.5
 30
0.0
 11
1.800000000213913
 21
-210.0
 31
0.0
  0
LINE
  5
684
  8
DATA
  6
CONTINUOUS
 62
     7
 10
14.20000000021389
 20
-208.5
 30
0.0
 11
14.20000000021389
 21
-210.0
 31
0.0
  0
LINE
  5
685
  8
DATA
  6
CONTINUOUS
 62
     7
 10
3.000000000213902
 20
-195.0
 30
0.0
 11
3.000000000213902
 21
-208.5
 31
0.0
  0
LINE
  5
686
  8
DATA
  6
CONTINUOUS
 62
     7
 10
13.0000000002139
 20
-195.0
 30
0.0
 11
13.0000000002139
 21
-208.5
 31
0.0
  0
LINE
  5
687
  8
DATA
  6
CONTINUOUS
 62
     7
 10
3.000000000213902
 20
-195.0
 30
0.0
 11
13.0000000002139
 21
-195.0
 31
0.0
  0
LINE
  5
688
  8
DATA
  6
CONTINUOUS
 62
     7
 10
1.800000000213913
 20
-208.5
 30
0.0
 11
14.20000000021389
 21
-208.5
 31
0.0
  0
CIRCLE
  5
689
  8
DATA
  6
CONTINUOUS
 62
     7
 10
8.000000000213902
 20
-199.0
 30
0.0
 40
1.0
  0
LINE
  5
68A
  8
DATA
  6
CONTINUOUS
 62
     7
 10
1.800000000213913
 20
-210.0
 30
0.0
 11
14.20000000021389
 21
-209.3501435368902
 31
0.0
  0
LINE
  5
68B
  8
DATA
  6
CONTINUOUS
 62
     7
 10
1.800000000213913
 20
-209.5
 30
0.0
 11
14.20000000021389
 21
-208.8501435368902
 31
0.0
  0
LINE
  5
68C
  8
DATA
  6
CONTINUOUS
 62
     7
 10
1.800000000213913
 20
-209.0
 30
0.0
 11
11.34056834407733
 21
-208.5
 31
0.0
  0
LINE
  5
68D
  8
DATA
  6
CONTINUOUS
 62
     7
 10
11.34056834407738
 20
-210.0
 30
0.0
 11
14.20000000021389
 21
-209.8501435368902
 31
0.0
  0
ARC
  5
68E
  8
DATA
  6
CONTINUOUS
 62
     7
 10
23.5
 20
-212.209375
 30
0.0
 40
2.709374999999964
 50
54.63243492610874
 51
125.3675650738913
  0
ARC
  5
68F
  8
DATA
  6
CONTINUOUS
 62
     7
 10
45.5
 20
-212.209375
 30
0.0
 40
2.709374999999979
 50
56.3833742570203
 51
125.3675650738913
  0
ARC
  5
690
  8
DATA
  6
CONTINUOUS
 62
     7
 10
66.5
 20
-212.209375
 30
0.0
 40
2.709374999999964
 50
54.63243492610874
 51
125.3675650738906
  0
CIRCLE
  5
691
  8
DATA
  6
CONTINUOUS
 62
     7
 10
629.2
 20
-612.0
 30
0.0
 40
3.0
  0
LINE
  5
692
  8
DATA
  6
CONTINUOUS
 62
     7
 10
627.7
 20
-612.0
 30
0.0
 11
630.7
 21
-612.0
 31
0.0
  0
LINE
  5
693
  8
DATA
  6
CONTINUOUS
 62
     7
 10
629.2
 20
-613.5
 30
0.0
 11
629.2
 21
-610.5
 31
0.0
  0
CIRCLE
  5
694
  8
DATA
  6
CONTINUOUS
 62
     7
 10
629.2
 20
-588.0
 30
0.0
 40
1.5
  0
POLYLINE
  5
695
  8
DATA
  6
CONTINUOUS
 62
     7
 66
     1
 10
0.0
 20
0.0
 30
0.0
 70
     1
  0
VERTEX
  5
8F5
  8
DATA
  6
CONTINUOUS
 62
     7
 10
-640.0
 20
-577.5
 30
0.0
  0
VERTEX
  5
8F6
  8
DATA
  6
CONTINUOUS
 62
     7
 10
-350.0
 20
-577.5
 30
0.0
  0
VERTEX
  5
8F7
  8
DATA
  6
CONTINUOUS
 62
     7
 10
-350.0
 20
-622.5
 30
0.0
  0
VERTEX
  5
8F8
  8
DATA
  6
CONTINUOUS
 62
     7
 10
-640.0
 20
-622.5
 30
0.0
  0
SEQEND
  5
96E
  8
DATA
  6
CONTINUOUS
 62
     7
  0
CIRCLE
  5
69C
  8
DATA
  6
CONTINUOUS
 62
     7
 10
-599.2
 20
-612.0
 30
0.0
 40
1.5
  0
CIRCLE
  5
69D
  8
DATA
  6
CONTINUOUS
 62
     7
 10
-599.2
 20
-588.0
 30
0.0
 40
1.5
  0
LINE
  5
69E
  8
DATA
  6
CONTINUOUS
 62
     7
 10
-640.5
 20
-592.0763770575841
 30
0.0
 11
-640.5
 21
-585.7983741301107
 31
0.0
  0
LINE
  5
69F
  8
DATA
  6
CONTINUOUS
 62
     7
 10
-641.0
 20
-580.25
 30
0.0
 11
-640.0
 21
-580.25
 31
0.0
  0
LINE
  5
6A0
  8
DATA
  6
CONTINUOUS
 62
     7
 10
-641.0
 20
-586.25
 30
0.0
 11
-640.4999999999999
 21
-586.25
 31
0.0
  0
LINE
  5
6A1
  8
DATA
  6
CONTINUOUS
 62
     7
 10
-641.0
 20
-580.25
 30
0.0
 11
-641.0
 21
-586.25
 31
0.0
  0
ARC
  5
6A2
  8
DATA
  6
CONTINUOUS
 62
     7
 10
-637.0
 20
-583.25
 30
0.0
 40
5.0
 50
143.130102354156
 51
216.869897645844
  0
LINE
  5
6A3
  8
DATA
  6
CONTINUOUS
 62
     7
 10
-641.5
 20
-602.3
 30
0.0
 11
-640.0
 21
-602.3
 31
0.0
  0
LINE
  5
6A4
  8
DATA
  6
CONTINUOUS
 62
     7
 10
-641.5
 20
-614.7
 30
0.0
 11
-640.0
 21
-614.7
 31
0.0
  0
LINE
  5
6A5
  8
DATA
  6
CONTINUOUS
 62
     7
 10
-653.5
 20
-603.5
 30
0.0
 11
-641.5
 21
-603.5
 31
0.0
  0
LINE
  5
6A6
  8
DATA
  6
CONTINUOUS
 62
     7
 10
-653.5
 20
-613.5
 30
0.0
 11
-641.5
 21
-613.5
 31
0.0
  0
LINE
  5
6A7
  8
DATA
  6
CONTINUOUS
 62
     7
 10
-653.5
 20
-603.5
 30
0.0
 11
-653.5
 21
-613.5
 31
0.0
  0
LINE
  5
6A8
  8
DATA
  6
CONTINUOUS
 62
     7
 10
-641.5
 20
-602.3
 30
0.0
 11
-641.5
 21
-614.7
 31
0.0
  0
CIRCLE
  5
6A9
  8
DATA
  6
CONTINUOUS
 62
     7
 10
-649.5
 20
-608.5
 30
0.0
 40
1.0
  0
LINE
  5
6AA
  8
DATA
  6
CONTINUOUS
 62
     7
 10
-640.0
 20
-602.3
 30
0.0
 11
-640.6498564631097
 21
-614.7
 31
0.0
  0
LINE
  5
6AB
  8
DATA
  6
CONTINUOUS
 62
     7
 10
-640.5
 20
-602.3
 30
0.0
 11
-641.1498564631097
 21
-614.7
 31
0.0
  0
LINE
  5
6AC
  8
DATA
  6
CONTINUOUS
 62
     7
 10
-641.0
 20
-602.3
 30
0.0
 11
-641.5
 21
-611.8405683438634
 31
0.0
  0
LINE
  5
6AD
  8
DATA
  6
CONTINUOUS
 62
     7
 10
-640.0
 20
-611.8405683438634
 30
0.0
 11
-640.1498564631097
 21
-614.7
 31
0.0
  0
ARC
  5
6AE
  8
DATA
  6
CONTINUOUS
 62
     7
 10
-637.790625
 20
-615.0
 30
0.0
 40
2.709374999999953
 50
173.6427949283104
 51
215.3675650738913
  0
ARC
  5
6AF
  8
DATA
  6
CONTINUOUS
 62
     7
 10
-637.3982496937499
 20
-593.9646859260503
 30
0.0
 40
2.901750306250181
 50
153.7165174074086
 51
206.2834825925874
  0
LINE
  5
6B0
  8
DATA
  6
CONTINUOUS
 62
     7
 10
-640.5
 20
-592.0763770575841
 30
0.0
 11
-640.0
 21
-592.0763770575841
 31
0.0
  0
CIRCLE
  5
6B1
  8
DATA
  6
CONTINUOUS
 62
     7
 10
-629.2
 20
-612.0
 30
0.0
 40
3.0
  0
LINE
  5
6B2
  8
DATA
  6
CONTINUOUS
 62
     7
 10
-627.7
 20
-612.0
 30
0.0
 11
-630.7
 21
-612.0
 31
0.0
  0
LINE
  5
6B3
  8
DATA
  6
CONTINUOUS
 62
     7
 10
-629.2
 20
-613.5
 30
0.0
 11
-629.2
 21
-610.5
 31
0.0
  0
CIRCLE
  5
6B4
  8
DATA
  6
CONTINUOUS
 62
     7
 10
-629.2
 20
-588.0
 30
0.0
 40
1.5
  0
LINE
  5
6B5
  8
DATA
  6
CONTINUOUS
 62
     7
 10
-640.0
 20
-585.7983741301107
 30
0.0
 11
-640.5
 21
-585.7983741301107
 31
0.0
  0
ENDSEC
  0
EOF
