  0
SECTION
  2
HEADER
  9
$ACADVER
  1
AC1004
  9
$INSBASE
 10
0.0
 20
0.0
  9
$EXTMIN
 10
-33.086667
 20
-34.475
  9
$EXTMAX
 10
1016.913333
 20
1450.525
  9
$LIMMIN
 10
-33.086667
 20
-34.475
  9
$LIMMAX
 10
1016.913333
 20
1450.525
  9
$VIEWCTR
 10
6.0
 20
4.5
  9
$VIEWSIZE
 40
9.0
  9
$SNAPMODE
 70
     0
  9
$SNAPUNIT
 10
12.5
 20
12.5
  9
$SNAPBASE
 10
0.0
 20
0.0
  9
$SNAPANG
 50
0.0
  9
$SNAPSTYLE
 70
     0
  9
$SNAPISOPAIR
 70
     0
  9
$GRIDMODE
 70
     1
  9
$GRIDUNIT
 10
50.0
 20
50.0
  9
$ORTHOMODE
 70
     0
  9
$REGENMODE
 70
     1
  9
$FILLMODE
 70
     1
  9
$QTEXTMODE
 70
     0
  9
$DRAGMODE
 70
     2
  9
$LTSCALE
 40
1.0
  9
$OSMODE
 70
     1
  9
$ATTMODE
 70
     1
  9
$TEXTSIZE
 40
0.2
  9
$TRACEWID
 40
0.05
  9
$TEXTSTYLE
  7
STANDARD
  9
$CLAYER
  8
DATA
  9
$CELTYPE
  6
CONTINUOUS
  9
$CECOLOR
 62
     7
  9
$DIMSCALE
 40
1.0
  9
$DIMASZ
 40
0.18
  9
$DIMEXO
 40
0.0625
  9
$DIMDLI
 40
0.38
  9
$DIMRND
 40
0.0
  9
$DIMDLE
 40
0.0
  9
$DIMEXE
 40
0.18
  9
$DIMTP
 40
0.0
  9
$DIMTM
 40
0.0
  9
$DIMTXT
 40
0.18
  9
$DIMCEN
 40
0.09
  9
$DIMTSZ
 40
0.0
  9
$DIMTOL
 70
     0
  9
$DIMLIM
 70
     0
  9
$DIMTIH
 70
     1
  9
$DIMTOH
 70
     1
  9
$DIMSE1
 70
     0
  9
$DIMSE2
 70
     0
  9
$DIMTAD
 70
     0
  9
$DIMZIN
 70
     0
  9
$DIMBLK
  1

  9
$DIMASO
 70
     1
  9
$DIMSHO
 70
     1
  9
$DIMPOST
  1

  9
$DIMAPOST
  1

  9
$DIMALT
 70
     0
  9
$DIMALTD
 70
     2
  9
$DIMALTF
 40
25.4
  9
$DIMLFAC
 40
1.0
  9
$LUNITS
 70
     2
  9
$LUPREC
 70
     4
  9
$AXISMODE
 70
     0
  9
$AXISUNIT
 10
0.0
 20
0.0
  9
$SKETCHINC
 40
0.1
  9
$FILLETRAD
 40
5.0
  9
$AUNITS
 70
     0
  9
$AUPREC
 70
     0
  9
$MENU
  1
acad
  9
$ELEVATION
 40
0.0
  9
$THICKNESS
 40
0.0
  9
$VIEWDIR
 10
0.0
 20
0.0
 30
1.0
  9
$LIMCHECK
 70
     0
  9
$BLIPMODE
 70
     1
  9
$CHAMFERA
 40
0.0
  9
$CHAMFERB
 40
0.0
  9
$FASTZOOM
 70
     1
  9
$SKPOLY
 70
     0
  9
$TDCREATE
 40
0.0
  9
$TDUPDATE
 40
0.0
  9
$TDINDWG
 40
0.0
  9
$TDUSRTIMER
 40
0.0
  9
$USRTIMER
 70
     1
  9
$ANGBASE
 50
0.0
  9
$ANGDIR
 70
     0
  9
$PDMODE
 70
     0
  9
$PDSIZE
 40
0.0
  9
$PLINEWID
 40
0.0
  9
$COORDS
 70
     1
  9
$SPLFRAME
 70
     0
  9
$SPLINESEGS
 70
    10
  9
$ATTDIA
 70
     0
  9
$ATTREQ
 70
     1
  9
$USERI1
 70
     0
  9
$USERI2
 70
     0
  9
$USERI3
 70
     0
  9
$USERI4
 70
     0
  9
$USERI5
 70
     0
  9
$USERR1
 40
0.0
  9
$USERR2
 40
0.0
  9
$USERR3
 40
0.0
  9
$USERR4
 40
0.0
  9
$USERR5
 40
0.0
  0
ENDSEC
  0
SECTION
  2
TABLES
  0
TABLE
  2
LTYPE
 70
    11
  0
LTYPE
  2
CONTINUOUS
 70
     0
  3
Solid line
 72
    65
 73
     0
 40
0.0
  0
LTYPE
  2
DASHED
 70
     0
  3
__ __ __ __ __ __ __ __ __ __ __ __ __ __ __
 72
    65
 73
     2
 40
0.75
 49
0.5
 49
-0.25
  0
LTYPE
  2
HIDDEN
 70
     0
  3
_ _ _ _ _ _ _ _ _ _ _ _ _ _ _ _ _ _ _ _ _ _ 
 72
    65
 73
     2
 40
0.25
 49
0.125
 49
-0.125
  0
LTYPE
  2
CENTER
 70
     0
  3
____ _ ____ _ ____ _ ____ _ ____ _ ____ _ __
 72
    65
 73
     4
 40
2.0
 49
1.25
 49
-0.25
 49
0.25
 49
-0.25
  0
LTYPE
  2
PHANTOM
 70
     0
  3
_____ _ _ _____ _ _ _____ _ _ _____ _ _ ____
 72
    65
 73
     6
 40
2.5
 49
1.25
 49
-0.25
 49
0.25
 49
-0.25
 49
0.25
 49
-0.25
  0
LTYPE
  2
DOT
 70
     0
  3
............................................
 72
    65
 73
     2
 40
0.25
 49
0.0
 49
-0.25
  0
LTYPE
  2
DASHDOT
 70
     0
  3
__ . __ . __ . __ . __ . __ . __ . __ . __ .
 72
    65
 73
     4
 40
1.0
 49
0.5
 49
-0.25
 49
0.0
 49
-0.25
  0
LTYPE
  2
BORDER
 70
     0
  3
__ __ . __ __ . __ __ . __ __ . __ __ . __ _
 72
    65
 73
     6
 40
1.75
 49
0.5
 49
-0.25
 49
0.5
 49
-0.25
 49
0.0
 49
-0.25
  0
LTYPE
  2
DIVIDE
 70
     0
  3
__ . . __ . . __ . . __ . . __ . . __ . . __
 72
    65
 73
     6
 40
1.25
 49
0.5
 49
-0.25
 49
0.0
 49
-0.25
 49
0.0
 49
-0.25
  0
LTYPE
  2
DOTS
 70
     0
  3
close                                       
 72
    65
 73
     2
 40
0.1
 49
0.05
 49
-0.05
  0
LTYPE
  2
CLOSE
 70
     0
  3
                                            
 72
    65
 73
     0
 40
0.0
  0
ENDTAB
  0
TABLE
  2
LAYER
 70
     7
  0
LAYER
  2
0
 70
     0
 62
     7
  6
CONTINUOUS
  0
LAYER
  2
LAYER01
 70
     0
 62
     7
  6
CONTINUOUS
  0
LAYER
  2
DATA
 70
     0
 62
     7
  6
CONTINUOUS
  0
LAYER
  2
SPEC
 70
     0
 62
     7
  6
CONTINUOUS
  0
LAYER
  2
HIBINO-BASE
 70
     0
 62
     7
  6
CONTINUOUS
  0
LAYER
  2
KANAGU
 70
     0
 62
     7
  6
CONTINUOUS
  0
LAYER
  2
DIMENSIONS
 70
     0
 62
     7
  6
CONTINUOUS
  0
ENDTAB
  0
TABLE
  2
STYLE
 70
     2
  0
STYLE
  2
STANDARD
 70
     0
 40
0.0
 41
1.0
 50
0.0
 71
     0
 42
0.2
  3
txt
  4

  0
STYLE
  2
TTF_DEFAULT
 70
     0
 40
0.0
 41
1.0
 50
0.0
 71
     0
 42
0.0
  3
txt
  4
BIGFONT
  0
ENDTAB
  0
TABLE
  2
VIEW
 70
     0
  0
ENDTAB
  0
ENDSEC
  0
SECTION
  2
BLOCKS
  0
ENDSEC
  0
SECTION
  2
ENTITIES
  0
LINE
  8
SPEC
  6
CONTINUOUS
 62
     7
 10
87.5
 20
1325.0
 11
500.0
 21
1325.0
  0
LINE
  8
SPEC
  6
CONTINUOUS
 62
     7
 10
87.5
 20
1306.25
 11
500.0
 21
1306.25
  0
LINE
  8
SPEC
  6
CONTINUOUS
 62
     7
 10
87.5
 20
1287.5
 11
500.0
 21
1287.5
  0
LINE
  8
SPEC
  6
CONTINUOUS
 62
     7
 10
87.5
 20
1268.75
 11
500.0
 21
1268.75
  0
LINE
  8
KANAGU
  6
CONTINUOUS
 62
     7
 10
150.0
 20
1000.5
 11
632.6
 21
1000.5
  0
LINE
  8
KANAGU
  6
CONTINUOUS
 62
     7
 10
150.0
 20
1002.5
 11
632.6
 21
1002.5
  0
LINE
  8
KANAGU
  6
CONTINUOUS
 62
     7
 10
177.8
 20
1020.5
 11
604.8
 21
1020.5
  0
LINE
  8
KANAGU
  6
HIDDEN
 62
     7
 10
250.3
 20
1007.5
 11
532.3
 21
1007.5
  0
LINE
  8
DATA
  6
CONTINUOUS
 62
     7
 10
252.3
 20
1002.50001
 11
530.3
 21
1002.50001
  0
LINE
  8
DATA
  6
CONTINUOUS
 62
     7
 10
252.3
 20
1157.50001
 11
530.3
 21
1157.50001
  0
LINE
  8
DATA
  6
CONTINUOUS
 62
     7
 10
252.3
 20
1157.50001
 11
530.3
 21
1157.50001
  0
LINE
  8
DATA
  6
CONTINUOUS
 62
     7
 10
473.76969
 20
1169.0
 11
498.76969
 21
1169.0
  0
LINE
  8
DATA
  6
CONTINUOUS
 62
     7
 10
254.3
 20
935.0
 11
528.3
 21
935.0
  0
LINE
  8
DATA
  6
CONTINUOUS
 62
     7
 10
254.3
 20
933.8
 11
528.3
 21
933.8
  0
LINE
  8
DATA
  6
CONTINUOUS
 62
     7
 10
252.3
 20
853.0
 11
530.3
 21
853.0
  0
LINE
  8
KANAGU
  6
CONTINUOUS
 62
     7
 10
262.3
 20
930.25
 11
520.3
 21
930.25
  0
LINE
  8
KANAGU
  6
CONTINUOUS
 62
     7
 10
262.3
 20
857.75
 11
520.3
 21
857.75
  0
LINE
  8
KANAGU
  6
CONTINUOUS
 62
     7
 10
150.0
 20
938.0
 11
632.6
 21
938.0
  0
LINE
  8
KANAGU
  6
CONTINUOUS
 62
     7
 10
150.0
 20
850.0
 11
632.6
 21
850.0
  0
TEXT
  8
DATA
  6
CONTINUOUS
 62
     7
 10
480.269462
 20
869.5
 40
4.5
  1
-17V
  7
TTF_DEFAULT
  0
LINE
  8
DIMENSIONS
  6
CONTINUOUS
 62
     7
 10
150.0
 20
962.5
 11
632.6
 21
962.5
  0
LINE
  8
SPEC
  6
CONTINUOUS
 62
     7
 10
87.5
 20
725.0
 11
500.0
 21
725.0
  0
LINE
  8
SPEC
  6
CONTINUOUS
 62
     7
 10
87.5
 20
706.25
 11
500.0
 21
706.25
  0
LINE
  8
SPEC
  6
CONTINUOUS
 62
     7
 10
87.5
 20
687.5
 11
500.0
 21
687.5
  0
LINE
  8
SPEC
  6
CONTINUOUS
 62
     7
 10
87.5
 20
668.75
 11
500.0
 21
668.75
  0
POLYLINE
  8
HIBINO-BASE
  6
CONTINUOUS
 62
     7
 66
     1
 70
     1
 40
1.5
 41
1.5
  0
VERTEX
  8
HIBINO-BASE
 10
50.0
 20
75.0
  0
VERTEX
  8
HIBINO-BASE
 10
50.0
 20
1375.0
  0
VERTEX
  8
HIBINO-BASE
 10
950.0
 20
1375.0
  0
VERTEX
  8
HIBINO-BASE
 10
950.0
 20
75.0
  0
SEQEND
  8
HIBINO-BASE
  0
LINE
  8
0
  6
CONTINUOUS
 62
     7
 10
350.0
 20
800.75
 11
600.0
 21
800.75
  0
LINE
  8
0
  6
CONTINUOUS
 62
     7
 10
350.0
 20
799.25
 11
600.0
 21
799.25
  0
LINE
  8
0
  6
CONTINUOUS
 62
     7
 10
350.0
 20
800.75
 11
350.0
 21
799.25
  0
LINE
  8
0
  6
CONTINUOUS
 62
     7
 10
600.0
 20
800.75
 11
600.0
 21
799.25
  0
SOLID
  8
DIMENSIONS
  6
CONTINUOUS
 62
     7
 10
350.0
 20
800.75
 11
600.0
 21
800.75
 12
350.0
 22
799.25
 13
600.0
 23
799.25
  0
LINE
  8
KANAGU
  6
CONTINUOUS
 62
     7
 10
50.0
 20
775.75
 11
950.0
 21
775.75
  0
LINE
  8
KANAGU
  6
CONTINUOUS
 62
     7
 10
50.0
 20
774.25
 11
950.0
 21
774.25
  0
LINE
  8
KANAGU
  6
CONTINUOUS
 62
     7
 10
50.0
 20
775.75
 11
50.0
 21
774.25
  0
LINE
  8
KANAGU
  6
CONTINUOUS
 62
     7
 10
950.0
 20
775.75
 11
950.0
 21
774.25
  0
SOLID
  8
HIBINO-BASE
  6
CONTINUOUS
 62
     7
 10
50.0
 20
775.75
 11
950.0
 21
775.75
 12
50.0
 22
774.25
 13
950.0
 23
774.25
  0
TEXT
  8
KANAGU
  6
CONTINUOUS
 62
     7
 10
360.363076
 20
806.25
 40
12.0
  1
ラックマウントパネル仕様（オプション）
  7
TTF_DEFAULT
  0
LINE
  8
SPEC
  6
CONTINUOUS
 62
     7
 10
87.5
 20
668.75
 11
87.5
 21
725.0
  0
LINE
  8
SPEC
  6
CONTINUOUS
 62
     7
 10
250.0
 20
725.0
 11
250.0
 21
668.75
  0
LINE
  8
DATA
  6
CONTINUOUS
 62
     7
 10
175.0
 20
225.0
 11
453.0
 21
225.0
  0
LINE
  8
DATA
  6
CONTINUOUS
 62
     7
 10
177.0
 20
305.8
 11
451.0
 21
305.8
  0
LINE
  8
DATA
  6
CONTINUOUS
 62
     7
 10
177.0
 20
307.0
 11
451.0
 21
307.0
  0
LINE
  8
DATA
  6
CONTINUOUS
 62
     7
 10
175.0
 20
400.0
 11
453.0
 21
400.0
  0
LINE
  8
DATA
  6
CONTINUOUS
 62
     7
 10
175.0
 20
555.0
 11
453.0
 21
555.0
  0
LINE
  8
DATA
  6
CONTINUOUS
 62
     7
 10
175.0
 20
555.0
 11
453.0
 21
555.0
  0
TEXT
  8
DATA
  6
CONTINUOUS
 62
     7
 10
210.0
 20
270.0
 40
5.0
  1
CONSOLE POWER SUPPLY 
  7
TTF_DEFAULT
  0
TEXT
  8
DATA
  6
CONTINUOUS
 62
     7
 10
210.0
 20
276.125
 40
15.0
  1
Soundcraft
  7
TTF_DEFAULT
  0
LINE
  8
DIMENSIONS
  6
CONTINUOUS
 62
     7
 10
293.5
 20
391.5
 11
143.75
 21
391.5
  0
LINE
  8
DIMENSIONS
  6
CONTINUOUS
 62
     7
 10
290.46969
 20
589.99999
 11
118.75
 21
589.99999
  0
LINE
  8
DIMENSIONS
  6
CONTINUOUS
 62
     7
 10
170.5
 20
350.0
 11
457.5
 21
350.0
  0
LINE
  8
DIMENSIONS
  6
CONTINUOUS
 62
     7
 10
175.0
 20
325.0
 11
453.0
 21
325.0
  0
TEXT
  8
HIBINO-BASE
  6
CONTINUOUS
 62
     7
 10
85.92
 20
42.9566
 40
20.0
  1
Hibino Corporation
  7
TTF_DEFAULT
  0
LINE
  8
DIMENSIONS
  6
CONTINUOUS
 62
     7
 10
170.5
 20
287.89865
 11
170.5
 21
356.25
  0
TEXT
  8
DIMENSIONS
  6
CONTINUOUS
 62
     7
 10
143.75
 20
336.25
 40
12.5
  1
3
 50
90.0
  7
TTF_DEFAULT
  0
LINE
  8
DATA
  6
CONTINUOUS
 62
     7
 10
176.2
 20
225.0
 11
176.2
 21
305.0
  0
LINE
  8
DATA
  6
CONTINUOUS
 62
     7
 10
175.0
 20
225.0
 11
175.0
 21
305.0
  0
ARC
  8
DATA
  6
CONTINUOUS
 62
     7
 10
186.19628
 20
280.030029
 40
15.956258
 50
134.562405
 51
169.643035
  0
ARC
  8
DATA
  6
CONTINUOUS
 62
     7
 10
177.0
 20
305.0
 40
0.8
 50
90.0
 51
180.0
  0
ARC
  8
DATA
  6
CONTINUOUS
 62
     7
 10
177.0
 20
305.0
 40
2.0
 50
90.0
 51
180.0
  0
ARC
  8
DATA
  6
CONTINUOUS
 62
     7
 10
193.000005
 20
302.144124
 40
7.855876
 50
38.178995
 51
141.821005
  0
ARC
  8
DATA
  6
CONTINUOUS
 62
     7
 10
186.19628
 20
240.030029
 40
15.956258
 50
134.562405
 51
169.643035
  0
LINE
  8
DATA
  6
CONTINUOUS
 62
     7
 10
170.5
 20
242.89865
 11
175.0
 21
242.89865
  0
ARC
  8
DATA
  6
CONTINUOUS
 62
     7
 10
186.19628
 20
260.030029
 40
15.956258
 50
134.562405
 51
169.643035
  0
LINE
  8
DATA
  6
CONTINUOUS
 62
     7
 10
170.5
 20
282.89865
 11
175.0
 21
282.89865
  0
LINE
  8
DATA
  6
CONTINUOUS
 62
     7
 10
170.5
 20
262.89865
 11
175.0
 21
262.89865
  0
ARC
  8
DATA
  6
CONTINUOUS
 62
     7
 10
193.000005
 20
229.855876
 40
7.855876
 50
218.178995
 51
321.821005
  0
LINE
  8
DIMENSIONS
  6
CONTINUOUS
 62
     7
 10
150.0
 20
310.0
 11
150.0
 21
330.0
  0
LINE
  8
DIMENSIONS
  6
CONTINUOUS
 62
     7
 10
188.000005
 20
310.0
 11
143.75
 21
310.0
  0
LINE
  8
DIMENSIONS
  6
CONTINUOUS
 62
     7
 10
151.6666
 20
320.0
 11
150.0
 21
310.0
  0
LINE
  8
DIMENSIONS
  6
CONTINUOUS
 62
     7
 10
148.3334
 20
320.0
 11
150.0
 21
310.0
  0
LINE
  8
DIMENSIONS
  6
CONTINUOUS
 62
     7
 10
150.0
 20
222.0
 11
150.0
 21
202.0
  0
LINE
  8
DIMENSIONS
  6
CONTINUOUS
 62
     7
 10
150.0
 20
225.0
 11
150.0
 21
245.0
  0
LINE
  8
DIMENSIONS
  6
CONTINUOUS
 62
     7
 10
188.000005
 20
222.0
 11
143.75
 21
222.0
  0
LINE
  8
DIMENSIONS
  6
CONTINUOUS
 62
     7
 10
151.6666
 20
212.0
 11
150.0
 21
222.0
  0
LINE
  8
DIMENSIONS
  6
CONTINUOUS
 62
     7
 10
148.3334
 20
212.0
 11
150.0
 21
222.0
  0
LINE
  8
DIMENSIONS
  6
CONTINUOUS
 62
     7
 10
175.0
 20
310.0
 11
175.0
 21
331.25
  0
LINE
  8
DIMENSIONS
  6
CONTINUOUS
 62
     7
 10
185.0
 20
323.3334
 11
175.0
 21
325.0
  0
LINE
  8
DIMENSIONS
  6
CONTINUOUS
 62
     7
 10
185.0
 20
326.6666
 11
175.0
 21
325.0
  0
LINE
  8
DIMENSIONS
  6
CONTINUOUS
 62
     7
 10
150.0
 20
307.0
 11
150.0
 21
225.0
  0
LINE
  8
DIMENSIONS
  6
CONTINUOUS
 62
     7
 10
172.0
 20
307.0
 11
143.75
 21
307.0
  0
LINE
  8
DIMENSIONS
  6
CONTINUOUS
 62
     7
 10
170.0
 20
225.0
 11
143.75
 21
225.0
  0
LINE
  8
DIMENSIONS
  6
CONTINUOUS
 62
     7
 10
148.3334
 20
297.0
 11
150.0
 21
307.0
  0
LINE
  8
DIMENSIONS
  6
CONTINUOUS
 62
     7
 10
151.6666
 20
297.0
 11
150.0
 21
307.0
  0
LINE
  8
DIMENSIONS
  6
CONTINUOUS
 62
     7
 10
148.3334
 20
235.0
 11
150.0
 21
225.0
  0
LINE
  8
DIMENSIONS
  6
CONTINUOUS
 62
     7
 10
151.6666
 20
235.0
 11
150.0
 21
225.0
  0
TEXT
  8
DIMENSIONS
  6
CONTINUOUS
 62
     7
 10
143.75
 20
259.381565
 40
12.5
  1
82
 50
90.0
  7
TTF_DEFAULT
  0
TEXT
  8
DIMENSIONS
  6
CONTINUOUS
 62
     7
 10
143.75
 20
201.25
 40
12.5
  1
3
 50
90.0
  7
TTF_DEFAULT
  0
TEXT
  8
SPEC
  6
CONTINUOUS
 62
     7
 10
90.625
 20
690.625
 40
12.5
  1
重量
  7
TTF_DEFAULT
  0
TEXT
  8
SPEC
  6
CONTINUOUS
 62
     7
 10
90.625
 20
671.875
 40
12.5
  1
寸法
  7
TTF_DEFAULT
  0
TEXT
  8
SPEC
  6
CONTINUOUS
 62
     7
 10
90.625
 20
653.125
 40
12.5
  1
定格ヒューズ  250V. 2A
  7
TTF_DEFAULT
  0
LINE
  8
DATA
  6
CONTINUOUS
 62
     7
 10
175.0
 20
400.0
 11
175.0
 21
555.0
  0
LINE
  8
DIMENSIONS
  6
CONTINUOUS
 62
     7
 10
150.0
 20
555.0
 11
150.0
 21
400.0
  0
LINE
  8
DIMENSIONS
  6
CONTINUOUS
 62
     7
 10
125.0
 20
400.0
 11
125.0
 21
589.99999
  0
LINE
  8
DATA
  6
CONTINUOUS
 62
     7
 10
170.5
 20
437.2658
 11
170.5
 21
512.0
  0
LINE
  8
DATA
  6
CONTINUOUS
 62
     7
 10
172.41065
 20
437.0
 11
175.0
 21
437.0
  0
ARC
  8
DATA
  6
CONTINUOUS
 62
     7
 10
172.41065
 20
444.0
 40
7.0
 50
254.160121
 51
270.0
  0
LINE
  8
DATA
  6
CONTINUOUS
 62
     7
 10
170.5
 20
512.0
 11
175.0
 21
512.0
  0
LINE
  8
DATA
  6
CONTINUOUS
 62
     7
 10
225.0
 20
408.49999
 11
225.0
 21
411.49999
  0
LINE
  8
DATA
  6
CONTINUOUS
 62
     7
 10
223.5
 20
409.99999
 11
226.5
 21
409.99999
  0
CIRCLE
  8
DATA
  6
CONTINUOUS
 62
     7
 10
225.0
 20
409.99999
 40
3.5
  0
CIRCLE
  8
DATA
  6
CONTINUOUS
 62
     7
 10
225.0
 20
409.99999
 40
2.98755
  0
LINE
  8
DIMENSIONS
  6
CONTINUOUS
 62
     7
 10
150.0
 20
391.5
 11
150.0
 21
371.5
  0
LINE
  8
DIMENSIONS
  6
CONTINUOUS
 62
     7
 10
148.3334
 20
381.5
 11
150.0
 21
391.5
  0
LINE
  8
DIMENSIONS
  6
CONTINUOUS
 62
     7
 10
151.6666
 20
381.5
 11
150.0
 21
391.5
  0
LINE
  8
DIMENSIONS
  6
CONTINUOUS
 62
     7
 10
148.3334
 20
410.0
 11
150.0
 21
400.0
  0
LINE
  8
DIMENSIONS
  6
CONTINUOUS
 62
     7
 10
151.6666
 20
410.0
 11
150.0
 21
400.0
  0
LINE
  8
DIMENSIONS
  6
CONTINUOUS
 62
     7
 10
170.0
 20
400.0
 11
118.75
 21
400.0
  0
LINE
  8
DIMENSIONS
  6
CONTINUOUS
 62
     7
 10
126.6666
 20
410.0
 11
125.0
 21
400.0
  0
LINE
  8
DIMENSIONS
  6
CONTINUOUS
 62
     7
 10
123.3334
 20
410.0
 11
125.0
 21
400.0
  0
LINE
  8
DIMENSIONS
  6
CONTINUOUS
 62
     7
 10
180.5
 20
348.3334
 11
170.5
 21
350.0
  0
LINE
  8
DIMENSIONS
  6
CONTINUOUS
 62
     7
 10
180.5
 20
351.6666
 11
170.5
 21
350.0
  0
TEXT
  8
DIMENSIONS
  6
CONTINUOUS
 62
     7
 10
118.75
 20
485.032134
 40
12.5
  1
190
 50
90.0
  7
TTF_DEFAULT
  0
TEXT
  8
DIMENSIONS
  6
CONTINUOUS
 62
     7
 10
143.75
 20
467.532139
 40
12.5
  1
155
 50
90.0
  7
TTF_DEFAULT
  0
TEXT
  8
DIMENSIONS
  6
CONTINUOUS
 62
     7
 10
143.75
 20
363.75
 40
12.5
  1
8.5
 50
90.0
  7
TTF_DEFAULT
  0
CIRCLE
  8
DATA
  6
CONTINUOUS
 62
     7
 10
201.0
 20
544.99999
 40
3.5
  0
CIRCLE
  8
DATA
  6
CONTINUOUS
 62
     7
 10
201.0
 20
544.99999
 40
2.98755
  0
LINE
  8
DATA
  6
CONTINUOUS
 62
     7
 10
201.0
 20
543.49999
 11
201.0
 21
546.49999
  0
LINE
  8
DATA
  6
CONTINUOUS
 62
     7
 10
199.5
 20
544.99999
 11
202.5
 21
544.99999
  0
LINE
  8
DIMENSIONS
  6
CONTINUOUS
 62
     7
 10
170.0
 20
555.0
 11
143.75
 21
555.0
  0
LINE
  8
DIMENSIONS
  6
CONTINUOUS
 62
     7
 10
148.3334
 20
545.0
 11
150.0
 21
555.0
  0
LINE
  8
DIMENSIONS
  6
CONTINUOUS
 62
     7
 10
151.6666
 20
545.0
 11
150.0
 21
555.0
  0
LINE
  8
DIMENSIONS
  6
CONTINUOUS
 62
     7
 10
126.6666
 20
579.99999
 11
125.0
 21
589.99999
  0
LINE
  8
DIMENSIONS
  6
CONTINUOUS
 62
     7
 10
123.3334
 20
579.99999
 11
125.0
 21
589.99999
  0
LINE
  8
DIMENSIONS
  6
CONTINUOUS
 62
     7
 10
457.5
 20
287.89865
 11
457.5
 21
356.25
  0
TEXT
  8
DIMENSIONS
  6
CONTINUOUS
 62
     7
 10
304.072347
 20
331.25
 40
12.5
  1
278
  7
TTF_DEFAULT
  0
TEXT
  8
DATA
  6
CONTINUOUS
 62
     7
 10
280.872424
 20
230.5
 40
5.0
  1
240V/220V USE T1A/250V
  7
TTF_DEFAULT
  0
TEXT
  8
DATA
  6
CONTINUOUS
 62
     7
 10
280.872424
 20
235.5
 40
5.0
  1
120V/100V USE T2A/250V
  7
TTF_DEFAULT
  0
TEXT
  8
DATA
  6
CONTINUOUS
 62
     7
 10
323.5
 20
276.5
 40
5.0
  1
POWER
  7
TTF_DEFAULT
  0
TEXT
  8
DATA
  6
CONTINUOUS
 62
     7
 10
265.477658
 20
270.0
 40
5.0
  1
CPS 150
  7
TTF_DEFAULT
  0
LINE
  8
DATA
  6
CONTINUOUS
 62
     7
 10
321.5
 20
264.5
 11
321.5
 21
294.5
  0
LINE
  8
DATA
  6
CONTINUOUS
 62
     7
 10
295.5
 20
294.5
 11
295.5
 21
264.5
  0
TEXT
  8
DATA
  6
CONTINUOUS
 62
     7
 10
295.684644
 20
258.5
 40
5.0
  1
MAINS FUSE
  7
TTF_DEFAULT
  0
LINE
  8
DATA
  6
CONTINUOUS
 62
     7
 10
311.505204
 20
250.298097
 11
306.201903
 21
244.994796
  0
LINE
  8
DATA
  6
CONTINUOUS
 62
     7
 10
310.798097
 20
251.005204
 11
311.505204
 21
250.298097
  0
LINE
  8
DATA
  6
CONTINUOUS
 62
     7
 10
305.494796
 20
245.701903
 11
310.798097
 21
251.005204
  0
LINE
  8
DATA
  6
CONTINUOUS
 62
     7
 10
306.201903
 20
244.994796
 11
305.494796
 21
245.701903
  0
CIRCLE
  8
DATA
  6
CONTINUOUS
 62
     7
 10
308.5
 20
248.0
 40
5.75
  0
CIRCLE
  8
DATA
  6
CONTINUOUS
 62
     7
 10
308.5
 20
248.0
 40
7.5
  0
TEXT
  8
DATA
  6
CONTINUOUS
 62
     7
 10
323.5
 20
267.5
 40
5.0
  1
OFF
  7
TTF_DEFAULT
  0
TEXT
  8
DATA
  6
CONTINUOUS
 62
     7
 10
290.936929
 20
267.5
 40
5.0
  1
0
  7
TTF_DEFAULT
  0
LINE
  8
DATA
  6
CONTINUOUS
 62
     7
 10
295.5
 20
264.5
 11
321.5
 21
264.5
  0
LINE
  8
DATA
  6
CONTINUOUS
 62
     7
 10
298.5
 20
284.0
 11
318.5
 21
284.0
  0
LINE
  8
DATA
  6
CONTINUOUS
 62
     7
 10
298.5
 20
278.5
 11
318.5
 21
278.5
  0
TEXT
  8
DATA
  6
CONTINUOUS
 62
     7
 10
323.5
 20
287.5
 40
5.0
  1
ON
  7
TTF_DEFAULT
  0
TEXT
  8
DATA
  6
CONTINUOUS
 62
     7
 10
290.936929
 20
287.5
 40
5.0
  1
1
  7
TTF_DEFAULT
  0
LINE
  8
DATA
  6
CONTINUOUS
 62
     7
 10
295.5
 20
294.5
 11
321.5
 21
294.5
  0
LINE
  8
DATA
  6
CONTINUOUS
 62
     7
 10
298.5
 20
269.5
 11
298.5
 21
289.5
  0
LINE
  8
DATA
  6
CONTINUOUS
 62
     7
 10
298.5
 20
289.5
 11
318.5
 21
289.5
  0
LINE
  8
DATA
  6
CONTINUOUS
 62
     7
 10
318.5
 20
289.5
 11
318.5
 21
269.5
  0
LINE
  8
DATA
  6
CONTINUOUS
 62
     7
 10
318.5
 20
269.5
 11
298.5
 21
269.5
  0
TEXT
  8
DIMENSIONS
  6
CONTINUOUS
 62
     7
 10
425.0
 20
131.25
 40
12.5
  1
(単位 : mm)
  7
TTF_DEFAULT
  0
LINE
  8
DATA
  6
CONTINUOUS
 62
     7
 10
451.8
 20
305.0
 11
451.8
 21
225.0
  0
LINE
  8
DATA
  6
CONTINUOUS
 62
     7
 10
453.0
 20
225.0
 11
453.0
 21
305.0
  0
ARC
  8
DATA
  6
CONTINUOUS
 62
     7
 10
441.80372
 20
260.030029
 40
15.956258
 50
10.356965
 51
45.437595
  0
ARC
  8
DATA
  6
CONTINUOUS
 62
     7
 10
441.80372
 20
240.030029
 40
15.956258
 50
10.356965
 51
45.437595
  0
LINE
  8
DATA
  6
CONTINUOUS
 62
     7
 10
457.5
 20
242.89865
 11
453.0
 21
242.89865
  0
LINE
  8
DATA
  6
CONTINUOUS
 62
     7
 10
457.5
 20
262.89865
 11
453.0
 21
262.89865
  0
TEXT
  8
DATA
  6
CONTINUOUS
 62
     7
 10
415.469462
 20
241.5
 40
4.5
  1
+17V
  7
TTF_DEFAULT
  0
TEXT
  8
DATA
  6
CONTINUOUS
 62
     7
 10
402.969462
 20
241.5
 40
4.5
  1
-17V
  7
TTF_DEFAULT
  0
TEXT
  8
DATA
  6
CONTINUOUS
 62
     7
 10
390.469462
 20
241.5
 40
4.5
  1
+48V
  7
TTF_DEFAULT
  0
CIRCLE
  8
DATA
  6
CONTINUOUS
 62
     7
 10
420.0
 20
249.0
 40
2.5
  0
CIRCLE
  8
DATA
  6
CONTINUOUS
 62
     7
 10
407.5
 20
249.0
 40
2.5
  0
CIRCLE
  8
DATA
  6
CONTINUOUS
 62
     7
 10
395.0
 20
249.0
 40
2.5
  0
ARC
  8
DATA
  6
CONTINUOUS
 62
     7
 10
435.000005
 20
229.855876
 40
7.855876
 50
218.178995
 51
321.821005
  0
ARC
  8
DATA
  6
CONTINUOUS
 62
     7
 10
441.80372
 20
280.030029
 40
15.956258
 50
10.356965
 51
45.437595
  0
LINE
  8
DATA
  6
CONTINUOUS
 62
     7
 10
457.5
 20
282.89865
 11
453.0
 21
282.89865
  0
ARC
  8
DATA
  6
CONTINUOUS
 62
     7
 10
451.0
 20
305.0
 40
0.8
 50
0.0
 51
90.0
  0
ARC
  8
DATA
  6
CONTINUOUS
 62
     7
 10
451.0
 20
305.0
 40
2.0
 50
0.0
 51
90.0
  0
ARC
  8
DATA
  6
CONTINUOUS
 62
     7
 10
435.000005
 20
302.144124
 40
7.855876
 50
38.178995
 51
141.821005
  0
LINE
  8
DIMENSIONS
  6
CONTINUOUS
 62
     7
 10
453.0
 20
310.0
 11
453.0
 21
331.25
  0
LINE
  8
DIMENSIONS
  6
CONTINUOUS
 62
     7
 10
443.0
 20
323.3334
 11
453.0
 21
325.0
  0
LINE
  8
DIMENSIONS
  6
CONTINUOUS
 62
     7
 10
443.0
 20
326.6666
 11
453.0
 21
325.0
  0
TEXT
  8
SPEC
  6
CONTINUOUS
 62
     7
 10
253.125
 20
671.875
 40
12.5
  1
287(W)×85(H)×190(D)mm
  7
TTF_DEFAULT
  0
LINE
  8
DATA
  6
CONTINUOUS
 62
     7
 10
359.96969
 20
589.99999
 11
361.96969
 21
589.99999
  0
LINE
  8
DATA
  6
CONTINUOUS
 62
     7
 10
298.5
 20
391.5
 11
318.5
 21
391.5
  0
LINE
  8
DATA
  6
CONTINUOUS
 62
     7
 10
295.5
 20
397.0
 11
321.5
 21
397.0
  0
LINE
  8
DATA
  6
CONTINUOUS
 62
     7
 10
295.5
 20
397.0
 11
295.5
 21
400.0
  0
LINE
  8
DATA
  6
CONTINUOUS
 62
     7
 10
321.5
 20
397.0
 11
321.5
 21
400.0
  0
LINE
  8
DATA
  6
CONTINUOUS
 62
     7
 10
298.5
 20
391.5
 11
298.5
 21
397.0
  0
LINE
  8
DATA
  6
CONTINUOUS
 62
     7
 10
318.5
 20
391.5
 11
318.5
 21
397.0
  0
TEXT
  8
DIMENSIONS
  6
CONTINUOUS
 62
     7
 10
304.072347
 20
356.25
 40
12.5
  1
287
  7
TTF_DEFAULT
  0
TEXT
  8
SPEC
  6
CONTINUOUS
 62
     7
 10
253.125
 20
690.625
 40
12.5
  1
約5kg
  7
TTF_DEFAULT
  0
LINE
  8
DATA
  6
CONTINUOUS
 62
     7
 10
321.46969
 20
566.49999
 11
346.46969
 21
566.49999
  0
ARC
  8
DATA
  6
CONTINUOUS
 62
     7
 10
220.95812
 20
600.1875
 40
25.351532
 50
326.309932
 51
33.690068
  0
ARC
  8
DATA
  6
CONTINUOUS
 62
     7
 10
224.78551
 20
600.1875
 40
25.351532
 50
326.309932
 51
33.690068
  0
LINE
  8
DATA
  6
CONTINUOUS
 62
     7
 10
247.7625
 20
558.0
 11
247.7625
 21
555.0
  0
LINE
  8
DATA
  6
CONTINUOUS
 62
     7
 10
240.11708
 20
558.0
 11
240.11708
 21
555.0
  0
LINE
  8
DATA
  6
CONTINUOUS
 62
     7
 10
240.11708
 20
558.0
 11
247.7625
 21
558.0
  0
ARC
  8
DATA
  6
CONTINUOUS
 62
     7
 10
263.14562
 20
572.0625
 40
25.351532
 50
146.309932
 51
213.690068
  0
ARC
  8
DATA
  6
CONTINUOUS
 62
     7
 10
266.97301
 20
572.0625
 40
25.351532
 50
146.309932
 51
213.690068
  0
LINE
  8
DATA
  6
CONTINUOUS
 62
     7
 10
318.46969
 20
589.99999
 11
316.46969
 21
589.99999
  0
LINE
  8
DATA
  6
CONTINUOUS
 62
     7
 10
307.96969
 20
589.99999
 11
305.96969
 21
589.99999
  0
LINE
  8
DATA
  6
CONTINUOUS
 62
     7
 10
297.46969
 20
589.99999
 11
295.46969
 21
589.99999
  0
ARC
  8
DATA
  6
CONTINUOUS
 62
     7
 10
312.21969
 20
557.854548
 40
2.854558
 50
177.079468
 51
2.920532
  0
ARC
  8
DATA
  6
CONTINUOUS
 62
     7
 10
301.71969
 20
557.854548
 40
2.854558
 50
177.079468
 51
2.920532
  0
LINE
  8
DATA
  6
CONTINUOUS
 62
     7
 10
307.96969
 20
589.99999
 11
309.36884
 21
557.99999
  0
LINE
  8
DATA
  6
CONTINUOUS
 62
     7
 10
315.07054
 20
557.99999
 11
316.46969
 21
589.99999
  0
LINE
  8
DATA
  6
CONTINUOUS
 62
     7
 10
297.46969
 20
589.99999
 11
298.86884
 21
557.99999
  0
LINE
  8
DATA
  6
CONTINUOUS
 62
     7
 10
304.57054
 20
557.99999
 11
305.96969
 21
589.99999
  0
LINE
  8
DATA
  6
CONTINUOUS
 62
     7
 10
320.00001
 20
554.99999
 11
318.46969
 21
589.99999
  0
LINE
  8
DATA
  6
CONTINUOUS
 62
     7
 10
293.93937
 20
554.99999
 11
295.46969
 21
589.99999
  0
LINE
  8
DATA
  6
CONTINUOUS
 62
     7
 10
321.46969
 20
554.99999
 11
321.46969
 21
566.49999
  0
LINE
  8
DATA
  6
CONTINUOUS
 62
     7
 10
349.46969
 20
589.99999
 11
351.46969
 21
589.99999
  0
ARC
  8
DATA
  6
CONTINUOUS
 62
     7
 10
355.71969
 20
557.854548
 40
2.854558
 50
177.079468
 51
2.920532
  0
LINE
  8
DATA
  6
CONTINUOUS
 62
     7
 10
358.57054
 20
557.99999
 11
359.96969
 21
589.99999
  0
LINE
  8
DATA
  6
CONTINUOUS
 62
     7
 10
351.46969
 20
589.99999
 11
352.86884
 21
557.99999
  0
LINE
  8
DATA
  6
CONTINUOUS
 62
     7
 10
346.46969
 20
566.49999
 11
346.46969
 21
554.99999
  0
LINE
  8
DATA
  6
CONTINUOUS
 62
     7
 10
347.93937
 20
554.99999
 11
349.46969
 21
589.99999
  0
TEXT
  8
DATA
  6
CONTINUOUS
 62
     7
 10
262.5
 20
600.0
 40
12.5
  1
DCコード
 50
90.0
  7
TTF_DEFAULT
  0
LINE
  8
DATA
  6
CONTINUOUS
 62
     7
 10
453.0
 20
400.0
 11
453.0
 21
555.0
  0
LINE
  8
DATA
  6
CONTINUOUS
 62
     7
 10
403.0
 20
408.49999
 11
403.0
 21
411.49999
  0
LINE
  8
DATA
  6
CONTINUOUS
 62
     7
 10
404.5
 20
409.99999
 11
401.5
 21
409.99999
  0
CIRCLE
  8
DATA
  6
CONTINUOUS
 62
     7
 10
403.0
 20
409.99999
 40
3.5
  0
CIRCLE
  8
DATA
  6
CONTINUOUS
 62
     7
 10
403.0
 20
409.99999
 40
2.98755
  0
ARC
  8
DATA
  6
CONTINUOUS
 62
     7
 10
395.0
 20
400.0
 40
2.5
 50
180.0
 51
0.0
  0
ARC
  8
DATA
  6
CONTINUOUS
 62
     7
 10
407.5
 20
400.0
 40
2.5
 50
180.0
 51
0.0
  0
ARC
  8
DATA
  6
CONTINUOUS
 62
     7
 10
420.0
 20
400.0
 40
2.5
 50
180.0
 51
0.0
  0
LINE
  8
DATA
  6
CONTINUOUS
 62
     7
 10
457.5
 20
437.2658
 11
457.5
 21
512.0
  0
ARC
  8
DATA
  6
CONTINUOUS
 62
     7
 10
455.58934
 20
444.0
 40
7.0
 50
270.0
 51
285.839879
  0
LINE
  8
DATA
  6
CONTINUOUS
 62
     7
 10
453.0
 20
437.0
 11
455.58934
 21
437.0
  0
LINE
  8
DATA
  6
CONTINUOUS
 62
     7
 10
453.0
 20
512.0
 11
457.5
 21
512.0
  0
LINE
  8
DIMENSIONS
  6
CONTINUOUS
 62
     7
 10
447.5
 20
348.3334
 11
457.5
 21
350.0
  0
LINE
  8
DIMENSIONS
  6
CONTINUOUS
 62
     7
 10
447.5
 20
351.6666
 11
457.5
 21
350.0
  0
ARC
  8
DATA
  6
CONTINUOUS
 62
     7
 10
387.21969
 20
557.854548
 40
2.854558
 50
177.079468
 51
2.920532
  0
LINE
  8
DATA
  6
CONTINUOUS
 62
     7
 10
370.46969
 20
589.99999
 11
372.46969
 21
589.99999
  0
LINE
  8
DATA
  6
CONTINUOUS
 62
     7
 10
380.96969
 20
589.99999
 11
382.96969
 21
589.99999
  0
ARC
  8
DATA
  6
CONTINUOUS
 62
     7
 10
376.71969
 20
557.854548
 40
2.854558
 50
177.079468
 51
2.920532
  0
ARC
  8
DATA
  6
CONTINUOUS
 62
     7
 10
366.21969
 20
557.854548
 40
2.854558
 50
177.079468
 51
2.920532
  0
LINE
  8
DATA
  6
CONTINUOUS
 62
     7
 10
382.96969
 20
589.99999
 11
384.36884
 21
557.99999
  0
LINE
  8
DATA
  6
CONTINUOUS
 62
     7
 10
379.57054
 20
557.99999
 11
380.96969
 21
589.99999
  0
LINE
  8
DATA
  6
CONTINUOUS
 62
     7
 10
372.46969
 20
589.99999
 11
373.86884
 21
557.99999
  0
LINE
  8
DATA
  6
CONTINUOUS
 62
     7
 10
369.07054
 20
557.99999
 11
370.46969
 21
589.99999
  0
LINE
  8
DATA
  6
CONTINUOUS
 62
     7
 10
361.96969
 20
589.99999
 11
363.36884
 21
557.99999
  0
LINE
  8
DATA
  6
CONTINUOUS
 62
     7
 10
396.46969
 20
566.49999
 11
421.46969
 21
566.49999
  0
LINE
  8
DATA
  6
CONTINUOUS
 62
     7
 10
391.46969
 20
589.99999
 11
393.46969
 21
589.99999
  0
LINE
  8
DATA
  6
CONTINUOUS
 62
     7
 10
424.46969
 20
589.99999
 11
426.46969
 21
589.99999
  0
LINE
  8
DATA
  6
CONTINUOUS
 62
     7
 10
434.96969
 20
589.99999
 11
436.96969
 21
589.99999
  0
LINE
  8
DATA
  6
CONTINUOUS
 62
     7
 10
445.46969
 20
589.99999
 11
447.46969
 21
589.99999
  0
ARC
  8
DATA
  6
CONTINUOUS
 62
     7
 10
441.21969
 20
557.854548
 40
2.854558
 50
177.079468
 51
2.920532
  0
ARC
  8
DATA
  6
CONTINUOUS
 62
     7
 10
430.71969
 20
557.854548
 40
2.854558
 50
177.079468
 51
2.920532
  0
LINE
  8
DATA
  6
CONTINUOUS
 62
     7
 10
427.0
 20
543.49999
 11
427.0
 21
546.49999
  0
LINE
  8
DATA
  6
CONTINUOUS
 62
     7
 10
428.5
 20
544.99999
 11
425.5
 21
544.99999
  0
CIRCLE
  8
DATA
  6
CONTINUOUS
 62
     7
 10
427.0
 20
544.99999
 40
2.98755
  0
CIRCLE
  8
DATA
  6
CONTINUOUS
 62
     7
 10
427.0
 20
544.99999
 40
3.5
  0
LINE
  8
DATA
  6
CONTINUOUS
 62
     7
 10
444.07054
 20
557.99999
 11
445.46969
 21
589.99999
  0
LINE
  8
DATA
  6
CONTINUOUS
 62
     7
 10
436.96969
 20
589.99999
 11
438.36884
 21
557.99999
  0
LINE
  8
DATA
  6
CONTINUOUS
 62
     7
 10
433.57054
 20
557.99999
 11
434.96969
 21
589.99999
  0
LINE
  8
DATA
  6
CONTINUOUS
 62
     7
 10
426.46969
 20
589.99999
 11
427.86884
 21
557.99999
  0
LINE
  8
DATA
  6
CONTINUOUS
 62
     7
 10
390.07054
 20
557.99999
 11
391.46969
 21
589.99999
  0
LINE
  8
DATA
  6
CONTINUOUS
 62
     7
 10
421.46969
 20
566.49999
 11
421.46969
 21
554.99999
  0
LINE
  8
DATA
  6
CONTINUOUS
 62
     7
 10
396.46969
 20
554.99999
 11
396.46969
 21
566.49999
  0
LINE
  8
DATA
  6
CONTINUOUS
 62
     7
 10
395.00001
 20
554.99999
 11
393.46969
 21
589.99999
  0
LINE
  8
DATA
  6
CONTINUOUS
 62
     7
 10
422.93937
 20
554.99999
 11
424.46969
 21
589.99999
  0
LINE
  8
DATA
  6
CONTINUOUS
 62
     7
 10
449.0
 20
554.99999
 11
447.46969
 21
589.99999
  0
LINE
  8
KANAGU
  6
CONTINUOUS
 62
     7
 10
177.8
 20
1049.5
 11
252.3
 21
1049.5
  0
LINE
  8
DIMENSIONS
  6
CONTINUOUS
 62
     7
 10
367.76969
 20
1192.5
 11
118.75
 21
1192.5
  0
LINE
  8
DIMENSIONS
  6
CONTINUOUS
 62
     7
 10
370.8
 20
994.00001
 11
118.75
 21
994.00001
  0
LINE
  8
DIMENSIONS
  6
CONTINUOUS
 62
     7
 10
125.0
 20
1192.5
 11
125.0
 21
994.00001
  0
TEXT
  8
SPEC
  6
CONTINUOUS
 62
     7
 10
93.75
 20
731.25
 40
15.0
  1
仕様
  7
TTF_DEFAULT
  0
TEXT
  8
SPEC
  6
CONTINUOUS
 62
     7
 10
90.625
 20
709.375
 40
12.5
  1
電源/消費電力
  7
TTF_DEFAULT
  0
LINE
  8
KANAGU
  6
CONTINUOUS
 62
     7
 10
150.0
 20
850.0
 11
150.0
 21
938.0
  0
LINE
  8
DIMENSIONS
  6
CONTINUOUS
 62
     7
 10
125.0
 20
850.0
 11
125.0
 21
938.0
  0
TEXT
  8
DIMENSIONS
  6
CONTINUOUS
 62
     7
 10
118.75
 20
886.878834
 40
12.5
  1
88
 50
90.0
  7
TTF_DEFAULT
  0
ARC
  8
KANAGU
  6
CONTINUOUS
 62
     7
 10
156.3
 20
855.9
 40
3.5
 50
90.0
 51
270.0
  0
ARC
  8
KANAGU
  6
CONTINUOUS
 62
     7
 10
161.3
 20
855.9
 40
3.5
 50
270.0
 51
90.0
  0
LINE
  8
KANAGU
  6
CONTINUOUS
 62
     7
 10
156.3
 20
852.4
 11
161.3
 21
852.4
  0
LINE
  8
KANAGU
  6
CONTINUOUS
 62
     7
 10
156.3
 20
859.4
 11
161.3
 21
859.4
  0
LINE
  8
DIMENSIONS
  6
CONTINUOUS
 62
     7
 10
145.0
 20
850.0
 11
118.75
 21
850.0
  0
LINE
  8
DIMENSIONS
  6
CONTINUOUS
 62
     7
 10
126.6666
 20
860.0
 11
125.0
 21
850.0
  0
LINE
  8
DIMENSIONS
  6
CONTINUOUS
 62
     7
 10
123.3334
 20
860.0
 11
125.0
 21
850.0
  0
LINE
  8
KANAGU
  6
CONTINUOUS
 62
     7
 10
175.3
 20
1018.0
 11
175.3
 21
1047.0
  0
LINE
  8
KANAGU
  6
CONTINUOUS
 62
     7
 10
150.0
 20
1000.5
 11
150.0
 21
1002.5
  0
LINE
  8
KANAGU
  6
CONTINUOUS
 62
     7
 10
175.3
 20
1018.0
 11
175.3
 21
1002.5
  0
ARC
  8
KANAGU
  6
CONTINUOUS
 62
     7
 10
177.8
 20
1018.0
 40
2.5
 50
90.0
 51
180.0
  0
ARC
  8
KANAGU
  6
CONTINUOUS
 62
     7
 10
177.8
 20
1047.0
 40
2.5
 50
90.0
 51
180.0
  0
ARC
  8
KANAGU
  6
CONTINUOUS
 62
     7
 10
156.3
 20
932.1
 40
3.5
 50
90.0
 51
270.0
  0
ARC
  8
KANAGU
  6
CONTINUOUS
 62
     7
 10
161.3
 20
932.1
 40
3.5
 50
270.0
 51
90.0
  0
LINE
  8
KANAGU
  6
CONTINUOUS
 62
     7
 10
156.3
 20
928.6
 11
161.3
 21
928.6
  0
LINE
  8
KANAGU
  6
CONTINUOUS
 62
     7
 10
156.3
 20
935.6
 11
161.3
 21
935.6
  0
LINE
  8
DIMENSIONS
  6
CONTINUOUS
 62
     7
 10
150.0
 20
943.0
 11
150.0
 21
968.75
  0
LINE
  8
DIMENSIONS
  6
CONTINUOUS
 62
     7
 10
160.0
 20
960.8334
 11
150.0
 21
962.5
  0
LINE
  8
DIMENSIONS
  6
CONTINUOUS
 62
     7
 10
160.0
 20
964.1666
 11
150.0
 21
962.5
  0
LINE
  8
DIMENSIONS
  6
CONTINUOUS
 62
     7
 10
145.0
 20
938.0
 11
118.75
 21
938.0
  0
LINE
  8
DIMENSIONS
  6
CONTINUOUS
 62
     7
 10
126.6666
 20
928.0
 11
125.0
 21
938.0
  0
LINE
  8
DIMENSIONS
  6
CONTINUOUS
 62
     7
 10
123.3334
 20
928.0
 11
125.0
 21
938.0
  0
LINE
  8
DIMENSIONS
  6
CONTINUOUS
 62
     7
 10
123.3334
 20
1004.00001
 11
125.0
 21
994.00001
  0
LINE
  8
DIMENSIONS
  6
CONTINUOUS
 62
     7
 10
126.6666
 20
1004.00001
 11
125.0
 21
994.00001
  0
TEXT
  8
SPEC
  6
CONTINUOUS
 62
     7
 10
93.75
 20
1331.25
 40
15.0
  1
仕様
  7
TTF_DEFAULT
  0
TEXT
  8
SPEC
  6
CONTINUOUS
 62
     7
 10
90.625
 20
1309.375
 40
12.5
  1
電源/消費電力
  7
TTF_DEFAULT
  0
TEXT
  8
SPEC
  6
CONTINUOUS
 62
     7
 10
90.625
 20
1290.625
 40
12.5
  1
重量
  7
TTF_DEFAULT
  0
TEXT
  8
SPEC
  6
CONTINUOUS
 62
     7
 10
90.625
 20
1271.875
 40
12.5
  1
寸法
  7
TTF_DEFAULT
  0
TEXT
  8
SPEC
  6
CONTINUOUS
 62
     7
 10
90.625
 20
1253.125
 40
12.5
  1
定格ヒューズ  250V. 2A
  7
TTF_DEFAULT
  0
LINE
  8
SPEC
  6
CONTINUOUS
 62
     7
 10
87.5
 20
1268.75
 11
87.5
 21
1325.0
  0
LINE
  8
DIMENSIONS
  6
CONTINUOUS
 62
     7
 10
123.3334
 20
1182.5
 11
125.0
 21
1192.5
  0
LINE
  8
DIMENSIONS
  6
CONTINUOUS
 62
     7
 10
126.6666
 20
1182.5
 11
125.0
 21
1192.5
  0
TEXT
  8
DIMENSIONS
  6
CONTINUOUS
 62
     7
 10
118.75
 20
1082.568255
 40
12.5
  1
198
 50
90.0
  7
TTF_DEFAULT
  0
LINE
  8
DATA
  6
CONTINUOUS
 62
     7
 10
252.3
 20
1002.50001
 11
252.3
 21
1157.50001
  0
LINE
  8
DATA
  6
CONTINUOUS
 62
     7
 10
247.8
 20
1039.76581
 11
247.8
 21
1114.50001
  0
TEXT
  8
DATA
  6
CONTINUOUS
 62
     7
 10
358.172424
 20
863.5
 40
5.0
  1
120V/100V USE T2A/250V
  7
TTF_DEFAULT
  0
TEXT
  8
DATA
  6
CONTINUOUS
 62
     7
 10
358.172424
 20
858.5
 40
5.0
  1
240V/220V USE T1A/250V
  7
TTF_DEFAULT
  0
TEXT
  8
DATA
  6
CONTINUOUS
 62
     7
 10
342.777658
 20
898.0
 40
5.0
  1
CPS 150
  7
TTF_DEFAULT
  0
TEXT
  8
DATA
  6
CONTINUOUS
 62
     7
 10
287.3
 20
904.125
 40
15.0
  1
Soundcraft
  7
TTF_DEFAULT
  0
LINE
  8
DATA
  6
CONTINUOUS
 62
     7
 10
252.3
 20
853.0
 11
252.3
 21
933.0
  0
LINE
  8
DATA
  6
CONTINUOUS
 62
     7
 10
253.5
 20
853.0
 11
253.5
 21
933.0
  0
LINE
  8
KANAGU
  6
CONTINUOUS
 62
     7
 10
257.3
 20
862.75
 11
257.3
 21
925.25
  0
ARC
  8
DATA
  6
CONTINUOUS
 62
     7
 10
263.49628
 20
888.030029
 40
15.956258
 50
134.562405
 51
169.643035
  0
TEXT
  8
SPEC
  6
CONTINUOUS
 62
     7
 10
253.125
 20
709.375
 40
12.5
  1
AC100V 50/60Hz 100VA
  7
TTF_DEFAULT
  0
ARC
  8
DATA
  6
CONTINUOUS
 62
     7
 10
263.49628
 20
868.030029
 40
15.956258
 50
134.562405
 51
169.643035
  0
ARC
  8
DATA
  6
CONTINUOUS
 62
     7
 10
270.300005
 20
857.855876
 40
7.855876
 50
218.178995
 51
321.821005
  0
LINE
  8
DATA
  6
CONTINUOUS
 62
     7
 10
247.8
 20
870.89865
 11
252.3
 21
870.89865
  0
ARC
  8
KANAGU
  6
CONTINUOUS
 62
     7
 10
262.3
 20
862.75
 40
5.0
 50
180.0
 51
270.0
  0
LINE
  8
DATA
  6
CONTINUOUS
 62
     7
 10
247.8
 20
890.89865
 11
252.3
 21
890.89865
  0
LINE
  8
KANAGU
  6
CONTINUOUS
 62
     7
 10
250.3
 20
1049.5
 11
250.3
 21
1020.5
  0
LINE
  8
KANAGU
  6
CONTINUOUS
 62
     7
 10
252.3
 20
1020.5
 11
252.3
 21
1049.5
  0
CIRCLE
  8
KANAGU
  6
CONTINUOUS
 62
     7
 10
302.3
 20
1012.5
 40
4.0
  0
CIRCLE
  8
KANAGU
  6
CONTINUOUS
 62
     7
 10
302.3
 20
1012.5
 40
2.5
  0
LINE
  8
KANAGU
  6
HIDDEN
 62
     7
 10
250.3
 20
1008.5
 11
252.3
 21
1008.5
  0
LINE
  8
KANAGU
  6
HIDDEN
 62
     7
 10
250.3
 20
1007.5
 11
250.3
 21
1020.5
  0
LINE
  8
KANAGU
  6
HIDDEN
 62
     7
 10
252.3
 20
1020.5
 11
252.3
 21
1008.5
  0
CIRCLE
  8
DATA
  6
CONTINUOUS
 62
     7
 10
302.3
 20
1012.5
 40
2.98755
  0
CIRCLE
  8
DATA
  6
CONTINUOUS
 62
     7
 10
302.3
 20
1012.5
 40
3.5
  0
LINE
  8
DATA
  6
CONTINUOUS
 62
     7
 10
302.3
 20
1011.0
 11
302.3
 21
1014.0
  0
LINE
  8
DATA
  6
CONTINUOUS
 62
     7
 10
300.8
 20
1012.5
 11
303.8
 21
1012.5
  0
ARC
  8
DATA
  6
CONTINUOUS
 62
     7
 10
249.71065
 20
1046.50001
 40
7.0
 50
254.160121
 51
270.0
  0
LINE
  8
DATA
  6
CONTINUOUS
 62
     7
 10
249.71065
 20
1039.50001
 11
252.3
 21
1039.50001
  0
TEXT
  8
DATA
  6
CONTINUOUS
 62
     7
 10
287.3
 20
898.0
 40
5.0
  1
CONSOLE POWER SUPPLY 
  7
TTF_DEFAULT
  0
LINE
  8
DATA
  6
CONTINUOUS
 62
     7
 10
247.8
 20
910.89865
 11
252.3
 21
910.89865
  0
ARC
  8
DATA
  6
CONTINUOUS
 62
     7
 10
263.49628
 20
908.030029
 40
15.956258
 50
134.562405
 51
169.643035
  0
ARC
  8
DATA
  6
CONTINUOUS
 62
     7
 10
270.300005
 20
930.144124
 40
7.855876
 50
38.178995
 51
141.821005
  0
ARC
  8
DATA
  6
CONTINUOUS
 62
     7
 10
254.3
 20
933.0
 40
2.0
 50
90.0
 51
180.0
  0
ARC
  8
DATA
  6
CONTINUOUS
 62
     7
 10
254.3
 20
933.0
 40
0.8
 50
90.0
 51
180.0
  0
ARC
  8
KANAGU
  6
CONTINUOUS
 62
     7
 10
262.3
 20
925.25
 40
5.0
 50
90.0
 51
180.0
  0
LINE
  8
DATA
  6
CONTINUOUS
 62
     7
 10
372.8
 20
922.5
 11
372.8
 21
892.5
  0
LINE
  8
DATA
  6
CONTINUOUS
 62
     7
 10
398.8
 20
892.5
 11
398.8
 21
922.5
  0
LINE
  8
DATA
  6
CONTINUOUS
 62
     7
 10
372.8
 20
892.5
 11
398.8
 21
892.5
  0
TEXT
  8
DATA
  6
CONTINUOUS
 62
     7
 10
372.984644
 20
886.5
 40
5.0
  1
MAINS FUSE
  7
TTF_DEFAULT
  0
CIRCLE
  8
DATA
  6
CONTINUOUS
 62
     7
 10
385.8
 20
876.0
 40
7.5
  0
CIRCLE
  8
DATA
  6
CONTINUOUS
 62
     7
 10
385.8
 20
876.0
 40
5.75
  0
LINE
  8
DATA
  6
CONTINUOUS
 62
     7
 10
388.805204
 20
878.298097
 11
383.501903
 21
872.994796
  0
LINE
  8
DATA
  6
CONTINUOUS
 62
     7
 10
383.501903
 20
872.994796
 11
382.794796
 21
873.701903
  0
TEXT
  8
DATA
  6
CONTINUOUS
 62
     7
 10
467.769462
 20
869.5
 40
4.5
  1
+48V
  7
TTF_DEFAULT
  0
LINE
  8
DATA
  6
CONTINUOUS
 62
     7
 10
382.794796
 20
873.701903
 11
388.098097
 21
879.005204
  0
CIRCLE
  8
DATA
  6
CONTINUOUS
 62
     7
 10
472.3
 20
877.0
 40
2.5
  0
CIRCLE
  8
DATA
  6
CONTINUOUS
 62
     7
 10
484.8
 20
877.0
 40
2.5
  0
LINE
  8
DATA
  6
CONTINUOUS
 62
     7
 10
388.098097
 20
879.005204
 11
388.805204
 21
878.298097
  0
LINE
  8
DATA
  6
CONTINUOUS
 62
     7
 10
372.8
 20
999.50001
 11
398.8
 21
999.50001
  0
LINE
  8
DATA
  6
CONTINUOUS
 62
     7
 10
375.8
 20
994.00001
 11
395.8
 21
994.00001
  0
LINE
  8
DATA
  6
CONTINUOUS
 62
     7
 10
375.8
 20
994.00001
 11
375.8
 21
999.50001
  0
LINE
  8
DATA
  6
CONTINUOUS
 62
     7
 10
372.8
 20
999.50001
 11
372.8
 21
1002.50001
  0
CIRCLE
  8
KANAGU
  6
CONTINUOUS
 62
     7
 10
480.3
 20
1012.5
 40
4.0
  0
CIRCLE
  8
KANAGU
  6
CONTINUOUS
 62
     7
 10
480.3
 20
1012.5
 40
2.5
  0
CIRCLE
  8
DATA
  6
CONTINUOUS
 62
     7
 10
480.3
 20
1012.5
 40
2.98755
  0
CIRCLE
  8
DATA
  6
CONTINUOUS
 62
     7
 10
480.3
 20
1012.5
 40
3.5
  0
LINE
  8
DATA
  6
CONTINUOUS
 62
     7
 10
480.3
 20
1011.0
 11
480.3
 21
1014.0
  0
LINE
  8
DATA
  6
CONTINUOUS
 62
     7
 10
395.8
 20
994.00001
 11
395.8
 21
999.50001
  0
LINE
  8
DATA
  6
CONTINUOUS
 62
     7
 10
398.8
 20
999.50001
 11
398.8
 21
1002.50001
  0
LINE
  8
DATA
  6
CONTINUOUS
 62
     7
 10
481.8
 20
1012.5
 11
478.8
 21
1012.5
  0
ARC
  8
DATA
  6
CONTINUOUS
 62
     7
 10
472.3
 20
1002.50001
 40
2.5
 50
180.0
 51
0.0
  0
ARC
  8
DATA
  6
CONTINUOUS
 62
     7
 10
484.8
 20
1002.50001
 40
2.5
 50
180.0
 51
0.0
  0
LINE
  8
DATA
  6
CONTINUOUS
 62
     7
 10
372.8
 20
922.5
 11
398.8
 21
922.5
  0
LINE
  8
DATA
  6
CONTINUOUS
 62
     7
 10
375.8
 20
906.5
 11
395.8
 21
906.5
  0
LINE
  8
DATA
  6
CONTINUOUS
 62
     7
 10
375.8
 20
912.0
 11
395.8
 21
912.0
  0
LINE
  8
DATA
  6
CONTINUOUS
 62
     7
 10
375.8
 20
917.5
 11
395.8
 21
917.5
  0
LINE
  8
DATA
  6
CONTINUOUS
 62
     7
 10
395.8
 20
897.5
 11
375.8
 21
897.5
  0
TEXT
  8
DATA
  6
CONTINUOUS
 62
     7
 10
368.236929
 20
895.5
 40
5.0
  1
0
  7
TTF_DEFAULT
  0
TEXT
  8
DATA
  6
CONTINUOUS
 62
     7
 10
368.236929
 20
915.5
 40
5.0
  1
1
  7
TTF_DEFAULT
  0
LINE
  8
DATA
  6
CONTINUOUS
 62
     7
 10
375.8
 20
897.5
 11
375.8
 21
917.5
  0
TEXT
  8
DATA
  6
CONTINUOUS
 62
     7
 10
400.8
 20
895.5
 40
5.0
  1
OFF
  7
TTF_DEFAULT
  0
TEXT
  8
DATA
  6
CONTINUOUS
 62
     7
 10
400.8
 20
915.5
 40
5.0
  1
ON
  7
TTF_DEFAULT
  0
TEXT
  8
DATA
  6
CONTINUOUS
 62
     7
 10
400.8
 20
904.5
 40
5.0
  1
POWER
  7
TTF_DEFAULT
  0
LINE
  8
DATA
  6
CONTINUOUS
 62
     7
 10
395.8
 20
917.5
 11
395.8
 21
897.5
  0
TEXT
  8
DIMENSIONS
  6
CONTINUOUS
 62
     7
 10
380.61825
 20
968.75
 40
12.5
  1
483
  7
TTF_DEFAULT
  0
TEXT
  8
SPEC
  6
CONTINUOUS
 62
     7
 10
253.125
 20
1271.875
 40
12.5
  1
483(W)×88(H)×190(D)mm
  7
TTF_DEFAULT
  0
LINE
  8
DATA
  6
CONTINUOUS
 62
     7
 10
247.8
 20
1114.50001
 11
252.3
 21
1114.50001
  0
ARC
  8
DATA
  6
CONTINUOUS
 62
     7
 10
302.08551
 20
1202.68751
 40
25.351532
 50
326.309932
 51
33.690068
  0
ARC
  8
DATA
  6
CONTINUOUS
 62
     7
 10
298.25812
 20
1202.68751
 40
25.351532
 50
326.309932
 51
33.690068
  0
ARC
  8
DATA
  6
CONTINUOUS
 62
     7
 10
344.27301
 20
1174.56251
 40
25.351532
 50
146.309932
 51
213.690068
  0
ARC
  8
DATA
  6
CONTINUOUS
 62
     7
 10
340.44562
 20
1174.56251
 40
25.351532
 50
146.309932
 51
213.690068
  0
LINE
  8
DATA
  6
CONTINUOUS
 62
     7
 10
317.41708
 20
1160.50001
 11
325.0625
 21
1160.50001
  0
LINE
  8
DATA
  6
CONTINUOUS
 62
     7
 10
317.41708
 20
1160.50001
 11
317.41708
 21
1157.50001
  0
LINE
  8
DATA
  6
CONTINUOUS
 62
     7
 10
325.0625
 20
1160.50001
 11
325.0625
 21
1157.50001
  0
CIRCLE
  8
DATA
  6
CONTINUOUS
 62
     7
 10
278.3
 20
1147.5
 40
3.5
  0
CIRCLE
  8
DATA
  6
CONTINUOUS
 62
     7
 10
278.3
 20
1147.5
 40
2.98755
  0
LINE
  8
DATA
  6
CONTINUOUS
 62
     7
 10
276.8
 20
1147.5
 11
279.8
 21
1147.5
  0
LINE
  8
DATA
  6
CONTINUOUS
 62
     7
 10
278.3
 20
1146.0
 11
278.3
 21
1149.0
  0
TEXT
  8
DATA
  6
CONTINUOUS
 62
     7
 10
339.8
 20
1202.50001
 40
12.5
  1
DCコード
 50
90.0
  7
TTF_DEFAULT
  0
TEXT
  8
SPEC
  6
CONTINUOUS
 62
     7
 10
253.125
 20
1309.375
 40
12.5
  1
AC100V 50/60Hz 100VA
  7
TTF_DEFAULT
  0
TEXT
  8
SPEC
  6
CONTINUOUS
 62
     7
 10
253.125
 20
1290.625
 40
12.5
  1
約6kg
  7
TTF_DEFAULT
  0
LINE
  8
SPEC
  6
CONTINUOUS
 62
     7
 10
250.0
 20
1325.0
 11
250.0
 21
1268.75
  0
ARC
  8
DATA
  6
CONTINUOUS
 62
     7
 10
379.01969
 20
1160.354558
 40
2.854558
 50
177.079468
 51
2.920532
  0
LINE
  8
DATA
  6
CONTINUOUS
 62
     7
 10
371.23937
 20
1157.5
 11
372.76969
 21
1192.5
  0
LINE
  8
DATA
  6
CONTINUOUS
 62
     7
 10
374.76969
 20
1192.5
 11
376.16884
 21
1160.5
  0
LINE
  8
DATA
  6
CONTINUOUS
 62
     7
 10
374.76969
 20
1192.5
 11
372.76969
 21
1192.5
  0
LINE
  8
DATA
  6
CONTINUOUS
 62
     7
 10
472.30001
 20
1157.5
 11
470.76969
 21
1192.5
  0
LINE
  8
DATA
  6
CONTINUOUS
 62
     7
 10
473.76969
 20
1157.5
 11
473.76969
 21
1169.0
  0
LINE
  8
DATA
  6
CONTINUOUS
 62
     7
 10
425.23937
 20
1157.5
 11
426.76969
 21
1192.5
  0
LINE
  8
DATA
  6
CONTINUOUS
 62
     7
 10
398.76969
 20
1157.5
 11
398.76969
 21
1169.0
  0
LINE
  8
DATA
  6
CONTINUOUS
 62
     7
 10
423.76969
 20
1169.0
 11
423.76969
 21
1157.5
  0
LINE
  8
DATA
  6
CONTINUOUS
 62
     7
 10
397.30001
 20
1157.5
 11
395.76969
 21
1192.5
  0
LINE
  8
DATA
  6
CONTINUOUS
 62
     7
 10
381.87054
 20
1160.5
 11
383.26969
 21
1192.5
  0
LINE
  8
DATA
  6
CONTINUOUS
 62
     7
 10
392.37054
 20
1160.5
 11
393.76969
 21
1192.5
  0
LINE
  8
DATA
  6
CONTINUOUS
 62
     7
 10
385.26969
 20
1192.5
 11
386.66884
 21
1160.5
  0
LINE
  8
DATA
  6
CONTINUOUS
 62
     7
 10
428.76969
 20
1192.5
 11
430.16884
 21
1160.5
  0
LINE
  8
DATA
  6
CONTINUOUS
 62
     7
 10
435.87054
 20
1160.5
 11
437.26969
 21
1192.5
  0
LINE
  8
DATA
  6
CONTINUOUS
 62
     7
 10
439.26969
 20
1192.5
 11
440.66884
 21
1160.5
  0
LINE
  8
DATA
  6
CONTINUOUS
 62
     7
 10
446.37054
 20
1160.5
 11
447.76969
 21
1192.5
  0
LINE
  8
DATA
  6
CONTINUOUS
 62
     7
 10
449.76969
 20
1192.5
 11
451.16884
 21
1160.5
  0
LINE
  8
DATA
  6
CONTINUOUS
 62
     7
 10
456.87054
 20
1160.5
 11
458.26969
 21
1192.5
  0
LINE
  8
DATA
  6
CONTINUOUS
 62
     7
 10
460.26969
 20
1192.5
 11
461.66884
 21
1160.5
  0
LINE
  8
DATA
  6
CONTINUOUS
 62
     7
 10
467.37054
 20
1160.5
 11
468.76969
 21
1192.5
  0
ARC
  8
DATA
  6
CONTINUOUS
 62
     7
 10
389.51969
 20
1160.354558
 40
2.854558
 50
177.079468
 51
2.920532
  0
ARC
  8
DATA
  6
CONTINUOUS
 62
     7
 10
433.01969
 20
1160.354558
 40
2.854558
 50
177.079468
 51
2.920532
  0
ARC
  8
DATA
  6
CONTINUOUS
 62
     7
 10
443.51969
 20
1160.354558
 40
2.854558
 50
177.079468
 51
2.920532
  0
ARC
  8
DATA
  6
CONTINUOUS
 62
     7
 10
454.01969
 20
1160.354558
 40
2.854558
 50
177.079468
 51
2.920532
  0
ARC
  8
DATA
  6
CONTINUOUS
 62
     7
 10
464.51969
 20
1160.354558
 40
2.854558
 50
177.079468
 51
2.920532
  0
LINE
  8
DATA
  6
CONTINUOUS
 62
     7
 10
468.76969
 20
1192.5
 11
470.76969
 21
1192.5
  0
LINE
  8
DATA
  6
CONTINUOUS
 62
     7
 10
458.26969
 20
1192.5
 11
460.26969
 21
1192.5
  0
LINE
  8
DATA
  6
CONTINUOUS
 62
     7
 10
447.76969
 20
1192.5
 11
449.76969
 21
1192.5
  0
LINE
  8
DATA
  6
CONTINUOUS
 62
     7
 10
437.26969
 20
1192.5
 11
439.26969
 21
1192.5
  0
LINE
  8
DATA
  6
CONTINUOUS
 62
     7
 10
426.76969
 20
1192.5
 11
428.76969
 21
1192.5
  0
LINE
  8
DATA
  6
CONTINUOUS
 62
     7
 10
398.76969
 20
1169.0
 11
423.76969
 21
1169.0
  0
LINE
  8
DATA
  6
CONTINUOUS
 62
     7
 10
385.26969
 20
1192.5
 11
383.26969
 21
1192.5
  0
LINE
  8
DATA
  6
CONTINUOUS
 62
     7
 10
395.76969
 20
1192.5
 11
393.76969
 21
1192.5
  0
LINE
  8
SPEC
  6
CONTINUOUS
 62
     7
 10
500.0
 20
668.75
 11
500.0
 21
725.0
  0
TEXT
  8
HIBINO-BASE
  6
CONTINUOUS
 62
     7
 10
743.75
 20
87.5
 40
12.5
  1
N.Sasaki
  7
TTF_DEFAULT
  0
LINE
  8
HIBINO-BASE
  6
CONTINUOUS
 62
     7
 10
500.0
 20
125.0
 11
950.0
 21
125.0
  0
TEXT
  8
HIBINO-BASE
  6
CONTINUOUS
 62
     7
 10
740.0
 20
112.5
 40
12.5
  1
DRAWN
  7
TTF_DEFAULT
  0
LINE
  8
KANAGU
  6
CONTINUOUS
 62
     7
 10
500.0
 20
188.25
 11
950.0
 21
188.25
  0
LINE
  8
KANAGU
  6
CONTINUOUS
 62
     7
 10
500.0
 20
186.75
 11
950.0
 21
186.75
  0
LINE
  8
KANAGU
  6
CONTINUOUS
 62
     7
 10
500.0
 20
188.25
 11
500.0
 21
186.75
  0
LINE
  8
KANAGU
  6
CONTINUOUS
 62
     7
 10
950.0
 20
188.25
 11
950.0
 21
186.75
  0
SOLID
  8
HIBINO-BASE
  6
CONTINUOUS
 62
     7
 10
500.0
 20
188.25
 11
950.0
 21
188.25
 12
500.0
 22
186.75
 13
950.0
 23
186.75
  0
TEXT
  8
DIMENSIONS
  6
CONTINUOUS
 62
     7
 10
536.529432
 20
331.25
 40
12.5
  1
37
  7
TTF_DEFAULT
  0
TEXT
  8
DIMENSIONS
  6
CONTINUOUS
 62
     7
 10
592.529432
 20
331.25
 40
12.5
  1
75
  7
TTF_DEFAULT
  0
TEXT
  8
HIBINO-BASE
  6
CONTINUOUS
 62
     7
 10
615.0
 20
112.5
 40
12.5
  1
DATE
  7
TTF_DEFAULT
  0
TEXT
  8
HIBINO-BASE
  6
CONTINUOUS
 62
     7
 10
618.75
 20
87.5
 40
12.5
  1
'99.09.
  7
TTF_DEFAULT
  0
LINE
  8
DATA
  6
CONTINUOUS
 62
     7
 10
715.0
 20
225.0
 11
525.0
 21
225.0
  0
LINE
  8
DATA
  6
CONTINUOUS
 62
     7
 10
715.0
 20
307.0
 11
525.0
 21
307.0
  0
LINE
  8
DATA
  6
CONTINUOUS
 62
     7
 10
637.0
 20
262.89865
 11
562.0
 21
262.89865
  0
LINE
  8
DATA
  6
CONTINUOUS
 62
     7
 10
630.0
 20
251.39865
 11
569.0
 21
251.39865
  0
LINE
  8
DATA
  6
CONTINUOUS
 62
     7
 10
637.0
 20
242.89865
 11
562.0
 21
242.89865
  0
LINE
  8
DATA
  6
CONTINUOUS
 62
     7
 10
630.0
 20
271.39865
 11
569.0
 21
271.39865
  0
LINE
  8
DATA
  6
CONTINUOUS
 62
     7
 10
630.0
 20
291.39865
 11
569.0
 21
291.39865
  0
LINE
  8
DATA
  6
CONTINUOUS
 62
     7
 10
637.0
 20
282.89865
 11
562.0
 21
282.89865
  0
LINE
  8
DIMENSIONS
  6
CONTINUOUS
 62
     7
 10
562.0
 20
325.0
 11
637.0
 21
325.0
  0
LINE
  8
KANAGU
  6
CONTINUOUS
 62
     7
 10
499.25
 20
75.0
 11
499.25
 21
187.5
  0
LINE
  8
KANAGU
  6
CONTINUOUS
 62
     7
 10
500.75
 20
75.0
 11
500.75
 21
187.5
  0
LINE
  8
KANAGU
  6
CONTINUOUS
 62
     7
 10
499.25
 20
75.0
 11
500.75
 21
75.0
  0
LINE
  8
KANAGU
  6
CONTINUOUS
 62
     7
 10
499.25
 20
187.5
 11
500.75
 21
187.5
  0
SOLID
  8
HIBINO-BASE
  6
CONTINUOUS
 62
     7
 10
499.25
 20
75.0
 11
499.25
 21
187.5
 12
500.75
 22
75.0
 13
500.75
 23
187.5
  0
TEXT
  8
HIBINO-BASE
  6
CONTINUOUS
 62
     7
 10
518.75
 20
81.25
 40
20.0
  1
A4
  7
TTF_DEFAULT
  0
LINE
  8
HIBINO-BASE
  6
CONTINUOUS
 62
     7
 10
571.875
 20
81.25
 11
590.625
 21
100.0
  0
TEXT
  8
HIBINO-BASE
  6
CONTINUOUS
 62
     7
 10
568.75
 20
90.625
 40
15.0
  1
1
  7
TTF_DEFAULT
  0
TEXT
  8
HIBINO-BASE
  6
CONTINUOUS
 62
     7
 10
502.5
 20
112.5
 40
11.25
  1
図面サイズ
  7
TTF_DEFAULT
  0
TEXT
  8
HIBINO-BASE
  6
CONTINUOUS
 62
     7
 10
565.0
 20
112.5
 40
12.5
  1
SCALE
  7
TTF_DEFAULT
  0
LINE
  8
HIBINO-BASE
  6
CONTINUOUS
 62
     7
 10
612.5
 20
75.0
 11
612.5
 21
125.0
  0
LINE
  8
HIBINO-BASE
  6
CONTINUOUS
 62
     7
 10
562.5
 20
75.0
 11
562.5
 21
125.0
  0
TEXT
  8
HIBINO-BASE
  6
CONTINUOUS
 62
     7
 10
587.5
 20
81.25
 40
15.0
  1
5
  7
TTF_DEFAULT
  0
TEXT
  8
HIBINO-BASE
  6
CONTINUOUS
 62
     7
 10
502.5
 20
175.0
 40
12.5
  1
NOTE
  7
TTF_DEFAULT
  0
LINE
  8
DATA
  6
CONTINUOUS
 62
     7
 10
516.5
 20
284.0
 11
522.0
 21
284.0
  0
ARC
  8
DATA
  6
CONTINUOUS
 62
     7
 10
522.0
 20
284.0
 40
5.5
 50
90.0
 51
180.0
  0
ARC
  8
DATA
  6
CONTINUOUS
 62
     7
 10
514.583333
 20
276.583333
 40
7.660323
 50
14.489763
 51
75.510237
  0
LINE
  8
DATA
  6
CONTINUOUS
 62
     7
 10
525.0
 20
307.0
 11
525.0
 21
225.0
  0
LINE
  8
DATA
  6
CONTINUOUS
 62
     7
 10
522.0
 20
294.5
 11
522.0
 21
264.5
  0
LINE
  8
DATA
  6
CONTINUOUS
 62
     7
 10
562.0
 20
264.39865
 11
562.0
 21
262.89865
  0
ARC
  8
DATA
  6
CONTINUOUS
 62
     7
 10
544.999995
 20
229.855876
 40
7.855876
 50
218.178995
 51
321.821005
  0
LINE
  8
DATA
  6
CONTINUOUS
 62
     7
 10
522.0
 20
240.5
 11
525.0
 21
240.5
  0
LINE
  8
DATA
  6
CONTINUOUS
 62
     7
 10
522.0
 20
255.5
 11
525.0
 21
255.5
  0
LINE
  8
DATA
  6
CONTINUOUS
 62
     7
 10
522.0
 20
240.5
 11
522.0
 21
255.5
  0
LINE
  8
DATA
  6
CONTINUOUS
 62
     7
 10
562.0
 20
244.39865
 11
562.0
 21
242.89865
  0
ARC
  8
DATA
  6
CONTINUOUS
 62
     7
 10
569.0
 20
244.39865
 40
7.0
 50
90.0
 51
180.0
  0
LINE
  8
DATA
  6
CONTINUOUS
 62
     7
 10
522.0
 20
264.5
 11
525.0
 21
264.5
  0
ARC
  8
DATA
  6
CONTINUOUS
 62
     7
 10
569.0
 20
264.39865
 40
7.0
 50
90.0
 51
180.0
  0
ARC
  8
DATA
  6
CONTINUOUS
 62
     7
 10
525.0
 20
249.0
 40
2.5
 50
90.0
 51
270.0
  0
LINE
  8
DATA
  6
CONTINUOUS
 62
     7
 10
522.0
 20
294.5
 11
525.0
 21
294.5
  0
ARC
  8
DATA
  6
CONTINUOUS
 62
     7
 10
569.0
 20
284.39865
 40
7.0
 50
90.0
 51
180.0
  0
LINE
  8
DATA
  6
CONTINUOUS
 62
     7
 10
562.0
 20
284.39865
 11
562.0
 21
282.89865
  0
ARC
  8
DATA
  6
CONTINUOUS
 62
     7
 10
544.999995
 20
302.144124
 40
7.855876
 50
38.178995
 51
141.821005
  0
LINE
  8
DIMENSIONS
  6
CONTINUOUS
 62
     7
 10
525.0
 20
325.0
 11
562.0
 21
325.0
  0
LINE
  8
DIMENSIONS
  6
CONTINUOUS
 62
     7
 10
525.0
 20
312.0
 11
525.0
 21
331.25
  0
LINE
  8
DIMENSIONS
  6
CONTINUOUS
 62
     7
 10
535.0
 20
323.3334
 11
525.0
 21
325.0
  0
LINE
  8
DIMENSIONS
  6
CONTINUOUS
 62
     7
 10
535.0
 20
326.6666
 11
525.0
 21
325.0
  0
LINE
  8
DIMENSIONS
  6
CONTINUOUS
 62
     7
 10
552.0
 20
323.3334
 11
562.0
 21
325.0
  0
LINE
  8
DIMENSIONS
  6
CONTINUOUS
 62
     7
 10
552.0
 20
326.6666
 11
562.0
 21
325.0
  0
LINE
  8
DIMENSIONS
  6
CONTINUOUS
 62
     7
 10
562.0
 20
287.89865
 11
562.0
 21
331.25
  0
LINE
  8
DIMENSIONS
  6
CONTINUOUS
 62
     7
 10
572.0
 20
323.3334
 11
562.0
 21
325.0
  0
LINE
  8
DIMENSIONS
  6
CONTINUOUS
 62
     7
 10
572.0
 20
326.6666
 11
562.0
 21
325.0
  0
LINE
  8
HIBINO-BASE
  6
CONTINUOUS
 62
     7
 10
675.0
 20
75.0
 11
675.0
 21
187.5
  0
TEXT
  8
HIBINO-BASE
  6
CONTINUOUS
 62
     7
 10
677.5
 20
112.5
 40
12.5
  1
DESIGN
  7
TTF_DEFAULT
  0
LINE
  8
HIBINO-BASE
  6
CONTINUOUS
 62
     7
 10
737.5
 20
125.0
 11
737.5
 21
75.0
  0
TEXT
  8
HIBINO-BASE
  6
CONTINUOUS
 62
     7
 10
677.5
 20
175.0
 40
12.5
  1
TITLE
  7
TTF_DEFAULT
  0
LINE
  8
DATA
  6
CONTINUOUS
 62
     7
 10
637.0
 20
264.39865
 11
637.0
 21
262.89865
  0
LINE
  8
DATA
  6
CONTINUOUS
 62
     7
 10
637.0
 20
244.39865
 11
637.0
 21
242.89865
  0
ARC
  8
DATA
  6
CONTINUOUS
 62
     7
 10
630.0
 20
244.39865
 40
7.0
 50
0.0
 51
90.0
  0
ARC
  8
DATA
  6
CONTINUOUS
 62
     7
 10
630.0
 20
264.39865
 40
7.0
 50
0.0
 51
90.0
  0
ARC
  8
DATA
  6
CONTINUOUS
 62
     7
 10
630.0
 20
284.39865
 40
7.0
 50
0.0
 51
90.0
  0
LINE
  8
DATA
  6
CONTINUOUS
 62
     7
 10
637.0
 20
284.39865
 11
637.0
 21
282.89865
  0
LINE
  8
DATA
  6
CONTINUOUS
 62
     7
 10
680.0
 20
307.0
 11
680.0
 21
225.0
  0
LINE
  8
DATA
  6
CONTINUOUS
 62
     7
 10
715.0
 20
225.0
 11
715.0
 21
307.0
  0
ARC
  8
DATA
  6
CONTINUOUS
 62
     7
 10
659.999995
 20
229.855876
 40
7.855876
 50
218.178995
 51
321.821005
  0
ARC
  8
DATA
  6
CONTINUOUS
 62
     7
 10
659.999995
 20
302.144124
 40
7.855876
 50
38.178995
 51
141.821005
  0
LINE
  8
DIMENSIONS
  6
CONTINUOUS
 62
     7
 10
637.0
 20
287.89865
 11
637.0
 21
331.25
  0
LINE
  8
DIMENSIONS
  6
CONTINUOUS
 62
     7
 10
627.0
 20
323.3334
 11
637.0
 21
325.0
  0
LINE
  8
DIMENSIONS
  6
CONTINUOUS
 62
     7
 10
627.0
 20
326.6666
 11
637.0
 21
325.0
  0
TEXT
  8
HIBINO-BASE
  6
CONTINUOUS
 62
     7
 10
793.650131
 20
42.9566
 40
20.0
  1
ヒビノ株式会社
  7
TTF_DEFAULT
  0
TEXT
  8
HIBINO-BASE
  6
CONTINUOUS
 62
     7
 10
865.0
 20
112.5
 40
12.5
  1
DRAWING NO.
  7
TTF_DEFAULT
  0
TEXT
  8
DATA
  6
CONTINUOUS
 62
     7
 10
762.5
 20
146.875
 40
15.0
  1
CPS150
  7
TTF_DEFAULT
  0
TEXT
  8
HIBINO-BASE
  6
CONTINUOUS
 62
     7
 10
802.5
 20
112.5
 40
12.5
  1
CHECK
  7
TTF_DEFAULT
  0
LINE
  8
HIBINO-BASE
  6
CONTINUOUS
 62
     7
 10
862.5
 20
125.0
 11
862.5
 21
75.0
  0
LINE
  8
HIBINO-BASE
  6
CONTINUOUS
 62
     7
 10
800.0
 20
75.0
 11
800.0
 21
125.0
  0
TEXT
  8
DATA
  6
CONTINUOUS
 62
     7
 10
762.5
 20
165.625
 40
15.0
  1
Soundcraft
  7
TTF_DEFAULT
  0
LINE
  8
DATA
  6
CONTINUOUS
 62
     7
 10
867.0
 20
852.0
 11
677.0
 21
852.0
  0
LINE
  8
DATA
  6
CONTINUOUS
 62
     7
 10
789.0
 20
869.89865
 11
714.0
 21
869.89865
  0
LINE
  8
DATA
  6
CONTINUOUS
 62
     7
 10
782.0
 20
878.39865
 11
721.0
 21
878.39865
  0
LINE
  8
DATA
  6
CONTINUOUS
 62
     7
 10
789.0
 20
889.89865
 11
714.0
 21
889.89865
  0
LINE
  8
DATA
  6
CONTINUOUS
 62
     7
 10
867.0
 20
934.0
 11
677.0
 21
934.0
  0
LINE
  8
DATA
  6
CONTINUOUS
 62
     7
 10
782.0
 20
898.39865
 11
721.0
 21
898.39865
  0
LINE
  8
DATA
  6
CONTINUOUS
 62
     7
 10
789.0
 20
909.89865
 11
714.0
 21
909.89865
  0
LINE
  8
DATA
  6
CONTINUOUS
 62
     7
 10
782.0
 20
918.39865
 11
721.0
 21
918.39865
  0
LINE
  8
DATA
  6
CONTINUOUS
 62
     7
 10
530.3
 20
1002.50001
 11
530.3
 21
1157.50001
  0
LINE
  8
DATA
  6
CONTINUOUS
 62
     7
 10
534.8
 20
1039.76581
 11
534.8
 21
1114.50001
  0
LINE
  8
KANAGU
  6
CONTINUOUS
 62
     7
 10
621.3
 20
852.4
 11
626.3
 21
852.4
  0
LINE
  8
KANAGU
  6
CONTINUOUS
 62
     7
 10
621.3
 20
859.4
 11
626.3
 21
859.4
  0
LINE
  8
KANAGU
  6
CONTINUOUS
 62
     7
 10
621.3
 20
928.6
 11
626.3
 21
928.6
  0
LINE
  8
KANAGU
  6
CONTINUOUS
 62
     7
 10
621.3
 20
935.6
 11
626.3
 21
935.6
  0
LINE
  8
DIMENSIONS
  6
CONTINUOUS
 62
     7
 10
622.6
 20
960.8334
 11
632.6
 21
962.5
  0
LINE
  8
DIMENSIONS
  6
CONTINUOUS
 62
     7
 10
622.6
 20
964.1666
 11
632.6
 21
962.5
  0
LINE
  8
DATA
  6
CONTINUOUS
 62
     7
 10
530.3
 20
853.0
 11
530.3
 21
933.0
  0
LINE
  8
DATA
  6
CONTINUOUS
 62
     7
 10
529.1
 20
933.0
 11
529.1
 21
853.0
  0
LINE
  8
KANAGU
  6
CONTINUOUS
 62
     7
 10
525.3
 20
862.75
 11
525.3
 21
925.25
  0
ARC
  8
DATA
  6
CONTINUOUS
 62
     7
 10
519.10372
 20
888.030029
 40
15.956258
 50
10.356965
 51
45.437595
  0
ARC
  8
DATA
  6
CONTINUOUS
 62
     7
 10
519.10372
 20
868.030029
 40
15.956258
 50
10.356965
 51
45.437595
  0
TEXT
  8
DATA
  6
CONTINUOUS
 62
     7
 10
492.769462
 20
869.5
 40
4.5
  1
+17V
  7
TTF_DEFAULT
  0
ARC
  8
KANAGU
  6
CONTINUOUS
 62
     7
 10
621.3
 20
855.9
 40
3.5
 50
90.0
 51
270.0
  0
ARC
  8
DATA
  6
CONTINUOUS
 62
     7
 10
512.300005
 20
857.855876
 40
7.855876
 50
218.178995
 51
321.821005
  0
LINE
  8
DATA
  6
CONTINUOUS
 62
     7
 10
534.8
 20
870.89865
 11
530.3
 21
870.89865
  0
ARC
  8
KANAGU
  6
CONTINUOUS
 62
     7
 10
520.3
 20
862.75
 40
5.0
 50
270.0
 51
0.0
  0
CIRCLE
  8
DATA
  6
CONTINUOUS
 62
     7
 10
497.3
 20
877.0
 40
2.5
  0
LINE
  8
DATA
  6
CONTINUOUS
 62
     7
 10
534.8
 20
890.89865
 11
530.3
 21
890.89865
  0
LINE
  8
KANAGU
  6
CONTINUOUS
 62
     7
 10
607.3
 20
1018.0
 11
607.3
 21
1047.0
  0
LINE
  8
KANAGU
  6
CONTINUOUS
 62
     7
 10
530.3
 20
1020.5
 11
530.3
 21
1049.5
  0
LINE
  8
KANAGU
  6
CONTINUOUS
 62
     7
 10
532.3
 20
1020.5
 11
532.3
 21
1049.5
  0
LINE
  8
KANAGU
  6
CONTINUOUS
 62
     7
 10
607.3
 20
1002.5
 11
607.3
 21
1018.0
  0
ARC
  8
KANAGU
  6
CONTINUOUS
 62
     7
 10
604.8
 20
1018.0
 40
2.5
 50
0.0
 51
90.0
  0
LINE
  8
KANAGU
  6
HIDDEN
 62
     7
 10
530.3
 20
1008.5
 11
530.3
 21
1020.5
  0
LINE
  8
KANAGU
  6
HIDDEN
 62
     7
 10
532.3
 20
1007.5
 11
532.3
 21
1020.5
  0
LINE
  8
KANAGU
  6
HIDDEN
 62
     7
 10
530.3
 20
1008.5
 11
532.3
 21
1008.5
  0
ARC
  8
DATA
  6
CONTINUOUS
 62
     7
 10
497.3
 20
1002.50001
 40
2.5
 50
180.0
 51
0.0
  0
ARC
  8
KANAGU
  6
CONTINUOUS
 62
     7
 10
604.8
 20
1047.0
 40
2.5
 50
0.0
 51
90.0
  0
LINE
  8
KANAGU
  6
CONTINUOUS
 62
     7
 10
530.3
 20
1049.5
 11
604.8
 21
1049.5
  0
LINE
  8
DATA
  6
CONTINUOUS
 62
     7
 10
530.3
 20
1039.50001
 11
532.88934
 21
1039.50001
  0
ARC
  8
DATA
  6
CONTINUOUS
 62
     7
 10
532.88934
 20
1046.50001
 40
7.0
 50
270.0
 51
285.839879
  0
ARC
  8
KANAGU
  6
CONTINUOUS
 62
     7
 10
621.3
 20
932.1
 40
3.5
 50
90.0
 51
270.0
  0
LINE
  8
DATA
  6
CONTINUOUS
 62
     7
 10
534.8
 20
910.89865
 11
530.3
 21
910.89865
  0
ARC
  8
DATA
  6
CONTINUOUS
 62
     7
 10
519.10372
 20
908.030029
 40
15.956258
 50
10.356965
 51
45.437595
  0
ARC
  8
DATA
  6
CONTINUOUS
 62
     7
 10
512.300005
 20
930.144124
 40
7.855876
 50
38.178995
 51
141.821005
  0
ARC
  8
DATA
  6
CONTINUOUS
 62
     7
 10
528.3
 20
933.0
 40
2.0
 50
0.0
 51
90.0
  0
ARC
  8
DATA
  6
CONTINUOUS
 62
     7
 10
528.3
 20
933.0
 40
0.8
 50
0.0
 51
90.0
  0
ARC
  8
KANAGU
  6
CONTINUOUS
 62
     7
 10
520.3
 20
925.25
 40
5.0
 50
0.0
 51
90.0
  0
LINE
  8
KANAGU
  6
CONTINUOUS
 62
     7
 10
632.6
 20
938.0
 11
632.6
 21
850.0
  0
LINE
  8
KANAGU
  6
CONTINUOUS
 62
     7
 10
675.0
 20
850.0
 11
675.0
 21
938.0
  0
LINE
  8
KANAGU
  6
CONTINUOUS
 62
     7
 10
677.0
 20
850.0
 11
677.0
 21
938.0
  0
LINE
  8
DATA
  6
CONTINUOUS
 62
     7
 10
677.0
 20
934.0
 11
677.0
 21
852.0
  0
LINE
  8
DATA
  6
CONTINUOUS
 62
     7
 10
674.0
 20
921.5
 11
674.0
 21
891.5
  0
ARC
  8
DATA
  6
CONTINUOUS
 62
     7
 10
721.0
 20
891.39865
 40
7.0
 50
90.0
 51
180.0
  0
ARC
  8
KANAGU
  6
CONTINUOUS
 62
     7
 10
626.3
 20
855.9
 40
3.5
 50
270.0
 51
90.0
  0
LINE
  8
DATA
  6
CONTINUOUS
 62
     7
 10
674.0
 20
867.5
 11
674.0
 21
882.5
  0
ARC
  8
DATA
  6
CONTINUOUS
 62
     7
 10
721.0
 20
871.39865
 40
7.0
 50
90.0
 51
180.0
  0
ARC
  8
DATA
  6
CONTINUOUS
 62
     7
 10
677.0
 20
876.0
 40
2.5
 50
90.0
 51
270.0
  0
ARC
  8
KANAGU
  6
CONTINUOUS
 62
     7
 10
685.5
 20
871.5
 40
2.5
 50
90.0
 51
180.0
  0
LINE
  8
KANAGU
  6
CONTINUOUS
 62
     7
 10
724.0
 20
874.0
 11
724.0
 21
850.0
  0
LINE
  8
KANAGU
  6
CONTINUOUS
 62
     7
 10
675.0
 20
850.0
 11
724.0
 21
850.0
  0
LINE
  8
KANAGU
  6
CONTINUOUS
 62
     7
 10
677.0
 20
852.0
 11
724.0
 21
852.0
  0
LINE
  8
KANAGU
  6
CONTINUOUS
 62
     7
 10
683.0
 20
871.5
 11
683.0
 21
852.0
  0
CIRCLE
  8
KANAGU
  6
CONTINUOUS
 62
     7
 10
716.0
 20
866.0
 40
2.0
  0
ARC
  8
DATA
  6
CONTINUOUS
 62
     7
 10
696.999995
 20
856.855876
 40
7.855876
 50
218.178995
 51
321.821005
  0
LINE
  8
DATA
  6
CONTINUOUS
 62
     7
 10
674.0
 20
867.5
 11
677.0
 21
867.5
  0
LINE
  8
DATA
  6
CONTINUOUS
 62
     7
 10
714.0
 20
871.39865
 11
714.0
 21
869.89865
  0
LINE
  8
KANAGU
  6
CONTINUOUS
 62
     7
 10
685.5
 20
874.0
 11
724.0
 21
874.0
  0
LINE
  8
DATA
  6
CONTINUOUS
 62
     7
 10
674.0
 20
882.5
 11
677.0
 21
882.5
  0
LINE
  8
DATA
  6
CONTINUOUS
 62
     7
 10
674.0
 20
891.5
 11
677.0
 21
891.5
  0
LINE
  8
DATA
  6
CONTINUOUS
 62
     7
 10
714.0
 20
891.39865
 11
714.0
 21
889.89865
  0
LINE
  8
KANAGU
  6
CONTINUOUS
 62
     7
 10
632.6
 20
1000.5
 11
632.6
 21
1002.5
  0
ARC
  8
KANAGU
  6
CONTINUOUS
 62
     7
 10
626.3
 20
932.1
 40
3.5
 50
270.0
 51
90.0
  0
LINE
  8
KANAGU
  6
CONTINUOUS
 62
     7
 10
675.0
 20
938.0
 11
695.0
 21
938.0
  0
LINE
  8
KANAGU
  6
CONTINUOUS
 62
     7
 10
677.0
 20
936.0
 11
695.0
 21
936.0
  0
LINE
  8
KANAGU
  6
CONTINUOUS
 62
     7
 10
695.0
 20
936.0
 11
695.0
 21
938.0
  0
ARC
  8
DATA
  6
CONTINUOUS
 62
     7
 10
696.999995
 20
929.144124
 40
7.855876
 50
38.178995
 51
141.821005
  0
LINE
  8
DATA
  6
CONTINUOUS
 62
     7
 10
674.0
 20
921.5
 11
677.0
 21
921.5
  0
ARC
  8
DATA
  6
CONTINUOUS
 62
     7
 10
666.583333
 20
903.583333
 40
7.660323
 50
14.489763
 51
75.510237
  0
ARC
  8
DATA
  6
CONTINUOUS
 62
     7
 10
674.0
 20
911.0
 40
5.5
 50
90.0
 51
180.0
  0
LINE
  8
DATA
  6
CONTINUOUS
 62
     7
 10
668.5
 20
911.0
 11
674.0
 21
911.0
  0
LINE
  8
DATA
  6
CONTINUOUS
 62
     7
 10
714.0
 20
911.39865
 11
714.0
 21
909.89865
  0
ARC
  8
DATA
  6
CONTINUOUS
 62
     7
 10
721.0
 20
911.39865
 40
7.0
 50
90.0
 51
180.0
  0
LINE
  8
DIMENSIONS
  6
CONTINUOUS
 62
     7
 10
632.6
 20
943.0
 11
632.6
 21
968.75
  0
ARC
  8
DATA
  6
CONTINUOUS
 62
     7
 10
518.51969
 20
1160.354558
 40
2.854558
 50
177.079468
 51
2.920532
  0
LINE
  8
DATA
  6
CONTINUOUS
 62
     7
 10
522.76969
 20
1192.5
 11
524.76969
 21
1192.5
  0
LINE
  8
DATA
  6
CONTINUOUS
 62
     7
 10
500.23937
 20
1157.5
 11
501.76969
 21
1192.5
  0
LINE
  8
DATA
  6
CONTINUOUS
 62
     7
 10
498.76969
 20
1169.0
 11
498.76969
 21
1157.5
  0
LINE
  8
DATA
  6
CONTINUOUS
 62
     7
 10
503.76969
 20
1192.5
 11
505.16884
 21
1160.5
  0
LINE
  8
DATA
  6
CONTINUOUS
 62
     7
 10
510.87054
 20
1160.5
 11
512.26969
 21
1192.5
  0
LINE
  8
DATA
  6
CONTINUOUS
 62
     7
 10
514.26969
 20
1192.5
 11
515.66884
 21
1160.5
  0
CIRCLE
  8
DATA
  6
CONTINUOUS
 62
     7
 10
504.3
 20
1147.5
 40
3.5
  0
CIRCLE
  8
DATA
  6
CONTINUOUS
 62
     7
 10
504.3
 20
1147.5
 40
2.98755
  0
LINE
  8
DATA
  6
CONTINUOUS
 62
     7
 10
505.8
 20
1147.5
 11
502.8
 21
1147.5
  0
LINE
  8
DATA
  6
CONTINUOUS
 62
     7
 10
504.3
 20
1146.0
 11
504.3
 21
1149.0
  0
ARC
  8
DATA
  6
CONTINUOUS
 62
     7
 10
508.01969
 20
1160.354558
 40
2.854558
 50
177.079468
 51
2.920532
  0
LINE
  8
DATA
  6
CONTINUOUS
 62
     7
 10
512.26969
 20
1192.5
 11
514.26969
 21
1192.5
  0
LINE
  8
DATA
  6
CONTINUOUS
 62
     7
 10
501.76969
 20
1192.5
 11
503.76969
 21
1192.5
  0
LINE
  8
DATA
  6
CONTINUOUS
 62
     7
 10
526.3
 20
1157.5
 11
524.76969
 21
1192.5
  0
LINE
  8
DATA
  6
CONTINUOUS
 62
     7
 10
521.37054
 20
1160.5
 11
522.76969
 21
1192.5
  0
LINE
  8
DATA
  6
CONTINUOUS
 62
     7
 10
530.3
 20
1114.50001
 11
534.8
 21
1114.50001
  0
LINE
  8
SPEC
  6
CONTINUOUS
 62
     7
 10
500.0
 20
1268.75
 11
500.0
 21
1325.0
  0
LINE
  8
DATA
  6
CONTINUOUS
 62
     7
 10
867.0
 20
852.0
 11
867.0
 21
934.0
  0
LINE
  8
DATA
  6
CONTINUOUS
 62
     7
 10
832.0
 20
934.0
 11
832.0
 21
852.0
  0
ARC
  8
DATA
  6
CONTINUOUS
 62
     7
 10
782.0
 20
891.39865
 40
7.0
 50
0.0
 51
90.0
  0
ARC
  8
DATA
  6
CONTINUOUS
 62
     7
 10
782.0
 20
871.39865
 40
7.0
 50
0.0
 51
90.0
  0
ARC
  8
DATA
  6
CONTINUOUS
 62
     7
 10
811.999995
 20
856.855876
 40
7.855876
 50
218.178995
 51
321.821005
  0
LINE
  8
DATA
  6
CONTINUOUS
 62
     7
 10
789.0
 20
871.39865
 11
789.0
 21
869.89865
  0
LINE
  8
DATA
  6
CONTINUOUS
 62
     7
 10
789.0
 20
891.39865
 11
789.0
 21
889.89865
  0
ARC
  8
DATA
  6
CONTINUOUS
 62
     7
 10
811.999995
 20
929.144124
 40
7.855876
 50
38.178995
 51
141.821005
  0
LINE
  8
DATA
  6
CONTINUOUS
 62
     7
 10
789.0
 20
911.39865
 11
789.0
 21
909.89865
  0
ARC
  8
DATA
  6
CONTINUOUS
 62
     7
 10
782.0
 20
911.39865
 40
7.0
 50
0.0
 51
90.0
  0
ENDSEC
  0
EOF
