  0
SECTION
  2
HEADER
  9
$ACADVER
  1
AC1004
  9
$INSBASE
 10
0.0
 20
0.0
  9
$EXTMIN
 10
-49.63
 20
-51.7125
  9
$EXTMAX
 10
1525.37
 20
2175.7875
  9
$LIMMIN
 10
-49.63
 20
-51.7125
  9
$LIMMAX
 10
1525.37
 20
2175.7875
  9
$VIEWCTR
 10
6.0
 20
4.5
  9
$VIEWSIZE
 40
9.0
  9
$SNAPMODE
 70
     0
  9
$SNAPUNIT
 10
6.25
 20
6.25
  9
$SNAPBASE
 10
0.0
 20
0.0
  9
$SNAPANG
 50
0.0
  9
$SNAPSTYLE
 70
     0
  9
$SNAPISOPAIR
 70
     0
  9
$GRIDMODE
 70
     1
  9
$GRIDUNIT
 10
50.0
 20
50.0
  9
$ORTHOMODE
 70
     0
  9
$REGENMODE
 70
     1
  9
$FILLMODE
 70
     1
  9
$QTEXTMODE
 70
     0
  9
$DRAGMODE
 70
     2
  9
$LTSCALE
 40
1.0
  9
$OSMODE
 70
     1
  9
$ATTMODE
 70
     1
  9
$TEXTSIZE
 40
0.2
  9
$TRACEWID
 40
0.05
  9
$TEXTSTYLE
  7
STANDARD
  9
$CLAYER
  8
DATA
  9
$CELTYPE
  6
CONTINUOUS
  9
$CECOLOR
 62
     7
  9
$DIMSCALE
 40
1.0
  9
$DIMASZ
 40
0.18
  9
$DIMEXO
 40
0.0625
  9
$DIMDLI
 40
0.38
  9
$DIMRND
 40
0.0
  9
$DIMDLE
 40
0.0
  9
$DIMEXE
 40
0.18
  9
$DIMTP
 40
0.0
  9
$DIMTM
 40
0.0
  9
$DIMTXT
 40
0.18
  9
$DIMCEN
 40
0.09
  9
$DIMTSZ
 40
0.0
  9
$DIMTOL
 70
     0
  9
$DIMLIM
 70
     0
  9
$DIMTIH
 70
     1
  9
$DIMTOH
 70
     1
  9
$DIMSE1
 70
     0
  9
$DIMSE2
 70
     0
  9
$DIMTAD
 70
     0
  9
$DIMZIN
 70
     0
  9
$DIMBLK
  1

  9
$DIMASO
 70
     1
  9
$DIMSHO
 70
     1
  9
$DIMPOST
  1

  9
$DIMAPOST
  1

  9
$DIMALT
 70
     0
  9
$DIMALTD
 70
     2
  9
$DIMALTF
 40
25.4
  9
$DIMLFAC
 40
1.0
  9
$LUNITS
 70
     2
  9
$LUPREC
 70
     4
  9
$AXISMODE
 70
     0
  9
$AXISUNIT
 10
0.0
 20
0.0
  9
$SKETCHINC
 40
0.1
  9
$FILLETRAD
 40
5.0
  9
$AUNITS
 70
     0
  9
$AUPREC
 70
     0
  9
$MENU
  1
acad
  9
$ELEVATION
 40
0.0
  9
$THICKNESS
 40
0.0
  9
$VIEWDIR
 10
0.0
 20
0.0
 30
1.0
  9
$LIMCHECK
 70
     0
  9
$BLIPMODE
 70
     1
  9
$CHAMFERA
 40
0.0
  9
$CHAMFERB
 40
0.0
  9
$FASTZOOM
 70
     1
  9
$SKPOLY
 70
     0
  9
$TDCREATE
 40
0.0
  9
$TDUPDATE
 40
0.0
  9
$TDINDWG
 40
0.0
  9
$TDUSRTIMER
 40
0.0
  9
$USRTIMER
 70
     1
  9
$ANGBASE
 50
0.0
  9
$ANGDIR
 70
     0
  9
$PDMODE
 70
     0
  9
$PDSIZE
 40
0.0
  9
$PLINEWID
 40
0.0
  9
$COORDS
 70
     1
  9
$SPLFRAME
 70
     0
  9
$SPLINESEGS
 70
    10
  9
$ATTDIA
 70
     0
  9
$ATTREQ
 70
     1
  9
$USERI1
 70
     0
  9
$USERI2
 70
     0
  9
$USERI3
 70
     0
  9
$USERI4
 70
     0
  9
$USERI5
 70
     0
  9
$USERR1
 40
0.0
  9
$USERR2
 40
0.0
  9
$USERR3
 40
0.0
  9
$USERR4
 40
0.0
  9
$USERR5
 40
0.0
  0
ENDSEC
  0
SECTION
  2
TABLES
  0
TABLE
  2
LTYPE
 70
    11
  0
LTYPE
  2
CONTINUOUS
 70
     0
  3
Solid line
 72
    65
 73
     0
 40
0.0
  0
LTYPE
  2
DASHED
 70
     0
  3
__ __ __ __ __ __ __ __ __ __ __ __ __ __ __
 72
    65
 73
     2
 40
0.75
 49
0.5
 49
-0.25
  0
LTYPE
  2
HIDDEN
 70
     0
  3
_ _ _ _ _ _ _ _ _ _ _ _ _ _ _ _ _ _ _ _ _ _ 
 72
    65
 73
     2
 40
0.25
 49
0.125
 49
-0.125
  0
LTYPE
  2
CENTER
 70
     0
  3
____ _ ____ _ ____ _ ____ _ ____ _ ____ _ __
 72
    65
 73
     4
 40
2.0
 49
1.25
 49
-0.25
 49
0.25
 49
-0.25
  0
LTYPE
  2
PHANTOM
 70
     0
  3
_____ _ _ _____ _ _ _____ _ _ _____ _ _ ____
 72
    65
 73
     6
 40
2.5
 49
1.25
 49
-0.25
 49
0.25
 49
-0.25
 49
0.25
 49
-0.25
  0
LTYPE
  2
DOT
 70
     0
  3
............................................
 72
    65
 73
     2
 40
0.25
 49
0.0
 49
-0.25
  0
LTYPE
  2
DASHDOT
 70
     0
  3
__ . __ . __ . __ . __ . __ . __ . __ . __ .
 72
    65
 73
     4
 40
1.0
 49
0.5
 49
-0.25
 49
0.0
 49
-0.25
  0
LTYPE
  2
BORDER
 70
     0
  3
__ __ . __ __ . __ __ . __ __ . __ __ . __ _
 72
    65
 73
     6
 40
1.75
 49
0.5
 49
-0.25
 49
0.5
 49
-0.25
 49
0.0
 49
-0.25
  0
LTYPE
  2
DIVIDE
 70
     0
  3
__ . . __ . . __ . . __ . . __ . . __ . . __
 72
    65
 73
     6
 40
1.25
 49
0.5
 49
-0.25
 49
0.0
 49
-0.25
 49
0.0
 49
-0.25
  0
LTYPE
  2
DOTS
 70
     0
  3
close                                       
 72
    65
 73
     2
 40
0.1
 49
0.05
 49
-0.05
  0
LTYPE
  2
CLOSE
 70
     0
  3
                                            
 72
    65
 73
     0
 40
0.0
  0
ENDTAB
  0
TABLE
  2
LAYER
 70
     6
  0
LAYER
  2
0
 70
     0
 62
     7
  6
CONTINUOUS
  0
LAYER
  2
LAYER01
 70
     0
 62
     7
  6
CONTINUOUS
  0
LAYER
  2
DATA
 70
     0
 62
     7
  6
CONTINUOUS
  0
LAYER
  2
SPEC
 70
     0
 62
     7
  6
CONTINUOUS
  0
LAYER
  2
HIBINO-BASE
 70
     0
 62
     7
  6
CONTINUOUS
  0
LAYER
  2
DIMENSIONS
 70
     0
 62
     7
  6
CONTINUOUS
  0
ENDTAB
  0
TABLE
  2
STYLE
 70
     2
  0
STYLE
  2
STANDARD
 70
     0
 40
0.0
 41
1.0
 50
0.0
 71
     0
 42
0.2
  3
txt
  4

  0
STYLE
  2
TTF_DEFAULT
 70
     0
 40
0.0
 41
1.0
 50
0.0
 71
     0
 42
0.0
  3
txt
  4
BIGFONT
  0
ENDTAB
  0
TABLE
  2
VIEW
 70
     0
  0
ENDTAB
  0
ENDSEC
  0
SECTION
  2
BLOCKS
  0
BLOCK
  8
0
  2
CPS450_B-G1
 70
     0
 10
0.0
 20
0.0
  0
LINE
  8
DATA
  6
CONTINUOUS
 62
     7
 10
467.75
 20
827.0
 11
645.75
 21
827.0
  0
LINE
  8
DATA
  6
CONTINUOUS
 62
     7
 10
467.75
 20
771.0
 11
576.75
 21
771.0
  0
LINE
  8
DATA
  6
CONTINUOUS
 62
     7
 10
467.75
 20
771.0
 11
467.75
 21
827.0
  0
LINE
  8
DATA
  6
CONTINUOUS
 62
     7
 10
645.75
 20
771.0
 11
645.75
 21
827.0
  0
LINE
  8
DATA
  6
CONTINUOUS
 62
     7
 10
589.75
 20
771.0
 11
645.75
 21
771.0
  0
LINE
  8
DATA
  6
CONTINUOUS
 62
     7
 10
576.75
 20
781.0
 11
589.75
 21
781.0
  0
LINE
  8
DATA
  6
CONTINUOUS
 62
     7
 10
576.75
 20
771.0
 11
576.75
 21
781.0
  0
LINE
  8
DATA
  6
CONTINUOUS
 62
     7
 10
589.75
 20
771.0
 11
589.75
 21
781.0
  0
ENDBLK
  8
0
  0
ENDSEC
  0
SECTION
  2
ENTITIES
  0
LINE
  8
DATA
  6
CONTINUOUS
 62
     7
 10
712.5
 20
825.0
 11
800.0
 21
800.0
  0
LINE
  8
SPEC
  6
CONTINUOUS
 62
     7
 10
131.25
 20
1959.375
 11
900.0
 21
1959.375
  0
LINE
  8
SPEC
  6
CONTINUOUS
 62
     7
 10
131.25
 20
1987.5
 11
900.0
 21
1987.5
  0
LINE
  8
SPEC
  6
CONTINUOUS
 62
     7
 10
131.25
 20
1931.25
 11
900.0
 21
1931.25
  0
LINE
  8
SPEC
  6
CONTINUOUS
 62
     7
 10
131.25
 20
1903.125
 11
900.0
 21
1903.125
  0
POLYLINE
  8
HIBINO-BASE
  6
CONTINUOUS
 62
     7
 66
     1
 70
     1
 40
2.0
 41
2.0
  0
VERTEX
  8
HIBINO-BASE
 10
75.0
 20
112.5
  0
VERTEX
  8
HIBINO-BASE
 10
75.0
 20
2062.5
  0
VERTEX
  8
HIBINO-BASE
 10
1425.0
 20
2062.5
  0
VERTEX
  8
HIBINO-BASE
 10
1425.0
 20
112.5
  0
SEQEND
  8
HIBINO-BASE
  0
LINE
  8
DATA
  6
CONTINUOUS
 62
     7
 10
249.0
 20
750.0
 11
733.0
 21
750.0
  0
LINE
  8
DATA
  6
CONTINUOUS
 62
     7
 10
250.0
 20
639.0
 11
733.0
 21
639.0
  0
LINE
  8
DATA
  6
CONTINUOUS
 62
     7
 10
250.0
 20
550.0
 11
733.0
 21
550.0
  0
LINE
  8
DATA
  6
CONTINUOUS
 62
     7
 10
249.0
 20
753.0
 11
733.0
 21
753.0
  0
LINE
  8
DATA
  6
CONTINUOUS
 62
     7
 10
343.81673
 20
546.0
 11
364.74727
 21
546.0
  0
TEXT
  8
DATA
  6
CONTINUOUS
 62
     7
 10
300.0
 20
591.0
 40
18.0
  1
Soundcraft
  7
TTF_DEFAULT
  0
LINE
  8
DATA
  6
CONTINUOUS
 62
     7
 10
278.5
 20
1055.0
 11
703.5
 21
1055.0
  0
LINE
  8
DATA
  6
CONTINUOUS
 62
     7
 10
309.25
 20
1057.5
 11
674.25
 21
1057.5
  0
LINE
  8
DIMENSIONS
  6
CONTINUOUS
 62
     7
 10
250.0
 20
675.0
 11
733.0
 21
675.0
  0
TEXT
  8
DATA
  6
CONTINUOUS
 62
     7
 10
300.0
 20
584.0
 40
5.0
  1
CONSOLE POWER SUPPLY CPS 
  7
TTF_DEFAULT
  0
TEXT
  8
HIBINO-BASE
  6
CONTINUOUS
 62
     7
 10
128.88
 20
64.4349
 40
30.0
  1
Hibino Corporation
  7
TTF_DEFAULT
  0
LINE
  8
DATA
  6
CONTINUOUS
 62
     7
 10
278.5
 20
753.0
 11
278.5
 21
1055.0
  0
LINE
  8
DATA
  6
CONTINUOUS
 62
     7
 10
319.25
 20
753.0
 11
319.25
 21
1055.0
  0
LINE
  8
DIMENSIONS
  6
CONTINUOUS
 62
     7
 10
200.0
 20
1055.0
 11
200.0
 21
750.0
  0
LINE
  8
DATA
  6
CONTINUOUS
 62
     7
 10
250.0
 20
550.0
 11
250.0
 21
639.0
  0
LINE
  8
DATA
  6
CONTINUOUS
 62
     7
 10
342.92829
 20
550.0
 11
343.81673
 21
546.0
  0
LINE
  8
DATA
  6
CONTINUOUS
 62
     7
 10
258.03844
 20
553.9
 11
264.03844
 21
553.9
  0
LINE
  8
DATA
  6
CONTINUOUS
 62
     7
 10
264.03844
 20
558.9
 11
258.03844
 21
558.9
  0
LINE
  8
DATA
  6
CONTINUOUS
 62
     7
 10
258.03844
 20
630.1
 11
264.03844
 21
630.1
  0
LINE
  8
DATA
  6
CONTINUOUS
 62
     7
 10
264.03844
 20
635.1
 11
258.03844
 21
635.1
  0
ARC
  8
DATA
  6
CONTINUOUS
 62
     7
 10
258.03844
 20
556.4
 40
2.5
 50
90.0
 51
270.0
  0
ARC
  8
DATA
  6
CONTINUOUS
 62
     7
 10
258.03844
 20
632.6
 40
2.5
 50
90.0
 51
270.0
  0
LINE
  8
DATA
  6
CONTINUOUS
 62
     7
 10
249.0
 20
750.0
 11
249.0
 21
753.0
  0
ARC
  8
DATA
  6
CONTINUOUS
 62
     7
 10
264.03844
 20
556.4
 40
2.5
 50
270.0
 51
90.0
  0
ARC
  8
DATA
  6
CONTINUOUS
 62
     7
 10
264.03844
 20
632.6
 40
2.5
 50
270.0
 51
90.0
  0
CIRCLE
  8
DATA
  6
CONTINUOUS
 62
     7
 10
288.0
 20
627.0
 40
4.0
  0
LINE
  8
DATA
  6
CONTINUOUS
 62
     7
 10
285.5
 20
627.0
 11
290.5
 21
627.0
  0
LINE
  8
DATA
  6
CONTINUOUS
 62
     7
 10
288.0
 20
624.5
 11
288.0
 21
629.5
  0
CIRCLE
  8
DATA
  6
CONTINUOUS
 62
     7
 10
288.0
 20
566.5
 40
4.0
  0
LINE
  8
DATA
  6
CONTINUOUS
 62
     7
 10
285.5
 20
566.5
 11
290.5
 21
566.5
  0
LINE
  8
DATA
  6
CONTINUOUS
 62
     7
 10
288.0
 20
564.0
 11
288.0
 21
569.0
  0
CIRCLE
  8
DATA
  6
CONTINUOUS
 62
     7
 10
288.0
 20
627.0
 40
4.5
  0
CIRCLE
  8
DATA
  6
CONTINUOUS
 62
     7
 10
288.0
 20
566.5
 40
4.5
  0
ARC
  8
DATA
  6
CONTINUOUS
 62
     7
 10
287.673065
 20
749.99999
 40
2.0
 50
180.0
 51
270.0
  0
LINE
  8
DATA
  6
CONTINUOUS
 62
     7
 10
289.826935
 20
747.99999
 11
287.673065
 21
747.99999
  0
ARC
  8
DATA
  6
CONTINUOUS
 62
     7
 10
289.826935
 20
749.99999
 40
2.0
 50
270.0
 51
0.0
  0
LINE
  8
DIMENSIONS
  6
CONTINUOUS
 62
     7
 10
231.25
 20
639.0
 11
231.25
 21
669.0
  0
LINE
  8
DIMENSIONS
  6
CONTINUOUS
 62
     7
 10
233.7499
 20
654.0
 11
231.25
 21
639.0
  0
LINE
  8
DIMENSIONS
  6
CONTINUOUS
 62
     7
 10
228.7501
 20
654.0
 11
231.25
 21
639.0
  0
LINE
  8
DIMENSIONS
  6
CONTINUOUS
 62
     7
 10
231.25
 20
632.6
 11
231.25
 21
556.4
  0
LINE
  8
DIMENSIONS
  6
CONTINUOUS
 62
     7
 10
248.03844
 20
632.6
 11
221.875
 21
632.6
  0
LINE
  8
DIMENSIONS
  6
CONTINUOUS
 62
     7
 10
248.03844
 20
556.4
 11
221.875
 21
556.4
  0
LINE
  8
DIMENSIONS
  6
CONTINUOUS
 62
     7
 10
228.7501
 20
617.6
 11
231.25
 21
632.6
  0
LINE
  8
DIMENSIONS
  6
CONTINUOUS
 62
     7
 10
233.7499
 20
617.6
 11
231.25
 21
632.6
  0
LINE
  8
DIMENSIONS
  6
CONTINUOUS
 62
     7
 10
228.7501
 20
571.4
 11
231.25
 21
556.4
  0
LINE
  8
DIMENSIONS
  6
CONTINUOUS
 62
     7
 10
233.7499
 20
571.4
 11
231.25
 21
556.4
  0
LINE
  8
DIMENSIONS
  6
CONTINUOUS
 62
     7
 10
200.0
 20
550.0
 11
200.0
 21
580.0
  0
LINE
  8
DIMENSIONS
  6
CONTINUOUS
 62
     7
 10
200.0
 20
546.0
 11
200.0
 21
516.0
  0
LINE
  8
DIMENSIONS
  6
CONTINUOUS
 62
     7
 10
336.31673
 20
546.0
 11
190.625
 21
546.0
  0
LINE
  8
DIMENSIONS
  6
CONTINUOUS
 62
     7
 10
197.5001
 20
531.0
 11
200.0
 21
546.0
  0
LINE
  8
DIMENSIONS
  6
CONTINUOUS
 62
     7
 10
202.4999
 20
531.0
 11
200.0
 21
546.0
  0
LINE
  8
DIMENSIONS
  6
CONTINUOUS
 62
     7
 10
250.0
 20
646.5
 11
250.0
 21
684.375
  0
LINE
  8
DIMENSIONS
  6
CONTINUOUS
 62
     7
 10
265.0
 20
672.5001
 11
250.0
 21
675.0
  0
LINE
  8
DIMENSIONS
  6
CONTINUOUS
 62
     7
 10
265.0
 20
677.4999
 11
250.0
 21
675.0
  0
LINE
  8
DIMENSIONS
  6
CONTINUOUS
 62
     7
 10
200.0
 20
639.0
 11
200.0
 21
550.0
  0
LINE
  8
DIMENSIONS
  6
CONTINUOUS
 62
     7
 10
242.5
 20
639.0
 11
190.625
 21
639.0
  0
LINE
  8
DIMENSIONS
  6
CONTINUOUS
 62
     7
 10
242.5
 20
550.0
 11
190.625
 21
550.0
  0
LINE
  8
DIMENSIONS
  6
CONTINUOUS
 62
     7
 10
197.5001
 20
624.0
 11
200.0
 21
639.0
  0
LINE
  8
DIMENSIONS
  6
CONTINUOUS
 62
     7
 10
202.4999
 20
624.0
 11
200.0
 21
639.0
  0
LINE
  8
DIMENSIONS
  6
CONTINUOUS
 62
     7
 10
197.5001
 20
565.0
 11
200.0
 21
550.0
  0
LINE
  8
DIMENSIONS
  6
CONTINUOUS
 62
     7
 10
202.4999
 20
565.0
 11
200.0
 21
550.0
  0
LINE
  8
DIMENSIONS
  6
CONTINUOUS
 62
     7
 10
241.5
 20
750.0
 11
190.625
 21
750.0
  0
LINE
  8
DIMENSIONS
  6
CONTINUOUS
 62
     7
 10
197.5001
 20
765.0
 11
200.0
 21
750.0
  0
LINE
  8
DIMENSIONS
  6
CONTINUOUS
 62
     7
 10
202.4999
 20
765.0
 11
200.0
 21
750.0
  0
TEXT
  8
DIMENSIONS
  6
CONTINUOUS
 62
     7
 10
221.875
 20
678.375
 40
18.75
  1
6.4
 50
90.0
  7
TTF_DEFAULT
  0
TEXT
  8
DIMENSIONS
  6
CONTINUOUS
 62
     7
 10
221.875
 20
577.115936
 40
18.75
  1
76.2
 50
90.0
  7
TTF_DEFAULT
  0
TEXT
  8
DIMENSIONS
  6
CONTINUOUS
 62
     7
 10
190.625
 20
584.27408
 40
18.75
  1
89
 50
90.0
  7
TTF_DEFAULT
  0
TEXT
  8
DIMENSIONS
  6
CONTINUOUS
 62
     7
 10
190.625
 20
514.375
 40
18.75
  1
4
 50
90.0
  7
TTF_DEFAULT
  0
LINE
  8
DATA
  6
CONTINUOUS
 62
     7
 10
309.25
 20
1057.5
 11
309.25
 21
1055.0
  0
ARC
  8
DATA
  6
CONTINUOUS
 62
     7
 10
315.326935
 20
1057.5
 40
2.0
 50
0.0
 51
90.0
  0
LINE
  8
DATA
  6
CONTINUOUS
 62
     7
 10
313.173065
 20
1059.5
 11
315.326935
 21
1059.5
  0
ARC
  8
DATA
  6
CONTINUOUS
 62
     7
 10
313.173065
 20
1057.5
 40
2.0
 50
90.0
 51
180.0
  0
LINE
  8
DIMENSIONS
  6
CONTINUOUS
 62
     7
 10
271.0
 20
1055.0
 11
190.625
 21
1055.0
  0
LINE
  8
DIMENSIONS
  6
CONTINUOUS
 62
     7
 10
197.5001
 20
1040.0
 11
200.0
 21
1055.0
  0
LINE
  8
DIMENSIONS
  6
CONTINUOUS
 62
     7
 10
202.4999
 20
1040.0
 11
200.0
 21
1055.0
  0
TEXT
  8
DIMENSIONS
  6
CONTINUOUS
 62
     7
 10
190.625
 20
887.518936
 40
18.75
  1
305
 50
90.0
  7
TTF_DEFAULT
  0
TEXT
  8
DIMENSIONS
  6
CONTINUOUS
 62
     7
 10
637.5
 20
196.875
 40
18.75
  1
(単位 : mm)
  7
TTF_DEFAULT
  0
INSERT
  8
DATA
  2
CPS450_B-G1
 10
0.0
 20
0.0
  0
TEXT
  8
DATA
  6
CONTINUOUS
 62
     7
 10
525.394174
 20
802.25
 40
4.0
  1
(TYPICAL COUNTRY SETTINGS INDICATED)
  7
TTF_DEFAULT
  0
TEXT
  8
DATA
  6
CONTINUOUS
 62
     7
 10
538.25
 20
806.25
 40
4.0
  1
MAINS VOLTAGE SELECTION
  7
TTF_DEFAULT
  0
LINE
  8
DATA
  6
CONTINUOUS
 62
     7
 10
531.25
 20
884.5
 11
569.25
 21
884.5
  0
LINE
  8
DATA
  6
CONTINUOUS
 62
     7
 10
531.25
 20
879.5
 11
569.25
 21
879.5
  0
LINE
  8
DATA
  6
CONTINUOUS
 62
     7
 10
531.25
 20
876.5
 11
569.25
 21
876.5
  0
LINE
  8
DATA
  6
CONTINUOUS
 62
     7
 10
531.25
 20
871.5
 11
569.25
 21
871.5
  0
LINE
  8
DATA
  6
CONTINUOUS
 62
     7
 10
531.25
 20
868.5
 11
569.25
 21
868.5
  0
TEXT
  8
DATA
  6
CONTINUOUS
 62
     7
 10
539.25
 20
821.5
 40
4.0
  1
220V
  7
TTF_DEFAULT
  0
TEXT
  8
DATA
  6
CONTINUOUS
 62
     7
 10
540.25
 20
817.5
 40
4.0
  1
EUR.
  7
TTF_DEFAULT
  0
LINE
  8
DATA
  6
CONTINUOUS
 62
     7
 10
531.25
 20
996.5
 11
569.25
 21
996.5
  0
LINE
  8
DATA
  6
CONTINUOUS
 62
     7
 10
531.25
 20
991.5
 11
569.25
 21
991.5
  0
LINE
  8
DATA
  6
CONTINUOUS
 62
     7
 10
531.25
 20
988.5
 11
569.25
 21
988.5
  0
LINE
  8
DATA
  6
CONTINUOUS
 62
     7
 10
531.25
 20
983.5
 11
569.25
 21
983.5
  0
LINE
  8
DATA
  6
CONTINUOUS
 62
     7
 10
531.25
 20
980.5
 11
569.25
 21
980.5
  0
LINE
  8
DATA
  6
CONTINUOUS
 62
     7
 10
531.25
 20
975.5
 11
569.25
 21
975.5
  0
LINE
  8
DATA
  6
CONTINUOUS
 62
     7
 10
531.25
 20
972.5
 11
569.25
 21
972.5
  0
LINE
  8
DATA
  6
CONTINUOUS
 62
     7
 10
531.25
 20
967.5
 11
569.25
 21
967.5
  0
LINE
  8
DATA
  6
CONTINUOUS
 62
     7
 10
531.25
 20
964.5
 11
569.25
 21
964.5
  0
LINE
  8
DATA
  6
CONTINUOUS
 62
     7
 10
531.25
 20
959.5
 11
569.25
 21
959.5
  0
LINE
  8
DATA
  6
CONTINUOUS
 62
     7
 10
531.25
 20
956.5
 11
569.25
 21
956.5
  0
LINE
  8
DATA
  6
CONTINUOUS
 62
     7
 10
531.25
 20
951.5
 11
569.25
 21
951.5
  0
LINE
  8
DATA
  6
CONTINUOUS
 62
     7
 10
531.25
 20
948.5
 11
569.25
 21
948.5
  0
LINE
  8
DATA
  6
CONTINUOUS
 62
     7
 10
531.25
 20
943.5
 11
569.25
 21
943.5
  0
LINE
  8
DATA
  6
CONTINUOUS
 62
     7
 10
531.25
 20
940.5
 11
569.25
 21
940.5
  0
LINE
  8
DATA
  6
CONTINUOUS
 62
     7
 10
531.25
 20
935.5
 11
569.25
 21
935.5
  0
LINE
  8
DATA
  6
CONTINUOUS
 62
     7
 10
531.25
 20
932.5
 11
569.25
 21
932.5
  0
LINE
  8
DATA
  6
CONTINUOUS
 62
     7
 10
531.25
 20
927.5
 11
569.25
 21
927.5
  0
LINE
  8
DATA
  6
CONTINUOUS
 62
     7
 10
531.25
 20
924.5
 11
569.25
 21
924.5
  0
LINE
  8
DATA
  6
CONTINUOUS
 62
     7
 10
531.25
 20
919.5
 11
569.25
 21
919.5
  0
LINE
  8
DATA
  6
CONTINUOUS
 62
     7
 10
531.25
 20
916.5
 11
569.25
 21
916.5
  0
LINE
  8
DATA
  6
CONTINUOUS
 62
     7
 10
531.25
 20
911.5
 11
569.25
 21
911.5
  0
LINE
  8
DATA
  6
CONTINUOUS
 62
     7
 10
531.25
 20
908.5
 11
569.25
 21
908.5
  0
LINE
  8
DATA
  6
CONTINUOUS
 62
     7
 10
531.25
 20
903.5
 11
569.25
 21
903.5
  0
LINE
  8
DATA
  6
CONTINUOUS
 62
     7
 10
531.25
 20
900.5
 11
569.25
 21
900.5
  0
LINE
  8
DATA
  6
CONTINUOUS
 62
     7
 10
531.25
 20
895.5
 11
569.25
 21
895.5
  0
LINE
  8
DATA
  6
CONTINUOUS
 62
     7
 10
531.25
 20
892.5
 11
569.25
 21
892.5
  0
LINE
  8
DATA
  6
CONTINUOUS
 62
     7
 10
531.25
 20
887.5
 11
569.25
 21
887.5
  0
LINE
  8
DATA
  6
CONTINUOUS
 62
     7
 10
531.25
 20
1031.5
 11
569.25
 21
1031.5
  0
LINE
  8
DATA
  6
CONTINUOUS
 62
     7
 10
531.25
 20
1028.5
 11
569.25
 21
1028.5
  0
LINE
  8
DATA
  6
CONTINUOUS
 62
     7
 10
531.25
 20
1023.5
 11
569.25
 21
1023.5
  0
LINE
  8
DATA
  6
CONTINUOUS
 62
     7
 10
531.25
 20
1020.5
 11
569.25
 21
1020.5
  0
LINE
  8
DATA
  6
CONTINUOUS
 62
     7
 10
531.25
 20
1015.5
 11
569.25
 21
1015.5
  0
LINE
  8
DATA
  6
CONTINUOUS
 62
     7
 10
531.25
 20
1012.5
 11
569.25
 21
1012.5
  0
LINE
  8
DATA
  6
CONTINUOUS
 62
     7
 10
531.25
 20
1007.5
 11
569.25
 21
1007.5
  0
LINE
  8
DATA
  6
CONTINUOUS
 62
     7
 10
531.25
 20
1004.5
 11
569.25
 21
1004.5
  0
LINE
  8
DATA
  6
CONTINUOUS
 62
     7
 10
531.25
 20
999.5
 11
569.25
 21
999.5
  0
TEXT
  8
DATA
  6
CONTINUOUS
 62
     7
 10
461.253951
 20
561.0
 40
5.0
  1
220V/240V USE T3.15A/250V
  7
TTF_DEFAULT
  0
TEXT
  8
DATA
  6
CONTINUOUS
 62
     7
 10
462.467724
 20
556.0
 40
5.0
  1
100V/120V USE T6.3A/250V
  7
TTF_DEFAULT
  0
TEXT
  8
DATA
  6
CONTINUOUS
 62
     7
 10
526.75
 20
771.0
 40
4.0
  1
200V
  7
TTF_DEFAULT
  0
TEXT
  8
DATA
  6
CONTINUOUS
 62
     7
 10
526.25
 20
821.5
 40
4.0
  1
240V
  7
TTF_DEFAULT
  0
CIRCLE
  8
DATA
  6
DOTS
 62
     7
 10
527.25
 20
789.0
 40
6.0
  0
LINE
  8
DATA
  6
CONTINUOUS
 62
     7
 10
365.6357
 20
550.0
 11
364.74727
 21
546.0
  0
TEXT
  8
DATA
  6
CONTINUOUS
 62
     7
 10
367.239755
 20
584.0
 40
5.0
  1
CPS 450/B
  7
TTF_DEFAULT
  0
ARC
  8
DATA
  6
CONTINUOUS
 62
     7
 10
391.25
 20
765.5
 40
2.61447
 50
94.387259
 51
175.612741
  0
ARC
  8
DATA
  6
CONTINUOUS
 62
     7
 10
391.25
 20
765.5
 40
2.61447
 50
4.387259
 51
85.612741
  0
ARC
  8
DATA
  6
CONTINUOUS
 62
     7
 10
391.25
 20
765.5
 40
2.61447
 50
94.387259
 51
175.612741
  0
ARC
  8
DATA
  6
CONTINUOUS
 62
     7
 10
391.25
 20
765.5
 40
2.61447
 50
4.387259
 51
85.612741
  0
CIRCLE
  8
DATA
  6
CONTINUOUS
 62
     7
 10
391.25
 20
765.5
 40
2.61447
  0
LINE
  8
DATA
  6
CONTINUOUS
 62
     7
 10
389.75
 20
765.5
 11
392.75
 21
765.5
  0
LINE
  8
DATA
  6
CONTINUOUS
 62
     7
 10
391.25
 20
764.0
 11
391.25
 21
767.0
  0
CIRCLE
  8
DATA
  6
CONTINUOUS
 62
     7
 10
391.25
 20
765.5
 40
3.0
  0
LINE
  8
DATA
  6
CONTINUOUS
 62
     7
 10
478.0
 20
624.0
 11
505.5
 21
624.0
  0
LINE
  8
DATA
  6
CONTINUOUS
 62
     7
 10
478.0
 20
592.5
 11
505.5
 21
592.5
  0
LINE
  8
DATA
  6
CONTINUOUS
 62
     7
 10
478.0
 20
592.5
 11
478.0
 21
624.0
  0
LINE
  8
DATA
  6
CONTINUOUS
 62
     7
 10
505.5
 20
624.0
 11
505.5
 21
592.5
  0
LINE
  8
DATA
  6
CONTINUOUS
 62
     7
 10
479.5
 20
623.25
 11
505.5
 21
623.25
  0
LINE
  8
DATA
  6
CONTINUOUS
 62
     7
 10
479.5
 20
623.25
 11
479.5
 21
593.25
  0
LINE
  8
DATA
  6
CONTINUOUS
 62
     7
 10
479.5
 20
593.25
 11
505.5
 21
593.25
  0
LINE
  8
DATA
  6
CONTINUOUS
 62
     7
 10
482.5
 20
612.75
 11
502.5
 21
612.75
  0
LINE
  8
DATA
  6
CONTINUOUS
 62
     7
 10
482.5
 20
607.25
 11
502.5
 21
607.25
  0
CIRCLE
  8
DATA
  6
CONTINUOUS
 62
     7
 10
491.75
 20
579.0
 40
8.0
  0
LINE
  8
DATA
  6
CONTINUOUS
 62
     7
 10
495.255204
 20
581.298097
 11
489.951903
 21
575.994796
  0
LINE
  8
DATA
  6
CONTINUOUS
 62
     7
 10
494.548097
 20
582.005204
 11
495.255204
 21
581.298097
  0
LINE
  8
DATA
  6
CONTINUOUS
 62
     7
 10
489.244796
 20
576.701903
 11
494.548097
 21
582.005204
  0
LINE
  8
DATA
  6
CONTINUOUS
 62
     7
 10
489.951903
 20
575.994796
 11
489.244796
 21
576.701903
  0
CIRCLE
  8
DATA
  6
CONTINUOUS
 62
     7
 10
492.25
 20
579.0
 40
5.75
  0
CIRCLE
  8
DATA
  6
CONTINUOUS
 62
     7
 10
492.25
 20
579.0
 40
7.5
  0
TEXT
  8
DATA
  6
CONTINUOUS
 62
     7
 10
474.072454
 20
596.25
 40
5.0
  1
0
  7
TTF_DEFAULT
  0
TEXT
  8
DATA
  6
CONTINUOUS
 62
     7
 10
474.072454
 20
616.25
 40
5.0
  1
1
  7
TTF_DEFAULT
  0
TEXT
  8
DATA
  6
CONTINUOUS
 62
     7
 10
508.5
 20
596.25
 40
5.0
  1
OFF
  7
TTF_DEFAULT
  0
TEXT
  8
DATA
  6
CONTINUOUS
 62
     7
 10
508.5
 20
605.25
 40
5.0
  1
POWER
  7
TTF_DEFAULT
  0
TEXT
  8
DATA
  6
CONTINUOUS
 62
     7
 10
508.5
 20
616.25
 40
5.0
  1
ON
  7
TTF_DEFAULT
  0
TEXT
  8
DATA
  6
CONTINUOUS
 62
     7
 10
479.460548
 20
566.0
 40
5.0
  1
MAINS FUSE
  7
TTF_DEFAULT
  0
LINE
  8
DATA
  6
CONTINUOUS
 62
     7
 10
482.5
 20
747.53157
 11
482.5
 21
750.0
  0
LINE
  8
DATA
  6
CONTINUOUS
 62
     7
 10
502.5
 20
747.53157
 11
502.5
 21
750.0
  0
LINE
  8
DATA
  6
CONTINUOUS
 62
     7
 10
482.5
 20
747.53157
 11
502.5
 21
747.53157
  0
LINE
  8
DATA
  6
DOTS
 62
     7
 10
524.852084
 20
783.5
 11
529.647916
 21
783.5
  0
TEXT
  8
DIMENSIONS
  6
CONTINUOUS
 62
     7
 10
476.16112
 20
684.375
 40
18.75
  1
483
  7
TTF_DEFAULT
  0
LINE
  8
DATA
  6
CONTINUOUS
 62
     7
 10
482.5
 20
598.25
 11
482.5
 21
618.25
  0
LINE
  8
DATA
  6
CONTINUOUS
 62
     7
 10
482.5
 20
618.25
 11
502.5
 21
618.25
  0
LINE
  8
DATA
  6
CONTINUOUS
 62
     7
 10
502.5
 20
618.25
 11
502.5
 21
598.25
  0
LINE
  8
DATA
  6
CONTINUOUS
 62
     7
 10
502.5
 20
598.25
 11
482.5
 21
598.25
  0
LINE
  8
DATA
  6
CONTINUOUS
 62
     7
 10
411.75
 20
1031.5
 11
449.75
 21
1031.5
  0
LINE
  8
DATA
  6
CONTINUOUS
 62
     7
 10
411.75
 20
1028.5
 11
449.75
 21
1028.5
  0
LINE
  8
DATA
  6
CONTINUOUS
 62
     7
 10
411.75
 20
836.5
 11
449.75
 21
836.5
  0
LINE
  8
DATA
  6
CONTINUOUS
 62
     7
 10
411.75
 20
839.5
 11
449.75
 21
839.5
  0
LINE
  8
DATA
  6
CONTINUOUS
 62
     7
 10
411.75
 20
1023.5
 11
449.75
 21
1023.5
  0
LINE
  8
DATA
  6
CONTINUOUS
 62
     7
 10
411.75
 20
1020.5
 11
449.75
 21
1020.5
  0
LINE
  8
DATA
  6
CONTINUOUS
 62
     7
 10
411.75
 20
1015.5
 11
449.75
 21
1015.5
  0
LINE
  8
DATA
  6
CONTINUOUS
 62
     7
 10
411.75
 20
1012.5
 11
449.75
 21
1012.5
  0
LINE
  8
DATA
  6
CONTINUOUS
 62
     7
 10
411.75
 20
1007.5
 11
449.75
 21
1007.5
  0
LINE
  8
DATA
  6
CONTINUOUS
 62
     7
 10
411.75
 20
1004.5
 11
449.75
 21
1004.5
  0
LINE
  8
DATA
  6
CONTINUOUS
 62
     7
 10
411.75
 20
999.5
 11
449.75
 21
999.5
  0
LINE
  8
DATA
  6
CONTINUOUS
 62
     7
 10
411.75
 20
996.5
 11
449.75
 21
996.5
  0
LINE
  8
DATA
  6
CONTINUOUS
 62
     7
 10
411.75
 20
991.5
 11
449.75
 21
991.5
  0
LINE
  8
DATA
  6
CONTINUOUS
 62
     7
 10
411.75
 20
988.5
 11
449.75
 21
988.5
  0
LINE
  8
DATA
  6
CONTINUOUS
 62
     7
 10
411.75
 20
983.5
 11
449.75
 21
983.5
  0
LINE
  8
DATA
  6
CONTINUOUS
 62
     7
 10
411.75
 20
980.5
 11
449.75
 21
980.5
  0
LINE
  8
DATA
  6
CONTINUOUS
 62
     7
 10
411.75
 20
975.5
 11
449.75
 21
975.5
  0
LINE
  8
DATA
  6
CONTINUOUS
 62
     7
 10
411.75
 20
972.5
 11
449.75
 21
972.5
  0
LINE
  8
DATA
  6
CONTINUOUS
 62
     7
 10
411.75
 20
967.5
 11
449.75
 21
967.5
  0
LINE
  8
DATA
  6
CONTINUOUS
 62
     7
 10
411.75
 20
964.5
 11
449.75
 21
964.5
  0
LINE
  8
DATA
  6
CONTINUOUS
 62
     7
 10
411.75
 20
959.5
 11
449.75
 21
959.5
  0
LINE
  8
DATA
  6
CONTINUOUS
 62
     7
 10
411.75
 20
956.5
 11
449.75
 21
956.5
  0
LINE
  8
DATA
  6
CONTINUOUS
 62
     7
 10
411.75
 20
951.5
 11
449.75
 21
951.5
  0
LINE
  8
DATA
  6
CONTINUOUS
 62
     7
 10
411.75
 20
948.5
 11
449.75
 21
948.5
  0
LINE
  8
DATA
  6
CONTINUOUS
 62
     7
 10
411.75
 20
943.5
 11
449.75
 21
943.5
  0
LINE
  8
DATA
  6
CONTINUOUS
 62
     7
 10
411.75
 20
940.5
 11
449.75
 21
940.5
  0
LINE
  8
DATA
  6
CONTINUOUS
 62
     7
 10
411.75
 20
935.5
 11
449.75
 21
935.5
  0
LINE
  8
DATA
  6
CONTINUOUS
 62
     7
 10
411.75
 20
932.5
 11
449.75
 21
932.5
  0
LINE
  8
DATA
  6
CONTINUOUS
 62
     7
 10
411.75
 20
927.5
 11
449.75
 21
927.5
  0
LINE
  8
DATA
  6
CONTINUOUS
 62
     7
 10
411.75
 20
924.5
 11
449.75
 21
924.5
  0
LINE
  8
DATA
  6
CONTINUOUS
 62
     7
 10
411.75
 20
919.5
 11
449.75
 21
919.5
  0
LINE
  8
DATA
  6
CONTINUOUS
 62
     7
 10
411.75
 20
916.5
 11
449.75
 21
916.5
  0
LINE
  8
DATA
  6
CONTINUOUS
 62
     7
 10
411.75
 20
911.5
 11
449.75
 21
911.5
  0
LINE
  8
DATA
  6
CONTINUOUS
 62
     7
 10
411.75
 20
908.5
 11
449.75
 21
908.5
  0
LINE
  8
DATA
  6
CONTINUOUS
 62
     7
 10
411.75
 20
903.5
 11
449.75
 21
903.5
  0
LINE
  8
DATA
  6
CONTINUOUS
 62
     7
 10
411.75
 20
900.5
 11
449.75
 21
900.5
  0
LINE
  8
DATA
  6
CONTINUOUS
 62
     7
 10
411.75
 20
895.5
 11
449.75
 21
895.5
  0
LINE
  8
DATA
  6
CONTINUOUS
 62
     7
 10
411.75
 20
892.5
 11
449.75
 21
892.5
  0
LINE
  8
DATA
  6
CONTINUOUS
 62
     7
 10
411.75
 20
887.5
 11
449.75
 21
887.5
  0
LINE
  8
DATA
  6
CONTINUOUS
 62
     7
 10
411.75
 20
884.5
 11
449.75
 21
884.5
  0
LINE
  8
DATA
  6
CONTINUOUS
 62
     7
 10
411.75
 20
879.5
 11
449.75
 21
879.5
  0
LINE
  8
DATA
  6
CONTINUOUS
 62
     7
 10
411.75
 20
876.5
 11
449.75
 21
876.5
  0
LINE
  8
DATA
  6
CONTINUOUS
 62
     7
 10
411.75
 20
871.5
 11
449.75
 21
871.5
  0
LINE
  8
DATA
  6
CONTINUOUS
 62
     7
 10
411.75
 20
868.5
 11
449.75
 21
868.5
  0
LINE
  8
DATA
  6
CONTINUOUS
 62
     7
 10
411.75
 20
863.5
 11
449.75
 21
863.5
  0
LINE
  8
DATA
  6
CONTINUOUS
 62
     7
 10
411.75
 20
860.5
 11
449.75
 21
860.5
  0
LINE
  8
DATA
  6
CONTINUOUS
 62
     7
 10
411.75
 20
855.5
 11
449.75
 21
855.5
  0
LINE
  8
DATA
  6
CONTINUOUS
 62
     7
 10
411.75
 20
852.5
 11
449.75
 21
852.5
  0
LINE
  8
DATA
  6
CONTINUOUS
 62
     7
 10
411.75
 20
847.5
 11
449.75
 21
847.5
  0
LINE
  8
DATA
  6
CONTINUOUS
 62
     7
 10
411.75
 20
844.5
 11
449.75
 21
844.5
  0
LINE
  8
DATA
  6
CONTINUOUS
 62
     7
 10
411.75
 20
996.5
 11
411.75
 21
999.5
  0
LINE
  8
DATA
  6
CONTINUOUS
 62
     7
 10
411.75
 20
884.5
 11
411.75
 21
887.5
  0
LINE
  8
DATA
  6
CONTINUOUS
 62
     7
 10
411.75
 20
876.5
 11
411.75
 21
879.5
  0
LINE
  8
DATA
  6
CONTINUOUS
 62
     7
 10
411.75
 20
868.5
 11
411.75
 21
871.5
  0
LINE
  8
DATA
  6
CONTINUOUS
 62
     7
 10
411.75
 20
860.5
 11
411.75
 21
863.5
  0
LINE
  8
DATA
  6
CONTINUOUS
 62
     7
 10
411.75
 20
852.5
 11
411.75
 21
855.5
  0
LINE
  8
DATA
  6
CONTINUOUS
 62
     7
 10
411.75
 20
844.5
 11
411.75
 21
847.5
  0
LINE
  8
DATA
  6
CONTINUOUS
 62
     7
 10
411.75
 20
836.5
 11
411.75
 21
839.5
  0
LINE
  8
DATA
  6
CONTINUOUS
 62
     7
 10
411.75
 20
988.5
 11
411.75
 21
991.5
  0
LINE
  8
DATA
  6
CONTINUOUS
 62
     7
 10
411.75
 20
980.5
 11
411.75
 21
983.5
  0
LINE
  8
DATA
  6
CONTINUOUS
 62
     7
 10
411.75
 20
972.5
 11
411.75
 21
975.5
  0
LINE
  8
DATA
  6
CONTINUOUS
 62
     7
 10
411.75
 20
964.5
 11
411.75
 21
967.5
  0
LINE
  8
DATA
  6
CONTINUOUS
 62
     7
 10
411.75
 20
956.5
 11
411.75
 21
959.5
  0
LINE
  8
DATA
  6
CONTINUOUS
 62
     7
 10
411.75
 20
948.5
 11
411.75
 21
951.5
  0
LINE
  8
DATA
  6
CONTINUOUS
 62
     7
 10
411.75
 20
940.5
 11
411.75
 21
943.5
  0
LINE
  8
DATA
  6
CONTINUOUS
 62
     7
 10
411.75
 20
932.5
 11
411.75
 21
935.5
  0
LINE
  8
DATA
  6
CONTINUOUS
 62
     7
 10
411.75
 20
924.5
 11
411.75
 21
927.5
  0
LINE
  8
DATA
  6
CONTINUOUS
 62
     7
 10
411.75
 20
916.5
 11
411.75
 21
919.5
  0
LINE
  8
DATA
  6
CONTINUOUS
 62
     7
 10
411.75
 20
908.5
 11
411.75
 21
911.5
  0
LINE
  8
DATA
  6
CONTINUOUS
 62
     7
 10
411.75
 20
900.5
 11
411.75
 21
903.5
  0
LINE
  8
DATA
  6
CONTINUOUS
 62
     7
 10
411.75
 20
892.5
 11
411.75
 21
895.5
  0
LINE
  8
DATA
  6
CONTINUOUS
 62
     7
 10
411.75
 20
1028.5
 11
411.75
 21
1031.5
  0
LINE
  8
DATA
  6
CONTINUOUS
 62
     7
 10
411.75
 20
1020.5
 11
411.75
 21
1023.5
  0
LINE
  8
DATA
  6
CONTINUOUS
 62
     7
 10
411.75
 20
1012.5
 11
411.75
 21
1015.5
  0
LINE
  8
DATA
  6
CONTINUOUS
 62
     7
 10
411.75
 20
1004.5
 11
411.75
 21
1007.5
  0
ARC
  8
DATA
  6
CONTINUOUS
 62
     7
 10
359.75
 20
1046.0
 40
2.61447
 50
94.387259
 51
175.612741
  0
ARC
  8
DATA
  6
CONTINUOUS
 62
     7
 10
359.75
 20
1046.0
 40
2.61447
 50
4.387259
 51
85.612741
  0
ARC
  8
DATA
  6
CONTINUOUS
 62
     7
 10
359.75
 20
1046.0
 40
2.61447
 50
94.387259
 51
175.612741
  0
ARC
  8
DATA
  6
CONTINUOUS
 62
     7
 10
359.75
 20
1046.0
 40
2.61447
 50
4.387259
 51
85.612741
  0
CIRCLE
  8
DATA
  6
CONTINUOUS
 62
     7
 10
359.75
 20
1046.0
 40
2.61447
  0
LINE
  8
DATA
  6
CONTINUOUS
 62
     7
 10
358.25
 20
1046.0
 11
361.25
 21
1046.0
  0
LINE
  8
DATA
  6
CONTINUOUS
 62
     7
 10
359.75
 20
1044.5
 11
359.75
 21
1047.5
  0
CIRCLE
  8
DATA
  6
CONTINUOUS
 62
     7
 10
359.75
 20
1046.0
 40
3.0
  0
LINE
  8
DATA
  6
CONTINUOUS
 62
     7
 10
449.75
 20
996.5
 11
449.75
 21
999.5
  0
LINE
  8
DATA
  6
CONTINUOUS
 62
     7
 10
531.25
 20
996.5
 11
531.25
 21
999.5
  0
LINE
  8
DATA
  6
CONTINUOUS
 62
     7
 10
449.75
 20
884.5
 11
449.75
 21
887.5
  0
LINE
  8
DATA
  6
CONTINUOUS
 62
     7
 10
531.25
 20
884.5
 11
531.25
 21
887.5
  0
LINE
  8
DATA
  6
CONTINUOUS
 62
     7
 10
449.75
 20
876.5
 11
449.75
 21
879.5
  0
LINE
  8
DATA
  6
CONTINUOUS
 62
     7
 10
449.75
 20
868.5
 11
449.75
 21
871.5
  0
LINE
  8
DATA
  6
CONTINUOUS
 62
     7
 10
449.75
 20
860.5
 11
449.75
 21
863.5
  0
LINE
  8
DATA
  6
CONTINUOUS
 62
     7
 10
449.75
 20
852.5
 11
449.75
 21
855.5
  0
LINE
  8
DATA
  6
CONTINUOUS
 62
     7
 10
449.75
 20
844.5
 11
449.75
 21
847.5
  0
LINE
  8
DATA
  6
CONTINUOUS
 62
     7
 10
449.75
 20
836.5
 11
449.75
 21
839.5
  0
LINE
  8
DATA
  6
CONTINUOUS
 62
     7
 10
531.25
 20
876.5
 11
531.25
 21
879.5
  0
LINE
  8
DATA
  6
CONTINUOUS
 62
     7
 10
531.25
 20
868.5
 11
531.25
 21
871.5
  0
TEXT
  8
DATA
  6
CONTINUOUS
 62
     7
 10
485.51787
 20
820.25
 40
4.0
  1
240V
  7
TTF_DEFAULT
  0
TEXT
  8
DATA
  6
CONTINUOUS
 62
     7
 10
485.51787
 20
809.25
 40
4.0
  1
220V
  7
TTF_DEFAULT
  0
TEXT
  8
DATA
  6
CONTINUOUS
 62
     7
 10
485.51787
 20
789.25
 40
4.0
  1
200V
  7
TTF_DEFAULT
  0
TEXT
  8
DATA
  6
CONTINUOUS
 62
     7
 10
513.25
 20
820.25
 40
4.0
  1
UK
  7
TTF_DEFAULT
  0
TEXT
  8
DATA
  6
CONTINUOUS
 62
     7
 10
513.25
 20
809.25
 40
4.0
  1
EUROPE
  7
TTF_DEFAULT
  0
TEXT
  8
DATA
  6
CONTINUOUS
 62
     7
 10
528.25
 20
817.5
 40
4.0
  1
UK
  7
TTF_DEFAULT
  0
LINE
  8
DATA
  6
DOTS
 62
     7
 10
495.25
 20
825.0
 11
499.25
 21
825.0
  0
LINE
  8
DATA
  6
DOTS
 62
     7
 10
495.25
 20
817.5
 11
499.25
 21
817.5
  0
LINE
  8
DATA
  6
DOTS
 62
     7
 10
495.25
 20
814.0
 11
499.25
 21
814.0
  0
LINE
  8
DATA
  6
DOTS
 62
     7
 10
495.25
 20
794.0
 11
499.25
 21
794.0
  0
LINE
  8
DATA
  6
DOTS
 62
     7
 10
495.25
 20
817.5
 11
495.25
 21
825.0
  0
LINE
  8
DATA
  6
DOTS
 62
     7
 10
499.25
 20
817.5
 11
499.25
 21
825.0
  0
LINE
  8
DATA
  6
DOTS
 62
     7
 10
501.25
 20
825.0
 11
501.25
 21
817.5
  0
LINE
  8
DATA
  6
DOTS
 62
     7
 10
495.25
 20
806.5
 11
499.25
 21
806.5
  0
LINE
  8
DATA
  6
DOTS
 62
     7
 10
495.25
 20
806.5
 11
495.25
 21
814.0
  0
LINE
  8
DATA
  6
DOTS
 62
     7
 10
499.25
 20
806.5
 11
499.25
 21
814.0
  0
LINE
  8
DATA
  6
DOTS
 62
     7
 10
495.25
 20
786.5
 11
499.25
 21
786.5
  0
LINE
  8
DATA
  6
DOTS
 62
     7
 10
495.25
 20
786.5
 11
495.25
 21
794.0
  0
LINE
  8
DATA
  6
DOTS
 62
     7
 10
499.25
 20
786.5
 11
499.25
 21
794.0
  0
LINE
  8
DATA
  6
DOTS
 62
     7
 10
501.25
 20
825.0
 11
505.25
 21
825.0
  0
LINE
  8
DATA
  6
DOTS
 62
     7
 10
501.25
 20
817.5
 11
505.25
 21
817.5
  0
LINE
  8
DATA
  6
DOTS
 62
     7
 10
501.25
 20
814.0
 11
505.25
 21
814.0
  0
LINE
  8
DATA
  6
DOTS
 62
     7
 10
501.25
 20
794.0
 11
505.25
 21
794.0
  0
LINE
  8
DATA
  6
DOTS
 62
     7
 10
505.25
 20
817.5
 11
505.25
 21
825.0
  0
LINE
  8
DATA
  6
DOTS
 62
     7
 10
501.25
 20
806.5
 11
505.25
 21
806.5
  0
LINE
  8
DATA
  6
DOTS
 62
     7
 10
505.25
 20
806.5
 11
505.25
 21
814.0
  0
LINE
  8
DATA
  6
DOTS
 62
     7
 10
501.25
 20
786.5
 11
505.25
 21
786.5
  0
LINE
  8
DATA
  6
DOTS
 62
     7
 10
505.25
 20
786.5
 11
505.25
 21
794.0
  0
LINE
  8
DATA
  6
DOTS
 62
     7
 10
501.25
 20
806.5
 11
501.25
 21
814.0
  0
LINE
  8
DATA
  6
DOTS
 62
     7
 10
501.25
 20
786.5
 11
501.25
 21
794.0
  0
LINE
  8
DATA
  6
DOTS
 62
     7
 10
507.25
 20
825.0
 11
507.25
 21
817.5
  0
LINE
  8
DATA
  6
DOTS
 62
     7
 10
507.25
 20
825.0
 11
511.25
 21
825.0
  0
LINE
  8
DATA
  6
DOTS
 62
     7
 10
507.25
 20
817.5
 11
511.25
 21
817.5
  0
LINE
  8
DATA
  6
DOTS
 62
     7
 10
507.25
 20
814.0
 11
511.25
 21
814.0
  0
LINE
  8
DATA
  6
DOTS
 62
     7
 10
507.25
 20
794.0
 11
511.25
 21
794.0
  0
LINE
  8
DATA
  6
DOTS
 62
     7
 10
511.25
 20
817.5
 11
511.25
 21
825.0
  0
LINE
  8
DATA
  6
DOTS
 62
     7
 10
507.25
 20
806.5
 11
511.25
 21
806.5
  0
LINE
  8
DATA
  6
DOTS
 62
     7
 10
511.25
 20
806.5
 11
511.25
 21
814.0
  0
LINE
  8
DATA
  6
DOTS
 62
     7
 10
507.25
 20
786.5
 11
511.25
 21
786.5
  0
LINE
  8
DATA
  6
DOTS
 62
     7
 10
511.25
 20
786.5
 11
511.25
 21
794.0
  0
LINE
  8
DATA
  6
DOTS
 62
     7
 10
507.25
 20
806.5
 11
507.25
 21
814.0
  0
LINE
  8
DATA
  6
DOTS
 62
     7
 10
507.25
 20
786.5
 11
507.25
 21
794.0
  0
LINE
  8
DATA
  6
DOTS
 62
     7
 10
495.25
 20
820.5
 11
499.25
 21
820.5
  0
LINE
  8
DATA
  6
DOTS
 62
     7
 10
501.25
 20
820.5
 11
505.25
 21
820.5
  0
LINE
  8
DATA
  6
DOTS
 62
     7
 10
507.25
 20
820.5
 11
511.25
 21
820.5
  0
LINE
  8
DATA
  6
DOTS
 62
     7
 10
507.25
 20
812.0
 11
511.25
 21
812.0
  0
LINE
  8
DATA
  6
DOTS
 62
     7
 10
495.25
 20
809.5
 11
499.25
 21
809.5
  0
LINE
  8
DATA
  6
DOTS
 62
     7
 10
501.25
 20
809.5
 11
505.25
 21
809.5
  0
LINE
  8
DATA
  6
DOTS
 62
     7
 10
501.25
 20
792.0
 11
505.25
 21
792.0
  0
LINE
  8
DATA
  6
DOTS
 62
     7
 10
507.25
 20
792.0
 11
511.25
 21
792.0
  0
LINE
  8
DATA
  6
DOTS
 62
     7
 10
495.25
 20
789.5
 11
499.25
 21
789.5
  0
LINE
  8
DATA
  6
DOTS
 62
     7
 10
523.25
 20
789.5
 11
531.25
 21
789.5
  0
LINE
  8
DATA
  6
DOTS
 62
     7
 10
524.25
 20
790.5
 11
530.25
 21
790.5
  0
LINE
  8
DATA
  6
DOTS
 62
     7
 10
524.25
 20
793.5
 11
530.25
 21
793.5
  0
LINE
  8
DATA
  6
DOTS
 62
     7
 10
524.25
 20
793.5
 11
524.25
 21
790.5
  0
LINE
  8
DATA
  6
DOTS
 62
     7
 10
530.25
 20
790.5
 11
530.25
 21
793.5
  0
LINE
  8
DATA
  6
DOTS
 62
     7
 10
524.852084
 20
794.5
 11
529.647916
 21
794.5
  0
LINE
  8
DATA
  6
DOTS
 62
     7
 10
531.25
 20
784.527864
 11
531.25
 21
793.472136
  0
LINE
  8
DATA
  6
DOTS
 62
     7
 10
523.25
 20
784.527864
 11
523.25
 21
793.472136
  0
CIRCLE
  8
DATA
  6
CONTINUOUS
 62
     7
 10
484.75
 20
798.5
 40
3.25
  0
CIRCLE
  8
DATA
  6
CONTINUOUS
 62
     7
 10
484.75
 20
798.5
 40
2.5
  0
LINE
  8
DATA
  6
CONTINUOUS
 62
     7
 10
483.25
 20
798.5
 11
486.25
 21
798.5
  0
LINE
  8
DATA
  6
CONTINUOUS
 62
     7
 10
484.75
 20
797.0
 11
484.75
 21
800.0
  0
LINE
  8
DATA
  6
CONTINUOUS
 62
     7
 10
449.75
 20
988.5
 11
449.75
 21
991.5
  0
LINE
  8
DATA
  6
CONTINUOUS
 62
     7
 10
449.75
 20
980.5
 11
449.75
 21
983.5
  0
LINE
  8
DATA
  6
CONTINUOUS
 62
     7
 10
449.75
 20
972.5
 11
449.75
 21
975.5
  0
LINE
  8
DATA
  6
CONTINUOUS
 62
     7
 10
449.75
 20
964.5
 11
449.75
 21
967.5
  0
LINE
  8
DATA
  6
CONTINUOUS
 62
     7
 10
449.75
 20
956.5
 11
449.75
 21
959.5
  0
LINE
  8
DATA
  6
CONTINUOUS
 62
     7
 10
449.75
 20
948.5
 11
449.75
 21
951.5
  0
LINE
  8
DATA
  6
CONTINUOUS
 62
     7
 10
449.75
 20
940.5
 11
449.75
 21
943.5
  0
LINE
  8
DATA
  6
CONTINUOUS
 62
     7
 10
449.75
 20
932.5
 11
449.75
 21
935.5
  0
LINE
  8
DATA
  6
CONTINUOUS
 62
     7
 10
449.75
 20
924.5
 11
449.75
 21
927.5
  0
LINE
  8
DATA
  6
CONTINUOUS
 62
     7
 10
449.75
 20
916.5
 11
449.75
 21
919.5
  0
LINE
  8
DATA
  6
CONTINUOUS
 62
     7
 10
449.75
 20
908.5
 11
449.75
 21
911.5
  0
LINE
  8
DATA
  6
CONTINUOUS
 62
     7
 10
449.75
 20
900.5
 11
449.75
 21
903.5
  0
LINE
  8
DATA
  6
CONTINUOUS
 62
     7
 10
449.75
 20
892.5
 11
449.75
 21
895.5
  0
LINE
  8
DATA
  6
CONTINUOUS
 62
     7
 10
531.25
 20
988.5
 11
531.25
 21
991.5
  0
LINE
  8
DATA
  6
CONTINUOUS
 62
     7
 10
531.25
 20
980.5
 11
531.25
 21
983.5
  0
LINE
  8
DATA
  6
CONTINUOUS
 62
     7
 10
531.25
 20
972.5
 11
531.25
 21
975.5
  0
LINE
  8
DATA
  6
CONTINUOUS
 62
     7
 10
531.25
 20
964.5
 11
531.25
 21
967.5
  0
LINE
  8
DATA
  6
CONTINUOUS
 62
     7
 10
531.25
 20
956.5
 11
531.25
 21
959.5
  0
LINE
  8
DATA
  6
CONTINUOUS
 62
     7
 10
531.25
 20
948.5
 11
531.25
 21
951.5
  0
LINE
  8
DATA
  6
CONTINUOUS
 62
     7
 10
531.25
 20
940.5
 11
531.25
 21
943.5
  0
LINE
  8
DATA
  6
CONTINUOUS
 62
     7
 10
531.25
 20
932.5
 11
531.25
 21
935.5
  0
LINE
  8
DATA
  6
CONTINUOUS
 62
     7
 10
531.25
 20
924.5
 11
531.25
 21
927.5
  0
LINE
  8
DATA
  6
CONTINUOUS
 62
     7
 10
531.25
 20
908.5
 11
531.25
 21
911.5
  0
LINE
  8
DATA
  6
CONTINUOUS
 62
     7
 10
531.25
 20
900.5
 11
531.25
 21
903.5
  0
LINE
  8
DATA
  6
CONTINUOUS
 62
     7
 10
531.25
 20
892.5
 11
531.25
 21
895.5
  0
LINE
  8
DATA
  6
CONTINUOUS
 62
     7
 10
531.25
 20
916.5
 11
531.25
 21
919.5
  0
LINE
  8
DATA
  6
CONTINUOUS
 62
     7
 10
449.75
 20
1028.5
 11
449.75
 21
1031.5
  0
LINE
  8
DATA
  6
CONTINUOUS
 62
     7
 10
449.75
 20
1020.5
 11
449.75
 21
1023.5
  0
LINE
  8
DATA
  6
CONTINUOUS
 62
     7
 10
449.75
 20
1012.5
 11
449.75
 21
1015.5
  0
LINE
  8
DATA
  6
CONTINUOUS
 62
     7
 10
449.75
 20
1004.5
 11
449.75
 21
1007.5
  0
LINE
  8
DATA
  6
CONTINUOUS
 62
     7
 10
531.25
 20
1028.5
 11
531.25
 21
1031.5
  0
LINE
  8
DATA
  6
CONTINUOUS
 62
     7
 10
531.25
 20
1020.5
 11
531.25
 21
1023.5
  0
LINE
  8
DATA
  6
CONTINUOUS
 62
     7
 10
531.25
 20
1012.5
 11
531.25
 21
1015.5
  0
LINE
  8
DATA
  6
CONTINUOUS
 62
     7
 10
531.25
 20
1004.5
 11
531.25
 21
1007.5
  0
LINE
  8
DATA
  6
CONTINUOUS
 62
     7
 10
507.0295
 20
1058.67508
 11
529.18422
 21
1057.61681
  0
LINE
  8
DATA
  6
CONTINUOUS
 62
     7
 10
507.07721
 20
1059.67394
 11
529.23194
 21
1058.61567
  0
LINE
  8
DATA
  6
CONTINUOUS
 62
     7
 10
507.12492
 20
1060.6728
 11
529.27965
 21
1059.61453
  0
LINE
  8
DATA
  6
CONTINUOUS
 62
     7
 10
507.17264
 20
1061.67166
 11
529.32736
 21
1060.61339
  0
LINE
  8
DATA
  6
CONTINUOUS
 62
     7
 10
529.32736
 20
1061.67166
 11
507.17264
 21
1061.67166
  0
LINE
  8
DATA
  6
CONTINUOUS
 62
     7
 10
507.17264
 20
1061.67166
 11
507.17264
 21
1057.49999
  0
LINE
  8
DATA
  6
CONTINUOUS
 62
     7
 10
529.32736
 20
1057.49999
 11
529.32736
 21
1061.67166
  0
LINE
  8
DATA
  6
CONTINUOUS
 62
     7
 10
528.13131
 20
1061.67166
 11
529.37508
 21
1061.61225
  0
LINE
  8
DATA
  6
CONTINUOUS
 62
     7
 10
506.98179
 20
1057.67622
 11
510.67098
 21
1057.49999
  0
ARC
  8
DATA
  6
CONTINUOUS
 62
     7
 10
490.25
 20
1046.0
 40
2.61447
 50
94.387259
 51
175.612741
  0
ARC
  8
DATA
  6
CONTINUOUS
 62
     7
 10
490.25
 20
1046.0
 40
2.61447
 50
4.387259
 51
85.612741
  0
ARC
  8
DATA
  6
CONTINUOUS
 62
     7
 10
490.25
 20
1046.0
 40
2.61447
 50
94.387259
 51
175.612741
  0
ARC
  8
DATA
  6
CONTINUOUS
 62
     7
 10
490.25
 20
1046.0
 40
2.61447
 50
4.387259
 51
85.612741
  0
CIRCLE
  8
DATA
  6
CONTINUOUS
 62
     7
 10
490.25
 20
1046.0
 40
2.61447
  0
LINE
  8
DATA
  6
CONTINUOUS
 62
     7
 10
488.75
 20
1046.0
 11
491.75
 21
1046.0
  0
LINE
  8
DATA
  6
CONTINUOUS
 62
     7
 10
490.25
 20
1044.5
 11
490.25
 21
1047.5
  0
CIRCLE
  8
DATA
  6
CONTINUOUS
 62
     7
 10
490.25
 20
1046.0
 40
3.0
  0
LINE
  8
DATA
  6
CONTINUOUS
 62
     7
 10
662.25
 20
753.0
 11
662.25
 21
1055.0
  0
CIRCLE
  8
DATA
  6
DOTS
 62
     7
 10
549.75
 20
789.0
 40
6.0
  0
CIRCLE
  8
DATA
  6
DOTS
 62
     7
 10
583.25
 20
789.0
 40
6.0
  0
LINE
  8
DATA
  6
CONTINUOUS
 62
     7
 10
672.25
 20
781.79179
 11
703.5
 21
783.79179
  0
LINE
  8
DATA
  6
CONTINUOUS
 62
     7
 10
703.5
 20
775.79179
 11
703.5
 21
773.79179
  0
LINE
  8
DATA
  6
CONTINUOUS
 62
     7
 10
733.0
 20
550.0
 11
733.0
 21
639.0
  0
LINE
  8
DATA
  6
CONTINUOUS
 62
     7
 10
617.3643
 20
550.0
 11
618.25274
 21
546.0
  0
LINE
  8
DATA
  6
CONTINUOUS
 62
     7
 10
640.07171
 20
550.0
 11
639.18327
 21
546.0
  0
LINE
  8
DATA
  6
CONTINUOUS
 62
     7
 10
639.18327
 20
546.0
 11
618.25274
 21
546.0
  0
TEXT
  8
DATA
  6
CONTINUOUS
 62
     7
 10
574.87781
 20
566.0
 40
5.0
  1
+24V
  7
TTF_DEFAULT
  0
CIRCLE
  8
DATA
  6
CONTINUOUS
 62
     7
 10
554.5
 20
573.5
 40
2.5
  0
CIRCLE
  8
DATA
  6
CONTINUOUS
 62
     7
 10
567.2
 20
573.5
 40
2.5
  0
TEXT
  8
DATA
  6
CONTINUOUS
 62
     7
 10
548.265557
 20
566.0
 40
5.0
  1
-7.5V
  7
TTF_DEFAULT
  0
TEXT
  8
DATA
  6
CONTINUOUS
 62
     7
 10
560.965557
 20
566.0
 40
5.0
  1
+7.5V
  7
TTF_DEFAULT
  0
ARC
  8
DATA
  6
CONTINUOUS
 62
     7
 10
724.96156
 20
556.4
 40
2.5
 50
270.0
 51
90.0
  0
LINE
  8
DATA
  6
CONTINUOUS
 62
     7
 10
724.96156
 20
553.9
 11
718.96156
 21
553.9
  0
LINE
  8
DATA
  6
CONTINUOUS
 62
     7
 10
718.96156
 20
558.9
 11
724.96156
 21
558.9
  0
ARC
  8
DATA
  6
CONTINUOUS
 62
     7
 10
718.96156
 20
556.4
 40
2.5
 50
90.0
 51
270.0
  0
ARC
  8
DATA
  6
CONTINUOUS
 62
     7
 10
724.96156
 20
632.6
 40
2.5
 50
270.0
 51
90.0
  0
LINE
  8
DATA
  6
CONTINUOUS
 62
     7
 10
724.96156
 20
630.1
 11
718.96156
 21
630.1
  0
LINE
  8
DATA
  6
CONTINUOUS
 62
     7
 10
718.96156
 20
635.1
 11
724.96156
 21
635.1
  0
ARC
  8
DATA
  6
CONTINUOUS
 62
     7
 10
718.96156
 20
632.6
 40
2.5
 50
90.0
 51
270.0
  0
CIRCLE
  8
DATA
  6
CONTINUOUS
 62
     7
 10
579.9
 20
573.5
 40
2.5
  0
CIRCLE
  8
DATA
  6
CONTINUOUS
 62
     7
 10
592.6
 20
573.5
 40
2.5
  0
CIRCLE
  8
DATA
  6
CONTINUOUS
 62
     7
 10
605.3
 20
573.5
 40
2.5
  0
CIRCLE
  8
DATA
  6
CONTINUOUS
 62
     7
 10
618.0
 20
573.5
 40
2.5
  0
TEXT
  8
DATA
  6
CONTINUOUS
 62
     7
 10
612.97781
 20
566.0
 40
5.0
  1
+17V
  7
TTF_DEFAULT
  0
TEXT
  8
DATA
  6
CONTINUOUS
 62
     7
 10
587.57781
 20
566.0
 40
5.0
  1
+48V
  7
TTF_DEFAULT
  0
TEXT
  8
DATA
  6
CONTINUOUS
 62
     7
 10
600.27781
 20
566.0
 40
5.0
  1
-17V
  7
TTF_DEFAULT
  0
CIRCLE
  8
DATA
  6
CONTINUOUS
 62
     7
 10
696.5
 20
627.0
 40
4.0
  0
LINE
  8
DATA
  6
CONTINUOUS
 62
     7
 10
694.0
 20
627.0
 11
699.0
 21
627.0
  0
LINE
  8
DATA
  6
CONTINUOUS
 62
     7
 10
696.5
 20
624.5
 11
696.5
 21
629.5
  0
CIRCLE
  8
DATA
  6
CONTINUOUS
 62
     7
 10
696.5
 20
566.5
 40
4.0
  0
LINE
  8
DATA
  6
CONTINUOUS
 62
     7
 10
694.0
 20
566.5
 11
699.0
 21
566.5
  0
LINE
  8
DATA
  6
CONTINUOUS
 62
     7
 10
696.5
 20
564.0
 11
696.5
 21
569.0
  0
CIRCLE
  8
DATA
  6
CONTINUOUS
 62
     7
 10
668.5
 20
627.0
 40
4.25
  0
CIRCLE
  8
DATA
  6
CONTINUOUS
 62
     7
 10
668.5
 20
627.0
 40
3.75
  0
LINE
  8
DATA
  6
CONTINUOUS
 62
     7
 10
667.0
 20
627.0
 11
670.0
 21
627.0
  0
LINE
  8
DATA
  6
CONTINUOUS
 62
     7
 10
668.5
 20
625.5
 11
668.5
 21
628.5
  0
CIRCLE
  8
DATA
  6
CONTINUOUS
 62
     7
 10
668.5
 20
566.5
 40
4.25
  0
CIRCLE
  8
DATA
  6
CONTINUOUS
 62
     7
 10
668.5
 20
566.5
 40
3.75
  0
LINE
  8
DATA
  6
CONTINUOUS
 62
     7
 10
667.0
 20
566.5
 11
670.0
 21
566.5
  0
LINE
  8
DATA
  6
CONTINUOUS
 62
     7
 10
668.5
 20
565.0
 11
668.5
 21
568.0
  0
CIRCLE
  8
DATA
  6
CONTINUOUS
 62
     7
 10
696.5
 20
627.0
 40
4.5
  0
CIRCLE
  8
DATA
  6
CONTINUOUS
 62
     7
 10
696.5
 20
566.5
 40
4.5
  0
LINE
  8
DATA
  6
CONTINUOUS
 62
     7
 10
733.0
 20
750.0
 11
733.0
 21
753.0
  0
LINE
  8
DATA
  6
CONTINUOUS
 62
     7
 10
703.5
 20
753.0
 11
703.5
 21
766.29179
  0
ARC
  8
DATA
  6
CONTINUOUS
 62
     7
 10
698.326935
 20
749.99999
 40
2.0
 50
270.0
 51
0.0
  0
ARC
  8
DATA
  6
CONTINUOUS
 62
     7
 10
696.173065
 20
749.99999
 40
2.0
 50
180.0
 51
270.0
  0
LINE
  8
DATA
  6
CONTINUOUS
 62
     7
 10
696.173065
 20
747.99999
 11
698.326935
 21
747.99999
  0
ARC
  8
DATA
  6
CONTINUOUS
 62
     7
 10
591.25
 20
765.5
 40
2.61447
 50
94.387259
 51
175.612741
  0
ARC
  8
DATA
  6
CONTINUOUS
 62
     7
 10
591.25
 20
765.5
 40
2.61447
 50
94.387259
 51
175.612741
  0
CIRCLE
  8
DATA
  6
CONTINUOUS
 62
     7
 10
591.25
 20
765.5
 40
2.61447
  0
CIRCLE
  8
DATA
  6
CONTINUOUS
 62
     7
 10
591.25
 20
765.5
 40
3.0
  0
ARC
  8
DATA
  6
CONTINUOUS
 62
     7
 10
591.25
 20
765.5
 40
2.61447
 50
4.387259
 51
85.612741
  0
ARC
  8
DATA
  6
CONTINUOUS
 62
     7
 10
591.25
 20
765.5
 40
2.61447
 50
4.387259
 51
85.612741
  0
LINE
  8
DATA
  6
CONTINUOUS
 62
     7
 10
589.75
 20
765.5
 11
592.75
 21
765.5
  0
LINE
  8
DATA
  6
CONTINUOUS
 62
     7
 10
591.25
 20
764.0
 11
591.25
 21
767.0
  0
LINE
  8
DATA
  6
CONTINUOUS
 62
     7
 10
672.25
 20
771.79179
 11
672.25
 21
767.79179
  0
TEXT
  8
DATA
  6
CONTINUOUS
 62
     7
 10
579.75
 20
771.0
 40
4.0
  1
100V
  7
TTF_DEFAULT
  0
TEXT
  8
DATA
  6
CONTINUOUS
 62
     7
 10
593.25
 20
771.0
 40
4.0
  1
90V
  7
TTF_DEFAULT
  0
LINE
  8
DATA
  6
CONTINUOUS
 62
     7
 10
703.5
 20
766.29179
 11
672.25
 21
767.79179
  0
LINE
  8
DATA
  6
CONTINUOUS
 62
     7
 10
672.25
 20
771.79179
 11
703.5
 21
773.79179
  0
LINE
  8
DATA
  6
DOTS
 62
     7
 10
547.352084
 20
783.5
 11
552.147916
 21
783.5
  0
LINE
  8
DATA
  6
DOTS
 62
     7
 10
615.25
 20
775.5
 11
615.25
 21
783.0
  0
LINE
  8
DATA
  6
DOTS
 62
     7
 10
619.25
 20
775.5
 11
619.25
 21
783.0
  0
LINE
  8
DATA
  6
DOTS
 62
     7
 10
625.25
 20
775.5
 11
625.25
 21
783.0
  0
LINE
  8
DATA
  6
DOTS
 62
     7
 10
621.25
 20
775.5
 11
621.25
 21
783.0
  0
LINE
  8
DATA
  6
DOTS
 62
     7
 10
631.25
 20
775.5
 11
631.25
 21
783.0
  0
LINE
  8
DATA
  6
DOTS
 62
     7
 10
627.25
 20
775.5
 11
627.25
 21
783.0
  0
LINE
  8
DATA
  6
CONTINUOUS
 62
     7
 10
703.5
 20
775.79179
 11
672.25
 21
777.79179
  0
LINE
  8
DATA
  6
DOTS
 62
     7
 10
615.25
 20
775.5
 11
619.25
 21
775.5
  0
LINE
  8
DATA
  6
DOTS
 62
     7
 10
621.25
 20
775.5
 11
625.25
 21
775.5
  0
LINE
  8
DATA
  6
DOTS
 62
     7
 10
627.25
 20
775.5
 11
631.25
 21
775.5
  0
TEXT
  8
DATA
  6
CONTINUOUS
 62
     7
 10
633.25
 20
778.25
 40
4.0
  1
90V
  7
TTF_DEFAULT
  0
LINE
  8
DATA
  6
CONTINUOUS
 62
     7
 10
672.25
 20
781.79179
 11
672.25
 21
777.79179
  0
LINE
  8
DATA
  6
DOTS
 62
     7
 10
585.647916
 20
783.5
 11
580.852084
 21
783.5
  0
LINE
  8
DATA
  6
DOTS
 62
     7
 10
615.25
 20
783.0
 11
619.25
 21
783.0
  0
LINE
  8
DATA
  6
DOTS
 62
     7
 10
621.25
 20
783.0
 11
625.25
 21
783.0
  0
LINE
  8
DATA
  6
DOTS
 62
     7
 10
627.25
 20
783.0
 11
631.25
 21
783.0
  0
LINE
  8
DATA
  6
DOTS
 62
     7
 10
615.25
 20
781.0
 11
619.25
 21
781.0
  0
LINE
  8
DATA
  6
DOTS
 62
     7
 10
621.25
 20
781.0
 11
625.25
 21
781.0
  0
LINE
  8
DATA
  6
DOTS
 62
     7
 10
627.25
 20
781.0
 11
631.25
 21
781.0
  0
LINE
  8
DIMENSIONS
  6
CONTINUOUS
 62
     7
 10
733.0
 20
646.5
 11
733.0
 21
684.375
  0
LINE
  8
DIMENSIONS
  6
CONTINUOUS
 62
     7
 10
718.0
 20
672.5001
 11
733.0
 21
675.0
  0
LINE
  8
DIMENSIONS
  6
CONTINUOUS
 62
     7
 10
718.0
 20
677.4999
 11
733.0
 21
675.0
  0
LINE
  8
DATA
  6
CONTINUOUS
 62
     7
 10
569.25
 20
996.5
 11
569.25
 21
999.5
  0
LINE
  8
DATA
  6
CONTINUOUS
 62
     7
 10
672.25
 20
1001.79179
 11
672.25
 21
997.79179
  0
LINE
  8
DATA
  6
CONTINUOUS
 62
     7
 10
569.25
 20
884.5
 11
569.25
 21
887.5
  0
LINE
  8
DATA
  6
CONTINUOUS
 62
     7
 10
569.25
 20
876.5
 11
569.25
 21
879.5
  0
LINE
  8
DATA
  6
CONTINUOUS
 62
     7
 10
569.25
 20
868.5
 11
569.25
 21
871.5
  0
LINE
  8
DATA
  6
DOTS
 62
     7
 10
545.75
 20
789.5
 11
553.75
 21
789.5
  0
LINE
  8
DATA
  6
DOTS
 62
     7
 10
546.75
 20
790.5
 11
552.75
 21
790.5
  0
LINE
  8
DATA
  6
DOTS
 62
     7
 10
546.75
 20
793.5
 11
552.75
 21
793.5
  0
LINE
  8
DATA
  6
DOTS
 62
     7
 10
546.75
 20
793.5
 11
546.75
 21
790.5
  0
LINE
  8
DATA
  6
DOTS
 62
     7
 10
552.75
 20
790.5
 11
552.75
 21
793.5
  0
LINE
  8
DATA
  6
DOTS
 62
     7
 10
547.352084
 20
794.5
 11
552.147916
 21
794.5
  0
LINE
  8
DATA
  6
DOTS
 62
     7
 10
553.75
 20
784.527864
 11
553.75
 21
793.472136
  0
LINE
  8
DATA
  6
DOTS
 62
     7
 10
545.75
 20
784.527864
 11
545.75
 21
793.472136
  0
LINE
  8
DATA
  6
CONTINUOUS
 62
     7
 10
569.25
 20
988.5
 11
569.25
 21
991.5
  0
LINE
  8
DATA
  6
CONTINUOUS
 62
     7
 10
569.25
 20
980.5
 11
569.25
 21
983.5
  0
LINE
  8
DATA
  6
CONTINUOUS
 62
     7
 10
569.25
 20
972.5
 11
569.25
 21
975.5
  0
LINE
  8
DATA
  6
CONTINUOUS
 62
     7
 10
569.25
 20
964.5
 11
569.25
 21
967.5
  0
LINE
  8
DATA
  6
CONTINUOUS
 62
     7
 10
569.25
 20
956.5
 11
569.25
 21
959.5
  0
LINE
  8
DATA
  6
CONTINUOUS
 62
     7
 10
569.25
 20
948.5
 11
569.25
 21
951.5
  0
LINE
  8
DATA
  6
CONTINUOUS
 62
     7
 10
569.25
 20
940.5
 11
569.25
 21
943.5
  0
LINE
  8
DATA
  6
CONTINUOUS
 62
     7
 10
569.25
 20
932.5
 11
569.25
 21
935.5
  0
LINE
  8
DATA
  6
CONTINUOUS
 62
     7
 10
569.25
 20
924.5
 11
569.25
 21
927.5
  0
LINE
  8
DATA
  6
CONTINUOUS
 62
     7
 10
569.25
 20
908.5
 11
569.25
 21
911.5
  0
LINE
  8
DATA
  6
CONTINUOUS
 62
     7
 10
569.25
 20
900.5
 11
569.25
 21
903.5
  0
LINE
  8
DATA
  6
CONTINUOUS
 62
     7
 10
569.25
 20
892.5
 11
569.25
 21
895.5
  0
LINE
  8
DATA
  6
CONTINUOUS
 62
     7
 10
569.25
 20
916.5
 11
569.25
 21
919.5
  0
LINE
  8
DATA
  6
CONTINUOUS
 62
     7
 10
703.5
 20
885.79179
 11
672.25
 21
887.79179
  0
LINE
  8
DATA
  6
CONTINUOUS
 62
     7
 10
703.5
 20
785.79179
 11
703.5
 21
783.79179
  0
LINE
  8
DATA
  6
CONTINUOUS
 62
     7
 10
703.5
 20
795.79179
 11
703.5
 21
793.79179
  0
LINE
  8
DATA
  6
CONTINUOUS
 62
     7
 10
703.5
 20
805.79179
 11
703.5
 21
803.79179
  0
LINE
  8
DATA
  6
CONTINUOUS
 62
     7
 10
703.5
 20
815.79179
 11
703.5
 21
813.79179
  0
LINE
  8
DATA
  6
CONTINUOUS
 62
     7
 10
703.5
 20
825.79179
 11
703.5
 21
823.79179
  0
LINE
  8
DATA
  6
CONTINUOUS
 62
     7
 10
703.5
 20
835.79179
 11
703.5
 21
833.79179
  0
LINE
  8
DATA
  6
CONTINUOUS
 62
     7
 10
703.5
 20
845.79179
 11
703.5
 21
843.79179
  0
LINE
  8
DATA
  6
CONTINUOUS
 62
     7
 10
703.5
 20
855.79179
 11
703.5
 21
853.79179
  0
LINE
  8
DATA
  6
CONTINUOUS
 62
     7
 10
703.5
 20
865.79179
 11
703.5
 21
863.79179
  0
LINE
  8
DATA
  6
CONTINUOUS
 62
     7
 10
703.5
 20
875.79179
 11
703.5
 21
873.79179
  0
LINE
  8
DATA
  6
CONTINUOUS
 62
     7
 10
703.5
 20
885.79179
 11
703.5
 21
883.79179
  0
TEXT
  8
DATA
  6
CONTINUOUS
 62
     7
 10
607.37036
 20
809.25
 40
4.0
  1
USA
  7
TTF_DEFAULT
  0
TEXT
  8
DATA
  6
CONTINUOUS
 62
     7
 10
633.25
 20
809.25
 40
4.0
  1
110V
  7
TTF_DEFAULT
  0
TEXT
  8
DATA
  6
CONTINUOUS
 62
     7
 10
633.25
 20
820.25
 40
4.0
  1
120V
  7
TTF_DEFAULT
  0
TEXT
  8
DATA
  6
CONTINUOUS
 62
     7
 10
633.25
 20
789.25
 40
4.0
  1
100V
  7
TTF_DEFAULT
  0
LINE
  8
DATA
  6
CONTINUOUS
 62
     7
 10
672.25
 20
881.79179
 11
672.25
 21
877.79179
  0
LINE
  8
DATA
  6
CONTINUOUS
 62
     7
 10
672.25
 20
871.79179
 11
672.25
 21
867.79179
  0
LINE
  8
DATA
  6
CONTINUOUS
 62
     7
 10
672.25
 20
861.79179
 11
672.25
 21
857.79179
  0
LINE
  8
DATA
  6
CONTINUOUS
 62
     7
 10
672.25
 20
851.79179
 11
672.25
 21
847.79179
  0
LINE
  8
DATA
  6
CONTINUOUS
 62
     7
 10
672.25
 20
841.79179
 11
672.25
 21
837.79179
  0
LINE
  8
DATA
  6
CONTINUOUS
 62
     7
 10
672.25
 20
831.79179
 11
672.25
 21
827.79179
  0
LINE
  8
DATA
  6
CONTINUOUS
 62
     7
 10
672.25
 20
821.79179
 11
672.25
 21
817.79179
  0
LINE
  8
DATA
  6
CONTINUOUS
 62
     7
 10
672.25
 20
811.79179
 11
672.25
 21
807.79179
  0
LINE
  8
DATA
  6
CONTINUOUS
 62
     7
 10
672.25
 20
801.79179
 11
672.25
 21
797.79179
  0
LINE
  8
DATA
  6
CONTINUOUS
 62
     7
 10
672.25
 20
791.79179
 11
672.25
 21
787.79179
  0
TEXT
  8
DATA
  6
CONTINUOUS
 62
     7
 10
579.25
 20
821.5
 40
4.0
  1
120V
  7
TTF_DEFAULT
  0
TEXT
  8
DATA
  6
CONTINUOUS
 62
     7
 10
592.75
 20
821.5
 40
4.0
  1
110V
  7
TTF_DEFAULT
  0
TEXT
  8
DATA
  6
CONTINUOUS
 62
     7
 10
593.75
 20
817.5
 40
4.0
  1
USA
  7
TTF_DEFAULT
  0
LINE
  8
DATA
  6
DOTS
 62
     7
 10
587.25
 20
788.5
 11
579.25
 21
788.5
  0
LINE
  8
DATA
  6
DOTS
 62
     7
 10
586.25
 20
787.5
 11
580.25
 21
787.5
  0
LINE
  8
DATA
  6
DOTS
 62
     7
 10
586.25
 20
784.5
 11
580.25
 21
784.5
  0
LINE
  8
DATA
  6
DOTS
 62
     7
 10
586.25
 20
784.5
 11
586.25
 21
787.5
  0
LINE
  8
DATA
  6
DOTS
 62
     7
 10
580.25
 20
787.5
 11
580.25
 21
784.5
  0
LINE
  8
DATA
  6
DOTS
 62
     7
 10
579.25
 20
793.472136
 11
579.25
 21
784.527864
  0
LINE
  8
DATA
  6
DOTS
 62
     7
 10
585.647916
 20
794.5
 11
580.852084
 21
794.5
  0
LINE
  8
DATA
  6
DOTS
 62
     7
 10
587.25
 20
793.472136
 11
587.25
 21
784.527864
  0
LINE
  8
DATA
  6
DOTS
 62
     7
 10
615.25
 20
825.0
 11
619.25
 21
825.0
  0
LINE
  8
DATA
  6
DOTS
 62
     7
 10
615.25
 20
817.5
 11
619.25
 21
817.5
  0
LINE
  8
DATA
  6
DOTS
 62
     7
 10
615.25
 20
814.0
 11
619.25
 21
814.0
  0
LINE
  8
DATA
  6
DOTS
 62
     7
 10
615.25
 20
794.0
 11
619.25
 21
794.0
  0
LINE
  8
DATA
  6
DOTS
 62
     7
 10
615.25
 20
817.5
 11
615.25
 21
825.0
  0
LINE
  8
DATA
  6
DOTS
 62
     7
 10
619.25
 20
817.5
 11
619.25
 21
825.0
  0
LINE
  8
DATA
  6
DOTS
 62
     7
 10
621.25
 20
825.0
 11
621.25
 21
817.5
  0
LINE
  8
DATA
  6
DOTS
 62
     7
 10
615.25
 20
806.5
 11
619.25
 21
806.5
  0
LINE
  8
DATA
  6
DOTS
 62
     7
 10
615.25
 20
806.5
 11
615.25
 21
814.0
  0
LINE
  8
DATA
  6
DOTS
 62
     7
 10
619.25
 20
806.5
 11
619.25
 21
814.0
  0
LINE
  8
DATA
  6
DOTS
 62
     7
 10
615.25
 20
786.5
 11
619.25
 21
786.5
  0
LINE
  8
DATA
  6
DOTS
 62
     7
 10
615.25
 20
786.5
 11
615.25
 21
794.0
  0
LINE
  8
DATA
  6
DOTS
 62
     7
 10
619.25
 20
786.5
 11
619.25
 21
794.0
  0
LINE
  8
DATA
  6
DOTS
 62
     7
 10
621.25
 20
825.0
 11
625.25
 21
825.0
  0
LINE
  8
DATA
  6
DOTS
 62
     7
 10
621.25
 20
817.5
 11
625.25
 21
817.5
  0
LINE
  8
DATA
  6
DOTS
 62
     7
 10
621.25
 20
814.0
 11
625.25
 21
814.0
  0
LINE
  8
DATA
  6
DOTS
 62
     7
 10
621.25
 20
794.0
 11
625.25
 21
794.0
  0
LINE
  8
DATA
  6
DOTS
 62
     7
 10
625.25
 20
817.5
 11
625.25
 21
825.0
  0
LINE
  8
DATA
  6
DOTS
 62
     7
 10
621.25
 20
806.5
 11
625.25
 21
806.5
  0
LINE
  8
DATA
  6
DOTS
 62
     7
 10
625.25
 20
806.5
 11
625.25
 21
814.0
  0
LINE
  8
DATA
  6
DOTS
 62
     7
 10
621.25
 20
786.5
 11
625.25
 21
786.5
  0
LINE
  8
DATA
  6
DOTS
 62
     7
 10
625.25
 20
786.5
 11
625.25
 21
794.0
  0
LINE
  8
DATA
  6
DOTS
 62
     7
 10
621.25
 20
806.5
 11
621.25
 21
814.0
  0
LINE
  8
DATA
  6
DOTS
 62
     7
 10
621.25
 20
786.5
 11
621.25
 21
794.0
  0
LINE
  8
DATA
  6
DOTS
 62
     7
 10
627.25
 20
825.0
 11
627.25
 21
817.5
  0
LINE
  8
DATA
  6
DOTS
 62
     7
 10
627.25
 20
825.0
 11
631.25
 21
825.0
  0
LINE
  8
DATA
  6
DOTS
 62
     7
 10
627.25
 20
817.5
 11
631.25
 21
817.5
  0
LINE
  8
DATA
  6
DOTS
 62
     7
 10
627.25
 20
814.0
 11
631.25
 21
814.0
  0
LINE
  8
DATA
  6
DOTS
 62
     7
 10
627.25
 20
794.0
 11
631.25
 21
794.0
  0
LINE
  8
DATA
  6
DOTS
 62
     7
 10
631.25
 20
817.5
 11
631.25
 21
825.0
  0
LINE
  8
DATA
  6
DOTS
 62
     7
 10
627.25
 20
806.5
 11
631.25
 21
806.5
  0
LINE
  8
DATA
  6
DOTS
 62
     7
 10
631.25
 20
806.5
 11
631.25
 21
814.0
  0
LINE
  8
DATA
  6
DOTS
 62
     7
 10
627.25
 20
786.5
 11
631.25
 21
786.5
  0
LINE
  8
DATA
  6
DOTS
 62
     7
 10
631.25
 20
786.5
 11
631.25
 21
794.0
  0
LINE
  8
DATA
  6
DOTS
 62
     7
 10
627.25
 20
806.5
 11
627.25
 21
814.0
  0
LINE
  8
DATA
  6
DOTS
 62
     7
 10
627.25
 20
786.5
 11
627.25
 21
794.0
  0
LINE
  8
DATA
  6
DOTS
 62
     7
 10
621.25
 20
820.5
 11
625.25
 21
820.5
  0
LINE
  8
DATA
  6
DOTS
 62
     7
 10
627.25
 20
820.5
 11
631.25
 21
820.5
  0
LINE
  8
DATA
  6
DOTS
 62
     7
 10
615.25
 20
823.0
 11
619.25
 21
823.0
  0
LINE
  8
DATA
  6
DOTS
 62
     7
 10
615.25
 20
812.0
 11
619.25
 21
812.0
  0
LINE
  8
DATA
  6
DOTS
 62
     7
 10
627.25
 20
812.0
 11
631.25
 21
812.0
  0
LINE
  8
DATA
  6
DOTS
 62
     7
 10
621.25
 20
809.5
 11
625.25
 21
809.5
  0
LINE
  8
DATA
  6
DOTS
 62
     7
 10
615.25
 20
792.0
 11
619.25
 21
792.0
  0
LINE
  8
DATA
  6
DOTS
 62
     7
 10
621.25
 20
792.0
 11
625.25
 21
792.0
  0
LINE
  8
DATA
  6
DOTS
 62
     7
 10
627.25
 20
789.5
 11
631.25
 21
789.5
  0
CIRCLE
  8
DATA
  6
CONTINUOUS
 62
     7
 10
628.75
 20
798.5
 40
3.25
  0
CIRCLE
  8
DATA
  6
CONTINUOUS
 62
     7
 10
628.75
 20
798.5
 40
2.5
  0
LINE
  8
DATA
  6
CONTINUOUS
 62
     7
 10
627.25
 20
798.5
 11
630.25
 21
798.5
  0
LINE
  8
DATA
  6
CONTINUOUS
 62
     7
 10
628.75
 20
797.0
 11
628.75
 21
800.0
  0
LINE
  8
DATA
  6
CONTINUOUS
 62
     7
 10
703.5
 20
785.79179
 11
672.25
 21
787.79179
  0
LINE
  8
DATA
  6
CONTINUOUS
 62
     7
 10
672.25
 20
791.79179
 11
703.5
 21
793.79179
  0
LINE
  8
DATA
  6
CONTINUOUS
 62
     7
 10
703.5
 20
795.79179
 11
672.25
 21
797.79179
  0
LINE
  8
DATA
  6
CONTINUOUS
 62
     7
 10
672.25
 20
801.79179
 11
703.5
 21
803.79179
  0
LINE
  8
DATA
  6
CONTINUOUS
 62
     7
 10
703.5
 20
805.79179
 11
672.25
 21
807.79179
  0
LINE
  8
DATA
  6
CONTINUOUS
 62
     7
 10
672.25
 20
811.79179
 11
703.5
 21
813.79179
  0
LINE
  8
DATA
  6
CONTINUOUS
 62
     7
 10
703.5
 20
815.79179
 11
672.25
 21
817.79179
  0
LINE
  8
DATA
  6
CONTINUOUS
 62
     7
 10
672.25
 20
821.79179
 11
703.5
 21
823.79179
  0
LINE
  8
DATA
  6
CONTINUOUS
 62
     7
 10
703.5
 20
825.79179
 11
672.25
 21
827.79179
  0
LINE
  8
DATA
  6
CONTINUOUS
 62
     7
 10
672.25
 20
831.79179
 11
703.5
 21
833.79179
  0
LINE
  8
DATA
  6
CONTINUOUS
 62
     7
 10
703.5
 20
835.79179
 11
672.25
 21
837.79179
  0
LINE
  8
DATA
  6
CONTINUOUS
 62
     7
 10
672.25
 20
841.79179
 11
703.5
 21
843.79179
  0
LINE
  8
DATA
  6
CONTINUOUS
 62
     7
 10
703.5
 20
845.79179
 11
672.25
 21
847.79179
  0
LINE
  8
DATA
  6
CONTINUOUS
 62
     7
 10
672.25
 20
851.79179
 11
703.5
 21
853.79179
  0
LINE
  8
DATA
  6
CONTINUOUS
 62
     7
 10
703.5
 20
855.79179
 11
672.25
 21
857.79179
  0
LINE
  8
DATA
  6
CONTINUOUS
 62
     7
 10
672.25
 20
861.79179
 11
703.5
 21
863.79179
  0
LINE
  8
DATA
  6
CONTINUOUS
 62
     7
 10
703.5
 20
865.79179
 11
672.25
 21
867.79179
  0
LINE
  8
DATA
  6
CONTINUOUS
 62
     7
 10
672.25
 20
871.79179
 11
703.5
 21
873.79179
  0
LINE
  8
DATA
  6
CONTINUOUS
 62
     7
 10
703.5
 20
875.79179
 11
672.25
 21
877.79179
  0
LINE
  8
DATA
  6
CONTINUOUS
 62
     7
 10
672.25
 20
881.79179
 11
703.5
 21
883.79179
  0
LINE
  8
DATA
  6
CONTINUOUS
 62
     7
 10
703.5
 20
895.79179
 11
703.5
 21
893.79179
  0
LINE
  8
DATA
  6
CONTINUOUS
 62
     7
 10
703.5
 20
945.79179
 11
703.5
 21
943.79179
  0
LINE
  8
DATA
  6
CONTINUOUS
 62
     7
 10
703.5
 20
905.79179
 11
703.5
 21
903.79179
  0
LINE
  8
DATA
  6
CONTINUOUS
 62
     7
 10
703.5
 20
915.79179
 11
703.5
 21
913.79179
  0
LINE
  8
DATA
  6
CONTINUOUS
 62
     7
 10
703.5
 20
925.79179
 11
703.5
 21
923.79179
  0
LINE
  8
DATA
  6
CONTINUOUS
 62
     7
 10
703.5
 20
935.79179
 11
703.5
 21
933.79179
  0
LINE
  8
DATA
  6
CONTINUOUS
 62
     7
 10
703.5
 20
955.79179
 11
703.5
 21
953.79179
  0
LINE
  8
DATA
  6
CONTINUOUS
 62
     7
 10
703.5
 20
965.79179
 11
703.5
 21
963.79179
  0
LINE
  8
DATA
  6
CONTINUOUS
 62
     7
 10
703.5
 20
975.79179
 11
703.5
 21
973.79179
  0
LINE
  8
DATA
  6
CONTINUOUS
 62
     7
 10
703.5
 20
985.79179
 11
703.5
 21
983.79179
  0
LINE
  8
DATA
  6
CONTINUOUS
 62
     7
 10
703.5
 20
995.79179
 11
703.5
 21
993.79179
  0
LINE
  8
DATA
  6
CONTINUOUS
 62
     7
 10
672.25
 20
991.79179
 11
672.25
 21
987.79179
  0
LINE
  8
DATA
  6
CONTINUOUS
 62
     7
 10
672.25
 20
981.79179
 11
672.25
 21
977.79179
  0
LINE
  8
DATA
  6
CONTINUOUS
 62
     7
 10
672.25
 20
971.79179
 11
672.25
 21
967.79179
  0
LINE
  8
DATA
  6
CONTINUOUS
 62
     7
 10
672.25
 20
961.79179
 11
672.25
 21
957.79179
  0
LINE
  8
DATA
  6
CONTINUOUS
 62
     7
 10
672.25
 20
951.79179
 11
672.25
 21
947.79179
  0
LINE
  8
DATA
  6
CONTINUOUS
 62
     7
 10
672.25
 20
931.79179
 11
672.25
 21
927.79179
  0
LINE
  8
DATA
  6
CONTINUOUS
 62
     7
 10
672.25
 20
921.79179
 11
672.25
 21
917.79179
  0
LINE
  8
DATA
  6
CONTINUOUS
 62
     7
 10
672.25
 20
911.79179
 11
672.25
 21
907.79179
  0
LINE
  8
DATA
  6
CONTINUOUS
 62
     7
 10
672.25
 20
901.79179
 11
672.25
 21
897.79179
  0
LINE
  8
DATA
  6
CONTINUOUS
 62
     7
 10
672.25
 20
941.79179
 11
672.25
 21
937.79179
  0
LINE
  8
DATA
  6
CONTINUOUS
 62
     7
 10
672.25
 20
891.79179
 11
672.25
 21
887.79179
  0
LINE
  8
DATA
  6
CONTINUOUS
 62
     7
 10
672.25
 20
891.79179
 11
703.5
 21
893.79179
  0
LINE
  8
DATA
  6
CONTINUOUS
 62
     7
 10
703.5
 20
895.79179
 11
672.25
 21
897.79179
  0
LINE
  8
DATA
  6
CONTINUOUS
 62
     7
 10
672.25
 20
901.79179
 11
703.5
 21
903.79179
  0
LINE
  8
DATA
  6
CONTINUOUS
 62
     7
 10
703.5
 20
905.79179
 11
672.25
 21
907.79179
  0
LINE
  8
DATA
  6
CONTINUOUS
 62
     7
 10
672.25
 20
911.79179
 11
703.5
 21
913.79179
  0
LINE
  8
DATA
  6
CONTINUOUS
 62
     7
 10
703.5
 20
915.79179
 11
672.25
 21
917.79179
  0
LINE
  8
DATA
  6
CONTINUOUS
 62
     7
 10
672.25
 20
921.79179
 11
703.5
 21
923.79179
  0
LINE
  8
DATA
  6
CONTINUOUS
 62
     7
 10
703.5
 20
925.79179
 11
672.25
 21
927.79179
  0
LINE
  8
DATA
  6
CONTINUOUS
 62
     7
 10
672.25
 20
931.79179
 11
703.5
 21
933.79179
  0
LINE
  8
DATA
  6
CONTINUOUS
 62
     7
 10
703.5
 20
935.79179
 11
672.25
 21
937.79179
  0
LINE
  8
DATA
  6
CONTINUOUS
 62
     7
 10
672.25
 20
941.79179
 11
703.5
 21
943.79179
  0
LINE
  8
DATA
  6
CONTINUOUS
 62
     7
 10
703.5
 20
945.79179
 11
672.25
 21
947.79179
  0
LINE
  8
DATA
  6
CONTINUOUS
 62
     7
 10
672.25
 20
951.79179
 11
703.5
 21
953.79179
  0
LINE
  8
DATA
  6
CONTINUOUS
 62
     7
 10
703.5
 20
955.79179
 11
672.25
 21
957.79179
  0
LINE
  8
DATA
  6
CONTINUOUS
 62
     7
 10
672.25
 20
961.79179
 11
703.5
 21
963.79179
  0
LINE
  8
DATA
  6
CONTINUOUS
 62
     7
 10
703.5
 20
965.79179
 11
672.25
 21
967.79179
  0
LINE
  8
DATA
  6
CONTINUOUS
 62
     7
 10
672.25
 20
971.79179
 11
703.5
 21
973.79179
  0
LINE
  8
DATA
  6
CONTINUOUS
 62
     7
 10
703.5
 20
975.79179
 11
672.25
 21
977.79179
  0
LINE
  8
DATA
  6
CONTINUOUS
 62
     7
 10
672.25
 20
981.79179
 11
703.5
 21
983.79179
  0
LINE
  8
DATA
  6
CONTINUOUS
 62
     7
 10
703.5
 20
985.79179
 11
672.25
 21
987.79179
  0
LINE
  8
DATA
  6
CONTINUOUS
 62
     7
 10
672.25
 20
991.79179
 11
703.5
 21
993.79179
  0
LINE
  8
DATA
  6
CONTINUOUS
 62
     7
 10
703.5
 20
995.79179
 11
672.25
 21
997.79179
  0
LINE
  8
DATA
  6
CONTINUOUS
 62
     7
 10
569.25
 20
1028.5
 11
569.25
 21
1031.5
  0
LINE
  8
DATA
  6
CONTINUOUS
 62
     7
 10
569.25
 20
1020.5
 11
569.25
 21
1023.5
  0
LINE
  8
DATA
  6
CONTINUOUS
 62
     7
 10
569.25
 20
1012.5
 11
569.25
 21
1015.5
  0
LINE
  8
DATA
  6
CONTINUOUS
 62
     7
 10
569.25
 20
1004.5
 11
569.25
 21
1007.5
  0
LINE
  8
DATA
  6
CONTINUOUS
 62
     7
 10
703.5
 20
1005.79179
 11
703.5
 21
1003.79179
  0
LINE
  8
DATA
  6
CONTINUOUS
 62
     7
 10
703.5
 20
1015.79179
 11
703.5
 21
1013.79179
  0
LINE
  8
DATA
  6
CONTINUOUS
 62
     7
 10
703.5
 20
1025.79179
 11
703.5
 21
1023.79179
  0
LINE
  8
DATA
  6
CONTINUOUS
 62
     7
 10
703.5
 20
1055.0
 11
703.5
 21
1043.29179
  0
LINE
  8
DATA
  6
CONTINUOUS
 62
     7
 10
703.5
 20
1035.79179
 11
703.5
 21
1033.79179
  0
LINE
  8
DATA
  6
CONTINUOUS
 62
     7
 10
672.25
 20
1021.79179
 11
672.25
 21
1017.79179
  0
LINE
  8
DATA
  6
CONTINUOUS
 62
     7
 10
672.25
 20
1011.79179
 11
672.25
 21
1007.79179
  0
LINE
  8
DATA
  6
CONTINUOUS
 62
     7
 10
674.25
 20
1057.5
 11
674.25
 21
1055.0
  0
LINE
  8
DATA
  6
CONTINUOUS
 62
     7
 10
672.25
 20
1031.79179
 11
672.25
 21
1027.79179
  0
LINE
  8
DATA
  6
CONTINUOUS
 62
     7
 10
672.25
 20
1041.29179
 11
672.25
 21
1037.79179
  0
ARC
  8
DATA
  6
CONTINUOUS
 62
     7
 10
669.326935
 20
1057.5
 40
2.0
 50
0.0
 51
90.0
  0
LINE
  8
DATA
  6
CONTINUOUS
 62
     7
 10
669.326935
 20
1059.5
 11
667.173065
 21
1059.5
  0
ARC
  8
DATA
  6
CONTINUOUS
 62
     7
 10
667.173065
 20
1057.5
 40
2.0
 50
90.0
 51
180.0
  0
ARC
  8
DATA
  6
CONTINUOUS
 62
     7
 10
620.25
 20
1046.0
 40
2.61447
 50
94.387259
 51
175.612741
  0
ARC
  8
DATA
  6
CONTINUOUS
 62
     7
 10
620.25
 20
1046.0
 40
2.61447
 50
4.387259
 51
85.612741
  0
ARC
  8
DATA
  6
CONTINUOUS
 62
     7
 10
620.25
 20
1046.0
 40
2.61447
 50
94.387259
 51
175.612741
  0
ARC
  8
DATA
  6
CONTINUOUS
 62
     7
 10
620.25
 20
1046.0
 40
2.61447
 50
4.387259
 51
85.612741
  0
CIRCLE
  8
DATA
  6
CONTINUOUS
 62
     7
 10
620.25
 20
1046.0
 40
2.61447
  0
LINE
  8
DATA
  6
CONTINUOUS
 62
     7
 10
618.75
 20
1046.0
 11
621.75
 21
1046.0
  0
LINE
  8
DATA
  6
CONTINUOUS
 62
     7
 10
620.25
 20
1044.5
 11
620.25
 21
1047.5
  0
CIRCLE
  8
DATA
  6
CONTINUOUS
 62
     7
 10
620.25
 20
1046.0
 40
3.0
  0
LINE
  8
DATA
  6
CONTINUOUS
 62
     7
 10
672.25
 20
1001.79179
 11
703.5
 21
1003.79179
  0
LINE
  8
DATA
  6
CONTINUOUS
 62
     7
 10
703.5
 20
1005.79179
 11
672.25
 21
1007.79179
  0
LINE
  8
DATA
  6
CONTINUOUS
 62
     7
 10
672.25
 20
1011.79179
 11
703.5
 21
1013.79179
  0
LINE
  8
DATA
  6
CONTINUOUS
 62
     7
 10
703.5
 20
1015.79179
 11
672.25
 21
1017.79179
  0
LINE
  8
DATA
  6
CONTINUOUS
 62
     7
 10
672.25
 20
1021.79179
 11
703.5
 21
1023.79179
  0
LINE
  8
DATA
  6
CONTINUOUS
 62
     7
 10
703.5
 20
1025.79179
 11
672.25
 21
1027.79179
  0
LINE
  8
DATA
  6
CONTINUOUS
 62
     7
 10
672.25
 20
1031.79179
 11
703.5
 21
1033.79179
  0
LINE
  8
DATA
  6
CONTINUOUS
 62
     7
 10
703.5
 20
1035.79179
 11
672.25
 21
1037.79179
  0
LINE
  8
DATA
  6
CONTINUOUS
 62
     7
 10
672.25
 20
1041.29179
 11
703.5
 21
1043.29179
  0
LINE
  8
DIMENSIONS
  6
CONTINUOUS
 62
     7
 10
703.5
 20
1100.0
 11
278.5
 21
1100.0
  0
LINE
  8
DIMENSIONS
  6
CONTINUOUS
 62
     7
 10
278.5
 20
1062.5
 11
278.5
 21
1109.375
  0
LINE
  8
DIMENSIONS
  6
CONTINUOUS
 62
     7
 10
293.5
 20
1102.4999
 11
278.5
 21
1100.0
  0
LINE
  8
DIMENSIONS
  6
CONTINUOUS
 62
     7
 10
293.5
 20
1097.5001
 11
278.5
 21
1100.0
  0
TEXT
  8
SPEC
  6
CONTINUOUS
 62
     7
 10
135.9375
 20
1879.6875
 40
18.75
  1
定格ヒューズ  250V. 6.3A
  7
TTF_DEFAULT
  0
TEXT
  8
SPEC
  6
CONTINUOUS
 62
     7
 10
140.625
 20
1996.875
 40
22.5
  1
仕様
  7
TTF_DEFAULT
  0
TEXT
  8
SPEC
  6
CONTINUOUS
 62
     7
 10
135.9375
 20
1964.0625
 40
18.75
  1
電源/消費電力
  7
TTF_DEFAULT
  0
TEXT
  8
SPEC
  6
CONTINUOUS
 62
     7
 10
135.9375
 20
1935.9375
 40
18.75
  1
重量
  7
TTF_DEFAULT
  0
TEXT
  8
SPEC
  6
CONTINUOUS
 62
     7
 10
135.9375
 20
1907.8125
 40
18.75
  1
寸法
  7
TTF_DEFAULT
  0
LINE
  8
SPEC
  6
CONTINUOUS
 62
     7
 10
131.25
 20
1903.125
 11
131.25
 21
1987.5
  0
TEXT
  8
DIMENSIONS
  6
CONTINUOUS
 62
     7
 10
476.018936
 20
1109.375
 40
18.75
  1
425
  7
TTF_DEFAULT
  0
LINE
  8
DIMENSIONS
  6
CONTINUOUS
 62
     7
 10
703.5
 20
1062.5
 11
703.5
 21
1109.375
  0
LINE
  8
DIMENSIONS
  6
CONTINUOUS
 62
     7
 10
688.5
 20
1102.4999
 11
703.5
 21
1100.0
  0
LINE
  8
DIMENSIONS
  6
CONTINUOUS
 62
     7
 10
688.5
 20
1097.5001
 11
703.5
 21
1100.0
  0
TEXT
  8
SPEC
  6
CONTINUOUS
 62
     7
 10
379.6875
 20
1907.8125
 40
18.75
  1
483(W)×89(H)×305(D)mm
  7
TTF_DEFAULT
  0
TEXT
  8
SPEC
  6
CONTINUOUS
 62
     7
 10
379.6875
 20
1964.0625
 40
18.75
  1
AC100V 50/60Hz 360W
  7
TTF_DEFAULT
  0
TEXT
  8
SPEC
  6
CONTINUOUS
 62
     7
 10
379.6875
 20
1935.9375
 40
18.75
  1
約10kg
  7
TTF_DEFAULT
  0
LINE
  8
SPEC
  6
CONTINUOUS
 62
     7
 10
375.0
 20
1987.5
 11
375.0
 21
1903.125
  0
TEXT
  8
HIBINO-BASE
  6
CONTINUOUS
 62
     7
 10
1110.0
 20
168.75
 40
18.75
  1
DRAWN
  7
TTF_DEFAULT
  0
LINE
  8
HIBINO-BASE
  6
CONTINUOUS
 62
     7
 10
750.0
 20
187.5
 11
1425.0
 21
187.5
  0
TEXT
  8
HIBINO-BASE
  6
CONTINUOUS
 62
     7
 10
1115.625
 20
131.25
 40
18.75
  1
N.Sasaki
  7
TTF_DEFAULT
  0
LINE
  8
DATA
  6
CONTINUOUS
 62
     7
 10
853.0
 20
631.0
 11
1157.5
 21
631.0
  0
LINE
  8
DATA
  6
CONTINUOUS
 62
     7
 10
853.0
 20
634.0
 11
1155.0
 21
634.0
  0
LINE
  8
DATA
  6
CONTINUOUS
 62
     7
 10
853.0
 20
558.0
 11
1155.0
 21
558.0
  0
LINE
  8
DATA
  6
CONTINUOUS
 62
     7
 10
853.0
 20
555.0
 11
1157.5
 21
555.0
  0
LINE
  8
DATA
  6
CONTINUOUS
 62
     7
 10
1135.43891
 20
546.0
 11
1114.50837
 21
546.0
  0
LINE
  8
DIMENSIONS
  6
CONTINUOUS
 62
     7
 10
750.0
 20
282.25
 11
1425.0
 21
282.25
  0
LINE
  8
DIMENSIONS
  6
CONTINUOUS
 62
     7
 10
750.0
 20
280.25
 11
1425.0
 21
280.25
  0
LINE
  8
DIMENSIONS
  6
CONTINUOUS
 62
     7
 10
750.0
 20
282.25
 11
750.0
 21
280.25
  0
LINE
  8
DIMENSIONS
  6
CONTINUOUS
 62
     7
 10
1425.0
 20
282.25
 11
1425.0
 21
280.25
  0
SOLID
  8
HIBINO-BASE
  6
CONTINUOUS
 62
     7
 10
750.0
 20
282.25
 11
1425.0
 21
282.25
 12
750.0
 22
280.25
 13
1425.0
 23
280.25
  0
LINE
  8
DIMENSIONS
  6
CONTINUOUS
 62
     7
 10
848.0
 20
675.0
 11
1161.67167
 21
675.0
  0
TEXT
  8
HIBINO-BASE
  6
CONTINUOUS
 62
     7
 10
922.5
 20
168.75
 40
18.75
  1
DATE
  7
TTF_DEFAULT
  0
TEXT
  8
HIBINO-BASE
  6
CONTINUOUS
 62
     7
 10
928.125
 20
131.25
 40
18.75
  1
'99.09.
  7
TTF_DEFAULT
  0
LINE
  8
DIMENSIONS
  6
CONTINUOUS
 62
     7
 10
749.0
 20
112.5
 11
749.0
 21
281.25
  0
LINE
  8
DIMENSIONS
  6
CONTINUOUS
 62
     7
 10
751.0
 20
112.5
 11
751.0
 21
281.25
  0
LINE
  8
DIMENSIONS
  6
CONTINUOUS
 62
     7
 10
749.0
 20
112.5
 11
751.0
 21
112.5
  0
LINE
  8
DIMENSIONS
  6
CONTINUOUS
 62
     7
 10
749.0
 20
281.25
 11
751.0
 21
281.25
  0
SOLID
  8
HIBINO-BASE
  6
CONTINUOUS
 62
     7
 10
749.0
 20
112.5
 11
749.0
 21
281.25
 12
751.0
 22
112.5
 13
751.0
 23
281.25
  0
LINE
  8
HIBINO-BASE
  6
CONTINUOUS
 62
     7
 10
843.75
 20
112.5
 11
843.75
 21
187.5
  0
LINE
  8
HIBINO-BASE
  6
CONTINUOUS
 62
     7
 10
918.75
 20
112.5
 11
918.75
 21
187.5
  0
TEXT
  8
HIBINO-BASE
  6
CONTINUOUS
 62
     7
 10
847.5
 20
168.75
 40
18.75
  1
SCALE
  7
TTF_DEFAULT
  0
TEXT
  8
HIBINO-BASE
  6
CONTINUOUS
 62
     7
 10
753.75
 20
168.75
 40
16.875
  1
図面サイズ
  7
TTF_DEFAULT
  0
TEXT
  8
HIBINO-BASE
  6
CONTINUOUS
 62
     7
 10
853.125
 20
135.9375
 40
22.5
  1
1
  7
TTF_DEFAULT
  0
LINE
  8
HIBINO-BASE
  6
CONTINUOUS
 62
     7
 10
857.8125
 20
121.875
 11
885.9375
 21
150.0
  0
TEXT
  8
HIBINO-BASE
  6
CONTINUOUS
 62
     7
 10
778.125
 20
121.875
 40
30.0
  1
A4
  7
TTF_DEFAULT
  0
TEXT
  8
HIBINO-BASE
  6
CONTINUOUS
 62
     7
 10
881.25
 20
121.875
 40
22.5
  1
7.5
  7
TTF_DEFAULT
  0
TEXT
  8
HIBINO-BASE
  6
CONTINUOUS
 62
     7
 10
753.75
 20
262.5
 40
18.75
  1
NOTE
  7
TTF_DEFAULT
  0
LINE
  8
HIBINO-BASE
  6
CONTINUOUS
 62
     7
 10
1012.5
 20
112.5
 11
1012.5
 21
281.25
  0
LINE
  8
HIBINO-BASE
  6
CONTINUOUS
 62
     7
 10
1106.25
 20
187.5
 11
1106.25
 21
112.5
  0
TEXT
  8
HIBINO-BASE
  6
CONTINUOUS
 62
     7
 10
1016.25
 20
168.75
 40
18.75
  1
DESIGN
  7
TTF_DEFAULT
  0
TEXT
  8
HIBINO-BASE
  6
CONTINUOUS
 62
     7
 10
1016.25
 20
262.5
 40
18.75
  1
TITLE
  7
TTF_DEFAULT
  0
LINE
  8
DATA
  6
CONTINUOUS
 62
     7
 10
850.0
 20
550.0
 11
850.0
 21
639.0
  0
LINE
  8
DATA
  6
CONTINUOUS
 62
     7
 10
853.0
 20
550.0
 11
853.0
 21
639.0
  0
LINE
  8
DATA
  6
CONTINUOUS
 62
     7
 10
869.74474
 20
555.0
 11
871.74372
 21
546.0
  0
LINE
  8
DATA
  6
CONTINUOUS
 62
     7
 10
894.67324
 20
555.0
 11
892.67426
 21
546.0
  0
LINE
  8
DATA
  6
CONTINUOUS
 62
     7
 10
892.67426
 20
546.0
 11
871.74372
 21
546.0
  0
LINE
  8
DATA
  6
CONTINUOUS
 62
     7
 10
853.0
 20
550.0
 11
850.0
 21
550.0
  0
LINE
  8
DATA
  6
CONTINUOUS
 62
     7
 10
875.83529
 20
558.0
 11
875.83529
 21
631.0
  0
LINE
  8
DATA
  6
CONTINUOUS
 62
     7
 10
885.83529
 20
558.0
 11
885.83529
 21
631.0
  0
LINE
  8
DATA
  6
CONTINUOUS
 62
     7
 10
883.83529
 20
558.0
 11
883.83529
 21
631.0
  0
LINE
  8
DATA
  6
CONTINUOUS
 62
     7
 10
887.79179
 20
558.0
 11
887.79179
 21
631.0
  0
LINE
  8
DATA
  6
CONTINUOUS
 62
     7
 10
877.79179
 20
558.0
 11
877.79179
 21
631.0
  0
LINE
  8
DATA
  6
CONTINUOUS
 62
     7
 10
881.79179
 20
558.0
 11
881.79179
 21
631.0
  0
LINE
  8
DATA
  6
CONTINUOUS
 62
     7
 10
873.83529
 20
558.0
 11
873.83529
 21
631.0
  0
LINE
  8
DATA
  6
CONTINUOUS
 62
     7
 10
866.79179
 20
558.0
 11
866.79179
 21
631.0
  0
LINE
  8
DATA
  6
CONTINUOUS
 62
     7
 10
867.79179
 20
558.0
 11
867.79179
 21
631.0
  0
LINE
  8
DATA
  6
CONTINUOUS
 62
     7
 10
871.79179
 20
558.0
 11
871.79179
 21
631.0
  0
LINE
  8
DATA
  6
CONTINUOUS
 62
     7
 10
853.0
 20
639.0
 11
850.0
 21
639.0
  0
LINE
  8
DATA
  6
CONTINUOUS
 62
     7
 10
866.29179
 20
634.0
 11
853.0
 21
634.0
  0
ARC
  8
DATA
  6
CONTINUOUS
 62
     7
 10
850.0
 20
628.076935
 40
2.0
 50
90.0
 51
180.0
  0
LINE
  8
DATA
  6
CONTINUOUS
 62
     7
 10
848.0
 20
625.923065
 11
848.0
 21
628.076935
  0
ARC
  8
DATA
  6
CONTINUOUS
 62
     7
 10
850.0
 20
625.923065
 40
2.0
 50
180.0
 51
270.0
  0
ARC
  8
DATA
  6
CONTINUOUS
 62
     7
 10
850.0
 20
565.423065
 40
2.0
 50
180.0
 51
270.0
  0
LINE
  8
DATA
  6
CONTINUOUS
 62
     7
 10
848.0
 20
565.423065
 11
848.0
 21
567.576935
  0
ARC
  8
DATA
  6
CONTINUOUS
 62
     7
 10
850.0
 20
567.576935
 40
2.0
 50
90.0
 51
180.0
  0
LINE
  8
DATA
  6
CONTINUOUS
 62
     7
 10
847.53157
 20
607.25
 11
850.0
 21
607.25
  0
ARC
  8
DATA
  6
CONTINUOUS
 62
     7
 10
845.614903
 20
599.833333
 40
7.660323
 50
55.079257
 51
75.510237
  0
ARC
  8
DATA
  6
CONTINUOUS
 62
     7
 10
853.03157
 20
607.25
 40
5.5
 50
123.449002
 51
180.0
  0
LINE
  8
DATA
  6
CONTINUOUS
 62
     7
 10
891.79179
 20
558.0
 11
891.79179
 21
631.0
  0
LINE
  8
DATA
  6
CONTINUOUS
 62
     7
 10
927.79179
 20
558.0
 11
927.79179
 21
631.0
  0
LINE
  8
DATA
  6
CONTINUOUS
 62
     7
 10
895.96098
 20
558.0
 11
895.96098
 21
631.0
  0
LINE
  8
DATA
  6
CONTINUOUS
 62
     7
 10
903.96098
 20
558.0
 11
903.96098
 21
631.0
  0
LINE
  8
DATA
  6
CONTINUOUS
 62
     7
 10
913.80906
 20
558.0
 11
913.80906
 21
631.0
  0
LINE
  8
DATA
  6
CONTINUOUS
 62
     7
 10
923.80906
 20
558.0
 11
923.80906
 21
631.0
  0
LINE
  8
DATA
  6
CONTINUOUS
 62
     7
 10
933.93475
 20
558.0
 11
933.93475
 21
631.0
  0
LINE
  8
DATA
  6
CONTINUOUS
 62
     7
 10
925.80906
 20
558.0
 11
925.80906
 21
631.0
  0
LINE
  8
DATA
  6
CONTINUOUS
 62
     7
 10
897.79179
 20
558.0
 11
897.79179
 21
631.0
  0
LINE
  8
DATA
  6
CONTINUOUS
 62
     7
 10
901.79179
 20
558.0
 11
901.79179
 21
631.0
  0
LINE
  8
DATA
  6
CONTINUOUS
 62
     7
 10
907.79179
 20
558.0
 11
907.79179
 21
631.0
  0
LINE
  8
DATA
  6
CONTINUOUS
 62
     7
 10
921.79179
 20
558.0
 11
921.79179
 21
631.0
  0
LINE
  8
DATA
  6
CONTINUOUS
 62
     7
 10
911.79179
 20
558.0
 11
911.79179
 21
631.0
  0
LINE
  8
DATA
  6
CONTINUOUS
 62
     7
 10
917.79179
 20
558.0
 11
917.79179
 21
631.0
  0
LINE
  8
DATA
  6
CONTINUOUS
 62
     7
 10
931.79179
 20
558.0
 11
931.79179
 21
631.0
  0
LINE
  8
DATA
  6
CONTINUOUS
 62
     7
 10
905.96098
 20
558.0
 11
905.96098
 21
631.0
  0
LINE
  8
DATA
  6
CONTINUOUS
 62
     7
 10
915.80906
 20
558.0
 11
915.80906
 21
631.0
  0
LINE
  8
DATA
  6
CONTINUOUS
 62
     7
 10
893.96098
 20
558.0
 11
893.96098
 21
631.0
  0
LINE
  8
DIMENSIONS
  6
CONTINUOUS
 62
     7
 10
848.0
 20
635.576935
 11
848.0
 21
684.375
  0
LINE
  8
DIMENSIONS
  6
CONTINUOUS
 62
     7
 10
863.0
 20
672.5001
 11
848.0
 21
675.0
  0
LINE
  8
DIMENSIONS
  6
CONTINUOUS
 62
     7
 10
863.0
 20
677.4999
 11
848.0
 21
675.0
  0
TEXT
  8
DATA
  6
CONTINUOUS
 62
     7
 10
807.5
 20
792.0
 40
18.75
  1
ヒートシンク
  7
TTF_DEFAULT
  0
LINE
  8
DATA
  6
CONTINUOUS
 62
     7
 10
1034.00797
 20
558.0
 11
1034.00797
 21
631.0
  0
LINE
  8
DATA
  6
CONTINUOUS
 62
     7
 10
1036.00797
 20
558.0
 11
1036.00797
 21
631.0
  0
LINE
  8
DATA
  6
CONTINUOUS
 62
     7
 10
1044.00797
 20
558.0
 11
1044.00797
 21
631.0
  0
LINE
  8
DATA
  6
CONTINUOUS
 62
     7
 10
1046.00797
 20
558.0
 11
1046.00797
 21
631.0
  0
LINE
  8
DATA
  6
CONTINUOUS
 62
     7
 10
1031.79179
 20
558.0
 11
1031.79179
 21
631.0
  0
LINE
  8
DATA
  6
CONTINUOUS
 62
     7
 10
1037.79179
 20
558.0
 11
1037.79179
 21
631.0
  0
LINE
  8
DATA
  6
CONTINUOUS
 62
     7
 10
1047.79179
 20
558.0
 11
1047.79179
 21
631.0
  0
LINE
  8
DATA
  6
CONTINUOUS
 62
     7
 10
1041.79179
 20
558.0
 11
1041.79179
 21
631.0
  0
LINE
  8
DATA
  6
CONTINUOUS
 62
     7
 10
1013.88229
 20
558.0
 11
1013.88229
 21
631.0
  0
LINE
  8
DATA
  6
CONTINUOUS
 62
     7
 10
1015.88229
 20
558.0
 11
1015.88229
 21
631.0
  0
LINE
  8
DATA
  6
CONTINUOUS
 62
     7
 10
1025.88229
 20
558.0
 11
1025.88229
 21
631.0
  0
LINE
  8
DATA
  6
CONTINUOUS
 62
     7
 10
1023.88229
 20
558.0
 11
1023.88229
 21
631.0
  0
LINE
  8
DATA
  6
CONTINUOUS
 62
     7
 10
1001.79179
 20
558.0
 11
1001.79179
 21
631.0
  0
LINE
  8
DATA
  6
CONTINUOUS
 62
     7
 10
1006.0
 20
558.0
 11
1006.0
 21
631.0
  0
LINE
  8
DATA
  6
CONTINUOUS
 62
     7
 10
1004.0
 20
558.0
 11
1004.0
 21
631.0
  0
LINE
  8
DATA
  6
CONTINUOUS
 62
     7
 10
1011.79179
 20
558.0
 11
1011.79179
 21
631.0
  0
LINE
  8
DATA
  6
CONTINUOUS
 62
     7
 10
1017.79179
 20
558.0
 11
1017.79179
 21
631.0
  0
LINE
  8
DATA
  6
CONTINUOUS
 62
     7
 10
1027.79179
 20
558.0
 11
1027.79179
 21
631.0
  0
LINE
  8
DATA
  6
CONTINUOUS
 62
     7
 10
1021.79179
 20
558.0
 11
1021.79179
 21
631.0
  0
LINE
  8
DATA
  6
CONTINUOUS
 62
     7
 10
1007.79179
 20
558.0
 11
1007.79179
 21
631.0
  0
LINE
  8
DATA
  6
CONTINUOUS
 62
     7
 10
966.06043
 20
558.0
 11
966.06043
 21
631.0
  0
LINE
  8
DATA
  6
CONTINUOUS
 62
     7
 10
961.79179
 20
558.0
 11
961.79179
 21
631.0
  0
LINE
  8
DATA
  6
CONTINUOUS
 62
     7
 10
967.79179
 20
558.0
 11
967.79179
 21
631.0
  0
LINE
  8
DATA
  6
CONTINUOUS
 62
     7
 10
964.06043
 20
558.0
 11
964.06043
 21
631.0
  0
LINE
  8
DATA
  6
CONTINUOUS
 62
     7
 10
991.79179
 20
558.0
 11
991.79179
 21
631.0
  0
LINE
  8
DATA
  6
CONTINUOUS
 62
     7
 10
987.79179
 20
558.0
 11
987.79179
 21
631.0
  0
LINE
  8
DATA
  6
CONTINUOUS
 62
     7
 10
973.90852
 20
558.0
 11
973.90852
 21
631.0
  0
LINE
  8
DATA
  6
CONTINUOUS
 62
     7
 10
975.90852
 20
558.0
 11
975.90852
 21
631.0
  0
LINE
  8
DATA
  6
CONTINUOUS
 62
     7
 10
983.90852
 20
558.0
 11
983.90852
 21
631.0
  0
LINE
  8
DATA
  6
CONTINUOUS
 62
     7
 10
996.0
 20
558.0
 11
996.0
 21
631.0
  0
LINE
  8
DATA
  6
CONTINUOUS
 62
     7
 10
994.0
 20
558.0
 11
994.0
 21
631.0
  0
LINE
  8
DATA
  6
CONTINUOUS
 62
     7
 10
985.90852
 20
558.0
 11
985.90852
 21
631.0
  0
LINE
  8
DATA
  6
CONTINUOUS
 62
     7
 10
971.79179
 20
558.0
 11
971.79179
 21
631.0
  0
LINE
  8
DATA
  6
CONTINUOUS
 62
     7
 10
981.79179
 20
558.0
 11
981.79179
 21
631.0
  0
LINE
  8
DATA
  6
CONTINUOUS
 62
     7
 10
977.79179
 20
558.0
 11
977.79179
 21
631.0
  0
LINE
  8
DATA
  6
CONTINUOUS
 62
     7
 10
997.79179
 20
558.0
 11
997.79179
 21
631.0
  0
LINE
  8
DATA
  6
CONTINUOUS
 62
     7
 10
957.79179
 20
558.0
 11
957.79179
 21
631.0
  0
LINE
  8
DATA
  6
CONTINUOUS
 62
     7
 10
954.06043
 20
558.0
 11
954.06043
 21
631.0
  0
LINE
  8
DATA
  6
CONTINUOUS
 62
     7
 10
956.06043
 20
558.0
 11
956.06043
 21
631.0
  0
LINE
  8
DATA
  6
CONTINUOUS
 62
     7
 10
951.79179
 20
558.0
 11
951.79179
 21
631.0
  0
LINE
  8
DATA
  6
CONTINUOUS
 62
     7
 10
947.79179
 20
558.0
 11
947.79179
 21
631.0
  0
LINE
  8
DATA
  6
CONTINUOUS
 62
     7
 10
937.79179
 20
558.0
 11
937.79179
 21
631.0
  0
LINE
  8
DATA
  6
CONTINUOUS
 62
     7
 10
941.79179
 20
558.0
 11
941.79179
 21
631.0
  0
LINE
  8
DATA
  6
CONTINUOUS
 62
     7
 10
935.93475
 20
558.0
 11
935.93475
 21
631.0
  0
LINE
  8
DATA
  6
CONTINUOUS
 62
     7
 10
945.93475
 20
558.0
 11
945.93475
 21
631.0
  0
LINE
  8
DATA
  6
CONTINUOUS
 62
     7
 10
943.93475
 20
558.0
 11
943.93475
 21
631.0
  0
LINE
  8
DATA
  6
CONTINUOUS
 62
     7
 10
1112.50939
 20
555.0
 11
1114.50837
 21
546.0
  0
LINE
  8
DATA
  6
CONTINUOUS
 62
     7
 10
1083.79179
 20
558.0
 11
1083.79179
 21
631.0
  0
LINE
  8
DATA
  6
CONTINUOUS
 62
     7
 10
1093.79179
 20
558.0
 11
1093.79179
 21
631.0
  0
LINE
  8
DATA
  6
CONTINUOUS
 62
     7
 10
1067.79179
 20
558.0
 11
1067.79179
 21
631.0
  0
LINE
  8
DATA
  6
CONTINUOUS
 62
     7
 10
1081.79179
 20
558.0
 11
1081.79179
 21
631.0
  0
LINE
  8
DATA
  6
CONTINUOUS
 62
     7
 10
1065.79179
 20
558.0
 11
1065.79179
 21
631.0
  0
LINE
  8
DATA
  6
CONTINUOUS
 62
     7
 10
1063.79179
 20
558.0
 11
1063.79179
 21
631.0
  0
LINE
  8
DATA
  6
CONTINUOUS
 62
     7
 10
1073.79179
 20
558.0
 11
1073.79179
 21
631.0
  0
LINE
  8
DATA
  6
CONTINUOUS
 62
     7
 10
1075.79179
 20
558.0
 11
1075.79179
 21
631.0
  0
LINE
  8
DATA
  6
CONTINUOUS
 62
     7
 10
1085.79179
 20
558.0
 11
1085.79179
 21
631.0
  0
LINE
  8
DATA
  6
CONTINUOUS
 62
     7
 10
1107.79179
 20
558.0
 11
1107.79179
 21
631.0
  0
LINE
  8
DATA
  6
CONTINUOUS
 62
     7
 10
1103.79179
 20
558.0
 11
1103.79179
 21
631.0
  0
LINE
  8
DATA
  6
CONTINUOUS
 62
     7
 10
1105.79179
 20
558.0
 11
1105.79179
 21
631.0
  0
LINE
  8
DATA
  6
CONTINUOUS
 62
     7
 10
1113.79179
 20
558.0
 11
1113.79179
 21
631.0
  0
LINE
  8
DATA
  6
CONTINUOUS
 62
     7
 10
1061.79179
 20
558.0
 11
1061.79179
 21
631.0
  0
LINE
  8
DATA
  6
CONTINUOUS
 62
     7
 10
1071.79179
 20
558.0
 11
1071.79179
 21
631.0
  0
LINE
  8
DATA
  6
CONTINUOUS
 62
     7
 10
1095.79179
 20
558.0
 11
1095.79179
 21
631.0
  0
LINE
  8
DATA
  6
CONTINUOUS
 62
     7
 10
1077.79179
 20
558.0
 11
1077.79179
 21
631.0
  0
LINE
  8
DATA
  6
CONTINUOUS
 62
     7
 10
1087.79179
 20
558.0
 11
1087.79179
 21
631.0
  0
LINE
  8
DATA
  6
CONTINUOUS
 62
     7
 10
1097.79179
 20
558.0
 11
1097.79179
 21
631.0
  0
LINE
  8
DATA
  6
CONTINUOUS
 62
     7
 10
1091.79179
 20
558.0
 11
1091.79179
 21
631.0
  0
LINE
  8
DATA
  6
CONTINUOUS
 62
     7
 10
1101.79179
 20
558.0
 11
1101.79179
 21
631.0
  0
LINE
  8
DATA
  6
CONTINUOUS
 62
     7
 10
1111.79179
 20
558.0
 11
1111.79179
 21
631.0
  0
LINE
  8
DATA
  6
CONTINUOUS
 62
     7
 10
1055.79179
 20
558.0
 11
1055.79179
 21
631.0
  0
LINE
  8
DATA
  6
CONTINUOUS
 62
     7
 10
1053.79179
 20
558.0
 11
1053.79179
 21
631.0
  0
LINE
  8
DATA
  6
CONTINUOUS
 62
     7
 10
1057.79179
 20
558.0
 11
1057.79179
 21
631.0
  0
LINE
  8
DATA
  6
CONTINUOUS
 62
     7
 10
1051.79179
 20
558.0
 11
1051.79179
 21
631.0
  0
LINE
  8
DATA
  6
CONTINUOUS
 62
     7
 10
1125.79179
 20
558.0
 11
1125.79179
 21
631.0
  0
LINE
  8
DATA
  6
CONTINUOUS
 62
     7
 10
1123.79179
 20
558.0
 11
1123.79179
 21
631.0
  0
LINE
  8
DATA
  6
CONTINUOUS
 62
     7
 10
1121.79179
 20
558.0
 11
1121.79179
 21
631.0
  0
LINE
  8
DATA
  6
CONTINUOUS
 62
     7
 10
1127.79179
 20
558.0
 11
1127.79179
 21
631.0
  0
LINE
  8
DATA
  6
CONTINUOUS
 62
     7
 10
1115.79179
 20
558.0
 11
1115.79179
 21
631.0
  0
LINE
  8
DATA
  6
CONTINUOUS
 62
     7
 10
1115.79179
 20
558.0
 11
1115.79179
 21
631.0
  0
LINE
  8
DATA
  6
CONTINUOUS
 62
     7
 10
1117.79179
 20
558.0
 11
1117.79179
 21
631.0
  0
TEXT
  8
DIMENSIONS
  6
CONTINUOUS
 62
     7
 10
990.356333
 20
684.375
 40
18.75
  1
314
  7
TTF_DEFAULT
  0
TEXT
  8
HIBINO-BASE
  6
CONTINUOUS
 62
     7
 10
1297.5
 20
168.75
 40
18.75
  1
DRAWING NO.
  7
TTF_DEFAULT
  0
TEXT
  8
HIBINO-BASE
  6
CONTINUOUS
 62
     7
 10
1190.475197
 20
64.4349
 40
30.0
  1
ヒビノ株式会社
  7
TTF_DEFAULT
  0
TEXT
  8
DATA
  6
CONTINUOUS
 62
     7
 10
1143.75
 20
214.0625
 40
22.5
  1
CPS450/B
  7
TTF_DEFAULT
  0
LINE
  8
HIBINO-BASE
  6
CONTINUOUS
 62
     7
 10
1200.0
 20
112.5
 11
1200.0
 21
187.5
  0
LINE
  8
HIBINO-BASE
  6
CONTINUOUS
 62
     7
 10
1293.75
 20
187.5
 11
1293.75
 21
112.5
  0
TEXT
  8
HIBINO-BASE
  6
CONTINUOUS
 62
     7
 10
1203.75
 20
168.75
 40
18.75
  1
CHECK
  7
TTF_DEFAULT
  0
TEXT
  8
DATA
  6
CONTINUOUS
 62
     7
 10
1143.75
 20
248.4375
 40
22.5
  1
Soundcraft
  7
TTF_DEFAULT
  0
LINE
  8
DATA
  6
CONTINUOUS
 62
     7
 10
1137.43789
 20
555.0
 11
1135.43891
 21
546.0
  0
LINE
  8
DATA
  6
CONTINUOUS
 62
     7
 10
1135.79179
 20
558.0
 11
1135.79179
 21
631.0
  0
LINE
  8
DATA
  6
CONTINUOUS
 62
     7
 10
1133.79179
 20
558.0
 11
1133.79179
 21
631.0
  0
LINE
  8
DATA
  6
CONTINUOUS
 62
     7
 10
1143.29179
 20
558.0
 11
1143.29179
 21
631.0
  0
LINE
  8
DATA
  6
CONTINUOUS
 62
     7
 10
1141.29179
 20
558.0
 11
1141.29179
 21
631.0
  0
LINE
  8
DATA
  6
CONTINUOUS
 62
     7
 10
1131.79179
 20
558.0
 11
1131.79179
 21
631.0
  0
LINE
  8
DATA
  6
CONTINUOUS
 62
     7
 10
1137.79179
 20
558.0
 11
1137.79179
 21
631.0
  0
LINE
  8
DATA
  6
CONTINUOUS
 62
     7
 10
1157.5
 20
555.0
 11
1157.5
 21
631.0
  0
ARC
  8
DATA
  6
CONTINUOUS
 62
     7
 10
1157.5
 20
561.18402
 40
2.0
 50
270.0
 51
0.0
  0
ARC
  8
DATA
  6
CONTINUOUS
 62
     7
 10
1157.5
 20
563.33789
 40
2.0
 50
0.0
 51
90.0
  0
LINE
  8
DATA
  6
CONTINUOUS
 62
     7
 10
1159.5
 20
563.33789
 11
1159.5
 21
561.18402
  0
LINE
  8
DATA
  6
CONTINUOUS
 62
     7
 10
1159.67395
 20
599.14733
 11
1158.61568
 21
621.30206
  0
LINE
  8
DATA
  6
CONTINUOUS
 62
     7
 10
1161.67167
 20
599.24276
 11
1157.5
 21
599.24276
  0
LINE
  8
DATA
  6
CONTINUOUS
 62
     7
 10
1157.5
 20
621.39748
 11
1161.67167
 21
621.39748
  0
ARC
  8
DATA
  6
CONTINUOUS
 62
     7
 10
1157.5
 20
625.06887
 40
2.0
 50
270.0
 51
0.0
  0
ARC
  8
DATA
  6
CONTINUOUS
 62
     7
 10
1157.5
 20
627.22274
 40
2.0
 50
0.0
 51
90.0
  0
LINE
  8
DATA
  6
CONTINUOUS
 62
     7
 10
1160.67281
 20
599.19505
 11
1159.61454
 21
621.34977
  0
LINE
  8
DATA
  6
CONTINUOUS
 62
     7
 10
1161.67167
 20
599.24276
 11
1160.6134
 21
621.39748
  0
LINE
  8
DATA
  6
CONTINUOUS
 62
     7
 10
1161.67167
 20
620.20143
 11
1161.61226
 21
621.4452
  0
LINE
  8
DATA
  6
CONTINUOUS
 62
     7
 10
1159.5
 20
627.22274
 11
1159.5
 21
625.06887
  0
LINE
  8
DATA
  6
CONTINUOUS
 62
     7
 10
1158.67509
 20
599.09962
 11
1157.61682
 21
621.25434
  0
LINE
  8
DATA
  6
CONTINUOUS
 62
     7
 10
1157.67623
 20
599.05191
 11
1157.5
 21
602.7411
  0
LINE
  8
DATA
  6
CONTINUOUS
 62
     7
 10
1161.67167
 20
621.39748
 11
1161.67167
 21
599.24276
  0
LINE
  8
DATA
  6
CONTINUOUS
 62
     7
 10
1155.0
 20
558.0
 11
1155.0
 21
634.0
  0
LINE
  8
DIMENSIONS
  6
CONTINUOUS
 62
     7
 10
1200.0
 20
634.0
 11
1200.0
 21
555.0
  0
LINE
  8
DIMENSIONS
  6
CONTINUOUS
 62
     7
 10
1162.5
 20
634.0
 11
1209.375
 21
634.0
  0
LINE
  8
DIMENSIONS
  6
CONTINUOUS
 62
     7
 10
1165.0
 20
555.0
 11
1209.375
 21
555.0
  0
LINE
  8
DIMENSIONS
  6
CONTINUOUS
 62
     7
 10
1197.5001
 20
619.0
 11
1200.0
 21
634.0
  0
LINE
  8
DIMENSIONS
  6
CONTINUOUS
 62
     7
 10
1202.4999
 20
619.0
 11
1200.0
 21
634.0
  0
LINE
  8
DIMENSIONS
  6
CONTINUOUS
 62
     7
 10
1197.5001
 20
570.0
 11
1200.0
 21
555.0
  0
LINE
  8
DIMENSIONS
  6
CONTINUOUS
 62
     7
 10
1202.4999
 20
570.0
 11
1200.0
 21
555.0
  0
LINE
  8
DIMENSIONS
  6
CONTINUOUS
 62
     7
 10
1161.67167
 20
628.89748
 11
1161.67167
 21
684.375
  0
LINE
  8
DIMENSIONS
  6
CONTINUOUS
 62
     7
 10
1146.67167
 20
672.5001
 11
1161.67167
 21
675.0
  0
LINE
  8
DIMENSIONS
  6
CONTINUOUS
 62
     7
 10
1146.67167
 20
677.4999
 11
1161.67167
 21
675.0
  0
TEXT
  8
DIMENSIONS
  6
CONTINUOUS
 62
     7
 10
1190.625
 20
584.858268
 40
18.75
  1
79
 50
90.0
  7
TTF_DEFAULT
  0
LINE
  8
SPEC
  6
CONTINUOUS
 62
     7
 10
900.0
 20
1903.125
 11
900.0
 21
1987.5
  0
ENDSEC
  0
EOF
