  0
SECTION
  2
HEADER
  9
$ACADVER
  1
AC1004
  9
$INSBASE
 10
0.0
 20
0.0
  9
$EXTMIN
 10
-66.173333
 20
-68.95
  9
$EXTMAX
 10
2033.826667
 20
2901.05
  9
$LIMMIN
 10
-66.173333
 20
-68.95
  9
$LIMMAX
 10
2033.826667
 20
2901.05
  9
$VIEWCTR
 10
6.0
 20
4.5
  9
$VIEWSIZE
 40
9.0
  9
$SNAPMODE
 70
     0
  9
$SNAPUNIT
 10
25.0
 20
25.0
  9
$SNAPBASE
 10
0.0
 20
0.0
  9
$SNAPANG
 50
0.0
  9
$SNAPSTYLE
 70
     0
  9
$SNAPISOPAIR
 70
     0
  9
$GRIDMODE
 70
     1
  9
$GRIDUNIT
 10
100.0
 20
100.0
  9
$ORTHOMODE
 70
     0
  9
$REGENMODE
 70
     1
  9
$FILLMODE
 70
     1
  9
$QTEXTMODE
 70
     0
  9
$DRAGMODE
 70
     2
  9
$LTSCALE
 40
1.0
  9
$OSMODE
 70
     1
  9
$ATTMODE
 70
     1
  9
$TEXTSIZE
 40
0.2
  9
$TRACEWID
 40
0.05
  9
$TEXTSTYLE
  7
STANDARD
  9
$CLAYER
  8
DATA
  9
$CELTYPE
  6
CONTINUOUS
  9
$CECOLOR
 62
     7
  9
$DIMSCALE
 40
1.0
  9
$DIMASZ
 40
0.18
  9
$DIMEXO
 40
0.0625
  9
$DIMDLI
 40
0.38
  9
$DIMRND
 40
0.0
  9
$DIMDLE
 40
0.0
  9
$DIMEXE
 40
0.18
  9
$DIMTP
 40
0.0
  9
$DIMTM
 40
0.0
  9
$DIMTXT
 40
0.18
  9
$DIMCEN
 40
0.09
  9
$DIMTSZ
 40
0.0
  9
$DIMTOL
 70
     0
  9
$DIMLIM
 70
     0
  9
$DIMTIH
 70
     1
  9
$DIMTOH
 70
     1
  9
$DIMSE1
 70
     0
  9
$DIMSE2
 70
     0
  9
$DIMTAD
 70
     0
  9
$DIMZIN
 70
     0
  9
$DIMBLK
  1

  9
$DIMASO
 70
     1
  9
$DIMSHO
 70
     1
  9
$DIMPOST
  1

  9
$DIMAPOST
  1

  9
$DIMALT
 70
     0
  9
$DIMALTD
 70
     2
  9
$DIMALTF
 40
25.4
  9
$DIMLFAC
 40
1.0
  9
$LUNITS
 70
     2
  9
$LUPREC
 70
     4
  9
$AXISMODE
 70
     0
  9
$AXISUNIT
 10
0.0
 20
0.0
  9
$SKETCHINC
 40
0.1
  9
$FILLETRAD
 40
3.0
  9
$AUNITS
 70
     0
  9
$AUPREC
 70
     0
  9
$MENU
  1
acad
  9
$ELEVATION
 40
0.0
  9
$THICKNESS
 40
0.0
  9
$VIEWDIR
 10
0.0
 20
0.0
 30
1.0
  9
$LIMCHECK
 70
     0
  9
$BLIPMODE
 70
     1
  9
$CHAMFERA
 40
0.0
  9
$CHAMFERB
 40
0.0
  9
$FASTZOOM
 70
     1
  9
$SKPOLY
 70
     0
  9
$TDCREATE
 40
0.0
  9
$TDUPDATE
 40
0.0
  9
$TDINDWG
 40
0.0
  9
$TDUSRTIMER
 40
0.0
  9
$USRTIMER
 70
     1
  9
$ANGBASE
 50
0.0
  9
$ANGDIR
 70
     0
  9
$PDMODE
 70
     0
  9
$PDSIZE
 40
0.0
  9
$PLINEWID
 40
0.0
  9
$COORDS
 70
     1
  9
$SPLFRAME
 70
     0
  9
$SPLINESEGS
 70
    10
  9
$ATTDIA
 70
     0
  9
$ATTREQ
 70
     1
  9
$USERI1
 70
     0
  9
$USERI2
 70
     0
  9
$USERI3
 70
     0
  9
$USERI4
 70
     0
  9
$USERI5
 70
     0
  9
$USERR1
 40
0.0
  9
$USERR2
 40
0.0
  9
$USERR3
 40
0.0
  9
$USERR4
 40
0.0
  9
$USERR5
 40
0.0
  0
ENDSEC
  0
SECTION
  2
TABLES
  0
TABLE
  2
LTYPE
 70
    11
  0
LTYPE
  2
CONTINUOUS
 70
     0
  3
Solid line
 72
    65
 73
     0
 40
0.0
  0
LTYPE
  2
DASHED
 70
     0
  3
__ __ __ __ __ __ __ __ __ __ __ __ __ __ __
 72
    65
 73
     2
 40
0.75
 49
0.5
 49
-0.25
  0
LTYPE
  2
HIDDEN
 70
     0
  3
_ _ _ _ _ _ _ _ _ _ _ _ _ _ _ _ _ _ _ _ _ _ 
 72
    65
 73
     2
 40
0.25
 49
0.125
 49
-0.125
  0
LTYPE
  2
CENTER
 70
     0
  3
____ _ ____ _ ____ _ ____ _ ____ _ ____ _ __
 72
    65
 73
     4
 40
2.0
 49
1.25
 49
-0.25
 49
0.25
 49
-0.25
  0
LTYPE
  2
PHANTOM
 70
     0
  3
_____ _ _ _____ _ _ _____ _ _ _____ _ _ ____
 72
    65
 73
     6
 40
2.5
 49
1.25
 49
-0.25
 49
0.25
 49
-0.25
 49
0.25
 49
-0.25
  0
LTYPE
  2
DOT
 70
     0
  3
............................................
 72
    65
 73
     2
 40
0.25
 49
0.0
 49
-0.25
  0
LTYPE
  2
DASHDOT
 70
     0
  3
__ . __ . __ . __ . __ . __ . __ . __ . __ .
 72
    65
 73
     4
 40
1.0
 49
0.5
 49
-0.25
 49
0.0
 49
-0.25
  0
LTYPE
  2
BORDER
 70
     0
  3
__ __ . __ __ . __ __ . __ __ . __ __ . __ _
 72
    65
 73
     6
 40
1.75
 49
0.5
 49
-0.25
 49
0.5
 49
-0.25
 49
0.0
 49
-0.25
  0
LTYPE
  2
DIVIDE
 70
     0
  3
__ . . __ . . __ . . __ . . __ . . __ . . __
 72
    65
 73
     6
 40
1.25
 49
0.5
 49
-0.25
 49
0.0
 49
-0.25
 49
0.0
 49
-0.25
  0
LTYPE
  2
DOTS
 70
     0
  3
close                                       
 72
    65
 73
     2
 40
0.1
 49
0.05
 49
-0.05
  0
LTYPE
  2
CLOSE
 70
     0
  3
                                            
 72
    65
 73
     0
 40
0.0
  0
ENDTAB
  0
TABLE
  2
LAYER
 70
     6
  0
LAYER
  2
0
 70
     0
 62
     7
  6
CONTINUOUS
  0
LAYER
  2
LAYER01
 70
     0
 62
     7
  6
CONTINUOUS
  0
LAYER
  2
DATA
 70
     0
 62
     7
  6
CONTINUOUS
  0
LAYER
  2
DIMENSIONS
 70
     0
 62
     7
  6
CONTINUOUS
  0
LAYER
  2
SPEC
 70
     0
 62
     7
  6
CONTINUOUS
  0
LAYER
  2
HIBINO-BASE
 70
     0
 62
     7
  6
CONTINUOUS
  0
ENDTAB
  0
TABLE
  2
STYLE
 70
     2
  0
STYLE
  2
STANDARD
 70
     0
 40
0.0
 41
1.0
 50
0.0
 71
     0
 42
0.2
  3
txt
  4

  0
STYLE
  2
TTF_DEFAULT
 70
     0
 40
0.0
 41
1.0
 50
0.0
 71
     0
 42
0.0
  3
txt
  4
BIGFONT
  0
ENDTAB
  0
TABLE
  2
VIEW
 70
     0
  0
ENDTAB
  0
ENDSEC
  0
SECTION
  2
BLOCKS
  0
ENDSEC
  0
SECTION
  2
ENTITIES
  0
LINE
  8
SPEC
  6
CONTINUOUS
 62
     7
 10
175.0
 20
2650.0
 11
1600.0
 21
2650.0
  0
LINE
  8
SPEC
  6
CONTINUOUS
 62
     7
 10
175.0
 20
2612.5
 11
1600.0
 21
2612.5
  0
LINE
  8
SPEC
  6
CONTINUOUS
 62
     7
 10
175.0
 20
2537.5
 11
1600.0
 21
2537.5
  0
LINE
  8
SPEC
  6
CONTINUOUS
 62
     7
 10
175.0
 20
2462.5
 11
1600.0
 21
2462.5
  0
TEXT
  8
SPEC
  6
CONTINUOUS
 62
     7
 10
506.25
 20
2551.25
 40
25.0
  1
ラックマウントパネル仕様（オプション）: 482(W)×88(H)×173.5(D)mm
  7
TTF_DEFAULT
  0
TEXT
  8
DIMENSIONS
  6
CONTINUOUS
 62
     7
 10
976.0
 20
962.5
 40
25.0
  1
29.5
  7
TTF_DEFAULT
  0
POLYLINE
  8
HIBINO-BASE
  6
CONTINUOUS
 62
     7
 66
     1
 70
     1
 40
3.0
 41
3.0
  0
VERTEX
  8
HIBINO-BASE
 10
100.0
 20
150.0
  0
VERTEX
  8
HIBINO-BASE
 10
100.0
 20
2750.0
  0
VERTEX
  8
HIBINO-BASE
 10
1900.0
 20
2750.0
  0
VERTEX
  8
HIBINO-BASE
 10
1900.0
 20
150.0
  0
SEQEND
  8
HIBINO-BASE
  0
TEXT
  8
SPEC
  6
CONTINUOUS
 62
     7
 10
506.25
 20
2476.25
 40
25.0
  1
ラックマウントパネル仕様（オプション）: 約10kg
  7
TTF_DEFAULT
  0
LINE
  8
DATA
  6
CONTINUOUS
 62
     7
 10
302.0
 20
882.0
 11
674.0
 21
882.0
  0
LINE
  8
DATA
  6
CONTINUOUS
 62
     7
 10
300.0
 20
884.0
 11
676.0
 21
884.0
  0
LINE
  8
DATA
  6
CONTINUOUS
 62
     7
 10
300.0
 20
800.0
 11
676.0
 21
800.0
  0
LINE
  8
DATA
  6
CONTINUOUS
 62
     7
 10
300.0
 20
1244.0
 11
676.0
 21
1244.0
  0
LINE
  8
DATA
  6
CONTINUOUS
 62
     7
 10
300.0
 20
1100.0
 11
676.0
 21
1100.0
  0
LINE
  8
DATA
  6
CONTINUOUS
 62
     7
 10
336.0
 20
1247.0
 11
508.5
 21
1247.0
  0
LINE
  8
DATA
  6
CONTINUOUS
 62
     7
 10
427.418339
 20
1330.0974
 11
477.880649
 21
1330.0974
  0
LINE
  8
DATA
  6
CONTINUOUS
 62
     7
 10
432.169339
 20
1337.90261
 11
477.880649
 21
1337.90261
  0
LINE
  8
DIMENSIONS
  6
CONTINUOUS
 62
     7
 10
511.25
 20
1093.5
 11
237.5
 21
1093.5
  0
LINE
  8
DIMENSIONS
  6
CONTINUOUS
 62
     7
 10
676.0
 20
950.0
 11
300.4571
 21
950.0
  0
TEXT
  8
HIBINO-BASE
  6
CONTINUOUS
 62
     7
 10
171.84
 20
85.9132
 40
40.0
  1
Hibino Corporation
  7
TTF_DEFAULT
  0
LINE
  8
DIMENSIONS
  6
CONTINUOUS
 62
     7
 10
290.0
 20
884.0
 11
187.5
 21
884.0
  0
LINE
  8
DIMENSIONS
  6
CONTINUOUS
 62
     7
 10
304.0
 20
790.0
 11
187.5
 21
790.0
  0
TEXT
  8
DIMENSIONS
  6
CONTINUOUS
 62
     7
 10
187.5
 20
822.498313
 40
25.0
  1
94
 50
90.0
  7
TTF_DEFAULT
  0
TEXT
  8
DIMENSIONS
  6
CONTINUOUS
 62
     7
 10
237.5
 20
1027.5
 40
25.0
  1
6.5
 50
90.0
  7
TTF_DEFAULT
  0
LINE
  8
DATA
  6
CONTINUOUS
 62
     7
 10
314.0
 20
865.0
 11
354.0
 21
865.0
  0
LINE
  8
DATA
  6
CONTINUOUS
 62
     7
 10
314.0
 20
832.0
 11
354.0
 21
832.0
  0
LINE
  8
DATA
  6
CONTINUOUS
 62
     7
 10
314.0
 20
862.0
 11
354.0
 21
862.0
  0
LINE
  8
DATA
  6
CONTINUOUS
 62
     7
 10
314.0
 20
835.0
 11
354.0
 21
835.0
  0
LINE
  8
DATA
  6
CONTINUOUS
 62
     7
 10
314.0
 20
859.0
 11
354.0
 21
859.0
  0
LINE
  8
DATA
  6
CONTINUOUS
 62
     7
 10
314.0
 20
856.0
 11
354.0
 21
856.0
  0
LINE
  8
DATA
  6
CONTINUOUS
 62
     7
 10
314.0
 20
853.0
 11
354.0
 21
853.0
  0
LINE
  8
DATA
  6
CONTINUOUS
 62
     7
 10
314.0
 20
850.0
 11
354.0
 21
850.0
  0
LINE
  8
DATA
  6
CONTINUOUS
 62
     7
 10
314.0
 20
847.0
 11
354.0
 21
847.0
  0
LINE
  8
DATA
  6
CONTINUOUS
 62
     7
 10
314.0
 20
844.0
 11
354.0
 21
844.0
  0
LINE
  8
DATA
  6
CONTINUOUS
 62
     7
 10
314.0
 20
841.0
 11
354.0
 21
841.0
  0
LINE
  8
DATA
  6
CONTINUOUS
 62
     7
 10
314.0
 20
838.0
 11
354.0
 21
838.0
  0
LINE
  8
DATA
  6
CONTINUOUS
 62
     7
 10
314.0
 20
790.0
 11
332.0
 21
790.0
  0
LINE
  8
DATA
  6
CONTINUOUS
 62
     7
 10
302.0
 20
800.0
 11
302.0
 21
882.0
  0
LINE
  8
DATA
  6
CONTINUOUS
 62
     7
 10
300.0
 20
884.0
 11
300.0
 21
800.0
  0
LINE
  8
DATA
  6
CONTINUOUS
 62
     7
 10
314.0
 20
865.0
 11
314.0
 21
862.0
  0
LINE
  8
DATA
  6
CONTINUOUS
 62
     7
 10
314.0
 20
832.0
 11
314.0
 21
835.0
  0
LINE
  8
DATA
  6
CONTINUOUS
 62
     7
 10
314.0
 20
859.0
 11
314.0
 21
856.0
  0
LINE
  8
DATA
  6
CONTINUOUS
 62
     7
 10
314.0
 20
853.0
 11
314.0
 21
850.0
  0
LINE
  8
DATA
  6
CONTINUOUS
 62
     7
 10
314.0
 20
847.0
 11
314.0
 21
844.0
  0
LINE
  8
DATA
  6
CONTINUOUS
 62
     7
 10
314.0
 20
841.0
 11
314.0
 21
838.0
  0
LINE
  8
DATA
  6
CONTINUOUS
 62
     7
 10
314.0
 20
790.0
 11
312.82364
 21
800.0
  0
LINE
  8
DATA
  6
CONTINUOUS
 62
     7
 10
298.0
 20
867.0
 11
299.0
 21
865.0
  0
LINE
  8
DATA
  6
CONTINUOUS
 62
     7
 10
298.0
 20
872.0
 11
299.0
 21
874.0
  0
LINE
  8
DATA
  6
CONTINUOUS
 62
     7
 10
300.0
 20
865.0
 11
299.0
 21
865.0
  0
LINE
  8
DATA
  6
CONTINUOUS
 62
     7
 10
300.0
 20
874.0
 11
299.0
 21
874.0
  0
LINE
  8
DATA
  6
CONTINUOUS
 62
     7
 10
299.0
 20
874.0
 11
299.0
 21
865.0
  0
LINE
  8
DATA
  6
CONTINUOUS
 62
     7
 10
298.0
 20
872.0
 11
298.0
 21
867.0
  0
LINE
  8
DATA
  6
CONTINUOUS
 62
     7
 10
298.0
 20
808.0
 11
299.0
 21
806.0
  0
LINE
  8
DATA
  6
CONTINUOUS
 62
     7
 10
298.0
 20
813.0
 11
299.0
 21
815.0
  0
LINE
  8
DATA
  6
CONTINUOUS
 62
     7
 10
300.0
 20
806.0
 11
299.0
 21
806.0
  0
LINE
  8
DATA
  6
CONTINUOUS
 62
     7
 10
300.0
 20
815.0
 11
299.0
 21
815.0
  0
LINE
  8
DATA
  6
CONTINUOUS
 62
     7
 10
299.0
 20
815.0
 11
299.0
 21
806.0
  0
LINE
  8
DATA
  6
CONTINUOUS
 62
     7
 10
298.0
 20
813.0
 11
298.0
 21
808.0
  0
LINE
  8
DATA
  6
CONTINUOUS
 62
     7
 10
332.0
 20
790.0
 11
333.17636
 21
800.0
  0
LINE
  8
DATA
  6
CONTINUOUS
 62
     7
 10
354.0
 20
862.0
 11
354.0
 21
865.0
  0
LINE
  8
DATA
  6
CONTINUOUS
 62
     7
 10
354.0
 20
832.0
 11
354.0
 21
835.0
  0
LINE
  8
DATA
  6
CONTINUOUS
 62
     7
 10
354.0
 20
856.0
 11
354.0
 21
859.0
  0
LINE
  8
DATA
  6
CONTINUOUS
 62
     7
 10
354.0
 20
850.0
 11
354.0
 21
853.0
  0
LINE
  8
DATA
  6
CONTINUOUS
 62
     7
 10
354.0
 20
844.0
 11
354.0
 21
847.0
  0
LINE
  8
DATA
  6
CONTINUOUS
 62
     7
 10
354.0
 20
838.0
 11
354.0
 21
841.0
  0
CIRCLE
  8
DATA
  6
CONTINUOUS
 62
     7
 10
376.5
 20
826.0
 40
1.5
  0
TEXT
  8
DATA
  6
CONTINUOUS
 62
     7
 10
371.865953
 20
816.0
 40
4.5
  1
+48V
  7
TTF_DEFAULT
  0
CIRCLE
  8
DATA
  6
CONTINUOUS
 62
     7
 10
396.5
 20
826.0
 40
1.5
  0
TEXT
  8
DATA
  6
CONTINUOUS
 62
     7
 10
391.865953
 20
816.0
 40
4.5
  1
+17V
  7
TTF_DEFAULT
  0
CIRCLE
  8
DATA
  6
CONTINUOUS
 62
     7
 10
416.5
 20
826.0
 40
1.5
  0
TEXT
  8
DATA
  6
CONTINUOUS
 62
     7
 10
411.865953
 20
816.0
 40
4.5
  1
-17V
  7
TTF_DEFAULT
  0
LINE
  8
DATA
  6
CONTINUOUS
 62
     7
 10
389.5
 20
886.0
 11
394.5
 21
886.0
  0
LINE
  8
DATA
  6
CONTINUOUS
 62
     7
 10
387.5
 20
885.0
 11
396.5
 21
885.0
  0
LINE
  8
DATA
  6
CONTINUOUS
 62
     7
 10
387.5
 20
884.0
 11
387.5
 21
885.0
  0
LINE
  8
DATA
  6
CONTINUOUS
 62
     7
 10
396.5
 20
884.0
 11
396.5
 21
885.0
  0
LINE
  8
DATA
  6
CONTINUOUS
 62
     7
 10
389.5
 20
886.0
 11
387.5
 21
885.0
  0
LINE
  8
DATA
  6
CONTINUOUS
 62
     7
 10
394.5
 20
886.0
 11
396.5
 21
885.0
  0
LINE
  8
DIMENSIONS
  6
CONTINUOUS
 62
     7
 10
250.0
 20
884.0
 11
250.0
 21
800.0
  0
LINE
  8
DIMENSIONS
  6
CONTINUOUS
 62
     7
 10
290.0
 20
800.0
 11
237.5
 21
800.0
  0
LINE
  8
DIMENSIONS
  6
CONTINUOUS
 62
     7
 10
246.6668
 20
864.0
 11
250.0
 21
884.0
  0
LINE
  8
DIMENSIONS
  6
CONTINUOUS
 62
     7
 10
253.3332
 20
864.0
 11
250.0
 21
884.0
  0
LINE
  8
DIMENSIONS
  6
CONTINUOUS
 62
     7
 10
246.6668
 20
820.0
 11
250.0
 21
800.0
  0
LINE
  8
DIMENSIONS
  6
CONTINUOUS
 62
     7
 10
253.3332
 20
820.0
 11
250.0
 21
800.0
  0
LINE
  8
DIMENSIONS
  6
CONTINUOUS
 62
     7
 10
300.4571
 20
901.079396
 11
300.4571
 21
962.5
  0
LINE
  8
DIMENSIONS
  6
CONTINUOUS
 62
     7
 10
320.4571
 20
953.3332
 11
300.4571
 21
950.0
  0
LINE
  8
DIMENSIONS
  6
CONTINUOUS
 62
     7
 10
320.4571
 20
946.6668
 11
300.4571
 21
950.0
  0
LINE
  8
DIMENSIONS
  6
CONTINUOUS
 62
     7
 10
200.0
 20
884.0
 11
200.0
 21
790.0
  0
LINE
  8
DIMENSIONS
  6
CONTINUOUS
 62
     7
 10
196.6668
 20
864.0
 11
200.0
 21
884.0
  0
LINE
  8
DIMENSIONS
  6
CONTINUOUS
 62
     7
 10
203.3332
 20
864.0
 11
200.0
 21
884.0
  0
LINE
  8
DIMENSIONS
  6
CONTINUOUS
 62
     7
 10
196.6668
 20
810.0
 11
200.0
 21
790.0
  0
LINE
  8
DIMENSIONS
  6
CONTINUOUS
 62
     7
 10
203.3332
 20
810.0
 11
200.0
 21
790.0
  0
TEXT
  8
DIMENSIONS
  6
CONTINUOUS
 62
     7
 10
237.5
 20
827.498313
 40
25.0
  1
84
 50
90.0
  7
TTF_DEFAULT
  0
LINE
  8
DATA
  6
CONTINUOUS
 62
     7
 10
436.617819
 20
1345.21083
 11
422.617819
 21
1322.21083
  0
LINE
  8
DATA
  6
CONTINUOUS
 62
     7
 10
300.0
 20
1100.0
 11
300.0
 21
1244.0
  0
LINE
  8
DATA
  6
CONTINUOUS
 62
     7
 10
298.0
 20
1127.5
 11
299.0
 21
1129.5
  0
LINE
  8
DATA
  6
CONTINUOUS
 62
     7
 10
299.0
 20
1129.5
 11
299.0
 21
1120.5
  0
LINE
  8
DATA
  6
CONTINUOUS
 62
     7
 10
298.0
 20
1108.0
 11
299.0
 21
1106.0
  0
LINE
  8
DATA
  6
CONTINUOUS
 62
     7
 10
298.0
 20
1113.0
 11
299.0
 21
1115.0
  0
LINE
  8
DATA
  6
CONTINUOUS
 62
     7
 10
300.0
 20
1106.0
 11
299.0
 21
1106.0
  0
LINE
  8
DATA
  6
CONTINUOUS
 62
     7
 10
300.0
 20
1115.0
 11
299.0
 21
1115.0
  0
LINE
  8
DATA
  6
CONTINUOUS
 62
     7
 10
299.0
 20
1115.0
 11
299.0
 21
1106.0
  0
LINE
  8
DATA
  6
CONTINUOUS
 62
     7
 10
298.0
 20
1113.0
 11
298.0
 21
1108.0
  0
LINE
  8
DATA
  6
CONTINUOUS
 62
     7
 10
298.0
 20
1122.5
 11
299.0
 21
1120.5
  0
LINE
  8
DATA
  6
CONTINUOUS
 62
     7
 10
300.0
 20
1120.5
 11
299.0
 21
1120.5
  0
LINE
  8
DATA
  6
CONTINUOUS
 62
     7
 10
298.0
 20
1127.5
 11
298.0
 21
1122.5
  0
CIRCLE
  8
DATA
  6
CONTINUOUS
 62
     7
 10
392.0
 20
1110.5
 40
2.5
  0
CIRCLE
  8
DATA
  6
CONTINUOUS
 62
     7
 10
392.0
 20
1110.5
 40
4.5
  0
LINE
  8
DATA
  6
CONTINUOUS
 62
     7
 10
390.0
 20
1110.5
 11
394.0
 21
1110.5
  0
LINE
  8
DATA
  6
CONTINUOUS
 62
     7
 10
392.0
 20
1108.5
 11
392.0
 21
1112.5
  0
ARC
  8
DATA
  6
CONTINUOUS
 62
     7
 10
376.5
 20
1099.0
 40
1.5
 50
180.0
 51
0.0
  0
LINE
  8
DATA
  6
CONTINUOUS
 62
     7
 10
375.0
 20
1099.0
 11
375.0
 21
1100.0
  0
LINE
  8
DATA
  6
CONTINUOUS
 62
     7
 10
378.0
 20
1099.0
 11
378.0
 21
1100.0
  0
ARC
  8
DATA
  6
CONTINUOUS
 62
     7
 10
396.5
 20
1099.0
 40
1.5
 50
180.0
 51
0.0
  0
LINE
  8
DATA
  6
CONTINUOUS
 62
     7
 10
395.0
 20
1099.0
 11
395.0
 21
1100.0
  0
LINE
  8
DATA
  6
CONTINUOUS
 62
     7
 10
398.0
 20
1099.0
 11
398.0
 21
1100.0
  0
ARC
  8
DATA
  6
CONTINUOUS
 62
     7
 10
416.5
 20
1099.0
 40
1.5
 50
180.0
 51
0.0
  0
LINE
  8
DATA
  6
CONTINUOUS
 62
     7
 10
415.0
 20
1099.0
 11
415.0
 21
1100.0
  0
LINE
  8
DATA
  6
CONTINUOUS
 62
     7
 10
418.0
 20
1099.0
 11
418.0
 21
1100.0
  0
LINE
  8
DATA
  6
CONTINUOUS
 62
     7
 10
320.0
 20
1252.5
 11
332.0
 21
1252.5
  0
LINE
  8
DATA
  6
CONTINUOUS
 62
     7
 10
299.0
 20
1222.5
 11
299.0
 21
1213.5
  0
LINE
  8
DATA
  6
CONTINUOUS
 62
     7
 10
298.0
 20
1220.5
 11
298.0
 21
1215.5
  0
LINE
  8
DATA
  6
CONTINUOUS
 62
     7
 10
300.0
 20
1129.5
 11
299.0
 21
1129.5
  0
LINE
  8
DATA
  6
CONTINUOUS
 62
     7
 10
298.0
 20
1215.5
 11
299.0
 21
1213.5
  0
LINE
  8
DATA
  6
CONTINUOUS
 62
     7
 10
300.0
 20
1213.5
 11
299.0
 21
1213.5
  0
LINE
  8
DATA
  6
CONTINUOUS
 62
     7
 10
320.5
 20
1252.5
 11
320.5
 21
1244.0
  0
LINE
  8
DATA
  6
CONTINUOUS
 62
     7
 10
317.0
 20
1249.5
 11
317.0
 21
1244.0
  0
LINE
  8
DATA
  6
CONTINUOUS
 62
     7
 10
298.0
 20
1220.5
 11
299.0
 21
1222.5
  0
LINE
  8
DATA
  6
CONTINUOUS
 62
     7
 10
300.0
 20
1222.5
 11
299.0
 21
1222.5
  0
ARC
  8
DATA
  6
CONTINUOUS
 62
     7
 10
320.0
 20
1249.5
 40
3.0
 50
90.0
 51
180.0
  0
LINE
  8
DATA
  6
CONTINUOUS
 62
     7
 10
336.0
 20
1244.0
 11
336.0
 21
1247.0
  0
LINE
  8
DATA
  6
CONTINUOUS
 62
     7
 10
331.5
 20
1252.5
 11
331.5
 21
1244.0
  0
LINE
  8
DATA
  6
CONTINUOUS
 62
     7
 10
335.0
 20
1244.0
 11
335.0
 21
1249.5
  0
ARC
  8
DATA
  6
CONTINUOUS
 62
     7
 10
349.0
 20
1272.5
 40
1.0
 50
356.179051
 51
180.0
  0
LINE
  8
DATA
  6
CONTINUOUS
 62
     7
 10
348.0
 20
1247.0
 11
348.0
 21
1272.5
  0
LINE
  8
DATA
  6
CONTINUOUS
 62
     7
 10
350.0
 20
1247.0
 11
350.0
 21
1272.5
  0
ARC
  8
DATA
  6
CONTINUOUS
 62
     7
 10
342.5
 20
1244.0
 40
5.0
 50
53.130102
 51
126.869898
  0
LINE
  8
DATA
  6
CONTINUOUS
 62
     7
 10
339.5
 20
1247.0
 11
339.5
 21
1248.0
  0
LINE
  8
DATA
  6
CONTINUOUS
 62
     7
 10
345.5
 20
1247.0
 11
345.5
 21
1248.0
  0
ARC
  8
DATA
  6
CONTINUOUS
 62
     7
 10
332.0
 20
1249.5
 40
3.0
 50
360.0
 51
90.0
  0
CIRCLE
  8
DATA
  6
CONTINUOUS
 62
     7
 10
392.0
 20
1234.0
 40
2.5
  0
CIRCLE
  8
DATA
  6
CONTINUOUS
 62
     7
 10
392.0
 20
1234.0
 40
4.5
  0
LINE
  8
DATA
  6
CONTINUOUS
 62
     7
 10
390.0
 20
1234.0
 11
394.0
 21
1234.0
  0
LINE
  8
DATA
  6
CONTINUOUS
 62
     7
 10
392.0
 20
1232.0
 11
392.0
 21
1236.0
  0
ARC
  8
DATA
  6
CONTINUOUS
 62
     7
 10
373.5
 20
1272.5
 40
1.0
 50
356.179051
 51
180.0
  0
LINE
  8
DATA
  6
CONTINUOUS
 62
     7
 10
372.5
 20
1247.0
 11
372.5
 21
1272.5
  0
LINE
  8
DATA
  6
CONTINUOUS
 62
     7
 10
374.5
 20
1247.0
 11
374.5
 21
1272.5
  0
ARC
  8
DATA
  6
CONTINUOUS
 62
     7
 10
357.16666
 20
1272.5
 40
1.0
 50
356.179051
 51
180.0
  0
LINE
  8
DATA
  6
CONTINUOUS
 62
     7
 10
356.16666
 20
1247.0
 11
356.16666
 21
1272.5
  0
LINE
  8
DATA
  6
CONTINUOUS
 62
     7
 10
358.16666
 20
1247.0
 11
358.16666
 21
1272.5
  0
ARC
  8
DATA
  6
CONTINUOUS
 62
     7
 10
365.33332
 20
1272.5
 40
1.0
 50
356.179051
 51
180.0
  0
LINE
  8
DATA
  6
CONTINUOUS
 62
     7
 10
364.33332
 20
1247.0
 11
364.33332
 21
1272.5
  0
LINE
  8
DATA
  6
CONTINUOUS
 62
     7
 10
366.33332
 20
1247.0
 11
366.33332
 21
1272.5
  0
ARC
  8
DATA
  6
CONTINUOUS
 62
     7
 10
388.0
 20
1272.5
 40
1.0
 50
356.179051
 51
180.0
  0
LINE
  8
DATA
  6
CONTINUOUS
 62
     7
 10
387.0
 20
1247.0
 11
387.0
 21
1272.5
  0
LINE
  8
DATA
  6
CONTINUOUS
 62
     7
 10
389.0
 20
1247.0
 11
389.0
 21
1272.5
  0
ARC
  8
DATA
  6
CONTINUOUS
 62
     7
 10
412.5
 20
1272.5
 40
1.0
 50
356.179051
 51
180.0
  0
LINE
  8
DATA
  6
CONTINUOUS
 62
     7
 10
411.5
 20
1247.0
 11
411.5
 21
1272.5
  0
LINE
  8
DATA
  6
CONTINUOUS
 62
     7
 10
413.5
 20
1247.0
 11
413.5
 21
1272.5
  0
ARC
  8
DATA
  6
CONTINUOUS
 62
     7
 10
396.16666
 20
1272.5
 40
1.0
 50
356.179051
 51
180.0
  0
LINE
  8
DATA
  6
CONTINUOUS
 62
     7
 10
395.16666
 20
1247.0
 11
395.16666
 21
1272.5
  0
LINE
  8
DATA
  6
CONTINUOUS
 62
     7
 10
397.16666
 20
1247.0
 11
397.16666
 21
1272.5
  0
ARC
  8
DATA
  6
CONTINUOUS
 62
     7
 10
404.33332
 20
1272.5
 40
1.0
 50
356.179051
 51
180.0
  0
LINE
  8
DATA
  6
CONTINUOUS
 62
     7
 10
403.33332
 20
1247.0
 11
403.33332
 21
1272.5
  0
LINE
  8
DATA
  6
CONTINUOUS
 62
     7
 10
405.33332
 20
1247.0
 11
405.33332
 21
1272.5
  0
ARC
  8
DATA
  6
CONTINUOUS
 62
     7
 10
429.0
 20
1272.5
 40
1.0
 50
356.179051
 51
180.0
  0
LINE
  8
DATA
  6
CONTINUOUS
 62
     7
 10
428.0
 20
1247.0
 11
428.0
 21
1272.5
  0
LINE
  8
DATA
  6
CONTINUOUS
 62
     7
 10
430.0
 20
1247.0
 11
430.0
 21
1272.5
  0
ARC
  8
DATA
  6
CONTINUOUS
 62
     7
 10
380.75
 20
1244.0
 40
5.0
 50
53.130102
 51
126.869898
  0
LINE
  8
DATA
  6
CONTINUOUS
 62
     7
 10
377.75
 20
1247.0
 11
377.75
 21
1248.0
  0
LINE
  8
DATA
  6
CONTINUOUS
 62
     7
 10
383.75
 20
1247.0
 11
383.75
 21
1248.0
  0
ARC
  8
DATA
  6
CONTINUOUS
 62
     7
 10
419.75
 20
1244.0
 40
5.0
 50
53.130102
 51
126.869898
  0
LINE
  8
DATA
  6
CONTINUOUS
 62
     7
 10
416.75
 20
1247.0
 11
416.75
 21
1248.0
  0
LINE
  8
DATA
  6
CONTINUOUS
 62
     7
 10
422.75
 20
1247.0
 11
422.75
 21
1248.0
  0
LINE
  8
DATA
  6
CONTINUOUS
 62
     7
 10
433.092279
 20
1345.21083
 11
419.092279
 21
1322.21083
  0
LINE
  8
DATA
  6
CONTINUOUS
 62
     7
 10
322.097395
 20
1252.5
 11
322.097395
 21
1327.90261
  0
LINE
  8
DATA
  6
CONTINUOUS
 62
     7
 10
428.643799
 20
1337.90261
 11
332.097395
 21
1337.90261
  0
ARC
  8
DATA
  6
CONTINUOUS
 62
     7
 10
332.097395
 20
1327.90261
 40
10.0
 50
90.0
 51
180.0
  0
LINE
  8
DATA
  6
CONTINUOUS
 62
     7
 10
329.902605
 20
1252.5
 11
329.902605
 21
1327.0974
  0
LINE
  8
DATA
  6
CONTINUOUS
 62
     7
 10
423.892809
 20
1330.0974
 11
332.902605
 21
1330.0974
  0
ARC
  8
DATA
  6
CONTINUOUS
 62
     7
 10
332.902605
 20
1327.0974
 40
3.0
 50
90.0
 51
180.0
  0
ARC
  8
DATA
  6
CONTINUOUS
 62
     7
 10
453.5
 20
1272.5
 40
1.0
 50
356.179051
 51
180.0
  0
LINE
  8
DATA
  6
CONTINUOUS
 62
     7
 10
452.5
 20
1247.0
 11
452.5
 21
1272.5
  0
LINE
  8
DATA
  6
CONTINUOUS
 62
     7
 10
454.5
 20
1247.0
 11
454.5
 21
1272.5
  0
ARC
  8
DATA
  6
CONTINUOUS
 62
     7
 10
437.16666
 20
1272.5
 40
1.0
 50
356.179051
 51
180.0
  0
LINE
  8
DATA
  6
CONTINUOUS
 62
     7
 10
436.16666
 20
1247.0
 11
436.16666
 21
1272.5
  0
LINE
  8
DATA
  6
CONTINUOUS
 62
     7
 10
438.16666
 20
1247.0
 11
438.16666
 21
1272.5
  0
ARC
  8
DATA
  6
CONTINUOUS
 62
     7
 10
445.33332
 20
1272.5
 40
1.0
 50
356.179051
 51
180.0
  0
LINE
  8
DATA
  6
CONTINUOUS
 62
     7
 10
444.33332
 20
1247.0
 11
444.33332
 21
1272.5
  0
LINE
  8
DATA
  6
CONTINUOUS
 62
     7
 10
446.33332
 20
1247.0
 11
446.33332
 21
1272.5
  0
LINE
  8
DIMENSIONS
  6
CONTINUOUS
 62
     7
 10
250.0
 20
1244.0
 11
250.0
 21
1204.0
  0
LINE
  8
DIMENSIONS
  6
CONTINUOUS
 62
     7
 10
250.0
 20
1273.5
 11
250.0
 21
1313.5
  0
LINE
  8
DIMENSIONS
  6
CONTINUOUS
 62
     7
 10
339.0
 20
1273.5
 11
237.5
 21
1273.5
  0
LINE
  8
DIMENSIONS
  6
CONTINUOUS
 62
     7
 10
253.3332
 20
1293.5
 11
250.0
 21
1273.5
  0
LINE
  8
DIMENSIONS
  6
CONTINUOUS
 62
     7
 10
246.6668
 20
1293.5
 11
250.0
 21
1273.5
  0
LINE
  8
DIMENSIONS
  6
CONTINUOUS
 62
     7
 10
250.0
 20
1093.5
 11
250.0
 21
1053.5
  0
LINE
  8
DIMENSIONS
  6
CONTINUOUS
 62
     7
 10
246.6668
 20
1073.5
 11
250.0
 21
1093.5
  0
LINE
  8
DIMENSIONS
  6
CONTINUOUS
 62
     7
 10
253.3332
 20
1073.5
 11
250.0
 21
1093.5
  0
LINE
  8
DIMENSIONS
  6
CONTINUOUS
 62
     7
 10
250.0
 20
1244.0
 11
250.0
 21
1100.0
  0
LINE
  8
DIMENSIONS
  6
CONTINUOUS
 62
     7
 10
290.0
 20
1244.0
 11
237.5
 21
1244.0
  0
LINE
  8
DIMENSIONS
  6
CONTINUOUS
 62
     7
 10
290.0
 20
1100.0
 11
237.5
 21
1100.0
  0
LINE
  8
DIMENSIONS
  6
CONTINUOUS
 62
     7
 10
246.6668
 20
1224.0
 11
250.0
 21
1244.0
  0
LINE
  8
DIMENSIONS
  6
CONTINUOUS
 62
     7
 10
253.3332
 20
1224.0
 11
250.0
 21
1244.0
  0
LINE
  8
DIMENSIONS
  6
CONTINUOUS
 62
     7
 10
246.6668
 20
1120.0
 11
250.0
 21
1100.0
  0
LINE
  8
DIMENSIONS
  6
CONTINUOUS
 62
     7
 10
253.3332
 20
1120.0
 11
250.0
 21
1100.0
  0
TEXT
  8
DIMENSIONS
  6
CONTINUOUS
 62
     7
 10
237.5
 20
1326.0
 40
25.0
  1
29.5
 50
90.0
  7
TTF_DEFAULT
  0
TEXT
  8
DIMENSIONS
  6
CONTINUOUS
 62
     7
 10
237.5
 20
1151.329169
 40
25.0
  1
144
 50
90.0
  7
TTF_DEFAULT
  0
LINE
  8
DATA
  6
CONTINUOUS
 62
     7
 10
380.370597
 20
1337.90261
 11
400.0
 21
1400.0
  0
LINE
  8
DATA
  6
CONTINUOUS
 62
     7
 10
400.0
 20
1400.0
 11
450.0
 21
1400.0
  0
LINE
  8
DATA
  6
CONTINUOUS
 62
     7
 10
389.576918
 20
1355.967877
 11
380.370597
 21
1337.90261
  0
LINE
  8
DATA
  6
CONTINUOUS
 62
     7
 10
383.220533
 20
1357.977173
 11
380.370597
 21
1337.90261
  0
LINE
  8
DIMENSIONS
  6
CONTINUOUS
 62
     7
 10
743.5
 20
950.0
 11
703.5
 21
950.0
  0
TEXT
  8
DIMENSIONS
  6
CONTINUOUS
 62
     7
 10
702.5
 20
962.5
 40
25.0
  1
6.5
  7
TTF_DEFAULT
  0
LINE
  8
DATA
  6
CONTINUOUS
 62
     7
 10
700.0
 20
700.0
 11
750.0
 21
700.0
  0
TEXT
  8
DATA
  6
CONTINUOUS
 62
     7
 10
545.303108
 20
824.36255
 40
3.0
  1
OFF
  7
TTF_DEFAULT
  0
TEXT
  8
DATA
  6
CONTINUOUS
 62
     7
 10
546.071862
 20
850.36201
 40
3.0
  1
ON
  7
TTF_DEFAULT
  0
TEXT
  8
DATA
  6
CONTINUOUS
 62
     7
 10
523.568706
 20
856.0
 40
4.5
  1
POWER
  7
TTF_DEFAULT
  0
LINE
  8
DATA
  6
CONTINUOUS
 62
     7
 10
548.25
 20
848.36201
 11
548.25
 21
843.98376
  0
CIRCLE
  8
DATA
  6
CONTINUOUS
 62
     7
 10
548.25
 20
831.86255
 40
2.5
  0
LINE
  8
DATA
  6
CONTINUOUS
 62
     7
 10
544.0
 20
824.0
 11
544.0
 21
854.0
  0
LINE
  8
DATA
  6
CONTINUOUS
 62
     7
 10
518.0
 20
824.0
 11
518.0
 21
854.0
  0
LINE
  8
DATA
  6
CONTINUOUS
 62
     7
 10
544.0
 20
854.0
 11
518.0
 21
854.0
  0
LINE
  8
DATA
  6
CONTINUOUS
 62
     7
 10
544.0
 20
824.0
 11
518.0
 21
824.0
  0
LINE
  8
DATA
  6
CONTINUOUS
 62
     7
 10
581.5
 20
886.0
 11
586.5
 21
886.0
  0
LINE
  8
DATA
  6
CONTINUOUS
 62
     7
 10
579.5
 20
885.0
 11
588.5
 21
885.0
  0
LINE
  8
DATA
  6
CONTINUOUS
 62
     7
 10
579.5
 20
884.0
 11
579.5
 21
885.0
  0
LINE
  8
DATA
  6
CONTINUOUS
 62
     7
 10
588.5
 20
884.0
 11
588.5
 21
885.0
  0
LINE
  8
DATA
  6
CONTINUOUS
 62
     7
 10
581.5
 20
886.0
 11
579.5
 21
885.0
  0
LINE
  8
DATA
  6
CONTINUOUS
 62
     7
 10
586.5
 20
886.0
 11
588.5
 21
885.0
  0
LINE
  8
DATA
  6
CONTINUOUS
 62
     7
 10
521.25
 20
849.0
 11
521.25
 21
829.0
  0
LINE
  8
DATA
  6
CONTINUOUS
 62
     7
 10
521.25
 20
849.0
 11
540.75
 21
849.0
  0
LINE
  8
DATA
  6
CONTINUOUS
 62
     7
 10
521.25
 20
843.5
 11
540.75
 21
843.5
  0
LINE
  8
DATA
  6
CONTINUOUS
 62
     7
 10
521.25
 20
838.0
 11
540.75
 21
838.0
  0
LINE
  8
DATA
  6
CONTINUOUS
 62
     7
 10
521.25
 20
829.0
 11
540.75
 21
829.0
  0
LINE
  8
DATA
  6
CONTINUOUS
 62
     7
 10
540.75
 20
849.0
 11
540.75
 21
829.0
  0
TEXT
  8
DATA
  6
CONTINUOUS
 62
     7
 10
608.762442
 20
829.5
 40
10.0
  1
DCP
  7
TTF_DEFAULT
  0
TEXT
  8
DATA
  6
CONTINUOUS
 62
     7
 10
609.52113
 20
813.5
 40
12.0
  1
200
  7
TTF_DEFAULT
  0
LINE
  8
DATA
  6
CONTINUOUS
 62
     7
 10
606.0
 20
827.5
 11
631.0
 21
827.5
  0
LINE
  8
DATA
  6
CONTINUOUS
 62
     7
 10
631.0
 20
808.5
 11
606.0
 21
808.5
  0
LINE
  8
DATA
  6
CONTINUOUS
 62
     7
 10
606.0
 20
808.5
 11
606.0
 21
827.5
  0
LINE
  8
DATA
  6
CONTINUOUS
 62
     7
 10
631.0
 20
827.5
 11
631.0
 21
808.5
  0
LINE
  8
DATA
  6
CONTINUOUS
 62
     7
 10
674.0
 20
800.0
 11
674.0
 21
882.0
  0
LINE
  8
DATA
  6
CONTINUOUS
 62
     7
 10
676.0
 20
800.0
 11
676.0
 21
884.0
  0
LINE
  8
DATA
  6
CONTINUOUS
 62
     7
 10
661.5
 20
790.0
 11
662.67636
 21
800.0
  0
LINE
  8
DATA
  6
CONTINUOUS
 62
     7
 10
661.5
 20
790.0
 11
643.5
 21
790.0
  0
LINE
  8
DATA
  6
CONTINUOUS
 62
     7
 10
643.5
 20
790.0
 11
642.32364
 21
800.0
  0
LINE
  8
DATA
  6
CONTINUOUS
 62
     7
 10
678.0
 20
867.0
 11
677.0
 21
865.0
  0
LINE
  8
DATA
  6
CONTINUOUS
 62
     7
 10
678.0
 20
872.0
 11
677.0
 21
874.0
  0
LINE
  8
DATA
  6
CONTINUOUS
 62
     7
 10
676.0
 20
865.0
 11
677.0
 21
865.0
  0
LINE
  8
DATA
  6
CONTINUOUS
 62
     7
 10
676.0
 20
874.0
 11
677.0
 21
874.0
  0
LINE
  8
DATA
  6
CONTINUOUS
 62
     7
 10
677.0
 20
874.0
 11
677.0
 21
865.0
  0
LINE
  8
DATA
  6
CONTINUOUS
 62
     7
 10
678.0
 20
872.0
 11
678.0
 21
867.0
  0
LINE
  8
DATA
  6
CONTINUOUS
 62
     7
 10
678.0
 20
808.0
 11
677.0
 21
806.0
  0
LINE
  8
DATA
  6
CONTINUOUS
 62
     7
 10
678.0
 20
813.0
 11
677.0
 21
815.0
  0
LINE
  8
DATA
  6
CONTINUOUS
 62
     7
 10
676.0
 20
806.0
 11
677.0
 21
806.0
  0
LINE
  8
DATA
  6
CONTINUOUS
 62
     7
 10
676.0
 20
815.0
 11
677.0
 21
815.0
  0
LINE
  8
DATA
  6
CONTINUOUS
 62
     7
 10
677.0
 20
815.0
 11
677.0
 21
806.0
  0
LINE
  8
DATA
  6
CONTINUOUS
 62
     7
 10
678.0
 20
813.0
 11
678.0
 21
808.0
  0
LINE
  8
DIMENSIONS
  6
CONTINUOUS
 62
     7
 10
676.0
 20
894.0
 11
676.0
 21
962.5
  0
LINE
  8
DIMENSIONS
  6
CONTINUOUS
 62
     7
 10
656.0
 20
953.3332
 11
676.0
 21
950.0
  0
LINE
  8
DIMENSIONS
  6
CONTINUOUS
 62
     7
 10
656.0
 20
946.6668
 11
676.0
 21
950.0
  0
TEXT
  8
DIMENSIONS
  6
CONTINUOUS
 62
     7
 10
468.96069
 20
962.5
 40
25.0
  1
376
  7
TTF_DEFAULT
  0
LINE
  8
DATA
  6
CONTINUOUS
 62
     7
 10
652.5
 20
790.0
 11
700.0
 21
700.0
  0
LINE
  8
DATA
  6
CONTINUOUS
 62
     7
 10
658.887341
 20
770.756505
 11
652.5
 21
790.0
  0
LINE
  8
DATA
  6
CONTINUOUS
 62
     7
 10
664.783004
 20
773.868105
 11
652.5
 21
790.0
  0
LINE
  8
DATA
  6
CONTINUOUS
 62
     7
 10
676.0
 20
1100.0
 11
676.0
 21
1244.0
  0
LINE
  8
DATA
  6
CONTINUOUS
 62
     7
 10
678.0
 20
1127.5
 11
677.0
 21
1129.5
  0
LINE
  8
DATA
  6
CONTINUOUS
 62
     7
 10
677.0
 20
1129.5
 11
677.0
 21
1120.5
  0
CIRCLE
  8
DATA
  6
CONTINUOUS
 62
     7
 10
584.0
 20
1110.5
 40
2.5
  0
CIRCLE
  8
DATA
  6
CONTINUOUS
 62
     7
 10
584.0
 20
1110.5
 40
4.5
  0
LINE
  8
DATA
  6
CONTINUOUS
 62
     7
 10
586.0
 20
1110.5
 11
582.0
 21
1110.5
  0
LINE
  8
DATA
  6
CONTINUOUS
 62
     7
 10
584.0
 20
1108.5
 11
584.0
 21
1112.5
  0
LINE
  8
DATA
  6
CONTINUOUS
 62
     7
 10
518.0
 20
1098.0
 11
544.0
 21
1098.0
  0
LINE
  8
DATA
  6
CONTINUOUS
 62
     7
 10
544.0
 20
1098.0
 11
544.0
 21
1100.0
  0
LINE
  8
DATA
  6
CONTINUOUS
 62
     7
 10
518.0
 20
1098.0
 11
518.0
 21
1100.0
  0
LINE
  8
DATA
  6
CONTINUOUS
 62
     7
 10
521.25
 20
1093.5
 11
540.75
 21
1093.5
  0
LINE
  8
DATA
  6
CONTINUOUS
 62
     7
 10
521.25
 20
1098.0
 11
521.25
 21
1093.5
  0
LINE
  8
DATA
  6
CONTINUOUS
 62
     7
 10
540.75
 20
1093.5
 11
540.75
 21
1098.0
  0
LINE
  8
DATA
  6
CONTINUOUS
 62
     7
 10
678.0
 20
1108.0
 11
677.0
 21
1106.0
  0
LINE
  8
DATA
  6
CONTINUOUS
 62
     7
 10
678.0
 20
1113.0
 11
677.0
 21
1115.0
  0
LINE
  8
DATA
  6
CONTINUOUS
 62
     7
 10
676.0
 20
1106.0
 11
677.0
 21
1106.0
  0
LINE
  8
DATA
  6
CONTINUOUS
 62
     7
 10
676.0
 20
1115.0
 11
677.0
 21
1115.0
  0
LINE
  8
DATA
  6
CONTINUOUS
 62
     7
 10
677.0
 20
1115.0
 11
677.0
 21
1106.0
  0
LINE
  8
DATA
  6
CONTINUOUS
 62
     7
 10
678.0
 20
1113.0
 11
678.0
 21
1108.0
  0
LINE
  8
DATA
  6
CONTINUOUS
 62
     7
 10
678.0
 20
1122.5
 11
677.0
 21
1120.5
  0
LINE
  8
DATA
  6
CONTINUOUS
 62
     7
 10
676.0
 20
1120.5
 11
677.0
 21
1120.5
  0
LINE
  8
DATA
  6
CONTINUOUS
 62
     7
 10
678.0
 20
1127.5
 11
678.0
 21
1122.5
  0
LINE
  8
DATA
  6
CONTINUOUS
 62
     7
 10
508.5
 20
1244.0
 11
508.5
 21
1247.0
  0
LINE
  8
DATA
  6
CONTINUOUS
 62
     7
 10
511.5
 20
1244.0
 11
511.5
 21
1247.0
  0
LINE
  8
DATA
  6
CONTINUOUS
 62
     7
 10
560.5
 20
1244.0
 11
560.5
 21
1247.0
  0
CIRCLE
  8
DATA
  6
CONTINUOUS
 62
     7
 10
584.0
 20
1234.0
 40
2.5
  0
CIRCLE
  8
DATA
  6
CONTINUOUS
 62
     7
 10
584.0
 20
1234.0
 40
4.5
  0
LINE
  8
DATA
  6
CONTINUOUS
 62
     7
 10
586.0
 20
1234.0
 11
582.0
 21
1234.0
  0
LINE
  8
DATA
  6
CONTINUOUS
 62
     7
 10
584.0
 20
1232.0
 11
584.0
 21
1236.0
  0
ARC
  8
DATA
  6
CONTINUOUS
 62
     7
 10
470.0
 20
1272.5
 40
1.0
 50
356.179051
 51
180.0
  0
LINE
  8
DATA
  6
CONTINUOUS
 62
     7
 10
469.0
 20
1247.0
 11
469.0
 21
1272.5
  0
LINE
  8
DATA
  6
CONTINUOUS
 62
     7
 10
471.0
 20
1247.0
 11
471.0
 21
1272.5
  0
ARC
  8
DATA
  6
CONTINUOUS
 62
     7
 10
494.5
 20
1272.5
 40
1.0
 50
356.179051
 51
180.0
  0
LINE
  8
DATA
  6
CONTINUOUS
 62
     7
 10
493.5
 20
1247.0
 11
493.5
 21
1272.5
  0
LINE
  8
DATA
  6
CONTINUOUS
 62
     7
 10
495.5
 20
1247.0
 11
495.5
 21
1272.5
  0
ARC
  8
DATA
  6
CONTINUOUS
 62
     7
 10
478.16666
 20
1272.5
 40
1.0
 50
356.179051
 51
180.0
  0
LINE
  8
DATA
  6
CONTINUOUS
 62
     7
 10
477.16666
 20
1247.0
 11
477.16666
 21
1272.5
  0
LINE
  8
DATA
  6
CONTINUOUS
 62
     7
 10
479.16666
 20
1247.0
 11
479.16666
 21
1272.5
  0
ARC
  8
DATA
  6
CONTINUOUS
 62
     7
 10
486.33332
 20
1272.5
 40
1.0
 50
356.179051
 51
180.0
  0
LINE
  8
DATA
  6
CONTINUOUS
 62
     7
 10
485.33332
 20
1247.0
 11
485.33332
 21
1272.5
  0
LINE
  8
DATA
  6
CONTINUOUS
 62
     7
 10
487.33332
 20
1247.0
 11
487.33332
 21
1272.5
  0
ARC
  8
DATA
  6
CONTINUOUS
 62
     7
 10
502.0
 20
1244.0
 40
5.0
 50
53.130102
 51
126.869898
  0
LINE
  8
DATA
  6
CONTINUOUS
 62
     7
 10
505.0
 20
1247.0
 11
505.0
 21
1248.0
  0
LINE
  8
DATA
  6
CONTINUOUS
 62
     7
 10
499.0
 20
1247.0
 11
499.0
 21
1248.0
  0
LINE
  8
DATA
  6
CONTINUOUS
 62
     7
 10
511.5
 20
1247.0
 11
560.5
 21
1247.0
  0
LINE
  8
DATA
  6
CONTINUOUS
 62
     7
 10
677.0
 20
1222.5
 11
677.0
 21
1213.5
  0
LINE
  8
DATA
  6
CONTINUOUS
 62
     7
 10
678.0
 20
1220.5
 11
678.0
 21
1215.5
  0
LINE
  8
DATA
  6
CONTINUOUS
 62
     7
 10
676.0
 20
1129.5
 11
677.0
 21
1129.5
  0
LINE
  8
DATA
  6
CONTINUOUS
 62
     7
 10
678.0
 20
1215.5
 11
677.0
 21
1213.5
  0
LINE
  8
DATA
  6
CONTINUOUS
 62
     7
 10
676.0
 20
1213.5
 11
677.0
 21
1213.5
  0
LINE
  8
DATA
  6
CONTINUOUS
 62
     7
 10
678.0
 20
1220.5
 11
677.0
 21
1222.5
  0
LINE
  8
DATA
  6
CONTINUOUS
 62
     7
 10
676.0
 20
1222.5
 11
677.0
 21
1222.5
  0
LINE
  8
DATA
  6
CONTINUOUS
 62
     7
 10
491.337189
 20
1322.5
 11
491.337189
 21
1345.5
  0
LINE
  8
DATA
  6
CONTINUOUS
 62
     7
 10
477.880649
 20
1340.5
 11
491.337189
 21
1340.5
  0
LINE
  8
DATA
  6
CONTINUOUS
 62
     7
 10
477.880649
 20
1327.5
 11
491.337189
 21
1327.5
  0
LINE
  8
DATA
  6
CONTINUOUS
 62
     7
 10
477.880649
 20
1327.5
 11
477.880649
 21
1340.5
  0
LINE
  8
DATA
  6
CONTINUOUS
 62
     7
 10
528.049689
 20
1342.45833
 11
542.549689
 21
1342.45833
  0
LINE
  8
DATA
  6
CONTINUOUS
 62
     7
 10
528.049689
 20
1341.25
 11
542.549689
 21
1341.25
  0
LINE
  8
DATA
  6
CONTINUOUS
 62
     7
 10
528.049689
 20
1340.04167
 11
542.549689
 21
1340.04167
  0
LINE
  8
DATA
  6
CONTINUOUS
 62
     7
 10
528.049689
 20
1327.95833
 11
542.549689
 21
1327.95833
  0
LINE
  8
DATA
  6
CONTINUOUS
 62
     7
 10
528.049689
 20
1326.75
 11
542.549689
 21
1326.75
  0
LINE
  8
DATA
  6
CONTINUOUS
 62
     7
 10
528.049689
 20
1325.54167
 11
542.549689
 21
1325.54167
  0
LINE
  8
DATA
  6
CONTINUOUS
 62
     7
 10
522.657799
 20
1347.5
 11
528.049689
 21
1347.5
  0
LINE
  8
DATA
  6
CONTINUOUS
 62
     7
 10
528.049689
 20
1348.5
 11
542.549689
 21
1348.5
  0
LINE
  8
DATA
  6
CONTINUOUS
 62
     7
 10
491.337189
 20
1341.40062
 11
491.968539
 21
1341.40062
  0
LINE
  8
DATA
  6
CONTINUOUS
 62
     7
 10
499.337189
 20
1341.40062
 11
498.705849
 21
1341.40062
  0
ARC
  8
DATA
  6
CONTINUOUS
 62
     7
 10
495.337189
 20
1343.55751
 40
4.0
 50
212.630753
 51
327.369247
  0
ARC
  8
DATA
  6
CONTINUOUS
 62
     7
 10
495.337189
 20
1324.44249
 40
4.0
 50
32.630753
 51
147.369247
  0
LINE
  8
DATA
  6
CONTINUOUS
 62
     7
 10
499.337189
 20
1326.59938
 11
498.705849
 21
1326.59938
  0
LINE
  8
DATA
  6
CONTINUOUS
 62
     7
 10
542.549689
 20
1319.5
 11
542.549689
 21
1348.5
  0
CIRCLE
  8
DATA
  6
CONTINUOUS
 62
     7
 10
495.337189
 20
1342.66553
 40
2.46498
  0
CIRCLE
  8
DATA
  6
CONTINUOUS
 62
     7
 10
495.337189
 20
1342.66553
 40
1.5
  0
CIRCLE
  8
DATA
  6
CONTINUOUS
 62
     7
 10
495.337189
 20
1325.33448
 40
1.5
  0
CIRCLE
  8
DATA
  6
CONTINUOUS
 62
     7
 10
495.337189
 20
1325.33448
 40
2.46498
  0
LINE
  8
DATA
  6
CONTINUOUS
 62
     7
 10
499.337189
 20
1340.5
 11
502.657799
 21
1340.5
  0
LINE
  8
DATA
  6
CONTINUOUS
 62
     7
 10
499.337189
 20
1327.5
 11
502.657799
 21
1327.5
  0
LINE
  8
DATA
  6
CONTINUOUS
 62
     7
 10
502.657799
 20
1322.75
 11
502.657799
 21
1345.25
  0
ARC
  8
DATA
  6
CONTINUOUS
 62
     7
 10
498.337189
 20
1345.5
 40
1.0
 50
0.0
 51
90.0
  0
LINE
  8
DATA
  6
CONTINUOUS
 62
     7
 10
499.337189
 20
1322.5
 11
499.337189
 21
1345.5
  0
LINE
  8
DATA
  6
CONTINUOUS
 62
     7
 10
492.337189
 20
1346.5
 11
498.337189
 21
1346.5
  0
ARC
  8
DATA
  6
CONTINUOUS
 62
     7
 10
492.337189
 20
1345.5
 40
1.0
 50
90.0
 51
180.0
  0
LINE
  8
DATA
  6
CONTINUOUS
 62
     7
 10
547.657799
 20
1328.38193
 11
542.549689
 21
1328.38193
  0
LINE
  8
DATA
  6
CONTINUOUS
 62
     7
 10
547.657799
 20
1327.38193
 11
542.549689
 21
1327.38193
  0
LINE
  8
DATA
  6
CONTINUOUS
 62
     7
 10
528.049689
 20
1348.5
 11
542.549689
 21
1348.5
  0
LINE
  8
DATA
  6
CONTINUOUS
 62
     7
 10
528.049689
 20
1347.29167
 11
542.549689
 21
1347.29167
  0
LINE
  8
DATA
  6
CONTINUOUS
 62
     7
 10
528.049689
 20
1346.08333
 11
542.549689
 21
1346.08333
  0
LINE
  8
DATA
  6
CONTINUOUS
 62
     7
 10
528.049689
 20
1344.875
 11
542.549689
 21
1344.875
  0
LINE
  8
DATA
  6
CONTINUOUS
 62
     7
 10
528.049689
 20
1343.66667
 11
542.549689
 21
1343.66667
  0
LINE
  8
DATA
  6
CONTINUOUS
 62
     7
 10
528.049689
 20
1336.41667
 11
542.549689
 21
1336.41667
  0
LINE
  8
DATA
  6
CONTINUOUS
 62
     7
 10
528.049689
 20
1335.20833
 11
542.549689
 21
1335.20833
  0
LINE
  8
DATA
  6
CONTINUOUS
 62
     7
 10
528.049689
 20
1334.0
 11
542.549689
 21
1334.0
  0
LINE
  8
DATA
  6
CONTINUOUS
 62
     7
 10
528.049689
 20
1338.83333
 11
542.549689
 21
1338.83333
  0
LINE
  8
DATA
  6
CONTINUOUS
 62
     7
 10
528.049689
 20
1337.625
 11
542.549689
 21
1337.625
  0
LINE
  8
DATA
  6
CONTINUOUS
 62
     7
 10
528.049689
 20
1330.375
 11
542.549689
 21
1330.375
  0
LINE
  8
DATA
  6
CONTINUOUS
 62
     7
 10
528.049689
 20
1329.16667
 11
542.549689
 21
1329.16667
  0
LINE
  8
DATA
  6
CONTINUOUS
 62
     7
 10
547.657799
 20
1344.0
 11
542.549689
 21
1344.0
  0
LINE
  8
DATA
  6
CONTINUOUS
 62
     7
 10
547.657799
 20
1324.0
 11
547.657799
 21
1344.0
  0
LINE
  8
DATA
  6
CONTINUOUS
 62
     7
 10
528.049689
 20
1332.79167
 11
542.549689
 21
1332.79167
  0
LINE
  8
DATA
  6
CONTINUOUS
 62
     7
 10
528.049689
 20
1331.58333
 11
542.549689
 21
1331.58333
  0
LINE
  8
DATA
  6
CONTINUOUS
 62
     7
 10
528.049689
 20
1319.5
 11
528.049689
 21
1348.5
  0
LINE
  8
DATA
  6
CONTINUOUS
 62
     7
 10
502.657799
 20
1345.25
 11
522.657799
 21
1347.5
  0
LINE
  8
DATA
  6
CONTINUOUS
 62
     7
 10
491.337189
 20
1326.59938
 11
491.968539
 21
1326.59938
  0
LINE
  8
DATA
  6
CONTINUOUS
 62
     7
 10
547.657799
 20
1343.53179
 11
542.549689
 21
1343.53179
  0
LINE
  8
DATA
  6
CONTINUOUS
 62
     7
 10
547.657799
 20
1342.53179
 11
542.549689
 21
1342.53179
  0
LINE
  8
DATA
  6
CONTINUOUS
 62
     7
 10
547.657799
 20
1336.20833
 11
542.549689
 21
1336.20833
  0
LINE
  8
DATA
  6
CONTINUOUS
 62
     7
 10
547.657799
 20
1335.20833
 11
542.549689
 21
1335.20833
  0
ARC
  8
DATA
  6
CONTINUOUS
 62
     7
 10
492.337189
 20
1322.5
 40
1.0
 50
180.0
 51
270.0
  0
ARC
  8
DATA
  6
CONTINUOUS
 62
     7
 10
498.337189
 20
1322.5
 40
1.0
 50
270.0
 51
0.0
  0
LINE
  8
DATA
  6
CONTINUOUS
 62
     7
 10
498.337189
 20
1321.5
 11
492.337189
 21
1321.5
  0
LINE
  8
DATA
  6
CONTINUOUS
 62
     7
 10
528.049689
 20
1324.33333
 11
542.549689
 21
1324.33333
  0
LINE
  8
DATA
  6
CONTINUOUS
 62
     7
 10
528.049689
 20
1323.125
 11
542.549689
 21
1323.125
  0
LINE
  8
DATA
  6
CONTINUOUS
 62
     7
 10
522.657799
 20
1320.5
 11
528.049689
 21
1320.5
  0
LINE
  8
DATA
  6
CONTINUOUS
 62
     7
 10
528.049689
 20
1319.5
 11
542.549689
 21
1319.5
  0
LINE
  8
DATA
  6
CONTINUOUS
 62
     7
 10
528.049689
 20
1321.91667
 11
542.549689
 21
1321.91667
  0
LINE
  8
DATA
  6
CONTINUOUS
 62
     7
 10
528.049689
 20
1320.70833
 11
542.549689
 21
1320.70833
  0
LINE
  8
DATA
  6
CONTINUOUS
 62
     7
 10
547.657799
 20
1324.0
 11
542.549689
 21
1324.0
  0
LINE
  8
DATA
  6
CONTINUOUS
 62
     7
 10
502.657799
 20
1322.75
 11
522.657799
 21
1320.5
  0
TEXT
  8
DATA
  6
CONTINUOUS
 62
     7
 10
462.5
 20
1387.5
 40
25.0
  1
DCコード長さ約3ｍ
  7
TTF_DEFAULT
  0
LINE
  8
DATA
  6
CONTINUOUS
 62
     7
 10
750.0
 20
884.0
 11
894.0
 21
884.0
  0
LINE
  8
DATA
  6
CONTINUOUS
 62
     7
 10
750.0
 20
800.0
 11
894.0
 21
800.0
  0
LINE
  8
DATA
  6
CONTINUOUS
 62
     7
 10
776.0
 20
790.0
 11
758.0
 21
790.0
  0
LINE
  8
DATA
  6
CONTINUOUS
 62
     7
 10
758.0
 20
790.0
 11
756.82364
 21
800.0
  0
LINE
  8
DATA
  6
CONTINUOUS
 62
     7
 10
776.0
 20
790.0
 11
777.17636
 21
800.0
  0
LINE
  8
DATA
  6
CONTINUOUS
 62
     7
 10
750.0
 20
800.0
 11
750.0
 21
884.0
  0
CIRCLE
  8
DATA
  6
CONTINUOUS
 62
     7
 10
760.5
 20
869.5
 40
2.5
  0
CIRCLE
  8
DATA
  6
CONTINUOUS
 62
     7
 10
760.5
 20
869.5
 40
4.5
  0
LINE
  8
DATA
  6
CONTINUOUS
 62
     7
 10
760.5
 20
867.5
 11
760.5
 21
871.5
  0
LINE
  8
DATA
  6
CONTINUOUS
 62
     7
 10
758.5
 20
869.5
 11
762.5
 21
869.5
  0
CIRCLE
  8
DATA
  6
CONTINUOUS
 62
     7
 10
775.0
 20
810.5
 40
4.5
  0
CIRCLE
  8
DATA
  6
CONTINUOUS
 62
     7
 10
775.0
 20
810.5
 40
2.5
  0
LINE
  8
DATA
  6
CONTINUOUS
 62
     7
 10
773.0
 20
810.5
 11
777.0
 21
810.5
  0
LINE
  8
DATA
  6
CONTINUOUS
 62
     7
 10
775.0
 20
808.5
 11
775.0
 21
812.5
  0
LINE
  8
DATA
  6
CONTINUOUS
 62
     7
 10
758.0
 20
886.0
 11
763.0
 21
886.0
  0
LINE
  8
DATA
  6
CONTINUOUS
 62
     7
 10
756.0
 20
885.0
 11
765.0
 21
885.0
  0
LINE
  8
DATA
  6
CONTINUOUS
 62
     7
 10
756.0
 20
884.0
 11
756.0
 21
885.0
  0
LINE
  8
DATA
  6
CONTINUOUS
 62
     7
 10
765.0
 20
884.0
 11
765.0
 21
885.0
  0
LINE
  8
DATA
  6
CONTINUOUS
 62
     7
 10
758.0
 20
886.0
 11
756.0
 21
885.0
  0
LINE
  8
DATA
  6
CONTINUOUS
 62
     7
 10
763.0
 20
886.0
 11
765.0
 21
885.0
  0
LINE
  8
DATA
  6
CONTINUOUS
 62
     7
 10
748.0
 20
854.0
 11
748.0
 21
824.0
  0
LINE
  8
DATA
  6
CONTINUOUS
 62
     7
 10
748.0
 20
854.0
 11
750.0
 21
854.0
  0
LINE
  8
DATA
  6
CONTINUOUS
 62
     7
 10
748.0
 20
824.0
 11
750.0
 21
824.0
  0
LINE
  8
DATA
  6
CONTINUOUS
 62
     7
 10
743.5
 20
843.5
 11
748.0
 21
838.0
  0
ARC
  8
DATA
  6
CONTINUOUS
 62
     7
 10
755.327722
 20
838.413682
 40
12.875
 50
124.690516
 51
156.73067
  0
ARC
  8
DATA
  6
CONTINUOUS
 62
     7
 10
749.0
 20
826.0
 40
1.5
 50
131.810315
 51
228.189685
  0
LINE
  8
DATA
  6
CONTINUOUS
 62
     7
 10
868.0
 20
790.0
 11
886.0
 21
790.0
  0
LINE
  8
DATA
  6
CONTINUOUS
 62
     7
 10
868.0
 20
790.0
 11
866.82364
 21
800.0
  0
CIRCLE
  8
DATA
  6
CONTINUOUS
 62
     7
 10
868.0
 20
810.5
 40
4.5
  0
CIRCLE
  8
DATA
  6
CONTINUOUS
 62
     7
 10
868.0
 20
810.5
 40
2.5
  0
LINE
  8
DATA
  6
CONTINUOUS
 62
     7
 10
866.0
 20
810.5
 11
870.0
 21
810.5
  0
LINE
  8
DATA
  6
CONTINUOUS
 62
     7
 10
868.0
 20
808.5
 11
868.0
 21
812.5
  0
LINE
  8
DATA
  6
CONTINUOUS
 62
     7
 10
886.0
 20
790.0
 11
887.17636
 21
800.0
  0
LINE
  8
DATA
  6
CONTINUOUS
 62
     7
 10
894.0
 20
800.0
 11
894.0
 21
884.0
  0
LINE
  8
DATA
  6
CONTINUOUS
 62
     7
 10
881.5
 20
886.0
 11
886.5
 21
886.0
  0
LINE
  8
DATA
  6
CONTINUOUS
 62
     7
 10
879.5
 20
885.0
 11
888.5
 21
885.0
  0
LINE
  8
DATA
  6
CONTINUOUS
 62
     7
 10
879.5
 20
884.0
 11
879.5
 21
885.0
  0
LINE
  8
DATA
  6
CONTINUOUS
 62
     7
 10
888.5
 20
884.0
 11
888.5
 21
885.0
  0
LINE
  8
DATA
  6
CONTINUOUS
 62
     7
 10
881.5
 20
886.0
 11
879.5
 21
885.0
  0
LINE
  8
DATA
  6
CONTINUOUS
 62
     7
 10
886.5
 20
886.0
 11
888.5
 21
885.0
  0
LINE
  8
DATA
  6
CONTINUOUS
 62
     7
 10
894.0
 20
880.0
 11
923.5
 21
880.0
  0
LINE
  8
DATA
  6
CONTINUOUS
 62
     7
 10
894.0
 20
803.5
 11
923.5
 21
803.5
  0
LINE
  8
DATA
  6
CONTINUOUS
 62
     7
 10
923.5
 20
803.5
 11
923.5
 21
880.0
  0
LINE
  8
DATA
  6
CONTINUOUS
 62
     7
 10
894.0
 20
832.0
 11
897.0
 21
832.0
  0
LINE
  8
DATA
  6
CONTINUOUS
 62
     7
 10
894.0
 20
808.0
 11
897.0
 21
808.0
  0
LINE
  8
DATA
  6
CONTINUOUS
 62
     7
 10
897.0
 20
803.5
 11
897.0
 21
880.0
  0
ARC
  8
DATA
  6
CONTINUOUS
 62
     7
 10
894.0
 20
870.0
 40
5.0
 50
323.130102
 51
36.869898
  0
LINE
  8
DATA
  6
CONTINUOUS
 62
     7
 10
897.0
 20
867.0
 11
898.0
 21
867.0
  0
LINE
  8
DATA
  6
CONTINUOUS
 62
     7
 10
897.0
 20
873.0
 11
898.0
 21
873.0
  0
ARC
  8
DATA
  6
CONTINUOUS
 62
     7
 10
894.0
 20
830.5
 40
5.0
 50
323.130102
 51
36.869898
  0
LINE
  8
DATA
  6
CONTINUOUS
 62
     7
 10
897.0
 20
827.5
 11
898.0
 21
827.5
  0
LINE
  8
DATA
  6
CONTINUOUS
 62
     7
 10
897.0
 20
833.5
 11
898.0
 21
833.5
  0
ARC
  8
DATA
  6
CONTINUOUS
 62
     7
 10
894.0
 20
816.0
 40
5.0
 50
323.130102
 51
36.869898
  0
LINE
  8
DATA
  6
CONTINUOUS
 62
     7
 10
897.0
 20
813.0
 11
898.0
 21
813.0
  0
LINE
  8
DATA
  6
CONTINUOUS
 62
     7
 10
897.0
 20
819.0
 11
898.0
 21
819.0
  0
LINE
  8
DIMENSIONS
  6
CONTINUOUS
 62
     7
 10
743.5
 20
853.5
 11
743.5
 21
962.5
  0
LINE
  8
DIMENSIONS
  6
CONTINUOUS
 62
     7
 10
723.5
 20
953.3332
 11
743.5
 21
950.0
  0
LINE
  8
DIMENSIONS
  6
CONTINUOUS
 62
     7
 10
723.5
 20
946.6668
 11
743.5
 21
950.0
  0
LINE
  8
DIMENSIONS
  6
CONTINUOUS
 62
     7
 10
923.5
 20
950.0
 11
963.5
 21
950.0
  0
LINE
  8
DIMENSIONS
  6
CONTINUOUS
 62
     7
 10
943.5
 20
946.6668
 11
923.5
 21
950.0
  0
LINE
  8
DIMENSIONS
  6
CONTINUOUS
 62
     7
 10
943.5
 20
953.3332
 11
923.5
 21
950.0
  0
LINE
  8
DIMENSIONS
  6
CONTINUOUS
 62
     7
 10
750.0
 20
950.0
 11
894.0
 21
950.0
  0
LINE
  8
DIMENSIONS
  6
CONTINUOUS
 62
     7
 10
894.0
 20
894.0
 11
894.0
 21
962.5
  0
LINE
  8
DIMENSIONS
  6
CONTINUOUS
 62
     7
 10
770.0
 20
946.6668
 11
750.0
 21
950.0
  0
LINE
  8
DIMENSIONS
  6
CONTINUOUS
 62
     7
 10
770.0
 20
953.3332
 11
750.0
 21
950.0
  0
LINE
  8
DIMENSIONS
  6
CONTINUOUS
 62
     7
 10
874.0
 20
946.6668
 11
894.0
 21
950.0
  0
LINE
  8
DIMENSIONS
  6
CONTINUOUS
 62
     7
 10
874.0
 20
953.3332
 11
894.0
 21
950.0
  0
LINE
  8
DIMENSIONS
  6
CONTINUOUS
 62
     7
 10
750.0
 20
1000.0
 11
923.5
 21
1000.0
  0
LINE
  8
DIMENSIONS
  6
CONTINUOUS
 62
     7
 10
750.0
 20
894.0
 11
750.0
 21
1012.5
  0
LINE
  8
DIMENSIONS
  6
CONTINUOUS
 62
     7
 10
923.5
 20
890.0
 11
923.5
 21
1012.5
  0
LINE
  8
DIMENSIONS
  6
CONTINUOUS
 62
     7
 10
770.0
 20
996.6668
 11
750.0
 21
1000.0
  0
LINE
  8
DIMENSIONS
  6
CONTINUOUS
 62
     7
 10
770.0
 20
1003.3332
 11
750.0
 21
1000.0
  0
LINE
  8
DIMENSIONS
  6
CONTINUOUS
 62
     7
 10
903.5
 20
996.6668
 11
923.5
 21
1000.0
  0
LINE
  8
DIMENSIONS
  6
CONTINUOUS
 62
     7
 10
903.5
 20
1003.3332
 11
923.5
 21
1000.0
  0
TEXT
  8
DIMENSIONS
  6
CONTINUOUS
 62
     7
 10
802.73214
 20
962.5
 40
25.0
  1
144
  7
TTF_DEFAULT
  0
TEXT
  8
DIMENSIONS
  6
CONTINUOUS
 62
     7
 10
808.095234
 20
1012.5
 40
25.0
  1
173.5
  7
TTF_DEFAULT
  0
TEXT
  8
DATA
  6
CONTINUOUS
 62
     7
 10
762.5
 20
687.5
 40
25.0
  1
取り外し可能
  7
TTF_DEFAULT
  0
TEXT
  8
SPEC
  6
CONTINUOUS
 62
     7
 10
187.5
 20
2662.5
 40
30.0
  1
仕様
  7
TTF_DEFAULT
  0
TEXT
  8
SPEC
  6
CONTINUOUS
 62
     7
 10
181.25
 20
2618.75
 40
25.0
  1
電源/消費電力
  7
TTF_DEFAULT
  0
TEXT
  8
SPEC
  6
CONTINUOUS
 62
     7
 10
181.25
 20
2581.25
 40
25.0
  1
寸法
  7
TTF_DEFAULT
  0
TEXT
  8
SPEC
  6
CONTINUOUS
 62
     7
 10
181.25
 20
2506.25
 40
25.0
  1
重量
  7
TTF_DEFAULT
  0
LINE
  8
SPEC
  6
CONTINUOUS
 62
     7
 10
175.0
 20
2462.5
 11
175.0
 21
2650.0
  0
TEXT
  8
SPEC
  6
CONTINUOUS
 62
     7
 10
506.25
 20
2618.75
 40
25.0
  1
AC100V 50/60Hz 175VA/Watts
  7
TTF_DEFAULT
  0
TEXT
  8
SPEC
  6
CONTINUOUS
 62
     7
 10
506.25
 20
2581.25
 40
25.0
  1
375(W)×85(H)×173.5(D)mm
  7
TTF_DEFAULT
  0
TEXT
  8
SPEC
  6
CONTINUOUS
 62
     7
 10
506.25
 20
2506.25
 40
25.0
  1
約8kg
  7
TTF_DEFAULT
  0
LINE
  8
SPEC
  6
CONTINUOUS
 62
     7
 10
500.0
 20
2650.0
 11
500.0
 21
2462.5
  0
TEXT
  8
HIBINO-BASE
  6
CONTINUOUS
 62
     7
 10
1487.5
 20
175.0
 40
25.0
  1
N.Sasaki
  7
TTF_DEFAULT
  0
LINE
  8
HIBINO-BASE
  6
CONTINUOUS
 62
     7
 10
1000.0
 20
250.0
 11
1900.0
 21
250.0
  0
TEXT
  8
HIBINO-BASE
  6
CONTINUOUS
 62
     7
 10
1480.0
 20
225.0
 40
25.0
  1
DRAWN
  7
TTF_DEFAULT
  0
LINE
  8
DATA
  6
CONTINUOUS
 62
     7
 10
1205.0
 20
884.0
 11
1577.0
 21
884.0
  0
LINE
  8
DATA
  6
CONTINUOUS
 62
     7
 10
1203.0
 20
886.0
 11
1579.0
 21
886.0
  0
LINE
  8
DATA
  6
CONTINUOUS
 62
     7
 10
1203.0
 20
802.0
 11
1579.0
 21
802.0
  0
LINE
  8
DATA
  6
CONTINUOUS
 62
     7
 10
1203.0
 20
1244.0
 11
1579.0
 21
1244.0
  0
LINE
  8
DATA
  6
CONTINUOUS
 62
     7
 10
1203.0
 20
1100.0
 11
1579.0
 21
1100.0
  0
LINE
  8
DATA
  6
CONTINUOUS
 62
     7
 10
1200.0
 20
650.0
 11
1600.0
 21
650.0
  0
LINE
  8
DIMENSIONS
  6
CONTINUOUS
 62
     7
 10
1632.0
 20
1000.0
 11
1150.0
 21
1000.0
  0
LINE
  8
DIMENSIONS
  6
CONTINUOUS
 62
     7
 10
1203.0
 20
950.0
 11
1579.0
 21
950.0
  0
TEXT
  8
DATA
  6
CONTINUOUS
 62
     7
 10
1365.5
 20
1387.5
 40
25.0
  1
DCコード長さ約3ｍ
  7
TTF_DEFAULT
  0
LINE
  8
0
  6
CONTINUOUS
 62
     7
 10
1000.0
 20
376.5
 11
1900.0
 21
376.5
  0
LINE
  8
0
  6
CONTINUOUS
 62
     7
 10
1000.0
 20
373.5
 11
1900.0
 21
373.5
  0
LINE
  8
0
  6
CONTINUOUS
 62
     7
 10
1000.0
 20
376.5
 11
1000.0
 21
373.5
  0
LINE
  8
0
  6
CONTINUOUS
 62
     7
 10
1900.0
 20
376.5
 11
1900.0
 21
373.5
  0
SOLID
  8
HIBINO-BASE
  6
CONTINUOUS
 62
     7
 10
1000.0
 20
376.5
 11
1900.0
 21
376.5
 12
1000.0
 22
373.5
 13
1900.0
 23
373.5
  0
TEXT
  8
DATA
  6
CONTINUOUS
 62
     7
 10
1222.38942
 20
662.5
 40
19.0
  1
ラックマウントパネル仕様（オプション）
  7
TTF_DEFAULT
  0
TEXT
  8
HIBINO-BASE
  6
CONTINUOUS
 62
     7
 10
1230.0
 20
225.0
 40
25.0
  1
DATE
  7
TTF_DEFAULT
  0
TEXT
  8
HIBINO-BASE
  6
CONTINUOUS
 62
     7
 10
1237.5
 20
175.0
 40
25.0
  1
'98.07.
  7
TTF_DEFAULT
  0
LINE
  8
0
  6
CONTINUOUS
 62
     7
 10
998.5
 20
150.0
 11
998.5
 21
375.0
  0
LINE
  8
0
  6
CONTINUOUS
 62
     7
 10
1001.5
 20
150.0
 11
1001.5
 21
375.0
  0
LINE
  8
0
  6
CONTINUOUS
 62
     7
 10
998.5
 20
150.0
 11
1001.5
 21
150.0
  0
LINE
  8
0
  6
CONTINUOUS
 62
     7
 10
998.5
 20
375.0
 11
1001.5
 21
375.0
  0
SOLID
  8
HIBINO-BASE
  6
CONTINUOUS
 62
     7
 10
998.5
 20
150.0
 11
998.5
 21
375.0
 12
1001.5
 22
150.0
 13
1001.5
 23
375.0
  0
TEXT
  8
HIBINO-BASE
  6
CONTINUOUS
 62
     7
 10
1037.5
 20
162.5
 40
40.0
  1
A4
  7
TTF_DEFAULT
  0
LINE
  8
HIBINO-BASE
  6
CONTINUOUS
 62
     7
 10
1143.75
 20
162.5
 11
1181.25
 21
200.0
  0
TEXT
  8
HIBINO-BASE
  6
CONTINUOUS
 62
     7
 10
1137.5
 20
181.25
 40
30.0
  1
1
  7
TTF_DEFAULT
  0
TEXT
  8
HIBINO-BASE
  6
CONTINUOUS
 62
     7
 10
1005.0
 20
225.0
 40
22.5
  1
図面サイズ
  7
TTF_DEFAULT
  0
TEXT
  8
HIBINO-BASE
  6
CONTINUOUS
 62
     7
 10
1130.0
 20
225.0
 40
25.0
  1
SCALE
  7
TTF_DEFAULT
  0
LINE
  8
HIBINO-BASE
  6
CONTINUOUS
 62
     7
 10
1225.0
 20
150.0
 11
1225.0
 21
250.0
  0
LINE
  8
HIBINO-BASE
  6
CONTINUOUS
 62
     7
 10
1125.0
 20
150.0
 11
1125.0
 21
250.0
  0
TEXT
  8
HIBINO-BASE
  6
CONTINUOUS
 62
     7
 10
1175.0
 20
162.5
 40
30.0
  1
10
  7
TTF_DEFAULT
  0
TEXT
  8
HIBINO-BASE
  6
CONTINUOUS
 62
     7
 10
1005.0
 20
350.0
 40
25.0
  1
NOTE
  7
TTF_DEFAULT
  0
LINE
  8
HIBINO-BASE
  6
CONTINUOUS
 62
     7
 10
1350.0
 20
150.0
 11
1350.0
 21
375.0
  0
TEXT
  8
HIBINO-BASE
  6
CONTINUOUS
 62
     7
 10
1355.0
 20
225.0
 40
25.0
  1
DESIGN
  7
TTF_DEFAULT
  0
LINE
  8
HIBINO-BASE
  6
CONTINUOUS
 62
     7
 10
1475.0
 20
250.0
 11
1475.0
 21
150.0
  0
TEXT
  8
HIBINO-BASE
  6
CONTINUOUS
 62
     7
 10
1355.0
 20
350.0
 40
25.0
  1
TITLE
  7
TTF_DEFAULT
  0
LINE
  8
DATA
  6
CONTINUOUS
 62
     7
 10
1217.0
 20
867.0
 11
1257.0
 21
867.0
  0
LINE
  8
DATA
  6
CONTINUOUS
 62
     7
 10
1217.0
 20
834.0
 11
1257.0
 21
834.0
  0
LINE
  8
DATA
  6
CONTINUOUS
 62
     7
 10
1217.0
 20
864.0
 11
1257.0
 21
864.0
  0
LINE
  8
DATA
  6
CONTINUOUS
 62
     7
 10
1217.0
 20
837.0
 11
1257.0
 21
837.0
  0
LINE
  8
DATA
  6
CONTINUOUS
 62
     7
 10
1217.0
 20
861.0
 11
1257.0
 21
861.0
  0
LINE
  8
DATA
  6
CONTINUOUS
 62
     7
 10
1217.0
 20
858.0
 11
1257.0
 21
858.0
  0
LINE
  8
DATA
  6
CONTINUOUS
 62
     7
 10
1217.0
 20
855.0
 11
1257.0
 21
855.0
  0
LINE
  8
DATA
  6
CONTINUOUS
 62
     7
 10
1217.0
 20
852.0
 11
1257.0
 21
852.0
  0
LINE
  8
DATA
  6
CONTINUOUS
 62
     7
 10
1217.0
 20
849.0
 11
1257.0
 21
849.0
  0
LINE
  8
DATA
  6
CONTINUOUS
 62
     7
 10
1217.0
 20
846.0
 11
1257.0
 21
846.0
  0
LINE
  8
DATA
  6
CONTINUOUS
 62
     7
 10
1217.0
 20
843.0
 11
1257.0
 21
843.0
  0
LINE
  8
DATA
  6
CONTINUOUS
 62
     7
 10
1217.0
 20
840.0
 11
1257.0
 21
840.0
  0
LINE
  8
DATA
  6
CONTINUOUS
 62
     7
 10
1239.0
 20
1247.0
 11
1411.5
 21
1247.0
  0
ARC
  8
DATA
  6
CONTINUOUS
 62
     7
 10
1245.5
 20
1244.0
 40
5.0
 50
53.130102
 51
126.869898
  0
LINE
  8
DATA
  6
CONTINUOUS
 62
     7
 10
1331.643799
 20
1337.90261
 11
1235.097395
 21
1337.90261
  0
LINE
  8
DATA
  6
CONTINUOUS
 62
     7
 10
1326.892809
 20
1330.0974
 11
1235.902605
 21
1330.0974
  0
LINE
  8
DIMENSIONS
  6
CONTINUOUS
 62
     7
 10
1414.25
 20
1093.5
 11
1087.5
 21
1093.5
  0
LINE
  8
DATA
  6
CONTINUOUS
 62
     7
 10
1217.0
 20
792.0
 11
1235.0
 21
792.0
  0
LINE
  8
DATA
  6
CONTINUOUS
 62
     7
 10
1205.0
 20
802.0
 11
1205.0
 21
884.0
  0
LINE
  8
DATA
  6
CONTINUOUS
 62
     7
 10
1217.0
 20
867.0
 11
1217.0
 21
864.0
  0
LINE
  8
DATA
  6
CONTINUOUS
 62
     7
 10
1217.0
 20
834.0
 11
1217.0
 21
837.0
  0
LINE
  8
DATA
  6
CONTINUOUS
 62
     7
 10
1217.0
 20
861.0
 11
1217.0
 21
858.0
  0
LINE
  8
DATA
  6
CONTINUOUS
 62
     7
 10
1217.0
 20
855.0
 11
1217.0
 21
852.0
  0
LINE
  8
DATA
  6
CONTINUOUS
 62
     7
 10
1217.0
 20
849.0
 11
1217.0
 21
846.0
  0
LINE
  8
DATA
  6
CONTINUOUS
 62
     7
 10
1217.0
 20
843.0
 11
1217.0
 21
840.0
  0
LINE
  8
DATA
  6
CONTINUOUS
 62
     7
 10
1217.0
 20
792.0
 11
1215.82364
 21
802.0
  0
LINE
  8
DATA
  6
CONTINUOUS
 62
     7
 10
1201.0
 20
869.0
 11
1202.0
 21
867.0
  0
LINE
  8
DATA
  6
CONTINUOUS
 62
     7
 10
1201.0
 20
874.0
 11
1202.0
 21
876.0
  0
LINE
  8
DATA
  6
CONTINUOUS
 62
     7
 10
1203.0
 20
867.0
 11
1202.0
 21
867.0
  0
LINE
  8
DATA
  6
CONTINUOUS
 62
     7
 10
1203.0
 20
876.0
 11
1202.0
 21
876.0
  0
LINE
  8
DATA
  6
CONTINUOUS
 62
     7
 10
1202.0
 20
876.0
 11
1202.0
 21
867.0
  0
LINE
  8
DATA
  6
CONTINUOUS
 62
     7
 10
1201.0
 20
874.0
 11
1201.0
 21
869.0
  0
LINE
  8
DATA
  6
CONTINUOUS
 62
     7
 10
1201.0
 20
810.0
 11
1202.0
 21
808.0
  0
LINE
  8
DATA
  6
CONTINUOUS
 62
     7
 10
1201.0
 20
815.0
 11
1202.0
 21
817.0
  0
LINE
  8
DATA
  6
CONTINUOUS
 62
     7
 10
1203.0
 20
808.0
 11
1202.0
 21
808.0
  0
LINE
  8
DATA
  6
CONTINUOUS
 62
     7
 10
1203.0
 20
817.0
 11
1202.0
 21
817.0
  0
LINE
  8
DATA
  6
CONTINUOUS
 62
     7
 10
1202.0
 20
817.0
 11
1202.0
 21
808.0
  0
LINE
  8
DATA
  6
CONTINUOUS
 62
     7
 10
1201.0
 20
815.0
 11
1201.0
 21
810.0
  0
LINE
  8
DATA
  6
CONTINUOUS
 62
     7
 10
1235.0
 20
792.0
 11
1236.17636
 21
802.0
  0
LINE
  8
DATA
  6
CONTINUOUS
 62
     7
 10
1156.0
 20
878.6
 11
1161.0
 21
878.6
  0
ARC
  8
DATA
  6
CONTINUOUS
 62
     7
 10
1161.0
 20
882.1
 40
3.5
 50
270.0
 51
90.0
  0
ARC
  8
DATA
  6
CONTINUOUS
 62
     7
 10
1156.0
 20
882.1
 40
3.5
 50
90.0
 51
270.0
  0
LINE
  8
DATA
  6
CONTINUOUS
 62
     7
 10
1156.0
 20
809.4
 11
1161.0
 21
809.4
  0
LINE
  8
DATA
  6
CONTINUOUS
 62
     7
 10
1156.0
 20
802.4
 11
1161.0
 21
802.4
  0
ARC
  8
DATA
  6
CONTINUOUS
 62
     7
 10
1161.0
 20
805.9
 40
3.5
 50
270.0
 51
90.0
  0
ARC
  8
DATA
  6
CONTINUOUS
 62
     7
 10
1156.0
 20
805.9
 40
3.5
 50
90.0
 51
270.0
  0
LINE
  8
DATA
  6
CONTINUOUS
 62
     7
 10
1156.0
 20
885.6
 11
1161.0
 21
885.6
  0
LINE
  8
DATA
  6
CONTINUOUS
 62
     7
 10
1150.0
 20
800.0
 11
1150.0
 21
888.0
  0
LINE
  8
DATA
  6
CONTINUOUS
 62
     7
 10
1203.0
 20
800.0
 11
1203.0
 21
888.0
  0
LINE
  8
DATA
  6
CONTINUOUS
 62
     7
 10
1150.0
 20
888.0
 11
1203.0
 21
888.0
  0
LINE
  8
DATA
  6
CONTINUOUS
 62
     7
 10
1150.0
 20
800.0
 11
1203.0
 21
800.0
  0
LINE
  8
DIMENSIONS
  6
CONTINUOUS
 62
     7
 10
1150.0
 20
898.0
 11
1150.0
 21
1012.5
  0
LINE
  8
DIMENSIONS
  6
CONTINUOUS
 62
     7
 10
1170.0
 20
1003.3332
 11
1150.0
 21
1000.0
  0
LINE
  8
DIMENSIONS
  6
CONTINUOUS
 62
     7
 10
1170.0
 20
996.6668
 11
1150.0
 21
1000.0
  0
LINE
  8
DIMENSIONS
  6
CONTINUOUS
 62
     7
 10
1203.0
 20
898.0
 11
1203.0
 21
962.5
  0
LINE
  8
DIMENSIONS
  6
CONTINUOUS
 62
     7
 10
1223.0
 20
946.6668
 11
1203.0
 21
950.0
  0
LINE
  8
DIMENSIONS
  6
CONTINUOUS
 62
     7
 10
1223.0
 20
953.3332
 11
1203.0
 21
950.0
  0
LINE
  8
DIMENSIONS
  6
CONTINUOUS
 62
     7
 10
1100.0
 20
888.0
 11
1100.0
 21
800.0
  0
LINE
  8
DIMENSIONS
  6
CONTINUOUS
 62
     7
 10
1140.0
 20
888.0
 11
1087.5
 21
888.0
  0
LINE
  8
DIMENSIONS
  6
CONTINUOUS
 62
     7
 10
1140.0
 20
800.0
 11
1087.5
 21
800.0
  0
LINE
  8
DIMENSIONS
  6
CONTINUOUS
 62
     7
 10
1096.6668
 20
868.0
 11
1100.0
 21
888.0
  0
LINE
  8
DIMENSIONS
  6
CONTINUOUS
 62
     7
 10
1103.3332
 20
868.0
 11
1100.0
 21
888.0
  0
LINE
  8
DIMENSIONS
  6
CONTINUOUS
 62
     7
 10
1096.6668
 20
820.0
 11
1100.0
 21
800.0
  0
LINE
  8
DIMENSIONS
  6
CONTINUOUS
 62
     7
 10
1103.3332
 20
820.0
 11
1100.0
 21
800.0
  0
TEXT
  8
DIMENSIONS
  6
CONTINUOUS
 62
     7
 10
1087.5
 20
830.49004
 40
25.0
  1
88
 50
90.0
  7
TTF_DEFAULT
  0
LINE
  8
DATA
  6
CONTINUOUS
 62
     7
 10
1203.0
 20
1100.0
 11
1203.0
 21
1244.0
  0
LINE
  8
DATA
  6
CONTINUOUS
 62
     7
 10
1201.0
 20
1102.0
 11
1201.0
 21
1244.0
  0
LINE
  8
DATA
  6
CONTINUOUS
 62
     7
 10
1199.0
 20
1127.5
 11
1200.0
 21
1129.5
  0
LINE
  8
DATA
  6
CONTINUOUS
 62
     7
 10
1200.0
 20
1129.5
 11
1200.0
 21
1120.5
  0
LINE
  8
DATA
  6
CONTINUOUS
 62
     7
 10
1150.0
 20
1100.0
 11
1203.0
 21
1100.0
  0
LINE
  8
DATA
  6
CONTINUOUS
 62
     7
 10
1150.0
 20
1102.0
 11
1201.0
 21
1102.0
  0
LINE
  8
DATA
  6
CONTINUOUS
 62
     7
 10
1150.0
 20
1100.0
 11
1150.0
 21
1102.0
  0
LINE
  8
DATA
  6
CONTINUOUS
 62
     7
 10
1199.0
 20
1113.0
 11
1200.0
 21
1115.0
  0
LINE
  8
DATA
  6
CONTINUOUS
 62
     7
 10
1201.0
 20
1115.0
 11
1200.0
 21
1115.0
  0
LINE
  8
DATA
  6
CONTINUOUS
 62
     7
 10
1199.0
 20
1113.0
 11
1199.0
 21
1108.0
  0
LINE
  8
DATA
  6
CONTINUOUS
 62
     7
 10
1199.0
 20
1108.0
 11
1200.0
 21
1106.0
  0
LINE
  8
DATA
  6
CONTINUOUS
 62
     7
 10
1201.0
 20
1106.0
 11
1200.0
 21
1106.0
  0
LINE
  8
DATA
  6
CONTINUOUS
 62
     7
 10
1200.0
 20
1115.0
 11
1200.0
 21
1106.0
  0
LINE
  8
DATA
  6
CONTINUOUS
 62
     7
 10
1199.0
 20
1122.5
 11
1200.0
 21
1120.5
  0
LINE
  8
DATA
  6
CONTINUOUS
 62
     7
 10
1201.0
 20
1120.5
 11
1200.0
 21
1120.5
  0
LINE
  8
DATA
  6
CONTINUOUS
 62
     7
 10
1199.0
 20
1127.5
 11
1199.0
 21
1122.5
  0
LINE
  8
DATA
  6
CONTINUOUS
 62
     7
 10
1200.0
 20
1222.5
 11
1200.0
 21
1213.5
  0
LINE
  8
DATA
  6
CONTINUOUS
 62
     7
 10
1199.0
 20
1220.5
 11
1199.0
 21
1215.5
  0
LINE
  8
DATA
  6
CONTINUOUS
 62
     7
 10
1201.0
 20
1129.5
 11
1200.0
 21
1129.5
  0
LINE
  8
DATA
  6
CONTINUOUS
 62
     7
 10
1199.0
 20
1215.5
 11
1200.0
 21
1213.5
  0
LINE
  8
DATA
  6
CONTINUOUS
 62
     7
 10
1201.0
 20
1213.5
 11
1200.0
 21
1213.5
  0
LINE
  8
DATA
  6
CONTINUOUS
 62
     7
 10
1223.5
 20
1252.5
 11
1223.5
 21
1244.0
  0
LINE
  8
DATA
  6
CONTINUOUS
 62
     7
 10
1220.0
 20
1249.5
 11
1220.0
 21
1244.0
  0
LINE
  8
DATA
  6
CONTINUOUS
 62
     7
 10
1239.0
 20
1244.0
 11
1239.0
 21
1247.0
  0
LINE
  8
DATA
  6
CONTINUOUS
 62
     7
 10
1234.5
 20
1252.5
 11
1234.5
 21
1244.0
  0
LINE
  8
DATA
  6
CONTINUOUS
 62
     7
 10
1238.0
 20
1244.0
 11
1238.0
 21
1249.5
  0
LINE
  8
DATA
  6
CONTINUOUS
 62
     7
 10
1201.0
 20
1244.0
 11
1203.0
 21
1244.0
  0
LINE
  8
DATA
  6
CONTINUOUS
 62
     7
 10
1199.0
 20
1220.5
 11
1200.0
 21
1222.5
  0
LINE
  8
DATA
  6
CONTINUOUS
 62
     7
 10
1201.0
 20
1222.5
 11
1200.0
 21
1222.5
  0
LINE
  8
DATA
  6
CONTINUOUS
 62
     7
 10
1223.0
 20
1252.5
 11
1235.0
 21
1252.5
  0
ARC
  8
DATA
  6
CONTINUOUS
 62
     7
 10
1223.0
 20
1249.5
 40
3.0
 50
90.0
 51
180.0
  0
LINE
  8
DATA
  6
CONTINUOUS
 62
     7
 10
1242.5
 20
1247.0
 11
1242.5
 21
1248.0
  0
ARC
  8
DATA
  6
CONTINUOUS
 62
     7
 10
1235.0
 20
1249.5
 40
3.0
 50
360.0
 51
90.0
  0
LINE
  8
DATA
  6
CONTINUOUS
 62
     7
 10
1225.097395
 20
1252.5
 11
1225.097395
 21
1327.90261
  0
ARC
  8
DATA
  6
CONTINUOUS
 62
     7
 10
1235.097395
 20
1327.90261
 40
10.0
 50
90.0
 51
180.0
  0
LINE
  8
DATA
  6
CONTINUOUS
 62
     7
 10
1232.902605
 20
1252.5
 11
1232.902605
 21
1327.0974
  0
ARC
  8
DATA
  6
CONTINUOUS
 62
     7
 10
1235.902605
 20
1327.0974
 40
3.0
 50
90.0
 51
180.0
  0
LINE
  8
DIMENSIONS
  6
CONTINUOUS
 62
     7
 10
1100.0
 20
1093.5
 11
1100.0
 21
1053.5
  0
LINE
  8
DIMENSIONS
  6
CONTINUOUS
 62
     7
 10
1096.6668
 20
1073.5
 11
1100.0
 21
1093.5
  0
LINE
  8
DIMENSIONS
  6
CONTINUOUS
 62
     7
 10
1103.3332
 20
1073.5
 11
1100.0
 21
1093.5
  0
LINE
  8
DIMENSIONS
  6
CONTINUOUS
 62
     7
 10
1100.0
 20
1100.0
 11
1100.0
 21
1273.5
  0
LINE
  8
DIMENSIONS
  6
CONTINUOUS
 62
     7
 10
1140.0
 20
1100.0
 11
1087.5
 21
1100.0
  0
LINE
  8
DIMENSIONS
  6
CONTINUOUS
 62
     7
 10
1242.0
 20
1273.5
 11
1087.5
 21
1273.5
  0
LINE
  8
DIMENSIONS
  6
CONTINUOUS
 62
     7
 10
1103.3332
 20
1120.0
 11
1100.0
 21
1100.0
  0
LINE
  8
DIMENSIONS
  6
CONTINUOUS
 62
     7
 10
1096.6668
 20
1120.0
 11
1100.0
 21
1100.0
  0
LINE
  8
DIMENSIONS
  6
CONTINUOUS
 62
     7
 10
1103.3332
 20
1253.5
 11
1100.0
 21
1273.5
  0
LINE
  8
DIMENSIONS
  6
CONTINUOUS
 62
     7
 10
1096.6668
 20
1253.5
 11
1100.0
 21
1273.5
  0
TEXT
  8
DIMENSIONS
  6
CONTINUOUS
 62
     7
 10
1087.5
 20
1157.144146
 40
25.0
  1
173.5
 50
90.0
  7
TTF_DEFAULT
  0
TEXT
  8
DIMENSIONS
  6
CONTINUOUS
 62
     7
 10
1087.5
 20
1052.5
 40
25.0
  1
6.5
 50
90.0
  7
TTF_DEFAULT
  0
TEXT
  8
DATA
  6
CONTINUOUS
 62
     7
 10
1314.865953
 20
818.0
 40
4.5
  1
-17V
  7
TTF_DEFAULT
  0
LINE
  8
DATA
  6
CONTINUOUS
 62
     7
 10
1257.0
 20
864.0
 11
1257.0
 21
867.0
  0
LINE
  8
DATA
  6
CONTINUOUS
 62
     7
 10
1257.0
 20
834.0
 11
1257.0
 21
837.0
  0
LINE
  8
DATA
  6
CONTINUOUS
 62
     7
 10
1257.0
 20
858.0
 11
1257.0
 21
861.0
  0
LINE
  8
DATA
  6
CONTINUOUS
 62
     7
 10
1257.0
 20
852.0
 11
1257.0
 21
855.0
  0
LINE
  8
DATA
  6
CONTINUOUS
 62
     7
 10
1257.0
 20
846.0
 11
1257.0
 21
849.0
  0
LINE
  8
DATA
  6
CONTINUOUS
 62
     7
 10
1257.0
 20
840.0
 11
1257.0
 21
843.0
  0
CIRCLE
  8
DATA
  6
CONTINUOUS
 62
     7
 10
1279.5
 20
828.0
 40
1.5
  0
TEXT
  8
DATA
  6
CONTINUOUS
 62
     7
 10
1274.865953
 20
818.0
 40
4.5
  1
+48V
  7
TTF_DEFAULT
  0
CIRCLE
  8
DATA
  6
CONTINUOUS
 62
     7
 10
1299.5
 20
828.0
 40
1.5
  0
TEXT
  8
DATA
  6
CONTINUOUS
 62
     7
 10
1294.865953
 20
818.0
 40
4.5
  1
+17V
  7
TTF_DEFAULT
  0
CIRCLE
  8
DATA
  6
CONTINUOUS
 62
     7
 10
1319.5
 20
828.0
 40
1.5
  0
LINE
  8
DATA
  6
CONTINUOUS
 62
     7
 10
1292.5
 20
888.0
 11
1297.5
 21
888.0
  0
LINE
  8
DATA
  6
CONTINUOUS
 62
     7
 10
1290.5
 20
887.0
 11
1299.5
 21
887.0
  0
LINE
  8
DATA
  6
CONTINUOUS
 62
     7
 10
1290.5
 20
886.0
 11
1290.5
 21
887.0
  0
LINE
  8
DATA
  6
CONTINUOUS
 62
     7
 10
1299.5
 20
886.0
 11
1299.5
 21
887.0
  0
LINE
  8
DATA
  6
CONTINUOUS
 62
     7
 10
1292.5
 20
888.0
 11
1290.5
 21
887.0
  0
LINE
  8
DATA
  6
CONTINUOUS
 62
     7
 10
1297.5
 20
888.0
 11
1299.5
 21
887.0
  0
TEXT
  8
DATA
  6
CONTINUOUS
 62
     7
 10
1448.303108
 20
826.36255
 40
3.0
  1
OFF
  7
TTF_DEFAULT
  0
TEXT
  8
DATA
  6
CONTINUOUS
 62
     7
 10
1449.071862
 20
852.36201
 40
3.0
  1
ON
  7
TTF_DEFAULT
  0
TEXT
  8
DATA
  6
CONTINUOUS
 62
     7
 10
1426.568706
 20
858.0
 40
4.5
  1
POWER
  7
TTF_DEFAULT
  0
LINE
  8
DATA
  6
CONTINUOUS
 62
     7
 10
1451.25
 20
850.36201
 11
1451.25
 21
845.98376
  0
CIRCLE
  8
DATA
  6
CONTINUOUS
 62
     7
 10
1451.25
 20
833.86255
 40
2.5
  0
LINE
  8
DATA
  6
CONTINUOUS
 62
     7
 10
1447.0
 20
826.0
 11
1447.0
 21
856.0
  0
LINE
  8
DATA
  6
CONTINUOUS
 62
     7
 10
1421.0
 20
826.0
 11
1421.0
 21
856.0
  0
LINE
  8
DATA
  6
CONTINUOUS
 62
     7
 10
1447.0
 20
856.0
 11
1421.0
 21
856.0
  0
LINE
  8
DATA
  6
CONTINUOUS
 62
     7
 10
1447.0
 20
826.0
 11
1421.0
 21
826.0
  0
LINE
  8
DATA
  6
CONTINUOUS
 62
     7
 10
1484.5
 20
888.0
 11
1489.5
 21
888.0
  0
LINE
  8
DATA
  6
CONTINUOUS
 62
     7
 10
1482.5
 20
887.0
 11
1491.5
 21
887.0
  0
LINE
  8
DATA
  6
CONTINUOUS
 62
     7
 10
1482.5
 20
886.0
 11
1482.5
 21
887.0
  0
LINE
  8
DATA
  6
CONTINUOUS
 62
     7
 10
1491.5
 20
886.0
 11
1491.5
 21
887.0
  0
LINE
  8
DATA
  6
CONTINUOUS
 62
     7
 10
1484.5
 20
888.0
 11
1482.5
 21
887.0
  0
LINE
  8
DATA
  6
CONTINUOUS
 62
     7
 10
1489.5
 20
888.0
 11
1491.5
 21
887.0
  0
LINE
  8
DATA
  6
CONTINUOUS
 62
     7
 10
1424.25
 20
851.0
 11
1424.25
 21
831.0
  0
LINE
  8
DATA
  6
CONTINUOUS
 62
     7
 10
1424.25
 20
851.0
 11
1443.75
 21
851.0
  0
LINE
  8
DATA
  6
CONTINUOUS
 62
     7
 10
1424.25
 20
845.5
 11
1443.75
 21
845.5
  0
LINE
  8
DATA
  6
CONTINUOUS
 62
     7
 10
1424.25
 20
840.0
 11
1443.75
 21
840.0
  0
LINE
  8
DATA
  6
CONTINUOUS
 62
     7
 10
1424.25
 20
831.0
 11
1443.75
 21
831.0
  0
LINE
  8
DATA
  6
CONTINUOUS
 62
     7
 10
1443.75
 20
851.0
 11
1443.75
 21
831.0
  0
TEXT
  8
DIMENSIONS
  6
CONTINUOUS
 62
     7
 10
1370.73506
 20
1012.5
 40
25.0
  1
482
  7
TTF_DEFAULT
  0
TEXT
  8
DIMENSIONS
  6
CONTINUOUS
 62
     7
 10
1370.73506
 20
962.5
 40
25.0
  1
376
  7
TTF_DEFAULT
  0
CIRCLE
  8
DATA
  6
CONTINUOUS
 62
     7
 10
1295.0
 20
1110.5
 40
2.5
  0
CIRCLE
  8
DATA
  6
CONTINUOUS
 62
     7
 10
1295.0
 20
1110.5
 40
4.5
  0
LINE
  8
DATA
  6
CONTINUOUS
 62
     7
 10
1293.0
 20
1110.5
 11
1297.0
 21
1110.5
  0
LINE
  8
DATA
  6
CONTINUOUS
 62
     7
 10
1295.0
 20
1108.5
 11
1295.0
 21
1112.5
  0
ARC
  8
DATA
  6
CONTINUOUS
 62
     7
 10
1279.5
 20
1099.0
 40
1.5
 50
180.0
 51
0.0
  0
LINE
  8
DATA
  6
CONTINUOUS
 62
     7
 10
1278.0
 20
1099.0
 11
1278.0
 21
1100.0
  0
LINE
  8
DATA
  6
CONTINUOUS
 62
     7
 10
1281.0
 20
1099.0
 11
1281.0
 21
1100.0
  0
ARC
  8
DATA
  6
CONTINUOUS
 62
     7
 10
1299.5
 20
1099.0
 40
1.5
 50
180.0
 51
0.0
  0
LINE
  8
DATA
  6
CONTINUOUS
 62
     7
 10
1298.0
 20
1099.0
 11
1298.0
 21
1100.0
  0
LINE
  8
DATA
  6
CONTINUOUS
 62
     7
 10
1301.0
 20
1099.0
 11
1301.0
 21
1100.0
  0
ARC
  8
DATA
  6
CONTINUOUS
 62
     7
 10
1319.5
 20
1099.0
 40
1.5
 50
180.0
 51
0.0
  0
LINE
  8
DATA
  6
CONTINUOUS
 62
     7
 10
1318.0
 20
1099.0
 11
1318.0
 21
1100.0
  0
LINE
  8
DATA
  6
CONTINUOUS
 62
     7
 10
1321.0
 20
1099.0
 11
1321.0
 21
1100.0
  0
CIRCLE
  8
DATA
  6
CONTINUOUS
 62
     7
 10
1487.0
 20
1110.5
 40
2.5
  0
CIRCLE
  8
DATA
  6
CONTINUOUS
 62
     7
 10
1487.0
 20
1110.5
 40
4.5
  0
LINE
  8
DATA
  6
CONTINUOUS
 62
     7
 10
1489.0
 20
1110.5
 11
1485.0
 21
1110.5
  0
LINE
  8
DATA
  6
CONTINUOUS
 62
     7
 10
1487.0
 20
1108.5
 11
1487.0
 21
1112.5
  0
LINE
  8
DATA
  6
CONTINUOUS
 62
     7
 10
1421.0
 20
1098.0
 11
1447.0
 21
1098.0
  0
LINE
  8
DATA
  6
CONTINUOUS
 62
     7
 10
1447.0
 20
1098.0
 11
1447.0
 21
1100.0
  0
LINE
  8
DATA
  6
CONTINUOUS
 62
     7
 10
1421.0
 20
1098.0
 11
1421.0
 21
1100.0
  0
LINE
  8
DATA
  6
CONTINUOUS
 62
     7
 10
1424.25
 20
1093.5
 11
1443.75
 21
1093.5
  0
LINE
  8
DATA
  6
CONTINUOUS
 62
     7
 10
1424.25
 20
1098.0
 11
1424.25
 21
1093.5
  0
LINE
  8
DATA
  6
CONTINUOUS
 62
     7
 10
1443.75
 20
1093.5
 11
1443.75
 21
1098.0
  0
CIRCLE
  8
DATA
  6
CONTINUOUS
 62
     7
 10
1295.0
 20
1234.0
 40
2.5
  0
CIRCLE
  8
DATA
  6
CONTINUOUS
 62
     7
 10
1295.0
 20
1234.0
 40
4.5
  0
LINE
  8
DATA
  6
CONTINUOUS
 62
     7
 10
1293.0
 20
1234.0
 11
1297.0
 21
1234.0
  0
LINE
  8
DATA
  6
CONTINUOUS
 62
     7
 10
1295.0
 20
1232.0
 11
1295.0
 21
1236.0
  0
ARC
  8
DATA
  6
CONTINUOUS
 62
     7
 10
1252.0
 20
1272.5
 40
1.0
 50
356.179051
 51
180.0
  0
LINE
  8
DATA
  6
CONTINUOUS
 62
     7
 10
1251.0
 20
1247.0
 11
1251.0
 21
1272.5
  0
LINE
  8
DATA
  6
CONTINUOUS
 62
     7
 10
1253.0
 20
1247.0
 11
1253.0
 21
1272.5
  0
ARC
  8
DATA
  6
CONTINUOUS
 62
     7
 10
1276.5
 20
1272.5
 40
1.0
 50
356.179051
 51
180.0
  0
LINE
  8
DATA
  6
CONTINUOUS
 62
     7
 10
1275.5
 20
1247.0
 11
1275.5
 21
1272.5
  0
LINE
  8
DATA
  6
CONTINUOUS
 62
     7
 10
1277.5
 20
1247.0
 11
1277.5
 21
1272.5
  0
ARC
  8
DATA
  6
CONTINUOUS
 62
     7
 10
1260.16666
 20
1272.5
 40
1.0
 50
356.179051
 51
180.0
  0
LINE
  8
DATA
  6
CONTINUOUS
 62
     7
 10
1259.16666
 20
1247.0
 11
1259.16666
 21
1272.5
  0
LINE
  8
DATA
  6
CONTINUOUS
 62
     7
 10
1261.16666
 20
1247.0
 11
1261.16666
 21
1272.5
  0
ARC
  8
DATA
  6
CONTINUOUS
 62
     7
 10
1268.33332
 20
1272.5
 40
1.0
 50
356.179051
 51
180.0
  0
LINE
  8
DATA
  6
CONTINUOUS
 62
     7
 10
1267.33332
 20
1247.0
 11
1267.33332
 21
1272.5
  0
LINE
  8
DATA
  6
CONTINUOUS
 62
     7
 10
1269.33332
 20
1247.0
 11
1269.33332
 21
1272.5
  0
ARC
  8
DATA
  6
CONTINUOUS
 62
     7
 10
1291.0
 20
1272.5
 40
1.0
 50
356.179051
 51
180.0
  0
LINE
  8
DATA
  6
CONTINUOUS
 62
     7
 10
1290.0
 20
1247.0
 11
1290.0
 21
1272.5
  0
LINE
  8
DATA
  6
CONTINUOUS
 62
     7
 10
1292.0
 20
1247.0
 11
1292.0
 21
1272.5
  0
ARC
  8
DATA
  6
CONTINUOUS
 62
     7
 10
1315.5
 20
1272.5
 40
1.0
 50
356.179051
 51
180.0
  0
LINE
  8
DATA
  6
CONTINUOUS
 62
     7
 10
1314.5
 20
1247.0
 11
1314.5
 21
1272.5
  0
LINE
  8
DATA
  6
CONTINUOUS
 62
     7
 10
1316.5
 20
1247.0
 11
1316.5
 21
1272.5
  0
ARC
  8
DATA
  6
CONTINUOUS
 62
     7
 10
1299.16666
 20
1272.5
 40
1.0
 50
356.179051
 51
180.0
  0
LINE
  8
DATA
  6
CONTINUOUS
 62
     7
 10
1298.16666
 20
1247.0
 11
1298.16666
 21
1272.5
  0
LINE
  8
DATA
  6
CONTINUOUS
 62
     7
 10
1300.16666
 20
1247.0
 11
1300.16666
 21
1272.5
  0
ARC
  8
DATA
  6
CONTINUOUS
 62
     7
 10
1307.33332
 20
1272.5
 40
1.0
 50
356.179051
 51
180.0
  0
LINE
  8
DATA
  6
CONTINUOUS
 62
     7
 10
1306.33332
 20
1247.0
 11
1306.33332
 21
1272.5
  0
LINE
  8
DATA
  6
CONTINUOUS
 62
     7
 10
1308.33332
 20
1247.0
 11
1308.33332
 21
1272.5
  0
LINE
  8
DATA
  6
CONTINUOUS
 62
     7
 10
1248.5
 20
1247.0
 11
1248.5
 21
1248.0
  0
ARC
  8
DATA
  6
CONTINUOUS
 62
     7
 10
1283.75
 20
1244.0
 40
5.0
 50
53.130102
 51
126.869898
  0
LINE
  8
DATA
  6
CONTINUOUS
 62
     7
 10
1280.75
 20
1247.0
 11
1280.75
 21
1248.0
  0
LINE
  8
DATA
  6
CONTINUOUS
 62
     7
 10
1286.75
 20
1247.0
 11
1286.75
 21
1248.0
  0
ARC
  8
DATA
  6
CONTINUOUS
 62
     7
 10
1322.75
 20
1244.0
 40
5.0
 50
53.130102
 51
126.869898
  0
LINE
  8
DATA
  6
CONTINUOUS
 62
     7
 10
1319.75
 20
1247.0
 11
1319.75
 21
1248.0
  0
LINE
  8
DATA
  6
CONTINUOUS
 62
     7
 10
1325.75
 20
1247.0
 11
1325.75
 21
1248.0
  0
ARC
  8
DATA
  6
CONTINUOUS
 62
     7
 10
1332.0
 20
1272.5
 40
1.0
 50
356.179051
 51
180.0
  0
LINE
  8
DATA
  6
CONTINUOUS
 62
     7
 10
1331.0
 20
1247.0
 11
1331.0
 21
1272.5
  0
LINE
  8
DATA
  6
CONTINUOUS
 62
     7
 10
1333.0
 20
1247.0
 11
1333.0
 21
1272.5
  0
ARC
  8
DATA
  6
CONTINUOUS
 62
     7
 10
1340.16666
 20
1272.5
 40
1.0
 50
356.179051
 51
180.0
  0
LINE
  8
DATA
  6
CONTINUOUS
 62
     7
 10
1339.16666
 20
1247.0
 11
1339.16666
 21
1272.5
  0
LINE
  8
DATA
  6
CONTINUOUS
 62
     7
 10
1341.16666
 20
1247.0
 11
1341.16666
 21
1272.5
  0
ARC
  8
DATA
  6
CONTINUOUS
 62
     7
 10
1348.33332
 20
1272.5
 40
1.0
 50
356.179051
 51
180.0
  0
LINE
  8
DATA
  6
CONTINUOUS
 62
     7
 10
1347.33332
 20
1247.0
 11
1347.33332
 21
1272.5
  0
LINE
  8
DATA
  6
CONTINUOUS
 62
     7
 10
1349.33332
 20
1247.0
 11
1349.33332
 21
1272.5
  0
ARC
  8
DATA
  6
CONTINUOUS
 62
     7
 10
1356.5
 20
1272.5
 40
1.0
 50
356.179051
 51
180.0
  0
LINE
  8
DATA
  6
CONTINUOUS
 62
     7
 10
1355.5
 20
1247.0
 11
1355.5
 21
1272.5
  0
LINE
  8
DATA
  6
CONTINUOUS
 62
     7
 10
1357.5
 20
1247.0
 11
1357.5
 21
1272.5
  0
ARC
  8
DATA
  6
CONTINUOUS
 62
     7
 10
1373.0
 20
1272.5
 40
1.0
 50
356.179051
 51
180.0
  0
LINE
  8
DATA
  6
CONTINUOUS
 62
     7
 10
1372.0
 20
1247.0
 11
1372.0
 21
1272.5
  0
LINE
  8
DATA
  6
CONTINUOUS
 62
     7
 10
1374.0
 20
1247.0
 11
1374.0
 21
1272.5
  0
ARC
  8
DATA
  6
CONTINUOUS
 62
     7
 10
1381.16666
 20
1272.5
 40
1.0
 50
356.179051
 51
180.0
  0
LINE
  8
DATA
  6
CONTINUOUS
 62
     7
 10
1380.16666
 20
1247.0
 11
1380.16666
 21
1272.5
  0
LINE
  8
DATA
  6
CONTINUOUS
 62
     7
 10
1411.5
 20
1244.0
 11
1411.5
 21
1247.0
  0
LINE
  8
DATA
  6
CONTINUOUS
 62
     7
 10
1414.5
 20
1244.0
 11
1414.5
 21
1247.0
  0
LINE
  8
DATA
  6
CONTINUOUS
 62
     7
 10
1463.5
 20
1244.0
 11
1463.5
 21
1247.0
  0
CIRCLE
  8
DATA
  6
CONTINUOUS
 62
     7
 10
1487.0
 20
1234.0
 40
2.5
  0
CIRCLE
  8
DATA
  6
CONTINUOUS
 62
     7
 10
1487.0
 20
1234.0
 40
4.5
  0
LINE
  8
DATA
  6
CONTINUOUS
 62
     7
 10
1489.0
 20
1234.0
 11
1485.0
 21
1234.0
  0
LINE
  8
DATA
  6
CONTINUOUS
 62
     7
 10
1487.0
 20
1232.0
 11
1487.0
 21
1236.0
  0
ARC
  8
DATA
  6
CONTINUOUS
 62
     7
 10
1397.5
 20
1272.5
 40
1.0
 50
356.179051
 51
180.0
  0
LINE
  8
DATA
  6
CONTINUOUS
 62
     7
 10
1396.5
 20
1247.0
 11
1396.5
 21
1272.5
  0
LINE
  8
DATA
  6
CONTINUOUS
 62
     7
 10
1398.5
 20
1247.0
 11
1398.5
 21
1272.5
  0
LINE
  8
DATA
  6
CONTINUOUS
 62
     7
 10
1382.16666
 20
1247.0
 11
1382.16666
 21
1272.5
  0
ARC
  8
DATA
  6
CONTINUOUS
 62
     7
 10
1389.33332
 20
1272.5
 40
1.0
 50
356.179051
 51
180.0
  0
LINE
  8
DATA
  6
CONTINUOUS
 62
     7
 10
1388.33332
 20
1247.0
 11
1388.33332
 21
1272.5
  0
LINE
  8
DATA
  6
CONTINUOUS
 62
     7
 10
1390.33332
 20
1247.0
 11
1390.33332
 21
1272.5
  0
ARC
  8
DATA
  6
CONTINUOUS
 62
     7
 10
1405.0
 20
1244.0
 40
5.0
 50
53.130102
 51
126.869898
  0
LINE
  8
DATA
  6
CONTINUOUS
 62
     7
 10
1408.0
 20
1247.0
 11
1408.0
 21
1248.0
  0
LINE
  8
DATA
  6
CONTINUOUS
 62
     7
 10
1402.0
 20
1247.0
 11
1402.0
 21
1248.0
  0
LINE
  8
DATA
  6
CONTINUOUS
 62
     7
 10
1414.5
 20
1247.0
 11
1463.5
 21
1247.0
  0
LINE
  8
DATA
  6
CONTINUOUS
 62
     7
 10
1330.418339
 20
1330.0974
 11
1380.880649
 21
1330.0974
  0
LINE
  8
DATA
  6
CONTINUOUS
 62
     7
 10
1336.092279
 20
1345.21083
 11
1322.092279
 21
1322.21083
  0
LINE
  8
DATA
  6
CONTINUOUS
 62
     7
 10
1339.617819
 20
1345.21083
 11
1325.617819
 21
1322.21083
  0
LINE
  8
DATA
  6
CONTINUOUS
 62
     7
 10
1335.169339
 20
1337.90261
 11
1380.880649
 21
1337.90261
  0
LINE
  8
DATA
  6
CONTINUOUS
 62
     7
 10
1394.337189
 20
1322.5
 11
1394.337189
 21
1345.5
  0
LINE
  8
DATA
  6
CONTINUOUS
 62
     7
 10
1380.880649
 20
1340.5
 11
1394.337189
 21
1340.5
  0
LINE
  8
DATA
  6
CONTINUOUS
 62
     7
 10
1380.880649
 20
1327.5
 11
1394.337189
 21
1327.5
  0
LINE
  8
DATA
  6
CONTINUOUS
 62
     7
 10
1380.880649
 20
1327.5
 11
1380.880649
 21
1340.5
  0
LINE
  8
DATA
  6
CONTINUOUS
 62
     7
 10
1431.049689
 20
1342.45833
 11
1445.549689
 21
1342.45833
  0
LINE
  8
DATA
  6
CONTINUOUS
 62
     7
 10
1431.049689
 20
1341.25
 11
1445.549689
 21
1341.25
  0
LINE
  8
DATA
  6
CONTINUOUS
 62
     7
 10
1431.049689
 20
1340.04167
 11
1445.549689
 21
1340.04167
  0
LINE
  8
DATA
  6
CONTINUOUS
 62
     7
 10
1431.049689
 20
1327.95833
 11
1445.549689
 21
1327.95833
  0
LINE
  8
DATA
  6
CONTINUOUS
 62
     7
 10
1431.049689
 20
1326.75
 11
1445.549689
 21
1326.75
  0
LINE
  8
DATA
  6
CONTINUOUS
 62
     7
 10
1431.049689
 20
1325.54167
 11
1445.549689
 21
1325.54167
  0
LINE
  8
DATA
  6
CONTINUOUS
 62
     7
 10
1425.657799
 20
1347.5
 11
1431.049689
 21
1347.5
  0
LINE
  8
DATA
  6
CONTINUOUS
 62
     7
 10
1431.049689
 20
1348.5
 11
1445.549689
 21
1348.5
  0
LINE
  8
DATA
  6
CONTINUOUS
 62
     7
 10
1394.337189
 20
1341.40062
 11
1394.968539
 21
1341.40062
  0
LINE
  8
DATA
  6
CONTINUOUS
 62
     7
 10
1402.337189
 20
1341.40062
 11
1401.705849
 21
1341.40062
  0
ARC
  8
DATA
  6
CONTINUOUS
 62
     7
 10
1398.337189
 20
1343.55751
 40
4.0
 50
212.630753
 51
327.369247
  0
ARC
  8
DATA
  6
CONTINUOUS
 62
     7
 10
1398.337189
 20
1324.44249
 40
4.0
 50
32.630753
 51
147.369247
  0
LINE
  8
DATA
  6
CONTINUOUS
 62
     7
 10
1402.337189
 20
1326.59938
 11
1401.705849
 21
1326.59938
  0
LINE
  8
DATA
  6
CONTINUOUS
 62
     7
 10
1445.549689
 20
1319.5
 11
1445.549689
 21
1348.5
  0
CIRCLE
  8
DATA
  6
CONTINUOUS
 62
     7
 10
1398.337189
 20
1342.66553
 40
2.46498
  0
CIRCLE
  8
DATA
  6
CONTINUOUS
 62
     7
 10
1398.337189
 20
1342.66553
 40
1.5
  0
CIRCLE
  8
DATA
  6
CONTINUOUS
 62
     7
 10
1398.337189
 20
1325.33448
 40
1.5
  0
CIRCLE
  8
DATA
  6
CONTINUOUS
 62
     7
 10
1398.337189
 20
1325.33448
 40
2.46498
  0
LINE
  8
DATA
  6
CONTINUOUS
 62
     7
 10
1402.337189
 20
1340.5
 11
1405.657799
 21
1340.5
  0
LINE
  8
DATA
  6
CONTINUOUS
 62
     7
 10
1402.337189
 20
1327.5
 11
1405.657799
 21
1327.5
  0
LINE
  8
DATA
  6
CONTINUOUS
 62
     7
 10
1405.657799
 20
1322.75
 11
1405.657799
 21
1345.25
  0
ARC
  8
DATA
  6
CONTINUOUS
 62
     7
 10
1401.337189
 20
1345.5
 40
1.0
 50
0.0
 51
90.0
  0
LINE
  8
DATA
  6
CONTINUOUS
 62
     7
 10
1402.337189
 20
1322.5
 11
1402.337189
 21
1345.5
  0
LINE
  8
DATA
  6
CONTINUOUS
 62
     7
 10
1395.337189
 20
1346.5
 11
1401.337189
 21
1346.5
  0
ARC
  8
DATA
  6
CONTINUOUS
 62
     7
 10
1395.337189
 20
1345.5
 40
1.0
 50
90.0
 51
180.0
  0
LINE
  8
DATA
  6
CONTINUOUS
 62
     7
 10
1450.657799
 20
1328.38193
 11
1445.549689
 21
1328.38193
  0
LINE
  8
DATA
  6
CONTINUOUS
 62
     7
 10
1450.657799
 20
1327.38193
 11
1445.549689
 21
1327.38193
  0
LINE
  8
DATA
  6
CONTINUOUS
 62
     7
 10
1431.049689
 20
1348.5
 11
1445.549689
 21
1348.5
  0
LINE
  8
DATA
  6
CONTINUOUS
 62
     7
 10
1431.049689
 20
1347.29167
 11
1445.549689
 21
1347.29167
  0
LINE
  8
DATA
  6
CONTINUOUS
 62
     7
 10
1431.049689
 20
1346.08333
 11
1445.549689
 21
1346.08333
  0
LINE
  8
DATA
  6
CONTINUOUS
 62
     7
 10
1431.049689
 20
1344.875
 11
1445.549689
 21
1344.875
  0
LINE
  8
DATA
  6
CONTINUOUS
 62
     7
 10
1431.049689
 20
1343.66667
 11
1445.549689
 21
1343.66667
  0
LINE
  8
DATA
  6
CONTINUOUS
 62
     7
 10
1431.049689
 20
1336.41667
 11
1445.549689
 21
1336.41667
  0
LINE
  8
DATA
  6
CONTINUOUS
 62
     7
 10
1431.049689
 20
1335.20833
 11
1445.549689
 21
1335.20833
  0
LINE
  8
DATA
  6
CONTINUOUS
 62
     7
 10
1431.049689
 20
1334.0
 11
1445.549689
 21
1334.0
  0
LINE
  8
DATA
  6
CONTINUOUS
 62
     7
 10
1431.049689
 20
1338.83333
 11
1445.549689
 21
1338.83333
  0
LINE
  8
DATA
  6
CONTINUOUS
 62
     7
 10
1431.049689
 20
1337.625
 11
1445.549689
 21
1337.625
  0
LINE
  8
DATA
  6
CONTINUOUS
 62
     7
 10
1431.049689
 20
1330.375
 11
1445.549689
 21
1330.375
  0
LINE
  8
DATA
  6
CONTINUOUS
 62
     7
 10
1431.049689
 20
1329.16667
 11
1445.549689
 21
1329.16667
  0
LINE
  8
DATA
  6
CONTINUOUS
 62
     7
 10
1450.657799
 20
1344.0
 11
1445.549689
 21
1344.0
  0
LINE
  8
DATA
  6
CONTINUOUS
 62
     7
 10
1450.657799
 20
1324.0
 11
1450.657799
 21
1344.0
  0
LINE
  8
DATA
  6
CONTINUOUS
 62
     7
 10
1431.049689
 20
1332.79167
 11
1445.549689
 21
1332.79167
  0
LINE
  8
DATA
  6
CONTINUOUS
 62
     7
 10
1431.049689
 20
1331.58333
 11
1445.549689
 21
1331.58333
  0
LINE
  8
DATA
  6
CONTINUOUS
 62
     7
 10
1431.049689
 20
1319.5
 11
1431.049689
 21
1348.5
  0
LINE
  8
DATA
  6
CONTINUOUS
 62
     7
 10
1405.657799
 20
1345.25
 11
1425.657799
 21
1347.5
  0
LINE
  8
DATA
  6
CONTINUOUS
 62
     7
 10
1394.337189
 20
1326.59938
 11
1394.968539
 21
1326.59938
  0
LINE
  8
DATA
  6
CONTINUOUS
 62
     7
 10
1450.657799
 20
1343.53179
 11
1445.549689
 21
1343.53179
  0
LINE
  8
DATA
  6
CONTINUOUS
 62
     7
 10
1450.657799
 20
1342.53179
 11
1445.549689
 21
1342.53179
  0
LINE
  8
DATA
  6
CONTINUOUS
 62
     7
 10
1450.657799
 20
1336.20833
 11
1445.549689
 21
1336.20833
  0
LINE
  8
DATA
  6
CONTINUOUS
 62
     7
 10
1450.657799
 20
1335.20833
 11
1445.549689
 21
1335.20833
  0
ARC
  8
DATA
  6
CONTINUOUS
 62
     7
 10
1395.337189
 20
1322.5
 40
1.0
 50
180.0
 51
270.0
  0
ARC
  8
DATA
  6
CONTINUOUS
 62
     7
 10
1401.337189
 20
1322.5
 40
1.0
 50
270.0
 51
0.0
  0
LINE
  8
DATA
  6
CONTINUOUS
 62
     7
 10
1401.337189
 20
1321.5
 11
1395.337189
 21
1321.5
  0
LINE
  8
DATA
  6
CONTINUOUS
 62
     7
 10
1431.049689
 20
1324.33333
 11
1445.549689
 21
1324.33333
  0
LINE
  8
DATA
  6
CONTINUOUS
 62
     7
 10
1431.049689
 20
1323.125
 11
1445.549689
 21
1323.125
  0
LINE
  8
DATA
  6
CONTINUOUS
 62
     7
 10
1425.657799
 20
1320.5
 11
1431.049689
 21
1320.5
  0
LINE
  8
DATA
  6
CONTINUOUS
 62
     7
 10
1431.049689
 20
1319.5
 11
1445.549689
 21
1319.5
  0
LINE
  8
DATA
  6
CONTINUOUS
 62
     7
 10
1431.049689
 20
1321.91667
 11
1445.549689
 21
1321.91667
  0
LINE
  8
DATA
  6
CONTINUOUS
 62
     7
 10
1431.049689
 20
1320.70833
 11
1445.549689
 21
1320.70833
  0
LINE
  8
DATA
  6
CONTINUOUS
 62
     7
 10
1450.657799
 20
1324.0
 11
1445.549689
 21
1324.0
  0
LINE
  8
DATA
  6
CONTINUOUS
 62
     7
 10
1405.657799
 20
1322.75
 11
1425.657799
 21
1320.5
  0
LINE
  8
DATA
  6
CONTINUOUS
 62
     7
 10
1283.370597
 20
1337.90261
 11
1303.0
 21
1400.0
  0
LINE
  8
DATA
  6
CONTINUOUS
 62
     7
 10
1303.0
 20
1400.0
 11
1353.0
 21
1400.0
  0
LINE
  8
DATA
  6
CONTINUOUS
 62
     7
 10
1292.576918
 20
1355.967877
 11
1283.370597
 21
1337.90261
  0
LINE
  8
DATA
  6
CONTINUOUS
 62
     7
 10
1286.220533
 20
1357.977173
 11
1283.370597
 21
1337.90261
  0
TEXT
  8
HIBINO-BASE
  6
CONTINUOUS
 62
     7
 10
1587.300263
 20
85.9132
 40
40.0
  1
ヒビノ株式会社
  7
TTF_DEFAULT
  0
TEXT
  8
HIBINO-BASE
  6
CONTINUOUS
 62
     7
 10
1730.0
 20
225.0
 40
25.0
  1
DRAWING NO.
  7
TTF_DEFAULT
  0
TEXT
  8
DATA
  6
CONTINUOUS
 62
     7
 10
1525.0
 20
293.75
 40
30.0
  1
DCP200
  7
TTF_DEFAULT
  0
TEXT
  8
HIBINO-BASE
  6
CONTINUOUS
 62
     7
 10
1605.0
 20
225.0
 40
25.0
  1
CHECK
  7
TTF_DEFAULT
  0
LINE
  8
HIBINO-BASE
  6
CONTINUOUS
 62
     7
 10
1725.0
 20
250.0
 11
1725.0
 21
150.0
  0
LINE
  8
HIBINO-BASE
  6
CONTINUOUS
 62
     7
 10
1600.0
 20
150.0
 11
1600.0
 21
250.0
  0
TEXT
  8
DATA
  6
CONTINUOUS
 62
     7
 10
1525.0
 20
331.25
 40
30.0
  1
Soundcraft
  7
TTF_DEFAULT
  0
LINE
  8
DATA
  6
CONTINUOUS
 62
     7
 10
1700.0
 20
888.0
 11
1844.0
 21
888.0
  0
LINE
  8
DATA
  6
CONTINUOUS
 62
     7
 10
1700.0
 20
800.0
 11
1844.0
 21
800.0
  0
LINE
  8
DIMENSIONS
  6
CONTINUOUS
 62
     7
 10
1700.0
 20
950.0
 11
1873.5
 21
950.0
  0
TEXT
  8
DIMENSIONS
  6
CONTINUOUS
 62
     7
 10
1756.915505
 20
962.5
 40
25.0
  1
173.5
  7
TTF_DEFAULT
  0
TEXT
  8
DATA
  6
CONTINUOUS
 62
     7
 10
1662.5
 20
687.5
 40
25.0
  1
取り外し可能
  7
TTF_DEFAULT
  0
LINE
  8
DATA
  6
CONTINUOUS
 62
     7
 10
1726.0
 20
792.0
 11
1708.0
 21
792.0
  0
CIRCLE
  8
DATA
  6
CONTINUOUS
 62
     7
 10
1710.5
 20
871.5
 40
2.5
  0
CIRCLE
  8
DATA
  6
CONTINUOUS
 62
     7
 10
1710.5
 20
871.5
 40
4.5
  0
LINE
  8
DATA
  6
CONTINUOUS
 62
     7
 10
1710.5
 20
869.5
 11
1710.5
 21
873.5
  0
LINE
  8
DATA
  6
CONTINUOUS
 62
     7
 10
1708.5
 20
871.5
 11
1712.5
 21
871.5
  0
CIRCLE
  8
DATA
  6
CONTINUOUS
 62
     7
 10
1725.0
 20
812.5
 40
4.5
  0
CIRCLE
  8
DATA
  6
CONTINUOUS
 62
     7
 10
1725.0
 20
812.5
 40
2.5
  0
LINE
  8
DATA
  6
CONTINUOUS
 62
     7
 10
1723.0
 20
812.5
 11
1727.0
 21
812.5
  0
LINE
  8
DATA
  6
CONTINUOUS
 62
     7
 10
1725.0
 20
810.5
 11
1725.0
 21
814.5
  0
LINE
  8
DATA
  6
CONTINUOUS
 62
     7
 10
1698.0
 20
856.0
 11
1698.0
 21
826.0
  0
LINE
  8
DATA
  6
CONTINUOUS
 62
     7
 10
1698.0
 20
856.0
 11
1700.0
 21
856.0
  0
LINE
  8
DATA
  6
CONTINUOUS
 62
     7
 10
1698.0
 20
826.0
 11
1700.0
 21
826.0
  0
LINE
  8
DATA
  6
CONTINUOUS
 62
     7
 10
1693.5
 20
845.5
 11
1698.0
 21
840.0
  0
ARC
  8
DATA
  6
CONTINUOUS
 62
     7
 10
1705.327722
 20
840.413682
 40
12.875
 50
124.690516
 51
156.73067
  0
ARC
  8
DATA
  6
CONTINUOUS
 62
     7
 10
1699.0
 20
828.0
 40
1.5
 50
131.810315
 51
228.189685
  0
LINE
  8
DATA
  6
CONTINUOUS
 62
     7
 10
1707.058912
 20
800.0
 11
1708.0
 21
792.0
  0
LINE
  8
DATA
  6
CONTINUOUS
 62
     7
 10
1726.0
 20
792.0
 11
1726.941088
 21
800.0
  0
LINE
  8
DATA
  6
CONTINUOUS
 62
     7
 10
1700.0
 20
800.0
 11
1700.0
 21
888.0
  0
LINE
  8
DATA
  6
CONTINUOUS
 62
     7
 10
1702.0
 20
800.0
 11
1702.0
 21
888.0
  0
LINE
  8
DATA
  6
CONTINUOUS
 62
     7
 10
1579.0
 20
888.0
 11
1632.0
 21
888.0
  0
LINE
  8
DATA
  6
CONTINUOUS
 62
     7
 10
1579.0
 20
800.0
 11
1632.0
 21
800.0
  0
TEXT
  8
DATA
  6
CONTINUOUS
 62
     7
 10
1511.762442
 20
831.5
 40
10.0
  1
DCP
  7
TTF_DEFAULT
  0
TEXT
  8
DATA
  6
CONTINUOUS
 62
     7
 10
1512.52113
 20
815.5
 40
12.0
  1
200
  7
TTF_DEFAULT
  0
LINE
  8
DATA
  6
CONTINUOUS
 62
     7
 10
1509.0
 20
810.5
 11
1509.0
 21
829.5
  0
LINE
  8
DATA
  6
CONTINUOUS
 62
     7
 10
1509.0
 20
829.5
 11
1534.0
 21
829.5
  0
LINE
  8
DATA
  6
CONTINUOUS
 62
     7
 10
1534.0
 20
829.5
 11
1534.0
 21
810.5
  0
LINE
  8
DATA
  6
CONTINUOUS
 62
     7
 10
1534.0
 20
810.5
 11
1509.0
 21
810.5
  0
LINE
  8
DATA
  6
CONTINUOUS
 62
     7
 10
1577.0
 20
802.0
 11
1577.0
 21
884.0
  0
LINE
  8
DATA
  6
CONTINUOUS
 62
     7
 10
1564.5
 20
792.0
 11
1565.67636
 21
802.0
  0
LINE
  8
DATA
  6
CONTINUOUS
 62
     7
 10
1564.5
 20
792.0
 11
1546.5
 21
792.0
  0
LINE
  8
DATA
  6
CONTINUOUS
 62
     7
 10
1546.5
 20
792.0
 11
1545.32364
 21
802.0
  0
LINE
  8
DATA
  6
CONTINUOUS
 62
     7
 10
1581.0
 20
869.0
 11
1580.0
 21
867.0
  0
LINE
  8
DATA
  6
CONTINUOUS
 62
     7
 10
1581.0
 20
874.0
 11
1580.0
 21
876.0
  0
LINE
  8
DATA
  6
CONTINUOUS
 62
     7
 10
1579.0
 20
867.0
 11
1580.0
 21
867.0
  0
LINE
  8
DATA
  6
CONTINUOUS
 62
     7
 10
1579.0
 20
876.0
 11
1580.0
 21
876.0
  0
LINE
  8
DATA
  6
CONTINUOUS
 62
     7
 10
1580.0
 20
876.0
 11
1580.0
 21
867.0
  0
LINE
  8
DATA
  6
CONTINUOUS
 62
     7
 10
1581.0
 20
874.0
 11
1581.0
 21
869.0
  0
LINE
  8
DATA
  6
CONTINUOUS
 62
     7
 10
1581.0
 20
810.0
 11
1580.0
 21
808.0
  0
LINE
  8
DATA
  6
CONTINUOUS
 62
     7
 10
1581.0
 20
815.0
 11
1580.0
 21
817.0
  0
LINE
  8
DATA
  6
CONTINUOUS
 62
     7
 10
1579.0
 20
808.0
 11
1580.0
 21
808.0
  0
LINE
  8
DATA
  6
CONTINUOUS
 62
     7
 10
1579.0
 20
817.0
 11
1580.0
 21
817.0
  0
LINE
  8
DATA
  6
CONTINUOUS
 62
     7
 10
1580.0
 20
817.0
 11
1580.0
 21
808.0
  0
LINE
  8
DATA
  6
CONTINUOUS
 62
     7
 10
1581.0
 20
815.0
 11
1581.0
 21
810.0
  0
LINE
  8
DATA
  6
CONTINUOUS
 62
     7
 10
1579.0
 20
800.0
 11
1579.0
 21
888.0
  0
ARC
  8
DATA
  6
CONTINUOUS
 62
     7
 10
1626.0
 20
882.1
 40
3.5
 50
270.0
 51
90.0
  0
ARC
  8
DATA
  6
CONTINUOUS
 62
     7
 10
1626.0
 20
805.9
 40
3.5
 50
270.0
 51
90.0
  0
LINE
  8
DATA
  6
CONTINUOUS
 62
     7
 10
1621.0
 20
878.6
 11
1626.0
 21
878.6
  0
ARC
  8
DATA
  6
CONTINUOUS
 62
     7
 10
1621.0
 20
882.1
 40
3.5
 50
90.0
 51
270.0
  0
LINE
  8
DATA
  6
CONTINUOUS
 62
     7
 10
1621.0
 20
809.4
 11
1626.0
 21
809.4
  0
LINE
  8
DATA
  6
CONTINUOUS
 62
     7
 10
1621.0
 20
802.4
 11
1626.0
 21
802.4
  0
ARC
  8
DATA
  6
CONTINUOUS
 62
     7
 10
1621.0
 20
805.9
 40
3.5
 50
90.0
 51
270.0
  0
LINE
  8
DATA
  6
CONTINUOUS
 62
     7
 10
1621.0
 20
885.6
 11
1626.0
 21
885.6
  0
LINE
  8
DATA
  6
CONTINUOUS
 62
     7
 10
1632.0
 20
888.0
 11
1632.0
 21
800.0
  0
LINE
  8
DIMENSIONS
  6
CONTINUOUS
 62
     7
 10
1632.0
 20
898.0
 11
1632.0
 21
1012.5
  0
LINE
  8
DIMENSIONS
  6
CONTINUOUS
 62
     7
 10
1612.0
 20
1003.3332
 11
1632.0
 21
1000.0
  0
LINE
  8
DIMENSIONS
  6
CONTINUOUS
 62
     7
 10
1612.0
 20
996.6668
 11
1632.0
 21
1000.0
  0
LINE
  8
DIMENSIONS
  6
CONTINUOUS
 62
     7
 10
1579.0
 20
898.0
 11
1579.0
 21
962.5
  0
LINE
  8
DIMENSIONS
  6
CONTINUOUS
 62
     7
 10
1559.0
 20
946.6668
 11
1579.0
 21
950.0
  0
LINE
  8
DIMENSIONS
  6
CONTINUOUS
 62
     7
 10
1559.0
 20
953.3332
 11
1579.0
 21
950.0
  0
LINE
  8
DIMENSIONS
  6
CONTINUOUS
 62
     7
 10
1693.5
 20
950.0
 11
1653.5
 21
950.0
  0
LINE
  8
DIMENSIONS
  6
CONTINUOUS
 62
     7
 10
1693.5
 20
855.5
 11
1693.5
 21
962.5
  0
LINE
  8
DIMENSIONS
  6
CONTINUOUS
 62
     7
 10
1673.5
 20
946.6668
 11
1693.5
 21
950.0
  0
LINE
  8
DIMENSIONS
  6
CONTINUOUS
 62
     7
 10
1673.5
 20
953.3332
 11
1693.5
 21
950.0
  0
LINE
  8
DIMENSIONS
  6
CONTINUOUS
 62
     7
 10
1700.0
 20
898.0
 11
1700.0
 21
962.5
  0
LINE
  8
DIMENSIONS
  6
CONTINUOUS
 62
     7
 10
1720.0
 20
946.6668
 11
1700.0
 21
950.0
  0
LINE
  8
DIMENSIONS
  6
CONTINUOUS
 62
     7
 10
1720.0
 20
953.3332
 11
1700.0
 21
950.0
  0
TEXT
  8
DIMENSIONS
  6
CONTINUOUS
 62
     7
 10
1652.5
 20
962.5
 40
25.0
  1
6.5
  7
TTF_DEFAULT
  0
LINE
  8
DATA
  6
CONTINUOUS
 62
     7
 10
1555.5
 20
792.0
 11
1600.0
 21
700.0
  0
LINE
  8
DATA
  6
CONTINUOUS
 62
     7
 10
1600.0
 20
700.0
 11
1650.0
 21
700.0
  0
LINE
  8
DATA
  6
CONTINUOUS
 62
     7
 10
1561.208044
 20
772.544192
 11
1555.5
 21
792.0
  0
LINE
  8
DATA
  6
CONTINUOUS
 62
     7
 10
1567.209278
 20
775.446963
 11
1555.5
 21
792.0
  0
LINE
  8
DATA
  6
CONTINUOUS
 62
     7
 10
1579.0
 20
1100.0
 11
1579.0
 21
1244.0
  0
LINE
  8
DATA
  6
CONTINUOUS
 62
     7
 10
1581.0
 20
1102.0
 11
1581.0
 21
1244.0
  0
LINE
  8
DATA
  6
CONTINUOUS
 62
     7
 10
1582.0
 20
1129.5
 11
1582.0
 21
1120.5
  0
LINE
  8
DATA
  6
CONTINUOUS
 62
     7
 10
1583.0
 20
1127.5
 11
1582.0
 21
1129.5
  0
LINE
  8
DATA
  6
CONTINUOUS
 62
     7
 10
1632.0
 20
1100.0
 11
1579.0
 21
1100.0
  0
LINE
  8
DATA
  6
CONTINUOUS
 62
     7
 10
1632.0
 20
1102.0
 11
1581.0
 21
1102.0
  0
LINE
  8
DATA
  6
CONTINUOUS
 62
     7
 10
1583.0
 20
1127.5
 11
1583.0
 21
1122.5
  0
LINE
  8
DATA
  6
CONTINUOUS
 62
     7
 10
1581.0
 20
1120.5
 11
1582.0
 21
1120.5
  0
LINE
  8
DATA
  6
CONTINUOUS
 62
     7
 10
1583.0
 20
1122.5
 11
1582.0
 21
1120.5
  0
LINE
  8
DATA
  6
CONTINUOUS
 62
     7
 10
1583.0
 20
1113.0
 11
1583.0
 21
1108.0
  0
LINE
  8
DATA
  6
CONTINUOUS
 62
     7
 10
1582.0
 20
1115.0
 11
1582.0
 21
1106.0
  0
LINE
  8
DATA
  6
CONTINUOUS
 62
     7
 10
1581.0
 20
1115.0
 11
1582.0
 21
1115.0
  0
LINE
  8
DATA
  6
CONTINUOUS
 62
     7
 10
1581.0
 20
1106.0
 11
1582.0
 21
1106.0
  0
LINE
  8
DATA
  6
CONTINUOUS
 62
     7
 10
1583.0
 20
1113.0
 11
1582.0
 21
1115.0
  0
LINE
  8
DATA
  6
CONTINUOUS
 62
     7
 10
1583.0
 20
1108.0
 11
1582.0
 21
1106.0
  0
LINE
  8
DATA
  6
CONTINUOUS
 62
     7
 10
1632.0
 20
1100.0
 11
1632.0
 21
1102.0
  0
LINE
  8
DATA
  6
CONTINUOUS
 62
     7
 10
1583.0
 20
1220.5
 11
1583.0
 21
1215.5
  0
LINE
  8
DATA
  6
CONTINUOUS
 62
     7
 10
1582.0
 20
1222.5
 11
1582.0
 21
1213.5
  0
LINE
  8
DATA
  6
CONTINUOUS
 62
     7
 10
1581.0
 20
1213.5
 11
1582.0
 21
1213.5
  0
LINE
  8
DATA
  6
CONTINUOUS
 62
     7
 10
1583.0
 20
1215.5
 11
1582.0
 21
1213.5
  0
LINE
  8
DATA
  6
CONTINUOUS
 62
     7
 10
1581.0
 20
1129.5
 11
1582.0
 21
1129.5
  0
LINE
  8
DATA
  6
CONTINUOUS
 62
     7
 10
1581.0
 20
1244.0
 11
1579.0
 21
1244.0
  0
LINE
  8
DATA
  6
CONTINUOUS
 62
     7
 10
1581.0
 20
1222.5
 11
1582.0
 21
1222.5
  0
LINE
  8
DATA
  6
CONTINUOUS
 62
     7
 10
1583.0
 20
1220.5
 11
1582.0
 21
1222.5
  0
LINE
  8
DATA
  6
CONTINUOUS
 62
     7
 10
1844.0
 20
882.0
 11
1873.5
 21
882.0
  0
LINE
  8
DATA
  6
CONTINUOUS
 62
     7
 10
1844.0
 20
805.5
 11
1873.5
 21
805.5
  0
LINE
  8
DATA
  6
CONTINUOUS
 62
     7
 10
1818.0
 20
792.0
 11
1836.0
 21
792.0
  0
CIRCLE
  8
DATA
  6
CONTINUOUS
 62
     7
 10
1818.0
 20
812.5
 40
4.5
  0
CIRCLE
  8
DATA
  6
CONTINUOUS
 62
     7
 10
1818.0
 20
812.5
 40
2.5
  0
LINE
  8
DATA
  6
CONTINUOUS
 62
     7
 10
1816.0
 20
812.5
 11
1820.0
 21
812.5
  0
LINE
  8
DATA
  6
CONTINUOUS
 62
     7
 10
1818.0
 20
810.5
 11
1818.0
 21
814.5
  0
LINE
  8
DATA
  6
CONTINUOUS
 62
     7
 10
1844.0
 20
834.0
 11
1847.0
 21
834.0
  0
LINE
  8
DATA
  6
CONTINUOUS
 62
     7
 10
1844.0
 20
810.0
 11
1847.0
 21
810.0
  0
LINE
  8
DATA
  6
CONTINUOUS
 62
     7
 10
1847.0
 20
805.5
 11
1847.0
 21
882.0
  0
ARC
  8
DATA
  6
CONTINUOUS
 62
     7
 10
1844.0
 20
872.0
 40
5.0
 50
323.130102
 51
36.869898
  0
LINE
  8
DATA
  6
CONTINUOUS
 62
     7
 10
1847.0
 20
869.0
 11
1848.0
 21
869.0
  0
LINE
  8
DATA
  6
CONTINUOUS
 62
     7
 10
1847.0
 20
875.0
 11
1848.0
 21
875.0
  0
ARC
  8
DATA
  6
CONTINUOUS
 62
     7
 10
1844.0
 20
832.5
 40
5.0
 50
323.130102
 51
36.869898
  0
LINE
  8
DATA
  6
CONTINUOUS
 62
     7
 10
1847.0
 20
829.5
 11
1848.0
 21
829.5
  0
LINE
  8
DATA
  6
CONTINUOUS
 62
     7
 10
1847.0
 20
835.5
 11
1848.0
 21
835.5
  0
ARC
  8
DATA
  6
CONTINUOUS
 62
     7
 10
1844.0
 20
818.0
 40
5.0
 50
323.130102
 51
36.869898
  0
LINE
  8
DATA
  6
CONTINUOUS
 62
     7
 10
1847.0
 20
815.0
 11
1848.0
 21
815.0
  0
LINE
  8
DATA
  6
CONTINUOUS
 62
     7
 10
1847.0
 20
821.0
 11
1848.0
 21
821.0
  0
LINE
  8
DATA
  6
CONTINUOUS
 62
     7
 10
1817.058912
 20
800.0
 11
1818.0
 21
792.0
  0
LINE
  8
DATA
  6
CONTINUOUS
 62
     7
 10
1836.0
 20
792.0
 11
1836.941088
 21
800.0
  0
LINE
  8
DATA
  6
CONTINUOUS
 62
     7
 10
1844.0
 20
800.0
 11
1844.0
 21
888.0
  0
LINE
  8
DATA
  6
CONTINUOUS
 62
     7
 10
1873.5
 20
805.5
 11
1873.5
 21
882.0
  0
LINE
  8
DIMENSIONS
  6
CONTINUOUS
 62
     7
 10
1873.5
 20
892.0
 11
1873.5
 21
962.5
  0
LINE
  8
DIMENSIONS
  6
CONTINUOUS
 62
     7
 10
1853.5
 20
946.6668
 11
1873.5
 21
950.0
  0
LINE
  8
DIMENSIONS
  6
CONTINUOUS
 62
     7
 10
1853.5
 20
953.3332
 11
1873.5
 21
950.0
  0
LINE
  8
SPEC
  6
CONTINUOUS
 62
     7
 10
1600.0
 20
2462.5
 11
1600.0
 21
2650.0
  0
ENDSEC
  0
EOF
