  0
SECTION
  2
HEADER
  9
$ACADVER
  1
AC1009
  9
$INSBASE
 10
0.0
 20
0.0
 30
0.0
  9
$EXTMIN
 10
-349.99999999999989
 20
-532.7502999999997
 30
0.0
  9
$EXTMAX
 10
556.82220800000005
 20
804.12725999999986
 30
0.0
  9
$LIMMIN
 10
0.0
 20
0.0
  9
$LIMMAX
 10
0.0
 20
0.0
  9
$ORTHOMODE
 70
     0
  9
$REGENMODE
 70
     1
  9
$FILLMODE
 70
     1
  9
$QTEXTMODE
 70
     0
  9
$MIRRTEXT
 70
     1
  9
$DRAGMODE
 70
     2
  9
$LTSCALE
 40
25.399999999999999
  9
$OSMODE
 70
    39
  9
$ATTMODE
 70
     1
  9
$TEXTSIZE
 40
0.0
  9
$TRACEWID
 40
1.0
  9
$TEXTSTYLE
  7
STANDARD
  9
$CLAYER
  8
0
  9
$CELTYPE
  6
CONTINUOUS
  9
$CECOLOR
 62
   256
  9
$DIMSCALE
 40
1.0
  9
$DIMASZ
 40
0.18
  9
$DIMEXO
 40
0.0625
  9
$DIMDLI
 40
0.38
  9
$DIMRND
 40
0.0
  9
$DIMDLE
 40
0.0
  9
$DIMEXE
 40
0.18
  9
$DIMTP
 40
0.0
  9
$DIMTM
 40
0.0
  9
$DIMTXT
 40
0.18
  9
$DIMCEN
 40
0.09
  9
$DIMTSZ
 40
0.0
  9
$DIMTOL
 70
     0
  9
$DIMLIM
 70
     0
  9
$DIMTIH
 70
     1
  9
$DIMTOH
 70
     1
  9
$DIMSE1
 70
     0
  9
$DIMSE2
 70
     0
  9
$DIMTAD
 70
     0
  9
$DIMZIN
 70
     0
  9
$DIMBLK
  1

  9
$DIMASO
 70
     1
  9
$DIMSHO
 70
     1
  9
$DIMPOST
  1

  9
$DIMAPOST
  1

  9
$DIMALT
 70
     0
  9
$DIMALTD
 70
     2
  9
$DIMALTF
 40
25.399999999999999
  9
$DIMLFAC
 40
1.0
  9
$DIMTOFL
 70
     0
  9
$DIMTVP
 40
0.0
  9
$DIMTIX
 70
     0
  9
$DIMSOXD
 70
     0
  9
$DIMSAH
 70
     0
  9
$DIMBLK1
  1

  9
$DIMBLK2
  1

  9
$DIMSTYLE
  2
STANDARD
  9
$DIMCLRD
 70
     0
  9
$DIMCLRE
 70
     0
  9
$DIMCLRT
 70
     0
  9
$DIMTFAC
 40
1.0
  9
$DIMGAP
 40
0.09
  9
$LUNITS
 70
     2
  9
$LUPREC
 70
     4
  9
$SKETCHINC
 40
0.1
  9
$FILLETRAD
 40
0.0
  9
$AUNITS
 70
     0
  9
$AUPREC
 70
     0
  9
$MENU
  1
acad
  9
$ELEVATION
 40
0.0
  9
$PELEVATION
 40
0.0
  9
$THICKNESS
 40
0.0
  9
$LIMCHECK
 70
     0
  9
$BLIPMODE
 70
     0
  9
$CHAMFERA
 40
0.0
  9
$CHAMFERB
 40
0.0
  9
$SKPOLY
 70
     0
  9
$TDCREATE
 40
2452151.3973148149
  9
$TDUPDATE
 40
2452151.398999305
  9
$TDINDWG
 40
0.0007737269
  9
$TDUSRTIMER
 40
0.0007737269
  9
$USRTIMER
 70
     1
  9
$ANGBASE
 50
0.0
  9
$ANGDIR
 70
     0
  9
$PDMODE
 70
     1
  9
$PDSIZE
 40
-2.0
  9
$PLINEWID
 40
0.0
  9
$COORDS
 70
     1
  9
$SPLFRAME
 70
     0
  9
$SPLINETYPE
 70
     6
  9
$SPLINESEGS
 70
     8
  9
$ATTDIA
 70
     0
  9
$ATTREQ
 70
     1
  9
$HANDLING
 70
-16383
  9
$HANDSEED
  5
2B8
  9
$SURFTAB1
 70
     6
  9
$SURFTAB2
 70
     6
  9
$SURFTYPE
 70
     6
  9
$SURFU
 70
     6
  9
$SURFV
 70
     6
  9
$UCSNAME
  2

  9
$UCSORG
 10
0.0
 20
0.0
 30
0.0
  9
$UCSXDIR
 10
1.0
 20
0.0
 30
0.0
  9
$UCSYDIR
 10
0.0
 20
1.0
 30
0.0
  9
$PUCSNAME
  2

  9
$PUCSORG
 10
0.0
 20
0.0
 30
0.0
  9
$PUCSXDIR
 10
1.0
 20
0.0
 30
0.0
  9
$PUCSYDIR
 10
0.0
 20
1.0
 30
0.0
  9
$USERI1
 70
     0
  9
$USERI2
 70
     0
  9
$USERI3
 70
     0
  9
$USERI4
 70
     0
  9
$USERI5
 70
     0
  9
$USERR1
 40
0.0
  9
$USERR2
 40
0.0
  9
$USERR3
 40
0.0
  9
$USERR4
 40
0.0
  9
$USERR5
 40
0.0
  9
$WORLDVIEW
 70
     1
  9
$SHADEDGE
 70
     3
  9
$SHADEDIF
 70
    70
  9
$TILEMODE
 70
     1
  9
$MAXACTVP
 70
    16
  9
$PLIMCHECK
 70
     0
  9
$PEXTMIN
 10
1.0000000000000000E+020
 20
1.0000000000000000E+020
 30
1.0000000000000000E+020
  9
$PEXTMAX
 10
-1.0000000000000000E+020
 20
-1.0000000000000000E+020
 30
-1.0000000000000000E+020
  9
$PLIMMIN
 10
0.0
 20
0.0
  9
$PLIMMAX
 10
12.0
 20
9.0
  9
$UNITMODE
 70
     0
  9
$VISRETAIN
 70
     0
  9
$PLINEGEN
 70
     1
  9
$PSLTSCALE
 70
     0
  0
ENDSEC
  0
SECTION
  2
TABLES
  0
TABLE
  2
VPORT
 70
     2
  0
VPORT
  2
*ACTIVE
 70
     0
 10
0.0
 20
0.0
 11
1.0
 21
1.0
 12
100.0000023203837
 22
137.11137150252671
 13
0.0
 23
0.0
 14
1.0
 24
1.0
 15
0.0
 25
0.0
 16
0.0
 26
0.0
 36
1.0
 17
0.0
 27
0.0
 37
0.0
 40
1348.1305699145389
 41
1.263157894736842
 42
50.0
 43
0.0
 44
0.0
 50
0.0
 51
0.0
 71
     0
 72
   100
 73
     1
 74
     1
 75
     0
 76
     0
 77
     0
 78
     0
  0
ENDTAB
  0
TABLE
  2
LTYPE
 70
    11
  0
LTYPE
  2
CONTINUOUS
 70
     0
  3
Solid line
 72
    65
 73
     0
 40
0.0
  0
LTYPE
  2
STYLE_01
 70
     0
  3

 72
    65
 73
     2
 40
0.4166412353515625
 49
0.208282470703125
 49
-0.2083587646484375
  0
LTYPE
  2
STYLE_02
 70
     0
  3

 72
    65
 73
     2
 40
0.694427490234375
 49
0.4860687255859375
 49
-0.2083587646484375
  0
LTYPE
  2
STYLE_03
 70
     0
  3

 72
    65
 73
     2
 40
1.25
 49
1.0416412353515621
 49
-0.2083587646484375
  0
LTYPE
  2
STYLE_04
 70
     0
  3

 72
    65
 73
     2
 40
1.5277099609375
 49
1.319427490234375
 49
-0.208282470703125
  0
LTYPE
  2
STYLE_05
 70
     0
  3

 72
    65
 73
     2
 40
0.208282470703125
 49
0.069427490234375
 49
-0.13885498046875
  0
LTYPE
  2
STYLE_06
 70
     0
  3

 72
    65
 73
     4
 40
1.0416412353515621
 49
0.625
 49
-0.208282470703125
 49
0.069427490234375
 49
-0.1389312744140625
  0
LTYPE
  2
STYLE_07
 70
     0
  3

 72
    65
 73
     6
 40
1.875
 49
0.625
 49
-0.208282470703125
 49
0.625
 49
-0.2083587646484375
 49
0.069427490234375
 49
-0.1389312744140625
  0
LTYPE
  2
STYLE_08
 70
     0
  3

 72
    65
 73
     6
 40
1.25
 49
0.625
 49
-0.208282470703125
 49
0.069427490234375
 49
-0.1389312744140625
 49
0.069427490234375
 49
-0.1389312744140625
  0
LTYPE
  2
STYLE_09
 70
     0
  3

 72
    65
 73
     4
 40
5.0
 49
3.75
 49
-0.2777862548828125
 49
0.694427490234375
 49
-0.2777862548828125
  0
LTYPE
  2
STYLE_10
 70
     0
  3

 72
    65
 73
     6
 40
5.9375
 49
3.75
 49
-0.2777862548828125
 49
0.694427490234375
 49
-0.2777862548828125
 49
0.625
 49
-0.3125
  0
ENDTAB
  0
TABLE
  2
LAYER
 70
     5
  0
LAYER
  2
0
 70
     0
 62
     7
  6
CONTINUOUS
  0
LAYER
  2
HIBINO-BASE
 70
     0
 62
     7
  6
CONTINUOUS
  0
LAYER
  2
SPEC
 70
     0
 62
     7
  6
CONTINUOUS
  0
LAYER
  2
DIMNSIONS
 70
     0
 62
     7
  6
CONTINUOUS
  0
LAYER
  2
DATA
 70
     0
 62
     7
  6
CONTINUOUS
  0
ENDTAB
  0
TABLE
  2
STYLE
 70
     2
  0
STYLE
  2
STANDARD
 70
     0
 40
0.0
 41
1.0
 50
0.0
 71
     0
 42
0.0
  3
txt
  4
BIGFONT.SHX
  0
STYLE
  2
TXT
 70
     0
 40
23.391149999999989
 41
1.0
 50
0.0
 71
     0
 42
23.391149999999989
  3
txt.shx
  4
bigfont.shx
  0
ENDTAB
  0
TABLE
  2
VIEW
 70
     0
  0
ENDTAB
  0
TABLE
  2
UCS
 70
     0
  0
ENDTAB
  0
TABLE
  2
APPID
 70
     1
  0
APPID
  2
ACAD
 70
     0
  0
ENDTAB
  0
TABLE
  2
DIMSTYLE
 70
     1
  0
DIMSTYLE
  2
STANDARD
 70
     0
  3

  4

  5

  6

  7

 40
1.0
 41
0.18
 42
0.0625
 43
0.38
 44
0.18
 45
0.0
 46
0.0
 47
0.0
 48
0.0
140
0.18
141
0.09
142
0.0
143
25.399999999999999
144
1.0
145
0.0
146
1.0
147
0.09
 71
     0
 72
     0
 73
     1
 74
     1
 75
     0
 76
     0
 77
     0
 78
     0
170
     0
171
     2
172
     0
173
     0
174
     0
175
     0
176
     0
177
     0
178
     0
  0
ENDTAB
  0
ENDSEC
  0
SECTION
  2
BLOCKS
  0
BLOCK
  8
0
  2
$MODEL_SPACE
 70
     0
 10
0.0
 20
0.0
 30
0.0
  3
$MODEL_SPACE
  1

  0
ENDBLK
  5
2A6
  8
0
  0
BLOCK
 67
     1
  8
0
  2
$PAPER_SPACE
 70
     0
 10
0.0
 20
0.0
 30
0.0
  3
$PAPER_SPACE
  1

  0
ENDBLK
  5
2A4
 67
     1
  8
0
  0
BLOCK
  8
DIMNSIONS
  2
*U0
 70
     1
 10
0.0
 20
0.0
 30
0.0
  3
*U0
  1

  0
TEXT
  5
31
  8
DIMNSIONS
 62
     7
 10
-383.52777775915132
 20
-404.3194444444444
 30
0.0
 40
14.111111111111111
  1
89
 50
90.0
  7
TXT
 11
-397.63888887026241
 21
-404.3194444444444
 31
0.0
 73
     3
  0
ENDBLK
  5
32
  8
DIMNSIONS
  0
BLOCK
  8
DIMNSIONS
  2
*U1
 70
     1
 10
0.0
 20
0.0
 30
0.0
  3
*U1
  1

  0
TEXT
  5
34
  8
DIMNSIONS
 62
     7
 10
-130.79861111111109
 20
-481.47222224084862
 30
0.0
 40
14.111111111111111
  1
482.5
  7
TXT
 11
-130.79861111111109
 21
-467.36111112973748
 31
0.0
 73
     3
  0
ENDBLK
  5
35
  8
DIMNSIONS
  0
BLOCK
  8
DIMNSIONS
  2
*U2
 70
     1
 10
0.0
 20
0.0
 30
0.0
  3
*U2
  1

  0
TEXT
  5
37
  8
DIMNSIONS
 62
     7
 10
-130.79861111111109
 20
-31.472222240848669
 30
0.0
 40
14.111111111111111
  1
430.5
  7
TXT
 11
-130.79861111111109
 21
-17.361111129737559
 31
0.0
 73
     3
  0
ENDBLK
  5
38
  8
DIMNSIONS
  0
BLOCK
  8
DATA
  2
*U3
 70
     1
 10
0.0
 20
0.0
 30
0.0
  3
*U3
  1

  0
TEXT
  5
3A
  8
DATA
 62
     7
 10
-383.52777775915132
 20
-175.2291666666666
 30
0.0
 40
14.111111111111111
  1
156
 50
90.0
  7
TXT
 11
-397.63888887026241
 21
-175.2291666666666
 31
0.0
 73
     3
  0
ENDBLK
  5
3B
  8
DATA
  0
ENDSEC
  0
SECTION
  2
ENTITIES
  0
LINE
  5
3C
  8
HIBINO-BASE
  6
CONTINUOUS
 62
     7
 10
-349.99999999999989
 20
804.12725999999986
 30
0.0
 11
549.99999999999989
 21
804.12725999999986
 31
0.0
  0
LINE
  5
3D
  8
HIBINO-BASE
  6
CONTINUOUS
 62
     7
 10
549.99999999999989
 20
-495.87273999999991
 30
0.0
 11
-349.99999999999989
 21
-495.87273999999991
 31
0.0
  0
LINE
  5
3E
  8
HIBINO-BASE
  6
CONTINUOUS
 62
     7
 10
-349.99999999999989
 20
-495.87273999999991
 30
0.0
 11
-349.99999999999989
 21
804.12725999999986
 31
0.0
  0
TEXT
  5
3F
  8
HIBINO-BASE
 62
     7
 10
-314.07999999999993
 20
-526.51265999999976
 30
0.0
 40
18.71291999999999
  1
Hibino Corporation
 41
0.75
 11
-314.07999999999993
 21
-507.79973999999987
 31
0.0
 73
     3
  0
LINE
  5
40
  8
HIBINO-BASE
  6
CONTINUOUS
 62
     7
 10
549.99999999999989
 20
804.12725999999986
 30
0.0
 11
549.99999999999989
 21
-495.87273999999991
 31
0.0
  0
LINE
  5
41
  8
HIBINO-BASE
  6
CONTINUOUS
 62
     7
 10
100.0
 20
-383.37274000000002
 30
0.0
 11
549.99999999999989
 21
-383.37274000000002
 31
0.0
  0
LINE
  5
42
  8
HIBINO-BASE
  6
CONTINUOUS
 62
     7
 10
100.0
 20
-495.87273999999991
 30
0.0
 11
100.0
 21
-383.37274000000002
 31
0.0
  0
TEXT
  5
43
  8
HIBINO-BASE
 62
     7
 10
104.4999999999999
 20
-396.17102
 30
0.0
 40
9.3564799999999995
  1
NOTE
 41
0.75
 11
104.4999999999999
 21
-386.81454000000002
 31
0.0
 73
     3
  0
LINE
  5
44
  8
HIBINO-BASE
  6
CONTINUOUS
 62
     7
 10
275.0
 20
-495.87273999999991
 30
0.0
 11
275.0
 21
-383.37274000000002
 31
0.0
  0
TEXT
  5
45
  8
HIBINO-BASE
 62
     7
 10
279.49999999999989
 20
-396.17102
 30
0.0
 40
9.3564799999999995
  1
TITLE
 41
0.75
 11
279.49999999999989
 21
-386.81454000000002
 31
0.0
 73
     3
  0
TEXT
  5
46
  8
HIBINO-BASE
 62
     7
 10
350.34194999999988
 20
-526.51265999999976
 30
0.0
 40
18.71291999999999
  1
ヒビノ株式会社
 41
0.75
 11
350.34194999999988
 21
-507.79973999999987
 31
0.0
 73
     3
  0
LINE
  5
47
  8
HIBINO-BASE
  6
CONTINUOUS
 62
     7
 10
100.0
 20
-445.87273999999991
 30
0.0
 11
549.99999999999989
 21
-445.87273999999991
 31
0.0
  0
TEXT
  5
48
  8
HIBINO-BASE
 62
     7
 10
342.0
 20
-458.38941999999997
 30
0.0
 40
9.3564799999999995
  1
DRAWN
 41
0.75
 11
342.0
 21
-449.03294
 31
0.0
 73
     3
  0
TEXT
  5
49
  8
HIBINO-BASE
 62
     7
 10
217.0
 20
-458.38941999999997
 30
0.0
 40
9.3564799999999995
  1
DATE
 41
0.75
 11
217.0
 21
-449.03294
 31
0.0
 73
     3
  0
TEXT
  5
4A
  8
HIBINO-BASE
 62
     7
 10
105.4999999999999
 20
-458.33501999999987
 30
0.0
 40
8.4666799999999984
  1
図面サイズ
 41
0.75
 11
105.4999999999999
 21
-449.86833999999988
 31
0.0
 73
     3
  0
TEXT
  5
4B
  8
HIBINO-BASE
 62
     7
 10
167.0
 20
-458.38941999999997
 30
0.0
 40
9.3564799999999995
  1
SCALE
 41
0.75
 11
167.0
 21
-449.03294
 31
0.0
 73
     3
  0
TEXT
  5
4C
  8
HIBINO-BASE
 62
     7
 10
279.49999999999989
 20
-458.38941999999997
 30
0.0
 40
9.3564799999999995
  1
DESIGN
 41
0.75
 11
279.49999999999989
 21
-449.03294
 31
0.0
 73
     3
  0
TEXT
  5
4D
  8
HIBINO-BASE
 62
     7
 10
466.99999999999989
 20
-458.38941999999997
 30
0.0
 40
9.3564799999999995
  1
DRAWING NO.
 41
0.75
 11
466.99999999999989
 21
-449.03294
 31
0.0
 73
     3
  0
TEXT
  5
4E
  8
HIBINO-BASE
 62
     7
 10
404.49999999999989
 20
-458.38941999999997
 30
0.0
 40
9.3564799999999995
  1
CHECK
 41
0.75
 11
404.49999999999989
 21
-449.03294
 31
0.0
 73
     3
  0
LINE
  5
4F
  8
HIBINO-BASE
  6
CONTINUOUS
 62
     7
 10
171.87499999999989
 20
-489.62273999999991
 30
0.0
 11
190.625
 21
-470.87273999999991
 31
0.0
  0
TEXT
  5
50
  8
HIBINO-BASE
 62
     7
 10
168.74999999999989
 20
-478.60466999999989
 30
0.0
 40
11.28887999999999
  1
1
 41
0.75
 11
168.74999999999989
 21
-467.31578999999982
 31
0.0
 73
     3
  0
LINE
  5
51
  8
HIBINO-BASE
  6
CONTINUOUS
 62
     7
 10
162.49999999999989
 20
-495.87273999999991
 30
0.0
 11
162.49999999999989
 21
-445.87273999999991
 31
0.0
  0
LINE
  5
52
  8
HIBINO-BASE
  6
CONTINUOUS
 62
     7
 10
212.49999999999989
 20
-495.87273999999991
 30
0.0
 11
212.49999999999989
 21
-445.87273999999991
 31
0.0
  0
LINE
  5
53
  8
HIBINO-BASE
  6
CONTINUOUS
 62
     7
 10
337.49999999999989
 20
-445.87273999999991
 30
0.0
 11
337.49999999999989
 21
-495.87273999999991
 31
0.0
  0
LINE
  5
54
  8
HIBINO-BASE
  6
CONTINUOUS
 62
     7
 10
462.5
 20
-445.87273999999991
 30
0.0
 11
462.5
 21
-495.87273999999991
 31
0.0
  0
LINE
  5
55
  8
HIBINO-BASE
  6
CONTINUOUS
 62
     7
 10
399.99999999999989
 20
-495.87273999999991
 30
0.0
 11
399.99999999999989
 21
-445.87273999999991
 31
0.0
  0
TEXT
  5
56
  8
HIBINO-BASE
 62
     7
 10
119.55445
 20
-482.11045999999988
 30
0.0
 40
16.933319999999991
  1
A4
 41
0.75
 11
119.55445
 21
-465.17714000000001
 31
0.0
 73
     3
  0
TEXT
  5
57
  8
HIBINO-BASE
 62
     7
 10
216.78269999999989
 20
-481.80931999999979
 30
0.0
 40
9.3564799999999995
  1
'01.08.
 41
0.75
 11
216.78269999999989
 21
-472.45283999999992
 31
0.0
 73
     3
  0
TEXT
  5
58
  8
HIBINO-BASE
 62
     7
 10
187.5
 20
-487.97966999999989
 30
0.0
 40
11.28887999999999
  1
5
 41
0.75
 11
187.5
 21
-476.69078999999982
 31
0.0
 73
     3
  0
LINE
  5
59
  8
SPEC
  6
CONTINUOUS
 62
     7
 10
-312.49999999999989
 20
754.12725999999998
 30
0.0
 11
150.0
 21
754.12725999999998
 31
0.0
  0
LINE
  5
5A
  8
SPEC
  6
CONTINUOUS
 62
     7
 10
-312.49999999999989
 20
735.37725999999998
 30
0.0
 11
150.0
 21
735.37725999999998
 31
0.0
  0
LINE
  5
5B
  8
SPEC
  6
CONTINUOUS
 62
     7
 10
-312.49999999999989
 20
716.62725999999998
 30
0.0
 11
150.0
 21
716.62725999999998
 31
0.0
  0
LINE
  5
5C
  8
SPEC
  6
CONTINUOUS
 62
     7
 10
-312.49999999999989
 20
754.12725999999998
 30
0.0
 11
-312.49999999999989
 21
716.62725999999998
 31
0.0
  0
TEXT
  5
5D
  8
SPEC
 62
     7
 10
-306.24999999999989
 20
762.04610999999989
 30
0.0
 40
12.699999999999999
  1
仕様
 41
0.75
 11
-306.24999999999989
 21
774.74611000000004
 31
0.0
 73
     3
  0
LINE
  5
5E
  8
SPEC
  6
CONTINUOUS
 62
     7
 10
-150.0
 20
754.12725999999998
 30
0.0
 11
-150.0
 21
716.62725999999998
 31
0.0
  0
LINE
  5
5F
  8
SPEC
  6
CONTINUOUS
 62
     7
 10
150.0
 20
754.12725999999998
 30
0.0
 11
150.0
 21
716.62725999999998
 31
0.0
  0
TEXT
  5
60
  8
SPEC
 62
     7
 10
-307.99999999999989
 20
740.05496000000005
 30
0.0
 40
9.8777599999999985
  1
寸法
 41
0.75
 11
-307.99999999999989
 21
749.93272000000002
 31
0.0
 73
     3
  0
TEXT
  5
61
  8
SPEC
 62
     7
 10
-307.99999999999989
 20
721.30496000000005
 30
0.0
 40
9.8777599999999985
  1
重量
 41
0.75
 11
-307.99999999999989
 21
731.18272000000002
 31
0.0
 73
     3
  0
TEXT
  5
62
  8
SPEC
 62
     7
 10
-145.49999999999989
 20
740.05496000000005
 30
0.0
 40
9.8777599999999985
  1
482.5(W)×89(H)×156(D)mm
 41
0.75
 11
-145.49999999999989
 21
749.93272000000002
 31
0.0
 73
     3
  0
TEXT
  5
63
  8
SPEC
 62
     7
 10
-145.49999999999989
 20
721.30496000000005
 30
0.0
 40
9.8777599999999985
  1
約3kg
 41
0.75
 11
-145.49999999999989
 21
731.18272000000002
 31
0.0
 73
     3
  0
TEXT
  5
64
  8
DIMNSIONS
 62
     7
 10
-0.000000000000015
 20
-433.57278999999988
 30
0.0
 40
12.699999999999999
  1
(単位：mm)
 41
0.75
 11
-0.0000000000000142
 21
-420.87278999999978
 31
0.0
 73
     3
  0
LINE
  5
65
  8
DIMNSIONS
  6
CONTINUOUS
 62
     7
 10
-259.99999996274698
 20
-300.0
 30
0.0
 11
-284.99999996274698
 21
-300.0
 31
0.0
  0
LINE
  5
66
  8
DIMNSIONS
  6
CONTINUOUS
 62
     7
 10
-259.99999996274698
 20
-211.0
 30
0.0
 11
-284.99999996274698
 21
-211.0
 31
0.0
  0
LINE
  5
68
  8
DIMNSIONS
 62
     7
 10
-275.0
 20
-300.0
 30
0.0
 11
-279.25369342984402
 21
-284.125
 31
0.0
  0
LINE
  5
69
  8
DIMNSIONS
 62
     7
 10
-275.0
 20
-300.0
 30
0.0
 11
-270.74630657015592
 21
-284.125
 31
0.0
  0
LINE
  5
6A
  8
DIMNSIONS
 62
     7
 10
-275.0
 20
-211.0
 30
0.0
 11
-270.74630657015592
 21
-226.875
 31
0.0
  0
LINE
  5
6B
  8
DIMNSIONS
 62
     7
 10
-275.0
 20
-211.0
 30
0.0
 11
-279.25369342984402
 21
-226.875
 31
0.0
  0
LINE
  5
67
  8
DIMNSIONS
  6
CONTINUOUS
 62
     7
 10
-275.0
 20
-300.0
 30
0.0
 11
-275.0
 21
-211.0
 31
0.0
  0
LINE
  5
6D
  8
DIMNSIONS
  6
CONTINUOUS
 62
     7
 10
232.5
 20
-309.99999996274698
 30
0.0
 11
232.5
 21
-359.99999996274698
 31
0.0
  0
LINE
  5
6E
  8
DIMNSIONS
  6
CONTINUOUS
 62
     7
 10
-250.0
 20
-309.99999996274698
 30
0.0
 11
-250.0
 21
-359.99999996274698
 31
0.0
  0
LINE
  5
70
  8
DIMNSIONS
 62
     7
 10
232.5
 20
-350.0
 30
0.0
 11
216.625
 21
-354.25369342984402
 31
0.0
  0
LINE
  5
71
  8
DIMNSIONS
 62
     7
 10
232.5
 20
-350.0
 30
0.0
 11
216.625
 21
-345.74630657015592
 31
0.0
  0
LINE
  5
72
  8
DIMNSIONS
 62
     7
 10
-250.0
 20
-350.0
 30
0.0
 11
-234.125
 21
-345.74630657015592
 31
0.0
  0
LINE
  5
73
  8
DIMNSIONS
 62
     7
 10
-250.0
 20
-350.0
 30
0.0
 11
-234.125
 21
-354.25369342984402
 31
0.0
  0
LINE
  5
6F
  8
DIMNSIONS
  6
CONTINUOUS
 62
     7
 10
232.5
 20
-350.0
 30
0.0
 11
-250.0
 21
-350.0
 31
0.0
  0
LINE
  5
75
  8
DIMNSIONS
  6
CONTINUOUS
 62
     7
 10
-224.0
 20
65.999999962747097
 30
0.0
 11
-224.0
 21
109.999999962747
 31
0.0
  0
LINE
  5
76
  8
DIMNSIONS
  6
CONTINUOUS
 62
     7
 10
206.49999999999989
 20
65.999999962747097
 30
0.0
 11
206.49999999999989
 21
109.999999962747
 31
0.0
  0
LINE
  5
78
  8
DIMNSIONS
 62
     7
 10
-224.0
 20
100.0
 30
0.0
 11
-208.12499999999989
 21
104.25369342984401
 31
0.0
  0
LINE
  5
79
  8
DIMNSIONS
 62
     7
 10
-224.0
 20
100.0
 30
0.0
 11
-208.12499999999989
 21
95.746306570155923
 31
0.0
  0
LINE
  5
7A
  8
DIMNSIONS
 62
     7
 10
206.49999999999989
 20
100.0
 30
0.0
 11
190.625
 21
95.746306570155923
 31
0.0
  0
LINE
  5
7B
  8
DIMNSIONS
 62
     7
 10
206.49999999999989
 20
100.0
 30
0.0
 11
190.625
 21
104.25369342984401
 31
0.0
  0
LINE
  5
77
  8
DIMNSIONS
  6
CONTINUOUS
 62
     7
 10
-224.0
 20
100.0
 30
0.0
 11
206.49999999999989
 21
100.0
 31
0.0
  0
TEXT
  5
7D
  8
DATA
 62
     7
 10
349.99999999999989
 20
-439.26578999999981
 30
0.0
 40
12.699999999999999
  1
DPS-1
 41
0.75
 11
349.99999999999989
 21
-426.56578999999988
 31
0.0
 73
     3
  0
TEXT
  5
7E
  8
DATA
 62
     7
 10
337.49999999999989
 20
-420.7180699999999
 30
0.0
 40
8.4666799999999984
  1
RM1d専用電源
 41
0.75
 11
337.49999999999989
 21
-412.2513899999999
 31
0.0
 73
     3
  0
LINE
  5
7F
  8
DATA
  6
CONTINUOUS
 62
     7
 10
-250.0
 20
-300.0
 30
0.0
 11
-250.0
 21
-211.0
 31
0.0
  0
LINE
  5
80
  8
DATA
  6
CONTINUOUS
 62
     7
 10
232.5
 20
-300.0
 30
0.0
 11
-250.0
 21
-300.0
 31
0.0
  0
LINE
  5
81
  8
DATA
  6
CONTINUOUS
 62
     7
 10
232.5
 20
-211.0
 30
0.0
 11
232.5
 21
-300.0
 31
0.0
  0
LINE
  5
82
  8
DATA
  6
CONTINUOUS
 62
     7
 10
-250.0
 20
-211.0
 30
0.0
 11
232.5
 21
-211.0
 31
0.0
  0
LINE
  5
83
  8
DATA
  6
CONTINUOUS
 62
     7
 10
-224.0
 20
-97.599999999999994
 30
0.0
 11
-224.0
 21
56.0
 31
0.0
  0
LINE
  5
84
  8
DATA
  6
CONTINUOUS
 62
     7
 10
232.5
 20
-100.0
 30
0.0
 11
-250.0
 21
-100.0
 31
0.0
  0
LINE
  5
85
  8
DATA
  6
CONTINUOUS
 62
     7
 10
206.49999999999989
 20
56.0
 30
0.0
 11
206.49999999999989
 21
-97.599999999999994
 31
0.0
  0
LINE
  5
86
  8
DATA
  6
CONTINUOUS
 62
     7
 10
-224.0
 20
56.0
 30
0.0
 11
206.49999999999989
 21
56.0
 31
0.0
  0
LINE
  5
87
  8
DATA
  6
CONTINUOUS
 62
     7
 10
300.0
 20
-300.0
 30
0.0
 11
300.0
 21
-211.0
 31
0.0
  0
LINE
  5
88
  8
DATA
  6
CONTINUOUS
 62
     7
 10
456.0
 20
-300.0
 30
0.0
 11
300.0
 21
-300.0
 31
0.0
  0
LINE
  5
89
  8
DATA
  6
CONTINUOUS
 62
     7
 10
456.0
 20
-211.0
 30
0.0
 11
456.0
 21
-300.0
 31
0.0
  0
LINE
  5
8A
  8
DATA
  6
CONTINUOUS
 62
     7
 10
300.0
 20
-211.0
 30
0.0
 11
456.0
 21
-211.0
 31
0.0
  0
LINE
  5
8B
  8
DATA
  6
CONTINUOUS
 62
     7
 10
232.5
 20
-100.0
 30
0.0
 11
-250.0
 21
-100.0
 31
0.0
  0
LINE
  5
8C
  8
DATA
  6
CONTINUOUS
 62
     7
 10
232.5
 20
-97.5
 30
0.0
 11
206.49999999999989
 21
-97.5
 31
0.0
  0
LINE
  5
8D
  8
DATA
  6
CONTINUOUS
 62
     7
 10
232.5
 20
-97.599999999999994
 30
0.0
 11
-250.0
 21
-97.599999999999994
 31
0.0
  0
LINE
  5
8E
  8
DATA
  6
CONTINUOUS
 62
     7
 10
232.5
 20
-100.0
 30
0.0
 11
232.5
 21
-97.599999999999994
 31
0.0
  0
LINE
  5
8F
  8
DATA
  6
CONTINUOUS
 62
     7
 10
-250.0
 20
-100.0
 30
0.0
 11
-250.0
 21
-97.599999999999994
 31
0.0
  0
LINE
  5
90
  8
DATA
  6
CONTINUOUS
 62
     7
 10
302.39999999999998
 20
-300.0
 30
0.0
 11
302.39999999999998
 21
-211.0
 31
0.0
  0
ARC
  5
91
  8
DATA
  6
CONTINUOUS
 62
     7
 10
221.49999999999989
 20
-292.5
 30
0.0
 40
3.25
 50
90.0
 51
270.0
  0
ARC
  5
92
  8
DATA
  6
CONTINUOUS
 62
     7
 10
225.0
 20
-292.5
 30
0.0
 40
3.25
 50
270.0
 51
90.0
  0
LINE
  5
93
  8
DATA
  6
CONTINUOUS
 62
     7
 10
221.49999999999989
 20
-289.25
 30
0.0
 11
225.0
 21
-289.25
 31
0.0
  0
LINE
  5
94
  8
DATA
  6
CONTINUOUS
 62
     7
 10
221.49999999999989
 20
-295.74999999999989
 30
0.0
 11
225.0
 21
-295.74999999999989
 31
0.0
  0
ARC
  5
95
  8
DATA
  6
CONTINUOUS
 62
     7
 10
221.49999999999989
 20
-218.5
 30
0.0
 40
3.25
 50
90.0
 51
270.0
  0
ARC
  5
96
  8
DATA
  6
CONTINUOUS
 62
     7
 10
225.0
 20
-218.5
 30
0.0
 40
3.25
 50
270.0
 51
90.0
  0
LINE
  5
97
  8
DATA
  6
CONTINUOUS
 62
     7
 10
221.49999999999989
 20
-215.24999999999989
 30
0.0
 11
225.0
 21
-215.24999999999989
 31
0.0
  0
LINE
  5
98
  8
DATA
  6
CONTINUOUS
 62
     7
 10
221.49999999999989
 20
-221.75
 30
0.0
 11
225.0
 21
-221.75
 31
0.0
  0
ARC
  5
99
  8
DATA
  6
CONTINUOUS
 62
     7
 10
-239.0
 20
-292.5
 30
0.0
 40
3.25
 50
270.0
 51
90.0
  0
ARC
  5
9A
  8
DATA
  6
CONTINUOUS
 62
     7
 10
-242.5
 20
-292.5
 30
0.0
 40
3.25
 50
90.0
 51
270.0
  0
LINE
  5
9B
  8
DATA
  6
CONTINUOUS
 62
     7
 10
-239.0
 20
-289.25
 30
0.0
 11
-242.5
 21
-289.25
 31
0.0
  0
LINE
  5
9C
  8
DATA
  6
CONTINUOUS
 62
     7
 10
-239.0
 20
-295.74999999999989
 30
0.0
 11
-242.5
 21
-295.74999999999989
 31
0.0
  0
ARC
  5
9D
  8
DATA
  6
CONTINUOUS
 62
     7
 10
-239.0
 20
-218.5
 30
0.0
 40
3.25
 50
270.0
 51
90.0
  0
ARC
  5
9E
  8
DATA
  6
CONTINUOUS
 62
     7
 10
-242.5
 20
-218.5
 30
0.0
 40
3.25
 50
90.0
 51
270.0
  0
LINE
  5
9F
  8
DATA
  6
CONTINUOUS
 62
     7
 10
-239.0
 20
-215.24999999999989
 30
0.0
 11
-242.5
 21
-215.24999999999989
 31
0.0
  0
LINE
  5
A0
  8
DATA
  6
CONTINUOUS
 62
     7
 10
-239.0
 20
-221.75
 30
0.0
 11
-242.5
 21
-221.75
 31
0.0
  0
LINE
  5
A1
  8
DATA
  6
CONTINUOUS
 62
     7
 10
-212.5
 20
-264.5
 30
0.0
 11
-212.5
 21
-234.5
 31
0.0
  0
LINE
  5
A2
  8
DATA
  6
CONTINUOUS
 62
     7
 10
-187.5
 20
-264.5
 30
0.0
 11
-187.5
 21
-234.5
 31
0.0
  0
LINE
  5
A3
  8
DATA
  6
CONTINUOUS
 62
     7
 10
-212.5
 20
-234.5
 30
0.0
 11
-187.5
 21
-234.5
 31
0.0
  0
LINE
  5
A4
  8
DATA
  6
CONTINUOUS
 62
     7
 10
-212.5
 20
-264.5
 30
0.0
 11
-187.5
 21
-264.5
 31
0.0
  0
LINE
  5
A5
  8
DATA
  6
CONTINUOUS
 62
     7
 10
-209.5
 20
-260.74999999999989
 30
0.0
 11
-209.5
 21
-238.24999999999989
 31
0.0
  0
LINE
  5
A6
  8
DATA
  6
CONTINUOUS
 62
     7
 10
-190.5
 20
-260.74999999999989
 30
0.0
 11
-209.5
 21
-260.74999999999989
 31
0.0
  0
LINE
  5
A7
  8
DATA
  6
CONTINUOUS
 62
     7
 10
-190.5
 20
-238.24999999999989
 30
0.0
 11
-190.5
 21
-260.74999999999989
 31
0.0
  0
LINE
  5
A8
  8
DATA
  6
CONTINUOUS
 62
     7
 10
-209.5
 20
-238.24999999999989
 30
0.0
 11
-190.5
 21
-238.24999999999989
 31
0.0
  0
LINE
  5
A9
  8
DATA
  6
CONTINUOUS
 62
     7
 10
-209.5
 20
-244.49999999999989
 30
0.0
 11
-190.5
 21
-244.49999999999989
 31
0.0
  0
TEXT
  5
AA
  8
DATA
 62
     7
 10
-226.08333333333329
 20
-241.42500000000001
 30
0.0
 40
8.4666666666666668
  1
ON
 41
0.75
 11
-226.08333333333329
 21
-232.95833333333329
 31
0.0
 73
     3
  0
TEXT
  5
AB
  8
DATA
 62
     7
 10
-231.375
 20
-263.92500000000001
 30
0.0
 40
8.4666666666666668
  1
OFF
 41
0.75
 11
-231.375
 21
-255.45833333333329
 31
0.0
 73
     3
  0
TEXT
  5
AC
  8
DATA
 62
     7
 10
-184.49999999999989
 20
-241.42500000000001
 30
0.0
 40
8.4666666666666668
  1
1
 41
0.75
 11
-184.49999999999989
 21
-232.95833333333329
 31
0.0
 73
     3
  0
TEXT
  5
AD
  8
DATA
 62
     7
 10
-184.49999999999989
 20
-263.92500000000001
 30
0.0
 40
8.4666666666666668
  1
0
 41
0.75
 11
-184.49999999999989
 21
-255.45833333333329
 31
0.0
 73
     3
  0
TEXT
  5
AE
  8
DATA
 62
     7
 10
-213.2291666666666
 20
-229.3833333333333
 30
0.0
 40
8.4666666666666668
  1
POWER
 41
0.75
 11
-213.2291666666666
 21
-220.9166666666666
 31
0.0
 73
     3
  0
LINE
  5
AF
  8
DATA
  6
CONTINUOUS
 62
     7
 10
-175.5
 20
-227.49999999999989
 30
0.0
 11
-154.0
 21
-227.49999999999989
 31
0.0
  0
LINE
  5
B0
  8
DATA
  6
CONTINUOUS
 62
     7
 10
-175.5
 20
-230.5
 30
0.0
 11
-154.0
 21
-230.5
 31
0.0
  0
ARC
  5
B1
  8
DATA
  6
CONTINUOUS
 62
     7
 10
-175.5
 20
-229.0
 30
0.0
 40
1.5
 50
90.0
 51
270.0
  0
ARC
  5
B2
  8
DATA
  6
CONTINUOUS
 62
     7
 10
-154.0
 20
-229.0
 30
0.0
 40
1.5
 50
270.0
 51
90.0
  0
LINE
  5
B3
  8
DATA
  6
CONTINUOUS
 62
     7
 10
-175.5
 20
-233.0
 30
0.0
 11
-154.0
 21
-233.0
 31
0.0
  0
LINE
  5
B4
  8
DATA
  6
CONTINUOUS
 62
     7
 10
-175.5
 20
-236.0
 30
0.0
 11
-154.0
 21
-236.0
 31
0.0
  0
ARC
  5
B5
  8
DATA
  6
CONTINUOUS
 62
     7
 10
-175.5
 20
-234.5
 30
0.0
 40
1.5
 50
90.0
 51
270.0
  0
ARC
  5
B6
  8
DATA
  6
CONTINUOUS
 62
     7
 10
-154.0
 20
-234.5
 30
0.0
 40
1.5
 50
270.0
 51
90.0
  0
LINE
  5
B7
  8
DATA
  6
CONTINUOUS
 62
     7
 10
-175.5
 20
-238.5
 30
0.0
 11
-154.0
 21
-238.5
 31
0.0
  0
LINE
  5
B8
  8
DATA
  6
CONTINUOUS
 62
     7
 10
-175.5
 20
-241.5
 30
0.0
 11
-154.0
 21
-241.5
 31
0.0
  0
ARC
  5
B9
  8
DATA
  6
CONTINUOUS
 62
     7
 10
-175.5
 20
-240.0
 30
0.0
 40
1.5
 50
90.0
 51
270.0
  0
ARC
  5
BA
  8
DATA
  6
CONTINUOUS
 62
     7
 10
-154.0
 20
-240.0
 30
0.0
 40
1.5
 50
270.0
 51
90.0
  0
LINE
  5
BB
  8
DATA
  6
CONTINUOUS
 62
     7
 10
-175.5
 20
-244.0
 30
0.0
 11
-154.0
 21
-244.0
 31
0.0
  0
LINE
  5
BC
  8
DATA
  6
CONTINUOUS
 62
     7
 10
-175.5
 20
-247.0
 30
0.0
 11
-154.0
 21
-247.0
 31
0.0
  0
ARC
  5
BD
  8
DATA
  6
CONTINUOUS
 62
     7
 10
-175.5
 20
-245.5
 30
0.0
 40
1.5
 50
90.0
 51
270.0
  0
ARC
  5
BE
  8
DATA
  6
CONTINUOUS
 62
     7
 10
-154.0
 20
-245.5
 30
0.0
 40
1.5
 50
270.0
 51
90.0
  0
LINE
  5
BF
  8
DATA
  6
CONTINUOUS
 62
     7
 10
-175.5
 20
-249.5
 30
0.0
 11
-154.0
 21
-249.5
 31
0.0
  0
LINE
  5
C0
  8
DATA
  6
CONTINUOUS
 62
     7
 10
-175.5
 20
-252.49999999999989
 30
0.0
 11
-154.0
 21
-252.49999999999989
 31
0.0
  0
ARC
  5
C1
  8
DATA
  6
CONTINUOUS
 62
     7
 10
-175.5
 20
-251.0
 30
0.0
 40
1.5
 50
90.0
 51
270.0
  0
ARC
  5
C2
  8
DATA
  6
CONTINUOUS
 62
     7
 10
-154.0
 20
-251.0
 30
0.0
 40
1.5
 50
270.0
 51
90.0
  0
LINE
  5
C3
  8
DATA
  6
CONTINUOUS
 62
     7
 10
-175.5
 20
-255.0
 30
0.0
 11
-154.0
 21
-255.0
 31
0.0
  0
LINE
  5
C4
  8
DATA
  6
CONTINUOUS
 62
     7
 10
-175.5
 20
-258.0
 30
0.0
 11
-154.0
 21
-258.0
 31
0.0
  0
ARC
  5
C5
  8
DATA
  6
CONTINUOUS
 62
     7
 10
-175.5
 20
-256.49999999999989
 30
0.0
 40
1.5
 50
90.0
 51
270.0
  0
ARC
  5
C6
  8
DATA
  6
CONTINUOUS
 62
     7
 10
-154.0
 20
-256.49999999999989
 30
0.0
 40
1.5
 50
270.0
 51
90.0
  0
LINE
  5
C7
  8
DATA
  6
CONTINUOUS
 62
     7
 10
-175.5
 20
-260.49999999999989
 30
0.0
 11
-154.0
 21
-260.49999999999989
 31
0.0
  0
LINE
  5
C8
  8
DATA
  6
CONTINUOUS
 62
     7
 10
-175.5
 20
-263.5
 30
0.0
 11
-154.0
 21
-263.5
 31
0.0
  0
ARC
  5
C9
  8
DATA
  6
CONTINUOUS
 62
     7
 10
-175.5
 20
-262.0
 30
0.0
 40
1.5
 50
90.0
 51
270.0
  0
ARC
  5
CA
  8
DATA
  6
CONTINUOUS
 62
     7
 10
-154.0
 20
-262.0
 30
0.0
 40
1.5
 50
270.0
 51
90.0
  0
LINE
  5
CB
  8
DATA
  6
CONTINUOUS
 62
     7
 10
-175.5
 20
-266.0
 30
0.0
 11
-154.0
 21
-266.0
 31
0.0
  0
LINE
  5
CC
  8
DATA
  6
CONTINUOUS
 62
     7
 10
-175.5
 20
-269.0
 30
0.0
 11
-154.0
 21
-269.0
 31
0.0
  0
ARC
  5
CD
  8
DATA
  6
CONTINUOUS
 62
     7
 10
-175.5
 20
-267.5
 30
0.0
 40
1.5
 50
90.0
 51
270.0
  0
ARC
  5
CE
  8
DATA
  6
CONTINUOUS
 62
     7
 10
-154.0
 20
-267.5
 30
0.0
 40
1.5
 50
270.0
 51
90.0
  0
LINE
  5
CF
  8
DATA
  6
CONTINUOUS
 62
     7
 10
-175.5
 20
-271.49999999999989
 30
0.0
 11
-154.0
 21
-271.49999999999989
 31
0.0
  0
LINE
  5
D0
  8
DATA
  6
CONTINUOUS
 62
     7
 10
-175.5
 20
-274.5
 30
0.0
 11
-154.0
 21
-274.5
 31
0.0
  0
ARC
  5
D1
  8
DATA
  6
CONTINUOUS
 62
     7
 10
-175.5
 20
-273.0
 30
0.0
 40
1.5
 50
90.0
 51
270.0
  0
ARC
  5
D2
  8
DATA
  6
CONTINUOUS
 62
     7
 10
-154.0
 20
-273.0
 30
0.0
 40
1.5
 50
270.0
 51
90.0
  0
LINE
  5
D3
  8
DATA
  6
CONTINUOUS
 62
     7
 10
-175.5
 20
-277.0
 30
0.0
 11
-154.0
 21
-277.0
 31
0.0
  0
LINE
  5
D4
  8
DATA
  6
CONTINUOUS
 62
     7
 10
-175.5
 20
-280.0
 30
0.0
 11
-154.0
 21
-280.0
 31
0.0
  0
ARC
  5
D5
  8
DATA
  6
CONTINUOUS
 62
     7
 10
-175.5
 20
-278.5
 30
0.0
 40
1.5
 50
90.0
 51
270.0
  0
ARC
  5
D6
  8
DATA
  6
CONTINUOUS
 62
     7
 10
-154.0
 20
-278.5
 30
0.0
 40
1.5
 50
270.0
 51
90.0
  0
LINE
  5
D7
  8
DATA
  6
CONTINUOUS
 62
     7
 10
-175.5
 20
-282.5
 30
0.0
 11
-154.0
 21
-282.5
 31
0.0
  0
LINE
  5
D8
  8
DATA
  6
CONTINUOUS
 62
     7
 10
-175.5
 20
-285.5
 30
0.0
 11
-154.0
 21
-285.5
 31
0.0
  0
ARC
  5
D9
  8
DATA
  6
CONTINUOUS
 62
     7
 10
-175.5
 20
-284.0
 30
0.0
 40
1.5
 50
90.0
 51
270.0
  0
ARC
  5
DA
  8
DATA
  6
CONTINUOUS
 62
     7
 10
-154.0
 20
-284.0
 30
0.0
 40
1.5
 50
270.0
 51
90.0
  0
LINE
  5
DB
  8
DATA
  6
CONTINUOUS
 62
     7
 10
-175.5
 20
-288.0
 30
0.0
 11
-154.0
 21
-288.0
 31
0.0
  0
LINE
  5
DC
  8
DATA
  6
CONTINUOUS
 62
     7
 10
-175.5
 20
-291.0
 30
0.0
 11
-154.0
 21
-291.0
 31
0.0
  0
ARC
  5
DD
  8
DATA
  6
CONTINUOUS
 62
     7
 10
-175.5
 20
-289.49999999999989
 30
0.0
 40
1.5
 50
90.0
 51
270.0
  0
ARC
  5
DE
  8
DATA
  6
CONTINUOUS
 62
     7
 10
-154.0
 20
-289.49999999999989
 30
0.0
 40
1.5
 50
270.0
 51
90.0
  0
LINE
  5
DF
  8
DATA
  6
CONTINUOUS
 62
     7
 10
-147.5
 20
-227.49999999999989
 30
0.0
 11
-126.0
 21
-227.49999999999989
 31
0.0
  0
LINE
  5
E0
  8
DATA
  6
CONTINUOUS
 62
     7
 10
-147.5
 20
-230.5
 30
0.0
 11
-126.0
 21
-230.5
 31
0.0
  0
ARC
  5
E1
  8
DATA
  6
CONTINUOUS
 62
     7
 10
-147.5
 20
-229.0
 30
0.0
 40
1.5
 50
90.0
 51
270.0
  0
ARC
  5
E2
  8
DATA
  6
CONTINUOUS
 62
     7
 10
-126.0
 20
-229.0
 30
0.0
 40
1.5
 50
270.0
 51
90.0
  0
LINE
  5
E3
  8
DATA
  6
CONTINUOUS
 62
     7
 10
-147.5
 20
-233.0
 30
0.0
 11
-126.0
 21
-233.0
 31
0.0
  0
LINE
  5
E4
  8
DATA
  6
CONTINUOUS
 62
     7
 10
-147.5
 20
-236.0
 30
0.0
 11
-126.0
 21
-236.0
 31
0.0
  0
ARC
  5
E5
  8
DATA
  6
CONTINUOUS
 62
     7
 10
-147.5
 20
-234.5
 30
0.0
 40
1.5
 50
90.0
 51
270.0
  0
ARC
  5
E6
  8
DATA
  6
CONTINUOUS
 62
     7
 10
-126.0
 20
-234.5
 30
0.0
 40
1.5
 50
270.0
 51
90.0
  0
LINE
  5
E7
  8
DATA
  6
CONTINUOUS
 62
     7
 10
-119.5
 20
-227.49999999999989
 30
0.0
 11
-98.000000000000014
 21
-227.49999999999989
 31
0.0
  0
LINE
  5
E8
  8
DATA
  6
CONTINUOUS
 62
     7
 10
-119.5
 20
-230.5
 30
0.0
 11
-98.000000000000014
 21
-230.5
 31
0.0
  0
ARC
  5
E9
  8
DATA
  6
CONTINUOUS
 62
     7
 10
-119.5
 20
-229.0
 30
0.0
 40
1.5
 50
90.0
 51
270.0
  0
ARC
  5
EA
  8
DATA
  6
CONTINUOUS
 62
     7
 10
-98.000000000000014
 20
-229.0
 30
0.0
 40
1.5
 50
270.0
 51
90.0
  0
LINE
  5
EB
  8
DATA
  6
CONTINUOUS
 62
     7
 10
-119.5
 20
-233.0
 30
0.0
 11
-98.000000000000014
 21
-233.0
 31
0.0
  0
LINE
  5
EC
  8
DATA
  6
CONTINUOUS
 62
     7
 10
-119.5
 20
-236.0
 30
0.0
 11
-98.000000000000014
 21
-236.0
 31
0.0
  0
ARC
  5
ED
  8
DATA
  6
CONTINUOUS
 62
     7
 10
-119.5
 20
-234.5
 30
0.0
 40
1.5
 50
90.0
 51
270.0
  0
ARC
  5
EE
  8
DATA
  6
CONTINUOUS
 62
     7
 10
-98.000000000000014
 20
-234.5
 30
0.0
 40
1.5
 50
270.0
 51
90.0
  0
LINE
  5
EF
  8
DATA
  6
CONTINUOUS
 62
     7
 10
-91.500000000000014
 20
-227.49999999999989
 30
0.0
 11
-70.000000000000014
 21
-227.49999999999989
 31
0.0
  0
LINE
  5
F0
  8
DATA
  6
CONTINUOUS
 62
     7
 10
-91.500000000000014
 20
-230.5
 30
0.0
 11
-70.000000000000014
 21
-230.5
 31
0.0
  0
ARC
  5
F1
  8
DATA
  6
CONTINUOUS
 62
     7
 10
-91.500000000000014
 20
-229.0
 30
0.0
 40
1.5
 50
90.0
 51
270.0
  0
ARC
  5
F2
  8
DATA
  6
CONTINUOUS
 62
     7
 10
-70.000000000000014
 20
-229.0
 30
0.0
 40
1.5
 50
270.0
 51
90.0
  0
LINE
  5
F3
  8
DATA
  6
CONTINUOUS
 62
     7
 10
-91.500000000000014
 20
-233.0
 30
0.0
 11
-70.000000000000014
 21
-233.0
 31
0.0
  0
LINE
  5
F4
  8
DATA
  6
CONTINUOUS
 62
     7
 10
-91.500000000000014
 20
-236.0
 30
0.0
 11
-70.000000000000014
 21
-236.0
 31
0.0
  0
ARC
  5
F5
  8
DATA
  6
CONTINUOUS
 62
     7
 10
-91.500000000000014
 20
-234.5
 30
0.0
 40
1.5
 50
90.0
 51
270.0
  0
ARC
  5
F6
  8
DATA
  6
CONTINUOUS
 62
     7
 10
-70.000000000000014
 20
-234.5
 30
0.0
 40
1.5
 50
270.0
 51
90.0
  0
LINE
  5
F7
  8
DATA
  6
CONTINUOUS
 62
     7
 10
-63.500000000000007
 20
-227.49999999999989
 30
0.0
 11
-42.000000000000007
 21
-227.49999999999989
 31
0.0
  0
LINE
  5
F8
  8
DATA
  6
CONTINUOUS
 62
     7
 10
-63.500000000000007
 20
-230.5
 30
0.0
 11
-42.000000000000007
 21
-230.5
 31
0.0
  0
ARC
  5
F9
  8
DATA
  6
CONTINUOUS
 62
     7
 10
-63.500000000000007
 20
-229.0
 30
0.0
 40
1.5
 50
90.0
 51
270.0
  0
ARC
  5
FA
  8
DATA
  6
CONTINUOUS
 62
     7
 10
-42.000000000000007
 20
-229.0
 30
0.0
 40
1.5
 50
270.0
 51
90.0
  0
LINE
  5
FB
  8
DATA
  6
CONTINUOUS
 62
     7
 10
-63.500000000000007
 20
-233.0
 30
0.0
 11
-42.000000000000007
 21
-233.0
 31
0.0
  0
LINE
  5
FC
  8
DATA
  6
CONTINUOUS
 62
     7
 10
-63.500000000000007
 20
-236.0
 30
0.0
 11
-42.000000000000007
 21
-236.0
 31
0.0
  0
ARC
  5
FD
  8
DATA
  6
CONTINUOUS
 62
     7
 10
-63.500000000000007
 20
-234.5
 30
0.0
 40
1.5
 50
90.0
 51
270.0
  0
ARC
  5
FE
  8
DATA
  6
CONTINUOUS
 62
     7
 10
-42.000000000000007
 20
-234.5
 30
0.0
 40
1.5
 50
270.0
 51
90.0
  0
LINE
  5
FF
  8
DATA
  6
CONTINUOUS
 62
     7
 10
-35.500000000000007
 20
-227.49999999999989
 30
0.0
 11
-14.000000000000011
 21
-227.49999999999989
 31
0.0
  0
LINE
  5
100
  8
DATA
  6
CONTINUOUS
 62
     7
 10
-35.500000000000007
 20
-230.5
 30
0.0
 11
-14.000000000000011
 21
-230.5
 31
0.0
  0
ARC
  5
101
  8
DATA
  6
CONTINUOUS
 62
     7
 10
-35.500000000000007
 20
-229.0
 30
0.0
 40
1.5
 50
90.0
 51
270.0
  0
ARC
  5
102
  8
DATA
  6
CONTINUOUS
 62
     7
 10
-14.000000000000011
 20
-229.0
 30
0.0
 40
1.5
 50
270.0
 51
90.0
  0
LINE
  5
103
  8
DATA
  6
CONTINUOUS
 62
     7
 10
-35.500000000000007
 20
-233.0
 30
0.0
 11
-14.000000000000011
 21
-233.0
 31
0.0
  0
LINE
  5
104
  8
DATA
  6
CONTINUOUS
 62
     7
 10
-35.500000000000007
 20
-236.0
 30
0.0
 11
-14.000000000000011
 21
-236.0
 31
0.0
  0
ARC
  5
105
  8
DATA
  6
CONTINUOUS
 62
     7
 10
-35.500000000000007
 20
-234.5
 30
0.0
 40
1.5
 50
90.0
 51
270.0
  0
ARC
  5
106
  8
DATA
  6
CONTINUOUS
 62
     7
 10
-14.000000000000011
 20
-234.5
 30
0.0
 40
1.5
 50
270.0
 51
90.0
  0
LINE
  5
107
  8
DATA
  6
CONTINUOUS
 62
     7
 10
-7.5000000000000142
 20
-227.49999999999989
 30
0.0
 11
13.99999999999998
 21
-227.49999999999989
 31
0.0
  0
LINE
  5
108
  8
DATA
  6
CONTINUOUS
 62
     7
 10
-7.5000000000000142
 20
-230.5
 30
0.0
 11
13.99999999999998
 21
-230.5
 31
0.0
  0
ARC
  5
109
  8
DATA
  6
CONTINUOUS
 62
     7
 10
-7.5000000000000142
 20
-229.0
 30
0.0
 40
1.5
 50
90.0
 51
270.0
  0
ARC
  5
10A
  8
DATA
  6
CONTINUOUS
 62
     7
 10
13.99999999999998
 20
-229.0
 30
0.0
 40
1.5
 50
270.0
 51
90.0
  0
LINE
  5
10B
  8
DATA
  6
CONTINUOUS
 62
     7
 10
-7.5000000000000142
 20
-233.0
 30
0.0
 11
13.99999999999998
 21
-233.0
 31
0.0
  0
LINE
  5
10C
  8
DATA
  6
CONTINUOUS
 62
     7
 10
-7.5000000000000142
 20
-236.0
 30
0.0
 11
13.99999999999998
 21
-236.0
 31
0.0
  0
ARC
  5
10D
  8
DATA
  6
CONTINUOUS
 62
     7
 10
-7.5000000000000142
 20
-234.5
 30
0.0
 40
1.5
 50
90.0
 51
270.0
  0
ARC
  5
10E
  8
DATA
  6
CONTINUOUS
 62
     7
 10
13.99999999999998
 20
-234.5
 30
0.0
 40
1.5
 50
270.0
 51
90.0
  0
LINE
  5
10F
  8
DATA
  6
CONTINUOUS
 62
     7
 10
20.499999999999979
 20
-227.49999999999989
 30
0.0
 11
41.999999999999979
 21
-227.49999999999989
 31
0.0
  0
LINE
  5
110
  8
DATA
  6
CONTINUOUS
 62
     7
 10
20.499999999999979
 20
-230.5
 30
0.0
 11
41.999999999999979
 21
-230.5
 31
0.0
  0
ARC
  5
111
  8
DATA
  6
CONTINUOUS
 62
     7
 10
20.499999999999979
 20
-229.0
 30
0.0
 40
1.5
 50
90.0
 51
270.0
  0
ARC
  5
112
  8
DATA
  6
CONTINUOUS
 62
     7
 10
41.999999999999979
 20
-229.0
 30
0.0
 40
1.5
 50
270.0
 51
90.0
  0
LINE
  5
113
  8
DATA
  6
CONTINUOUS
 62
     7
 10
20.499999999999979
 20
-233.0
 30
0.0
 11
41.999999999999979
 21
-233.0
 31
0.0
  0
LINE
  5
114
  8
DATA
  6
CONTINUOUS
 62
     7
 10
20.499999999999979
 20
-236.0
 30
0.0
 11
41.999999999999979
 21
-236.0
 31
0.0
  0
ARC
  5
115
  8
DATA
  6
CONTINUOUS
 62
     7
 10
20.499999999999979
 20
-234.5
 30
0.0
 40
1.5
 50
90.0
 51
270.0
  0
ARC
  5
116
  8
DATA
  6
CONTINUOUS
 62
     7
 10
41.999999999999979
 20
-234.5
 30
0.0
 40
1.5
 50
270.0
 51
90.0
  0
LINE
  5
117
  8
DATA
  6
CONTINUOUS
 62
     7
 10
48.499999999999979
 20
-227.49999999999989
 30
0.0
 11
69.999999999999986
 21
-227.49999999999989
 31
0.0
  0
LINE
  5
118
  8
DATA
  6
CONTINUOUS
 62
     7
 10
48.499999999999979
 20
-230.5
 30
0.0
 11
69.999999999999986
 21
-230.5
 31
0.0
  0
ARC
  5
119
  8
DATA
  6
CONTINUOUS
 62
     7
 10
48.499999999999979
 20
-229.0
 30
0.0
 40
1.5
 50
90.0
 51
270.0
  0
ARC
  5
11A
  8
DATA
  6
CONTINUOUS
 62
     7
 10
69.999999999999986
 20
-229.0
 30
0.0
 40
1.5
 50
270.0
 51
90.0
  0
LINE
  5
11B
  8
DATA
  6
CONTINUOUS
 62
     7
 10
48.499999999999979
 20
-233.0
 30
0.0
 11
69.999999999999986
 21
-233.0
 31
0.0
  0
LINE
  5
11C
  8
DATA
  6
CONTINUOUS
 62
     7
 10
48.499999999999979
 20
-236.0
 30
0.0
 11
69.999999999999986
 21
-236.0
 31
0.0
  0
ARC
  5
11D
  8
DATA
  6
CONTINUOUS
 62
     7
 10
48.499999999999979
 20
-234.5
 30
0.0
 40
1.5
 50
90.0
 51
270.0
  0
ARC
  5
11E
  8
DATA
  6
CONTINUOUS
 62
     7
 10
69.999999999999986
 20
-234.5
 30
0.0
 40
1.5
 50
270.0
 51
90.0
  0
LINE
  5
11F
  8
DATA
  6
CONTINUOUS
 62
     7
 10
76.499999999999986
 20
-227.49999999999989
 30
0.0
 11
97.999999999999986
 21
-227.49999999999989
 31
0.0
  0
LINE
  5
120
  8
DATA
  6
CONTINUOUS
 62
     7
 10
76.499999999999986
 20
-230.5
 30
0.0
 11
97.999999999999986
 21
-230.5
 31
0.0
  0
ARC
  5
121
  8
DATA
  6
CONTINUOUS
 62
     7
 10
76.499999999999986
 20
-229.0
 30
0.0
 40
1.5
 50
90.0
 51
270.0
  0
ARC
  5
122
  8
DATA
  6
CONTINUOUS
 62
     7
 10
97.999999999999986
 20
-229.0
 30
0.0
 40
1.5
 50
270.0
 51
90.0
  0
LINE
  5
123
  8
DATA
  6
CONTINUOUS
 62
     7
 10
76.499999999999986
 20
-233.0
 30
0.0
 11
97.999999999999986
 21
-233.0
 31
0.0
  0
LINE
  5
124
  8
DATA
  6
CONTINUOUS
 62
     7
 10
76.499999999999986
 20
-236.0
 30
0.0
 11
97.999999999999986
 21
-236.0
 31
0.0
  0
ARC
  5
125
  8
DATA
  6
CONTINUOUS
 62
     7
 10
76.499999999999986
 20
-234.5
 30
0.0
 40
1.5
 50
90.0
 51
270.0
  0
ARC
  5
126
  8
DATA
  6
CONTINUOUS
 62
     7
 10
97.999999999999986
 20
-234.5
 30
0.0
 40
1.5
 50
270.0
 51
90.0
  0
LINE
  5
127
  8
DATA
  6
CONTINUOUS
 62
     7
 10
104.4999999999999
 20
-227.49999999999989
 30
0.0
 11
125.9999999999999
 21
-227.49999999999989
 31
0.0
  0
LINE
  5
128
  8
DATA
  6
CONTINUOUS
 62
     7
 10
104.4999999999999
 20
-230.5
 30
0.0
 11
125.9999999999999
 21
-230.5
 31
0.0
  0
ARC
  5
129
  8
DATA
  6
CONTINUOUS
 62
     7
 10
104.4999999999999
 20
-229.0
 30
0.0
 40
1.5
 50
90.0
 51
270.0
  0
ARC
  5
12A
  8
DATA
  6
CONTINUOUS
 62
     7
 10
125.9999999999999
 20
-229.0
 30
0.0
 40
1.5
 50
270.0
 51
90.0
  0
LINE
  5
12B
  8
DATA
  6
CONTINUOUS
 62
     7
 10
104.4999999999999
 20
-233.0
 30
0.0
 11
125.9999999999999
 21
-233.0
 31
0.0
  0
LINE
  5
12C
  8
DATA
  6
CONTINUOUS
 62
     7
 10
104.4999999999999
 20
-236.0
 30
0.0
 11
125.9999999999999
 21
-236.0
 31
0.0
  0
ARC
  5
12D
  8
DATA
  6
CONTINUOUS
 62
     7
 10
104.4999999999999
 20
-234.5
 30
0.0
 40
1.5
 50
90.0
 51
270.0
  0
ARC
  5
12E
  8
DATA
  6
CONTINUOUS
 62
     7
 10
125.9999999999999
 20
-234.5
 30
0.0
 40
1.5
 50
270.0
 51
90.0
  0
LINE
  5
12F
  8
DATA
  6
CONTINUOUS
 62
     7
 10
132.49999999999989
 20
-227.49999999999989
 30
0.0
 11
154.0
 21
-227.49999999999989
 31
0.0
  0
LINE
  5
130
  8
DATA
  6
CONTINUOUS
 62
     7
 10
132.49999999999989
 20
-230.5
 30
0.0
 11
154.0
 21
-230.5
 31
0.0
  0
ARC
  5
131
  8
DATA
  6
CONTINUOUS
 62
     7
 10
132.49999999999989
 20
-229.0
 30
0.0
 40
1.5
 50
90.0
 51
270.0
  0
ARC
  5
132
  8
DATA
  6
CONTINUOUS
 62
     7
 10
154.0
 20
-229.0
 30
0.0
 40
1.5
 50
270.0
 51
90.0
  0
LINE
  5
133
  8
DATA
  6
CONTINUOUS
 62
     7
 10
132.49999999999989
 20
-233.0
 30
0.0
 11
154.0
 21
-233.0
 31
0.0
  0
LINE
  5
134
  8
DATA
  6
CONTINUOUS
 62
     7
 10
132.49999999999989
 20
-236.0
 30
0.0
 11
154.0
 21
-236.0
 31
0.0
  0
ARC
  5
135
  8
DATA
  6
CONTINUOUS
 62
     7
 10
132.49999999999989
 20
-234.5
 30
0.0
 40
1.5
 50
90.0
 51
270.0
  0
ARC
  5
136
  8
DATA
  6
CONTINUOUS
 62
     7
 10
154.0
 20
-234.5
 30
0.0
 40
1.5
 50
270.0
 51
90.0
  0
LINE
  5
137
  8
DATA
  6
CONTINUOUS
 62
     7
 10
160.49999999999989
 20
-227.49999999999989
 30
0.0
 11
182.0
 21
-227.49999999999989
 31
0.0
  0
LINE
  5
138
  8
DATA
  6
CONTINUOUS
 62
     7
 10
160.49999999999989
 20
-230.5
 30
0.0
 11
182.0
 21
-230.5
 31
0.0
  0
ARC
  5
139
  8
DATA
  6
CONTINUOUS
 62
     7
 10
160.49999999999989
 20
-229.0
 30
0.0
 40
1.5
 50
90.0
 51
270.0
  0
ARC
  5
13A
  8
DATA
  6
CONTINUOUS
 62
     7
 10
182.0
 20
-229.0
 30
0.0
 40
1.5
 50
270.0
 51
90.0
  0
LINE
  5
13B
  8
DATA
  6
CONTINUOUS
 62
     7
 10
160.49999999999989
 20
-233.0
 30
0.0
 11
182.0
 21
-233.0
 31
0.0
  0
LINE
  5
13C
  8
DATA
  6
CONTINUOUS
 62
     7
 10
160.49999999999989
 20
-236.0
 30
0.0
 11
182.0
 21
-236.0
 31
0.0
  0
ARC
  5
13D
  8
DATA
  6
CONTINUOUS
 62
     7
 10
160.49999999999989
 20
-234.5
 30
0.0
 40
1.5
 50
90.0
 51
270.0
  0
ARC
  5
13E
  8
DATA
  6
CONTINUOUS
 62
     7
 10
182.0
 20
-234.5
 30
0.0
 40
1.5
 50
270.0
 51
90.0
  0
LINE
  5
13F
  8
DATA
  6
CONTINUOUS
 62
     7
 10
160.49999999999989
 20
-238.5
 30
0.0
 11
182.0
 21
-238.5
 31
0.0
  0
LINE
  5
140
  8
DATA
  6
CONTINUOUS
 62
     7
 10
160.49999999999989
 20
-241.5
 30
0.0
 11
182.0
 21
-241.5
 31
0.0
  0
ARC
  5
141
  8
DATA
  6
CONTINUOUS
 62
     7
 10
160.49999999999989
 20
-240.0
 30
0.0
 40
1.5
 50
90.0
 51
270.0
  0
ARC
  5
142
  8
DATA
  6
CONTINUOUS
 62
     7
 10
182.0
 20
-240.0
 30
0.0
 40
1.5
 50
270.0
 51
90.0
  0
LINE
  5
143
  8
DATA
  6
CONTINUOUS
 62
     7
 10
160.49999999999989
 20
-244.0
 30
0.0
 11
182.0
 21
-244.0
 31
0.0
  0
LINE
  5
144
  8
DATA
  6
CONTINUOUS
 62
     7
 10
160.49999999999989
 20
-247.0
 30
0.0
 11
182.0
 21
-247.0
 31
0.0
  0
ARC
  5
145
  8
DATA
  6
CONTINUOUS
 62
     7
 10
160.49999999999989
 20
-245.5
 30
0.0
 40
1.5
 50
90.0
 51
270.0
  0
ARC
  5
146
  8
DATA
  6
CONTINUOUS
 62
     7
 10
182.0
 20
-245.5
 30
0.0
 40
1.5
 50
270.0
 51
90.0
  0
LINE
  5
147
  8
DATA
  6
CONTINUOUS
 62
     7
 10
160.49999999999989
 20
-249.5
 30
0.0
 11
182.0
 21
-249.5
 31
0.0
  0
LINE
  5
148
  8
DATA
  6
CONTINUOUS
 62
     7
 10
160.49999999999989
 20
-252.49999999999989
 30
0.0
 11
182.0
 21
-252.49999999999989
 31
0.0
  0
ARC
  5
149
  8
DATA
  6
CONTINUOUS
 62
     7
 10
160.49999999999989
 20
-251.0
 30
0.0
 40
1.5
 50
90.0
 51
270.0
  0
ARC
  5
14A
  8
DATA
  6
CONTINUOUS
 62
     7
 10
182.0
 20
-251.0
 30
0.0
 40
1.5
 50
270.0
 51
90.0
  0
LINE
  5
14B
  8
DATA
  6
CONTINUOUS
 62
     7
 10
160.49999999999989
 20
-255.0
 30
0.0
 11
182.0
 21
-255.0
 31
0.0
  0
LINE
  5
14C
  8
DATA
  6
CONTINUOUS
 62
     7
 10
160.49999999999989
 20
-258.0
 30
0.0
 11
182.0
 21
-258.0
 31
0.0
  0
ARC
  5
14D
  8
DATA
  6
CONTINUOUS
 62
     7
 10
160.49999999999989
 20
-256.49999999999989
 30
0.0
 40
1.5
 50
90.0
 51
270.0
  0
ARC
  5
14E
  8
DATA
  6
CONTINUOUS
 62
     7
 10
182.0
 20
-256.49999999999989
 30
0.0
 40
1.5
 50
270.0
 51
90.0
  0
LINE
  5
14F
  8
DATA
  6
CONTINUOUS
 62
     7
 10
160.49999999999989
 20
-260.49999999999989
 30
0.0
 11
182.0
 21
-260.49999999999989
 31
0.0
  0
LINE
  5
150
  8
DATA
  6
CONTINUOUS
 62
     7
 10
160.49999999999989
 20
-263.5
 30
0.0
 11
182.0
 21
-263.5
 31
0.0
  0
ARC
  5
151
  8
DATA
  6
CONTINUOUS
 62
     7
 10
160.49999999999989
 20
-262.0
 30
0.0
 40
1.5
 50
90.0
 51
270.0
  0
ARC
  5
152
  8
DATA
  6
CONTINUOUS
 62
     7
 10
182.0
 20
-262.0
 30
0.0
 40
1.5
 50
270.0
 51
90.0
  0
LINE
  5
153
  8
DATA
  6
CONTINUOUS
 62
     7
 10
160.49999999999989
 20
-266.0
 30
0.0
 11
182.0
 21
-266.0
 31
0.0
  0
LINE
  5
154
  8
DATA
  6
CONTINUOUS
 62
     7
 10
160.49999999999989
 20
-269.0
 30
0.0
 11
182.0
 21
-269.0
 31
0.0
  0
ARC
  5
155
  8
DATA
  6
CONTINUOUS
 62
     7
 10
160.49999999999989
 20
-267.5
 30
0.0
 40
1.5
 50
90.0
 51
270.0
  0
ARC
  5
156
  8
DATA
  6
CONTINUOUS
 62
     7
 10
182.0
 20
-267.5
 30
0.0
 40
1.5
 50
270.0
 51
90.0
  0
LINE
  5
157
  8
DATA
  6
CONTINUOUS
 62
     7
 10
160.49999999999989
 20
-271.49999999999989
 30
0.0
 11
182.0
 21
-271.49999999999989
 31
0.0
  0
LINE
  5
158
  8
DATA
  6
CONTINUOUS
 62
     7
 10
160.49999999999989
 20
-274.5
 30
0.0
 11
182.0
 21
-274.5
 31
0.0
  0
ARC
  5
159
  8
DATA
  6
CONTINUOUS
 62
     7
 10
160.49999999999989
 20
-273.0
 30
0.0
 40
1.5
 50
90.0
 51
270.0
  0
ARC
  5
15A
  8
DATA
  6
CONTINUOUS
 62
     7
 10
182.0
 20
-273.0
 30
0.0
 40
1.5
 50
270.0
 51
90.0
  0
LINE
  5
15B
  8
DATA
  6
CONTINUOUS
 62
     7
 10
160.49999999999989
 20
-277.0
 30
0.0
 11
182.0
 21
-277.0
 31
0.0
  0
LINE
  5
15C
  8
DATA
  6
CONTINUOUS
 62
     7
 10
160.49999999999989
 20
-280.0
 30
0.0
 11
182.0
 21
-280.0
 31
0.0
  0
ARC
  5
15D
  8
DATA
  6
CONTINUOUS
 62
     7
 10
160.49999999999989
 20
-278.5
 30
0.0
 40
1.5
 50
90.0
 51
270.0
  0
ARC
  5
15E
  8
DATA
  6
CONTINUOUS
 62
     7
 10
182.0
 20
-278.5
 30
0.0
 40
1.5
 50
270.0
 51
90.0
  0
LINE
  5
15F
  8
DATA
  6
CONTINUOUS
 62
     7
 10
160.49999999999989
 20
-282.5
 30
0.0
 11
182.0
 21
-282.5
 31
0.0
  0
LINE
  5
160
  8
DATA
  6
CONTINUOUS
 62
     7
 10
160.49999999999989
 20
-285.5
 30
0.0
 11
182.0
 21
-285.5
 31
0.0
  0
ARC
  5
161
  8
DATA
  6
CONTINUOUS
 62
     7
 10
160.49999999999989
 20
-284.0
 30
0.0
 40
1.5
 50
90.0
 51
270.0
  0
ARC
  5
162
  8
DATA
  6
CONTINUOUS
 62
     7
 10
182.0
 20
-284.0
 30
0.0
 40
1.5
 50
270.0
 51
90.0
  0
LINE
  5
163
  8
DATA
  6
CONTINUOUS
 62
     7
 10
160.49999999999989
 20
-288.0
 30
0.0
 11
182.0
 21
-288.0
 31
0.0
  0
LINE
  5
164
  8
DATA
  6
CONTINUOUS
 62
     7
 10
160.49999999999989
 20
-291.0
 30
0.0
 11
182.0
 21
-291.0
 31
0.0
  0
ARC
  5
165
  8
DATA
  6
CONTINUOUS
 62
     7
 10
160.49999999999989
 20
-289.49999999999989
 30
0.0
 40
1.5
 50
90.0
 51
270.0
  0
ARC
  5
166
  8
DATA
  6
CONTINUOUS
 62
     7
 10
182.0
 20
-289.49999999999989
 30
0.0
 40
1.5
 50
270.0
 51
90.0
  0
TEXT
  5
167
  8
DATA
 62
     7
 10
-26.3888888888889
 20
-277.23333333333329
 30
0.0
 40
11.28888888888889
  1
DPS-1
 41
0.75
 11
-26.3888888888889
 21
-265.9444444444444
 31
0.0
 73
     3
  0
CIRCLE
  5
168
  8
DATA
  6
CONTINUOUS
 62
     7
 10
-82.500000000000014
 20
-217.5
 30
0.0
 40
3.0
  0
LINE
  5
169
  8
DATA
  6
CONTINUOUS
 62
     7
 10
-82.500000000000014
 20
-218.5
 30
0.0
 11
-82.500000000000014
 21
-216.5
 31
0.0
  0
LINE
  5
16A
  8
DATA
  6
CONTINUOUS
 62
     7
 10
-83.500000000000014
 20
-217.5
 30
0.0
 11
-81.500000000000014
 21
-217.5
 31
0.0
  0
CIRCLE
  5
16B
  8
DATA
  6
CONTINUOUS
 62
     7
 10
64.999999999999986
 20
-217.5
 30
0.0
 40
3.0
  0
LINE
  5
16C
  8
DATA
  6
CONTINUOUS
 62
     7
 10
64.999999999999986
 20
-218.5
 30
0.0
 11
64.999999999999986
 21
-216.5
 31
0.0
  0
LINE
  5
16D
  8
DATA
  6
CONTINUOUS
 62
     7
 10
65.999999999999986
 20
-217.5
 30
0.0
 11
63.999999999999979
 21
-217.5
 31
0.0
  0
LINE
  5
16E
  8
DATA
  6
CONTINUOUS
 62
     7
 10
-224.0
 20
53.5
 30
0.0
 11
206.49999999999989
 21
53.5
 31
0.0
  0
LINE
  5
16F
  8
DATA
  6
CONTINUOUS
 62
     7
 10
-196.00016670371181
 20
-309.50200000000001
 30
0.0
 11
-214.4998332962881
 21
-309.50200000000001
 31
0.0
  0
LINE
  5
170
  8
DATA
  6
CONTINUOUS
 62
     7
 10
-195.24983329628751
 20
-300.49999999999989
 30
0.0
 11
-196.00016670371181
 21
-309.50200000000001
 31
0.0
  0
LINE
  5
171
  8
DATA
  6
CONTINUOUS
 62
     7
 10
-215.25016670371241
 20
-300.49999999999989
 30
0.0
 11
-214.4998332962881
 21
-309.50200000000001
 31
0.0
  0
LINE
  5
172
  8
DATA
  6
CONTINUOUS
 62
     7
 10
196.99983329628799
 20
-309.50200000000001
 30
0.0
 11
178.50016670371181
 21
-309.50200000000001
 31
0.0
  0
LINE
  5
173
  8
DATA
  6
CONTINUOUS
 62
     7
 10
197.75016670371241
 20
-300.49999999999989
 30
0.0
 11
196.99983329628799
 21
-309.50200000000001
 31
0.0
  0
LINE
  5
174
  8
DATA
  6
CONTINUOUS
 62
     7
 10
177.74983329628751
 20
-300.49999999999989
 30
0.0
 11
178.50016670371181
 21
-309.50200000000001
 31
0.0
  0
LINE
  5
175
  8
DATA
  6
CONTINUOUS
 62
     7
 10
334.2498332962881
 20
-309.50200000000001
 30
0.0
 11
315.7501667037119
 21
-309.50200000000001
 31
0.0
  0
LINE
  5
176
  8
DATA
  6
CONTINUOUS
 62
     7
 10
335.00016670371241
 20
-300.49999999999989
 30
0.0
 11
334.2498332962881
 21
-309.50200000000001
 31
0.0
  0
LINE
  5
177
  8
DATA
  6
CONTINUOUS
 62
     7
 10
314.99983329628748
 20
-300.49999999999989
 30
0.0
 11
315.7501667037119
 21
-309.50200000000001
 31
0.0
  0
LINE
  5
178
  8
DATA
  6
CONTINUOUS
 62
     7
 10
440.24983329628799
 20
-309.50200000000001
 30
0.0
 11
421.7501667037119
 21
-309.50200000000001
 31
0.0
  0
LINE
  5
179
  8
DATA
  6
CONTINUOUS
 62
     7
 10
441.00016670371241
 20
-300.49999999999989
 30
0.0
 11
440.24983329628799
 21
-309.50200000000001
 31
0.0
  0
LINE
  5
17A
  8
DATA
  6
CONTINUOUS
 62
     7
 10
420.99983329628748
 20
-300.49999999999989
 30
0.0
 11
421.7501667037119
 21
-309.50200000000001
 31
0.0
  0
LINE
  5
17B
  8
DATA
  6
CONTINUOUS
 62
     7
 10
-250.0
 20
200.0
 30
0.0
 11
-250.0
 21
289.0
 31
0.0
  0
LINE
  5
17C
  8
DATA
  6
CONTINUOUS
 62
     7
 10
232.5
 20
289.0
 30
0.0
 11
232.5
 21
200.0
 31
0.0
  0
ARC
  5
17D
  8
DATA
  6
CONTINUOUS
 62
     7
 10
221.49999999999989
 20
207.5
 30
0.0
 40
3.25
 50
90.0
 51
270.0
  0
ARC
  5
17E
  8
DATA
  6
CONTINUOUS
 62
     7
 10
225.0
 20
207.5
 30
0.0
 40
3.25
 50
270.0
 51
90.0
  0
LINE
  5
17F
  8
DATA
  6
CONTINUOUS
 62
     7
 10
221.49999999999989
 20
210.74999999999989
 30
0.0
 11
225.0
 21
210.74999999999989
 31
0.0
  0
LINE
  5
180
  8
DATA
  6
CONTINUOUS
 62
     7
 10
221.49999999999989
 20
204.24999999999989
 30
0.0
 11
225.0
 21
204.24999999999989
 31
0.0
  0
ARC
  5
181
  8
DATA
  6
CONTINUOUS
 62
     7
 10
221.49999999999989
 20
281.49999999999989
 30
0.0
 40
3.25
 50
90.0
 51
270.0
  0
ARC
  5
182
  8
DATA
  6
CONTINUOUS
 62
     7
 10
225.0
 20
281.49999999999989
 30
0.0
 40
3.25
 50
270.0
 51
90.0
  0
LINE
  5
183
  8
DATA
  6
CONTINUOUS
 62
     7
 10
221.49999999999989
 20
284.75
 30
0.0
 11
225.0
 21
284.75
 31
0.0
  0
LINE
  5
184
  8
DATA
  6
CONTINUOUS
 62
     7
 10
221.49999999999989
 20
278.25
 30
0.0
 11
225.0
 21
278.25
 31
0.0
  0
ARC
  5
185
  8
DATA
  6
CONTINUOUS
 62
     7
 10
-239.0
 20
207.5
 30
0.0
 40
3.25
 50
270.0
 51
90.0
  0
ARC
  5
186
  8
DATA
  6
CONTINUOUS
 62
     7
 10
-242.5
 20
207.5
 30
0.0
 40
3.25
 50
90.0
 51
270.0
  0
LINE
  5
187
  8
DATA
  6
CONTINUOUS
 62
     7
 10
-239.0
 20
210.74999999999989
 30
0.0
 11
-242.5
 21
210.74999999999989
 31
0.0
  0
LINE
  5
188
  8
DATA
  6
CONTINUOUS
 62
     7
 10
-239.0
 20
204.24999999999989
 30
0.0
 11
-242.5
 21
204.24999999999989
 31
0.0
  0
ARC
  5
189
  8
DATA
  6
CONTINUOUS
 62
     7
 10
-239.0
 20
281.49999999999989
 30
0.0
 40
3.25
 50
270.0
 51
90.0
  0
ARC
  5
18A
  8
DATA
  6
CONTINUOUS
 62
     7
 10
-242.5
 20
281.49999999999989
 30
0.0
 40
3.25
 50
90.0
 51
270.0
  0
LINE
  5
18B
  8
DATA
  6
CONTINUOUS
 62
     7
 10
-239.0
 20
284.75
 30
0.0
 11
-242.5
 21
284.75
 31
0.0
  0
LINE
  5
18C
  8
DATA
  6
CONTINUOUS
 62
     7
 10
-239.0
 20
278.25
 30
0.0
 11
-242.5
 21
278.25
 31
0.0
  0
LINE
  5
18D
  8
DATA
  6
CONTINUOUS
 62
     7
 10
-250.0
 20
200.0
 30
0.0
 11
232.5
 21
200.0
 31
0.0
  0
LINE
  5
18E
  8
DATA
  6
CONTINUOUS
 62
     7
 10
232.5
 20
289.0
 30
0.0
 11
-250.0
 21
289.0
 31
0.0
  0
LINE
  5
18F
  8
DATA
  6
CONTINUOUS
 62
     7
 10
-224.0
 20
200.0
 30
0.0
 11
-224.0
 21
289.0
 31
0.0
  0
LINE
  5
190
  8
DATA
  6
CONTINUOUS
 62
     7
 10
-213.0
 20
214.0
 30
0.0
 11
-213.0
 21
248.0
 31
0.0
  0
LINE
  5
191
  8
DATA
  6
CONTINUOUS
 62
     7
 10
-182.5
 20
214.0
 30
0.0
 11
-182.5
 21
248.0
 31
0.0
  0
LINE
  5
192
  8
DATA
  6
CONTINUOUS
 62
     7
 10
-213.0
 20
248.0
 30
0.0
 11
-182.5
 21
248.0
 31
0.0
  0
LINE
  5
193
  8
DATA
  6
CONTINUOUS
 62
     7
 10
-213.0
 20
214.0
 30
0.0
 11
-182.5
 21
214.0
 31
0.0
  0
LINE
  5
194
  8
DATA
  6
CONTINUOUS
 62
     7
 10
-205.50735931288071
 20
216.0
 30
0.0
 11
-209.75
 21
220.24264068711949
 31
0.0
  0
ARC
  5
195
  8
DATA
  6
CONTINUOUS
 62
     7
 10
-208.25
 20
230.5
 30
0.0
 40
1.5
 50
90.0
 51
180.0
  0
LINE
  5
196
  8
DATA
  6
CONTINUOUS
 62
     7
 10
-209.75
 20
230.5
 30
0.0
 11
-209.75000000000011
 21
220.24264068711949
 31
0.0
  0
LINE
  5
197
  8
DATA
  6
CONTINUOUS
 62
     7
 10
-191.5
 20
223.0000000000002
 30
0.0
 11
-191.5
 21
228.5000000000002
 31
0.0
  0
LINE
  5
198
  8
DATA
  6
CONTINUOUS
 62
     7
 10
-198.5
 20
219.5000000000002
 30
0.0
 11
-198.5
 21
225.0
 31
0.0
  0
LINE
  5
199
  8
DATA
  6
CONTINUOUS
 62
     7
 10
-197.0
 20
219.5000000000002
 30
0.0
 11
-197.0
 21
225.0
 31
0.0
  0
LINE
  5
19A
  8
DATA
  6
CONTINUOUS
 62
     7
 10
-204.0
 20
223.0000000000002
 30
0.0
 11
-204.0
 21
228.5000000000002
 31
0.0
  0
LINE
  5
19B
  8
DATA
  6
CONTINUOUS
 62
     7
 10
-205.5
 20
223.0000000000002
 30
0.0
 11
-205.5
 21
228.5000000000002
 31
0.0
  0
LINE
  5
19C
  8
DATA
  6
CONTINUOUS
 62
     7
 10
-190.0
 20
223.0000000000002
 30
0.0
 11
-190.0
 21
228.5000000000002
 31
0.0
  0
LINE
  5
19D
  8
DATA
  6
CONTINUOUS
 62
     7
 10
-204.0
 20
223.0000000000002
 30
0.0
 11
-205.5
 21
223.0000000000002
 31
0.0
  0
LINE
  5
19E
  8
DATA
  6
CONTINUOUS
 62
     7
 10
-197.0
 20
219.5000000000002
 30
0.0
 11
-198.5
 21
219.5000000000002
 31
0.0
  0
LINE
  5
19F
  8
DATA
  6
CONTINUOUS
 62
     7
 10
-190.0
 20
223.0000000000002
 30
0.0
 11
-191.5
 21
223.0000000000002
 31
0.0
  0
LINE
  5
1A0
  8
DATA
  6
CONTINUOUS
 62
     7
 10
-185.75
 20
220.24264068711949
 30
0.0
 11
-189.99264068711929
 21
216.0
 31
0.0
  0
LINE
  5
1A1
  8
DATA
  6
CONTINUOUS
 62
     7
 10
-189.99264068711949
 20
216.0
 30
0.0
 11
-205.50735931288051
 21
216.0
 31
0.0
  0
LINE
  5
1A2
  8
DATA
  6
CONTINUOUS
 62
     7
 10
-190.0
 20
228.5000000000002
 30
0.0
 11
-191.5
 21
228.5000000000002
 31
0.0
  0
LINE
  5
1A3
  8
DATA
  6
CONTINUOUS
 62
     7
 10
-197.0
 20
225.0
 30
0.0
 11
-198.5
 21
225.0
 31
0.0
  0
LINE
  5
1A4
  8
DATA
  6
CONTINUOUS
 62
     7
 10
-204.0
 20
228.5000000000002
 30
0.0
 11
-205.5
 21
228.5000000000002
 31
0.0
  0
LINE
  5
1A5
  8
DATA
  6
CONTINUOUS
 62
     7
 10
-187.25
 20
232.0000000000002
 30
0.0
 11
-208.25
 21
232.0000000000002
 31
0.0
  0
ARC
  5
1A6
  8
DATA
  6
CONTINUOUS
 62
     7
 10
-187.25
 20
230.5
 30
0.0
 40
1.5
 50
0.0
 51
90.0
  0
LINE
  5
1AD
  8
DATA
  6
CONTINUOUS
 62
     7
 10
-185.75
 20
230.5
 30
0.0
 11
-185.75
 21
220.24264068711949
 31
0.0
  0
CIRCLE
  5
1AE
  8
DATA
  6
CONTINUOUS
 62
     7
 10
-82.500000000000014
 20
206.49999999999989
 30
0.0
 40
3.0
  0
LINE
  5
1AF
  8
DATA
  6
CONTINUOUS
 62
     7
 10
-82.500000000000014
 20
207.5
 30
0.0
 11
-82.500000000000014
 21
205.5
 31
0.0
  0
LINE
  5
1B0
  8
DATA
  6
CONTINUOUS
 62
     7
 10
-83.500000000000014
 20
206.49999999999989
 30
0.0
 11
-81.500000000000014
 21
206.49999999999989
 31
0.0
  0
CIRCLE
  5
1B1
  8
DATA
  6
CONTINUOUS
 62
     7
 10
64.999999999999986
 20
206.49999999999989
 30
0.0
 40
3.0
  0
LINE
  5
1B2
  8
DATA
  6
CONTINUOUS
 62
     7
 10
64.999999999999986
 20
207.5
 30
0.0
 11
64.999999999999986
 21
205.5
 31
0.0
  0
LINE
  5
1B3
  8
DATA
  6
CONTINUOUS
 62
     7
 10
65.999999999999986
 20
206.49999999999989
 30
0.0
 11
63.999999999999979
 21
206.49999999999989
 31
0.0
  0
LINE
  5
1B4
  8
DATA
  6
CONTINUOUS
 62
     7
 10
212.5
 20
289.0
 30
0.0
 11
212.5
 21
200.0
 31
0.0
  0
CIRCLE
  5
1B5
  8
DATA
  6
CONTINUOUS
 62
     7
 10
178.0
 20
228.0
 30
0.0
 40
15.0
  0
CIRCLE
  5
1B6
  8
DATA
  6
CONTINUOUS
 62
     7
 10
163.49999999999989
 20
213.5
 30
0.0
 40
3.0
  0
LINE
  5
1B7
  8
DATA
  6
CONTINUOUS
 62
     7
 10
163.49999999999989
 20
214.5
 30
0.0
 11
163.49999999999989
 21
212.5
 31
0.0
  0
LINE
  5
1B8
  8
DATA
  6
CONTINUOUS
 62
     7
 10
164.5
 20
213.5
 30
0.0
 11
162.5
 21
213.5
 31
0.0
  0
CIRCLE
  5
1B9
  8
DATA
  6
CONTINUOUS
 62
     7
 10
192.5
 20
213.5
 30
0.0
 40
3.0
  0
LINE
  5
1BA
  8
DATA
  6
CONTINUOUS
 62
     7
 10
192.5
 20
214.5
 30
0.0
 11
192.5
 21
212.5
 31
0.0
  0
LINE
  5
1BB
  8
DATA
  6
CONTINUOUS
 62
     7
 10
193.5
 20
213.5
 30
0.0
 11
191.5
 21
213.5
 31
0.0
  0
CIRCLE
  5
1BC
  8
DATA
  6
CONTINUOUS
 62
     7
 10
192.5
 20
242.5
 30
0.0
 40
3.0
  0
LINE
  5
1BD
  8
DATA
  6
CONTINUOUS
 62
     7
 10
192.5
 20
243.5
 30
0.0
 11
192.5
 21
241.5
 31
0.0
  0
LINE
  5
1BE
  8
DATA
  6
CONTINUOUS
 62
     7
 10
193.5
 20
242.5
 30
0.0
 11
191.5
 21
242.5
 31
0.0
  0
CIRCLE
  5
1BF
  8
DATA
  6
CONTINUOUS
 62
     7
 10
163.49999999999989
 20
242.5
 30
0.0
 40
3.0
  0
LINE
  5
1C0
  8
DATA
  6
CONTINUOUS
 62
     7
 10
163.49999999999989
 20
243.5
 30
0.0
 11
163.49999999999989
 21
241.5
 31
0.0
  0
LINE
  5
1C1
  8
DATA
  6
CONTINUOUS
 62
     7
 10
164.5
 20
242.5
 30
0.0
 11
162.5
 21
242.5
 31
0.0
  0
TEXT
  5
1C2
  8
DATA
 62
     7
 10
204.45833333333329
 20
207.4291136257859
 30
0.0
 40
5.6444444444444439
  1
DC TO RM1D ONLY
 50
180.0
 41
0.75
 11
204.45833333333329
 21
201.78466918134151
 31
0.0
 73
     3
  0
ARC
  5
1C3
  8
DATA
  6
CONTINUOUS
 62
     7
 10
178.0
 20
228.0
 30
0.0
 40
12.5
 50
276.89210257934639
 51
15.41143426421411
  0
ARC
  5
1C4
  8
DATA
  6
CONTINUOUS
 62
     7
 10
178.0
 20
228.0
 30
0.0
 40
12.5
 50
24.58856573578586
 51
45.200566415794313
  0
ARC
  5
1C5
  8
DATA
  6
CONTINUOUS
 62
     7
 10
178.0
 20
228.0
 30
0.0
 40
12.5
 50
134.6521147785476
 51
165.41143426421399
  0
ARC
  5
1C6
  8
DATA
  6
CONTINUOUS
 62
     7
 10
178.0
 20
228.0
 30
0.0
 40
12.499999999999989
 50
174.58856573578581
 51
263.10789742065361
  0
CIRCLE
  5
1C7
  8
DATA
  6
CONTINUOUS
 62
     7
 10
178.0
 20
228.0
 30
0.0
 40
10.5
  0
LINE
  5
1C8
  8
DATA
  6
CONTINUOUS
 62
     7
 10
176.5
 20
214.59
 30
0.0
 11
176.5
 21
215.59065281452521
 31
0.0
  0
LINE
  5
1C9
  8
DATA
  6
CONTINUOUS
 62
     7
 10
179.49999999999989
 20
214.59
 30
0.0
 11
179.49999999999989
 21
215.59032635400911
 31
0.0
  0
LINE
  5
1CA
  8
DATA
  6
CONTINUOUS
 62
     7
 10
176.5
 20
214.59
 30
0.0
 11
179.49999999999989
 21
214.59
 31
0.0
  0
CIRCLE
  5
1CB
  8
DATA
  6
CONTINUOUS
 62
     7
 10
178.0
 20
234.0
 30
0.0
 40
1.0
  0
CIRCLE
  5
1CC
  8
DATA
  6
CONTINUOUS
 62
     7
 10
174.0
 20
234.0
 30
0.0
 40
1.0
  0
CIRCLE
  5
1CD
  8
DATA
  6
CONTINUOUS
 62
     7
 10
182.0
 20
234.0
 30
0.0
 40
1.0
  0
CIRCLE
  5
1CE
  8
DATA
  6
CONTINUOUS
 62
     7
 10
180.0
 20
230.25
 30
0.0
 40
1.0
  0
CIRCLE
  5
1CF
  8
DATA
  6
CONTINUOUS
 62
     7
 10
176.0
 20
230.25
 30
0.0
 40
1.0
  0
CIRCLE
  5
1D0
  8
DATA
  6
CONTINUOUS
 62
     7
 10
184.0
 20
230.25
 30
0.0
 40
1.0
  0
CIRCLE
  5
1D1
  8
DATA
  6
CONTINUOUS
 62
     7
 10
172.0
 20
230.25
 30
0.0
 40
1.0
  0
CIRCLE
  5
1D2
  8
DATA
  6
CONTINUOUS
 62
     7
 10
182.0
 20
226.5
 30
0.0
 40
1.0
  0
CIRCLE
  5
1D3
  8
DATA
  6
CONTINUOUS
 62
     7
 10
178.0
 20
226.5
 30
0.0
 40
1.0
  0
CIRCLE
  5
1D4
  8
DATA
  6
CONTINUOUS
 62
     7
 10
186.0
 20
226.5
 30
0.0
 40
1.0
  0
CIRCLE
  5
1D5
  8
DATA
  6
CONTINUOUS
 62
     7
 10
174.0
 20
226.5
 30
0.0
 40
1.0
  0
CIRCLE
  5
1D6
  8
DATA
  6
CONTINUOUS
 62
     7
 10
170.0
 20
226.5
 30
0.0
 40
1.0
  0
CIRCLE
  5
1D7
  8
DATA
  6
CONTINUOUS
 62
     7
 10
184.0
 20
222.75
 30
0.0
 40
1.0
  0
CIRCLE
  5
1D8
  8
DATA
  6
CONTINUOUS
 62
     7
 10
180.0
 20
222.75
 30
0.0
 40
1.0
  0
CIRCLE
  5
1D9
  8
DATA
  6
CONTINUOUS
 62
     7
 10
176.0
 20
222.75
 30
0.0
 40
1.0
  0
CIRCLE
  5
1DA
  8
DATA
  6
CONTINUOUS
 62
     7
 10
172.0
 20
222.75
 30
0.0
 40
1.0
  0
LINE
  5
1DB
  8
DATA
  6
CONTINUOUS
 62
     7
 10
164.62007985443921
 20
229.34381430950131
 30
0.0
 11
165.5557104499961
 21
229.1788373915283
 31
0.0
  0
LINE
  5
1DC
  8
DATA
  6
CONTINUOUS
 62
     7
 10
164.62007985443921
 20
229.34381430950131
 30
0.0
 11
164.96737620977311
 21
231.31342981552569
 31
0.0
  0
LINE
  5
1DD
  8
DATA
  6
CONTINUOUS
 62
     7
 10
164.96737620977311
 20
231.31342981552569
 30
0.0
 11
165.90300680532991
 21
231.14845289755269
 31
0.0
  0
LINE
  5
1DE
  8
DATA
  6
CONTINUOUS
 62
     7
 10
190.05052986476801
 20
231.32185640543551
 30
0.0
 11
190.94329818806469
 21
231.6467975012113
 31
0.0
  0
LINE
  5
1DF
  8
DATA
  6
CONTINUOUS
 62
     7
 10
170.74587557747481
 20
238.17976811437879
 30
0.0
 11
170.11176214263321
 21
238.90923217641489
 31
0.0
  0
LINE
  5
1E0
  8
DATA
  6
CONTINUOUS
 62
     7
 10
170.11176214263321
 20
238.90923217641489
 30
0.0
 11
168.60234298218771
 21
237.59711411843389
 31
0.0
  0
LINE
  5
1E1
  8
DATA
  6
CONTINUOUS
 62
     7
 10
169.2149949604009
 20
236.8923386380759
 30
0.0
 11
168.60234298218771
 21
237.59711411843389
 31
0.0
  0
LINE
  5
1E2
  8
DATA
  6
CONTINUOUS
 62
     7
 10
190.94329818806469
 20
231.6467975012113
 30
0.0
 11
190.25925790141329
 21
233.52618274278311
 31
0.0
  0
LINE
  5
1E3
  8
DATA
  6
CONTINUOUS
 62
     7
 10
189.36648957811661
 20
233.20124164700741
 30
0.0
 11
190.25925790141329
 21
233.52618274278311
 31
0.0
  0
LINE
  5
1E4
  8
DATA
  6
CONTINUOUS
 62
     7
 10
185.16489489400149
 20
238.04810766206029
 30
0.0
 11
185.812222999672
 21
238.76587084700199
 31
0.0
  0
LINE
  5
1E5
  8
DATA
  6
CONTINUOUS
 62
     7
 10
185.812222999672
 20
238.76587084700199
 30
0.0
 11
187.29743051077199
 21
237.42640877252131
 31
0.0
  0
LINE
  5
1E6
  8
DATA
  6
CONTINUOUS
 62
     7
 10
186.672011109918
 20
236.7329381551497
 30
0.0
 11
187.29743051077199
 21
237.42640877252131
 31
0.0
  0
ARC
  5
1E7
  8
DATA
  6
CONTINUOUS
 62
     7
 10
178.0
 20
228.0
 30
0.0
 40
12.5
 50
54.508884762715361
 51
125.47375317831769
  0
LINE
  5
1E8
  8
DATA
  6
CONTINUOUS
 62
     7
 10
-147.5
 20
220.0
 30
0.0
 11
-125.5
 21
220.0
 31
0.0
  0
ARC
  5
1E9
  8
DATA
  6
CONTINUOUS
 62
     7
 10
-147.5
 20
218.5
 30
0.0
 40
1.5
 50
90.0
 51
270.0
  0
ARC
  5
1EA
  8
DATA
  6
CONTINUOUS
 62
     7
 10
-125.5
 20
218.5
 30
0.0
 40
1.5
 50
270.0
 51
90.0
  0
LINE
  5
1EB
  8
DATA
  6
CONTINUOUS
 62
     7
 10
-147.5
 20
217.0
 30
0.0
 11
-125.5
 21
217.0
 31
0.0
  0
LINE
  5
1EC
  8
DATA
  6
CONTINUOUS
 62
     7
 10
-119.5
 20
220.0
 30
0.0
 11
-97.500000000000014
 21
220.0
 31
0.0
  0
ARC
  5
1ED
  8
DATA
  6
CONTINUOUS
 62
     7
 10
-119.5
 20
218.5
 30
0.0
 40
1.5
 50
90.0
 51
270.0
  0
ARC
  5
1EE
  8
DATA
  6
CONTINUOUS
 62
     7
 10
-97.500000000000014
 20
218.5
 30
0.0
 40
1.5
 50
270.0
 51
90.0
  0
LINE
  5
1EF
  8
DATA
  6
CONTINUOUS
 62
     7
 10
-119.5
 20
217.0
 30
0.0
 11
-97.500000000000014
 21
217.0
 31
0.0
  0
LINE
  5
1F0
  8
DATA
  6
CONTINUOUS
 62
     7
 10
-91.500000000000014
 20
220.0
 30
0.0
 11
-69.500000000000014
 21
220.0
 31
0.0
  0
ARC
  5
1F1
  8
DATA
  6
CONTINUOUS
 62
     7
 10
-91.500000000000014
 20
218.5
 30
0.0
 40
1.5
 50
90.0
 51
270.0
  0
ARC
  5
1F2
  8
DATA
  6
CONTINUOUS
 62
     7
 10
-69.500000000000014
 20
218.5
 30
0.0
 40
1.5
 50
270.0
 51
90.0
  0
LINE
  5
1F3
  8
DATA
  6
CONTINUOUS
 62
     7
 10
-91.500000000000014
 20
217.0
 30
0.0
 11
-69.500000000000014
 21
217.0
 31
0.0
  0
LINE
  5
1F4
  8
DATA
  6
CONTINUOUS
 62
     7
 10
-63.500000000000007
 20
220.0
 30
0.0
 11
-41.500000000000007
 21
220.0
 31
0.0
  0
ARC
  5
1F5
  8
DATA
  6
CONTINUOUS
 62
     7
 10
-63.500000000000007
 20
218.5
 30
0.0
 40
1.5
 50
90.0
 51
270.0
  0
ARC
  5
1F6
  8
DATA
  6
CONTINUOUS
 62
     7
 10
-41.500000000000007
 20
218.5
 30
0.0
 40
1.5
 50
270.0
 51
90.0
  0
LINE
  5
1F7
  8
DATA
  6
CONTINUOUS
 62
     7
 10
-63.500000000000007
 20
217.0
 30
0.0
 11
-41.500000000000007
 21
217.0
 31
0.0
  0
LINE
  5
1F8
  8
DATA
  6
CONTINUOUS
 62
     7
 10
-35.500000000000007
 20
220.0
 30
0.0
 11
-13.500000000000011
 21
220.0
 31
0.0
  0
ARC
  5
1F9
  8
DATA
  6
CONTINUOUS
 62
     7
 10
-35.500000000000007
 20
218.5
 30
0.0
 40
1.5
 50
90.0
 51
270.0
  0
ARC
  5
1FA
  8
DATA
  6
CONTINUOUS
 62
     7
 10
-13.500000000000011
 20
218.5
 30
0.0
 40
1.5
 50
270.0
 51
90.0
  0
LINE
  5
1FB
  8
DATA
  6
CONTINUOUS
 62
     7
 10
-35.500000000000007
 20
217.0
 30
0.0
 11
-13.500000000000011
 21
217.0
 31
0.0
  0
LINE
  5
1FC
  8
DATA
  6
CONTINUOUS
 62
     7
 10
-7.5000000000000142
 20
220.0
 30
0.0
 11
14.49999999999998
 21
220.0
 31
0.0
  0
ARC
  5
1FD
  8
DATA
  6
CONTINUOUS
 62
     7
 10
-7.5000000000000142
 20
218.5
 30
0.0
 40
1.5
 50
90.0
 51
270.0
  0
ARC
  5
1FE
  8
DATA
  6
CONTINUOUS
 62
     7
 10
14.49999999999998
 20
218.5
 30
0.0
 40
1.5
 50
270.0
 51
90.0
  0
LINE
  5
1FF
  8
DATA
  6
CONTINUOUS
 62
     7
 10
-7.5000000000000142
 20
217.0
 30
0.0
 11
14.49999999999998
 21
217.0
 31
0.0
  0
LINE
  5
200
  8
DATA
  6
CONTINUOUS
 62
     7
 10
20.499999999999979
 20
220.0
 30
0.0
 11
42.499999999999993
 21
220.0
 31
0.0
  0
ARC
  5
201
  8
DATA
  6
CONTINUOUS
 62
     7
 10
20.499999999999979
 20
218.5
 30
0.0
 40
1.5
 50
90.0
 51
270.0
  0
ARC
  5
202
  8
DATA
  6
CONTINUOUS
 62
     7
 10
42.499999999999993
 20
218.5
 30
0.0
 40
1.5
 50
270.0
 51
90.0
  0
LINE
  5
203
  8
DATA
  6
CONTINUOUS
 62
     7
 10
20.499999999999979
 20
217.0
 30
0.0
 11
42.499999999999993
 21
217.0
 31
0.0
  0
LINE
  5
204
  8
DATA
  6
CONTINUOUS
 62
     7
 10
48.499999999999979
 20
220.0
 30
0.0
 11
70.499999999999986
 21
220.0
 31
0.0
  0
ARC
  5
205
  8
DATA
  6
CONTINUOUS
 62
     7
 10
48.499999999999979
 20
218.5
 30
0.0
 40
1.5
 50
90.0
 51
270.0
  0
ARC
  5
206
  8
DATA
  6
CONTINUOUS
 62
     7
 10
70.499999999999986
 20
218.5
 30
0.0
 40
1.5
 50
270.0
 51
90.0
  0
LINE
  5
207
  8
DATA
  6
CONTINUOUS
 62
     7
 10
48.499999999999979
 20
217.0
 30
0.0
 11
70.499999999999986
 21
217.0
 31
0.0
  0
LINE
  5
208
  8
DATA
  6
CONTINUOUS
 62
     7
 10
76.499999999999986
 20
220.0
 30
0.0
 11
98.499999999999986
 21
220.0
 31
0.0
  0
ARC
  5
209
  8
DATA
  6
CONTINUOUS
 62
     7
 10
76.499999999999986
 20
218.5
 30
0.0
 40
1.5
 50
90.0
 51
270.0
  0
ARC
  5
20A
  8
DATA
  6
CONTINUOUS
 62
     7
 10
98.499999999999986
 20
218.5
 30
0.0
 40
1.5
 50
270.0
 51
90.0
  0
LINE
  5
20B
  8
DATA
  6
CONTINUOUS
 62
     7
 10
76.499999999999986
 20
217.0
 30
0.0
 11
98.499999999999986
 21
217.0
 31
0.0
  0
LINE
  5
20C
  8
DATA
  6
CONTINUOUS
 62
     7
 10
104.4999999999999
 20
220.0
 30
0.0
 11
126.4999999999999
 21
220.0
 31
0.0
  0
ARC
  5
20D
  8
DATA
  6
CONTINUOUS
 62
     7
 10
104.4999999999999
 20
218.5
 30
0.0
 40
1.5
 50
90.0
 51
270.0
  0
ARC
  5
20E
  8
DATA
  6
CONTINUOUS
 62
     7
 10
126.4999999999999
 20
218.5
 30
0.0
 40
1.5
 50
270.0
 51
90.0
  0
LINE
  5
20F
  8
DATA
  6
CONTINUOUS
 62
     7
 10
104.4999999999999
 20
217.0
 30
0.0
 11
126.4999999999999
 21
217.0
 31
0.0
  0
LINE
  5
210
  8
DATA
  6
CONTINUOUS
 62
     7
 10
-147.5
 20
226.0
 30
0.0
 11
-125.5
 21
226.0
 31
0.0
  0
ARC
  5
211
  8
DATA
  6
CONTINUOUS
 62
     7
 10
-147.5
 20
224.5
 30
0.0
 40
1.5
 50
90.0
 51
270.0
  0
ARC
  5
212
  8
DATA
  6
CONTINUOUS
 62
     7
 10
-125.5
 20
224.5
 30
0.0
 40
1.5
 50
270.0
 51
90.0
  0
LINE
  5
213
  8
DATA
  6
CONTINUOUS
 62
     7
 10
-147.5
 20
223.0
 30
0.0
 11
-125.5
 21
223.0
 31
0.0
  0
LINE
  5
214
  8
DATA
  6
CONTINUOUS
 62
     7
 10
-119.5
 20
226.0
 30
0.0
 11
-97.500000000000014
 21
226.0
 31
0.0
  0
ARC
  5
215
  8
DATA
  6
CONTINUOUS
 62
     7
 10
-119.5
 20
224.5
 30
0.0
 40
1.5
 50
90.0
 51
270.0
  0
ARC
  5
216
  8
DATA
  6
CONTINUOUS
 62
     7
 10
-97.500000000000014
 20
224.5
 30
0.0
 40
1.5
 50
270.0
 51
90.0
  0
LINE
  5
217
  8
DATA
  6
CONTINUOUS
 62
     7
 10
-119.5
 20
223.0
 30
0.0
 11
-97.500000000000014
 21
223.0
 31
0.0
  0
LINE
  5
218
  8
DATA
  6
CONTINUOUS
 62
     7
 10
-91.500000000000014
 20
226.0
 30
0.0
 11
-69.500000000000014
 21
226.0
 31
0.0
  0
ARC
  5
219
  8
DATA
  6
CONTINUOUS
 62
     7
 10
-91.500000000000014
 20
224.5
 30
0.0
 40
1.5
 50
90.0
 51
270.0
  0
ARC
  5
21A
  8
DATA
  6
CONTINUOUS
 62
     7
 10
-69.500000000000014
 20
224.5
 30
0.0
 40
1.5
 50
270.0
 51
90.0
  0
LINE
  5
21B
  8
DATA
  6
CONTINUOUS
 62
     7
 10
-91.500000000000014
 20
223.0
 30
0.0
 11
-69.500000000000014
 21
223.0
 31
0.0
  0
LINE
  5
21C
  8
DATA
  6
CONTINUOUS
 62
     7
 10
-63.500000000000007
 20
226.0
 30
0.0
 11
-41.500000000000007
 21
226.0
 31
0.0
  0
ARC
  5
21D
  8
DATA
  6
CONTINUOUS
 62
     7
 10
-63.500000000000007
 20
224.5
 30
0.0
 40
1.5
 50
90.0
 51
270.0
  0
ARC
  5
21E
  8
DATA
  6
CONTINUOUS
 62
     7
 10
-41.500000000000007
 20
224.5
 30
0.0
 40
1.5
 50
270.0
 51
90.0
  0
LINE
  5
21F
  8
DATA
  6
CONTINUOUS
 62
     7
 10
-63.500000000000007
 20
223.0
 30
0.0
 11
-41.500000000000007
 21
223.0
 31
0.0
  0
LINE
  5
220
  8
DATA
  6
CONTINUOUS
 62
     7
 10
-35.500000000000007
 20
226.0
 30
0.0
 11
-13.500000000000011
 21
226.0
 31
0.0
  0
ARC
  5
221
  8
DATA
  6
CONTINUOUS
 62
     7
 10
-35.500000000000007
 20
224.5
 30
0.0
 40
1.5
 50
90.0
 51
270.0
  0
ARC
  5
222
  8
DATA
  6
CONTINUOUS
 62
     7
 10
-13.500000000000011
 20
224.5
 30
0.0
 40
1.5
 50
270.0
 51
90.0
  0
LINE
  5
223
  8
DATA
  6
CONTINUOUS
 62
     7
 10
-35.500000000000007
 20
223.0
 30
0.0
 11
-13.500000000000011
 21
223.0
 31
0.0
  0
LINE
  5
224
  8
DATA
  6
CONTINUOUS
 62
     7
 10
-7.5000000000000142
 20
226.0
 30
0.0
 11
14.49999999999998
 21
226.0
 31
0.0
  0
ARC
  5
225
  8
DATA
  6
CONTINUOUS
 62
     7
 10
-7.5000000000000142
 20
224.5
 30
0.0
 40
1.5
 50
90.0
 51
270.0
  0
ARC
  5
226
  8
DATA
  6
CONTINUOUS
 62
     7
 10
14.49999999999998
 20
224.5
 30
0.0
 40
1.5
 50
270.0
 51
90.0
  0
LINE
  5
227
  8
DATA
  6
CONTINUOUS
 62
     7
 10
-7.5000000000000142
 20
223.0
 30
0.0
 11
14.49999999999998
 21
223.0
 31
0.0
  0
LINE
  5
228
  8
DATA
  6
CONTINUOUS
 62
     7
 10
20.499999999999979
 20
226.0
 30
0.0
 11
42.499999999999993
 21
226.0
 31
0.0
  0
ARC
  5
229
  8
DATA
  6
CONTINUOUS
 62
     7
 10
20.499999999999979
 20
224.5
 30
0.0
 40
1.5
 50
90.0
 51
270.0
  0
ARC
  5
22A
  8
DATA
  6
CONTINUOUS
 62
     7
 10
42.499999999999993
 20
224.5
 30
0.0
 40
1.5
 50
270.0
 51
90.0
  0
LINE
  5
22B
  8
DATA
  6
CONTINUOUS
 62
     7
 10
20.499999999999979
 20
223.0
 30
0.0
 11
42.499999999999993
 21
223.0
 31
0.0
  0
LINE
  5
22C
  8
DATA
  6
CONTINUOUS
 62
     7
 10
48.499999999999979
 20
226.0
 30
0.0
 11
70.499999999999986
 21
226.0
 31
0.0
  0
ARC
  5
22D
  8
DATA
  6
CONTINUOUS
 62
     7
 10
48.499999999999979
 20
224.5
 30
0.0
 40
1.5
 50
90.0
 51
270.0
  0
ARC
  5
22E
  8
DATA
  6
CONTINUOUS
 62
     7
 10
70.499999999999986
 20
224.5
 30
0.0
 40
1.5
 50
270.0
 51
90.0
  0
LINE
  5
22F
  8
DATA
  6
CONTINUOUS
 62
     7
 10
48.499999999999979
 20
223.0
 30
0.0
 11
70.499999999999986
 21
223.0
 31
0.0
  0
LINE
  5
230
  8
DATA
  6
CONTINUOUS
 62
     7
 10
76.499999999999986
 20
226.0
 30
0.0
 11
98.499999999999986
 21
226.0
 31
0.0
  0
ARC
  5
231
  8
DATA
  6
CONTINUOUS
 62
     7
 10
76.499999999999986
 20
224.5
 30
0.0
 40
1.5
 50
90.0
 51
270.0
  0
ARC
  5
232
  8
DATA
  6
CONTINUOUS
 62
     7
 10
98.499999999999986
 20
224.5
 30
0.0
 40
1.5
 50
270.0
 51
90.0
  0
LINE
  5
233
  8
DATA
  6
CONTINUOUS
 62
     7
 10
76.499999999999986
 20
223.0
 30
0.0
 11
98.499999999999986
 21
223.0
 31
0.0
  0
LINE
  5
234
  8
DATA
  6
CONTINUOUS
 62
     7
 10
104.4999999999999
 20
226.0
 30
0.0
 11
126.4999999999999
 21
226.0
 31
0.0
  0
ARC
  5
235
  8
DATA
  6
CONTINUOUS
 62
     7
 10
104.4999999999999
 20
224.5
 30
0.0
 40
1.5
 50
90.0
 51
270.0
  0
ARC
  5
236
  8
DATA
  6
CONTINUOUS
 62
     7
 10
126.4999999999999
 20
224.5
 30
0.0
 40
1.5
 50
270.0
 51
90.0
  0
LINE
  5
237
  8
DATA
  6
CONTINUOUS
 62
     7
 10
104.4999999999999
 20
223.0
 30
0.0
 11
126.4999999999999
 21
223.0
 31
0.0
  0
TEXT
  5
238
  8
DATA
 62
     7
 10
-184.52083333333329
 20
255.72490854289131
 30
0.0
 40
4.2333333333333334
  1
MAINS FUSE
 50
180.0
 41
0.75
 11
-184.52083333333329
 21
251.49157520955791
 31
0.0
 73
     3
  0
TEXT
  5
239
  8
DATA
 62
     7
 10
-187.1666666666666
 20
262.55987389114961
 30
0.0
 40
2.822222222222222
  1
90V - 240V～
 50
180.0
 41
0.75
 11
-187.1666666666666
 21
259.73765166892741
 31
0.0
 73
     3
  0
TEXT
  5
23A
  8
DATA
 62
     7
 10
-187.1666666666666
 20
267.9677306279201
 30
0.0
 40
2.822222222222222
  1
T1.6A / 250V
 50
180.0
 41
0.75
 11
-187.1666666666666
 21
265.14550840569791
 31
0.0
 73
     3
  0
TEXT
  5
23B
  8
DATA
 62
     7
 10
-158.3854166666666
 20
227.23333333333329
 30
0.0
 40
4.2333333333333334
  1
INPUT
 50
180.0
 41
0.75
 11
-158.3854166666666
 21
223.0
 31
0.0
 73
     3
  0
ARC
  5
23C
  8
DATA
  6
CONTINUOUS
 62
     7
 10
-166.875
 20
216.8276766651594
 30
0.0
 40
2.6516504294495529
 50
45.0
 51
135.0
  0
ARC
  5
23D
  8
DATA
  6
CONTINUOUS
 62
     7
 10
-163.125
 20
220.5776766651594
 30
0.0
 40
2.6516504294495329
 50
224.9999999999996
 51
315.0000000000004
  0
TEXT
  5
23E
  8
DATA
 62
     7
 10
-154.4166666666666
 20
232.188219722599
 30
0.0
 40
2.822222222222222
  1
90V - 240V～
 50
180.0
 41
0.75
 11
-154.4166666666666
 21
229.36599750037681
 31
0.0
 73
     3
  0
TEXT
  5
23F
  8
DATA
 62
     7
 10
-157.06249999999989
 20
237.05891104251441
 30
0.0
 40
2.822222222222222
  1
50 - 60Hz
 50
180.0
 41
0.75
 11
-157.06249999999989
 21
234.23668882029219
 31
0.0
 73
     3
  0
TEXT
  5
240
  8
DATA
 62
     7
 10
-157.06249999999989
 20
241.9296023624299
 30
0.0
 40
2.822222222222222
  1
100 WATTS
 50
180.0
 41
0.75
 11
-157.06249999999989
 21
239.10738014020771
 31
0.0
 73
     3
  0
TEXT
  5
241
  8
DATA
 62
     7
 10
-154.4166666666666
 20
246.26312826549031
 30
0.0
 40
2.822222222222222
  1
AUTO RANGING
 50
180.0
 41
0.75
 11
-154.4166666666666
 21
243.44090604326809
 31
0.0
 73
     3
  0
LINE
  5
242
  8
DATA
  6
CONTINUOUS
 62
     7
 10
-213.0
 20
59.5
 30
0.0
 11
-213.0
 21
56.0
 31
0.0
  0
LINE
  5
243
  8
DATA
  6
CONTINUOUS
 62
     7
 10
-213.0
 20
59.5
 30
0.0
 11
-182.5
 21
59.5
 31
0.0
  0
LINE
  5
244
  8
DATA
  6
CONTINUOUS
 62
     7
 10
-182.5
 20
59.5
 30
0.0
 11
-182.5
 21
56.0
 31
0.0
  0
LINE
  5
245
  8
DATA
  6
CONTINUOUS
 62
     7
 10
193.0
 20
64.0
 30
0.0
 11
193.0
 21
57.961308144666262
 31
0.0
  0
LINE
  5
246
  8
DATA
  6
CONTINUOUS
 62
     7
 10
193.0
 20
64.0
 30
0.0
 11
163.0
 21
64.0
 31
0.0
  0
ARC
  5
247
  8
DATA
  6
CONTINUOUS
 62
     7
 10
163.49999999999989
 20
54.749999999999979
 30
0.0
 40
3.2500000000000111
 50
22.619864948040611
 51
157.3801350519594
  0
LINE
  5
248
  8
DATA
  6
CONTINUOUS
 62
     7
 10
163.0
 20
64.0
 30
0.0
 11
163.0
 21
57.961308144666262
 31
0.0
  0
ARC
  5
249
  8
DATA
  6
CONTINUOUS
 62
     7
 10
192.5
 20
54.749999999999979
 30
0.0
 40
3.2500000000000182
 50
22.619864948040561
 51
157.38013505195929
  0
LINE
  5
24A
  8
DATA
  6
CONTINUOUS
 62
     7
 10
-212.5
 20
-102.0
 30
0.0
 11
-212.5
 21
-100.0
 31
0.0
  0
LINE
  5
24B
  8
DATA
  6
CONTINUOUS
 62
     7
 10
-187.5
 20
-102.0
 30
0.0
 11
-187.5
 21
-100.0
 31
0.0
  0
LINE
  5
24C
  8
DATA
  6
CONTINUOUS
 62
     7
 10
-187.5
 20
-102.0
 30
0.0
 11
-212.5
 21
-102.0
 31
0.0
  0
LINE
  5
24D
  8
DATA
  6
CONTINUOUS
 62
     7
 10
-209.5
 20
-108.4999999999999
 30
0.0
 11
-209.5
 21
-102.0
 31
0.0
  0
LINE
  5
24E
  8
DATA
  6
CONTINUOUS
 62
     7
 10
-190.5
 20
-108.4999999999999
 30
0.0
 11
-190.5
 21
-102.0
 31
0.0
  0
LINE
  5
24F
  8
DATA
  6
CONTINUOUS
 62
     7
 10
-209.5
 20
-108.4999999999999
 30
0.0
 11
-190.5
 21
-108.4999999999999
 31
0.0
  0
LINE
  5
250
  8
DATA
  6
CONTINUOUS
 62
     7
 10
459.49999999999989
 20
-254.0
 30
0.0
 11
459.49999999999989
 21
-259.0
 31
0.0
  0
LINE
  5
251
  8
DATA
  6
CONTINUOUS
 62
     7
 10
464.0
 20
-254.0
 30
0.0
 11
457.96130814466619
 21
-254.0
 31
0.0
  0
LINE
  5
252
  8
DATA
  6
CONTINUOUS
 62
     7
 10
464.0
 20
-254.0
 30
0.0
 11
464.0
 21
-224.0
 31
0.0
  0
ARC
  5
253
  8
DATA
  6
CONTINUOUS
 62
     7
 10
454.75
 20
-224.5
 30
0.0
 40
3.25
 50
292.6198649480404
 51
67.38013505195957
  0
LINE
  5
254
  8
DATA
  6
CONTINUOUS
 62
     7
 10
464.0
 20
-224.0
 30
0.0
 11
457.96130814466619
 21
-224.0
 31
0.0
  0
ARC
  5
255
  8
DATA
  6
CONTINUOUS
 62
     7
 10
454.75
 20
-253.5
 30
0.0
 40
3.25
 50
292.6198649480404
 51
67.38013505195957
  0
LINE
  5
256
  8
DATA
  6
CONTINUOUS
 62
     7
 10
-196.00016670371181
 20
298.50200000000001
 30
0.0
 11
-214.4998332962881
 21
298.50200000000001
 31
0.0
  0
LINE
  5
257
  8
DATA
  6
CONTINUOUS
 62
     7
 10
-195.24983329628751
 20
289.49999999999989
 30
0.0
 11
-196.00016670371181
 21
298.50200000000001
 31
0.0
  0
LINE
  5
258
  8
DATA
  6
CONTINUOUS
 62
     7
 10
-215.25016670371241
 20
289.49999999999989
 30
0.0
 11
-214.4998332962881
 21
298.50200000000001
 31
0.0
  0
LINE
  5
259
  8
DATA
  6
CONTINUOUS
 62
     7
 10
196.99983329628799
 20
298.50200000000001
 30
0.0
 11
178.50016670371181
 21
298.50200000000001
 31
0.0
  0
LINE
  5
25A
  8
DATA
  6
CONTINUOUS
 62
     7
 10
197.75016670371241
 20
289.49999999999989
 30
0.0
 11
196.99983329628799
 21
298.50200000000001
 31
0.0
  0
LINE
  5
25B
  8
DATA
  6
CONTINUOUS
 62
     7
 10
177.74983329628751
 20
289.49999999999989
 30
0.0
 11
178.50016670371181
 21
298.50200000000001
 31
0.0
  0
LINE
  5
25C
  8
DATA
  6
CONTINUOUS
 62
     7
 10
459.49999999999989
 20
-259.0
 30
0.0
 11
456.0
 21
-259.0
 31
0.0
  0
LINE
  5
25D
  8
DATA
  6
CONTINUOUS
 62
     7
 10
298.0
 20
-234.5
 30
0.0
 11
298.0
 21
-264.5
 31
0.0
  0
LINE
  5
25E
  8
DATA
  6
CONTINUOUS
 62
     7
 10
298.0
 20
-234.5
 30
0.0
 11
300.0
 21
-234.5
 31
0.0
  0
LINE
  5
25F
  8
DATA
  6
CONTINUOUS
 62
     7
 10
298.0
 20
-264.5
 30
0.0
 11
300.0
 21
-264.5
 31
0.0
  0
LINE
  5
260
  8
DATA
  6
CONTINUOUS
 62
     7
 10
298.0
 20
-238.24999999999989
 30
0.0
 11
291.5
 21
-244.49999999999989
 31
0.0
  0
LINE
  5
261
  8
DATA
  6
CONTINUOUS
 62
     7
 10
291.5
 20
-244.49999999999989
 30
0.0
 11
298.0
 21
-260.74999999999989
 31
0.0
  0
LINE
  5
262
  8
DATA
  6
CONTINUOUS
 62
     7
 10
-233.9999999627471
 20
56.0
 30
0.0
 11
-284.99999996274698
 21
56.0
 31
0.0
  0
LINE
  5
263
  8
DATA
  6
CONTINUOUS
 62
     7
 10
-259.99999996274698
 20
-100.0
 30
0.0
 11
-284.99999996274698
 21
-100.0
 31
0.0
  0
LINE
  5
265
  8
DATA
 62
     7
 10
-275.0
 20
56.0
 30
0.0
 11
-270.74630657015592
 21
40.125
 31
0.0
  0
LINE
  5
266
  8
DATA
 62
     7
 10
-275.0
 20
56.0
 30
0.0
 11
-279.25369342984402
 21
40.125
 31
0.0
  0
LINE
  5
267
  8
DATA
 62
     7
 10
-275.0
 20
-100.0
 30
0.0
 11
-279.25369342984402
 21
-84.124999999999986
 31
0.0
  0
LINE
  5
268
  8
DATA
 62
     7
 10
-275.0
 20
-100.0
 30
0.0
 11
-270.74630657015592
 21
-84.124999999999986
 31
0.0
  0
LINE
  5
264
  8
DATA
  6
CONTINUOUS
 62
     7
 10
-275.0
 20
56.0
 30
0.0
 11
-275.0
 21
-100.0
 31
0.0
  0
TEXT
  5
26A
  8
DATA
 62
     7
 10
349.99999999999989
 20
-403.01578999999981
 30
0.0
 40
12.699999999999999
  1
Soundcraft
 41
0.75
 11
349.99999999999989
 21
-390.31578999999982
 31
0.0
 73
     3
  0
TEXT
  5
2AB
  8
DATA
 62
     7
 10
-283.52777775915132
 20
-35.229166666666679
 30
0.0
 40
14.111111111111111
  1
156
 50
90.0
  7
TXT
 11
-297.63888887026241
 21
-35.229166666666679
 31
0.0
 73
     3
  0
LINE
  5
2AC
  8
DATA
  6
CONTINUOUS
 62
     7
 10
-209.75
 20
245.0
 30
0.0
 11
-185.75
 21
245.0
 31
0.0
  0
LINE
  5
2AD
  8
DATA
  6
CONTINUOUS
 62
     7
 10
-185.75
 20
245.0
 30
0.0
 11
-185.75
 21
236.0
 31
0.0
  0
LINE
  5
2AE
  8
DATA
  6
CONTINUOUS
 62
     7
 10
-185.75
 20
236.0
 30
0.0
 11
-209.75
 21
236.0
 31
0.0
  0
LINE
  5
2AF
  8
DATA
  6
CONTINUOUS
 62
     7
 10
-209.75
 20
236.0
 30
0.0
 11
-209.75
 21
245.0
 31
0.0
  0
TEXT
  5
2B0
  8
DIMNSIONS
 62
     7
 10
-30.798611111111121
 20
108.52777775915131
 30
0.0
 40
14.111111111111111
  1
430.5
  7
TXT
 11
-30.798611111111121
 21
122.63888887026241
 31
0.0
 73
     3
  0
TEXT
  5
2B1
  8
DIMNSIONS
 62
     7
 10
-30.798611111111121
 20
-341.47222224084862
 30
0.0
 40
14.111111111111111
  1
482.5
  7
TXT
 11
-30.798611111111121
 21
-327.36111112973748
 31
0.0
 73
     3
  0
TEXT
  5
2B2
  8
DIMNSIONS
 62
     7
 10
-283.52777775915132
 20
-264.3194444444444
 30
0.0
 40
14.111111111111111
  1
89
 50
90.0
  7
TXT
 11
-297.63888887026241
 21
-264.3194444444444
 31
0.0
 73
     3
  0
ENDSEC
  0
EOF
