  0
SECTION
  2
HEADER
  9
$ACADVER
  1
AC1004
  9
$INSBASE
 10
0.0
 20
0.0
  9
$EXTMIN
 10
-132.346667
 20
-137.9
  9
$EXTMAX
 10
4067.653333
 20
5802.1
  9
$LIMMIN
 10
-132.346667
 20
-137.9
  9
$LIMMAX
 10
4067.653333
 20
5802.1
  9
$VIEWCTR
 10
6.0
 20
4.5
  9
$VIEWSIZE
 40
9.0
  9
$SNAPMODE
 70
     0
  9
$SNAPUNIT
 10
62.5
 20
62.5
  9
$SNAPBASE
 10
0.0
 20
0.0
  9
$SNAPANG
 50
0.0
  9
$SNAPSTYLE
 70
     0
  9
$SNAPISOPAIR
 70
     0
  9
$GRIDMODE
 70
     1
  9
$GRIDUNIT
 10
125.0
 20
125.0
  9
$ORTHOMODE
 70
     0
  9
$REGENMODE
 70
     1
  9
$FILLMODE
 70
     1
  9
$QTEXTMODE
 70
     0
  9
$DRAGMODE
 70
     2
  9
$LTSCALE
 40
5.0
  9
$OSMODE
 70
     1
  9
$ATTMODE
 70
     1
  9
$TEXTSIZE
 40
0.2
  9
$TRACEWID
 40
0.05
  9
$TEXTSTYLE
  7
STANDARD
  9
$CLAYER
  8
DATA
  9
$CELTYPE
  6
CONTINUOUS
  9
$CECOLOR
 62
     7
  9
$DIMSCALE
 40
1.0
  9
$DIMASZ
 40
0.18
  9
$DIMEXO
 40
0.0625
  9
$DIMDLI
 40
0.38
  9
$DIMRND
 40
0.0
  9
$DIMDLE
 40
0.0
  9
$DIMEXE
 40
0.18
  9
$DIMTP
 40
0.0
  9
$DIMTM
 40
0.0
  9
$DIMTXT
 40
0.18
  9
$DIMCEN
 40
0.09
  9
$DIMTSZ
 40
0.0
  9
$DIMTOL
 70
     0
  9
$DIMLIM
 70
     0
  9
$DIMTIH
 70
     1
  9
$DIMTOH
 70
     1
  9
$DIMSE1
 70
     0
  9
$DIMSE2
 70
     0
  9
$DIMTAD
 70
     0
  9
$DIMZIN
 70
     0
  9
$DIMBLK
  1

  9
$DIMASO
 70
     1
  9
$DIMSHO
 70
     1
  9
$DIMPOST
  1

  9
$DIMAPOST
  1

  9
$DIMALT
 70
     0
  9
$DIMALTD
 70
     2
  9
$DIMALTF
 40
25.4
  9
$DIMLFAC
 40
1.0
  9
$LUNITS
 70
     2
  9
$LUPREC
 70
     4
  9
$AXISMODE
 70
     0
  9
$AXISUNIT
 10
0.0
 20
0.0
  9
$SKETCHINC
 40
0.1
  9
$FILLETRAD
 40
5.0
  9
$AUNITS
 70
     0
  9
$AUPREC
 70
     0
  9
$MENU
  1
acad
  9
$ELEVATION
 40
0.0
  9
$THICKNESS
 40
0.0
  9
$VIEWDIR
 10
0.0
 20
0.0
 30
1.0
  9
$LIMCHECK
 70
     0
  9
$BLIPMODE
 70
     1
  9
$CHAMFERA
 40
0.0
  9
$CHAMFERB
 40
0.0
  9
$FASTZOOM
 70
     1
  9
$SKPOLY
 70
     0
  9
$TDCREATE
 40
0.0
  9
$TDUPDATE
 40
0.0
  9
$TDINDWG
 40
0.0
  9
$TDUSRTIMER
 40
0.0
  9
$USRTIMER
 70
     1
  9
$ANGBASE
 50
0.0
  9
$ANGDIR
 70
     0
  9
$PDMODE
 70
     0
  9
$PDSIZE
 40
0.0
  9
$PLINEWID
 40
0.0
  9
$COORDS
 70
     1
  9
$SPLFRAME
 70
     0
  9
$SPLINESEGS
 70
    10
  9
$ATTDIA
 70
     0
  9
$ATTREQ
 70
     1
  9
$USERI1
 70
     0
  9
$USERI2
 70
     0
  9
$USERI3
 70
     0
  9
$USERI4
 70
     0
  9
$USERI5
 70
     0
  9
$USERR1
 40
0.0
  9
$USERR2
 40
0.0
  9
$USERR3
 40
0.0
  9
$USERR4
 40
0.0
  9
$USERR5
 40
0.0
  0
ENDSEC
  0
SECTION
  2
TABLES
  0
TABLE
  2
LTYPE
 70
    11
  0
LTYPE
  2
CONTINUOUS
 70
     0
  3
Solid line
 72
    65
 73
     0
 40
0.0
  0
LTYPE
  2
DASHED
 70
     0
  3
__ __ __ __ __ __ __ __ __ __ __ __ __ __ __
 72
    65
 73
     2
 40
0.75
 49
0.5
 49
-0.25
  0
LTYPE
  2
HIDDEN
 70
     0
  3
_ _ _ _ _ _ _ _ _ _ _ _ _ _ _ _ _ _ _ _ _ _ 
 72
    65
 73
     2
 40
0.25
 49
0.125
 49
-0.125
  0
LTYPE
  2
CENTER
 70
     0
  3
____ _ ____ _ ____ _ ____ _ ____ _ ____ _ __
 72
    65
 73
     4
 40
2.0
 49
1.25
 49
-0.25
 49
0.25
 49
-0.25
  0
LTYPE
  2
PHANTOM
 70
     0
  3
_____ _ _ _____ _ _ _____ _ _ _____ _ _ ____
 72
    65
 73
     6
 40
2.5
 49
1.25
 49
-0.25
 49
0.25
 49
-0.25
 49
0.25
 49
-0.25
  0
LTYPE
  2
DOT
 70
     0
  3
............................................
 72
    65
 73
     2
 40
0.25
 49
0.0
 49
-0.25
  0
LTYPE
  2
DASHDOT
 70
     0
  3
__ . __ . __ . __ . __ . __ . __ . __ . __ .
 72
    65
 73
     4
 40
1.0
 49
0.5
 49
-0.25
 49
0.0
 49
-0.25
  0
LTYPE
  2
BORDER
 70
     0
  3
__ __ . __ __ . __ __ . __ __ . __ __ . __ _
 72
    65
 73
     6
 40
1.75
 49
0.5
 49
-0.25
 49
0.5
 49
-0.25
 49
0.0
 49
-0.25
  0
LTYPE
  2
DIVIDE
 70
     0
  3
__ . . __ . . __ . . __ . . __ . . __ . . __
 72
    65
 73
     6
 40
1.25
 49
0.5
 49
-0.25
 49
0.0
 49
-0.25
 49
0.0
 49
-0.25
  0
LTYPE
  2
DOTS
 70
     0
  3
close                                       
 72
    65
 73
     2
 40
0.1
 49
0.05
 49
-0.05
  0
LTYPE
  2
CLOSE
 70
     0
  3
                                            
 72
    65
 73
     0
 40
0.0
  0
ENDTAB
  0
TABLE
  2
LAYER
 70
     6
  0
LAYER
  2
0
 70
     0
 62
     7
  6
CONTINUOUS
  0
LAYER
  2
LAYER01
 70
     0
 62
     7
  6
CONTINUOUS
  0
LAYER
  2
DATA
 70
     0
 62
     7
  6
CONTINUOUS
  0
LAYER
  2
DIMENSIONS
 70
     0
 62
     7
  6
CONTINUOUS
  0
LAYER
  2
SPEC
 70
     0
 62
     7
  6
CONTINUOUS
  0
LAYER
  2
HIBINO-BASE
 70
     0
 62
     7
  6
CONTINUOUS
  0
ENDTAB
  0
TABLE
  2
STYLE
 70
     2
  0
STYLE
  2
STANDARD
 70
     0
 40
0.0
 41
1.0
 50
0.0
 71
     0
 42
0.2
  3
txt
  4

  0
STYLE
  2
TTF_DEFAULT
 70
     0
 40
0.0
 41
1.0
 50
0.0
 71
     0
 42
0.0
  3
txt
  4
BIGFONT
  0
ENDTAB
  0
TABLE
  2
VIEW
 70
     0
  0
ENDTAB
  0
ENDSEC
  0
SECTION
  2
BLOCKS
  0
ENDSEC
  0
SECTION
  2
ENTITIES
  0
LINE
  8
DIMENSIONS
  6
CONTINUOUS
 62
     7
 10
1937.5
 20
1000.0
 11
2753.094
 21
1000.0
  0
LINE
  8
DIMENSIONS
  6
CONTINUOUS
 62
     7
 10
1977.5
 20
993.3336
 11
1937.5
 21
1000.0
  0
LINE
  8
DIMENSIONS
  6
CONTINUOUS
 62
     7
 10
1977.5
 20
1006.6664
 11
1937.5
 21
1000.0
  0
LINE
  8
DATA
  6
CONTINUOUS
 62
     7
 10
1937.5
 20
1905.594
 11
2753.094
 21
1905.594
  0
LINE
  8
DATA
  6
CONTINUOUS
 62
     7
 10
2753.094
 20
1125.0
 11
1937.5
 21
1125.0
  0
LINE
  8
SPEC
  6
CONTINUOUS
 62
     7
 10
350.0
 20
5300.0
 11
2850.0
 21
5300.0
  0
LINE
  8
SPEC
  6
CONTINUOUS
 62
     7
 10
350.0
 20
4100.0
 11
2850.0
 21
4100.0
  0
LINE
  8
SPEC
  6
CONTINUOUS
 62
     7
 10
350.0
 20
4343.75
 11
2850.0
 21
4343.75
  0
LINE
  8
SPEC
  6
CONTINUOUS
 62
     7
 10
350.0
 20
4493.75
 11
2850.0
 21
4493.75
  0
LINE
  8
SPEC
  6
CONTINUOUS
 62
     7
 10
350.0
 20
4700.0
 11
2850.0
 21
4700.0
  0
LINE
  8
SPEC
  6
CONTINUOUS
 62
     7
 10
350.0
 20
4943.75
 11
2850.0
 21
4943.75
  0
LINE
  8
SPEC
  6
CONTINUOUS
 62
     7
 10
350.0
 20
3968.75
 11
2850.0
 21
3968.75
  0
LINE
  8
SPEC
  6
CONTINUOUS
 62
     7
 10
350.0
 20
3725.0
 11
2850.0
 21
3725.0
  0
TEXT
  8
SPEC
  6
CONTINUOUS
 62
     7
 10
1866.056582
 20
3026.25
 40
50.0
  1
0.003% (EQ IN)
  7
TTF_DEFAULT
  0
LINE
  8
SPEC
  6
CONTINUOUS
 62
     7
 10
350.0
 20
3143.75
 11
2850.0
 21
3143.75
  0
LINE
  8
SPEC
  6
CONTINUOUS
 62
     7
 10
350.0
 20
2447.5
 11
2850.0
 21
2447.5
  0
LINE
  8
SPEC
  6
CONTINUOUS
 62
     7
 10
350.0
 20
2712.5
 11
2850.0
 21
2712.5
  0
TEXT
  8
SPEC
  6
CONTINUOUS
 62
     7
 10
1137.5
 20
2725.0
 40
50.0
  1
マイク／ ライン入力→各出力 : +0/-0.5dB (利得30dB , 20Hz～20kHz)
  7
TTF_DEFAULT
  0
LINE
  8
SPEC
  6
CONTINUOUS
 62
     7
 10
350.0
 20
2937.5
 11
2850.0
 21
2937.5
  0
LINE
  8
SPEC
  6
CONTINUOUS
 62
     7
 10
350.0
 20
2787.5
 11
2850.0
 21
2787.5
  0
TEXT
  8
SPEC
  6
CONTINUOUS
 62
     7
 10
1594.822154
 20
2820.0
 40
50.0
  1
UNITY -93dBu (EQ IN)
  7
TTF_DEFAULT
  0
TEXT
  8
SPEC
  6
CONTINUOUS
 62
     7
 10
1137.5
 20
2385.0
 40
50.0
  1
24ch : 1059.4(W)×227.8(H)×780.8(D)mm / 44kg
  7
TTF_DEFAULT
  0
TEXT
  8
SPEC
  6
CONTINUOUS
 62
     7
 10
1137.5
 20
3662.5
 40
50.0
  1
グループ出力（リンク設定）: +4dBu/-10dBV
  7
TTF_DEFAULT
  0
TEXT
  8
SPEC
  6
CONTINUOUS
 62
     7
 10
1137.5
 20
3332.5
 40
50.0
  1
コントロールルーム , ALT , ヘッドホーン : +14dBu (MAX)
  7
TTF_DEFAULT
  0
TEXT
  8
SPEC
  6
CONTINUOUS
 62
     7
 10
1137.5
 20
3081.25
 40
50.0
  1
マイク／ ライン入力→DIRECT出力 : 0.002%(EQ OUT)
  7
TTF_DEFAULT
  0
TEXT
  8
SPEC
  6
CONTINUOUS
 62
     7
 10
1137.5
 20
2875.0
 40
50.0
  1
チャンネルフェーダー : UNITY -95dBu (EQ OUT)
  7
TTF_DEFAULT
  0
TEXT
  8
SPEC
  6
CONTINUOUS
 62
     7
 10
1220.995584
 20
4962.5
 40
50.0
  1
（負荷150Ωマイク , -30dBuレベル) : -122dBu
  7
TTF_DEFAULT
  0
TEXT
  8
SPEC
  6
CONTINUOUS
 62
     7
 10
1137.5
 20
5017.5
 40
50.0
  1
EIN (22Hz～22kHz , インサートポイント , -60duレベル) : -128dBu
  7
TTF_DEFAULT
  0
TEXT
  8
SPEC
  6
CONTINUOUS
 62
     7
 10
1137.5
 20
5237.5
 40
50.0
  1
入力レベルレンジ (0VU出力) : -8dBu～-60dBu
  7
TTF_DEFAULT
  0
TEXT
  8
SPEC
  6
CONTINUOUS
 62
     7
 10
1137.5
 20
4881.25
 40
50.0
  1
入力レベルレンジ (0VU出力) : +12dBu～-40dBu
  7
TTF_DEFAULT
  0
TEXT
  8
SPEC
  6
CONTINUOUS
 62
     7
 10
1137.5
 20
4376.25
 40
50.0
  1
グループ出力セレクト時（リンク設定） : +4dBu/-10dBV
  7
TTF_DEFAULT
  0
TEXT
  8
SPEC
  6
CONTINUOUS
 62
     7
 10
1137.5
 20
2330.0
 40
50.0
  1
32ch : 1303.3(W)×227.8(H)×780.8(D)mm / 53.6kg
  7
TTF_DEFAULT
  0
TEXT
  8
SPEC
  6
CONTINUOUS
 62
     7
 10
1137.5
 20
2275.0
 40
50.0
  1
24exp : 815.6(W)×227.8(H)×780.8(D)mm / 33kg
  7
TTF_DEFAULT
  0
LINE
  8
SPEC
  6
CONTINUOUS
 62
     7
 10
350.0
 20
2241.25
 11
2850.0
 21
2241.25
  0
POLYLINE
  8
HIBINO-BASE
  6
CONTINUOUS
 62
     7
 66
     1
 70
     1
 40
5.0
 41
5.0
  0
VERTEX
  8
HIBINO-BASE
 10
200.0
 20
300.0
  0
VERTEX
  8
HIBINO-BASE
 10
200.0
 20
5500.0
  0
VERTEX
  8
HIBINO-BASE
 10
3800.0
 20
5500.0
  0
VERTEX
  8
HIBINO-BASE
 10
3800.0
 20
300.0
  0
SEQEND
  8
HIBINO-BASE
  0
TEXT
  8
SPEC
  6
CONTINUOUS
 62
     7
 10
362.5
 20
2820.0
 40
50.0
  1
(22Hz～22kHz , マイク利得-10dB)
  7
TTF_DEFAULT
  0
LINE
  8
SPEC
  6
CONTINUOUS
 62
     7
 10
350.0
 20
5300.0
 11
350.0
 21
2241.25
  0
LINE
  8
SPEC
  6
CONTINUOUS
 62
     7
 10
1125.0
 20
5300.0
 11
1125.0
 21
2241.25
  0
LINE
  8
DIMENSIONS
  6
CONTINUOUS
 62
     7
 10
500.0
 20
1000.0
 11
1559.434
 21
1000.0
  0
LINE
  8
DIMENSIONS
  6
CONTINUOUS
 62
     7
 10
500.0
 20
875.0
 11
1803.274
 21
875.0
  0
TEXT
  8
DIMENSIONS
  6
CONTINUOUS
 62
     7
 10
889.096109
 20
1025.0
 40
50.0
  1
1059.4 (24ch)
  7
TTF_DEFAULT
  0
TEXT
  8
DIMENSIONS
  6
CONTINUOUS
 62
     7
 10
889.096109
 20
900.0
 40
50.0
  1
1303.3 (32ch)
  7
TTF_DEFAULT
  0
LINE
  8
DATA
  6
CONTINUOUS
 62
     7
 10
500.0
 20
1905.796
 11
1803.274
 21
1905.796
  0
LINE
  8
DATA
  6
CONTINUOUS
 62
     7
 10
1803.274
 20
1125.0
 11
500.0
 21
1125.0
  0
LINE
  8
DATA
  6
CONTINUOUS
 62
     7
 10
535.0
 20
1738.114056
 11
1768.274
 21
1738.114056
  0
LINE
  8
DATA
  6
CONTINUOUS
 62
     7
 10
535.0
 20
1768.114056
 11
1768.274
 21
1768.114056
  0
LINE
  8
DATA
  6
CONTINUOUS
 62
     7
 10
535.0
 20
1169.797999
 11
1768.274
 21
1169.797999
  0
TEXT
  8
HIBINO-BASE
  6
CONTINUOUS
 62
     7
 10
343.68
 20
171.8264
 40
80.0
  1
Hibino Corporation
  7
TTF_DEFAULT
  0
LINE
  8
DIMENSIONS
  6
CONTINUOUS
 62
     7
 10
437.5
 20
1905.796
 11
437.5
 21
1125.0
  0
LINE
  8
DATA
  6
CONTINUOUS
 62
     7
 10
500.0
 20
1125.0
 11
500.0
 21
1905.796
  0
LINE
  8
DATA
  6
CONTINUOUS
 62
     7
 10
535.0
 20
1125.0
 11
535.0
 21
1905.796
  0
LINE
  8
DATA
  6
CONTINUOUS
 62
     7
 10
555.0
 20
1169.797999
 11
555.0
 21
1738.114056
  0
LINE
  8
DATA
  6
CONTINUOUS
 62
     7
 10
584.399583
 20
1169.797999
 11
584.399583
 21
1738.114056
  0
LINE
  8
DATA
  6
CONTINUOUS
 62
     7
 10
613.799167
 20
1169.797999
 11
613.799167
 21
1738.114056
  0
LINE
  8
DATA
  6
CONTINUOUS
 62
     7
 10
643.19875
 20
1169.797999
 11
643.19875
 21
1738.114056
  0
LINE
  8
DATA
  6
CONTINUOUS
 62
     7
 10
672.598333
 20
1169.797999
 11
672.598333
 21
1738.114056
  0
LINE
  8
DATA
  6
CONTINUOUS
 62
     7
 10
701.997916
 20
1169.797999
 11
701.997916
 21
1738.114056
  0
LINE
  8
DATA
  6
CONTINUOUS
 62
     7
 10
731.3975
 20
1169.797999
 11
731.3975
 21
1738.114056
  0
LINE
  8
DATA
  6
CONTINUOUS
 62
     7
 10
760.797083
 20
1169.797999
 11
760.797083
 21
1738.114056
  0
LINE
  8
DATA
  6
CONTINUOUS
 62
     7
 10
790.196666
 20
1169.797999
 11
790.196666
 21
1738.114056
  0
LINE
  8
DATA
  6
CONTINUOUS
 62
     7
 10
819.59625
 20
1169.797999
 11
819.59625
 21
1738.114056
  0
LINE
  8
DATA
  6
CONTINUOUS
 62
     7
 10
848.995833
 20
1169.797999
 11
848.995833
 21
1738.114056
  0
LINE
  8
DATA
  6
CONTINUOUS
 62
     7
 10
878.395416
 20
1169.797999
 11
878.395416
 21
1738.114056
  0
LINE
  8
DATA
  6
CONTINUOUS
 62
     7
 10
907.795
 20
1169.797999
 11
907.795
 21
1738.114056
  0
LINE
  8
DIMENSIONS
  6
CONTINUOUS
 62
     7
 10
500.0
 20
1105.0
 11
500.0
 21
850.0
  0
LINE
  8
DIMENSIONS
  6
CONTINUOUS
 62
     7
 10
540.0
 20
868.3336
 11
500.0
 21
875.0
  0
LINE
  8
DIMENSIONS
  6
CONTINUOUS
 62
     7
 10
540.0
 20
881.6664
 11
500.0
 21
875.0
  0
LINE
  8
DIMENSIONS
  6
CONTINUOUS
 62
     7
 10
540.0
 20
993.3336
 11
500.0
 21
1000.0
  0
LINE
  8
DIMENSIONS
  6
CONTINUOUS
 62
     7
 10
540.0
 20
1006.6664
 11
500.0
 21
1000.0
  0
LINE
  8
DIMENSIONS
  6
CONTINUOUS
 62
     7
 10
480.0
 20
1125.0
 11
412.5
 21
1125.0
  0
LINE
  8
DIMENSIONS
  6
CONTINUOUS
 62
     7
 10
430.8336
 20
1165.0
 11
437.5
 21
1125.0
  0
LINE
  8
DIMENSIONS
  6
CONTINUOUS
 62
     7
 10
444.1664
 20
1165.0
 11
437.5
 21
1125.0
  0
TEXT
  8
DIMENSIONS
  6
CONTINUOUS
 62
     7
 10
412.5
 20
1452.186813
 40
50.0
  1
780.8
 50
90.0
  7
TTF_DEFAULT
  0
TEXT
  8
SPEC
  6
CONTINUOUS
 62
     7
 10
362.5
 20
2385.0
 40
50.0
  1
寸法 / 重量
  7
TTF_DEFAULT
  0
TEXT
  8
SPEC
  6
CONTINUOUS
 62
     7
 10
362.5
 20
2650.0
 40
50.0
  1
クロストーク
  7
TTF_DEFAULT
  0
TEXT
  8
SPEC
  6
CONTINUOUS
 62
     7
 10
362.5
 20
2725.0
 40
50.0
  1
周波数特性
  7
TTF_DEFAULT
  0
LINE
  8
DIMENSIONS
  6
CONTINUOUS
 62
     7
 10
480.0
 20
1905.796
 11
412.5
 21
1905.796
  0
LINE
  8
DIMENSIONS
  6
CONTINUOUS
 62
     7
 10
430.8336
 20
1865.796
 11
437.5
 21
1905.796
  0
LINE
  8
DIMENSIONS
  6
CONTINUOUS
 62
     7
 10
444.1664
 20
1865.796
 11
437.5
 21
1905.796
  0
LINE
  8
DATA
  6
CONTINUOUS
 62
     7
 10
555.0
 20
1768.114056
 11
555.0
 21
1905.594
  0
LINE
  8
DATA
  6
CONTINUOUS
 62
     7
 10
937.194583
 20
1169.797999
 11
937.194583
 21
1738.114056
  0
LINE
  8
DATA
  6
CONTINUOUS
 62
     7
 10
966.594166
 20
1169.797999
 11
966.594166
 21
1738.114056
  0
LINE
  8
DATA
  6
CONTINUOUS
 62
     7
 10
995.99375
 20
1169.797999
 11
995.99375
 21
1738.114056
  0
LINE
  8
DATA
  6
CONTINUOUS
 62
     7
 10
1025.393333
 20
1169.797999
 11
1025.393333
 21
1738.114056
  0
LINE
  8
DATA
  6
CONTINUOUS
 62
     7
 10
1424.878584
 20
1169.797999
 11
1424.878584
 21
1738.114056
  0
LINE
  8
DATA
  6
CONTINUOUS
 62
     7
 10
1395.479
 20
1169.797999
 11
1395.479
 21
1738.114056
  0
LINE
  8
DATA
  6
CONTINUOUS
 62
     7
 10
1366.079417
 20
1169.797999
 11
1366.079417
 21
1738.114056
  0
LINE
  8
DATA
  6
CONTINUOUS
 62
     7
 10
1336.679834
 20
1169.797999
 11
1336.679834
 21
1738.114056
  0
LINE
  8
DATA
  6
CONTINUOUS
 62
     7
 10
1307.280251
 20
1169.797999
 11
1307.280251
 21
1738.114056
  0
LINE
  8
DATA
  6
CONTINUOUS
 62
     7
 10
1277.880667
 20
1169.797999
 11
1277.880667
 21
1738.114056
  0
LINE
  8
DATA
  6
CONTINUOUS
 62
     7
 10
1803.274
 20
1125.0
 11
1803.274
 21
1905.796
  0
LINE
  8
DATA
  6
HIDDEN
 62
     7
 10
1559.434
 20
1125.0
 11
1559.434
 21
1905.796
  0
LINE
  8
DATA
  6
CONTINUOUS
 62
     7
 10
1937.5
 20
1125.0
 11
1937.5
 21
1905.594
  0
LINE
  8
DATA
  6
CONTINUOUS
 62
     7
 10
1768.274
 20
1125.0
 11
1768.274
 21
1905.796
  0
LINE
  8
DATA
  6
CONTINUOUS
 62
     7
 10
1748.274
 20
1169.797999
 11
1748.274
 21
1738.114056
  0
LINE
  8
DATA
  6
CONTINUOUS
 62
     7
 10
1718.874417
 20
1169.797999
 11
1718.874417
 21
1738.114056
  0
LINE
  8
DATA
  6
CONTINUOUS
 62
     7
 10
1689.474833
 20
1169.797999
 11
1689.474833
 21
1738.114056
  0
LINE
  8
DATA
  6
CONTINUOUS
 62
     7
 10
1660.07525
 20
1169.797999
 11
1660.07525
 21
1738.114056
  0
LINE
  8
DATA
  6
CONTINUOUS
 62
     7
 10
1630.675667
 20
1169.797999
 11
1630.675667
 21
1738.114056
  0
LINE
  8
DATA
  6
CONTINUOUS
 62
     7
 10
1601.276084
 20
1169.797999
 11
1601.276084
 21
1738.114056
  0
LINE
  8
DATA
  6
CONTINUOUS
 62
     7
 10
1571.8765
 20
1169.797999
 11
1571.8765
 21
1738.114056
  0
LINE
  8
DATA
  6
CONTINUOUS
 62
     7
 10
1542.476917
 20
1169.797999
 11
1542.476917
 21
1738.114056
  0
LINE
  8
DATA
  6
CONTINUOUS
 62
     7
 10
1513.077334
 20
1169.797999
 11
1513.077334
 21
1738.114056
  0
LINE
  8
DATA
  6
CONTINUOUS
 62
     7
 10
1483.67775
 20
1169.797999
 11
1483.67775
 21
1738.114056
  0
LINE
  8
DATA
  6
CONTINUOUS
 62
     7
 10
1454.278167
 20
1169.797999
 11
1454.278167
 21
1738.114056
  0
LINE
  8
DIMENSIONS
  6
CONTINUOUS
 62
     7
 10
1803.274
 20
1105.0
 11
1803.274
 21
850.0
  0
LINE
  8
DIMENSIONS
  6
CONTINUOUS
 62
     7
 10
1763.274
 20
868.3336
 11
1803.274
 21
875.0
  0
LINE
  8
DIMENSIONS
  6
CONTINUOUS
 62
     7
 10
1763.274
 20
881.6664
 11
1803.274
 21
875.0
  0
LINE
  8
DIMENSIONS
  6
CONTINUOUS
 62
     7
 10
1559.434
 20
1105.0
 11
1559.434
 21
975.0
  0
LINE
  8
DIMENSIONS
  6
CONTINUOUS
 62
     7
 10
1519.434
 20
993.3336
 11
1559.434
 21
1000.0
  0
LINE
  8
DIMENSIONS
  6
CONTINUOUS
 62
     7
 10
1519.434
 20
1006.6664
 11
1559.434
 21
1000.0
  0
LINE
  8
DIMENSIONS
  6
CONTINUOUS
 62
     7
 10
1937.5
 20
1105.0
 11
1937.5
 21
975.0
  0
TEXT
  8
SPEC
  6
CONTINUOUS
 62
     7
 10
1137.5
 20
2595.0
 40
50.0
  1
ライン入力→マイク入力 : -90dB@1kHz
  7
TTF_DEFAULT
  0
TEXT
  8
SPEC
  6
CONTINUOUS
 62
     7
 10
1137.5
 20
2650.0
 40
50.0
  1
マイク入力→ライン入力 : -100dB@1kHz
  7
TTF_DEFAULT
  0
TEXT
  8
SPEC
  6
CONTINUOUS
 62
     7
 10
1137.5
 20
2485.0
 40
50.0
  1
チャンネル→MIX B : -75dB@1kHz
  7
TTF_DEFAULT
  0
TEXT
  8
SPEC
  6
CONTINUOUS
 62
     7
 10
1137.5
 20
2540.0
 40
50.0
  1
MIX B→チャンネル : -80dB@1kHz
  7
TTF_DEFAULT
  0
LINE
  8
DATA
  6
CONTINUOUS
 62
     7
 10
1748.274
 20
1768.114056
 11
1748.274
 21
1905.594
  0
TEXT
  8
SPEC
  6
CONTINUOUS
 62
     7
 10
362.5
 20
4037.5
 40
50.0
  1
HPF (ローカットフィルタ ー)
  7
TTF_DEFAULT
  0
TEXT
  8
SPEC
  6
CONTINUOUS
 62
     7
 10
362.5
 20
3662.5
 40
50.0
  1
マスタ ーセクション各レベル
  7
TTF_DEFAULT
  0
TEXT
  8
SPEC
  6
CONTINUOUS
 62
     7
 10
362.5
 20
3081.25
 40
50.0
  1
THD (1dBクリップ前 , 1kHz)
  7
TTF_DEFAULT
  0
TEXT
  8
SPEC
  6
CONTINUOUS
 62
     7
 10
362.5
 20
4281.25
 40
50.0
  1
テープリタ ーン入力
  7
TTF_DEFAULT
  0
TEXT
  8
SPEC
  6
CONTINUOUS
 62
     7
 10
362.5
 20
3906.25
 40
50.0
  1
イコライザーセクション
  7
TTF_DEFAULT
  0
TEXT
  8
SPEC
  6
CONTINUOUS
 62
     7
 10
362.5
 20
2875.0
 40
50.0
  1
DIRECT出力ノイズ
  7
TTF_DEFAULT
  0
TEXT
  8
SPEC
  6
CONTINUOUS
 62
     7
 10
362.5
 20
4637.5
 40
50.0
  1
インサートセンド/リタ ーン
  7
TTF_DEFAULT
  0
TEXT
  8
SPEC
  6
CONTINUOUS
 62
     7
 10
375.0
 20
5325.0
 40
60.0
  1
仕様
  7
TTF_DEFAULT
  0
TEXT
  8
SPEC
  6
CONTINUOUS
 62
     7
 10
362.5
 20
5237.5
 40
50.0
  1
マイク入力
  7
TTF_DEFAULT
  0
TEXT
  8
SPEC
  6
CONTINUOUS
 62
     7
 10
362.5
 20
4431.25
 40
50.0
  1
ダイレクト出力レベル
  7
TTF_DEFAULT
  0
TEXT
  8
SPEC
  6
CONTINUOUS
 62
     7
 10
362.5
 20
4881.25
 40
50.0
  1
ライン入力
  7
TTF_DEFAULT
  0
TEXT
  8
SPEC
  6
CONTINUOUS
 62
     7
 10
1137.5
 20
4281.25
 40
50.0
  1
レベル（センタ ーディテント） : +4dBu
  7
TTF_DEFAULT
  0
TEXT
  8
SPEC
  6
CONTINUOUS
 62
     7
 10
1137.5
 20
3796.25
 40
50.0
  1
HMF : 400Hz～20kHz , Q=0.7～6 , +/-15dB
  7
TTF_DEFAULT
  0
TEXT
  8
SPEC
  6
CONTINUOUS
 62
     7
 10
1137.5
 20
3741.25
 40
50.0
  1
LMF : 25Hz～1.5kHz , Q=0.7～6 , +/-15dB
  7
TTF_DEFAULT
  0
TEXT
  8
SPEC
  6
CONTINUOUS
 62
     7
 10
1137.5
 20
2971.25
 40
50.0
  1
MIX B入力→DIRECT出力 : 0.002%
  7
TTF_DEFAULT
  0
TEXT
  8
SPEC
  6
CONTINUOUS
 62
     7
 10
1137.5
 20
4226.25
 40
50.0
  1
テープトリムレンジ : -15dB～+15dB
  7
TTF_DEFAULT
  0
TEXT
  8
SPEC
  6
CONTINUOUS
 62
     7
 10
1137.5
 20
4171.25
 40
50.0
  1
入力インピーダンス : 24kΩ以上
  7
TTF_DEFAULT
  0
TEXT
  8
SPEC
  6
CONTINUOUS
 62
     7
 10
1137.5
 20
4037.5
 40
50.0
  1
ロールオフ周波数 : 100Hz
  7
TTF_DEFAULT
  0
TEXT
  8
SPEC
  6
CONTINUOUS
 62
     7
 10
1137.5
 20
3982.5
 40
50.0
  1
フィルタ ー : 3ポール型  , 18dB/OCT
  7
TTF_DEFAULT
  0
TEXT
  8
SPEC
  6
CONTINUOUS
 62
     7
 10
1137.5
 20
3607.5
 40
50.0
  1
グループインサート : -2dBu
  7
TTF_DEFAULT
  0
TEXT
  8
SPEC
  6
CONTINUOUS
 62
     7
 10
1137.5
 20
3167.5
 40
50.0
  1
ステレオリタ ーン入力 : +4dBu
  7
TTF_DEFAULT
  0
TEXT
  8
SPEC
  6
CONTINUOUS
 62
     7
 10
1137.5
 20
3552.5
 40
50.0
  1
AUX出力 : +4dBu
  7
TTF_DEFAULT
  0
TEXT
  8
SPEC
  6
CONTINUOUS
 62
     7
 10
1137.5
 20
3442.5
 40
50.0
  1
MIXインサート : -2dBu
  7
TTF_DEFAULT
  0
TEXT
  8
SPEC
  6
CONTINUOUS
 62
     7
 10
1137.5
 20
3497.5
 40
50.0
  1
MIX出力 : +4dBu
  7
TTF_DEFAULT
  0
TEXT
  8
SPEC
  6
CONTINUOUS
 62
     7
 10
1137.5
 20
3387.5
 40
50.0
  1
MIX B出力 : +4dBu
  7
TTF_DEFAULT
  0
TEXT
  8
SPEC
  6
CONTINUOUS
 62
     7
 10
1137.5
 20
3277.5
 40
50.0
  1
STUDIO出力 : +4dBu
  7
TTF_DEFAULT
  0
TEXT
  8
SPEC
  6
CONTINUOUS
 62
     7
 10
1137.5
 20
3222.5
 40
50.0
  1
2TRACK入力 : +4dBu
  7
TTF_DEFAULT
  0
TEXT
  8
SPEC
  6
CONTINUOUS
 62
     7
 10
1137.5
 20
4116.25
 40
50.0
  1
CMRR (1kHz) : -60dB
  7
TTF_DEFAULT
  0
TEXT
  8
SPEC
  6
CONTINUOUS
 62
     7
 10
1137.5
 20
3906.25
 40
50.0
  1
HF : 12kHz , +/-15dB
  7
TTF_DEFAULT
  0
TEXT
  8
SPEC
  6
CONTINUOUS
 62
     7
 10
1137.5
 20
3851.25
 40
50.0
  1
LF : 60Hz , +/-15dB
  7
TTF_DEFAULT
  0
TEXT
  8
SPEC
  6
CONTINUOUS
 62
     7
 10
1137.5
 20
5072.5
 40
50.0
  1
CMRR (1kHz , -30dBuレベル) : -90dB
  7
TTF_DEFAULT
  0
TEXT
  8
SPEC
  6
CONTINUOUS
 62
     7
 10
1137.5
 20
4527.5
 40
50.0
  1
センド最大負荷インピーダンス : 2kΩ
  7
TTF_DEFAULT
  0
TEXT
  8
SPEC
  6
CONTINUOUS
 62
     7
 10
1137.5
 20
5127.5
 40
50.0
  1
入力インピーダンス : 2kΩ
  7
TTF_DEFAULT
  0
TEXT
  8
SPEC
  6
CONTINUOUS
 62
     7
 10
1137.5
 20
5182.5
 40
50.0
  1
最大入力レベル : +14dBu
  7
TTF_DEFAULT
  0
TEXT
  8
SPEC
  6
CONTINUOUS
 62
     7
 10
1137.5
 20
4826.25
 40
50.0
  1
最大入力レベル : +34dBu
  7
TTF_DEFAULT
  0
TEXT
  8
SPEC
  6
CONTINUOUS
 62
     7
 10
1137.5
 20
4771.25
 40
50.0
  1
入力インピーダンス : 15kΩ
  7
TTF_DEFAULT
  0
TEXT
  8
SPEC
  6
CONTINUOUS
 62
     7
 10
1137.5
 20
4716.25
 40
50.0
  1
CMRR (1kHz , 0dBuレベル) : -60dB
  7
TTF_DEFAULT
  0
TEXT
  8
SPEC
  6
CONTINUOUS
 62
     7
 10
1137.5
 20
4431.25
 40
50.0
  1
チャンネル出力セレクト時 : -2dBu
  7
TTF_DEFAULT
  0
TEXT
  8
SPEC
  6
CONTINUOUS
 62
     7
 10
1137.5
 20
4637.5
 40
50.0
  1
定格レベル : -2dBu
  7
TTF_DEFAULT
  0
TEXT
  8
SPEC
  6
CONTINUOUS
 62
     7
 10
1137.5
 20
4582.5
 40
50.0
  1
最大レベル : +22dBu
  7
TTF_DEFAULT
  0
LINE
  8
SPEC
  6
CONTINUOUS
 62
     7
 10
2850.0
 20
2241.25
 11
2850.0
 21
5300.0
  0
TEXT
  8
HIBINO-BASE
  6
CONTINUOUS
 62
     7
 10
2975.0
 20
350.0
 40
50.0
  1
N.Sasaki
  7
TTF_DEFAULT
  0
LINE
  8
HIBINO-BASE
  6
CONTINUOUS
 62
     7
 10
2000.0
 20
500.0
 11
3800.0
 21
500.0
  0
TEXT
  8
HIBINO-BASE
  6
CONTINUOUS
 62
     7
 10
2960.0
 20
450.0
 40
50.0
  1
DRAWN
  7
TTF_DEFAULT
  0
TEXT
  8
DATA
  6
CONTINUOUS
 62
     7
 10
3000.0
 20
625.0
 40
60.0
  1
Soundcraft
  7
TTF_DEFAULT
  0
TEXT
  8
DATA
  6
CONTINUOUS
 62
     7
 10
3000.0
 20
562.5
 40
60.0
  1
Ghost
  7
TTF_DEFAULT
  0
TEXT
  8
DIMENSIONS
  6
CONTINUOUS
 62
     7
 10
2982.81
 20
1025.0
 40
50.0
  1
49.8
  7
TTF_DEFAULT
  0
TEXT
  8
DIMENSIONS
  6
CONTINUOUS
 62
     7
 10
2980.0
 20
900.0
 40
50.0
  1
109.5
  7
TTF_DEFAULT
  0
LINE
  8
DIMENSIONS
  6
CONTINUOUS
 62
     7
 10
3076.186679
 20
1855.394036
 11
2975.0
 21
1855.394036
  0
LINE
  8
DIMENSIONS
  6
CONTINUOUS
 62
     7
 10
3073.3
 20
1905.594
 11
2850.0
 21
1905.594
  0
LINE
  8
DIMENSIONS
  6
CONTINUOUS
 62
     7
 10
3090.458675
 20
1728.048
 11
2850.0
 21
1728.048
  0
LINE
  8
0
  6
CONTINUOUS
 62
     7
 10
2000.0
 20
752.5
 11
3800.0
 21
752.5
  0
LINE
  8
0
  6
CONTINUOUS
 62
     7
 10
2000.0
 20
747.5
 11
3800.0
 21
747.5
  0
LINE
  8
0
  6
CONTINUOUS
 62
     7
 10
2000.0
 20
752.5
 11
2000.0
 21
747.5
  0
LINE
  8
0
  6
CONTINUOUS
 62
     7
 10
3800.0
 20
752.5
 11
3800.0
 21
747.5
  0
SOLID
  8
HIBINO-BASE
  6
CONTINUOUS
 62
     7
 10
2000.0
 20
752.5
 11
3800.0
 21
752.5
 12
2000.0
 22
747.5
 13
3800.0
 23
747.5
  0
LINE
  8
DATA
  6
CONTINUOUS
 62
     7
 10
1972.5
 20
1125.0
 11
1972.5
 21
1905.594
  0
LINE
  8
DATA
  6
CONTINUOUS
 62
     7
 10
1992.5
 20
1169.797999
 11
1992.5
 21
1738.114056
  0
LINE
  8
DATA
  6
CONTINUOUS
 62
     7
 10
2021.899583
 20
1169.797999
 11
2021.899583
 21
1738.114056
  0
LINE
  8
DATA
  6
CONTINUOUS
 62
     7
 10
2051.299167
 20
1169.797999
 11
2051.299167
 21
1738.114056
  0
LINE
  8
DATA
  6
CONTINUOUS
 62
     7
 10
2080.69875
 20
1169.797999
 11
2080.69875
 21
1738.114056
  0
LINE
  8
DATA
  6
CONTINUOUS
 62
     7
 10
2110.098333
 20
1169.797999
 11
2110.098333
 21
1738.114056
  0
LINE
  8
DATA
  6
CONTINUOUS
 62
     7
 10
2139.497917
 20
1169.797999
 11
2139.497917
 21
1738.114056
  0
LINE
  8
DATA
  6
CONTINUOUS
 62
     7
 10
2168.8975
 20
1169.797999
 11
2168.8975
 21
1738.114056
  0
LINE
  8
DATA
  6
CONTINUOUS
 62
     7
 10
2198.297083
 20
1169.797999
 11
2198.297083
 21
1738.114056
  0
LINE
  8
DATA
  6
CONTINUOUS
 62
     7
 10
2227.696666
 20
1169.797999
 11
2227.696666
 21
1738.114056
  0
LINE
  8
DATA
  6
CONTINUOUS
 62
     7
 10
2257.09625
 20
1169.797999
 11
2257.09625
 21
1738.114056
  0
LINE
  8
DATA
  6
CONTINUOUS
 62
     7
 10
2286.495833
 20
1169.797999
 11
2286.495833
 21
1738.114056
  0
LINE
  8
DATA
  6
CONTINUOUS
 62
     7
 10
2315.895416
 20
1169.797999
 11
2315.895416
 21
1738.114056
  0
LINE
  8
DATA
  6
CONTINUOUS
 62
     7
 10
2345.295
 20
1169.797999
 11
2345.295
 21
1738.114056
  0
LINE
  8
DATA
  6
CONTINUOUS
 62
     7
 10
2374.694583
 20
1169.797999
 11
2374.694583
 21
1738.114056
  0
LINE
  8
DATA
  6
CONTINUOUS
 62
     7
 10
2404.094166
 20
1169.797999
 11
2404.094166
 21
1738.114056
  0
LINE
  8
DATA
  6
CONTINUOUS
 62
     7
 10
2433.49375
 20
1169.797999
 11
2433.49375
 21
1738.114056
  0
LINE
  8
DATA
  6
CONTINUOUS
 62
     7
 10
2462.893333
 20
1169.797999
 11
2462.893333
 21
1738.114056
  0
LINE
  8
DATA
  6
CONTINUOUS
 62
     7
 10
2492.292916
 20
1169.797999
 11
2492.292916
 21
1738.114056
  0
LINE
  8
DATA
  6
CONTINUOUS
 62
     7
 10
2753.094
 20
1125.0
 11
2753.094
 21
1905.594
  0
LINE
  8
DATA
  6
CONTINUOUS
 62
     7
 10
2718.094
 20
1125.0
 11
2718.094
 21
1905.594
  0
LINE
  8
DATA
  6
CONTINUOUS
 62
     7
 10
2698.094
 20
1738.114056
 11
2698.094
 21
1169.797999
  0
LINE
  8
DATA
  6
CONTINUOUS
 62
     7
 10
2521.692499
 20
1169.797999
 11
2521.692499
 21
1738.114056
  0
LINE
  8
DATA
  6
CONTINUOUS
 62
     7
 10
2551.092083
 20
1169.797999
 11
2551.092083
 21
1738.114056
  0
LINE
  8
DATA
  6
CONTINUOUS
 62
     7
 10
2580.491666
 20
1169.797999
 11
2580.491666
 21
1738.114056
  0
LINE
  8
DATA
  6
CONTINUOUS
 62
     7
 10
2609.891249
 20
1169.797999
 11
2609.891249
 21
1738.114056
  0
LINE
  8
DATA
  6
CONTINUOUS
 62
     7
 10
2639.290833
 20
1169.797999
 11
2639.290833
 21
1738.114056
  0
LINE
  8
DATA
  6
CONTINUOUS
 62
     7
 10
2668.690416
 20
1169.797999
 11
2668.690416
 21
1738.114056
  0
TEXT
  8
HIBINO-BASE
  6
CONTINUOUS
 62
     7
 10
2460.0
 20
450.0
 40
50.0
  1
DATE
  7
TTF_DEFAULT
  0
TEXT
  8
HIBINO-BASE
  6
CONTINUOUS
 62
     7
 10
2475.0
 20
350.0
 40
50.0
  1
'99.1.
  7
TTF_DEFAULT
  0
LINE
  8
DATA
  6
CONTINUOUS
 62
     7
 10
1972.5
 20
1169.797999
 11
2718.094
 21
1169.797999
  0
LINE
  8
0
  6
CONTINUOUS
 62
     7
 10
1997.5
 20
300.0
 11
1997.5
 21
750.0
  0
LINE
  8
0
  6
CONTINUOUS
 62
     7
 10
2002.5
 20
300.0
 11
2002.5
 21
750.0
  0
LINE
  8
0
  6
CONTINUOUS
 62
     7
 10
1997.5
 20
300.0
 11
2002.5
 21
300.0
  0
LINE
  8
0
  6
CONTINUOUS
 62
     7
 10
1997.5
 20
750.0
 11
2002.5
 21
750.0
  0
SOLID
  8
HIBINO-BASE
  6
CONTINUOUS
 62
     7
 10
1997.5
 20
300.0
 11
1997.5
 21
750.0
 12
2002.5
 22
300.0
 13
2002.5
 23
750.0
  0
TEXT
  8
HIBINO-BASE
  6
CONTINUOUS
 62
     7
 10
2075.0
 20
325.0
 40
80.0
  1
A4
  7
TTF_DEFAULT
  0
LINE
  8
HIBINO-BASE
  6
CONTINUOUS
 62
     7
 10
2287.5
 20
325.0
 11
2362.5
 21
400.0
  0
TEXT
  8
HIBINO-BASE
  6
CONTINUOUS
 62
     7
 10
2275.0
 20
362.5
 40
60.0
  1
1
  7
TTF_DEFAULT
  0
TEXT
  8
HIBINO-BASE
  6
CONTINUOUS
 62
     7
 10
2350.0
 20
325.0
 40
60.0
  1
20
  7
TTF_DEFAULT
  0
TEXT
  8
HIBINO-BASE
  6
CONTINUOUS
 62
     7
 10
2010.0
 20
450.0
 40
45.0
  1
図面サイズ
  7
TTF_DEFAULT
  0
TEXT
  8
HIBINO-BASE
  6
CONTINUOUS
 62
     7
 10
2260.0
 20
450.0
 40
50.0
  1
SCALE
  7
TTF_DEFAULT
  0
LINE
  8
HIBINO-BASE
  6
CONTINUOUS
 62
     7
 10
2450.0
 20
300.0
 11
2450.0
 21
500.0
  0
LINE
  8
HIBINO-BASE
  6
CONTINUOUS
 62
     7
 10
2250.0
 20
300.0
 11
2250.0
 21
500.0
  0
TEXT
  8
DIMENSIONS
  6
CONTINUOUS
 62
     7
 10
2200.637925
 20
1025.0
 40
50.0
  1
815.6 (24exp)
  7
TTF_DEFAULT
  0
TEXT
  8
HIBINO-BASE
  6
CONTINUOUS
 62
     7
 10
2010.0
 20
700.0
 40
50.0
  1
NOTE
  7
TTF_DEFAULT
  0
LINE
  8
HIBINO-BASE
  6
CONTINUOUS
 62
     7
 10
2700.0
 20
300.0
 11
2700.0
 21
750.0
  0
TEXT
  8
HIBINO-BASE
  6
CONTINUOUS
 62
     7
 10
2710.0
 20
450.0
 40
50.0
  1
DESIGN
  7
TTF_DEFAULT
  0
LINE
  8
HIBINO-BASE
  6
CONTINUOUS
 62
     7
 10
2950.0
 20
500.0
 11
2950.0
 21
300.0
  0
TEXT
  8
HIBINO-BASE
  6
CONTINUOUS
 62
     7
 10
2710.0
 20
700.0
 40
50.0
  1
TITLE
  7
TTF_DEFAULT
  0
LINE
  8
DIMENSIONS
  6
CONTINUOUS
 62
     7
 10
2753.094
 20
1105.0
 11
2753.094
 21
975.0
  0
LINE
  8
DIMENSIONS
  6
CONTINUOUS
 62
     7
 10
2713.094
 20
993.3336
 11
2753.094
 21
1000.0
  0
LINE
  8
DIMENSIONS
  6
CONTINUOUS
 62
     7
 10
2713.094
 20
1006.6664
 11
2753.094
 21
1000.0
  0
LINE
  8
DATA
  6
CONTINUOUS
 62
     7
 10
1972.5
 20
1738.114056
 11
2718.094
 21
1738.114056
  0
LINE
  8
DATA
  6
CONTINUOUS
 62
     7
 10
1972.5
 20
1768.114056
 11
2718.094
 21
1768.114056
  0
LINE
  8
DATA
  6
CONTINUOUS
 62
     7
 10
1992.5
 20
1768.114056
 11
1992.5
 21
1905.594
  0
LINE
  8
DIMENSIONS
  6
CONTINUOUS
 62
     7
 10
3000.0
 20
1855.394036
 11
3000.0
 21
1728.048
  0
LINE
  8
DIMENSIONS
  6
CONTINUOUS
 62
     7
 10
2993.3336
 20
1815.394036
 11
3000.0
 21
1855.394036
  0
LINE
  8
DIMENSIONS
  6
CONTINUOUS
 62
     7
 10
3006.6664
 20
1815.394036
 11
3000.0
 21
1855.394036
  0
LINE
  8
DIMENSIONS
  6
CONTINUOUS
 62
     7
 10
2993.3336
 20
1768.048
 11
3000.0
 21
1728.048
  0
LINE
  8
DIMENSIONS
  6
CONTINUOUS
 62
     7
 10
3006.6664
 20
1768.048
 11
3000.0
 21
1728.048
  0
LINE
  8
DIMENSIONS
  6
CONTINUOUS
 62
     7
 10
2875.0
 20
1905.594
 11
2875.0
 21
1728.048
  0
LINE
  8
DIMENSIONS
  6
CONTINUOUS
 62
     7
 10
2868.3336
 20
1865.594
 11
2875.0
 21
1905.594
  0
LINE
  8
DIMENSIONS
  6
CONTINUOUS
 62
     7
 10
2881.6664
 20
1865.594
 11
2875.0
 21
1905.594
  0
LINE
  8
DIMENSIONS
  6
CONTINUOUS
 62
     7
 10
2868.3336
 20
1768.048
 11
2875.0
 21
1728.048
  0
LINE
  8
DIMENSIONS
  6
CONTINUOUS
 62
     7
 10
2881.6664
 20
1768.048
 11
2875.0
 21
1728.048
  0
TEXT
  8
DIMENSIONS
  6
CONTINUOUS
 62
     7
 10
2850.0
 20
1757.982193
 40
50.0
  1
177.5
 50
90.0
  7
TTF_DEFAULT
  0
TEXT
  8
DIMENSIONS
  6
CONTINUOUS
 62
     7
 10
2975.0
 20
1732.882211
 40
50.0
  1
127.3
 50
90.0
  7
TTF_DEFAULT
  0
LINE
  8
DATA
  6
CONTINUOUS
 62
     7
 10
2698.094
 20
1905.594
 11
2698.094
 21
1768.114056
  0
LINE
  8
DATA
  6
CONTINUOUS
 62
     7
 10
3162.012084
 20
1905.593262
 11
3190.31
 21
1127.551832
  0
LINE
  8
DATA
  6
CONTINUOUS
 62
     7
 10
3250.0
 20
1905.594
 11
3250.0
 21
1179.662
  0
LINE
  8
DATA
  6
CONTINUOUS
 62
     7
 10
3110.345243
 20
1730.154056
 11
3140.526
 21
1169.798
  0
LINE
  8
DIMENSIONS
  6
CONTINUOUS
 62
     7
 10
3437.5
 20
1124.797998
 11
3437.5
 21
1905.594
  0
LINE
  8
DATA
  6
CONTINUOUS
 62
     7
 10
3189.58669
 20
1177.43057
 11
3183.5829
 21
1389.73697
  0
TEXT
  8
DIMENSIONS
  6
CONTINUOUS
 62
     7
 10
3350.0
 20
1284.662
 40
50.0
  1
54.9
 50
90.0
  7
TTF_DEFAULT
  0
TEXT
  8
HIBINO-BASE
  6
CONTINUOUS
 62
     7
 10
3174.600526
 20
171.8264
 40
80.0
  1
ヒビノ株式会社
  7
TTF_DEFAULT
  0
TEXT
  8
HIBINO-BASE
  6
CONTINUOUS
 62
     7
 10
3460.0
 20
450.0
 40
50.0
  1
DRAWING NO.
  7
TTF_DEFAULT
  0
TEXT
  8
HIBINO-BASE
  6
CONTINUOUS
 62
     7
 10
3210.0
 20
450.0
 40
50.0
  1
CHECK
  7
TTF_DEFAULT
  0
LINE
  8
HIBINO-BASE
  6
CONTINUOUS
 62
     7
 10
3450.0
 20
500.0
 11
3450.0
 21
300.0
  0
LINE
  8
HIBINO-BASE
  6
CONTINUOUS
 62
     7
 10
3200.0
 20
300.0
 11
3200.0
 21
500.0
  0
LINE
  8
DIMENSIONS
  6
CONTINUOUS
 62
     7
 10
3140.525996
 20
1149.797999
 11
3140.525996
 21
850.0
  0
LINE
  8
DIMENSIONS
  6
CONTINUOUS
 62
     7
 10
3250.0
 20
1159.662
 11
3250.0
 21
850.0
  0
LINE
  8
DIMENSIONS
  6
CONTINUOUS
 62
     7
 10
3140.525996
 20
875.0
 11
3060.525996
 21
875.0
  0
LINE
  8
DIMENSIONS
  6
CONTINUOUS
 62
     7
 10
3250.0
 20
875.0
 11
3330.0
 21
875.0
  0
LINE
  8
DIMENSIONS
  6
CONTINUOUS
 62
     7
 10
3100.525996
 20
868.3336
 11
3140.525996
 21
875.0
  0
LINE
  8
DIMENSIONS
  6
CONTINUOUS
 62
     7
 10
3100.525996
 20
881.6664
 11
3140.525996
 21
875.0
  0
LINE
  8
DIMENSIONS
  6
CONTINUOUS
 62
     7
 10
3290.0
 20
868.3336
 11
3250.0
 21
875.0
  0
LINE
  8
DIMENSIONS
  6
CONTINUOUS
 62
     7
 10
3290.0
 20
881.6664
 11
3250.0
 21
875.0
  0
LINE
  8
DATA
  6
CONTINUOUS
 62
     7
 10
3158.526
 20
1124.798
 11
3190.31
 21
1127.551832
  0
CIRCLE
  8
DATA
  6
CONTINUOUS
 62
     7
 10
3162.0
 20
1204.798
 40
3.00412
  0
CIRCLE
  8
DATA
  6
CONTINUOUS
 62
     7
 10
3162.0
 20
1204.798
 40
5.09902
  0
LINE
  8
DATA
  6
CONTINUOUS
 62
     7
 10
3250.0
 20
1179.662
 11
3189.58669
 21
1177.43057
  0
ARC
  8
DATA
  6
CONTINUOUS
 62
     7
 10
3229.526
 20
1179.298
 40
89.50559
 50
186.092772
 51
217.510047
  0
LINE
  8
DIMENSIONS
  6
CONTINUOUS
 62
     7
 10
3375.0
 20
1179.662
 11
3375.0
 21
1259.662
  0
LINE
  8
DIMENSIONS
  6
CONTINUOUS
 62
     7
 10
3375.0
 20
1124.797998
 11
3375.0
 21
1044.797998
  0
LINE
  8
DIMENSIONS
  6
CONTINUOUS
 62
     7
 10
3270.0
 20
1179.662
 11
3400.0
 21
1179.662
  0
LINE
  8
DIMENSIONS
  6
CONTINUOUS
 62
     7
 10
3368.3336
 20
1219.662
 11
3375.0
 21
1179.662
  0
LINE
  8
DIMENSIONS
  6
CONTINUOUS
 62
     7
 10
3381.6664
 20
1219.662
 11
3375.0
 21
1179.662
  0
LINE
  8
DIMENSIONS
  6
CONTINUOUS
 62
     7
 10
3368.3336
 20
1084.797998
 11
3375.0
 21
1124.797998
  0
LINE
  8
DIMENSIONS
  6
CONTINUOUS
 62
     7
 10
3381.6664
 20
1084.797998
 11
3375.0
 21
1124.797998
  0
LINE
  8
DIMENSIONS
  6
CONTINUOUS
 62
     7
 10
3140.525996
 20
1000.0
 11
3060.525996
 21
1000.0
  0
LINE
  8
DIMENSIONS
  6
CONTINUOUS
 62
     7
 10
3190.31
 20
1000.0
 11
3270.31
 21
1000.0
  0
LINE
  8
DIMENSIONS
  6
CONTINUOUS
 62
     7
 10
3190.31
 20
1107.551832
 11
3190.31
 21
975.0
  0
LINE
  8
DIMENSIONS
  6
CONTINUOUS
 62
     7
 10
3100.525996
 20
993.3336
 11
3140.525996
 21
1000.0
  0
LINE
  8
DIMENSIONS
  6
CONTINUOUS
 62
     7
 10
3100.525996
 20
1006.6664
 11
3140.525996
 21
1000.0
  0
LINE
  8
DIMENSIONS
  6
CONTINUOUS
 62
     7
 10
3230.31
 20
993.3336
 11
3190.31
 21
1000.0
  0
LINE
  8
DIMENSIONS
  6
CONTINUOUS
 62
     7
 10
3230.31
 20
1006.6664
 11
3190.31
 21
1000.0
  0
LINE
  8
DIMENSIONS
  6
CONTINUOUS
 62
     7
 10
3178.525997
 20
1124.797998
 11
3462.5
 21
1124.797998
  0
LINE
  8
DIMENSIONS
  6
CONTINUOUS
 62
     7
 10
3444.1664
 20
1164.797998
 11
3437.5
 21
1124.797998
  0
LINE
  8
DIMENSIONS
  6
CONTINUOUS
 62
     7
 10
3430.8336
 20
1164.797998
 11
3437.5
 21
1124.797998
  0
LINE
  8
DIMENSIONS
  6
CONTINUOUS
 62
     7
 10
3250.0
 20
1925.594
 11
3250.0
 21
2150.0
  0
LINE
  8
DIMENSIONS
  6
CONTINUOUS
 62
     7
 10
3022.209983
 20
1753.1915
 11
3022.209983
 21
2150.0
  0
ARC
  8
DATA
  6
CONTINUOUS
 62
     7
 10
-3764.801797
 20
1455.612772
 40
6948.696965
 50
359.45681
 51
3.712938
  0
CIRCLE
  8
DATA
  6
CONTINUOUS
 62
     7
 10
3220.0
 20
1416.798
 40
3.00412
  0
CIRCLE
  8
DATA
  6
CONTINUOUS
 62
     7
 10
3220.0
 20
1416.798
 40
5.09902
  0
CIRCLE
  8
DATA
  6
CONTINUOUS
 62
     7
 10
3135.87827
 20
1689.791459
 40
3.00412
  0
CIRCLE
  8
DATA
  6
CONTINUOUS
 62
     7
 10
3135.87827
 20
1689.791459
 40
5.09902
  0
TEXT
  8
DIMENSIONS
  6
CONTINUOUS
 62
     7
 10
3412.5
 20
1451.075298
 40
50.0
  1
780.8
 50
90.0
  7
TTF_DEFAULT
  0
CIRCLE
  8
DATA
  6
CONTINUOUS
 62
     7
 10
3220.0
 20
1846.298
 40
3.00412
  0
CIRCLE
  8
DATA
  6
CONTINUOUS
 62
     7
 10
3220.0
 20
1846.298
 40
5.09902
  0
LINE
  8
DIMENSIONS
  6
CONTINUOUS
 62
     7
 10
3270.0
 20
1905.594
 11
3462.5
 21
1905.594
  0
LINE
  8
DIMENSIONS
  6
CONTINUOUS
 62
     7
 10
3444.1664
 20
1865.594
 11
3437.5
 21
1905.594
  0
LINE
  8
DIMENSIONS
  6
CONTINUOUS
 62
     7
 10
3430.8336
 20
1865.594
 11
3437.5
 21
1905.594
  0
ARC
  8
DATA
  6
CONTINUOUS
 62
     7
 10
3167.0
 20
1729.0338
 40
144.8497
 50
119.266631
 51
178.355182
  0
LINE
  8
DATA
  6
CONTINUOUS
 62
     7
 10
3110.345243
 20
1730.154056
 11
3137.5304
 21
1730.154056
  0
LINE
  8
DATA
  6
CONTINUOUS
 62
     7
 10
3137.5304
 20
1730.154056
 11
3137.5304
 21
1905.594
  0
LINE
  8
DATA
  6
CONTINUOUS
 62
     7
 10
3093.3
 20
1905.594
 11
3250.0
 21
1905.594
  0
ARC
  8
DATA
  6
CONTINUOUS
 62
     7
 10
3266.090995
 20
1890.347125
 40
173.462374
 50
174.957348
 51
191.624831
  0
LINE
  8
DIMENSIONS
  6
CONTINUOUS
 62
     7
 10
3093.3
 20
2000.0
 11
3250.0
 21
2000.0
  0
LINE
  8
DIMENSIONS
  6
CONTINUOUS
 62
     7
 10
3093.3
 20
1925.594
 11
3093.3
 21
2025.0
  0
LINE
  8
DIMENSIONS
  6
CONTINUOUS
 62
     7
 10
3133.3
 20
1993.3336
 11
3093.3
 21
2000.0
  0
LINE
  8
DIMENSIONS
  6
CONTINUOUS
 62
     7
 10
3133.3
 20
2006.6664
 11
3093.3
 21
2000.0
  0
LINE
  8
DIMENSIONS
  6
CONTINUOUS
 62
     7
 10
3210.0
 20
1993.3336
 11
3250.0
 21
2000.0
  0
LINE
  8
DIMENSIONS
  6
CONTINUOUS
 62
     7
 10
3210.0
 20
2006.6664
 11
3250.0
 21
2000.0
  0
TEXT
  8
DIMENSIONS
  6
CONTINUOUS
 62
     7
 10
3112.811193
 20
2025.0
 40
50.0
  1
156.7
  7
TTF_DEFAULT
  0
LINE
  8
DATA
  6
CONTINUOUS
 62
     7
 10
3110.458675
 20
1728.048
 11
3022.21
 21
1733.1915
  0
LINE
  8
DIMENSIONS
  6
CONTINUOUS
 62
     7
 10
3250.0
 20
2125.0
 11
3022.209983
 21
2125.0
  0
LINE
  8
DIMENSIONS
  6
CONTINUOUS
 62
     7
 10
3210.0
 20
2131.6664
 11
3250.0
 21
2125.0
  0
LINE
  8
DIMENSIONS
  6
CONTINUOUS
 62
     7
 10
3210.0
 20
2118.3336
 11
3250.0
 21
2125.0
  0
LINE
  8
DIMENSIONS
  6
CONTINUOUS
 62
     7
 10
3062.209983
 20
2131.6664
 11
3022.209983
 21
2125.0
  0
LINE
  8
DIMENSIONS
  6
CONTINUOUS
 62
     7
 10
3062.209983
 20
2118.3336
 11
3022.209983
 21
2125.0
  0
TEXT
  8
DIMENSIONS
  6
CONTINUOUS
 62
     7
 10
3077.266184
 20
2150.0
 40
50.0
  1
227.8
  7
TTF_DEFAULT
  0
ENDSEC
  0
EOF
