  0
SECTION
  2
HEADER
  9
$ACADVER
  1
AC1004
  9
$INSBASE
 10
0.0
 20
0.0
  9
$EXTMIN
 10
-99.26
 20
-103.425
  9
$EXTMAX
 10
3050.74
 20
4351.575
  9
$LIMMIN
 10
-99.26
 20
-103.425
  9
$LIMMAX
 10
3050.74
 20
4351.575
  9
$VIEWCTR
 10
6.0
 20
4.5
  9
$VIEWSIZE
 40
9.0
  9
$SNAPMODE
 70
     0
  9
$SNAPUNIT
 10
25.0
 20
25.0
  9
$SNAPBASE
 10
0.0
 20
0.0
  9
$SNAPANG
 50
0.0
  9
$SNAPSTYLE
 70
     0
  9
$SNAPISOPAIR
 70
     0
  9
$GRIDMODE
 70
     1
  9
$GRIDUNIT
 10
100.0
 20
100.0
  9
$ORTHOMODE
 70
     0
  9
$REGENMODE
 70
     1
  9
$FILLMODE
 70
     1
  9
$QTEXTMODE
 70
     0
  9
$DRAGMODE
 70
     2
  9
$LTSCALE
 40
3.0
  9
$OSMODE
 70
     1
  9
$ATTMODE
 70
     1
  9
$TEXTSIZE
 40
0.2
  9
$TRACEWID
 40
0.05
  9
$TEXTSTYLE
  7
STANDARD
  9
$CLAYER
  8
DATA
  9
$CELTYPE
  6
CONTINUOUS
  9
$CECOLOR
 62
     7
  9
$DIMSCALE
 40
1.0
  9
$DIMASZ
 40
0.18
  9
$DIMEXO
 40
0.0625
  9
$DIMDLI
 40
0.38
  9
$DIMRND
 40
0.0
  9
$DIMDLE
 40
0.0
  9
$DIMEXE
 40
0.18
  9
$DIMTP
 40
0.0
  9
$DIMTM
 40
0.0
  9
$DIMTXT
 40
0.18
  9
$DIMCEN
 40
0.09
  9
$DIMTSZ
 40
0.0
  9
$DIMTOL
 70
     0
  9
$DIMLIM
 70
     0
  9
$DIMTIH
 70
     1
  9
$DIMTOH
 70
     1
  9
$DIMSE1
 70
     0
  9
$DIMSE2
 70
     0
  9
$DIMTAD
 70
     0
  9
$DIMZIN
 70
     0
  9
$DIMBLK
  1

  9
$DIMASO
 70
     1
  9
$DIMSHO
 70
     1
  9
$DIMPOST
  1

  9
$DIMAPOST
  1

  9
$DIMALT
 70
     0
  9
$DIMALTD
 70
     2
  9
$DIMALTF
 40
25.4
  9
$DIMLFAC
 40
1.0
  9
$LUNITS
 70
     2
  9
$LUPREC
 70
     4
  9
$AXISMODE
 70
     0
  9
$AXISUNIT
 10
0.0
 20
0.0
  9
$SKETCHINC
 40
0.1
  9
$FILLETRAD
 40
2.0
  9
$AUNITS
 70
     0
  9
$AUPREC
 70
     0
  9
$MENU
  1
acad
  9
$ELEVATION
 40
0.0
  9
$THICKNESS
 40
0.0
  9
$VIEWDIR
 10
0.0
 20
0.0
 30
1.0
  9
$LIMCHECK
 70
     0
  9
$BLIPMODE
 70
     1
  9
$CHAMFERA
 40
0.0
  9
$CHAMFERB
 40
0.0
  9
$FASTZOOM
 70
     1
  9
$SKPOLY
 70
     0
  9
$TDCREATE
 40
0.0
  9
$TDUPDATE
 40
0.0
  9
$TDINDWG
 40
0.0
  9
$TDUSRTIMER
 40
0.0
  9
$USRTIMER
 70
     1
  9
$ANGBASE
 50
0.0
  9
$ANGDIR
 70
     0
  9
$PDMODE
 70
     0
  9
$PDSIZE
 40
0.0
  9
$PLINEWID
 40
0.0
  9
$COORDS
 70
     1
  9
$SPLFRAME
 70
     0
  9
$SPLINESEGS
 70
    10
  9
$ATTDIA
 70
     0
  9
$ATTREQ
 70
     1
  9
$USERI1
 70
     0
  9
$USERI2
 70
     0
  9
$USERI3
 70
     0
  9
$USERI4
 70
     0
  9
$USERI5
 70
     0
  9
$USERR1
 40
0.0
  9
$USERR2
 40
0.0
  9
$USERR3
 40
0.0
  9
$USERR4
 40
0.0
  9
$USERR5
 40
0.0
  0
ENDSEC
  0
SECTION
  2
TABLES
  0
TABLE
  2
LTYPE
 70
    11
  0
LTYPE
  2
CONTINUOUS
 70
     0
  3
Solid line
 72
    65
 73
     0
 40
0.0
  0
LTYPE
  2
DASHED
 70
     0
  3
__ __ __ __ __ __ __ __ __ __ __ __ __ __ __
 72
    65
 73
     2
 40
0.75
 49
0.5
 49
-0.25
  0
LTYPE
  2
HIDDEN
 70
     0
  3
_ _ _ _ _ _ _ _ _ _ _ _ _ _ _ _ _ _ _ _ _ _ 
 72
    65
 73
     2
 40
0.25
 49
0.125
 49
-0.125
  0
LTYPE
  2
CENTER
 70
     0
  3
____ _ ____ _ ____ _ ____ _ ____ _ ____ _ __
 72
    65
 73
     4
 40
2.0
 49
1.25
 49
-0.25
 49
0.25
 49
-0.25
  0
LTYPE
  2
PHANTOM
 70
     0
  3
_____ _ _ _____ _ _ _____ _ _ _____ _ _ ____
 72
    65
 73
     6
 40
2.5
 49
1.25
 49
-0.25
 49
0.25
 49
-0.25
 49
0.25
 49
-0.25
  0
LTYPE
  2
DOT
 70
     0
  3
............................................
 72
    65
 73
     2
 40
0.25
 49
0.0
 49
-0.25
  0
LTYPE
  2
DASHDOT
 70
     0
  3
__ . __ . __ . __ . __ . __ . __ . __ . __ .
 72
    65
 73
     4
 40
1.0
 49
0.5
 49
-0.25
 49
0.0
 49
-0.25
  0
LTYPE
  2
BORDER
 70
     0
  3
__ __ . __ __ . __ __ . __ __ . __ __ . __ _
 72
    65
 73
     6
 40
1.75
 49
0.5
 49
-0.25
 49
0.5
 49
-0.25
 49
0.0
 49
-0.25
  0
LTYPE
  2
DIVIDE
 70
     0
  3
__ . . __ . . __ . . __ . . __ . . __ . . __
 72
    65
 73
     6
 40
1.25
 49
0.5
 49
-0.25
 49
0.0
 49
-0.25
 49
0.0
 49
-0.25
  0
LTYPE
  2
DOTS
 70
     0
  3
close                                       
 72
    65
 73
     2
 40
0.1
 49
0.05
 49
-0.05
  0
LTYPE
  2
CLOSE
 70
     0
  3
                                            
 72
    65
 73
     0
 40
0.0
  0
ENDTAB
  0
TABLE
  2
LAYER
 70
     6
  0
LAYER
  2
0
 70
     0
 62
     7
  6
CONTINUOUS
  0
LAYER
  2
LAYER01
 70
     0
 62
     7
  6
CONTINUOUS
  0
LAYER
  2
DATA
 70
     0
 62
     7
  6
CONTINUOUS
  0
LAYER
  2
DIMENSIONS
 70
     0
 62
     7
  6
CONTINUOUS
  0
LAYER
  2
SPEC
 70
     0
 62
     7
  6
CONTINUOUS
  0
LAYER
  2
HIBINO-BASE
 70
     0
 62
     7
  6
CONTINUOUS
  0
ENDTAB
  0
TABLE
  2
STYLE
 70
     2
  0
STYLE
  2
STANDARD
 70
     0
 40
0.0
 41
1.0
 50
0.0
 71
     0
 42
0.2
  3
txt
  4

  0
STYLE
  2
TTF_DEFAULT
 70
     0
 40
0.0
 41
1.0
 50
0.0
 71
     0
 42
0.0
  3
txt
  4
BIGFONT
  0
ENDTAB
  0
TABLE
  2
VIEW
 70
     0
  0
ENDTAB
  0
ENDSEC
  0
SECTION
  2
BLOCKS
  0
ENDSEC
  0
SECTION
  2
ENTITIES
  0
TEXT
  8
SPEC
  6
CONTINUOUS
 62
     7
 10
759.375
 20
3478.125
 40
37.5
  1
6mm×24 六角ボルト -6本 , 菊座 (6mm用) ワッシャー -6枚
  7
TTF_DEFAULT
  0
TEXT
  8
SPEC
  6
CONTINUOUS
 62
     7
 10
759.375
 20
3433.125
 40
37.5
  1
8mm×35 サラネジ -4本 , エンドキャップ 大-4個 小-4個
  7
TTF_DEFAULT
  0
POLYLINE
  8
HIBINO-BASE
  6
CONTINUOUS
 62
     7
 66
     1
 70
     1
 40
4.0
 41
4.0
  0
VERTEX
  8
HIBINO-BASE
 10
150.0
 20
225.0
  0
VERTEX
  8
HIBINO-BASE
 10
150.0
 20
4125.0
  0
VERTEX
  8
HIBINO-BASE
 10
2850.0
 20
4125.0
  0
VERTEX
  8
HIBINO-BASE
 10
2850.0
 20
225.0
  0
SEQEND
  8
HIBINO-BASE
  0
LINE
  8
DIMENSIONS
  6
CONTINUOUS
 62
     7
 10
400.0
 20
900.0
 11
1614.75
 21
900.0
  0
LINE
  8
DIMENSIONS
  6
CONTINUOUS
 62
     7
 10
1868.75
 20
800.0
 11
400.0
 21
800.0
  0
LINE
  8
DATA
  6
CONTINUOUS
 62
     7
 10
440.0
 20
1486.779911
 11
1828.75
 21
1486.779911
  0
LINE
  8
DATA
  6
CONTINUOUS
 62
     7
 10
440.0
 20
1466.779911
 11
1828.75
 21
1466.779911
  0
LINE
  8
DATA
  6
CONTINUOUS
 62
     7
 10
440.0
 20
1414.818387
 11
1828.75
 21
1414.818387
  0
LINE
  8
DATA
  6
CONTINUOUS
 62
     7
 10
440.0
 20
2577.776286
 11
1828.75
 21
2577.776286
  0
LINE
  8
DATA
  6
CONTINUOUS
 62
     7
 10
440.0
 20
2547.776286
 11
1828.75
 21
2547.776286
  0
LINE
  8
DATA
  6
CONTINUOUS
 62
     7
 10
440.0
 20
2513.13527
 11
1828.75
 21
2513.13527
  0
LINE
  8
SPEC
  6
CONTINUOUS
 62
     7
 10
262.5
 20
3975.0
 11
1900.0
 21
3975.0
  0
LINE
  8
SPEC
  6
CONTINUOUS
 62
     7
 10
262.5
 20
3750.0
 11
1900.0
 21
3750.0
  0
LINE
  8
SPEC
  6
CONTINUOUS
 62
     7
 10
262.5
 20
3525.0
 11
1900.0
 21
3525.0
  0
LINE
  8
SPEC
  6
CONTINUOUS
 62
     7
 10
262.5
 20
3412.5
 11
1900.0
 21
3412.5
  0
LINE
  8
DIMENSIONS
  6
CONTINUOUS
 62
     7
 10
300.0
 20
2100.0
 11
300.0
 21
2822.0
  0
LINE
  8
DIMENSIONS
  6
CONTINUOUS
 62
     7
 10
304.9998
 20
2130.0
 11
300.0
 21
2100.0
  0
LINE
  8
DIMENSIONS
  6
CONTINUOUS
 62
     7
 10
295.0002
 20
2130.0
 11
300.0
 21
2100.0
  0
LINE
  8
DATA
  6
CONTINUOUS
 62
     7
 10
440.0
 20
2820.0
 11
440.0
 21
2102.0
  0
LINE
  8
DATA
  6
CONTINUOUS
 62
     7
 10
400.0
 20
2102.0
 11
400.0
 21
2820.0
  0
LINE
  8
DATA
  6
HIDDEN
 62
     7
 10
1106.75
 20
2820.0
 11
1106.75
 21
2102.0
  0
LINE
  8
DATA
  6
HIDDEN
 62
     7
 10
1066.75
 20
2102.0
 11
1066.75
 21
2820.0
  0
LINE
  8
DATA
  6
HIDDEN
 62
     7
 10
1360.75
 20
2820.0
 11
1360.75
 21
2102.0
  0
LINE
  8
DATA
  6
HIDDEN
 62
     7
 10
1320.75
 20
2102.0
 11
1320.75
 21
2820.0
  0
LINE
  8
DIMENSIONS
  6
CONTINUOUS
 62
     7
 10
400.0
 20
1100.0
 11
1106.75
 21
1100.0
  0
LINE
  8
DIMENSIONS
  6
CONTINUOUS
 62
     7
 10
400.0
 20
1000.0
 11
1360.75
 21
1000.0
  0
TEXT
  8
DIMENSIONS
  6
CONTINUOUS
 62
     7
 10
634.317158
 20
1118.75
 40
37.5
  1
706.8 (RT1966)
  7
TTF_DEFAULT
  0
TEXT
  8
DIMENSIONS
  6
CONTINUOUS
 62
     7
 10
624.737792
 20
918.75
 40
37.5
  1
1214.8 (RT1968)
  7
TTF_DEFAULT
  0
TEXT
  8
DIMENSIONS
  6
CONTINUOUS
 62
     7
 10
624.737792
 20
818.75
 40
37.5
  1
1468.8 (RT1969)
  7
TTF_DEFAULT
  0
TEXT
  8
DIMENSIONS
  6
CONTINUOUS
 62
     7
 10
634.317158
 20
1018.75
 40
37.5
  1
960.8 (RT1967)
  7
TTF_DEFAULT
  0
TEXT
  8
HIBINO-BASE
  6
CONTINUOUS
 62
     7
 10
257.76
 20
128.8698
 40
60.0
  1
Hibino Corporation
  7
TTF_DEFAULT
  0
LINE
  8
DIMENSIONS
  6
CONTINUOUS
 62
     7
 10
400.0
 20
1185.0
 11
400.0
 21
781.25
  0
LINE
  8
DIMENSIONS
  6
CONTINUOUS
 62
     7
 10
430.0
 20
895.0002
 11
400.0
 21
900.0
  0
LINE
  8
DIMENSIONS
  6
CONTINUOUS
 62
     7
 10
430.0
 20
904.9998
 11
400.0
 21
900.0
  0
LINE
  8
DIMENSIONS
  6
CONTINUOUS
 62
     7
 10
430.0
 20
804.9998
 11
400.0
 21
800.0
  0
LINE
  8
DIMENSIONS
  6
CONTINUOUS
 62
     7
 10
430.0
 20
795.0002
 11
400.0
 21
800.0
  0
LINE
  8
DIMENSIONS
  6
CONTINUOUS
 62
     7
 10
430.0
 20
995.0002
 11
400.0
 21
1000.0
  0
LINE
  8
DIMENSIONS
  6
CONTINUOUS
 62
     7
 10
430.0
 20
1004.9998
 11
400.0
 21
1000.0
  0
LINE
  8
DIMENSIONS
  6
CONTINUOUS
 62
     7
 10
385.0
 20
1200.0
 11
281.25
 21
1200.0
  0
LINE
  8
DIMENSIONS
  6
CONTINUOUS
 62
     7
 10
385.0
 20
1873.0
 11
281.25
 21
1873.0
  0
LINE
  8
DIMENSIONS
  6
CONTINUOUS
 62
     7
 10
387.0
 20
2100.0
 11
281.25
 21
2100.0
  0
TEXT
  8
DIMENSIONS
  6
HIDDEN
 62
     7
 10
281.25
 20
1505.500749
 40
37.5
  1
673
 50
90.0
  7
TTF_DEFAULT
  0
LINE
  8
DATA
  6
CONTINUOUS
 62
     7
 10
400.0
 20
1200.0
 11
400.0
 21
1873.0
  0
LINE
  8
DATA
  6
CONTINUOUS
 62
     7
 10
440.0
 20
1200.0
 11
440.0
 21
1873.0
  0
LINE
  8
DIMENSIONS
  6
CONTINUOUS
 62
     7
 10
300.0
 20
1200.0
 11
300.0
 21
1873.0
  0
LINE
  8
DATA
  6
CONTINUOUS
 62
     7
 10
400.0
 20
1200.0
 11
440.0
 21
1200.0
  0
LINE
  8
DATA
  6
CONTINUOUS
 62
     7
 10
400.0
 20
1260.0
 11
440.0
 21
1260.0
  0
LINE
  8
DIMENSIONS
  6
CONTINUOUS
 62
     7
 10
304.9998
 20
1230.0
 11
300.0
 21
1200.0
  0
LINE
  8
DIMENSIONS
  6
CONTINUOUS
 62
     7
 10
295.0002
 20
1230.0
 11
300.0
 21
1200.0
  0
LINE
  8
DIMENSIONS
  6
CONTINUOUS
 62
     7
 10
430.0
 20
1095.0002
 11
400.0
 21
1100.0
  0
LINE
  8
DIMENSIONS
  6
CONTINUOUS
 62
     7
 10
430.0
 20
1104.9998
 11
400.0
 21
1100.0
  0
LINE
  8
DATA
  6
CONTINUOUS
 62
     7
 10
400.0
 20
1848.0
 11
440.0
 21
1848.0
  0
LINE
  8
DATA
  6
CONTINUOUS
 62
     7
 10
400.0
 20
1873.0
 11
440.0
 21
1873.0
  0
LINE
  8
DIMENSIONS
  6
CONTINUOUS
 62
     7
 10
304.9998
 20
1843.0
 11
300.0
 21
1873.0
  0
LINE
  8
DIMENSIONS
  6
CONTINUOUS
 62
     7
 10
295.0002
 20
1843.0
 11
300.0
 21
1873.0
  0
ARC
  8
DATA
  6
CONTINUOUS
 62
     7
 10
402.0
 20
2102.0
 40
2.0
 50
180.0
 51
270.0
  0
LINE
  8
DATA
  6
CONTINUOUS
 62
     7
 10
440.0
 20
2102.0
 11
400.0
 21
2102.0
  0
LINE
  8
DATA
  6
CONTINUOUS
 62
     7
 10
440.0
 20
2106.0
 11
400.0
 21
2106.0
  0
ARC
  8
DATA
  6
CONTINUOUS
 62
     7
 10
438.0
 20
2102.0
 40
2.0
 50
270.0
 51
0.0
  0
LINE
  8
DATA
  6
CONTINUOUS
 62
     7
 10
438.0
 20
2100.0
 11
402.0
 21
2100.0
  0
LINE
  8
DIMENSIONS
  6
CONTINUOUS
 62
     7
 10
1360.75
 20
1185.0
 11
1360.75
 21
981.25
  0
LINE
  8
DATA
  6
CONTINUOUS
 62
     7
 10
1025.0
 20
700.0
 11
1175.0
 21
700.0
  0
TEXT
  8
DATA
  6
CONTINUOUS
 62
     7
 10
1045.808155
 20
725.0
 40
33.0
  1
前面図
  7
TTF_DEFAULT
  0
TEXT
  8
DIMENSIONS
  6
CONTINUOUS
 62
     7
 10
1275.0
 20
412.5
 40
37.5
  1
(単位 : mm)
  7
TTF_DEFAULT
  0
LINE
  8
DIMENSIONS
  6
CONTINUOUS
 62
     7
 10
1330.75
 20
995.0002
 11
1360.75
 21
1000.0
  0
LINE
  8
DIMENSIONS
  6
CONTINUOUS
 62
     7
 10
1330.75
 20
1004.9998
 11
1360.75
 21
1000.0
  0
LINE
  8
DATA
  6
HIDDEN
 62
     7
 10
1106.75
 20
1200.0
 11
1066.75
 21
1200.0
  0
LINE
  8
DATA
  6
HIDDEN
 62
     7
 10
1106.75
 20
1260.0
 11
1066.75
 21
1260.0
  0
LINE
  8
DATA
  6
HIDDEN
 62
     7
 10
1106.75
 20
1873.0
 11
1066.75
 21
1873.0
  0
LINE
  8
DATA
  6
HIDDEN
 62
     7
 10
1106.75
 20
1848.0
 11
1066.75
 21
1848.0
  0
LINE
  8
DIMENSIONS
  6
CONTINUOUS
 62
     7
 10
1076.75
 20
1095.0002
 11
1106.75
 21
1100.0
  0
LINE
  8
DIMENSIONS
  6
CONTINUOUS
 62
     7
 10
1076.75
 20
1104.9998
 11
1106.75
 21
1100.0
  0
LINE
  8
DATA
  6
CONTINUOUS
 62
     7
 10
1025.0
 20
2000.0
 11
1175.0
 21
2000.0
  0
LINE
  8
DATA
  6
HIDDEN
 62
     7
 10
1106.75
 20
2102.0
 11
1066.75
 21
2102.0
  0
LINE
  8
DATA
  6
HIDDEN
 62
     7
 10
1106.75
 20
2106.0
 11
1066.75
 21
2106.0
  0
LINE
  8
DATA
  6
HIDDEN
 62
     7
 10
1104.75
 20
2100.0
 11
1068.75
 21
2100.0
  0
TEXT
  8
DATA
  6
CONTINUOUS
 62
     7
 10
1045.808155
 20
2025.0
 40
33.0
  1
上面図
  7
TTF_DEFAULT
  0
LINE
  8
DATA
  6
HIDDEN
 62
     7
 10
1066.75
 20
1200.0
 11
1066.75
 21
1873.0
  0
ARC
  8
DATA
  6
HIDDEN
 62
     7
 10
1068.75
 20
2102.0
 40
2.0
 50
180.0
 51
270.0
  0
LINE
  8
DATA
  6
HIDDEN
 62
     7
 10
1360.75
 20
1200.0
 11
1360.75
 21
1873.0
  0
LINE
  8
DATA
  6
HIDDEN
 62
     7
 10
1320.75
 20
1200.0
 11
1320.75
 21
1873.0
  0
LINE
  8
DATA
  6
HIDDEN
 62
     7
 10
1106.75
 20
1200.0
 11
1106.75
 21
1873.0
  0
LINE
  8
DATA
  6
HIDDEN
 62
     7
 10
1360.75
 20
1200.0
 11
1320.75
 21
1200.0
  0
LINE
  8
DATA
  6
HIDDEN
 62
     7
 10
1360.75
 20
1260.0
 11
1320.75
 21
1260.0
  0
LINE
  8
DIMENSIONS
  6
CONTINUOUS
 62
     7
 10
1106.75
 20
1185.0
 11
1106.75
 21
1081.25
  0
LINE
  8
DATA
  6
HIDDEN
 62
     7
 10
1360.75
 20
1848.0
 11
1320.75
 21
1848.0
  0
LINE
  8
DATA
  6
HIDDEN
 62
     7
 10
1360.75
 20
1873.0
 11
1320.75
 21
1873.0
  0
ARC
  8
DATA
  6
HIDDEN
 62
     7
 10
1104.75
 20
2102.0
 40
2.0
 50
270.0
 51
0.0
  0
LINE
  8
DATA
  6
HIDDEN
 62
     7
 10
1360.75
 20
2102.0
 11
1320.75
 21
2102.0
  0
LINE
  8
DATA
  6
HIDDEN
 62
     7
 10
1360.75
 20
2106.0
 11
1320.75
 21
2106.0
  0
LINE
  8
DATA
  6
HIDDEN
 62
     7
 10
1358.75
 20
2100.0
 11
1322.75
 21
2100.0
  0
ARC
  8
DATA
  6
HIDDEN
 62
     7
 10
1322.75
 20
2102.0
 40
2.0
 50
180.0
 51
270.0
  0
ARC
  8
DATA
  6
HIDDEN
 62
     7
 10
1358.75
 20
2102.0
 40
2.0
 50
270.0
 51
0.0
  0
LINE
  8
DIMENSIONS
  6
CONTINUOUS
 62
     7
 10
387.0
 20
2822.0
 11
281.25
 21
2822.0
  0
TEXT
  8
DIMENSIONS
  6
CONTINUOUS
 62
     7
 10
281.25
 20
2429.676341
 40
37.5
  1
722
 50
90.0
  7
TTF_DEFAULT
  0
CIRCLE
  8
DATA
  6
CONTINUOUS
 62
     7
 10
420.0
 20
2651.65
 40
10.95
  0
CIRCLE
  8
DATA
  6
CONTINUOUS
 62
     7
 10
420.0
 20
2633.5
 40
6.2
  0
CIRCLE
  8
DATA
  6
CONTINUOUS
 62
     7
 10
420.0
 20
2351.5
 40
6.2
  0
LINE
  8
DATA
  6
CONTINUOUS
 62
     7
 10
440.0
 20
2170.5
 11
400.0
 21
2170.5
  0
LINE
  8
DATA
  6
CONTINUOUS
 62
     7
 10
440.0
 20
2173.5
 11
400.0
 21
2173.5
  0
ARC
  8
DATA
  6
CONTINUOUS
 62
     7
 10
402.0
 20
2170.5
 40
2.0
 50
180.0
 51
270.0
  0
ARC
  8
DATA
  6
CONTINUOUS
 62
     7
 10
438.0
 20
2170.5
 40
2.0
 50
270.0
 51
0.0
  0
LINE
  8
DATA
  6
CONTINUOUS
 62
     7
 10
438.0
 20
2168.5
 11
402.0
 21
2168.5
  0
CIRCLE
  8
DATA
  6
CONTINUOUS
 62
     7
 10
420.0
 20
2197.5
 40
4.5
  0
CIRCLE
  8
DATA
  6
CONTINUOUS
 62
     7
 10
420.0
 20
2222.15
 40
10.95
  0
LINE
  8
DIMENSIONS
  6
CONTINUOUS
 62
     7
 10
304.9998
 20
2792.0
 11
300.0
 21
2822.0
  0
LINE
  8
DIMENSIONS
  6
CONTINUOUS
 62
     7
 10
295.0002
 20
2792.0
 11
300.0
 21
2822.0
  0
LINE
  8
DATA
  6
CONTINUOUS
 62
     7
 10
440.0
 20
2820.0
 11
400.0
 21
2820.0
  0
LINE
  8
DATA
  6
CONTINUOUS
 62
     7
 10
440.0
 20
2816.0
 11
400.0
 21
2816.0
  0
ARC
  8
DATA
  6
CONTINUOUS
 62
     7
 10
438.0
 20
2820.0
 40
2.0
 50
0.0
 51
90.0
  0
LINE
  8
DATA
  6
CONTINUOUS
 62
     7
 10
438.0
 20
2822.0
 11
402.0
 21
2822.0
  0
ARC
  8
DATA
  6
CONTINUOUS
 62
     7
 10
402.0
 20
2820.0
 40
2.0
 50
90.0
 51
180.0
  0
LINE
  8
DATA
  6
CONTINUOUS
 62
     7
 10
440.0
 20
2748.5
 11
400.0
 21
2748.5
  0
LINE
  8
DATA
  6
CONTINUOUS
 62
     7
 10
440.0
 20
2751.5
 11
400.0
 21
2751.5
  0
ARC
  8
DATA
  6
CONTINUOUS
 62
     7
 10
402.0
 20
2751.5
 40
2.0
 50
90.0
 51
180.0
  0
ARC
  8
DATA
  6
CONTINUOUS
 62
     7
 10
438.0
 20
2751.5
 40
2.0
 50
0.0
 51
90.0
  0
LINE
  8
DATA
  6
CONTINUOUS
 62
     7
 10
438.0
 20
2753.5
 11
402.0
 21
2753.5
  0
CIRCLE
  8
DATA
  6
CONTINUOUS
 62
     7
 10
420.0
 20
2724.5
 40
4.5
  0
TEXT
  8
SPEC
  6
CONTINUOUS
 62
     7
 10
281.25
 20
3993.75
 40
45.0
  1
仕様
  7
TTF_DEFAULT
  0
TEXT
  8
SPEC
  6
CONTINUOUS
 62
     7
 10
271.875
 20
3928.125
 40
37.5
  1
寸法
  7
TTF_DEFAULT
  0
TEXT
  8
SPEC
  6
CONTINUOUS
 62
     7
 10
271.875
 20
3703.125
 40
37.5
  1
重量
  7
TTF_DEFAULT
  0
TEXT
  8
SPEC
  6
CONTINUOUS
 62
     7
 10
271.875
 20
3478.125
 40
37.5
  1
付属品
  7
TTF_DEFAULT
  0
LINE
  8
SPEC
  6
CONTINUOUS
 62
     7
 10
262.5
 20
3412.5
 11
262.5
 21
3975.0
  0
LINE
  8
DATA
  6
HIDDEN
 62
     7
 10
1106.75
 20
2820.0
 11
1066.75
 21
2820.0
  0
LINE
  8
DATA
  6
HIDDEN
 62
     7
 10
1106.75
 20
2816.0
 11
1066.75
 21
2816.0
  0
LINE
  8
DATA
  6
HIDDEN
 62
     7
 10
1104.75
 20
2822.0
 11
1068.75
 21
2822.0
  0
LINE
  8
DATA
  6
HIDDEN
 62
     7
 10
1106.75
 20
2748.5
 11
1066.75
 21
2748.5
  0
LINE
  8
DATA
  6
HIDDEN
 62
     7
 10
1106.75
 20
2751.5
 11
1066.75
 21
2751.5
  0
LINE
  8
DATA
  6
HIDDEN
 62
     7
 10
1104.75
 20
2753.5
 11
1068.75
 21
2753.5
  0
CIRCLE
  8
DATA
  6
HIDDEN
 62
     7
 10
1086.75
 20
2651.65
 40
10.95
  0
CIRCLE
  8
DATA
  6
HIDDEN
 62
     7
 10
1086.75
 20
2633.5
 40
6.2
  0
CIRCLE
  8
DATA
  6
HIDDEN
 62
     7
 10
1086.75
 20
2351.5
 40
6.2
  0
LINE
  8
DATA
  6
HIDDEN
 62
     7
 10
1106.75
 20
2170.5
 11
1066.75
 21
2170.5
  0
LINE
  8
DATA
  6
HIDDEN
 62
     7
 10
1106.75
 20
2173.5
 11
1066.75
 21
2173.5
  0
LINE
  8
DATA
  6
HIDDEN
 62
     7
 10
1104.75
 20
2168.5
 11
1068.75
 21
2168.5
  0
CIRCLE
  8
DATA
  6
HIDDEN
 62
     7
 10
1086.75
 20
2222.15
 40
10.95
  0
ARC
  8
DATA
  6
HIDDEN
 62
     7
 10
1068.75
 20
2170.5
 40
2.0
 50
180.0
 51
270.0
  0
ARC
  8
DATA
  6
HIDDEN
 62
     7
 10
1068.75
 20
2820.0
 40
2.0
 50
90.0
 51
180.0
  0
ARC
  8
DATA
  6
HIDDEN
 62
     7
 10
1068.75
 20
2751.5
 40
2.0
 50
90.0
 51
180.0
  0
ARC
  8
DATA
  6
HIDDEN
 62
     7
 10
1104.75
 20
2170.5
 40
2.0
 50
270.0
 51
0.0
  0
CIRCLE
  8
DATA
  6
HIDDEN
 62
     7
 10
1086.75
 20
2197.5
 40
4.5
  0
CIRCLE
  8
DATA
  6
HIDDEN
 62
     7
 10
1340.75
 20
2651.65
 40
10.95
  0
CIRCLE
  8
DATA
  6
HIDDEN
 62
     7
 10
1340.75
 20
2633.5
 40
6.2
  0
CIRCLE
  8
DATA
  6
HIDDEN
 62
     7
 10
1340.75
 20
2351.5
 40
6.2
  0
LINE
  8
DATA
  6
HIDDEN
 62
     7
 10
1360.75
 20
2170.5
 11
1320.75
 21
2170.5
  0
LINE
  8
DATA
  6
HIDDEN
 62
     7
 10
1360.75
 20
2173.5
 11
1320.75
 21
2173.5
  0
LINE
  8
DATA
  6
HIDDEN
 62
     7
 10
1358.75
 20
2168.5
 11
1322.75
 21
2168.5
  0
CIRCLE
  8
DATA
  6
HIDDEN
 62
     7
 10
1340.75
 20
2222.15
 40
10.95
  0
ARC
  8
DATA
  6
HIDDEN
 62
     7
 10
1322.75
 20
2170.5
 40
2.0
 50
180.0
 51
270.0
  0
ARC
  8
DATA
  6
HIDDEN
 62
     7
 10
1358.75
 20
2170.5
 40
2.0
 50
270.0
 51
0.0
  0
CIRCLE
  8
DATA
  6
HIDDEN
 62
     7
 10
1340.75
 20
2197.5
 40
4.5
  0
ARC
  8
DATA
  6
HIDDEN
 62
     7
 10
1104.75
 20
2820.0
 40
2.0
 50
0.0
 51
90.0
  0
ARC
  8
DATA
  6
HIDDEN
 62
     7
 10
1104.75
 20
2751.5
 40
2.0
 50
0.0
 51
90.0
  0
CIRCLE
  8
DATA
  6
HIDDEN
 62
     7
 10
1086.75
 20
2724.5
 40
4.5
  0
LINE
  8
DATA
  6
HIDDEN
 62
     7
 10
1360.75
 20
2820.0
 11
1320.75
 21
2820.0
  0
LINE
  8
DATA
  6
HIDDEN
 62
     7
 10
1360.75
 20
2816.0
 11
1320.75
 21
2816.0
  0
LINE
  8
DATA
  6
HIDDEN
 62
     7
 10
1358.75
 20
2822.0
 11
1322.75
 21
2822.0
  0
LINE
  8
DATA
  6
HIDDEN
 62
     7
 10
1360.75
 20
2748.5
 11
1320.75
 21
2748.5
  0
LINE
  8
DATA
  6
HIDDEN
 62
     7
 10
1360.75
 20
2751.5
 11
1320.75
 21
2751.5
  0
LINE
  8
DATA
  6
HIDDEN
 62
     7
 10
1358.75
 20
2753.5
 11
1322.75
 21
2753.5
  0
ARC
  8
DATA
  6
HIDDEN
 62
     7
 10
1322.75
 20
2820.0
 40
2.0
 50
90.0
 51
180.0
  0
ARC
  8
DATA
  6
HIDDEN
 62
     7
 10
1322.75
 20
2751.5
 40
2.0
 50
90.0
 51
180.0
  0
ARC
  8
DATA
  6
HIDDEN
 62
     7
 10
1358.75
 20
2820.0
 40
2.0
 50
0.0
 51
90.0
  0
ARC
  8
DATA
  6
HIDDEN
 62
     7
 10
1358.75
 20
2751.5
 40
2.0
 50
0.0
 51
90.0
  0
CIRCLE
  8
DATA
  6
HIDDEN
 62
     7
 10
1340.75
 20
2724.5
 40
4.5
  0
TEXT
  8
SPEC
  6
CONTINUOUS
 62
     7
 10
759.375
 20
3928.125
 40
37.5
  1
RT1966 : 706.8(W)×673(H)×722(D)mm
  7
TTF_DEFAULT
  0
TEXT
  8
SPEC
  6
CONTINUOUS
 62
     7
 10
759.375
 20
3883.125
 40
37.5
  1
RT1967 : 960.8(W)×673(H)×722(D)mm
  7
TTF_DEFAULT
  0
TEXT
  8
SPEC
  6
CONTINUOUS
 62
     7
 10
759.375
 20
3838.125
 40
37.5
  1
RT1968 : 1214.8(W)×673(H)×722(D)mm
  7
TTF_DEFAULT
  0
TEXT
  8
SPEC
  6
CONTINUOUS
 62
     7
 10
759.375
 20
3793.125
 40
37.5
  1
RT1969 : 1468.8(W)×673(H)×722(D)mm
  7
TTF_DEFAULT
  0
LINE
  8
SPEC
  6
CONTINUOUS
 62
     7
 10
750.0
 20
3975.0
 11
750.0
 21
3412.5
  0
TEXT
  8
SPEC
  6
CONTINUOUS
 62
     7
 10
759.375
 20
3703.125
 40
37.5
  1
RT1966 : 約17kg
  7
TTF_DEFAULT
  0
TEXT
  8
SPEC
  6
CONTINUOUS
 62
     7
 10
759.375
 20
3658.125
 40
37.5
  1
RT1967 : 約18kg
  7
TTF_DEFAULT
  0
TEXT
  8
SPEC
  6
CONTINUOUS
 62
     7
 10
759.375
 20
3613.125
 40
37.5
  1
RT1968 : 約19kg
  7
TTF_DEFAULT
  0
TEXT
  8
SPEC
  6
CONTINUOUS
 62
     7
 10
759.375
 20
3568.125
 40
37.5
  1
RT1969 : 約21kg
  7
TTF_DEFAULT
  0
LINE
  8
DATA
  6
CONTINUOUS
 62
     7
 10
1868.75
 20
2820.0
 11
1868.75
 21
2102.0
  0
LINE
  8
DATA
  6
CONTINUOUS
 62
     7
 10
1828.75
 20
2102.0
 11
1828.75
 21
2820.0
  0
LINE
  8
DATA
  6
HIDDEN
 62
     7
 10
1614.75
 20
2820.0
 11
1614.75
 21
2102.0
  0
LINE
  8
DATA
  6
HIDDEN
 62
     7
 10
1574.75
 20
2102.0
 11
1574.75
 21
2820.0
  0
TEXT
  8
HIBINO-BASE
  6
CONTINUOUS
 62
     7
 10
2231.25
 20
262.5
 40
37.5
  1
N.Sasaki
  7
TTF_DEFAULT
  0
LINE
  8
HIBINO-BASE
  6
CONTINUOUS
 62
     7
 10
1500.0
 20
375.0
 11
2850.0
 21
375.0
  0
TEXT
  8
HIBINO-BASE
  6
CONTINUOUS
 62
     7
 10
2220.0
 20
337.5
 40
37.5
  1
DRAWN
  7
TTF_DEFAULT
  0
LINE
  8
0
  6
CONTINUOUS
 62
     7
 10
1500.0
 20
564.5
 11
2850.0
 21
564.5
  0
LINE
  8
0
  6
CONTINUOUS
 62
     7
 10
1500.0
 20
560.5
 11
2850.0
 21
560.5
  0
LINE
  8
0
  6
CONTINUOUS
 62
     7
 10
1500.0
 20
564.5
 11
1500.0
 21
560.5
  0
LINE
  8
0
  6
CONTINUOUS
 62
     7
 10
2850.0
 20
564.5
 11
2850.0
 21
560.5
  0
SOLID
  8
HIBINO-BASE
  6
CONTINUOUS
 62
     7
 10
1500.0
 20
564.5
 11
2850.0
 21
564.5
 12
1500.0
 22
560.5
 13
2850.0
 23
560.5
  0
LINE
  8
DATA
  6
CONTINUOUS
 62
     7
 10
2167.5
 20
1848.0
 11
2506.981958
 21
1260.0
  0
LINE
  8
DATA
  6
CONTINUOUS
 62
     7
 10
1996.0
 20
1260.0
 11
2506.981958
 21
1260.0
  0
LINE
  8
DATA
  6
CONTINUOUS
 62
     7
 10
2714.0
 20
1200.0
 11
1996.0
 21
1200.0
  0
LINE
  8
DATA
  6
CONTINUOUS
 62
     7
 10
2064.5
 20
1873.0
 11
2645.5
 21
1873.0
  0
LINE
  8
DIMENSIONS
  6
CONTINUOUS
 62
     7
 10
1994.0
 20
1100.0
 11
2716.0
 21
1100.0
  0
LINE
  8
DIMENSIONS
  6
CONTINUOUS
 62
     7
 10
2062.5
 20
2000.0
 11
2647.5
 21
2000.0
  0
LINE
  8
DATA
  6
CONTINUOUS
 62
     7
 10
2236.782032
 20
1848.0
 11
2645.5
 21
1848.0
  0
LINE
  8
DATA
  6
CONTINUOUS
 62
     7
 10
2236.782032
 20
1848.0
 11
2576.263991
 21
1260.0
  0
TEXT
  8
DATA
  6
CONTINUOUS
 62
     7
 10
2237.5
 20
496.875
 40
45.0
  1
Soundcraft
  7
TTF_DEFAULT
  0
TEXT
  8
DATA
  6
CONTINUOUS
 62
     7
 10
2162.5
 20
440.625
 40
33.0
  1
RT1966 (INPUT24ch) , RT1967 (INPUT32ch)
  7
TTF_DEFAULT
  0
TEXT
  8
DATA
  6
CONTINUOUS
 62
     7
 10
2162.5
 20
403.125
 40
33.0
  1
RT1968 (INPUT40ch) , RT1969 (INPUT48ch)
  7
TTF_DEFAULT
  0
LINE
  8
DIMENSIONS
  6
CONTINUOUS
 62
     7
 10
1614.75
 20
1185.0
 11
1614.75
 21
881.25
  0
LINE
  8
DIMENSIONS
  6
CONTINUOUS
 62
     7
 10
1868.75
 20
1185.0
 11
1868.75
 21
781.25
  0
TEXT
  8
HIBINO-BASE
  6
CONTINUOUS
 62
     7
 10
1845.0
 20
337.5
 40
37.5
  1
DATE
  7
TTF_DEFAULT
  0
TEXT
  8
HIBINO-BASE
  6
CONTINUOUS
 62
     7
 10
1856.25
 20
262.5
 40
37.5
  1
'99.06.
  7
TTF_DEFAULT
  0
LINE
  8
0
  6
CONTINUOUS
 62
     7
 10
1498.0
 20
225.0
 11
1498.0
 21
562.5
  0
LINE
  8
0
  6
CONTINUOUS
 62
     7
 10
1502.0
 20
225.0
 11
1502.0
 21
562.5
  0
LINE
  8
0
  6
CONTINUOUS
 62
     7
 10
1498.0
 20
225.0
 11
1502.0
 21
225.0
  0
LINE
  8
0
  6
CONTINUOUS
 62
     7
 10
1498.0
 20
562.5
 11
1502.0
 21
562.5
  0
SOLID
  8
HIBINO-BASE
  6
CONTINUOUS
 62
     7
 10
1498.0
 20
225.0
 11
1498.0
 21
562.5
 12
1502.0
 22
225.0
 13
1502.0
 23
562.5
  0
TEXT
  8
HIBINO-BASE
  6
CONTINUOUS
 62
     7
 10
1556.25
 20
243.75
 40
60.0
  1
A4
  7
TTF_DEFAULT
  0
LINE
  8
HIBINO-BASE
  6
CONTINUOUS
 62
     7
 10
1715.625
 20
243.75
 11
1771.875
 21
300.0
  0
TEXT
  8
HIBINO-BASE
  6
CONTINUOUS
 62
     7
 10
1706.25
 20
271.875
 40
45.0
  1
1
  7
TTF_DEFAULT
  0
TEXT
  8
HIBINO-BASE
  6
CONTINUOUS
 62
     7
 10
1507.5
 20
337.5
 40
33.75
  1
図面サイズ
  7
TTF_DEFAULT
  0
TEXT
  8
HIBINO-BASE
  6
CONTINUOUS
 62
     7
 10
1695.0
 20
337.5
 40
37.5
  1
SCALE
  7
TTF_DEFAULT
  0
LINE
  8
HIBINO-BASE
  6
CONTINUOUS
 62
     7
 10
1837.5
 20
225.0
 11
1837.5
 21
375.0
  0
LINE
  8
HIBINO-BASE
  6
CONTINUOUS
 62
     7
 10
1687.5
 20
225.0
 11
1687.5
 21
375.0
  0
TEXT
  8
HIBINO-BASE
  6
CONTINUOUS
 62
     7
 10
1762.5
 20
243.75
 40
45.0
  1
15
  7
TTF_DEFAULT
  0
TEXT
  8
HIBINO-BASE
  6
CONTINUOUS
 62
     7
 10
1507.5
 20
525.0
 40
37.5
  1
NOTE
  7
TTF_DEFAULT
  0
LINE
  8
DIMENSIONS
  6
CONTINUOUS
 62
     7
 10
1584.75
 20
895.0002
 11
1614.75
 21
900.0
  0
LINE
  8
DIMENSIONS
  6
CONTINUOUS
 62
     7
 10
1584.75
 20
904.9998
 11
1614.75
 21
900.0
  0
LINE
  8
DIMENSIONS
  6
CONTINUOUS
 62
     7
 10
1838.75
 20
804.9998
 11
1868.75
 21
800.0
  0
LINE
  8
DIMENSIONS
  6
CONTINUOUS
 62
     7
 10
1838.75
 20
795.0002
 11
1868.75
 21
800.0
  0
LINE
  8
HIBINO-BASE
  6
CONTINUOUS
 62
     7
 10
2025.0
 20
225.0
 11
2025.0
 21
562.5
  0
TEXT
  8
HIBINO-BASE
  6
CONTINUOUS
 62
     7
 10
2032.5
 20
337.5
 40
37.5
  1
DESIGN
  7
TTF_DEFAULT
  0
LINE
  8
HIBINO-BASE
  6
CONTINUOUS
 62
     7
 10
2212.5
 20
375.0
 11
2212.5
 21
225.0
  0
TEXT
  8
HIBINO-BASE
  6
CONTINUOUS
 62
     7
 10
2032.5
 20
525.0
 40
37.5
  1
TITLE
  7
TTF_DEFAULT
  0
LINE
  8
DATA
  6
CONTINUOUS
 62
     7
 10
1868.75
 20
1200.0
 11
1868.75
 21
1873.0
  0
LINE
  8
DATA
  6
CONTINUOUS
 62
     7
 10
1828.75
 20
1200.0
 11
1828.75
 21
1873.0
  0
LINE
  8
DATA
  6
HIDDEN
 62
     7
 10
1614.75
 20
1200.0
 11
1614.75
 21
1873.0
  0
LINE
  8
DATA
  6
HIDDEN
 62
     7
 10
1574.75
 20
1200.0
 11
1574.75
 21
1873.0
  0
LINE
  8
DATA
  6
CONTINUOUS
 62
     7
 10
1868.75
 20
1200.0
 11
1828.75
 21
1200.0
  0
LINE
  8
DATA
  6
CONTINUOUS
 62
     7
 10
1868.75
 20
1260.0
 11
1828.75
 21
1260.0
  0
LINE
  8
DATA
  6
HIDDEN
 62
     7
 10
1614.75
 20
1200.0
 11
1574.75
 21
1200.0
  0
LINE
  8
DATA
  6
HIDDEN
 62
     7
 10
1614.75
 20
1260.0
 11
1574.75
 21
1260.0
  0
LINE
  8
DATA
  6
CONTINUOUS
 62
     7
 10
1868.75
 20
1848.0
 11
1828.75
 21
1848.0
  0
LINE
  8
DATA
  6
HIDDEN
 62
     7
 10
1614.75
 20
1848.0
 11
1574.75
 21
1848.0
  0
LINE
  8
DATA
  6
CONTINUOUS
 62
     7
 10
1868.75
 20
1873.0
 11
1828.75
 21
1873.0
  0
LINE
  8
DATA
  6
HIDDEN
 62
     7
 10
1614.75
 20
1873.0
 11
1574.75
 21
1873.0
  0
ARC
  8
DATA
  6
CONTINUOUS
 62
     7
 10
1830.75
 20
2102.0
 40
2.0
 50
180.0
 51
270.0
  0
LINE
  8
DATA
  6
CONTINUOUS
 62
     7
 10
1868.75
 20
2102.0
 11
1828.75
 21
2102.0
  0
LINE
  8
DATA
  6
CONTINUOUS
 62
     7
 10
1868.75
 20
2106.0
 11
1828.75
 21
2106.0
  0
ARC
  8
DATA
  6
CONTINUOUS
 62
     7
 10
1866.75
 20
2102.0
 40
2.0
 50
270.0
 51
0.0
  0
LINE
  8
DATA
  6
CONTINUOUS
 62
     7
 10
1866.75
 20
2100.0
 11
1830.75
 21
2100.0
  0
LINE
  8
DATA
  6
HIDDEN
 62
     7
 10
1614.75
 20
2102.0
 11
1574.75
 21
2102.0
  0
LINE
  8
DATA
  6
HIDDEN
 62
     7
 10
1614.75
 20
2106.0
 11
1574.75
 21
2106.0
  0
LINE
  8
DATA
  6
HIDDEN
 62
     7
 10
1612.75
 20
2100.0
 11
1576.75
 21
2100.0
  0
ARC
  8
DATA
  6
HIDDEN
 62
     7
 10
1576.75
 20
2102.0
 40
2.0
 50
180.0
 51
270.0
  0
ARC
  8
DATA
  6
HIDDEN
 62
     7
 10
1612.75
 20
2102.0
 40
2.0
 50
270.0
 51
0.0
  0
LINE
  8
DATA
  6
CONTINUOUS
 62
     7
 10
2000.0
 20
1200.0
 11
2000.0
 21
1260.0
  0
LINE
  8
DATA
  6
CONTINUOUS
 62
     7
 10
1996.0
 20
1200.0
 11
1996.0
 21
1260.0
  0
ARC
  8
DATA
  6
CONTINUOUS
 62
     7
 10
1996.0
 20
1258.0
 40
2.0
 50
90.0
 51
180.0
  0
LINE
  8
DATA
  6
CONTINUOUS
 62
     7
 10
1994.0
 20
1202.0
 11
1994.0
 21
1258.0
  0
ARC
  8
DATA
  6
CONTINUOUS
 62
     7
 10
1996.0
 20
1202.0
 40
2.0
 50
180.0
 51
270.0
  0
LINE
  8
DIMENSIONS
  6
CONTINUOUS
 62
     7
 10
1994.0
 20
1187.0
 11
1994.0
 21
1081.25
  0
LINE
  8
DIMENSIONS
  6
CONTINUOUS
 62
     7
 10
2024.0
 20
1095.0002
 11
1994.0
 21
1100.0
  0
LINE
  8
DIMENSIONS
  6
CONTINUOUS
 62
     7
 10
2024.0
 20
1104.9998
 11
1994.0
 21
1100.0
  0
LINE
  8
DATA
  6
CONTINUOUS
 62
     7
 10
2067.5
 20
1848.0
 11
2067.5
 21
1873.0
  0
LINE
  8
DATA
  6
CONTINUOUS
 62
     7
 10
2064.5
 20
1848.0
 11
2064.5
 21
1873.0
  0
LINE
  8
DATA
  6
CONTINUOUS
 62
     7
 10
2062.5
 20
1850.0
 11
2062.5
 21
1871.0
  0
LINE
  8
DATA
  6
CONTINUOUS
 62
     7
 10
2064.5
 20
1848.0
 11
2167.5
 21
1848.0
  0
ARC
  8
DATA
  6
CONTINUOUS
 62
     7
 10
2064.5
 20
1850.0
 40
2.0
 50
180.0
 51
270.0
  0
ARC
  8
DATA
  6
CONTINUOUS
 62
     7
 10
2064.5
 20
1871.0
 40
2.0
 50
90.0
 51
180.0
  0
LINE
  8
DIMENSIONS
  6
CONTINUOUS
 62
     7
 10
2062.5
 20
1886.0
 11
2062.5
 21
2018.75
  0
LINE
  8
DIMENSIONS
  6
CONTINUOUS
 62
     7
 10
2092.5
 20
1995.0002
 11
2062.5
 21
2000.0
  0
LINE
  8
DIMENSIONS
  6
CONTINUOUS
 62
     7
 10
2092.5
 20
2004.9998
 11
2062.5
 21
2000.0
  0
TEXT
  8
HIBINO-BASE
  6
CONTINUOUS
 62
     7
 10
2380.950394
 20
128.8698
 40
60.0
  1
ヒビノ株式会社
  7
TTF_DEFAULT
  0
TEXT
  8
HIBINO-BASE
  6
CONTINUOUS
 62
     7
 10
2595.0
 20
337.5
 40
37.5
  1
DRAWING NO.
  7
TTF_DEFAULT
  0
TEXT
  8
DATA
  6
CONTINUOUS
 62
     7
 10
2500.0
 20
496.875
 40
30.0
  1
K3&SM12用スタ ンド
  7
TTF_DEFAULT
  0
TEXT
  8
HIBINO-BASE
  6
CONTINUOUS
 62
     7
 10
2407.5
 20
337.5
 40
37.5
  1
CHECK
  7
TTF_DEFAULT
  0
LINE
  8
HIBINO-BASE
  6
CONTINUOUS
 62
     7
 10
2587.5
 20
375.0
 11
2587.5
 21
225.0
  0
LINE
  8
HIBINO-BASE
  6
CONTINUOUS
 62
     7
 10
2400.0
 20
225.0
 11
2400.0
 21
375.0
  0
LINE
  8
DATA
  6
CONTINUOUS
 62
     7
 10
2275.0
 20
700.0
 11
2425.0
 21
700.0
  0
TEXT
  8
DATA
  6
CONTINUOUS
 62
     7
 10
2295.808155
 20
725.0
 40
33.0
  1
側面図
  7
TTF_DEFAULT
  0
LINE
  8
DATA
  6
CONTINUOUS
 62
     7
 10
2576.263991
 20
1260.0
 11
2714.0
 21
1260.0
  0
LINE
  8
DATA
  6
HIDDEN
 62
     7
 10
2441.276286
 20
1487.645936
 11
2472.276286
 21
1433.952361
  0
LINE
  8
DATA
  6
HIDDEN
 62
     7
 10
2405.336232
 20
1466.895936
 11
2441.276286
 21
1487.645936
  0
LINE
  8
DATA
  6
HIDDEN
 62
     7
 10
2411.233346
 20
1465.681835
 11
2440.67821
 21
1482.681835
  0
LINE
  8
DATA
  6
HIDDEN
 62
     7
 10
2440.67821
 20
1482.681835
 11
2467.67821
 21
1435.916463
  0
LINE
  8
DATA
  6
HIDDEN
 62
     7
 10
2407.13527
 20
1466.779911
 11
2441.776286
 21
1486.779911
  0
LINE
  8
DATA
  6
CONTINUOUS
 62
     7
 10
2460.107584
 20
1469.188798
 11
2465.707584
 21
1459.489313
  0
LINE
  8
DATA
  6
CONTINUOUS
 62
     7
 10
2456.643483
 20
1467.188798
 11
2460.107584
 21
1469.188798
  0
LINE
  8
DATA
  6
HIDDEN
 62
     7
 10
2472.276286
 20
1433.952361
 11
2436.336232
 21
1413.202361
  0
LINE
  8
DATA
  6
HIDDEN
 62
     7
 10
2405.336232
 20
1466.895936
 11
2436.336232
 21
1413.202361
  0
LINE
  8
DATA
  6
HIDDEN
 62
     7
 10
2438.233346
 20
1418.916463
 11
2467.67821
 21
1435.916463
  0
LINE
  8
DATA
  6
HIDDEN
 62
     7
 10
2471.776286
 20
1434.818387
 11
2437.13527
 21
1414.818387
  0
LINE
  8
DATA
  6
HIDDEN
 62
     7
 10
2438.233346
 20
1418.916463
 11
2411.233346
 21
1465.681835
  0
LINE
  8
DATA
  6
HIDDEN
 62
     7
 10
2437.13527
 20
1414.818387
 11
2407.13527
 21
1466.779911
  0
LINE
  8
DATA
  6
CONTINUOUS
 62
     7
 10
2468.107584
 20
1455.332391
 11
2473.707584
 21
1445.632907
  0
LINE
  8
DATA
  6
CONTINUOUS
 62
     7
 10
2470.243483
 20
1443.632907
 11
2473.707584
 21
1445.632907
  0
LINE
  8
DATA
  6
CONTINUOUS
 62
     7
 10
2468.843483
 20
1446.057778
 11
2472.307584
 21
1448.057778
  0
LINE
  8
DATA
  6
CONTINUOUS
 62
     7
 10
2466.043483
 20
1450.90752
 11
2469.507584
 21
1452.90752
  0
LINE
  8
DATA
  6
CONTINUOUS
 62
     7
 10
2464.643483
 20
1453.332391
 11
2468.107584
 21
1455.332391
  0
LINE
  8
DATA
  6
CONTINUOUS
 62
     7
 10
2462.243483
 20
1457.489313
 11
2465.707584
 21
1459.489313
  0
LINE
  8
DATA
  6
CONTINUOUS
 62
     7
 10
2460.843483
 20
1459.914184
 11
2464.307584
 21
1461.914184
  0
LINE
  8
DATA
  6
CONTINUOUS
 62
     7
 10
2458.043483
 20
1464.763926
 11
2461.507584
 21
1466.763926
  0
TEXT
  8
DIMENSIONS
  6
CONTINUOUS
 62
     7
 10
2324.000749
 20
1118.75
 40
37.5
  1
722
  7
TTF_DEFAULT
  0
LINE
  8
DATA
  6
CONTINUOUS
 62
     7
 10
2452.107584
 20
1483.045204
 11
2457.707584
 21
1473.34572
  0
LINE
  8
DATA
  6
CONTINUOUS
 62
     7
 10
2454.243483
 20
1471.34572
 11
2457.707584
 21
1473.34572
  0
LINE
  8
DATA
  6
CONTINUOUS
 62
     7
 10
2452.843483
 20
1473.770591
 11
2456.307584
 21
1475.770591
  0
LINE
  8
DATA
  6
CONTINUOUS
 62
     7
 10
2450.043483
 20
1478.620333
 11
2453.507584
 21
1480.620333
  0
LINE
  8
DATA
  6
CONTINUOUS
 62
     7
 10
2448.643483
 20
1481.045204
 11
2452.107584
 21
1483.045204
  0
TEXT
  8
DIMENSIONS
  6
CONTINUOUS
 62
     7
 10
2324.000749
 20
2018.75
 40
37.5
  1
585
  7
TTF_DEFAULT
  0
LINE
  8
DATA
  6
CONTINUOUS
 62
     7
 10
2642.5
 20
1873.0
 11
2642.5
 21
1848.0
  0
LINE
  8
DATA
  6
CONTINUOUS
 62
     7
 10
2645.5
 20
1873.0
 11
2645.5
 21
1848.0
  0
LINE
  8
DATA
  6
CONTINUOUS
 62
     7
 10
2647.5
 20
1871.0
 11
2647.5
 21
1850.0
  0
ARC
  8
DATA
  6
CONTINUOUS
 62
     7
 10
2645.5
 20
1850.0
 40
2.0
 50
270.0
 51
0.0
  0
ARC
  8
DATA
  6
CONTINUOUS
 62
     7
 10
2645.5
 20
1871.0
 40
2.0
 50
0.0
 51
90.0
  0
LINE
  8
DIMENSIONS
  6
CONTINUOUS
 62
     7
 10
2647.5
 20
1886.0
 11
2647.5
 21
2018.75
  0
LINE
  8
DIMENSIONS
  6
CONTINUOUS
 62
     7
 10
2617.5
 20
1995.0002
 11
2647.5
 21
2000.0
  0
LINE
  8
DIMENSIONS
  6
CONTINUOUS
 62
     7
 10
2617.5
 20
2004.9998
 11
2647.5
 21
2000.0
  0
LINE
  8
DATA
  6
CONTINUOUS
 62
     7
 10
2710.0
 20
1260.0
 11
2710.0
 21
1200.0
  0
LINE
  8
DATA
  6
CONTINUOUS
 62
     7
 10
2714.0
 20
1260.0
 11
2714.0
 21
1200.0
  0
ARC
  8
DATA
  6
CONTINUOUS
 62
     7
 10
2714.0
 20
1258.0
 40
2.0
 50
0.0
 51
90.0
  0
LINE
  8
DATA
  6
CONTINUOUS
 62
     7
 10
2716.0
 20
1258.0
 11
2716.0
 21
1202.0
  0
ARC
  8
DATA
  6
CONTINUOUS
 62
     7
 10
2714.0
 20
1202.0
 40
2.0
 50
270.0
 51
0.0
  0
LINE
  8
DIMENSIONS
  6
CONTINUOUS
 62
     7
 10
2716.0
 20
1187.0
 11
2716.0
 21
1081.25
  0
LINE
  8
DIMENSIONS
  6
CONTINUOUS
 62
     7
 10
2686.0
 20
1095.0002
 11
2716.0
 21
1100.0
  0
LINE
  8
DIMENSIONS
  6
CONTINUOUS
 62
     7
 10
2686.0
 20
1104.9998
 11
2716.0
 21
1100.0
  0
CIRCLE
  8
DATA
  6
CONTINUOUS
 62
     7
 10
1848.75
 20
2651.65
 40
10.95
  0
CIRCLE
  8
DATA
  6
CONTINUOUS
 62
     7
 10
1848.75
 20
2633.5
 40
6.2
  0
CIRCLE
  8
DATA
  6
CONTINUOUS
 62
     7
 10
1848.75
 20
2351.5
 40
6.2
  0
LINE
  8
DATA
  6
CONTINUOUS
 62
     7
 10
1868.75
 20
2170.5
 11
1828.75
 21
2170.5
  0
LINE
  8
DATA
  6
CONTINUOUS
 62
     7
 10
1868.75
 20
2173.5
 11
1828.75
 21
2173.5
  0
ARC
  8
DATA
  6
CONTINUOUS
 62
     7
 10
1830.75
 20
2170.5
 40
2.0
 50
180.0
 51
270.0
  0
ARC
  8
DATA
  6
CONTINUOUS
 62
     7
 10
1866.75
 20
2170.5
 40
2.0
 50
270.0
 51
0.0
  0
LINE
  8
DATA
  6
CONTINUOUS
 62
     7
 10
1866.75
 20
2168.5
 11
1830.75
 21
2168.5
  0
CIRCLE
  8
DATA
  6
CONTINUOUS
 62
     7
 10
1848.75
 20
2197.5
 40
4.5
  0
CIRCLE
  8
DATA
  6
CONTINUOUS
 62
     7
 10
1848.75
 20
2222.15
 40
10.95
  0
CIRCLE
  8
DATA
  6
HIDDEN
 62
     7
 10
1594.75
 20
2651.65
 40
10.95
  0
CIRCLE
  8
DATA
  6
HIDDEN
 62
     7
 10
1594.75
 20
2633.5
 40
6.2
  0
CIRCLE
  8
DATA
  6
HIDDEN
 62
     7
 10
1594.75
 20
2351.5
 40
6.2
  0
LINE
  8
DATA
  6
HIDDEN
 62
     7
 10
1614.75
 20
2170.5
 11
1574.75
 21
2170.5
  0
LINE
  8
DATA
  6
HIDDEN
 62
     7
 10
1614.75
 20
2173.5
 11
1574.75
 21
2173.5
  0
LINE
  8
DATA
  6
HIDDEN
 62
     7
 10
1612.75
 20
2168.5
 11
1576.75
 21
2168.5
  0
CIRCLE
  8
DATA
  6
HIDDEN
 62
     7
 10
1594.75
 20
2222.15
 40
10.95
  0
ARC
  8
DATA
  6
HIDDEN
 62
     7
 10
1576.75
 20
2170.5
 40
2.0
 50
180.0
 51
270.0
  0
ARC
  8
DATA
  6
HIDDEN
 62
     7
 10
1612.75
 20
2170.5
 40
2.0
 50
270.0
 51
0.0
  0
CIRCLE
  8
DATA
  6
HIDDEN
 62
     7
 10
1594.75
 20
2197.5
 40
4.5
  0
LINE
  8
DATA
  6
CONTINUOUS
 62
     7
 10
1868.75
 20
2820.0
 11
1828.75
 21
2820.0
  0
LINE
  8
DATA
  6
CONTINUOUS
 62
     7
 10
1868.75
 20
2816.0
 11
1828.75
 21
2816.0
  0
ARC
  8
DATA
  6
CONTINUOUS
 62
     7
 10
1866.75
 20
2820.0
 40
2.0
 50
0.0
 51
90.0
  0
LINE
  8
DATA
  6
CONTINUOUS
 62
     7
 10
1866.75
 20
2822.0
 11
1830.75
 21
2822.0
  0
ARC
  8
DATA
  6
CONTINUOUS
 62
     7
 10
1830.75
 20
2820.0
 40
2.0
 50
90.0
 51
180.0
  0
LINE
  8
DATA
  6
CONTINUOUS
 62
     7
 10
1868.75
 20
2748.5
 11
1828.75
 21
2748.5
  0
LINE
  8
DATA
  6
CONTINUOUS
 62
     7
 10
1868.75
 20
2751.5
 11
1828.75
 21
2751.5
  0
ARC
  8
DATA
  6
CONTINUOUS
 62
     7
 10
1830.75
 20
2751.5
 40
2.0
 50
90.0
 51
180.0
  0
ARC
  8
DATA
  6
CONTINUOUS
 62
     7
 10
1866.75
 20
2751.5
 40
2.0
 50
0.0
 51
90.0
  0
LINE
  8
DATA
  6
CONTINUOUS
 62
     7
 10
1866.75
 20
2753.5
 11
1830.75
 21
2753.5
  0
CIRCLE
  8
DATA
  6
CONTINUOUS
 62
     7
 10
1848.75
 20
2724.5
 40
4.5
  0
LINE
  8
DATA
  6
HIDDEN
 62
     7
 10
1614.75
 20
2820.0
 11
1574.75
 21
2820.0
  0
LINE
  8
DATA
  6
HIDDEN
 62
     7
 10
1614.75
 20
2816.0
 11
1574.75
 21
2816.0
  0
LINE
  8
DATA
  6
HIDDEN
 62
     7
 10
1612.75
 20
2822.0
 11
1576.75
 21
2822.0
  0
LINE
  8
DATA
  6
HIDDEN
 62
     7
 10
1614.75
 20
2748.5
 11
1574.75
 21
2748.5
  0
LINE
  8
DATA
  6
HIDDEN
 62
     7
 10
1614.75
 20
2751.5
 11
1574.75
 21
2751.5
  0
LINE
  8
DATA
  6
HIDDEN
 62
     7
 10
1612.75
 20
2753.5
 11
1576.75
 21
2753.5
  0
ARC
  8
DATA
  6
HIDDEN
 62
     7
 10
1576.75
 20
2820.0
 40
2.0
 50
90.0
 51
180.0
  0
ARC
  8
DATA
  6
HIDDEN
 62
     7
 10
1576.75
 20
2751.5
 40
2.0
 50
90.0
 51
180.0
  0
ARC
  8
DATA
  6
HIDDEN
 62
     7
 10
1612.75
 20
2820.0
 40
2.0
 50
0.0
 51
90.0
  0
ARC
  8
DATA
  6
HIDDEN
 62
     7
 10
1612.75
 20
2751.5
 40
2.0
 50
0.0
 51
90.0
  0
CIRCLE
  8
DATA
  6
HIDDEN
 62
     7
 10
1594.75
 20
2724.5
 40
4.5
  0
LINE
  8
SPEC
  6
CONTINUOUS
 62
     7
 10
1900.0
 20
3975.0
 11
1900.0
 21
3412.5
  0
ENDSEC
  0
EOF
