  0
SECTION
  2
HEADER
  9
$ACADVER
  1
AC1009
  9
$INSBASE
 10
0.0
 20
0.0
 30
0.0
  9
$EXTMIN
 10
-400.05492744973748
 20
-822.21889389555497
 30
-0.0015258207003583
  9
$EXTMAX
 10
1400.05493583164
 20
1854.0817500700839
 30
0.0000000349246037
  9
$LIMMIN
 10
0.0
 20
0.0
  9
$LIMMAX
 10
0.0
 20
0.0
  9
$ORTHOMODE
 70
     0
  9
$REGENMODE
 70
     1
  9
$FILLMODE
 70
     1
  9
$QTEXTMODE
 70
     0
  9
$MIRRTEXT
 70
     1
  9
$DRAGMODE
 70
     2
  9
$LTSCALE
 40
50.799999999999997
  9
$OSMODE
 70
   231
  9
$ATTMODE
 70
     1
  9
$TEXTSIZE
 40
0.0
  9
$TRACEWID
 40
1.0
  9
$TEXTSTYLE
  7
STANDARD
  9
$CLAYER
  8
DATA
  9
$CELTYPE
  6
BYLAYER
  9
$CECOLOR
 62
   256
  9
$DIMSCALE
 40
1.0
  9
$DIMASZ
 40
0.18
  9
$DIMEXO
 40
0.0625
  9
$DIMDLI
 40
0.38
  9
$DIMRND
 40
0.0
  9
$DIMDLE
 40
0.0
  9
$DIMEXE
 40
0.18
  9
$DIMTP
 40
0.0
  9
$DIMTM
 40
0.0
  9
$DIMTXT
 40
0.18
  9
$DIMCEN
 40
0.09
  9
$DIMTSZ
 40
0.0
  9
$DIMTOL
 70
     0
  9
$DIMLIM
 70
     0
  9
$DIMTIH
 70
     1
  9
$DIMTOH
 70
     1
  9
$DIMSE1
 70
     0
  9
$DIMSE2
 70
     0
  9
$DIMTAD
 70
     0
  9
$DIMZIN
 70
     0
  9
$DIMBLK
  1

  9
$DIMASO
 70
     1
  9
$DIMSHO
 70
     1
  9
$DIMPOST
  1

  9
$DIMAPOST
  1

  9
$DIMALT
 70
     0
  9
$DIMALTD
 70
     2
  9
$DIMALTF
 40
25.399999999999999
  9
$DIMLFAC
 40
1.0
  9
$DIMTOFL
 70
     0
  9
$DIMTVP
 40
0.0
  9
$DIMTIX
 70
     0
  9
$DIMSOXD
 70
     0
  9
$DIMSAH
 70
     0
  9
$DIMBLK1
  1

  9
$DIMBLK2
  1

  9
$DIMSTYLE
  2
STANDARD
  9
$DIMCLRD
 70
     0
  9
$DIMCLRE
 70
     0
  9
$DIMCLRT
 70
     0
  9
$DIMTFAC
 40
1.0
  9
$DIMGAP
 40
0.09
  9
$LUNITS
 70
     2
  9
$LUPREC
 70
     4
  9
$SKETCHINC
 40
0.1
  9
$FILLETRAD
 40
0.0
  9
$AUNITS
 70
     0
  9
$AUPREC
 70
     0
  9
$MENU
  1
acad
  9
$ELEVATION
 40
0.0
  9
$PELEVATION
 40
0.0
  9
$THICKNESS
 40
0.0
  9
$LIMCHECK
 70
     0
  9
$BLIPMODE
 70
     0
  9
$CHAMFERA
 40
0.0
  9
$CHAMFERB
 40
0.0
  9
$SKPOLY
 70
     0
  9
$TDCREATE
 40
2454439.8279976849
  9
$TDUPDATE
 40
2454439.8284877548
  9
$TDINDWG
 40
0.000340162
  9
$TDUSRTIMER
 40
0.0003378356
  9
$USRTIMER
 70
     1
  9
$ANGBASE
 50
0.0
  9
$ANGDIR
 70
     0
  9
$PDMODE
 70
     1
  9
$PDSIZE
 40
-2.0
  9
$PLINEWID
 40
0.0
  9
$COORDS
 70
     1
  9
$SPLFRAME
 70
     0
  9
$SPLINETYPE
 70
     6
  9
$SPLINESEGS
 70
     8
  9
$ATTDIA
 70
     0
  9
$ATTREQ
 70
     1
  9
$HANDLING
 70
     1
  9
$HANDSEED
  5
1DA
  9
$SURFTAB1
 70
     6
  9
$SURFTAB2
 70
     6
  9
$SURFTYPE
 70
     6
  9
$SURFU
 70
     6
  9
$SURFV
 70
     6
  9
$UCSNAME
  2

  9
$UCSORG
 10
0.0
 20
0.0
 30
0.0
  9
$UCSXDIR
 10
1.0
 20
0.0
 30
0.0
  9
$UCSYDIR
 10
0.0
 20
1.0
 30
0.0
  9
$PUCSNAME
  2

  9
$PUCSORG
 10
0.0
 20
0.0
 30
0.0
  9
$PUCSXDIR
 10
1.0
 20
0.0
 30
0.0
  9
$PUCSYDIR
 10
0.0
 20
1.0
 30
0.0
  9
$USERI1
 70
     0
  9
$USERI2
 70
     0
  9
$USERI3
 70
     0
  9
$USERI4
 70
     0
  9
$USERI5
 70
     0
  9
$USERR1
 40
0.0
  9
$USERR2
 40
0.0
  9
$USERR3
 40
0.0
  9
$USERR4
 40
0.0
  9
$USERR5
 40
0.0
  9
$WORLDVIEW
 70
     1
  9
$SHADEDGE
 70
     3
  9
$SHADEDIF
 70
    70
  9
$TILEMODE
 70
     1
  9
$MAXACTVP
 70
    64
  9
$PLIMCHECK
 70
     0
  9
$PEXTMIN
 10
1.0000000000000000E+020
 20
1.0000000000000000E+020
 30
1.0000000000000000E+020
  9
$PEXTMAX
 10
-1.0000000000000000E+020
 20
-1.0000000000000000E+020
 30
-1.0000000000000000E+020
  9
$PLIMMIN
 10
0.0
 20
0.0
  9
$PLIMMAX
 10
12.0
 20
9.0
  9
$UNITMODE
 70
     0
  9
$VISRETAIN
 70
     0
  9
$PLINEGEN
 70
     1
  9
$PSLTSCALE
 70
     0
  0
ENDSEC
  0
SECTION
  2
TABLES
  0
TABLE
  2
VPORT
 70
     1
  0
VPORT
  2
*ACTIVE
 70
     0
 10
0.0
 20
0.0
 11
1.0
 21
1.0
 12
500.00000419095147
 22
515.93142808726452
 13
0.0
 23
0.0
 14
1.0
 24
1.0
 15
0.0
 25
0.0
 16
0.0
 26
0.0
 36
1.0
 17
0.0
 27
0.0
 37
0.0
 40
2698.510607815977
 41
1.6703601108033239
 42
50.0
 43
0.0
 44
0.0
 50
0.0
 51
0.0
 71
     0
 72
  2000
 73
     1
 74
     1
 75
     0
 76
     0
 77
     0
 78
     0
  0
ENDTAB
  0
TABLE
  2
LTYPE
 70
    11
  0
LTYPE
  2
CONTINUOUS
 70
     0
  3
Solid line
 72
    65
 73
     0
 40
0.0
  0
ENDTAB
  0
TABLE
  2
LAYER
 70
     5
  0
LAYER
  2
0
 70
     0
 62
     7
  6
CONTINUOUS
  0
LAYER
  2
DATA
 70
     0
 62
     7
  6
CONTINUOUS
  0
LAYER
  2
HIBINO-BASE
 70
     0
 62
     7
  6
CONTINUOUS
  0
LAYER
  2
SPEC
 70
     0
 62
     7
  6
CONTINUOUS
  0
LAYER
  2
DIMNSIONS
 70
     0
 62
     7
  6
CONTINUOUS
  0
ENDTAB
  0
TABLE
  2
STYLE
 70
     2
  0
STYLE
  2
STANDARD
 70
     0
 40
0.0
 41
1.0
 50
0.0
 71
     0
 42
0.0
  3
txt
  4
BIGFONT.SHX
  0
ENDTAB
  0
TABLE
  2
VIEW
 70
     0
  0
ENDTAB
  0
TABLE
  2
UCS
 70
     0
  0
ENDTAB
  0
TABLE
  2
APPID
 70
     1
  0
APPID
  2
ACAD
 70
     0
  0
ENDTAB
  0
TABLE
  2
DIMSTYLE
 70
     1
  0
DIMSTYLE
  2
STANDARD
 70
     0
  3

  4

  5

  6

  7

 40
1.0
 41
0.18
 42
0.0625
 43
0.38
 44
0.18
 45
0.0
 46
0.0
 47
0.0
 48
0.0
140
0.18
141
0.09
142
0.0
143
25.399999999999999
144
1.0
145
0.0
146
1.0
147
0.09
 71
     0
 72
     0
 73
     1
 74
     1
 75
     0
 76
     0
 77
     0
 78
     0
170
     0
171
     2
172
     0
173
     0
174
     0
175
     0
176
     0
177
     0
178
     0
  0
ENDTAB
  0
ENDSEC
  0
SECTION
  2
BLOCKS
  0
BLOCK
  8
0
  2
$MODEL_SPACE
 70
     0
 10
0.0
 20
0.0
 30
0.0
  3
$MODEL_SPACE
  1

  0
ENDBLK
  5
1AD
  8
0
  0
BLOCK
 67
     1
  8
0
  2
$PAPER_SPACE
 70
     0
 10
0.0
 20
0.0
 30
0.0
  3
$PAPER_SPACE
  1

  0
ENDBLK
  5
1A9
 67
     1
  8
0
  0
ENDSEC
  0
SECTION
  2
ENTITIES
  0
LINE
  5
2C
  8
HIBINO-BASE
  6
CONTINUOUS
 62
     7
 10
-400.0
 20
1854.0002425
 30
0.0
 11
1400.0
 21
1854.0002425
 31
0.0
  0
LINE
  5
2D
  8
HIBINO-BASE
  6
CONTINUOUS
 62
     7
 10
1400.0
 20
-745.99975749999987
 30
0.0
 11
-400.0
 21
-745.99975749999987
 31
0.0
  0
LINE
  5
2E
  8
HIBINO-BASE
  6
CONTINUOUS
 62
     7
 10
-400.0
 20
-745.99975749999987
 30
0.0
 11
-400.0
 21
1854.0002425
 31
0.0
  0
TEXT
  5
2F
  8
HIBINO-BASE
 62
     7
 10
-328.1599999999998
 20
-810.08653549999963
 30
0.0
 40
36.000441796874988
  1
Hibino Corporation
 41
0.7
 11
-328.1599999999998
 21
-774.08609370312456
 31
0.0
 73
     3
  0
LINE
  5
30
  8
HIBINO-BASE
  6
CONTINUOUS
 62
     7
 10
1400.0
 20
1854.0002425
 30
0.0
 11
1400.0
 21
-745.99975749999987
 31
0.0
  0
LINE
  5
31
  8
HIBINO-BASE
  6
CONTINUOUS
 62
     7
 10
500.0
 20
-520.99975749999987
 30
0.0
 11
1400.0
 21
-520.99975749999987
 31
0.0
  0
LINE
  5
32
  8
HIBINO-BASE
  6
CONTINUOUS
 62
     7
 10
500.0
 20
-745.99975749999987
 30
0.0
 11
500.0
 21
-520.99975749999987
 31
0.0
  0
TEXT
  5
33
  8
HIBINO-BASE
 62
     7
 10
509.0
 20
-546.08669083333325
 30
0.0
 40
16.288411458333329
  1
NOTE
 41
0.7
 11
509.0
 21
-529.79827937499988
 31
0.0
 73
     3
  0
LINE
  5
34
  8
HIBINO-BASE
  6
CONTINUOUS
 62
     7
 10
850.0
 20
-745.99975749999987
 30
0.0
 11
850.0
 21
-520.99975749999987
 31
0.0
  0
TEXT
  5
35
  8
HIBINO-BASE
 62
     7
 10
859.0
 20
-546.08669083333325
 30
0.0
 40
16.288411458333329
  1
TITLE
 41
0.7
 11
859.0
 21
-529.79827937499988
 31
0.0
 73
     3
  0
TEXT
  5
36
  8
HIBINO-BASE
 62
     7
 10
1000.6839
 20
-810.08653549999963
 30
0.0
 40
36.000441796874988
  1
ヒビノ株式会社
 41
0.7
 11
1000.6839
 21
-774.08609370312456
 31
0.0
 73
     3
  0
LINE
  5
37
  8
HIBINO-BASE
  6
CONTINUOUS
 62
     7
 10
500.0
 20
-645.99975749999987
 30
0.0
 11
1400.0
 21
-645.99975749999987
 31
0.0
  0
TEXT
  5
38
  8
HIBINO-BASE
 62
     7
 10
984.0
 20
-670.5234908333332
 30
0.0
 40
16.288411458333329
  1
DRAWN
 41
0.7
 11
984.0
 21
-654.23507937499983
 31
0.0
 73
     3
  0
TEXT
  5
39
  8
HIBINO-BASE
 62
     7
 10
734.0
 20
-670.5234908333332
 30
0.0
 40
16.288411458333329
  1
DATE
 41
0.7
 11
734.0
 21
-654.23507937499983
 31
0.0
 73
     3
  0
TEXT
  5
3A
  8
HIBINO-BASE
 62
     7
 10
634.0
 20
-670.5234908333332
 30
0.0
 40
16.288411458333329
  1
SCALE
 41
0.7
 11
634.0
 21
-654.23507937499983
 31
0.0
 73
     3
  0
TEXT
  5
3B
  8
HIBINO-BASE
 62
     7
 10
859.0
 20
-670.5234908333332
 30
0.0
 40
16.288411458333329
  1
DESIGN
 41
0.7
 11
859.0
 21
-654.23507937499983
 31
0.0
 73
     3
  0
TEXT
  5
3C
  8
HIBINO-BASE
 62
     7
 10
1234.0
 20
-670.5234908333332
 30
0.0
 40
16.288411458333329
  1
DRAWING NO.
 41
0.7
 11
1234.0
 21
-654.23507937499983
 31
0.0
 73
     3
  0
TEXT
  5
3D
  8
HIBINO-BASE
 62
     7
 10
1109.0
 20
-670.5234908333332
 30
0.0
 40
16.288411458333329
  1
CHECK
 41
0.7
 11
1109.0
 21
-654.23507937499983
 31
0.0
 73
     3
  0
LINE
  5
3E
  8
HIBINO-BASE
  6
CONTINUOUS
 62
     7
 10
643.75
 20
-733.49975749999987
 30
0.0
 11
681.25
 21
-695.99975749999987
 31
0.0
  0
TEXT
  5
3F
  8
HIBINO-BASE
 62
     7
 10
637.5
 20
-707.08919083333308
 30
0.0
 40
16.288411458333329
  1
1
 41
0.7
 11
637.5
 21
-690.80077937499982
 31
0.0
 73
     3
  0
LINE
  5
40
  8
HIBINO-BASE
  6
CONTINUOUS
 62
     7
 10
625.0
 20
-745.99975749999987
 30
0.0
 11
625.0
 21
-645.99975749999987
 31
0.0
  0
LINE
  5
41
  8
HIBINO-BASE
  6
CONTINUOUS
 62
     7
 10
725.0
 20
-745.99975749999987
 30
0.0
 11
725.0
 21
-645.99975749999987
 31
0.0
  0
LINE
  5
42
  8
HIBINO-BASE
  6
CONTINUOUS
 62
     7
 10
975.0
 20
-645.99975749999987
 30
0.0
 11
975.0
 21
-745.99975749999987
 31
0.0
  0
LINE
  5
43
  8
HIBINO-BASE
  6
CONTINUOUS
 62
     7
 10
1225.0
 20
-645.99975749999987
 30
0.0
 11
1225.0
 21
-745.99975749999987
 31
0.0
  0
LINE
  5
44
  8
HIBINO-BASE
  6
CONTINUOUS
 62
     7
 10
1100.0
 20
-745.99975749999987
 30
0.0
 11
1100.0
 21
-645.99975749999987
 31
0.0
  0
TEXT
  5
45
  8
HIBINO-BASE
 62
     7
 10
733.56539999999984
 20
-717.36329083333339
 30
0.0
 40
16.288411458333329
  1
'07.11.
 41
0.7
 11
733.56539999999984
 21
-701.07487937500002
 31
0.0
 73
     3
  0
TEXT
  5
46
  8
HIBINO-BASE
 62
     7
 10
675.0
 20
-725.83919083333308
 30
0.0
 40
16.288411458333329
  1
10
 41
0.7
 11
675.0
 21
-709.55077937499982
 31
0.0
 73
     3
  0
TEXT
  5
47
  8
HIBINO-BASE
 62
     7
 10
990.05810011034623
 20
-717.36329083333339
 30
0.0
 40
16.288411458333329
  1
N.Sasaki
 41
0.7
 11
990.05810011034623
 21
-701.07487937500002
 31
0.0
 73
     3
  0
TEXT
  5
48
  8
HIBINO-BASE
 62
     7
 10
538.83333333333337
 20
-726.23975750000011
 30
0.0
 40
32.576822916666671
  1
A4
 41
0.7
 11
538.83333333333337
 21
-693.66293458333348
 31
0.0
 73
     3
  0
TEXT
  5
49
  8
HIBINO-BASE
 62
     7
 10
509.5833333333332
 20
-672.19430749999981
 30
0.0
 40
16.288411458333329
  1
PAPER SIZE
 41
0.7
 11
509.5833333333332
 21
-655.90589604166644
 31
0.0
 73
     3
  0
TEXT
  5
4A
  8
SPEC
 62
     7
 10
-312.49999999999989
 20
1767.9329424999989
 30
0.0
 40
24.4326171875
  1
仕様
 41
0.7
 11
-312.49999999999989
 21
1792.3655596874989
 31
0.0
 73
     3
  0
TEXT
  5
4B
  8
SPEC
 62
     7
 10
9.0000000000000551
 20
1394.3794202777769
 30
0.0
 40
19.003146701388889
  1
HF:12kHz,±15dB,シェルビング
 41
0.7
 11
9.0000000000000568
 21
1413.3825669791661
 31
0.0
 73
     3
  0
TEXT
  5
4C
  8
SPEC
 62
     7
 10
-316.0
 20
1724.3794202777769
 30
0.0
 40
19.003146701388889
  1
周波数特性
 41
0.7
 11
-316.0
 21
1743.382566979167
 31
0.0
 73
     3
  0
TEXT
  5
4D
  8
SPEC
 62
     7
 10
-316.0
 20
1611.8794202777781
 30
0.0
 40
19.003146701388889
  1
最大信号レベル
 41
0.7
 11
-316.0
 21
1630.8825669791661
 31
0.0
 73
     3
  0
TEXT
  5
4E
  8
SPEC
 62
     7
 10
-316.0
 20
1506.8794202777781
 30
0.0
 40
19.003146701388889
  1
インピーダンス
 41
0.7
 11
-316.0
 21
1525.882566979167
 31
0.0
 73
     3
  0
TEXT
  5
4F
  8
SPEC
 62
     7
 10
-316.0
 20
1686.8794202777781
 30
0.0
 40
19.003146701388889
  1
マイク等価入力ノイズ
 41
0.7
 11
-316.0
 21
1705.8825669791661
 31
0.0
 73
     3
  0
TEXT
  5
50
  8
SPEC
 62
     7
 10
-316.0
 20
1649.3794202777781
 30
0.0
 40
19.003146701388889
  1
THD+N
 41
0.7
 11
-316.0
 21
1668.3825669791661
 31
0.0
 73
     3
  0
TEXT
  5
51
  8
SPEC
 62
     7
 10
-316.0
 20
1394.3794202777769
 30
0.0
 40
19.003146701388889
  1
イコライザ(モノ入力)
 41
0.7
 11
-316.0
 21
1413.3825669791661
 31
0.0
 73
     3
  0
TEXT
  5
52
  8
SPEC
 62
     7
 10
9.0000000000000551
 20
1611.8794202777781
 30
0.0
 40
19.003146701388889
  1
マイク入力:+17dBu
 41
0.7
 11
9.0000000000000568
 21
1630.8825669791661
 31
0.0
 73
     3
  0
TEXT
  5
53
  8
SPEC
 62
     7
 10
9.0000000000000551
 20
1579.3791155158719
 30
0.0
 40
19.003146701388889
  1
ライン入力:+30dBu
 41
0.7
 11
9.0000000000000568
 21
1598.3822622172611
 31
0.0
 73
     3
  0
TEXT
  5
54
  8
SPEC
 62
     7
 10
9.0000000000000551
 20
1724.3794425000001
 30
0.0
 40
19.003146701388889
  1
20Hz～20kHz(±0.5dB)
 41
0.7
 11
9.0000000000000568
 21
1743.382589201389
 31
0.0
 73
     3
  0
TEXT
  5
55
  8
SPEC
 62
     7
 10
9.0000000000000551
 20
1686.879442499999
 30
0.0
 40
19.003146701388889
  1
-128dBu(22Hz～22kHz)
 41
0.7
 11
9.0000000000000568
 21
1705.882589201389
 31
0.0
 73
     3
  0
TEXT
  5
56
  8
SPEC
 62
     7
 10
9.0000000000000551
 20
1649.3794425000001
 30
0.0
 40
19.003146701388889
  1
0.007%%%以下(1kHz,+30dB)
 41
0.7
 11
9.0000000000000568
 21
1668.382589201389
 31
0.0
 73
     3
  0
TEXT
  5
57
  8
SPEC
 62
     7
 10
9.0000000000000551
 20
1506.8794202777781
 30
0.0
 40
19.003146701388889
  1
マイク入力:2.4kΩ
 41
0.7
 11
9.0000000000000568
 21
1525.882566979167
 31
0.0
 73
     3
  0
TEXT
  5
58
  8
SPEC
 62
     7
 10
9.0000000000000551
 20
1474.3791155158719
 30
0.0
 40
19.003146701388889
  1
ライン入力:11kΩ
 41
0.7
 11
9.0000000000000568
 21
1493.3822622172611
 31
0.0
 73
     3
  0
TEXT
  5
59
  8
SPEC
 62
     7
 10
9.0000000000000551
 20
1361.8791155158719
 30
0.0
 40
19.003146701388889
  1
MF:150Hz～3.5kHz,±15dB,Q=1.5
 41
0.7
 11
9.0000000000000568
 21
1380.8822622172611
 31
0.0
 73
     3
  0
TEXT
  5
5A
  8
SPEC
 62
     7
 10
8.9999999999999982
 20
1329.3791155158719
 30
0.0
 40
19.003146701388889
  1
LF:80Hz,±15dB,シェルビング
 41
0.7
 11
9.0
 21
1348.3822622172611
 31
0.0
 73
     3
  0
TEXT
  5
5B
  8
SPEC
 62
     7
 10
-316.0
 20
1169.3794202777781
 30
0.0
 40
19.003146701388889
  1
電源
 41
0.7
 11
-316.0
 21
1188.3825669791661
 31
0.0
 73
     3
  0
TEXT
  5
5C
  8
SPEC
 62
     7
 10
9.0000000000000551
 20
1169.3794425000001
 30
0.0
 40
19.003146701388889
  1
AC100V,50/60Hz,50W
 41
0.7
 11
9.0000000000000568
 21
1188.382589201389
 31
0.0
 73
     3
  0
LINE
  5
5D
  8
SPEC
  6
CONTINUOUS
 62
     7
 10
-324.99999999999989
 20
1754.0002425
 30
0.0
 11
1100.0
 21
1754.0002425
 31
0.0
  0
LINE
  5
5E
  8
SPEC
  6
CONTINUOUS
 62
     7
 10
-324.99999999999989
 20
1716.5002424999991
 30
0.0
 11
1100.0
 21
1716.5002424999991
 31
0.0
  0
LINE
  5
5F
  8
SPEC
  6
CONTINUOUS
 62
     7
 10
-324.99999999999989
 20
1536.5002425
 30
0.0
 11
1100.0
 21
1536.5002425
 31
0.0
  0
LINE
  5
60
  8
SPEC
  6
CONTINUOUS
 62
     7
 10
-324.99999999999989
 20
1641.5002425
 30
0.0
 11
1100.0
 21
1641.5002425
 31
0.0
  0
LINE
  5
61
  8
SPEC
  6
CONTINUOUS
 62
     7
 10
-324.99999999999989
 20
1424.0002425
 30
0.0
 11
1100.0
 21
1424.0002425
 31
0.0
  0
LINE
  5
62
  8
SPEC
  6
CONTINUOUS
 62
     7
 10
-324.99999999999989
 20
1679.0002425
 30
0.0
 11
1100.0
 21
1679.0002425
 31
0.0
  0
LINE
  5
63
  8
SPEC
  6
CONTINUOUS
 62
     7
 10
-324.99999999999989
 20
1754.678337738095
 30
0.0
 11
-324.99999999999989
 21
1049.0002425
 31
0.0
  0
LINE
  5
64
  8
SPEC
  6
CONTINUOUS
 62
     7
 10
0.0000000000001137
 20
1754.678337738095
 30
0.0
 11
0.0000000000001137
 21
1049.0002425
 31
0.0
  0
LINE
  5
65
  8
SPEC
  6
CONTINUOUS
 62
     7
 10
1100.0
 20
1752.0002425
 30
0.0
 11
1100.0
 21
1049.0002425
 31
0.0
  0
LINE
  5
66
  8
SPEC
  6
CONTINUOUS
 62
     7
 10
-324.99999999999989
 20
1199.0002425
 30
0.0
 11
1100.0
 21
1199.0002425
 31
0.0
  0
LINE
  5
67
  8
SPEC
  6
CONTINUOUS
 62
     7
 10
-324.99999999999989
 20
1161.5002425
 30
0.0
 11
1100.0
 21
1161.5002425
 31
0.0
  0
TEXT
  5
68
  8
SPEC
 62
     7
 10
9.0000000000000551
 20
1441.8791155158719
 30
0.0
 40
19.003146701388889
  1
ステレオ入力:100kΩ
 41
0.7
 11
9.0000000000000568
 21
1460.8822622172611
 31
0.0
 73
     3
  0
LINE
  5
69
  8
SPEC
  6
CONTINUOUS
 62
     7
 10
-324.99999999999989
 20
1311.5002425
 30
0.0
 11
1100.0
 21
1311.5002425
 31
0.0
  0
TEXT
  5
6A
  8
SPEC
 62
     7
 10
9.0000000000000551
 20
1281.8794202777781
 30
0.0
 40
19.003146701388889
  1
HF:12kHz,±15dB,シェルビング
 41
0.7
 11
9.0000000000000568
 21
1300.8825669791661
 31
0.0
 73
     3
  0
TEXT
  5
6B
  8
SPEC
 62
     7
 10
-316.0
 20
1281.8794202777781
 30
0.0
 40
19.003146701388889
  1
イコライザ(ステレオ入力)
 41
0.7
 11
-316.0
 21
1300.8825669791661
 31
0.0
 73
     3
  0
TEXT
  5
6C
  8
SPEC
 62
     7
 10
9.0000000000000551
 20
1249.3791155158719
 30
0.0
 40
19.003146701388889
  1
LF:80Hz,±15dB,シェルビング
 41
0.7
 11
9.0000000000000568
 21
1268.3822622172611
 31
0.0
 73
     3
  0
LINE
  5
6D
  8
SPEC
  6
CONTINUOUS
 62
     7
 10
-324.99999999999989
 20
1236.5002425
 30
0.0
 11
1100.0
 21
1236.5002425
 31
0.0
  0
TEXT
  5
6E
  8
SPEC
 62
     7
 10
-316.0
 20
1206.8794202777769
 30
0.0
 40
19.003146701388889
  1
メータ 
 41
0.7
 11
-316.0
 21
1225.8825669791661
 31
0.0
 73
     3
  0
TEXT
  5
6F
  8
SPEC
 62
     7
 10
9.0000000000000551
 20
1206.8794425000001
 30
0.0
 40
19.003146701388889
  1
出力:10セグメント3色LED
 41
0.7
 11
9.0000000000000568
 21
1225.882589201389
 31
0.0
 73
     3
  0
TEXT
  5
70
  8
SPEC
 62
     7
 10
-316.0
 20
1131.8794202777769
 30
0.0
 40
19.003146701388889
  1
寸法 / 質量
 41
0.7
 11
-316.0
 21
1150.8825669791661
 31
0.0
 73
     3
  0
TEXT
  5
71
  8
SPEC
 62
     7
 10
9.0000000000000551
 20
1131.8794425000001
 30
0.0
 40
19.003146701388889
  1
EPM6 :280(W)×91(H)×363(D)mm(つまみ・フェーダ除く) / 約4kg
 41
0.7
 11
9.0000000000000568
 21
1150.882589201389
 31
0.0
 73
     3
  0
LINE
  5
72
  8
SPEC
  6
CONTINUOUS
 62
     7
 10
-324.99999999999989
 20
1049.0002425
 30
0.0
 11
1100.0
 21
1049.0002425
 31
0.0
  0
TEXT
  5
73
  8
SPEC
 62
     7
 10
9.0000000000000551
 20
1099.3791155158719
 30
0.0
 40
19.003146701388889
  1
EPM8 :330(W)×91(H)×363(D)mm(つまみ・フェーダ除く) / 約4.6kg
 41
0.7
 11
9.0000000000000568
 21
1118.3822622172611
 31
0.0
 73
     3
  0
TEXT
  5
74
  8
SPEC
 62
     7
 10
9.0000000000000551
 20
1066.8791155158719
 30
0.0
 40
19.003146701388889
  1
EPM12:432(W)×91(H)×363(D)mm(つまみ・フェーダ除く) / 約6kg
 41
0.7
 11
9.0000000000000568
 21
1085.8822622172611
 31
0.0
 73
     3
  0
TEXT
  5
75
  8
SPEC
 62
     7
 10
9.0000000000000551
 20
1546.8791155158719
 30
0.0
 40
19.003146701388889
  1
ステレオ入力:+30dBu
 41
0.7
 11
9.0000000000000568
 21
1565.8822622172611
 31
0.0
 73
     3
  0
TEXT
  5
76
  8
DIMNSIONS
 62
     7
 10
300.0
 20
-623.30485750000014
 30
0.0
 40
24.4326171875
  1
(単位：mm)
 41
0.7
 11
300.0
 21
-598.87224031250014
 31
0.0
 73
     3
  0
LINE
  5
77
  8
DIMNSIONS
  6
CONTINUOUS
 62
     7
 10
0.0
 20
383.0
 30
0.0
 11
0.0
 21
470.0
 31
0.0
  0
LINE
  5
78
  8
DIMNSIONS
  6
CONTINUOUS
 62
     7
 10
280.0
 20
383.0
 30
0.0
 11
280.0
 21
470.0
 31
0.0
  0
LINE
  5
79
  8
DIMNSIONS
  6
CONTINUOUS
 62
     7
 10
0.0
 20
450.0
 30
0.0
 11
280.0
 21
450.0
 31
0.0
  0
LINE
  5
7A
  8
DIMNSIONS
  6
CONTINUOUS
 62
     7
 10
0.0
 20
450.0
 30
0.0
 11
25.0062255859375
 21
456.7003979515024
 31
0.0
  0
LINE
  5
7B
  8
DIMNSIONS
  6
CONTINUOUS
 62
     7
 10
0.0
 20
450.0
 30
0.0
 11
25.0062255859375
 21
443.2996020484976
 31
0.0
  0
LINE
  5
7C
  8
DIMNSIONS
  6
CONTINUOUS
 62
     7
 10
280.0
 20
450.0
 30
0.0
 11
254.9937744140625
 21
443.2996020484976
 31
0.0
  0
LINE
  5
7D
  8
DIMNSIONS
  6
CONTINUOUS
 62
     7
 10
280.0
 20
450.0
 30
0.0
 11
254.9937744140625
 21
456.70039795150251
 31
0.0
  0
TEXT
  5
7E
  8
DIMNSIONS
 62
     7
 10
51.805555555555529
 20
459.93888888888893
 30
0.0
 40
27.147352430555561
  1
EPM6 : 280
 41
0.7
 11
51.805555555555529
 21
487.08624131944453
 31
0.0
 73
     3
  0
LINE
  5
7F
  8
DIMNSIONS
  6
CONTINUOUS
 62
     7
 10
-20.0
 20
363.0
 30
0.0
 11
-120.0
 21
363.0
 31
0.0
  0
LINE
  5
80
  8
DIMNSIONS
  6
CONTINUOUS
 62
     7
 10
-20.0
 20
0.0
 30
0.0
 11
-120.0
 21
0.0
 31
0.0
  0
LINE
  5
81
  8
DIMNSIONS
  6
CONTINUOUS
 62
     7
 10
-100.0
 20
363.0
 30
0.0
 11
-100.0
 21
0.0
 31
0.0
  0
LINE
  5
82
  8
DIMNSIONS
  6
CONTINUOUS
 62
     7
 10
-100.0
 20
363.0
 30
0.0
 11
-93.299602048497604
 21
337.9937744140625
 31
0.0
  0
LINE
  5
83
  8
DIMNSIONS
  6
CONTINUOUS
 62
     7
 10
-100.0
 20
363.0
 30
0.0
 11
-106.7003979515024
 21
337.9937744140625
 31
0.0
  0
LINE
  5
84
  8
DIMNSIONS
  6
CONTINUOUS
 62
     7
 10
-100.0
 20
0.0
 30
0.0
 11
-106.7003979515024
 21
25.0062255859375
 31
0.0
  0
LINE
  5
85
  8
DIMNSIONS
  6
CONTINUOUS
 62
     7
 10
-100.0
 20
0.0
 30
0.0
 11
-93.299602048497604
 21
25.0062255859375
 31
0.0
  0
TEXT
  5
86
  8
DIMNSIONS
 62
     7
 10
-109.9388888888889
 20
155.0416666666666
 30
0.0
 40
27.147352430555561
  1
363
 50
90.0
 41
0.7
 11
-137.0862413194445
 21
155.0416666666666
 31
0.0
 73
     3
  0
LINE
  5
87
  8
DIMNSIONS
  6
CONTINUOUS
 62
     7
 10
0.0
 20
383.0
 30
0.0
 11
0.0
 21
570.0
 31
0.0
  0
LINE
  5
88
  8
DIMNSIONS
  6
CONTINUOUS
 62
     7
 10
330.0
 20
383.0
 30
0.0
 11
330.0
 21
570.0
 31
0.0
  0
LINE
  5
89
  8
DIMNSIONS
  6
CONTINUOUS
 62
     7
 10
0.0
 20
550.0
 30
0.0
 11
330.0
 21
550.0
 31
0.0
  0
LINE
  5
8A
  8
DIMNSIONS
  6
CONTINUOUS
 62
     7
 10
0.0
 20
550.0
 30
0.0
 11
25.0062255859375
 21
556.7003979515024
 31
0.0
  0
LINE
  5
8B
  8
DIMNSIONS
  6
CONTINUOUS
 62
     7
 10
0.0
 20
550.0
 30
0.0
 11
25.0062255859375
 21
543.2996020484976
 31
0.0
  0
LINE
  5
8C
  8
DIMNSIONS
  6
CONTINUOUS
 62
     7
 10
330.0
 20
550.0
 30
0.0
 11
304.9937744140625
 21
543.2996020484976
 31
0.0
  0
LINE
  5
8D
  8
DIMNSIONS
  6
CONTINUOUS
 62
     7
 10
330.0
 20
550.0
 30
0.0
 11
304.9937744140625
 21
556.7003979515024
 31
0.0
  0
TEXT
  5
8E
  8
DIMNSIONS
 62
     7
 10
51.805555555555529
 20
559.93888888888875
 30
0.0
 40
27.147352430555561
  1
EPM8 : 330
 41
0.7
 11
51.805555555555529
 21
587.08624131944418
 31
0.0
 73
     3
  0
LINE
  5
8F
  8
DIMNSIONS
  6
CONTINUOUS
 62
     7
 10
0.0
 20
383.0
 30
0.0
 11
0.0
 21
670.0
 31
0.0
  0
LINE
  5
90
  8
DIMNSIONS
  6
CONTINUOUS
 62
     7
 10
432.0
 20
383.0
 30
0.0
 11
432.0
 21
670.0
 31
0.0
  0
LINE
  5
91
  8
DIMNSIONS
  6
CONTINUOUS
 62
     7
 10
0.0
 20
650.0
 30
0.0
 11
432.0
 21
650.0
 31
0.0
  0
LINE
  5
92
  8
DIMNSIONS
  6
CONTINUOUS
 62
     7
 10
0.0
 20
650.0
 30
0.0
 11
25.0062255859375
 21
656.7003979515024
 31
0.0
  0
LINE
  5
93
  8
DIMNSIONS
  6
CONTINUOUS
 62
     7
 10
0.0
 20
650.0
 30
0.0
 11
25.0062255859375
 21
643.2996020484976
 31
0.0
  0
LINE
  5
94
  8
DIMNSIONS
  6
CONTINUOUS
 62
     7
 10
432.0
 20
650.0
 30
0.0
 11
406.9937744140625
 21
643.2996020484976
 31
0.0
  0
LINE
  5
95
  8
DIMNSIONS
  6
CONTINUOUS
 62
     7
 10
432.0
 20
650.0
 30
0.0
 11
406.9937744140625
 21
656.7003979515024
 31
0.0
  0
TEXT
  5
96
  8
DIMNSIONS
 62
     7
 10
51.805555555555529
 20
659.93888888888875
 30
0.0
 40
27.147352430555561
  1
EPM12: 432
 41
0.7
 11
51.805555555555529
 21
687.08624131944418
 31
0.0
 73
     3
  0
LINE
  5
97
  8
DIMNSIONS
  6
CONTINUOUS
 62
     7
 10
790.0
 20
383.00104356334498
 30
0.0
 11
790.0
 21
470.0
 31
0.0
  0
LINE
  5
98
  8
DIMNSIONS
  6
CONTINUOUS
 62
     7
 10
800.0
 20
352.00104356334498
 30
0.0
 11
800.0
 21
470.0
 31
0.0
  0
LINE
  5
99
  8
DIMNSIONS
  6
CONTINUOUS
 62
     7
 10
800.0
 20
450.0
 30
0.0
 11
790.0
 21
450.0
 31
0.0
  0
LINE
  5
9A
  8
DIMNSIONS
  6
CONTINUOUS
 62
     7
 10
790.0
 20
450.0
 30
0.0
 11
740.0
 21
450.0
 31
0.0
  0
LINE
  5
9B
  8
DIMNSIONS
  6
CONTINUOUS
 62
     7
 10
790.0
 20
450.0
 30
0.0
 11
764.9937744140625
 21
443.2996020484976
 31
0.0
  0
LINE
  5
9C
  8
DIMNSIONS
  6
CONTINUOUS
 62
     7
 10
790.0
 20
450.0
 30
0.0
 11
764.9937744140625
 21
456.70039795150251
 31
0.0
  0
LINE
  5
9D
  8
DIMNSIONS
  6
CONTINUOUS
 62
     7
 10
800.0
 20
450.0
 30
0.0
 11
885.27077777777777
 21
450.0
 31
0.0
  0
LINE
  5
9E
  8
DIMNSIONS
  6
CONTINUOUS
 62
     7
 10
800.0
 20
450.0
 30
0.0
 11
825.00622558593739
 21
456.7003979515024
 31
0.0
  0
LINE
  5
9F
  8
DIMNSIONS
  6
CONTINUOUS
 62
     7
 10
800.0
 20
450.0
 30
0.0
 11
825.00622558593739
 21
443.2996020484976
 31
0.0
  0
TEXT
  5
A0
  8
DIMNSIONS
 62
     7
 10
849.99300000000005
 20
459.93888888888893
 30
0.0
 40
27.147352430555561
  1
10
 41
0.7
 11
849.99300000000005
 21
487.08624131944453
 31
0.0
 73
     3
  0
LINE
  5
A1
  8
DIMNSIONS
  6
CONTINUOUS
 62
     7
 10
709.4995633313896
 20
371.00000000000023
 30
0.0
 11
709.4995633313896
 21
520.0
 31
0.0
  0
LINE
  5
A2
  8
DIMNSIONS
  6
CONTINUOUS
 62
     7
 10
790.0
 20
383.00104356334498
 30
0.0
 11
790.0
 21
520.0
 31
0.0
  0
LINE
  5
A3
  8
DIMNSIONS
  6
CONTINUOUS
 62
     7
 10
709.4995633313896
 20
500.0
 30
0.0
 11
790.0
 21
500.0
 31
0.0
  0
LINE
  5
A4
  8
DIMNSIONS
  6
CONTINUOUS
 62
     7
 10
709.4995633313896
 20
500.0
 30
0.0
 11
734.50578891732732
 21
506.70039795150251
 31
0.0
  0
LINE
  5
A5
  8
DIMNSIONS
  6
CONTINUOUS
 62
     7
 10
709.4995633313896
 20
500.0
 30
0.0
 11
734.50578891732732
 21
493.2996020484976
 31
0.0
  0
LINE
  5
A6
  8
DIMNSIONS
  6
CONTINUOUS
 62
     7
 10
790.0
 20
500.0
 30
0.0
 11
764.9937744140625
 21
493.2996020484976
 31
0.0
  0
LINE
  5
A7
  8
DIMNSIONS
  6
CONTINUOUS
 62
     7
 10
790.0
 20
500.0
 30
0.0
 11
764.9937744140625
 21
506.70039795150251
 31
0.0
  0
TEXT
  5
A8
  8
DIMNSIONS
 62
     7
 10
732.11089277680617
 20
509.93888888888881
 30
0.0
 40
27.147352430555561
  1
81
 41
0.7
 11
732.11089277680617
 21
537.08624131944418
 31
0.0
 73
     3
  0
LINE
  5
A9
  8
DIMNSIONS
  6
CONTINUOUS
 62
     7
 10
708.00148472264516
 20
246.69463862516881
 30
0.0
 11
712.48403817723124
 21
214.79961349543939
 31
0.0
  0
LINE
  5
AA
  8
DIMNSIONS
  6
CONTINUOUS
 62
     7
 10
723.84577382251041
 20
248.9214082405299
 30
0.0
 11
728.32832727709626
 21
217.0263831108004
 31
0.0
  0
LINE
  5
AB
  8
DIMNSIONS
  6
CONTINUOUS
 62
     7
 10
725.54486525789503
 20
236.83174448563179
 30
0.0
 11
709.70057615802978
 21
234.60497487027081
 31
0.0
  0
LINE
  5
AC
  8
DIMNSIONS
  6
CONTINUOUS
 62
     7
 10
709.70057615802978
 20
234.60497487027081
 30
0.0
 11
646.53133355432249
 21
225.727116787228
 31
0.0
  0
LINE
  5
AD
  8
DIMNSIONS
  6
CONTINUOUS
 62
     7
 10
709.70057615802978
 20
234.60497487027081
 30
0.0
 11
685.87022460110461
 21
224.4895907729346
 31
0.0
  0
LINE
  5
AE
  8
DIMNSIONS
  6
CONTINUOUS
 62
     7
 10
709.70057615802978
 20
234.60497487027081
 30
0.0
 11
684.0051942799505
 21
237.7599710514032
 31
0.0
  0
LINE
  5
AF
  8
DIMNSIONS
  6
CONTINUOUS
 62
     7
 10
725.54486525789503
 20
236.83174448563179
 30
0.0
 11
775.05826869497344
 21
243.790399533635
 31
0.0
  0
LINE
  5
B0
  8
DIMNSIONS
  6
CONTINUOUS
 62
     7
 10
725.54486525789503
 20
236.83174448563179
 30
0.0
 11
749.54812513138916
 21
246.52969098006011
 31
0.0
  0
LINE
  5
B1
  8
DIMNSIONS
  6
CONTINUOUS
 62
     7
 10
725.54486525789503
 20
236.83174448563179
 30
0.0
 11
751.18127132919494
 21
233.22878257760189
 31
0.0
  0
TEXT
  5
B2
  8
DIMNSIONS
 62
     7
 10
628.89244466543369
 20
213.0271167872279
 30
0.0
 40
27.147352430555561
  1
16
 41
0.7
 11
628.89244466543369
 21
240.17446921778341
 31
0.0
 73
     3
  0
TEXT
  5
B3
  8
DATA
 62
     7
 10
1000.0
 20
-623.48200000000043
 30
0.0
 40
24.4326171875
  1
EPM6 / EPM8 / EPM12
 41
0.7
 11
1000.0
 21
-599.04938281250031
 31
0.0
 73
     3
  0
TEXT
  5
B4
  8
DATA
 62
     7
 10
-299.99999999999989
 20
-703.61975749999999
 30
0.0
 40
16.288411458333329
  1
仕様および外観は予告なく変更されることがありますので、ご了承ください。
 41
0.7
 11
-299.99999999999989
 21
-687.33134604166673
 31
0.0
 73
     3
  0
TEXT
  5
B5
  8
DATA
 62
     7
 10
1000.0
 20
-562.19085749999999
 30
0.0
 40
24.4326171875
  1
Soundcraft
 41
0.7
 11
1000.0
 21
-537.75824031250011
 31
0.0
 73
     3
  0
LINE
  5
B6
  8
DATA
  6
CONTINUOUS
 62
     7
 10
0.0
 20
0.0
 30
0.0
 11
432.0
 21
0.0
 31
0.0
  0
LINE
  5
B7
  8
DATA
  6
CONTINUOUS
 62
     7
 10
0.0
 20
0.0
 30
0.0
 11
0.0
 21
363.0
 31
0.0
  0
LINE
  5
B8
  8
DATA
  6
CONTINUOUS
 62
     7
 10
0.0
 20
363.0
 30
0.0
 11
432.0
 21
363.0
 31
0.0
  0
LINE
  5
B9
  8
DATA
  6
CONTINUOUS
 62
     7
 10
432.0
 20
0.0
 30
0.0
 11
432.0
 21
363.0
 31
0.0
  0
LINE
  5
BA
  8
DATA
  6
CONTINUOUS
 62
     7
 10
0.0
 20
350.99999999999989
 30
0.0
 11
432.0
 21
350.99999999999989
 31
0.0
  0
LINE
  5
BB
  8
DATA
  6
CONTINUOUS
 62
     7
 10
13.5
 20
9.0
 30
0.0
 11
13.5
 21
345.99999999999989
 31
0.0
  0
LINE
  5
BC
  8
DATA
  6
CONTINUOUS
 62
     7
 10
38.875
 20
9.0
 30
0.0
 11
38.875
 21
345.99999999999989
 31
0.0
  0
LINE
  5
BD
  8
DATA
  6
CONTINUOUS
 62
     7
 10
64.25
 20
9.0
 30
0.0
 11
64.25
 21
345.99999999999989
 31
0.0
  0
LINE
  5
BE
  8
DATA
  6
CONTINUOUS
 62
     7
 10
89.625
 20
9.0
 30
0.0
 11
89.625
 21
345.99999999999989
 31
0.0
  0
LINE
  5
BF
  8
DATA
  6
CONTINUOUS
 62
     7
 10
115.0
 20
9.0
 30
0.0
 11
115.0
 21
345.99999999999989
 31
0.0
  0
LINE
  5
C0
  8
DATA
  6
CONTINUOUS
 62
     7
 10
140.375
 20
9.0
 30
0.0
 11
140.375
 21
345.99999999999989
 31
0.0
  0
LINE
  5
C1
  8
DATA
  6
CONTINUOUS
 62
     7
 10
165.75
 20
9.0
 30
0.0
 11
165.75
 21
345.99999999999989
 31
0.0
  0
LINE
  5
C2
  8
DATA
  6
CONTINUOUS
 62
     7
 10
191.125
 20
9.0
 30
0.0
 11
191.125
 21
345.99999999999989
 31
0.0
  0
LINE
  5
C3
  8
DATA
  6
CONTINUOUS
 62
     7
 10
216.5
 20
9.0
 30
0.0
 11
216.5
 21
345.99999999999989
 31
0.0
  0
LINE
  5
C4
  8
DATA
  6
CONTINUOUS
 62
     7
 10
266.5
 20
9.0
 30
0.0
 11
266.5
 21
345.99999999999989
 31
0.0
  0
LINE
  5
C5
  8
DATA
  6
CONTINUOUS
 62
     7
 10
280.0
 20
0.0
 30
0.0
 11
280.0
 21
363.0
 31
0.0
  0
LINE
  5
C6
  8
DATA
  6
CONTINUOUS
 62
     7
 10
13.5
 20
9.0
 30
0.0
 11
266.5
 21
9.0
 31
0.0
  0
CIRCLE
  5
C7
  8
DATA
  6
CONTINUOUS
 62
     7
 10
26.1875
 20
266.5
 30
0.0
 40
5.2500000000000799
  0
LINE
  5
C8
  8
DATA
  6
CONTINUOUS
 62
     7
 10
13.5
 20
345.99999999999989
 30
0.0
 11
266.5
 21
345.99999999999989
 31
0.0
  0
CIRCLE
  5
C9
  8
DATA
  6
CONTINUOUS
 62
     7
 10
26.1875
 20
266.5
 30
0.0
 40
7.0000000000000178
  0
LINE
  5
CA
  8
DATA
  6
CONTINUOUS
 62
     7
 10
790.0
 20
363.00104356334498
 30
0.0
 11
709.4995633313896
 21
351.00000000000023
 31
0.0
  0
LINE
  5
CB
  8
DATA
  6
CONTINUOUS
 62
     7
 10
790.0
 20
363.00104356334498
 30
0.0
 11
790.0
 21
284.72435641003949
 31
0.0
  0
LINE
  5
CC
  8
DATA
  6
CONTINUOUS
 62
     7
 10
788.29561882225926
 20
282.74632468331572
 30
0.0
 11
755.31028501139053
 21
277.8166335154462
 31
0.0
  0
LINE
  5
CD
  8
DATA
  6
CONTINUOUS
 62
     7
 10
758.82939631192926
 20
0.0
 30
0.0
 11
791.66280950933935
 21
4.906986480062641
 31
0.0
  0
LINE
  5
CE
  8
DATA
  6
CONTINUOUS
 62
     7
 10
791.66324258040095
 20
4.9067123316823427
 30
0.0
 11
753.62536769616656
 21
275.5602555868021
 31
0.0
  0
LINE
  5
CF
  8
DATA
  6
CONTINUOUS
 62
     7
 10
800.0
 20
332.00104356334509
 30
0.0
 11
800.0
 21
314.00104356334509
 31
0.0
  0
LINE
  5
D0
  8
DATA
  6
CONTINUOUS
 62
     7
 10
790.0
 20
333.00104356334509
 30
0.0
 11
800.0
 21
332.00104356334509
 31
0.0
  0
LINE
  5
D1
  8
DATA
  6
CONTINUOUS
 62
     7
 10
790.0
 20
313.00104356334509
 30
0.0
 11
800.0
 21
314.00104356334509
 31
0.0
  0
LINE
  5
D2
  8
DATA
  6
CONTINUOUS
 62
     7
 10
788.87978056119994
 20
24.71207370651365
 30
0.0
 11
791.38489637848068
 21
6.8872484691654563
 31
0.0
  0
LINE
  5
D3
  8
DATA
  6
CONTINUOUS
 62
     7
 10
788.87978056119994
 20
24.71207370651365
 30
0.0
 11
793.83112090490749
 21
25.407939211313931
 31
0.0
  0
LINE
  5
D4
  8
DATA
  6
CONTINUOUS
 62
     7
 10
791.38489637848068
 20
6.8872484691654563
 30
0.0
 11
796.33623672218857
 21
7.5831139739659639
 31
0.0
  0
LINE
  5
D5
  8
DATA
  6
CONTINUOUS
 62
     7
 10
796.33623672218857
 20
7.5831139739659639
 30
0.0
 11
793.83112090490749
 21
25.407939211313931
 31
0.0
  0
LINE
  5
D6
  8
DATA
  6
CONTINUOUS
 62
     7
 10
330.0
 20
0.0
 30
0.0
 11
330.0
 21
363.0
 31
0.0
  0
LINE
  5
D7
  8
DATA
  6
CONTINUOUS
 62
     7
 10
709.4995633313896
 20
351.00000000000023
 30
0.0
 11
758.82939631192926
 21
0.0
 31
0.0
  0
LINE
  5
D8
  8
DATA
  6
CONTINUOUS
 62
     7
 10
704.52215719864375
 20
271.45134034370801
 30
0.0
 11
705.91388820824432
 21
261.5486596562925
 31
0.0
  0
LINE
  5
D9
  8
DATA
  6
CONTINUOUS
 62
     7
 10
720.2272731975487
 20
274.66837802781077
 30
0.0
 11
721.89735040906953
 21
262.78516120291169
 31
0.0
  0
LINE
  5
DA
  8
DATA
  6
CONTINUOUS
 62
     7
 10
721.89735040906953
 20
262.78516120291169
 30
0.0
 11
705.91388820824432
 21
261.5486596562925
 31
0.0
  0
LINE
  5
DB
  8
DATA
  6
CONTINUOUS
 62
     7
 10
704.52215719864375
 20
271.45134034370801
 30
0.0
 11
720.2272731975487
 21
274.66837802781077
 31
0.0
  0
ARC
  5
DC
  8
DATA
  6
CONTINUOUS
 62
     7
 10
755.6059038336499
 20
275.83860178872231
 30
0.0
 40
2.0000000000000511
 50
98.500000000000014
 51
187.99999999999741
  0
LINE
  5
DD
  8
DATA
  6
CONTINUOUS
 62
     7
 10
0.0
 20
21.99999999999995
 30
0.0
 11
-1.5
 21
21.99999999999995
 31
0.0
  0
LINE
  5
DE
  8
DATA
  6
CONTINUOUS
 62
     7
 10
-2.0
 20
21.49999999999995
 30
0.0
 11
-2.0
 21
16.49999999999995
 31
0.0
  0
LINE
  5
DF
  8
DATA
  6
CONTINUOUS
 62
     7
 10
-1.5
 20
15.99999999999994
 30
0.0
 11
0.0
 21
15.99999999999994
 31
0.0
  0
ARC
  5
E0
  8
DATA
  6
CONTINUOUS
 62
     7
 10
-1.5
 20
21.49999999999995
 30
0.0
 40
0.5
 50
90.0
 51
180.0
  0
ARC
  5
E1
  8
DATA
  6
CONTINUOUS
 62
     7
 10
-1.5
 20
16.49999999999995
 30
0.0
 40
0.5
 50
180.0
 51
270.0
  0
LINE
  5
E2
  8
DATA
  6
CONTINUOUS
 62
     7
 10
0.0
 20
181.0
 30
0.0
 11
-1.5
 21
181.0
 31
0.0
  0
LINE
  5
E3
  8
DATA
  6
CONTINUOUS
 62
     7
 10
-2.0
 20
180.49999999999989
 30
0.0
 11
-2.0
 21
175.49999999999989
 31
0.0
  0
LINE
  5
E4
  8
DATA
  6
CONTINUOUS
 62
     7
 10
-1.5
 20
174.99999999999989
 30
0.0
 11
0.0
 21
174.99999999999989
 31
0.0
  0
ARC
  5
E5
  8
DATA
  6
CONTINUOUS
 62
     7
 10
-1.5
 20
180.49999999999989
 30
0.0
 40
0.5
 50
90.0
 51
180.0
  0
ARC
  5
E6
  8
DATA
  6
CONTINUOUS
 62
     7
 10
-1.5
 20
175.49999999999989
 30
0.0
 40
0.5
 50
180.0
 51
270.0
  0
LINE
  5
E7
  8
DATA
  6
CONTINUOUS
 62
     7
 10
0.0
 20
340.0
 30
0.0
 11
-1.5
 21
340.0
 31
0.0
  0
LINE
  5
E8
  8
DATA
  6
CONTINUOUS
 62
     7
 10
-2.0
 20
339.5
 30
0.0
 11
-2.0
 21
334.5
 31
0.0
  0
LINE
  5
E9
  8
DATA
  6
CONTINUOUS
 62
     7
 10
-1.5
 20
334.0
 30
0.0
 11
0.0
 21
334.0
 31
0.0
  0
ARC
  5
EA
  8
DATA
  6
CONTINUOUS
 62
     7
 10
-1.5
 20
339.5
 30
0.0
 40
0.5
 50
90.0
 51
180.0
  0
ARC
  5
EB
  8
DATA
  6
CONTINUOUS
 62
     7
 10
-1.5
 20
334.5
 30
0.0
 40
0.5
 50
180.0
 51
270.0
  0
LINE
  5
EC
  8
DATA
  6
CONTINUOUS
 62
     7
 10
0.0
 20
350.99999999999989
 30
0.0
 11
-1.5
 21
350.99999999999989
 31
0.0
  0
LINE
  5
ED
  8
DATA
  6
CONTINUOUS
 62
     7
 10
-2.0
 20
350.49999999999989
 30
0.0
 11
-2.0
 21
345.5
 31
0.0
  0
LINE
  5
EE
  8
DATA
  6
CONTINUOUS
 62
     7
 10
-1.5
 20
344.99999999999989
 30
0.0
 11
0.0
 21
344.99999999999989
 31
0.0
  0
ARC
  5
EF
  8
DATA
  6
CONTINUOUS
 62
     7
 10
-1.5
 20
350.49999999999989
 30
0.0
 40
0.5
 50
90.0
 51
180.0
  0
ARC
  5
F0
  8
DATA
  6
CONTINUOUS
 62
     7
 10
-1.5
 20
345.5
 30
0.0
 40
0.5
 50
180.0
 51
270.0
  0
LINE
  5
F1
  8
DATA
  6
CONTINUOUS
 62
     7
 10
0.0
 20
301.0
 30
0.0
 11
-1.5
 21
301.0
 31
0.0
  0
LINE
  5
F2
  8
DATA
  6
CONTINUOUS
 62
     7
 10
-2.0
 20
300.5
 30
0.0
 11
-2.0
 21
295.5
 31
0.0
  0
LINE
  5
F3
  8
DATA
  6
CONTINUOUS
 62
     7
 10
-1.5
 20
295.0
 30
0.0
 11
0.0
 21
295.0
 31
0.0
  0
ARC
  5
F4
  8
DATA
  6
CONTINUOUS
 62
     7
 10
-1.5
 20
300.5
 30
0.0
 40
0.5
 50
90.0
 51
180.0
  0
ARC
  5
F5
  8
DATA
  6
CONTINUOUS
 62
     7
 10
-1.5
 20
295.5
 30
0.0
 40
0.5
 50
180.0
 51
270.0
  0
LINE
  5
F6
  8
DATA
  6
CONTINUOUS
 62
     7
 10
0.0
 20
21.99999999999995
 30
0.0
 11
-1.5
 21
21.99999999999995
 31
0.0
  0
LINE
  5
F7
  8
DATA
  6
CONTINUOUS
 62
     7
 10
-2.0
 20
21.49999999999995
 30
0.0
 11
-2.0
 21
16.49999999999995
 31
0.0
  0
LINE
  5
F8
  8
DATA
  6
CONTINUOUS
 62
     7
 10
-1.5
 20
15.99999999999994
 30
0.0
 11
0.0
 21
15.99999999999994
 31
0.0
  0
ARC
  5
F9
  8
DATA
  6
CONTINUOUS
 62
     7
 10
-1.5
 20
21.49999999999995
 30
0.0
 40
0.5
 50
90.0
 51
180.0
  0
ARC
  5
FA
  8
DATA
  6
CONTINUOUS
 62
     7
 10
-1.5
 20
16.49999999999995
 30
0.0
 40
0.5
 50
180.0
 51
270.0
  0
LINE
  5
FB
  8
DATA
  6
CONTINUOUS
 62
     7
 10
0.0
 20
181.0
 30
0.0
 11
-1.5
 21
181.0
 31
0.0
  0
LINE
  5
FC
  8
DATA
  6
CONTINUOUS
 62
     7
 10
-2.0
 20
180.49999999999989
 30
0.0
 11
-2.0
 21
175.49999999999989
 31
0.0
  0
LINE
  5
FD
  8
DATA
  6
CONTINUOUS
 62
     7
 10
-1.5
 20
174.99999999999989
 30
0.0
 11
0.0
 21
174.99999999999989
 31
0.0
  0
ARC
  5
FE
  8
DATA
  6
CONTINUOUS
 62
     7
 10
-1.5
 20
180.49999999999989
 30
0.0
 40
0.5
 50
90.0
 51
180.0
  0
ARC
  5
FF
  8
DATA
  6
CONTINUOUS
 62
     7
 10
-1.5
 20
175.49999999999989
 30
0.0
 40
0.5
 50
180.0
 51
270.0
  0
LINE
  5
100
  8
DATA
  6
CONTINUOUS
 62
     7
 10
0.0
 20
340.0
 30
0.0
 11
-1.5
 21
340.0
 31
0.0
  0
LINE
  5
101
  8
DATA
  6
CONTINUOUS
 62
     7
 10
-2.0
 20
339.5
 30
0.0
 11
-2.0
 21
334.5
 31
0.0
  0
LINE
  5
102
  8
DATA
  6
CONTINUOUS
 62
     7
 10
-1.5
 20
334.0
 30
0.0
 11
0.0
 21
334.0
 31
0.0
  0
ARC
  5
103
  8
DATA
  6
CONTINUOUS
 62
     7
 10
-1.5
 20
339.5
 30
0.0
 40
0.5
 50
90.0
 51
180.0
  0
ARC
  5
104
  8
DATA
  6
CONTINUOUS
 62
     7
 10
-1.5
 20
334.5
 30
0.0
 40
0.5
 50
180.0
 51
270.0
  0
LINE
  5
105
  8
DATA
  6
CONTINUOUS
 62
     7
 10
0.0
 20
350.99999999999989
 30
0.0
 11
-1.5
 21
350.99999999999989
 31
0.0
  0
LINE
  5
106
  8
DATA
  6
CONTINUOUS
 62
     7
 10
-2.0
 20
350.49999999999989
 30
0.0
 11
-2.0
 21
345.5
 31
0.0
  0
LINE
  5
107
  8
DATA
  6
CONTINUOUS
 62
     7
 10
-1.5
 20
344.99999999999989
 30
0.0
 11
0.0
 21
344.99999999999989
 31
0.0
  0
ARC
  5
108
  8
DATA
  6
CONTINUOUS
 62
     7
 10
-1.5
 20
350.49999999999989
 30
0.0
 40
0.5
 50
90.0
 51
180.0
  0
ARC
  5
109
  8
DATA
  6
CONTINUOUS
 62
     7
 10
-1.5
 20
345.5
 30
0.0
 40
0.5
 50
180.0
 51
270.0
  0
LINE
  5
10A
  8
DATA
  6
CONTINUOUS
 62
     7
 10
0.0
 20
301.0
 30
0.0
 11
-1.5
 21
301.0
 31
0.0
  0
LINE
  5
10B
  8
DATA
  6
CONTINUOUS
 62
     7
 10
-2.0
 20
300.5
 30
0.0
 11
-2.0
 21
295.5
 31
0.0
  0
LINE
  5
10C
  8
DATA
  6
CONTINUOUS
 62
     7
 10
-1.5
 20
295.0
 30
0.0
 11
0.0
 21
295.0
 31
0.0
  0
ARC
  5
10D
  8
DATA
  6
CONTINUOUS
 62
     7
 10
-1.5
 20
300.5
 30
0.0
 40
0.5
 50
90.0
 51
180.0
  0
ARC
  5
10E
  8
DATA
  6
CONTINUOUS
 62
     7
 10
-1.5
 20
295.5
 30
0.0
 40
0.5
 50
180.0
 51
270.0
  0
LINE
  5
10F
  8
DATA
  6
CONTINUOUS
 62
     7
 10
432.0
 20
21.99999999999995
 30
0.0
 11
433.49999999999989
 21
21.99999999999995
 31
0.0
  0
LINE
  5
110
  8
DATA
  6
CONTINUOUS
 62
     7
 10
434.0
 20
21.49999999999995
 30
0.0
 11
434.0
 21
16.49999999999995
 31
0.0
  0
LINE
  5
111
  8
DATA
  6
CONTINUOUS
 62
     7
 10
433.49999999999989
 20
15.99999999999994
 30
0.0
 11
432.0
 21
15.99999999999994
 31
0.0
  0
ARC
  5
112
  8
DATA
  6
CONTINUOUS
 62
     7
 10
433.49999999999989
 20
21.49999999999995
 30
0.0
 40
0.5
 50
0.0
 51
90.0
  0
ARC
  5
113
  8
DATA
  6
CONTINUOUS
 62
     7
 10
433.49999999999989
 20
16.49999999999995
 30
0.0
 40
0.5
 50
270.0
 51
0.0
  0
LINE
  5
114
  8
DATA
  6
CONTINUOUS
 62
     7
 10
432.0
 20
181.0
 30
0.0
 11
433.49999999999989
 21
181.0
 31
0.0
  0
LINE
  5
115
  8
DATA
  6
CONTINUOUS
 62
     7
 10
434.0
 20
180.49999999999989
 30
0.0
 11
434.0
 21
175.49999999999989
 31
0.0
  0
LINE
  5
116
  8
DATA
  6
CONTINUOUS
 62
     7
 10
433.49999999999989
 20
174.99999999999989
 30
0.0
 11
432.0
 21
174.99999999999989
 31
0.0
  0
ARC
  5
117
  8
DATA
  6
CONTINUOUS
 62
     7
 10
433.49999999999989
 20
180.49999999999989
 30
0.0
 40
0.5
 50
0.0
 51
90.0
  0
ARC
  5
118
  8
DATA
  6
CONTINUOUS
 62
     7
 10
433.49999999999989
 20
175.49999999999989
 30
0.0
 40
0.5
 50
270.0
 51
0.0
  0
LINE
  5
119
  8
DATA
  6
CONTINUOUS
 62
     7
 10
432.0
 20
340.0
 30
0.0
 11
433.49999999999989
 21
340.0
 31
0.0
  0
LINE
  5
11A
  8
DATA
  6
CONTINUOUS
 62
     7
 10
434.0
 20
339.5
 30
0.0
 11
434.0
 21
334.5
 31
0.0
  0
LINE
  5
11B
  8
DATA
  6
CONTINUOUS
 62
     7
 10
433.49999999999989
 20
334.0
 30
0.0
 11
432.0
 21
334.0
 31
0.0
  0
ARC
  5
11C
  8
DATA
  6
CONTINUOUS
 62
     7
 10
433.49999999999989
 20
339.5
 30
0.0
 40
0.5
 50
0.0
 51
90.0
  0
ARC
  5
11D
  8
DATA
  6
CONTINUOUS
 62
     7
 10
433.49999999999989
 20
334.5
 30
0.0
 40
0.5
 50
270.0
 51
0.0
  0
LINE
  5
11E
  8
DATA
  6
CONTINUOUS
 62
     7
 10
432.0
 20
350.99999999999989
 30
0.0
 11
433.49999999999989
 21
350.99999999999989
 31
0.0
  0
LINE
  5
11F
  8
DATA
  6
CONTINUOUS
 62
     7
 10
434.0
 20
350.49999999999989
 30
0.0
 11
434.0
 21
345.5
 31
0.0
  0
LINE
  5
120
  8
DATA
  6
CONTINUOUS
 62
     7
 10
433.49999999999989
 20
344.99999999999989
 30
0.0
 11
432.0
 21
344.99999999999989
 31
0.0
  0
ARC
  5
121
  8
DATA
  6
CONTINUOUS
 62
     7
 10
433.49999999999989
 20
350.49999999999989
 30
0.0
 40
0.5
 50
0.0
 51
90.0
  0
ARC
  5
122
  8
DATA
  6
CONTINUOUS
 62
     7
 10
433.49999999999989
 20
345.5
 30
0.0
 40
0.5
 50
270.0
 51
0.0
  0
LINE
  5
123
  8
DATA
  6
CONTINUOUS
 62
     7
 10
432.0
 20
301.0
 30
0.0
 11
433.49999999999989
 21
301.0
 31
0.0
  0
LINE
  5
124
  8
DATA
  6
CONTINUOUS
 62
     7
 10
434.0
 20
300.5
 30
0.0
 11
434.0
 21
295.5
 31
0.0
  0
LINE
  5
125
  8
DATA
  6
CONTINUOUS
 62
     7
 10
433.49999999999989
 20
295.0
 30
0.0
 11
432.0
 21
295.0
 31
0.0
  0
ARC
  5
126
  8
DATA
  6
CONTINUOUS
 62
     7
 10
433.49999999999989
 20
300.5
 30
0.0
 40
0.5
 50
0.0
 51
90.0
  0
ARC
  5
127
  8
DATA
  6
CONTINUOUS
 62
     7
 10
433.49999999999989
 20
295.5
 30
0.0
 40
0.5
 50
270.0
 51
0.0
  0
LINE
  5
128
  8
DATA
  6
CONTINUOUS
 62
     7
 10
20.0
 20
363.0
 30
0.0
 11
20.0
 21
364.5
 31
0.0
  0
LINE
  5
129
  8
DATA
  6
CONTINUOUS
 62
     7
 10
19.5
 20
365.0
 30
0.0
 11
14.5
 21
365.0
 31
0.0
  0
LINE
  5
12A
  8
DATA
  6
CONTINUOUS
 62
     7
 10
14.0
 20
364.5
 30
0.0
 11
14.0
 21
363.0
 31
0.0
  0
ARC
  5
12B
  8
DATA
  6
CONTINUOUS
 62
     7
 10
19.5
 20
364.5
 30
0.0
 40
0.5
 50
0.0
 51
90.0
  0
ARC
  5
12C
  8
DATA
  6
CONTINUOUS
 62
     7
 10
14.5
 20
364.5
 30
0.0
 40
0.5
 50
90.0
 51
180.0
  0
LINE
  5
12D
  8
DATA
  6
CONTINUOUS
 62
     7
 10
144.0
 20
363.0
 30
0.0
 11
144.0
 21
364.5
 31
0.0
  0
LINE
  5
12E
  8
DATA
  6
CONTINUOUS
 62
     7
 10
143.5
 20
365.0
 30
0.0
 11
138.5
 21
365.0
 31
0.0
  0
LINE
  5
12F
  8
DATA
  6
CONTINUOUS
 62
     7
 10
138.0
 20
364.5
 30
0.0
 11
138.0
 21
363.0
 31
0.0
  0
ARC
  5
130
  8
DATA
  6
CONTINUOUS
 62
     7
 10
143.5
 20
364.5
 30
0.0
 40
0.5
 50
0.0
 51
90.0
  0
ARC
  5
131
  8
DATA
  6
CONTINUOUS
 62
     7
 10
138.5
 20
364.5
 30
0.0
 40
0.5
 50
90.0
 51
180.0
  0
LINE
  5
132
  8
DATA
  6
CONTINUOUS
 62
     7
 10
267.0
 20
363.0
 30
0.0
 11
267.0
 21
364.5
 31
0.0
  0
LINE
  5
133
  8
DATA
  6
CONTINUOUS
 62
     7
 10
266.5
 20
365.0
 30
0.0
 11
261.5
 21
365.0
 31
0.0
  0
LINE
  5
134
  8
DATA
  6
CONTINUOUS
 62
     7
 10
261.0
 20
364.5
 30
0.0
 11
261.0
 21
363.0
 31
0.0
  0
ARC
  5
135
  8
DATA
  6
CONTINUOUS
 62
     7
 10
266.5
 20
364.5
 30
0.0
 40
0.5
 50
0.0
 51
90.0
  0
ARC
  5
136
  8
DATA
  6
CONTINUOUS
 62
     7
 10
261.5
 20
364.5
 30
0.0
 40
0.5
 50
90.0
 51
180.0
  0
LINE
  5
137
  8
DATA
  6
CONTINUOUS
 62
     7
 10
280.0
 20
21.99999999999995
 30
0.0
 11
281.5
 21
21.99999999999995
 31
0.0
  0
LINE
  5
138
  8
DATA
  6
CONTINUOUS
 62
     7
 10
282.0
 20
21.49999999999995
 30
0.0
 11
282.0
 21
16.49999999999995
 31
0.0
  0
LINE
  5
139
  8
DATA
  6
CONTINUOUS
 62
     7
 10
281.5
 20
15.99999999999994
 30
0.0
 11
280.0
 21
15.99999999999994
 31
0.0
  0
ARC
  5
13A
  8
DATA
  6
CONTINUOUS
 62
     7
 10
281.5
 20
21.49999999999995
 30
0.0
 40
0.5
 50
0.0
 51
90.0
  0
ARC
  5
13B
  8
DATA
  6
CONTINUOUS
 62
     7
 10
281.5
 20
16.49999999999995
 30
0.0
 40
0.5
 50
270.0
 51
0.0
  0
LINE
  5
13C
  8
DATA
  6
CONTINUOUS
 62
     7
 10
280.0
 20
181.0
 30
0.0
 11
281.5
 21
181.0
 31
0.0
  0
LINE
  5
13D
  8
DATA
  6
CONTINUOUS
 62
     7
 10
282.0
 20
180.49999999999989
 30
0.0
 11
282.0
 21
175.49999999999989
 31
0.0
  0
LINE
  5
13E
  8
DATA
  6
CONTINUOUS
 62
     7
 10
281.5
 20
174.99999999999989
 30
0.0
 11
280.0
 21
174.99999999999989
 31
0.0
  0
ARC
  5
13F
  8
DATA
  6
CONTINUOUS
 62
     7
 10
281.5
 20
180.49999999999989
 30
0.0
 40
0.5
 50
0.0
 51
90.0
  0
ARC
  5
140
  8
DATA
  6
CONTINUOUS
 62
     7
 10
281.5
 20
175.49999999999989
 30
0.0
 40
0.5
 50
270.0
 51
0.0
  0
LINE
  5
141
  8
DATA
  6
CONTINUOUS
 62
     7
 10
280.0
 20
340.0
 30
0.0
 11
281.5
 21
340.0
 31
0.0
  0
LINE
  5
142
  8
DATA
  6
CONTINUOUS
 62
     7
 10
282.0
 20
339.5
 30
0.0
 11
282.0
 21
334.5
 31
0.0
  0
LINE
  5
143
  8
DATA
  6
CONTINUOUS
 62
     7
 10
281.5
 20
334.0
 30
0.0
 11
280.0
 21
334.0
 31
0.0
  0
ARC
  5
144
  8
DATA
  6
CONTINUOUS
 62
     7
 10
281.5
 20
339.5
 30
0.0
 40
0.5
 50
0.0
 51
90.0
  0
ARC
  5
145
  8
DATA
  6
CONTINUOUS
 62
     7
 10
281.5
 20
334.5
 30
0.0
 40
0.5
 50
270.0
 51
0.0
  0
LINE
  5
146
  8
DATA
  6
CONTINUOUS
 62
     7
 10
280.0
 20
350.99999999999989
 30
0.0
 11
281.5
 21
350.99999999999989
 31
0.0
  0
LINE
  5
147
  8
DATA
  6
CONTINUOUS
 62
     7
 10
282.0
 20
350.49999999999989
 30
0.0
 11
282.0
 21
345.5
 31
0.0
  0
LINE
  5
148
  8
DATA
  6
CONTINUOUS
 62
     7
 10
281.5
 20
344.99999999999989
 30
0.0
 11
280.0
 21
344.99999999999989
 31
0.0
  0
ARC
  5
149
  8
DATA
  6
CONTINUOUS
 62
     7
 10
281.5
 20
350.49999999999989
 30
0.0
 40
0.5
 50
0.0
 51
90.0
  0
ARC
  5
14A
  8
DATA
  6
CONTINUOUS
 62
     7
 10
281.5
 20
345.5
 30
0.0
 40
0.5
 50
270.0
 51
0.0
  0
LINE
  5
14B
  8
DATA
  6
CONTINUOUS
 62
     7
 10
280.0
 20
301.0
 30
0.0
 11
281.5
 21
301.0
 31
0.0
  0
LINE
  5
14C
  8
DATA
  6
CONTINUOUS
 62
     7
 10
282.0
 20
300.5
 30
0.0
 11
282.0
 21
295.5
 31
0.0
  0
LINE
  5
14D
  8
DATA
  6
CONTINUOUS
 62
     7
 10
281.5
 20
295.0
 30
0.0
 11
280.0
 21
295.0
 31
0.0
  0
ARC
  5
14E
  8
DATA
  6
CONTINUOUS
 62
     7
 10
281.5
 20
300.5
 30
0.0
 40
0.5
 50
0.0
 51
90.0
  0
ARC
  5
14F
  8
DATA
  6
CONTINUOUS
 62
     7
 10
281.5
 20
295.5
 30
0.0
 40
0.5
 50
270.0
 51
0.0
  0
LINE
  5
150
  8
DATA
  6
CONTINUOUS
 62
     7
 10
330.0
 20
21.99999999999995
 30
0.0
 11
331.5
 21
21.99999999999995
 31
0.0
  0
LINE
  5
151
  8
DATA
  6
CONTINUOUS
 62
     7
 10
332.0
 20
21.49999999999995
 30
0.0
 11
332.0
 21
16.49999999999995
 31
0.0
  0
LINE
  5
152
  8
DATA
  6
CONTINUOUS
 62
     7
 10
331.5
 20
15.99999999999994
 30
0.0
 11
330.0
 21
15.99999999999994
 31
0.0
  0
ARC
  5
153
  8
DATA
  6
CONTINUOUS
 62
     7
 10
331.5
 20
21.49999999999995
 30
0.0
 40
0.5
 50
0.0
 51
90.0
  0
ARC
  5
154
  8
DATA
  6
CONTINUOUS
 62
     7
 10
331.5
 20
16.49999999999995
 30
0.0
 40
0.5
 50
270.0
 51
0.0
  0
LINE
  5
155
  8
DATA
  6
CONTINUOUS
 62
     7
 10
330.0
 20
181.0
 30
0.0
 11
331.5
 21
181.0
 31
0.0
  0
LINE
  5
156
  8
DATA
  6
CONTINUOUS
 62
     7
 10
332.0
 20
180.49999999999989
 30
0.0
 11
332.0
 21
175.49999999999989
 31
0.0
  0
LINE
  5
157
  8
DATA
  6
CONTINUOUS
 62
     7
 10
331.5
 20
174.99999999999989
 30
0.0
 11
330.0
 21
174.99999999999989
 31
0.0
  0
ARC
  5
158
  8
DATA
  6
CONTINUOUS
 62
     7
 10
331.5
 20
180.49999999999989
 30
0.0
 40
0.5
 50
0.0
 51
90.0
  0
ARC
  5
159
  8
DATA
  6
CONTINUOUS
 62
     7
 10
331.5
 20
175.49999999999989
 30
0.0
 40
0.5
 50
270.0
 51
0.0
  0
LINE
  5
15A
  8
DATA
  6
CONTINUOUS
 62
     7
 10
330.0
 20
340.0
 30
0.0
 11
331.5
 21
340.0
 31
0.0
  0
LINE
  5
15B
  8
DATA
  6
CONTINUOUS
 62
     7
 10
332.0
 20
339.5
 30
0.0
 11
332.0
 21
334.5
 31
0.0
  0
LINE
  5
15C
  8
DATA
  6
CONTINUOUS
 62
     7
 10
331.5
 20
334.0
 30
0.0
 11
330.0
 21
334.0
 31
0.0
  0
ARC
  5
15D
  8
DATA
  6
CONTINUOUS
 62
     7
 10
331.5
 20
339.5
 30
0.0
 40
0.5
 50
0.0
 51
90.0
  0
ARC
  5
15E
  8
DATA
  6
CONTINUOUS
 62
     7
 10
331.5
 20
334.5
 30
0.0
 40
0.5
 50
270.0
 51
0.0
  0
LINE
  5
15F
  8
DATA
  6
CONTINUOUS
 62
     7
 10
330.0
 20
350.99999999999989
 30
0.0
 11
331.5
 21
350.99999999999989
 31
0.0
  0
LINE
  5
160
  8
DATA
  6
CONTINUOUS
 62
     7
 10
332.0
 20
350.49999999999989
 30
0.0
 11
332.0
 21
345.5
 31
0.0
  0
LINE
  5
161
  8
DATA
  6
CONTINUOUS
 62
     7
 10
331.5
 20
344.99999999999989
 30
0.0
 11
330.0
 21
344.99999999999989
 31
0.0
  0
ARC
  5
162
  8
DATA
  6
CONTINUOUS
 62
     7
 10
331.5
 20
350.49999999999989
 30
0.0
 40
0.5
 50
0.0
 51
90.0
  0
ARC
  5
163
  8
DATA
  6
CONTINUOUS
 62
     7
 10
331.5
 20
345.5
 30
0.0
 40
0.5
 50
270.0
 51
0.0
  0
LINE
  5
164
  8
DATA
  6
CONTINUOUS
 62
     7
 10
330.0
 20
301.0
 30
0.0
 11
331.5
 21
301.0
 31
0.0
  0
LINE
  5
165
  8
DATA
  6
CONTINUOUS
 62
     7
 10
332.0
 20
300.5
 30
0.0
 11
332.0
 21
295.5
 31
0.0
  0
LINE
  5
166
  8
DATA
  6
CONTINUOUS
 62
     7
 10
331.5
 20
295.0
 30
0.0
 11
330.0
 21
295.0
 31
0.0
  0
ARC
  5
167
  8
DATA
  6
CONTINUOUS
 62
     7
 10
331.5
 20
300.5
 30
0.0
 40
0.5
 50
0.0
 51
90.0
  0
ARC
  5
168
  8
DATA
  6
CONTINUOUS
 62
     7
 10
331.5
 20
295.5
 30
0.0
 40
0.5
 50
270.0
 51
0.0
  0
CIRCLE
  5
169
  8
DATA
  6
CONTINUOUS
 62
     7
 10
782.61376716016434
 20
18.99999999999995
 30
0.0
 40
2.9999999999999569
  0
CIRCLE
  5
16A
  8
DATA
  6
CONTINUOUS
 62
     7
 10
760.26777444248398
 20
177.99999999999989
 30
0.0
 40
3.0
  0
CIRCLE
  5
16B
  8
DATA
  6
CONTINUOUS
 62
     7
 10
782.99300000000005
 20
298.0
 30
0.0
 40
2.9999999999999432
  0
CIRCLE
  5
16C
  8
DATA
  6
CONTINUOUS
 62
     7
 10
782.99300000000005
 20
347.99999999999989
 30
0.0
 40
2.9999999999999432
  0
CIRCLE
  5
16D
  8
DATA
  6
CONTINUOUS
 62
     7
 10
737.92178172480385
 20
337.0
 30
0.0
 40
3.0
  0
LINE
  5
16E
  8
DATA
  6
CONTINUOUS
 62
     7
 10
785.05106204167009
 20
362.23743112958857
 30
0.0
 11
784.84230239023009
 21
363.72283323270102
 31
0.0
  0
LINE
  5
16F
  8
DATA
  6
CONTINUOUS
 62
     7
 10
784.27758180537933
 20
364.1483807165917
 30
0.0
 11
779.32624146167143
 21
363.45251521179142
 31
0.0
  0
LINE
  5
170
  8
DATA
  6
CONTINUOUS
 62
     7
 10
778.90069397778063
 20
362.8877946269406
 30
0.0
 11
779.10945362922121
 21
361.40239252382821
 31
0.0
  0
ARC
  5
171
  8
DATA
  6
CONTINUOUS
 62
     7
 10
784.34716835585925
 20
363.65324668222092
 30
0.0
 40
0.4999999999999943
 50
8.0000000000008757
 51
97.99999999999352
  0
ARC
  5
172
  8
DATA
  6
CONTINUOUS
 62
     7
 10
779.3958280121517
 20
362.95738117742059
 30
0.0
 40
0.5000000000000506
 50
97.999999999999943
 51
188.00000000000091
  0
ARC
  5
173
  8
DATA
  6
CONTINUOUS
 62
     7
 10
788.0
 20
284.72435641003949
 30
0.0
 40
1.99999999999999
 50
278.49999999999937
 51
0.0
  0
ENDSEC
  0
EOF
