  0
SECTION
  2
HEADER
  9
$ACADVER
  1
AC1009
  9
$INSBASE
 10
0.0
 20
0.0
 30
0.0
  9
$EXTMIN
 10
-867.02579863227584
 20
-1952.4392148381651
 30
-0.0015258207003583
  9
$EXTMAX
 10
2733.1939279304788
 20
3400.162073093114
 30
0.0000000349246037
  9
$LIMMIN
 10
0.0
 20
0.0
  9
$LIMMAX
 10
0.0
 20
0.0
  9
$ORTHOMODE
 70
     0
  9
$REGENMODE
 70
     1
  9
$FILLMODE
 70
     1
  9
$QTEXTMODE
 70
     0
  9
$MIRRTEXT
 70
     1
  9
$DRAGMODE
 70
     2
  9
$LTSCALE
 40
101.59999999999999
  9
$OSMODE
 70
   231
  9
$ATTMODE
 70
     1
  9
$TEXTSIZE
 40
0.0
  9
$TRACEWID
 40
1.0
  9
$TEXTSTYLE
  7
STANDARD
  9
$CLAYER
  8
DATA
  9
$CELTYPE
  6
BYLAYER
  9
$CECOLOR
 62
   256
  9
$DIMSCALE
 40
1.0
  9
$DIMASZ
 40
0.18
  9
$DIMEXO
 40
0.0625
  9
$DIMDLI
 40
0.38
  9
$DIMRND
 40
0.0
  9
$DIMDLE
 40
0.0
  9
$DIMEXE
 40
0.18
  9
$DIMTP
 40
0.0
  9
$DIMTM
 40
0.0
  9
$DIMTXT
 40
0.18
  9
$DIMCEN
 40
0.09
  9
$DIMTSZ
 40
0.0
  9
$DIMTOL
 70
     0
  9
$DIMLIM
 70
     0
  9
$DIMTIH
 70
     1
  9
$DIMTOH
 70
     1
  9
$DIMSE1
 70
     0
  9
$DIMSE2
 70
     0
  9
$DIMTAD
 70
     0
  9
$DIMZIN
 70
     0
  9
$DIMBLK
  1

  9
$DIMASO
 70
     1
  9
$DIMSHO
 70
     1
  9
$DIMPOST
  1

  9
$DIMAPOST
  1

  9
$DIMALT
 70
     0
  9
$DIMALTD
 70
     2
  9
$DIMALTF
 40
25.399999999999999
  9
$DIMLFAC
 40
1.0
  9
$DIMTOFL
 70
     0
  9
$DIMTVP
 40
0.0
  9
$DIMTIX
 70
     0
  9
$DIMSOXD
 70
     0
  9
$DIMSAH
 70
     0
  9
$DIMBLK1
  1

  9
$DIMBLK2
  1

  9
$DIMSTYLE
  2
STANDARD
  9
$DIMCLRD
 70
     0
  9
$DIMCLRE
 70
     0
  9
$DIMCLRT
 70
     0
  9
$DIMTFAC
 40
1.0
  9
$DIMGAP
 40
0.09
  9
$LUNITS
 70
     2
  9
$LUPREC
 70
     4
  9
$SKETCHINC
 40
0.1
  9
$FILLETRAD
 40
0.0
  9
$AUNITS
 70
     0
  9
$AUPREC
 70
     0
  9
$MENU
  1
acad
  9
$ELEVATION
 40
0.0
  9
$PELEVATION
 40
0.0
  9
$THICKNESS
 40
0.0
  9
$LIMCHECK
 70
     0
  9
$BLIPMODE
 70
     0
  9
$CHAMFERA
 40
0.0
  9
$CHAMFERB
 40
0.0
  9
$SKPOLY
 70
     0
  9
$TDCREATE
 40
2454439.8294675932
  9
$TDUPDATE
 40
2454439.8301009838
  9
$TDINDWG
 40
0.0002411111
  9
$TDUSRTIMER
 40
0.0002407523
  9
$USRTIMER
 70
     1
  9
$ANGBASE
 50
0.0
  9
$ANGDIR
 70
     0
  9
$PDMODE
 70
     1
  9
$PDSIZE
 40
-2.0
  9
$PLINEWID
 40
0.0
  9
$COORDS
 70
     1
  9
$SPLFRAME
 70
     0
  9
$SPLINETYPE
 70
     6
  9
$SPLINESEGS
 70
     8
  9
$ATTDIA
 70
     0
  9
$ATTREQ
 70
     1
  9
$HANDLING
 70
     1
  9
$HANDSEED
  5
ECB
  9
$SURFTAB1
 70
     6
  9
$SURFTAB2
 70
     6
  9
$SURFTYPE
 70
     6
  9
$SURFU
 70
     6
  9
$SURFV
 70
     6
  9
$UCSNAME
  2

  9
$UCSORG
 10
0.0
 20
0.0
 30
0.0
  9
$UCSXDIR
 10
1.0
 20
0.0
 30
0.0
  9
$UCSYDIR
 10
0.0
 20
1.0
 30
0.0
  9
$PUCSNAME
  2

  9
$PUCSORG
 10
0.0
 20
0.0
 30
0.0
  9
$PUCSXDIR
 10
1.0
 20
0.0
 30
0.0
  9
$PUCSYDIR
 10
0.0
 20
1.0
 30
0.0
  9
$USERI1
 70
     0
  9
$USERI2
 70
     0
  9
$USERI3
 70
     0
  9
$USERI4
 70
     0
  9
$USERI5
 70
     0
  9
$USERR1
 40
0.0
  9
$USERR2
 40
0.0
  9
$USERR3
 40
0.0
  9
$USERR4
 40
0.0
  9
$USERR5
 40
0.0
  9
$WORLDVIEW
 70
     1
  9
$SHADEDGE
 70
     3
  9
$SHADEDIF
 70
    70
  9
$TILEMODE
 70
     1
  9
$MAXACTVP
 70
    64
  9
$PLIMCHECK
 70
     0
  9
$PEXTMIN
 10
1.0000000000000000E+020
 20
1.0000000000000000E+020
 30
1.0000000000000000E+020
  9
$PEXTMAX
 10
-1.0000000000000000E+020
 20
-1.0000000000000000E+020
 30
-1.0000000000000000E+020
  9
$PLIMMIN
 10
0.0
 20
0.0
  9
$PLIMMAX
 10
12.0
 20
9.0
  9
$UNITMODE
 70
     0
  9
$VISRETAIN
 70
     0
  9
$PLINEGEN
 70
     1
  9
$PSLTSCALE
 70
     0
  0
ENDSEC
  0
SECTION
  2
TABLES
  0
TABLE
  2
VPORT
 70
     1
  0
VPORT
  2
*ACTIVE
 70
     0
 10
0.0
 20
0.0
 11
1.0
 21
1.0
 12
933.08406464910195
 22
723.86142912747425
 13
0.0
 23
0.0
 14
1.0
 24
1.0
 15
0.0
 25
0.0
 16
0.0
 26
0.0
 36
1.0
 17
0.0
 27
0.0
 37
0.0
 40
5397.0212156319531
 41
1.6703601108033239
 42
50.0
 43
0.0
 44
0.0
 50
0.0
 51
0.0
 71
     0
 72
  2000
 73
     1
 74
     1
 75
     0
 76
     0
 77
     0
 78
     0
  0
ENDTAB
  0
TABLE
  2
LTYPE
 70
    11
  0
LTYPE
  2
CONTINUOUS
 70
     0
  3
Solid line
 72
    65
 73
     0
 40
0.0
  0
ENDTAB
  0
TABLE
  2
LAYER
 70
     5
  0
LAYER
  2
0
 70
     0
 62
     7
  6
CONTINUOUS
  0
LAYER
  2
DATA
 70
     0
 62
     7
  6
CONTINUOUS
  0
LAYER
  2
HIBINO-BASE
 70
     0
 62
     7
  6
CONTINUOUS
  0
LAYER
  2
SPEC
 70
     0
 62
     7
  6
CONTINUOUS
  0
LAYER
  2
DIMNSIONS
 70
     0
 62
     7
  6
CONTINUOUS
  0
ENDTAB
  0
TABLE
  2
STYLE
 70
     2
  0
STYLE
  2
STANDARD
 70
     0
 40
0.0
 41
1.0
 50
0.0
 71
     0
 42
0.0
  3
txt
  4
BIGFONT.SHX
  0
ENDTAB
  0
TABLE
  2
VIEW
 70
     0
  0
ENDTAB
  0
TABLE
  2
UCS
 70
     0
  0
ENDTAB
  0
TABLE
  2
APPID
 70
     1
  0
APPID
  2
ACAD
 70
     0
  0
ENDTAB
  0
TABLE
  2
DIMSTYLE
 70
     1
  0
DIMSTYLE
  2
STANDARD
 70
     0
  3

  4

  5

  6

  7

 40
1.0
 41
0.18
 42
0.0625
 43
0.38
 44
0.18
 45
0.0
 46
0.0
 47
0.0
 48
0.0
140
0.18
141
0.09
142
0.0
143
25.399999999999999
144
1.0
145
0.0
146
1.0
147
0.09
 71
     0
 72
     0
 73
     1
 74
     1
 75
     0
 76
     0
 77
     0
 78
     0
170
     0
171
     2
172
     0
173
     0
174
     0
175
     0
176
     0
177
     0
178
     0
  0
ENDTAB
  0
ENDSEC
  0
SECTION
  2
BLOCKS
  0
BLOCK
  8
0
  2
$MODEL_SPACE
 70
     0
 10
0.0
 20
0.0
 30
0.0
  3
$MODEL_SPACE
  1

  0
ENDBLK
  5
89E
  8
0
  0
BLOCK
 67
     1
  8
0
  2
$PAPER_SPACE
 70
     0
 10
0.0
 20
0.0
 30
0.0
  3
$PAPER_SPACE
  1

  0
ENDBLK
  5
89A
 67
     1
  8
0
  0
ENDSEC
  0
SECTION
  2
ENTITIES
  0
LINE
  5
2C
  8
HIBINO-BASE
  6
CONTINUOUS
 62
     7
 10
-866.91594373280213
 20
3399.9990579529472
 30
0.0
 11
2733.084056267197
 21
3399.9990579529472
 31
0.0
  0
LINE
  5
2D
  8
HIBINO-BASE
  6
CONTINUOUS
 62
     7
 10
2733.084056267197
 20
-1800.000942047054
 30
0.0
 11
-866.91594373280213
 21
-1800.000942047054
 31
0.0
  0
LINE
  5
2E
  8
HIBINO-BASE
  6
CONTINUOUS
 62
     7
 10
-866.91594373280213
 20
-1800.000942047054
 30
0.0
 11
-866.91594373280213
 21
3399.9990579529472
 31
0.0
  0
TEXT
  5
2F
  8
HIBINO-BASE
 62
     7
 10
-723.23594373280184
 20
-1928.174498047053
 30
0.0
 40
72.000883593749975
  1
Hibino Corporation
 41
0.7
 11
-723.23594373280184
 21
-1856.1736144533029
 31
0.0
 73
     3
  0
LINE
  5
30
  8
HIBINO-BASE
  6
CONTINUOUS
 62
     7
 10
2733.084056267197
 20
3399.9990579529472
 30
0.0
 11
2733.084056267197
 21
-1800.000942047054
 31
0.0
  0
LINE
  5
31
  8
HIBINO-BASE
  6
CONTINUOUS
 62
     7
 10
933.08405626719752
 20
-1350.0009420470531
 30
0.0
 11
2733.084056267197
 21
-1350.0009420470531
 31
0.0
  0
LINE
  5
32
  8
HIBINO-BASE
  6
CONTINUOUS
 62
     7
 10
933.08405626719752
 20
-1800.000942047054
 30
0.0
 11
933.08405626719752
 21
-1350.0009420470531
 31
0.0
  0
TEXT
  5
33
  8
HIBINO-BASE
 62
     7
 10
951.08405626719741
 20
-1400.17480871372
 30
0.0
 40
32.576822916666671
  1
NOTE
 41
0.7
 11
951.08405626719741
 21
-1367.5979857970531
 31
0.0
 73
     3
  0
LINE
  5
34
  8
HIBINO-BASE
  6
CONTINUOUS
 62
     7
 10
1633.0840562671981
 20
-1800.000942047054
 30
0.0
 11
1633.0840562671981
 21
-1350.0009420470531
 31
0.0
  0
TEXT
  5
35
  8
HIBINO-BASE
 62
     7
 10
1651.0840562671981
 20
-1400.17480871372
 30
0.0
 40
32.576822916666671
  1
TITLE
 41
0.7
 11
1651.0840562671981
 21
-1367.5979857970531
 31
0.0
 73
     3
  0
TEXT
  5
36
  8
HIBINO-BASE
 62
     7
 10
1934.4518562671969
 20
-1928.174498047053
 30
0.0
 40
72.000883593749975
  1
ヒビノ株式会社
 41
0.7
 11
1934.4518562671969
 21
-1856.1736144533029
 31
0.0
 73
     3
  0
LINE
  5
37
  8
HIBINO-BASE
  6
CONTINUOUS
 62
     7
 10
933.08405626719752
 20
-1600.000942047054
 30
0.0
 11
2733.084056267197
 21
-1600.000942047054
 31
0.0
  0
TEXT
  5
38
  8
HIBINO-BASE
 62
     7
 10
1901.0840562671981
 20
-1649.0484087137199
 30
0.0
 40
32.576822916666671
  1
DRAWN
 41
0.7
 11
1901.0840562671981
 21
-1616.471585797053
 31
0.0
 73
     3
  0
TEXT
  5
39
  8
HIBINO-BASE
 62
     7
 10
1401.0840562671981
 20
-1649.0484087137199
 30
0.0
 40
32.576822916666671
  1
DATE
 41
0.7
 11
1401.0840562671981
 21
-1616.471585797053
 31
0.0
 73
     3
  0
TEXT
  5
3A
  8
HIBINO-BASE
 62
     7
 10
1201.0840562671981
 20
-1649.0484087137199
 30
0.0
 40
32.576822916666671
  1
SCALE
 41
0.7
 11
1201.0840562671981
 21
-1616.471585797053
 31
0.0
 73
     3
  0
TEXT
  5
3B
  8
HIBINO-BASE
 62
     7
 10
1651.0840562671981
 20
-1649.0484087137199
 30
0.0
 40
32.576822916666671
  1
DESIGN
 41
0.7
 11
1651.0840562671981
 21
-1616.471585797053
 31
0.0
 73
     3
  0
TEXT
  5
3C
  8
HIBINO-BASE
 62
     7
 10
2401.084056267197
 20
-1649.0484087137199
 30
0.0
 40
32.576822916666671
  1
DRAWING NO.
 41
0.7
 11
2401.084056267197
 21
-1616.471585797053
 31
0.0
 73
     3
  0
TEXT
  5
3D
  8
HIBINO-BASE
 62
     7
 10
2151.0840562671979
 20
-1649.0484087137199
 30
0.0
 40
32.576822916666671
  1
CHECK
 41
0.7
 11
2151.0840562671979
 21
-1616.471585797053
 31
0.0
 73
     3
  0
LINE
  5
3E
  8
HIBINO-BASE
  6
CONTINUOUS
 62
     7
 10
1220.584056267197
 20
-1775.000942047054
 30
0.0
 11
1295.5840562671981
 21
-1700.000942047054
 31
0.0
  0
TEXT
  5
3F
  8
HIBINO-BASE
 62
     7
 10
1208.084056267197
 20
-1722.1798087137199
 30
0.0
 40
32.576822916666671
  1
1
 41
0.7
 11
1208.084056267197
 21
-1689.602985797053
 31
0.0
 73
     3
  0
LINE
  5
40
  8
HIBINO-BASE
  6
CONTINUOUS
 62
     7
 10
1183.0840562671981
 20
-1800.000942047054
 30
0.0
 11
1183.0840562671981
 21
-1600.000942047054
 31
0.0
  0
LINE
  5
41
  8
HIBINO-BASE
  6
CONTINUOUS
 62
     7
 10
1383.0840562671981
 20
-1800.000942047054
 30
0.0
 11
1383.0840562671981
 21
-1600.000942047054
 31
0.0
  0
LINE
  5
42
  8
HIBINO-BASE
  6
CONTINUOUS
 62
     7
 10
1883.084056267197
 20
-1600.000942047054
 30
0.0
 11
1883.084056267197
 21
-1800.000942047054
 31
0.0
  0
LINE
  5
43
  8
HIBINO-BASE
  6
CONTINUOUS
 62
     7
 10
2383.084056267197
 20
-1600.000942047054
 30
0.0
 11
2383.084056267197
 21
-1800.000942047054
 31
0.0
  0
LINE
  5
44
  8
HIBINO-BASE
  6
CONTINUOUS
 62
     7
 10
2133.084056267197
 20
-1800.000942047054
 30
0.0
 11
2133.084056267197
 21
-1600.000942047054
 31
0.0
  0
TEXT
  5
45
  8
HIBINO-BASE
 62
     7
 10
1400.2148562671971
 20
-1742.7280087137201
 30
0.0
 40
32.576822916666671
  1
'07.11.
 41
0.7
 11
1400.2148562671971
 21
-1710.1511857970529
 31
0.0
 73
     3
  0
TEXT
  5
46
  8
HIBINO-BASE
 62
     7
 10
1283.084056267197
 20
-1759.6798087137199
 30
0.0
 40
32.576822916666671
  1
20
 41
0.7
 11
1283.084056267197
 21
-1727.102985797053
 31
0.0
 73
     3
  0
TEXT
  5
47
  8
HIBINO-BASE
 62
     7
 10
1913.2002564878901
 20
-1742.7280087137201
 30
0.0
 40
32.576822916666671
  1
N.Sasaki
 41
0.7
 11
1913.2002564878901
 21
-1710.1511857970529
 31
0.0
 73
     3
  0
TEXT
  5
48
  8
HIBINO-BASE
 62
     7
 10
1010.750722933864
 20
-1760.480942047054
 30
0.0
 40
65.153645833333329
  1
A4
 41
0.7
 11
1010.750722933864
 21
-1695.327296213721
 31
0.0
 73
     3
  0
TEXT
  5
49
  8
HIBINO-BASE
 62
     7
 10
952.25072293386415
 20
-1652.3900420470529
 30
0.0
 40
32.576822916666671
  1
PAPER SIZE
 41
0.7
 11
952.25072293386415
 21
-1619.813219130386
 31
0.0
 73
     3
  0
TEXT
  5
4A
  8
SPEC
 62
     7
 10
-691.91594373280213
 20
3227.8644579529459
 30
0.0
 40
48.865234375000007
  1
仕様
 41
0.7
 11
-691.91594373280213
 21
3276.7296923279459
 31
0.0
 73
     3
  0
TEXT
  5
4B
  8
SPEC
 62
     7
 10
-48.915943732802241
 20
2540.757413508501
 30
0.0
 40
38.006293402777779
  1
HF    :13kHz,±15dB,シェルビング
 41
0.7
 11
-48.915943732802241
 21
2578.7637069112789
 31
0.0
 73
     3
  0
TEXT
  5
4C
  8
SPEC
 62
     7
 10
-698.91594373280248
 20
3140.7574135085019
 30
0.0
 40
38.006293402777779
  1
周波数特性
 41
0.7
 11
-698.91594373280248
 21
3178.7637069112802
 31
0.0
 73
     3
  0
TEXT
  5
4D
  8
SPEC
 62
     7
 10
-698.91594373280248
 20
2615.757413508501
 30
0.0
 40
38.006293402777779
  1
同相信号除去比
 41
0.7
 11
-698.91594373280248
 21
2653.7637069112789
 31
0.0
 73
     3
  0
TEXT
  5
4E
  8
SPEC
 62
     7
 10
-698.91594373280248
 20
2915.757413508501
 30
0.0
 40
38.006293402777779
  1
最大信号レベル
 41
0.7
 11
-698.91594373280248
 21
2953.7637069112802
 31
0.0
 73
     3
  0
TEXT
  5
4F
  8
SPEC
 62
     7
 10
-698.91594373280248
 20
2765.757413508501
 30
0.0
 40
38.006293402777779
  1
インピーダンス
 41
0.7
 11
-698.91594373280248
 21
2803.7637069112802
 31
0.0
 73
     3
  0
TEXT
  5
50
  8
SPEC
 62
     7
 10
-698.91594373280248
 20
3065.7574135085019
 30
0.0
 40
38.006293402777779
  1
マイク等価入力ノイズ
 41
0.7
 11
-698.91594373280248
 21
3103.7637069112802
 31
0.0
 73
     3
  0
TEXT
  5
51
  8
SPEC
 62
     7
 10
-698.91594373280248
 20
2990.7574135085019
 30
0.0
 40
38.006293402777779
  1
THD+N
 41
0.7
 11
-698.91594373280248
 21
3028.7637069112789
 31
0.0
 73
     3
  0
TEXT
  5
52
  8
SPEC
 62
     7
 10
-698.91594373280248
 20
2540.757413508501
 30
0.0
 40
38.006293402777779
  1
イコライザ(モノラル入力)
 41
0.7
 11
-698.91594373280248
 21
2578.7637069112789
 31
0.0
 73
     3
  0
TEXT
  5
53
  8
SPEC
 62
     7
 10
-698.91594373280248
 20
2265.757413508501
 30
0.0
 40
38.006293402777779
  1
ハイパスフィルタ 
 41
0.7
 11
-698.91594373280248
 21
2303.7637069112789
 31
0.0
 73
     3
  0
TEXT
  5
54
  8
SPEC
 62
     7
 10
-48.915943732802241
 20
2615.757413508501
 30
0.0
 40
38.006293402777779
  1
80dB(1kHz)
 41
0.7
 11
-48.915943732802241
 21
2653.7637069112789
 31
0.0
 73
     3
  0
TEXT
  5
55
  8
SPEC
 62
     7
 10
-48.915943732802241
 20
2915.757413508501
 30
0.0
 40
38.006293402777779
  1
マイク入力:+15dBu
 41
0.7
 11
-48.915943732802241
 21
2953.7637069112802
 31
0.0
 73
     3
  0
TEXT
  5
56
  8
SPEC
 62
     7
 10
-48.915943732802241
 20
2850.7546135085022
 30
0.0
 40
38.006293402777779
  1
ライン入力:+30dBu
 41
0.7
 11
-48.915943732802241
 21
2888.7609069112791
 31
0.0
 73
     3
  0
TEXT
  5
57
  8
SPEC
 62
     7
 10
-48.915943732802241
 20
3140.757457952946
 30
0.0
 40
38.006293402777779
  1
20Hz～20kHz(±1dB)
 41
0.7
 11
-48.915943732802241
 21
3178.7637513557238
 31
0.0
 73
     3
  0
TEXT
  5
58
  8
SPEC
 62
     7
 10
-48.915943732802241
 20
3065.757457952946
 30
0.0
 40
38.006293402777779
  1
-128dBu(22Hz～22kHz,150Ωソース)
 41
0.7
 11
-48.915943732802241
 21
3103.7637513557238
 31
0.0
 73
     3
  0
TEXT
  5
59
  8
SPEC
 62
     7
 10
-48.915943732802241
 20
2990.757457952946
 30
0.0
 40
38.006293402777779
  1
0.006%%%以下
 41
0.7
 11
-48.915943732802241
 21
3028.7637513557238
 31
0.0
 73
     3
  0
TEXT
  5
5A
  8
SPEC
 62
     7
 10
-48.915943732802241
 20
2765.757413508501
 30
0.0
 40
38.006293402777779
  1
マイク入力:2kΩ
 41
0.7
 11
-48.915943732802241
 21
2803.7637069112802
 31
0.0
 73
     3
  0
TEXT
  5
5B
  8
SPEC
 62
     7
 10
-48.915943732802241
 20
2700.7546135085022
 30
0.0
 40
38.006293402777779
  1
ライン入力:10kΩ
 41
0.7
 11
-48.915943732802241
 21
2738.7609069112791
 31
0.0
 73
     3
  0
TEXT
  5
5C
  8
SPEC
 62
     7
 10
-48.915943732802241
 20
2475.7546135085022
 30
0.0
 40
38.006293402777779
  1
HI MID:550Hz～13kHz,±15dB,Q=1.5
 41
0.7
 11
-48.915943732802241
 21
2513.7609069112791
 31
0.0
 73
     3
  0
TEXT
  5
5D
  8
SPEC
 62
     7
 10
-48.915943732802361
 20
2410.7546135085022
 30
0.0
 40
38.006293402777779
  1
LO MID:80Hz～1.9kHz,±15dB,Q=1.5
 41
0.7
 11
-48.915943732802361
 21
2448.7609069112791
 31
0.0
 73
     3
  0
TEXT
  5
5E
  8
SPEC
 62
     7
 10
-48.915943732802361
 20
2345.7546135085022
 30
0.0
 40
38.006293402777779
  1
LF    :80Hz,±15dB,シェルビング
 41
0.7
 11
-48.915943732802361
 21
2383.7609069112791
 31
0.0
 73
     3
  0
TEXT
  5
5F
  8
SPEC
 62
     7
 10
-48.915943732802241
 20
2265.757457952946
 30
0.0
 40
38.006293402777779
  1
100Hz,18dB/oct
 41
0.7
 11
-48.915943732802241
 21
2303.7637513557238
 31
0.0
 73
     3
  0
TEXT
  5
60
  8
SPEC
 62
     7
 10
-698.91594373280248
 20
2190.757413508501
 30
0.0
 40
38.006293402777779
  1
メータ 
 41
0.7
 11
-698.91594373280248
 21
2228.7637069112789
 31
0.0
 73
     3
  0
TEXT
  5
61
  8
SPEC
 62
     7
 10
-48.915943732802241
 20
2190.757457952946
 30
0.0
 40
38.006293402777779
  1
入力:4セグメント3色LED
 41
0.7
 11
-48.915943732802241
 21
2228.7637513557238
 31
0.0
 73
     3
  0
TEXT
  5
62
  8
SPEC
 62
     7
 10
-48.915943732802241
 20
2125.7546135085008
 30
0.0
 40
38.006293402777779
  1
出力:12セグメント3色LED
 41
0.7
 11
-48.915943732802241
 21
2163.7609069112791
 31
0.0
 73
     3
  0
TEXT
  5
63
  8
SPEC
 62
     7
 10
-698.91594373280248
 20
2040.757413508501
 30
0.0
 40
38.006293402777779
  1
電源
 41
0.7
 11
-698.91594373280248
 21
2078.7637069112789
 31
0.0
 73
     3
  0
TEXT
  5
64
  8
SPEC
 62
     7
 10
-48.915943732802241
 20
2040.757457952946
 30
0.0
 40
38.006293402777779
  1
AC100V,50/60Hz,150W
 41
0.7
 11
-48.915943732802241
 21
2078.7637513557238
 31
0.0
 73
     3
  0
LINE
  5
65
  8
SPEC
  6
CONTINUOUS
 62
     7
 10
-716.91594373280213
 20
3199.9990579529458
 30
0.0
 11
2233.084056267197
 21
3199.9990579529458
 31
0.0
  0
LINE
  5
66
  8
SPEC
  6
CONTINUOUS
 62
     7
 10
-716.91594373280213
 20
3124.9990579529458
 30
0.0
 11
2233.084056267197
 21
3124.9990579529458
 31
0.0
  0
LINE
  5
67
  8
SPEC
  6
CONTINUOUS
 62
     7
 10
-716.91594373280213
 20
2824.9990579529449
 30
0.0
 11
2233.084056267197
 21
2824.9990579529449
 31
0.0
  0
LINE
  5
68
  8
SPEC
  6
CONTINUOUS
 62
     7
 10
-716.91594373280213
 20
2974.9990579529449
 30
0.0
 11
2233.084056267197
 21
2974.9990579529449
 31
0.0
  0
LINE
  5
69
  8
SPEC
  6
CONTINUOUS
 62
     7
 10
-716.91594373280213
 20
2599.9990579529449
 30
0.0
 11
2233.084056267197
 21
2599.9990579529449
 31
0.0
  0
LINE
  5
6A
  8
SPEC
  6
CONTINUOUS
 62
     7
 10
-716.91594373280213
 20
2674.9990579529449
 30
0.0
 11
2233.084056267197
 21
2674.9990579529449
 31
0.0
  0
LINE
  5
6B
  8
SPEC
  6
CONTINUOUS
 62
     7
 10
-716.91594373280213
 20
3049.9990579529449
 30
0.0
 11
2233.084056267197
 21
3049.9990579529449
 31
0.0
  0
LINE
  5
6C
  8
SPEC
  6
CONTINUOUS
 62
     7
 10
-716.91594373280213
 20
2324.9990579529449
 30
0.0
 11
2233.084056267197
 21
2324.9990579529449
 31
0.0
  0
LINE
  5
6D
  8
SPEC
  6
CONTINUOUS
 62
     7
 10
-716.91594373280213
 20
2024.999057952946
 30
0.0
 11
2233.084056267197
 21
2024.999057952946
 31
0.0
  0
LINE
  5
6E
  8
SPEC
  6
CONTINUOUS
 62
     7
 10
-716.91594373280236
 20
3199.9990579529458
 30
0.0
 11
-716.91594373280236
 21
1749.999057952946
 31
0.0
  0
LINE
  5
6F
  8
SPEC
  6
CONTINUOUS
 62
     7
 10
-66.915943732802361
 20
3199.9990579529458
 30
0.0
 11
-66.915943732802361
 21
1749.999057952946
 31
0.0
  0
LINE
  5
70
  8
SPEC
  6
CONTINUOUS
 62
     7
 10
2233.084056267197
 20
3199.9990579529458
 30
0.0
 11
2233.084056267197
 21
1749.999057952946
 31
0.0
  0
LINE
  5
71
  8
SPEC
  6
CONTINUOUS
 62
     7
 10
-716.91594373280213
 20
2249.9990579529449
 30
0.0
 11
2233.084056267197
 21
2249.9990579529449
 31
0.0
  0
LINE
  5
72
  8
SPEC
  6
CONTINUOUS
 62
     7
 10
-716.91594373280213
 20
2099.9990579529449
 30
0.0
 11
2233.084056267197
 21
2099.9990579529449
 31
0.0
  0
TEXT
  5
73
  8
SPEC
 62
     7
 10
-698.91594373280248
 20
1965.757413508501
 30
0.0
 40
38.006293402777779
  1
寸法 / 質量
 41
0.7
 11
-698.91594373280248
 21
2003.7637069112791
 31
0.0
 73
     3
  0
TEXT
  5
74
  8
SPEC
 62
     7
 10
-48.915943732802241
 20
1965.757457952946
 30
0.0
 40
38.006293402777779
  1
12chフレーム: 730(W)×159(H)×656(D)mm / 約20kg
 41
0.7
 11
-48.915943732802241
 21
2003.763751355724
 31
0.0
 73
     3
  0
LINE
  5
75
  8
SPEC
  6
CONTINUOUS
 62
     7
 10
-716.91594373280213
 20
1749.999057952946
 30
0.0
 11
2233.084056267197
 21
1749.999057952946
 31
0.0
  0
TEXT
  5
76
  8
SPEC
 62
     7
 10
-48.915943732802241
 20
1900.755555555555
 30
0.0
 40
38.006293402777779
  1
16chフレーム: 842(W)×159(H)×656(D)mm / 約22kg
 41
0.7
 11
-48.915943732802241
 21
1938.7618489583331
 31
0.0
 73
     3
  0
TEXT
  5
77
  8
SPEC
 62
     7
 10
-48.915943732802241
 20
1835.755555555555
 30
0.0
 40
38.006293402777779
  1
24chフレーム:1065(W)×159(H)×656(D)mm / 約27kg
 41
0.7
 11
-48.915943732802241
 21
1873.7618489583331
 31
0.0
 73
     3
  0
TEXT
  5
78
  8
SPEC
 62
     7
 10
-48.915943732802241
 20
1770.755555555555
 30
0.0
 40
38.006293402777779
  1
32chフレーム:1300(W)×159(H)×656(D)mm / 約32.3kg
 41
0.7
 11
-48.915943732802241
 21
1808.7618489583331
 31
0.0
 73
     3
  0
TEXT
  5
79
  8
DIMNSIONS
 62
     7
 10
533.08405626719764
 20
-1554.611142047054
 30
0.0
 40
48.865234375000007
  1
(単位：mm)
 41
0.7
 11
533.08405626719764
 21
-1505.745907672054
 31
0.0
 73
     3
  0
LINE
  5
7A
  8
DIMNSIONS
  6
CONTINUOUS
 62
     7
 10
1814.54324656988
 20
611.32986221234205
 30
0.0
 11
1814.54324656988
 21
840.0017285691705
 31
0.0
  0
LINE
  5
7B
  8
DIMNSIONS
  6
CONTINUOUS
 62
     7
 10
1973.3916834257329
 20
692.93813824883375
 30
0.0
 11
1973.3916834257329
 21
840.0017285691705
 31
0.0
  0
LINE
  5
7C
  8
DIMNSIONS
  6
CONTINUOUS
 62
     7
 10
1814.54324656988
 20
800.00172856917038
 30
0.0
 11
1973.3916834257329
 21
800.00172856917038
 31
0.0
  0
LINE
  5
7D
  8
DIMNSIONS
  6
CONTINUOUS
 62
     7
 10
1814.54324656988
 20
800.00172856917038
 30
0.0
 11
1864.555697741755
 21
813.40252447217529
 31
0.0
  0
LINE
  5
7E
  8
DIMNSIONS
  6
CONTINUOUS
 62
     7
 10
1814.54324656988
 20
800.00172856917038
 30
0.0
 11
1864.555697741755
 21
786.60093266616582
 31
0.0
  0
LINE
  5
7F
  8
DIMNSIONS
  6
CONTINUOUS
 62
     7
 10
1973.3916834257329
 20
800.00172856917038
 30
0.0
 11
1923.3792322538591
 21
786.60093266616582
 31
0.0
  0
LINE
  5
80
  8
DIMNSIONS
  6
CONTINUOUS
 62
     7
 10
1973.3916834257329
 20
800.00172856917038
 30
0.0
 11
1923.3792322538591
 21
813.40252447217529
 31
0.0
  0
TEXT
  5
81
  8
DIMNSIONS
 62
     7
 10
1843.262907545103
 20
819.87950634694835
 30
0.0
 40
54.294704861111107
  1
159
 41
0.7
 11
1843.262907545103
 21
874.17421120805943
 31
0.0
 73
     3
  0
LINE
  5
82
  8
DIMNSIONS
  6
CONTINUOUS
 62
     7
 10
1973.3916834257329
 20
692.93813824883375
 30
0.0
 11
1973.3916834257329
 21
840.0017285691705
 31
0.0
  0
LINE
  5
83
  8
DIMNSIONS
  6
CONTINUOUS
 62
     7
 10
1983.1240562671969
 20
675.99542873332905
 30
0.0
 11
1983.1240562671969
 21
840.0017285691705
 31
0.0
  0
LINE
  5
84
  8
DIMNSIONS
  6
CONTINUOUS
 62
     7
 10
1983.1240562671969
 20
800.00172856917038
 30
0.0
 11
1973.3916834257329
 21
800.00172856917038
 31
0.0
  0
LINE
  5
85
  8
DIMNSIONS
  6
CONTINUOUS
 62
     7
 10
1973.3916834257329
 20
800.00172856917038
 30
0.0
 11
1873.3916834257329
 21
800.00172856917038
 31
0.0
  0
LINE
  5
86
  8
DIMNSIONS
  6
CONTINUOUS
 62
     7
 10
1973.3916834257329
 20
800.00172856917038
 30
0.0
 11
1923.3792322538591
 21
786.60093266616582
 31
0.0
  0
LINE
  5
87
  8
DIMNSIONS
  6
CONTINUOUS
 62
     7
 10
1973.3916834257329
 20
800.00172856917038
 30
0.0
 11
1923.3792322538591
 21
813.40252447217529
 31
0.0
  0
LINE
  5
88
  8
DIMNSIONS
  6
CONTINUOUS
 62
     7
 10
1983.1240562671969
 20
800.00172856917038
 30
0.0
 11
2139.2100333975768
 21
800.00172856917038
 31
0.0
  0
LINE
  5
89
  8
DIMNSIONS
  6
CONTINUOUS
 62
     7
 10
1983.1240562671969
 20
800.00172856917038
 30
0.0
 11
2033.1365074390731
 21
813.40252447217529
 31
0.0
  0
LINE
  5
8A
  8
DIMNSIONS
  6
CONTINUOUS
 62
     7
 10
1983.1240562671969
 20
800.00172856917038
 30
0.0
 11
2033.1365074390731
 21
786.60093266616582
 31
0.0
  0
TEXT
  5
8B
  8
DIMNSIONS
 62
     7
 10
2068.6544778420221
 20
819.87950634694835
 30
0.0
 40
54.294704861111107
  1
10
 41
0.7
 11
2068.6544778420221
 21
874.17421120805943
 31
0.0
 73
     3
  0
LINE
  5
8C
  8
DIMNSIONS
  6
CONTINUOUS
 62
     7
 10
1828.7686158687759
 20
470.1111002129872
 30
0.0
 11
1838.067821152599
 21
403.94381649424139
 31
0.0
  0
LINE
  5
8D
  8
DIMNSIONS
  6
CONTINUOUS
 62
     7
 10
1811.2634050543161
 20
467.65090327348139
 30
0.0
 11
1820.5626103381389
 21
401.48361955473558
 31
0.0
  0
LINE
  5
8E
  8
DIMNSIONS
  6
CONTINUOUS
 62
     7
 10
1814.995686299736
 20
441.09434230439831
 30
0.0
 11
1832.5008971141961
 21
443.55453924390412
 31
0.0
  0
LINE
  5
8F
  8
DIMNSIONS
  6
CONTINUOUS
 62
     7
 10
1832.5008971141961
 20
443.55453924390412
 30
0.0
 11
1931.5277039883531
 21
457.47184933991161
 31
0.0
  0
LINE
  5
90
  8
DIMNSIONS
  6
CONTINUOUS
 62
     7
 10
1832.5008971141961
 20
443.55453924390412
 30
0.0
 11
1880.1616002280471
 21
463.78530743857652
 31
0.0
  0
LINE
  5
91
  8
DIMNSIONS
  6
CONTINUOUS
 62
     7
 10
1832.5008971141961
 20
443.55453924390412
 30
0.0
 11
1883.8916608703551
 21
437.24454688163922
 31
0.0
  0
LINE
  5
92
  8
DIMNSIONS
  6
CONTINUOUS
 62
     7
 10
1814.995686299736
 20
441.09434230439831
 30
0.0
 11
1698.240097777363
 21
424.68541443729401
 31
0.0
  0
LINE
  5
93
  8
DIMNSIONS
  6
CONTINUOUS
 62
     7
 10
1814.995686299736
 20
441.09434230439831
 30
0.0
 11
1767.695317730891
 21
420.03486139188249
 31
0.0
  0
LINE
  5
94
  8
DIMNSIONS
  6
CONTINUOUS
 62
     7
 10
1814.995686299736
 20
441.09434230439831
 30
0.0
 11
1763.5026250544911
 21
446.5064811280684
 31
0.0
  0
TEXT
  5
95
  8
DIMNSIONS
 62
     7
 10
1662.9623199995849
 20
399.28541443729398
 30
0.0
 40
54.294704861111107
  1
18
 41
0.7
 11
1662.9623199995849
 21
453.58011929840512
 31
0.0
 73
     3
  0
LINE
  5
96
  8
DIMNSIONS
  6
CONTINUOUS
 62
     7
 10
1248.7524598179839
 20
641.26286591258145
 30
0.0
 11
1248.7524598179839
 21
840.0017285691705
 31
0.0
  0
TEXT
  5
97
  8
DIMNSIONS
 62
     7
 10
422.43111111111648
 20
919.87950634694835
 30
0.0
 40
54.294704861111107
  1
1065(24ch)
 41
0.7
 11
422.43111111111648
 21
974.17421120805943
 31
0.0
 73
     3
  0
TEXT
  5
98
  8
DIMNSIONS
 62
     7
 10
457.70888888889431
 20
1019.879506346948
 30
0.0
 40
54.294704861111107
  1
842(16ch)
 41
0.7
 11
457.70888888889431
 21
1074.174211208059
 31
0.0
 73
     3
  0
TEXT
  5
99
  8
DIMNSIONS
 62
     7
 10
457.70888888889431
 20
1119.8795063469479
 30
0.0
 40
54.294704861111107
  1
730(12ch)
 41
0.7
 11
457.70888888889431
 21
1174.174211208059
 31
0.0
 73
     3
  0
LINE
  5
9A
  8
DIMNSIONS
  6
CONTINUOUS
 62
     7
 10
-51.118596866775647
 20
641.26267241494463
 30
0.0
 11
-51.118596866775647
 21
840.0
 31
0.0
  0
LINE
  5
9B
  8
DIMNSIONS
  6
CONTINUOUS
 62
     7
 10
1248.7585968667861
 20
641.26267241494463
 30
0.0
 11
1248.7585968667861
 21
840.0
 31
0.0
  0
LINE
  5
9C
  8
DIMNSIONS
  6
CONTINUOUS
 62
     7
 10
-51.118596866775761
 20
800.0
 30
0.0
 11
1248.7585968667861
 21
800.0
 31
0.0
  0
LINE
  5
9D
  8
DIMNSIONS
  6
CONTINUOUS
 62
     7
 10
-51.118596866775761
 20
800.0
 30
0.0
 11
-1.10614569490076
 21
813.40079590300502
 31
0.0
  0
LINE
  5
9E
  8
DIMNSIONS
  6
CONTINUOUS
 62
     7
 10
-51.118596866775761
 20
800.0
 30
0.0
 11
-1.10614569490076
 21
786.59920409699521
 31
0.0
  0
LINE
  5
9F
  8
DIMNSIONS
  6
CONTINUOUS
 62
     7
 10
1248.7585968667861
 20
800.0
 30
0.0
 11
1198.746145694912
 21
786.59920409699521
 31
0.0
  0
LINE
  5
A0
  8
DIMNSIONS
  6
CONTINUOUS
 62
     7
 10
1248.7585968667861
 20
800.0
 30
0.0
 11
1198.746145694912
 21
813.40079590300502
 31
0.0
  0
TEXT
  5
A1
  8
DIMNSIONS
 62
     7
 10
422.43111111111648
 20
819.87777777777762
 30
0.0
 40
54.294704861111107
  1
1300(32ch)
 41
0.7
 11
422.43111111111648
 21
874.17248263888871
 31
0.0
 73
     3
  0
LINE
  5
A2
  8
DIMNSIONS
  6
CONTINUOUS
 62
     7
 10
-40.000000000000682
 20
-0.0009420470541954
 30
0.0
 11
-240.0
 21
-0.0009420470541954
 31
0.0
  0
LINE
  5
A3
  8
DIMNSIONS
  6
CONTINUOUS
 62
     7
 10
-40.000000000000448
 20
655.92999999999995
 30
0.0
 11
-240.0
 21
655.92999999999995
 31
0.0
  0
LINE
  5
A4
  8
DIMNSIONS
  6
CONTINUOUS
 62
     7
 10
-200.0
 20
-0.0009420470541954
 30
0.0
 11
-200.0
 21
655.92999999999995
 31
0.0
  0
LINE
  5
A5
  8
DIMNSIONS
  6
CONTINUOUS
 62
     7
 10
-200.0
 20
-0.0009420470541954
 30
0.0
 11
-213.40079590300479
 21
50.011509124820812
 31
0.0
  0
LINE
  5
A6
  8
DIMNSIONS
  6
CONTINUOUS
 62
     7
 10
-200.0
 20
-0.0009420470541954
 30
0.0
 11
-186.59920409699521
 21
50.011509124820812
 31
0.0
  0
LINE
  5
A7
  8
DIMNSIONS
  6
CONTINUOUS
 62
     7
 10
-200.0
 20
655.92999999999995
 30
0.0
 11
-186.59920409699521
 21
605.91754882812495
 31
0.0
  0
LINE
  5
A8
  8
DIMNSIONS
  6
CONTINUOUS
 62
     7
 10
-200.0
 20
655.92999999999995
 30
0.0
 11
-213.40079590300479
 21
605.91754882812495
 31
0.0
  0
TEXT
  5
A9
  8
DIMNSIONS
 62
     7
 10
-219.87777777777791
 20
275.04786230980619
 30
0.0
 40
54.294704861111107
  1
656
 50
90.0
 41
0.7
 11
-274.17248263888911
 21
275.04786230980619
 31
0.0
 73
     3
  0
TEXT
  5
AA
  8
DATA
 62
     7
 10
1933.084056267197
 20
-1554.9654270470539
 30
0.0
 40
48.865234375000007
  1
GB4
 41
0.7
 11
1933.084056267197
 21
-1506.1001926720539
 31
0.0
 73
     3
  0
TEXT
  5
AB
  8
DATA
 62
     7
 10
-666.91594373280213
 20
-1715.240942047054
 30
0.0
 40
32.576822916666671
  1
仕様および外観は予告なく変更されることがありますので、ご了承ください。
 41
0.7
 11
-666.91594373280213
 21
-1682.664119130387
 31
0.0
 73
     3
  0
TEXT
  5
AC
  8
DATA
 62
     7
 10
1933.084056267197
 20
-1432.383142047054
 30
0.0
 40
48.865234375000007
  1
Soundcraft
 41
0.7
 11
1933.084056267197
 21
-1383.517907672054
 31
0.0
 73
     3
  0
LINE
  5
AD
  8
DATA
  6
CONTINUOUS
 62
     7
 10
1197.640000000011
 20
654.58278338929415
 30
0.0
 11
-0.0000000000004547
 21
654.58278338929415
 31
0.0
  0
LINE
  5
AE
  8
DATA
  6
CONTINUOUS
 62
     7
 10
-0.0000000000004547
 20
573.73855233941651
 30
0.0
 11
1197.640000000011
 21
573.73855233941651
 31
0.0
  0
LINE
  5
AF
  8
DATA
  6
CONTINUOUS
 62
     7
 10
-0.0000000000004547
 20
28.65841834873072
 30
0.0
 11
1197.640000000011
 21
28.65841834873072
 31
0.0
  0
LINE
  5
B0
  8
DATA
  6
CONTINUOUS
 62
     7
 10
780.51999999993961
 20
513.85905017535106
 30
0.0
 11
780.51999999993961
 21
79.99905795294579
 31
0.0
  0
LINE
  5
B1
  8
DATA
  6
CONTINUOUS
 62
     7
 10
800.83999999993955
 20
513.85905017535106
 30
0.0
 11
800.83999999993955
 21
79.99905795294579
 31
0.0
  0
LINE
  5
B2
  8
DATA
  6
CONTINUOUS
 62
     7
 10
821.1599999999396
 20
513.85905017535106
 30
0.0
 11
821.1599999999396
 21
79.99905795294579
 31
0.0
  0
LINE
  5
B3
  8
DATA
  6
CONTINUOUS
 62
     7
 10
841.47999999993954
 20
513.85905017535106
 30
0.0
 11
841.47999999993954
 21
79.99905795294579
 31
0.0
  0
LINE
  5
B4
  8
DATA
  6
CONTINUOUS
 62
     7
 10
861.79999999993959
 20
513.85905017535106
 30
0.0
 11
861.79999999993959
 21
79.99905795294579
 31
0.0
  0
LINE
  5
B5
  8
DATA
  6
CONTINUOUS
 62
     7
 10
884.6599999999396
 20
513.85905017535106
 30
0.0
 11
884.6599999999396
 21
79.99905795294579
 31
0.0
  0
LINE
  5
B6
  8
DATA
  6
CONTINUOUS
 62
     7
 10
864.33999999993955
 20
513.85905017535106
 30
0.0
 11
864.33999999993955
 21
79.99905795294579
 31
0.0
  0
LINE
  5
B7
  8
DATA
  6
CONTINUOUS
 62
     7
 10
904.97999999993954
 20
518.60040940951274
 30
0.0
 11
904.97999999993954
 21
518.46340271799488
 31
0.0
  0
LINE
  5
B8
  8
DATA
  6
CONTINUOUS
 62
     7
 10
904.97999999993954
 20
513.85905017535106
 30
0.0
 11
904.97999999993954
 21
79.99905795294579
 31
0.0
  0
LINE
  5
B9
  8
DATA
  6
CONTINUOUS
 62
     7
 10
925.29999999993959
 20
513.85905017535106
 30
0.0
 11
925.29999999993959
 21
79.99905795294579
 31
0.0
  0
LINE
  5
BA
  8
DATA
  6
CONTINUOUS
 62
     7
 10
938.58999999993955
 20
550.85905017535106
 30
0.0
 11
1162.109999999939
 21
550.85905017535106
 31
0.0
  0
LINE
  5
BB
  8
DATA
  6
CONTINUOUS
 62
     7
 10
780.51999999993961
 20
513.85905017535106
 30
0.0
 11
861.79999999993959
 21
513.85905017535106
 31
0.0
  0
LINE
  5
BC
  8
DATA
  6
CONTINUOUS
 62
     7
 10
864.33999999993955
 20
513.85905017535106
 30
0.0
 11
925.29999999993959
 21
513.85905017535106
 31
0.0
  0
LINE
  5
BD
  8
DATA
  6
CONTINUOUS
 62
     7
 10
966.52999999993961
 20
550.85905017535106
 30
0.0
 11
966.52999999993961
 21
79.99905795294579
 31
0.0
  0
LINE
  5
BE
  8
DATA
  6
CONTINUOUS
 62
     7
 10
938.58999999993955
 20
550.85905017535106
 30
0.0
 11
938.58999999993955
 21
79.99905795294579
 31
0.0
  0
LINE
  5
BF
  8
DATA
  6
CONTINUOUS
 62
     7
 10
994.46999999993955
 20
550.85905017535106
 30
0.0
 11
994.46999999993955
 21
79.99905795294579
 31
0.0
  0
LINE
  5
C0
  8
DATA
  6
CONTINUOUS
 62
     7
 10
1022.409999999939
 20
550.85905017535106
 30
0.0
 11
1022.409999999939
 21
79.99905795294579
 31
0.0
  0
LINE
  5
C1
  8
DATA
  6
CONTINUOUS
 62
     7
 10
1050.349999999939
 20
550.85905017535106
 30
0.0
 11
1050.349999999939
 21
79.99905795294579
 31
0.0
  0
LINE
  5
C2
  8
DATA
  6
CONTINUOUS
 62
     7
 10
1078.289999999939
 20
550.85905017535106
 30
0.0
 11
1078.289999999939
 21
79.99905795294579
 31
0.0
  0
LINE
  5
C3
  8
DATA
  6
CONTINUOUS
 62
     7
 10
1106.22999999994
 20
550.85905017535106
 30
0.0
 11
1106.22999999994
 21
79.99905795294579
 31
0.0
  0
LINE
  5
C4
  8
DATA
  6
CONTINUOUS
 62
     7
 10
1134.16999999994
 20
550.85905017535106
 30
0.0
 11
1134.16999999994
 21
79.99905795294579
 31
0.0
  0
LINE
  5
C5
  8
DATA
  6
CONTINUOUS
 62
     7
 10
1162.109999999939
 20
550.85905017535106
 30
0.0
 11
1162.109999999939
 21
79.99905795294579
 31
0.0
  0
LINE
  5
C6
  8
DATA
  6
CONTINUOUS
 62
     7
 10
780.51999999993961
 20
79.99905795294579
 30
0.0
 11
861.79999999993959
 21
79.99905795294579
 31
0.0
  0
LINE
  5
C7
  8
DATA
  6
CONTINUOUS
 62
     7
 10
864.33999999993955
 20
79.99905795294579
 30
0.0
 11
925.29999999993959
 21
79.99905795294579
 31
0.0
  0
LINE
  5
C8
  8
DATA
  6
CONTINUOUS
 62
     7
 10
938.58999999993955
 20
79.99905795294579
 30
0.0
 11
1162.109999999939
 21
79.99905795294579
 31
0.0
  0
LINE
  5
C9
  8
DATA
  6
CONTINUOUS
 62
     7
 10
1170.839999999941
 20
97.779129546898744
 30
0.0
 11
1170.8399999999399
 21
126.4969035404056
 31
0.0
  0
LINE
  5
CA
  8
DATA
  6
CONTINUOUS
 62
     7
 10
1188.8399999999399
 20
126.49690354040651
 30
0.0
 11
1188.839999999941
 21
97.779129546898744
 31
0.0
  0
CIRCLE
  5
CB
  8
DATA
  6
CONTINUOUS
 62
     7
 10
910.7399999999401
 20
528.89233327357715
 30
0.0
 40
11.883216824900041
  0
CIRCLE
  5
CC
  8
DATA
  6
CONTINUOUS
 62
     7
 10
901.23992157113651
 20
540.85905017535242
 30
0.0
 40
2.5
  0
CIRCLE
  5
CD
  8
DATA
  6
CONTINUOUS
 62
     7
 10
920.23999999994021
 20
517.00911644867688
 30
0.0
 40
2.499999999999984
  0
CIRCLE
  5
CE
  8
DATA
  6
CONTINUOUS
 62
     7
 10
1179.840000000072
 20
528.89233327357715
 30
0.0
 40
11.883216824900041
  0
CIRCLE
  5
CF
  8
DATA
  6
CONTINUOUS
 62
     7
 10
1170.340000000072
 20
540.77555009847629
 30
0.0
 40
2.5
  0
CIRCLE
  5
D0
  8
DATA
  6
CONTINUOUS
 62
     7
 10
1189.340000000072
 20
517.00911644867688
 30
0.0
 40
2.499999999999964
  0
ARC
  5
D1
  8
DATA
  6
CONTINUOUS
 62
     7
 10
1179.8399999901339
 20
126.40888577340949
 30
0.0
 40
9.0004303856709544
 50
0.5603142615456975
 51
179.43967297221761
  0
ARC
  5
D2
  8
DATA
  6
CONTINUOUS
 62
     7
 10
1179.8399999901339
 20
126.40888577340949
 30
0.0
 40
9.0004303856709544
 50
0.5603142615456975
 51
179.43967297221761
  0
ARC
  5
D3
  8
DATA
  6
CONTINUOUS
 62
     7
 10
1179.8399999901339
 20
97.867147313894762
 30
0.0
 40
9.0004303856708372
 50
180.56032702778231
 51
359.43968573845427
  0
LINE
  5
D4
  8
DATA
  6
CONTINUOUS
 62
     7
 10
-0.0000000000006821
 20
-0.0009420470541954
 30
0.0
 11
1197.640000000011
 21
-0.0009420470541954
 31
0.0
  0
LINE
  5
D5
  8
DATA
  6
CONTINUOUS
 62
     7
 10
1206.2680314749259
 20
0.451233922130541
 30
0.0
 11
1197.640000000011
 21
-0.0009420470541954
 31
0.0
  0
LINE
  5
D6
  8
DATA
  6
CONTINUOUS
 62
     7
 10
1217.6400000000131
 20
570.00815151914105
 30
0.0
 11
1217.6400000000119
 21
12.43478833918561
 31
0.0
  0
LINE
  5
D7
  8
DATA
  6
CONTINUOUS
 62
     7
 10
1217.6400000000131
 20
570.00815151914105
 30
0.0
 11
1217.6400000000131
 21
642.95424666893325
 31
0.0
  0
ARC
  5
D8
  8
DATA
  6
CONTINUOUS
 62
     7
 10
1205.640000000011
 20
12.43478833918561
 30
0.0
 40
12.00000000000025
 50
273.00000000000551
 51
0.0
  0
ARC
  5
D9
  8
DATA
  6
CONTINUOUS
 62
     7
 10
1218.6400000000119
 20
98.692265146147733
 30
0.0
 40
1.0000000000000011
 50
104.9999999999944
 51
180.0
  0
ARC
  5
DA
  8
DATA
  6
CONTINUOUS
 62
     7
 10
1218.6400000000151
 20
631.21486378536929
 30
0.0
 40
1.000000000002728
 50
180.0000000000521
 51
252.19871270798001
  0
LINE
  5
DB
  8
DATA
  6
CONTINUOUS
 62
     7
 10
1233.848930969531
 20
121.4655014371906
 30
0.0
 11
1242.8158493599681
 21
503.96195166620021
 31
0.0
  0
POLYLINE
  5
DC
  8
DATA
  6
CONTINUOUS
 62
     7
 66
     1
 10
0.0
 20
0.0
 30
0.0
 70
   128
  0
VERTEX
  5
8BB
  8
DATA
  6
CONTINUOUS
 62
     7
 10
1242.8158480072159
 20
503.96196290610942
 30
0.0
  0
VERTEX
  5
8BC
  8
DATA
  6
CONTINUOUS
 62
     7
 10
1242.829309120192
 20
504.3699066316945
 30
0.0
  0
VERTEX
  5
8BD
  8
DATA
  6
CONTINUOUS
 62
     7
 10
1242.850304260267
 20
504.7731582796448
 30
0.0
  0
VERTEX
  5
8BE
  8
DATA
  6
CONTINUOUS
 62
     7
 10
1242.8784042740001
 20
505.16309663413602
 30
0.0
  0
VERTEX
  5
8BF
  8
DATA
  6
CONTINUOUS
 62
     7
 10
1242.9134041214129
 20
505.53609773276872
 30
0.0
  0
VERTEX
  5
8C0
  8
DATA
  6
CONTINUOUS
 62
     7
 10
1242.9542547607559
 20
505.88422700522972
 30
0.0
  0
VERTEX
  5
8C1
  8
DATA
  6
CONTINUOUS
 62
     7
 10
1242.9997211837899
 20
506.19844361899919
 30
0.0
  0
VERTEX
  5
8C2
  8
DATA
  6
CONTINUOUS
 62
     7
 10
1243.048067703261
 20
506.47157594321789
 30
0.0
  0
VERTEX
  5
8C3
  8
DATA
  6
CONTINUOUS
 62
     7
 10
1243.096047058119
 20
506.69271394370622
 30
0.0
  0
SEQEND
  5
8C4
  8
DATA
  6
CONTINUOUS
 62
     7
  0
POLYLINE
  5
E7
  8
DATA
  6
CONTINUOUS
 62
     7
 66
     1
 10
0.0
 20
0.0
 30
0.0
 70
   128
  0
VERTEX
  5
8C5
  8
DATA
  6
CONTINUOUS
 62
     7
 10
1243.096047058119
 20
506.69271394370622
 30
0.0
  0
VERTEX
  5
8C6
  8
DATA
  6
CONTINUOUS
 62
     7
 10
1243.3201986694471
 20
507.59878083823651
 30
0.0
  0
VERTEX
  5
8C7
  8
DATA
  6
CONTINUOUS
 62
     7
 10
1243.547073020949
 20
508.47692414878247
 30
0.0
  0
VERTEX
  5
8C8
  8
DATA
  6
CONTINUOUS
 62
     7
 10
1243.7763887787
 20
509.32645722983722
 30
0.0
  0
VERTEX
  5
8C9
  8
DATA
  6
CONTINUOUS
 62
     7
 10
1244.007855072035
 20
510.14650270102771
 30
0.0
  0
VERTEX
  5
8CA
  8
DATA
  6
CONTINUOUS
 62
     7
 10
1244.241181030287
 20
510.93637391684712
 30
0.0
  0
VERTEX
  5
8CB
  8
DATA
  6
CONTINUOUS
 62
     7
 10
1244.476080551161
 20
511.6952316438971
 30
0.0
  0
VERTEX
  5
8CC
  8
DATA
  6
CONTINUOUS
 62
     7
 10
1244.712262763991
 20
512.4223510896968
 30
0.0
  0
VERTEX
  5
8CD
  8
DATA
  6
CONTINUOUS
 62
     7
 10
1244.949441566481
 20
513.1168548738766
 30
0.0
  0
SEQEND
  5
8CE
  8
DATA
  6
CONTINUOUS
 62
     7
  0
LINE
  5
F2
  8
DATA
  6
CONTINUOUS
 62
     7
 10
1247.0521983888741
 20
529.74600237351126
 30
0.0
 11
1248.7585968667861
 21
601.26267241494463
 31
0.0
  0
LINE
  5
F3
  8
DATA
  6
CONTINUOUS
 62
     7
 10
1229.1245680230711
 20
102.5368728613257
 30
0.0
 11
1218.381180954909
 21
99.658190972437765
 31
0.0
  0
LINE
  5
F4
  8
DATA
  6
CONTINUOUS
 62
     7
 10
1229.9261427447941
 20
121.9015777199247
 30
0.0
 11
1238.892866151484
 21
504.38971064445252
 31
0.0
  0
LINE
  5
F5
  8
DATA
  6
CONTINUOUS
 62
     7
 10
1243.1604493111711
 20
530.23058383379566
 30
0.0
 11
1244.8160808598921
 21
600.84787107031991
 31
0.0
  0
POLYLINE
  5
F6
  8
DATA
  6
CONTINUOUS
 62
     7
 66
     1
 10
0.0
 20
0.0
 30
0.0
 70
   128
  0
VERTEX
  5
8CF
  8
DATA
  6
CONTINUOUS
 62
     7
 10
1206.2680314749271
 20
655.46323390864802
 30
0.0
  0
VERTEX
  5
8D0
  8
DATA
  6
CONTINUOUS
 62
     7
 10
1206.268113493687
 20
655.46327854511753
 30
0.0
  0
VERTEX
  5
8D1
  8
DATA
  6
CONTINUOUS
 62
     7
 10
1206.268195471381
 20
655.46332241094979
 30
0.0
  0
VERTEX
  5
8D2
  8
DATA
  6
CONTINUOUS
 62
     7
 10
1206.268277408012
 20
655.4633655061449
 30
0.0
  0
VERTEX
  5
8D3
  8
DATA
  6
CONTINUOUS
 62
     7
 10
1206.268359303577
 20
655.46340783070275
 30
0.0
  0
VERTEX
  5
8D4
  8
DATA
  6
CONTINUOUS
 62
     7
 10
1206.2684411580781
 20
655.46344938462357
 30
0.0
  0
VERTEX
  5
8D5
  8
DATA
  6
CONTINUOUS
 62
     7
 10
1206.2685229715139
 20
655.46349016790725
 30
0.0
  0
VERTEX
  5
8D6
  8
DATA
  6
CONTINUOUS
 62
     7
 10
1206.268604743886
 20
655.46353018055345
 30
0.0
  0
VERTEX
  5
8D7
  8
DATA
  6
CONTINUOUS
 62
     7
 10
1206.2686864751929
 20
655.46356942256273
 30
0.0
  0
VERTEX
  5
8D8
  8
DATA
  6
CONTINUOUS
 62
     7
 10
1206.2687681654361
 20
655.46360789393475
 30
0.0
  0
VERTEX
  5
8D9
  8
DATA
  6
CONTINUOUS
 62
     7
 10
1206.2688498146149
 20
655.46364559466963
 30
0.0
  0
VERTEX
  5
8DA
  8
DATA
  6
CONTINUOUS
 62
     7
 10
1206.268931422728
 20
655.46368252476736
 30
0.0
  0
VERTEX
  5
8DB
  8
DATA
  6
CONTINUOUS
 62
     7
 10
1206.2690129897769
 20
655.46371868422796
 30
0.0
  0
VERTEX
  5
8DC
  8
DATA
  6
CONTINUOUS
 62
     7
 10
1206.269094515761
 20
655.46375407305106
 30
0.0
  0
VERTEX
  5
8DD
  8
DATA
  6
CONTINUOUS
 62
     7
 10
1206.269176000681
 20
655.46378869123737
 30
0.0
  0
VERTEX
  5
8DE
  8
DATA
  6
CONTINUOUS
 62
     7
 10
1206.2692574445371
 20
655.46382253878642
 30
0.0
  0
VERTEX
  5
8DF
  8
DATA
  6
CONTINUOUS
 62
     7
 10
1206.2693388473281
 20
655.46385561569821
 30
0.0
  0
VERTEX
  5
8E0
  8
DATA
  6
CONTINUOUS
 62
     7
 10
1206.269420209054
 20
655.46388792197286
 30
0.0
  0
VERTEX
  5
8E1
  8
DATA
  6
CONTINUOUS
 62
     7
 10
1206.2695015297149
 20
655.46391945761025
 30
0.0
  0
VERTEX
  5
8E2
  8
DATA
  6
CONTINUOUS
 62
     7
 10
1206.2695828093119
 20
655.46395022261049
 30
0.0
  0
VERTEX
  5
8E3
  8
DATA
  6
CONTINUOUS
 62
     7
 10
1206.269664047845
 20
655.46398021697371
 30
0.0
  0
VERTEX
  5
8E4
  8
DATA
  6
CONTINUOUS
 62
     7
 10
1206.2697452453119
 20
655.46400944069967
 30
0.0
  0
VERTEX
  5
8E5
  8
DATA
  6
CONTINUOUS
 62
     7
 10
1206.2698264017149
 20
655.46403789378837
 30
0.0
  0
VERTEX
  5
8E6
  8
DATA
  6
CONTINUOUS
 62
     7
 10
1206.2699075170549
 20
655.46406557624005
 30
0.0
  0
VERTEX
  5
8E7
  8
DATA
  6
CONTINUOUS
 62
     7
 10
1206.2699885913289
 20
655.46409248805435
 30
0.0
  0
VERTEX
  5
8E8
  8
DATA
  6
CONTINUOUS
 62
     7
 10
1206.2700696245381
 20
655.46411862923151
 30
0.0
  0
VERTEX
  5
8E9
  8
DATA
  6
CONTINUOUS
 62
     7
 10
1206.2701506166829
 20
655.46414399977175
 30
0.0
  0
VERTEX
  5
8EA
  8
DATA
  6
CONTINUOUS
 62
     7
 10
1206.2702315677641
 20
655.46416859967474
 30
0.0
  0
VERTEX
  5
8EB
  8
DATA
  6
CONTINUOUS
 62
     7
 10
1206.27031247778
 20
655.46419242894046
 30
0.0
  0
VERTEX
  5
8EC
  8
DATA
  6
CONTINUOUS
 62
     7
 10
1206.270393346731
 20
655.46421548756894
 30
0.0
  0
VERTEX
  5
8ED
  8
DATA
  6
CONTINUOUS
 62
     7
 10
1206.2704741746179
 20
655.46423777556026
 30
0.0
  0
VERTEX
  5
8EE
  8
DATA
  6
CONTINUOUS
 62
     7
 10
1206.27055496144
 20
655.46425929291445
 30
0.0
  0
VERTEX
  5
8EF
  8
DATA
  6
CONTINUOUS
 62
     7
 10
1206.270635707197
 20
655.46428003963149
 30
0.0
  0
VERTEX
  5
8F0
  8
DATA
  6
CONTINUOUS
 62
     7
 10
1206.2707164118899
 20
655.46430001571127
 30
0.0
  0
VERTEX
  5
8F1
  8
DATA
  6
CONTINUOUS
 62
     7
 10
1206.2707970755191
 20
655.46431922115414
 30
0.0
  0
VERTEX
  5
8F2
  8
DATA
  6
CONTINUOUS
 62
     7
 10
1206.270877698083
 20
655.46433765595964
 30
0.0
  0
VERTEX
  5
8F3
  8
DATA
  6
CONTINUOUS
 62
     7
 10
1206.2709582795819
 20
655.46435532012788
 30
0.0
  0
VERTEX
  5
8F4
  8
DATA
  6
CONTINUOUS
 62
     7
 10
1206.2710388200171
 20
655.46437221365898
 30
0.0
  0
VERTEX
  5
8F5
  8
DATA
  6
CONTINUOUS
 62
     7
 10
1206.271119319387
 20
655.46438833655293
 30
0.0
  0
VERTEX
  5
8F6
  8
DATA
  6
CONTINUOUS
 62
     7
 10
1206.271199777693
 20
655.46440368880985
 30
0.0
  0
VERTEX
  5
8F7
  8
DATA
  6
CONTINUOUS
 62
     7
 10
1206.271280194934
 20
655.46441827042941
 30
0.0
  0
VERTEX
  5
8F8
  8
DATA
  6
CONTINUOUS
 62
     7
 10
1206.271360571111
 20
655.46443208141193
 30
0.0
  0
VERTEX
  5
8F9
  8
DATA
  6
CONTINUOUS
 62
     7
 10
1206.2714409062221
 20
655.46444512175731
 30
0.0
  0
VERTEX
  5
8FA
  8
DATA
  6
CONTINUOUS
 62
     7
 10
1206.2715212002699
 20
655.4644573914652
 30
0.0
  0
VERTEX
  5
8FB
  8
DATA
  6
CONTINUOUS
 62
     7
 10
1206.2716014532521
 20
655.46446889053595
 30
0.0
  0
VERTEX
  5
8FC
  8
DATA
  6
CONTINUOUS
 62
     7
 10
1206.2716816651709
 20
655.46447961896979
 30
0.0
  0
VERTEX
  5
8FD
  8
DATA
  6
CONTINUOUS
 62
     7
 10
1206.2717618360241
 20
655.46448957676648
 30
0.0
  0
VERTEX
  5
8FE
  8
DATA
  6
CONTINUOUS
 62
     7
 10
1206.2718419658131
 20
655.4644987639258
 30
0.0
  0
VERTEX
  5
8FF
  8
DATA
  6
CONTINUOUS
 62
     7
 10
1206.271922054538
 20
655.46450718044809
 30
0.0
  0
VERTEX
  5
900
  8
DATA
  6
CONTINUOUS
 62
     7
 10
1206.272002102198
 20
655.46451482633313
 30
0.0
  0
VERTEX
  5
901
  8
DATA
  6
CONTINUOUS
 62
     7
 10
1206.272082108793
 20
655.46452170158091
 30
0.0
  0
VERTEX
  5
902
  8
DATA
  6
CONTINUOUS
 62
     7
 10
1206.2721620743239
 20
655.46452780619177
 30
0.0
  0
VERTEX
  5
903
  8
DATA
  6
CONTINUOUS
 62
     7
 10
1206.2722419987899
 20
655.46453314016514
 30
0.0
  0
VERTEX
  5
904
  8
DATA
  6
CONTINUOUS
 62
     7
 10
1206.272321882192
 20
655.46453770350161
 30
0.0
  0
VERTEX
  5
905
  8
DATA
  6
CONTINUOUS
 62
     7
 10
1206.2724017245289
 20
655.46454149620058
 30
0.0
  0
VERTEX
  5
906
  8
DATA
  6
CONTINUOUS
 62
     7
 10
1206.2724815258009
 20
655.46454451826276
 30
0.0
  0
VERTEX
  5
907
  8
DATA
  6
CONTINUOUS
 62
     7
 10
1206.272561286009
 20
655.46454676968756
 30
0.0
  0
VERTEX
  5
908
  8
DATA
  6
CONTINUOUS
 62
     7
 10
1206.272641005153
 20
655.46454825047522
 30
0.0
  0
VERTEX
  5
909
  8
DATA
  6
CONTINUOUS
 62
     7
 10
1206.2727206832319
 20
655.46454896062562
 30
0.0
  0
VERTEX
  5
90A
  8
DATA
  6
CONTINUOUS
 62
     7
 10
1206.272800320246
 20
655.46454890013899
 30
0.0
  0
VERTEX
  5
90B
  8
DATA
  6
CONTINUOUS
 62
     7
 10
1206.2728799161951
 20
655.46454806901511
 30
0.0
  0
VERTEX
  5
90C
  8
DATA
  6
CONTINUOUS
 62
     7
 10
1206.2729594710811
 20
655.46454646725408
 30
0.0
  0
VERTEX
  5
90D
  8
DATA
  6
CONTINUOUS
 62
     7
 10
1206.2730389849009
 20
655.46454409485557
 30
0.0
  0
VERTEX
  5
90E
  8
DATA
  6
CONTINUOUS
 62
     7
 10
1206.2731184576569
 20
655.46454095182037
 30
0.0
  0
VERTEX
  5
90F
  8
DATA
  6
CONTINUOUS
 62
     7
 10
1206.2731978893489
 20
655.46453703814768
 30
0.0
  0
VERTEX
  5
910
  8
DATA
  6
CONTINUOUS
 62
     7
 10
1206.2731978893489
 20
655.46453703814768
 30
0.0
  0
SEQEND
  5
911
  8
DATA
  6
CONTINUOUS
 62
     7
  0
LINE
  5
13A
  8
DATA
  6
CONTINUOUS
 62
     7
 10
1229.2028335990151
 20
120.0496626269737
 30
0.0
 11
1229.202833599016
 21
558.81886995379284
 31
0.0
  0
LINE
  5
13B
  8
DATA
  6
CONTINUOUS
 62
     7
 10
1241.5610294393689
 20
504.64141352792331
 30
0.0
 11
1232.5864105096671
 21
121.4929864674004
 31
0.0
  0
LINE
  5
13C
  8
DATA
  6
CONTINUOUS
 62
     7
 10
1247.4819459391711
 20
600.68740257224238
 30
0.0
 11
1245.826461842596
 21
530.07041212143179
 31
0.0
  0
LINE
  5
13D
  8
DATA
  6
CONTINUOUS
 62
     7
 10
1226.4092747638631
 20
118.7702385188277
 30
0.0
 11
1226.429519883005
 21
557.69240629846718
 31
0.0
  0
ARC
  5
13E
  8
DATA
  6
CONTINUOUS
 62
     7
 10
1243.595838230503
 20
618.20731889941726
 30
0.0
 40
3.5521229989546219
 50
30.181501492611751
 51
66.919564430480179
  0
ARC
  5
13F
  8
DATA
  6
CONTINUOUS
 62
     7
 10
1243.1823998921991
 20
617.67073241466733
 30
0.0
 40
4.187111240240565
 50
17.235327945609399
 51
33.68665511644322
  0
ARC
  5
140
  8
DATA
  6
CONTINUOUS
 62
     7
 10
1225.9648892310149
 20
611.85715593797079
 30
0.0
 40
22.358579135894111
 50
7.1059458786092664
 51
18.391198893447811
  0
ARC
  5
141
  8
DATA
  6
CONTINUOUS
 62
     7
 10
1161.247161808072
 20
604.02185788471741
 30
0.0
 40
87.548781924741377
 50
358.19409511996832
 51
6.9549292880903968
  0
ARC
  5
142
  8
DATA
  6
CONTINUOUS
 62
     7
 10
1244.844176086777
 20
620.49736671794199
 30
0.0
 40
0.9883197169207511
 50
81.611758267411503
 51
137.41902470880871
  0
ARC
  5
143
  8
DATA
  6
CONTINUOUS
 62
     7
 10
1281.4484142676961
 20
591.68389303531251
 30
0.0
 40
47.569690291580713
 50
141.70075916133979
 51
162.5001046194659
  0
ARC
  5
144
  8
DATA
  6
CONTINUOUS
 62
     7
 10
1433.977112735294
 20
537.37768044396375
 30
0.0
 40
209.45294822019289
 50
160.878617791229
 51
168.53985077467311
  0
ARC
  5
145
  8
DATA
  6
CONTINUOUS
 62
     7
 10
1499.636605765927
 20
522.50500916402848
 30
0.0
 40
276.76262499982732
 50
168.2230001183012
 51
169.43013891239519
  0
ARC
  5
146
  8
DATA
  6
CONTINUOUS
 62
     7
 10
1333.2835661611471
 20
557.70197304175917
 30
0.0
 40
106.8540467064017
 50
171.621015872383
 51
180.0051297450301
  0
ARC
  5
147
  8
DATA
  6
CONTINUOUS
 62
     7
 10
1323.723081659896
 20
118.56549213410629
 30
0.0
 40
97.311862160190501
 50
179.8777566782241
 51
184.88846825140351
  0
ARC
  5
148
  8
DATA
  6
CONTINUOUS
 62
     7
 10
1255.1152654166131
 20
112.1580280884736
 30
0.0
 40
28.41267544646853
 50
183.8042092061437
 51
196.75652560671949
  0
ARC
  5
149
  8
DATA
  6
CONTINUOUS
 62
     7
 10
1231.6598397353589
 20
105.2060924853685
 30
0.0
 40
3.9503326363897839
 50
198.2880150148053
 51
218.85239661694439
  0
ARC
  5
14A
  8
DATA
  6
CONTINUOUS
 62
     7
 10
1229.0251847772211
 20
103.11726168735819
 30
0.0
 40
0.5887758420987457
 50
221.38866271563811
 51
279.71832717272162
  0
ARC
  5
14B
  8
DATA
  6
CONTINUOUS
 62
     7
 10
1152.626954969428
 20
122.95085679837121
 30
0.0
 40
81.235555713816808
 50
350.61260067469732
 51
358.95231394407278
  0
ARC
  5
14C
  8
DATA
  6
CONTINUOUS
 62
     7
 10
1211.36554019914
 20
113.08872053759291
 30
0.0
 40
21.67550520613479
 50
337.00825675312109
 51
351.00718049969458
  0
ARC
  5
14D
  8
DATA
  6
CONTINUOUS
 62
     7
 10
1227.6357481506709
 20
106.21376769875771
 30
0.0
 40
4.0125239827799204
 50
299.49080988096603
 51
336.63265477046531
  0
ARC
  5
14E
  8
DATA
  6
CONTINUOUS
 62
     7
 10
1228.4368832758789
 20
105.0868882003298
 30
0.0
 40
2.6411150184488559
 50
285.09241388249279
 51
296.39596468326528
  0
ARC
  5
14F
  8
DATA
  6
CONTINUOUS
 62
     7
 10
1190.3014125644411
 20
122.16517598297671
 30
0.0
 40
42.290340386105157
 50
350.1795984711174
 51
359.08926615901612
  0
ARC
  5
150
  8
DATA
  6
CONTINUOUS
 62
     7
 10
1222.502997714809
 20
116.4125872518221
 30
0.0
 40
9.5810504037535615
 50
335.38320298250881
 51
351.23205738938202
  0
ARC
  5
151
  8
DATA
  6
CONTINUOUS
 62
     7
 10
1230.2347694496
 20
112.8472455263436
 30
0.0
 40
1.067054552722408
 50
301.68665224610021
 51
336.49225810553543
  0
ARC
  5
152
  8
DATA
  6
CONTINUOUS
 62
     7
 10
1230.659830980167
 20
112.2611504911187
 30
0.0
 40
0.3492281356217529
 50
217.5128614820261
 51
292.81824822448482
  0
ARC
  5
153
  8
DATA
  6
CONTINUOUS
 62
     7
 10
1231.8765564229191
 20
113.3344174718365
 30
0.0
 40
1.9710051735732399
 50
197.83088182063
 51
220.72440840591469
  0
ARC
  5
154
  8
DATA
  6
CONTINUOUS
 62
     7
 10
1244.1425022251931
 20
117.06758332519161
 30
0.0
 40
14.792257506704519
 50
185.52402610546071
 51
197.04807056482011
  0
ARC
  5
155
  8
DATA
  6
CONTINUOUS
 62
     7
 10
1274.4944662229429
 20
120.0628174205137
 30
0.0
 40
45.291634347528877
 50
180.01664234718271
 51
185.59935727414521
  0
ARC
  5
156
  8
DATA
  6
CONTINUOUS
 62
     7
 10
1190.250685598354
 20
122.55214602514
 30
0.0
 40
39.68079055284457
 50
350.48573542893001
 51
359.06059108821671
  0
ARC
  5
157
  8
DATA
  6
CONTINUOUS
 62
     7
 10
1189.257746070142
 20
602.36895172324887
 30
0.0
 40
55.579153024877172
 50
358.4317431983132
 51
4.3093894157196351
  0
ARC
  5
158
  8
DATA
  6
CONTINUOUS
 62
     7
 10
1230.1531084304979
 20
605.89142886018271
 30
0.0
 40
14.5413670977658
 50
2.5772006092781878
 51
16.383804405376772
  0
ARC
  5
159
  8
DATA
  6
CONTINUOUS
 62
     7
 10
1196.747054937322
 20
602.44028574718038
 30
0.0
 40
50.765164998254832
 50
358.02121050331863
 51
8.2816282143123203
  0
ARC
  5
15A
  8
DATA
  6
CONTINUOUS
 62
     7
 10
1241.45806938334
 20
609.06082815702609
 30
0.0
 40
5.567894280854305
 50
7.1354286979986652
 51
29.194961292160031
  0
ARC
  5
15B
  8
DATA
  6
CONTINUOUS
 62
     7
 10
1245.9375252289419
 20
611.61664486124494
 30
0.0
 40
0.4133851915602755
 50
22.787019205892481
 51
146.86090825444211
  0
ARC
  5
15C
  8
DATA
  6
CONTINUOUS
 62
     7
 10
1269.34388777361
 20
591.59652851167834
 30
0.0
 40
31.210356767689959
 50
139.55647463247331
 51
153.6109154829671
  0
ARC
  5
15D
  8
DATA
  6
CONTINUOUS
 62
     7
 10
1321.3553780450061
 20
566.29049634380226
 30
0.0
 40
89.050826821201341
 50
153.89929654901749
 51
162.03934371148
  0
ARC
  5
15E
  8
DATA
  6
CONTINUOUS
 62
     7
 10
1448.5769705387081
 20
526.39375644591325
 30
0.0
 40
222.3791035443009
 50
162.36862856705471
 51
168.78634242990179
  0
ARC
  5
15F
  8
DATA
  6
CONTINUOUS
 62
     7
 10
1264.21644044659
 20
560.52134401819342
 30
0.0
 40
34.982298564059811
 50
164.8914761876126
 51
176.82840854552481
  0
ARC
  5
160
  8
DATA
  6
CONTINUOUS
 62
     7
 10
1171.578130453667
 20
563.25405184586236
 30
0.0
 40
57.715099995060633
 50
357.41217455438482
 51
359.2085057271737
  0
ARC
  5
161
  8
DATA
  6
CONTINUOUS
 62
     7
 10
1195.1638158051301
 20
560.32064494151075
 30
0.0
 40
34.072130260466807
 50
357.47379301778568
 51
0.5507813911286803
  0
ARC
  5
162
  8
DATA
  6
CONTINUOUS
 62
     7
 10
1207.9255851589739
 20
530.18502571183774
 30
0.0
 40
35.234893605149153
 50
345.72316686064278
 51
0.0740824952055164
  0
ARC
  5
163
  8
DATA
  6
CONTINUOUS
 62
     7
 10
1331.7437577355199
 20
491.70679053850722
 30
0.0
 40
94.490021141767642
 50
161.6234043848572
 51
166.37146516583749
  0
ARC
  5
164
  8
DATA
  6
CONTINUOUS
 62
     7
 10
1285.556550692603
 20
504.26061654131507
 30
0.0
 40
46.663863108839713
 50
167.98929120991929
 51
179.8414928338176
  0
ARC
  5
165
  8
DATA
  6
CONTINUOUS
 62
     7
 10
1200.0518718283611
 20
530.46323458292602
 30
0.0
 40
45.77627332693676
 50
348.53756887979728
 51
359.50830271946938
  0
ARC
  5
166
  8
DATA
  6
CONTINUOUS
 62
     7
 10
1216.616335766136
 20
528.84828627904949
 30
0.0
 40
29.271187797284831
 50
340.13837127502802
 51
345.190368691007
  0
ARC
  5
167
  8
DATA
  6
CONTINUOUS
 62
     7
 10
1289.4192244393621
 20
503.33130842123143
 30
0.0
 40
47.876123527786419
 50
161.01878495761969
 51
178.4319351888719
  0
ARC
  5
168
  8
DATA
  6
CONTINUOUS
 62
     7
 10
1162.7403200783119
 20
530.67735831331925
 30
0.0
 40
84.317022291714324
 50
351.75617029614227
 51
359.36710466842902
  0
ARC
  5
169
  8
DATA
  6
CONTINUOUS
 62
     7
 10
1213.5775955598281
 20
523.08357385782585
 30
0.0
 40
32.916989673574449
 50
342.37514076599291
 51
352.14948399642401
  0
ARC
  5
16A
  8
DATA
  6
CONTINUOUS
 62
     7
 10
1308.0099518118111
 20
491.49832015139759
 30
0.0
 40
66.663250715430564
 50
161.07715370259371
 51
166.02377281706151
  0
ARC
  5
16B
  8
DATA
  6
CONTINUOUS
 62
     7
 10
1255.542261320604
 20
504.08889389421893
 30
0.0
 40
12.716057636255981
 50
163.97718792712399
 51
178.73371487313199
  0
ARC
  5
16C
  8
DATA
  6
CONTINUOUS
 62
     7
 10
1205.428324512897
 20
643.31272464902042
 30
0.0
 40
12.190021024046979
 50
358.31854534919358
 51
86.046643930273092
  0
LINE
  5
16D
  8
DATA
  6
CONTINUOUS
 62
     7
 10
1197.640000000011
 20
655.92999999999995
 30
0.0
 11
1206.268031611454
 21
655.46323701497886
 31
0.0
  0
LINE
  5
16E
  8
DATA
  6
CONTINUOUS
 62
     7
 10
1244.9883521735489
 20
621.47511367848813
 30
0.0
 11
1218.334283303177
 21
630.26274126106955
 31
0.0
  0
LINE
  5
16F
  8
DATA
  6
CONTINUOUS
 62
     7
 10
1197.640000000011
 20
655.92999999999995
 30
0.0
 11
1197.640000000011
 21
0.0
 31
0.0
  0
LINE
  5
170
  8
DATA
  6
CONTINUOUS
 62
     7
 10
1206.2680314749259
 20
0.451233922130541
 30
0.0
 11
1197.640000000011
 21
-0.0009420470541954
 31
0.0
  0
LINE
  5
171
  8
DATA
  6
CONTINUOUS
 62
     7
 10
1217.6400000000131
 20
570.00815151914105
 30
0.0
 11
1217.6400000000119
 21
12.43478833918561
 31
0.0
  0
LINE
  5
172
  8
DATA
  6
CONTINUOUS
 62
     7
 10
1217.6400000000131
 20
570.00815151914105
 30
0.0
 11
1217.6400000000131
 21
642.95424666893325
 31
0.0
  0
ARC
  5
173
  8
DATA
  6
CONTINUOUS
 62
     7
 10
1205.640000000011
 20
12.43478833918561
 30
0.0
 40
12.00000000000025
 50
273.00000000000551
 51
0.0
  0
ARC
  5
174
  8
DATA
  6
CONTINUOUS
 62
     7
 10
1218.6400000000119
 20
98.692265146147733
 30
0.0
 40
1.0000000000000011
 50
104.9999999999944
 51
180.0
  0
ARC
  5
175
  8
DATA
  6
CONTINUOUS
 62
     7
 10
1218.6400000000151
 20
631.21486378536929
 30
0.0
 40
1.000000000002728
 50
180.0000000000521
 51
252.19871270798001
  0
LINE
  5
176
  8
DATA
  6
CONTINUOUS
 62
     7
 10
1233.848930969531
 20
121.4655014371906
 30
0.0
 11
1242.8158493599681
 21
503.96195166620021
 31
0.0
  0
POLYLINE
  5
177
  8
DATA
  6
CONTINUOUS
 62
     7
 66
     1
 10
0.0
 20
0.0
 30
0.0
 70
   128
  0
VERTEX
  5
912
  8
DATA
  6
CONTINUOUS
 62
     7
 10
1242.8158480072159
 20
503.96196290610942
 30
0.0
  0
VERTEX
  5
913
  8
DATA
  6
CONTINUOUS
 62
     7
 10
1242.829309120192
 20
504.3699066316945
 30
0.0
  0
VERTEX
  5
914
  8
DATA
  6
CONTINUOUS
 62
     7
 10
1242.850304260267
 20
504.7731582796448
 30
0.0
  0
VERTEX
  5
915
  8
DATA
  6
CONTINUOUS
 62
     7
 10
1242.8784042740001
 20
505.16309663413602
 30
0.0
  0
VERTEX
  5
916
  8
DATA
  6
CONTINUOUS
 62
     7
 10
1242.9134041214129
 20
505.53609773276872
 30
0.0
  0
VERTEX
  5
917
  8
DATA
  6
CONTINUOUS
 62
     7
 10
1242.9542547607559
 20
505.88422700522972
 30
0.0
  0
VERTEX
  5
918
  8
DATA
  6
CONTINUOUS
 62
     7
 10
1242.9997211837899
 20
506.19844361899919
 30
0.0
  0
VERTEX
  5
919
  8
DATA
  6
CONTINUOUS
 62
     7
 10
1243.048067703261
 20
506.47157594321789
 30
0.0
  0
VERTEX
  5
91A
  8
DATA
  6
CONTINUOUS
 62
     7
 10
1243.096047058119
 20
506.69271394370622
 30
0.0
  0
SEQEND
  5
91B
  8
DATA
  6
CONTINUOUS
 62
     7
  0
POLYLINE
  5
182
  8
DATA
  6
CONTINUOUS
 62
     7
 66
     1
 10
0.0
 20
0.0
 30
0.0
 70
   128
  0
VERTEX
  5
91C
  8
DATA
  6
CONTINUOUS
 62
     7
 10
1243.096047058119
 20
506.69271394370622
 30
0.0
  0
VERTEX
  5
91D
  8
DATA
  6
CONTINUOUS
 62
     7
 10
1243.3201986694471
 20
507.59878083823651
 30
0.0
  0
VERTEX
  5
91E
  8
DATA
  6
CONTINUOUS
 62
     7
 10
1243.547073020949
 20
508.47692414878247
 30
0.0
  0
VERTEX
  5
91F
  8
DATA
  6
CONTINUOUS
 62
     7
 10
1243.7763887787
 20
509.32645722983722
 30
0.0
  0
VERTEX
  5
920
  8
DATA
  6
CONTINUOUS
 62
     7
 10
1244.007855072035
 20
510.14650270102771
 30
0.0
  0
VERTEX
  5
921
  8
DATA
  6
CONTINUOUS
 62
     7
 10
1244.241181030287
 20
510.93637391684712
 30
0.0
  0
VERTEX
  5
922
  8
DATA
  6
CONTINUOUS
 62
     7
 10
1244.476080551161
 20
511.6952316438971
 30
0.0
  0
VERTEX
  5
923
  8
DATA
  6
CONTINUOUS
 62
     7
 10
1244.712262763991
 20
512.4223510896968
 30
0.0
  0
VERTEX
  5
924
  8
DATA
  6
CONTINUOUS
 62
     7
 10
1244.949441566481
 20
513.1168548738766
 30
0.0
  0
SEQEND
  5
925
  8
DATA
  6
CONTINUOUS
 62
     7
  0
LINE
  5
18D
  8
DATA
  6
CONTINUOUS
 62
     7
 10
1247.0521983888741
 20
529.74600237351126
 30
0.0
 11
1248.7585968667861
 21
601.26267241494463
 31
0.0
  0
LINE
  5
18E
  8
DATA
  6
CONTINUOUS
 62
     7
 10
1229.1245680230711
 20
102.5368728613257
 30
0.0
 11
1218.381180954909
 21
99.658190972437765
 31
0.0
  0
LINE
  5
18F
  8
DATA
  6
CONTINUOUS
 62
     7
 10
1229.9261427447941
 20
121.9015777199247
 30
0.0
 11
1238.892866151484
 21
504.38971064445252
 31
0.0
  0
LINE
  5
190
  8
DATA
  6
CONTINUOUS
 62
     7
 10
1243.1604493111711
 20
530.23058383379566
 30
0.0
 11
1244.8160808598921
 21
600.84787107031991
 31
0.0
  0
POLYLINE
  5
191
  8
DATA
  6
CONTINUOUS
 62
     7
 66
     1
 10
0.0
 20
0.0
 30
0.0
 70
   128
  0
VERTEX
  5
926
  8
DATA
  6
CONTINUOUS
 62
     7
 10
1206.2680314749271
 20
655.46323390864802
 30
0.0
  0
VERTEX
  5
927
  8
DATA
  6
CONTINUOUS
 62
     7
 10
1206.268113493687
 20
655.46327854511753
 30
0.0
  0
VERTEX
  5
928
  8
DATA
  6
CONTINUOUS
 62
     7
 10
1206.268195471381
 20
655.46332241094979
 30
0.0
  0
VERTEX
  5
929
  8
DATA
  6
CONTINUOUS
 62
     7
 10
1206.268277408012
 20
655.4633655061449
 30
0.0
  0
VERTEX
  5
92A
  8
DATA
  6
CONTINUOUS
 62
     7
 10
1206.268359303577
 20
655.46340783070275
 30
0.0
  0
VERTEX
  5
92B
  8
DATA
  6
CONTINUOUS
 62
     7
 10
1206.2684411580781
 20
655.46344938462357
 30
0.0
  0
VERTEX
  5
92C
  8
DATA
  6
CONTINUOUS
 62
     7
 10
1206.2685229715139
 20
655.46349016790725
 30
0.0
  0
VERTEX
  5
92D
  8
DATA
  6
CONTINUOUS
 62
     7
 10
1206.268604743886
 20
655.46353018055345
 30
0.0
  0
VERTEX
  5
92E
  8
DATA
  6
CONTINUOUS
 62
     7
 10
1206.2686864751929
 20
655.46356942256273
 30
0.0
  0
VERTEX
  5
92F
  8
DATA
  6
CONTINUOUS
 62
     7
 10
1206.2687681654361
 20
655.46360789393475
 30
0.0
  0
VERTEX
  5
930
  8
DATA
  6
CONTINUOUS
 62
     7
 10
1206.2688498146149
 20
655.46364559466963
 30
0.0
  0
VERTEX
  5
931
  8
DATA
  6
CONTINUOUS
 62
     7
 10
1206.268931422728
 20
655.46368252476736
 30
0.0
  0
VERTEX
  5
932
  8
DATA
  6
CONTINUOUS
 62
     7
 10
1206.2690129897769
 20
655.46371868422796
 30
0.0
  0
VERTEX
  5
933
  8
DATA
  6
CONTINUOUS
 62
     7
 10
1206.269094515761
 20
655.46375407305106
 30
0.0
  0
VERTEX
  5
934
  8
DATA
  6
CONTINUOUS
 62
     7
 10
1206.269176000681
 20
655.46378869123737
 30
0.0
  0
VERTEX
  5
935
  8
DATA
  6
CONTINUOUS
 62
     7
 10
1206.2692574445371
 20
655.46382253878642
 30
0.0
  0
VERTEX
  5
936
  8
DATA
  6
CONTINUOUS
 62
     7
 10
1206.2693388473281
 20
655.46385561569821
 30
0.0
  0
VERTEX
  5
937
  8
DATA
  6
CONTINUOUS
 62
     7
 10
1206.269420209054
 20
655.46388792197286
 30
0.0
  0
VERTEX
  5
938
  8
DATA
  6
CONTINUOUS
 62
     7
 10
1206.2695015297149
 20
655.46391945761025
 30
0.0
  0
VERTEX
  5
939
  8
DATA
  6
CONTINUOUS
 62
     7
 10
1206.2695828093119
 20
655.46395022261049
 30
0.0
  0
VERTEX
  5
93A
  8
DATA
  6
CONTINUOUS
 62
     7
 10
1206.269664047845
 20
655.46398021697371
 30
0.0
  0
VERTEX
  5
93B
  8
DATA
  6
CONTINUOUS
 62
     7
 10
1206.2697452453119
 20
655.46400944069967
 30
0.0
  0
VERTEX
  5
93C
  8
DATA
  6
CONTINUOUS
 62
     7
 10
1206.2698264017149
 20
655.46403789378837
 30
0.0
  0
VERTEX
  5
93D
  8
DATA
  6
CONTINUOUS
 62
     7
 10
1206.2699075170549
 20
655.46406557624005
 30
0.0
  0
VERTEX
  5
93E
  8
DATA
  6
CONTINUOUS
 62
     7
 10
1206.2699885913289
 20
655.46409248805435
 30
0.0
  0
VERTEX
  5
93F
  8
DATA
  6
CONTINUOUS
 62
     7
 10
1206.2700696245381
 20
655.46411862923151
 30
0.0
  0
VERTEX
  5
940
  8
DATA
  6
CONTINUOUS
 62
     7
 10
1206.2701506166829
 20
655.46414399977175
 30
0.0
  0
VERTEX
  5
941
  8
DATA
  6
CONTINUOUS
 62
     7
 10
1206.2702315677641
 20
655.46416859967474
 30
0.0
  0
VERTEX
  5
942
  8
DATA
  6
CONTINUOUS
 62
     7
 10
1206.27031247778
 20
655.46419242894046
 30
0.0
  0
VERTEX
  5
943
  8
DATA
  6
CONTINUOUS
 62
     7
 10
1206.270393346731
 20
655.46421548756894
 30
0.0
  0
VERTEX
  5
944
  8
DATA
  6
CONTINUOUS
 62
     7
 10
1206.2704741746179
 20
655.46423777556026
 30
0.0
  0
VERTEX
  5
945
  8
DATA
  6
CONTINUOUS
 62
     7
 10
1206.27055496144
 20
655.46425929291445
 30
0.0
  0
VERTEX
  5
946
  8
DATA
  6
CONTINUOUS
 62
     7
 10
1206.270635707197
 20
655.46428003963149
 30
0.0
  0
VERTEX
  5
947
  8
DATA
  6
CONTINUOUS
 62
     7
 10
1206.2707164118899
 20
655.46430001571127
 30
0.0
  0
VERTEX
  5
948
  8
DATA
  6
CONTINUOUS
 62
     7
 10
1206.2707970755191
 20
655.46431922115414
 30
0.0
  0
VERTEX
  5
949
  8
DATA
  6
CONTINUOUS
 62
     7
 10
1206.270877698083
 20
655.46433765595964
 30
0.0
  0
VERTEX
  5
94A
  8
DATA
  6
CONTINUOUS
 62
     7
 10
1206.2709582795819
 20
655.46435532012788
 30
0.0
  0
VERTEX
  5
94B
  8
DATA
  6
CONTINUOUS
 62
     7
 10
1206.2710388200171
 20
655.46437221365898
 30
0.0
  0
VERTEX
  5
94C
  8
DATA
  6
CONTINUOUS
 62
     7
 10
1206.271119319387
 20
655.46438833655293
 30
0.0
  0
VERTEX
  5
94D
  8
DATA
  6
CONTINUOUS
 62
     7
 10
1206.271199777693
 20
655.46440368880985
 30
0.0
  0
VERTEX
  5
94E
  8
DATA
  6
CONTINUOUS
 62
     7
 10
1206.271280194934
 20
655.46441827042941
 30
0.0
  0
VERTEX
  5
94F
  8
DATA
  6
CONTINUOUS
 62
     7
 10
1206.271360571111
 20
655.46443208141193
 30
0.0
  0
VERTEX
  5
950
  8
DATA
  6
CONTINUOUS
 62
     7
 10
1206.2714409062221
 20
655.46444512175731
 30
0.0
  0
VERTEX
  5
951
  8
DATA
  6
CONTINUOUS
 62
     7
 10
1206.2715212002699
 20
655.4644573914652
 30
0.0
  0
VERTEX
  5
952
  8
DATA
  6
CONTINUOUS
 62
     7
 10
1206.2716014532521
 20
655.46446889053595
 30
0.0
  0
VERTEX
  5
953
  8
DATA
  6
CONTINUOUS
 62
     7
 10
1206.2716816651709
 20
655.46447961896979
 30
0.0
  0
VERTEX
  5
954
  8
DATA
  6
CONTINUOUS
 62
     7
 10
1206.2717618360241
 20
655.46448957676648
 30
0.0
  0
VERTEX
  5
955
  8
DATA
  6
CONTINUOUS
 62
     7
 10
1206.2718419658131
 20
655.4644987639258
 30
0.0
  0
VERTEX
  5
956
  8
DATA
  6
CONTINUOUS
 62
     7
 10
1206.271922054538
 20
655.46450718044809
 30
0.0
  0
VERTEX
  5
957
  8
DATA
  6
CONTINUOUS
 62
     7
 10
1206.272002102198
 20
655.46451482633313
 30
0.0
  0
VERTEX
  5
958
  8
DATA
  6
CONTINUOUS
 62
     7
 10
1206.272082108793
 20
655.46452170158091
 30
0.0
  0
VERTEX
  5
959
  8
DATA
  6
CONTINUOUS
 62
     7
 10
1206.2721620743239
 20
655.46452780619177
 30
0.0
  0
VERTEX
  5
95A
  8
DATA
  6
CONTINUOUS
 62
     7
 10
1206.2722419987899
 20
655.46453314016514
 30
0.0
  0
VERTEX
  5
95B
  8
DATA
  6
CONTINUOUS
 62
     7
 10
1206.272321882192
 20
655.46453770350161
 30
0.0
  0
VERTEX
  5
95C
  8
DATA
  6
CONTINUOUS
 62
     7
 10
1206.2724017245289
 20
655.46454149620058
 30
0.0
  0
VERTEX
  5
95D
  8
DATA
  6
CONTINUOUS
 62
     7
 10
1206.2724815258009
 20
655.46454451826276
 30
0.0
  0
VERTEX
  5
95E
  8
DATA
  6
CONTINUOUS
 62
     7
 10
1206.272561286009
 20
655.46454676968756
 30
0.0
  0
VERTEX
  5
95F
  8
DATA
  6
CONTINUOUS
 62
     7
 10
1206.272641005153
 20
655.46454825047522
 30
0.0
  0
VERTEX
  5
960
  8
DATA
  6
CONTINUOUS
 62
     7
 10
1206.2727206832319
 20
655.46454896062562
 30
0.0
  0
VERTEX
  5
961
  8
DATA
  6
CONTINUOUS
 62
     7
 10
1206.272800320246
 20
655.46454890013899
 30
0.0
  0
VERTEX
  5
962
  8
DATA
  6
CONTINUOUS
 62
     7
 10
1206.2728799161951
 20
655.46454806901511
 30
0.0
  0
VERTEX
  5
963
  8
DATA
  6
CONTINUOUS
 62
     7
 10
1206.2729594710811
 20
655.46454646725408
 30
0.0
  0
VERTEX
  5
964
  8
DATA
  6
CONTINUOUS
 62
     7
 10
1206.2730389849009
 20
655.46454409485557
 30
0.0
  0
VERTEX
  5
965
  8
DATA
  6
CONTINUOUS
 62
     7
 10
1206.2731184576569
 20
655.46454095182037
 30
0.0
  0
VERTEX
  5
966
  8
DATA
  6
CONTINUOUS
 62
     7
 10
1206.2731978893489
 20
655.46453703814768
 30
0.0
  0
VERTEX
  5
967
  8
DATA
  6
CONTINUOUS
 62
     7
 10
1206.2731978893489
 20
655.46453703814768
 30
0.0
  0
SEQEND
  5
968
  8
DATA
  6
CONTINUOUS
 62
     7
  0
LINE
  5
1D5
  8
DATA
  6
CONTINUOUS
 62
     7
 10
1229.2028335990151
 20
120.0496626269737
 30
0.0
 11
1229.202833599016
 21
558.81886995379284
 31
0.0
  0
LINE
  5
1D6
  8
DATA
  6
CONTINUOUS
 62
     7
 10
1241.5610294393689
 20
504.64141352792331
 30
0.0
 11
1232.5864105096671
 21
121.4929864674004
 31
0.0
  0
LINE
  5
1D7
  8
DATA
  6
CONTINUOUS
 62
     7
 10
1247.4819459391711
 20
600.68740257224238
 30
0.0
 11
1245.826461842596
 21
530.07041212143179
 31
0.0
  0
LINE
  5
1D8
  8
DATA
  6
CONTINUOUS
 62
     7
 10
1226.4092747638631
 20
118.7702385188277
 30
0.0
 11
1226.429519883005
 21
557.69240629846718
 31
0.0
  0
ARC
  5
1D9
  8
DATA
  6
CONTINUOUS
 62
     7
 10
1243.595838230503
 20
618.20731889941726
 30
0.0
 40
3.5521229989546219
 50
30.181501492611751
 51
66.919564430480179
  0
ARC
  5
1DA
  8
DATA
  6
CONTINUOUS
 62
     7
 10
1243.1823998921991
 20
617.67073241466733
 30
0.0
 40
4.187111240240565
 50
17.235327945609399
 51
33.68665511644322
  0
ARC
  5
1DB
  8
DATA
  6
CONTINUOUS
 62
     7
 10
1225.9648892310149
 20
611.85715593797079
 30
0.0
 40
22.358579135894111
 50
7.1059458786092664
 51
18.391198893447811
  0
ARC
  5
1DC
  8
DATA
  6
CONTINUOUS
 62
     7
 10
1161.247161808072
 20
604.02185788471741
 30
0.0
 40
87.548781924741377
 50
358.19409511996832
 51
6.9549292880903968
  0
ARC
  5
1DD
  8
DATA
  6
CONTINUOUS
 62
     7
 10
1244.844176086777
 20
620.49736671794199
 30
0.0
 40
0.9883197169207511
 50
81.611758267411503
 51
137.41902470880871
  0
ARC
  5
1DE
  8
DATA
  6
CONTINUOUS
 62
     7
 10
1281.4484142676961
 20
591.68389303531251
 30
0.0
 40
47.569690291580713
 50
141.70075916133979
 51
162.5001046194659
  0
ARC
  5
1DF
  8
DATA
  6
CONTINUOUS
 62
     7
 10
1433.977112735294
 20
537.37768044396375
 30
0.0
 40
209.45294822019289
 50
160.878617791229
 51
168.53985077467311
  0
ARC
  5
1E0
  8
DATA
  6
CONTINUOUS
 62
     7
 10
1499.636605765927
 20
522.50500916402848
 30
0.0
 40
276.76262499982732
 50
168.2230001183012
 51
169.43013891239519
  0
ARC
  5
1E1
  8
DATA
  6
CONTINUOUS
 62
     7
 10
1333.2835661611471
 20
557.70197304175917
 30
0.0
 40
106.8540467064017
 50
171.621015872383
 51
180.0051297450301
  0
ARC
  5
1E2
  8
DATA
  6
CONTINUOUS
 62
     7
 10
1323.723081659896
 20
118.56549213410629
 30
0.0
 40
97.311862160190501
 50
179.8777566782241
 51
184.88846825140351
  0
ARC
  5
1E3
  8
DATA
  6
CONTINUOUS
 62
     7
 10
1255.1152654166131
 20
112.1580280884736
 30
0.0
 40
28.41267544646853
 50
183.8042092061437
 51
196.75652560671949
  0
ARC
  5
1E4
  8
DATA
  6
CONTINUOUS
 62
     7
 10
1231.6598397353589
 20
105.2060924853685
 30
0.0
 40
3.9503326363897839
 50
198.2880150148053
 51
218.85239661694439
  0
ARC
  5
1E5
  8
DATA
  6
CONTINUOUS
 62
     7
 10
1229.0251847772211
 20
103.11726168735819
 30
0.0
 40
0.5887758420987457
 50
221.38866271563811
 51
279.71832717272162
  0
ARC
  5
1E6
  8
DATA
  6
CONTINUOUS
 62
     7
 10
1152.626954969428
 20
122.95085679837121
 30
0.0
 40
81.235555713816808
 50
350.61260067469732
 51
358.95231394407278
  0
ARC
  5
1E7
  8
DATA
  6
CONTINUOUS
 62
     7
 10
1211.36554019914
 20
113.08872053759291
 30
0.0
 40
21.67550520613479
 50
337.00825675312109
 51
351.00718049969458
  0
ARC
  5
1E8
  8
DATA
  6
CONTINUOUS
 62
     7
 10
1227.6357481506709
 20
106.21376769875771
 30
0.0
 40
4.0125239827799204
 50
299.49080988096603
 51
336.63265477046531
  0
ARC
  5
1E9
  8
DATA
  6
CONTINUOUS
 62
     7
 10
1228.4368832758789
 20
105.0868882003298
 30
0.0
 40
2.6411150184488559
 50
285.09241388249279
 51
296.39596468326528
  0
ARC
  5
1EA
  8
DATA
  6
CONTINUOUS
 62
     7
 10
1190.3014125644411
 20
122.16517598297671
 30
0.0
 40
42.290340386105157
 50
350.1795984711174
 51
359.08926615901612
  0
ARC
  5
1EB
  8
DATA
  6
CONTINUOUS
 62
     7
 10
1222.502997714809
 20
116.4125872518221
 30
0.0
 40
9.5810504037535615
 50
335.38320298250881
 51
351.23205738938202
  0
ARC
  5
1EC
  8
DATA
  6
CONTINUOUS
 62
     7
 10
1230.2347694496
 20
112.8472455263436
 30
0.0
 40
1.067054552722408
 50
301.68665224610021
 51
336.49225810553543
  0
ARC
  5
1ED
  8
DATA
  6
CONTINUOUS
 62
     7
 10
1230.659830980167
 20
112.2611504911187
 30
0.0
 40
0.3492281356217529
 50
217.5128614820261
 51
292.81824822448482
  0
ARC
  5
1EE
  8
DATA
  6
CONTINUOUS
 62
     7
 10
1231.8765564229191
 20
113.3344174718365
 30
0.0
 40
1.9710051735732399
 50
197.83088182063
 51
220.72440840591469
  0
ARC
  5
1EF
  8
DATA
  6
CONTINUOUS
 62
     7
 10
1244.1425022251931
 20
117.06758332519161
 30
0.0
 40
14.792257506704519
 50
185.52402610546071
 51
197.04807056482011
  0
ARC
  5
1F0
  8
DATA
  6
CONTINUOUS
 62
     7
 10
1274.4944662229429
 20
120.0628174205137
 30
0.0
 40
45.291634347528877
 50
180.01664234718271
 51
185.59935727414521
  0
ARC
  5
1F1
  8
DATA
  6
CONTINUOUS
 62
     7
 10
1190.250685598354
 20
122.55214602514
 30
0.0
 40
39.68079055284457
 50
350.48573542893001
 51
359.06059108821671
  0
ARC
  5
1F2
  8
DATA
  6
CONTINUOUS
 62
     7
 10
1189.257746070142
 20
602.36895172324887
 30
0.0
 40
55.579153024877172
 50
358.4317431983132
 51
4.3093894157196351
  0
ARC
  5
1F3
  8
DATA
  6
CONTINUOUS
 62
     7
 10
1230.1531084304979
 20
605.89142886018271
 30
0.0
 40
14.5413670977658
 50
2.5772006092781878
 51
16.383804405376772
  0
ARC
  5
1F4
  8
DATA
  6
CONTINUOUS
 62
     7
 10
1196.747054937322
 20
602.44028574718038
 30
0.0
 40
50.765164998254832
 50
358.02121050331863
 51
8.2816282143123203
  0
ARC
  5
1F5
  8
DATA
  6
CONTINUOUS
 62
     7
 10
1241.45806938334
 20
609.06082815702609
 30
0.0
 40
5.567894280854305
 50
7.1354286979986652
 51
29.194961292160031
  0
ARC
  5
1F6
  8
DATA
  6
CONTINUOUS
 62
     7
 10
1245.9375252289419
 20
611.61664486124494
 30
0.0
 40
0.4133851915602755
 50
22.787019205892481
 51
146.86090825444211
  0
ARC
  5
1F7
  8
DATA
  6
CONTINUOUS
 62
     7
 10
1269.34388777361
 20
591.59652851167834
 30
0.0
 40
31.210356767689959
 50
139.55647463247331
 51
153.6109154829671
  0
ARC
  5
1F8
  8
DATA
  6
CONTINUOUS
 62
     7
 10
1321.3553780450061
 20
566.29049634380226
 30
0.0
 40
89.050826821201341
 50
153.89929654901749
 51
162.03934371148
  0
ARC
  5
1F9
  8
DATA
  6
CONTINUOUS
 62
     7
 10
1448.5769705387081
 20
526.39375644591325
 30
0.0
 40
222.3791035443009
 50
162.36862856705471
 51
168.78634242990179
  0
ARC
  5
1FA
  8
DATA
  6
CONTINUOUS
 62
     7
 10
1264.21644044659
 20
560.52134401819342
 30
0.0
 40
34.982298564059811
 50
164.8914761876126
 51
176.82840854552481
  0
ARC
  5
1FB
  8
DATA
  6
CONTINUOUS
 62
     7
 10
1171.578130453667
 20
563.25405184586236
 30
0.0
 40
57.715099995060633
 50
357.41217455438482
 51
359.2085057271737
  0
ARC
  5
1FC
  8
DATA
  6
CONTINUOUS
 62
     7
 10
1195.1638158051301
 20
560.32064494151075
 30
0.0
 40
34.072130260466807
 50
357.47379301778568
 51
0.5507813911286803
  0
ARC
  5
1FD
  8
DATA
  6
CONTINUOUS
 62
     7
 10
1207.9255851589739
 20
530.18502571183774
 30
0.0
 40
35.234893605149153
 50
345.72316686064278
 51
0.0740824952055164
  0
ARC
  5
1FE
  8
DATA
  6
CONTINUOUS
 62
     7
 10
1331.7437577355199
 20
491.70679053850722
 30
0.0
 40
94.490021141767642
 50
161.6234043848572
 51
166.37146516583749
  0
ARC
  5
1FF
  8
DATA
  6
CONTINUOUS
 62
     7
 10
1285.556550692603
 20
504.26061654131507
 30
0.0
 40
46.663863108839713
 50
167.98929120991929
 51
179.8414928338176
  0
ARC
  5
200
  8
DATA
  6
CONTINUOUS
 62
     7
 10
1200.0518718283611
 20
530.46323458292602
 30
0.0
 40
45.77627332693676
 50
348.53756887979728
 51
359.50830271946938
  0
ARC
  5
201
  8
DATA
  6
CONTINUOUS
 62
     7
 10
1216.616335766136
 20
528.84828627904949
 30
0.0
 40
29.271187797284831
 50
340.13837127502802
 51
345.190368691007
  0
ARC
  5
202
  8
DATA
  6
CONTINUOUS
 62
     7
 10
1289.4192244393621
 20
503.33130842123143
 30
0.0
 40
47.876123527786419
 50
161.01878495761969
 51
178.4319351888719
  0
ARC
  5
203
  8
DATA
  6
CONTINUOUS
 62
     7
 10
1162.7403200783119
 20
530.67735831331925
 30
0.0
 40
84.317022291714324
 50
351.75617029614227
 51
359.36710466842902
  0
ARC
  5
204
  8
DATA
  6
CONTINUOUS
 62
     7
 10
1213.5775955598281
 20
523.08357385782585
 30
0.0
 40
32.916989673574449
 50
342.37514076599291
 51
352.14948399642401
  0
ARC
  5
205
  8
DATA
  6
CONTINUOUS
 62
     7
 10
1308.0099518118111
 20
491.49832015139759
 30
0.0
 40
66.663250715430564
 50
161.07715370259371
 51
166.02377281706151
  0
ARC
  5
206
  8
DATA
  6
CONTINUOUS
 62
     7
 10
1255.542261320604
 20
504.08889389421893
 30
0.0
 40
12.716057636255981
 50
163.97718792712399
 51
178.73371487313199
  0
ARC
  5
207
  8
DATA
  6
CONTINUOUS
 62
     7
 10
1205.428324512897
 20
643.31272464902042
 30
0.0
 40
12.190021024046979
 50
358.31854534919358
 51
86.046643930273092
  0
LINE
  5
208
  8
DATA
  6
CONTINUOUS
 62
     7
 10
1197.640000000011
 20
655.92999999999995
 30
0.0
 11
1206.268031611454
 21
655.46323701497886
 31
0.0
  0
LINE
  5
209
  8
DATA
  6
CONTINUOUS
 62
     7
 10
1244.9883521735489
 20
621.47511367848813
 30
0.0
 11
1218.334283303177
 21
630.26274126106955
 31
0.0
  0
LINE
  5
20A
  8
DATA
  6
CONTINUOUS
 62
     7
 10
1197.640000000011
 20
655.92999999999995
 30
0.0
 11
1197.640000000011
 21
0.0
 31
0.0
  0
LINE
  5
20B
  8
DATA
  6
CONTINUOUS
 62
     7
 10
1197.644056267121
 20
-590.00542704704503
 30
0.0
 11
0.0040562671210864
 21
-590.00542704704503
 31
0.0
  0
LINE
  5
20C
  8
DATA
  6
CONTINUOUS
 62
     7
 10
1197.644056267121
 20
-561.7730542055574
 30
0.0
 11
0.0040562671210864
 21
-561.7730542055574
 31
0.0
  0
LINE
  5
20D
  8
DATA
  6
CONTINUOUS
 62
     7
 10
1197.6440562672749
 20
-432.01815789727829
 30
0.0
 11
0.0040562671210864
 21
-432.01815789727829
 31
0.0
  0
LINE
  5
20E
  8
DATA
  6
CONTINUOUS
 62
     7
 10
0.0040562671210864
 20
-508.5229685654017
 30
0.0
 11
1197.644056267121
 21
-508.5229685654017
 31
0.0
  0
LINE
  5
20F
  8
DATA
  6
CONTINUOUS
 62
     7
 10
1164.0442582893511
 20
-600.00542704705413
 30
0.0
 11
1181.1438542450539
 21
-600.00542704705413
 31
0.0
  0
ARC
  5
210
  8
DATA
  6
CONTINUOUS
 62
     7
 10
1181.1438542450539
 20
-599.50542704705413
 30
0.0
 40
0.5
 50
270.0
 51
354.00000000002183
  0
ARC
  5
211
  8
DATA
  6
CONTINUOUS
 62
     7
 10
1164.044258289352
 20
-599.50542704705413
 30
0.0
 40
0.4999999999998739
 50
185.9999999999836
 51
270.0
  0
LINE
  5
212
  8
DATA
  6
CONTINUOUS
 62
     7
 10
1181.641115192738
 20
-599.55769127868871
 30
0.0
 11
1182.645098619859
 21
-590.00542704705401
 31
0.0
  0
LINE
  5
213
  8
DATA
  6
CONTINUOUS
 62
     7
 10
1163.5469973416671
 20
-599.55769127868871
 30
0.0
 11
1162.543013914546
 21
-590.00542704705401
 31
0.0
  0
LINE
  5
214
  8
DATA
  6
CONTINUOUS
 62
     7
 10
1164.0442582893511
 20
-600.00542704705413
 30
0.0
 11
1181.1438542450539
 21
-600.00542704705413
 31
0.0
  0
ARC
  5
215
  8
DATA
  6
CONTINUOUS
 62
     7
 10
1181.1438542450539
 20
-599.50542704705413
 30
0.0
 40
0.5
 50
270.0
 51
354.00000000002183
  0
ARC
  5
216
  8
DATA
  6
CONTINUOUS
 62
     7
 10
1164.044258289352
 20
-599.50542704705413
 30
0.0
 40
0.4999999999998739
 50
185.9999999999836
 51
270.0
  0
LINE
  5
217
  8
DATA
  6
CONTINUOUS
 62
     7
 10
1181.641115192738
 20
-599.55769127868871
 30
0.0
 11
1182.645098619859
 21
-590.00542704705401
 31
0.0
  0
LINE
  5
218
  8
DATA
  6
CONTINUOUS
 62
     7
 10
1163.5469973416671
 20
-599.55769127868871
 30
0.0
 11
1162.543013914546
 21
-590.00542704705401
 31
0.0
  0
LINE
  5
219
  8
DATA
  6
CONTINUOUS
 62
     7
 10
1197.6440562672749
 20
-431.46043985309552
 30
0.0
 11
1206.2844254441391
 21
-431.93466394367351
 31
0.0
  0
ARC
  5
21A
  8
DATA
  6
CONTINUOUS
 62
     7
 10
1205.6440562672749
 20
-577.83899389653232
 30
0.0
 40
11.9999999999997
 50
272.99999999999699
 51
0.0
  0
LINE
  5
21B
  8
DATA
  6
CONTINUOUS
 62
     7
 10
1206.2720877421889
 20
-589.82254831358523
 30
0.0
 11
1197.6440562672749
 21
-590.27472428276849
 31
0.0
  0
LINE
  5
21C
  8
DATA
  6
CONTINUOUS
 62
     7
 10
1217.6311625905171
 20
-443.68049829425939
 30
0.0
 11
1217.6440562672749
 21
-577.83899389653232
 31
0.0
  0
ARC
  5
21D
  8
DATA
  6
CONTINUOUS
 62
     7
 10
1218.6440562672749
 20
-563.04205127076636
 30
0.0
 40
1.0000000000000011
 50
104.9999999999944
 51
180.0
  0
ARC
  5
21E
  8
DATA
  6
CONTINUOUS
 62
     7
 10
1215.9952567523289
 20
-585.70363937616685
 30
0.0
 40
1.0000000000000011
 50
104.9999999999944
 51
142.7731204860078
  0
ARC
  5
21F
  8
DATA
  6
CONTINUOUS
 62
     7
 10
1218.644056267271
 20
-455.59827309855518
 30
0.0
 40
0.999999999996362
 50
179.99999999992181
 51
254.21633557051109
  0
LINE
  5
220
  8
DATA
  6
CONTINUOUS
 62
     7
 10
1218.385237222172
 20
-562.07612544447636
 30
0.0
 11
1232.371174681454
 21
-558.32860479686815
 31
0.0
  0
LINE
  5
221
  8
DATA
  6
CONTINUOUS
 62
     7
 10
1246.6011038596951
 20
-576.44702488851021
 30
0.0
 11
1217.6440562672749
 21
-584.22656863154646
 31
0.0
  0
LINE
  5
222
  8
DATA
  6
CONTINUOUS
 62
     7
 10
1215.7364382214689
 20
-584.73771362723471
 30
0.0
 11
1217.6440562672749
 21
-584.22656863154646
 31
0.0
  0
POLYLINE
  5
223
  8
DATA
  6
CONTINUOUS
 62
     7
 66
     1
 10
0.0
 20
0.0
 30
0.0
 70
   128
  0
VERTEX
  5
969
  8
DATA
  6
CONTINUOUS
 62
     7
 10
1226.471492054121
 20
-458.85057738467771
 30
0.0
 42
0.0000339883852638
  0
VERTEX
  5
96A
  8
DATA
  6
CONTINUOUS
 62
     7
 10
1218.3720500017901
 20
-456.56056902560738
 30
0.0
  0
SEQEND
  5
96B
  8
DATA
  6
CONTINUOUS
 62
     7
  0
LINE
  5
227
  8
DATA
  6
CONTINUOUS
 62
     7
 10
1227.8653084469449
 20
-460.19475074786618
 30
0.0
 11
1227.8653084469449
 21
-522.27976232415085
 31
0.0
  0
ARC
  5
228
  8
DATA
  6
CONTINUOUS
 62
     7
 10
1231.8535365912489
 20
-556.39675314429087
 30
0.0
 40
2.0000000000002371
 50
285.00000000001961
 51
9.9046171232070588
  0
ARC
  5
229
  8
DATA
  6
CONTINUOUS
 62
     7
 10
1205.4690373367371
 20
-444.0758643472065
 30
0.0
 40
12.16854983161263
 50
1.861914031475042
 51
86.157855296033915
  0
LINE
  5
22A
  8
DATA
  6
CONTINUOUS
 62
     7
 10
1228.2064022488721
 20
-461.40794008197821
 30
0.0
 11
1248.4141617761691
 21
-573.58737227409722
 31
0.0
  0
ARC
  5
22B
  8
DATA
  6
CONTINUOUS
 62
     7
 10
1225.8983386018181
 20
-460.8323431863609
 30
0.0
 40
2.0629842472980089
 50
22.883946165278012
 51
73.869417656957935
  0
ARC
  5
22C
  8
DATA
  6
CONTINUOUS
 62
     7
 10
1218.5384565400941
 20
-463.51777963911508
 30
0.0
 40
9.8954836761403708
 50
12.31067226198115
 51
20.63722479729504
  0
ARC
  5
22D
  8
DATA
  6
CONTINUOUS
 62
     7
 10
1245.954056267198
 20
-574.03221031735927
 30
0.0
 40
2.5000000000002198
 50
284.99999951931773
 51
10.24951509264025
  0
LINE
  5
22E
  8
DATA
  6
CONTINUOUS
 62
     7
 10
1227.8653084469449
 20
-522.27976232415085
 30
0.0
 11
1233.823727527692
 21
-556.05273617674482
 31
0.0
  0
LINE
  5
22F
  8
DATA
  6
CONTINUOUS
 62
     7
 10
1197.6440562672749
 20
-431.46043985309552
 30
0.0
 11
1197.6440562672749
 21
-590.27472428276849
 31
0.0
  0
LINE
  5
230
  8
DATA
  6
CONTINUOUS
 62
     7
 10
1197.6440562672749
 20
-431.46043985309552
 30
0.0
 11
1206.2844254441391
 21
-431.93466394367351
 31
0.0
  0
ARC
  5
231
  8
DATA
  6
CONTINUOUS
 62
     7
 10
1205.6440562672749
 20
-577.83899389653232
 30
0.0
 40
11.9999999999997
 50
272.99999999999699
 51
0.0
  0
LINE
  5
232
  8
DATA
  6
CONTINUOUS
 62
     7
 10
1206.2720877421889
 20
-589.82254831358523
 30
0.0
 11
1197.6440562672749
 21
-590.27472428276849
 31
0.0
  0
LINE
  5
233
  8
DATA
  6
CONTINUOUS
 62
     7
 10
1217.6311625905171
 20
-443.68049829425939
 30
0.0
 11
1217.6440562672749
 21
-577.83899389653232
 31
0.0
  0
ARC
  5
234
  8
DATA
  6
CONTINUOUS
 62
     7
 10
1218.6440562672749
 20
-563.04205127076636
 30
0.0
 40
1.0000000000000011
 50
104.9999999999944
 51
180.0
  0
ARC
  5
235
  8
DATA
  6
CONTINUOUS
 62
     7
 10
1215.9952567523289
 20
-585.70363937616685
 30
0.0
 40
1.0000000000000011
 50
104.9999999999944
 51
142.7731204860078
  0
ARC
  5
236
  8
DATA
  6
CONTINUOUS
 62
     7
 10
1218.644056267271
 20
-455.59827309855518
 30
0.0
 40
0.999999999996362
 50
179.99999999992181
 51
254.21633557051109
  0
LINE
  5
237
  8
DATA
  6
CONTINUOUS
 62
     7
 10
1218.385237222172
 20
-562.07612544447636
 30
0.0
 11
1232.371174681454
 21
-558.32860479686815
 31
0.0
  0
LINE
  5
238
  8
DATA
  6
CONTINUOUS
 62
     7
 10
1246.6011038596951
 20
-576.44702488851021
 30
0.0
 11
1217.6440562672749
 21
-584.22656863154646
 31
0.0
  0
LINE
  5
239
  8
DATA
  6
CONTINUOUS
 62
     7
 10
1215.7364382214689
 20
-584.73771362723471
 30
0.0
 11
1217.6440562672749
 21
-584.22656863154646
 31
0.0
  0
POLYLINE
  5
23A
  8
DATA
  6
CONTINUOUS
 62
     7
 66
     1
 10
0.0
 20
0.0
 30
0.0
 70
   128
  0
VERTEX
  5
96C
  8
DATA
  6
CONTINUOUS
 62
     7
 10
1226.471492054121
 20
-458.85057738467771
 30
0.0
 42
0.0000339883852638
  0
VERTEX
  5
96D
  8
DATA
  6
CONTINUOUS
 62
     7
 10
1218.3720500017901
 20
-456.56056902560738
 30
0.0
  0
SEQEND
  5
96E
  8
DATA
  6
CONTINUOUS
 62
     7
  0
LINE
  5
23E
  8
DATA
  6
CONTINUOUS
 62
     7
 10
1227.8653084469449
 20
-460.19475074786618
 30
0.0
 11
1227.8653084469449
 21
-522.27976232415085
 31
0.0
  0
ARC
  5
23F
  8
DATA
  6
CONTINUOUS
 62
     7
 10
1231.8535365912489
 20
-556.39675314429087
 30
0.0
 40
2.0000000000002371
 50
285.00000000001961
 51
9.9046171232070588
  0
ARC
  5
240
  8
DATA
  6
CONTINUOUS
 62
     7
 10
1205.4690373367371
 20
-444.0758643472065
 30
0.0
 40
12.16854983161263
 50
1.861914031475042
 51
86.157855296033915
  0
LINE
  5
241
  8
DATA
  6
CONTINUOUS
 62
     7
 10
1228.2064022488721
 20
-461.40794008197821
 30
0.0
 11
1248.4141617761691
 21
-573.58737227409722
 31
0.0
  0
ARC
  5
242
  8
DATA
  6
CONTINUOUS
 62
     7
 10
1225.8983386018181
 20
-460.8323431863609
 30
0.0
 40
2.0629842472980089
 50
22.883946165278012
 51
73.869417656957935
  0
ARC
  5
243
  8
DATA
  6
CONTINUOUS
 62
     7
 10
1218.5384565400941
 20
-463.51777963911508
 30
0.0
 40
9.8954836761403708
 50
12.31067226198115
 51
20.63722479729504
  0
ARC
  5
244
  8
DATA
  6
CONTINUOUS
 62
     7
 10
1245.954056267198
 20
-574.03221031735927
 30
0.0
 40
2.5000000000002198
 50
284.99999951931773
 51
10.24951509264025
  0
LINE
  5
245
  8
DATA
  6
CONTINUOUS
 62
     7
 10
1227.8653084469449
 20
-522.27976232415085
 30
0.0
 11
1233.823727527692
 21
-556.05273617674482
 31
0.0
  0
LINE
  5
246
  8
DATA
  6
CONTINUOUS
 62
     7
 10
1197.6440562672749
 20
-431.46043985309552
 30
0.0
 11
1197.6440562672749
 21
-590.27472428276849
 31
0.0
  0
ARC
  5
247
  8
DATA
  6
CONTINUOUS
 62
     7
 10
1947.817666412489
 20
525.2610841434207
 30
0.0
 40
19.492778451896999
 50
292.24130639434401
 51
309.97447537311319
  0
ARC
  5
248
  8
DATA
  6
CONTINUOUS
 62
     7
 10
1945.2941946011049
 20
528.54032652944079
 30
0.0
 40
23.627596302159741
 50
309.55512978036973
 51
328.12634423739217
  0
ARC
  5
249
  8
DATA
  6
CONTINUOUS
 62
     7
 10
1938.5127881006979
 20
600.97290413827716
 30
0.0
 40
11.50300923564237
 50
14.195943177189401
 51
47.880070734143409
  0
ARC
  5
24A
  8
DATA
  6
CONTINUOUS
 62
     7
 10
1939.603016970992
 20
602.09536722466135
 30
0.0
 40
9.9393876824555445
 50
48.202023200336718
 51
101.20470747067129
  0
ARC
  5
24B
  8
DATA
  6
CONTINUOUS
 62
     7
 10
1937.29752628304
 20
600.61342319848154
 30
0.0
 40
12.76941866830543
 50
0.343864381005782
 51
14.422418615057239
  0
ARC
  5
24C
  8
DATA
  6
CONTINUOUS
 62
     7
 10
1937.8685535484881
 20
601.02897182572599
 30
0.0
 40
21.535684873902319
 50
0.7535467269557016
 51
19.726213403810711
  0
ARC
  5
24D
  8
DATA
  6
CONTINUOUS
 62
     7
 10
1939.7350146265881
 20
602.00921531044469
 30
0.0
 40
19.450100279114011
 50
18.863832153772751
 51
99.902120947906596
  0
ARC
  5
24E
  8
DATA
  6
CONTINUOUS
 62
     7
 10
1949.748833738224
 20
611.25139349414155
 30
0.0
 40
18.11287820082185
 50
1.597427088673629
 51
54.120052374762253
  0
ARC
  5
24F
  8
DATA
  6
CONTINUOUS
 62
     7
 10
1948.1359422408541
 20
610.94394854797156
 30
0.0
 40
19.340114328457918
 50
50.780391974945893
 51
101.3471187892323
  0
LINE
  5
250
  8
DATA
  6
CONTINUOUS
 62
     7
 10
1814.54324656988
 20
571.32986221234216
 30
0.0
 11
1891.5716834257321
 21
23.244054843325561
 31
0.0
  0
LINE
  5
251
  8
DATA
  6
CONTINUOUS
 62
     7
 10
1945.3916834253589
 20
27.001728569215629
 30
0.0
 11
1945.3916834253739
 21
53.005839964952422
 31
0.0
  0
LINE
  5
252
  8
DATA
  6
CONTINUOUS
 62
     7
 10
1948.387572029641
 20
56.001728569213363
 30
0.0
 11
1970.3957948211159
 21
56.001728569201532
 31
0.0
  0
LINE
  5
253
  8
DATA
  6
CONTINUOUS
 62
     7
 10
1973.391683425381
 20
58.997617173463361
 30
0.0
 11
1973.3916834257329
 21
652.93813824883375
 31
0.0
  0
ARC
  5
254
  8
DATA
  6
CONTINUOUS
 62
     7
 10
1976.322946821969
 20
456.02321048563181
 30
0.0
 40
200.0000000000249
 50
91.724086095067037
 51
143.4974252495839
  0
POLYLINE
  5
255
  8
DATA
  6
CONTINUOUS
 62
     7
 66
     1
 10
0.0
 20
0.0
 30
0.0
 70
   128
  0
VERTEX
  5
96F
  8
DATA
  6
CONTINUOUS
 62
     7
 10
1945.3916834253739
 20
53.005839964951967
 30
0.0
  0
VERTEX
  5
970
  8
DATA
  6
CONTINUOUS
 62
     7
 10
1945.3917260514199
 20
53.020354680420027
 30
0.0
  0
VERTEX
  5
971
  8
DATA
  6
CONTINUOUS
 62
     7
 10
1945.3918234883411
 20
53.034815852484712
 30
0.0
  0
VERTEX
  5
972
  8
DATA
  6
CONTINUOUS
 62
     7
 10
1945.391975736138
 20
53.0492234811461
 30
0.0
  0
VERTEX
  5
973
  8
DATA
  6
CONTINUOUS
 62
     7
 10
1945.3921827948111
 20
53.063577566404199
 30
0.0
  0
VERTEX
  5
974
  8
DATA
  6
CONTINUOUS
 62
     7
 10
1945.39244466436
 20
53.077878108259029
 30
0.0
  0
VERTEX
  5
975
  8
DATA
  6
CONTINUOUS
 62
     7
 10
1945.392761344785
 20
53.092125106710569
 30
0.0
  0
VERTEX
  5
976
  8
DATA
  6
CONTINUOUS
 62
     7
 10
1945.393132836085
 20
53.106318561758819
 30
0.0
  0
VERTEX
  5
977
  8
DATA
  6
CONTINUOUS
 62
     7
 10
1945.3935591382631
 20
53.120458473403687
 30
0.0
  0
VERTEX
  5
978
  8
DATA
  6
CONTINUOUS
 62
     7
 10
1945.3940402513149
 20
53.134544841645273
 30
0.0
  0
VERTEX
  5
979
  8
DATA
  6
CONTINUOUS
 62
     7
 10
1945.3945761752441
 20
53.148577666483561
 30
0.0
  0
VERTEX
  5
97A
  8
DATA
  6
CONTINUOUS
 62
     7
 10
1945.3951669100491
 20
53.162556947918567
 30
0.0
  0
VERTEX
  5
97B
  8
DATA
  6
CONTINUOUS
 62
     7
 10
1945.3958124557289
 20
53.176482685950432
 30
0.0
  0
VERTEX
  5
97C
  8
DATA
  6
CONTINUOUS
 62
     7
 10
1945.396512812285
 20
53.190354880578738
 30
0.0
  0
VERTEX
  5
97D
  8
DATA
  6
CONTINUOUS
 62
     7
 10
1945.397267979718
 20
53.204173531803917
 30
0.0
  0
VERTEX
  5
97E
  8
DATA
  6
CONTINUOUS
 62
     7
 10
1945.3980779580261
 20
53.2179386396258
 30
0.0
  0
VERTEX
  5
97F
  8
DATA
  6
CONTINUOUS
 62
     7
 10
1945.3989427472111
 20
53.231650204044399
 30
0.0
  0
VERTEX
  5
980
  8
DATA
  6
CONTINUOUS
 62
     7
 10
1945.3998623472719
 20
53.245308225059709
 30
0.0
  0
VERTEX
  5
981
  8
DATA
  6
CONTINUOUS
 62
     7
 10
1945.400836758208
 20
53.258912702671637
 30
0.0
  0
VERTEX
  5
982
  8
DATA
  6
CONTINUOUS
 62
     7
 10
1945.4018659800199
 20
53.272463636880282
 30
0.0
  0
VERTEX
  5
983
  8
DATA
  6
CONTINUOUS
 62
     7
 10
1945.4029500127081
 20
53.285961027685737
 30
0.0
  0
VERTEX
  5
984
  8
DATA
  6
CONTINUOUS
 62
     7
 10
1945.4040888562729
 20
53.299404875087824
 30
0.0
  0
VERTEX
  5
985
  8
DATA
  6
CONTINUOUS
 62
     7
 10
1945.4052825107119
 20
53.312795179086613
 30
0.0
  0
VERTEX
  5
986
  8
DATA
  6
CONTINUOUS
 62
     7
 10
1945.4065309760281
 20
53.326131939681993
 30
0.0
  0
VERTEX
  5
987
  8
DATA
  6
CONTINUOUS
 62
     7
 10
1945.4078342522209
 20
53.339415156874217
 30
0.0
  0
VERTEX
  5
988
  8
DATA
  6
CONTINUOUS
 62
     7
 10
1945.4091923392889
 20
53.352644830663181
 30
0.0
  0
VERTEX
  5
989
  8
DATA
  6
CONTINUOUS
 62
     7
 10
1945.4106052372331
 20
53.365820961048698
 30
0.0
  0
VERTEX
  5
98A
  8
DATA
  6
CONTINUOUS
 62
     7
 10
1945.4120729460531
 20
53.378943548030968
 30
0.0
  0
VERTEX
  5
98B
  8
DATA
  6
CONTINUOUS
 62
     7
 10
1945.4135954657479
 20
53.392012591610069
 30
0.0
  0
VERTEX
  5
98C
  8
DATA
  6
CONTINUOUS
 62
     7
 10
1945.4151727963199
 20
53.405028091785873
 30
0.0
  0
VERTEX
  5
98D
  8
DATA
  6
CONTINUOUS
 62
     7
 10
1945.416804937767
 20
53.417990048558288
 30
0.0
  0
VERTEX
  5
98E
  8
DATA
  6
CONTINUOUS
 62
     7
 10
1945.418491890091
 20
53.430898461927427
 30
0.0
  0
VERTEX
  5
98F
  8
DATA
  6
CONTINUOUS
 62
     7
 10
1945.420233653291
 20
53.443753331893149
 30
0.0
  0
VERTEX
  5
990
  8
DATA
  6
CONTINUOUS
 62
     7
 10
1945.4220302273659
 20
53.456554658455623
 30
0.0
  0
VERTEX
  5
991
  8
DATA
  6
CONTINUOUS
 62
     7
 10
1945.423881612317
 20
53.469302441614893
 30
0.0
  0
VERTEX
  5
992
  8
DATA
  6
CONTINUOUS
 62
     7
 10
1945.4257878081451
 20
53.481996681370887
 30
0.0
  0
VERTEX
  5
993
  8
DATA
  6
CONTINUOUS
 62
     7
 10
1945.427748814848
 20
53.494637377723492
 30
0.0
  0
VERTEX
  5
994
  8
DATA
  6
CONTINUOUS
 62
     7
 10
1945.429764632428
 20
53.507224530672808
 30
0.0
  0
VERTEX
  5
995
  8
DATA
  6
CONTINUOUS
 62
     7
 10
1945.431835260883
 20
53.519758140218983
 30
0.0
  0
VERTEX
  5
996
  8
DATA
  6
CONTINUOUS
 62
     7
 10
1945.433960700215
 20
53.532238206361733
 30
0.0
  0
VERTEX
  5
997
  8
DATA
  6
CONTINUOUS
 62
     7
 10
1945.4361409504211
 20
53.544664729101221
 30
0.0
  0
VERTEX
  5
998
  8
DATA
  6
CONTINUOUS
 62
     7
 10
1945.438376011504
 20
53.557037708437399
 30
0.0
  0
VERTEX
  5
999
  8
DATA
  6
CONTINUOUS
 62
     7
 10
1945.4406658834639
 20
53.569357144370322
 30
0.0
  0
VERTEX
  5
99A
  8
DATA
  6
CONTINUOUS
 62
     7
 10
1945.4430105662991
 20
53.581623036899828
 30
0.0
  0
VERTEX
  5
99B
  8
DATA
  6
CONTINUOUS
 62
     7
 10
1945.4454100600101
 20
53.593835386026171
 30
0.0
  0
VERTEX
  5
99C
  8
DATA
  6
CONTINUOUS
 62
     7
 10
1945.4478643645971
 20
53.605994191749232
 30
0.0
  0
VERTEX
  5
99D
  8
DATA
  6
CONTINUOUS
 62
     7
 10
1945.4503734800601
 20
53.61809945406889
 30
0.0
  0
VERTEX
  5
99E
  8
DATA
  6
CONTINUOUS
 62
     7
 10
1945.4529374063991
 20
53.630151172985279
 30
0.0
  0
VERTEX
  5
99F
  8
DATA
  6
CONTINUOUS
 62
     7
 10
1945.455556143613
 20
53.642149348498378
 30
0.0
  0
VERTEX
  5
9A0
  8
DATA
  6
CONTINUOUS
 62
     7
 10
1945.458229691704
 20
53.654093980608209
 30
0.0
  0
VERTEX
  5
9A1
  8
DATA
  6
CONTINUOUS
 62
     7
 10
1945.460958050671
 20
53.665985069314729
 30
0.0
  0
VERTEX
  5
9A2
  8
DATA
  6
CONTINUOUS
 62
     7
 10
1945.4637412205129
 20
53.67782261461798
 30
0.0
  0
VERTEX
  5
9A3
  8
DATA
  6
CONTINUOUS
 62
     7
 10
1945.466579201232
 20
53.689606616517842
 30
0.0
  0
VERTEX
  5
9A4
  8
DATA
  6
CONTINUOUS
 62
     7
 10
1945.4694719928259
 20
53.701337075014408
 30
0.0
  0
VERTEX
  5
9A5
  8
DATA
  6
CONTINUOUS
 62
     7
 10
1945.4724195952961
 20
53.713013990107811
 30
0.0
  0
VERTEX
  5
9A6
  8
DATA
  6
CONTINUOUS
 62
     7
 10
1945.475422008644
 20
53.724637361797811
 30
0.0
  0
VERTEX
  5
9A7
  8
DATA
  6
CONTINUOUS
 62
     7
 10
1945.478479232866
 20
53.736207190084542
 30
0.0
  0
VERTEX
  5
9A8
  8
DATA
  6
CONTINUOUS
 62
     7
 10
1945.4815912679639
 20
53.74772347496797
 30
0.0
  0
VERTEX
  5
9A9
  8
DATA
  6
CONTINUOUS
 62
     7
 10
1945.4847581139379
 20
53.759186216448143
 30
0.0
  0
VERTEX
  5
9AA
  8
DATA
  6
CONTINUOUS
 62
     7
 10
1945.487979770789
 20
53.770595414525033
 30
0.0
  0
VERTEX
  5
9AB
  8
DATA
  6
CONTINUOUS
 62
     7
 10
1945.491256238515
 20
53.781951069198612
 30
0.0
  0
VERTEX
  5
9AC
  8
DATA
  6
CONTINUOUS
 62
     7
 10
1945.494587517117
 20
53.793253180468923
 30
0.0
  0
VERTEX
  5
9AD
  8
DATA
  6
CONTINUOUS
 62
     7
 10
1945.497973606595
 20
53.804501748335952
 30
0.0
  0
VERTEX
  5
9AE
  8
DATA
  6
CONTINUOUS
 62
     7
 10
1945.501414506949
 20
53.815696772799583
 30
0.0
  0
VERTEX
  5
9AF
  8
DATA
  6
CONTINUOUS
 62
     7
 10
1945.504910218179
 20
53.826838253859933
 30
0.0
  0
VERTEX
  5
9B0
  8
DATA
  6
CONTINUOUS
 62
     7
 10
1945.5084389494129
 20
53.837927505078831
 30
0.0
  0
VERTEX
  5
9B1
  8
DATA
  6
CONTINUOUS
 62
     7
 10
1945.5119789097801
 20
53.848965840018082
 30
0.0
  0
VERTEX
  5
9B2
  8
DATA
  6
CONTINUOUS
 62
     7
 10
1945.515530099281
 20
53.859953258677812
 30
0.0
  0
VERTEX
  5
9B3
  8
DATA
  6
CONTINUOUS
 62
     7
 10
1945.5190925179129
 20
53.870889761057917
 30
0.0
  0
VERTEX
  5
9B4
  8
DATA
  6
CONTINUOUS
 62
     7
 10
1945.5226661656791
 20
53.881775347158403
 30
0.0
  0
VERTEX
  5
9B5
  8
DATA
  6
CONTINUOUS
 62
     7
 10
1945.5262510425771
 20
53.892610016979219
 30
0.0
  0
VERTEX
  5
9B6
  8
DATA
  6
CONTINUOUS
 62
     7
 10
1945.529847148609
 20
53.903393770520431
 30
0.0
  0
VERTEX
  5
9B7
  8
DATA
  6
CONTINUOUS
 62
     7
 10
1945.5334544837731
 20
53.914126607782002
 30
0.0
  0
VERTEX
  5
9B8
  8
DATA
  6
CONTINUOUS
 62
     7
 10
1945.5370730480699
 20
53.924808528763933
 30
0.0
  0
VERTEX
  5
9B9
  8
DATA
  6
CONTINUOUS
 62
     7
 10
1945.5407028415
 20
53.935439533466251
 30
0.0
  0
VERTEX
  5
9BA
  8
DATA
  6
CONTINUOUS
 62
     7
 10
1945.544343864063
 20
53.946019621889043
 30
0.0
  0
VERTEX
  5
9BB
  8
DATA
  6
CONTINUOUS
 62
     7
 10
1945.547996115758
 20
53.956548794032081
 30
0.0
  0
VERTEX
  5
9BC
  8
DATA
  6
CONTINUOUS
 62
     7
 10
1945.5516595965869
 20
53.967027049895471
 30
0.0
  0
VERTEX
  5
9BD
  8
DATA
  6
CONTINUOUS
 62
     7
 10
1945.555334306548
 20
53.977454389479362
 30
0.0
  0
VERTEX
  5
9BE
  8
DATA
  6
CONTINUOUS
 62
     7
 10
1945.5590202456419
 20
53.987830812783614
 30
0.0
  0
VERTEX
  5
9BF
  8
DATA
  6
CONTINUOUS
 62
     7
 10
1945.562717413869
 20
53.998156319808217
 30
0.0
  0
VERTEX
  5
9C0
  8
DATA
  6
CONTINUOUS
 62
     7
 10
1945.5664258112281
 20
54.008430910553209
 30
0.0
  0
VERTEX
  5
9C1
  8
DATA
  6
CONTINUOUS
 62
     7
 10
1945.5701454377211
 20
54.01865458501856
 30
0.0
  0
VERTEX
  5
9C2
  8
DATA
  6
CONTINUOUS
 62
     7
 10
1945.573876293347
 20
54.028827343204291
 30
0.0
  0
VERTEX
  5
9C3
  8
DATA
  6
CONTINUOUS
 62
     7
 10
1945.5776183781049
 20
54.038949185110468
 30
0.0
  0
VERTEX
  5
9C4
  8
DATA
  6
CONTINUOUS
 62
     7
 10
1945.581371691997
 20
54.049020110737047
 30
0.0
  0
VERTEX
  5
9C5
  8
DATA
  6
CONTINUOUS
 62
     7
 10
1945.5851362350211
 20
54.05904012008385
 30
0.0
  0
VERTEX
  5
9C6
  8
DATA
  6
CONTINUOUS
 62
     7
 10
1945.588912007177
 20
54.069009213151048
 30
0.0
  0
VERTEX
  5
9C7
  8
DATA
  6
CONTINUOUS
 62
     7
 10
1945.592699008467
 20
54.078927389938698
 30
0.0
  0
VERTEX
  5
9C8
  8
DATA
  6
CONTINUOUS
 62
     7
 10
1945.596497238889
 20
54.088794650446729
 30
0.0
  0
VERTEX
  5
9C9
  8
DATA
  6
CONTINUOUS
 62
     7
 10
1945.6003066984449
 20
54.098610994675028
 30
0.0
  0
VERTEX
  5
9CA
  8
DATA
  6
CONTINUOUS
 62
     7
 10
1945.6041273871331
 20
54.108376422623792
 30
0.0
  0
VERTEX
  5
9CB
  8
DATA
  6
CONTINUOUS
 62
     7
 10
1945.607959304954
 20
54.118090934292908
 30
0.0
  0
VERTEX
  5
9CC
  8
DATA
  6
CONTINUOUS
 62
     7
 10
1945.611802451908
 20
54.127754529682527
 30
0.0
  0
VERTEX
  5
9CD
  8
DATA
  6
CONTINUOUS
 62
     7
 10
1945.6156568279939
 20
54.137367208792391
 30
0.0
  0
VERTEX
  5
9CE
  8
DATA
  6
CONTINUOUS
 62
     7
 10
1945.6195224332139
 20
54.146928971622629
 30
0.0
  0
VERTEX
  5
9CF
  8
DATA
  6
CONTINUOUS
 62
     7
 10
1945.623399267567
 20
54.15643981817334
 30
0.0
  0
VERTEX
  5
9D0
  8
DATA
  6
CONTINUOUS
 62
     7
 10
1945.627287331052
 20
54.165899748444417
 30
0.0
  0
VERTEX
  5
9D1
  8
DATA
  6
CONTINUOUS
 62
     7
 10
1945.631186623669
 20
54.175308762435847
 30
0.0
  0
VERTEX
  5
9D2
  8
DATA
  6
CONTINUOUS
 62
     7
 10
1945.635097145421
 20
54.184666860147679
 30
0.0
  0
VERTEX
  5
9D3
  8
DATA
  6
CONTINUOUS
 62
     7
 10
1945.6390188963039
 20
54.19397404157985
 30
0.0
  0
VERTEX
  5
9D4
  8
DATA
  6
CONTINUOUS
 62
     7
 10
1945.6429518763209
 20
54.203230306732387
 30
0.0
  0
VERTEX
  5
9D5
  8
DATA
  6
CONTINUOUS
 62
     7
 10
1945.64689608547
 20
54.212435655605297
 30
0.0
  0
VERTEX
  5
9D6
  8
DATA
  6
CONTINUOUS
 62
     7
 10
1945.6508515237531
 20
54.221590088198703
 30
0.0
  0
VERTEX
  5
9D7
  8
DATA
  6
CONTINUOUS
 62
     7
 10
1945.654818191168
 20
54.230693604512453
 30
0.0
  0
VERTEX
  5
9D8
  8
DATA
  6
CONTINUOUS
 62
     7
 10
1945.6587960877159
 20
54.239746204546471
 30
0.0
  0
VERTEX
  5
9D9
  8
DATA
  6
CONTINUOUS
 62
     7
 10
1945.6627852133961
 20
54.248747888300962
 30
0.0
  0
VERTEX
  5
9DA
  8
DATA
  6
CONTINUOUS
 62
     7
 10
1945.6667855682099
 20
54.257698655775812
 30
0.0
  0
VERTEX
  5
9DB
  8
DATA
  6
CONTINUOUS
 62
     7
 10
1945.670797152156
 20
54.266598506970922
 30
0.0
  0
VERTEX
  5
9DC
  8
DATA
  6
CONTINUOUS
 62
     7
 10
1945.6748199652361
 20
54.275447441886513
 30
0.0
  0
VERTEX
  5
9DD
  8
DATA
  6
CONTINUOUS
 62
     7
 10
1945.6788540074481
 20
54.28424546052247
 30
0.0
  0
VERTEX
  5
9DE
  8
DATA
  6
CONTINUOUS
 62
     7
 10
1945.682899278793
 20
54.292992562878887
 30
0.0
  0
VERTEX
  5
9DF
  8
DATA
  6
CONTINUOUS
 62
     7
 10
1945.6869557792711
 20
54.301688748955598
 30
0.0
  0
VERTEX
  5
9E0
  8
DATA
  6
CONTINUOUS
 62
     7
 10
1945.6910235088801
 20
54.310334018752663
 30
0.0
  0
VERTEX
  5
9E1
  8
DATA
  6
CONTINUOUS
 62
     7
 10
1945.695102467625
 20
54.318928372270179
 30
0.0
  0
VERTEX
  5
9E2
  8
DATA
  6
CONTINUOUS
 62
     7
 10
1945.6991926555011
 20
54.327471809508097
 30
0.0
  0
VERTEX
  5
9E3
  8
DATA
  6
CONTINUOUS
 62
     7
 10
1945.7032940725101
 20
54.335964330466261
 30
0.0
  0
VERTEX
  5
9E4
  8
DATA
  6
CONTINUOUS
 62
     7
 10
1945.707406718652
 20
54.344405935144771
 30
0.0
  0
VERTEX
  5
9E5
  8
DATA
  6
CONTINUOUS
 62
     7
 10
1945.7115305939269
 20
54.352796623543767
 30
0.0
  0
VERTEX
  5
9E6
  8
DATA
  6
CONTINUOUS
 62
     7
 10
1945.7156656983341
 20
54.361136395663152
 30
0.0
  0
VERTEX
  5
9E7
  8
DATA
  6
CONTINUOUS
 62
     7
 10
1945.7198120318751
 20
54.369425251503003
 30
0.0
  0
VERTEX
  5
9E8
  8
DATA
  6
CONTINUOUS
 62
     7
 10
1945.723969594548
 20
54.37766319106322
 30
0.0
  0
VERTEX
  5
9E9
  8
DATA
  6
CONTINUOUS
 62
     7
 10
1945.728138386354
 20
54.385850214343691
 30
0.0
  0
VERTEX
  5
9EA
  8
DATA
  6
CONTINUOUS
 62
     7
 10
1945.732318407293
 20
54.393986321344521
 30
0.0
  0
VERTEX
  5
9EB
  8
DATA
  6
CONTINUOUS
 62
     7
 10
1945.7365096573651
 20
54.402071512065852
 30
0.0
  0
VERTEX
  5
9EC
  8
DATA
  6
CONTINUOUS
 62
     7
 10
1945.74071213657
 20
54.410105786507529
 30
0.0
  0
VERTEX
  5
9ED
  8
DATA
  6
CONTINUOUS
 62
     7
 10
1945.744925844908
 20
54.418089144669459
 30
0.0
  0
VERTEX
  5
9EE
  8
DATA
  6
CONTINUOUS
 62
     7
 10
1945.7491507823779
 20
54.426021586551883
 30
0.0
  0
VERTEX
  5
9EF
  8
DATA
  6
CONTINUOUS
 62
     7
 10
1945.753386948981
 20
54.433903112154653
 30
0.0
  0
VERTEX
  5
9F0
  8
DATA
  6
CONTINUOUS
 62
     7
 10
1945.7576407052379
 20
54.441752685406541
 30
0.0
  0
VERTEX
  5
9F1
  8
DATA
  6
CONTINUOUS
 62
     7
 10
1945.76191841167
 20
54.449589270236167
 30
0.0
  0
VERTEX
  5
9F2
  8
DATA
  6
CONTINUOUS
 62
     7
 10
1945.766220068276
 20
54.45741286664385
 30
0.0
  0
VERTEX
  5
9F3
  8
DATA
  6
CONTINUOUS
 62
     7
 10
1945.7705456750571
 20
54.46522347462917
 30
0.0
  0
VERTEX
  5
9F4
  8
DATA
  6
CONTINUOUS
 62
     7
 10
1945.774895232013
 20
54.473021094192397
 30
0.0
  0
VERTEX
  5
9F5
  8
DATA
  6
CONTINUOUS
 62
     7
 10
1945.7792687391441
 20
54.480805725333433
 30
0.0
  0
VERTEX
  5
9F6
  8
DATA
  6
CONTINUOUS
 62
     7
 10
1945.7836661964479
 20
54.488577368052233
 30
0.0
  0
VERTEX
  5
9F7
  8
DATA
  6
CONTINUOUS
 62
     7
 10
1945.7880876039289
 20
54.496336022348927
 30
0.0
  0
VERTEX
  5
9F8
  8
DATA
  6
CONTINUOUS
 62
     7
 10
1945.792532961583
 20
54.504081688223437
 30
0.0
  0
VERTEX
  5
9F9
  8
DATA
  6
CONTINUOUS
 62
     7
 10
1945.7970022694119
 20
54.511814365675718
 30
0.0
  0
VERTEX
  5
9FA
  8
DATA
  6
CONTINUOUS
 62
     7
 10
1945.8014955274159
 20
54.5195340547059
 30
0.0
  0
VERTEX
  5
9FB
  8
DATA
  6
CONTINUOUS
 62
     7
 10
1945.8060127355941
 20
54.527240755313862
 30
0.0
  0
VERTEX
  5
9FC
  8
DATA
  6
CONTINUOUS
 62
     7
 10
1945.8105538939481
 20
54.534934467499617
 30
0.0
  0
VERTEX
  5
9FD
  8
DATA
  6
CONTINUOUS
 62
     7
 10
1945.8151190024751
 20
54.542615191263287
 30
0.0
  0
VERTEX
  5
9FE
  8
DATA
  6
CONTINUOUS
 62
     7
 10
1945.8197080611781
 20
54.550282926604723
 30
0.0
  0
VERTEX
  5
9FF
  8
DATA
  6
CONTINUOUS
 62
     7
 10
1945.824321070055
 20
54.557937673524073
 30
0.0
  0
VERTEX
  5
A00
  8
DATA
  6
CONTINUOUS
 62
     7
 10
1945.8289580291071
 20
54.565579432021202
 30
0.0
  0
VERTEX
  5
A01
  8
DATA
  6
CONTINUOUS
 62
     7
 10
1945.833618938334
 20
54.573208202096112
 30
0.0
  0
VERTEX
  5
A02
  8
DATA
  6
CONTINUOUS
 62
     7
 10
1945.8383037977351
 20
54.580823983748942
 30
0.0
  0
VERTEX
  5
A03
  8
DATA
  6
CONTINUOUS
 62
     7
 10
1945.843012607311
 20
54.588426776979531
 30
0.0
  0
VERTEX
  5
A04
  8
DATA
  6
CONTINUOUS
 62
     7
 10
1945.8477453670621
 20
54.596016581787921
 30
0.0
  0
VERTEX
  5
A05
  8
DATA
  6
CONTINUOUS
 62
     7
 10
1945.8525020769871
 20
54.603593398174212
 30
0.0
  0
VERTEX
  5
A06
  8
DATA
  6
CONTINUOUS
 62
     7
 10
1945.8572827370881
 20
54.611157226138403
 30
0.0
  0
VERTEX
  5
A07
  8
DATA
  6
CONTINUOUS
 62
     7
 10
1945.8620873473619
 20
54.618708065680252
 30
0.0
  0
VERTEX
  5
A08
  8
DATA
  6
CONTINUOUS
 62
     7
 10
1945.866915907812
 20
54.62624591680003
 30
0.0
  0
VERTEX
  5
A09
  8
DATA
  6
CONTINUOUS
 62
     7
 10
1945.871768418436
 20
54.633770779497581
 30
0.0
  0
VERTEX
  5
A0A
  8
DATA
  6
CONTINUOUS
 62
     7
 10
1945.8766448792339
 20
54.641282653772933
 30
0.0
  0
VERTEX
  5
A0B
  8
DATA
  6
CONTINUOUS
 62
     7
 10
1945.881545290209
 20
54.648781539626043
 30
0.0
  0
VERTEX
  5
A0C
  8
DATA
  6
CONTINUOUS
 62
     7
 10
1945.8864696513569
 20
54.656267437057068
 30
0.0
  0
VERTEX
  5
A0D
  8
DATA
  6
CONTINUOUS
 62
     7
 10
1945.891417962679
 20
54.663740346065879
 30
0.0
  0
VERTEX
  5
A0E
  8
DATA
  6
CONTINUOUS
 62
     7
 10
1945.896390224176
 20
54.67120026665259
 30
0.0
  0
VERTEX
  5
A0F
  8
DATA
  6
CONTINUOUS
 62
     7
 10
1945.901386435849
 20
54.678647198817202
 30
0.0
  0
VERTEX
  5
A10
  8
DATA
  6
CONTINUOUS
 62
     7
 10
1945.9064065976961
 20
54.686081142559601
 30
0.0
  0
VERTEX
  5
A11
  8
DATA
  6
CONTINUOUS
 62
     7
 10
1945.911450709717
 20
54.693502097879779
 30
0.0
  0
VERTEX
  5
A12
  8
DATA
  6
CONTINUOUS
 62
     7
 10
1945.9165187719141
 20
54.700910064777759
 30
0.0
  0
VERTEX
  5
A13
  8
DATA
  6
CONTINUOUS
 62
     7
 10
1945.9216107842849
 20
54.708305043253517
 30
0.0
  0
VERTEX
  5
A14
  8
DATA
  6
CONTINUOUS
 62
     7
 10
1945.926726746831
 20
54.715687033307177
 30
0.0
  0
VERTEX
  5
A15
  8
DATA
  6
CONTINUOUS
 62
     7
 10
1945.9318666595509
 20
54.723056034938622
 30
0.0
  0
VERTEX
  5
A16
  8
DATA
  6
CONTINUOUS
 62
     7
 10
1945.9370305224461
 20
54.730412048147961
 30
0.0
  0
VERTEX
  5
A17
  8
DATA
  6
CONTINUOUS
 62
     7
 10
1945.9422183355159
 20
54.737755072935101
 30
0.0
  0
VERTEX
  5
A18
  8
DATA
  6
CONTINUOUS
 62
     7
 10
1945.9474300987599
 20
54.745085109300021
 30
0.0
  0
VERTEX
  5
A19
  8
DATA
  6
CONTINUOUS
 62
     7
 10
1945.9526658121799
 20
54.752402157242841
 30
0.0
  0
VERTEX
  5
A1A
  8
DATA
  6
CONTINUOUS
 62
     7
 10
1945.9579254757739
 20
54.759706216763448
 30
0.0
  0
VERTEX
  5
A1B
  8
DATA
  6
CONTINUOUS
 62
     7
 10
1945.963209089542
 20
54.766997287861948
 30
0.0
  0
VERTEX
  5
A1C
  8
DATA
  6
CONTINUOUS
 62
     7
 10
1945.968516653485
 20
54.774275370538248
 30
0.0
  0
VERTEX
  5
A1D
  8
DATA
  6
CONTINUOUS
 62
     7
 10
1945.973848167604
 20
54.781540464792322
 30
0.0
  0
VERTEX
  5
A1E
  8
DATA
  6
CONTINUOUS
 62
     7
 10
1945.9792036318961
 20
54.78879257062431
 30
0.0
  0
VERTEX
  5
A1F
  8
DATA
  6
CONTINUOUS
 62
     7
 10
1945.984583046363
 20
54.79603168803397
 30
0.0
  0
VERTEX
  5
A20
  8
DATA
  6
CONTINUOUS
 62
     7
 10
1945.9899864110041
 20
54.803257817021638
 30
0.0
  0
VERTEX
  5
A21
  8
DATA
  6
CONTINUOUS
 62
     7
 10
1945.995413725821
 20
54.810470957586972
 30
0.0
  0
VERTEX
  5
A22
  8
DATA
  6
CONTINUOUS
 62
     7
 10
1946.0008649908129
 20
54.817671109730213
 30
0.0
  0
VERTEX
  5
A23
  8
DATA
  6
CONTINUOUS
 62
     7
 10
1946.0063402059791
 20
54.824858273451241
 30
0.0
  0
VERTEX
  5
A24
  8
DATA
  6
CONTINUOUS
 62
     7
 10
1946.0118393713201
 20
54.832032448750063
 30
0.0
  0
VERTEX
  5
A25
  8
DATA
  6
CONTINUOUS
 62
     7
 10
1946.017362486836
 20
54.839193635626771
 30
0.0
  0
VERTEX
  5
A26
  8
DATA
  6
CONTINUOUS
 62
     7
 10
1946.022909552526
 20
54.846341834081393
 30
0.0
  0
VERTEX
  5
A27
  8
DATA
  6
CONTINUOUS
 62
     7
 10
1946.02848056839
 20
54.853477044113781
 30
0.0
  0
VERTEX
  5
A28
  8
DATA
  6
CONTINUOUS
 62
     7
 10
1946.03407553443
 20
54.86059926572397
 30
0.0
  0
VERTEX
  5
A29
  8
DATA
  6
CONTINUOUS
 62
     7
 10
1946.039694450644
 20
54.867708498911952
 30
0.0
  0
VERTEX
  5
A2A
  8
DATA
  6
CONTINUOUS
 62
     7
 10
1946.0453373170319
 20
54.874804743677821
 30
0.0
  0
VERTEX
  5
A2B
  8
DATA
  6
CONTINUOUS
 62
     7
 10
1946.0510041335961
 20
54.88188800002149
 30
0.0
  0
VERTEX
  5
A2C
  8
DATA
  6
CONTINUOUS
 62
     7
 10
1946.0566949003339
 20
54.888958267943053
 30
0.0
  0
VERTEX
  5
A2D
  8
DATA
  6
CONTINUOUS
 62
     7
 10
1946.062409617248
 20
54.896015547442289
 30
0.0
  0
VERTEX
  5
A2E
  8
DATA
  6
CONTINUOUS
 62
     7
 10
1946.0681482843349
 20
54.903059838519432
 30
0.0
  0
VERTEX
  5
A2F
  8
DATA
  6
CONTINUOUS
 62
     7
 10
1946.0739109015969
 20
54.910091141174462
 30
0.0
  0
VERTEX
  5
A30
  8
DATA
  6
CONTINUOUS
 62
     7
 10
1946.0796952652649
 20
54.9171061772945
 30
0.0
  0
VERTEX
  5
A31
  8
DATA
  6
CONTINUOUS
 62
     7
 10
1946.085499171571
 20
54.924101668766518
 30
0.0
  0
VERTEX
  5
A32
  8
DATA
  6
CONTINUOUS
 62
     7
 10
1946.0913226205139
 20
54.93107761559088
 30
0.0
  0
VERTEX
  5
A33
  8
DATA
  6
CONTINUOUS
 62
     7
 10
1946.0971656120939
 20
54.938034017767222
 30
0.0
  0
VERTEX
  5
A34
  8
DATA
  6
CONTINUOUS
 62
     7
 10
1946.103028146312
 20
54.94497087529566
 30
0.0
  0
VERTEX
  5
A35
  8
DATA
  6
CONTINUOUS
 62
     7
 10
1946.1089102231681
 20
54.95188818817644
 30
0.0
  0
VERTEX
  5
A36
  8
DATA
  6
CONTINUOUS
 62
     7
 10
1946.1148118426611
 20
54.958785956409201
 30
0.0
  0
VERTEX
  5
A37
  8
DATA
  6
CONTINUOUS
 62
     7
 10
1946.120733004791
 20
54.965664179994278
 30
0.0
  0
VERTEX
  5
A38
  8
DATA
  6
CONTINUOUS
 62
     7
 10
1946.1266737095571
 20
54.972522858931491
 30
0.0
  0
VERTEX
  5
A39
  8
DATA
  6
CONTINUOUS
 62
     7
 10
1946.132633956963
 20
54.97936199322065
 30
0.0
  0
VERTEX
  5
A3A
  8
DATA
  6
CONTINUOUS
 62
     7
 10
1946.138613747004
 20
54.986181582862159
 30
0.0
  0
VERTEX
  5
A3B
  8
DATA
  6
CONTINUOUS
 62
     7
 10
1946.1446130796839
 20
54.992981627855777
 30
0.0
  0
VERTEX
  5
A3C
  8
DATA
  6
CONTINUOUS
 62
     7
 10
1946.150631955001
 20
54.99976212820161
 30
0.0
  0
VERTEX
  5
A3D
  8
DATA
  6
CONTINUOUS
 62
     7
 10
1946.156670372955
 20
55.006523083899417
 30
0.0
  0
VERTEX
  5
A3E
  8
DATA
  6
CONTINUOUS
 62
     7
 10
1946.162728333547
 20
55.01326449494934
 30
0.0
  0
VERTEX
  5
A3F
  8
DATA
  6
CONTINUOUS
 62
     7
 10
1946.1688058367761
 20
55.019986361351471
 30
0.0
  0
VERTEX
  5
A40
  8
DATA
  6
CONTINUOUS
 62
     7
 10
1946.1749028826421
 20
55.026688683105711
 30
0.0
  0
VERTEX
  5
A41
  8
DATA
  6
CONTINUOUS
 62
     7
 10
1946.181019471145
 20
55.033371460212138
 30
0.0
  0
VERTEX
  5
A42
  8
DATA
  6
CONTINUOUS
 62
     7
 10
1946.1871556022861
 20
55.040034692670822
 30
0.0
  0
VERTEX
  5
A43
  8
DATA
  6
CONTINUOUS
 62
     7
 10
1946.1933112760651
 20
55.046678380481453
 30
0.0
  0
VERTEX
  5
A44
  8
DATA
  6
CONTINUOUS
 62
     7
 10
1946.1994864924809
 20
55.053302523644341
 30
0.0
  0
VERTEX
  5
A45
  8
DATA
  6
CONTINUOUS
 62
     7
 10
1946.2056812515341
 20
55.059907122159302
 30
0.0
  0
VERTEX
  5
A46
  8
DATA
  6
CONTINUOUS
 62
     7
 10
1946.2118955532251
 20
55.0664921760266
 30
0.0
  0
VERTEX
  5
A47
  8
DATA
  6
CONTINUOUS
 62
     7
 10
1946.218129397553
 20
55.073057685245892
 30
0.0
  0
VERTEX
  5
A48
  8
DATA
  6
CONTINUOUS
 62
     7
 10
1946.224382784518
 20
55.079603649817273
 30
0.0
  0
VERTEX
  5
A49
  8
DATA
  6
CONTINUOUS
 62
     7
 10
1946.230655714121
 20
55.086130069740982
 30
0.0
  0
VERTEX
  5
A4A
  8
DATA
  6
CONTINUOUS
 62
     7
 10
1946.2369481863609
 20
55.092636945016693
 30
0.0
  0
VERTEX
  5
A4B
  8
DATA
  6
CONTINUOUS
 62
     7
 10
1946.2432602012391
 20
55.099124275644719
 30
0.0
  0
VERTEX
  5
A4C
  8
DATA
  6
CONTINUOUS
 62
     7
 10
1946.249591758753
 20
55.105592061624861
 30
0.0
  0
VERTEX
  5
A4D
  8
DATA
  6
CONTINUOUS
 62
     7
 10
1946.255942858907
 20
55.11204030295697
 30
0.0
  0
VERTEX
  5
A4E
  8
DATA
  6
CONTINUOUS
 62
     7
 10
1946.2623135016961
 20
55.118468999641443
 30
0.0
  0
VERTEX
  5
A4F
  8
DATA
  6
CONTINUOUS
 62
     7
 10
1946.268703687123
 20
55.124878151677883
 30
0.0
  0
VERTEX
  5
A50
  8
DATA
  6
CONTINUOUS
 62
     7
 10
1946.2751134151879
 20
55.131267759066532
 30
0.0
  0
VERTEX
  5
A51
  8
DATA
  6
CONTINUOUS
 62
     7
 10
1946.281542685889
 20
55.137637821807289
 30
0.0
  0
VERTEX
  5
A52
  8
DATA
  6
CONTINUOUS
 62
     7
 10
1946.2879914992291
 20
55.143988339900247
 30
0.0
  0
VERTEX
  5
A53
  8
DATA
  6
CONTINUOUS
 62
     7
 10
1946.2944598552051
 20
55.150319313345349
 30
0.0
  0
VERTEX
  5
A54
  8
DATA
  6
CONTINUOUS
 62
     7
 10
1946.3009477538201
 20
55.156630742142632
 30
0.0
  0
VERTEX
  5
A55
  8
DATA
  6
CONTINUOUS
 62
     7
 10
1946.307455195071
 20
55.162922626291888
 30
0.0
  0
VERTEX
  5
A56
  8
DATA
  6
CONTINUOUS
 62
     7
 10
1946.3139821789589
 20
55.169194965793402
 30
0.0
  0
VERTEX
  5
A57
  8
DATA
  6
CONTINUOUS
 62
     7
 10
1946.320528705485
 20
55.175447760647103
 30
0.0
  0
VERTEX
  5
A58
  8
DATA
  6
CONTINUOUS
 62
     7
 10
1946.327094774648
 20
55.181681010853033
 30
0.0
  0
VERTEX
  5
A59
  8
DATA
  6
CONTINUOUS
 62
     7
 10
1946.3336803864499
 20
55.187894716410952
 30
0.0
  0
VERTEX
  5
A5A
  8
DATA
  6
CONTINUOUS
 62
     7
 10
1946.3402855408881
 20
55.194088877321057
 30
0.0
  0
VERTEX
  5
A5B
  8
DATA
  6
CONTINUOUS
 62
     7
 10
1946.346910237964
 20
55.200263493583179
 30
0.0
  0
VERTEX
  5
A5C
  8
DATA
  6
CONTINUOUS
 62
     7
 10
1946.3535544776771
 20
55.206418565197509
 30
0.0
  0
VERTEX
  5
A5D
  8
DATA
  6
CONTINUOUS
 62
     7
 10
1946.3602182600271
 20
55.212554092164062
 30
0.0
  0
VERTEX
  5
A5E
  8
DATA
  6
CONTINUOUS
 62
     7
 10
1946.3669015850151
 20
55.218670074482823
 30
0.0
  0
VERTEX
  5
A5F
  8
DATA
  6
CONTINUOUS
 62
     7
 10
1946.3736044526399
 20
55.224766512153678
 30
0.0
  0
VERTEX
  5
A60
  8
DATA
  6
CONTINUOUS
 62
     7
 10
1946.3803268629019
 20
55.230843405176643
 30
0.0
  0
VERTEX
  5
A61
  8
DATA
  6
CONTINUOUS
 62
     7
 10
1946.3870688158031
 20
55.236900753551808
 30
0.0
  0
VERTEX
  5
A62
  8
DATA
  6
CONTINUOUS
 62
     7
 10
1946.39383031134
 20
55.242938557279103
 30
0.0
  0
VERTEX
  5
A63
  8
DATA
  6
CONTINUOUS
 62
     7
 10
1946.4006113495141
 20
55.248956816358493
 30
0.0
  0
VERTEX
  5
A64
  8
DATA
  6
CONTINUOUS
 62
     7
 10
1946.4074119303259
 20
55.254955530790092
 30
0.0
  0
VERTEX
  5
A65
  8
DATA
  6
CONTINUOUS
 62
     7
 10
1946.414232053776
 20
55.260934700573671
 30
0.0
  0
VERTEX
  5
A66
  8
DATA
  6
CONTINUOUS
 62
     7
 10
1946.421071719863
 20
55.266894325709472
 30
0.0
  0
VERTEX
  5
A67
  8
DATA
  6
CONTINUOUS
 62
     7
 10
1946.4279309285871
 20
55.272834406197489
 30
0.0
  0
VERTEX
  5
A68
  8
DATA
  6
CONTINUOUS
 62
     7
 10
1946.434809679949
 20
55.278754942037708
 30
0.0
  0
VERTEX
  5
A69
  8
DATA
  6
CONTINUOUS
 62
     7
 10
1946.441707973948
 20
55.284655933229942
 30
0.0
  0
VERTEX
  5
A6A
  8
DATA
  6
CONTINUOUS
 62
     7
 10
1946.448625810584
 20
55.290537379774378
 30
0.0
  0
VERTEX
  5
A6B
  8
DATA
  6
CONTINUOUS
 62
     7
 10
1946.455563189857
 20
55.296399281671029
 30
0.0
  0
VERTEX
  5
A6C
  8
DATA
  6
CONTINUOUS
 62
     7
 10
1946.462520111769
 20
55.302241638919782
 30
0.0
  0
VERTEX
  5
A6D
  8
DATA
  6
CONTINUOUS
 62
     7
 10
1946.4694965763169
 20
55.308064451520643
 30
0.0
  0
VERTEX
  5
A6E
  8
DATA
  6
CONTINUOUS
 62
     7
 10
1946.4764925835029
 20
55.313867719473713
 30
0.0
  0
VERTEX
  5
A6F
  8
DATA
  6
CONTINUOUS
 62
     7
 10
1946.483508133326
 20
55.319651442778877
 30
0.0
  0
VERTEX
  5
A70
  8
DATA
  6
CONTINUOUS
 62
     7
 10
1946.4905399475319
 20
55.325413419183292
 30
0.0
  0
VERTEX
  5
A71
  8
DATA
  6
CONTINUOUS
 62
     7
 10
1946.497584747862
 20
55.331151446433971
 30
0.0
  0
VERTEX
  5
A72
  8
DATA
  6
CONTINUOUS
 62
     7
 10
1946.5046425343189
 20
55.336865524530822
 30
0.0
  0
VERTEX
  5
A73
  8
DATA
  6
CONTINUOUS
 62
     7
 10
1946.511713306902
 20
55.342555653473823
 30
0.0
  0
VERTEX
  5
A74
  8
DATA
  6
CONTINUOUS
 62
     7
 10
1946.518797065612
 20
55.348221833263104
 30
0.0
  0
VERTEX
  5
A75
  8
DATA
  6
CONTINUOUS
 62
     7
 10
1946.525893810446
 20
55.353864063898747
 30
0.0
  0
VERTEX
  5
A76
  8
DATA
  6
CONTINUOUS
 62
     7
 10
1946.5330035414081
 20
55.35948234538057
 30
0.0
  0
VERTEX
  5
A77
  8
DATA
  6
CONTINUOUS
 62
     7
 10
1946.5401262584951
 20
55.365076677708657
 30
0.0
  0
VERTEX
  5
A78
  8
DATA
  6
CONTINUOUS
 62
     7
 10
1946.547261961708
 20
55.370647060882902
 30
0.0
  0
VERTEX
  5
A79
  8
DATA
  6
CONTINUOUS
 62
     7
 10
1946.554410651047
 20
55.376193494903411
 30
0.0
  0
VERTEX
  5
A7A
  8
DATA
  6
CONTINUOUS
 62
     7
 10
1946.561572326513
 20
55.381715979770213
 30
0.0
  0
VERTEX
  5
A7B
  8
DATA
  6
CONTINUOUS
 62
     7
 10
1946.5687469881041
 20
55.387214515483272
 30
0.0
  0
VERTEX
  5
A7C
  8
DATA
  6
CONTINUOUS
 62
     7
 10
1946.5759346358211
 20
55.392689102042603
 30
0.0
  0
VERTEX
  5
A7D
  8
DATA
  6
CONTINUOUS
 62
     7
 10
1946.583135269665
 20
55.398139739448077
 30
0.0
  0
VERTEX
  5
A7E
  8
DATA
  6
CONTINUOUS
 62
     7
 10
1946.590348889634
 20
55.403566427699843
 30
0.0
  0
VERTEX
  5
A7F
  8
DATA
  6
CONTINUOUS
 62
     7
 10
1946.597575495729
 20
55.408969166797867
 30
0.0
  0
VERTEX
  5
A80
  8
DATA
  6
CONTINUOUS
 62
     7
 10
1946.604815087951
 20
55.414347956742183
 30
0.0
  0
VERTEX
  5
A81
  8
DATA
  6
CONTINUOUS
 62
     7
 10
1946.612067666299
 20
55.419702797532651
 30
0.0
  0
VERTEX
  5
A82
  8
DATA
  6
CONTINUOUS
 62
     7
 10
1946.619333230773
 20
55.425033689169361
 30
0.0
  0
VERTEX
  5
A83
  8
DATA
  6
CONTINUOUS
 62
     7
 10
1946.626611781372
 20
55.430340631652371
 30
0.0
  0
VERTEX
  5
A84
  8
DATA
  6
CONTINUOUS
 62
     7
 10
1946.633903318098
 20
55.435623624981652
 30
0.0
  0
VERTEX
  5
A85
  8
DATA
  6
CONTINUOUS
 62
     7
 10
1946.6412078409489
 20
55.44088266915707
 30
0.0
  0
VERTEX
  5
A86
  8
DATA
  6
CONTINUOUS
 62
     7
 10
1946.6485253499279
 20
55.44611776417878
 30
0.0
  0
VERTEX
  5
A87
  8
DATA
  6
CONTINUOUS
 62
     7
 10
1946.6558558450311
 20
55.451328910046641
 30
0.0
  0
VERTEX
  5
A88
  8
DATA
  6
CONTINUOUS
 62
     7
 10
1946.6631993262611
 20
55.456516106760773
 30
0.0
  0
VERTEX
  5
A89
  8
DATA
  6
CONTINUOUS
 62
     7
 10
1946.670555793617
 20
55.461679354321177
 30
0.0
  0
VERTEX
  5
A8A
  8
DATA
  6
CONTINUOUS
 62
     7
 10
1946.677925247099
 20
55.466818652727852
 30
0.0
  0
VERTEX
  5
A8B
  8
DATA
  6
CONTINUOUS
 62
     7
 10
1946.6853076867069
 20
55.471934001980799
 30
0.0
  0
VERTEX
  5
A8C
  8
DATA
  6
CONTINUOUS
 62
     7
 10
1946.692703112441
 20
55.477025402080017
 30
0.0
  0
VERTEX
  5
A8D
  8
DATA
  6
CONTINUOUS
 62
     7
 10
1946.7001115243011
 20
55.482092853025378
 30
0.0
  0
VERTEX
  5
A8E
  8
DATA
  6
CONTINUOUS
 62
     7
 10
1946.7075329222871
 20
55.487136354817032
 30
0.0
  0
VERTEX
  5
A8F
  8
DATA
  6
CONTINUOUS
 62
     7
 10
1946.7149673064
 20
55.492155907454851
 30
0.0
  0
VERTEX
  5
A90
  8
DATA
  6
CONTINUOUS
 62
     7
 10
1946.722414676638
 20
55.49715151093892
 30
0.0
  0
VERTEX
  5
A91
  8
DATA
  6
CONTINUOUS
 62
     7
 10
1946.729875033001
 20
55.502123165269268
 30
0.0
  0
VERTEX
  5
A92
  8
DATA
  6
CONTINUOUS
 62
     7
 10
1946.737348375492
 20
55.507070870445887
 30
0.0
  0
VERTEX
  5
A93
  8
DATA
  6
CONTINUOUS
 62
     7
 10
1946.7448347041091
 20
55.511994626468777
 30
0.0
  0
VERTEX
  5
A94
  8
DATA
  6
CONTINUOUS
 62
     7
 10
1946.7523340188509
 20
55.516894433337939
 30
0.0
  0
VERTEX
  5
A95
  8
DATA
  6
CONTINUOUS
 62
     7
 10
1946.7598463197189
 20
55.521770291053258
 30
0.0
  0
VERTEX
  5
A96
  8
DATA
  6
CONTINUOUS
 62
     7
 10
1946.7673716067129
 20
55.526622199614849
 30
0.0
  0
VERTEX
  5
A97
  8
DATA
  6
CONTINUOUS
 62
     7
 10
1946.774909879834
 20
55.53145015902259
 30
0.0
  0
VERTEX
  5
A98
  8
DATA
  6
CONTINUOUS
 62
     7
 10
1946.7824611390799
 20
55.536254169276617
 30
0.0
  0
VERTEX
  5
A99
  8
DATA
  6
CONTINUOUS
 62
     7
 10
1946.790025384453
 20
55.541034230376901
 30
0.0
  0
VERTEX
  5
A9A
  8
DATA
  6
CONTINUOUS
 62
     7
 10
1946.7976026159511
 20
55.545790342323471
 30
0.0
  0
VERTEX
  5
A9B
  8
DATA
  6
CONTINUOUS
 62
     7
 10
1946.805192833576
 20
55.550522505116312
 30
0.0
  0
VERTEX
  5
A9C
  8
DATA
  6
CONTINUOUS
 62
     7
 10
1946.812796037327
 20
55.555230718755411
 30
0.0
  0
VERTEX
  5
A9D
  8
DATA
  6
CONTINUOUS
 62
     7
 10
1946.8204122272041
 20
55.559914983240667
 30
0.0
  0
VERTEX
  5
A9E
  8
DATA
  6
CONTINUOUS
 62
     7
 10
1946.828041403206
 20
55.564575298572208
 30
0.0
  0
VERTEX
  5
A9F
  8
DATA
  6
CONTINUOUS
 62
     7
 10
1946.8356835653351
 20
55.569211664749901
 30
0.0
  0
VERTEX
  5
AA0
  8
DATA
  6
CONTINUOUS
 62
     7
 10
1946.843338713589
 20
55.573824081773857
 30
0.0
  0
VERTEX
  5
AA1
  8
DATA
  6
CONTINUOUS
 62
     7
 10
1946.85100684797
 20
55.578412549644099
 30
0.0
  0
VERTEX
  5
AA2
  8
DATA
  6
CONTINUOUS
 62
     7
 10
1946.8586879684769
 20
55.582977068360613
 30
0.0
  0
VERTEX
  5
AA3
  8
DATA
  6
CONTINUOUS
 62
     7
 10
1946.866382075111
 20
55.587517637923384
 30
0.0
  0
VERTEX
  5
AA4
  8
DATA
  6
CONTINUOUS
 62
     7
 10
1946.874089167869
 20
55.592034258332433
 30
0.0
  0
VERTEX
  5
AA5
  8
DATA
  6
CONTINUOUS
 62
     7
 10
1946.881809246755
 20
55.596526929587633
 30
0.0
  0
VERTEX
  5
AA6
  8
DATA
  6
CONTINUOUS
 62
     7
 10
1946.8895423117649
 20
55.600995651689111
 30
0.0
  0
VERTEX
  5
AA7
  8
DATA
  6
CONTINUOUS
 62
     7
 10
1946.8972883629019
 20
55.605440424636747
 30
0.0
  0
VERTEX
  5
AA8
  8
DATA
  6
CONTINUOUS
 62
     7
 10
1946.9050474001649
 20
55.609861248430647
 30
0.0
  0
VERTEX
  5
AA9
  8
DATA
  6
CONTINUOUS
 62
     7
 10
1946.9128194235541
 20
55.61425812307084
 30
0.0
  0
VERTEX
  5
AAA
  8
DATA
  6
CONTINUOUS
 62
     7
 10
1946.920604433069
 20
55.61863104855729
 30
0.0
  0
VERTEX
  5
AAB
  8
DATA
  6
CONTINUOUS
 62
     7
 10
1946.928402428711
 20
55.622980024890012
 30
0.0
  0
VERTEX
  5
AAC
  8
DATA
  6
CONTINUOUS
 62
     7
 10
1946.9362134104781
 20
55.627305052068998
 30
0.0
  0
VERTEX
  5
AAD
  8
DATA
  6
CONTINUOUS
 62
     7
 10
1946.9440373783721
 20
55.631606130094148
 30
0.0
  0
VERTEX
  5
AAE
  8
DATA
  6
CONTINUOUS
 62
     7
 10
1946.9518743323911
 20
55.635883258965571
 30
0.0
  0
VERTEX
  5
AAF
  8
DATA
  6
CONTINUOUS
 62
     7
 10
1946.9597242725361
 20
55.640136438683157
 30
0.0
  0
VERTEX
  5
AB0
  8
DATA
  6
CONTINUOUS
 62
     7
 10
1946.967606271603
 20
55.644372042599791
 30
0.0
  0
VERTEX
  5
AB1
  8
DATA
  6
CONTINUOUS
 62
     7
 10
1946.975539402385
 20
55.648596444068517
 30
0.0
  0
VERTEX
  5
AB2
  8
DATA
  6
CONTINUOUS
 62
     7
 10
1946.9835236648851
 20
55.652809643088972
 30
0.0
  0
VERTEX
  5
AB3
  8
DATA
  6
CONTINUOUS
 62
     7
 10
1946.9915590590999
 20
55.657011639661391
 30
0.0
  0
VERTEX
  5
AB4
  8
DATA
  6
CONTINUOUS
 62
     7
 10
1946.999645585031
 20
55.661202433785661
 30
0.0
  0
VERTEX
  5
AB5
  8
DATA
  6
CONTINUOUS
 62
     7
 10
1947.0077832426789
 20
55.665382025461902
 30
0.0
  0
VERTEX
  5
AB6
  8
DATA
  6
CONTINUOUS
 62
     7
 10
1947.0159720320421
 20
55.669550414689859
 30
0.0
  0
VERTEX
  5
AB7
  8
DATA
  6
CONTINUOUS
 62
     7
 10
1947.0242119531231
 20
55.673707601469907
 30
0.0
  0
VERTEX
  5
AB8
  8
DATA
  6
CONTINUOUS
 62
     7
 10
1947.0325030059189
 20
55.677853585801813
 30
0.0
  0
VERTEX
  5
AB9
  8
DATA
  6
CONTINUOUS
 62
     7
 10
1947.0408451904309
 20
55.681988367685562
 30
0.0
  0
VERTEX
  5
ABA
  8
DATA
  6
CONTINUOUS
 62
     7
 10
1947.04923850666
 20
55.686111947121148
 30
0.0
  0
VERTEX
  5
ABB
  8
DATA
  6
CONTINUOUS
 62
     7
 10
1947.0576829546051
 20
55.69022432410884
 30
0.0
  0
VERTEX
  5
ABC
  8
DATA
  6
CONTINUOUS
 62
     7
 10
1947.0661785342661
 20
55.694325498648261
 30
0.0
  0
VERTEX
  5
ABD
  8
DATA
  6
CONTINUOUS
 62
     7
 10
1947.074725245644
 20
55.698415470739519
 30
0.0
  0
VERTEX
  5
ABE
  8
DATA
  6
CONTINUOUS
 62
     7
 10
1947.083323088737
 20
55.702494240382741
 30
0.0
  0
VERTEX
  5
ABF
  8
DATA
  6
CONTINUOUS
 62
     7
 10
1947.0919720635479
 20
55.706561807577941
 30
0.0
  0
VERTEX
  5
AC0
  8
DATA
  6
CONTINUOUS
 62
     7
 10
1947.100672170073
 20
55.71061817232497
 30
0.0
  0
VERTEX
  5
AC1
  8
DATA
  6
CONTINUOUS
 62
     7
 10
1947.1094234083171
 20
55.714663334623879
 30
0.0
  0
VERTEX
  5
AC2
  8
DATA
  6
CONTINUOUS
 62
     7
 10
1947.118225778275
 20
55.718697294474623
 30
0.0
  0
VERTEX
  5
AC3
  8
DATA
  6
CONTINUOUS
 62
     7
 10
1947.1270792799489
 20
55.722720051877317
 30
0.0
  0
VERTEX
  5
AC4
  8
DATA
  6
CONTINUOUS
 62
     7
 10
1947.1359839133411
 20
55.726731606831891
 30
0.0
  0
VERTEX
  5
AC5
  8
DATA
  6
CONTINUOUS
 62
     7
 10
1947.1449396784481
 20
55.730731959338428
 30
0.0
  0
VERTEX
  5
AC6
  8
DATA
  6
CONTINUOUS
 62
     7
 10
1947.1539465752719
 20
55.734721109396787
 30
0.0
  0
VERTEX
  5
AC7
  8
DATA
  6
CONTINUOUS
 62
     7
 10
1947.1630046038119
 20
55.738699057007132
 30
0.0
  0
VERTEX
  5
AC8
  8
DATA
  6
CONTINUOUS
 62
     7
 10
1947.172113764067
 20
55.742665802169313
 30
0.0
  0
VERTEX
  5
AC9
  8
DATA
  6
CONTINUOUS
 62
     7
 10
1947.1812740560399
 20
55.746621344883359
 30
0.0
  0
VERTEX
  5
ACA
  8
DATA
  6
CONTINUOUS
 62
     7
 10
1947.1904854797281
 20
55.750565685149347
 30
0.0
  0
VERTEX
  5
ACB
  8
DATA
  6
CONTINUOUS
 62
     7
 10
1947.1997480351331
 20
55.754498822967207
 30
0.0
  0
VERTEX
  5
ACC
  8
DATA
  6
CONTINUOUS
 62
     7
 10
1947.209061722253
 20
55.758420758337017
 30
0.0
  0
VERTEX
  5
ACD
  8
DATA
  6
CONTINUOUS
 62
     7
 10
1947.2184265410899
 20
55.762331491258571
 30
0.0
  0
VERTEX
  5
ACE
  8
DATA
  6
CONTINUOUS
 62
     7
 10
1947.227842491644
 20
55.766231021732203
 30
0.0
  0
VERTEX
  5
ACF
  8
DATA
  6
CONTINUOUS
 62
     7
 10
1947.237309573914
 20
55.770119349757572
 30
0.0
  0
VERTEX
  5
AD0
  8
DATA
  6
CONTINUOUS
 62
     7
 10
1947.2468277879
 20
55.773996475334897
 30
0.0
  0
VERTEX
  5
AD1
  8
DATA
  6
CONTINUOUS
 62
     7
 10
1947.256397133601
 20
55.777862398464087
 30
0.0
  0
VERTEX
  5
AD2
  8
DATA
  6
CONTINUOUS
 62
     7
 10
1947.2660176110201
 20
55.781717119145242
 30
0.0
  0
VERTEX
  5
AD3
  8
DATA
  6
CONTINUOUS
 62
     7
 10
1947.2756892201539
 20
55.785560637378353
 30
0.0
  0
VERTEX
  5
AD4
  8
DATA
  6
CONTINUOUS
 62
     7
 10
1947.285411961004
 20
55.789392953163322
 30
0.0
  0
VERTEX
  5
AD5
  8
DATA
  6
CONTINUOUS
 62
     7
 10
1947.2951858335721
 20
55.793214066500127
 30
0.0
  0
VERTEX
  5
AD6
  8
DATA
  6
CONTINUOUS
 62
     7
 10
1947.305010837855
 20
55.79702397738879
 30
0.0
  0
VERTEX
  5
AD7
  8
DATA
  6
CONTINUOUS
 62
     7
 10
1947.3148869738541
 20
55.800822685829417
 30
0.0
  0
VERTEX
  5
AD8
  8
DATA
  6
CONTINUOUS
 62
     7
 10
1947.32481424157
 20
55.80461019182188
 30
0.0
  0
VERTEX
  5
AD9
  8
DATA
  6
CONTINUOUS
 62
     7
 10
1947.334792641002
 20
55.808386495366342
 30
0.0
  0
VERTEX
  5
ADA
  8
DATA
  6
CONTINUOUS
 62
     7
 10
1947.3448221721501
 20
55.812151596462627
 30
0.0
  0
VERTEX
  5
ADB
  8
DATA
  6
CONTINUOUS
 62
     7
 10
1947.3549028350139
 20
55.815905495110762
 30
0.0
  0
VERTEX
  5
ADC
  8
DATA
  6
CONTINUOUS
 62
     7
 10
1947.3650346295949
 20
55.819648191310762
 30
0.0
  0
VERTEX
  5
ADD
  8
DATA
  6
CONTINUOUS
 62
     7
 10
1947.375217555892
 20
55.823379685062733
 30
0.0
  0
VERTEX
  5
ADE
  8
DATA
  6
CONTINUOUS
 62
     7
 10
1947.3854516139049
 20
55.827099976366647
 30
0.0
  0
VERTEX
  5
ADF
  8
DATA
  6
CONTINUOUS
 62
     7
 10
1947.3957368036349
 20
55.830809065222411
 30
0.0
  0
VERTEX
  5
AE0
  8
DATA
  6
CONTINUOUS
 62
     7
 10
1947.40607312508
 20
55.834506951630033
 30
0.0
  0
VERTEX
  5
AE1
  8
DATA
  6
CONTINUOUS
 62
     7
 10
1947.416460578241
 20
55.838193635589512
 30
0.0
  0
VERTEX
  5
AE2
  8
DATA
  6
CONTINUOUS
 62
     7
 10
1947.42689916312
 20
55.841869117100927
 30
0.0
  0
VERTEX
  5
AE3
  8
DATA
  6
CONTINUOUS
 62
     7
 10
1947.4373888797129
 20
55.845533396164342
 30
0.0
  0
VERTEX
  5
AE4
  8
DATA
  6
CONTINUOUS
 62
     7
 10
1947.4479297280241
 20
55.8491864727796
 30
0.0
  0
VERTEX
  5
AE5
  8
DATA
  6
CONTINUOUS
 62
     7
 10
1947.458521708051
 20
55.852828346946687
 30
0.0
  0
VERTEX
  5
AE6
  8
DATA
  6
CONTINUOUS
 62
     7
 10
1947.4691648197929
 20
55.856459018665639
 30
0.0
  0
VERTEX
  5
AE7
  8
DATA
  6
CONTINUOUS
 62
     7
 10
1947.4798590632529
 20
55.860078487936562
 30
0.0
  0
VERTEX
  5
AE8
  8
DATA
  6
CONTINUOUS
 62
     7
 10
1947.4906044384279
 20
55.863686754759328
 30
0.0
  0
VERTEX
  5
AE9
  8
DATA
  6
CONTINUOUS
 62
     7
 10
1947.50140094532
 20
55.867283819134059
 30
0.0
  0
VERTEX
  5
AEA
  8
DATA
  6
CONTINUOUS
 62
     7
 10
1947.512248583927
 20
55.870869681060633
 30
0.0
  0
VERTEX
  5
AEB
  8
DATA
  6
CONTINUOUS
 62
     7
 10
1947.523147354251
 20
55.874444340539178
 30
0.0
  0
VERTEX
  5
AEC
  8
DATA
  6
CONTINUOUS
 62
     7
 10
1947.5340972562919
 20
55.87800779756958
 30
0.0
  0
VERTEX
  5
AED
  8
DATA
  6
CONTINUOUS
 62
     7
 10
1947.5450982900479
 20
55.881560052151833
 30
0.0
  0
VERTEX
  5
AEE
  8
DATA
  6
CONTINUOUS
 62
     7
 10
1947.5561504555201
 20
55.885101104286043
 30
0.0
  0
VERTEX
  5
AEF
  8
DATA
  6
CONTINUOUS
 62
     7
 10
1947.5672537527089
 20
55.888630953972097
 30
0.0
  0
VERTEX
  5
AF0
  8
DATA
  6
CONTINUOUS
 62
     7
 10
1947.578409000288
 20
55.892127747774339
 30
0.0
  0
VERTEX
  5
AF1
  8
DATA
  6
CONTINUOUS
 62
     7
 10
1947.5896170169301
 20
55.895569632257093
 30
0.0
  0
VERTEX
  5
AF2
  8
DATA
  6
CONTINUOUS
 62
     7
 10
1947.600877802636
 20
55.898956607420359
 30
0.0
  0
VERTEX
  5
AF3
  8
DATA
  6
CONTINUOUS
 62
     7
 10
1947.612191357405
 20
55.902288673264131
 30
0.0
  0
VERTEX
  5
AF4
  8
DATA
  6
CONTINUOUS
 62
     7
 10
1947.6235576812369
 20
55.905565829788408
 30
0.0
  0
VERTEX
  5
AF5
  8
DATA
  6
CONTINUOUS
 62
     7
 10
1947.634976774134
 20
55.908788076993218
 30
0.0
  0
VERTEX
  5
AF6
  8
DATA
  6
CONTINUOUS
 62
     7
 10
1947.6464486360931
 20
55.911955414878548
 30
0.0
  0
VERTEX
  5
AF7
  8
DATA
  6
CONTINUOUS
 62
     7
 10
1947.6579732671159
 20
55.91506784344439
 30
0.0
  0
VERTEX
  5
AF8
  8
DATA
  6
CONTINUOUS
 62
     7
 10
1947.669550667202
 20
55.918125362690709
 30
0.0
  0
VERTEX
  5
AF9
  8
DATA
  6
CONTINUOUS
 62
     7
 10
1947.681180836352
 20
55.921127972617569
 30
0.0
  0
VERTEX
  5
AFA
  8
DATA
  6
CONTINUOUS
 62
     7
 10
1947.692863774565
 20
55.92407567322482
 30
0.0
  0
VERTEX
  5
AFB
  8
DATA
  6
CONTINUOUS
 62
     7
 10
1947.7045994818409
 20
55.926968464512697
 30
0.0
  0
VERTEX
  5
AFC
  8
DATA
  6
CONTINUOUS
 62
     7
 10
1947.716387958181
 20
55.929806346481087
 30
0.0
  0
VERTEX
  5
AFD
  8
DATA
  6
CONTINUOUS
 62
     7
 10
1947.728229203585
 20
55.932589319129889
 30
0.0
  0
VERTEX
  5
AFE
  8
DATA
  6
CONTINUOUS
 62
     7
 10
1947.7401232180521
 20
55.935317382459182
 30
0.0
  0
VERTEX
  5
AFF
  8
DATA
  6
CONTINUOUS
 62
     7
 10
1947.7520700015821
 20
55.937990536468973
 30
0.0
  0
VERTEX
  5
B00
  8
DATA
  6
CONTINUOUS
 62
     7
 10
1947.7640695541761
 20
55.940608781159312
 30
0.0
  0
VERTEX
  5
B01
  8
DATA
  6
CONTINUOUS
 62
     7
 10
1947.776121875833
 20
55.94317211653015
 30
0.0
  0
VERTEX
  5
B02
  8
DATA
  6
CONTINUOUS
 62
     7
 10
1947.7882269665531
 20
55.945680542581499
 30
0.0
  0
VERTEX
  5
B03
  8
DATA
  6
CONTINUOUS
 62
     7
 10
1947.8003848263379
 20
55.948134059313361
 30
0.0
  0
VERTEX
  5
B04
  8
DATA
  6
CONTINUOUS
 62
     7
 10
1947.8125954551861
 20
55.950532666725742
 30
0.0
  0
VERTEX
  5
B05
  8
DATA
  6
CONTINUOUS
 62
     7
 10
1947.8248588530971
 20
55.952876364818621
 30
0.0
  0
VERTEX
  5
B06
  8
DATA
  6
CONTINUOUS
 62
     7
 10
1947.8371750200711
 20
55.955165153592027
 30
0.0
  0
VERTEX
  5
B07
  8
DATA
  6
CONTINUOUS
 62
     7
 10
1947.8495439561091
 20
55.957399033045817
 30
0.0
  0
VERTEX
  5
B08
  8
DATA
  6
CONTINUOUS
 62
     7
 10
1947.86196566121
 20
55.959578003180127
 30
0.0
  0
VERTEX
  5
B09
  8
DATA
  6
CONTINUOUS
 62
     7
 10
1947.8744401353749
 20
55.961702063995062
 30
0.0
  0
VERTEX
  5
B0A
  8
DATA
  6
CONTINUOUS
 62
     7
 10
1947.8869673786021
 20
55.963771215490503
 30
0.0
  0
VERTEX
  5
B0B
  8
DATA
  6
CONTINUOUS
 62
     7
 10
1947.899547390894
 20
55.965785457666357
 30
0.0
  0
VERTEX
  5
B0C
  8
DATA
  6
CONTINUOUS
 62
     7
 10
1947.912180172249
 20
55.967744790522708
 30
0.0
  0
VERTEX
  5
B0D
  8
DATA
  6
CONTINUOUS
 62
     7
 10
1947.9248657226681
 20
55.9696492140597
 30
0.0
  0
VERTEX
  5
B0E
  8
DATA
  6
CONTINUOUS
 62
     7
 10
1947.9376040421489
 20
55.971498728277091
 30
0.0
  0
VERTEX
  5
B0F
  8
DATA
  6
CONTINUOUS
 62
     7
 10
1947.9503951306949
 20
55.973293333174972
 30
0.0
  0
VERTEX
  5
B10
  8
DATA
  6
CONTINUOUS
 62
     7
 10
1947.9632389883041
 20
55.97503302875338
 30
0.0
  0
VERTEX
  5
B11
  8
DATA
  6
CONTINUOUS
 62
     7
 10
1947.9761356149761
 20
55.976717815012307
 30
0.0
  0
VERTEX
  5
B12
  8
DATA
  6
CONTINUOUS
 62
     7
 10
1947.9890850107111
 20
55.978347691951733
 30
0.0
  0
VERTEX
  5
B13
  8
DATA
  6
CONTINUOUS
 62
     7
 10
1948.00208717551
 20
55.979922659571677
 30
0.0
  0
VERTEX
  5
B14
  8
DATA
  6
CONTINUOUS
 62
     7
 10
1948.0151421093731
 20
55.981442717872142
 30
0.0
  0
VERTEX
  5
B15
  8
DATA
  6
CONTINUOUS
 62
     7
 10
1948.028249812299
 20
55.982907866853111
 30
0.0
  0
VERTEX
  5
B16
  8
DATA
  6
CONTINUOUS
 62
     7
 10
1948.0414102842881
 20
55.9843181065146
 30
0.0
  0
VERTEX
  5
B17
  8
DATA
  6
CONTINUOUS
 62
     7
 10
1948.054623525341
 20
55.98567343685648
 30
0.0
  0
VERTEX
  5
B18
  8
DATA
  6
CONTINUOUS
 62
     7
 10
1948.067889535457
 20
55.986973857878858
 30
0.0
  0
VERTEX
  5
B19
  8
DATA
  6
CONTINUOUS
 62
     7
 10
1948.081208314637
 20
55.988219369581891
 30
0.0
  0
VERTEX
  5
B1A
  8
DATA
  6
CONTINUOUS
 62
     7
 10
1948.09457986288
 20
55.989409971965422
 30
0.0
  0
VERTEX
  5
B1B
  8
DATA
  6
CONTINUOUS
 62
     7
 10
1948.108004180187
 20
55.990545665029337
 30
0.0
  0
VERTEX
  5
B1C
  8
DATA
  6
CONTINUOUS
 62
     7
 10
1948.121481266556
 20
55.991626448773779
 30
0.0
  0
VERTEX
  5
B1D
  8
DATA
  6
CONTINUOUS
 62
     7
 10
1948.1350111219899
 20
55.992652323198847
 30
0.0
  0
VERTEX
  5
B1E
  8
DATA
  6
CONTINUOUS
 62
     7
 10
1948.148593746487
 20
55.99362328830432
 30
0.0
  0
VERTEX
  5
B1F
  8
DATA
  6
CONTINUOUS
 62
     7
 10
1948.1622291400481
 20
55.994539344090299
 30
0.0
  0
VERTEX
  5
B20
  8
DATA
  6
CONTINUOUS
 62
     7
 10
1948.175917302671
 20
55.99540049055679
 30
0.0
  0
VERTEX
  5
B21
  8
DATA
  6
CONTINUOUS
 62
     7
 10
1948.1896582343579
 20
55.996206727703793
 30
0.0
  0
VERTEX
  5
B22
  8
DATA
  6
CONTINUOUS
 62
     7
 10
1948.203451935108
 20
55.996958055531302
 30
0.0
  0
VERTEX
  5
B23
  8
DATA
  6
CONTINUOUS
 62
     7
 10
1948.217298404923
 20
55.997654474039336
 30
0.0
  0
VERTEX
  5
B24
  8
DATA
  6
CONTINUOUS
 62
     7
 10
1948.2311976438009
 20
55.998295983227749
 30
0.0
  0
VERTEX
  5
B25
  8
DATA
  6
CONTINUOUS
 62
     7
 10
1948.245149651741
 20
55.998882583096822
 30
0.0
  0
VERTEX
  5
B26
  8
DATA
  6
CONTINUOUS
 62
     7
 10
1948.2591544287459
 20
55.99941427364638
 30
0.0
  0
VERTEX
  5
B27
  8
DATA
  6
CONTINUOUS
 62
     7
 10
1948.273211974813
 20
55.999891054876343
 30
0.0
  0
VERTEX
  5
B28
  8
DATA
  6
CONTINUOUS
 62
     7
 10
1948.287322289945
 20
56.000312926786819
 30
0.0
  0
VERTEX
  5
B29
  8
DATA
  6
CONTINUOUS
 62
     7
 10
1948.3014853741399
 20
56.000679889377921
 30
0.0
  0
VERTEX
  5
B2A
  8
DATA
  6
CONTINUOUS
 62
     7
 10
1948.3157012273971
 20
56.000991942649527
 30
0.0
  0
VERTEX
  5
B2B
  8
DATA
  6
CONTINUOUS
 62
     7
 10
1948.3299698497201
 20
56.001249086601547
 30
0.0
  0
VERTEX
  5
B2C
  8
DATA
  6
CONTINUOUS
 62
     7
 10
1948.344291241104
 20
56.001451321234072
 30
0.0
  0
VERTEX
  5
B2D
  8
DATA
  6
CONTINUOUS
 62
     7
 10
1948.358665401553
 20
56.001598646547109
 30
0.0
  0
VERTEX
  5
B2E
  8
DATA
  6
CONTINUOUS
 62
     7
 10
1948.373092331065
 20
56.001691062540658
 30
0.0
  0
VERTEX
  5
B2F
  8
DATA
  6
CONTINUOUS
 62
     7
 10
1948.3875720296401
 20
56.001728569214713
 30
0.0
  0
VERTEX
  5
B30
  8
DATA
  6
CONTINUOUS
 62
     7
 10
1948.3875720296401
 20
56.001728569214713
 30
0.0
  0
SEQEND
  5
B31
  8
DATA
  6
CONTINUOUS
 62
     7
  0
POLYLINE
  5
419
  8
DATA
  6
CONTINUOUS
 62
     7
 66
     1
 10
0.0
 20
0.0
 30
0.0
 70
   128
  0
VERTEX
  5
B32
  8
DATA
  6
CONTINUOUS
 62
     7
 10
1973.391683425381
 20
58.997617173462899
 30
0.0
  0
VERTEX
  5
B33
  8
DATA
  6
CONTINUOUS
 62
     7
 10
1973.3916407993361
 20
58.98310245799486
 30
0.0
  0
VERTEX
  5
B34
  8
DATA
  6
CONTINUOUS
 62
     7
 10
1973.391543362415
 20
58.968641285930168
 30
0.0
  0
VERTEX
  5
B35
  8
DATA
  6
CONTINUOUS
 62
     7
 10
1973.391391114618
 20
58.954233657268787
 30
0.0
  0
VERTEX
  5
B36
  8
DATA
  6
CONTINUOUS
 62
     7
 10
1973.3911840559449
 20
58.939879572010682
 30
0.0
  0
VERTEX
  5
B37
  8
DATA
  6
CONTINUOUS
 62
     7
 10
1973.390922186396
 20
58.925579030155852
 30
0.0
  0
VERTEX
  5
B38
  8
DATA
  6
CONTINUOUS
 62
     7
 10
1973.3906055059711
 20
58.911332031704319
 30
0.0
  0
VERTEX
  5
B39
  8
DATA
  6
CONTINUOUS
 62
     7
 10
1973.3902340146701
 20
58.897138576656062
 30
0.0
  0
VERTEX
  5
B3A
  8
DATA
  6
CONTINUOUS
 62
     7
 10
1973.3898077124929
 20
58.882998665011208
 30
0.0
  0
VERTEX
  5
B3B
  8
DATA
  6
CONTINUOUS
 62
     7
 10
1973.3893265994409
 20
58.868912296769622
 30
0.0
  0
VERTEX
  5
B3C
  8
DATA
  6
CONTINUOUS
 62
     7
 10
1973.3887906755119
 20
58.854879471931334
 30
0.0
  0
VERTEX
  5
B3D
  8
DATA
  6
CONTINUOUS
 62
     7
 10
1973.388199940707
 20
58.840900190496313
 30
0.0
  0
VERTEX
  5
B3E
  8
DATA
  6
CONTINUOUS
 62
     7
 10
1973.3875543950271
 20
58.826974452464469
 30
0.0
  0
VERTEX
  5
B3F
  8
DATA
  6
CONTINUOUS
 62
     7
 10
1973.386854038469
 20
58.813102257836142
 30
0.0
  0
VERTEX
  5
B40
  8
DATA
  6
CONTINUOUS
 62
     7
 10
1973.3860988710369
 20
58.79928360661097
 30
0.0
  0
VERTEX
  5
B41
  8
DATA
  6
CONTINUOUS
 62
     7
 10
1973.3852888927281
 20
58.785518498789088
 30
0.0
  0
VERTEX
  5
B42
  8
DATA
  6
CONTINUOUS
 62
     7
 10
1973.3844241035449
 20
58.771806934370488
 30
0.0
  0
VERTEX
  5
B43
  8
DATA
  6
CONTINUOUS
 62
     7
 10
1973.383504503485
 20
58.758148913355171
 30
0.0
  0
VERTEX
  5
B44
  8
DATA
  6
CONTINUOUS
 62
     7
 10
1973.382530092548
 20
58.744544435743236
 30
0.0
  0
VERTEX
  5
B45
  8
DATA
  6
CONTINUOUS
 62
     7
 10
1973.3815008707361
 20
58.730993501534599
 30
0.0
  0
VERTEX
  5
B46
  8
DATA
  6
CONTINUOUS
 62
     7
 10
1973.3804168380479
 20
58.717496110729137
 30
0.0
  0
VERTEX
  5
B47
  8
DATA
  6
CONTINUOUS
 62
     7
 10
1973.3792779944829
 20
58.704052263327071
 30
0.0
  0
VERTEX
  5
B48
  8
DATA
  6
CONTINUOUS
 62
     7
 10
1973.378084340043
 20
58.690661959328281
 30
0.0
  0
VERTEX
  5
B49
  8
DATA
  6
CONTINUOUS
 62
     7
 10
1973.376835874727
 20
58.677325198732888
 30
0.0
  0
VERTEX
  5
B4A
  8
DATA
  6
CONTINUOUS
 62
     7
 10
1973.3755325985351
 20
58.664041981540663
 30
0.0
  0
VERTEX
  5
B4B
  8
DATA
  6
CONTINUOUS
 62
     7
 10
1973.3741745114669
 20
58.650812307751721
 30
0.0
  0
VERTEX
  5
B4C
  8
DATA
  6
CONTINUOUS
 62
     7
 10
1973.3727616135229
 20
58.637636177366183
 30
0.0
  0
VERTEX
  5
B4D
  8
DATA
  6
CONTINUOUS
 62
     7
 10
1973.371293904703
 20
58.624513590383899
 30
0.0
  0
VERTEX
  5
B4E
  8
DATA
  6
CONTINUOUS
 62
     7
 10
1973.3697713850081
 20
58.611444546804819
 30
0.0
  0
VERTEX
  5
B4F
  8
DATA
  6
CONTINUOUS
 62
     7
 10
1973.3681940544359
 20
58.598429046629008
 30
0.0
  0
VERTEX
  5
B50
  8
DATA
  6
CONTINUOUS
 62
     7
 10
1973.3665619129879
 20
58.585467089856593
 30
0.0
  0
VERTEX
  5
B51
  8
DATA
  6
CONTINUOUS
 62
     7
 10
1973.364874960665
 20
58.572558676487461
 30
0.0
  0
VERTEX
  5
B52
  8
DATA
  6
CONTINUOUS
 62
     7
 10
1973.363133197465
 20
58.559703806521597
 30
0.0
  0
VERTEX
  5
B53
  8
DATA
  6
CONTINUOUS
 62
     7
 10
1973.361336623389
 20
58.546902479959037
 30
0.0
  0
VERTEX
  5
B54
  8
DATA
  6
CONTINUOUS
 62
     7
 10
1973.3594852384369
 20
58.534154696799753
 30
0.0
  0
VERTEX
  5
B55
  8
DATA
  6
CONTINUOUS
 62
     7
 10
1973.35757904261
 20
58.521460457043872
 30
0.0
  0
VERTEX
  5
B56
  8
DATA
  6
CONTINUOUS
 62
     7
 10
1973.3556180359069
 20
58.508819760691267
 30
0.0
  0
VERTEX
  5
B57
  8
DATA
  6
CONTINUOUS
 62
     7
 10
1973.353602218328
 20
58.496232607741938
 30
0.0
  0
VERTEX
  5
B58
  8
DATA
  6
CONTINUOUS
 62
     7
 10
1973.3515315898719
 20
58.483698998195912
 30
0.0
  0
VERTEX
  5
B59
  8
DATA
  6
CONTINUOUS
 62
     7
 10
1973.349406150541
 20
58.471218932053127
 30
0.0
  0
VERTEX
  5
B5A
  8
DATA
  6
CONTINUOUS
 62
     7
 10
1973.347225900334
 20
58.458792409313673
 30
0.0
  0
VERTEX
  5
B5B
  8
DATA
  6
CONTINUOUS
 62
     7
 10
1973.3449908392511
 20
58.446419429977468
 30
0.0
  0
VERTEX
  5
B5C
  8
DATA
  6
CONTINUOUS
 62
     7
 10
1973.3427009672921
 20
58.434099994044573
 30
0.0
  0
VERTEX
  5
B5D
  8
DATA
  6
CONTINUOUS
 62
     7
 10
1973.3403562844569
 20
58.42183410151506
 30
0.0
  0
VERTEX
  5
B5E
  8
DATA
  6
CONTINUOUS
 62
     7
 10
1973.337956790745
 20
58.409621752388709
 30
0.0
  0
VERTEX
  5
B5F
  8
DATA
  6
CONTINUOUS
 62
     7
 10
1973.3355024861589
 20
58.397462946665662
 30
0.0
  0
VERTEX
  5
B60
  8
DATA
  6
CONTINUOUS
 62
     7
 10
1973.3329933706959
 20
58.38535768434599
 30
0.0
  0
VERTEX
  5
B61
  8
DATA
  6
CONTINUOUS
 62
     7
 10
1973.3304294443569
 20
58.373305965429608
 30
0.0
  0
VERTEX
  5
B62
  8
DATA
  6
CONTINUOUS
 62
     7
 10
1973.327810707143
 20
58.361307789916403
 30
0.0
  0
VERTEX
  5
B63
  8
DATA
  6
CONTINUOUS
 62
     7
 10
1973.325137159052
 20
58.349363157806472
 30
0.0
  0
VERTEX
  5
B64
  8
DATA
  6
CONTINUOUS
 62
     7
 10
1973.322408800085
 20
58.337472069099931
 30
0.0
  0
VERTEX
  5
B65
  8
DATA
  6
CONTINUOUS
 62
     7
 10
1973.3196256302419
 20
58.32563452379668
 30
0.0
  0
VERTEX
  5
B66
  8
DATA
  6
CONTINUOUS
 62
     7
 10
1973.316787649524
 20
58.313850521896811
 30
0.0
  0
VERTEX
  5
B67
  8
DATA
  6
CONTINUOUS
 62
     7
 10
1973.313894857929
 20
58.302120063400253
 30
0.0
  0
VERTEX
  5
B68
  8
DATA
  6
CONTINUOUS
 62
     7
 10
1973.3109472554579
 20
58.290443148306849
 30
0.0
  0
VERTEX
  5
B69
  8
DATA
  6
CONTINUOUS
 62
     7
 10
1973.307944842112
 20
58.278819776616842
 30
0.0
  0
VERTEX
  5
B6A
  8
DATA
  6
CONTINUOUS
 62
     7
 10
1973.30488761789
 20
58.267249948330111
 30
0.0
  0
VERTEX
  5
B6B
  8
DATA
  6
CONTINUOUS
 62
     7
 10
1973.3017755827921
 20
58.255733663446676
 30
0.0
  0
VERTEX
  5
B6C
  8
DATA
  6
CONTINUOUS
 62
     7
 10
1973.298608736817
 20
58.244270921966518
 30
0.0
  0
VERTEX
  5
B6D
  8
DATA
  6
CONTINUOUS
 62
     7
 10
1973.295387079967
 20
58.232861723889627
 30
0.0
  0
VERTEX
  5
B6E
  8
DATA
  6
CONTINUOUS
 62
     7
 10
1973.292110612241
 20
58.221506069216048
 30
0.0
  0
VERTEX
  5
B6F
  8
DATA
  6
CONTINUOUS
 62
     7
 10
1973.288779333639
 20
58.21020395794573
 30
0.0
  0
VERTEX
  5
B70
  8
DATA
  6
CONTINUOUS
 62
     7
 10
1973.285393244161
 20
58.198955390078709
 30
0.0
  0
VERTEX
  5
B71
  8
DATA
  6
CONTINUOUS
 62
     7
 10
1973.281952343807
 20
58.187760365615091
 30
0.0
  0
VERTEX
  5
B72
  8
DATA
  6
CONTINUOUS
 62
     7
 10
1973.278456632577
 20
58.176618884554721
 30
0.0
  0
VERTEX
  5
B73
  8
DATA
  6
CONTINUOUS
 62
     7
 10
1973.2749279013419
 20
58.165529633335851
 30
0.0
  0
VERTEX
  5
B74
  8
DATA
  6
CONTINUOUS
 62
     7
 10
1973.271387940975
 20
58.154491298396579
 30
0.0
  0
VERTEX
  5
B75
  8
DATA
  6
CONTINUOUS
 62
     7
 10
1973.2678367514759
 20
58.143503879736841
 30
0.0
  0
VERTEX
  5
B76
  8
DATA
  6
CONTINUOUS
 62
     7
 10
1973.2642743328429
 20
58.132567377356743
 30
0.0
  0
VERTEX
  5
B77
  8
DATA
  6
CONTINUOUS
 62
     7
 10
1973.2607006850769
 20
58.121681791256258
 30
0.0
  0
VERTEX
  5
B78
  8
DATA
  6
CONTINUOUS
 62
     7
 10
1973.257115808178
 20
58.110847121435427
 30
0.0
  0
VERTEX
  5
B79
  8
DATA
  6
CONTINUOUS
 62
     7
 10
1973.2535197021459
 20
58.100063367894222
 30
0.0
  0
VERTEX
  5
B7A
  8
DATA
  6
CONTINUOUS
 62
     7
 10
1973.2499123669829
 20
58.089330530632651
 30
0.0
  0
VERTEX
  5
B7B
  8
DATA
  6
CONTINUOUS
 62
     7
 10
1973.2462938026849
 20
58.078648609650713
 30
0.0
  0
VERTEX
  5
B7C
  8
DATA
  6
CONTINUOUS
 62
     7
 10
1973.242664009256
 20
58.068017604948409
 30
0.0
  0
VERTEX
  5
B7D
  8
DATA
  6
CONTINUOUS
 62
     7
 10
1973.239022986693
 20
58.057437516525617
 30
0.0
  0
VERTEX
  5
B7E
  8
DATA
  6
CONTINUOUS
 62
     7
 10
1973.2353707349971
 20
58.046908344382572
 30
0.0
  0
VERTEX
  5
B7F
  8
DATA
  6
CONTINUOUS
 62
     7
 10
1973.2317072541689
 20
58.036430088519182
 30
0.0
  0
VERTEX
  5
B80
  8
DATA
  6
CONTINUOUS
 62
     7
 10
1973.228032544208
 20
58.026002748935298
 30
0.0
  0
VERTEX
  5
B81
  8
DATA
  6
CONTINUOUS
 62
     7
 10
1973.2243466051141
 20
58.01562632563104
 30
0.0
  0
VERTEX
  5
B82
  8
DATA
  6
CONTINUOUS
 62
     7
 10
1973.220649436887
 20
58.005300818606422
 30
0.0
  0
VERTEX
  5
B83
  8
DATA
  6
CONTINUOUS
 62
     7
 10
1973.216941039527
 20
57.995026227861452
 30
0.0
  0
VERTEX
  5
B84
  8
DATA
  6
CONTINUOUS
 62
     7
 10
1973.213221413034
 20
57.984802553396101
 30
0.0
  0
VERTEX
  5
B85
  8
DATA
  6
CONTINUOUS
 62
     7
 10
1973.2094905574079
 20
57.974629795210383
 30
0.0
  0
VERTEX
  5
B86
  8
DATA
  6
CONTINUOUS
 62
     7
 10
1973.2057484726499
 20
57.964507953304178
 30
0.0
  0
VERTEX
  5
B87
  8
DATA
  6
CONTINUOUS
 62
     7
 10
1973.2019951587599
 20
57.954437027677621
 30
0.0
  0
VERTEX
  5
B88
  8
DATA
  6
CONTINUOUS
 62
     7
 10
1973.1982306157361
 20
57.944417018330789
 30
0.0
  0
VERTEX
  5
B89
  8
DATA
  6
CONTINUOUS
 62
     7
 10
1973.194454843579
 20
57.934447925263498
 30
0.0
  0
VERTEX
  5
B8A
  8
DATA
  6
CONTINUOUS
 62
     7
 10
1973.190667842289
 20
57.924529748475841
 30
0.0
  0
VERTEX
  5
B8B
  8
DATA
  6
CONTINUOUS
 62
     7
 10
1973.186869611867
 20
57.914662487967803
 30
0.0
  0
VERTEX
  5
B8C
  8
DATA
  6
CONTINUOUS
 62
     7
 10
1973.1830601523111
 20
57.904846143739412
 30
0.0
  0
VERTEX
  5
B8D
  8
DATA
  6
CONTINUOUS
 62
     7
 10
1973.179239463622
 20
57.895080715790641
 30
0.0
  0
VERTEX
  5
B8E
  8
DATA
  6
CONTINUOUS
 62
     7
 10
1973.1754075458009
 20
57.885366204121503
 30
0.0
  0
VERTEX
  5
B8F
  8
DATA
  6
CONTINUOUS
 62
     7
 10
1973.171564398848
 20
57.875702608731999
 30
0.0
  0
VERTEX
  5
B90
  8
DATA
  6
CONTINUOUS
 62
     7
 10
1973.16771002276
 20
57.866089929622142
 30
0.0
  0
VERTEX
  5
B91
  8
DATA
  6
CONTINUOUS
 62
     7
 10
1973.163844417541
 20
57.856528166791811
 30
0.0
  0
VERTEX
  5
B92
  8
DATA
  6
CONTINUOUS
 62
     7
 10
1973.159967583189
 20
57.8470173202411
 30
0.0
  0
VERTEX
  5
B93
  8
DATA
  6
CONTINUOUS
 62
     7
 10
1973.156079519704
 20
57.837557389970023
 30
0.0
  0
VERTEX
  5
B94
  8
DATA
  6
CONTINUOUS
 62
     7
 10
1973.1521802270861
 20
57.828148375978571
 30
0.0
  0
VERTEX
  5
B95
  8
DATA
  6
CONTINUOUS
 62
     7
 10
1973.148269705335
 20
57.818790278266881
 30
0.0
  0
VERTEX
  5
B96
  8
DATA
  6
CONTINUOUS
 62
     7
 10
1973.1443479544521
 20
57.809483096834697
 30
0.0
  0
VERTEX
  5
B97
  8
DATA
  6
CONTINUOUS
 62
     7
 10
1973.1404149744351
 20
57.800226831682153
 30
0.0
  0
VERTEX
  5
B98
  8
DATA
  6
CONTINUOUS
 62
     7
 10
1973.1364707652849
 20
57.791021482809128
 30
0.0
  0
VERTEX
  5
B99
  8
DATA
  6
CONTINUOUS
 62
     7
 10
1973.1325153270029
 20
57.781867050215851
 30
0.0
  0
VERTEX
  5
B9A
  8
DATA
  6
CONTINUOUS
 62
     7
 10
1973.128548659588
 20
57.7727635339022
 30
0.0
  0
VERTEX
  5
B9B
  8
DATA
  6
CONTINUOUS
 62
     7
 10
1973.1245707630401
 20
57.763710933868197
 30
0.0
  0
VERTEX
  5
B9C
  8
DATA
  6
CONTINUOUS
 62
     7
 10
1973.1205816373599
 20
57.754709250113699
 30
0.0
  0
VERTEX
  5
B9D
  8
DATA
  6
CONTINUOUS
 62
     7
 10
1973.116581282545
 20
57.745758482638863
 30
0.0
  0
VERTEX
  5
B9E
  8
DATA
  6
CONTINUOUS
 62
     7
 10
1973.1125696985989
 20
57.73685863144361
 30
0.0
  0
VERTEX
  5
B9F
  8
DATA
  6
CONTINUOUS
 62
     7
 10
1973.1085468855199
 20
57.728009696528026
 30
0.0
  0
VERTEX
  5
BA0
  8
DATA
  6
CONTINUOUS
 62
     7
 10
1973.1045128433079
 20
57.719211677892083
 30
0.0
  0
VERTEX
  5
BA1
  8
DATA
  6
CONTINUOUS
 62
     7
 10
1973.100467571963
 20
57.710464575535738
 30
0.0
  0
VERTEX
  5
BA2
  8
DATA
  6
CONTINUOUS
 62
     7
 10
1973.0964110714849
 20
57.701768389458962
 30
0.0
  0
VERTEX
  5
BA3
  8
DATA
  6
CONTINUOUS
 62
     7
 10
1973.092343341875
 20
57.693123119661891
 30
0.0
  0
VERTEX
  5
BA4
  8
DATA
  6
CONTINUOUS
 62
     7
 10
1973.088264383131
 20
57.68452876614446
 30
0.0
  0
VERTEX
  5
BA5
  8
DATA
  6
CONTINUOUS
 62
     7
 10
1973.0841741952549
 20
57.675985328906563
 30
0.0
  0
VERTEX
  5
BA6
  8
DATA
  6
CONTINUOUS
 62
     7
 10
1973.080072778245
 20
57.667492807948292
 30
0.0
  0
VERTEX
  5
BA7
  8
DATA
  6
CONTINUOUS
 62
     7
 10
1973.075960132104
 20
57.659051203269662
 30
0.0
  0
VERTEX
  5
BA8
  8
DATA
  6
CONTINUOUS
 62
     7
 10
1973.071836256828
 20
57.650660514870651
 30
0.0
  0
VERTEX
  5
BA9
  8
DATA
  6
CONTINUOUS
 62
     7
 10
1973.067701152421
 20
57.642320742751281
 30
0.0
  0
VERTEX
  5
BAA
  8
DATA
  6
CONTINUOUS
 62
     7
 10
1973.0635548188809
 20
57.634031886911529
 30
0.0
  0
VERTEX
  5
BAB
  8
DATA
  6
CONTINUOUS
 62
     7
 10
1973.0593972562081
 20
57.62579394735144
 30
0.0
  0
VERTEX
  5
BAC
  8
DATA
  6
CONTINUOUS
 62
     7
 10
1973.0552284644009
 20
57.617606924070969
 30
0.0
  0
VERTEX
  5
BAD
  8
DATA
  6
CONTINUOUS
 62
     7
 10
1973.0510484434631
 20
57.609470817070132
 30
0.0
  0
VERTEX
  5
BAE
  8
DATA
  6
CONTINUOUS
 62
     7
 10
1973.04685719339
 20
57.601385626348822
 30
0.0
  0
VERTEX
  5
BAF
  8
DATA
  6
CONTINUOUS
 62
     7
 10
1973.042654714186
 20
57.593351351907131
 30
0.0
  0
VERTEX
  5
BB0
  8
DATA
  6
CONTINUOUS
 62
     7
 10
1973.038441005848
 20
57.585367993745201
 30
0.0
  0
VERTEX
  5
BB1
  8
DATA
  6
CONTINUOUS
 62
     7
 10
1973.034216068377
 20
57.577435551862777
 30
0.0
  0
VERTEX
  5
BB2
  8
DATA
  6
CONTINUOUS
 62
     7
 10
1973.0299799017751
 20
57.569554026259993
 30
0.0
  0
VERTEX
  5
BB3
  8
DATA
  6
CONTINUOUS
 62
     7
 10
1973.025726145517
 20
57.56170445300814
 30
0.0
  0
VERTEX
  5
BB4
  8
DATA
  6
CONTINUOUS
 62
     7
 10
1973.021448439086
 20
57.553867868178493
 30
0.0
  0
VERTEX
  5
BB5
  8
DATA
  6
CONTINUOUS
 62
     7
 10
1973.01714678248
 20
57.54604427177081
 30
0.0
  0
VERTEX
  5
BB6
  8
DATA
  6
CONTINUOUS
 62
     7
 10
1973.012821175698
 20
57.538233663785498
 30
0.0
  0
VERTEX
  5
BB7
  8
DATA
  6
CONTINUOUS
 62
     7
 10
1973.008471618743
 20
57.530436044222249
 30
0.0
  0
VERTEX
  5
BB8
  8
DATA
  6
CONTINUOUS
 62
     7
 10
1973.0040981116119
 20
57.522651413081249
 30
0.0
  0
VERTEX
  5
BB9
  8
DATA
  6
CONTINUOUS
 62
     7
 10
1972.9997006543069
 20
57.514879770362427
 30
0.0
  0
VERTEX
  5
BBA
  8
DATA
  6
CONTINUOUS
 62
     7
 10
1972.9952792468271
 20
57.507121116065818
 30
0.0
  0
VERTEX
  5
BBB
  8
DATA
  6
CONTINUOUS
 62
     7
 10
1972.9908338891721
 20
57.499375450191451
 30
0.0
  0
VERTEX
  5
BBC
  8
DATA
  6
CONTINUOUS
 62
     7
 10
1972.9863645813441
 20
57.49164277273907
 30
0.0
  0
VERTEX
  5
BBD
  8
DATA
  6
CONTINUOUS
 62
     7
 10
1972.9818713233401
 20
57.483923083708859
 30
0.0
  0
VERTEX
  5
BBE
  8
DATA
  6
CONTINUOUS
 62
     7
 10
1972.977354115161
 20
57.476216383100891
 30
0.0
  0
VERTEX
  5
BBF
  8
DATA
  6
CONTINUOUS
 62
     7
 10
1972.972812956808
 20
57.468522670915043
 30
0.0
  0
VERTEX
  5
BC0
  8
DATA
  6
CONTINUOUS
 62
     7
 10
1972.968247848281
 20
57.460841947151479
 30
0.0
  0
VERTEX
  5
BC1
  8
DATA
  6
CONTINUOUS
 62
     7
 10
1972.9636587895779
 20
57.453174211809937
 30
0.0
  0
VERTEX
  5
BC2
  8
DATA
  6
CONTINUOUS
 62
     7
 10
1972.9590457807001
 20
57.445519464890708
 30
0.0
  0
VERTEX
  5
BC3
  8
DATA
  6
CONTINUOUS
 62
     7
 10
1972.954408821648
 20
57.437877706393571
 30
0.0
  0
VERTEX
  5
BC4
  8
DATA
  6
CONTINUOUS
 62
     7
 10
1972.9497479124209
 20
57.430248936318648
 30
0.0
  0
VERTEX
  5
BC5
  8
DATA
  6
CONTINUOUS
 62
     7
 10
1972.94506305302
 20
57.422633154665959
 30
0.0
  0
VERTEX
  5
BC6
  8
DATA
  6
CONTINUOUS
 62
     7
 10
1972.9403542434441
 20
57.415030361435349
 30
0.0
  0
VERTEX
  5
BC7
  8
DATA
  6
CONTINUOUS
 62
     7
 10
1972.9356214836939
 20
57.407440556626959
 30
0.0
  0
VERTEX
  5
BC8
  8
DATA
  6
CONTINUOUS
 62
     7
 10
1972.9308647737689
 20
57.399863740240669
 30
0.0
  0
VERTEX
  5
BC9
  8
DATA
  6
CONTINUOUS
 62
     7
 10
1972.9260841136679
 20
57.392299912276499
 30
0.0
  0
VERTEX
  5
BCA
  8
DATA
  6
CONTINUOUS
 62
     7
 10
1972.921279503393
 20
57.384749072734607
 30
0.0
  0
VERTEX
  5
BCB
  8
DATA
  6
CONTINUOUS
 62
     7
 10
1972.916450942944
 20
57.37721122161485
 30
0.0
  0
VERTEX
  5
BCC
  8
DATA
  6
CONTINUOUS
 62
     7
 10
1972.91159843232
 20
57.369686358917292
 30
0.0
  0
VERTEX
  5
BCD
  8
DATA
  6
CONTINUOUS
 62
     7
 10
1972.9067219715209
 20
57.362174484641969
 30
0.0
  0
VERTEX
  5
BCE
  8
DATA
  6
CONTINUOUS
 62
     7
 10
1972.901821560547
 20
57.354675598788852
 30
0.0
  0
VERTEX
  5
BCF
  8
DATA
  6
CONTINUOUS
 62
     7
 10
1972.8968971993991
 20
57.34718970135782
 30
0.0
  0
VERTEX
  5
BD0
  8
DATA
  6
CONTINUOUS
 62
     7
 10
1972.8919488880761
 20
57.339716792349002
 30
0.0
  0
VERTEX
  5
BD1
  8
DATA
  6
CONTINUOUS
 62
     7
 10
1972.886976626578
 20
57.33225687176229
 30
0.0
  0
VERTEX
  5
BD2
  8
DATA
  6
CONTINUOUS
 62
     7
 10
1972.8819804149059
 20
57.324809939597678
 30
0.0
  0
VERTEX
  5
BD3
  8
DATA
  6
CONTINUOUS
 62
     7
 10
1972.876960253059
 20
57.317375995855294
 30
0.0
  0
VERTEX
  5
BD4
  8
DATA
  6
CONTINUOUS
 62
     7
 10
1972.8719161410379
 20
57.309955040535101
 30
0.0
  0
VERTEX
  5
BD5
  8
DATA
  6
CONTINUOUS
 62
     7
 10
1972.866848078841
 20
57.302547073637129
 30
0.0
  0
VERTEX
  5
BD6
  8
DATA
  6
CONTINUOUS
 62
     7
 10
1972.86175606647
 20
57.29515209516137
 30
0.0
  0
VERTEX
  5
BD7
  8
DATA
  6
CONTINUOUS
 62
     7
 10
1972.856640103925
 20
57.287770105107711
 30
0.0
  0
VERTEX
  5
BD8
  8
DATA
  6
CONTINUOUS
 62
     7
 10
1972.851500191204
 20
57.280401103476258
 30
0.0
  0
VERTEX
  5
BD9
  8
DATA
  6
CONTINUOUS
 62
     7
 10
1972.846336328309
 20
57.273045090266919
 30
0.0
  0
VERTEX
  5
BDA
  8
DATA
  6
CONTINUOUS
 62
     7
 10
1972.841148515239
 20
57.265702065479793
 30
0.0
  0
VERTEX
  5
BDB
  8
DATA
  6
CONTINUOUS
 62
     7
 10
1972.835936751995
 20
57.258372029114867
 30
0.0
  0
VERTEX
  5
BDC
  8
DATA
  6
CONTINUOUS
 62
     7
 10
1972.8307010385761
 20
57.251054981172047
 30
0.0
  0
VERTEX
  5
BDD
  8
DATA
  6
CONTINUOUS
 62
     7
 10
1972.825441374981
 20
57.24375092165144
 30
0.0
  0
VERTEX
  5
BDE
  8
DATA
  6
CONTINUOUS
 62
     7
 10
1972.8201577612131
 20
57.236459850552933
 30
0.0
  0
VERTEX
  5
BDF
  8
DATA
  6
CONTINUOUS
 62
     7
 10
1972.8148501972701
 20
57.229181767876653
 30
0.0
  0
VERTEX
  5
BE0
  8
DATA
  6
CONTINUOUS
 62
     7
 10
1972.8095186831531
 20
57.221916673622559
 30
0.0
  0
VERTEX
  5
BE1
  8
DATA
  6
CONTINUOUS
 62
     7
 10
1972.8041632188599
 20
57.214664567790578
 30
0.0
  0
VERTEX
  5
BE2
  8
DATA
  6
CONTINUOUS
 62
     7
 10
1972.7987838043921
 20
57.207425450380917
 30
0.0
  0
VERTEX
  5
BE3
  8
DATA
  6
CONTINUOUS
 62
     7
 10
1972.793380439751
 20
57.200199321393256
 30
0.0
  0
VERTEX
  5
BE4
  8
DATA
  6
CONTINUOUS
 62
     7
 10
1972.7879531249339
 20
57.192986180827923
 30
0.0
  0
VERTEX
  5
BE5
  8
DATA
  6
CONTINUOUS
 62
     7
 10
1972.7825018599419
 20
57.185786028684667
 30
0.0
  0
VERTEX
  5
BE6
  8
DATA
  6
CONTINUOUS
 62
     7
 10
1972.7770266447769
 20
57.178598864963647
 30
0.0
  0
VERTEX
  5
BE7
  8
DATA
  6
CONTINUOUS
 62
     7
 10
1972.7715274794359
 20
57.171424689664832
 30
0.0
  0
VERTEX
  5
BE8
  8
DATA
  6
CONTINUOUS
 62
     7
 10
1972.76600436392
 20
57.164263502788117
 30
0.0
  0
VERTEX
  5
BE9
  8
DATA
  6
CONTINUOUS
 62
     7
 10
1972.7604572982309
 20
57.157115304333622
 30
0.0
  0
VERTEX
  5
BEA
  8
DATA
  6
CONTINUOUS
 62
     7
 10
1972.7548862823651
 20
57.14998009430122
 30
0.0
  0
VERTEX
  5
BEB
  8
DATA
  6
CONTINUOUS
 62
     7
 10
1972.7492913163269
 20
57.142857872691032
 30
0.0
  0
VERTEX
  5
BEC
  8
DATA
  6
CONTINUOUS
 62
     7
 10
1972.743672400112
 20
57.135748639503049
 30
0.0
  0
VERTEX
  5
BED
  8
DATA
  6
CONTINUOUS
 62
     7
 10
1972.738029533723
 20
57.128652394737173
 30
0.0
  0
VERTEX
  5
BEE
  8
DATA
  6
CONTINUOUS
 62
     7
 10
1972.73236271716
 20
57.121569138393617
 30
0.0
  0
VERTEX
  5
BEF
  8
DATA
  6
CONTINUOUS
 62
     7
 10
1972.726671950421
 20
57.114498870472062
 30
0.0
  0
VERTEX
  5
BF0
  8
DATA
  6
CONTINUOUS
 62
     7
 10
1972.7209572335089
 20
57.107441590972819
 30
0.0
  0
VERTEX
  5
BF1
  8
DATA
  6
CONTINUOUS
 62
     7
 10
1972.7152185664211
 20
57.10039729989569
 30
0.0
  0
VERTEX
  5
BF2
  8
DATA
  6
CONTINUOUS
 62
     7
 10
1972.7094559491591
 20
57.093365997240639
 30
0.0
  0
VERTEX
  5
BF3
  8
DATA
  6
CONTINUOUS
 62
     7
 10
1972.7036715854899
 20
57.086350961120608
 30
0.0
  0
VERTEX
  5
BF4
  8
DATA
  6
CONTINUOUS
 62
     7
 10
1972.697867679185
 20
57.07935546964859
 30
0.0
  0
VERTEX
  5
BF5
  8
DATA
  6
CONTINUOUS
 62
     7
 10
1972.692044230241
 20
57.072379522824342
 30
0.0
  0
VERTEX
  5
BF6
  8
DATA
  6
CONTINUOUS
 62
     7
 10
1972.6862012386609
 20
57.065423120647878
 30
0.0
  0
VERTEX
  5
BF7
  8
DATA
  6
CONTINUOUS
 62
     7
 10
1972.680338704444
 20
57.058486263119448
 30
0.0
  0
VERTEX
  5
BF8
  8
DATA
  6
CONTINUOUS
 62
     7
 10
1972.6744566275879
 20
57.051568950238789
 30
0.0
  0
VERTEX
  5
BF9
  8
DATA
  6
CONTINUOUS
 62
     7
 10
1972.6685550080961
 20
57.044671182005921
 30
0.0
  0
VERTEX
  5
BFA
  8
DATA
  6
CONTINUOUS
 62
     7
 10
1972.662633845965
 20
57.03779295842093
 30
0.0
  0
VERTEX
  5
BFB
  8
DATA
  6
CONTINUOUS
 62
     7
 10
1972.656693141198
 20
57.030934279483859
 30
0.0
  0
VERTEX
  5
BFC
  8
DATA
  6
CONTINUOUS
 62
     7
 10
1972.650732893793
 20
57.024095145194572
 30
0.0
  0
VERTEX
  5
BFD
  8
DATA
  6
CONTINUOUS
 62
     7
 10
1972.644753103752
 20
57.017275555553169
 30
0.0
  0
VERTEX
  5
BFE
  8
DATA
  6
CONTINUOUS
 62
     7
 10
1972.6387537710721
 20
57.010475510559559
 30
0.0
  0
VERTEX
  5
BFF
  8
DATA
  6
CONTINUOUS
 62
     7
 10
1972.632734895755
 20
57.003695010213733
 30
0.0
  0
VERTEX
  5
C00
  8
DATA
  6
CONTINUOUS
 62
     7
 10
1972.6266964777999
 20
56.996934054515933
 30
0.0
  0
VERTEX
  5
C01
  8
DATA
  6
CONTINUOUS
 62
     7
 10
1972.620638517209
 20
56.990192643465882
 30
0.0
  0
VERTEX
  5
C02
  8
DATA
  6
CONTINUOUS
 62
     7
 10
1972.6145610139799
 20
56.983470777063758
 30
0.0
  0
VERTEX
  5
C03
  8
DATA
  6
CONTINUOUS
 62
     7
 10
1972.6084639681139
 20
56.976768455309411
 30
0.0
  0
VERTEX
  5
C04
  8
DATA
  6
CONTINUOUS
 62
     7
 10
1972.602347379611
 20
56.970085678202963
 30
0.0
  0
VERTEX
  5
C05
  8
DATA
  6
CONTINUOUS
 62
     7
 10
1972.5962112484681
 20
56.963422445744293
 30
0.0
  0
VERTEX
  5
C06
  8
DATA
  6
CONTINUOUS
 62
     7
 10
1972.59005557469
 20
56.956778757933641
 30
0.0
  0
VERTEX
  5
C07
  8
DATA
  6
CONTINUOUS
 62
     7
 10
1972.5838803582751
 20
56.950154614770781
 30
0.0
  0
VERTEX
  5
C08
  8
DATA
  6
CONTINUOUS
 62
     7
 10
1972.577685599221
 20
56.943550016255813
 30
0.0
  0
VERTEX
  5
C09
  8
DATA
  6
CONTINUOUS
 62
     7
 10
1972.5714712975309
 20
56.936964962388522
 30
0.0
  0
VERTEX
  5
C0A
  8
DATA
  6
CONTINUOUS
 62
     7
 10
1972.5652374532031
 20
56.930399453169223
 30
0.0
  0
VERTEX
  5
C0B
  8
DATA
  6
CONTINUOUS
 62
     7
 10
1972.5589840662369
 20
56.923853488597842
 30
0.0
  0
VERTEX
  5
C0C
  8
DATA
  6
CONTINUOUS
 62
     7
 10
1972.552711136635
 20
56.91732706867424
 30
0.0
  0
VERTEX
  5
C0D
  8
DATA
  6
CONTINUOUS
 62
     7
 10
1972.5464186643951
 20
56.910820193398422
 30
0.0
  0
VERTEX
  5
C0E
  8
DATA
  6
CONTINUOUS
 62
     7
 10
1972.540106649516
 20
56.904332862770502
 30
0.0
  0
VERTEX
  5
C0F
  8
DATA
  6
CONTINUOUS
 62
     7
 10
1972.533775092001
 20
56.897865076790467
 30
0.0
  0
VERTEX
  5
C10
  8
DATA
  6
CONTINUOUS
 62
     7
 10
1972.527423991849
 20
56.89141683545823
 30
0.0
  0
VERTEX
  5
C11
  8
DATA
  6
CONTINUOUS
 62
     7
 10
1972.5210533490599
 20
56.884988138773913
 30
0.0
  0
VERTEX
  5
C12
  8
DATA
  6
CONTINUOUS
 62
     7
 10
1972.5146631636319
 20
56.878578986737359
 30
0.0
  0
VERTEX
  5
C13
  8
DATA
  6
CONTINUOUS
 62
     7
 10
1972.5082534355679
 20
56.872189379348583
 30
0.0
  0
VERTEX
  5
C14
  8
DATA
  6
CONTINUOUS
 62
     7
 10
1972.5018241648661
 20
56.865819316607819
 30
0.0
  0
VERTEX
  5
C15
  8
DATA
  6
CONTINUOUS
 62
     7
 10
1972.4953753515269
 20
56.85946879851496
 30
0.0
  0
VERTEX
  5
C16
  8
DATA
  6
CONTINUOUS
 62
     7
 10
1972.4889069955509
 20
56.853137825069894
 30
0.0
  0
VERTEX
  5
C17
  8
DATA
  6
CONTINUOUS
 62
     7
 10
1972.4824190969371
 20
56.846826396272718
 30
0.0
  0
VERTEX
  5
C18
  8
DATA
  6
CONTINUOUS
 62
     7
 10
1972.475911655685
 20
56.84053451212332
 30
0.0
  0
VERTEX
  5
C19
  8
DATA
  6
CONTINUOUS
 62
     7
 10
1972.4693846717969
 20
56.83426217262172
 30
0.0
  0
VERTEX
  5
C1A
  8
DATA
  6
CONTINUOUS
 62
     7
 10
1972.4628381452701
 20
56.828009377768133
 30
0.0
  0
VERTEX
  5
C1B
  8
DATA
  6
CONTINUOUS
 62
     7
 10
1972.4562720761071
 20
56.821776127562323
 30
0.0
  0
VERTEX
  5
C1C
  8
DATA
  6
CONTINUOUS
 62
     7
 10
1972.449686464307
 20
56.815562422004398
 30
0.0
  0
VERTEX
  5
C1D
  8
DATA
  6
CONTINUOUS
 62
     7
 10
1972.4430813098679
 20
56.809368261094157
 30
0.0
  0
VERTEX
  5
C1E
  8
DATA
  6
CONTINUOUS
 62
     7
 10
1972.436456612792
 20
56.803193644831929
 30
0.0
  0
VERTEX
  5
C1F
  8
DATA
  6
CONTINUOUS
 62
     7
 10
1972.42981237308
 20
56.797038573217613
 30
0.0
  0
VERTEX
  5
C20
  8
DATA
  6
CONTINUOUS
 62
     7
 10
1972.4231485907289
 20
56.79090304625106
 30
0.0
  0
VERTEX
  5
C21
  8
DATA
  6
CONTINUOUS
 62
     7
 10
1972.416465265741
 20
56.784787063932292
 30
0.0
  0
VERTEX
  5
C22
  8
DATA
  6
CONTINUOUS
 62
     7
 10
1972.4097623981161
 20
56.77869062626155
 30
0.0
  0
VERTEX
  5
C23
  8
DATA
  6
CONTINUOUS
 62
     7
 10
1972.4030399878529
 20
56.772613733238579
 30
0.0
  0
VERTEX
  5
C24
  8
DATA
  6
CONTINUOUS
 62
     7
 10
1972.396298034954
 20
56.766556384863406
 30
0.0
  0
VERTEX
  5
C25
  8
DATA
  6
CONTINUOUS
 62
     7
 10
1972.389536539416
 20
56.760518581136239
 30
0.0
  0
VERTEX
  5
C26
  8
DATA
  6
CONTINUOUS
 62
     7
 10
1972.382755501241
 20
56.754500322056742
 30
0.0
  0
VERTEX
  5
C27
  8
DATA
  6
CONTINUOUS
 62
     7
 10
1972.375954920429
 20
56.748501607625258
 30
0.0
  0
VERTEX
  5
C28
  8
DATA
  6
CONTINUOUS
 62
     7
 10
1972.36913479698
 20
56.742522437841437
 30
0.0
  0
VERTEX
  5
C29
  8
DATA
  6
CONTINUOUS
 62
     7
 10
1972.3622951308921
 20
56.736562812705643
 30
0.0
  0
VERTEX
  5
C2A
  8
DATA
  6
CONTINUOUS
 62
     7
 10
1972.3554359221689
 20
56.730622732217618
 30
0.0
  0
VERTEX
  5
C2B
  8
DATA
  6
CONTINUOUS
 62
     7
 10
1972.3485571708079
 20
56.724702196377393
 30
0.0
  0
VERTEX
  5
C2C
  8
DATA
  6
CONTINUOUS
 62
     7
 10
1972.3416588768091
 20
56.718801205185173
 30
0.0
  0
VERTEX
  5
C2D
  8
DATA
  6
CONTINUOUS
 62
     7
 10
1972.334741040172
 20
56.712919758640737
 30
0.0
  0
VERTEX
  5
C2E
  8
DATA
  6
CONTINUOUS
 62
     7
 10
1972.3278036608981
 20
56.707057856744079
 30
0.0
  0
VERTEX
  5
C2F
  8
DATA
  6
CONTINUOUS
 62
     7
 10
1972.320846738987
 20
56.701215499495319
 30
0.0
  0
VERTEX
  5
C30
  8
DATA
  6
CONTINUOUS
 62
     7
 10
1972.3138702744391
 20
56.695392686894472
 30
0.0
  0
VERTEX
  5
C31
  8
DATA
  6
CONTINUOUS
 62
     7
 10
1972.3068742672531
 20
56.689589418941402
 30
0.0
  0
VERTEX
  5
C32
  8
DATA
  6
CONTINUOUS
 62
     7
 10
1972.29985871743
 20
56.683805695636238
 30
0.0
  0
VERTEX
  5
C33
  8
DATA
  6
CONTINUOUS
 62
     7
 10
1972.292826903225
 20
56.678043719231823
 30
0.0
  0
VERTEX
  5
C34
  8
DATA
  6
CONTINUOUS
 62
     7
 10
1972.285782102894
 20
56.672305691981137
 30
0.0
  0
VERTEX
  5
C35
  8
DATA
  6
CONTINUOUS
 62
     7
 10
1972.2787243164371
 20
56.666591613884279
 30
0.0
  0
VERTEX
  5
C36
  8
DATA
  6
CONTINUOUS
 62
     7
 10
1972.271653543854
 20
56.660901484941292
 30
0.0
  0
VERTEX
  5
C37
  8
DATA
  6
CONTINUOUS
 62
     7
 10
1972.2645697851451
 20
56.655235305152019
 30
0.0
  0
VERTEX
  5
C38
  8
DATA
  6
CONTINUOUS
 62
     7
 10
1972.2574730403101
 20
56.649593074516361
 30
0.0
  0
VERTEX
  5
C39
  8
DATA
  6
CONTINUOUS
 62
     7
 10
1972.250363309349
 20
56.643974793034538
 30
0.0
  0
VERTEX
  5
C3A
  8
DATA
  6
CONTINUOUS
 62
     7
 10
1972.2432405922609
 20
56.638380460706472
 30
0.0
  0
VERTEX
  5
C3B
  8
DATA
  6
CONTINUOUS
 62
     7
 10
1972.236104889048
 20
56.632810077532213
 30
0.0
  0
VERTEX
  5
C3C
  8
DATA
  6
CONTINUOUS
 62
     7
 10
1972.228956199709
 20
56.627263643511697
 30
0.0
  0
VERTEX
  5
C3D
  8
DATA
  6
CONTINUOUS
 62
     7
 10
1972.221794524243
 20
56.621741158644888
 30
0.0
  0
VERTEX
  5
C3E
  8
DATA
  6
CONTINUOUS
 62
     7
 10
1972.2146198626519
 20
56.61624262293185
 30
0.0
  0
VERTEX
  5
C3F
  8
DATA
  6
CONTINUOUS
 62
     7
 10
1972.207432214934
 20
56.610768036372527
 30
0.0
  0
VERTEX
  5
C40
  8
DATA
  6
CONTINUOUS
 62
     7
 10
1972.200231581091
 20
56.605317398967017
 30
0.0
  0
VERTEX
  5
C41
  8
DATA
  6
CONTINUOUS
 62
     7
 10
1972.193017961122
 20
56.599890710715272
 30
0.0
  0
VERTEX
  5
C42
  8
DATA
  6
CONTINUOUS
 62
     7
 10
1972.185791355027
 20
56.594487971617241
 30
0.0
  0
VERTEX
  5
C43
  8
DATA
  6
CONTINUOUS
 62
     7
 10
1972.178551762805
 20
56.589109181672931
 30
0.0
  0
VERTEX
  5
C44
  8
DATA
  6
CONTINUOUS
 62
     7
 10
1972.171299184457
 20
56.583754340882471
 30
0.0
  0
VERTEX
  5
C45
  8
DATA
  6
CONTINUOUS
 62
     7
 10
1972.1640336199839
 20
56.57842344924574
 30
0.0
  0
VERTEX
  5
C46
  8
DATA
  6
CONTINUOUS
 62
     7
 10
1972.156755069384
 20
56.573116506762737
 30
0.0
  0
VERTEX
  5
C47
  8
DATA
  6
CONTINUOUS
 62
     7
 10
1972.149463532658
 20
56.567833513433463
 30
0.0
  0
VERTEX
  5
C48
  8
DATA
  6
CONTINUOUS
 62
     7
 10
1972.1421590098071
 20
56.562574469258038
 30
0.0
  0
VERTEX
  5
C49
  8
DATA
  6
CONTINUOUS
 62
     7
 10
1972.1348415008281
 20
56.557339374236342
 30
0.0
  0
VERTEX
  5
C4A
  8
DATA
  6
CONTINUOUS
 62
     7
 10
1972.127511005725
 20
56.552128228368481
 30
0.0
  0
VERTEX
  5
C4B
  8
DATA
  6
CONTINUOUS
 62
     7
 10
1972.1201675244949
 20
56.546941031654349
 30
0.0
  0
VERTEX
  5
C4C
  8
DATA
  6
CONTINUOUS
 62
     7
 10
1972.112811057139
 20
56.541777784093931
 30
0.0
  0
VERTEX
  5
C4D
  8
DATA
  6
CONTINUOUS
 62
     7
 10
1972.105441603657
 20
56.536638485687263
 30
0.0
  0
VERTEX
  5
C4E
  8
DATA
  6
CONTINUOUS
 62
     7
 10
1972.098059164048
 20
56.531523136434309
 30
0.0
  0
VERTEX
  5
C4F
  8
DATA
  6
CONTINUOUS
 62
     7
 10
1972.090663738315
 20
56.526431736335098
 30
0.0
  0
VERTEX
  5
C50
  8
DATA
  6
CONTINUOUS
 62
     7
 10
1972.083255326454
 20
56.521364285389708
 30
0.0
  0
VERTEX
  5
C51
  8
DATA
  6
CONTINUOUS
 62
     7
 10
1972.075833928468
 20
56.516320783598083
 30
0.0
  0
VERTEX
  5
C52
  8
DATA
  6
CONTINUOUS
 62
     7
 10
1972.0683995443569
 20
56.511301230960157
 30
0.0
  0
VERTEX
  5
C53
  8
DATA
  6
CONTINUOUS
 62
     7
 10
1972.0609521741189
 20
56.506305627475967
 30
0.0
  0
VERTEX
  5
C54
  8
DATA
  6
CONTINUOUS
 62
     7
 10
1972.0534918177541
 20
56.501333973145613
 30
0.0
  0
VERTEX
  5
C55
  8
DATA
  6
CONTINUOUS
 62
     7
 10
1972.046018475264
 20
56.496386267969001
 30
0.0
  0
VERTEX
  5
C56
  8
DATA
  6
CONTINUOUS
 62
     7
 10
1972.0385321466481
 20
56.491462511946096
 30
0.0
  0
VERTEX
  5
C57
  8
DATA
  6
CONTINUOUS
 62
     7
 10
1972.0310328319049
 20
56.486562705076949
 30
0.0
  0
VERTEX
  5
C58
  8
DATA
  6
CONTINUOUS
 62
     7
 10
1972.0235205310371
 20
56.481686847361622
 30
0.0
  0
VERTEX
  5
C59
  8
DATA
  6
CONTINUOUS
 62
     7
 10
1972.015995244042
 20
56.476834938800039
 30
0.0
  0
VERTEX
  5
C5A
  8
DATA
  6
CONTINUOUS
 62
     7
 10
1972.008456970922
 20
56.47200697939229
 30
0.0
  0
VERTEX
  5
C5B
  8
DATA
  6
CONTINUOUS
 62
     7
 10
1972.0009057116761
 20
56.46720296913827
 30
0.0
  0
VERTEX
  5
C5C
  8
DATA
  6
CONTINUOUS
 62
     7
 10
1971.993341466303
 20
56.462422908037972
 30
0.0
  0
VERTEX
  5
C5D
  8
DATA
  6
CONTINUOUS
 62
     7
 10
1971.985764234804
 20
56.457666796091416
 30
0.0
  0
VERTEX
  5
C5E
  8
DATA
  6
CONTINUOUS
 62
     7
 10
1971.97817401718
 20
56.452934633298568
 30
0.0
  0
VERTEX
  5
C5F
  8
DATA
  6
CONTINUOUS
 62
     7
 10
1971.970570813429
 20
56.448226419659477
 30
0.0
  0
VERTEX
  5
C60
  8
DATA
  6
CONTINUOUS
 62
     7
 10
1971.9629546235531
 20
56.4435421551742
 30
0.0
  0
VERTEX
  5
C61
  8
DATA
  6
CONTINUOUS
 62
     7
 10
1971.95532544755
 20
56.438881839842679
 30
0.0
  0
VERTEX
  5
C62
  8
DATA
  6
CONTINUOUS
 62
     7
 10
1971.9476832854209
 20
56.43424547366498
 30
0.0
  0
VERTEX
  5
C63
  8
DATA
  6
CONTINUOUS
 62
     7
 10
1971.9400281371661
 20
56.429633056641023
 30
0.0
  0
VERTEX
  5
C64
  8
DATA
  6
CONTINUOUS
 62
     7
 10
1971.9323600027849
 20
56.425044588770788
 30
0.0
  0
VERTEX
  5
C65
  8
DATA
  6
CONTINUOUS
 62
     7
 10
1971.9246788822791
 20
56.420480070054282
 30
0.0
  0
VERTEX
  5
C66
  8
DATA
  6
CONTINUOUS
 62
     7
 10
1971.916984775645
 20
56.415939500491497
 30
0.0
  0
VERTEX
  5
C67
  8
DATA
  6
CONTINUOUS
 62
     7
 10
1971.909277682887
 20
56.411422880082569
 30
0.0
  0
VERTEX
  5
C68
  8
DATA
  6
CONTINUOUS
 62
     7
 10
1971.9015576040019
 20
56.406930208827362
 30
0.0
  0
VERTEX
  5
C69
  8
DATA
  6
CONTINUOUS
 62
     7
 10
1971.8938245389911
 20
56.40246148672599
 30
0.0
  0
VERTEX
  5
C6A
  8
DATA
  6
CONTINUOUS
 62
     7
 10
1971.8860784878541
 20
56.39801671377824
 30
0.0
  0
VERTEX
  5
C6B
  8
DATA
  6
CONTINUOUS
 62
     7
 10
1971.8783194505911
 20
56.393595889984233
 30
0.0
  0
VERTEX
  5
C6C
  8
DATA
  6
CONTINUOUS
 62
     7
 10
1971.870547427201
 20
56.38919901534404
 30
0.0
  0
VERTEX
  5
C6D
  8
DATA
  6
CONTINUOUS
 62
     7
 10
1971.8627624176861
 20
56.384826089857711
 30
0.0
  0
VERTEX
  5
C6E
  8
DATA
  6
CONTINUOUS
 62
     7
 10
1971.854964422045
 20
56.380477113525103
 30
0.0
  0
VERTEX
  5
C6F
  8
DATA
  6
CONTINUOUS
 62
     7
 10
1971.8471534402779
 20
56.37615208634611
 30
0.0
  0
VERTEX
  5
C70
  8
DATA
  6
CONTINUOUS
 62
     7
 10
1971.839329472384
 20
56.371851008320959
 30
0.0
  0
VERTEX
  5
C71
  8
DATA
  6
CONTINUOUS
 62
     7
 10
1971.8314925183649
 20
56.36757387944953
 30
0.0
  0
VERTEX
  5
C72
  8
DATA
  6
CONTINUOUS
 62
     7
 10
1971.82364257822
 20
56.363320699731958
 30
0.0
  0
VERTEX
  5
C73
  8
DATA
  6
CONTINUOUS
 62
     7
 10
1971.815760579153
 20
56.359085095815331
 30
0.0
  0
VERTEX
  5
C74
  8
DATA
  6
CONTINUOUS
 62
     7
 10
1971.807827448371
 20
56.354860694346598
 30
0.0
  0
VERTEX
  5
C75
  8
DATA
  6
CONTINUOUS
 62
     7
 10
1971.7998431858721
 20
56.350647495326129
 30
0.0
  0
VERTEX
  5
C76
  8
DATA
  6
CONTINUOUS
 62
     7
 10
1971.791807791657
 20
56.346445498753731
 30
0.0
  0
VERTEX
  5
C77
  8
DATA
  6
CONTINUOUS
 62
     7
 10
1971.783721265725
 20
56.342254704629461
 30
0.0
  0
VERTEX
  5
C78
  8
DATA
  6
CONTINUOUS
 62
     7
 10
1971.7755836080771
 20
56.338075112953213
 30
0.0
  0
VERTEX
  5
C79
  8
DATA
  6
CONTINUOUS
 62
     7
 10
1971.767394818713
 20
56.333906723725249
 30
0.0
  0
VERTEX
  5
C7A
  8
DATA
  6
CONTINUOUS
 62
     7
 10
1971.7591548976329
 20
56.329749536945201
 30
0.0
  0
VERTEX
  5
C7B
  8
DATA
  6
CONTINUOUS
 62
     7
 10
1971.7508638448371
 20
56.325603552613288
 30
0.0
  0
VERTEX
  5
C7C
  8
DATA
  6
CONTINUOUS
 62
     7
 10
1971.742521660324
 20
56.321468770729552
 30
0.0
  0
VERTEX
  5
C7D
  8
DATA
  6
CONTINUOUS
 62
     7
 10
1971.734128344096
 20
56.317345191293953
 30
0.0
  0
VERTEX
  5
C7E
  8
DATA
  6
CONTINUOUS
 62
     7
 10
1971.7256838961509
 20
56.313232814306389
 30
0.0
  0
VERTEX
  5
C7F
  8
DATA
  6
CONTINUOUS
 62
     7
 10
1971.717188316489
 20
56.309131639766981
 30
0.0
  0
VERTEX
  5
C80
  8
DATA
  6
CONTINUOUS
 62
     7
 10
1971.708641605112
 20
56.305041667675603
 30
0.0
  0
VERTEX
  5
C81
  8
DATA
  6
CONTINUOUS
 62
     7
 10
1971.7000437620179
 20
56.300962898032367
 30
0.0
  0
VERTEX
  5
C82
  8
DATA
  6
CONTINUOUS
 62
     7
 10
1971.691394787209
 20
56.296895330837287
 30
0.0
  0
VERTEX
  5
C83
  8
DATA
  6
CONTINUOUS
 62
     7
 10
1971.682694680683
 20
56.292838966090351
 30
0.0
  0
VERTEX
  5
C84
  8
DATA
  6
CONTINUOUS
 62
     7
 10
1971.6739434424401
 20
56.28879380379135
 30
0.0
  0
VERTEX
  5
C85
  8
DATA
  6
CONTINUOUS
 62
     7
 10
1971.665141072481
 20
56.284759843940499
 30
0.0
  0
VERTEX
  5
C86
  8
DATA
  6
CONTINUOUS
 62
     7
 10
1971.6562875708071
 20
56.280737086537783
 30
0.0
  0
VERTEX
  5
C87
  8
DATA
  6
CONTINUOUS
 62
     7
 10
1971.6473829374161
 20
56.276725531583232
 30
0.0
  0
VERTEX
  5
C88
  8
DATA
  6
CONTINUOUS
 62
     7
 10
1971.638427172308
 20
56.272725179076701
 30
0.0
  0
VERTEX
  5
C89
  8
DATA
  6
CONTINUOUS
 62
     7
 10
1971.6294202754841
 20
56.268736029018328
 30
0.0
  0
VERTEX
  5
C8A
  8
DATA
  6
CONTINUOUS
 62
     7
 10
1971.620362246945
 20
56.264758081408097
 30
0.0
  0
VERTEX
  5
C8B
  8
DATA
  6
CONTINUOUS
 62
     7
 10
1971.611253086689
 20
56.260791336245923
 30
0.0
  0
VERTEX
  5
C8C
  8
DATA
  6
CONTINUOUS
 62
     7
 10
1971.6020927947161
 20
56.256835793531877
 30
0.0
  0
VERTEX
  5
C8D
  8
DATA
  6
CONTINUOUS
 62
     7
 10
1971.5928813710279
 20
56.252891453265889
 30
0.0
  0
VERTEX
  5
C8E
  8
DATA
  6
CONTINUOUS
 62
     7
 10
1971.583618815624
 20
56.248958315448029
 30
0.0
  0
VERTEX
  5
C8F
  8
DATA
  6
CONTINUOUS
 62
     7
 10
1971.5743051285031
 20
56.245036380078318
 30
0.0
  0
VERTEX
  5
C90
  8
DATA
  6
CONTINUOUS
 62
     7
 10
1971.564940309665
 20
56.24112564715665
 30
0.0
  0
VERTEX
  5
C91
  8
DATA
  6
CONTINUOUS
 62
     7
 10
1971.555524359112
 20
56.237226116683132
 30
0.0
  0
VERTEX
  5
C92
  8
DATA
  6
CONTINUOUS
 62
     7
 10
1971.5460572768429
 20
56.233337788657643
 30
0.0
  0
VERTEX
  5
C93
  8
DATA
  6
CONTINUOUS
 62
     7
 10
1971.536539062856
 20
56.22946066308031
 30
0.0
  0
VERTEX
  5
C94
  8
DATA
  6
CONTINUOUS
 62
     7
 10
1971.526969717155
 20
56.225594739951141
 30
0.0
  0
VERTEX
  5
C95
  8
DATA
  6
CONTINUOUS
 62
     7
 10
1971.5173492397359
 20
56.221740019270001
 30
0.0
  0
VERTEX
  5
C96
  8
DATA
  6
CONTINUOUS
 62
     7
 10
1971.5076776306021
 20
56.217896501036968
 30
0.0
  0
VERTEX
  5
C97
  8
DATA
  6
CONTINUOUS
 62
     7
 10
1971.497954889752
 20
56.214064185252028
 30
0.0
  0
VERTEX
  5
C98
  8
DATA
  6
CONTINUOUS
 62
     7
 10
1971.4881810171839
 20
56.210243071915222
 30
0.0
  0
VERTEX
  5
C99
  8
DATA
  6
CONTINUOUS
 62
     7
 10
1971.478356012901
 20
56.206433161026538
 30
0.0
  0
VERTEX
  5
C9A
  8
DATA
  6
CONTINUOUS
 62
     7
 10
1971.468479876901
 20
56.202634452585933
 30
0.0
  0
VERTEX
  5
C9B
  8
DATA
  6
CONTINUOUS
 62
     7
 10
1971.458552609186
 20
56.198846946593449
 30
0.0
  0
VERTEX
  5
C9C
  8
DATA
  6
CONTINUOUS
 62
     7
 10
1971.448574209754
 20
56.195070643049007
 30
0.0
  0
VERTEX
  5
C9D
  8
DATA
  6
CONTINUOUS
 62
     7
 10
1971.4385446786059
 20
56.191305541952723
 30
0.0
  0
VERTEX
  5
C9E
  8
DATA
  6
CONTINUOUS
 62
     7
 10
1971.4284640157409
 20
56.187551643304559
 30
0.0
  0
VERTEX
  5
C9F
  8
DATA
  6
CONTINUOUS
 62
     7
 10
1971.4183322211611
 20
56.183808947104581
 30
0.0
  0
VERTEX
  5
CA0
  8
DATA
  6
CONTINUOUS
 62
     7
 10
1971.408149294864
 20
56.180077453352617
 30
0.0
  0
VERTEX
  5
CA1
  8
DATA
  6
CONTINUOUS
 62
     7
 10
1971.3979152368511
 20
56.176357162048703
 30
0.0
  0
VERTEX
  5
CA2
  8
DATA
  6
CONTINUOUS
 62
     7
 10
1971.387630047122
 20
56.172648073192931
 30
0.0
  0
VERTEX
  5
CA3
  8
DATA
  6
CONTINUOUS
 62
     7
 10
1971.377293725677
 20
56.168950186785317
 30
0.0
  0
VERTEX
  5
CA4
  8
DATA
  6
CONTINUOUS
 62
     7
 10
1971.3669062725139
 20
56.165263502825837
 30
0.0
  0
VERTEX
  5
CA5
  8
DATA
  6
CONTINUOUS
 62
     7
 10
1971.356467687636
 20
56.161588021314401
 30
0.0
  0
VERTEX
  5
CA6
  8
DATA
  6
CONTINUOUS
 62
     7
 10
1971.345977971042
 20
56.157923742250993
 30
0.0
  0
VERTEX
  5
CA7
  8
DATA
  6
CONTINUOUS
 62
     7
 10
1971.3354371227319
 20
56.15427066563575
 30
0.0
  0
VERTEX
  5
CA8
  8
DATA
  6
CONTINUOUS
 62
     7
 10
1971.324845142705
 20
56.150628791468648
 30
0.0
  0
VERTEX
  5
CA9
  8
DATA
  6
CONTINUOUS
 62
     7
 10
1971.314202030962
 20
56.146998119749689
 30
0.0
  0
VERTEX
  5
CAA
  8
DATA
  6
CONTINUOUS
 62
     7
 10
1971.3035077875029
 20
56.14337865047878
 30
0.0
  0
VERTEX
  5
CAB
  8
DATA
  6
CONTINUOUS
 62
     7
 10
1971.2927624123281
 20
56.139770383656028
 30
0.0
  0
VERTEX
  5
CAC
  8
DATA
  6
CONTINUOUS
 62
     7
 10
1971.281965905436
 20
56.136173319281291
 30
0.0
  0
VERTEX
  5
CAD
  8
DATA
  6
CONTINUOUS
 62
     7
 10
1971.2711182668279
 20
56.13258745735471
 30
0.0
  0
VERTEX
  5
CAE
  8
DATA
  6
CONTINUOUS
 62
     7
 10
1971.260219496505
 20
56.129012797876157
 30
0.0
  0
VERTEX
  5
CAF
  8
DATA
  6
CONTINUOUS
 62
     7
 10
1971.249269594465
 20
56.125449340845748
 30
0.0
  0
VERTEX
  5
CB0
  8
DATA
  6
CONTINUOUS
 62
     7
 10
1971.2382685607081
 20
56.12189708626353
 30
0.0
  0
VERTEX
  5
CB1
  8
DATA
  6
CONTINUOUS
 62
     7
 10
1971.227216395235
 20
56.118356034129299
 30
0.0
  0
VERTEX
  5
CB2
  8
DATA
  6
CONTINUOUS
 62
     7
 10
1971.216113098046
 20
56.114826184443253
 30
0.0
  0
VERTEX
  5
CB3
  8
DATA
  6
CONTINUOUS
 62
     7
 10
1971.204957850468
 20
56.111329390641011
 30
0.0
  0
VERTEX
  5
CB4
  8
DATA
  6
CONTINUOUS
 62
     7
 10
1971.193749833825
 20
56.107887506158242
 30
0.0
  0
VERTEX
  5
CB5
  8
DATA
  6
CONTINUOUS
 62
     7
 10
1971.18248904812
 20
56.104500530994983
 30
0.0
  0
VERTEX
  5
CB6
  8
DATA
  6
CONTINUOUS
 62
     7
 10
1971.171175493351
 20
56.101168465151197
 30
0.0
  0
VERTEX
  5
CB7
  8
DATA
  6
CONTINUOUS
 62
     7
 10
1971.159809169518
 20
56.097891308626899
 30
0.0
  0
VERTEX
  5
CB8
  8
DATA
  6
CONTINUOUS
 62
     7
 10
1971.1483900766229
 20
56.09466906142211
 30
0.0
  0
VERTEX
  5
CB9
  8
DATA
  6
CONTINUOUS
 62
     7
 10
1971.136918214663
 20
56.091501723536787
 30
0.0
  0
VERTEX
  5
CBA
  8
DATA
  6
CONTINUOUS
 62
     7
 10
1971.1253935836401
 20
56.088389294970973
 30
0.0
  0
VERTEX
  5
CBB
  8
DATA
  6
CONTINUOUS
 62
     7
 10
1971.1138161835529
 20
56.085331775724633
 30
0.0
  0
VERTEX
  5
CBC
  8
DATA
  6
CONTINUOUS
 62
     7
 10
1971.102186014404
 20
56.08232916579778
 30
0.0
  0
VERTEX
  5
CBD
  8
DATA
  6
CONTINUOUS
 62
     7
 10
1971.0905030761901
 20
56.079381465190522
 30
0.0
  0
VERTEX
  5
CBE
  8
DATA
  6
CONTINUOUS
 62
     7
 10
1971.078767368914
 20
56.076488673902638
 30
0.0
  0
VERTEX
  5
CBF
  8
DATA
  6
CONTINUOUS
 62
     7
 10
1971.0669788925741
 20
56.073650791934263
 30
0.0
  0
VERTEX
  5
CC0
  8
DATA
  6
CONTINUOUS
 62
     7
 10
1971.055137647171
 20
56.070867819285461
 30
0.0
  0
VERTEX
  5
CC1
  8
DATA
  6
CONTINUOUS
 62
     7
 10
1971.0432436327039
 20
56.068139755956167
 30
0.0
  0
VERTEX
  5
CC2
  8
DATA
  6
CONTINUOUS
 62
     7
 10
1971.031296849173
 20
56.065466601946362
 30
0.0
  0
VERTEX
  5
CC3
  8
DATA
  6
CONTINUOUS
 62
     7
 10
1971.0192972965799
 20
56.062848357256023
 30
0.0
  0
VERTEX
  5
CC4
  8
DATA
  6
CONTINUOUS
 62
     7
 10
1971.007244974923
 20
56.060285021885178
 30
0.0
  0
VERTEX
  5
CC5
  8
DATA
  6
CONTINUOUS
 62
     7
 10
1970.995139884202
 20
56.05777659583385
 30
0.0
  0
VERTEX
  5
CC6
  8
DATA
  6
CONTINUOUS
 62
     7
 10
1970.9829820244181
 20
56.055323079101967
 30
0.0
  0
VERTEX
  5
CC7
  8
DATA
  6
CONTINUOUS
 62
     7
 10
1970.97077139557
 20
56.0529244716896
 30
0.0
  0
VERTEX
  5
CC8
  8
DATA
  6
CONTINUOUS
 62
     7
 10
1970.95850799766
 20
56.050580773596721
 30
0.0
  0
VERTEX
  5
CC9
  8
DATA
  6
CONTINUOUS
 62
     7
 10
1970.9461918306849
 20
56.048291984823322
 30
0.0
  0
VERTEX
  5
CCA
  8
DATA
  6
CONTINUOUS
 62
     7
 10
1970.9338228946469
 20
56.046058105369532
 30
0.0
  0
VERTEX
  5
CCB
  8
DATA
  6
CONTINUOUS
 62
     7
 10
1970.921401189546
 20
56.043879135235208
 30
0.0
  0
VERTEX
  5
CCC
  8
DATA
  6
CONTINUOUS
 62
     7
 10
1970.9089267153811
 20
56.04175507442028
 30
0.0
  0
VERTEX
  5
CCD
  8
DATA
  6
CONTINUOUS
 62
     7
 10
1970.896399472153
 20
56.039685922924818
 30
0.0
  0
VERTEX
  5
CCE
  8
DATA
  6
CONTINUOUS
 62
     7
 10
1970.8838194598609
 20
56.037671680748979
 30
0.0
  0
VERTEX
  5
CCF
  8
DATA
  6
CONTINUOUS
 62
     7
 10
1970.871186678507
 20
56.035712347892641
 30
0.0
  0
VERTEX
  5
CD0
  8
DATA
  6
CONTINUOUS
 62
     7
 10
1970.8585011280879
 20
56.033807924355642
 30
0.0
  0
VERTEX
  5
CD1
  8
DATA
  6
CONTINUOUS
 62
     7
 10
1970.845762808606
 20
56.031958410138252
 30
0.0
  0
VERTEX
  5
CD2
  8
DATA
  6
CONTINUOUS
 62
     7
 10
1970.83297172006
 20
56.030163805240363
 30
0.0
  0
VERTEX
  5
CD3
  8
DATA
  6
CONTINUOUS
 62
     7
 10
1970.820127862452
 20
56.028424109661962
 30
0.0
  0
VERTEX
  5
CD4
  8
DATA
  6
CONTINUOUS
 62
     7
 10
1970.8072312357799
 20
56.026739323403042
 30
0.0
  0
VERTEX
  5
CD5
  8
DATA
  6
CONTINUOUS
 62
     7
 10
1970.794281840045
 20
56.025109446463603
 30
0.0
  0
VERTEX
  5
CD6
  8
DATA
  6
CONTINUOUS
 62
     7
 10
1970.7812796752451
 20
56.023534478843651
 30
0.0
  0
VERTEX
  5
CD7
  8
DATA
  6
CONTINUOUS
 62
     7
 10
1970.7682247413829
 20
56.022014420543201
 30
0.0
  0
VERTEX
  5
CD8
  8
DATA
  6
CONTINUOUS
 62
     7
 10
1970.755117038457
 20
56.020549271562217
 30
0.0
  0
VERTEX
  5
CD9
  8
DATA
  6
CONTINUOUS
 62
     7
 10
1970.7419565664679
 20
56.01913903190075
 30
0.0
  0
VERTEX
  5
CDA
  8
DATA
  6
CONTINUOUS
 62
     7
 10
1970.7287433254151
 20
56.017783701558869
 30
0.0
  0
VERTEX
  5
CDB
  8
DATA
  6
CONTINUOUS
 62
     7
 10
1970.715477315299
 20
56.016483280536477
 30
0.0
  0
VERTEX
  5
CDC
  8
DATA
  6
CONTINUOUS
 62
     7
 10
1970.702158536119
 20
56.015237768833472
 30
0.0
  0
VERTEX
  5
CDD
  8
DATA
  6
CONTINUOUS
 62
     7
 10
1970.688786987876
 20
56.01404716644992
 30
0.0
  0
VERTEX
  5
CDE
  8
DATA
  6
CONTINUOUS
 62
     7
 10
1970.675362670569
 20
56.012911473385998
 30
0.0
  0
VERTEX
  5
CDF
  8
DATA
  6
CONTINUOUS
 62
     7
 10
1970.6618855842
 20
56.011830689641563
 30
0.0
  0
VERTEX
  5
CE0
  8
DATA
  6
CONTINUOUS
 62
     7
 10
1970.6483557287661
 20
56.010804815216488
 30
0.0
  0
VERTEX
  5
CE1
  8
DATA
  6
CONTINUOUS
 62
     7
 10
1970.634773104269
 20
56.009833850111029
 30
0.0
  0
VERTEX
  5
CE2
  8
DATA
  6
CONTINUOUS
 62
     7
 10
1970.6211377107079
 20
56.008917794325043
 30
0.0
  0
VERTEX
  5
CE3
  8
DATA
  6
CONTINUOUS
 62
     7
 10
1970.607449548085
 20
56.008056647858552
 30
0.0
  0
VERTEX
  5
CE4
  8
DATA
  6
CONTINUOUS
 62
     7
 10
1970.593708616397
 20
56.007250410711542
 30
0.0
  0
VERTEX
  5
CE5
  8
DATA
  6
CONTINUOUS
 62
     7
 10
1970.5799149156469
 20
56.006499082884027
 30
0.0
  0
VERTEX
  5
CE6
  8
DATA
  6
CONTINUOUS
 62
     7
 10
1970.566068445833
 20
56.005802664376013
 30
0.0
  0
VERTEX
  5
CE7
  8
DATA
  6
CONTINUOUS
 62
     7
 10
1970.552169206956
 20
56.005161155187572
 30
0.0
  0
VERTEX
  5
CE8
  8
DATA
  6
CONTINUOUS
 62
     7
 10
1970.5382171990141
 20
56.00457455531852
 30
0.0
  0
VERTEX
  5
CE9
  8
DATA
  6
CONTINUOUS
 62
     7
 10
1970.5242124220099
 20
56.004042864768962
 30
0.0
  0
VERTEX
  5
CEA
  8
DATA
  6
CONTINUOUS
 62
     7
 10
1970.5101548759419
 20
56.003566083538999
 30
0.0
  0
VERTEX
  5
CEB
  8
DATA
  6
CONTINUOUS
 62
     7
 10
1970.496044560811
 20
56.003144211628531
 30
0.0
  0
VERTEX
  5
CEC
  8
DATA
  6
CONTINUOUS
 62
     7
 10
1970.481881476617
 20
56.002777249037422
 30
0.0
  0
VERTEX
  5
CED
  8
DATA
  6
CONTINUOUS
 62
     7
 10
1970.4676656233589
 20
56.002465195765808
 30
0.0
  0
VERTEX
  5
CEE
  8
DATA
  6
CONTINUOUS
 62
     7
 10
1970.453397001037
 20
56.002208051813788
 30
0.0
  0
VERTEX
  5
CEF
  8
DATA
  6
CONTINUOUS
 62
     7
 10
1970.439075609652
 20
56.002005817181271
 30
0.0
  0
VERTEX
  5
CF0
  8
DATA
  6
CONTINUOUS
 62
     7
 10
1970.4247014492039
 20
56.001858491868241
 30
0.0
  0
VERTEX
  5
CF1
  8
DATA
  6
CONTINUOUS
 62
     7
 10
1970.4102745196919
 20
56.001766075874691
 30
0.0
  0
VERTEX
  5
CF2
  8
DATA
  6
CONTINUOUS
 62
     7
 10
1970.3957948211159
 20
56.001728569200623
 30
0.0
  0
VERTEX
  5
CF3
  8
DATA
  6
CONTINUOUS
 62
     7
 10
1970.3957948211159
 20
56.001728569200623
 30
0.0
  0
SEQEND
  5
CF4
  8
DATA
  6
CONTINUOUS
 62
     7
  0
LINE
  5
5DD
  8
DATA
  6
CONTINUOUS
 62
     7
 10
1924.1543938205971
 20
113.3715756307792
 30
0.0
 11
1924.068414697829
 21
113.35949205309861
 31
0.0
  0
LINE
  5
5DE
  8
DATA
  6
CONTINUOUS
 62
     7
 10
1983.1240562671881
 20
618.89583277762631
 30
0.0
 11
1983.1240562671969
 21
635.99542873332905
 31
0.0
  0
ARC
  5
5DF
  8
DATA
  6
CONTINUOUS
 62
     7
 10
1982.6240562671981
 20
635.99542873332928
 30
0.0
 40
0.5
 50
359.99999999994787
 51
83.999999999964544
  0
ARC
  5
5E0
  8
DATA
  6
CONTINUOUS
 62
     7
 10
1982.6240562671881
 20
618.89583277762665
 30
0.0
 40
0.4999999999998265
 50
275.99999999993167
 51
359.99999999994787
  0
LINE
  5
5E1
  8
DATA
  6
CONTINUOUS
 62
     7
 10
1982.676320498832
 20
636.49268968101296
 30
0.0
 11
1973.391683425725
 21
637.46854436030708
 31
0.0
  0
LINE
  5
5E2
  8
DATA
  6
CONTINUOUS
 62
     7
 10
1982.676320498821
 20
618.39857182994285
 30
0.0
 11
1973.391683425712
 21
617.42271715065965
 31
0.0
  0
LINE
  5
5E3
  8
DATA
  6
CONTINUOUS
 62
     7
 10
1983.124056266869
 20
78.895832777632677
 30
0.0
 11
1983.1240562668791
 21
95.995428733335757
 31
0.0
  0
ARC
  5
5E4
  8
DATA
  6
CONTINUOUS
 62
     7
 10
1982.62405626688
 20
95.995428733335757
 30
0.0
 40
0.5
 50
359.99999999994787
 51
83.999999999964544
  0
ARC
  5
5E5
  8
DATA
  6
CONTINUOUS
 62
     7
 10
1982.624056266869
 20
78.895832777633586
 30
0.0
 40
0.5000000000003261
 50
275.99999999997817
 51
359.99999999994799
  0
LINE
  5
5E6
  8
DATA
  6
CONTINUOUS
 62
     7
 10
1982.676320498513
 20
96.4926896810193
 30
0.0
 11
1973.3916834254039
 21
97.46854436031343
 31
0.0
  0
LINE
  5
5E7
  8
DATA
  6
CONTINUOUS
 62
     7
 10
1982.6763204985029
 20
78.398571829948651
 30
0.0
 11
1973.3916834253921
 21
77.422717150666372
 31
0.0
  0
LINE
  5
5E8
  8
DATA
  6
CONTINUOUS
 62
     7
 10
1945.3916834253739
 20
53.005839964952422
 30
0.0
 11
1944.939507456193
 21
53.458015934136711
 31
0.0
  0
LINE
  5
5E9
  8
DATA
  6
CONTINUOUS
 62
     7
 10
1839.871206445597
 20
558.38975846770973
 30
0.0
 11
1901.6974002640541
 21
118.4735309198104
 31
0.0
  0
LINE
  5
5EA
  8
DATA
  6
CONTINUOUS
 62
     7
 10
1945.1930845871109
 20
121.5150454577965
 30
0.0
 11
1945.1930839819429
 21
500.79538303410862
 31
0.0
  0
POLYLINE
  5
5EB
  8
DATA
  6
CONTINUOUS
 62
     7
 66
     1
 10
0.0
 20
0.0
 30
0.0
 70
   128
  0
VERTEX
  5
CF5
  8
DATA
  6
CONTINUOUS
 62
     7
 10
1945.1930839819429
 20
500.79538303410862
 30
0.0
  0
VERTEX
  5
CF6
  8
DATA
  6
CONTINUOUS
 62
     7
 10
1945.1960713667399
 20
500.87434726750712
 30
0.0
  0
VERTEX
  5
CF7
  8
DATA
  6
CONTINUOUS
 62
     7
 10
1945.2022106451509
 20
500.95346408879641
 30
0.0
  0
VERTEX
  5
CF8
  8
DATA
  6
CONTINUOUS
 62
     7
 10
1945.211518506479
 20
501.03258091008507
 30
0.0
  0
VERTEX
  5
CF9
  8
DATA
  6
CONTINUOUS
 62
     7
 10
1945.2240021032801
 20
501.11150699651131
 30
0.0
  0
VERTEX
  5
CFA
  8
DATA
  6
CONTINUOUS
 62
     7
 10
1945.2396757406721
 20
501.1899753192651
 30
0.0
  0
VERTEX
  5
CFB
  8
DATA
  6
CONTINUOUS
 62
     7
 10
1945.2584988874919
 20
501.26779514348391
 30
0.0
  0
VERTEX
  5
CFC
  8
DATA
  6
CONTINUOUS
 62
     7
 10
1945.28040478654
 20
501.34481388127648
 30
0.0
  0
VERTEX
  5
CFD
  8
DATA
  6
CONTINUOUS
 62
     7
 10
1945.3053314489839
 20
501.42076450383507
 30
0.0
  0
VERTEX
  5
CFE
  8
DATA
  6
CONTINUOUS
 62
     7
 10
1945.3332145018101
 20
501.49549442326872
 30
0.0
  0
VERTEX
  5
CFF
  8
DATA
  6
CONTINUOUS
 62
     7
 10
1945.3640205664169
 20
501.56896549260472
 30
0.0
  0
VERTEX
  5
D00
  8
DATA
  6
CONTINUOUS
 62
     7
 10
1945.3977591795449
 20
501.64121585881549
 30
0.0
  0
VERTEX
  5
D01
  8
DATA
  6
CONTINUOUS
 62
     7
 10
1945.4344231886389
 20
501.71216922795622
 30
0.0
  0
VERTEX
  5
D02
  8
DATA
  6
CONTINUOUS
 62
     7
 10
1945.473957757426
 20
501.78171115910851
 30
0.0
  0
VERTEX
  5
D03
  8
DATA
  6
CONTINUOUS
 62
     7
 10
1945.516241292429
 20
501.84961277043669
 30
0.0
  0
VERTEX
  5
D04
  8
DATA
  6
CONTINUOUS
 62
     7
 10
1945.5611617369179
 20
501.9156833270772
 30
0.0
  0
VERTEX
  5
D05
  8
DATA
  6
CONTINUOUS
 62
     7
 10
1945.608587960673
 20
501.97980838811242
 30
0.0
  0
VERTEX
  5
D06
  8
DATA
  6
CONTINUOUS
 62
     7
 10
1945.6584412855641
 20
502.04187351262408
 30
0.0
  0
VERTEX
  5
D07
  8
DATA
  6
CONTINUOUS
 62
     7
 10
1945.7106978697309
 20
502.1018405536397
 30
0.0
  0
VERTEX
  5
D08
  8
DATA
  6
CONTINUOUS
 62
     7
 10
1945.7653100294599
 20
502.15970951115941
 30
0.0
  0
VERTEX
  5
D09
  8
DATA
  6
CONTINUOUS
 62
     7
 10
1945.822227696849
 20
502.21540409123747
 30
0.0
  0
VERTEX
  5
D0A
  8
DATA
  6
CONTINUOUS
 62
     7
 10
1945.881300668193
 20
502.26877170598362
 30
0.0
  0
VERTEX
  5
D0B
  8
DATA
  6
CONTINUOUS
 62
     7
 10
1945.942342977
 20
502.31962162053429
 30
0.0
  0
VERTEX
  5
D0C
  8
DATA
  6
CONTINUOUS
 62
     7
 10
1946.005187730266
 20
502.3679156879171
 30
0.0
  0
VERTEX
  5
D0D
  8
DATA
  6
CONTINUOUS
 62
     7
 10
1946.0696584982411
 20
502.41353946721398
 30
0.0
  0
SEQEND
  5
D0E
  8
DATA
  6
CONTINUOUS
 62
     7
  0
ARC
  5
606
  8
DATA
  6
CONTINUOUS
 62
     7
 10
1976.3229468219761
 20
456.02321048562948
 30
0.0
 40
55.383426350678342
 50
112.42475449033751
 51
123.1102382043163
  0
ARC
  5
607
  8
DATA
  6
CONTINUOUS
 62
     7
 10
1923.3389007180219
 20
121.51504545780919
 30
0.0
 40
21.854183869089098
 50
187.99999999996129
 51
359.99999999997499
  0
ARC
  5
608
  8
DATA
  6
CONTINUOUS
 62
     7
 10
1976.322946821974
 20
456.02321048563221
 30
0.0
 40
176.80140116170989
 50
100.42510185668949
 51
138.157179822095
  0
POLYLINE
  5
609
  8
DATA
  6
CONTINUOUS
 62
     7
 66
     1
 10
0.0
 20
0.0
 30
0.0
 70
   128
  0
VERTEX
  5
D0F
  8
DATA
  6
CONTINUOUS
 62
     7
 10
1844.6098525328471
 20
573.9655490497945
 30
0.0
  0
VERTEX
  5
D10
  8
DATA
  6
CONTINUOUS
 62
     7
 10
1844.152823190195
 20
573.43790012401348
 30
0.0
  0
VERTEX
  5
D11
  8
DATA
  6
CONTINUOUS
 62
     7
 10
1843.7148005766701
 20
572.89377170604553
 30
0.0
  0
VERTEX
  5
D12
  8
DATA
  6
CONTINUOUS
 62
     7
 10
1843.2964141173179
 20
572.3340030292876
 30
0.0
  0
VERTEX
  5
D13
  8
DATA
  6
CONTINUOUS
 62
     7
 10
1842.898245553476
 20
571.75935703319385
 30
0.0
  0
VERTEX
  5
D14
  8
DATA
  6
CONTINUOUS
 62
     7
 10
1842.5209147734449
 20
571.17055851024486
 30
0.0
  0
VERTEX
  5
D15
  8
DATA
  6
CONTINUOUS
 62
     7
 10
1842.1650321287921
 20
570.56844669383918
 30
0.0
  0
VERTEX
  5
D16
  8
DATA
  6
CONTINUOUS
 62
     7
 10
1841.8311984343341
 20
569.95374637645637
 30
0.0
  0
VERTEX
  5
D17
  8
DATA
  6
CONTINUOUS
 62
     7
 10
1841.5200145048891
 20
569.32729679149554
 30
0.0
  0
VERTEX
  5
D18
  8
DATA
  6
CONTINUOUS
 62
     7
 10
1841.2321002287661
 20
568.68989902538237
 30
0.0
  0
VERTEX
  5
D19
  8
DATA
  6
CONTINUOUS
 62
     7
 10
1840.9678752226621
 20
568.0428119282152
 30
0.0
  0
VERTEX
  5
D1A
  8
DATA
  6
CONTINUOUS
 62
     7
 10
1840.72755883167
 20
567.38679843944465
 30
0.0
  0
VERTEX
  5
D1B
  8
DATA
  6
CONTINUOUS
 62
     7
 10
1840.511379937627
 20
566.72235446971911
 30
0.0
  0
VERTEX
  5
D1C
  8
DATA
  6
CONTINUOUS
 62
     7
 10
1840.3195578856239
 20
566.05016666454321
 30
0.0
  0
VERTEX
  5
D1D
  8
DATA
  6
CONTINUOUS
 62
     7
 10
1840.1523120207571
 20
565.3707690815354
 30
0.0
  0
VERTEX
  5
D1E
  8
DATA
  6
CONTINUOUS
 62
     7
 10
1840.0098616881139
 20
564.68473392528551
 30
0.0
  0
VERTEX
  5
D1F
  8
DATA
  6
CONTINUOUS
 62
     7
 10
1839.892435769535
 20
563.99267154735628
 30
0.0
  0
VERTEX
  5
D20
  8
DATA
  6
CONTINUOUS
 62
     7
 10
1839.8003203673129
 20
563.29538303417212
 30
0.0
  0
VERTEX
  5
D21
  8
DATA
  6
CONTINUOUS
 62
     7
 10
1839.733811120487
 20
562.59439426464144
 30
0.0
  0
VERTEX
  5
D22
  8
DATA
  6
CONTINUOUS
 62
     7
 10
1839.692927102541
 20
561.8910785297777
 30
0.0
  0
VERTEX
  5
D23
  8
DATA
  6
CONTINUOUS
 62
     7
 10
1839.6776873869651
 20
561.18692356151655
 30
0.0
  0
VERTEX
  5
D24
  8
DATA
  6
CONTINUOUS
 62
     7
 10
1839.6881205839859
 20
560.48334079784445
 30
0.0
  0
VERTEX
  5
D25
  8
DATA
  6
CONTINUOUS
 62
     7
 10
1839.72412178943
 20
559.78174167675036
 30
0.0
  0
VERTEX
  5
D26
  8
DATA
  6
CONTINUOUS
 62
     7
 10
1839.78528092334
 20
559.08342319530493
 30
0.0
  0
VERTEX
  5
D27
  8
DATA
  6
CONTINUOUS
 62
     7
 10
1839.8712069792491
 20
558.38975864452379
 30
0.0
  0
SEQEND
  5
D28
  8
DATA
  6
CONTINUOUS
 62
     7
  0
LINE
  5
624
  8
DATA
  6
CONTINUOUS
 62
     7
 10
1903.8275869527661
 20
118.7729091351125
 30
0.0
 11
1842.1410782857899
 21
557.69522518552958
 31
0.0
  0
LINE
  5
625
  8
DATA
  6
CONTINUOUS
 62
     7
 10
1939.0428853983999
 20
504.011495686807
 30
0.0
 11
1941.445563939508
 21
121.51504545779829
 31
0.0
  0
LINE
  5
626
  8
DATA
  6
CONTINUOUS
 62
     7
 10
1959.4023754182119
 20
601.3122164356156
 30
0.0
 11
1959.8516145142121
 21
529.7952170372306
 31
0.0
  0
POLYLINE
  5
627
  8
DATA
  6
CONTINUOUS
 62
     7
 66
     1
 10
0.0
 20
0.0
 30
0.0
 70
   128
  0
VERTEX
  5
D29
  8
DATA
  6
CONTINUOUS
 62
     7
 10
1959.8516149325169
 20
529.79520755802605
 30
0.0
  0
VERTEX
  5
D2A
  8
DATA
  6
CONTINUOUS
 62
     7
 10
1959.833203057744
 20
528.89512973820194
 30
0.0
  0
VERTEX
  5
D2B
  8
DATA
  6
CONTINUOUS
 62
     7
 10
1959.7753031058101
 20
527.99474674259636
 30
0.0
  0
VERTEX
  5
D2C
  8
DATA
  6
CONTINUOUS
 62
     7
 10
1959.678194026448
 20
527.09634738956913
 30
0.0
  0
VERTEX
  5
D2D
  8
DATA
  6
CONTINUOUS
 62
     7
 10
1959.5421583456771
 20
526.20218235050663
 30
0.0
  0
VERTEX
  5
D2E
  8
DATA
  6
CONTINUOUS
 62
     7
 10
1959.3674762053261
 20
525.31450229679569
 30
0.0
  0
VERTEX
  5
D2F
  8
DATA
  6
CONTINUOUS
 62
     7
 10
1959.1544265551331
 20
524.43555789982395
 30
0.0
  0
VERTEX
  5
D30
  8
DATA
  6
CONTINUOUS
 62
     7
 10
1958.903291921114
 20
523.56763797794895
 30
0.0
  0
VERTEX
  5
D31
  8
DATA
  6
CONTINUOUS
 62
     7
 10
1958.614351253008
 20
522.71299320255832
 30
0.0
  0
VERTEX
  5
D32
  8
DATA
  6
CONTINUOUS
 62
     7
 10
1958.2877666754471
 20
521.87353092228477
 30
0.0
  0
VERTEX
  5
D33
  8
DATA
  6
CONTINUOUS
 62
     7
 10
1957.9233498377539
 20
521.04886966740253
 30
0.0
  0
VERTEX
  5
D34
  8
DATA
  6
CONTINUOUS
 62
     7
 10
1957.522046069595
 20
520.2406497577349
 30
0.0
  0
VERTEX
  5
D35
  8
DATA
  6
CONTINUOUS
 62
     7
 10
1957.084983090851
 20
519.45093112980521
 30
0.0
  0
VERTEX
  5
D36
  8
DATA
  6
CONTINUOUS
 62
     7
 10
1956.6132850451199
 20
518.68177372013724
 30
0.0
  0
VERTEX
  5
D37
  8
DATA
  6
CONTINUOUS
 62
     7
 10
1956.1080772680959
 20
517.93523746525454
 30
0.0
  0
VERTEX
  5
D38
  8
DATA
  6
CONTINUOUS
 62
     7
 10
1955.5704839033799
 20
517.21334415470847
 30
0.0
  0
VERTEX
  5
D39
  8
DATA
  6
CONTINUOUS
 62
     7
 10
1955.001633862943
 20
516.51823001896685
 30
0.0
  0
VERTEX
  5
D3A
  8
DATA
  6
CONTINUOUS
 62
     7
 10
1954.401689271421
 20
515.85054355656439
 30
0.0
  0
VERTEX
  5
D3B
  8
DATA
  6
CONTINUOUS
 62
     7
 10
1953.7702662748991
 20
515.2096362689673
 30
0.0
  0
VERTEX
  5
D3C
  8
DATA
  6
CONTINUOUS
 62
     7
 10
1953.1092817587539
 20
514.59756809269834
 30
0.0
  0
VERTEX
  5
D3D
  8
DATA
  6
CONTINUOUS
 62
     7
 10
1952.4207169813801
 20
514.01647525822602
 30
0.0
  0
VERTEX
  5
D3E
  8
DATA
  6
CONTINUOUS
 62
     7
 10
1951.7065579695379
 20
513.46845584904679
 30
0.0
  0
VERTEX
  5
D3F
  8
DATA
  6
CONTINUOUS
 62
     7
 10
1950.9690625471751
 20
512.95545536076588
 30
0.0
  0
VERTEX
  5
D40
  8
DATA
  6
CONTINUOUS
 62
     7
 10
1950.210846166101
 20
512.47865634953553
 30
0.0
  0
VERTEX
  5
D41
  8
DATA
  6
CONTINUOUS
 62
     7
 10
1949.4344336790709
 20
512.0393176654544
 30
0.0
  0
SEQEND
  5
D42
  8
DATA
  6
CONTINUOUS
 62
     7
  0
POLYLINE
  5
642
  8
DATA
  6
CONTINUOUS
 62
     7
 66
     1
 10
0.0
 20
0.0
 30
0.0
 70
   128
  0
VERTEX
  5
D43
  8
DATA
  6
CONTINUOUS
 62
     7
 10
1949.434436063256
 20
512.0393176654544
 30
0.0
  0
VERTEX
  5
D44
  8
DATA
  6
CONTINUOUS
 62
     7
 10
1949.0076811117799
 20
511.80780368840351
 30
0.0
  0
VERTEX
  5
D45
  8
DATA
  6
CONTINUOUS
 62
     7
 10
1948.5827262205739
 20
511.57300907170492
 30
0.0
  0
VERTEX
  5
D46
  8
DATA
  6
CONTINUOUS
 62
     7
 10
1948.1595952314999
 20
511.3349338153576
 30
0.0
  0
VERTEX
  5
D47
  8
DATA
  6
CONTINUOUS
 62
     7
 10
1947.7383119864121
 20
511.09365421330682
 30
0.0
  0
VERTEX
  5
D48
  8
DATA
  6
CONTINUOUS
 62
     7
 10
1947.3189003271721
 20
510.84913211858031
 30
0.0
  0
VERTEX
  5
D49
  8
DATA
  6
CONTINUOUS
 62
     7
 10
1946.901384095635
 20
510.60140567815051
 30
0.0
  0
VERTEX
  5
D4A
  8
DATA
  6
CONTINUOUS
 62
     7
 10
1946.485789517845
 20
510.35051303899081
 30
0.0
  0
VERTEX
  5
D4B
  8
DATA
  6
CONTINUOUS
 62
     7
 10
1946.0721404356609
 20
510.09641605412799
 30
0.0
  0
VERTEX
  5
D4C
  8
DATA
  6
CONTINUOUS
 62
     7
 10
1945.66046069094
 20
509.8391528705348
 30
0.0
  0
VERTEX
  5
D4D
  8
DATA
  6
CONTINUOUS
 62
     7
 10
1945.2507741255411
 20
509.57876163518318
 30
0.0
  0
VERTEX
  5
D4E
  8
DATA
  6
CONTINUOUS
 62
     7
 10
1944.8431045813211
 20
509.31520420110161
 30
0.0
  0
VERTEX
  5
D4F
  8
DATA
  6
CONTINUOUS
 62
     7
 10
1944.43748066851
 20
509.04855686223442
 30
0.0
  0
VERTEX
  5
D50
  8
DATA
  6
CONTINUOUS
 62
     7
 10
1944.0339214605931
 20
508.77881961858208
 30
0.0
  0
VERTEX
  5
D51
  8
DATA
  6
CONTINUOUS
 62
     7
 10
1943.6324507994279
 20
508.50595432317232
 30
0.0
  0
VERTEX
  5
D52
  8
DATA
  6
CONTINUOUS
 62
     7
 10
1943.2330972952479
 20
508.23007541692289
 30
0.0
  0
VERTEX
  5
D53
  8
DATA
  6
CONTINUOUS
 62
     7
 10
1942.835880021536
 20
507.95110660588762
 30
0.0
  0
VERTEX
  5
D54
  8
DATA
  6
CONTINUOUS
 62
     7
 10
1942.440820435964
 20
507.66908603704002
 30
0.0
  0
VERTEX
  5
D55
  8
DATA
  6
CONTINUOUS
 62
     7
 10
1942.0479471487629
 20
507.38409000432569
 30
0.0
  0
VERTEX
  5
D56
  8
DATA
  6
CONTINUOUS
 62
     7
 10
1941.657279233418
 20
507.0960422137984
 30
0.0
  0
VERTEX
  5
D57
  8
DATA
  6
CONTINUOUS
 62
     7
 10
1941.268840531789
 20
506.80505710637692
 30
0.0
  0
VERTEX
  5
D58
  8
DATA
  6
CONTINUOUS
 62
     7
 10
1940.882654885731
 20
506.51105838811571
 30
0.0
  0
VERTEX
  5
D59
  8
DATA
  6
CONTINUOUS
 62
     7
 10
1940.4987461371049
 20
506.21416049993212
 30
0.0
  0
VERTEX
  5
D5A
  8
DATA
  6
CONTINUOUS
 62
     7
 10
1940.117133359395
 20
505.91428714788179
 30
0.0
  0
VERTEX
  5
D5B
  8
DATA
  6
CONTINUOUS
 62
     7
 10
1939.7378403944581
 20
505.61151462590902
 30
0.0
  0
SEQEND
  5
D5C
  8
DATA
  6
CONTINUOUS
 62
     7
  0
POLYLINE
  5
65D
  8
DATA
  6
CONTINUOUS
 62
     7
 66
     1
 10
0.0
 20
0.0
 30
0.0
 70
   128
  0
VERTEX
  5
D5D
  8
DATA
  6
CONTINUOUS
 62
     7
 10
1939.7378403944581
 20
505.61151462590902
 30
0.0
  0
VERTEX
  5
D5E
  8
DATA
  6
CONTINUOUS
 62
     7
 10
1939.6813232702821
 20
505.56356388128017
 30
0.0
  0
VERTEX
  5
D5F
  8
DATA
  6
CONTINUOUS
 62
     7
 10
1939.626737336597
 20
505.51332431829189
 30
0.0
  0
VERTEX
  5
D60
  8
DATA
  6
CONTINUOUS
 62
     7
 10
1939.57416365572
 20
505.46087223088961
 30
0.0
  0
VERTEX
  5
D61
  8
DATA
  6
CONTINUOUS
 62
     7
 10
1939.523678521595
 20
505.4062839130184
 30
0.0
  0
VERTEX
  5
D62
  8
DATA
  6
CONTINUOUS
 62
     7
 10
1939.4753606123541
 20
505.34967380559652
 30
0.0
  0
VERTEX
  5
D63
  8
DATA
  6
CONTINUOUS
 62
     7
 10
1939.4292909903149
 20
505.29111820256929
 30
0.0
  0
VERTEX
  5
D64
  8
DATA
  6
CONTINUOUS
 62
     7
 10
1939.385548333606
 20
505.23069339788208
 30
0.0
  0
VERTEX
  5
D65
  8
DATA
  6
CONTINUOUS
 62
     7
 10
1939.3442089361761
 20
505.16855197942471
 30
0.0
  0
VERTEX
  5
D66
  8
DATA
  6
CONTINUOUS
 62
     7
 10
1939.3053514761541
 20
505.1046939471986
 30
0.0
  0
VERTEX
  5
D67
  8
DATA
  6
CONTINUOUS
 62
     7
 10
1939.269026021442
 20
505.0393100360651
 30
0.0
  0
VERTEX
  5
D68
  8
DATA
  6
CONTINUOUS
 62
     7
 10
1939.235258798084
 20
504.97247653997192
 30
0.0
  0
VERTEX
  5
D69
  8
DATA
  6
CONTINUOUS
 62
     7
 10
1939.20408318468
 20
504.90426975286221
 30
0.0
  0
VERTEX
  5
D6A
  8
DATA
  6
CONTINUOUS
 62
     7
 10
1939.175527791461
 20
504.83476596868292
 30
0.0
  0
VERTEX
  5
D6B
  8
DATA
  6
CONTINUOUS
 62
     7
 10
1939.1496259970279
 20
504.76400333440552
 30
0.0
  0
VERTEX
  5
D6C
  8
DATA
  6
CONTINUOUS
 62
     7
 10
1939.126404027422
 20
504.692058143976
 30
0.0
  0
VERTEX
  5
D6D
  8
DATA
  6
CONTINUOUS
 62
     7
 10
1939.1058976454351
 20
504.61904483831188
 30
0.0
  0
VERTEX
  5
D6E
  8
DATA
  6
CONTINUOUS
 62
     7
 10
1939.0881378454769
 20
504.54503971135881
 30
0.0
  0
VERTEX
  5
D6F
  8
DATA
  6
CONTINUOUS
 62
     7
 10
1939.0731699270809
 20
504.47011905706182
 30
0.0
  0
VERTEX
  5
D70
  8
DATA
  6
CONTINUOUS
 62
     7
 10
1939.0610153479181
 20
504.39451175725708
 30
0.0
  0
VERTEX
  5
D71
  8
DATA
  6
CONTINUOUS
 62
     7
 10
1939.051690797289
 20
504.3183703998352
 30
0.0
  0
VERTEX
  5
D72
  8
DATA
  6
CONTINUOUS
 62
     7
 10
1939.045222501238
 20
504.24180942571428
 30
0.0
  0
VERTEX
  5
D73
  8
DATA
  6
CONTINUOUS
 62
     7
 10
1939.0416152281371
 20
504.16505771672968
 30
0.0
  0
VERTEX
  5
D74
  8
DATA
  6
CONTINUOUS
 62
     7
 10
1939.0408451361261
 20
504.08822971380022
 30
0.0
  0
VERTEX
  5
D75
  8
DATA
  6
CONTINUOUS
 62
     7
 10
1939.042885999163
 20
504.01147800481567
 30
0.0
  0
SEQEND
  5
D76
  8
DATA
  6
CONTINUOUS
 62
     7
  0
POLYLINE
  5
678
  8
DATA
  6
CONTINUOUS
 62
     7
 66
     1
 10
0.0
 20
0.0
 30
0.0
 70
   128
  0
VERTEX
  5
D77
  8
DATA
  6
CONTINUOUS
 62
     7
 10
1941.445563534945
 20
121.51504474675259
 30
0.0
  0
VERTEX
  5
D78
  8
DATA
  6
CONTINUOUS
 62
     7
 10
1941.308747033326
 20
119.1421361545285
 30
0.0
  0
VERTEX
  5
D79
  8
DATA
  6
CONTINUOUS
 62
     7
 10
1940.8753092090751
 20
116.8053908923825
 30
0.0
  0
VERTEX
  5
D7A
  8
DATA
  6
CONTINUOUS
 62
     7
 10
1940.1508409778719
 20
114.5425029376715
 30
0.0
  0
VERTEX
  5
D7B
  8
DATA
  6
CONTINUOUS
 62
     7
 10
1939.1472394268151
 20
112.3894305804933
 30
0.0
  0
VERTEX
  5
D7C
  8
DATA
  6
CONTINUOUS
 62
     7
 10
1937.883468369685
 20
110.3786225894664
 30
0.0
  0
VERTEX
  5
D7D
  8
DATA
  6
CONTINUOUS
 62
     7
 10
1936.378765801629
 20
108.54234176671341
 30
0.0
  0
VERTEX
  5
D7E
  8
DATA
  6
CONTINUOUS
 62
     7
 10
1934.6533591549
 20
106.9145150760405
 30
0.0
  0
VERTEX
  5
D7F
  8
DATA
  6
CONTINUOUS
 62
     7
 10
1932.736612061698
 20
105.5195947269203
 30
0.0
  0
VERTEX
  5
D80
  8
DATA
  6
CONTINUOUS
 62
     7
 10
1930.6622321407381
 20
104.37250572240551
 30
0.0
  0
VERTEX
  5
D81
  8
DATA
  6
CONTINUOUS
 62
     7
 10
1928.4639413158459
 20
103.4881110767155
 30
0.0
  0
VERTEX
  5
D82
  8
DATA
  6
CONTINUOUS
 62
     7
 10
1926.175466279225
 20
102.8812785724444
 30
0.0
  0
VERTEX
  5
D83
  8
DATA
  6
CONTINUOUS
 62
     7
 10
1923.8305289547
 20
102.5668664554414
 30
0.0
  0
VERTEX
  5
D84
  8
DATA
  6
CONTINUOUS
 62
     7
 10
1921.467695931628
 20
102.5598426441024
 30
0.0
  0
VERTEX
  5
D85
  8
DATA
  6
CONTINUOUS
 62
     7
 10
1919.1276557247179
 20
102.8573222736204
 30
0.0
  0
VERTEX
  5
D86
  8
DATA
  6
CONTINUOUS
 62
     7
 10
1916.8426902095821
 20
103.44341712988439
 30
0.0
  0
VERTEX
  5
D87
  8
DATA
  6
CONTINUOUS
 62
     7
 10
1914.644957284167
 20
104.3021627048365
 30
0.0
  0
VERTEX
  5
D88
  8
DATA
  6
CONTINUOUS
 62
     7
 10
1912.56660530968
 20
105.4175849536787
 30
0.0
  0
VERTEX
  5
D89
  8
DATA
  6
CONTINUOUS
 62
     7
 10
1910.639801720813
 20
106.77371459998039
 30
0.0
  0
VERTEX
  5
D8A
  8
DATA
  6
CONTINUOUS
 62
     7
 10
1908.8967044155161
 20
108.3545775989446
 30
0.0
  0
VERTEX
  5
D8B
  8
DATA
  6
CONTINUOUS
 62
     7
 10
1907.369461754995
 20
110.1442046741404
 30
0.0
  0
VERTEX
  5
D8C
  8
DATA
  6
CONTINUOUS
 62
     7
 10
1906.0879618923241
 20
112.1193595508507
 30
0.0
  0
VERTEX
  5
D8D
  8
DATA
  6
CONTINUOUS
 62
     7
 10
1905.0669295589521
 20
114.23978763617831
 30
0.0
  0
VERTEX
  5
D8E
  8
DATA
  6
CONTINUOUS
 62
     7
 10
1904.3149382869799
 20
116.4702602008756
 30
0.0
  0
VERTEX
  5
D8F
  8
DATA
  6
CONTINUOUS
 62
     7
 10
1903.8405377666561
 20
118.77578216590329
 30
0.0
  0
SEQEND
  5
D90
  8
DATA
  6
CONTINUOUS
 62
     7
  0
POLYLINE
  5
693
  8
DATA
  6
CONTINUOUS
 62
     7
 66
     1
 10
0.0
 20
0.0
 30
0.0
 70
   128
  0
VERTEX
  5
D91
  8
DATA
  6
CONTINUOUS
 62
     7
 10
1842.1410758299589
 20
557.69521671337054
 30
0.0
  0
VERTEX
  5
D92
  8
DATA
  6
CONTINUOUS
 62
     7
 10
1842.057915429569
 20
558.3987994770423
 30
0.0
  0
VERTEX
  5
D93
  8
DATA
  6
CONTINUOUS
 62
     7
 10
1842.0012385649441
 20
559.10745578807678
 30
0.0
  0
VERTEX
  5
D94
  8
DATA
  6
CONTINUOUS
 62
     7
 10
1841.9715220732451
 20
559.81954532665134
 30
0.0
  0
VERTEX
  5
D95
  8
DATA
  6
CONTINUOUS
 62
     7
 10
1841.969261865117
 20
560.53350406688605
 30
0.0
  0
VERTEX
  5
D96
  8
DATA
  6
CONTINUOUS
 62
     7
 10
1841.994543771244
 20
561.24761539501105
 30
0.0
  0
VERTEX
  5
D97
  8
DATA
  6
CONTINUOUS
 62
     7
 10
1842.0472533507129
 20
561.9602008442298
 30
0.0
  0
VERTEX
  5
D98
  8
DATA
  6
CONTINUOUS
 62
     7
 10
1842.1273143095759
 20
562.66950565379977
 30
0.0
  0
VERTEX
  5
D99
  8
DATA
  6
CONTINUOUS
 62
     7
 10
1842.2346026701721
 20
563.37392765087054
 30
0.0
  0
VERTEX
  5
D9A
  8
DATA
  6
CONTINUOUS
 62
     7
 10
1842.368851403693
 20
564.07216983837009
 30
0.0
  0
VERTEX
  5
D9B
  8
DATA
  6
CONTINUOUS
 62
     7
 10
1842.5296695036691
 20
564.76354557079185
 30
0.0
  0
VERTEX
  5
D9C
  8
DATA
  6
CONTINUOUS
 62
     7
 10
1842.7166468901439
 20
565.44729190868236
 30
0.0
  0
VERTEX
  5
D9D
  8
DATA
  6
CONTINUOUS
 62
     7
 10
1842.929392556649
 20
566.12256961864307
 30
0.0
  0
VERTEX
  5
D9E
  8
DATA
  6
CONTINUOUS
 62
     7
 10
1843.167505959969
 20
566.78869205516651
 30
0.0
  0
VERTEX
  5
D9F
  8
DATA
  6
CONTINUOUS
 62
     7
 10
1843.4306056303799
 20
567.44485813182655
 30
0.0
  0
VERTEX
  5
DA0
  8
DATA
  6
CONTINUOUS
 62
     7
 10
1843.71827195118
 20
568.09026676219764
 30
0.0
  0
VERTEX
  5
DA1
  8
DATA
  6
CONTINUOUS
 62
     7
 10
1844.030123452646
 20
568.72411685985389
 30
0.0
  0
VERTEX
  5
DA2
  8
DATA
  6
CONTINUOUS
 62
     7
 10
1844.3654925627541
 20
569.34522586864205
 30
0.0
  0
VERTEX
  5
DA3
  8
DATA
  6
CONTINUOUS
 62
     7
 10
1844.7235877318219
 20
569.95286899608345
 30
0.0
  0
VERTEX
  5
DA4
  8
DATA
  6
CONTINUOUS
 62
     7
 10
1845.1035792631949
 20
570.54632144969685
 30
0.0
  0
VERTEX
  5
DA5
  8
DATA
  6
CONTINUOUS
 62
     7
 10
1845.5046374602159
 20
571.12485843700165
 30
0.0
  0
VERTEX
  5
DA6
  8
DATA
  6
CONTINUOUS
 62
     7
 10
1845.925961236461
 20
571.68775516551625
 30
0.0
  0
VERTEX
  5
DA7
  8
DATA
  6
CONTINUOUS
 62
     7
 10
1846.366711358532
 20
572.23428684276234
 30
0.0
  0
VERTEX
  5
DA8
  8
DATA
  6
CONTINUOUS
 62
     7
 10
1846.82607720326
 20
572.76376682323098
 30
0.0
  0
VERTEX
  5
DA9
  8
DATA
  6
CONTINUOUS
 62
     7
 10
1847.3032290739879
 20
573.27543216746892
 30
0.0
  0
SEQEND
  5
DAA
  8
DATA
  6
CONTINUOUS
 62
     7
  0
POLYLINE
  5
6AE
  8
DATA
  6
CONTINUOUS
 62
     7
 66
     1
 10
0.0
 20
0.0
 30
0.0
 70
   128
  0
VERTEX
  5
DAB
  8
DATA
  6
CONTINUOUS
 62
     7
 10
1847.3032290739879
 20
573.27543216746892
 30
0.0
  0
VERTEX
  5
DAC
  8
DATA
  6
CONTINUOUS
 62
     7
 10
1850.3338343901521
 20
576.2944980244007
 30
0.0
  0
VERTEX
  5
DAD
  8
DATA
  6
CONTINUOUS
 62
     7
 10
1853.439760903826
 20
579.23620182078605
 30
0.0
  0
VERTEX
  5
DAE
  8
DATA
  6
CONTINUOUS
 62
     7
 10
1856.6190440459179
 20
582.09871250193612
 30
0.0
  0
VERTEX
  5
DAF
  8
DATA
  6
CONTINUOUS
 62
     7
 10
1859.8696906371069
 20
584.88019901316432
 30
0.0
  0
VERTEX
  5
DB0
  8
DATA
  6
CONTINUOUS
 62
     7
 10
1863.1896312041249
 20
587.57879215281139
 30
0.0
  0
VERTEX
  5
DB1
  8
DATA
  6
CONTINUOUS
 62
     7
 10
1866.5767009062761
 20
590.19288974802384
 30
0.0
  0
VERTEX
  5
DB2
  8
DATA
  6
CONTINUOUS
 62
     7
 10
1870.0287253661161
 20
592.72085147897928
 30
0.0
  0
VERTEX
  5
DB3
  8
DATA
  6
CONTINUOUS
 62
     7
 10
1873.5435397429501
 20
595.1609988788797
 30
0.0
  0
VERTEX
  5
DB4
  8
DATA
  6
CONTINUOUS
 62
     7
 10
1877.1189505858481
 20
597.51172977487295
 30
0.0
  0
VERTEX
  5
DB5
  8
DATA
  6
CONTINUOUS
 62
     7
 10
1880.7527739806251
 20
599.77136570016398
 30
0.0
  0
VERTEX
  5
DB6
  8
DATA
  6
CONTINUOUS
 62
     7
 10
1884.4425971312619
 20
601.93860965768135
 30
0.0
  0
VERTEX
  5
DB7
  8
DATA
  6
CONTINUOUS
 62
     7
 10
1888.1860072417369
 20
604.01224094430029
 30
0.0
  0
VERTEX
  5
DB8
  8
DATA
  6
CONTINUOUS
 62
     7
 10
1891.980562905801
 20
605.9909625629507
 30
0.0
  0
VERTEX
  5
DB9
  8
DATA
  6
CONTINUOUS
 62
     7
 10
1895.823860864177
 20
607.87359195747922
 30
0.0
  0
VERTEX
  5
DBA
  8
DATA
  6
CONTINUOUS
 62
     7
 10
1899.7134597106151
 20
609.65883213081725
 30
0.0
  0
VERTEX
  5
DBB
  8
DATA
  6
CONTINUOUS
 62
     7
 10
1903.646941880721
 20
611.34550052681072
 30
0.0
  0
VERTEX
  5
DBC
  8
DATA
  6
CONTINUOUS
 62
     7
 10
1907.621889810106
 20
612.93230014839037
 30
0.0
  0
VERTEX
  5
DBD
  8
DATA
  6
CONTINUOUS
 62
     7
 10
1911.635814408801
 20
614.41801029243129
 30
0.0
  0
VERTEX
  5
DBE
  8
DATA
  6
CONTINUOUS
 62
     7
 10
1915.686102609181
 20
615.80182987250703
 30
0.0
  0
VERTEX
  5
DBF
  8
DATA
  6
CONTINUOUS
 62
     7
 10
1919.7701031966451
 20
617.08307224311022
 30
0.0
  0
VERTEX
  5
DC0
  8
DATA
  6
CONTINUOUS
 62
     7
 10
1923.8851792617111
 20
618.26105075873249
 30
0.0
  0
VERTEX
  5
DC1
  8
DATA
  6
CONTINUOUS
 62
     7
 10
1928.0286938948909
 20
619.3351169208396
 30
0.0
  0
VERTEX
  5
DC2
  8
DATA
  6
CONTINUOUS
 62
     7
 10
1932.198000649958
 20
620.30458408392269
 30
0.0
  0
VERTEX
  5
DC3
  8
DATA
  6
CONTINUOUS
 62
     7
 10
1936.390457849056
 20
621.16876560247533
 30
0.0
  0
SEQEND
  5
DC4
  8
DATA
  6
CONTINUOUS
 62
     7
  0
LINE
  5
6C9
  8
DATA
  6
CONTINUOUS
 62
     7
 10
1912.9311625140031
 20
120.0523332432585
 30
0.0
 11
1851.2661718748429
 21
558.82154057007756
 31
0.0
  0
POLYLINE
  5
6CA
  8
DATA
  6
CONTINUOUS
 62
     7
 66
     1
 10
0.0
 20
0.0
 30
0.0
 70
   128
  0
VERTEX
  5
DC5
  8
DATA
  6
CONTINUOUS
 62
     7
 10
1853.996668557628
 20
566.80822330516014
 30
0.0
  0
VERTEX
  5
DC6
  8
DATA
  6
CONTINUOUS
 62
     7
 10
1856.8498713774541
 20
569.64208560984559
 30
0.0
  0
VERTEX
  5
DC7
  8
DATA
  6
CONTINUOUS
 62
     7
 10
1859.7766978545069
 20
572.4066348652151
 30
0.0
  0
VERTEX
  5
DC8
  8
DATA
  6
CONTINUOUS
 62
     7
 10
1862.7746970457929
 20
575.09916263620971
 30
0.0
  0
VERTEX
  5
DC9
  8
DATA
  6
CONTINUOUS
 62
     7
 10
1865.841398934833
 20
577.71688419382565
 30
0.0
  0
VERTEX
  5
DCA
  8
DATA
  6
CONTINUOUS
 62
     7
 10
1868.9739329619349
 20
580.25739627878465
 30
0.0
  0
VERTEX
  5
DCB
  8
DATA
  6
CONTINUOUS
 62
     7
 10
1872.1692664427731
 20
582.71841007272781
 30
0.0
  0
VERTEX
  5
DCC
  8
DATA
  6
CONTINUOUS
 62
     7
 10
1875.424376229761
 20
585.09767490426839
 30
0.0
  0
VERTEX
  5
DCD
  8
DATA
  6
CONTINUOUS
 62
     7
 10
1878.736153344631
 20
587.39278751412985
 30
0.0
  0
VERTEX
  5
DCE
  8
DATA
  6
CONTINUOUS
 62
     7
 10
1882.0994956297891
 20
589.60100132028037
 30
0.0
  0
VERTEX
  5
DCF
  8
DATA
  6
CONTINUOUS
 62
     7
 10
1885.5121333403631
 20
591.7212482074857
 30
0.0
  0
VERTEX
  5
DD0
  8
DATA
  6
CONTINUOUS
 62
     7
 10
1888.973294000155
 20
593.75322299996378
 30
0.0
  0
VERTEX
  5
DD1
  8
DATA
  6
CONTINUOUS
 62
     7
 10
1892.482214669712
 20
595.69665866890682
 30
0.0
  0
VERTEX
  5
DD2
  8
DATA
  6
CONTINUOUS
 62
     7
 10
1896.0381419463249
 20
597.55125003853402
 30
0.0
  0
VERTEX
  5
DD3
  8
DATA
  6
CONTINUOUS
 62
     7
 10
1899.6403033537979
 20
599.31669193306345
 30
0.0
  0
VERTEX
  5
DD4
  8
DATA
  6
CONTINUOUS
 62
     7
 10
1903.2879454894201
 20
600.99271732368561
 30
0.0
  0
VERTEX
  5
DD5
  8
DATA
  6
CONTINUOUS
 62
     7
 10
1906.979943017498
 20
602.57863956489484
 30
0.0
  0
VERTEX
  5
DD6
  8
DATA
  6
CONTINUOUS
 62
     7
 10
1910.7124860091369
 20
604.07182651557605
 30
0.0
  0
VERTEX
  5
DD7
  8
DATA
  6
CONTINUOUS
 62
     7
 10
1914.481826524275
 20
605.47109561957757
 30
0.0
  0
VERTEX
  5
DD8
  8
DATA
  6
CONTINUOUS
 62
     7
 10
1918.2844073577121
 20
606.77560764350164
 30
0.0
  0
VERTEX
  5
DD9
  8
DATA
  6
CONTINUOUS
 62
     7
 10
1922.116685609361
 20
607.98444706000294
 30
0.0
  0
VERTEX
  5
DDA
  8
DATA
  6
CONTINUOUS
 62
     7
 10
1925.9750993056521
 20
609.09673648871205
 30
0.0
  0
VERTEX
  5
DDB
  8
DATA
  6
CONTINUOUS
 62
     7
 10
1929.856100778125
 20
610.11156040228343
 30
0.0
  0
VERTEX
  5
DDC
  8
DATA
  6
CONTINUOUS
 62
     7
 10
1933.7561328215841
 20
611.02804142034745
 30
0.0
  0
VERTEX
  5
DDD
  8
DATA
  6
CONTINUOUS
 62
     7
 10
1937.671645383384
 20
611.84530216253279
 30
0.0
  0
SEQEND
  5
DDE
  8
DATA
  6
CONTINUOUS
 62
     7
  0
POLYLINE
  5
6E5
  8
DATA
  6
CONTINUOUS
 62
     7
 66
     1
 10
0.0
 20
0.0
 30
0.0
 70
   128
  0
VERTEX
  5
DDF
  8
DATA
  6
CONTINUOUS
 62
     7
 10
1851.2661750120899
 20
558.82154422801352
 30
0.0
  0
VERTEX
  5
DE0
  8
DATA
  6
CONTINUOUS
 62
     7
 10
1851.2223346037649
 20
559.18397861522055
 30
0.0
  0
VERTEX
  5
DE1
  8
DATA
  6
CONTINUOUS
 62
     7
 10
1851.1924655241751
 20
559.54896884959555
 30
0.0
  0
VERTEX
  5
DE2
  8
DATA
  6
CONTINUOUS
 62
     7
 10
1851.1768824858459
 20
559.91571384471217
 30
0.0
  0
VERTEX
  5
DE3
  8
DATA
  6
CONTINUOUS
 62
     7
 10
1851.175938348272
 20
560.28333622020091
 30
0.0
  0
VERTEX
  5
DE4
  8
DATA
  6
CONTINUOUS
 62
     7
 10
1851.189699868658
 20
560.65084415477111
 30
0.0
  0
VERTEX
  5
DE5
  8
DATA
  6
CONTINUOUS
 62
     7
 10
1851.2181289000309
 20
561.0174365619979
 30
0.0
  0
VERTEX
  5
DE6
  8
DATA
  6
CONTINUOUS
 62
     7
 10
1851.261177758674
 20
561.38208347361854
 30
0.0
  0
VERTEX
  5
DE7
  8
DATA
  6
CONTINUOUS
 62
     7
 10
1851.318798760871
 20
561.74390750926307
 30
0.0
  0
VERTEX
  5
DE8
  8
DATA
  6
CONTINUOUS
 62
     7
 10
1851.390877465705
 20
562.10241275828605
 30
0.0
  0
VERTEX
  5
DE9
  8
DATA
  6
CONTINUOUS
 62
     7
 10
1851.477175454597
 20
562.45717960398963
 30
0.0
  0
VERTEX
  5
DEA
  8
DATA
  6
CONTINUOUS
 62
     7
 10
1851.577387551765
 20
562.80778842967356
 30
0.0
  0
VERTEX
  5
DEB
  8
DATA
  6
CONTINUOUS
 62
     7
 10
1851.691246728401
 20
563.15385776561072
 30
0.0
  0
VERTEX
  5
DEC
  8
DATA
  6
CONTINUOUS
 62
     7
 10
1851.81846688221
 20
563.49496799510246
 30
0.0
  0
VERTEX
  5
DED
  8
DATA
  6
CONTINUOUS
 62
     7
 10
1851.9587523741529
 20
563.83066135447746
 30
0.0
  0
VERTEX
  5
DEE
  8
DATA
  6
CONTINUOUS
 62
     7
 10
1852.1118361754241
 20
564.16055637400859
 30
0.0
  0
VERTEX
  5
DEF
  8
DATA
  6
CONTINUOUS
 62
     7
 10
1852.277422646981
 20
564.48419529002433
 30
0.0
  0
VERTEX
  5
DF0
  8
DATA
  6
CONTINUOUS
 62
     7
 10
1852.4551112456149
 20
564.80115848582511
 30
0.0
  0
VERTEX
  5
DF1
  8
DATA
  6
CONTINUOUS
 62
     7
 10
1852.6444251341641
 20
565.11114078562969
 30
0.0
  0
VERTEX
  5
DF2
  8
DATA
  6
CONTINUOUS
 62
     7
 10
1852.8448588652441
 20
565.41387516062957
 30
0.0
  0
VERTEX
  5
DF3
  8
DATA
  6
CONTINUOUS
 62
     7
 10
1853.0559260649511
 20
565.70905643504341
 30
0.0
  0
VERTEX
  5
DF4
  8
DATA
  6
CONTINUOUS
 62
     7
 10
1853.2771308226411
 20
565.99634128611763
 30
0.0
  0
VERTEX
  5
DF5
  8
DATA
  6
CONTINUOUS
 62
     7
 10
1853.507986764414
 20
566.2755008320155
 30
0.0
  0
VERTEX
  5
DF6
  8
DATA
  6
CONTINUOUS
 62
     7
 10
1853.747997979624
 20
566.54622989695702
 30
0.0
  0
VERTEX
  5
DF7
  8
DATA
  6
CONTINUOUS
 62
     7
 10
1853.996668557628
 20
566.80822330516014
 30
0.0
  0
SEQEND
  5
DF8
  8
DATA
  6
CONTINUOUS
 62
     7
  0
POLYLINE
  5
700
  8
DATA
  6
CONTINUOUS
 62
     7
 66
     1
 10
0.0
 20
0.0
 30
0.0
 70
   128
  0
VERTEX
  5
DF9
  8
DATA
  6
CONTINUOUS
 62
     7
 10
1932.106118897645
 20
121.4956565479056
 30
0.0
  0
VERTEX
  5
DFA
  8
DATA
  6
CONTINUOUS
 62
     7
 10
1932.034197549073
 20
120.2958436588064
 30
0.0
  0
VERTEX
  5
DFB
  8
DATA
  6
CONTINUOUS
 62
     7
 10
1931.808081368652
 20
119.1129155734784
 30
0.0
  0
VERTEX
  5
DFC
  8
DATA
  6
CONTINUOUS
 62
     7
 10
1931.4348656932971
 20
117.96721893346459
 30
0.0
  0
VERTEX
  5
DFD
  8
DATA
  6
CONTINUOUS
 62
     7
 10
1930.921655396666
 20
116.8790956119314
 30
0.0
  0
VERTEX
  5
DFE
  8
DATA
  6
CONTINUOUS
 62
     7
 10
1930.2756078045011
 20
115.8689780811096
 30
0.0
  0
VERTEX
  5
DFF
  8
DATA
  6
CONTINUOUS
 62
     7
 10
1929.5071084301121
 20
114.95479064977459
 30
0.0
  0
VERTEX
  5
E00
  8
DATA
  6
CONTINUOUS
 62
     7
 10
1928.631382683956
 20
114.14557891881761
 30
0.0
  0
VERTEX
  5
E01
  8
DATA
  6
CONTINUOUS
 62
     7
 10
1927.6640422145949
 20
113.44899135625749
 30
0.0
  0
VERTEX
  5
E02
  8
DATA
  6
CONTINUOUS
 62
     7
 10
1926.6207034389599
 20
112.8726811984825
 30
0.0
  0
VERTEX
  5
E03
  8
DATA
  6
CONTINUOUS
 62
     7
 10
1925.516987542353
 20
112.42429691350929
 30
0.0
  0
VERTEX
  5
E04
  8
DATA
  6
CONTINUOUS
 62
     7
 10
1924.3685109417061
 20
112.11149173772949
 30
0.0
  0
VERTEX
  5
E05
  8
DATA
  6
CONTINUOUS
 62
     7
 10
1923.1908900539479
 20
111.94192367590129
 30
0.0
  0
VERTEX
  5
E06
  8
DATA
  6
CONTINUOUS
 62
     7
 10
1921.9999797145931
 20
111.9223065952137
 30
0.0
  0
VERTEX
  5
E07
  8
DATA
  6
CONTINUOUS
 62
     7
 10
1920.8134324352361
 20
112.0511623004754
 30
0.0
  0
VERTEX
  5
E08
  8
DATA
  6
CONTINUOUS
 62
     7
 10
1919.649511079034
 20
112.3233028034055
 30
0.0
  0
VERTEX
  5
E09
  8
DATA
  6
CONTINUOUS
 62
     7
 10
1918.5264498989191
 20
112.73354965246649
 30
0.0
  0
VERTEX
  5
E0A
  8
DATA
  6
CONTINUOUS
 62
     7
 10
1917.4624783794491
 20
113.2767339328625
 30
0.0
  0
VERTEX
  5
E0B
  8
DATA
  6
CONTINUOUS
 62
     7
 10
1916.4758403102969
 20
113.9476724246847
 30
0.0
  0
VERTEX
  5
E0C
  8
DATA
  6
CONTINUOUS
 62
     7
 10
1915.5805451671699
 20
114.74142509497359
 30
0.0
  0
VERTEX
  5
E0D
  8
DATA
  6
CONTINUOUS
 62
     7
 10
1914.7880418102361
 20
115.64630466498051
 30
0.0
  0
VERTEX
  5
E0E
  8
DATA
  6
CONTINUOUS
 62
     7
 10
1914.113894204341
 20
116.6464801410556
 30
0.0
  0
VERTEX
  5
E0F
  8
DATA
  6
CONTINUOUS
 62
     7
 10
1913.5734469692329
 20
117.72638755835349
 30
0.0
  0
VERTEX
  5
E10
  8
DATA
  6
CONTINUOUS
 62
     7
 10
1913.1767136852379
 20
118.87076335943949
 30
0.0
  0
VERTEX
  5
E11
  8
DATA
  6
CONTINUOUS
 62
     7
 10
1912.9311616222501
 20
120.0523324588666
 30
0.0
  0
SEQEND
  5
E12
  8
DATA
  6
CONTINUOUS
 62
     7
  0
LINE
  5
71B
  8
DATA
  6
CONTINUOUS
 62
     7
 10
1929.7019348298691
 20
504.23167446755662
 30
0.0
 11
1932.1061182290041
 21
121.4956570836857
 31
0.0
  0
POLYLINE
  5
71C
  8
DATA
  6
CONTINUOUS
 62
     7
 66
     1
 10
0.0
 20
0.0
 30
0.0
 70
   128
  0
VERTEX
  5
E13
  8
DATA
  6
CONTINUOUS
 62
     7
 10
1933.7607772154461
 20
512.87092166936975
 30
0.0
  0
VERTEX
  5
E14
  8
DATA
  6
CONTINUOUS
 62
     7
 10
1933.4489495558389
 20
512.60889011419397
 30
0.0
  0
VERTEX
  5
E15
  8
DATA
  6
CONTINUOUS
 62
     7
 10
1933.146873216117
 20
512.33480411565972
 30
0.0
  0
VERTEX
  5
E16
  8
DATA
  6
CONTINUOUS
 62
     7
 10
1932.854977349723
 20
512.04912143743661
 30
0.0
  0
VERTEX
  5
E17
  8
DATA
  6
CONTINUOUS
 62
     7
 10
1932.5737054152139
 20
511.75237613714398
 30
0.0
  0
VERTEX
  5
E18
  8
DATA
  6
CONTINUOUS
 62
     7
 10
1932.303496102774
 20
511.44498783147998
 30
0.0
  0
VERTEX
  5
E19
  8
DATA
  6
CONTINUOUS
 62
     7
 10
1932.0447928709621
 20
511.12745243108941
 30
0.0
  0
VERTEX
  5
E1A
  8
DATA
  6
CONTINUOUS
 62
     7
 10
1931.7980296415919
 20
510.80022769964398
 30
0.0
  0
VERTEX
  5
E1B
  8
DATA
  6
CONTINUOUS
 62
     7
 10
1931.563645104849
 20
510.46377140081643
 30
0.0
  0
VERTEX
  5
E1C
  8
DATA
  6
CONTINUOUS
 62
     7
 10
1931.3420731825461
 20
510.11861759222262
 30
0.0
  0
VERTEX
  5
E1D
  8
DATA
  6
CONTINUOUS
 62
     7
 10
1931.1336095137219
 20
509.7653766254258
 30
0.0
  0
VERTEX
  5
E1E
  8
DATA
  6
CONTINUOUS
 62
     7
 10
1930.938444833241
 20
509.40450626409768
 30
0.0
  0
VERTEX
  5
E1F
  8
DATA
  6
CONTINUOUS
 62
     7
 10
1930.7567746443369
 20
509.03638797796521
 30
0.0
  0
VERTEX
  5
E20
  8
DATA
  6
CONTINUOUS
 62
     7
 10
1930.588803986989
 20
508.66140323675438
 30
0.0
  0
VERTEX
  5
E21
  8
DATA
  6
CONTINUOUS
 62
     7
 10
1930.4347235960579
 20
508.27993351019188
 30
0.0
  0
VERTEX
  5
E22
  8
DATA
  6
CONTINUOUS
 62
     7
 10
1930.2947337431531
 20
507.89239841497698
 30
0.0
  0
VERTEX
  5
E23
  8
DATA
  6
CONTINUOUS
 62
     7
 10
1930.1690251631351
 20
507.49910312689099
 30
0.0
  0
VERTEX
  5
E24
  8
DATA
  6
CONTINUOUS
 62
     7
 10
1930.0578410429571
 20
507.1005435565786
 30
0.0
  0
VERTEX
  5
E25
  8
DATA
  6
CONTINUOUS
 62
     7
 10
1929.961448411425
 20
506.6974063495478
 30
0.0
  0
VERTEX
  5
E26
  8
DATA
  6
CONTINUOUS
 62
     7
 10
1929.88002369829
 20
506.2905688861689
 30
0.0
  0
VERTEX
  5
E27
  8
DATA
  6
CONTINUOUS
 62
     7
 10
1929.813733796557
 20
505.88090854681383
 30
0.0
  0
VERTEX
  5
E28
  8
DATA
  6
CONTINUOUS
 62
     7
 10
1929.7627599043451
 20
505.46930271185289
 30
0.0
  0
VERTEX
  5
E29
  8
DATA
  6
CONTINUOUS
 62
     7
 10
1929.7271878523429
 20
505.05666690862978
 30
0.0
  0
VERTEX
  5
E2A
  8
DATA
  6
CONTINUOUS
 62
     7
 10
1929.7069413466049
 20
504.64384037054327
 30
0.0
  0
VERTEX
  5
E2B
  8
DATA
  6
CONTINUOUS
 62
     7
 10
1929.701934556444
 20
504.23166233099272
 30
0.0
  0
SEQEND
  5
E2C
  8
DATA
  6
CONTINUOUS
 62
     7
  0
POLYLINE
  5
737
  8
DATA
  6
CONTINUOUS
 62
     7
 66
     1
 10
0.0
 20
0.0
 30
0.0
 70
   128
  0
VERTEX
  5
E2D
  8
DATA
  6
CONTINUOUS
 62
     7
 10
1944.882448415251
 20
520.27605014836718
 30
0.0
  0
VERTEX
  5
E2E
  8
DATA
  6
CONTINUOUS
 62
     7
 10
1944.3935043616009
 20
520.00963169133604
 30
0.0
  0
VERTEX
  5
E2F
  8
DATA
  6
CONTINUOUS
 62
     7
 10
1943.906517724485
 20
519.73943668401216
 30
0.0
  0
VERTEX
  5
E30
  8
DATA
  6
CONTINUOUS
 62
     7
 10
1943.421526650877
 20
519.46538883245023
 30
0.0
  0
VERTEX
  5
E31
  8
DATA
  6
CONTINUOUS
 62
     7
 10
1942.9385788244911
 20
519.18760257756742
 30
0.0
  0
VERTEX
  5
E32
  8
DATA
  6
CONTINUOUS
 62
     7
 10
1942.4577123923
 20
518.90607791936475
 30
0.0
  0
VERTEX
  5
E33
  8
DATA
  6
CONTINUOUS
 62
     7
 10
1941.9789726538361
 20
518.62081485784131
 30
0.0
  0
VERTEX
  5
E34
  8
DATA
  6
CONTINUOUS
 62
     7
 10
1941.50240252444
 20
518.33188968694333
 30
0.0
  0
VERTEX
  5
E35
  8
DATA
  6
CONTINUOUS
 62
     7
 10
1941.0280425352739
 20
518.03926425969757
 30
0.0
  0
VERTEX
  5
E36
  8
DATA
  6
CONTINUOUS
 62
     7
 10
1940.555937985866
 20
517.74297672307705
 30
0.0
  0
VERTEX
  5
E37
  8
DATA
  6
CONTINUOUS
 62
     7
 10
1940.0861413283039
 20
517.44310337102615
 30
0.0
  0
VERTEX
  5
E38
  8
DATA
  6
CONTINUOUS
 62
     7
 10
1939.6186620993301
 20
517.1396060565736
 30
0.0
  0
VERTEX
  5
E39
  8
DATA
  6
CONTINUOUS
 62
     7
 10
1939.1535122198741
 20
516.83248477971813
 30
0.0
  0
VERTEX
  5
E3A
  8
DATA
  6
CONTINUOUS
 62
     7
 10
1938.6907012266799
 20
516.52177768743343
 30
0.0
  0
VERTEX
  5
E3B
  8
DATA
  6
CONTINUOUS
 62
     7
 10
1938.2302410406751
 20
516.20748477971847
 30
0.0
  0
VERTEX
  5
E3C
  8
DATA
  6
CONTINUOUS
 62
     7
 10
1937.772136430232
 20
515.88960605657405
 30
0.0
  0
VERTEX
  5
E3D
  8
DATA
  6
CONTINUOUS
 62
     7
 10
1937.316401700464
 20
515.5681796649734
 30
0.0
  0
VERTEX
  5
E3E
  8
DATA
  6
CONTINUOUS
 62
     7
 10
1936.8630630774171
 20
515.24312931096938
 30
0.0
  0
VERTEX
  5
E3F
  8
DATA
  6
CONTINUOUS
 62
     7
 10
1936.4121825499201
 20
514.91460758245375
 30
0.0
  0
VERTEX
  5
E40
  8
DATA
  6
CONTINUOUS
 62
     7
 10
1935.963803033319
 20
514.58253818548201
 30
0.0
  0
VERTEX
  5
E41
  8
DATA
  6
CONTINUOUS
 62
     7
 10
1935.5179602903991
 20
514.24703556097029
 30
0.0
  0
VERTEX
  5
E42
  8
DATA
  6
CONTINUOUS
 62
     7
 10
1935.0746972365041
 20
513.90809970892008
 30
0.0
  0
VERTEX
  5
E43
  8
DATA
  6
CONTINUOUS
 62
     7
 10
1934.63405678698
 20
513.56573062933023
 30
0.0
  0
VERTEX
  5
E44
  8
DATA
  6
CONTINUOUS
 62
     7
 10
1934.196067552055
 20
513.22000461614721
 30
0.0
  0
VERTEX
  5
E45
  8
DATA
  6
CONTINUOUS
 62
     7
 10
1933.7607772154461
 20
512.87092166936975
 30
0.0
  0
SEQEND
  5
E46
  8
DATA
  6
CONTINUOUS
 62
     7
  0
POLYLINE
  5
752
  8
DATA
  6
CONTINUOUS
 62
     7
 66
     1
 10
0.0
 20
0.0
 30
0.0
 70
   128
  0
VERTEX
  5
E47
  8
DATA
  6
CONTINUOUS
 62
     7
 10
1950.510302285649
 20
530.07307010685975
 30
0.0
  0
VERTEX
  5
E48
  8
DATA
  6
CONTINUOUS
 62
     7
 10
1950.502780179479
 20
529.57780796086365
 30
0.0
  0
VERTEX
  5
E49
  8
DATA
  6
CONTINUOUS
 62
     7
 10
1950.4740698141829
 20
529.08227878605885
 30
0.0
  0
VERTEX
  5
E4A
  8
DATA
  6
CONTINUOUS
 62
     7
 10
1950.4242760939369
 20
528.58777957951645
 30
0.0
  0
VERTEX
  5
E4B
  8
DATA
  6
CONTINUOUS
 62
     7
 10
1950.3535015387311
 20
528.09553104435975
 30
0.0
  0
VERTEX
  5
E4C
  8
DATA
  6
CONTINUOUS
 62
     7
 10
1950.2618486685531
 20
527.60675388371601
 30
0.0
  0
VERTEX
  5
E4D
  8
DATA
  6
CONTINUOUS
 62
     7
 10
1950.149422387577
 20
527.12270694768051
 30
0.0
  0
VERTEX
  5
E4E
  8
DATA
  6
CONTINUOUS
 62
     7
 10
1950.0163252157929
 20
526.64457279240719
 30
0.0
  0
VERTEX
  5
E4F
  8
DATA
  6
CONTINUOUS
 62
     7
 10
1949.8626620573759
 20
526.1736484149659
 30
0.0
  0
VERTEX
  5
E50
  8
DATA
  6
CONTINUOUS
 62
     7
 10
1949.6884591383689
 20
525.71088748967315
 30
0.0
  0
VERTEX
  5
E51
  8
DATA
  6
CONTINUOUS
 62
     7
 10
1949.4934780401941
 20
525.25598484074726
 30
0.0
  0
VERTEX
  5
E52
  8
DATA
  6
CONTINUOUS
 62
     7
 10
1949.2781884474509
 20
524.80985599553253
 30
0.0
  0
VERTEX
  5
E53
  8
DATA
  6
CONTINUOUS
 62
     7
 10
1949.0431792540289
 20
524.37372165715362
 30
0.0
  0
VERTEX
  5
E54
  8
DATA
  6
CONTINUOUS
 62
     7
 10
1948.7890345854501
 20
523.9487262347908
 30
0.0
  0
VERTEX
  5
E55
  8
DATA
  6
CONTINUOUS
 62
     7
 10
1948.5163433356031
 20
523.53609043156825
 30
0.0
  0
VERTEX
  5
E56
  8
DATA
  6
CONTINUOUS
 62
     7
 10
1948.2256920141911
 20
523.13703495061156
 30
0.0
  0
VERTEX
  5
E57
  8
DATA
  6
CONTINUOUS
 62
     7
 10
1947.917664746735
 20
522.75270420109985
 30
0.0
  0
VERTEX
  5
E58
  8
DATA
  6
CONTINUOUS
 62
     7
 10
1947.5922901434631
 20
522.38351779973277
 30
0.0
  0
VERTEX
  5
E59
  8
DATA
  6
CONTINUOUS
 62
     7
 10
1947.2492654127809
 20
522.02905612981112
 30
0.0
  0
VERTEX
  5
E5A
  8
DATA
  6
CONTINUOUS
 62
     7
 10
1946.8896300596921
 20
521.69046360051436
 30
0.0
  0
VERTEX
  5
E5B
  8
DATA
  6
CONTINUOUS
 62
     7
 10
1946.514461736175
 20
521.3689990619406
 30
0.0
  0
VERTEX
  5
E5C
  8
DATA
  6
CONTINUOUS
 62
     7
 10
1946.1248380942061
 20
521.06588321721404
 30
0.0
  0
VERTEX
  5
E5D
  8
DATA
  6
CONTINUOUS
 62
     7
 10
1945.7219965262129
 20
520.78218418156985
 30
0.0
  0
VERTEX
  5
E5E
  8
DATA
  6
CONTINUOUS
 62
     7
 10
1945.307400922271
 20
520.5187030414337
 30
0.0
  0
VERTEX
  5
E5F
  8
DATA
  6
CONTINUOUS
 62
     7
 10
1944.882448415251
 20
520.27605014836718
 30
0.0
  0
SEQEND
  5
E60
  8
DATA
  6
CONTINUOUS
 62
     7
  0
LINE
  5
76D
  8
DATA
  6
CONTINUOUS
 62
     7
 10
1950.066715954468
 20
600.69007318852812
 30
0.0
 11
1950.510301581186
 21
530.07308273771662
 31
0.0
  0
ARC
  5
76E
  8
DATA
  6
CONTINUOUS
 62
     7
 10
1970.3975183751791
 20
652.93991438765852
 30
0.0
 40
2.9941656519574358
 50
359.965981267399
 51
91.758075332868117
  0
LINE
  5
76F
  8
DATA
  6
CONTINUOUS
 62
     7
 10
1967.8546726926329
 20
524.59973566294832
 30
0.0
 11
1967.8546726927059
 21
611.7563216793061
 31
0.0
  0
ARC
  5
770
  8
DATA
  6
CONTINUOUS
 62
     7
 10
1951.738793590227
 20
524.678648458829
 30
0.0
 40
16.116072302913171
 50
327.68669081276579
 51
359.71944850233149
  0
LINE
  5
771
  8
DATA
  6
CONTINUOUS
 62
     7
 10
1820.386117087133
 20
515.38508517317962
 30
0.0
 11
1822.3666532246159
 21
515.66343137509966
 31
0.0
  0
LINE
  5
772
  8
DATA
  6
CONTINUOUS
 62
     7
 10
1822.0561942986469
 20
503.5018683482798
 30
0.0
 11
1824.03673043613
 21
503.78021455019979
 31
0.0
  0
LINE
  5
773
  8
DATA
  6
CONTINUOUS
 62
     7
 10
1820.5948767385721
 20
513.89968307006711
 30
0.0
 11
1819.6041998627441
 21
513.76045251501773
 31
0.0
  0
LINE
  5
774
  8
DATA
  6
CONTINUOUS
 62
     7
 10
1821.847434647208
 20
504.98727045139231
 30
0.0
 11
1820.856757771385
 21
504.84803989634372
 31
0.0
  0
LINE
  5
775
  8
DATA
  6
CONTINUOUS
 62
     7
 10
1805.696481015912
 20
507.261626023144
 30
0.0
 11
1823.201691830373
 21
509.72182296264981
 31
0.0
  0
ARC
  5
776
  8
DATA
  6
CONTINUOUS
 62
     7
 10
1820.482947974745
 20
571.65984636559836
 30
0.0
 40
5.9488605900929068
 50
145.90019943475949
 51
183.17983725414621
  0
ARC
  5
777
  8
DATA
  6
CONTINUOUS
 62
     7
 10
1918.3474134908611
 20
27.045998503667761
 30
0.0
 40
27.04430616815743
 50
188.08152763093841
 51
359.90621014566869
  0
ARC
  5
778
  8
DATA
  6
CONTINUOUS
 62
     7
 10
1807.1835367629531
 20
511.53692150507572
 30
0.0
 40
1.499999999999956
 50
100.5000000000055
 51
138.0000000000299
  0
LINE
  5
779
  8
DATA
  6
CONTINUOUS
 62
     7
 10
1807.725452805616
 20
501.99915610517201
 30
0.0
 11
1821.0764690728799
 21
503.28471275401682
 31
0.0
  0
LINE
  5
77A
  8
DATA
  6
CONTINUOUS
 62
     7
 10
1806.3107486875499
 20
512.06529895298922
 30
0.0
 11
1819.5042505604761
 21
514.47162875414756
 31
0.0
  0
LINE
  5
77B
  8
DATA
  6
CONTINUOUS
 62
     7
 10
1819.4959331125351
 20
514.53081047139369
 30
0.0
 11
1821.0764690728799
 21
503.28471275401682
 31
0.0
  0
LINE
  5
77C
  8
DATA
  6
CONTINUOUS
 62
     7
 10
1806.9101834747139
 20
513.01180386642125
 30
0.0
 11
1819.384488561248
 21
515.32377965734474
 31
0.0
  0
LINE
  5
77D
  8
DATA
  6
CONTINUOUS
 62
     7
 10
1819.4959331125351
 20
514.53081047139369
 30
0.0
 11
1819.384488561248
 21
515.32377965734474
 31
0.0
  0
ARC
  5
77E
  8
DATA
  6
CONTINUOUS
 62
     7
 10
1830.8028479827431
 20
510.38577994490078
 30
0.0
 40
24.99999999999941
 50
178.40524874129039
 51
197.59475125870881
  0
LINE
  5
77F
  8
DATA
  6
CONTINUOUS
 62
     7
 10
1806.3107486875499
 20
512.06529895298922
 30
0.0
 11
1807.725452805616
 21
501.99915610517201
 31
0.0
  0
ARC
  5
780
  8
DATA
  6
CONTINUOUS
 62
     7
 10
1830.8028479827431
 20
510.38577994490078
 30
0.0
 40
25.29999999999994
 50
176.61559647094629
 51
187.53527099727481
  0
ARC
  5
781
  8
DATA
  6
CONTINUOUS
 62
     7
 10
1806.0124537993199
 20
511.0759655942486
 30
0.0
 40
0.1999999999996134
 50
99.499999999964089
 51
178.40524874129329
  0
LINE
  5
782
  8
DATA
  6
CONTINUOUS
 62
     7
 10
1805.979444278149
 20
511.27322271455591
 30
0.0
 11
1806.4118971142129
 21
511.345590500448
 31
0.0
  0
ARC
  5
783
  8
DATA
  6
CONTINUOUS
 62
     7
 10
1805.7965368181569
 20
511.86459769564829
 30
0.0
 40
0.2499999999999503
 50
138.00000000001569
 51
176.61559647096971
  0
LINE
  5
784
  8
DATA
  6
CONTINUOUS
 62
     7
 10
1805.610750611788
 20
512.03188034723814
 30
0.0
 11
1806.068819524736
 21
512.54061741461373
 31
0.0
  0
ARC
  5
785
  8
DATA
  6
CONTINUOUS
 62
     7
 10
1805.919603494377
 20
507.0942538957608
 30
0.0
 40
0.2000000000001938
 50
187.53527099726119
 51
275.9999999999676
  0
LINE
  5
786
  8
DATA
  6
CONTINUOUS
 62
     7
 10
1805.940509187029
 20
506.89534951668742
 30
0.0
 11
1806.046146264204
 21
506.90645242089909
 31
0.0
  0
ARC
  5
787
  8
DATA
  6
CONTINUOUS
 62
     7
 10
1807.163032574417
 20
502.88917221471718
 30
0.0
 40
0.2000000000002116
 50
197.5947512588331
 51
276.50000000002541
  0
LINE
  5
788
  8
DATA
  6
CONTINUOUS
 62
     7
 10
1807.1856732171709
 20
502.69045784358201
 30
0.0
 11
1807.621320828928
 21
502.74009361923288
 31
0.0
  0
LINE
  5
789
  8
DATA
  6
CONTINUOUS
 62
     7
 10
1822.0561942986469
 20
503.5018683482798
 30
0.0
 11
1820.386117087133
 21
515.38508517317962
 31
0.0
  0
LINE
  5
78A
  8
DATA
  6
CONTINUOUS
 62
     7
 10
37.069999999939448
 20
550.85905017535106
 30
0.0
 11
37.069999999939448
 21
79.99905795294579
 31
0.0
  0
LINE
  5
78B
  8
DATA
  6
CONTINUOUS
 62
     7
 10
65.009999999939495
 20
550.85905017535106
 30
0.0
 11
65.009999999939495
 21
79.99905795294579
 31
0.0
  0
LINE
  5
78C
  8
DATA
  6
CONTINUOUS
 62
     7
 10
92.949999999939436
 20
550.85905017535106
 30
0.0
 11
92.949999999939436
 21
79.99905795294579
 31
0.0
  0
LINE
  5
78D
  8
DATA
  6
CONTINUOUS
 62
     7
 10
120.8899999999395
 20
550.85905017535106
 30
0.0
 11
120.8899999999395
 21
79.99905795294579
 31
0.0
  0
LINE
  5
78E
  8
DATA
  6
CONTINUOUS
 62
     7
 10
148.82999999993939
 20
550.85905017535106
 30
0.0
 11
148.82999999993939
 21
79.99905795294579
 31
0.0
  0
LINE
  5
78F
  8
DATA
  6
CONTINUOUS
 62
     7
 10
176.7699999999395
 20
550.85905017535106
 30
0.0
 11
176.7699999999395
 21
79.99905795294579
 31
0.0
  0
LINE
  5
790
  8
DATA
  6
CONTINUOUS
 62
     7
 10
204.70999999993941
 20
550.85905017535106
 30
0.0
 11
204.70999999993941
 21
79.99905795294579
 31
0.0
  0
LINE
  5
791
  8
DATA
  6
CONTINUOUS
 62
     7
 10
232.6499999999395
 20
550.85905017535106
 30
0.0
 11
232.6499999999395
 21
79.99905795294579
 31
0.0
  0
LINE
  5
792
  8
DATA
  6
CONTINUOUS
 62
     7
 10
260.58999999993938
 20
550.85905017535106
 30
0.0
 11
260.58999999993938
 21
79.99905795294579
 31
0.0
  0
LINE
  5
793
  8
DATA
  6
CONTINUOUS
 62
     7
 10
288.52999999993949
 20
550.85905017535106
 30
0.0
 11
288.52999999993949
 21
79.99905795294579
 31
0.0
  0
LINE
  5
794
  8
DATA
  6
CONTINUOUS
 62
     7
 10
316.4699999999396
 20
550.85905017535106
 30
0.0
 11
316.4699999999396
 21
79.99905795294579
 31
0.0
  0
LINE
  5
795
  8
DATA
  6
CONTINUOUS
 62
     7
 10
344.40999999993949
 20
550.85905017535106
 30
0.0
 11
344.40999999993949
 21
79.99905795294579
 31
0.0
  0
LINE
  5
796
  8
DATA
  6
CONTINUOUS
 62
     7
 10
372.34999999993943
 20
550.85905017535106
 30
0.0
 11
372.34999999993943
 21
79.99905795294579
 31
0.0
  0
LINE
  5
797
  8
DATA
  6
CONTINUOUS
 62
     7
 10
400.28999999993943
 20
550.85905017535106
 30
0.0
 11
400.28999999993943
 21
79.99905795294579
 31
0.0
  0
LINE
  5
798
  8
DATA
  6
CONTINUOUS
 62
     7
 10
428.22999999993942
 20
550.85905017535106
 30
0.0
 11
428.22999999993942
 21
79.99905795294579
 31
0.0
  0
LINE
  5
799
  8
DATA
  6
CONTINUOUS
 62
     7
 10
456.16999999993942
 20
552.19598544327289
 30
0.0
 11
456.16999999993942
 21
79.99905795294579
 31
0.0
  0
LINE
  5
79A
  8
DATA
  6
CONTINUOUS
 62
     7
 10
484.1099999999393
 20
551.01075017564631
 30
0.0
 11
484.1099999999393
 21
79.99905795294579
 31
0.0
  0
LINE
  5
79B
  8
DATA
  6
CONTINUOUS
 62
     7
 10
512.04999999993936
 20
550.85905017535106
 30
0.0
 11
512.04999999993936
 21
79.99905795294579
 31
0.0
  0
LINE
  5
79C
  8
DATA
  6
CONTINUOUS
 62
     7
 10
539.98999999993953
 20
550.85905017535106
 30
0.0
 11
539.98999999993953
 21
79.99905795294579
 31
0.0
  0
LINE
  5
79D
  8
DATA
  6
CONTINUOUS
 62
     7
 10
567.92999999993935
 20
550.85905017535106
 30
0.0
 11
567.92999999993935
 21
79.99905795294579
 31
0.0
  0
LINE
  5
79E
  8
DATA
  6
CONTINUOUS
 62
     7
 10
595.86999999993952
 20
550.85905017535106
 30
0.0
 11
595.86999999993952
 21
79.99905795294579
 31
0.0
  0
LINE
  5
79F
  8
DATA
  6
CONTINUOUS
 62
     7
 10
623.80999999993969
 20
550.85905017535106
 30
0.0
 11
623.80999999993969
 21
79.99905795294579
 31
0.0
  0
LINE
  5
7A0
  8
DATA
  6
CONTINUOUS
 62
     7
 10
651.74999999993963
 20
550.85905017535106
 30
0.0
 11
651.74999999993963
 21
79.99905795294579
 31
0.0
  0
LINE
  5
7A1
  8
DATA
  6
CONTINUOUS
 62
     7
 10
679.68999999993957
 20
550.85905017535106
 30
0.0
 11
679.68999999993957
 21
79.99905795294579
 31
0.0
  0
LINE
  5
7A2
  8
DATA
  6
CONTINUOUS
 62
     7
 10
707.62999999993963
 20
550.85905017535106
 30
0.0
 11
707.62999999993963
 21
79.99905795294579
 31
0.0
  0
LINE
  5
7A3
  8
DATA
  6
CONTINUOUS
 62
     7
 10
737.37999999993963
 20
550.85905017535106
 30
0.0
 11
737.37999999993963
 21
79.99905795294579
 31
0.0
  0
LINE
  5
7A4
  8
DATA
  6
CONTINUOUS
 62
     7
 10
767.85999999993953
 20
550.85905017535106
 30
0.0
 11
767.85999999993953
 21
79.99905795294579
 31
0.0
  0
LINE
  5
7A5
  8
DATA
  6
CONTINUOUS
 62
     7
 10
37.069999999939448
 20
550.85905017535106
 30
0.0
 11
767.85999999993953
 21
550.85905017535106
 31
0.0
  0
LINE
  5
7A6
  8
DATA
  6
CONTINUOUS
 62
     7
 10
37.069999999939448
 20
79.99905795294579
 30
0.0
 11
767.85999999993953
 21
79.99905795294579
 31
0.0
  0
CIRCLE
  5
7A7
  8
DATA
  6
CONTINUOUS
 62
     7
 10
17.799999999939701
 20
528.89233327357715
 30
0.0
 40
11.883216824900041
  0
CIRCLE
  5
7A8
  8
DATA
  6
CONTINUOUS
 62
     7
 10
8.2999999999396987
 20
540.77555009847629
 30
0.0
 40
2.5
  0
CIRCLE
  5
7A9
  8
DATA
  6
CONTINUOUS
 62
     7
 10
27.299999999939701
 20
517.00911644867688
 30
0.0
 40
2.499999999999964
  0
CIRCLE
  5
7AA
  8
DATA
  6
CONTINUOUS
 62
     7
 10
17.799999999939701
 20
528.89233327357715
 30
0.0
 40
11.883216824900041
  0
CIRCLE
  5
7AB
  8
DATA
  6
CONTINUOUS
 62
     7
 10
8.2999999999396987
 20
540.77555009847629
 30
0.0
 40
2.5
  0
CIRCLE
  5
7AC
  8
DATA
  6
CONTINUOUS
 62
     7
 10
27.299999999939701
 20
517.00911644867688
 30
0.0
 40
2.499999999999964
  0
LINE
  5
7AD
  8
DATA
  6
CONTINUOUS
 62
     7
 10
-8.6280314749155878
 20
0.451233922130541
 30
0.0
 11
0.0
 21
-0.0009420470541954
 31
0.0
  0
LINE
  5
7AE
  8
DATA
  6
CONTINUOUS
 62
     7
 10
-20.000000000001819
 20
570.00815151914105
 30
0.0
 11
-20.000000000000909
 21
12.43478833918561
 31
0.0
  0
LINE
  5
7AF
  8
DATA
  6
CONTINUOUS
 62
     7
 10
-20.000000000001819
 20
570.00815151914105
 30
0.0
 11
-20.000000000001819
 21
642.95424666893325
 31
0.0
  0
ARC
  5
7B0
  8
DATA
  6
CONTINUOUS
 62
     7
 10
-8.0
 20
12.43478833918561
 30
0.0
 40
12.000000000000901
 50
180.0
 51
266.99999999999449
  0
ARC
  5
7B1
  8
DATA
  6
CONTINUOUS
 62
     7
 10
-21.000000000000909
 20
98.692265146147733
 30
0.0
 40
1.0
 50
0.0
 51
75.000000000005585
  0
ARC
  5
7B2
  8
DATA
  6
CONTINUOUS
 62
     7
 10
-21.000000000004551
 20
631.21486378536929
 30
0.0
 40
1.000000000002458
 50
287.80128729201999
 51
359.99999999994787
  0
LINE
  5
7B3
  8
DATA
  6
CONTINUOUS
 62
     7
 10
-36.208930969520218
 20
121.4655014371906
 30
0.0
 11
-45.175849359956821
 21
503.96195166620021
 31
0.0
  0
LINE
  5
7B4
  8
DATA
  6
CONTINUOUS
 62
     7
 10
-31.484568023059641
 20
102.5368728613257
 30
0.0
 11
-20.741180954898478
 21
99.658190972437765
 31
0.0
  0
LINE
  5
7B5
  8
DATA
  6
CONTINUOUS
 62
     7
 10
-32.286142744783319
 20
121.9015777199247
 30
0.0
 11
-41.252866151473427
 21
504.38971064445252
 31
0.0
  0
POLYLINE
  5
7B6
  8
DATA
  6
CONTINUOUS
 62
     7
 66
     1
 10
0.0
 20
0.0
 30
0.0
 70
   128
  0
VERTEX
  5
E61
  8
DATA
  6
CONTINUOUS
 62
     7
 10
-8.6280314749164972
 20
655.46323390864802
 30
0.0
  0
VERTEX
  5
E62
  8
DATA
  6
CONTINUOUS
 62
     7
 10
-8.6281134936757553
 20
655.46327854511753
 30
0.0
  0
VERTEX
  5
E63
  8
DATA
  6
CONTINUOUS
 62
     7
 10
-8.6281954713704181
 20
655.46332241094979
 30
0.0
  0
VERTEX
  5
E64
  8
DATA
  6
CONTINUOUS
 62
     7
 10
-8.6282774080005993
 20
655.4633655061449
 30
0.0
  0
VERTEX
  5
E65
  8
DATA
  6
CONTINUOUS
 62
     7
 10
-8.6283593035661852
 20
655.46340783070275
 30
0.0
  0
VERTEX
  5
E66
  8
DATA
  6
CONTINUOUS
 62
     7
 10
-8.628441158067174
 20
655.46344938462357
 30
0.0
  0
VERTEX
  5
E67
  8
DATA
  6
CONTINUOUS
 62
     7
 10
-8.6285229715035712
 20
655.46349016790725
 30
0.0
  0
VERTEX
  5
E68
  8
DATA
  6
CONTINUOUS
 62
     7
 10
-8.6286047438754867
 20
655.46353018055345
 30
0.0
  0
VERTEX
  5
E69
  8
DATA
  6
CONTINUOUS
 62
     7
 10
-8.6286864751826897
 20
655.46356942256273
 30
0.0
  0
VERTEX
  5
E6A
  8
DATA
  6
CONTINUOUS
 62
     7
 10
-8.6287681654252992
 20
655.46360789393475
 30
0.0
  0
VERTEX
  5
E6B
  8
DATA
  6
CONTINUOUS
 62
     7
 10
-8.6288498146034271
 20
655.46364559466963
 30
0.0
  0
VERTEX
  5
E6C
  8
DATA
  6
CONTINUOUS
 62
     7
 10
-8.6289314227170735
 20
655.46368252476736
 30
0.0
  0
VERTEX
  5
E6D
  8
DATA
  6
CONTINUOUS
 62
     7
 10
-8.6290129897661245
 20
655.46371868422796
 30
0.0
  0
VERTEX
  5
E6E
  8
DATA
  6
CONTINUOUS
 62
     7
 10
-8.6290945157505785
 20
655.46375407305106
 30
0.0
  0
VERTEX
  5
E6F
  8
DATA
  6
CONTINUOUS
 62
     7
 10
-8.6291760006704408
 20
655.46378869123737
 30
0.0
  0
VERTEX
  5
E70
  8
DATA
  6
CONTINUOUS
 62
     7
 10
-8.6292574445258197
 20
655.46382253878642
 30
0.0
  0
VERTEX
  5
E71
  8
DATA
  6
CONTINUOUS
 62
     7
 10
-8.6293388473164896
 20
655.46385561569821
 30
0.0
  0
VERTEX
  5
E72
  8
DATA
  6
CONTINUOUS
 62
     7
 10
-8.6294202090425625
 20
655.46388792197286
 30
0.0
  0
VERTEX
  5
E73
  8
DATA
  6
CONTINUOUS
 62
     7
 10
-8.6295015297041573
 20
655.46391945761025
 30
0.0
  0
VERTEX
  5
E74
  8
DATA
  6
CONTINUOUS
 62
     7
 10
-8.6295828093012652
 20
655.46395022261049
 30
0.0
  0
VERTEX
  5
E75
  8
DATA
  6
CONTINUOUS
 62
     7
 10
-8.6296640478337832
 20
655.46398021697371
 30
0.0
  0
VERTEX
  5
E76
  8
DATA
  6
CONTINUOUS
 62
     7
 10
-8.6297452453015921
 20
655.46400944069967
 30
0.0
  0
VERTEX
  5
E77
  8
DATA
  6
CONTINUOUS
 62
     7
 10
-8.6298264017049178
 20
655.46403789378837
 30
0.0
  0
VERTEX
  5
E78
  8
DATA
  6
CONTINUOUS
 62
     7
 10
-8.6299075170436481
 20
655.46406557624005
 30
0.0
  0
VERTEX
  5
E79
  8
DATA
  6
CONTINUOUS
 62
     7
 10
-8.6299885913178969
 20
655.46409248805435
 30
0.0
  0
VERTEX
  5
E7A
  8
DATA
  6
CONTINUOUS
 62
     7
 10
-8.6300696245274366
 20
655.46411862923151
 30
0.0
  0
VERTEX
  5
E7B
  8
DATA
  6
CONTINUOUS
 62
     7
 10
-8.6301506166723811
 20
655.46414399977175
 30
0.0
  0
VERTEX
  5
E7C
  8
DATA
  6
CONTINUOUS
 62
     7
 10
-8.6302315677528441
 20
655.46416859967474
 30
0.0
  0
VERTEX
  5
E7D
  8
DATA
  6
CONTINUOUS
 62
     7
 10
-8.6303124777688254
 20
655.46419242894046
 30
0.0
  0
VERTEX
  5
E7E
  8
DATA
  6
CONTINUOUS
 62
     7
 10
-8.6303933467202114
 20
655.46421548756894
 30
0.0
  0
VERTEX
  5
E7F
  8
DATA
  6
CONTINUOUS
 62
     7
 10
-8.6304741746068885
 20
655.46423777556026
 30
0.0
  0
VERTEX
  5
E80
  8
DATA
  6
CONTINUOUS
 62
     7
 10
-8.6305549614290822
 20
655.46425929291445
 30
0.0
  0
VERTEX
  5
E81
  8
DATA
  6
CONTINUOUS
 62
     7
 10
-8.6306357071866842
 20
655.46428003963149
 30
0.0
  0
VERTEX
  5
E82
  8
DATA
  6
CONTINUOUS
 62
     7
 10
-8.6307164118796891
 20
655.46430001571127
 30
0.0
  0
VERTEX
  5
E83
  8
DATA
  6
CONTINUOUS
 62
     7
 10
-8.6307970755080952
 20
655.46431922115414
 30
0.0
  0
VERTEX
  5
E84
  8
DATA
  6
CONTINUOUS
 62
     7
 10
-8.6308776980720232
 20
655.46433765595964
 30
0.0
  0
VERTEX
  5
E85
  8
DATA
  6
CONTINUOUS
 62
     7
 10
-8.6309582795714732
 20
655.46435532012788
 30
0.0
  0
VERTEX
  5
E86
  8
DATA
  6
CONTINUOUS
 62
     7
 10
-8.6310388200063226
 20
655.46437221365898
 30
0.0
  0
VERTEX
  5
E87
  8
DATA
  6
CONTINUOUS
 62
     7
 10
-8.6311193193764648
 20
655.46438833655293
 30
0.0
  0
VERTEX
  5
E88
  8
DATA
  6
CONTINUOUS
 62
     7
 10
-8.6311997776821272
 20
655.46440368880985
 30
0.0
  0
VERTEX
  5
E89
  8
DATA
  6
CONTINUOUS
 62
     7
 10
-8.6312801949231925
 20
655.46441827042941
 30
0.0
  0
VERTEX
  5
E8A
  8
DATA
  6
CONTINUOUS
 62
     7
 10
-8.6313605710996626
 20
655.46443208141193
 30
0.0
  0
VERTEX
  5
E8B
  8
DATA
  6
CONTINUOUS
 62
     7
 10
-8.6314409062115374
 20
655.46444512175731
 30
0.0
  0
VERTEX
  5
E8C
  8
DATA
  6
CONTINUOUS
 62
     7
 10
-8.6315212002589288
 20
655.4644573914652
 30
0.0
  0
VERTEX
  5
E8D
  8
DATA
  6
CONTINUOUS
 62
     7
 10
-8.6316014532417284
 20
655.46446889053595
 30
0.0
  0
VERTEX
  5
E8E
  8
DATA
  6
CONTINUOUS
 62
     7
 10
-8.6316816651599311
 20
655.46447961896979
 30
0.0
  0
VERTEX
  5
E8F
  8
DATA
  6
CONTINUOUS
 62
     7
 10
-8.6317618360135384
 20
655.46448957676648
 30
0.0
  0
VERTEX
  5
E90
  8
DATA
  6
CONTINUOUS
 62
     7
 10
-8.6318419658025505
 20
655.4644987639258
 30
0.0
  0
VERTEX
  5
E91
  8
DATA
  6
CONTINUOUS
 62
     7
 10
-8.6319220545270792
 20
655.46450718044809
 30
0.0
  0
VERTEX
  5
E92
  8
DATA
  6
CONTINUOUS
 62
     7
 10
-8.6320021021870161
 20
655.46451482633313
 30
0.0
  0
VERTEX
  5
E93
  8
DATA
  6
CONTINUOUS
 62
     7
 10
-8.6320821087823578
 20
655.46452170158091
 30
0.0
  0
VERTEX
  5
E94
  8
DATA
  6
CONTINUOUS
 62
     7
 10
-8.6321620743131007
 20
655.46452780619177
 30
0.0
  0
VERTEX
  5
E95
  8
DATA
  6
CONTINUOUS
 62
     7
 10
-8.6322419987793637
 20
655.46453314016514
 30
0.0
  0
VERTEX
  5
E96
  8
DATA
  6
CONTINUOUS
 62
     7
 10
-8.6323218821810297
 20
655.46453770350161
 30
0.0
  0
VERTEX
  5
E97
  8
DATA
  6
CONTINUOUS
 62
     7
 10
-8.6324017245181022
 20
655.46454149620058
 30
0.0
  0
VERTEX
  5
E98
  8
DATA
  6
CONTINUOUS
 62
     7
 10
-8.6324815257905811
 20
655.46454451826276
 30
0.0
  0
VERTEX
  5
E99
  8
DATA
  6
CONTINUOUS
 62
     7
 10
-8.6325612859985767
 20
655.46454676968756
 30
0.0
  0
VERTEX
  5
E9A
  8
DATA
  6
CONTINUOUS
 62
     7
 10
-8.6326410051419771
 20
655.46454825047522
 30
0.0
  0
VERTEX
  5
E9B
  8
DATA
  6
CONTINUOUS
 62
     7
 10
-8.6327206832207821
 20
655.46454896062562
 30
0.0
  0
VERTEX
  5
E9C
  8
DATA
  6
CONTINUOUS
 62
     7
 10
-8.6328003202349919
 20
655.46454890013899
 30
0.0
  0
VERTEX
  5
E9D
  8
DATA
  6
CONTINUOUS
 62
     7
 10
-8.6328799161847201
 20
655.46454806901511
 30
0.0
  0
VERTEX
  5
E9E
  8
DATA
  6
CONTINUOUS
 62
     7
 10
-8.6329594710698512
 20
655.46454646725408
 30
0.0
  0
VERTEX
  5
E9F
  8
DATA
  6
CONTINUOUS
 62
     7
 10
-8.6330389848903906
 20
655.46454409485557
 30
0.0
  0
VERTEX
  5
EA0
  8
DATA
  6
CONTINUOUS
 62
     7
 10
-8.6331184576463347
 20
655.46454095182037
 30
0.0
  0
VERTEX
  5
EA1
  8
DATA
  6
CONTINUOUS
 62
     7
 10
-8.6331978893376782
 20
655.46453703814768
 30
0.0
  0
VERTEX
  5
EA2
  8
DATA
  6
CONTINUOUS
 62
     7
 10
-8.6331978893376782
 20
655.46453703814768
 30
0.0
  0
SEQEND
  5
EA3
  8
DATA
  6
CONTINUOUS
 62
     7
  0
LINE
  5
7FA
  8
DATA
  6
CONTINUOUS
 62
     7
 10
-31.56283359900408
 20
120.0496626269737
 30
0.0
 11
-31.562833599004989
 21
558.81886995379284
 31
0.0
  0
LINE
  5
7FB
  8
DATA
  6
CONTINUOUS
 62
     7
 10
-43.921029439358563
 20
504.64141352792331
 30
0.0
 11
-34.946410509656289
 21
121.4929864674004
 31
0.0
  0
LINE
  5
7FC
  8
DATA
  6
CONTINUOUS
 62
     7
 10
-28.769274763852081
 20
118.7702385188277
 30
0.0
 11
-28.789519882994231
 21
557.69240629846718
 31
0.0
  0
ARC
  5
7FD
  8
DATA
  6
CONTINUOUS
 62
     7
 10
-126.08308165988549
 20
118.56549213410629
 30
0.0
 40
97.311862160190501
 50
355.11153174859652
 51
0.1222433217758976
  0
ARC
  5
7FE
  8
DATA
  6
CONTINUOUS
 62
     7
 10
-57.47526541660249
 20
112.1580280884736
 30
0.0
 40
28.412675446468551
 50
343.24347439328039
 51
356.1957907938563
  0
ARC
  5
7FF
  8
DATA
  6
CONTINUOUS
 62
     7
 10
-34.019839735348341
 20
105.2060924853685
 30
0.0
 40
3.950332636389819
 50
321.14760338305558
 51
341.7119849851947
  0
ARC
  5
800
  8
DATA
  6
CONTINUOUS
 62
     7
 10
-31.385184777210728
 20
103.11726168735819
 30
0.0
 40
0.5887758420986945
 50
260.28167282727838
 51
318.61133728436198
  0
ARC
  5
801
  8
DATA
  6
CONTINUOUS
 62
     7
 10
45.013045030583029
 20
122.95085679837121
 30
0.0
 40
81.235555713816822
 50
181.04768605592719
 51
189.38739932530279
  0
ARC
  5
802
  8
DATA
  6
CONTINUOUS
 62
     7
 10
-13.72554019912991
 20
113.08872053759291
 30
0.0
 40
21.675505206134769
 50
188.9928195003055
 51
202.991743246879
  0
ARC
  5
803
  8
DATA
  6
CONTINUOUS
 62
     7
 10
-29.995748150659889
 20
106.21376769875771
 30
0.0
 40
4.0125239827799524
 50
203.36734522953481
 51
240.50919011903409
  0
ARC
  5
804
  8
DATA
  6
CONTINUOUS
 62
     7
 10
-30.796883275868382
 20
105.0868882003298
 30
0.0
 40
2.6411150184488359
 50
243.6040353167347
 51
254.90758611750709
  0
ARC
  5
805
  8
DATA
  6
CONTINUOUS
 62
     7
 10
7.3385874355699343
 20
122.16517598297671
 30
0.0
 40
42.290340386105143
 50
180.91073384098399
 51
189.8204015288826
  0
ARC
  5
806
  8
DATA
  6
CONTINUOUS
 62
     7
 10
-24.862997714798212
 20
116.4125872518221
 30
0.0
 40
9.5810504037535722
 50
188.76794261061801
 51
204.61679701749119
  0
ARC
  5
807
  8
DATA
  6
CONTINUOUS
 62
     7
 10
-32.594769449589421
 20
112.8472455263436
 30
0.0
 40
1.067054552722442
 50
203.5077418944646
 51
238.31334775389979
  0
ARC
  5
808
  8
DATA
  6
CONTINUOUS
 62
     7
 10
-33.019830980156712
 20
112.2611504911187
 30
0.0
 40
0.3492281356217405
 50
247.18175177551529
 51
322.4871385179739
  0
ARC
  5
809
  8
DATA
  6
CONTINUOUS
 62
     7
 10
-34.236556422907597
 20
113.3344174718365
 30
0.0
 40
1.9710051735732199
 50
319.2755915940852
 51
342.16911817937
  0
ARC
  5
80A
  8
DATA
  6
CONTINUOUS
 62
     7
 10
-46.502502225181367
 20
117.06758332519161
 30
0.0
 40
14.792257506704519
 50
342.95192943517998
 51
354.47597389453932
  0
ARC
  5
80B
  8
DATA
  6
CONTINUOUS
 62
     7
 10
-76.85446622293216
 20
120.0628174205137
 30
0.0
 40
45.291634347528877
 50
354.40064272585471
 51
359.98335765281729
  0
ARC
  5
80C
  8
DATA
  6
CONTINUOUS
 62
     7
 10
7.3893144016562911
 20
122.55214602514
 30
0.0
 40
39.680790552844549
 50
180.93940891178329
 51
189.51426457106999
  0
ARC
  5
80D
  8
DATA
  6
CONTINUOUS
 62
     7
 10
-7.7883245128866729
 20
643.31272464902042
 30
0.0
 40
12.190021024047009
 50
93.953356069726908
 51
181.68145465080639
  0
LINE
  5
80E
  8
DATA
  6
CONTINUOUS
 62
     7
 10
-0.0000000000004547
 20
655.92999999999995
 30
0.0
 11
-8.6280316114434754
 21
655.46323701497886
 31
0.0
  0
LINE
  5
80F
  8
DATA
  6
CONTINUOUS
 62
     7
 10
-47.348352173538608
 20
621.47511367848813
 30
0.0
 11
-20.694283303165768
 21
630.26274126106955
 31
0.0
  0
LINE
  5
810
  8
DATA
  6
CONTINUOUS
 62
     7
 10
-0.0000000000004547
 20
655.92999999999995
 30
0.0
 11
0.0
 21
0.0
 31
0.0
  0
POLYLINE
  5
811
  8
DATA
  6
CONTINUOUS
 62
     7
 66
     1
 10
0.0
 20
0.0
 30
0.0
 70
   128
  0
VERTEX
  5
EA4
  8
DATA
  6
CONTINUOUS
 62
     7
 10
-45.175848007204877
 20
503.96196290610942
 30
0.0
  0
VERTEX
  5
EA5
  8
DATA
  6
CONTINUOUS
 62
     7
 10
-45.189309120180937
 20
504.3699066316945
 30
0.0
  0
VERTEX
  5
EA6
  8
DATA
  6
CONTINUOUS
 62
     7
 10
-45.210304260256642
 20
504.7731582796448
 30
0.0
  0
VERTEX
  5
EA7
  8
DATA
  6
CONTINUOUS
 62
     7
 10
-45.238404273989538
 20
505.16309663413602
 30
0.0
  0
VERTEX
  5
EA8
  8
DATA
  6
CONTINUOUS
 62
     7
 10
-45.273404121401647
 20
505.53609773276872
 30
0.0
  0
VERTEX
  5
EA9
  8
DATA
  6
CONTINUOUS
 62
     7
 10
-45.314254760744923
 20
505.88422700522972
 30
0.0
  0
VERTEX
  5
EAA
  8
DATA
  6
CONTINUOUS
 62
     7
 10
-45.359721183779577
 20
506.19844361899919
 30
0.0
  0
VERTEX
  5
EAB
  8
DATA
  6
CONTINUOUS
 62
     7
 10
-45.408067703249792
 20
506.47157594321789
 30
0.0
  0
VERTEX
  5
EAC
  8
DATA
  6
CONTINUOUS
 62
     7
 10
-45.456047058108197
 20
506.69271394370622
 30
0.0
  0
SEQEND
  5
EAD
  8
DATA
  6
CONTINUOUS
 62
     7
  0
POLYLINE
  5
81C
  8
DATA
  6
CONTINUOUS
 62
     7
 66
     1
 10
0.0
 20
0.0
 30
0.0
 70
   128
  0
VERTEX
  5
EAE
  8
DATA
  6
CONTINUOUS
 62
     7
 10
-45.456047058108197
 20
506.69271394370622
 30
0.0
  0
VERTEX
  5
EAF
  8
DATA
  6
CONTINUOUS
 62
     7
 10
-45.680198669436322
 20
507.59878083823651
 30
0.0
  0
VERTEX
  5
EB0
  8
DATA
  6
CONTINUOUS
 62
     7
 10
-45.90707302093778
 20
508.47692414878247
 30
0.0
  0
VERTEX
  5
EB1
  8
DATA
  6
CONTINUOUS
 62
     7
 10
-46.136388778689252
 20
509.32645722983722
 30
0.0
  0
VERTEX
  5
EB2
  8
DATA
  6
CONTINUOUS
 62
     7
 10
-46.367855072024213
 20
510.14650270102771
 30
0.0
  0
VERTEX
  5
EB3
  8
DATA
  6
CONTINUOUS
 62
     7
 10
-46.601181030276173
 20
510.93637391684712
 30
0.0
  0
VERTEX
  5
EB4
  8
DATA
  6
CONTINUOUS
 62
     7
 10
-46.836080551150182
 20
511.6952316438971
 30
0.0
  0
VERTEX
  5
EB5
  8
DATA
  6
CONTINUOUS
 62
     7
 10
-47.072262763979772
 20
512.4223510896968
 30
0.0
  0
VERTEX
  5
EB6
  8
DATA
  6
CONTINUOUS
 62
     7
 10
-47.309441566470021
 20
513.1168548738766
 30
0.0
  0
SEQEND
  5
EB7
  8
DATA
  6
CONTINUOUS
 62
     7
  0
LINE
  5
827
  8
DATA
  6
CONTINUOUS
 62
     7
 10
-49.412198388862862
 20
529.74600237351126
 30
0.0
 11
-51.118596866775533
 21
601.26267241494463
 31
0.0
  0
LINE
  5
828
  8
DATA
  6
CONTINUOUS
 62
     7
 10
-45.520449311160057
 20
530.23058383379566
 30
0.0
 11
-47.176080859881033
 21
600.84787107031991
 31
0.0
  0
LINE
  5
829
  8
DATA
  6
CONTINUOUS
 62
     7
 10
-49.841945939160723
 20
600.68740257224238
 30
0.0
 11
-48.186461842585231
 21
530.07041212143179
 31
0.0
  0
ARC
  5
82A
  8
DATA
  6
CONTINUOUS
 62
     7
 10
-45.955838230492191
 20
618.20731889941726
 30
0.0
 40
3.5521229989546059
 50
113.08043556951981
 51
149.8184985073882
  0
ARC
  5
82B
  8
DATA
  6
CONTINUOUS
 62
     7
 10
-45.542399892187852
 20
617.67073241466733
 30
0.0
 40
4.1871112402405446
 50
146.31334488355679
 51
162.76467205439059
  0
ARC
  5
82C
  8
DATA
  6
CONTINUOUS
 62
     7
 10
-28.324889231003681
 20
611.85715593797079
 30
0.0
 40
22.358579135894129
 50
161.60880110655219
 51
172.8940541213907
  0
ARC
  5
82D
  8
DATA
  6
CONTINUOUS
 62
     7
 10
36.392838191939063
 20
604.02185788471741
 30
0.0
 40
87.548781924741306
 50
173.04507071190949
 51
181.80590488003151
  0
ARC
  5
82E
  8
DATA
  6
CONTINUOUS
 62
     7
 10
-47.204176086766637
 20
620.49736671794199
 30
0.0
 40
0.9883197169207139
 50
42.580975291191287
 51
98.388241732588526
  0
ARC
  5
82F
  8
DATA
  6
CONTINUOUS
 62
     7
 10
-83.808414267685293
 20
591.68389303531251
 30
0.0
 40
47.569690291580713
 50
17.499895380534031
 51
38.299240838660147
  0
ARC
  5
830
  8
DATA
  6
CONTINUOUS
 62
     7
 10
-236.33711273528269
 20
537.37768044396375
 30
0.0
 40
209.45294822019289
 50
11.46014922532691
 51
19.121382208771049
  0
ARC
  5
831
  8
DATA
  6
CONTINUOUS
 62
     7
 10
-301.99660576591651
 20
522.50500916402848
 30
0.0
 40
276.76262499982732
 50
10.56986108760487
 51
11.776999881698799
  0
ARC
  5
832
  8
DATA
  6
CONTINUOUS
 62
     7
 10
-135.64356616113631
 20
557.70197304175917
 30
0.0
 40
106.8540467064018
 50
359.99487025497001
 51
8.3789841276170023
  0
ARC
  5
833
  8
DATA
  6
CONTINUOUS
 62
     7
 10
8.3822539298689662
 20
602.36895172324887
 30
0.0
 40
55.579153024877172
 50
175.69061058428039
 51
181.5682568016868
  0
ARC
  5
834
  8
DATA
  6
CONTINUOUS
 62
     7
 10
-32.513108430486909
 20
605.89142886018271
 30
0.0
 40
14.541367097765839
 50
163.61619559462321
 51
177.42279939072179
  0
ARC
  5
835
  8
DATA
  6
CONTINUOUS
 62
     7
 10
0.8929450626881134
 20
602.44028574718038
 30
0.0
 40
50.765164998254832
 50
171.71837178568771
 51
181.9787894966814
  0
ARC
  5
836
  8
DATA
  6
CONTINUOUS
 62
     7
 10
-43.818069383328968
 20
609.06082815702609
 30
0.0
 40
5.5678942808543193
 50
150.80503870784
 51
172.86457130200131
  0
ARC
  5
837
  8
DATA
  6
CONTINUOUS
 62
     7
 10
-48.297525228931363
 20
611.61664486124494
 30
0.0
 40
0.4133851915599709
 50
33.139091745557913
 51
157.21298079410749
  0
ARC
  5
838
  8
DATA
  6
CONTINUOUS
 62
     7
 10
-71.703887773599476
 20
591.59652851167834
 30
0.0
 40
31.210356767689969
 50
26.38908451703287
 51
40.443525367526682
  0
ARC
  5
839
  8
DATA
  6
CONTINUOUS
 62
     7
 10
-123.71537804499479
 20
566.29049634380226
 30
0.0
 40
89.050826821201341
 50
17.96065628852001
 51
26.100703450982479
  0
ARC
  5
83A
  8
DATA
  6
CONTINUOUS
 62
     7
 10
-250.9369705386973
 20
526.39375644591325
 30
0.0
 40
222.3791035443009
 50
11.21365757009821
 51
17.631371432945279
  0
ARC
  5
83B
  8
DATA
  6
CONTINUOUS
 62
     7
 10
-66.576440446578772
 20
560.52134401819342
 30
0.0
 40
34.982298564059789
 50
3.171591454475148
 51
15.10852381238738
  0
ARC
  5
83C
  8
DATA
  6
CONTINUOUS
 62
     7
 10
26.06186954634336
 20
563.25405184586236
 30
0.0
 40
57.715099995060648
 50
180.79149427282621
 51
182.58782544561529
  0
ARC
  5
83D
  8
DATA
  6
CONTINUOUS
 62
     7
 10
2.4761841948809429
 20
560.32064494151075
 30
0.0
 40
34.072130260466821
 50
179.4492186088714
 51
182.52620698221429
  0
ARC
  5
83E
  8
DATA
  6
CONTINUOUS
 62
     7
 10
-10.28558515896361
 20
530.18502571183774
 30
0.0
 40
35.234893605149153
 50
179.92591750479451
 51
194.27683313935731
  0
ARC
  5
83F
  8
DATA
  6
CONTINUOUS
 62
     7
 10
-134.10375773550911
 20
491.70679053850722
 30
0.0
 40
94.490021141767642
 50
13.628534834162449
 51
18.376595615142818
  0
ARC
  5
840
  8
DATA
  6
CONTINUOUS
 62
     7
 10
-87.916550692592423
 20
504.26061654131507
 30
0.0
 40
46.663863108839699
 50
0.1585071661823608
 51
12.01070879008072
  0
ARC
  5
841
  8
DATA
  6
CONTINUOUS
 62
     7
 10
-2.4118718283507401
 20
530.46323458292602
 30
0.0
 40
45.77627332693676
 50
180.49169728053059
 51
191.46243112020269
  0
ARC
  5
842
  8
DATA
  6
CONTINUOUS
 62
     7
 10
-18.97633576612543
 20
528.84828627904949
 30
0.0
 40
29.271187797284838
 50
194.809631308993
 51
199.86162872497201
  0
ARC
  5
843
  8
DATA
  6
CONTINUOUS
 62
     7
 10
-91.779224439350855
 20
503.33130842123143
 30
0.0
 40
47.876123527786461
 50
1.568064811128101
 51
18.981215042380231
  0
ARC
  5
844
  8
DATA
  6
CONTINUOUS
 62
     7
 10
34.89967992169818
 20
530.67735831331925
 30
0.0
 40
84.317022291714437
 50
180.63289533157101
 51
188.2438297038577
  0
ARC
  5
845
  8
DATA
  6
CONTINUOUS
 62
     7
 10
-15.937595559816369
 20
523.08357385782585
 30
0.0
 40
32.916989673574442
 50
187.8505160035761
 51
197.62485923400709
  0
ARC
  5
846
  8
DATA
  6
CONTINUOUS
 62
     7
 10
-110.3699518117996
 20
491.49832015139759
 30
0.0
 40
66.663250715430564
 50
13.976227182938469
 51
18.92284629740627
  0
ARC
  5
847
  8
DATA
  6
CONTINUOUS
 62
     7
 10
-57.902261320592963
 20
504.08889389421893
 30
0.0
 40
12.716057636255989
 50
1.266285126868032
 51
16.022812072876029
  0
LINE
  5
848
  8
DATA
  6
CONTINUOUS
 62
     7
 10
33.503854245044067
 20
-600.00542704705413
 30
0.0
 11
16.404258289341438
 21
-600.00542704705413
 31
0.0
  0
ARC
  5
849
  8
DATA
  6
CONTINUOUS
 62
     7
 10
16.404258289341438
 20
-599.50542704705413
 30
0.0
 40
0.5000000000003261
 50
185.99999999997809
 51
270.0
  0
ARC
  5
84A
  8
DATA
  6
CONTINUOUS
 62
     7
 10
33.50385424504362
 20
-599.50542704705413
 30
0.0
 40
0.5
 50
270.0
 51
354.00000000001643
  0
LINE
  5
84B
  8
DATA
  6
CONTINUOUS
 62
     7
 10
15.90699734165741
 20
-599.55769127868871
 30
0.0
 11
14.903013914535901
 21
-590.00542704705401
 31
0.0
  0
LINE
  5
84C
  8
DATA
  6
CONTINUOUS
 62
     7
 10
34.001115192728093
 20
-599.55769127868871
 30
0.0
 11
35.005098619849612
 21
-590.00542704705401
 31
0.0
  0
ARC
  5
84D
  8
DATA
  6
CONTINUOUS
 62
     7
 10
16.404258289341438
 20
-599.50542704705413
 30
0.0
 40
0.5000000000003261
 50
185.99999999997809
 51
270.0
  0
LINE
  5
84E
  8
DATA
  6
CONTINUOUS
 62
     7
 10
0.0040562671210864
 20
-431.46043985309552
 30
0.0
 11
-8.6363129097435376
 21
-431.93466394367351
 31
0.0
  0
ARC
  5
84F
  8
DATA
  6
CONTINUOUS
 62
     7
 10
-7.9959437328789127
 20
-577.83899389653232
 30
0.0
 40
12.0
 50
180.0
 51
267.00000000000313
  0
LINE
  5
850
  8
DATA
  6
CONTINUOUS
 62
     7
 10
-8.6239752077935901
 20
-589.82254831358523
 30
0.0
 11
0.0040562671210864
 21
-590.27472428276849
 31
0.0
  0
LINE
  5
851
  8
DATA
  6
CONTINUOUS
 62
     7
 10
-19.983050056121101
 20
-443.68049829425939
 30
0.0
 11
-19.99594373287891
 21
-577.83899389653232
 31
0.0
  0
ARC
  5
852
  8
DATA
  6
CONTINUOUS
 62
     7
 10
-20.99594373287982
 20
-563.04205127076636
 30
0.0
 40
1.0
 50
0.0
 51
75.000000000005585
  0
ARC
  5
853
  8
DATA
  6
CONTINUOUS
 62
     7
 10
-18.347144217933408
 20
-585.70363937616685
 30
0.0
 40
1.000000000000137
 50
37.226879513992117
 51
75.000000000005556
  0
ARC
  5
854
  8
DATA
  6
CONTINUOUS
 62
     7
 10
-20.995943732875279
 20
-455.59827309855518
 30
0.0
 40
0.9999999999972841
 50
285.78366442948879
 51
0.0000000000781597
  0
LINE
  5
855
  8
DATA
  6
CONTINUOUS
 62
     7
 10
-20.73712468777649
 20
-562.07612544447636
 30
0.0
 11
-34.723062147058052
 21
-558.32860479686815
 31
0.0
  0
LINE
  5
856
  8
DATA
  6
CONTINUOUS
 62
     7
 10
-48.952991325299301
 20
-576.44702488851021
 30
0.0
 11
-19.99594373287891
 21
-584.22656863154646
 31
0.0
  0
LINE
  5
857
  8
DATA
  6
CONTINUOUS
 62
     7
 10
-18.088325687072931
 20
-584.73771362723471
 30
0.0
 11
-19.99594373287891
 21
-584.22656863154646
 31
0.0
  0
POLYLINE
  5
858
  8
DATA
  6
CONTINUOUS
 62
     7
 66
     1
 10
0.0
 20
0.0
 30
0.0
 70
   128
  0
VERTEX
  5
EB8
  8
DATA
  6
CONTINUOUS
 62
     7
 10
-28.82337951972568
 20
-458.85057738467771
 30
0.0
 42
-0.0000339855743435
  0
VERTEX
  5
EB9
  8
DATA
  6
CONTINUOUS
 62
     7
 10
-20.723937467394531
 20
-456.56056902560738
 30
0.0
  0
SEQEND
  5
EBA
  8
DATA
  6
CONTINUOUS
 62
     7
  0
LINE
  5
85C
  8
DATA
  6
CONTINUOUS
 62
     7
 10
-30.21719591254897
 20
-460.19475074786618
 30
0.0
 11
-30.21719591254897
 21
-522.27976232415085
 31
0.0
  0
ARC
  5
85D
  8
DATA
  6
CONTINUOUS
 62
     7
 10
-34.20542405685319
 20
-556.39675314429087
 30
0.0
 40
2.0000000000004441
 50
170.09538287679291
 51
254.9999999999803
  0
ARC
  5
85E
  8
DATA
  6
CONTINUOUS
 62
     7
 10
-7.8209248023417768
 20
-444.0758643472065
 30
0.0
 40
12.16854983161277
 50
93.842144703966085
 51
178.1380859685249
  0
LINE
  5
85F
  8
DATA
  6
CONTINUOUS
 62
     7
 10
-30.55828971447681
 20
-461.40794008197821
 30
0.0
 11
-50.766049241772642
 21
-573.58737227409722
 31
0.0
  0
ARC
  5
860
  8
DATA
  6
CONTINUOUS
 62
     7
 10
-28.250226067422091
 20
-460.8323431863609
 30
0.0
 40
2.0629842472981159
 50
106.13058234304199
 51
157.1160538347219
  0
ARC
  5
861
  8
DATA
  6
CONTINUOUS
 62
     7
 10
-20.890344005697671
 20
-463.51777963911508
 30
0.0
 40
9.8954836761403762
 50
159.36277520270491
 51
167.68932773801879
  0
ARC
  5
862
  8
DATA
  6
CONTINUOUS
 62
     7
 10
-48.305943732802007
 20
-574.03221031735927
 30
0.0
 40
2.5000000000001279
 50
169.75048490735969
 51
255.00000048068219
  0
LINE
  5
863
  8
DATA
  6
CONTINUOUS
 62
     7
 10
-30.21719591254897
 20
-522.27976232415085
 30
0.0
 11
-36.175614993296229
 21
-556.05273617674482
 31
0.0
  0
LINE
  5
864
  8
DATA
  6
CONTINUOUS
 62
     7
 10
0.0040562671210864
 20
-431.46043985309552
 30
0.0
 11
0.0040562671210864
 21
-590.27472428276849
 31
0.0
  0
ENDSEC
  0
EOF
